  0
SECTION
  2
HEADER
  9
$ACADVER
  1
AC1012
  9
$DWGCODEPAGE
  3
ansi_1252
  9
$INSBASE
 10
0.0
 20
0.0
 30
0.0
  9
$EXTMIN
 10
0.0
 20
0.0
 30
0.0
  9
$EXTMAX
 10
11.0
 20
8.5
 30
0.0
  9
$LIMMIN
 10
0.0
 20
0.0
  9
$LIMMAX
 10
11.0
 20
8.5
  9
$ORTHOMODE
 70
     0
  9
$REGENMODE
 70
     1
  9
$FILLMODE
 70
     1
  9
$QTEXTMODE
 70
     0
  9
$MIRRTEXT
 70
     1
  9
$DRAGMODE
 70
     2
  9
$LTSCALE
 40
1.0
  9
$OSMODE
 70
    37
  9
$ATTMODE
 70
     1
  9
$TEXTSIZE
 40
0.125
  9
$TRACEWID
 40
0.05
  9
$TEXTSTYLE
  7
STANDARD
  9
$CLAYER
  8
0
  9
$CELTYPE
  6
BYLAYER
  9
$CECOLOR
 62
   256
  9
$CELTSCALE
 40
1.0
  9
$DELOBJ
 70
     1
  9
$DISPSILH
 70
     0
  9
$DIMSCALE
 40
1.0
  9
$DIMASZ
 40
0.13
  9
$DIMEXO
 40
0.05
  9
$DIMDLI
 40
0.38
  9
$DIMRND
 40
0.0
  9
$DIMDLE
 40
0.0
  9
$DIMEXE
 40
0.125
  9
$DIMTP
 40
0.0
  9
$DIMTM
 40
0.0
  9
$DIMTXT
 40
0.125
  9
$DIMCEN
 40
0.09
  9
$DIMTSZ
 40
0.0
  9
$DIMTOL
 70
     0
  9
$DIMLIM
 70
     0
  9
$DIMTIH
 70
     1
  9
$DIMTOH
 70
     1
  9
$DIMSE1
 70
     0
  9
$DIMSE2
 70
     0
  9
$DIMTAD
 70
     0
  9
$DIMZIN
 70
     0
  9
$DIMBLK
  1

  9
$DIMASO
 70
     1
  9
$DIMSHO
 70
     1
  9
$DIMPOST
  1

  9
$DIMAPOST
  1

  9
$DIMALT
 70
     0
  9
$DIMALTD
 70
     2
  9
$DIMALTF
 40
25.4
  9
$DIMLFAC
 40
0.5
  9
$DIMTOFL
 70
     0
  9
$DIMTVP
 40
0.0
  9
$DIMTIX
 70
     0
  9
$DIMSOXD
 70
     0
  9
$DIMSAH
 70
     0
  9
$DIMBLK1
  1

  9
$DIMBLK2
  1

  9
$DIMSTYLE
  2
STANDARD
  9
$DIMCLRD
 70
     0
  9
$DIMCLRE
 70
     0
  9
$DIMCLRT
 70
     0
  9
$DIMTFAC
 40
1.0
  9
$DIMGAP
 40
0.06
  9
$DIMJUST
 70
     0
  9
$DIMSD1
 70
     0
  9
$DIMSD2
 70
     0
  9
$DIMTOLJ
 70
     1
  9
$DIMTZIN
 70
     0
  9
$DIMALTZ
 70
     0
  9
$DIMALTTZ
 70
     0
  9
$DIMFIT
 70
     3
  9
$DIMUPT
 70
     0
  9
$DIMUNIT
 70
     2
  9
$DIMDEC
 70
     3
  9
$DIMTDEC
 70
     3
  9
$DIMALTU
 70
     2
  9
$DIMALTTD
 70
     2
  9
$DIMTXSTY
  7
STANDARD
  9
$DIMAUNIT
 70
     0
  9
$LUNITS
 70
     2
  9
$LUPREC
 70
     2
  9
$SKETCHINC
 40
0.1
  9
$FILLETRAD
 40
0.5
  9
$AUNITS
 70
     0
  9
$AUPREC
 70
     2
  9
$MENU
  1
.
  9
$ELEVATION
 40
0.0
  9
$PELEVATION
 40
0.0
  9
$THICKNESS
 40
0.0
  9
$LIMCHECK
 70
     0
  9
$CHAMFERA
 40
0.5
  9
$CHAMFERB
 40
0.5
  9
$CHAMFERC
 40
1.0
  9
$CHAMFERD
 40
0.0
  9
$SKPOLY
 70
     0
  9
$TDCREATE
 40
2455784.012754085
  9
$TDUPDATE
 40
2455784.012754097
  9
$TDINDWG
 40
0.0000000116
  9
$TDUSRTIMER
 40
0.0000000116
  9
$USRTIMER
 70
     1
  9
$ANGBASE
 50
0.0
  9
$ANGDIR
 70
     0
  9
$PDMODE
 70
     0
  9
$PDSIZE
 40
-1.0
  9
$PLINEWID
 40
0.0
  9
$COORDS
 70
     1
  9
$SPLFRAME
 70
     0
  9
$SPLINETYPE
 70
     6
  9
$SPLINESEGS
 70
     8
  9
$ATTDIA
 70
     0
  9
$ATTREQ
 70
     1
  9
$HANDLING
 70
     1
  9
$HANDSEED
  5
431
  9
$SURFTAB1
 70
     6
  9
$SURFTAB2
 70
     6
  9
$SURFTYPE
 70
     6
  9
$SURFU
 70
     6
  9
$SURFV
 70
     6
  9
$UCSNAME
  2

  9
$UCSORG
 10
0.0
 20
0.0
 30
0.0
  9
$UCSXDIR
 10
1.0
 20
0.0
 30
0.0
  9
$UCSYDIR
 10
0.0
 20
1.0
 30
0.0
  9
$PUCSNAME
  2

  9
$PUCSORG
 10
0.0
 20
0.0
 30
0.0
  9
$PUCSXDIR
 10
1.0
 20
0.0
 30
0.0
  9
$PUCSYDIR
 10
0.0
 20
1.0
 30
0.0
  9
$USERI1
 70
     0
  9
$USERI2
 70
     0
  9
$USERI3
 70
     0
  9
$USERI4
 70
     0
  9
$USERI5
 70
     0
  9
$USERR1
 40
0.0
  9
$USERR2
 40
0.0
  9
$USERR3
 40
0.0
  9
$USERR4
 40
0.0
  9
$USERR5
 40
0.0
  9
$WORLDVIEW
 70
     1
  9
$SHADEDGE
 70
     3
  9
$SHADEDIF
 70
    70
  9
$TILEMODE
 70
     1
  9
$MAXACTVP
 70
    64
  9
$PINSBASE
 10
0.0
 20
0.0
 30
0.0
  9
$PLIMCHECK
 70
     0
  9
$PEXTMIN
 10
1.0000000000E+20
 20
1.0000000000E+20
 30
1.0000000000E+20
  9
$PEXTMAX
 10
-1.0000000000E+20
 20
-1.0000000000E+20
 30
-1.0000000000E+20
  9
$PLIMMIN
 10
0.0
 20
0.0
  9
$PLIMMAX
 10
12.0
 20
9.0
  9
$UNITMODE
 70
     0
  9
$VISRETAIN
 70
     1
  9
$PLINEGEN
 70
     0
  9
$PSLTSCALE
 70
     1
  9
$TREEDEPTH
 70
  3020
  9
$PICKSTYLE
 70
     1
  9
$CMLSTYLE
  2
STANDARD
  9
$CMLJUST
 70
     0
  9
$CMLSCALE
 40
1.0
  9
$SAVEIMAGES
 70
     1
  0
ENDSEC
  0
SECTION
  2
CLASSES
  0
CLASS
  1
ACDBDICTIONARYWDFLT
  2
AcDbDictionaryWithDefault
  3
ObjectDBX Classes
 90
    32768
280
     0
281
     0
  0
CLASS
  1
VISUALSTYLE
  2
AcDbVisualStyle
  3
ObjectDBX Classes
 90
     4095
280
     0
281
     0
  0
CLASS
  1
SCALE
  2
AcDbScale
  3
ObjectDBX Classes
 90
     1153
280
     0
281
     0
  0
CLASS
  1
DICTIONARYVAR
  2
AcDbDictionaryVar
  3
ObjectDBX Classes
 90
        0
280
     0
281
     0
  0
CLASS
  1
XRECORD
  2
AcDbXrecord
  3
AutoCAD 2000
 90
    32768
280
     0
281
     0
  0
CLASS
  1
LWPOLYLINE
  2
AcDbPolyline
  3
AutoCAD 2000
 90
    32768
280
     0
281
     1
  0
CLASS
  1
HATCH
  2
AcDbHatch
  3
AutoCAD 2000
 90
    32768
280
     0
281
     1
  0
CLASS
  1
ACDBPLACEHOLDER
  2
AcDbPlaceHolder
  3
ObjectDBX Classes
 90
        0
280
     0
281
     0
  0
CLASS
  1
LAYOUT
  2
AcDbLayout
  3
ObjectDBX Classes
 90
        0
280
     0
281
     0
  0
ENDSEC
  0
SECTION
  2
TABLES
  0
TABLE
  2
VPORT
  5
8
330
0
100
AcDbSymbolTable
 70
     1
  0
VPORT
  5
29
330
8
100
AcDbSymbolTableRecord
100
AcDbViewportTableRecord
  2
*ACTIVE
 70
     0
 10
0.0
 20
0.0
 11
1.0
 21
1.0
 12
5.5
 22
4.25
 13
0.0
 23
0.0
 14
0.5
 24
0.5
 15
0.5
 25
0.5
 16
0.0
 26
0.0
 36
1.0
 17
0.0
 27
0.0
 37
0.0
 40
8.5
 41
1.2941176471
 42
50.0
 43
0.0
 44
0.0
 50
0.0
 51
0.0
 71
     0
 72
  2000
 73
     1
 74
     3
 75
     0
 76
     0
 77
     0
 78
     0
  0
ENDTAB
  0
TABLE
  2
LTYPE
  5
5
330
0
100
AcDbSymbolTable
 70
     6
  0
LTYPE
  5
14
330
5
100
AcDbSymbolTableRecord
100
AcDbLinetypeTableRecord
  2
BYBLOCK
 70
     0
  3

 72
    65
 73
     0
 40
0.0
  0
LTYPE
  5
15
330
5
100
AcDbSymbolTableRecord
100
AcDbLinetypeTableRecord
  2
BYLAYER
 70
     0
  3

 72
    65
 73
     0
 40
0.0
  0
LTYPE
  5
16
330
5
100
AcDbSymbolTableRecord
100
AcDbLinetypeTableRecord
  2
CONTINUOUS
 70
     0
  3
Solid line
 72
    65
 73
     0
 40
0.0
  0
LTYPE
  5
3B
330
5
100
AcDbSymbolTableRecord
100
AcDbLinetypeTableRecord
  2
HIDDEN
 70
     0
  3
Hidden __ __ __ __ __ __ __ __ __ __ __ __ __ __
 72
    65
 73
     2
 40
0.075
 49
0.05
 74
     0
 49
-0.025
 74
     0
  0
LTYPE
  5
3C
330
5
100
AcDbSymbolTableRecord
100
AcDbLinetypeTableRecord
  2
PHANTOM
 70
     0
  3
Phantom ______  __  __  ______  __  __  ______
 72
    65
 73
     6
 40
0.5
 49
0.25
 74
     0
 49
-0.05
 74
     0
 49
0.05
 74
     0
 49
-0.05
 74
     0
 49
0.05
 74
     0
 49
-0.05
 74
     0
  0
LTYPE
  5
3D
330
5
100
AcDbSymbolTableRecord
100
AcDbLinetypeTableRecord
  2
CENTER
 70
     0
  3
Center ____ _ ____ _ ____ _ ____ _ ____ _ ____
 72
    65
 73
     4
 40
0.4
 49
0.25
 74
     0
 49
-0.05
 74
     0
 49
0.05
 74
     0
 49
-0.05
 74
     0
  0
LTYPE
  5
3E
330
5
100
AcDbSymbolTableRecord
100
AcDbLinetypeTableRecord
  2
CENTERX2
 70
     0
  3
Center (2x) ________  __  ________  __  _____
 72
    65
 73
     4
 40
0.8
 49
0.5
 74
     0
 49
-0.1
 74
     0
 49
0.1
 74
     0
 49
-0.1
 74
     0
  0
LTYPE
  5
3F
330
5
100
AcDbSymbolTableRecord
100
AcDbLinetypeTableRecord
  2
DOT2
 70
     0
  3
Dot (.5x) ........................................
 72
    65
 73
     2
 40
0.025
 49
0.0
 74
     0
 49
-0.025
 74
     0
  0
ENDTAB
  0
TABLE
  2
LAYER
  5
2
330
0
100
AcDbSymbolTable
 70
     2
  0
LAYER
  5
10
330
2
100
AcDbSymbolTableRecord
100
AcDbLayerTableRecord
  2
0
 70
     0
 62
     7
  6
CONTINUOUS
  0
LAYER
  5
40
330
2
100
AcDbSymbolTableRecord
100
AcDbLayerTableRecord
  2
FORMAT
 70
     0
 62
     7
  6
CONTINUOUS
  0
ENDTAB
  0
TABLE
  2
STYLE
  5
3
330
0
100
AcDbSymbolTable
 70
     4
  0
STYLE
  5
11
330
3
100
AcDbSymbolTableRecord
100
AcDbTextStyleTableRecord
  2
STANDARD
 70
     0
 40
0.0
 41
1.0
 50
0.0
 71
     0
 42
0.2
  3
txt
  4

  0
STYLE
  5
6E
330
3
100
AcDbSymbolTableRecord
100
AcDbTextStyleTableRecord
  2
SLDTEXTSTYLE0
 70
     0
 40
0.0
 41
0.75
 50
0.0
 71
     0
 42
0.2
  3
TXT
  4

  0
STYLE
  5
93
330
3
100
AcDbSymbolTableRecord
100
AcDbTextStyleTableRecord
  2
SLDTEXTSTYLE1
 70
     0
 40
0.0
 41
0.6875
 50
0.0
 71
     0
 42
0.2
  3
TXT
  4

  0
STYLE
  5
99
330
3
100
AcDbSymbolTableRecord
100
AcDbTextStyleTableRecord
  2
SLDTEXTSTYLE2
 70
     0
 40
0.0
 41
0.6944444444
 50
0.0
 71
     0
 42
0.2
  3
TXT
  4

  0
ENDTAB
  0
TABLE
  2
VIEW
  5
6
330
0
100
AcDbSymbolTable
 70
     0
  0
ENDTAB
  0
TABLE
  2
UCS
  5
7
330
0
100
AcDbSymbolTable
 70
     0
  0
ENDTAB
  0
TABLE
  2
APPID
  5
9
330
0
100
AcDbSymbolTable
 70
     1
  0
APPID
  5
12
330
9
100
AcDbSymbolTableRecord
100
AcDbRegAppTableRecord
  2
ACAD
 70
     0
  0
ENDTAB
  0
TABLE
  2
DIMSTYLE
  5
A
330
0
100
AcDbSymbolTable
 70
     1
  0
DIMSTYLE
105
27
330
A
100
AcDbSymbolTableRecord
100
AcDbDimStyleTableRecord
  2
STANDARD
 70
     0
  3

  4

  5

  6

  7

 40
1.0
 41
0.18
 42
0.0625
 43
0.38
 44
0.18
 45
0.0
 46
0.0
 47
0.0
 48
0.0
140
0.18
141
0.09
142
0.0
143
25.4
144
1.0
145
0.0
146
1.0
147
0.09
 71
     0
 72
     0
 73
     1
 74
     1
 75
     0
 76
     0
 77
     0
 78
     0
170
     0
171
     2
172
     0
173
     0
174
     0
175
     0
176
     0
177
     0
178
     0
270
     2
271
     4
272
     4
273
     2
274
     2
340
11
275
     0
280
     0
281
     0
282
     0
283
     1
284
     0
285
     0
286
     0
287
     3
288
     0
  0
ENDTAB
  0
TABLE
  2
BLOCK_RECORD
  5
1
330
0
100
AcDbSymbolTable
 70
     4
  0
BLOCK_RECORD
  5
1F
330
1
100
AcDbSymbolTableRecord
100
AcDbBlockTableRecord
  2
*MODEL_SPACE
  0
BLOCK_RECORD
  5
1B
330
1
100
AcDbSymbolTableRecord
100
AcDbBlockTableRecord
  2
*PAPER_SPACE
  0
BLOCK_RECORD
  5
A8
330
1
100
AcDbSymbolTableRecord
100
AcDbBlockTableRecord
  2
SW_NOTE_0
  0
BLOCK_RECORD
  5
AE
330
1
100
AcDbSymbolTableRecord
100
AcDbBlockTableRecord
  2
SW_NOTE_1
  0
BLOCK_RECORD
  5
C2
330
1
100
AcDbSymbolTableRecord
100
AcDbBlockTableRecord
  2
SW_NOTE_2
  0
ENDTAB
  0
ENDSEC
  0
SECTION
  2
BLOCKS
  0
BLOCK
  5
20
330
1F
100
AcDbEntity
  8
0
100
AcDbBlockBegin
  2
*MODEL_SPACE
 70
     0
 10
0.0
 20
0.0
 30
0.0
  3
*MODEL_SPACE
  1

  0
ENDBLK
  5
21
330
1F
100
AcDbEntity
  8
0
100
AcDbBlockEnd
  0
BLOCK
  5
1C
330
1B
100
AcDbEntity
 67
     1
  8
0
100
AcDbBlockBegin
  2
*PAPER_SPACE
 70
     0
 10
0.0
 20
0.0
 30
0.0
  3
*PAPER_SPACE
  1

  0
ENDBLK
  5
1D
330
1B
100
AcDbEntity
 67
     1
  8
0
100
AcDbBlockEnd
  0
BLOCK
  5
A9
330
A8
100
AcDbEntity
  8
0
100
AcDbBlockBegin
  2
SW_NOTE_0
 70
     0
 10
0.0
 20
0.0
 30
0.0
  3
SW_NOTE_0
  1

  0
MTEXT
  5
AB
330
A8
100
AcDbEntity
  8
0
  6
CONTINUOUS
 62
     0
100
AcDbMText
 10
0.0
 20
0.0773440644
 30
0.0
 40
0.06
 41
0.0
 71
     1
 72
     1
  1
INTERPRET GEOMETRIC
  7
SLDTEXTSTYLE0
  0
MTEXT
  5
AC
330
A8
100
AcDbEntity
  8
0
  6
CONTINUOUS
 62
     0
100
AcDbMText
 10
0.0
 20
-0.0220260102
 30
0.0
 40
0.06
 41
0.0
 71
     1
 72
     1
  1
TOLERANCING PER:
  7
SLDTEXTSTYLE0
  0
ENDBLK
  5
AA
330
A8
100
AcDbEntity
  8
0
100
AcDbBlockEnd
  0
BLOCK
  5
AF
330
AE
100
AcDbEntity
  8
0
100
AcDbBlockBegin
  2
SW_NOTE_1
 70
     0
 10
0.0
 20
0.0
 30
0.0
  3
SW_NOTE_1
  1

  0
MTEXT
  5
B1
330
AE
100
AcDbEntity
  8
0
  6
CONTINUOUS
 62
     0
100
AcDbMText
 10
0.0
 20
0.0837894031
 30
0.0
 40
0.065
 41
0.0
 71
     1
 72
     1
  1
DIMENSIONS ARE IN INCHES
  7
SLDTEXTSTYLE0
  0
MTEXT
  5
B2
330
AE
100
AcDbEntity
  8
0
  6
CONTINUOUS
 62
     0
100
AcDbMText
 10
0.0
 20
-0.0205806729
 30
0.0
 40
0.065
 41
0.0
 71
     1
 72
     1
  1
TOLERANCES:
  7
SLDTEXTSTYLE0
  0
MTEXT
  5
B3
330
AE
100
AcDbEntity
  8
0
  6
CONTINUOUS
 62
     0
100
AcDbMText
 10
0.0
 20
-0.1249507489
 30
0.0
 40
0.065
 41
0.0
 71
     1
 72
     1
  1
FRACTIONAL
  7
SLDTEXTSTYLE0
  0
MTEXT
  5
B4
330
AE
100
AcDbEntity
  8
0
  6
CONTINUOUS
 62
     0
100
AcDbMText
 10
0.5175850875
 20
-0.1249507489
 30
0.0
 40
0.065
 41
0.0
 71
     1
 72
     1
  1
%%p
  7
SLDTEXTSTYLE0
  0
MTEXT
  5
B5
330
AE
100
AcDbEntity
  8
0
  6
CONTINUOUS
 62
     0
100
AcDbMText
 10
0.0
 20
-0.2293208248
 30
0.0
 40
0.065
 41
0.0
 71
     1
 72
     1
  1
ANGULAR: MACH
  7
SLDTEXTSTYLE0
  0
MTEXT
  5
B6
330
AE
100
AcDbEntity
  8
0
  6
CONTINUOUS
 62
     0
100
AcDbMText
 10
0.7233732769
 20
-0.2293208248
 30
0.0
 40
0.065
 41
0.0
 71
     1
 72
     1
  1
%%p
  7
SLDTEXTSTYLE0
  0
MTEXT
  5
B7
330
AE
100
AcDbEntity
  8
0
  6
CONTINUOUS
 62
     0
100
AcDbMText
 10
0.7852857683
 20
-0.2293208248
 30
0.0
 40
0.065
 41
0.0
 71
     1
 72
     1
  1
     BEND 
  7
SLDTEXTSTYLE0
  0
MTEXT
  5
B8
330
AE
100
AcDbEntity
  8
0
  6
CONTINUOUS
 62
     0
100
AcDbMText
 10
1.14784136
 20
-0.2293208248
 30
0.0
 40
0.065
 41
0.0
 71
     1
 72
     1
  1
%%p
  7
SLDTEXTSTYLE0
  0
MTEXT
  5
B9
330
AE
100
AcDbEntity
  8
0
  6
CONTINUOUS
 62
     0
100
AcDbMText
 10
0.0
 20
-0.3336909008
 30
0.0
 40
0.065
 41
0.0
 71
     1
 72
     1
  1
TWO PLACE DECIMAL    
  7
SLDTEXTSTYLE0
  0
MTEXT
  5
BA
330
AE
100
AcDbEntity
  8
0
  6
CONTINUOUS
 62
     0
100
AcDbMText
 10
0.9794349188
 20
-0.3336909008
 30
0.0
 40
0.065
 41
0.0
 71
     1
 72
     1
  1
%%p
  7
SLDTEXTSTYLE0
  0
MTEXT
  5
BB
330
AE
100
AcDbEntity
  8
0
  6
CONTINUOUS
 62
     0
100
AcDbMText
 10
0.0
 20
-0.4380609768
 30
0.0
 40
0.065
 41
0.0
 71
     1
 72
     1
  1
THREE PLACE DECIMAL  
  7
SLDTEXTSTYLE0
  0
MTEXT
  5
BC
330
AE
100
AcDbEntity
  8
0
  6
CONTINUOUS
 62
     0
100
AcDbMText
 10
0.9738038639
 20
-0.4380609768
 30
0.0
 40
0.065
 41
0.0
 71
     1
 72
     1
  1
%%p
  7
SLDTEXTSTYLE0
  0
ENDBLK
  5
B0
330
AE
100
AcDbEntity
  8
0
100
AcDbBlockEnd
  0
BLOCK
  5
C3
330
C2
100
AcDbEntity
  8
0
100
AcDbBlockBegin
  2
SW_NOTE_2
 70
     0
 10
0.0
 20
0.0
 30
0.0
  3
SW_NOTE_2
  1

  0
MTEXT
  5
C5
330
C2
100
AcDbEntity
  8
0
  6
CONTINUOUS
 62
     0
100
AcDbMText
 10
0.0
 20
0.0773440644
 30
0.0
 40
0.06
 41
0.0
 71
     1
 72
     1
  1
THE INFORMATION CONTAINED IN THIS
  7
SLDTEXTSTYLE0
  0
MTEXT
  5
C6
330
C2
100
AcDbEntity
  8
0
  6
CONTINUOUS
 62
     0
100
AcDbMText
 10
0.0
 20
-0.0220260102
 30
0.0
 40
0.06
 41
0.0
 71
     1
 72
     1
  1
DRAWING IS THE SOLE PROPERTY OF
  7
SLDTEXTSTYLE0
  0
MTEXT
  5
C7
330
C2
100
AcDbEntity
  8
0
  6
CONTINUOUS
 62
     0
100
AcDbMText
 10
0.0
 20
-0.1213960848
 30
0.0
 40
0.06
 41
0.0
 71
     1
 72
     1
  1
Candy Controls.  ANY 
  7
SLDTEXTSTYLE0
  0
MTEXT
  5
C8
330
C2
100
AcDbEntity
  8
0
  6
CONTINUOUS
 62
     0
100
AcDbMText
 10
0.0
 20
-0.2207661593
 30
0.0
 40
0.06
 41
0.0
 71
     1
 72
     1
  1
REPRODUCTION IN PART OR AS A WHOLE
  7
SLDTEXTSTYLE0
  0
MTEXT
  5
C9
330
C2
100
AcDbEntity
  8
0
  6
CONTINUOUS
 62
     0
100
AcDbMText
 10
0.0
 20
-0.3201362339
 30
0.0
 40
0.06
 41
0.0
 71
     1
 72
     1
  1
WITHOUT THE WRITTEN PERMISSION OF
  7
SLDTEXTSTYLE0
  0
MTEXT
  5
CA
330
C2
100
AcDbEntity
  8
0
  6
CONTINUOUS
 62
     0
100
AcDbMText
 10
0.0
 20
-0.4195063085
 30
0.0
 40
0.06
 41
0.0
 71
     1
 72
     1
  1
Candy Controls IS 
  7
SLDTEXTSTYLE0
  0
MTEXT
  5
CB
330
C2
100
AcDbEntity
  8
0
  6
CONTINUOUS
 62
     0
100
AcDbMText
 10
0.0
 20
-0.518876383
 30
0.0
 40
0.06
 41
0.0
 71
     1
 72
     1
  1
PROHIBITED.
  7
SLDTEXTSTYLE0
  0
ENDBLK
  5
C4
330
C2
100
AcDbEntity
  8
0
100
AcDbBlockEnd
  0
ENDSEC
  0
SECTION
  2
ENTITIES
  0
LINE
  5
41
330
1F
100
AcDbEntity
  8
0
  6
CONTINUOUS
 62
     7
100
AcDbLine
 10
0.329927
 20
8.1920731707
 30
0.0
 11
10.629927
 21
8.1920731707
 31
0.0
  0
LINE
  5
42
330
1F
100
AcDbEntity
  8
0
  6
CONTINUOUS
 62
     7
100
AcDbLine
 10
0.329927
 20
8.1920731707
 30
0.0
 11
0.329927
 21
0.3920731707
 31
0.0
  0
LINE
  5
43
330
1F
100
AcDbEntity
  8
0
  6
CONTINUOUS
 62
     7
100
AcDbLine
 10
10.629927
 20
0.3920731707
 30
0.0
 11
0.329927
 21
0.3920731707
 31
0.0
  0
LINE
  5
44
330
1F
100
AcDbEntity
  8
0
  6
CONTINUOUS
 62
     7
100
AcDbLine
 10
10.629927
 20
0.3920731707
 30
0.0
 11
10.629927
 21
8.1920731707
 31
0.0
  0
LINE
  5
45
330
1F
100
AcDbEntity
  8
0
  6
CONTINUOUS
 62
     7
100
AcDbLine
 10
4.7981841288
 20
0.3920731707
 30
0.0
 11
4.7981841288
 21
2.3564211366
 31
0.0
  0
LINE
  5
46
330
1F
100
AcDbEntity
  8
0
  6
CONTINUOUS
 62
     7
100
AcDbLine
 10
2.8210345579
 20
2.3564211366
 30
0.0
 11
10.629927
 21
2.3564211366
 31
0.0
  0
LINE
  5
47
330
1F
100
AcDbEntity
  8
0
  6
CONTINUOUS
 62
     7
100
AcDbLine
 10
6.1796352514
 20
2.3564211366
 30
0.0
 11
6.1796352514
 21
0.3920731707
 31
0.0
  0
LINE
  5
48
330
1F
100
AcDbEntity
  8
0
  6
CONTINUOUS
 62
     7
100
AcDbLine
 10
7.8712070044
 20
2.3564211366
 30
0.0
 11
7.8712070044
 21
0.3920731707
 31
0.0
  0
LINE
  5
49
330
1F
100
AcDbEntity
  8
0
  6
CONTINUOUS
 62
     7
100
AcDbLine
 10
7.8712070044
 20
0.6049590101
 30
0.0
 11
10.629927
 21
0.6049590101
 31
0.0
  0
LINE
  5
4A
330
1F
100
AcDbEntity
  8
0
  6
CONTINUOUS
 62
     7
100
AcDbLine
 10
7.8712070044
 20
1.1119362457
 30
0.0
 11
10.629927
 21
1.1119362457
 31
0.0
  0
LINE
  5
4B
330
1F
100
AcDbEntity
  8
0
  6
CONTINUOUS
 62
     7
100
AcDbLine
 10
7.8712070044
 20
1.9892703708
 30
0.0
 11
10.629927
 21
1.9892703708
 31
0.0
  0
LINE
  5
4C
330
1F
100
AcDbEntity
  8
0
  6
CONTINUOUS
 62
     7
100
AcDbLine
 10
8.266751752
 20
1.1119362457
 30
0.0
 11
8.266751752
 21
0.6049590101
 31
0.0
  0
LINE
  5
4D
330
1F
100
AcDbEntity
  8
0
  6
CONTINUOUS
 62
     7
100
AcDbLine
 10
8.6943435176
 20
0.6049590101
 30
0.0
 11
8.6943435176
 21
0.3920731707
 31
0.0
  0
LINE
  5
4E
330
1F
100
AcDbEntity
  8
0
  6
CONTINUOUS
 62
     7
100
AcDbLine
 10
10.0579917045
 20
1.1119362457
 30
0.0
 11
10.0579917045
 21
0.6049590101
 31
0.0
  0
LINE
  5
4F
330
1F
100
AcDbEntity
  8
0
  6
CONTINUOUS
 62
     7
100
AcDbLine
 10
9.6662556631
 20
0.6049590101
 30
0.0
 11
9.6662556631
 21
0.3920731707
 31
0.0
  0
LINE
  5
50
330
1F
100
AcDbEntity
  8
0
  6
CONTINUOUS
 62
     7
100
AcDbLine
 10
2.8210345579
 20
0.5883479999
 30
0.0
 11
6.1796352514
 21
0.5883479999
 31
0.0
  0
LINE
  5
51
330
1F
100
AcDbEntity
  8
0
  6
CONTINUOUS
 62
     7
100
AcDbLine
 10
6.1796352514
 20
1.7939211366
 30
0.0
 11
7.8712070044
 21
1.7939211366
 31
0.0
  0
LINE
  5
52
330
1F
100
AcDbEntity
  8
0
  6
CONTINUOUS
 62
     7
100
AcDbLine
 10
6.1796352514
 20
1.9814211366
 30
0.0
 11
7.8712070044
 21
1.9814211366
 31
0.0
  0
LINE
  5
53
330
1F
100
AcDbEntity
  8
0
  6
CONTINUOUS
 62
     7
100
AcDbLine
 10
6.1796352514
 20
2.1689211366
 30
0.0
 11
7.8712070044
 21
2.1689211366
 31
0.0
  0
LINE
  5
54
330
1F
100
AcDbEntity
  8
0
  6
CONTINUOUS
 62
     7
100
AcDbLine
 10
7.8712070044
 20
1.2314211366
 30
0.0
 11
6.1796352514
 21
1.2314211366
 31
0.0
  0
LINE
  5
55
330
1F
100
AcDbEntity
  8
0
  6
CONTINUOUS
 62
     7
100
AcDbLine
 10
7.3921580388
 20
2.3564211366
 30
0.0
 11
7.3921580388
 21
1.2314211366
 31
0.0
  0
LINE
  5
56
330
1F
100
AcDbEntity
  8
0
  6
CONTINUOUS
 62
     7
100
AcDbLine
 10
6.9236308342
 20
2.3564211366
 30
0.0
 11
6.9236308342
 21
1.2314211366
 31
0.0
  0
LINE
  5
57
330
1F
100
AcDbEntity
  8
0
  6
CONTINUOUS
 62
     7
100
AcDbLine
 10
4.7981841288
 20
0.8557965305
 30
0.0
 11
6.1796352514
 21
0.8557965305
 31
0.0
  0
LINE
  5
58
330
1F
100
AcDbEntity
  8
0
  6
CONTINUOUS
 62
     7
100
AcDbLine
 10
4.7981841288
 20
1.1257965305
 30
0.0
 11
6.1796352514
 21
1.1257965305
 31
0.0
  0
LINE
  5
59
330
1F
100
AcDbEntity
  8
0
  6
CONTINUOUS
 62
     7
100
AcDbLine
 10
2.8210345579
 20
0.3920731707
 30
0.0
 11
2.8210345579
 21
2.3564211366
 31
0.0
  0
LINE
  5
5A
330
1F
100
AcDbEntity
  8
0
  6
CONTINUOUS
 62
     7
100
AcDbLine
 10
2.8210345579
 20
1.1064211366
 30
0.0
 11
4.7981841288
 21
1.1064211366
 31
0.0
  0
LINE
  5
5B
330
1F
100
AcDbEntity
  8
0
  6
CONTINUOUS
 62
     7
100
AcDbLine
 10
2.8210345579
 20
1.3564211366
 30
0.0
 11
4.7981841288
 21
1.3564211366
 31
0.0
  0
LINE
  5
5C
330
1F
100
AcDbEntity
  8
0
  6
CONTINUOUS
 62
     7
100
AcDbLine
 10
2.8210345579
 20
1.6064211366
 30
0.0
 11
4.7981841288
 21
1.6064211366
 31
0.0
  0
LINE
  5
5D
330
1F
100
AcDbEntity
  8
0
  6
CONTINUOUS
 62
     7
100
AcDbLine
 10
2.8210345579
 20
1.8564211366
 30
0.0
 11
4.7981841288
 21
1.8564211366
 31
0.0
  0
LINE
  5
5E
330
1F
100
AcDbEntity
  8
0
  6
CONTINUOUS
 62
     7
100
AcDbLine
 10
3.8190146875
 20
2.3564211366
 30
0.0
 11
3.8190146875
 21
0.5883479999
 31
0.0
  0
LINE
  5
5F
330
1F
100
AcDbEntity
  8
0
  6
CONTINUOUS
 62
     7
100
AcDbLine
 10
6.1796352514
 20
2.2020813496
 30
0.0
 11
4.7981841288
 21
2.2020813496
 31
0.0
  0
LINE
  5
60
330
1F
100
AcDbEntity
  8
0
  6
CONTINUOUS
 62
     7
100
AcDbLine
 10
7.8712070044
 20
1.6064211366
 30
0.0
 11
6.1796352514
 21
1.6064211366
 31
0.0
  0
LINE
  5
61
330
1F
100
AcDbEntity
  8
0
  6
CONTINUOUS
 62
     7
100
AcDbLine
 10
7.8712070044
 20
1.4189211366
 30
0.0
 11
6.1796352514
 21
1.4189211366
 31
0.0
  0
LINE
  5
62
330
1F
100
AcDbEntity
  8
0
  6
CONTINUOUS
 62
     7
100
AcDbLine
 10
2.8210345579
 20
2.1064211366
 30
0.0
 11
4.7981841288
 21
2.1064211366
 31
0.0
  0
LINE
  5
63
330
1F
100
AcDbEntity
  8
0
  6
CONTINUOUS
 62
     7
100
AcDbLine
 10
4.7981841288
 20
1.3957965305
 30
0.0
 11
6.1796352514
 21
1.3957965305
 31
0.0
  0
LINE
  5
64
330
1F
100
AcDbEntity
  8
0
  6
CONTINUOUS
 62
     7
100
AcDbLine
 10
2.8210345579
 20
0.8564211366
 30
0.0
 11
4.7981841288
 21
0.8564211366
 31
0.0
  0
LINE
  5
65
330
1F
100
AcDbEntity
  8
0
  6
CONTINUOUS
 62
     7
100
AcDbLine
 10
1.1838252943
 20
0.3920731707
 30
0.0
 11
1.1838252943
 21
1.3064211366
 31
0.0
  0
LINE
  5
66
330
1F
100
AcDbEntity
  8
0
  6
CONTINUOUS
 62
     7
100
AcDbLine
 10
2.8210345579
 20
1.3064211366
 30
0.0
 11
1.1838252943
 21
1.3064211366
 31
0.0
  0
LINE
  5
67
330
1F
100
AcDbEntity
  8
0
  6
CONTINUOUS
 62
     7
100
AcDbLine
 10
8.660927
 20
0.3920731707
 30
0.0
 11
8.660927
 21
0.3072739649
 31
0.0
  0
LINE
  5
68
330
1F
100
AcDbEntity
  8
0
  6
CONTINUOUS
 62
     7
100
AcDbLine
 10
6.692177
 20
0.3920731707
 30
0.0
 11
6.692177
 21
0.3072739649
 31
0.0
  0
LINE
  5
69
330
1F
100
AcDbEntity
  8
0
  6
CONTINUOUS
 62
     7
100
AcDbLine
 10
4.723427
 20
0.3920731707
 30
0.0
 11
4.723427
 21
0.3072739649
 31
0.0
  0
LINE
  5
6A
330
1F
100
AcDbEntity
  8
0
  6
CONTINUOUS
 62
     7
100
AcDbLine
 10
2.754677
 20
0.3920731707
 30
0.0
 11
2.754677
 21
0.3072739649
 31
0.0
  0
LINE
  5
6B
330
1F
100
AcDbEntity
  8
0
  6
CONTINUOUS
 62
     7
100
AcDbLine
 10
2.754677
 20
0.3920731707
 30
0.0
 11
2.7672319738
 21
0.3575
 31
0.0
  0
LINE
  5
6C
330
1F
100
AcDbEntity
  8
0
  6
CONTINUOUS
 62
     7
100
AcDbLine
 10
2.7672319738
 20
0.3575
 30
0.0
 11
2.7414258825
 21
0.3575
 31
0.0
  0
LINE
  5
6D
330
1F
100
AcDbEntity
  8
0
  6
CONTINUOUS
 62
     7
100
AcDbLine
 10
2.7414258825
 20
0.3575
 30
0.0
 11
2.754677
 21
0.3920731707
 31
0.0
  0
MTEXT
  5
91
330
1F
100
AcDbEntity
  8
0
  6
CONTINUOUS
 62
     7
100
AcDbMText
 10
4.9775846961
 20
0.5178452352
 30
0.0
 40
0.0625
 41
0.0
 71
     1
 72
     1
  1
DO NOT SCALE DRAWING
  7
SLDTEXTSTYLE0
  0
MTEXT
  5
92
330
1F
100
AcDbEntity
  8
0
  6
CONTINUOUS
 62
     7
100
AcDbMText
 10
8.5272103521
 20
0.9417064595
 30
0.0
 40
0.125
 41
0.0
 71
     1
 72
     1
  1
CL2-075_CLAMP
  7
SLDTEXTSTYLE0
  0
MTEXT
  5
94
330
1F
100
AcDbEntity
  8
0
  6
CONTINUOUS
 62
     7
100
AcDbMText
 10
9.7571278483
 20
0.5524239532
 30
0.0
 40
0.1
 41
0.0
 71
     1
 72
     1
  1
SHEET 1 OF 1
  7
SLDTEXTSTYLE1
  0
MTEXT
  5
95
330
1F
100
AcDbEntity
  8
0
  6
CONTINUOUS
 62
     7
100
AcDbMText
 10
4.8448077858
 20
2.3132954224
 30
0.0
 40
0.07
 41
0.0
 71
     1
 72
     1
  1
UNLESS OTHERWISE SPECIFIED:
  7
SLDTEXTSTYLE0
  0
MTEXT
  5
96
330
1F
100
AcDbEntity
  8
0
  6
CONTINUOUS
 62
     7
100
AcDbMText
 10
7.9586139647
 20
0.5520987879
 30
0.0
 40
0.1
 41
0.0
 71
     1
 72
     1
  1
SCALE: 2:1
  7
SLDTEXTSTYLE0
  0
MTEXT
  5
97
330
1F
100
AcDbEntity
  8
0
  6
CONTINUOUS
 62
     7
100
AcDbMText
 10
8.7023691647
 20
0.5486763345
 30
0.0
 40
0.1
 41
0.0
 71
     1
 72
     1
  1
WEIGHT: 
  7
SLDTEXTSTYLE0
  0
MTEXT
  5
98
330
1F
100
AcDbEntity
  8
0
  6
CONTINUOUS
 62
     7
100
AcDbMText
 10
10.2277580983
 20
1.081966299
 30
0.0
 40
0.1
 41
0.0
 71
     1
 72
     1
  1
REV
  7
SLDTEXTSTYLE0
  0
MTEXT
  5
9A
330
1F
100
AcDbEntity
  8
0
  6
CONTINUOUS
 62
     7
100
AcDbMText
 10
8.2984570898
 20
1.0858725293
 30
0.0
 40
0.1
 41
0.0
 71
     1
 72
     1
  1
DWG.  NO.
  7
SLDTEXTSTYLE2
  0
MTEXT
  5
9B
330
1F
100
AcDbEntity
  8
0
  6
CONTINUOUS
 62
     7
100
AcDbMText
 10
7.9598482632
 20
0.9442140768
 30
0.0
 40
0.25
 41
0.0
 71
     1
 72
     1
  1
A
  7
SLDTEXTSTYLE0
  0
MTEXT
  5
9C
330
1F
100
AcDbEntity
  8
0
  6
CONTINUOUS
 62
     7
100
AcDbMText
 10
7.9519581822
 20
1.0872713483
 30
0.0
 40
0.1
 41
0.0
 71
     1
 72
     1
  1
SIZE
  7
SLDTEXTSTYLE0
  0
MTEXT
  5
9D
330
1F
100
AcDbEntity
  8
0
  6
CONTINUOUS
 62
     7
100
AcDbMText
 10
7.9170704177
 20
1.9547881128
 30
0.0
 40
0.1
 41
0.0
 71
     1
 72
     1
  1
TITLE:
  7
SLDTEXTSTYLE0
  0
MTEXT
  5
9E
330
1F
100
AcDbEntity
  8
0
  6
CONTINUOUS
 62
     7
100
AcDbMText
 10
7.0363774929
 20
2.2906161274
 30
0.0
 40
0.065
 41
0.0
 71
     1
 72
     1
  1
NAME
  7
SLDTEXTSTYLE0
  0
MTEXT
  5
9F
330
1F
100
AcDbEntity
  8
0
  6
CONTINUOUS
 62
     7
100
AcDbMText
 10
7.5281510634
 20
2.2888799118
 30
0.0
 40
0.065
 41
0.0
 71
     1
 72
     1
  1
DATE
  7
SLDTEXTSTYLE0
  0
MTEXT
  5
A0
330
1F
100
AcDbEntity
  8
0
  6
CONTINUOUS
 62
     7
100
AcDbMText
 10
6.2277147029
 20
1.1876913145
 30
0.0
 40
0.065
 41
0.0
 71
     1
 72
     1
  1
COMMENTS:
  7
SLDTEXTSTYLE0
  0
MTEXT
  5
A1
330
1F
100
AcDbEntity
  8
0
  6
CONTINUOUS
 62
     7
100
AcDbMText
 10
6.2268411461
 20
1.3536101679
 30
0.0
 40
0.065
 41
0.0
 71
     1
 72
     1
  1
Q.A.
  7
SLDTEXTSTYLE0
  0
MTEXT
  5
A2
330
1F
100
AcDbEntity
  8
0
  6
CONTINUOUS
 62
     7
100
AcDbMText
 10
6.2284654509
 20
1.5395328424
 30
0.0
 40
0.065
 41
0.0
 71
     1
 72
     1
  1
MFG APPR.
  7
SLDTEXTSTYLE0
  0
MTEXT
  5
A3
330
1F
100
AcDbEntity
  8
0
  6
CONTINUOUS
 62
     7
100
AcDbMText
 10
6.2235171344
 20
1.7267501785
 30
0.0
 40
0.065
 41
0.0
 71
     1
 72
     1
  1
ENG APPR.
  7
SLDTEXTSTYLE0
  0
MTEXT
  5
A4
330
1F
100
AcDbEntity
  8
0
  6
CONTINUOUS
 62
     7
100
AcDbMText
 10
6.2264103951
 20
1.9092699088
 30
0.0
 40
0.065
 41
0.0
 71
     1
 72
     1
  1
CHECKED
  7
SLDTEXTSTYLE0
  0
MTEXT
  5
A5
330
1F
100
AcDbEntity
  8
0
  6
CONTINUOUS
 62
     7
100
AcDbMText
 10
6.2242794356
 20
2.1016301232
 30
0.0
 40
0.065
 41
0.0
 71
     1
 72
     1
  1
DRAWN
  7
SLDTEXTSTYLE0
  0
MTEXT
  5
A6
330
1F
100
AcDbEntity
  8
0
  6
CONTINUOUS
 62
     7
100
AcDbMText
 10
4.8208600979
 20
0.834523235
 30
0.0
 40
0.06
 41
0.0
 71
     1
 72
     1
  1
FINISH
  7
SLDTEXTSTYLE0
  0
MTEXT
  5
A7
330
1F
100
AcDbEntity
  8
0
  6
CONTINUOUS
 62
     7
100
AcDbMText
 10
4.8181240648
 20
1.1028217587
 30
0.0
 40
0.06
 41
0.0
 71
     1
 72
     1
  1
MATERIAL
  7
SLDTEXTSTYLE0
  0
INSERT
  5
AD
330
1F
100
AcDbEntity
  8
0
  6
CONTINUOUS
 62
     7
100
AcDbBlockReference
  2
SW_NOTE_0
 10
4.8231926633
 20
1.2646542947
 30
0.0
  0
INSERT
  5
BD
330
1F
100
AcDbEntity
  8
0
  6
CONTINUOUS
 62
     7
100
AcDbBlockReference
  2
SW_NOTE_1
 10
4.8353339353
 20
2.0049168724
 30
0.0
  0
MTEXT
  5
BE
330
1F
100
AcDbEntity
  8
0
  6
CONTINUOUS
 62
     7
100
AcDbMText
 10
3.5531400086
 20
0.5200091997
 30
0.0
 40
0.0625
 41
0.0
 71
     1
 72
     1
  1
APPLICATION
  7
SLDTEXTSTYLE0
  0
MTEXT
  5
BF
330
1F
100
AcDbEntity
  8
0
  6
CONTINUOUS
 62
     7
100
AcDbMText
 10
4.1005607758
 20
0.7502454275
 30
0.0
 40
0.0625
 41
0.0
 71
     1
 72
     1
  1
USED ON
  7
SLDTEXTSTYLE0
  0
MTEXT
  5
C0
330
1F
100
AcDbEntity
  8
0
  6
CONTINUOUS
 62
     7
100
AcDbMText
 10
3.1040019536
 20
0.7492094783
 30
0.0
 40
0.0625
 41
0.0
 71
     1
 72
     1
  1
NEXT ASSY
  7
SLDTEXTSTYLE0
  0
MTEXT
  5
C1
330
1F
100
AcDbEntity
  8
0
  6
CONTINUOUS
 62
     7
100
AcDbMText
 10
1.3712489489
 20
1.2496672684
 30
0.0
 40
0.06
 41
0.0
 71
     1
 72
     1
  1
PROPRIETARY AND CONFIDENTIAL
  7
SLDTEXTSTYLE0
  0
INSERT
  5
CC
330
1F
100
AcDbEntity
  8
0
  6
CONTINUOUS
 62
     7
100
AcDbBlockReference
  2
SW_NOTE_2
 10
1.2226209074
 20
1.0313492921
 30
0.0
  0
MTEXT
  5
CD
330
1F
100
AcDbEntity
  8
0
  6
CONTINUOUS
 62
     7
100
AcDbMText
 10
1.7387909509
 20
0.3105864247
 30
0.0
 40
0.09375
 41
0.0
 71
     1
 72
     1
  1
5
  7
SLDTEXTSTYLE0
  0
MTEXT
  5
CE
330
1F
100
AcDbEntity
  8
0
  6
CONTINUOUS
 62
     7
100
AcDbMText
 10
3.723800327
 20
0.3137237518
 30
0.0
 40
0.09375
 41
0.0
 71
     1
 72
     1
  1
4
  7
SLDTEXTSTYLE0
  0
MTEXT
  5
CF
330
1F
100
AcDbEntity
  8
0
  6
CONTINUOUS
 62
     7
100
AcDbMText
 10
5.6324457277
 20
0.3116191842
 30
0.0
 40
0.09375
 41
0.0
 71
     1
 72
     1
  1
3
  7
SLDTEXTSTYLE0
  0
MTEXT
  5
D0
330
1F
100
AcDbEntity
  8
0
  6
CONTINUOUS
 62
     7
100
AcDbMText
 10
7.6059721724
 20
0.3124391351
 30
0.0
 40
0.09375
 41
0.0
 71
     1
 72
     1
  1
2
  7
SLDTEXTSTYLE0
  0
MTEXT
  5
D1
330
1F
100
AcDbEntity
  8
0
  6
CONTINUOUS
 62
     7
100
AcDbMText
 10
9.6619921328
 20
0.301372012
 30
0.0
 40
0.09375
 41
0.0
 71
     1
 72
     1
  1
1
  7
SLDTEXTSTYLE0
  0
LINE
  5
D2
330
1F
100
AcDbEntity
  8
0
  6
CONTINUOUS
 62
     7
100
AcDbLine
 10
2.9526203554
 20
3.0067097825
 30
0.0
 11
3.7006518514
 21
3.0067097825
 31
0.0
  0
LINE
  5
D3
330
1F
100
AcDbEntity
  8
0
  6
CONTINUOUS
 62
     7
100
AcDbLine
 10
2.4450613002
 20
3.0067097825
 30
0.0
 11
2.9132502766
 21
3.0067097825
 31
0.0
  0
LINE
  5
D4
330
1F
100
AcDbEntity
  8
0
  6
CONTINUOUS
 62
     7
100
AcDbLine
 10
2.9132502766
 20
4.5106467903
 30
0.0
 11
2.4450613002
 21
4.5106467903
 31
0.0
  0
LINE
  5
D5
330
1F
100
AcDbEntity
  8
0
  6
CONTINUOUS
 62
     7
100
AcDbLine
 10
4.2082109065
 20
4.5106467903
 30
0.0
 11
2.9526203554
 21
4.5106467903
 31
0.0
  0
LINE
  5
D6
330
1F
100
AcDbEntity
  8
0
  6
CONTINUOUS
 62
     7
100
AcDbLine
 10
4.2282109065
 20
4.4906467903
 30
0.0
 11
4.2082109065
 21
4.5106467903
 31
0.0
  0
LINE
  5
D7
330
1F
100
AcDbEntity
  8
0
  6
CONTINUOUS
 62
     7
100
AcDbLine
 10
2.4450613002
 20
4.5106467903
 30
0.0
 11
2.4250613002
 21
4.4906467903
 31
0.0
  0
LINE
  5
D8
330
1F
100
AcDbEntity
  8
0
  6
CONTINUOUS
 62
     7
100
AcDbLine
 10
2.4250613002
 20
3.0267097825
 30
0.0
 11
2.4450613002
 21
3.0067097825
 31
0.0
  0
LINE
  5
D9
330
1F
100
AcDbEntity
  8
0
  6
CONTINUOUS
 62
     7
100
AcDbLine
 10
2.4450613002
 20
4.5106467903
 30
0.0
 11
2.4450613002
 21
3.0067097825
 31
0.0
  0
LINE
  5
DA
330
1F
100
AcDbEntity
  8
0
  6
CONTINUOUS
 62
     7
100
AcDbLine
 10
2.9132502766
 20
4.3720275975
 30
0.0
 11
2.9132502766
 21
4.5106467903
 31
0.0
  0
LINE
  5
DB
330
1F
100
AcDbEntity
  8
0
  6
CONTINUOUS
 62
     7
100
AcDbLine
 10
2.9526203554
 20
4.3720275975
 30
0.0
 11
2.9132502766
 21
4.3720275975
 31
0.0
  0
LINE
  5
DC
330
1F
100
AcDbEntity
  8
0
  6
CONTINUOUS
 62
     7
100
AcDbLine
 10
2.9526203554
 20
3.1453289753
 30
0.0
 11
2.9526203554
 21
3.0067097825
 31
0.0
  0
LINE
  5
DD
330
1F
100
AcDbEntity
  8
0
  6
CONTINUOUS
 62
     7
100
AcDbLine
 10
2.9526203554
 20
4.5106467903
 30
0.0
 11
2.9526203554
 21
4.3720275975
 31
0.0
  0
LINE
  5
DE
330
1F
100
AcDbEntity
  8
0
  6
CONTINUOUS
 62
     7
100
AcDbLine
 10
2.9132502766
 20
3.1453289753
 30
0.0
 11
2.9526203554
 21
3.1453289753
 31
0.0
  0
LINE
  5
DF
330
1F
100
AcDbEntity
  8
0
  6
CONTINUOUS
 62
     7
100
AcDbLine
 10
2.9132502766
 20
3.0067097825
 30
0.0
 11
2.9132502766
 21
3.1453289753
 31
0.0
  0
LINE
  5
E0
330
1F
100
AcDbEntity
  8
0
  6
CONTINUOUS
 62
     7
100
AcDbLine
 10
4.2082109065
 20
3.0069674842
 30
0.0
 11
3.7400219302
 21
3.0069674842
 31
0.0
  0
LINE
  5
E1
330
1F
100
AcDbEntity
  8
0
  6
CONTINUOUS
 62
     7
100
AcDbLine
 10
3.7400219302
 20
4.0756074203
 30
0.0
 11
3.7400219302
 21
3.0069674842
 31
0.0
  0
LINE
  5
E2
330
1F
100
AcDbEntity
  8
0
  6
CONTINUOUS
 62
     7
100
AcDbLine
 10
3.7006518514
 20
4.0756074203
 30
0.0
 11
3.7400219302
 21
4.0756074203
 31
0.0
  0
LINE
  5
E3
330
1F
100
AcDbEntity
  8
0
  6
CONTINUOUS
 62
     7
100
AcDbLine
 10
3.7006518514
 20
3.0067097825
 30
0.0
 11
3.7006518514
 21
4.0756074203
 31
0.0
  0
LINE
  5
E4
330
1F
100
AcDbEntity
  8
0
  6
CONTINUOUS
 62
     7
100
AcDbLine
 10
4.2082109065
 20
3.0069674842
 30
0.0
 11
4.2082109065
 21
4.5106467903
 31
0.0
  0
SPLINE
  5
E5
330
1F
100
AcDbEntity
  8
0
  6
CONTINUOUS
 62
     7
100
AcDbSpline
210
0.0
220
0.0
230
1.0
 70
     8
 71
     3
 72
    68
 73
    64
 74
     0
 42
0.00000001
 43
0.00000001
 40
-0.0312500000000001
 40
-0.0312500000000001
 40
0.0
 40
0.0
 40
0.0624999999999993
 40
0.0624999999999993
 40
0.0937499999999989
 40
0.0937499999999989
 40
0.1249999999999986
 40
0.1249999999999986
 40
0.1562499999999982
 40
0.1562499999999982
 40
0.1874999999999978
 40
0.1874999999999978
 40
0.2187499999999975
 40
0.2187499999999975
 40
0.2499999999999971
 40
0.2499999999999971
 40
0.2656249999999971
 40
0.2656249999999971
 40
0.2812499999999969
 40
0.2812499999999969
 40
0.2968749999999969
 40
0.2968749999999969
 40
0.3124999999999969
 40
0.3124999999999969
 40
0.3437499999999972
 40
0.3437499999999972
 40
0.3749999999999974
 40
0.3749999999999974
 40
0.4374999999999979
 40
0.4374999999999979
 40
0.4999999999999984
 40
0.4999999999999984
 40
0.5312499999999988
 40
0.5312499999999988
 40
0.5624999999999989
 40
0.5624999999999989
 40
0.5937499999999991
 40
0.5937499999999991
 40
0.6249999999999993
 40
0.6249999999999993
 40
0.6562499999999996
 40
0.6562499999999996
 40
0.6874999999999997
 40
0.6874999999999997
 40
0.7187499999999999
 40
0.7187499999999999
 40
0.7500000000000001
 40
0.7500000000000001
 40
0.7812500000000001
 40
0.7812500000000001
 40
0.8125
 40
0.8125
 40
0.84375
 40
0.84375
 40
0.875
 40
0.875
 40
0.90625
 40
0.90625
 40
0.9374999999999999
 40
0.9374999999999999
 40
0.9687499999999999
 40
0.9687499999999999
 40
1.0
 40
1.0
 40
1.062499999999999
 40
1.062499999999999
 10
4.200651851416048
 20
3.338037138370858
 30
0.0
 10
4.200651851416048
 20
3.297706983970055
 30
0.0
 10
4.19581916477744
 20
3.272801750929245
 30
0.0
 10
4.182954577485379
 20
3.237966980011436
 30
0.0
 10
4.177703395432389
 20
3.226829809965229
 30
0.0
 10
4.165619532515067
 20
3.205891074941721
 30
0.0
 10
4.158762014336603
 20
3.196013850867081
 30
0.0
 10
4.143356546891684
 20
3.177364486646734
 30
0.0
 10
4.134753682061957
 20
3.168549467247971
 30
0.0
 10
4.115952210898916
 20
3.152370850576414
 30
0.0
 10
4.105747975317128
 20
3.144968746280979
 30
0.0
 10
4.08319428873856
 20
3.131609416139996
 30
0.0
 10
4.070776072873249
 20
3.125635634888773
 30
0.0
 10
4.043715657368538
 20
3.115926172427354
 30
0.0
 10
4.028749030756662
 20
3.112109232697287
 30
0.0
 10
4.005048941106377
 20
3.108925118281171
 30
0.0
 10
3.996789579169799
 20
3.10827502219583
 30
0.0
 10
3.980445784770721
 20
3.107935199624446
 30
0.0
 10
3.972325235901829
 20
3.108227728812529
 30
0.0
 10
3.956183101509255
 20
3.109714674869191
 30
0.0
 10
3.948210061137704
 20
3.11091614250493
 30
0.0
 10
3.933059733097481
 20
3.114021668881865
 30
0.0
 10
3.925779347661368
 20
3.11593393106945
 30
0.0
 10
3.904657642925893
 20
3.122623302632856
 30
0.0
 10
3.891980205742354
 20
3.128190329749751
 30
0.0
 10
3.868706379062543
 20
3.140898600139364
 30
0.0
 10
3.857994332520247
 20
3.148139562392433
 30
0.0
 10
3.828881188889457
 20
3.171588228575752
 30
0.0
 10
3.813091375565157
 20
3.189582788131458
 30
0.0
 10
3.787429826958916
 20
3.230828563784784
 30
0.0
 10
3.778089546484713
 20
3.253350464874639
 30
0.0
 10
3.769948531809049
 20
3.290264739074936
 30
0.0
 10
3.768234677528119
 20
3.30322582562867
 30
0.0
 10
3.767237133219788
 20
3.329582746077591
 30
0.0
 10
3.767924283258066
 20
3.343001356644362
 30
0.0
 10
3.772007783009358
 20
3.370286268717185
 30
0.0
 10
3.775471775317338
 20
3.3842875535295
 30
0.0
 10
3.785240863900133
 20
3.411452550833304
 30
0.0
 10
3.791534325286525
 20
3.42472786143529
 30
0.0
 10
3.807261730240891
 20
3.450439378922631
 30
0.0
 10
3.816825493599258
 20
3.462955494895068
 30
0.0
 10
3.838351766687031
 20
3.485475360013546
 30
0.0
 10
3.850391634248216
 20
3.495665761674184
 30
0.0
 10
3.877223247671505
 20
3.513595869700819
 30
0.0
 10
3.891617977128452
 20
3.521044867987544
 30
0.0
 10
3.921817963825237
 20
3.532603139290596
 30
0.0
 10
3.937906714056492
 20
3.536767211110657
 30
0.0
 10
3.970168112838984
 20
3.54129252520638
 30
0.0
 10
3.98648897201177
 20
3.541742974301865
 30
0.0
 10
4.019338380896191
 20
3.538880539045468
 30
0.0
 10
4.035269157951409
 20
3.535626302350698
 30
0.0
 10
4.066174894326451
 20
3.525635405805848
 30
0.0
 10
4.081200645320858
 20
3.518807904236185
 30
0.0
 10
4.108737108902398
 20
3.502397485059178
 30
0.0
 10
4.121571764690096
 20
3.492654153895032
 30
0.0
 10
4.144555807326689
 20
3.470872504109595
 30
0.0
 10
4.154557237489476
 20
3.459026099814351
 30
0.0
 10
4.171781498075203
 20
3.433698961499014
 30
0.0
 10
4.178917516781723
 20
3.420271690597297
 30
0.0
 10
4.190019385005077
 20
3.393191886973941
 30
0.0
 10
4.194100928280838
 20
3.379290223674476
 30
0.0
 10
4.199410263458694
 20
3.351681730811094
 30
0.0
 10
4.200651851416048
 20
3.338037138370858
 30
0.0
 10
4.200651851416048
 20
3.297706983970055
 30
0.0
  0
LINE
  5
E6
330
1F
100
AcDbEntity
  8
0
  6
CONTINUOUS
 62
     7
100
AcDbLine
 10
4.2282109065
 20
4.4906467903
 30
0.0
 11
4.2282109065
 21
3.026974528
 31
0.0
  0
LINE
  5
E7
330
1F
100
AcDbEntity
  8
0
  6
CONTINUOUS
 62
     7
100
AcDbLine
 10
4.2082109065
 20
3.0069674842
 30
0.0
 11
4.2282109065
 21
3.026974528
 31
0.0
  0
LINE
  5
E8
330
1F
100
AcDbEntity
  8
0
  6
CONTINUOUS
 62
     7
100
AcDbLine
 10
2.4250613002
 20
3.0267097825
 30
0.0
 11
2.4250613002
 21
4.4906467903
 31
0.0
  0
CIRCLE
  5
E9
330
1F
100
AcDbEntity
  8
0
  6
CONTINUOUS
 62
     7
100
AcDbCircle
 10
3.9841164183
 20
3.3245937536
 30
0.0
 40
0.1614173228346454
  0
CIRCLE
  5
EA
330
1F
100
AcDbEntity
  8
0
  6
CONTINUOUS
 62
     7
100
AcDbCircle
 10
3.9841164183
 20
3.3245937536
 30
0.0
 40
0.1771653543307083
  0
LINE
  5
EB
330
1F
100
AcDbEntity
  8
0
  6
CONTINUOUS
 62
     7
100
AcDbLine
 10
3.9053762609
 20
3.2791331025
 30
0.0
 11
3.9841164183
 21
3.2336724513
 31
0.0
  0
LINE
  5
EC
330
1F
100
AcDbEntity
  8
0
  6
CONTINUOUS
 62
     7
100
AcDbLine
 10
4.0628565758
 20
3.2791331025
 30
0.0
 11
4.0628565758
 21
3.3700544047
 31
0.0
  0
LINE
  5
ED
330
1F
100
AcDbEntity
  8
0
  6
CONTINUOUS
 62
     7
100
AcDbLine
 10
3.9841164183
 20
3.2336724513
 30
0.0
 11
4.0628565758
 21
3.2791331025
 31
0.0
  0
LINE
  5
EE
330
1F
100
AcDbEntity
  8
0
  6
CONTINUOUS
 62
     7
100
AcDbLine
 10
3.9053762609
 20
3.3700544047
 30
0.0
 11
3.9053762609
 21
3.2791331025
 31
0.0
  0
LINE
  5
EF
330
1F
100
AcDbEntity
  8
0
  6
CONTINUOUS
 62
     7
100
AcDbLine
 10
3.9841164183
 20
3.4155150558
 30
0.0
 11
3.9053762609
 21
3.3700544047
 31
0.0
  0
LINE
  5
F0
330
1F
100
AcDbEntity
  8
0
  6
CONTINUOUS
 62
     7
100
AcDbLine
 10
4.0628565758
 20
3.3700544047
 30
0.0
 11
3.9841164183
 21
3.4155150558
 31
0.0
  0
SPLINE
  5
F1
330
1F
100
AcDbEntity
  8
0
  6
HIDDEN
 62
     7
100
AcDbSpline
210
0.0
220
0.0
230
1.0
 70
     8
 71
     3
 72
    70
 73
    66
 74
     0
 42
0.00000001
 43
0.00000001
 40
-0.03125
 40
-0.03125
 40
0.0
 40
0.0
 40
0.0156249999999999
 40
0.0156249999999999
 40
0.0312499999999998
 40
0.0312499999999998
 40
0.0624999999999997
 40
0.0624999999999997
 40
0.0937499999999996
 40
0.0937499999999996
 40
0.1249999999999996
 40
0.1249999999999996
 40
0.1874999999999996
 40
0.1874999999999996
 40
0.2187499999999996
 40
0.2187499999999996
 40
0.2499999999999997
 40
0.2499999999999997
 40
0.2812499999999997
 40
0.2812499999999997
 40
0.3124999999999997
 40
0.3124999999999997
 40
0.3437499999999997
 40
0.3437499999999997
 40
0.3749999999999998
 40
0.3749999999999998
 40
0.4062499999999998
 40
0.4062499999999998
 40
0.4374999999999998
 40
0.4374999999999998
 40
0.4687499999999998
 40
0.4687499999999998
 40
0.4999999999999999
 40
0.4999999999999999
 40
0.5312499999999999
 40
0.5312499999999999
 40
0.5624999999999998
 40
0.5624999999999998
 40
0.5937499999999998
 40
0.5937499999999998
 40
0.6249999999999997
 40
0.6249999999999997
 40
0.6562499999999997
 40
0.6562499999999997
 40
0.6874999999999997
 40
0.6874999999999997
 40
0.7187499999999998
 40
0.7187499999999998
 40
0.7499999999999998
 40
0.7499999999999998
 40
0.7812499999999998
 40
0.7812499999999998
 40
0.8124999999999998
 40
0.8124999999999998
 40
0.8437499999999999
 40
0.8437499999999999
 40
0.8749999999999999
 40
0.8749999999999999
 40
0.9062499999999999
 40
0.9062499999999999
 40
0.9374999999999999
 40
0.9374999999999999
 40
0.96875
 40
0.96875
 40
1.0
 40
1.0
 40
1.015625
 40
1.015625
 10
2.685725875721845
 20
3.38165005018747
 30
0.0
 10
2.660870744774962
 20
3.38165005018747
 30
0.0
 10
2.652757991695501
 20
3.380830387318597
 30
0.0
 10
2.636838171913611
 20
3.377746247991688
 30
0.0
 10
2.628954550822815
 20
3.37544744485555
 30
0.0
 10
2.606454527720406
 20
3.366953863716318
 30
0.0
 10
2.592762774693531
 20
3.359201097401151
 30
0.0
 10
2.567523464548327
 20
3.341597670965589
 30
0.0
 10
2.556212806203797
 20
3.331923927307467
 30
0.0
 10
2.535336093627791
 20
3.31164608400638
 30
0.0
 10
2.52573083922248
 20
3.300952107650099
 30
0.0
 10
2.499637611621225
 20
3.268613490605413
 30
0.0
 10
2.485713128934605
 20
3.246765317094844
 30
0.0
 10
2.469577662519652
 20
3.214277411139707
 30
0.0
 10
2.465031490924327
 20
3.203470159861326
 30
0.0
 10
2.45799908084705
 20
3.182644518432
 30
0.0
 10
2.455464847542792
 20
3.172540217599708
 30
0.0
 10
2.452564716812258
 20
3.152968675838917
 30
0.0
 10
2.452194901182953
 20
3.143501388031307
 30
0.0
 10
2.454077147337657
 20
3.125223406747616
 30
0.0
 10
2.456319695726002
 20
3.116642131609278
 30
0.0
 10
2.46364529010615
 20
3.10072049664847
 30
0.0
 10
2.468804345691237
 20
3.09327624260673
 30
0.0
 10
2.482157259635517
 20
3.079875894729637
 30
0.0
 10
2.490241996972776
 20
3.07397627273765
 30
0.0
 10
2.509413692389094
 20
3.063547939935818
 30
0.0
 10
2.520678186746466
 20
3.058983887939339
 30
0.0
 10
2.545314511040807
 20
3.051458311052223
 30
0.0
 10
2.55874300734332
 20
3.048429095217948
 30
0.0
 10
2.587941656369751
 20
3.04357937576591
 30
0.0
 10
2.603285724918106
 20
3.041834606964389
 30
0.0
 10
2.634898477023402
 20
3.039497019629584
 30
0.0
 10
2.651439680189694
 20
3.038900093462753
 30
0.0
 10
2.6840411382955
 20
3.038835685651269
 30
0.0
 10
2.700312433026366
 20
3.039349382795407
 30
0.0
 10
2.732401711463249
 20
3.041572335371404
 30
0.0
 10
2.747708119671281
 20
3.043243397587798
 30
0.0
 10
2.776890288406122
 20
3.047895999790483
 30
0.0
 10
2.790775397886807
 20
3.050911294838121
 30
0.0
 10
2.815687654111426
 20
3.058278346768491
 30
0.0
 10
2.827018835319697
 20
3.062710737183564
 30
0.0
 10
2.846705416537502
 20
3.073077717709463
 30
0.0
 10
2.854978132717805
 20
3.078936736365648
 30
0.0
 10
2.868649550125658
 20
3.092208051811191
 30
0.0
 10
2.873970132198533
 20
3.099596479736114
 30
0.0
 10
2.881598572098899
 20
3.115451000154935
 30
0.0
 10
2.883982924213843
 20
3.124051256817685
 30
0.0
 10
2.886098118065875
 20
3.142211760692419
 30
0.0
 10
2.885845488853382
 20
3.151698149628752
 30
0.0
 10
2.883084155494486
 20
3.171475578344503
 30
0.0
 10
2.88054471232654
 20
3.18182748475202
 30
0.0
 10
2.873541927232121
 20
3.202815344701306
 30
0.0
 10
2.869082655598771
 20
3.21349478710057
 30
0.0
 10
2.858390318978064
 20
3.235178627954951
 30
0.0
 10
2.852109998949772
 20
3.246251770261648
 30
0.0
 10
2.838009026905852
 20
3.268202233688257
 30
0.0
 10
2.830193965555219
 20
3.279097105090079
 30
0.0
 10
2.812915595140408
 20
3.30056234742199
 30
0.0
 10
2.803460337922904
 20
3.311137840546639
 30
0.0
 10
2.782442031892445
 20
3.331626369507725
 30
0.0
 10
2.77096091935297
 20
3.341458754376904
 30
0.0
 10
2.745750216338541
 20
3.359078738423671
 30
0.0
 10
2.731907259358357
 20
3.366913384578959
 30
0.0
 10
2.702175051367421
 20
3.378179843815612
 30
0.0
 10
2.685725875721845
 20
3.38165005018747
 30
0.0
 10
2.660870744774962
 20
3.38165005018747
 30
0.0
  0
SPLINE
  5
F2
330
1F
100
AcDbEntity
  8
0
  6
HIDDEN
 62
     7
100
AcDbSpline
210
0.0
220
0.0
230
1.0
 70
     8
 71
     3
 72
    52
 73
    48
 74
     0
 42
0.00000001
 43
0.00000001
 40
-0.0625000000000001
 40
-0.0625000000000001
 40
0.0
 40
0.0
 40
0.0312499999999997
 40
0.0312499999999997
 40
0.0624999999999994
 40
0.0624999999999994
 40
0.0937499999999992
 40
0.0937499999999992
 40
0.1249999999999989
 40
0.1249999999999989
 40
0.1874999999999983
 40
0.1874999999999983
 40
0.2499999999999978
 40
0.2499999999999978
 40
0.3124999999999974
 40
0.3124999999999974
 40
0.374999999999997
 40
0.374999999999997
 40
0.4062499999999969
 40
0.4062499999999969
 40
0.4374999999999968
 40
0.4374999999999968
 40
0.4687499999999969
 40
0.4687499999999969
 40
0.499999999999997
 40
0.499999999999997
 40
0.531249999999997
 40
0.531249999999997
 40
0.5624999999999972
 40
0.5624999999999972
 40
0.5937499999999973
 40
0.5937499999999973
 40
0.6249999999999976
 40
0.6249999999999976
 40
0.687499999999998
 40
0.687499999999998
 40
0.7499999999999984
 40
0.7499999999999984
 40
0.8124999999999989
 40
0.8124999999999989
 40
0.8749999999999993
 40
0.8749999999999993
 40
0.9062499999999996
 40
0.9062499999999996
 40
0.9374999999999999
 40
0.9374999999999999
 40
1.0
 40
1.0
 40
1.03125
 40
1.03125
 10
2.65214221072204
 20
4.273333567364086
 30
0.0
 10
2.677662577274864
 20
4.273333567364086
 30
0.0
 10
2.6859036680827
 20
4.274337040264157
 30
0.0
 10
2.701917421618461
 20
4.278086192159751
 30
0.0
 10
2.709561631820164
 20
4.280824164246203
 30
0.0
 10
2.723623437211395
 20
4.287400037401649
 30
0.0
 10
2.730167483332202
 20
4.291293238326847
 30
0.0
 10
2.741920267142505
 20
4.299628275824166
 30
0.0
 10
2.747213551124388
 20
4.304108335552337
 30
0.0
 10
2.76160052664893
 20
4.318248156059918
 30
0.0
 10
2.768921511147668
 20
4.328285728398839
 30
0.0
 10
2.77938475867645
 20
4.34852422324018
 30
0.0
 10
2.782478791175249
 20
4.358752598586529
 30
0.0
 10
2.783874737762277
 20
4.378235449144598
 30
0.0
 10
2.782152517801016
 20
4.387722773386137
 30
0.0
 10
2.773257045065264
 20
4.404783111129055
 30
0.0
 10
2.76593361373903
 20
4.412555370561818
 30
0.0
 10
2.750959039095945
 20
4.422106758327519
 30
0.0
 10
2.745191625208524
 20
4.425018639708177
 30
0.0
 10
2.732473441200729
 20
4.430052317289959
 30
0.0
 10
2.725607749470634
 20
4.432159654947241
 30
0.0
 10
2.710823762853744
 20
4.435608372074221
 30
0.0
 10
2.702822372738646
 20
4.436947858386014
 30
0.0
 10
2.68660377723105
 20
4.438718385643999
 30
0.0
 10
2.67824341994113
 20
4.439180285601089
 30
0.0
 10
2.66130476935746
 20
4.439223409022403
 30
0.0
 10
2.652985822591928
 20
4.438809198461407
 30
0.0
 10
2.636639334756773
 20
4.437115373394114
 30
0.0
 10
2.628631465364952
 20
4.435821392431809
 30
0.0
 10
2.613734104383698
 20
4.432446421239834
 30
0.0
 10
2.606656123182183
 20
4.430323805521962
 30
0.0
 10
2.593831323227062
 20
4.425346547567851
 30
0.0
 10
2.588083669911364
 20
4.422508909354481
 30
0.0
 10
2.572709271643759
 20
4.412884415683302
 30
0.0
 10
2.565344462326482
 20
4.405173454727328
 30
0.0
 10
2.556226085836003
 20
4.388010616163385
 30
0.0
 10
2.554458801575998
 20
4.378574705419958
 30
0.0
 10
2.555771895623445
 20
4.358974873341746
 30
0.0
 10
2.558850064810451
 20
4.348723398828293
 30
0.0
 10
2.569281899070373
 20
4.328445122575603
 30
0.0
 10
2.576595148401102
 20
4.318385568718988
 30
0.0
 10
2.590984650673542
 20
4.304208220435749
 30
0.0
 10
2.596282489229333
 20
4.29971377746783
 30
0.0
 10
2.608055979027748
 20
4.291347540424924
 30
0.0
 10
2.614611935408489
 20
4.287441889420002
 30
0.0
 10
2.635695675032431
 20
4.277563730719658
 30
0.0
 10
2.65214221072204
 20
4.273333567364086
 30
0.0
 10
2.677662577274864
 20
4.273333567364086
 30
0.0
  0
LINE
  5
F3
330
1F
100
AcDbEntity
  8
0
  6
HIDDEN
 62
     7
100
AcDbLine
 10
2.9526203554
 20
4.3720275975
 30
0.0
 11
2.9526203554
 21
3.1453289753
 31
0.0
  0
LINE
  5
F4
330
1F
100
AcDbEntity
  8
0
  6
HIDDEN
 62
     7
100
AcDbLine
 10
2.9132502766
 20
4.3720275975
 30
0.0
 11
2.9132502766
 21
3.1453289753
 31
0.0
  0
CIRCLE
  5
F5
330
1F
100
AcDbEntity
  8
0
  6
HIDDEN
 62
     7
100
AcDbCircle
 10
3.9841164183
 20
3.3245937536
 30
0.0
 40
0.1141732283464565
  0
SPLINE
  5
F6
330
1F
100
AcDbEntity
  8
0
  6
HIDDEN
 62
     7
100
AcDbSpline
210
0.0
220
0.0
230
1.0
 70
     8
 71
     3
 72
     8
 73
     4
 74
     0
 42
0.00000001
 43
0.00000001
 40
0.0
 40
0.0
 40
0.0
 40
0.0
 40
1.0
 40
1.0
 40
1.0
 40
1.0
 10
4.228210906534159
 20
3.621978116041483
 30
0.0
 10
4.221538284818315
 20
3.628719566026671
 30
0.0
 10
4.214870484747181
 20
3.635465977911484
 30
0.0
 10
4.208210906534158
 20
3.642220022945204
 30
0.0
  0
SPLINE
  5
F7
330
1F
100
AcDbEntity
  8
0
  6
HIDDEN
 62
     7
100
AcDbSpline
210
0.0
220
0.0
230
1.0
 70
    24
 71
     3
 72
     8
 73
     4
 74
     0
 42
0.00000001
 43
0.00000001
 40
0.0
 40
0.0
 40
0.0
 40
0.0
 40
1.0
 40
1.0
 40
1.0
 40
1.0
 10
2.445061300234947
 20
3.778363325762126
 30
0.0
 10
2.438401639908415
 20
3.778363325762126
 30
0.0
 10
2.431733904737797
 20
3.778363325762126
 30
0.0
 10
2.425061300234946
 20
3.778363325762126
 30
0.0
  0
SPLINE
  5
F8
330
1F
100
AcDbEntity
  8
0
  6
HIDDEN
 62
     7
100
AcDbSpline
210
0.0
220
0.0
230
1.0
 70
    24
 71
     3
 72
     8
 73
     4
 74
     0
 42
0.00000001
 43
0.00000001
 40
0.0
 40
0.0
 40
0.0
 40
0.0
 40
1.0
 40
1.0
 40
1.0
 40
1.0
 10
2.445061300234947
 20
3.738993247021968
 30
0.0
 10
2.438401639908415
 20
3.738993247021968
 30
0.0
 10
2.431733904737797
 20
3.738993247021968
 30
0.0
 10
2.425061300234946
 20
3.738993247021968
 30
0.0
  0
LINE
  5
F9
330
1F
100
AcDbEntity
  8
0
  6
HIDDEN
 62
     7
100
AcDbLine
 10
2.4450613002
 20
3.7783633258
 30
0.0
 11
2.9132502766
 21
3.7783633258
 31
0.0
  0
LINE
  5
FA
330
1F
100
AcDbEntity
  8
0
  6
HIDDEN
 62
     7
100
AcDbLine
 10
2.4450613002
 20
3.738993247
 30
0.0
 11
2.9132502766
 21
3.738993247
 31
0.0
  0
LINE
  5
FB
330
1F
100
AcDbEntity
  8
0
  6
HIDDEN
 62
     7
100
AcDbLine
 10
3.7400219302
 20
3.6422200229
 30
0.0
 11
4.2082109065
 21
3.6422200229
 31
0.0
  0
LINE
  5
FC
330
1F
100
AcDbEntity
  8
0
  6
HIDDEN
 62
     7
100
AcDbLine
 10
2.8856912215
 20
3.4004105699
 30
0.0
 11
2.4526203554
 21
3.4004105699
 31
0.0
  0
CIRCLE
  5
FD
330
1F
100
AcDbEntity
  8
0
  6
HIDDEN
 62
     7
100
AcDbCircle
 10
3.9841164183
 20
3.3245937536
 30
0.0
 40
0.0984251968503935
  0
CIRCLE
  5
FE
330
1F
100
AcDbEntity
  8
0
  6
HIDDEN
 62
     7
100
AcDbCircle
 10
3.9841164183
 20
3.3245937536
 30
0.0
 40
0.082677165354331
  0
LINE
  5
FF
330
1F
100
AcDbEntity
  8
0
  6
HIDDEN
 62
     7
100
AcDbLine
 10
2.8463211428
 20
3.2193082077
 30
0.0
 11
2.4919904341
 21
3.2193082077
 31
0.0
  0
LINE
  5
100
330
1F
100
AcDbEntity
  8
0
  6
HIDDEN
 62
     7
100
AcDbLine
 10
2.4919904341
 20
3.3846625384
 30
0.0
 11
2.8463211428
 21
3.3846625384
 31
0.0
  0
LINE
  5
101
330
1F
100
AcDbEntity
  8
0
  6
HIDDEN
 62
     7
100
AcDbLine
 10
2.5077384656
 20
3.2035601762
 30
0.0
 11
2.8305731113
 21
3.2035601762
 31
0.0
  0
LINE
  5
102
330
1F
100
AcDbEntity
  8
0
  6
HIDDEN
 62
     7
100
AcDbLine
 10
2.5707305916
 20
4.2901743494
 30
0.0
 11
2.7675809853
 21
4.2901743494
 31
0.0
  0
LINE
  5
103
330
1F
100
AcDbEntity
  8
0
  6
HIDDEN
 62
     7
100
AcDbLine
 10
2.7518329538
 20
4.3059223809
 30
0.0
 11
2.5864786231
 21
4.3059223809
 31
0.0
  0
LINE
  5
104
330
1F
100
AcDbEntity
  8
0
  6
HIDDEN
 62
     7
100
AcDbLine
 10
2.6691557884
 20
3.3216704124
 30
0.0
 11
2.6691557884
 21
3.2035601762
 31
0.0
  0
LINE
  5
105
330
1F
100
AcDbEntity
  8
0
  6
HIDDEN
 62
     7
100
AcDbLine
 10
2.6691557884
 20
3.3216704124
 30
0.0
 11
2.7478959459
 21
3.3216704124
 31
0.0
  0
LINE
  5
106
330
1F
100
AcDbEntity
  8
0
  6
HIDDEN
 62
     7
100
AcDbLine
 10
2.5904156309
 20
3.3216704124
 30
0.0
 11
2.6691557884
 21
3.3216704124
 31
0.0
  0
LINE
  5
107
330
1F
100
AcDbEntity
  8
0
  6
HIDDEN
 62
     7
100
AcDbLine
 10
2.5904156309
 20
3.3216704124
 30
0.0
 11
2.5904156309
 21
3.2035601762
 31
0.0
  0
LINE
  5
108
330
1F
100
AcDbEntity
  8
0
  6
HIDDEN
 62
     7
100
AcDbLine
 10
2.7478959459
 20
3.3216704124
 30
0.0
 11
2.7478959459
 21
3.2035601762
 31
0.0
  0
LINE
  5
109
330
1F
100
AcDbEntity
  8
0
  6
HIDDEN
 62
     7
100
AcDbLine
 10
4.2282109065
 20
3.8967885226
 30
0.0
 11
4.2082109065
 21
3.8767885226
 31
0.0
  0
LINE
  5
10A
330
1F
100
AcDbEntity
  8
0
  6
HIDDEN
 62
     7
100
AcDbLine
 10
2.4250613002
 20
3.6205680502
 30
0.0
 11
2.4450613002
 21
3.6405680502
 31
0.0
  0
LINE
  5
10B
330
1F
100
AcDbEntity
  8
0
  6
HIDDEN
 62
     7
100
AcDbLine
 10
2.4450613002
 20
3.8767885226
 30
0.0
 11
2.4250613002
 21
3.8967885226
 31
0.0
  0
LINE
  5
10C
330
1F
100
AcDbEntity
  8
0
  6
HIDDEN
 62
     7
100
AcDbLine
 10
3.7006518514
 20
3.8767885226
 30
0.0
 11
2.9526203554
 21
3.8767885226
 31
0.0
  0
LINE
  5
10D
330
1F
100
AcDbEntity
  8
0
  6
HIDDEN
 62
     7
100
AcDbLine
 10
2.9526203554
 20
3.6405680502
 30
0.0
 11
3.7006518514
 21
3.6405680502
 31
0.0
  0
LINE
  5
10E
330
1F
100
AcDbEntity
  8
0
  6
HIDDEN
 62
     7
100
AcDbLine
 10
2.9132502766
 20
3.8767885226
 30
0.0
 11
2.4450613002
 21
3.8767885226
 31
0.0
  0
LINE
  5
10F
330
1F
100
AcDbEntity
  8
0
  6
HIDDEN
 62
     7
100
AcDbLine
 10
2.4450613002
 20
3.6405680502
 30
0.0
 11
2.9132502766
 21
3.6405680502
 31
0.0
  0
LINE
  5
110
330
1F
100
AcDbEntity
  8
0
  6
HIDDEN
 62
     7
100
AcDbLine
 10
4.2082109065
 20
3.8767885226
 30
0.0
 11
3.7400219302
 21
3.8767885226
 31
0.0
  0
LINE
  5
111
330
1F
100
AcDbEntity
  8
0
  6
HIDDEN
 62
     7
100
AcDbLine
 10
2.8856912215
 20
3.14497481
 30
0.0
 11
2.8856912215
 21
3.4004105699
 31
0.0
  0
LINE
  5
112
330
1F
100
AcDbEntity
  8
0
  6
HIDDEN
 62
     7
100
AcDbLine
 10
2.4526203554
 20
3.4004105699
 30
0.0
 11
2.4526203554
 21
3.1450594704
 31
0.0
  0
LINE
  5
113
330
1F
100
AcDbEntity
  8
0
  6
HIDDEN
 62
     7
100
AcDbLine
 10
2.7833290168
 20
3.4004105699
 30
0.0
 11
2.7833290168
 21
3.738993247
 31
0.0
  0
LINE
  5
114
330
1F
100
AcDbEntity
  8
0
  6
HIDDEN
 62
     7
100
AcDbLine
 10
2.5549825601
 20
3.738993247
 30
0.0
 11
2.5549825601
 21
3.4004105699
 31
0.0
  0
LINE
  5
115
330
1F
100
AcDbEntity
  8
0
  6
HIDDEN
 62
     7
100
AcDbLine
 10
2.7833290168
 20
3.7783633258
 30
0.0
 11
2.7833290168
 21
4.3725237087
 31
0.0
  0
LINE
  5
116
330
1F
100
AcDbEntity
  8
0
  6
HIDDEN
 62
     7
100
AcDbLine
 10
2.5549825601
 20
4.3726051258
 30
0.0
 11
2.5549825601
 21
3.7783633258
 31
0.0
  0
LINE
  5
117
330
1F
100
AcDbEntity
  8
0
  6
HIDDEN
 62
     7
100
AcDbLine
 10
2.4919904341
 20
3.3846625384
 30
0.0
 11
2.4919904341
 21
3.2193082077
 31
0.0
  0
LINE
  5
118
330
1F
100
AcDbEntity
  8
0
  6
HIDDEN
 62
     7
100
AcDbLine
 10
2.8463211428
 20
3.2193082077
 30
0.0
 11
2.8463211428
 21
3.3846625384
 31
0.0
  0
LINE
  5
119
330
1F
100
AcDbEntity
  8
0
  6
HIDDEN
 62
     7
100
AcDbLine
 10
2.8463211428
 20
3.3846625384
 30
0.0
 11
2.8305731113
 21
3.4004105699
 31
0.0
  0
LINE
  5
11A
330
1F
100
AcDbEntity
  8
0
  6
HIDDEN
 62
     7
100
AcDbLine
 10
2.5077384656
 20
3.4004105699
 30
0.0
 11
2.4919904341
 21
3.3846625384
 31
0.0
  0
LINE
  5
11B
330
1F
100
AcDbEntity
  8
0
  6
HIDDEN
 62
     7
100
AcDbLine
 10
2.4919904341
 20
3.2193082077
 30
0.0
 11
2.5077384656
 21
3.2035601762
 31
0.0
  0
LINE
  5
11C
330
1F
100
AcDbEntity
  8
0
  6
HIDDEN
 62
     7
100
AcDbLine
 10
2.8305731113
 20
3.2035601762
 30
0.0
 11
2.8463211428
 21
3.2193082077
 31
0.0
  0
LINE
  5
11D
330
1F
100
AcDbEntity
  8
0
  6
HIDDEN
 62
     7
100
AcDbLine
 10
2.7675809853
 20
3.4004105699
 30
0.0
 11
2.7675809853
 21
4.2901743494
 31
0.0
  0
LINE
  5
11E
330
1F
100
AcDbEntity
  8
0
  6
HIDDEN
 62
     7
100
AcDbLine
 10
2.5707305916
 20
4.2901743494
 30
0.0
 11
2.5707305916
 21
3.4004105699
 31
0.0
  0
LINE
  5
11F
330
1F
100
AcDbEntity
  8
0
  6
HIDDEN
 62
     7
100
AcDbLine
 10
2.7675809853
 20
4.2901743494
 30
0.0
 11
2.7518329538
 21
4.3059223809
 31
0.0
  0
LINE
  5
120
330
1F
100
AcDbEntity
  8
0
  6
HIDDEN
 62
     7
100
AcDbLine
 10
2.5864786231
 20
4.3059223809
 30
0.0
 11
2.5707305916
 21
4.2901743494
 31
0.0
  0
LINE
  5
121
330
1F
100
AcDbEntity
  8
0
  6
CONTINUOUS
 62
     7
100
AcDbLine
 10
7.7115145276
 20
3.1474283992
 30
0.0
 11
7.8129003528
 21
3.1474283992
 31
0.0
  0
LINE
  5
122
330
1F
100
AcDbEntity
  8
0
  6
CONTINUOUS
 62
     7
100
AcDbLine
 10
7.6957664961
 20
3.1631764307
 30
0.0
 11
7.7115145276
 21
3.1474283992
 31
0.0
  0
LINE
  5
123
330
1F
100
AcDbEntity
  8
0
  6
CONTINUOUS
 62
     7
100
AcDbLine
 10
8.231199567
 20
3.2261685567
 30
0.0
 11
8.2705696457
 21
3.2261685567
 31
0.0
  0
LINE
  5
124
330
1F
100
AcDbEntity
  8
0
  6
CONTINUOUS
 62
     7
100
AcDbLine
 10
8.7818177648
 20
3.2261685567
 30
0.0
 11
8.7823806693
 21
3.2261685567
 31
0.0
  0
LINE
  5
125
330
1F
100
AcDbEntity
  8
0
  6
CONTINUOUS
 62
     7
100
AcDbLine
 10
8.2705696457
 20
3.4230189504
 30
0.0
 11
8.231199567
 21
3.4230189504
 31
0.0
  0
LINE
  5
126
330
1F
100
AcDbEntity
  8
0
  6
CONTINUOUS
 62
     7
100
AcDbLine
 10
8.7823806693
 20
3.2261685567
 30
0.0
 11
8.7981287008
 21
3.2419165882
 31
0.0
  0
LINE
  5
127
330
1F
100
AcDbEntity
  8
0
  6
CONTINUOUS
 62
     7
100
AcDbLine
 10
8.8621344935
 20
3.2193082077
 30
0.0
 11
8.8621344935
 21
3.3206940328
 31
0.0
  0
LINE
  5
128
330
1F
100
AcDbEntity
  8
0
  6
CONTINUOUS
 62
     7
100
AcDbLine
 10
8.846386462
 20
3.2035601762
 30
0.0
 11
8.8621344935
 21
3.2193082077
 31
0.0
  0
LINE
  5
129
330
1F
100
AcDbEntity
  8
0
  6
CONTINUOUS
 62
     7
100
AcDbLine
 10
8.783394336
 20
4.2896114448
 30
0.0
 11
8.783394336
 21
4.2901743494
 31
0.0
  0
LINE
  5
12A
330
1F
100
AcDbEntity
  8
0
  6
CONTINUOUS
 62
     7
100
AcDbLine
 10
8.783394336
 20
4.2901743494
 30
0.0
 11
8.7676463045
 21
4.3059223809
 31
0.0
  0
ARC
  5
12B
330
1F
100
AcDbEntity
  8
0
  6
CONTINUOUS
 62
     7
100
AcDbCircle
 10
8.2508846063
 20
3.7586782864
 30
0.0
 40
0.1381102362204729
100
AcDbArc
 50
278.1943515521
 51
261.8056484479
  0
LINE
  5
12C
330
1F
100
AcDbEntity
  8
0
  6
CONTINUOUS
 62
     7
100
AcDbLine
 10
8.231199567
 20
3.026974528
 30
0.0
 11
8.231199567
 21
3.621978116
 31
0.0
  0
ARC
  5
12D
330
1F
100
AcDbEntity
  8
0
  6
CONTINUOUS
 62
     7
100
AcDbCircle
 10
8.2508846063
 20
3.7586782864
 30
0.0
 40
0.731968503937008
100
AcDbArc
 50
271.5410576667
 51
268.4589423333
  0
LINE
  5
12E
330
1F
100
AcDbEntity
  8
0
  6
CONTINUOUS
 62
     7
100
AcDbLine
 10
8.2705696457
 20
3.026974528
 30
0.0
 11
8.2705696457
 21
3.621978116
 31
0.0
  0
LINE
  5
12F
330
1F
100
AcDbEntity
  8
0
  6
CONTINUOUS
 62
     7
100
AcDbLine
 10
8.231199567
 20
3.0069674842
 30
0.0
 11
8.231199567
 21
3.026974528
 31
0.0
  0
ARC
  5
130
330
1F
100
AcDbEntity
  8
0
  6
CONTINUOUS
 62
     7
100
AcDbCircle
 10
8.2508846063
 20
3.7586782864
 30
0.0
 40
0.7519685039370076
100
AcDbArc
 50
271.5000608783
 51
268.4999391217
  0
LINE
  5
131
330
1F
100
AcDbEntity
  8
0
  6
CONTINUOUS
 62
     7
100
AcDbLine
 10
8.2705696457
 20
3.0069674842
 30
0.0
 11
8.2705696457
 21
3.026974528
 31
0.0
  0
ARC
  5
132
330
1F
100
AcDbEntity
  8
0
  6
CONTINUOUS
 62
     7
100
AcDbCircle
 10
8.2508846063
 20
3.7586782864
 30
0.0
 40
0.1181102362204729
100
AcDbArc
 50
279.5940682269
 51
260.4059317731
  0
SPLINE
  5
133
330
1F
100
AcDbEntity
  8
0
  6
CONTINUOUS
 62
     7
100
AcDbSpline
210
0.0
220
0.0
230
1.0
 70
    24
 71
     3
 72
     8
 73
     4
 74
     0
 42
0.00000001
 43
0.00000001
 40
0.0
 40
0.0
 40
0.0
 40
0.0
 40
1.0
 40
1.0
 40
1.0
 40
1.0
 10
8.231199566953912
 20
3.621978116041483
 30
0.0
 10
8.231199566953912
 20
3.628719566026671
 30
0.0
 10
8.231199566953912
 20
3.635465977911484
 30
0.0
 10
8.231199566953912
 20
3.642220022945204
 30
0.0
  0
SPLINE
  5
134
330
1F
100
AcDbEntity
  8
0
  6
CONTINUOUS
 62
     7
100
AcDbSpline
210
0.0
220
0.0
230
1.0
 70
    24
 71
     3
 72
     8
 73
     4
 74
     0
 42
0.00000001
 43
0.00000001
 40
0.0
 40
0.0
 40
0.0
 40
0.0
 40
1.0
 40
1.0
 40
1.0
 40
1.0
 10
8.270569645694069
 20
3.621978116041483
 30
0.0
 10
8.270569645694069
 20
3.628719566026671
 30
0.0
 10
8.270569645694069
 20
3.635465977911484
 30
0.0
 10
8.270569645694069
 20
3.642220022945204
 30
0.0
  0
ARC
  5
135
330
1F
100
AcDbEntity
  8
0
  6
CONTINUOUS
 62
     7
100
AcDbCircle
 10
8.2508846063
 20
3.7586782864
 30
0.0
 40
0.1181102362204729
100
AcDbArc
 50
260.4059317731
 51
279.5940682269
  0
ARC
  5
136
330
1F
100
AcDbEntity
  8
0
  6
CONTINUOUS
 62
     7
100
AcDbCircle
 10
8.2508846063
 20
3.7586782864
 30
0.0
 40
0.7519685039370076
100
AcDbArc
 50
268.4999391217
 51
271.5000608783
  0
LINE
  5
137
330
1F
100
AcDbEntity
  8
0
  6
CONTINUOUS
 62
     7
100
AcDbLine
 10
7.7115145276
 20
3.2347159318
 30
0.0
 11
7.7115145276
 21
3.1474283992
 31
0.0
  0
LINE
  5
138
330
1F
100
AcDbEntity
  8
0
  6
CONTINUOUS
 62
     7
100
AcDbLine
 10
7.6957664961
 20
3.1631764307
 30
0.0
 11
7.6957664961
 21
3.251430305
 31
0.0
  0
LINE
  5
139
330
1F
100
AcDbEntity
  8
0
  6
CONTINUOUS
 62
     7
100
AcDbLine
 10
8.7823806693
 20
3.2261685567
 30
0.0
 11
8.7823806693
 21
3.2267303886
 31
0.0
  0
LINE
  5
13A
330
1F
100
AcDbEntity
  8
0
  6
CONTINUOUS
 62
     7
100
AcDbLine
 10
8.7981287008
 20
3.2429452819
 30
0.0
 11
8.7981287008
 21
3.2419165882
 31
0.0
  0
LINE
  5
13B
330
1F
100
AcDbEntity
  8
0
  6
CONTINUOUS
 62
     7
100
AcDbLine
 10
8.8621344935
 20
3.2193082077
 30
0.0
 11
8.774846961
 21
3.2193082077
 31
0.0
  0
LINE
  5
13C
330
1F
100
AcDbEntity
  8
0
  6
CONTINUOUS
 62
     7
100
AcDbLine
 10
8.7581325877
 20
3.2035601762
 30
0.0
 11
8.846386462
 21
3.2035601762
 31
0.0
  0
LINE
  5
13D
330
1F
100
AcDbEntity
  8
0
  6
CONTINUOUS
 62
     7
100
AcDbLine
 10
8.7828325041
 20
4.2901743494
 30
0.0
 11
8.783394336
 21
4.2901743494
 31
0.0
  0
LINE
  5
13E
330
1F
100
AcDbEntity
  8
0
  6
CONTINUOUS
 62
     7
100
AcDbLine
 10
8.7676463045
 20
4.3059223809
 30
0.0
 11
8.7666176109
 21
4.3059223809
 31
0.0
  0
LINE
  5
13F
330
1F
100
AcDbEntity
  8
0
  6
HIDDEN
 62
     7
100
AcDbLine
 10
7.8926168898
 20
3.3245937536
 30
0.0
 11
7.8926168898
 21
3.5411291866
 31
0.0
  0
LINE
  5
140
330
1F
100
AcDbEntity
  8
0
  6
HIDDEN
 62
     7
100
AcDbLine
 10
7.8926168898
 20
3.1080583205
 30
0.0
 11
7.8926168898
 21
3.3245937536
 31
0.0
  0
LINE
  5
141
330
1F
100
AcDbEntity
  8
0
  6
HIDDEN
 62
     7
100
AcDbLine
 10
7.5689663157
 20
4.0756074203
 30
0.0
 11
8.9328028969
 21
4.0756074203
 31
0.0
  0
ARC
  5
142
330
1F
100
AcDbEntity
  8
0
  6
HIDDEN
 62
     7
100
AcDbCircle
 10
8.2508846063
 20
3.7586782864
 30
0.0
 40
0.1181102362204729
100
AcDbArc
 50
180.0
 51
260.4059317731
  0
ARC
  5
143
330
1F
100
AcDbEntity
  8
0
  6
HIDDEN
 62
     7
100
AcDbCircle
 10
8.2508846063
 20
3.7586782864
 30
0.0
 40
0.1181102362204726
100
AcDbArc
 50
279.5940682269
 51
180.0
  0
LINE
  5
144
330
1F
100
AcDbEntity
  8
0
  6
HIDDEN
 62
     7
100
AcDbLine
 10
7.8158452362
 20
4.3720275975
 30
0.0
 11
7.8158452362
 21
3.1453289753
 31
0.0
  0
LINE
  5
145
330
1F
100
AcDbEntity
  8
0
  6
HIDDEN
 62
     7
100
AcDbLine
 10
8.3673428698
 20
3.7783633258
 30
0.0
 11
9.0025954085
 21
3.7783633258
 31
0.0
  0
LINE
  5
146
330
1F
100
AcDbEntity
  8
0
  6
HIDDEN
 62
     7
100
AcDbLine
 10
8.3673428698
 20
3.738993247
 30
0.0
 11
9.0025954085
 21
3.738993247
 31
0.0
  0
LINE
  5
147
330
1F
100
AcDbEntity
  8
0
  6
HIDDEN
 62
     7
100
AcDbLine
 10
8.9015045722
 20
3.4004105699
 30
0.0
 11
8.4684337061
 21
3.4004105699
 31
0.0
  0
ARC
  5
148
330
1F
100
AcDbEntity
  8
0
  6
HIDDEN
 62
     7
100
AcDbCircle
 10
8.2508846063
 20
3.7586782864
 30
0.0
 40
0.1381102362204737
100
AcDbArc
 50
261.8056484479
 51
278.1943515521
  0
POLYLINE
  5
149
330
1F
100
AcDbEntity
  8
0
  6
HIDDEN
 62
     7
100
AcDb2dPolyline
 66
     1
 10
0.0
 20
0.0
 30
0.0
  0
VERTEX
  5
20D
330
149
100
AcDbEntity
  8
0
  6
HIDDEN
 62
     7
100
AcDbVertex
100
AcDb2dVertex
 10
8.2705696457
 20
3.026974528
 30
0.0
  0
VERTEX
  5
20E
330
149
100
AcDbEntity
  8
0
  6
HIDDEN
 62
     7
100
AcDbVertex
100
AcDb2dVertex
 10
8.2597280573
 20
3.0267632065
 30
0.0
  0
VERTEX
  5
20F
330
149
100
AcDbEntity
  8
0
  6
HIDDEN
 62
     7
100
AcDbVertex
100
AcDb2dVertex
 10
8.231199567
 20
3.026974528
 30
0.0
  0
SEQEND
  5
210
330
149
100
AcDbEntity
  8
0
  6
HIDDEN
 62
     7
  0
LINE
  5
14A
330
1F
100
AcDbEntity
  8
0
  6
HIDDEN
 62
     7
100
AcDbLine
 10
7.8768688583
 20
3.3245937536
 30
0.0
 11
7.8768688583
 21
3.5017591079
 31
0.0
  0
LINE
  5
14B
330
1F
100
AcDbEntity
  8
0
  6
HIDDEN
 62
     7
100
AcDbLine
 10
7.8768688583
 20
3.1474283992
 30
0.0
 11
7.8768688583
 21
3.3245937536
 31
0.0
  0
LINE
  5
14C
330
1F
100
AcDbEntity
  8
0
  6
HIDDEN
 62
     7
100
AcDbLine
 10
7.7115145276
 20
3.3245937536
 30
0.0
 11
7.7115145276
 21
3.2347159318
 31
0.0
  0
LINE
  5
14D
330
1F
100
AcDbEntity
  8
0
  6
HIDDEN
 62
     7
100
AcDbLine
 10
7.7115145276
 20
3.5017591079
 30
0.0
 11
7.7115145276
 21
3.3245937536
 31
0.0
  0
LINE
  5
14E
330
1F
100
AcDbEntity
  8
0
  6
HIDDEN
 62
     7
100
AcDbLine
 10
7.6957664961
 20
3.3245937536
 30
0.0
 11
7.6957664961
 21
3.4860110764
 31
0.0
  0
LINE
  5
14F
330
1F
100
AcDbEntity
  8
0
  6
HIDDEN
 62
     7
100
AcDbLine
 10
7.6957664961
 20
3.251430305
 30
0.0
 11
7.6957664961
 21
3.3245937536
 31
0.0
  0
LINE
  5
150
330
1F
100
AcDbEntity
  8
0
  6
HIDDEN
 62
     7
100
AcDbLine
 10
8.7823806693
 20
3.2267303886
 30
0.0
 11
8.7823806693
 21
3.4230189504
 31
0.0
  0
LINE
  5
151
330
1F
100
AcDbEntity
  8
0
  6
HIDDEN
 62
     7
100
AcDbLine
 10
8.7981287008
 20
3.4072709189
 30
0.0
 11
8.7981287008
 21
3.2429452819
 31
0.0
  0
LINE
  5
152
330
1F
100
AcDbEntity
  8
0
  6
HIDDEN
 62
     7
100
AcDbLine
 10
7.8138767323
 20
3.2791331025
 30
0.0
 11
7.8138767323
 21
3.3700544047
 31
0.0
  0
LINE
  5
153
330
1F
100
AcDbEntity
  8
0
  6
HIDDEN
 62
     7
100
AcDbLine
 10
7.8138767323
 20
3.2336724513
 30
0.0
 11
7.8138767323
 21
3.2791331025
 31
0.0
  0
LINE
  5
154
330
1F
100
AcDbEntity
  8
0
  6
HIDDEN
 62
     7
100
AcDbLine
 10
7.8138767323
 20
3.2791331025
 30
0.0
 11
7.6957664961
 21
3.2791331025
 31
0.0
  0
LINE
  5
155
330
1F
100
AcDbEntity
  8
0
  6
HIDDEN
 62
     7
100
AcDbLine
 10
7.8138767323
 20
3.3700544047
 30
0.0
 11
7.8138767323
 21
3.4155150558
 31
0.0
  0
LINE
  5
156
330
1F
100
AcDbEntity
  8
0
  6
HIDDEN
 62
     7
100
AcDbLine
 10
7.8138767323
 20
3.3700544047
 30
0.0
 11
7.6957664961
 21
3.3700544047
 31
0.0
  0
LINE
  5
157
330
1F
100
AcDbEntity
  8
0
  6
HIDDEN
 62
     7
100
AcDbLine
 10
7.8138767323
 20
3.2336724513
 30
0.0
 11
7.6957664961
 21
3.2336724513
 31
0.0
  0
LINE
  5
158
330
1F
100
AcDbEntity
  8
0
  6
HIDDEN
 62
     7
100
AcDbLine
 10
7.8138767323
 20
3.4155150558
 30
0.0
 11
7.6957664961
 21
3.4155150558
 31
0.0
  0
LINE
  5
159
330
1F
100
AcDbEntity
  8
0
  6
HIDDEN
 62
     7
100
AcDbLine
 10
8.774846961
 20
3.2193082077
 30
0.0
 11
8.5078037848
 21
3.2193082077
 31
0.0
  0
LINE
  5
15A
330
1F
100
AcDbEntity
  8
0
  6
HIDDEN
 62
     7
100
AcDbLine
 10
8.5078037848
 20
3.3846625384
 30
0.0
 11
8.8621344935
 21
3.3846625384
 31
0.0
  0
LINE
  5
15B
330
1F
100
AcDbEntity
  8
0
  6
HIDDEN
 62
     7
100
AcDbLine
 10
8.5235518163
 20
3.2035601762
 30
0.0
 11
8.7581325877
 21
3.2035601762
 31
0.0
  0
LINE
  5
15C
330
1F
100
AcDbEntity
  8
0
  6
HIDDEN
 62
     7
100
AcDbLine
 10
8.6849691391
 20
4.2901743494
 30
0.0
 11
8.7828325041
 21
4.2901743494
 31
0.0
  0
LINE
  5
15D
330
1F
100
AcDbEntity
  8
0
  6
HIDDEN
 62
     7
100
AcDbLine
 10
8.5865439423
 20
4.2901743494
 30
0.0
 11
8.6849691391
 21
4.2901743494
 31
0.0
  0
LINE
  5
15E
330
1F
100
AcDbEntity
  8
0
  6
HIDDEN
 62
     7
100
AcDbLine
 10
8.6849691391
 20
4.3059223809
 30
0.0
 11
8.6022919738
 21
4.3059223809
 31
0.0
  0
LINE
  5
15F
330
1F
100
AcDbEntity
  8
0
  6
HIDDEN
 62
     7
100
AcDbLine
 10
8.7666176109
 20
4.3059223809
 30
0.0
 11
8.6849691391
 21
4.3059223809
 31
0.0
  0
LINE
  5
160
330
1F
100
AcDbEntity
  8
0
  6
HIDDEN
 62
     7
100
AcDbLine
 10
8.7304297903
 20
3.3216704124
 30
0.0
 11
8.7758904414
 21
3.3216704124
 31
0.0
  0
LINE
  5
161
330
1F
100
AcDbEntity
  8
0
  6
HIDDEN
 62
     7
100
AcDbLine
 10
8.639508488
 20
3.3216704124
 30
0.0
 11
8.7304297903
 21
3.3216704124
 31
0.0
  0
LINE
  5
162
330
1F
100
AcDbEntity
  8
0
  6
HIDDEN
 62
     7
100
AcDbLine
 10
8.7304297903
 20
3.3216704124
 30
0.0
 11
8.7304297903
 21
3.2035601762
 31
0.0
  0
LINE
  5
163
330
1F
100
AcDbEntity
  8
0
  6
HIDDEN
 62
     7
100
AcDbLine
 10
8.639508488
 20
3.3216704124
 30
0.0
 11
8.639508488
 21
3.2035601762
 31
0.0
  0
LINE
  5
164
330
1F
100
AcDbEntity
  8
0
  6
HIDDEN
 62
     7
100
AcDbLine
 10
8.5940478369
 20
3.3216704124
 30
0.0
 11
8.639508488
 21
3.3216704124
 31
0.0
  0
LINE
  5
165
330
1F
100
AcDbEntity
  8
0
  6
HIDDEN
 62
     7
100
AcDbLine
 10
8.7758904414
 20
3.3216704124
 30
0.0
 11
8.7758904414
 21
3.2035601762
 31
0.0
  0
LINE
  5
166
330
1F
100
AcDbEntity
  8
0
  6
HIDDEN
 62
     7
100
AcDbLine
 10
8.5940478369
 20
3.3216704124
 30
0.0
 11
8.5940478369
 21
3.2035601762
 31
0.0
  0
LINE
  5
167
330
1F
100
AcDbEntity
  8
0
  6
HIDDEN
 62
     7
100
AcDbLine
 10
7.8734815311
 20
3.1080583205
 30
0.0
 11
7.8926168898
 21
3.1080583205
 31
0.0
  0
LINE
  5
168
330
1F
100
AcDbEntity
  8
0
  6
HIDDEN
 62
     7
100
AcDbLine
 10
7.8926168898
 20
3.5411291866
 30
0.0
 11
7.5312881314
 21
3.5411291866
 31
0.0
  0
LINE
  5
169
330
1F
100
AcDbEntity
  8
0
  6
HIDDEN
 62
     7
100
AcDbLine
 10
8.2705696457
 20
3.2104205252
 30
0.0
 11
8.7657382318
 21
3.2104205252
 31
0.0
  0
LINE
  5
16A
330
1F
100
AcDbEntity
  8
0
  6
HIDDEN
 62
     7
100
AcDbLine
 10
8.9312743992
 20
3.4387669819
 30
0.0
 11
8.2705696457
 21
3.4387669819
 31
0.0
  0
LINE
  5
16B
330
1F
100
AcDbEntity
  8
0
  6
HIDDEN
 62
     7
100
AcDbLine
 10
7.8926168898
 20
3.2104205252
 30
0.0
 11
8.231199567
 21
3.2104205252
 31
0.0
  0
LINE
  5
16C
330
1F
100
AcDbEntity
  8
0
  6
HIDDEN
 62
     7
100
AcDbLine
 10
8.231199567
 20
3.4387669819
 30
0.0
 11
7.8926168898
 21
3.4387669819
 31
0.0
  0
LINE
  5
16D
330
1F
100
AcDbEntity
  8
0
  6
HIDDEN
 62
     7
100
AcDbLine
 10
8.9015045722
 20
3.3816500502
 30
0.0
 11
8.9015045722
 21
3.4004105699
 31
0.0
  0
LINE
  5
16E
330
1F
100
AcDbEntity
  8
0
  6
HIDDEN
 62
     7
100
AcDbLine
 10
8.4684337061
 20
3.4004105699
 30
0.0
 11
8.4684337061
 21
3.0390421562
 31
0.0
  0
LINE
  5
16F
330
1F
100
AcDbEntity
  8
0
  6
HIDDEN
 62
     7
100
AcDbLine
 10
8.7991423675
 20
3.4004105699
 30
0.0
 11
8.7991423675
 21
3.738993247
 31
0.0
  0
LINE
  5
170
330
1F
100
AcDbEntity
  8
0
  6
HIDDEN
 62
     7
100
AcDbLine
 10
8.5707959108
 20
3.738993247
 30
0.0
 11
8.5707959108
 21
3.4004105699
 31
0.0
  0
LINE
  5
171
330
1F
100
AcDbEntity
  8
0
  6
HIDDEN
 62
     7
100
AcDbLine
 10
8.7991423675
 20
3.7783633258
 30
0.0
 11
8.7991423675
 21
4.2733335674
 31
0.0
  0
LINE
  5
172
330
1F
100
AcDbEntity
  8
0
  6
HIDDEN
 62
     7
100
AcDbLine
 10
8.5707959108
 20
4.4391230661
 30
0.0
 11
8.5707959108
 21
3.7783633258
 31
0.0
  0
LINE
  5
173
330
1F
100
AcDbEntity
  8
0
  6
HIDDEN
 62
     7
100
AcDbLine
 10
7.8768688583
 20
3.1474283992
 30
0.0
 11
7.8926168898
 21
3.1631764307
 31
0.0
  0
LINE
  5
174
330
1F
100
AcDbEntity
  8
0
  6
HIDDEN
 62
     7
100
AcDbLine
 10
7.8926168898
 20
3.4860110764
 30
0.0
 11
7.8768688583
 21
3.5017591079
 31
0.0
  0
LINE
  5
175
330
1F
100
AcDbEntity
  8
0
  6
HIDDEN
 62
     7
100
AcDbLine
 10
7.8768688583
 20
3.5017591079
 30
0.0
 11
7.7115145276
 21
3.5017591079
 31
0.0
  0
LINE
  5
176
330
1F
100
AcDbEntity
  8
0
  6
HIDDEN
 62
     7
100
AcDbLine
 10
7.8129003528
 20
3.1474283992
 30
0.0
 11
7.8768688583
 21
3.1474283992
 31
0.0
  0
LINE
  5
177
330
1F
100
AcDbEntity
  8
0
  6
HIDDEN
 62
     7
100
AcDbLine
 10
7.7115145276
 20
3.5017591079
 30
0.0
 11
7.6957664961
 21
3.4860110764
 31
0.0
  0
LINE
  5
178
330
1F
100
AcDbEntity
  8
0
  6
HIDDEN
 62
     7
100
AcDbLine
 10
7.8926168898
 20
3.2261685567
 30
0.0
 11
8.231199567
 21
3.2261685567
 31
0.0
  0
LINE
  5
179
330
1F
100
AcDbEntity
  8
0
  6
HIDDEN
 62
     7
100
AcDbLine
 10
8.2705696457
 20
3.2261685567
 30
0.0
 11
8.7818177648
 21
3.2261685567
 31
0.0
  0
LINE
  5
17A
330
1F
100
AcDbEntity
  8
0
  6
HIDDEN
 62
     7
100
AcDbLine
 10
8.7823806693
 20
3.4230189504
 30
0.0
 11
8.2705696457
 21
3.4230189504
 31
0.0
  0
LINE
  5
17B
330
1F
100
AcDbEntity
  8
0
  6
HIDDEN
 62
     7
100
AcDbLine
 10
8.231199567
 20
3.4230189504
 30
0.0
 11
7.8926168898
 21
3.4230189504
 31
0.0
  0
LINE
  5
17C
330
1F
100
AcDbEntity
  8
0
  6
HIDDEN
 62
     7
100
AcDbLine
 10
8.7981287008
 20
3.4072709189
 30
0.0
 11
8.7823806693
 21
3.4230189504
 31
0.0
  0
LINE
  5
17D
330
1F
100
AcDbEntity
  8
0
  6
HIDDEN
 62
     7
100
AcDbLine
 10
8.5078037848
 20
3.3846625384
 30
0.0
 11
8.5078037848
 21
3.2193082077
 31
0.0
  0
LINE
  5
17E
330
1F
100
AcDbEntity
  8
0
  6
HIDDEN
 62
     7
100
AcDbLine
 10
8.8621344935
 20
3.3206940328
 30
0.0
 11
8.8621344935
 21
3.3846625384
 31
0.0
  0
LINE
  5
17F
330
1F
100
AcDbEntity
  8
0
  6
HIDDEN
 62
     7
100
AcDbLine
 10
8.8621344935
 20
3.3846625384
 30
0.0
 11
8.846386462
 21
3.4004105699
 31
0.0
  0
LINE
  5
180
330
1F
100
AcDbEntity
  8
0
  6
HIDDEN
 62
     7
100
AcDbLine
 10
8.5235518163
 20
3.4004105699
 30
0.0
 11
8.5078037848
 21
3.3846625384
 31
0.0
  0
LINE
  5
181
330
1F
100
AcDbEntity
  8
0
  6
HIDDEN
 62
     7
100
AcDbLine
 10
8.5078037848
 20
3.2193082077
 30
0.0
 11
8.5235518163
 21
3.2035601762
 31
0.0
  0
LINE
  5
182
330
1F
100
AcDbEntity
  8
0
  6
HIDDEN
 62
     7
100
AcDbLine
 10
8.783394336
 20
3.4004105699
 30
0.0
 11
8.783394336
 21
4.2896114448
 31
0.0
  0
LINE
  5
183
330
1F
100
AcDbEntity
  8
0
  6
HIDDEN
 62
     7
100
AcDbLine
 10
8.5865439423
 20
4.2901743494
 30
0.0
 11
8.5865439423
 21
3.4004105699
 31
0.0
  0
LINE
  5
184
330
1F
100
AcDbEntity
  8
0
  6
HIDDEN
 62
     7
100
AcDbLine
 10
8.6022919738
 20
4.3059223809
 30
0.0
 11
8.5865439423
 21
4.2901743494
 31
0.0
  0
LINE
  5
185
330
1F
100
AcDbEntity
  8
0
  6
CONTINUOUS
 62
     7
100
AcDbLine
 10
3.7400219302
 20
5.920008635
 30
0.0
 11
4.2082109065
 21
5.920008635
 31
0.0
  0
LINE
  5
186
330
1F
100
AcDbEntity
  8
0
  6
CONTINUOUS
 62
     7
100
AcDbLine
 10
2.4450613002
 20
5.920008635
 30
0.0
 11
3.7006518514
 21
5.920008635
 31
0.0
  0
LINE
  5
187
330
1F
100
AcDbEntity
  8
0
  6
CONTINUOUS
 62
     7
100
AcDbLine
 10
3.7006518514
 20
7.4239456429
 30
0.0
 11
2.9526203554
 21
7.4239456429
 31
0.0
  0
LINE
  5
188
330
1F
100
AcDbEntity
  8
0
  6
CONTINUOUS
 62
     7
100
AcDbLine
 10
4.2082109065
 20
7.4239456429
 30
0.0
 11
3.7400219302
 21
7.4239456429
 31
0.0
  0
LINE
  5
189
330
1F
100
AcDbEntity
  8
0
  6
CONTINUOUS
 62
     7
100
AcDbLine
 10
2.4250613002
 20
5.940008635
 30
0.0
 11
2.4450613002
 21
5.920008635
 31
0.0
  0
LINE
  5
18A
330
1F
100
AcDbEntity
  8
0
  6
CONTINUOUS
 62
     7
100
AcDbLine
 10
4.2082109065
 20
5.920008635
 30
0.0
 11
4.2282109065
 21
5.940008635
 31
0.0
  0
LINE
  5
18B
330
1F
100
AcDbEntity
  8
0
  6
CONTINUOUS
 62
     7
100
AcDbLine
 10
4.2282109065
 20
7.4039456429
 30
0.0
 11
4.2082109065
 21
7.4239456429
 31
0.0
  0
LINE
  5
18C
330
1F
100
AcDbEntity
  8
0
  6
CONTINUOUS
 62
     7
100
AcDbLine
 10
2.4450613002
 20
7.4236879411
 30
0.0
 11
2.4450613002
 21
5.920008635
 31
0.0
  0
LINE
  5
18D
330
1F
100
AcDbEntity
  8
0
  6
CONTINUOUS
 62
     7
100
AcDbLine
 10
2.9132502766
 20
7.4236879411
 30
0.0
 11
2.4450613002
 21
7.4236879411
 31
0.0
  0
LINE
  5
18E
330
1F
100
AcDbEntity
  8
0
  6
CONTINUOUS
 62
     7
100
AcDbLine
 10
2.9132502766
 20
6.2369377688
 30
0.0
 11
2.9132502766
 21
7.4236879411
 31
0.0
  0
LINE
  5
18F
330
1F
100
AcDbEntity
  8
0
  6
CONTINUOUS
 62
     7
100
AcDbLine
 10
2.9526203554
 20
6.2369377688
 30
0.0
 11
2.9132502766
 21
6.2369377688
 31
0.0
  0
LINE
  5
190
330
1F
100
AcDbEntity
  8
0
  6
CONTINUOUS
 62
     7
100
AcDbLine
 10
2.9526203554
 20
7.4239456429
 30
0.0
 11
2.9526203554
 21
6.2369377688
 31
0.0
  0
LINE
  5
191
330
1F
100
AcDbEntity
  8
0
  6
CONTINUOUS
 62
     7
100
AcDbLine
 10
3.7400219302
 20
5.9900588483
 30
0.0
 11
3.7400219302
 21
5.920008635
 31
0.0
  0
LINE
  5
192
330
1F
100
AcDbEntity
  8
0
  6
CONTINUOUS
 62
     7
100
AcDbLine
 10
3.7006518514
 20
5.9900588483
 30
0.0
 11
3.7400219302
 21
5.9900588483
 31
0.0
  0
LINE
  5
193
330
1F
100
AcDbEntity
  8
0
  6
CONTINUOUS
 62
     7
100
AcDbLine
 10
3.7006518514
 20
7.3538954295
 30
0.0
 11
3.7006518514
 21
7.4239456429
 31
0.0
  0
LINE
  5
194
330
1F
100
AcDbEntity
  8
0
  6
CONTINUOUS
 62
     7
100
AcDbLine
 10
3.7006518514
 20
5.920008635
 30
0.0
 11
3.7006518514
 21
5.9900588483
 31
0.0
  0
LINE
  5
195
330
1F
100
AcDbEntity
  8
0
  6
CONTINUOUS
 62
     7
100
AcDbLine
 10
3.7400219302
 20
7.3538954295
 30
0.0
 11
3.7006518514
 21
7.3538954295
 31
0.0
  0
LINE
  5
196
330
1F
100
AcDbEntity
  8
0
  6
CONTINUOUS
 62
     7
100
AcDbLine
 10
3.7400219302
 20
7.4239456429
 30
0.0
 11
3.7400219302
 21
7.3538954295
 31
0.0
  0
LINE
  5
197
330
1F
100
AcDbEntity
  8
0
  6
CONTINUOUS
 62
     7
100
AcDbLine
 10
4.2082109065
 20
5.920008635
 30
0.0
 11
4.2082109065
 21
7.4239456429
 31
0.0
  0
SPLINE
  5
198
330
1F
100
AcDbEntity
  8
0
  6
CONTINUOUS
 62
     7
100
AcDbSpline
210
0.0
220
0.0
230
1.0
 70
     8
 71
     3
 72
    52
 73
    48
 74
     0
 42
0.00000001
 43
0.00000001
 40
-0.0625000000000001
 40
-0.0625000000000001
 40
0.0
 40
0.0
 40
0.0312499999999997
 40
0.0312499999999997
 40
0.0624999999999994
 40
0.0624999999999994
 40
0.0937499999999992
 40
0.0937499999999992
 40
0.1249999999999989
 40
0.1249999999999989
 40
0.1874999999999983
 40
0.1874999999999983
 40
0.2499999999999978
 40
0.2499999999999978
 40
0.3124999999999974
 40
0.3124999999999974
 40
0.374999999999997
 40
0.374999999999997
 40
0.4062499999999969
 40
0.4062499999999969
 40
0.4374999999999968
 40
0.4374999999999968
 40
0.4687499999999969
 40
0.4687499999999969
 40
0.499999999999997
 40
0.499999999999997
 40
0.531249999999997
 40
0.531249999999997
 40
0.5624999999999972
 40
0.5624999999999972
 40
0.5937499999999973
 40
0.5937499999999973
 40
0.6249999999999976
 40
0.6249999999999976
 40
0.687499999999998
 40
0.687499999999998
 40
0.7499999999999984
 40
0.7499999999999984
 40
0.8124999999999989
 40
0.8124999999999989
 40
0.8749999999999993
 40
0.8749999999999993
 40
0.9062499999999996
 40
0.9062499999999996
 40
0.9374999999999999
 40
0.9374999999999999
 40
1.0
 40
1.0
 40
1.03125
 40
1.03125
 10
2.65214221072204
 20
7.220234900084339
 30
0.0
 10
2.677662577274864
 20
7.22023490008434
 30
0.0
 10
2.6859036680827
 20
7.219297298397907
 30
0.0
 10
2.701917421618461
 20
7.215740630561259
 30
0.0
 10
2.709561631820164
 20
7.213125397273014
 30
0.0
 10
2.723623437211395
 20
7.206702363019234
 30
0.0
 10
2.730167483332202
 20
7.202838097729217
 30
0.0
 10
2.741920267142505
 20
7.194342100939661
 30
0.0
 10
2.747213551124388
 20
7.189674436206764
 30
0.0
 10
2.76160052664893
 20
7.174500162085478
 30
0.0
 10
2.768921511147668
 20
7.16315575155616
 30
0.0
 10
2.77938475867645
 20
7.138657798777066
 30
0.0
 10
2.782478791175249
 20
7.125457725882662
 30
0.0
 10
2.783874737762277
 20
7.098454271941085
 30
0.0
 10
2.782152517801016
 20
7.084310146734873
 30
0.0
 10
2.773257045065264
 20
7.057027825717299
 30
0.0
 10
2.76593361373903
 20
7.043566142092703
 30
0.0
 10
2.750959039095945
 20
7.026044283581511
 30
0.0
 10
2.745191625208524
 20
7.02051335944786
 30
0.0
 10
2.732473441200729
 20
7.010715790557617
 30
0.0
 10
2.725607749470634
 20
7.006483976273502
 30
0.0
 10
2.710823762853744
 20
6.999448721084915
 30
0.0
 10
2.702822372738646
 20
6.996648158905455
 30
0.0
 10
2.68660377723105
 20
6.99292315762205
 30
0.0
 10
2.67824341994113
 20
6.99193598401122
 30
0.0
 10
2.66130476935746
 20
6.991844251239544
 30
0.0
 10
2.652985822591928
 20
6.992730115594107
 30
0.0
 10
2.636639334756773
 20
6.996297425947689
 30
0.0
 10
2.628631465364952
 20
6.999007088705731
 30
0.0
 10
2.613734104383698
 20
7.005905087103016
 30
0.0
 10
2.606656123182183
 20
7.0101763184142
 30
0.0
 10
2.593831323227062
 20
7.019884911064579
 30
0.0
 10
2.588083669911364
 20
7.025290934332538
 30
0.0
 10
2.572709271643759
 20
7.042991132876345
 30
0.0
 10
2.565344462326482
 20
7.056377070898083
 30
0.0
 10
2.556226085836003
 20
7.083875341258883
 30
0.0
 10
2.554458801575998
 20
7.09796550556239
 30
0.0
 10
2.555771895623445
 20
7.125167680011301
 30
0.0
 10
2.558850064810451
 20
7.138407258100131
 30
0.0
 10
2.569281899070373
 20
7.162972091209225
 30
0.0
 10
2.576595148401102
 20
7.174348209646094
 30
0.0
 10
2.590984650673542
 20
7.189569447491614
 30
0.0
 10
2.596282489229333
 20
7.19425380629365
 30
0.0
 10
2.608055979027748
 20
7.202783869938492
 30
0.0
 10
2.614611935408489
 20
7.206661037825019
 30
0.0
 10
2.635695675032431
 20
7.21631093492945
 30
0.0
 10
2.65214221072204
 20
7.220234900084339
 30
0.0
 10
2.677662577274864
 20
7.22023490008434
 30
0.0
  0
LINE
  5
199
330
1F
100
AcDbEntity
  8
0
  6
CONTINUOUS
 62
     7
100
AcDbLine
 10
2.4250613002
 20
7.4036808973
 30
0.0
 11
2.4450613002
 21
7.4236879411
 31
0.0
  0
LINE
  5
19A
330
1F
100
AcDbEntity
  8
0
  6
CONTINUOUS
 62
     7
100
AcDbLine
 10
2.4250613002
 20
5.940008635
 30
0.0
 11
2.4250613002
 21
7.4036808973
 31
0.0
  0
LINE
  5
19B
330
1F
100
AcDbEntity
  8
0
  6
CONTINUOUS
 62
     7
100
AcDbLine
 10
4.2282109065
 20
7.4039456429
 30
0.0
 11
4.2282109065
 21
5.940008635
 31
0.0
  0
ARC
  5
19C
330
1F
100
AcDbEntity
  8
0
  6
CONTINUOUS
 62
     7
100
AcDbCircle
 10
2.6691557884
 20
7.1060616717
 30
0.0
 40
0.1141732283464575
100
AcDbArc
 50
88.3684708104
 51
101.4862713842
  0
LINE
  5
19D
330
1F
100
AcDbEntity
  8
0
  6
CONTINUOUS
 62
     7
100
AcDbLine
 10
2.657867195
 20
6.9924478797
 30
0.0
 11
2.6691557884
 21
6.9918884434
 31
0.0
  0
CIRCLE
  5
19E
330
1F
100
AcDbEntity
  8
0
  6
CONTINUOUS
 62
     7
100
AcDbCircle
 10
2.6691557884
 20
7.1060616717
 30
0.0
 40
0.082677165354331
  0
CIRCLE
  5
19F
330
1F
100
AcDbEntity
  8
0
  6
CONTINUOUS
 62
     7
100
AcDbCircle
 10
2.6691557884
 20
7.1060616717
 30
0.0
 40
0.098425196850394
  0
SPLINE
  5
1A0
330
1F
100
AcDbEntity
  8
0
  6
HIDDEN
 62
     7
100
AcDbSpline
210
0.0
220
0.0
230
1.0
 70
     8
 71
     3
 72
    68
 73
    64
 74
     0
 42
0.00000001
 43
0.00000001
 40
-0.0312500000000001
 40
-0.0312500000000001
 40
0.0
 40
0.0
 40
0.0624999999999993
 40
0.0624999999999993
 40
0.0937499999999989
 40
0.0937499999999989
 40
0.1249999999999986
 40
0.1249999999999986
 40
0.1562499999999982
 40
0.1562499999999982
 40
0.1874999999999978
 40
0.1874999999999978
 40
0.2187499999999975
 40
0.2187499999999975
 40
0.2499999999999971
 40
0.2499999999999971
 40
0.2656249999999971
 40
0.2656249999999971
 40
0.2812499999999969
 40
0.2812499999999969
 40
0.2968749999999969
 40
0.2968749999999969
 40
0.3124999999999969
 40
0.3124999999999969
 40
0.3437499999999972
 40
0.3437499999999972
 40
0.3749999999999974
 40
0.3749999999999974
 40
0.4374999999999979
 40
0.4374999999999979
 40
0.4999999999999984
 40
0.4999999999999984
 40
0.5312499999999988
 40
0.5312499999999988
 40
0.5624999999999989
 40
0.5624999999999989
 40
0.5937499999999991
 40
0.5937499999999991
 40
0.6249999999999993
 40
0.6249999999999993
 40
0.6562499999999996
 40
0.6562499999999996
 40
0.6874999999999997
 40
0.6874999999999997
 40
0.7187499999999999
 40
0.7187499999999999
 40
0.7500000000000001
 40
0.7500000000000001
 40
0.7812500000000001
 40
0.7812500000000001
 40
0.8125
 40
0.8125
 40
0.84375
 40
0.84375
 40
0.875
 40
0.875
 40
0.90625
 40
0.90625
 40
0.9374999999999999
 40
0.9374999999999999
 40
0.9687499999999999
 40
0.9687499999999999
 40
1.0
 40
1.0
 40
1.062499999999999
 40
1.062499999999999
 10
4.200651851416048
 20
6.048447907832679
 30
0.0
 10
4.200651851416048
 20
6.076959260780415
 30
0.0
 10
4.19581916477744
 20
6.097193412495868
 30
0.0
 10
4.182954577485379
 20
6.129238441604217
 30
0.0
 10
4.177703395432389
 20
6.140166798444255
 30
0.0
 10
4.165619532515067
 20
6.161966022402651
 30
0.0
 10
4.158762014336603
 20
6.172906304487914
 30
0.0
 10
4.143356546891684
 20
6.194758917336962
 30
0.0
 10
4.134753682061957
 20
6.205733800554313
 30
0.0
 10
4.115952210898916
 20
6.226975827653075
 30
0.0
 10
4.105747975317128
 20
6.237285351845414
 30
0.0
 10
4.08319428873856
 20
6.256789252133652
 30
0.0
 10
4.070776072873249
 20
6.266024320619751
 30
0.0
 10
4.043715657368538
 20
6.281579381111354
 30
0.0
 10
4.028749030756662
 20
6.288020495850075
 30
0.0
 10
4.005048941106377
 20
6.293451241582497
 30
0.0
 10
3.996789579169799
 20
6.29457504614567
 30
0.0
 10
3.980445784770721
 20
6.295161294333139
 30
0.0
 10
3.972325235901829
 20
6.294653824463617
 30
0.0
 10
3.956183101509255
 20
6.292102103668818
 30
0.0
 10
3.948210061137704
 20
6.290047752996037
 30
0.0
 10
3.933059733097481
 20
6.284828980735234
 30
0.0
 10
3.925779347661368
 20
6.281651070391002
 30
0.0
 10
3.904657642925893
 20
6.270775008845363
 30
0.0
 10
3.891980205742354
 20
6.262012080724063
 30
0.0
 10
3.868706379062543
 20
6.243101082621391
 30
0.0
 10
3.857994332520247
 20
6.232807511965766
 30
0.0
 10
3.828881188889457
 20
6.201376086824842
 30
0.0
 10
3.813091375565157
 20
6.179538604217477
 30
0.0
 10
3.787429826958916
 20
6.135563057314952
 30
0.0
 10
3.778089546484713
 20
6.114191679549856
 30
0.0
 10
3.769948531809049
 20
6.083503326121988
 30
0.0
 10
3.768234677528119
 20
6.073407836172422
 30
0.0
 10
3.767237133219788
 20
6.054240001061575
 30
0.0
 10
3.767924283258066
 20
6.045135906119383
 30
0.0
 10
3.772007783009358
 20
6.027873978184057
 30
0.0
 10
3.775471775317338
 20
6.019652166044669
 30
0.0
 10
3.785240863900133
 20
6.0047960693025
 30
0.0
 10
3.791534325286525
 20
5.998081101496622
 30
0.0
 10
3.807261730240891
 20
5.98593958054154
 30
0.0
 10
3.816825493599258
 20
5.980491331966306
 30
0.0
 10
3.838351766687031
 20
5.971288369459939
 30
0.0
 10
3.850391634248216
 20
5.967440574621862
 30
0.0
 10
3.877223247671505
 20
5.961004588380725
 30
0.0
 10
3.891617977128452
 20
5.95851803256729
 30
0.0
 10
3.921817963825237
 20
5.954771752825263
 30
0.0
 10
3.937906714056492
 20
5.95349422140539
 30
0.0
 10
3.970168112838984
 20
5.952112110649709
 30
0.0
 10
3.98648897201177
 20
5.951978570646954
 30
0.0
 10
4.019338380896191
 20
5.952847235350233
 30
0.0
 10
4.035269157951409
 20
5.953832358677021
 30
0.0
 10
4.066174894326451
 20
5.95701201474744
 30
0.0
 10
4.081200645320858
 20
5.95923989534079
 30
0.0
 10
4.108737108902398
 20
5.964974784264353
 30
0.0
 10
4.121571764690096
 20
5.968539145797306
 30
0.0
 10
4.144555807326689
 20
5.977166602929074
 30
0.0
 10
4.154557237489476
 20
5.982151803279697
 30
0.0
 10
4.171781498075203
 20
5.993715489551529
 30
0.0
 10
4.178917516781723
 20
6.000283488765733
 30
0.0
 10
4.190019385005077
 20
6.014625577291643
 30
0.0
 10
4.194100928280838
 20
6.022528457092355
 30
0.0
 10
4.199410263458694
 20
6.039464138100748
 30
0.0
 10
4.200651851416048
 20
6.048447907832679
 30
0.0
 10
4.200651851416048
 20
6.076959260780415
 30
0.0
  0
SPLINE
  5
1A1
330
1F
100
AcDbEntity
  8
0
  6
HIDDEN
 62
     7
100
AcDbSpline
210
0.0
220
0.0
230
1.0
 70
     8
 71
     3
 72
    52
 73
    48
 74
     0
 42
0.00000001
 43
0.00000001
 40
-0.0625000000000001
 40
-0.0625000000000001
 40
0.0
 40
0.0
 40
0.0625000000000001
 40
0.0625000000000001
 40
0.0937500000000001
 40
0.0937500000000001
 40
0.1250000000000002
 40
0.1250000000000002
 40
0.1562500000000002
 40
0.1562500000000002
 40
0.1875000000000002
 40
0.1875000000000002
 40
0.2187500000000002
 40
0.2187500000000002
 40
0.2500000000000003
 40
0.2500000000000003
 40
0.2812500000000003
 40
0.2812500000000003
 40
0.3125000000000003
 40
0.3125000000000003
 40
0.3437500000000004
 40
0.3437500000000004
 40
0.3750000000000004
 40
0.3750000000000004
 40
0.4375000000000002
 40
0.4375000000000002
 40
0.5
 40
0.5
 40
0.5625000000000001
 40
0.5625000000000001
 40
0.6250000000000002
 40
0.6250000000000002
 40
0.6875000000000003
 40
0.6875000000000003
 40
0.7187500000000001
 40
0.7187500000000001
 40
0.75
 40
0.75
 40
0.7812499999999998
 40
0.7812499999999998
 40
0.8124999999999997
 40
0.8124999999999997
 40
0.8749999999999998
 40
0.8749999999999998
 40
0.9374999999999999
 40
0.9374999999999999
 40
1.0
 40
1.0
 40
1.0625
 40
1.0625
 10
4.098289646691639
 20
7.276257767654846
 30
0.0
 10
4.098289646691639
 20
7.295747403713677
 30
0.0
 10
4.095874134560749
 20
7.30475819405263
 30
0.0
 10
4.088026847008678
 20
7.317232053868032
 30
0.0
 10
4.084668115163984
 20
7.321210577109375
 30
0.0
 10
4.076633647680105
 20
7.328481478214449
 30
0.0
 10
4.07193601360232
 20
7.33182218132823
 30
0.0
 10
4.060995718819355
 20
7.337923066726763
 30
0.0
 10
4.054940105515549
 20
7.340576905189979
 30
0.0
 10
4.041690461912505
 20
7.345138397680282
 30
0.0
 10
4.034373653395708
 20
7.347071102417788
 30
0.0
 10
4.019035075968979
 20
7.350061920304043
 30
0.0
 10
4.011068678863306
 20
7.351127406498464
 30
0.0
 10
3.994523627178513
 20
7.352424881173815
 30
0.0
 10
3.986016992067793
 20
7.352637866295319
 30
0.0
 10
3.969324642646926
 20
7.352193851469599
 30
0.0
 10
3.960916881231454
 20
7.351528176700914
 30
0.0
 10
3.944898007150315
 20
7.349352587927766
 30
0.0
 10
3.937263796863842
 20
7.347856044637818
 30
0.0
 10
3.922737583866817
 20
7.343986117365472
 30
0.0
 10
3.916086431855031
 20
7.341673477945936
 30
0.0
 10
3.903990842203863
 20
7.336304997121723
 30
0.0
 10
3.89851451544396
 20
7.333216085678062
 30
0.0
 10
3.884417711254895
 20
7.323129068980753
 30
0.0
 10
3.877822735956225
 20
7.315096686278586
 30
0.0
 10
3.87024525158072
 20
7.297566063417824
 30
0.0
 10
3.869170635237324
 20
7.287957742781405
 30
0.0
 10
3.871780055661022
 20
7.268179659097234
 30
0.0
 10
3.875463883037243
 20
7.257889551835028
 30
0.0
 10
3.887019378921367
 20
7.237728854252982
 30
0.0
 10
3.895022001981481
 20
7.227627546782955
 30
0.0
 10
3.91521785021111
 20
7.209335452213889
 30
0.0
 10
3.927655586788096
 20
7.200903862956705
 30
0.0
 10
3.949686894867007
 20
7.191954723156784
 30
0.0
 10
3.957573179472216
 20
7.189623117298379
 30
0.0
 10
3.973934474896691
 20
7.186799295271088
 30
0.0
 10
3.98250083827551
 20
7.186319228819113
 30
0.0
 10
3.999192887623975
 20
7.187368475747562
 30
0.0
 10
4.007542434640542
 20
7.188909452198159
 30
0.0
 10
4.023096215296521
 20
7.193538346987687
 30
0.0
 10
4.030493907240037
 20
7.196663382660171
 30
0.0
 10
4.050634285379107
 20
7.207380269646722
 30
0.0
 10
4.061862888926252
 20
7.21648640734302
 30
0.0
 10
4.079699365310305
 20
7.23557007629908
 30
0.0
 10
4.086562489318279
 20
7.245833871057182
 30
0.0
 10
4.095804807267217
 20
7.266079450293658
 30
0.0
 10
4.098289646691639
 20
7.276257767654846
 30
0.0
 10
4.098289646691639
 20
7.295747403713677
 30
0.0
  0
LINE
  5
1A2
330
1F
100
AcDbEntity
  8
0
  6
HIDDEN
 62
     7
100
AcDbLine
 10
3.7006518514
 20
5.9900588483
 30
0.0
 11
3.7006518514
 21
7.3538954295
 31
0.0
  0
LINE
  5
1A3
330
1F
100
AcDbEntity
  8
0
  6
HIDDEN
 62
     7
100
AcDbLine
 10
3.7400219302
 20
5.9900588483
 30
0.0
 11
3.7400219302
 21
7.3538954295
 31
0.0
  0
SPLINE
  5
1A4
330
1F
100
AcDbEntity
  8
0
  6
HIDDEN
 62
     7
100
AcDbSpline
210
0.0
220
0.0
230
1.0
 70
    24
 71
     3
 72
     8
 73
     4
 74
     0
 42
0.00000001
 43
0.00000001
 40
0.0
 40
0.0
 40
0.0
 40
0.0
 40
1.0
 40
1.0
 40
1.0
 40
1.0
 10
4.228210906534159
 20
6.652292099546347
 30
0.0
 10
4.221538284818315
 20
6.652292099546347
 30
0.0
 10
4.214870484747181
 20
6.652292099546347
 30
0.0
 10
4.208210906534158
 20
6.652292099546347
 30
0.0
  0
SPLINE
  5
1A5
330
1F
100
AcDbEntity
  8
0
  6
HIDDEN
 62
     7
100
AcDbSpline
210
0.0
220
0.0
230
1.0
 70
    24
 71
     3
 72
     8
 73
     4
 74
     0
 42
0.00000001
 43
0.00000001
 40
0.0
 40
0.0
 40
0.0
 40
0.0
 40
1.0
 40
1.0
 40
1.0
 40
1.0
 10
4.228210906534159
 20
6.691662178286505
 30
0.0
 10
4.221538284818315
 20
6.691662178286505
 30
0.0
 10
4.214870484747181
 20
6.691662178286505
 30
0.0
 10
4.208210906534158
 20
6.691662178286505
 30
0.0
  0
SPLINE
  5
1A6
330
1F
100
AcDbEntity
  8
0
  6
HIDDEN
 62
     7
100
AcDbSpline
210
0.0
220
0.0
230
1.0
 70
     8
 71
     3
 72
     8
 73
     4
 74
     0
 42
0.00000001
 43
0.00000001
 40
0.0
 40
0.0
 40
0.0
 40
0.0
 40
1.0
 40
1.0
 40
1.0
 40
1.0
 10
2.445061300234947
 20
6.788435402363269
 30
0.0
 10
2.438401639908415
 20
6.795189530675287
 30
0.0
 10
2.431733904737797
 20
6.801935876672347
 30
0.0
 10
2.425061300234946
 20
6.80867730926699
 30
0.0
  0
LINE
  5
1A7
330
1F
100
AcDbEntity
  8
0
  6
HIDDEN
 62
     7
100
AcDbLine
 10
2.4450613002
 20
6.7884354024
 30
0.0
 11
2.9132502766
 21
6.7884354024
 31
0.0
  0
LINE
  5
1A8
330
1F
100
AcDbEntity
  8
0
  6
HIDDEN
 62
     7
100
AcDbLine
 10
3.7400219302
 20
6.6522920995
 30
0.0
 11
4.2082109065
 21
6.6522920995
 31
0.0
  0
LINE
  5
1A9
330
1F
100
AcDbEntity
  8
0
  6
HIDDEN
 62
     7
100
AcDbLine
 10
3.7400219302
 20
6.6916621783
 30
0.0
 11
4.2082109065
 21
6.6916621783
 31
0.0
  0
LINE
  5
1AA
330
1F
100
AcDbEntity
  8
0
  6
HIDDEN
 62
     7
100
AcDbLine
 10
4.2006518514
 20
6.3137094224
 30
0.0
 11
3.7675809853
 21
6.3137094224
 31
0.0
  0
CIRCLE
  5
1AB
330
1F
100
AcDbEntity
  8
0
  6
HIDDEN
 62
     7
100
AcDbCircle
 10
2.6691557884
 20
7.1060616717
 30
0.0
 40
0.2165354330708666
  0
LINE
  5
1AC
330
1F
100
AcDbEntity
  8
0
  6
HIDDEN
 62
     7
100
AcDbLine
 10
4.1612817727
 20
6.2979613909
 30
0.0
 11
3.806951064
 21
6.2979613909
 31
0.0
  0
LINE
  5
1AD
330
1F
100
AcDbEntity
  8
0
  6
HIDDEN
 62
     7
100
AcDbLine
 10
3.806951064
 20
6.1326070602
 30
0.0
 11
4.1612817727
 21
6.1326070602
 31
0.0
  0
LINE
  5
1AE
330
1F
100
AcDbEntity
  8
0
  6
HIDDEN
 62
     7
100
AcDbLine
 10
4.1455337412
 20
6.1168590287
 30
0.0
 11
3.8226990955
 21
6.1168590287
 31
0.0
  0
LINE
  5
1AF
330
1F
100
AcDbEntity
  8
0
  6
HIDDEN
 62
     7
100
AcDbLine
 10
3.901439253
 20
7.2192212334
 30
0.0
 11
4.0667935837
 21
7.2192212334
 31
0.0
  0
LINE
  5
1B0
330
1F
100
AcDbEntity
  8
0
  6
HIDDEN
 62
     7
100
AcDbLine
 10
4.0825416152
 20
7.2034732019
 30
0.0
 11
3.8856912215
 21
7.2034732019
 31
0.0
  0
LINE
  5
1B1
330
1F
100
AcDbEntity
  8
0
  6
HIDDEN
 62
     7
100
AcDbLine
 10
4.0628565758
 20
6.2349692649
 30
0.0
 11
3.9841164183
 21
6.2349692649
 31
0.0
  0
LINE
  5
1B2
330
1F
100
AcDbEntity
  8
0
  6
HIDDEN
 62
     7
100
AcDbLine
 10
3.9841164183
 20
6.2349692649
 30
0.0
 11
3.9841164183
 21
6.1168590287
 31
0.0
  0
LINE
  5
1B3
330
1F
100
AcDbEntity
  8
0
  6
HIDDEN
 62
     7
100
AcDbLine
 10
3.9841164183
 20
6.2349692649
 30
0.0
 11
3.9053762609
 21
6.2349692649
 31
0.0
  0
LINE
  5
1B4
330
1F
100
AcDbEntity
  8
0
  6
HIDDEN
 62
     7
100
AcDbLine
 10
4.0628565758
 20
6.2349692649
 30
0.0
 11
4.0628565758
 21
6.1168590287
 31
0.0
  0
LINE
  5
1B5
330
1F
100
AcDbEntity
  8
0
  6
HIDDEN
 62
     7
100
AcDbLine
 10
3.9053762609
 20
6.2349692649
 30
0.0
 11
3.9053762609
 21
6.1168590287
 31
0.0
  0
CIRCLE
  5
1B6
330
1F
100
AcDbEntity
  8
0
  6
HIDDEN
 62
     7
100
AcDbCircle
 10
2.6691557884
 20
7.1060616717
 30
0.0
 40
0.1771653543307079
  0
CIRCLE
  5
1B7
330
1F
100
AcDbEntity
  8
0
  6
HIDDEN
 62
     7
100
AcDbCircle
 10
2.6691557884
 20
7.1060616717
 30
0.0
 40
0.1614173228346454
  0
LINE
  5
1B8
330
1F
100
AcDbEntity
  8
0
  6
HIDDEN
 62
     7
100
AcDbLine
 10
2.7478959459
 20
7.1515223229
 30
0.0
 11
2.6691557884
 21
7.196982974
 31
0.0
  0
LINE
  5
1B9
330
1F
100
AcDbEntity
  8
0
  6
HIDDEN
 62
     7
100
AcDbLine
 10
2.6691557884
 20
7.196982974
 30
0.0
 11
2.5904156309
 21
7.1515223229
 31
0.0
  0
LINE
  5
1BA
330
1F
100
AcDbEntity
  8
0
  6
HIDDEN
 62
     7
100
AcDbLine
 10
2.7478959459
 20
7.0606010206
 30
0.0
 11
2.7478959459
 21
7.1515223229
 31
0.0
  0
LINE
  5
1BB
330
1F
100
AcDbEntity
  8
0
  6
HIDDEN
 62
     7
100
AcDbLine
 10
2.5904156309
 20
7.1515223229
 30
0.0
 11
2.5904156309
 21
7.0606010206
 31
0.0
  0
LINE
  5
1BC
330
1F
100
AcDbEntity
  8
0
  6
HIDDEN
 62
     7
100
AcDbLine
 10
2.6691557884
 20
7.0151403695
 30
0.0
 11
2.7478959459
 21
7.0606010206
 31
0.0
  0
LINE
  5
1BD
330
1F
100
AcDbEntity
  8
0
  6
HIDDEN
 62
     7
100
AcDbLine
 10
2.5904156309
 20
7.0606010206
 30
0.0
 11
2.6691557884
 21
7.0151403695
 31
0.0
  0
LINE
  5
1BE
330
1F
100
AcDbEntity
  8
0
  6
HIDDEN
 62
     7
100
AcDbLine
 10
4.2282109065
 20
6.8100873751
 30
0.0
 11
4.2082109065
 21
6.7900873751
 31
0.0
  0
LINE
  5
1BF
330
1F
100
AcDbEntity
  8
0
  6
HIDDEN
 62
     7
100
AcDbLine
 10
4.2082109065
 20
6.5538669027
 30
0.0
 11
4.2282109065
 21
6.5338669027
 31
0.0
  0
LINE
  5
1C0
330
1F
100
AcDbEntity
  8
0
  6
HIDDEN
 62
     7
100
AcDbLine
 10
2.4250613002
 20
6.5338669027
 30
0.0
 11
2.4450613002
 21
6.5538669027
 31
0.0
  0
LINE
  5
1C1
330
1F
100
AcDbEntity
  8
0
  6
HIDDEN
 62
     7
100
AcDbLine
 10
3.7006518514
 20
6.7900873751
 30
0.0
 11
2.9526203554
 21
6.7900873751
 31
0.0
  0
LINE
  5
1C2
330
1F
100
AcDbEntity
  8
0
  6
HIDDEN
 62
     7
100
AcDbLine
 10
2.9526203554
 20
6.5538669027
 30
0.0
 11
3.7006518514
 21
6.5538669027
 31
0.0
  0
LINE
  5
1C3
330
1F
100
AcDbEntity
  8
0
  6
HIDDEN
 62
     7
100
AcDbLine
 10
2.4450613002
 20
6.5538669027
 30
0.0
 11
2.9132502766
 21
6.5538669027
 31
0.0
  0
LINE
  5
1C4
330
1F
100
AcDbEntity
  8
0
  6
HIDDEN
 62
     7
100
AcDbLine
 10
4.2082109065
 20
6.7900873751
 30
0.0
 11
3.7400219302
 21
6.7900873751
 31
0.0
  0
LINE
  5
1C5
330
1F
100
AcDbEntity
  8
0
  6
HIDDEN
 62
     7
100
AcDbLine
 10
3.7400219302
 20
6.5538669027
 30
0.0
 11
4.2082109065
 21
6.5538669027
 31
0.0
  0
LINE
  5
1C6
330
1F
100
AcDbEntity
  8
0
  6
HIDDEN
 62
     7
100
AcDbLine
 10
4.2006518514
 20
6.0579516921
 30
0.0
 11
4.2006518514
 21
6.3137094224
 31
0.0
  0
LINE
  5
1C7
330
1F
100
AcDbEntity
  8
0
  6
HIDDEN
 62
     7
100
AcDbLine
 10
3.7675809853
 20
6.3137094224
 30
0.0
 11
3.7675809853
 21
6.058007615
 31
0.0
  0
LINE
  5
1C8
330
1F
100
AcDbEntity
  8
0
  6
HIDDEN
 62
     7
100
AcDbLine
 10
4.0982896467
 20
6.6916621783
 30
0.0
 11
4.0982896467
 21
7.2860025857
 31
0.0
  0
LINE
  5
1C9
330
1F
100
AcDbEntity
  8
0
  6
HIDDEN
 62
     7
100
AcDbLine
 10
3.86994319
 20
7.2859196602
 30
0.0
 11
3.86994319
 21
6.6916621783
 31
0.0
  0
LINE
  5
1CA
330
1F
100
AcDbEntity
  8
0
  6
HIDDEN
 62
     7
100
AcDbLine
 10
4.0982896467
 20
6.3137094224
 30
0.0
 11
4.0982896467
 21
6.6522920995
 31
0.0
  0
LINE
  5
1CB
330
1F
100
AcDbEntity
  8
0
  6
HIDDEN
 62
     7
100
AcDbLine
 10
3.86994319
 20
6.6522920995
 30
0.0
 11
3.86994319
 21
6.3137094224
 31
0.0
  0
LINE
  5
1CC
330
1F
100
AcDbEntity
  8
0
  6
HIDDEN
 62
     7
100
AcDbLine
 10
4.1612817727
 20
6.2979613909
 30
0.0
 11
4.1455337412
 21
6.3137094224
 31
0.0
  0
LINE
  5
1CD
330
1F
100
AcDbEntity
  8
0
  6
HIDDEN
 62
     7
100
AcDbLine
 10
3.8226990955
 20
6.3137094224
 30
0.0
 11
3.806951064
 21
6.2979613909
 31
0.0
  0
LINE
  5
1CE
330
1F
100
AcDbEntity
  8
0
  6
HIDDEN
 62
     7
100
AcDbLine
 10
3.806951064
 20
6.2979613909
 30
0.0
 11
3.806951064
 21
6.1326070602
 31
0.0
  0
LINE
  5
1CF
330
1F
100
AcDbEntity
  8
0
  6
HIDDEN
 62
     7
100
AcDbLine
 10
4.1612817727
 20
6.1326070602
 30
0.0
 11
4.1612817727
 21
6.2979613909
 31
0.0
  0
LINE
  5
1D0
330
1F
100
AcDbEntity
  8
0
  6
HIDDEN
 62
     7
100
AcDbLine
 10
3.806951064
 20
6.1326070602
 30
0.0
 11
3.8226990955
 21
6.1168590287
 31
0.0
  0
LINE
  5
1D1
330
1F
100
AcDbEntity
  8
0
  6
HIDDEN
 62
     7
100
AcDbLine
 10
4.1455337412
 20
6.1168590287
 30
0.0
 11
4.1612817727
 21
6.1326070602
 31
0.0
  0
LINE
  5
1D2
330
1F
100
AcDbEntity
  8
0
  6
HIDDEN
 62
     7
100
AcDbLine
 10
4.0825416152
 20
7.2034732019
 30
0.0
 11
4.0667935837
 21
7.2192212334
 31
0.0
  0
LINE
  5
1D3
330
1F
100
AcDbEntity
  8
0
  6
HIDDEN
 62
     7
100
AcDbLine
 10
3.901439253
 20
7.2192212334
 30
0.0
 11
3.8856912215
 21
7.2034732019
 31
0.0
  0
LINE
  5
1D4
330
1F
100
AcDbEntity
  8
0
  6
HIDDEN
 62
     7
100
AcDbLine
 10
4.0825416152
 20
6.3137094224
 30
0.0
 11
4.0825416152
 21
7.2034732019
 31
0.0
  0
LINE
  5
1D5
330
1F
100
AcDbEntity
  8
0
  6
HIDDEN
 62
     7
100
AcDbLine
 10
3.8856912215
 20
7.2034732019
 30
0.0
 11
3.8856912215
 21
6.3137094224
 31
0.0
  0
LINE
  5
1D6
330
1F
100
AcDbEntity
  8
0
  6
CONTINUOUS
 62
     7
100
AcDbLine
 10
9.3286299388
 20
6.7832130001
 30
0.0
 11
9.3286299388
 21
6.7995411623
 31
0.0
  0
LINE
  5
1D7
330
1F
100
AcDbEntity
  8
0
  6
CONTINUOUS
 62
     7
100
AcDbLine
 10
8.3990111315
 20
5.8540105734
 30
0.0
 11
8.4209542137
 21
5.8413431017
 31
0.0
  0
LINE
  5
1D8
330
1F
100
AcDbEntity
  8
0
  6
CONTINUOUS
 62
     7
100
AcDbLine
 10
8.0898946136
 20
6.0324597408
 30
0.0
 11
8.1259919328
 21
6.011621202
 31
0.0
  0
LINE
  5
1D9
330
1F
100
AcDbEntity
  8
0
  6
CONTINUOUS
 62
     7
100
AcDbLine
 10
7.1742191709
 20
6.5610679222
 30
0.0
 11
8.062055764
 21
6.0485307666
 31
0.0
  0
LINE
  5
1DA
330
1F
100
AcDbEntity
  8
0
  6
CONTINUOUS
 62
     7
100
AcDbLine
 10
8.0429190932
 20
7.7961279652
 30
0.0
 11
7.9261265643
 21
7.863550857
 31
0.0
  0
LINE
  5
1DB
330
1F
100
AcDbEntity
  8
0
  6
CONTINUOUS
 62
     7
100
AcDbLine
 10
8.2571861644
 20
7.6724342179
 30
0.0
 11
8.126167201
 21
7.7480698555
 31
0.0
  0
LINE
  5
1DC
330
1F
100
AcDbEntity
  8
0
  6
CONTINUOUS
 62
     7
100
AcDbLine
 10
9.1728616072
 20
7.1438260365
 30
0.0
 11
8.285025014
 21
7.656363192
 31
0.0
  0
LINE
  5
1DD
330
1F
100
AcDbEntity
  8
0
  6
CONTINUOUS
 62
     7
100
AcDbLine
 10
7.5500864478
 20
7.8262724651
 30
0.0
 11
7.5359466107
 21
7.8181070571
 31
0.0
  0
LINE
  5
1DE
330
1F
100
AcDbEntity
  8
0
  6
CONTINUOUS
 62
     7
100
AcDbLine
 10
7.0184508392
 20
6.9216809586
 30
0.0
 11
7.0184508392
 21
6.9053527963
 31
0.0
  0
LINE
  5
1DF
330
1F
100
AcDbEntity
  8
0
  6
CONTINUOUS
 62
     7
100
AcDbLine
 10
8.1317821145
 20
6.0817596737
 30
0.0
 11
8.1317821145
 21
6.068902853
 31
0.0
  0
LINE
  5
1E0
330
1F
100
AcDbEntity
  8
0
  6
CONTINUOUS
 62
     7
100
AcDbLine
 10
8.2459028473
 20
5.8712185262
 30
0.0
 11
8.2570365773
 21
5.8647890711
 31
0.0
  0
LINE
  5
1E1
330
1F
100
AcDbEntity
  8
0
  6
CONTINUOUS
 62
     7
100
AcDbLine
 10
8.3456324162
 20
5.8560062039
 30
0.0
 11
8.3750276456
 21
5.8729757086
 31
0.0
  0
LINE
  5
1E2
330
1F
100
AcDbEntity
  8
0
  6
CONTINUOUS
 62
     7
100
AcDbLine
 10
8.0851841494
 20
7.7721874394
 30
0.0
 11
8.0740468002
 21
7.7786189842
 31
0.0
  0
POLYLINE
  5
1E3
330
1F
100
AcDbEntity
  8
0
  6
CONTINUOUS
 62
     7
100
AcDb2dPolyline
 66
     1
 10
0.0
 20
0.0
 30
0.0
  0
VERTEX
  5
211
330
1E3
100
AcDbEntity
  8
0
  6
CONTINUOUS
 62
     7
100
AcDbVertex
100
AcDb2dVertex
 10
8.8249694709
 20
5.89499002
 30
0.0
  0
VERTEX
  5
212
330
1E3
100
AcDbEntity
  8
0
  6
CONTINUOUS
 62
     7
100
AcDbVertex
100
AcDb2dVertex
 10
8.8513582286
 20
5.9118229811
 30
0.0
  0
VERTEX
  5
213
330
1E3
100
AcDbEntity
  8
0
  6
CONTINUOUS
 62
     7
100
AcDbVertex
100
AcDb2dVertex
 10
8.8776419183
 20
5.9301484851
 30
0.0
  0
VERTEX
  5
214
330
1E3
100
AcDbEntity
  8
0
  6
CONTINUOUS
 62
     7
100
AcDbVertex
100
AcDb2dVertex
 10
8.9037520284
 20
5.9499187642
 30
0.0
  0
VERTEX
  5
215
330
1E3
100
AcDbEntity
  8
0
  6
CONTINUOUS
 62
     7
100
AcDbVertex
100
AcDb2dVertex
 10
8.9296204999
 20
5.9710822849
 30
0.0
  0
VERTEX
  5
216
330
1E3
100
AcDbEntity
  8
0
  6
CONTINUOUS
 62
     7
100
AcDbVertex
100
AcDb2dVertex
 10
8.9551799036
 20
5.9935838821
 30
0.0
  0
VERTEX
  5
217
330
1E3
100
AcDbEntity
  8
0
  6
CONTINUOUS
 62
     7
100
AcDbVertex
100
AcDb2dVertex
 10
8.9803636158
 20
6.0173649027
 30
0.0
  0
VERTEX
  5
218
330
1E3
100
AcDbEntity
  8
0
  6
CONTINUOUS
 62
     7
100
AcDbVertex
100
AcDb2dVertex
 10
9.0051059923
 20
6.0423633586
 30
0.0
  0
VERTEX
  5
219
330
1E3
100
AcDbEntity
  8
0
  6
CONTINUOUS
 62
     7
100
AcDbVertex
100
AcDb2dVertex
 10
9.0293425391
 20
6.0685140884
 30
0.0
  0
VERTEX
  5
21A
330
1E3
100
AcDbEntity
  8
0
  6
CONTINUOUS
 62
     7
100
AcDbVertex
100
AcDb2dVertex
 10
9.0530100809
 20
6.0957489272
 30
0.0
  0
VERTEX
  5
21B
330
1E3
100
AcDbEntity
  8
0
  6
CONTINUOUS
 62
     7
100
AcDbVertex
100
AcDb2dVertex
 10
9.0760469253
 20
6.1239968842
 30
0.0
  0
VERTEX
  5
21C
330
1E3
100
AcDbEntity
  8
0
  6
CONTINUOUS
 62
     7
100
AcDbVertex
100
AcDb2dVertex
 10
9.0983930242
 20
6.1531843277
 30
0.0
  0
VERTEX
  5
21D
330
1E3
100
AcDbEntity
  8
0
  6
CONTINUOUS
 62
     7
100
AcDbVertex
100
AcDb2dVertex
 10
9.1199901299
 20
6.1832351772
 30
0.0
  0
VERTEX
  5
21E
330
1E3
100
AcDbEntity
  8
0
  6
CONTINUOUS
 62
     7
100
AcDbVertex
100
AcDb2dVertex
 10
9.1407819468
 20
6.2140711017
 30
0.0
  0
VERTEX
  5
21F
330
1E3
100
AcDbEntity
  8
0
  6
CONTINUOUS
 62
     7
100
AcDbVertex
100
AcDb2dVertex
 10
9.1607142787
 20
6.2456117237
 30
0.0
  0
VERTEX
  5
220
330
1E3
100
AcDbEntity
  8
0
  6
CONTINUOUS
 62
     7
100
AcDbVertex
100
AcDb2dVertex
 10
9.1797351697
 20
6.2777748288
 30
0.0
  0
VERTEX
  5
221
330
1E3
100
AcDbEntity
  8
0
  6
CONTINUOUS
 62
     7
100
AcDbVertex
100
AcDb2dVertex
 10
9.1977950395
 20
6.3104765801
 30
0.0
  0
VERTEX
  5
222
330
1E3
100
AcDbEntity
  8
0
  6
CONTINUOUS
 62
     7
100
AcDbVertex
100
AcDb2dVertex
 10
9.214846813
 20
6.3436317367
 30
0.0
  0
VERTEX
  5
223
330
1E3
100
AcDbEntity
  8
0
  6
CONTINUOUS
 62
     7
100
AcDbVertex
100
AcDb2dVertex
 10
9.2308460427
 20
6.3771538758
 30
0.0
  0
VERTEX
  5
224
330
1E3
100
AcDbEntity
  8
0
  6
CONTINUOUS
 62
     7
100
AcDbVertex
100
AcDb2dVertex
 10
9.2457510247
 20
6.4109556179
 30
0.0
  0
VERTEX
  5
225
330
1E3
100
AcDbEntity
  8
0
  6
CONTINUOUS
 62
     7
100
AcDbVertex
100
AcDb2dVertex
 10
9.2595229075
 20
6.4449488548
 30
0.0
  0
VERTEX
  5
226
330
1E3
100
AcDbEntity
  8
0
  6
CONTINUOUS
 62
     7
100
AcDbVertex
100
AcDb2dVertex
 10
9.272125793
 20
6.4790449792
 30
0.0
  0
VERTEX
  5
227
330
1E3
100
AcDbEntity
  8
0
  6
CONTINUOUS
 62
     7
100
AcDbVertex
100
AcDb2dVertex
 10
9.2835268303
 20
6.5131551155
 30
0.0
  0
VERTEX
  5
228
330
1E3
100
AcDbEntity
  8
0
  6
CONTINUOUS
 62
     7
100
AcDbVertex
100
AcDb2dVertex
 10
9.2936963012
 20
6.5471903516
 30
0.0
  0
VERTEX
  5
229
330
1E3
100
AcDbEntity
  8
0
  6
CONTINUOUS
 62
     7
100
AcDbVertex
100
AcDb2dVertex
 10
9.3026076979
 20
6.5810619707
 30
0.0
  0
VERTEX
  5
22A
330
1E3
100
AcDbEntity
  8
0
  6
CONTINUOUS
 62
     7
100
AcDbVertex
100
AcDb2dVertex
 10
9.3102377918
 20
6.6146816823
 30
0.0
  0
VERTEX
  5
22B
330
1E3
100
AcDbEntity
  8
0
  6
CONTINUOUS
 62
     7
100
AcDbVertex
100
AcDb2dVertex
 10
9.316566694
 20
6.6479618528
 30
0.0
  0
VERTEX
  5
22C
330
1E3
100
AcDbEntity
  8
0
  6
CONTINUOUS
 62
     7
100
AcDbVertex
100
AcDb2dVertex
 10
9.3215779076
 20
6.6808157336
 30
0.0
  0
VERTEX
  5
22D
330
1E3
100
AcDbEntity
  8
0
  6
CONTINUOUS
 62
     7
100
AcDbVertex
100
AcDb2dVertex
 10
9.3252583703
 20
6.713157687
 30
0.0
  0
VERTEX
  5
22E
330
1E3
100
AcDbEntity
  8
0
  6
CONTINUOUS
 62
     7
100
AcDbVertex
100
AcDb2dVertex
 10
9.3275984884
 20
6.7449034099
 30
0.0
  0
VERTEX
  5
22F
330
1E3
100
AcDbEntity
  8
0
  6
CONTINUOUS
 62
     7
100
AcDbVertex
100
AcDb2dVertex
 10
9.3285921623
 20
6.7759701535
 30
0.0
  0
VERTEX
  5
230
330
1E3
100
AcDbEntity
  8
0
  6
CONTINUOUS
 62
     7
100
AcDbVertex
100
AcDb2dVertex
 10
9.3282368017
 20
6.8062769386
 30
0.0
  0
VERTEX
  5
231
330
1E3
100
AcDbEntity
  8
0
  6
CONTINUOUS
 62
     7
100
AcDbVertex
100
AcDb2dVertex
 10
9.326533333
 20
6.835744767
 30
0.0
  0
VERTEX
  5
232
330
1E3
100
AcDbEntity
  8
0
  6
CONTINUOUS
 62
     7
100
AcDbVertex
100
AcDb2dVertex
 10
9.3234861965
 20
6.8642968273
 30
0.0
  0
VERTEX
  5
233
330
1E3
100
AcDbEntity
  8
0
  6
CONTINUOUS
 62
     7
100
AcDbVertex
100
AcDb2dVertex
 10
9.3191033348
 20
6.8918586952
 30
0.0
  0
VERTEX
  5
234
330
1E3
100
AcDbEntity
  8
0
  6
CONTINUOUS
 62
     7
100
AcDbVertex
100
AcDb2dVertex
 10
9.3133961724
 20
6.9183585275
 30
0.0
  0
VERTEX
  5
235
330
1E3
100
AcDbEntity
  8
0
  6
CONTINUOUS
 62
     7
100
AcDbVertex
100
AcDb2dVertex
 10
9.3063795858
 20
6.9437272492
 30
0.0
  0
VERTEX
  5
236
330
1E3
100
AcDbEntity
  8
0
  6
CONTINUOUS
 62
     7
100
AcDbVertex
100
AcDb2dVertex
 10
9.2980718644
 20
6.9678987338
 30
0.0
  0
VERTEX
  5
237
330
1E3
100
AcDbEntity
  8
0
  6
CONTINUOUS
 62
     7
100
AcDbVertex
100
AcDb2dVertex
 10
9.2884946633
 20
6.9908099754
 30
0.0
  0
VERTEX
  5
238
330
1E3
100
AcDbEntity
  8
0
  6
CONTINUOUS
 62
     7
100
AcDbVertex
100
AcDb2dVertex
 10
9.2776729467
 20
7.0124012533
 30
0.0
  0
VERTEX
  5
239
330
1E3
100
AcDbEntity
  8
0
  6
CONTINUOUS
 62
     7
100
AcDbVertex
100
AcDb2dVertex
 10
9.2656349226
 20
7.0326162872
 30
0.0
  0
VERTEX
  5
23A
330
1E3
100
AcDbEntity
  8
0
  6
CONTINUOUS
 62
     7
100
AcDbVertex
100
AcDb2dVertex
 10
9.2524119694
 20
7.0514023842
 30
0.0
  0
VERTEX
  5
23B
330
1E3
100
AcDbEntity
  8
0
  6
CONTINUOUS
 62
     7
100
AcDbVertex
100
AcDb2dVertex
 10
9.2380385545
 20
7.0687105762
 30
0.0
  0
VERTEX
  5
23C
330
1E3
100
AcDbEntity
  8
0
  6
CONTINUOUS
 62
     7
100
AcDbVertex
100
AcDb2dVertex
 10
9.2225521439
 20
7.0844957473
 30
0.0
  0
VERTEX
  5
23D
330
1E3
100
AcDbEntity
  8
0
  6
CONTINUOUS
 62
     7
100
AcDbVertex
100
AcDb2dVertex
 10
9.2059931045
 20
7.0987167516
 30
0.0
  0
VERTEX
  5
23E
330
1E3
100
AcDbEntity
  8
0
  6
CONTINUOUS
 62
     7
100
AcDbVertex
100
AcDb2dVertex
 10
9.1884045996
 20
7.1113365205
 30
0.0
  0
VERTEX
  5
23F
330
1E3
100
AcDbEntity
  8
0
  6
CONTINUOUS
 62
     7
100
AcDbVertex
100
AcDb2dVertex
 10
9.1698324757
 20
7.1223221589
 30
0.0
  0
VERTEX
  5
240
330
1E3
100
AcDbEntity
  8
0
  6
CONTINUOUS
 62
     7
100
AcDbVertex
100
AcDb2dVertex
 10
9.1503251431
 20
7.1316450316
 30
0.0
  0
VERTEX
  5
241
330
1E3
100
AcDbEntity
  8
0
  6
CONTINUOUS
 62
     7
100
AcDbVertex
100
AcDb2dVertex
 10
9.1299334501
 20
7.1392808373
 30
0.0
  0
VERTEX
  5
242
330
1E3
100
AcDbEntity
  8
0
  6
CONTINUOUS
 62
     7
100
AcDbVertex
100
AcDb2dVertex
 10
9.10871055
 20
7.1452096725
 30
0.0
  0
VERTEX
  5
243
330
1E3
100
AcDbEntity
  8
0
  6
CONTINUOUS
 62
     7
100
AcDbVertex
100
AcDb2dVertex
 10
9.0867117627
 20
7.1494160829
 30
0.0
  0
VERTEX
  5
244
330
1E3
100
AcDbEntity
  8
0
  6
CONTINUOUS
 62
     7
100
AcDbVertex
100
AcDb2dVertex
 10
9.0639944307
 20
7.151889104
 30
0.0
  0
VERTEX
  5
245
330
1E3
100
AcDbEntity
  8
0
  6
CONTINUOUS
 62
     7
100
AcDbVertex
100
AcDb2dVertex
 10
9.0406177695
 20
7.1526222896
 30
0.0
  0
VERTEX
  5
246
330
1E3
100
AcDbEntity
  8
0
  6
CONTINUOUS
 62
     7
100
AcDbVertex
100
AcDb2dVertex
 10
9.0166427129
 20
7.1516137287
 30
0.0
  0
VERTEX
  5
247
330
1E3
100
AcDbEntity
  8
0
  6
CONTINUOUS
 62
     7
100
AcDbVertex
100
AcDb2dVertex
 10
8.9921317549
 20
7.14886605
 30
0.0
  0
VERTEX
  5
248
330
1E3
100
AcDbEntity
  8
0
  6
CONTINUOUS
 62
     7
100
AcDbVertex
100
AcDb2dVertex
 10
8.967148786
 20
7.1443864158
 30
0.0
  0
VERTEX
  5
249
330
1E3
100
AcDbEntity
  8
0
  6
CONTINUOUS
 62
     7
100
AcDbVertex
100
AcDb2dVertex
 10
8.9417589275
 20
7.1381865027
 30
0.0
  0
VERTEX
  5
24A
330
1E3
100
AcDbEntity
  8
0
  6
CONTINUOUS
 62
     7
100
AcDbVertex
100
AcDb2dVertex
 10
8.9160283609
 20
7.1302824716
 30
0.0
  0
VERTEX
  5
24B
330
1E3
100
AcDbEntity
  8
0
  6
CONTINUOUS
 62
     7
100
AcDbVertex
100
AcDb2dVertex
 10
8.8900241559
 20
7.1206949252
 30
0.0
  0
VERTEX
  5
24C
330
1E3
100
AcDbEntity
  8
0
  6
CONTINUOUS
 62
     7
100
AcDbVertex
100
AcDb2dVertex
 10
8.8638140956
 20
7.1094488546
 30
0.0
  0
VERTEX
  5
24D
330
1E3
100
AcDbEntity
  8
0
  6
CONTINUOUS
 62
     7
100
AcDbVertex
100
AcDb2dVertex
 10
8.8374664996
 20
7.0965735741
 30
0.0
  0
VERTEX
  5
24E
330
1E3
100
AcDbEntity
  8
0
  6
CONTINUOUS
 62
     7
100
AcDbVertex
100
AcDb2dVertex
 10
8.8110500461
 20
7.0821026445
 30
0.0
  0
VERTEX
  5
24F
330
1E3
100
AcDbEntity
  8
0
  6
CONTINUOUS
 62
     7
100
AcDbVertex
100
AcDb2dVertex
 10
8.7846335925
 20
7.066073786
 30
0.0
  0
VERTEX
  5
250
330
1E3
100
AcDbEntity
  8
0
  6
CONTINUOUS
 62
     7
100
AcDbVertex
100
AcDb2dVertex
 10
8.7582859965
 20
7.0485287797
 30
0.0
  0
VERTEX
  5
251
330
1E3
100
AcDbEntity
  8
0
  6
CONTINUOUS
 62
     7
100
AcDbVertex
100
AcDb2dVertex
 10
8.7320759362
 20
7.0295133588
 30
0.0
  0
VERTEX
  5
252
330
1E3
100
AcDbEntity
  8
0
  6
CONTINUOUS
 62
     7
100
AcDbVertex
100
AcDb2dVertex
 10
8.7060717313
 20
7.0090770892
 30
0.0
  0
VERTEX
  5
253
330
1E3
100
AcDbEntity
  8
0
  6
CONTINUOUS
 62
     7
100
AcDbVertex
100
AcDb2dVertex
 10
8.6803411646
 20
6.9872732405
 30
0.0
  0
VERTEX
  5
254
330
1E3
100
AcDbEntity
  8
0
  6
CONTINUOUS
 62
     7
100
AcDbVertex
100
AcDb2dVertex
 10
8.6549513061
 20
6.9641586468
 30
0.0
  0
VERTEX
  5
255
330
1E3
100
AcDbEntity
  8
0
  6
CONTINUOUS
 62
     7
100
AcDbVertex
100
AcDb2dVertex
 10
8.6299683372
 20
6.9397935592
 30
0.0
  0
VERTEX
  5
256
330
1E3
100
AcDbEntity
  8
0
  6
CONTINUOUS
 62
     7
100
AcDbVertex
100
AcDb2dVertex
 10
8.6054573792
 20
6.9142414881
 30
0.0
  0
VERTEX
  5
257
330
1E3
100
AcDbEntity
  8
0
  6
CONTINUOUS
 62
     7
100
AcDbVertex
100
AcDb2dVertex
 10
8.5814823226
 20
6.887569038
 30
0.0
  0
VERTEX
  5
258
330
1E3
100
AcDbEntity
  8
0
  6
CONTINUOUS
 62
     7
100
AcDbVertex
100
AcDb2dVertex
 10
8.5581056614
 20
6.8598457338
 30
0.0
  0
VERTEX
  5
259
330
1E3
100
AcDbEntity
  8
0
  6
CONTINUOUS
 62
     7
100
AcDbVertex
100
AcDb2dVertex
 10
8.5353883294
 20
6.8311438394
 30
0.0
  0
VERTEX
  5
25A
330
1E3
100
AcDbEntity
  8
0
  6
CONTINUOUS
 62
     7
100
AcDbVertex
100
AcDb2dVertex
 10
8.5133895421
 20
6.8015381699
 30
0.0
  0
VERTEX
  5
25B
330
1E3
100
AcDbEntity
  8
0
  6
CONTINUOUS
 62
     7
100
AcDbVertex
100
AcDb2dVertex
 10
8.492166642
 20
6.7711058958
 30
0.0
  0
VERTEX
  5
25C
330
1E3
100
AcDbEntity
  8
0
  6
CONTINUOUS
 62
     7
100
AcDbVertex
100
AcDb2dVertex
 10
8.471774949
 20
6.7399263424
 30
0.0
  0
VERTEX
  5
25D
330
1E3
100
AcDbEntity
  8
0
  6
CONTINUOUS
 62
     7
100
AcDbVertex
100
AcDb2dVertex
 10
8.4522676164
 20
6.708080783
 30
0.0
  0
VERTEX
  5
25E
330
1E3
100
AcDbEntity
  8
0
  6
CONTINUOUS
 62
     7
100
AcDbVertex
100
AcDb2dVertex
 10
8.4336954925
 20
6.6756522267
 30
0.0
  0
VERTEX
  5
25F
330
1E3
100
AcDbEntity
  8
0
  6
CONTINUOUS
 62
     7
100
AcDbVertex
100
AcDb2dVertex
 10
8.4161069876
 20
6.6427252024
 30
0.0
  0
VERTEX
  5
260
330
1E3
100
AcDbEntity
  8
0
  6
CONTINUOUS
 62
     7
100
AcDbVertex
100
AcDb2dVertex
 10
8.3995479483
 20
6.6093855382
 30
0.0
  0
VERTEX
  5
261
330
1E3
100
AcDbEntity
  8
0
  6
CONTINUOUS
 62
     7
100
AcDbVertex
100
AcDb2dVertex
 10
8.3840615376
 20
6.5757201379
 30
0.0
  0
VERTEX
  5
262
330
1E3
100
AcDbEntity
  8
0
  6
CONTINUOUS
 62
     7
100
AcDbVertex
100
AcDb2dVertex
 10
8.3696881227
 20
6.5418167543
 30
0.0
  0
VERTEX
  5
263
330
1E3
100
AcDbEntity
  8
0
  6
CONTINUOUS
 62
     7
100
AcDbVertex
100
AcDb2dVertex
 10
8.3564651696
 20
6.5077637606
 30
0.0
  0
VERTEX
  5
264
330
1E3
100
AcDbEntity
  8
0
  6
CONTINUOUS
 62
     7
100
AcDbVertex
100
AcDb2dVertex
 10
8.3444271454
 20
6.4736499199
 30
0.0
  0
VERTEX
  5
265
330
1E3
100
AcDbEntity
  8
0
  6
CONTINUOUS
 62
     7
100
AcDbVertex
100
AcDb2dVertex
 10
8.3336054288
 20
6.4395641539
 30
0.0
  0
VERTEX
  5
266
330
1E3
100
AcDbEntity
  8
0
  6
CONTINUOUS
 62
     7
100
AcDbVertex
100
AcDb2dVertex
 10
8.3240282277
 20
6.4055953113
 30
0.0
  0
VERTEX
  5
267
330
1E3
100
AcDbEntity
  8
0
  6
CONTINUOUS
 62
     7
100
AcDbVertex
100
AcDb2dVertex
 10
8.3157205063
 20
6.3718319357
 30
0.0
  0
VERTEX
  5
268
330
1E3
100
AcDbEntity
  8
0
  6
CONTINUOUS
 62
     7
100
AcDbVertex
100
AcDb2dVertex
 10
8.3087039197
 20
6.3383620355
 30
0.0
  0
VERTEX
  5
269
330
1E3
100
AcDbEntity
  8
0
  6
CONTINUOUS
 62
     7
100
AcDbVertex
100
AcDb2dVertex
 10
8.3029967573
 20
6.3052728538
 30
0.0
  0
VERTEX
  5
26A
330
1E3
100
AcDbEntity
  8
0
  6
CONTINUOUS
 62
     7
100
AcDbVertex
100
AcDb2dVertex
 10
8.2986138957
 20
6.2726506416
 30
0.0
  0
VERTEX
  5
26B
330
1E3
100
AcDbEntity
  8
0
  6
CONTINUOUS
 62
     7
100
AcDbVertex
100
AcDb2dVertex
 10
8.2955667591
 20
6.2405804323
 30
0.0
  0
VERTEX
  5
26C
330
1E3
100
AcDbEntity
  8
0
  6
CONTINUOUS
 62
     7
100
AcDbVertex
100
AcDb2dVertex
 10
8.2938632904
 20
6.2091458208
 30
0.0
  0
VERTEX
  5
26D
330
1E3
100
AcDbEntity
  8
0
  6
CONTINUOUS
 62
     7
100
AcDbVertex
100
AcDb2dVertex
 10
8.2935079298
 20
6.1784287452
 30
0.0
  0
VERTEX
  5
26E
330
1E3
100
AcDbEntity
  8
0
  6
CONTINUOUS
 62
     7
100
AcDbVertex
100
AcDb2dVertex
 10
8.2945016037
 20
6.148509273
 30
0.0
  0
VERTEX
  5
26F
330
1E3
100
AcDbEntity
  8
0
  6
CONTINUOUS
 62
     7
100
AcDbVertex
100
AcDb2dVertex
 10
8.2968417218
 20
6.1194653929
 30
0.0
  0
VERTEX
  5
270
330
1E3
100
AcDbEntity
  8
0
  6
CONTINUOUS
 62
     7
100
AcDbVertex
100
AcDb2dVertex
 10
8.3005221845
 20
6.0913728113
 30
0.0
  0
VERTEX
  5
271
330
1E3
100
AcDbEntity
  8
0
  6
CONTINUOUS
 62
     7
100
AcDbVertex
100
AcDb2dVertex
 10
8.3055333981
 20
6.0643047546
 30
0.0
  0
VERTEX
  5
272
330
1E3
100
AcDbEntity
  8
0
  6
CONTINUOUS
 62
     7
100
AcDbVertex
100
AcDb2dVertex
 10
8.3118623004
 20
6.0383317791
 30
0.0
  0
VERTEX
  5
273
330
1E3
100
AcDbEntity
  8
0
  6
CONTINUOUS
 62
     7
100
AcDbVertex
100
AcDb2dVertex
 10
8.3194923942
 20
6.0135215863
 30
0.0
  0
VERTEX
  5
274
330
1E3
100
AcDbEntity
  8
0
  6
CONTINUOUS
 62
     7
100
AcDbVertex
100
AcDb2dVertex
 10
8.3284037909
 20
5.9899388468
 30
0.0
  0
VERTEX
  5
275
330
1E3
100
AcDbEntity
  8
0
  6
CONTINUOUS
 62
     7
100
AcDbVertex
100
AcDb2dVertex
 10
8.3385732619
 20
5.967645032
 30
0.0
  0
VERTEX
  5
276
330
1E3
100
AcDbEntity
  8
0
  6
CONTINUOUS
 62
     7
100
AcDbVertex
100
AcDb2dVertex
 10
8.3499742991
 20
5.9466982532
 30
0.0
  0
VERTEX
  5
277
330
1E3
100
AcDbEntity
  8
0
  6
CONTINUOUS
 62
     7
100
AcDbVertex
100
AcDb2dVertex
 10
8.3625771846
 20
5.9271531106
 30
0.0
  0
VERTEX
  5
278
330
1E3
100
AcDbEntity
  8
0
  6
CONTINUOUS
 62
     7
100
AcDbVertex
100
AcDb2dVertex
 10
8.3763490674
 20
5.9090605511
 30
0.0
  0
VERTEX
  5
279
330
1E3
100
AcDbEntity
  8
0
  6
CONTINUOUS
 62
     7
100
AcDbVertex
100
AcDb2dVertex
 10
8.3912540494
 20
5.8924677349
 30
0.0
  0
VERTEX
  5
27A
330
1E3
100
AcDbEntity
  8
0
  6
CONTINUOUS
 62
     7
100
AcDbVertex
100
AcDb2dVertex
 10
8.4072532791
 20
5.8774179133
 30
0.0
  0
VERTEX
  5
27B
330
1E3
100
AcDbEntity
  8
0
  6
CONTINUOUS
 62
     7
100
AcDbVertex
100
AcDb2dVertex
 10
8.4243050526
 20
5.8639503153
 30
0.0
  0
VERTEX
  5
27C
330
1E3
100
AcDbEntity
  8
0
  6
CONTINUOUS
 62
     7
100
AcDbVertex
100
AcDb2dVertex
 10
8.4423649224
 20
5.8521000458
 30
0.0
  0
VERTEX
  5
27D
330
1E3
100
AcDbEntity
  8
0
  6
CONTINUOUS
 62
     7
100
AcDbVertex
100
AcDb2dVertex
 10
8.4613858134
 20
5.8418979939
 30
0.0
  0
VERTEX
  5
27E
330
1E3
100
AcDbEntity
  8
0
  6
CONTINUOUS
 62
     7
100
AcDbVertex
100
AcDb2dVertex
 10
8.4813181453
 20
5.8333707526
 30
0.0
  0
VERTEX
  5
27F
330
1E3
100
AcDbEntity
  8
0
  6
CONTINUOUS
 62
     7
100
AcDbVertex
100
AcDb2dVertex
 10
8.5021099623
 20
5.8265405489
 30
0.0
  0
VERTEX
  5
280
330
1E3
100
AcDbEntity
  8
0
  6
CONTINUOUS
 62
     7
100
AcDbVertex
100
AcDb2dVertex
 10
8.5237070679
 20
5.8214251868
 30
0.0
  0
VERTEX
  5
281
330
1E3
100
AcDbEntity
  8
0
  6
CONTINUOUS
 62
     7
100
AcDbVertex
100
AcDb2dVertex
 10
8.5460531668
 20
5.8180379999
 30
0.0
  0
VERTEX
  5
282
330
1E3
100
AcDbEntity
  8
0
  6
CONTINUOUS
 62
     7
100
AcDbVertex
100
AcDb2dVertex
 10
8.5690900112
 20
5.8163878174
 30
0.0
  0
VERTEX
  5
283
330
1E3
100
AcDbEntity
  8
0
  6
CONTINUOUS
 62
     7
100
AcDbVertex
100
AcDb2dVertex
 10
8.592757553
 20
5.8164789407
 30
0.0
  0
VERTEX
  5
284
330
1E3
100
AcDbEntity
  8
0
  6
CONTINUOUS
 62
     7
100
AcDbVertex
100
AcDb2dVertex
 10
8.6169940998
 20
5.8183111322
 30
0.0
  0
VERTEX
  5
285
330
1E3
100
AcDbEntity
  8
0
  6
CONTINUOUS
 62
     7
100
AcDbVertex
100
AcDb2dVertex
 10
8.6417364763
 20
5.8218796161
 30
0.0
  0
VERTEX
  5
286
330
1E3
100
AcDbEntity
  8
0
  6
CONTINUOUS
 62
     7
100
AcDbVertex
100
AcDb2dVertex
 10
8.6669201885
 20
5.8271750908
 30
0.0
  0
VERTEX
  5
287
330
1E3
100
AcDbEntity
  8
0
  6
CONTINUOUS
 62
     7
100
AcDbVertex
100
AcDb2dVertex
 10
8.6924795922
 20
5.8341837529
 30
0.0
  0
VERTEX
  5
288
330
1E3
100
AcDbEntity
  8
0
  6
CONTINUOUS
 62
     7
100
AcDbVertex
100
AcDb2dVertex
 10
8.7183480637
 20
5.8428873336
 30
0.0
  0
VERTEX
  5
289
330
1E3
100
AcDbEntity
  8
0
  6
CONTINUOUS
 62
     7
100
AcDbVertex
100
AcDb2dVertex
 10
8.7444581738
 20
5.853263146
 30
0.0
  0
VERTEX
  5
28A
330
1E3
100
AcDbEntity
  8
0
  6
CONTINUOUS
 62
     7
100
AcDbVertex
100
AcDb2dVertex
 10
8.7707418635
 20
5.8652841442
 30
0.0
  0
VERTEX
  5
28B
330
1E3
100
AcDbEntity
  8
0
  6
CONTINUOUS
 62
     7
100
AcDbVertex
100
AcDb2dVertex
 10
8.7971306212
 20
5.8789189942
 30
0.0
  0
SEQEND
  5
28C
330
1E3
100
AcDbEntity
  8
0
  6
CONTINUOUS
 62
     7
  0
LINE
  5
1E4
330
1F
100
AcDbEntity
  8
0
  6
CONTINUOUS
 62
     7
100
AcDbLine
 10
8.7829884856
 20
5.8707465075
 30
0.0
 11
8.7971306212
 21
5.8789189942
 31
0.0
  0
POLYLINE
  5
1E5
330
1F
100
AcDbEntity
  8
0
  6
CONTINUOUS
 62
     7
100
AcDb2dPolyline
 66
     1
 10
0.0
 20
0.0
 30
0.0
  0
VERTEX
  5
28D
330
1E5
100
AcDbEntity
  8
0
  6
CONTINUOUS
 62
     7
100
AcDbVertex
100
AcDb2dVertex
 10
8.7829884856
 20
5.8707465075
 30
0.0
  0
VERTEX
  5
28E
330
1E5
100
AcDbEntity
  8
0
  6
CONTINUOUS
 62
     7
100
AcDbVertex
100
AcDb2dVertex
 10
8.7560915909
 20
5.8568205401
 30
0.0
  0
VERTEX
  5
28F
330
1E5
100
AcDbEntity
  8
0
  6
CONTINUOUS
 62
     7
100
AcDbVertex
100
AcDb2dVertex
 10
8.7292994143
 20
5.8445256846
 30
0.0
  0
VERTEX
  5
290
330
1E5
100
AcDbEntity
  8
0
  6
CONTINUOUS
 62
     7
100
AcDbVertex
100
AcDb2dVertex
 10
8.7026806935
 20
5.8338934844
 30
0.0
  0
VERTEX
  5
291
330
1E5
100
AcDbEntity
  8
0
  6
CONTINUOUS
 62
     7
100
AcDbVertex
100
AcDb2dVertex
 10
8.6763037215
 20
5.8249512176
 30
0.0
  0
VERTEX
  5
292
330
1E5
100
AcDbEntity
  8
0
  6
CONTINUOUS
 62
     7
100
AcDbVertex
100
AcDb2dVertex
 10
8.6502361707
 20
5.8177218262
 30
0.0
  0
VERTEX
  5
293
330
1E5
100
AcDbEntity
  8
0
  6
CONTINUOUS
 62
     7
100
AcDbVertex
100
AcDb2dVertex
 10
8.6245449199
 20
5.812223858
 30
0.0
  0
VERTEX
  5
294
330
1E5
100
AcDbEntity
  8
0
  6
CONTINUOUS
 62
     7
100
AcDbVertex
100
AcDb2dVertex
 10
8.5992958825
 20
5.8084714186
 30
0.0
  0
VERTEX
  5
295
330
1E5
100
AcDbEntity
  8
0
  6
CONTINUOUS
 62
     7
100
AcDbVertex
100
AcDb2dVertex
 10
8.574553837
 20
5.8064741351
 30
0.0
  0
VERTEX
  5
296
330
1E5
100
AcDbEntity
  8
0
  6
CONTINUOUS
 62
     7
100
AcDbVertex
100
AcDb2dVertex
 10
8.5503822617
 20
5.8062371318
 30
0.0
  0
VERTEX
  5
297
330
1E5
100
AcDbEntity
  8
0
  6
CONTINUOUS
 62
     7
100
AcDbVertex
100
AcDb2dVertex
 10
8.5268431708
 20
5.8077610167
 30
0.0
  0
VERTEX
  5
298
330
1E5
100
AcDbEntity
  8
0
  6
CONTINUOUS
 62
     7
100
AcDbVertex
100
AcDb2dVertex
 10
8.5039969562
 20
5.8110418801
 30
0.0
  0
VERTEX
  5
299
330
1E5
100
AcDbEntity
  8
0
  6
CONTINUOUS
 62
     7
100
AcDbVertex
100
AcDb2dVertex
 10
8.4819022319
 20
5.8160713048
 30
0.0
  0
VERTEX
  5
29A
330
1E5
100
AcDbEntity
  8
0
  6
CONTINUOUS
 62
     7
100
AcDbVertex
100
AcDb2dVertex
 10
8.4606156839
 20
5.8228363872
 30
0.0
  0
VERTEX
  5
29B
330
1E5
100
AcDbEntity
  8
0
  6
CONTINUOUS
 62
     7
100
AcDbVertex
100
AcDb2dVertex
 10
8.440191925
 20
5.831319771
 30
0.0
  0
VERTEX
  5
29C
330
1E5
100
AcDbEntity
  8
0
  6
CONTINUOUS
 62
     7
100
AcDbVertex
100
AcDb2dVertex
 10
8.4206833541
 20
5.8414996911
 30
0.0
  0
VERTEX
  5
29D
330
1E5
100
AcDbEntity
  8
0
  6
CONTINUOUS
 62
     7
100
AcDbVertex
100
AcDb2dVertex
 10
8.4021400224
 20
5.85335003
 30
0.0
  0
VERTEX
  5
29E
330
1E5
100
AcDbEntity
  8
0
  6
CONTINUOUS
 62
     7
100
AcDbVertex
100
AcDb2dVertex
 10
8.3846095044
 20
5.8668403847
 30
0.0
  0
VERTEX
  5
29F
330
1E5
100
AcDbEntity
  8
0
  6
CONTINUOUS
 62
     7
100
AcDbVertex
100
AcDb2dVertex
 10
8.3681367763
 20
5.8819361443
 30
0.0
  0
VERTEX
  5
2A0
330
1E5
100
AcDbEntity
  8
0
  6
CONTINUOUS
 62
     7
100
AcDbVertex
100
AcDb2dVertex
 10
8.3527641005
 20
5.8985985793
 30
0.0
  0
VERTEX
  5
2A1
330
1E5
100
AcDbEntity
  8
0
  6
CONTINUOUS
 62
     7
100
AcDbVertex
100
AcDb2dVertex
 10
8.338530917
 20
5.9167849406
 30
0.0
  0
VERTEX
  5
2A2
330
1E5
100
AcDbEntity
  8
0
  6
CONTINUOUS
 62
     7
100
AcDbVertex
100
AcDb2dVertex
 10
8.3254737423
 20
5.9364485695
 30
0.0
  0
VERTEX
  5
2A3
330
1E5
100
AcDbEntity
  8
0
  6
CONTINUOUS
 62
     7
100
AcDbVertex
100
AcDb2dVertex
 10
8.3136260759
 20
5.957539017
 30
0.0
  0
VERTEX
  5
2A4
330
1E5
100
AcDbEntity
  8
0
  6
CONTINUOUS
 62
     7
100
AcDbVertex
100
AcDb2dVertex
 10
8.303018314
 20
5.9800021737
 30
0.0
  0
VERTEX
  5
2A5
330
1E5
100
AcDbEntity
  8
0
  6
CONTINUOUS
 62
     7
100
AcDbVertex
100
AcDb2dVertex
 10
8.2936776718
 20
6.0037804082
 30
0.0
  0
VERTEX
  5
2A6
330
1E5
100
AcDbEntity
  8
0
  6
CONTINUOUS
 62
     7
100
AcDbVertex
100
AcDb2dVertex
 10
8.2856281136
 20
6.0288127153
 30
0.0
  0
VERTEX
  5
2A7
330
1E5
100
AcDbEntity
  8
0
  6
CONTINUOUS
 62
     7
100
AcDbVertex
100
AcDb2dVertex
 10
8.2788902913
 20
6.0550348723
 30
0.0
  0
VERTEX
  5
2A8
330
1E5
100
AcDbEntity
  8
0
  6
CONTINUOUS
 62
     7
100
AcDbVertex
100
AcDb2dVertex
 10
8.2734814915
 20
6.0823796037
 30
0.0
  0
VERTEX
  5
2A9
330
1E5
100
AcDbEntity
  8
0
  6
CONTINUOUS
 62
     7
100
AcDbVertex
100
AcDb2dVertex
 10
8.2694155908
 20
6.1107767542
 30
0.0
  0
VERTEX
  5
2AA
330
1E5
100
AcDbEntity
  8
0
  6
CONTINUOUS
 62
     7
100
AcDbVertex
100
AcDb2dVertex
 10
8.2667030208
 20
6.1401534681
 30
0.0
  0
VERTEX
  5
2AB
330
1E5
100
AcDbEntity
  8
0
  6
CONTINUOUS
 62
     7
100
AcDbVertex
100
AcDb2dVertex
 10
8.2653507408
 20
6.1704343769
 30
0.0
  0
VERTEX
  5
2AC
330
1E5
100
AcDbEntity
  8
0
  6
CONTINUOUS
 62
     7
100
AcDbVertex
100
AcDb2dVertex
 10
8.2653622202
 20
6.2015417919
 30
0.0
  0
VERTEX
  5
2AD
330
1E5
100
AcDbEntity
  8
0
  6
CONTINUOUS
 62
     7
100
AcDbVertex
100
AcDb2dVertex
 10
8.2667374295
 20
6.2333959043
 30
0.0
  0
VERTEX
  5
2AE
330
1E5
100
AcDbEntity
  8
0
  6
CONTINUOUS
 62
     7
100
AcDbVertex
100
AcDb2dVertex
 10
8.2694728405
 20
6.2659149893
 30
0.0
  0
VERTEX
  5
2AF
330
1E5
100
AcDbEntity
  8
0
  6
CONTINUOUS
 62
     7
100
AcDbVertex
100
AcDb2dVertex
 10
8.2735614353
 20
6.2990156162
 30
0.0
  0
VERTEX
  5
2B0
330
1E5
100
AcDbEntity
  8
0
  6
CONTINUOUS
 62
     7
100
AcDbVertex
100
AcDb2dVertex
 10
8.2789927242
 20
6.3326128623
 30
0.0
  0
VERTEX
  5
2B1
330
1E5
100
AcDbEntity
  8
0
  6
CONTINUOUS
 62
     7
100
AcDbVertex
100
AcDb2dVertex
 10
8.2857527727
 20
6.3666205306
 30
0.0
  0
VERTEX
  5
2B2
330
1E5
100
AcDbEntity
  8
0
  6
CONTINUOUS
 62
     7
100
AcDbVertex
100
AcDb2dVertex
 10
8.2938242373
 20
6.4009513715
 30
0.0
  0
VERTEX
  5
2B3
330
1E5
100
AcDbEntity
  8
0
  6
CONTINUOUS
 62
     7
100
AcDbVertex
100
AcDb2dVertex
 10
8.3031864098
 20
6.4355173058
 30
0.0
  0
VERTEX
  5
2B4
330
1E5
100
AcDbEntity
  8
0
  6
CONTINUOUS
 62
     7
100
AcDbVertex
100
AcDb2dVertex
 10
8.3138152708
 20
6.4702296516
 30
0.0
  0
VERTEX
  5
2B5
330
1E5
100
AcDbEntity
  8
0
  6
CONTINUOUS
 62
     7
100
AcDbVertex
100
AcDb2dVertex
 10
8.325683551
 20
6.5049993509
 30
0.0
  0
VERTEX
  5
2B6
330
1E5
100
AcDbEntity
  8
0
  6
CONTINUOUS
 62
     7
100
AcDbVertex
100
AcDb2dVertex
 10
8.3387608011
 20
6.539737199
 30
0.0
  0
VERTEX
  5
2B7
330
1E5
100
AcDbEntity
  8
0
  6
CONTINUOUS
 62
     7
100
AcDbVertex
100
AcDb2dVertex
 10
8.3530134703
 20
6.5743540726
 30
0.0
  0
VERTEX
  5
2B8
330
1E5
100
AcDbEntity
  8
0
  6
CONTINUOUS
 62
     7
100
AcDbVertex
100
AcDb2dVertex
 10
8.3684049919
 20
6.6087611589
 30
0.0
  0
VERTEX
  5
2B9
330
1E5
100
AcDbEntity
  8
0
  6
CONTINUOUS
 62
     7
100
AcDbVertex
100
AcDb2dVertex
 10
8.3848958777
 20
6.6428701834
 30
0.0
  0
VERTEX
  5
2BA
330
1E5
100
AcDbEntity
  8
0
  6
CONTINUOUS
 62
     7
100
AcDbVertex
100
AcDb2dVertex
 10
8.4024438187
 20
6.6765936361
 30
0.0
  0
VERTEX
  5
2BB
330
1E5
100
AcDbEntity
  8
0
  6
CONTINUOUS
 62
     7
100
AcDbVertex
100
AcDb2dVertex
 10
8.4210037941
 20
6.7098449965
 30
0.0
  0
VERTEX
  5
2BC
330
1E5
100
AcDbEntity
  8
0
  6
CONTINUOUS
 62
     7
100
AcDbVertex
100
AcDb2dVertex
 10
8.4405281864
 20
6.742538955
 30
0.0
  0
VERTEX
  5
2BD
330
1E5
100
AcDbEntity
  8
0
  6
CONTINUOUS
 62
     7
100
AcDbVertex
100
AcDb2dVertex
 10
8.4609669041
 20
6.7745916322
 30
0.0
  0
VERTEX
  5
2BE
330
1E5
100
AcDbEntity
  8
0
  6
CONTINUOUS
 62
     7
100
AcDbVertex
100
AcDb2dVertex
 10
8.4822675097
 20
6.8059207941
 30
0.0
  0
VERTEX
  5
2BF
330
1E5
100
AcDbEntity
  8
0
  6
CONTINUOUS
 62
     7
100
AcDbVertex
100
AcDb2dVertex
 10
8.5043753545
 20
6.8364460628
 30
0.0
  0
VERTEX
  5
2C0
330
1E5
100
AcDbEntity
  8
0
  6
CONTINUOUS
 62
     7
100
AcDbVertex
100
AcDb2dVertex
 10
8.5272337189
 20
6.8660891228
 30
0.0
  0
VERTEX
  5
2C1
330
1E5
100
AcDbEntity
  8
0
  6
CONTINUOUS
 62
     7
100
AcDbVertex
100
AcDb2dVertex
 10
8.5507839575
 20
6.8947739221
 30
0.0
  0
VERTEX
  5
2C2
330
1E5
100
AcDbEntity
  8
0
  6
CONTINUOUS
 62
     7
100
AcDbVertex
100
AcDb2dVertex
 10
8.57496565
 20
6.9224268671
 30
0.0
  0
VERTEX
  5
2C3
330
1E5
100
AcDbEntity
  8
0
  6
CONTINUOUS
 62
     7
100
AcDbVertex
100
AcDb2dVertex
 10
8.599716756
 20
6.9489770118
 30
0.0
  0
VERTEX
  5
2C4
330
1E5
100
AcDbEntity
  8
0
  6
CONTINUOUS
 62
     7
100
AcDbVertex
100
AcDb2dVertex
 10
8.6249737743
 20
6.9743562391
 30
0.0
  0
VERTEX
  5
2C5
330
1E5
100
AcDbEntity
  8
0
  6
CONTINUOUS
 62
     7
100
AcDbVertex
100
AcDb2dVertex
 10
8.6506719056
 20
6.9984994364
 30
0.0
  0
VERTEX
  5
2C6
330
1E5
100
AcDbEntity
  8
0
  6
CONTINUOUS
 62
     7
100
AcDbVertex
100
AcDb2dVertex
 10
8.6767452189
 20
7.0213446621
 30
0.0
  0
VERTEX
  5
2C7
330
1E5
100
AcDbEntity
  8
0
  6
CONTINUOUS
 62
     7
100
AcDbVertex
100
AcDb2dVertex
 10
8.7031268209
 20
7.0428333044
 30
0.0
  0
VERTEX
  5
2C8
330
1E5
100
AcDbEntity
  8
0
  6
CONTINUOUS
 62
     7
100
AcDbVertex
100
AcDb2dVertex
 10
8.729749027
 20
7.0629102325
 30
0.0
  0
VERTEX
  5
2C9
330
1E5
100
AcDbEntity
  8
0
  6
CONTINUOUS
 62
     7
100
AcDbVertex
100
AcDb2dVertex
 10
8.7565435354
 20
7.0815239369
 30
0.0
  0
VERTEX
  5
2CA
330
1E5
100
AcDbEntity
  8
0
  6
CONTINUOUS
 62
     7
100
AcDbVertex
100
AcDb2dVertex
 10
8.7834416024
 20
7.0986266627
 30
0.0
  0
VERTEX
  5
2CB
330
1E5
100
AcDbEntity
  8
0
  6
CONTINUOUS
 62
     7
100
AcDbVertex
100
AcDb2dVertex
 10
8.8103742185
 20
7.114174531
 30
0.0
  0
VERTEX
  5
2CC
330
1E5
100
AcDbEntity
  8
0
  6
CONTINUOUS
 62
     7
100
AcDbVertex
100
AcDb2dVertex
 10
8.8372722855
 20
7.1281276524
 30
0.0
  0
VERTEX
  5
2CD
330
1E5
100
AcDbEntity
  8
0
  6
CONTINUOUS
 62
     7
100
AcDbVertex
100
AcDb2dVertex
 10
8.8640667939
 20
7.1404502288
 30
0.0
  0
VERTEX
  5
2CE
330
1E5
100
AcDbEntity
  8
0
  6
CONTINUOUS
 62
     7
100
AcDbVertex
100
AcDb2dVertex
 10
8.890689
 20
7.1511106457
 30
0.0
  0
VERTEX
  5
2CF
330
1E5
100
AcDbEntity
  8
0
  6
CONTINUOUS
 62
     7
100
AcDbVertex
100
AcDb2dVertex
 10
8.9170706019
 20
7.1600815525
 30
0.0
  0
VERTEX
  5
2D0
330
1E5
100
AcDbEntity
  8
0
  6
CONTINUOUS
 62
     7
100
AcDbVertex
100
AcDb2dVertex
 10
8.9431439153
 20
7.1673399338
 30
0.0
  0
VERTEX
  5
2D1
330
1E5
100
AcDbEntity
  8
0
  6
CONTINUOUS
 62
     7
100
AcDbVertex
100
AcDb2dVertex
 10
8.9688420466
 20
7.1728671673
 30
0.0
  0
VERTEX
  5
2D2
330
1E5
100
AcDbEntity
  8
0
  6
CONTINUOUS
 62
     7
100
AcDbVertex
100
AcDb2dVertex
 10
8.9940990649
 20
7.1766490726
 30
0.0
  0
VERTEX
  5
2D3
330
1E5
100
AcDbEntity
  8
0
  6
CONTINUOUS
 62
     7
100
AcDbVertex
100
AcDb2dVertex
 10
9.0188501709
 20
7.1786759467
 30
0.0
  0
VERTEX
  5
2D4
330
1E5
100
AcDbEntity
  8
0
  6
CONTINUOUS
 62
     7
100
AcDbVertex
100
AcDb2dVertex
 10
9.0430318634
 20
7.1789425895
 30
0.0
  0
VERTEX
  5
2D5
330
1E5
100
AcDbEntity
  8
0
  6
CONTINUOUS
 62
     7
100
AcDbVertex
100
AcDb2dVertex
 10
9.066582102
 20
7.1774483169
 30
0.0
  0
VERTEX
  5
2D6
330
1E5
100
AcDbEntity
  8
0
  6
CONTINUOUS
 62
     7
100
AcDbVertex
100
AcDb2dVertex
 10
9.0894404663
 20
7.1741969626
 30
0.0
  0
VERTEX
  5
2D7
330
1E5
100
AcDbEntity
  8
0
  6
CONTINUOUS
 62
     7
100
AcDbVertex
100
AcDb2dVertex
 10
9.1115483112
 20
7.1691968683
 30
0.0
  0
VERTEX
  5
2D8
330
1E5
100
AcDbEntity
  8
0
  6
CONTINUOUS
 62
     7
100
AcDbVertex
100
AcDb2dVertex
 10
9.1328489168
 20
7.1624608621
 30
0.0
  0
VERTEX
  5
2D9
330
1E5
100
AcDbEntity
  8
0
  6
CONTINUOUS
 62
     7
100
AcDbVertex
100
AcDb2dVertex
 10
9.1532876345
 20
7.154006226
 30
0.0
  0
VERTEX
  5
2DA
330
1E5
100
AcDbEntity
  8
0
  6
CONTINUOUS
 62
     7
100
AcDbVertex
100
AcDb2dVertex
 10
9.1728120268
 20
7.1438546511
 30
0.0
  0
VERTEX
  5
2DB
330
1E5
100
AcDbEntity
  8
0
  6
CONTINUOUS
 62
     7
100
AcDbVertex
100
AcDb2dVertex
 10
9.1913720021
 20
7.1320321821
 30
0.0
  0
VERTEX
  5
2DC
330
1E5
100
AcDbEntity
  8
0
  6
CONTINUOUS
 62
     7
100
AcDbVertex
100
AcDb2dVertex
 10
9.2089199431
 20
7.1185691508
 30
0.0
  0
VERTEX
  5
2DD
330
1E5
100
AcDbEntity
  8
0
  6
CONTINUOUS
 62
     7
100
AcDbVertex
100
AcDb2dVertex
 10
9.2254108289
 20
7.1035000978
 30
0.0
  0
VERTEX
  5
2DE
330
1E5
100
AcDbEntity
  8
0
  6
CONTINUOUS
 62
     7
100
AcDbVertex
100
AcDb2dVertex
 10
9.2408023506
 20
7.0868636841
 30
0.0
  0
VERTEX
  5
2DF
330
1E5
100
AcDbEntity
  8
0
  6
CONTINUOUS
 62
     7
100
AcDbVertex
100
AcDb2dVertex
 10
9.2550550197
 20
7.068702592
 30
0.0
  0
VERTEX
  5
2E0
330
1E5
100
AcDbEntity
  8
0
  6
CONTINUOUS
 62
     7
100
AcDbVertex
100
AcDb2dVertex
 10
9.2681322699
 20
7.0490634156
 30
0.0
  0
VERTEX
  5
2E1
330
1E5
100
AcDbEntity
  8
0
  6
CONTINUOUS
 62
     7
100
AcDbVertex
100
AcDb2dVertex
 10
9.28000055
 20
7.0279965408
 30
0.0
  0
VERTEX
  5
2E2
330
1E5
100
AcDbEntity
  8
0
  6
CONTINUOUS
 62
     7
100
AcDbVertex
100
AcDb2dVertex
 10
9.290629411
 20
7.0055560168
 30
0.0
  0
VERTEX
  5
2E3
330
1E5
100
AcDbEntity
  8
0
  6
CONTINUOUS
 62
     7
100
AcDbVertex
100
AcDb2dVertex
 10
9.2999915836
 20
6.9817994168
 30
0.0
  0
VERTEX
  5
2E4
330
1E5
100
AcDbEntity
  8
0
  6
CONTINUOUS
 62
     7
100
AcDbVertex
100
AcDb2dVertex
 10
9.3080630482
 20
6.9567876906
 30
0.0
  0
VERTEX
  5
2E5
330
1E5
100
AcDbEntity
  8
0
  6
CONTINUOUS
 62
     7
100
AcDbVertex
100
AcDb2dVertex
 10
9.3148230967
 20
6.9305850081
 30
0.0
  0
VERTEX
  5
2E6
330
1E5
100
AcDbEntity
  8
0
  6
CONTINUOUS
 62
     7
100
AcDbVertex
100
AcDb2dVertex
 10
9.3202543856
 20
6.9032585947
 30
0.0
  0
VERTEX
  5
2E7
330
1E5
100
AcDbEntity
  8
0
  6
CONTINUOUS
 62
     7
100
AcDbVertex
100
AcDb2dVertex
 10
9.3243429803
 20
6.8748785588
 30
0.0
  0
VERTEX
  5
2E8
330
1E5
100
AcDbEntity
  8
0
  6
CONTINUOUS
 62
     7
100
AcDbVertex
100
AcDb2dVertex
 10
9.3270783914
 20
6.8455177122
 30
0.0
  0
VERTEX
  5
2E9
330
1E5
100
AcDbEntity
  8
0
  6
CONTINUOUS
 62
     7
100
AcDbVertex
100
AcDb2dVertex
 10
9.3284536007
 20
6.8152513827
 30
0.0
  0
VERTEX
  5
2EA
330
1E5
100
AcDbEntity
  8
0
  6
CONTINUOUS
 62
     7
100
AcDbVertex
100
AcDb2dVertex
 10
9.3286299388
 20
6.7995411623
 30
0.0
  0
SEQEND
  5
2EB
330
1E5
100
AcDbEntity
  8
0
  6
CONTINUOUS
 62
     7
  0
LINE
  5
1E6
330
1F
100
AcDbEntity
  8
0
  6
CONTINUOUS
 62
     7
100
AcDbLine
 10
8.8108273353
 20
5.8868175333
 30
0.0
 11
8.8249694709
 21
5.89499002
 31
0.0
  0
POLYLINE
  5
1E7
330
1F
100
AcDbEntity
  8
0
  6
CONTINUOUS
 62
     7
100
AcDb2dPolyline
 66
     1
 10
0.0
 20
0.0
 30
0.0
  0
VERTEX
  5
2EC
330
1E7
100
AcDbEntity
  8
0
  6
CONTINUOUS
 62
     7
100
AcDbVertex
100
AcDb2dVertex
 10
7.9261265643
 20
7.863550857
 30
0.0
  0
VERTEX
  5
2ED
330
1E7
100
AcDbEntity
  8
0
  6
CONTINUOUS
 62
     7
100
AcDbVertex
100
AcDb2dVertex
 10
7.9259166615
 20
7.863671896
 30
0.0
  0
VERTEX
  5
2EE
330
1E7
100
AcDbEntity
  8
0
  6
CONTINUOUS
 62
     7
100
AcDbVertex
100
AcDb2dVertex
 10
7.9063843638
 20
7.8738092956
 30
0.0
  0
VERTEX
  5
2EF
330
1E7
100
AcDbEntity
  8
0
  6
CONTINUOUS
 62
     7
100
AcDbVertex
100
AcDb2dVertex
 10
7.8859381723
 20
7.8822495556
 30
0.0
  0
VERTEX
  5
2F0
330
1E7
100
AcDbEntity
  8
0
  6
CONTINUOUS
 62
     7
100
AcDbVertex
100
AcDb2dVertex
 10
7.8646305436
 20
7.8889710218
 30
0.0
  0
VERTEX
  5
2F1
330
1E7
100
AcDbEntity
  8
0
  6
CONTINUOUS
 62
     7
100
AcDbVertex
100
AcDb2dVertex
 10
7.8425161445
 20
7.8939564496
 30
0.0
  0
VERTEX
  5
2F2
330
1E7
100
AcDbEntity
  8
0
  6
CONTINUOUS
 62
     7
100
AcDbVertex
100
AcDb2dVertex
 10
7.8196517116
 20
7.8971930484
 30
0.0
  0
VERTEX
  5
2F3
330
1E7
100
AcDbEntity
  8
0
  6
CONTINUOUS
 62
     7
100
AcDbVertex
100
AcDb2dVertex
 10
7.7960959055
 20
7.8986725144
 30
0.0
  0
VERTEX
  5
2F4
330
1E7
100
AcDbEntity
  8
0
  6
CONTINUOUS
 62
     7
100
AcDbVertex
100
AcDb2dVertex
 10
7.7719091611
 20
7.8983910519
 30
0.0
  0
VERTEX
  5
2F5
330
1E7
100
AcDbEntity
  8
0
  6
CONTINUOUS
 62
     7
100
AcDbVertex
100
AcDb2dVertex
 10
7.7471535315
 20
7.8963493831
 30
0.0
  0
VERTEX
  5
2F6
330
1E7
100
AcDbEntity
  8
0
  6
CONTINUOUS
 62
     7
100
AcDbVertex
100
AcDb2dVertex
 10
7.7218925297
 20
7.892552746
 30
0.0
  0
VERTEX
  5
2F7
330
1E7
100
AcDbEntity
  8
0
  6
CONTINUOUS
 62
     7
100
AcDbVertex
100
AcDb2dVertex
 10
7.6961909652
 20
7.8870108813
 30
0.0
  0
VERTEX
  5
2F8
330
1E7
100
AcDbEntity
  8
0
  6
CONTINUOUS
 62
     7
100
AcDbVertex
100
AcDb2dVertex
 10
7.6701147776
 20
7.8797380071
 30
0.0
  0
VERTEX
  5
2F9
330
1E7
100
AcDbEntity
  8
0
  6
CONTINUOUS
 62
     7
100
AcDbVertex
100
AcDb2dVertex
 10
7.6437308678
 20
7.8707527826
 30
0.0
  0
VERTEX
  5
2FA
330
1E7
100
AcDbEntity
  8
0
  6
CONTINUOUS
 62
     7
100
AcDbVertex
100
AcDb2dVertex
 10
7.6171069264
 20
7.8600782604
 30
0.0
  0
VERTEX
  5
2FB
330
1E7
100
AcDbEntity
  8
0
  6
CONTINUOUS
 62
     7
100
AcDbVertex
100
AcDb2dVertex
 10
7.5903112593
 20
7.8477418268
 30
0.0
  0
VERTEX
  5
2FC
330
1E7
100
AcDbEntity
  8
0
  6
CONTINUOUS
 62
     7
100
AcDbVertex
100
AcDb2dVertex
 10
7.5634126135
 20
7.8337751321
 30
0.0
  0
VERTEX
  5
2FD
330
1E7
100
AcDbEntity
  8
0
  6
CONTINUOUS
 62
     7
100
AcDbVertex
100
AcDb2dVertex
 10
7.5364799999
 20
7.8182140093
 30
0.0
  0
VERTEX
  5
2FE
330
1E7
100
AcDbEntity
  8
0
  6
CONTINUOUS
 62
     7
100
AcDbVertex
100
AcDb2dVertex
 10
7.5095825166
 20
7.8010983817
 30
0.0
  0
VERTEX
  5
2FF
330
1E7
100
AcDbEntity
  8
0
  6
CONTINUOUS
 62
     7
100
AcDbVertex
100
AcDb2dVertex
 10
7.4827891716
 20
7.7824721612
 30
0.0
  0
VERTEX
  5
300
330
1E7
100
AcDbEntity
  8
0
  6
CONTINUOUS
 62
     7
100
AcDbVertex
100
AcDb2dVertex
 10
7.4561687058
 20
7.7623831351
 30
0.0
  0
VERTEX
  5
301
330
1E7
100
AcDbEntity
  8
0
  6
CONTINUOUS
 62
     7
100
AcDbVertex
100
AcDb2dVertex
 10
7.4297894164
 20
7.7408828435
 30
0.0
  0
VERTEX
  5
302
330
1E7
100
AcDbEntity
  8
0
  6
CONTINUOUS
 62
     7
100
AcDbVertex
100
AcDb2dVertex
 10
7.403718982
 20
7.7180264476
 30
0.0
  0
VERTEX
  5
303
330
1E7
100
AcDbEntity
  8
0
  6
CONTINUOUS
 62
     7
100
AcDbVertex
100
AcDb2dVertex
 10
7.3780242886
 20
7.6938725874
 30
0.0
  0
VERTEX
  5
304
330
1E7
100
AcDbEntity
  8
0
  6
CONTINUOUS
 62
     7
100
AcDbVertex
100
AcDb2dVertex
 10
7.3527712584
 20
7.6684832321
 30
0.0
  0
VERTEX
  5
305
330
1E7
100
AcDbEntity
  8
0
  6
CONTINUOUS
 62
     7
100
AcDbVertex
100
AcDb2dVertex
 10
7.3280246805
 20
7.6419235203
 30
0.0
  0
VERTEX
  5
306
330
1E7
100
AcDbEntity
  8
0
  6
CONTINUOUS
 62
     7
100
AcDbVertex
100
AcDb2dVertex
 10
7.3038480443
 20
7.6142615935
 30
0.0
  0
VERTEX
  5
307
330
1E7
100
AcDbEntity
  8
0
  6
CONTINUOUS
 62
     7
100
AcDbVertex
100
AcDb2dVertex
 10
7.2803033775
 20
7.5855684209
 30
0.0
  0
VERTEX
  5
308
330
1E7
100
AcDbEntity
  8
0
  6
CONTINUOUS
 62
     7
100
AcDbVertex
100
AcDb2dVertex
 10
7.2574510859
 20
7.5559176175
 30
0.0
  0
VERTEX
  5
309
330
1E7
100
AcDbEntity
  8
0
  6
CONTINUOUS
 62
     7
100
AcDbVertex
100
AcDb2dVertex
 10
7.2353497993
 20
7.5253852552
 30
0.0
  0
VERTEX
  5
30A
330
1E7
100
AcDbEntity
  8
0
  6
CONTINUOUS
 62
     7
100
AcDbVertex
100
AcDb2dVertex
 10
7.2140562206
 20
7.4940496676
 30
0.0
  0
VERTEX
  5
30B
330
1E7
100
AcDbEntity
  8
0
  6
CONTINUOUS
 62
     7
100
AcDbVertex
100
AcDb2dVertex
 10
7.1936249804
 20
7.4619912492
 30
0.0
  0
VERTEX
  5
30C
330
1E7
100
AcDbEntity
  8
0
  6
CONTINUOUS
 62
     7
100
AcDbVertex
100
AcDb2dVertex
 10
7.1741084971
 20
7.4292922486
 30
0.0
  0
VERTEX
  5
30D
330
1E7
100
AcDbEntity
  8
0
  6
CONTINUOUS
 62
     7
100
AcDbVertex
100
AcDb2dVertex
 10
7.1555568418
 20
7.3960365584
 30
0.0
  0
VERTEX
  5
30E
330
1E7
100
AcDbEntity
  8
0
  6
CONTINUOUS
 62
     7
100
AcDbVertex
100
AcDb2dVertex
 10
7.1380176108
 20
7.362309499
 30
0.0
  0
VERTEX
  5
30F
330
1E7
100
AcDbEntity
  8
0
  6
CONTINUOUS
 62
     7
100
AcDbVertex
100
AcDb2dVertex
 10
7.1215358023
 20
7.3281976004
 30
0.0
  0
VERTEX
  5
310
330
1E7
100
AcDbEntity
  8
0
  6
CONTINUOUS
 62
     7
100
AcDbVertex
100
AcDb2dVertex
 10
7.1061537022
 20
7.2937883798
 30
0.0
  0
VERTEX
  5
311
330
1E7
100
AcDbEntity
  8
0
  6
CONTINUOUS
 62
     7
100
AcDbVertex
100
AcDb2dVertex
 10
7.0919107746
 20
7.2591701172
 30
0.0
  0
VERTEX
  5
312
330
1E7
100
AcDbEntity
  8
0
  6
CONTINUOUS
 62
     7
100
AcDbVertex
100
AcDb2dVertex
 10
7.078843561
 20
7.2244316291
 30
0.0
  0
VERTEX
  5
313
330
1E7
100
AcDbEntity
  8
0
  6
CONTINUOUS
 62
     7
100
AcDbVertex
100
AcDb2dVertex
 10
7.0669855866
 20
7.1896620402
 30
0.0
  0
VERTEX
  5
314
330
1E7
100
AcDbEntity
  8
0
  6
CONTINUOUS
 62
     7
100
AcDbVertex
100
AcDb2dVertex
 10
7.0563672742
 20
7.1549505553
 30
0.0
  0
VERTEX
  5
315
330
1E7
100
AcDbEntity
  8
0
  6
CONTINUOUS
 62
     7
100
AcDbVertex
100
AcDb2dVertex
 10
7.047015866
 20
7.1203862297
 30
0.0
  0
VERTEX
  5
316
330
1E7
100
AcDbEntity
  8
0
  6
CONTINUOUS
 62
     7
100
AcDbVertex
100
AcDb2dVertex
 10
7.0389553538
 20
7.0860577416
 30
0.0
  0
VERTEX
  5
317
330
1E7
100
AcDbEntity
  8
0
  6
CONTINUOUS
 62
     7
100
AcDbVertex
100
AcDb2dVertex
 10
7.0322064179
 20
7.0520531639
 30
0.0
  0
VERTEX
  5
318
330
1E7
100
AcDbEntity
  8
0
  6
CONTINUOUS
 62
     7
100
AcDbVertex
100
AcDb2dVertex
 10
7.026786373
 20
7.0184597384
 30
0.0
  0
VERTEX
  5
319
330
1E7
100
AcDbEntity
  8
0
  6
CONTINUOUS
 62
     7
100
AcDbVertex
100
AcDb2dVertex
 10
7.0227091249
 20
6.9853636522
 30
0.0
  0
VERTEX
  5
31A
330
1E7
100
AcDbEntity
  8
0
  6
CONTINUOUS
 62
     7
100
AcDbVertex
100
AcDb2dVertex
 10
7.0199851341
 20
6.9528498164
 30
0.0
  0
VERTEX
  5
31B
330
1E7
100
AcDbEntity
  8
0
  6
CONTINUOUS
 62
     7
100
AcDbVertex
100
AcDb2dVertex
 10
7.0186213893
 20
6.9210016483
 30
0.0
  0
VERTEX
  5
31C
330
1E7
100
AcDbEntity
  8
0
  6
CONTINUOUS
 62
     7
100
AcDbVertex
100
AcDb2dVertex
 10
7.0186213893
 20
6.8899008574
 30
0.0
  0
VERTEX
  5
31D
330
1E7
100
AcDbEntity
  8
0
  6
CONTINUOUS
 62
     7
100
AcDbVertex
100
AcDb2dVertex
 10
7.0199851341
 20
6.8596272355
 30
0.0
  0
VERTEX
  5
31E
330
1E7
100
AcDbEntity
  8
0
  6
CONTINUOUS
 62
     7
100
AcDbVertex
100
AcDb2dVertex
 10
7.0227091249
 20
6.8302584525
 30
0.0
  0
VERTEX
  5
31F
330
1E7
100
AcDbEntity
  8
0
  6
CONTINUOUS
 62
     7
100
AcDbVertex
100
AcDb2dVertex
 10
7.026786373
 20
6.8018698568
 30
0.0
  0
VERTEX
  5
320
330
1E7
100
AcDbEntity
  8
0
  6
CONTINUOUS
 62
     7
100
AcDbVertex
100
AcDb2dVertex
 10
7.0322064179
 20
6.7745342819
 30
0.0
  0
VERTEX
  5
321
330
1E7
100
AcDbEntity
  8
0
  6
CONTINUOUS
 62
     7
100
AcDbVertex
100
AcDb2dVertex
 10
7.0389553538
 20
6.7483218598
 30
0.0
  0
VERTEX
  5
322
330
1E7
100
AcDbEntity
  8
0
  6
CONTINUOUS
 62
     7
100
AcDbVertex
100
AcDb2dVertex
 10
7.047015866
 20
6.7232998409
 30
0.0
  0
VERTEX
  5
323
330
1E7
100
AcDbEntity
  8
0
  6
CONTINUOUS
 62
     7
100
AcDbVertex
100
AcDb2dVertex
 10
7.0563672742
 20
6.6995324214
 30
0.0
  0
VERTEX
  5
324
330
1E7
100
AcDbEntity
  8
0
  6
CONTINUOUS
 62
     7
100
AcDbVertex
100
AcDb2dVertex
 10
7.0669855866
 20
6.6770805791
 30
0.0
  0
VERTEX
  5
325
330
1E7
100
AcDbEntity
  8
0
  6
CONTINUOUS
 62
     7
100
AcDbVertex
100
AcDb2dVertex
 10
7.078843561
 20
6.656001916
 30
0.0
  0
VERTEX
  5
326
330
1E7
100
AcDbEntity
  8
0
  6
CONTINUOUS
 62
     7
100
AcDbVertex
100
AcDb2dVertex
 10
7.0919107746
 20
6.6363505115
 30
0.0
  0
VERTEX
  5
327
330
1E7
100
AcDbEntity
  8
0
  6
CONTINUOUS
 62
     7
100
AcDbVertex
100
AcDb2dVertex
 10
7.1061537022
 20
6.6181767832
 30
0.0
  0
VERTEX
  5
328
330
1E7
100
AcDbEntity
  8
0
  6
CONTINUOUS
 62
     7
100
AcDbVertex
100
AcDb2dVertex
 10
7.1215358023
 20
6.6015273574
 30
0.0
  0
VERTEX
  5
329
330
1E7
100
AcDbEntity
  8
0
  6
CONTINUOUS
 62
     7
100
AcDbVertex
100
AcDb2dVertex
 10
7.1380176108
 20
6.5864449497
 30
0.0
  0
VERTEX
  5
32A
330
1E7
100
AcDbEntity
  8
0
  6
CONTINUOUS
 62
     7
100
AcDbVertex
100
AcDb2dVertex
 10
7.1555568418
 20
6.5729682555
 30
0.0
  0
VERTEX
  5
32B
330
1E7
100
AcDbEntity
  8
0
  6
CONTINUOUS
 62
     7
100
AcDbVertex
100
AcDb2dVertex
 10
7.1741084971
 20
6.5611318504
 30
0.0
  0
VERTEX
  5
32C
330
1E7
100
AcDbEntity
  8
0
  6
CONTINUOUS
 62
     7
100
AcDbVertex
100
AcDb2dVertex
 10
7.1742191709
 20
6.5610679222
 30
0.0
  0
SEQEND
  5
32D
330
1E7
100
AcDbEntity
  8
0
  6
CONTINUOUS
 62
     7
  0
POLYLINE
  5
1E8
330
1F
100
AcDbEntity
  8
0
  6
CONTINUOUS
 62
     7
100
AcDb2dPolyline
 66
     1
 10
0.0
 20
0.0
 30
0.0
  0
VERTEX
  5
32E
330
1E8
100
AcDbEntity
  8
0
  6
CONTINUOUS
 62
     7
100
AcDbVertex
100
AcDb2dVertex
 10
7.573613179
 20
7.3444326596
 30
0.0
  0
VERTEX
  5
32F
330
1E8
100
AcDbEntity
  8
0
  6
CONTINUOUS
 62
     7
100
AcDbVertex
100
AcDb2dVertex
 10
7.5963313395
 20
7.3751582981
 30
0.0
  0
VERTEX
  5
330
330
1E8
100
AcDbEntity
  8
0
  6
CONTINUOUS
 62
     7
100
AcDbVertex
100
AcDb2dVertex
 10
7.6198039467
 20
7.4049466005
 30
0.0
  0
VERTEX
  5
331
330
1E8
100
AcDbEntity
  8
0
  6
CONTINUOUS
 62
     7
100
AcDbVertex
100
AcDb2dVertex
 10
7.6439688427
 20
7.4337186843
 30
0.0
  0
VERTEX
  5
332
330
1E8
100
AcDbEntity
  8
0
  6
CONTINUOUS
 62
     7
100
AcDbVertex
100
AcDb2dVertex
 10
7.6687620365
 20
7.4613983584
 30
0.0
  0
VERTEX
  5
333
330
1E8
100
AcDbEntity
  8
0
  6
CONTINUOUS
 62
     7
100
AcDbVertex
100
AcDb2dVertex
 10
7.6941178731
 20
7.487912324
 30
0.0
  0
VERTEX
  5
334
330
1E8
100
AcDbEntity
  8
0
  6
CONTINUOUS
 62
     7
100
AcDbVertex
100
AcDb2dVertex
 10
7.7199692079
 20
7.5131903696
 30
0.0
  0
VERTEX
  5
335
330
1E8
100
AcDbEntity
  8
0
  6
CONTINUOUS
 62
     7
100
AcDbVertex
100
AcDb2dVertex
 10
7.746247584
 20
7.5371655563
 30
0.0
  0
VERTEX
  5
336
330
1E8
100
AcDbEntity
  8
0
  6
CONTINUOUS
 62
     7
100
AcDbVertex
100
AcDb2dVertex
 10
7.7728834134
 20
7.5597743956
 30
0.0
  0
VERTEX
  5
337
330
1E8
100
AcDbEntity
  8
0
  6
CONTINUOUS
 62
     7
100
AcDbVertex
100
AcDb2dVertex
 10
7.799806162
 20
7.5809570169
 30
0.0
  0
VERTEX
  5
338
330
1E8
100
AcDbEntity
  8
0
  6
CONTINUOUS
 62
     7
100
AcDbVertex
100
AcDb2dVertex
 10
7.8269445356
 20
7.6006573265
 30
0.0
  0
VERTEX
  5
339
330
1E8
100
AcDbEntity
  8
0
  6
CONTINUOUS
 62
     7
100
AcDbVertex
100
AcDb2dVertex
 10
7.854226669
 20
7.6188231561
 30
0.0
  0
VERTEX
  5
33A
330
1E8
100
AcDbEntity
  8
0
  6
CONTINUOUS
 62
     7
100
AcDbVertex
100
AcDb2dVertex
 10
7.8815803165
 20
7.6354064007
 30
0.0
  0
VERTEX
  5
33B
330
1E8
100
AcDbEntity
  8
0
  6
CONTINUOUS
 62
     7
100
AcDbVertex
100
AcDb2dVertex
 10
7.9089330429
 20
7.6503631462
 30
0.0
  0
VERTEX
  5
33C
330
1E8
100
AcDbEntity
  8
0
  6
CONTINUOUS
 62
     7
100
AcDbVertex
100
AcDb2dVertex
 10
7.9362124153
 20
7.6636537857
 30
0.0
  0
VERTEX
  5
33D
330
1E8
100
AcDbEntity
  8
0
  6
CONTINUOUS
 62
     7
100
AcDbVertex
100
AcDb2dVertex
 10
7.9633461954
 20
7.6752431242
 30
0.0
  0
VERTEX
  5
33E
330
1E8
100
AcDbEntity
  8
0
  6
CONTINUOUS
 62
     7
100
AcDbVertex
100
AcDb2dVertex
 10
7.9902625301
 20
7.6851004721
 30
0.0
  0
VERTEX
  5
33F
330
1E8
100
AcDbEntity
  8
0
  6
CONTINUOUS
 62
     7
100
AcDbVertex
100
AcDb2dVertex
 10
8.0168901424
 20
7.6931997259
 30
0.0
  0
VERTEX
  5
340
330
1E8
100
AcDbEntity
  8
0
  6
CONTINUOUS
 62
     7
100
AcDbVertex
100
AcDb2dVertex
 10
8.0431585195
 20
7.6995194383
 30
0.0
  0
VERTEX
  5
341
330
1E8
100
AcDbEntity
  8
0
  6
CONTINUOUS
 62
     7
100
AcDbVertex
100
AcDb2dVertex
 10
8.0689981003
 20
7.7040428738
 30
0.0
  0
VERTEX
  5
342
330
1E8
100
AcDbEntity
  8
0
  6
CONTINUOUS
 62
     7
100
AcDbVertex
100
AcDb2dVertex
 10
8.094340459
 20
7.706758054
 30
0.0
  0
VERTEX
  5
343
330
1E8
100
AcDbEntity
  8
0
  6
CONTINUOUS
 62
     7
100
AcDbVertex
100
AcDb2dVertex
 10
8.1191184864
 20
7.7076577889
 30
0.0
  0
VERTEX
  5
344
330
1E8
100
AcDbEntity
  8
0
  6
CONTINUOUS
 62
     7
100
AcDbVertex
100
AcDb2dVertex
 10
8.1432665679
 20
7.7067396958
 30
0.0
  0
VERTEX
  5
345
330
1E8
100
AcDbEntity
  8
0
  6
CONTINUOUS
 62
     7
100
AcDbVertex
100
AcDb2dVertex
 10
8.166720757
 20
7.7040062059
 30
0.0
  0
VERTEX
  5
346
330
1E8
100
AcDbEntity
  8
0
  6
CONTINUOUS
 62
     7
100
AcDbVertex
100
AcDb2dVertex
 10
8.1894189445
 20
7.6994645578
 30
0.0
  0
VERTEX
  5
347
330
1E8
100
AcDbEntity
  8
0
  6
CONTINUOUS
 62
     7
100
AcDbVertex
100
AcDb2dVertex
 10
8.2113010235
 20
7.6931267783
 30
0.0
  0
VERTEX
  5
348
330
1E8
100
AcDbEntity
  8
0
  6
CONTINUOUS
 62
     7
100
AcDbVertex
100
AcDb2dVertex
 10
8.232309048
 20
7.6850096504
 30
0.0
  0
VERTEX
  5
349
330
1E8
100
AcDbEntity
  8
0
  6
CONTINUOUS
 62
     7
100
AcDbVertex
100
AcDb2dVertex
 10
8.2523873866
 20
7.675134669
 30
0.0
  0
VERTEX
  5
34A
330
1E8
100
AcDbEntity
  8
0
  6
CONTINUOUS
 62
     7
100
AcDbVertex
100
AcDb2dVertex
 10
8.2708479061
 20
7.6639523364
 30
0.0
  0
SEQEND
  5
34B
330
1E8
100
AcDbEntity
  8
0
  6
CONTINUOUS
 62
     7
  0
LINE
  5
1E9
330
1F
100
AcDbEntity
  8
0
  6
CONTINUOUS
 62
     7
100
AcDbLine
 10
7.6014520286
 20
7.3283616337
 30
0.0
 11
7.573613179
 21
7.3444326596
 31
0.0
  0
POLYLINE
  5
1EA
330
1F
100
AcDbEntity
  8
0
  6
CONTINUOUS
 62
     7
100
AcDb2dPolyline
 66
     1
 10
0.0
 20
0.0
 30
0.0
  0
VERTEX
  5
34C
330
1EA
100
AcDbEntity
  8
0
  6
CONTINUOUS
 62
     7
100
AcDbVertex
100
AcDb2dVertex
 10
8.285025014
 20
7.656363192
 30
0.0
  0
VERTEX
  5
34D
330
1EA
100
AcDbEntity
  8
0
  6
CONTINUOUS
 62
     7
100
AcDbVertex
100
AcDb2dVertex
 10
8.274134803
 20
7.662295927
 30
0.0
  0
VERTEX
  5
34E
330
1EA
100
AcDbEntity
  8
0
  6
CONTINUOUS
 62
     7
100
AcDbVertex
100
AcDb2dVertex
 10
8.2540018872
 20
7.6715344792
 30
0.0
  0
VERTEX
  5
34F
330
1EA
100
AcDbEntity
  8
0
  6
CONTINUOUS
 62
     7
100
AcDbVertex
100
AcDb2dVertex
 10
8.2329763091
 20
7.67904839
 30
0.0
  0
VERTEX
  5
350
330
1EA
100
AcDbEntity
  8
0
  6
CONTINUOUS
 62
     7
100
AcDbVertex
100
AcDb2dVertex
 10
8.2111124818
 20
7.6848182139
 30
0.0
  0
VERTEX
  5
351
330
1EA
100
AcDbEntity
  8
0
  6
CONTINUOUS
 62
     7
100
AcDbVertex
100
AcDb2dVertex
 10
8.1884669877
 20
7.6888290188
 30
0.0
  0
VERTEX
  5
352
330
1EA
100
AcDbEntity
  8
0
  6
CONTINUOUS
 62
     7
100
AcDbVertex
100
AcDb2dVertex
 10
8.1650984323
 20
7.6910704249
 30
0.0
  0
VERTEX
  5
353
330
1EA
100
AcDbEntity
  8
0
  6
CONTINUOUS
 62
     7
100
AcDbVertex
100
AcDb2dVertex
 10
8.1410672921
 20
7.6915366318
 30
0.0
  0
VERTEX
  5
354
330
1EA
100
AcDbEntity
  8
0
  6
CONTINUOUS
 62
     7
100
AcDbVertex
100
AcDb2dVertex
 10
8.1164357585
 20
7.6902264327
 30
0.0
  0
VERTEX
  5
355
330
1EA
100
AcDbEntity
  8
0
  6
CONTINUOUS
 62
     7
100
AcDbVertex
100
AcDb2dVertex
 10
8.0912675765
 20
7.6871432185
 30
0.0
  0
VERTEX
  5
356
330
1EA
100
AcDbEntity
  8
0
  6
CONTINUOUS
 62
     7
100
AcDbVertex
100
AcDb2dVertex
 10
8.0656278802
 20
7.6822949683
 30
0.0
  0
VERTEX
  5
357
330
1EA
100
AcDbEntity
  8
0
  6
CONTINUOUS
 62
     7
100
AcDbVertex
100
AcDb2dVertex
 10
8.0395830236
 20
7.6756942292
 30
0.0
  0
VERTEX
  5
358
330
1EA
100
AcDbEntity
  8
0
  6
CONTINUOUS
 62
     7
100
AcDbVertex
100
AcDb2dVertex
 10
8.0132004096
 20
7.6673580835
 30
0.0
  0
VERTEX
  5
359
330
1EA
100
AcDbEntity
  8
0
  6
CONTINUOUS
 62
     7
100
AcDbVertex
100
AcDb2dVertex
 10
7.9865483149
 20
7.6573081048
 30
0.0
  0
VERTEX
  5
35A
330
1EA
100
AcDbEntity
  8
0
  6
CONTINUOUS
 62
     7
100
AcDbVertex
100
AcDb2dVertex
 10
7.9596957138
 20
7.6455703018
 30
0.0
  0
VERTEX
  5
35B
330
1EA
100
AcDbEntity
  8
0
  6
CONTINUOUS
 62
     7
100
AcDbVertex
100
AcDb2dVertex
 10
7.9327120994
 20
7.6321750515
 30
0.0
  0
VERTEX
  5
35C
330
1EA
100
AcDbEntity
  8
0
  6
CONTINUOUS
 62
     7
100
AcDbVertex
100
AcDb2dVertex
 10
7.9056673039
 20
7.6171570198
 30
0.0
  0
VERTEX
  5
35D
330
1EA
100
AcDbEntity
  8
0
  6
CONTINUOUS
 62
     7
100
AcDbVertex
100
AcDb2dVertex
 10
7.8786313179
 20
7.6005550729
 30
0.0
  0
VERTEX
  5
35E
330
1EA
100
AcDbEntity
  8
0
  6
CONTINUOUS
 62
     7
100
AcDbVertex
100
AcDb2dVertex
 10
7.8516741089
 20
7.5824121756
 30
0.0
  0
VERTEX
  5
35F
330
1EA
100
AcDbEntity
  8
0
  6
CONTINUOUS
 62
     7
100
AcDbVertex
100
AcDb2dVertex
 10
7.8248654409
 20
7.5627752808
 30
0.0
  0
VERTEX
  5
360
330
1EA
100
AcDbEntity
  8
0
  6
CONTINUOUS
 62
     7
100
AcDbVertex
100
AcDb2dVertex
 10
7.7982746934
 20
7.5416952078
 30
0.0
  0
VERTEX
  5
361
330
1EA
100
AcDbEntity
  8
0
  6
CONTINUOUS
 62
     7
100
AcDbVertex
100
AcDb2dVertex
 10
7.7719706817
 20
7.5192265106
 30
0.0
  0
VERTEX
  5
362
330
1EA
100
AcDbEntity
  8
0
  6
CONTINUOUS
 62
     7
100
AcDbVertex
100
AcDb2dVertex
 10
7.7460214792
 20
7.4954273372
 30
0.0
  0
VERTEX
  5
363
330
1EA
100
AcDbEntity
  8
0
  6
CONTINUOUS
 62
     7
100
AcDbVertex
100
AcDb2dVertex
 10
7.7204942412
 20
7.4703592785
 30
0.0
  0
VERTEX
  5
364
330
1EA
100
AcDbEntity
  8
0
  6
CONTINUOUS
 62
     7
100
AcDbVertex
100
AcDb2dVertex
 10
7.6954550309
 20
7.4440872093
 30
0.0
  0
VERTEX
  5
365
330
1EA
100
AcDbEntity
  8
0
  6
CONTINUOUS
 62
     7
100
AcDbVertex
100
AcDb2dVertex
 10
7.6709686483
 20
7.4166791204
 30
0.0
  0
VERTEX
  5
366
330
1EA
100
AcDbEntity
  8
0
  6
CONTINUOUS
 62
     7
100
AcDbVertex
100
AcDb2dVertex
 10
7.6470984629
 20
7.3882059425
 30
0.0
  0
VERTEX
  5
367
330
1EA
100
AcDbEntity
  8
0
  6
CONTINUOUS
 62
     7
100
AcDbVertex
100
AcDb2dVertex
 10
7.6239062496
 20
7.3587413627
 30
0.0
  0
VERTEX
  5
368
330
1EA
100
AcDbEntity
  8
0
  6
CONTINUOUS
 62
     7
100
AcDbVertex
100
AcDb2dVertex
 10
7.6014520286
 20
7.3283616337
 30
0.0
  0
SEQEND
  5
369
330
1EA
100
AcDbEntity
  8
0
  6
CONTINUOUS
 62
     7
  0
POLYLINE
  5
1EB
330
1F
100
AcDbEntity
  8
0
  6
CONTINUOUS
 62
     7
100
AcDb2dPolyline
 66
     1
 10
0.0
 20
0.0
 30
0.0
  0
VERTEX
  5
36A
330
1EB
100
AcDbEntity
  8
0
  6
CONTINUOUS
 62
     7
100
AcDbVertex
100
AcDb2dVertex
 10
7.9836592629
 20
6.6641249685
 30
0.0
  0
VERTEX
  5
36B
330
1EB
100
AcDbEntity
  8
0
  6
CONTINUOUS
 62
     7
100
AcDbVertex
100
AcDb2dVertex
 10
7.9729095704
 20
6.6293337012
 30
0.0
  0
VERTEX
  5
36C
330
1EB
100
AcDbEntity
  8
0
  6
CONTINUOUS
 62
     7
100
AcDbVertex
100
AcDb2dVertex
 10
7.9634297472
 20
6.5946824912
 30
0.0
  0
VERTEX
  5
36D
330
1EB
100
AcDbEntity
  8
0
  6
CONTINUOUS
 62
     7
100
AcDbVertex
100
AcDb2dVertex
 10
7.9552442142
 20
6.5602606041
 30
0.0
  0
VERTEX
  5
36E
330
1EB
100
AcDbEntity
  8
0
  6
CONTINUOUS
 62
     7
100
AcDbVertex
100
AcDb2dVertex
 10
7.9483740585
 20
6.5261567147
 30
0.0
  0
VERTEX
  5
36F
330
1EB
100
AcDbEntity
  8
0
  6
CONTINUOUS
 62
     7
100
AcDbVertex
100
AcDb2dVertex
 10
7.9428369785
 20
6.4924586788
 30
0.0
  0
VERTEX
  5
370
330
1EB
100
AcDbEntity
  8
0
  6
CONTINUOUS
 62
     7
100
AcDbVertex
100
AcDb2dVertex
 10
7.9386472381
 20
6.4592533066
 30
0.0
  0
VERTEX
  5
371
330
1EB
100
AcDbEntity
  8
0
  6
CONTINUOUS
 62
     7
100
AcDbVertex
100
AcDb2dVertex
 10
7.9358156308
 20
6.426626139
 30
0.0
  0
VERTEX
  5
372
330
1EB
100
AcDbEntity
  8
0
  6
CONTINUOUS
 62
     7
100
AcDbVertex
100
AcDb2dVertex
 10
7.9343494512
 20
6.3946612275
 30
0.0
  0
VERTEX
  5
373
330
1EB
100
AcDbEntity
  8
0
  6
CONTINUOUS
 62
     7
100
AcDbVertex
100
AcDb2dVertex
 10
7.9342524761
 20
6.3634409176
 30
0.0
  0
VERTEX
  5
374
330
1EB
100
AcDbEntity
  8
0
  6
CONTINUOUS
 62
     7
100
AcDbVertex
100
AcDb2dVertex
 10
7.9355249556
 20
6.3330456365
 30
0.0
  0
VERTEX
  5
375
330
1EB
100
AcDbEntity
  8
0
  6
CONTINUOUS
 62
     7
100
AcDbVertex
100
AcDb2dVertex
 10
7.9381636114
 20
6.3035536861
 30
0.0
  0
VERTEX
  5
376
330
1EB
100
AcDbEntity
  8
0
  6
CONTINUOUS
 62
     7
100
AcDbVertex
100
AcDb2dVertex
 10
7.9421616462
 20
6.2750410413
 30
0.0
  0
VERTEX
  5
377
330
1EB
100
AcDbEntity
  8
0
  6
CONTINUOUS
 62
     7
100
AcDbVertex
100
AcDb2dVertex
 10
7.9475087605
 20
6.2475811539
 30
0.0
  0
VERTEX
  5
378
330
1EB
100
AcDbEntity
  8
0
  6
CONTINUOUS
 62
     7
100
AcDbVertex
100
AcDb2dVertex
 10
7.9541911795
 20
6.221244764
 30
0.0
  0
VERTEX
  5
379
330
1EB
100
AcDbEntity
  8
0
  6
CONTINUOUS
 62
     7
100
AcDbVertex
100
AcDb2dVertex
 10
7.9621916885
 20
6.1960997172
 30
0.0
  0
VERTEX
  5
37A
330
1EB
100
AcDbEntity
  8
0
  6
CONTINUOUS
 62
     7
100
AcDbVertex
100
AcDb2dVertex
 10
7.9714896772
 20
6.1722107901
 30
0.0
  0
VERTEX
  5
37B
330
1EB
100
AcDbEntity
  8
0
  6
CONTINUOUS
 62
     7
100
AcDbVertex
100
AcDb2dVertex
 10
7.9820611929
 20
6.1496395236
 30
0.0
  0
VERTEX
  5
37C
330
1EB
100
AcDbEntity
  8
0
  6
CONTINUOUS
 62
     7
100
AcDbVertex
100
AcDb2dVertex
 10
7.9938790021
 20
6.1284440639
 30
0.0
  0
VERTEX
  5
37D
330
1EB
100
AcDbEntity
  8
0
  6
CONTINUOUS
 62
     7
100
AcDbVertex
100
AcDb2dVertex
 10
8.0069126607
 20
6.1086790131
 30
0.0
  0
VERTEX
  5
37E
330
1EB
100
AcDbEntity
  8
0
  6
CONTINUOUS
 62
     7
100
AcDbVertex
100
AcDb2dVertex
 10
8.0211285924
 20
6.0903952882
 30
0.0
  0
VERTEX
  5
37F
330
1EB
100
AcDbEntity
  8
0
  6
CONTINUOUS
 62
     7
100
AcDbVertex
100
AcDb2dVertex
 10
8.0364901753
 20
6.0736399904
 30
0.0
  0
VERTEX
  5
380
330
1EB
100
AcDbEntity
  8
0
  6
CONTINUOUS
 62
     7
100
AcDbVertex
100
AcDb2dVertex
 10
8.0529578362
 20
6.0584562832
 30
0.0
  0
VERTEX
  5
381
330
1EB
100
AcDbEntity
  8
0
  6
CONTINUOUS
 62
     7
100
AcDbVertex
100
AcDb2dVertex
 10
8.0704891524
 20
6.0448832818
 30
0.0
  0
VERTEX
  5
382
330
1EB
100
AcDbEntity
  8
0
  6
CONTINUOUS
 62
     7
100
AcDbVertex
100
AcDb2dVertex
 10
8.089038961
 20
6.0329559518
 30
0.0
  0
VERTEX
  5
383
330
1EB
100
AcDbEntity
  8
0
  6
CONTINUOUS
 62
     7
100
AcDbVertex
100
AcDb2dVertex
 10
8.0898946136
 20
6.0324597408
 30
0.0
  0
SEQEND
  5
384
330
1EB
100
AcDbEntity
  8
0
  6
CONTINUOUS
 62
     7
  0
LINE
  5
1EC
330
1F
100
AcDbEntity
  8
0
  6
CONTINUOUS
 62
     7
100
AcDbLine
 10
7.9558204132
 20
6.6801959943
 30
0.0
 11
7.9836592629
 21
6.6641249685
 31
0.0
  0
POLYLINE
  5
1ED
330
1F
100
AcDbEntity
  8
0
  6
CONTINUOUS
 62
     7
100
AcDb2dPolyline
 66
     1
 10
0.0
 20
0.0
 30
0.0
  0
VERTEX
  5
385
330
1ED
100
AcDbEntity
  8
0
  6
CONTINUOUS
 62
     7
100
AcDbVertex
100
AcDb2dVertex
 10
8.0762328719
 20
6.0409416223
 30
0.0
  0
VERTEX
  5
386
330
1ED
100
AcDbEntity
  8
0
  6
CONTINUOUS
 62
     7
100
AcDbVertex
100
AcDb2dVertex
 10
8.0613826322
 20
6.0489207512
 30
0.0
  0
VERTEX
  5
387
330
1ED
100
AcDbEntity
  8
0
  6
CONTINUOUS
 62
     7
100
AcDbVertex
100
AcDb2dVertex
 10
8.0428160815
 20
6.0608372432
 30
0.0
  0
VERTEX
  5
388
330
1ED
100
AcDbEntity
  8
0
  6
CONTINUOUS
 62
     7
100
AcDbVertex
100
AcDb2dVertex
 10
8.0252684092
 20
6.0744010226
 30
0.0
  0
VERTEX
  5
389
330
1ED
100
AcDbEntity
  8
0
  6
CONTINUOUS
 62
     7
100
AcDbVertex
100
AcDb2dVertex
 10
8.0087848562
 20
6.0895771194
 30
0.0
  0
VERTEX
  5
38A
330
1ED
100
AcDbEntity
  8
0
  6
CONTINUOUS
 62
     7
100
AcDbVertex
100
AcDb2dVertex
 10
7.9934079202
 20
6.1063264071
 30
0.0
  0
VERTEX
  5
38B
330
1ED
100
AcDbEntity
  8
0
  6
CONTINUOUS
 62
     7
100
AcDbVertex
100
AcDb2dVertex
 10
7.9791772454
 20
6.1246057029
 30
0.0
  0
VERTEX
  5
38C
330
1ED
100
AcDbEntity
  8
0
  6
CONTINUOUS
 62
     7
100
AcDbVertex
100
AcDb2dVertex
 10
7.9661295212
 20
6.1443678797
 30
0.0
  0
VERTEX
  5
38D
330
1ED
100
AcDbEntity
  8
0
  6
CONTINUOUS
 62
     7
100
AcDbVertex
100
AcDb2dVertex
 10
7.9542983868
 20
6.1655619871
 30
0.0
  0
VERTEX
  5
38E
330
1ED
100
AcDbEntity
  8
0
  6
CONTINUOUS
 62
     7
100
AcDbVertex
100
AcDb2dVertex
 10
7.943714345
 20
6.1881333828
 30
0.0
  0
VERTEX
  5
38F
330
1ED
100
AcDbEntity
  8
0
  6
CONTINUOUS
 62
     7
100
AcDbVertex
100
AcDb2dVertex
 10
7.9344046834
 20
6.212023874
 30
0.0
  0
VERTEX
  5
390
330
1ED
100
AcDbEntity
  8
0
  6
CONTINUOUS
 62
     7
100
AcDbVertex
100
AcDb2dVertex
 10
7.9263934038
 20
6.2371718665
 30
0.0
  0
VERTEX
  5
391
330
1ED
100
AcDbEntity
  8
0
  6
CONTINUOUS
 62
     7
100
AcDbVertex
100
AcDb2dVertex
 10
7.9197011609
 20
6.2635125246
 30
0.0
  0
VERTEX
  5
392
330
1ED
100
AcDbEntity
  8
0
  6
CONTINUOUS
 62
     7
100
AcDbVertex
100
AcDb2dVertex
 10
7.9143452083
 20
6.2909779372
 30
0.0
  0
VERTEX
  5
393
330
1ED
100
AcDbEntity
  8
0
  6
CONTINUOUS
 62
     7
100
AcDbVertex
100
AcDb2dVertex
 10
7.9103393547
 20
6.3194972938
 30
0.0
  0
VERTEX
  5
394
330
1ED
100
AcDbEntity
  8
0
  6
CONTINUOUS
 62
     7
100
AcDbVertex
100
AcDb2dVertex
 10
7.9076939279
 20
6.3489970663
 30
0.0
  0
VERTEX
  5
395
330
1ED
100
AcDbEntity
  8
0
  6
CONTINUOUS
 62
     7
100
AcDbVertex
100
AcDb2dVertex
 10
7.9064157482
 20
6.3794011993
 30
0.0
  0
VERTEX
  5
396
330
1ED
100
AcDbEntity
  8
0
  6
CONTINUOUS
 62
     7
100
AcDbVertex
100
AcDb2dVertex
 10
7.906508111
 20
6.4106313053
 30
0.0
  0
VERTEX
  5
397
330
1ED
100
AcDbEntity
  8
0
  6
CONTINUOUS
 62
     7
100
AcDbVertex
100
AcDb2dVertex
 10
7.9079707782
 20
6.4426068678
 30
0.0
  0
VERTEX
  5
398
330
1ED
100
AcDbEntity
  8
0
  6
CONTINUOUS
 62
     7
100
AcDbVertex
100
AcDb2dVertex
 10
7.9107999788
 20
6.475245448
 30
0.0
  0
VERTEX
  5
399
330
1ED
100
AcDbEntity
  8
0
  6
CONTINUOUS
 62
     7
100
AcDbVertex
100
AcDb2dVertex
 10
7.9149884186
 20
6.5084628979
 30
0.0
  0
VERTEX
  5
39A
330
1ED
100
AcDbEntity
  8
0
  6
CONTINUOUS
 62
     7
100
AcDbVertex
100
AcDb2dVertex
 10
7.920525299
 20
6.5421735771
 30
0.0
  0
VERTEX
  5
39B
330
1ED
100
AcDbEntity
  8
0
  6
CONTINUOUS
 62
     7
100
AcDbVertex
100
AcDb2dVertex
 10
7.927396345
 20
6.5762905735
 30
0.0
  0
VERTEX
  5
39C
330
1ED
100
AcDbEntity
  8
0
  6
CONTINUOUS
 62
     7
100
AcDbVertex
100
AcDb2dVertex
 10
7.9355838419
 20
6.6107259274
 30
0.0
  0
VERTEX
  5
39D
330
1ED
100
AcDbEntity
  8
0
  6
CONTINUOUS
 62
     7
100
AcDbVertex
100
AcDb2dVertex
 10
7.9450666808
 20
6.6453908584
 30
0.0
  0
VERTEX
  5
39E
330
1ED
100
AcDbEntity
  8
0
  6
CONTINUOUS
 62
     7
100
AcDbVertex
100
AcDb2dVertex
 10
7.9558204132
 20
6.6801959943
 30
0.0
  0
SEQEND
  5
39F
330
1ED
100
AcDbEntity
  8
0
  6
CONTINUOUS
 62
     7
  0
LINE
  5
1EE
330
1F
100
AcDbEntity
  8
0
  6
CONTINUOUS
 62
     7
100
AcDbLine
 10
8.8108273353
 20
5.8868175333
 30
0.0
 11
8.7971306212
 21
5.894724478
 31
0.0
  0
SPLINE
  5
1EF
330
1F
100
AcDbEntity
  8
0
  6
CONTINUOUS
 62
     7
100
AcDbSpline
210
0.0
220
0.0
230
1.0
 70
     8
 71
     3
 72
    44
 73
    40
 74
     0
 42
0.00000001
 43
0.00000001
 40
0.0
 40
0.0
 40
0.0
 40
0.0
 40
0.0192951702145288
 40
0.0393002115150055
 40
0.0585701833020998
 40
0.0782977001844769
 40
0.1068500738508081
 40
0.1362086687746002
 40
0.1731834015474634
 40
0.2112250763169458
 40
0.2484916607279079
 40
0.2868437173765681
 40
0.3178067488416803
 40
0.3496097420147938
 40
0.3806109543066213
 40
0.4128211825227152
 40
0.4394624706246886
 40
0.4670928550998866
 40
0.4906594276156573
 40
0.5149909255228782
 40
0.5372973204182885
 40
0.5602587599668037
 40
0.5824700451461555
 40
0.6052827859971339
 40
0.6283398446456481
 40
0.6519729249544963
 40
0.6769237885289565
 40
0.702450867932914
 40
0.7305579186035929
 40
0.7592799608341483
 40
0.7917919636814791
 40
0.8250313263968967
 40
0.8620678002328627
 40
0.9001334670685909
 40
0.9280622947895405
 40
0.9566545596415892
 40
0.9773202307351223
 40
0.9984976725397954
 40
1.0
 40
1.0
 40
1.0
 40
1.0
 10
8.096308380554992
 20
7.764871193346911
 30
0.0
 10
8.099709736490755
 20
7.762918200784299
 30
0.0
 10
8.10663758455984
 20
7.758940364883163
 30
0.0
 10
8.114806796376913
 20
7.754373783261543
 30
0.0
 10
8.12123636101838
 20
7.750825236735956
 30
0.0
 10
8.126464136462783
 20
7.747931308617612
 30
0.0
 10
8.129703460672498
 20
7.745985944445272
 30
0.0
 10
8.130051705652786
 20
7.745162234443347
 30
0.0
 10
8.126378658048745
 20
7.745726933249746
 30
0.0
 10
8.117946904646145
 20
7.747656276684409
 30
0.0
 10
8.105115831309087
 20
7.750696930761306
 30
0.0
 10
8.089176507449114
 20
7.754494786208457
 30
0.0
 10
8.07086543573403
 20
7.758954053446649
 30
0.0
 10
8.051429741864494
 20
7.763892317578343
 30
0.0
 10
8.029701027919886
 20
7.769816621556378
 30
0.0
 10
8.007849550971981
 20
7.776401094849478
 30
0.0
 10
7.986552886259541
 20
7.783645470211211
 30
0.0
 10
7.967856167636361
 20
7.790892923525068
 30
0.0
 10
7.950912673626141
 20
7.798462883394856
 30
0.0
 10
7.936717019281902
 20
7.805825282472272
 30
0.0
 10
7.924627954204833
 20
7.813225453692184
 30
0.0
 10
7.915087850564976
 20
7.820284423988675
 30
0.0
 10
7.907904034106879
 20
7.827032004001361
 30
0.0
 10
7.90323955138288
 20
7.83319201372985
 30
0.0
 10
7.90111004078665
 20
7.838629652458954
 30
0.0
 10
7.901564742045977
 20
7.843144806616528
 30
0.0
 10
7.904671726237025
 20
7.846488989161641
 30
0.0
 10
7.91055042294134
 20
7.848474605313675
 30
0.0
 10
7.919198859052058
 20
7.848789170734727
 30
0.0
 10
7.930958857338436
 20
7.847147345315791
 30
0.0
 10
7.945619026415573
 20
7.843272336762684
 30
0.0
 10
7.963631744441904
 20
7.836768090724306
 30
0.0
 10
7.984478319402367
 20
7.827601001558357
 30
0.0
 10
8.005813886310962
 20
7.816843816124353
 30
0.0
 10
8.02629924671644
 20
7.805663130303147
 30
0.0
 10
8.043531699174954
 20
7.795809863116743
 30
0.0
 10
8.059256698020759
 20
7.786614030029914
 30
0.0
 10
8.069007793127724
 20
7.780851550027005
 30
0.0
 10
8.07377713751943
 20
7.778048168922435
 30
0.0
 10
8.074093063001879
 20
7.777862470542279
 30
0.0
  0
SPLINE
  5
1F0
330
1F
100
AcDbEntity
  8
0
  6
CONTINUOUS
 62
     7
100
AcDbSpline
210
0.0
220
0.0
230
1.0
 70
     8
 71
     3
 72
    12
 73
     8
 74
     0
 42
0.00000001
 43
0.00000001
 40
0.0
 40
0.0
 40
0.0
 40
0.0
 40
0.2080986516385572
 40
0.4162291025046924
 40
0.6302186285341672
 40
0.8442310234489974
 40
1.0
 40
1.0
 40
1.0
 40
1.0
 10
8.357381294066599
 20
5.890574791400944
 30
0.0
 10
8.36098183591461
 20
5.886833404532223
 30
0.0
 10
8.368183469803766
 20
5.879350059079339
 30
0.0
 10
8.377791040084906
 20
5.870213854628751
 30
0.0
 10
8.386512108485835
 20
5.862696845370715
 30
0.0
 10
8.393681796344113
 20
5.857232359658652
 30
0.0
 10
8.397464188849385
 20
5.855021407930903
 30
0.0
 10
8.399057507104239
 20
5.854090053042825
 30
0.0
  0
POLYLINE
  5
1F1
330
1F
100
AcDbEntity
  8
0
  6
CONTINUOUS
 62
     7
100
AcDb2dPolyline
 66
     1
 10
0.0
 20
0.0
 30
0.0
  0
VERTEX
  5
3A0
330
1F1
100
AcDbEntity
  8
0
  6
CONTINUOUS
 62
     7
100
AcDbVertex
100
AcDb2dVertex
 10
8.1450365987
 20
6.0011254779
 30
0.0
  0
VERTEX
  5
3A1
330
1F1
100
AcDbEntity
  8
0
  6
CONTINUOUS
 62
     7
100
AcDbVertex
100
AcDb2dVertex
 10
8.1431652932
 20
6.0020837419
 30
0.0
  0
VERTEX
  5
3A2
330
1F1
100
AcDbEntity
  8
0
  6
CONTINUOUS
 62
     7
100
AcDbVertex
100
AcDb2dVertex
 10
8.1208837675
 20
6.0146058868
 30
0.0
  0
VERTEX
  5
3A3
330
1F1
100
AcDbEntity
  8
0
  6
CONTINUOUS
 62
     7
100
AcDbVertex
100
AcDb2dVertex
 10
8.100308441
 20
6.0274536552
 30
0.0
  0
VERTEX
  5
3A4
330
1F1
100
AcDbEntity
  8
0
  6
CONTINUOUS
 62
     7
100
AcDbVertex
100
AcDb2dVertex
 10
8.0811448694
 20
6.0409796046
 30
0.0
  0
VERTEX
  5
3A5
330
1F1
100
AcDbEntity
  8
0
  6
CONTINUOUS
 62
     7
100
AcDbVertex
100
AcDb2dVertex
 10
8.0643208291
 20
6.0546881911
 30
0.0
  0
VERTEX
  5
3A6
330
1F1
100
AcDbEntity
  8
0
  6
CONTINUOUS
 62
     7
100
AcDbVertex
100
AcDb2dVertex
 10
8.0447528816
 20
6.0745268119
 30
0.0
  0
VERTEX
  5
3A7
330
1F1
100
AcDbEntity
  8
0
  6
CONTINUOUS
 62
     7
100
AcDbVertex
100
AcDb2dVertex
 10
8.0372121776
 20
6.0844812884
 30
0.0
  0
VERTEX
  5
3A8
330
1F1
100
AcDbEntity
  8
0
  6
CONTINUOUS
 62
     7
100
AcDbVertex
100
AcDb2dVertex
 10
8.0315435257
 20
6.0941038278
 30
0.0
  0
VERTEX
  5
3A9
330
1F1
100
AcDbEntity
  8
0
  6
CONTINUOUS
 62
     7
100
AcDbVertex
100
AcDb2dVertex
 10
8.027941252
 20
6.1030237402
 30
0.0
  0
VERTEX
  5
3AA
330
1F1
100
AcDbEntity
  8
0
  6
CONTINUOUS
 62
     7
100
AcDbVertex
100
AcDb2dVertex
 10
8.0263334752
 20
6.1112996726
 30
0.0
  0
VERTEX
  5
3AB
330
1F1
100
AcDbEntity
  8
0
  6
CONTINUOUS
 62
     7
100
AcDbVertex
100
AcDb2dVertex
 10
8.0268592298
 20
6.1190224567
 30
0.0
  0
VERTEX
  5
3AC
330
1F1
100
AcDbEntity
  8
0
  6
CONTINUOUS
 62
     7
100
AcDbVertex
100
AcDb2dVertex
 10
8.0296381208
 20
6.125629476
 30
0.0
  0
VERTEX
  5
3AD
330
1F1
100
AcDbEntity
  8
0
  6
CONTINUOUS
 62
     7
100
AcDbVertex
100
AcDb2dVertex
 10
8.0390071915
 20
6.1334758258
 30
0.0
  0
VERTEX
  5
3AE
330
1F1
100
AcDbEntity
  8
0
  6
CONTINUOUS
 62
     7
100
AcDbVertex
100
AcDb2dVertex
 10
8.0460941269
 20
6.1358413553
 30
0.0
  0
VERTEX
  5
3AF
330
1F1
100
AcDbEntity
  8
0
  6
CONTINUOUS
 62
     7
100
AcDbVertex
100
AcDb2dVertex
 10
8.0545822097
 20
6.1369206678
 30
0.0
  0
VERTEX
  5
3B0
330
1F1
100
AcDbEntity
  8
0
  6
CONTINUOUS
 62
     7
100
AcDbVertex
100
AcDb2dVertex
 10
8.0724021299
 20
6.1354943736
 30
0.0
  0
VERTEX
  5
3B1
330
1F1
100
AcDbEntity
  8
0
  6
CONTINUOUS
 62
     7
100
AcDbVertex
100
AcDb2dVertex
 10
8.094103282
 20
6.1294282882
 30
0.0
  0
VERTEX
  5
3B2
330
1F1
100
AcDbEntity
  8
0
  6
CONTINUOUS
 62
     7
100
AcDbVertex
100
AcDb2dVertex
 10
8.1169574536
 20
6.1193911121
 30
0.0
  0
VERTEX
  5
3B3
330
1F1
100
AcDbEntity
  8
0
  6
CONTINUOUS
 62
     7
100
AcDbVertex
100
AcDb2dVertex
 10
8.1420854114
 20
6.1048983493
 30
0.0
  0
VERTEX
  5
3B4
330
1F1
100
AcDbEntity
  8
0
  6
CONTINUOUS
 62
     7
100
AcDbVertex
100
AcDb2dVertex
 10
8.1672827677
 20
6.0872355297
 30
0.0
  0
VERTEX
  5
3B5
330
1F1
100
AcDbEntity
  8
0
  6
CONTINUOUS
 62
     7
100
AcDbVertex
100
AcDb2dVertex
 10
8.1934484215
 20
6.0659408764
 30
0.0
  0
VERTEX
  5
3B6
330
1F1
100
AcDbEntity
  8
0
  6
CONTINUOUS
 62
     7
100
AcDbVertex
100
AcDb2dVertex
 10
8.2185696112
 20
6.0429535822
 30
0.0
  0
VERTEX
  5
3B7
330
1F1
100
AcDbEntity
  8
0
  6
CONTINUOUS
 62
     7
100
AcDbVertex
100
AcDb2dVertex
 10
8.2435923365
 20
6.0178744187
 30
0.0
  0
VERTEX
  5
3B8
330
1F1
100
AcDbEntity
  8
0
  6
CONTINUOUS
 62
     7
100
AcDbVertex
100
AcDb2dVertex
 10
8.2669358287
 20
5.9928308483
 30
0.0
  0
VERTEX
  5
3B9
330
1F1
100
AcDbEntity
  8
0
  6
CONTINUOUS
 62
     7
100
AcDbVertex
100
AcDb2dVertex
 10
8.2893674096
 20
5.9676381519
 30
0.0
  0
VERTEX
  5
3BA
330
1F1
100
AcDbEntity
  8
0
  6
CONTINUOUS
 62
     7
100
AcDbVertex
100
AcDb2dVertex
 10
8.3103022083
 20
5.9435545744
 30
0.0
  0
VERTEX
  5
3BB
330
1F1
100
AcDbEntity
  8
0
  6
CONTINUOUS
 62
     7
100
AcDbVertex
100
AcDb2dVertex
 10
8.3297468766
 20
5.9211684042
 30
0.0
  0
VERTEX
  5
3BC
330
1F1
100
AcDbEntity
  8
0
  6
CONTINUOUS
 62
     7
100
AcDbVertex
100
AcDb2dVertex
 10
8.3441566106
 20
5.9049213448
 30
0.0
  0
VERTEX
  5
3BD
330
1F1
100
AcDbEntity
  8
0
  6
CONTINUOUS
 62
     7
100
AcDbVertex
100
AcDb2dVertex
 10
8.3573812941
 20
5.8905747914
 30
0.0
  0
VERTEX
  5
3BE
330
1F1
100
AcDbEntity
  8
0
  6
CONTINUOUS
 62
     7
100
AcDbVertex
100
AcDb2dVertex
 10
8.3573812941
 20
5.8905747914
 30
0.0
  0
SEQEND
  5
3BF
330
1F1
100
AcDbEntity
  8
0
  6
CONTINUOUS
 62
     7
  0
POLYLINE
  5
1F2
330
1F
100
AcDbEntity
  8
0
  6
CONTINUOUS
 62
     7
100
AcDb2dPolyline
 66
     1
 10
0.0
 20
0.0
 30
0.0
  0
VERTEX
  5
3C0
330
1F2
100
AcDbEntity
  8
0
  6
CONTINUOUS
 62
     7
100
AcDbVertex
100
AcDb2dVertex
 10
8.7971306212
 20
6.364763707
 30
0.0
  0
VERTEX
  5
3C1
330
1F2
100
AcDbEntity
  8
0
  6
CONTINUOUS
 62
     7
100
AcDbVertex
100
AcDb2dVertex
 10
8.785886374
 20
6.3609291484
 30
0.0
  0
VERTEX
  5
3C2
330
1F2
100
AcDbEntity
  8
0
  6
CONTINUOUS
 62
     7
100
AcDbVertex
100
AcDb2dVertex
 10
8.7749896812
 20
6.3588002215
 30
0.0
  0
VERTEX
  5
3C3
330
1F2
100
AcDbEntity
  8
0
  6
CONTINUOUS
 62
     7
100
AcDbVertex
100
AcDb2dVertex
 10
8.7645910451
 20
6.3584063304
 30
0.0
  0
VERTEX
  5
3C4
330
1F2
100
AcDbEntity
  8
0
  6
CONTINUOUS
 62
     7
100
AcDbVertex
100
AcDb2dVertex
 10
8.7548340893
 20
6.3597529156
 30
0.0
  0
VERTEX
  5
3C5
330
1F2
100
AcDbEntity
  8
0
  6
CONTINUOUS
 62
     7
100
AcDbVertex
100
AcDb2dVertex
 10
8.7458535742
 20
6.3628213783
 30
0.0
  0
VERTEX
  5
3C6
330
1F2
100
AcDbEntity
  8
0
  6
CONTINUOUS
 62
     7
100
AcDbVertex
100
AcDb2dVertex
 10
8.7377735366
 20
6.3675693377
 30
0.0
  0
VERTEX
  5
3C7
330
1F2
100
AcDbEntity
  8
0
  6
CONTINUOUS
 62
     7
100
AcDbVertex
100
AcDb2dVertex
 10
8.730705576
 20
6.3739312161
 30
0.0
  0
VERTEX
  5
3C8
330
1F2
100
AcDbEntity
  8
0
  6
CONTINUOUS
 62
     7
100
AcDbVertex
100
AcDb2dVertex
 10
8.7247473131
 20
6.3818191449
 30
0.0
  0
VERTEX
  5
3C9
330
1F2
100
AcDbEntity
  8
0
  6
CONTINUOUS
 62
     7
100
AcDbVertex
100
AcDb2dVertex
 10
8.7199810422
 20
6.3911241779
 30
0.0
  0
VERTEX
  5
3CA
330
1F2
100
AcDbEntity
  8
0
  6
CONTINUOUS
 62
     7
100
AcDbVertex
100
AcDb2dVertex
 10
8.7164725937
 20
6.4017177963
 30
0.0
  0
VERTEX
  5
3CB
330
1F2
100
AcDbEntity
  8
0
  6
CONTINUOUS
 62
     7
100
AcDbVertex
100
AcDb2dVertex
 10
8.7142704255
 20
6.4134536838
 30
0.0
  0
VERTEX
  5
3CC
330
1F2
100
AcDbEntity
  8
0
  6
CONTINUOUS
 62
     7
100
AcDbVertex
100
AcDb2dVertex
 10
8.7134049533
 20
6.4261697471
 30
0.0
  0
VERTEX
  5
3CD
330
1F2
100
AcDbEntity
  8
0
  6
CONTINUOUS
 62
     7
100
AcDbVertex
100
AcDb2dVertex
 10
8.7138881309
 20
6.4396903552
 30
0.0
  0
VERTEX
  5
3CE
330
1F2
100
AcDbEntity
  8
0
  6
CONTINUOUS
 62
     7
100
AcDbVertex
100
AcDb2dVertex
 10
8.7157132847
 20
6.4538287647
 30
0.0
  0
VERTEX
  5
3CF
330
1F2
100
AcDbEntity
  8
0
  6
CONTINUOUS
 62
     7
100
AcDbVertex
100
AcDb2dVertex
 10
8.7188552061
 20
6.4683896995
 30
0.0
  0
VERTEX
  5
3D0
330
1F2
100
AcDbEntity
  8
0
  6
CONTINUOUS
 62
     7
100
AcDbVertex
100
AcDb2dVertex
 10
8.7232704998
 20
6.4831720476
 30
0.0
  0
VERTEX
  5
3D1
330
1F2
100
AcDbEntity
  8
0
  6
CONTINUOUS
 62
     7
100
AcDbVertex
100
AcDb2dVertex
 10
8.7288981827
 20
6.4979716388
 30
0.0
  0
VERTEX
  5
3D2
330
1F2
100
AcDbEntity
  8
0
  6
CONTINUOUS
 62
     7
100
AcDbVertex
100
AcDb2dVertex
 10
8.7356605267
 20
6.5125840649
 30
0.0
  0
VERTEX
  5
3D3
330
1F2
100
AcDbEntity
  8
0
  6
CONTINUOUS
 62
     7
100
AcDbVertex
100
AcDb2dVertex
 10
8.7434641321
 20
6.5268075027
 30
0.0
  0
VERTEX
  5
3D4
330
1F2
100
AcDbEntity
  8
0
  6
CONTINUOUS
 62
     7
100
AcDbVertex
100
AcDb2dVertex
 10
8.7522012172
 20
6.5404455016
 30
0.0
  0
VERTEX
  5
3D5
330
1F2
100
AcDbEntity
  8
0
  6
CONTINUOUS
 62
     7
100
AcDbVertex
100
AcDb2dVertex
 10
8.7617511078
 20
6.5533096969
 30
0.0
  0
VERTEX
  5
3D6
330
1F2
100
AcDbEntity
  8
0
  6
CONTINUOUS
 62
     7
100
AcDbVertex
100
AcDb2dVertex
 10
8.771981903
 20
6.5652224116
 30
0.0
  0
VERTEX
  5
3D7
330
1F2
100
AcDbEntity
  8
0
  6
CONTINUOUS
 62
     7
100
AcDbVertex
100
AcDb2dVertex
 10
8.7827522977
 20
6.5760191102
 30
0.0
  0
VERTEX
  5
3D8
330
1F2
100
AcDbEntity
  8
0
  6
CONTINUOUS
 62
     7
100
AcDbVertex
100
AcDb2dVertex
 10
8.7939135339
 20
6.5855506714
 30
0.0
  0
VERTEX
  5
3D9
330
1F2
100
AcDbEntity
  8
0
  6
CONTINUOUS
 62
     7
100
AcDbVertex
100
AcDb2dVertex
 10
8.8053114553
 20
6.5936854477
 30
0.0
  0
VERTEX
  5
3DA
330
1F2
100
AcDbEntity
  8
0
  6
CONTINUOUS
 62
     7
100
AcDbVertex
100
AcDb2dVertex
 10
8.8167886368
 20
6.6003110835
 30
0.0
  0
VERTEX
  5
3DB
330
1F2
100
AcDbEntity
  8
0
  6
CONTINUOUS
 62
     7
100
AcDbVertex
100
AcDb2dVertex
 10
8.8281865582
 20
6.6053360672
 30
0.0
  0
VERTEX
  5
3DC
330
1F2
100
AcDbEntity
  8
0
  6
CONTINUOUS
 62
     7
100
AcDbVertex
100
AcDb2dVertex
 10
8.8393477944
 20
6.608690995
 30
0.0
  0
VERTEX
  5
3DD
330
1F2
100
AcDbEntity
  8
0
  6
CONTINUOUS
 62
     7
100
AcDbVertex
100
AcDb2dVertex
 10
8.8501181891
 20
6.6103295294
 30
0.0
  0
VERTEX
  5
3DE
330
1F2
100
AcDbEntity
  8
0
  6
CONTINUOUS
 62
     7
100
AcDbVertex
100
AcDb2dVertex
 10
8.8603489843
 20
6.6102290395
 30
0.0
  0
VERTEX
  5
3DF
330
1F2
100
AcDbEntity
  8
0
  6
CONTINUOUS
 62
     7
100
AcDbVertex
100
AcDb2dVertex
 10
8.8698988749
 20
6.6083909131
 30
0.0
  0
VERTEX
  5
3E0
330
1F2
100
AcDbEntity
  8
0
  6
CONTINUOUS
 62
     7
100
AcDbVertex
100
AcDb2dVertex
 10
8.8786359601
 20
6.604840538
 30
0.0
  0
VERTEX
  5
3E1
330
1F2
100
AcDbEntity
  8
0
  6
CONTINUOUS
 62
     7
100
AcDbVertex
100
AcDb2dVertex
 10
8.8864395654
 20
6.5996269512
 30
0.0
  0
VERTEX
  5
3E2
330
1F2
100
AcDbEntity
  8
0
  6
CONTINUOUS
 62
     7
100
AcDbVertex
100
AcDb2dVertex
 10
8.8932019094
 20
6.5928221613
 30
0.0
  0
VERTEX
  5
3E3
330
1F2
100
AcDbEntity
  8
0
  6
CONTINUOUS
 62
     7
100
AcDbVertex
100
AcDb2dVertex
 10
8.8988295923
 20
6.5845201545
 30
0.0
  0
VERTEX
  5
3E4
330
1F2
100
AcDbEntity
  8
0
  6
CONTINUOUS
 62
     7
100
AcDbVertex
100
AcDb2dVertex
 10
8.903244886
 20
6.5748355959
 30
0.0
  0
VERTEX
  5
3E5
330
1F2
100
AcDbEntity
  8
0
  6
CONTINUOUS
 62
     7
100
AcDbVertex
100
AcDb2dVertex
 10
8.9063868074
 20
6.5639022464
 30
0.0
  0
VERTEX
  5
3E6
330
1F2
100
AcDbEntity
  8
0
  6
CONTINUOUS
 62
     7
100
AcDbVertex
100
AcDb2dVertex
 10
8.9082119612
 20
6.5518711145
 30
0.0
  0
VERTEX
  5
3E7
330
1F2
100
AcDbEntity
  8
0
  6
CONTINUOUS
 62
     7
100
AcDbVertex
100
AcDb2dVertex
 10
8.9086951388
 20
6.5389083714
 30
0.0
  0
VERTEX
  5
3E8
330
1F2
100
AcDbEntity
  8
0
  6
CONTINUOUS
 62
     7
100
AcDbVertex
100
AcDb2dVertex
 10
8.9078296666
 20
6.5251930552
 30
0.0
  0
VERTEX
  5
3E9
330
1F2
100
AcDbEntity
  8
0
  6
CONTINUOUS
 62
     7
100
AcDbVertex
100
AcDb2dVertex
 10
8.9056274984
 20
6.5109145984
 30
0.0
  0
VERTEX
  5
3EA
330
1F2
100
AcDbEntity
  8
0
  6
CONTINUOUS
 62
     7
100
AcDbVertex
100
AcDb2dVertex
 10
8.9021190499
 20
6.4962702116
 30
0.0
  0
VERTEX
  5
3EB
330
1F2
100
AcDbEntity
  8
0
  6
CONTINUOUS
 62
     7
100
AcDbVertex
100
AcDb2dVertex
 10
8.897352779
 20
6.4814621593
 30
0.0
  0
VERTEX
  5
3EC
330
1F2
100
AcDbEntity
  8
0
  6
CONTINUOUS
 62
     7
100
AcDbVertex
100
AcDb2dVertex
 10
8.8913945162
 20
6.4666949667
 30
0.0
  0
VERTEX
  5
3ED
330
1F2
100
AcDbEntity
  8
0
  6
CONTINUOUS
 62
     7
100
AcDbVertex
100
AcDb2dVertex
 10
8.8843265555
 20
6.4521725947
 30
0.0
  0
VERTEX
  5
3EE
330
1F2
100
AcDbEntity
  8
0
  6
CONTINUOUS
 62
     7
100
AcDbVertex
100
AcDb2dVertex
 10
8.8762465179
 20
6.4380956225
 30
0.0
  0
VERTEX
  5
3EF
330
1F2
100
AcDbEntity
  8
0
  6
CONTINUOUS
 62
     7
100
AcDbVertex
100
AcDb2dVertex
 10
8.8672660028
 20
6.4246584778
 30
0.0
  0
VERTEX
  5
3F0
330
1F2
100
AcDbEntity
  8
0
  6
CONTINUOUS
 62
     7
100
AcDbVertex
100
AcDb2dVertex
 10
8.857509047
 20
6.4120467511
 30
0.0
  0
VERTEX
  5
3F1
330
1F2
100
AcDbEntity
  8
0
  6
CONTINUOUS
 62
     7
100
AcDbVertex
100
AcDb2dVertex
 10
8.8471104109
 20
6.4004346325
 30
0.0
  0
VERTEX
  5
3F2
330
1F2
100
AcDbEntity
  8
0
  6
CONTINUOUS
 62
     7
100
AcDbVertex
100
AcDb2dVertex
 10
8.8362137181
 20
6.3899825057
 30
0.0
  0
VERTEX
  5
3F3
330
1F2
100
AcDbEntity
  8
0
  6
CONTINUOUS
 62
     7
100
AcDbVertex
100
AcDb2dVertex
 10
8.8249694709
 20
6.3808347328
 30
0.0
  0
SEQEND
  5
3F4
330
1F2
100
AcDbEntity
  8
0
  6
CONTINUOUS
 62
     7
  0
LINE
  5
1F3
330
1F
100
AcDbEntity
  8
0
  6
CONTINUOUS
 62
     7
100
AcDbLine
 10
8.7971306212
 20
5.8789189942
 30
0.0
 11
8.7971306212
 21
6.364763707
 31
0.0
  0
LINE
  5
1F4
330
1F
100
AcDbEntity
  8
0
  6
CONTINUOUS
 62
     7
100
AcDbLine
 10
8.8249694709
 20
5.89499002
 30
0.0
 11
8.8249694709
 21
6.3808347328
 31
0.0
  0
POLYLINE
  5
1F5
330
1F
100
AcDbEntity
  8
0
  6
CONTINUOUS
 62
     7
100
AcDb2dPolyline
 66
     1
 10
0.0
 20
0.0
 30
0.0
  0
VERTEX
  5
3F5
330
1F5
100
AcDbEntity
  8
0
  6
CONTINUOUS
 62
     7
100
AcDbVertex
100
AcDb2dVertex
 10
8.8108273353
 20
6.405527157
 30
0.0
  0
VERTEX
  5
3F6
330
1F5
100
AcDbEntity
  8
0
  6
CONTINUOUS
 62
     7
100
AcDbVertex
100
AcDb2dVertex
 10
8.8213299984
 20
6.4144568487
 30
0.0
  0
VERTEX
  5
3F7
330
1F5
100
AcDbEntity
  8
0
  6
CONTINUOUS
 62
     7
100
AcDbVertex
100
AcDb2dVertex
 10
8.8314248627
 20
6.4246911133
 30
0.0
  0
VERTEX
  5
3F8
330
1F5
100
AcDbEntity
  8
0
  6
CONTINUOUS
 62
     7
100
AcDbVertex
100
AcDb2dVertex
 10
8.8409433645
 20
6.4360590597
 30
0.0
  0
VERTEX
  5
3F9
330
1F5
100
AcDbEntity
  8
0
  6
CONTINUOUS
 62
     7
100
AcDbVertex
100
AcDb2dVertex
 10
8.8497265643
 20
6.4483708663
 30
0.0
  0
VERTEX
  5
3FA
330
1F5
100
AcDbEntity
  8
0
  6
CONTINUOUS
 62
     7
100
AcDbVertex
100
AcDb2dVertex
 10
8.8576278008
 20
6.4614209513
 30
0.0
  0
VERTEX
  5
3FB
330
1F5
100
AcDbEntity
  8
0
  6
CONTINUOUS
 62
     7
100
AcDbVertex
100
AcDb2dVertex
 10
8.8645151394
 20
6.4749914049
 30
0.0
  0
VERTEX
  5
3FC
330
1F5
100
AcDbEntity
  8
0
  6
CONTINUOUS
 62
     7
100
AcDbVertex
100
AcDb2dVertex
 10
8.8702735757
 20
6.4888556284
 30
0.0
  0
VERTEX
  5
3FD
330
1F5
100
AcDbEntity
  8
0
  6
CONTINUOUS
 62
     7
100
AcDbVertex
100
AcDb2dVertex
 10
8.8748069555
 20
6.5027821175
 30
0.0
  0
VERTEX
  5
3FE
330
1F5
100
AcDbEntity
  8
0
  6
CONTINUOUS
 62
     7
100
AcDbVertex
100
AcDb2dVertex
 10
8.8780395808
 20
6.5165383284
 30
0.0
  0
VERTEX
  5
3FF
330
1F5
100
AcDbEntity
  8
0
  6
CONTINUOUS
 62
     7
100
AcDbVertex
100
AcDb2dVertex
 10
8.8799174732
 20
6.5298945606
 30
0.0
  0
VERTEX
  5
400
330
1F5
100
AcDbEntity
  8
0
  6
CONTINUOUS
 62
     7
100
AcDbVertex
100
AcDb2dVertex
 10
8.8804092759
 20
6.5426277923
 30
0.0
  0
VERTEX
  5
401
330
1F5
100
AcDbEntity
  8
0
  6
CONTINUOUS
 62
     7
100
AcDbVertex
100
AcDb2dVertex
 10
8.8795067767
 20
6.5545254047
 30
0.0
  0
VERTEX
  5
402
330
1F5
100
AcDbEntity
  8
0
  6
CONTINUOUS
 62
     7
100
AcDbVertex
100
AcDb2dVertex
 10
8.8772250455
 20
6.5653887318
 30
0.0
  0
VERTEX
  5
403
330
1F5
100
AcDbEntity
  8
0
  6
CONTINUOUS
 62
     7
100
AcDbVertex
100
AcDb2dVertex
 10
8.8736021825
 20
6.5750363785
 30
0.0
  0
VERTEX
  5
404
330
1F5
100
AcDbEntity
  8
0
  6
CONTINUOUS
 62
     7
100
AcDbVertex
100
AcDb2dVertex
 10
8.8686986822
 20
6.5833072487
 30
0.0
  0
VERTEX
  5
405
330
1F5
100
AcDbEntity
  8
0
  6
CONTINUOUS
 62
     7
100
AcDbVertex
100
AcDb2dVertex
 10
8.862596423
 20
6.5900632359
 30
0.0
  0
VERTEX
  5
406
330
1F5
100
AcDbEntity
  8
0
  6
CONTINUOUS
 62
     7
100
AcDbVertex
100
AcDb2dVertex
 10
8.8553973001
 20
6.5951915289
 30
0.0
  0
VERTEX
  5
407
330
1F5
100
AcDbEntity
  8
0
  6
CONTINUOUS
 62
     7
100
AcDbVertex
100
AcDb2dVertex
 10
8.8472215241
 20
6.5986064958
 30
0.0
  0
VERTEX
  5
408
330
1F5
100
AcDbEntity
  8
0
  6
CONTINUOUS
 62
     7
100
AcDbVertex
100
AcDb2dVertex
 10
8.8382056137
 20
6.6002511134
 30
0.0
  0
VERTEX
  5
409
330
1F5
100
AcDbEntity
  8
0
  6
CONTINUOUS
 62
     7
100
AcDbVertex
100
AcDb2dVertex
 10
8.8285001163
 20
6.6000979202
 30
0.0
  0
VERTEX
  5
40A
330
1F5
100
AcDbEntity
  8
0
  6
CONTINUOUS
 62
     7
100
AcDbVertex
100
AcDb2dVertex
 10
8.8182670937
 20
6.5981494741
 30
0.0
  0
VERTEX
  5
40B
330
1F5
100
AcDbEntity
  8
0
  6
CONTINUOUS
 62
     7
100
AcDbVertex
100
AcDb2dVertex
 10
8.8076774164
 20
6.5944383102
 30
0.0
  0
VERTEX
  5
40C
330
1F5
100
AcDbEntity
  8
0
  6
CONTINUOUS
 62
     7
100
AcDbVertex
100
AcDb2dVertex
 10
8.8036875235
 20
6.5926218987
 30
0.0
  0
SEQEND
  5
40D
330
1F5
100
AcDbEntity
  8
0
  6
CONTINUOUS
 62
     7
  0
ARC
  5
1F6
330
1F
100
AcDbEntity
  8
0
  6
CONTINUOUS
 62
     7
100
AcDbCircle
 10
8.7623396674
 20
6.4336359456
 30
0.0
 40
0.0487670964649829
100
AcDbArc
 50
176.4132801039
 51
295.0505064477
  0
SPLINE
  5
1F7
330
1F
100
AcDbEntity
  8
0
  6
CONTINUOUS
 62
     7
100
AcDbSpline
210
0.0
220
0.0
230
1.0
 70
     8
 71
     3
 72
     8
 73
     4
 74
     0
 42
0.00000001
 43
0.00000001
 40
0.0
 40
0.0
 40
0.0
 40
0.0
 40
1.0
 40
1.0
 40
1.0
 40
1.0
 10
8.797130621227838
 20
6.364763706990527
 30
0.0
 10
8.792412365164273
 20
6.37299216728269
 30
0.0
 10
8.787697518518378
 20
6.381222710953472
 30
0.0
 10
8.782988485604108
 20
6.389456131206035
 30
0.0
  0
SPLINE
  5
1F8
330
1F
100
AcDbEntity
  8
0
  6
CONTINUOUS
 62
     7
100
AcDbSpline
210
0.0
220
0.0
230
1.0
 70
     8
 71
     3
 72
     8
 73
     4
 74
     0
 42
0.00000001
 43
0.00000001
 40
0.0
 40
0.0
 40
0.0
 40
0.0
 40
1.0
 40
1.0
 40
1.0
 40
1.0
 10
8.824969470880852
 20
6.380834732813808
 30
0.0
 10
8.820251214817286
 20
6.389063193105971
 30
0.0
 10
8.815536368171392
 20
6.397293736776754
 30
0.0
 10
8.810827335257121
 20
6.405527157029316
 30
0.0
  0
LINE
  5
1F9
330
1F
100
AcDbEntity
  8
0
  6
CONTINUOUS
 62
     7
100
AcDbLine
 10
8.714561746
 20
6.4289580472
 30
0.0
 11
8.7829884856
 21
6.3894561312
 31
0.0
  0
LINE
  5
1FA
330
1F
100
AcDbEntity
  8
0
  6
CONTINUOUS
 62
     7
100
AcDbLine
 10
8.71684863
 20
6.4597799088
 30
0.0
 11
8.8108273353
 21
6.405527157
 31
0.0
  0
ARC
  5
1FB
330
1F
100
AcDbEntity
  8
0
  6
CONTINUOUS
 62
     7
100
AcDbCircle
 10
8.1405290343
 20
6.8715040288
 30
0.0
 40
1.123199537152736
100
AcDbArc
 50
122.5658151007
 51
177.439561432
  0
POLYLINE
  5
1FC
330
1F
100
AcDbEntity
  8
0
  6
CONTINUOUS
 62
     7
100
AcDb2dPolyline
 66
     1
 10
0.0
 20
0.0
 30
0.0
  0
VERTEX
  5
40E
330
1FC
100
AcDbEntity
  8
0
  6
CONTINUOUS
 62
     7
100
AcDbVertex
100
AcDb2dVertex
 10
8.1377258105
 20
6.1074499431
 30
0.0
  0
VERTEX
  5
40F
330
1FC
100
AcDbEntity
  8
0
  6
CONTINUOUS
 62
     7
100
AcDbVertex
100
AcDb2dVertex
 10
8.1360888179
 20
6.1022809254
 30
0.0
  0
VERTEX
  5
410
330
1FC
100
AcDbEntity
  8
0
  6
CONTINUOUS
 62
     7
100
AcDbVertex
100
AcDb2dVertex
 10
8.1333388256
 20
6.0896983805
 30
0.0
  0
VERTEX
  5
411
330
1FC
100
AcDbEntity
  8
0
  6
CONTINUOUS
 62
     7
100
AcDbVertex
100
AcDb2dVertex
 10
8.1319554331
 20
6.0760635762
 30
0.0
  0
VERTEX
  5
412
330
1FC
100
AcDbEntity
  8
0
  6
CONTINUOUS
 62
     7
100
AcDbVertex
100
AcDb2dVertex
 10
8.1319554331
 20
6.0615420204
 30
0.0
  0
VERTEX
  5
413
330
1FC
100
AcDbEntity
  8
0
  6
CONTINUOUS
 62
     7
100
AcDbVertex
100
AcDb2dVertex
 10
8.1333388256
 20
6.0463099851
 30
0.0
  0
VERTEX
  5
414
330
1FC
100
AcDbEntity
  8
0
  6
CONTINUOUS
 62
     7
100
AcDbVertex
100
AcDb2dVertex
 10
8.1360888179
 20
6.0305523667
 30
0.0
  0
VERTEX
  5
415
330
1FC
100
AcDbEntity
  8
0
  6
CONTINUOUS
 62
     7
100
AcDbVertex
100
AcDb2dVertex
 10
8.140172029
 20
6.0144604413
 30
0.0
  0
VERTEX
  5
416
330
1FC
100
AcDbEntity
  8
0
  6
CONTINUOUS
 62
     7
100
AcDbVertex
100
AcDb2dVertex
 10
8.1455388942
 20
5.998229543
 30
0.0
  0
VERTEX
  5
417
330
1FC
100
AcDbEntity
  8
0
  6
CONTINUOUS
 62
     7
100
AcDbVertex
100
AcDb2dVertex
 10
8.152124267
 20
5.9820566929
 30
0.0
  0
VERTEX
  5
418
330
1FC
100
AcDbEntity
  8
0
  6
CONTINUOUS
 62
     7
100
AcDbVertex
100
AcDb2dVertex
 10
8.1598482099
 20
5.9661382077
 30
0.0
  0
VERTEX
  5
419
330
1FC
100
AcDbEntity
  8
0
  6
CONTINUOUS
 62
     7
100
AcDbVertex
100
AcDb2dVertex
 10
8.1686169647
 20
5.950667316
 30
0.0
  0
VERTEX
  5
41A
330
1FC
100
AcDbEntity
  8
0
  6
CONTINUOUS
 62
     7
100
AcDbVertex
100
AcDb2dVertex
 10
8.1783240906
 20
5.9358318136
 30
0.0
  0
VERTEX
  5
41B
330
1FC
100
AcDbEntity
  8
0
  6
CONTINUOUS
 62
     7
100
AcDbVertex
100
AcDb2dVertex
 10
8.1888517563
 20
5.9218117834
 30
0.0
  0
VERTEX
  5
41C
330
1FC
100
AcDbEntity
  8
0
  6
CONTINUOUS
 62
     7
100
AcDbVertex
100
AcDb2dVertex
 10
8.2000721701
 20
5.9087774095
 30
0.0
  0
VERTEX
  5
41D
330
1FC
100
AcDbEntity
  8
0
  6
CONTINUOUS
 62
     7
100
AcDbVertex
100
AcDb2dVertex
 10
8.2118491314
 20
5.8968869116
 30
0.0
  0
VERTEX
  5
41E
330
1FC
100
AcDbEntity
  8
0
  6
CONTINUOUS
 62
     7
100
AcDbVertex
100
AcDb2dVertex
 10
8.2240396839
 20
5.8862846243
 30
0.0
  0
VERTEX
  5
41F
330
1FC
100
AcDbEntity
  8
0
  6
CONTINUOUS
 62
     7
100
AcDbVertex
100
AcDb2dVertex
 10
8.2364958508
 20
5.8770992448
 30
0.0
  0
VERTEX
  5
420
330
1FC
100
AcDbEntity
  8
0
  6
CONTINUOUS
 62
     7
100
AcDbVertex
100
AcDb2dVertex
 10
8.249066431
 20
5.8694422714
 30
0.0
  0
VERTEX
  5
421
330
1FC
100
AcDbEntity
  8
0
  6
CONTINUOUS
 62
     7
100
AcDbVertex
100
AcDb2dVertex
 10
8.2615988348
 20
5.8634066493
 30
0.0
  0
VERTEX
  5
422
330
1FC
100
AcDbEntity
  8
0
  6
CONTINUOUS
 62
     7
100
AcDbVertex
100
AcDb2dVertex
 10
8.2739409357
 20
5.8590656427
 30
0.0
  0
VERTEX
  5
423
330
1FC
100
AcDbEntity
  8
0
  6
CONTINUOUS
 62
     7
100
AcDbVertex
100
AcDb2dVertex
 10
8.2859429174
 20
5.8564719456
 30
0.0
  0
VERTEX
  5
424
330
1FC
100
AcDbEntity
  8
0
  6
CONTINUOUS
 62
     7
100
AcDbVertex
100
AcDb2dVertex
 10
8.2974590921
 20
5.855657042
 30
0.0
  0
VERTEX
  5
425
330
1FC
100
AcDbEntity
  8
0
  6
CONTINUOUS
 62
     7
100
AcDbVertex
100
AcDb2dVertex
 10
8.308349669
 20
5.8566308237
 30
0.0
  0
VERTEX
  5
426
330
1FC
100
AcDbEntity
  8
0
  6
CONTINUOUS
 62
     7
100
AcDbVertex
100
AcDb2dVertex
 10
8.3184824513
 20
5.8593814703
 30
0.0
  0
VERTEX
  5
427
330
1FC
100
AcDbEntity
  8
0
  6
CONTINUOUS
 62
     7
100
AcDbVertex
100
AcDb2dVertex
 10
8.3277344406
 20
5.8638755927
 30
0.0
  0
VERTEX
  5
428
330
1FC
100
AcDbEntity
  8
0
  6
CONTINUOUS
 62
     7
100
AcDbVertex
100
AcDb2dVertex
 10
8.3359933305
 20
5.8700586383
 30
0.0
  0
VERTEX
  5
429
330
1FC
100
AcDbEntity
  8
0
  6
CONTINUOUS
 62
     7
100
AcDbVertex
100
AcDb2dVertex
 10
8.3431588691
 20
5.8778555533
 30
0.0
  0
VERTEX
  5
42A
330
1FC
100
AcDbEntity
  8
0
  6
CONTINUOUS
 62
     7
100
AcDbVertex
100
AcDb2dVertex
 10
8.3491440765
 20
5.8871716937
 30
0.0
  0
VERTEX
  5
42B
330
1FC
100
AcDbEntity
  8
0
  6
CONTINUOUS
 62
     7
100
AcDbVertex
100
AcDb2dVertex
 10
8.3529536706
 20
5.8954405709
 30
0.0
  0
SEQEND
  5
42C
330
1FC
100
AcDbEntity
  8
0
  6
CONTINUOUS
 62
     7
  0
ARC
  5
1FD
330
1F
100
AcDbEntity
  8
0
  6
CONTINUOUS
 62
     7
100
AcDbCircle
 10
8.3060046477
 20
5.9248324137
 30
0.0
 40
0.0774795128620479
100
AcDbArc
 50
230.8011947887
 51
323.7905423581
  0
POLYLINE
  5
1FE
330
1F
100
AcDbEntity
  8
0
  6
CONTINUOUS
 62
     7
100
AcDb2dPolyline
 66
     1
 10
0.0
 20
0.0
 30
0.0
  0
VERTEX
  5
42D
330
1FE
100
AcDbEntity
  8
0
  6
CONTINUOUS
 62
     7
100
AcDbVertex
100
AcDb2dVertex
 10
8.1317821145
 20
6.0817596737
 30
0.0
  0
VERTEX
  5
42E
330
1FE
100
AcDbEntity
  8
0
  6
CONTINUOUS
 62
     7
100
AcDbVertex
100
AcDb2dVertex
 10
8.1324683831
 20
6.0964848734
 30
0.0
  0
VERTEX
  5
42F
330
1FE
100
AcDbEntity
  8
0
  6
CONTINUOUS
 62
     7
100
AcDbVertex
100
AcDb2dVertex
 10
8.1343553543
 20
6.109444293
 30
0.0
  0
SEQEND
  5
430
330
1FE
100
AcDbEntity
  8
0
  6
CONTINUOUS
 62
     7
  0
LINE
  5
1FF
330
1F
100
AcDbEntity
  8
0
  6
CONTINUOUS
 62
     7
100
AcDbLine
 10
8.2459213981
 20
5.9287706932
 30
0.0
 11
8.3015990974
 21
5.9337491185
 31
0.0
  0
LINE
  5
200
330
1F
100
AcDbEntity
  8
0
  6
CONTINUOUS
 62
     7
100
AcDbLine
 10
8.3015990974
 20
5.9337491185
 30
0.0
 11
8.3015990974
 21
5.9535667101
 31
0.0
  0
LINE
  5
201
330
1F
100
AcDbEntity
  8
0
  6
CONTINUOUS
 62
     7
100
AcDbLine
 10
8.1902436988
 20
6.0685490076
 30
0.0
 11
8.1902436988
 21
5.9980332218
 31
0.0
  0
LINE
  5
202
330
1F
100
AcDbEntity
  8
0
  6
CONTINUOUS
 62
     7
100
AcDbLine
 10
8.1902436988
 20
5.9980332218
 30
0.0
 11
8.2459213981
 21
5.9287706932
 31
0.0
  0
LINE
  5
203
330
1F
100
AcDbEntity
  8
0
  6
CONTINUOUS
 62
     7
100
AcDbLine
 10
8.2973471733
 20
5.9584581613
 30
0.0
 11
8.2459213981
 21
5.9287706932
 31
0.0
  0
LINE
  5
204
330
1F
100
AcDbEntity
  8
0
  6
CONTINUOUS
 62
     7
100
AcDbLine
 10
8.2366559538
 20
6.0248264463
 30
0.0
 11
8.1902436988
 21
5.9980332218
 31
0.0
  0
ARC
  5
205
330
1F
100
AcDbEntity
  8
0
  6
CONTINUOUS
 62
     7
100
AcDbCircle
 10
8.0162517018
 20
7.696578254
 30
0.0
 40
0.0985273806766133
100
AcDbArc
 50
34.8966199276
 51
112.7827587956
  0
ARC
  5
206
330
1F
100
AcDbEntity
  8
0
  6
CONTINUOUS
 62
     7
100
AcDbCircle
 10
8.0548317646
 20
7.7158995732
 30
0.0
 40
0.0639499112426224
100
AcDbArc
 50
32.0299237405
 51
61.6649023088
  0
ENDSEC
  0
SECTION
  2
OBJECTS
  0
DICTIONARY
  5
C
330
0
100
AcDbDictionary
  3
ACAD_GROUP
350
D
  3
ACAD_LAYOUT
350
1A
  3
ACAD_MLEADERSTYLE
350
209
  3
ACAD_MLINESTYLE
350
17
  3
ACAD_PLOTSETTINGS
350
19
  3
ACAD_SCALELIST
350
6F
  3
ACAD_VISUALSTYLE
350
2A
  3
ACDBVARIABLEDICTIONARY
350
207
1001
ACAD
1000
TREAT_AS_HARD
1070
     0
  0
DICTIONARY
  5
D
102
{ACAD_REACTORS
330
C
102
}
330
C
100
AcDbDictionary
1001
ACAD
1000
TREAT_AS_HARD
1070
     0
  0
DICTIONARY
  5
1A
102
{ACAD_REACTORS
330
C
102
}
330
C
100
AcDbDictionary
1001
ACAD
1000
TREAT_AS_HARD
1070
     0
  0
DICTIONARY
  5
209
102
{ACAD_REACTORS
330
C
102
}
330
C
100
AcDbDictionary
1001
ACAD
1000
TREAT_AS_HARD
1070
     0
  0
DICTIONARY
  5
17
102
{ACAD_REACTORS
330
C
102
}
330
C
100
AcDbDictionary
  3
STANDARD
350
18
1001
ACAD
1000
TREAT_AS_HARD
1070
     0
  0
DICTIONARY
  5
19
102
{ACAD_REACTORS
330
C
102
}
330
C
100
AcDbDictionary
1001
ACAD
1000
TREAT_AS_HARD
1070
     0
  0
DICTIONARY
  5
6F
102
{ACAD_REACTORS
330
C
102
}
330
C
100
AcDbDictionary
  3
A0
350
70
  3
A1
350
71
  3
A2
350
72
  3
A3
350
73
  3
A4
350
74
  3
A5
350
75
  3
A6
350
76
  3
A7
350
77
  3
A8
350
78
  3
A9
350
79
  3
B0
350
7A
  3
B1
350
7B
  3
B2
350
7C
  3
B3
350
7D
  3
B4
350
7E
  3
B5
350
7F
  3
B6
350
80
  3
B7
350
81
  3
B8
350
82
  3
B9
350
83
  3
C0
350
84
  3
C1
350
85
  3
C2
350
86
  3
C3
350
87
  3
C4
350
88
  3
C5
350
89
  3
C6
350
8A
  3
C7
350
8B
  3
C8
350
8C
  3
C9
350
8D
  3
D0
350
8E
  3
D1
350
8F
  3
D2
350
90
1001
ACAD
1000
TREAT_AS_HARD
1070
     0
  0
DICTIONARY
  5
2A
102
{ACAD_REACTORS
330
C
102
}
330
C
100
AcDbDictionary
  3
2DWIREFRAME
350
2F
  3
3D_HIDDEN
350
31
  3
3DWIREFRAME
350
30
  3
BASIC
350
32
  3
BRIGHTEN
350
36
  3
COLORCHANGE
350
3A
  3
CONCEPTUAL
350
34
  3
DIM
350
35
  3
FACEPATTERN
350
39
  3
FLAT
350
2B
  3
FLATWITHEDGES
350
2C
  3
GOURAUD
350
2D
  3
GOURAUDWITHEDGES
350
2E
  3
LINEPATTERN
350
38
  3
REALISTIC
350
33
  3
THICKEN
350
37
1001
ACAD
1000
TREAT_AS_HARD
1070
     0
  0
DICTIONARY
  5
207
102
{ACAD_REACTORS
330
C
102
}
330
C
100
AcDbDictionary
  3
CANNOSCALE
350
20A
  3
DIMASSOC
350
20B
  3
HIDETEXT
350
20C
1001
ACAD
1000
TREAT_AS_HARD
1070
     0
  0
MLINESTYLE
  5
18
102
{ACAD_REACTORS
330
17
102
}
330
17
100
AcDbMlineStyle
  2
Standard
 70
     0
  3

 62
   256
 51
90.0
 52
90.0
 71
     2
 49
0.5
 62
   256
  6
BYLAYER
 49
-0.5
 62
   256
  6
BYLAYER
  0
ACAD_PROXY_OBJECT
  5
70
102
{ACAD_REACTORS
330
6F
102
}
330
6F
100
AcDbZombieObject
 90
      499
 91
      502
 93
       41
310
903313A31580
  0
ACAD_PROXY_OBJECT
  5
71
102
{ACAD_REACTORS
330
6F
102
}
330
6F
100
AcDbZombieObject
 90
      499
 91
      502
 93
      105
310
903313A324000000000000004000
  0
ACAD_PROXY_OBJECT
  5
72
102
{ACAD_REACTORS
330
6F
102
}
330
6F
100
AcDbZombieObject
 90
      499
 91
      502
 93
      105
310
903313A344000000000000104000
  0
ACAD_PROXY_OBJECT
  5
73
102
{ACAD_REACTORS
330
6F
102
}
330
6F
100
AcDbZombieObject
 90
      499
 91
      502
 93
      105
310
903313A354000000000000144000
  0
ACAD_PROXY_OBJECT
  5
74
102
{ACAD_REACTORS
330
6F
102
}
330
6F
100
AcDbZombieObject
 90
      499
 91
      502
 93
      105
310
903313A384000000000000204000
  0
ACAD_PROXY_OBJECT
  5
75
102
{ACAD_REACTORS
330
6F
102
}
330
6F
100
AcDbZombieObject
 90
      499
 91
      502
 93
      113
310
904313A31304000000000000244000
  0
ACAD_PROXY_OBJECT
  5
76
102
{ACAD_REACTORS
330
6F
102
}
330
6F
100
AcDbZombieObject
 90
      499
 91
      502
 93
      113
310
904313A31364000000000000304000
  0
ACAD_PROXY_OBJECT
  5
77
102
{ACAD_REACTORS
330
6F
102
}
330
6F
100
AcDbZombieObject
 90
      499
 91
      502
 93
      113
310
904313A32304000000000000344000
  0
ACAD_PROXY_OBJECT
  5
78
102
{ACAD_REACTORS
330
6F
102
}
330
6F
100
AcDbZombieObject
 90
      499
 91
      502
 93
      113
310
904313A333040000000000003E4000
  0
ACAD_PROXY_OBJECT
  5
79
102
{ACAD_REACTORS
330
6F
102
}
330
6F
100
AcDbZombieObject
 90
      499
 91
      502
 93
      113
310
904313A34304000000000000444000
  0
ACAD_PROXY_OBJECT
  5
7A
102
{ACAD_REACTORS
330
6F
102
}
330
6F
100
AcDbZombieObject
 90
      499
 91
      502
 93
      113
310
904313A35304000000000000494000
  0
ACAD_PROXY_OBJECT
  5
7B
102
{ACAD_REACTORS
330
6F
102
}
330
6F
100
AcDbZombieObject
 90
      499
 91
      502
 93
      121
310
905313A3130304000000000000594000
  0
ACAD_PROXY_OBJECT
  5
7C
102
{ACAD_REACTORS
330
6F
102
}
330
6F
100
AcDbZombieObject
 90
      499
 91
      502
 93
      105
310
903323A310000000000000010100
  0
ACAD_PROXY_OBJECT
  5
7D
102
{ACAD_REACTORS
330
6F
102
}
330
6F
100
AcDbZombieObject
 90
      499
 91
      502
 93
      105
310
903343A310000000000000410100
  0
ACAD_PROXY_OBJECT
  5
7E
102
{ACAD_REACTORS
330
6F
102
}
330
6F
100
AcDbZombieObject
 90
      499
 91
      502
 93
      105
310
903383A310000000000000810100
  0
ACAD_PROXY_OBJECT
  5
7F
102
{ACAD_REACTORS
330
6F
102
}
330
6F
100
AcDbZombieObject
 90
      499
 91
      502
 93
      113
310
90431303A310000000000000910100
  0
ACAD_PROXY_OBJECT
  5
80
102
{ACAD_REACTORS
330
6F
102
}
330
6F
100
AcDbZombieObject
 90
      499
 91
      502
 93
      121
310
9053130303A310000000000001650100
  0
ACAD_PROXY_OBJECT
  5
81
102
{ACAD_REACTORS
330
6F
102
}
330
6F
100
AcDbZombieObject
 90
      499
 91
      502
 93
      257
310
90E312F31323822203D2031272D3022000000000000200FC000000000000284000
  0
ACAD_PROXY_OBJECT
  5
82
102
{ACAD_REACTORS
330
6F
102
}
330
6F
100
AcDbZombieObject
 90
      499
 91
      502
 93
      249
310
90D312F363422203D2031272D3022000000000000240FC000000000000284000
  0
ACAD_PROXY_OBJECT
  5
83
102
{ACAD_REACTORS
330
6F
102
}
330
6F
100
AcDbZombieObject
 90
      499
 91
      502
 93
      249
310
90D312F333222203D2031272D3022000000000000280FC000000000000284000
  0
ACAD_PROXY_OBJECT
  5
84
102
{ACAD_REACTORS
330
6F
102
}
330
6F
100
AcDbZombieObject
 90
      499
 91
      502
 93
      249
310
90D312F313622203D2031272D30220000000000002C0FC000000000000284000
  0
ACAD_PROXY_OBJECT
  5
85
102
{ACAD_REACTORS
330
6F
102
}
330
6F
100
AcDbZombieObject
 90
      499
 91
      502
 93
      249
310
90D332F333222203D2031272D30220000000000002E0FC000000000000284000
  0
ACAD_PROXY_OBJECT
  5
86
102
{ACAD_REACTORS
330
6F
102
}
330
6F
100
AcDbZombieObject
 90
      499
 91
      502
 93
      241
310
90C312F3822203D2031272D3022000000000000300FC000000000000284000
  0
ACAD_PROXY_OBJECT
  5
87
102
{ACAD_REACTORS
330
6F
102
}
330
6F
100
AcDbZombieObject
 90
      499
 91
      502
 93
      249
310
90D332F313622203D2031272D3022000000000000320FC000000000000284000
  0
ACAD_PROXY_OBJECT
  5
88
102
{ACAD_REACTORS
330
6F
102
}
330
6F
100
AcDbZombieObject
 90
      499
 91
      502
 93
      241
310
90C312F3422203D2031272D3022000000000000340FC000000000000284000
  0
ACAD_PROXY_OBJECT
  5
89
102
{ACAD_REACTORS
330
6F
102
}
330
6F
100
AcDbZombieObject
 90
      499
 91
      502
 93
      241
310
90C332F3822203D2031272D3022000000000000360FC000000000000284000
  0
ACAD_PROXY_OBJECT
  5
8A
102
{ACAD_REACTORS
330
6F
102
}
330
6F
100
AcDbZombieObject
 90
      499
 91
      502
 93
      241
310
90C312F3222203D2031272D3022000000000000380FC000000000000284000
  0
ACAD_PROXY_OBJECT
  5
8B
102
{ACAD_REACTORS
330
6F
102
}
330
6F
100
AcDbZombieObject
 90
      499
 91
      502
 93
      241
310
90C332F3422203D2031272D30220000000000003A0FC000000000000284000
  0
ACAD_PROXY_OBJECT
  5
8C
102
{ACAD_REACTORS
330
6F
102
}
330
6F
100
AcDbZombieObject
 90
      499
 91
      502
 93
      161
310
90A3122203D2031272D30224000000000000284000
  0
ACAD_PROXY_OBJECT
  5
8D
102
{ACAD_REACTORS
330
6F
102
}
330
6F
100
AcDbZombieObject
 90
      499
 91
      502
 93
      257
310
90E312D312F3222203D2031272D30220000000000003E0FC000000000000284000
  0
ACAD_PROXY_OBJECT
  5
8E
102
{ACAD_REACTORS
330
6F
102
}
330
6F
100
AcDbZombieObject
 90
      499
 91
      502
 93
      225
310
90A3322203D2031272D302200000000000002100000000000000284000
  0
ACAD_PROXY_OBJECT
  5
8F
102
{ACAD_REACTORS
330
6F
102
}
330
6F
100
AcDbZombieObject
 90
      499
 91
      502
 93
      225
310
90A3622203D2031272D302200000000000006100000000000000284000
  0
ACAD_PROXY_OBJECT
  5
90
102
{ACAD_REACTORS
330
6F
102
}
330
6F
100
AcDbZombieObject
 90
      499
 91
      502
 93
      249
310
90D31272D3022203D2031272D30220000000000000A100000000000000284000
  0
ACAD_PROXY_OBJECT
  5
2F
102
{ACAD_REACTORS
330
2A
102
}
330
2A
100
AcDbZombieObject
 90
      499
 91
      501
 93
      436
310
42CC9915DA5C99599C985B595049028333333333333E3BF0000000000000FB0107901411070040501600405405064090741402480A0340
1001
ACAD
1000
AcDbSavedByObjectVersion
1070
     0
  0
ACAD_PROXY_OBJECT
  5
31
102
{ACAD_REACTORS
330
2A
102
}
330
2A
100
AcDbZombieObject
 90
      499
 91
      501
 93
      500
310
424CD108121A5919195B90640502408333333333333E3BF0000000000000FB01079024090700405020000000000001110200405405064090740C02480A0340
1001
ACAD
1000
AcDbSavedByObjectVersion
1070
     0
  0
ACAD_PROXY_OBJECT
  5
30
102
{ACAD_REACTORS
330
2A
102
}
330
2A
100
AcDbZombieObject
 90
      499
 91
      501
 93
      436
310
42CCD915DA5C99599C985B595059028333333333333E3BF0000000000000FB0107901411070040501600405405064090741402480A0340
1001
ACAD
1000
AcDbSavedByObjectVersion
1070
     0
  0
ACAD_PROXY_OBJECT
  5
32
102
{ACAD_REACTORS
330
2A
102
}
330
2A
100
AcDbZombieObject
 90
      499
 91
      501
 93
      388
310
4150985CDA58D07406404333333333333E3BF0000000000000FB0107A41107004050150841D405064090741402480A0350
1001
ACAD
1000
AcDbSavedByObjectVersion
1070
     0
  0
ACAD_PROXY_OBJECT
  5
36
102
{ACAD_REACTORS
330
2A
102
}
330
2A
100
AcDbZombieObject
 90
      499
 91
      501
 93
      428
310
42109C9A59DA1D195B90C409028333333333333E3BF0000000000000FB010790141107004050150841D405064090741402480A029950
1001
ACAD
1000
AcDbSavedByObjectVersion
1070
     0
  0
ACAD_PROXY_OBJECT
  5
3A
102
{ACAD_REACTORS
330
2A
102
}
330
2A
100
AcDbZombieObject
 90
      499
 91
      501
 93
      452
310
42D0DBDB1BDC90DA185B99D95104090240C333333333333E3BF0000000000000FB0108901411070040501508421405064090741402480A0350
1001
ACAD
1000
AcDbSavedByObjectVersion
1070
     0
  0
ACAD_PROXY_OBJECT
  5
34
102
{ACAD_REACTORS
330
2A
102
}
330
2A
100
AcDbZombieObject
 90
      499
 91
      501
 93
      500
310
4290DBDB98D95C1D1D585B10940D028333333333333E3BF0000000000000FB0107902409070040501000000000000111010841D405064090740C02480A0340
1001
ACAD
1000
AcDbSavedByObjectVersion
1070
     0
  0
ACAD_PROXY_OBJECT
  5
35
102
{ACAD_REACTORS
330
2A
102
}
330
2A
100
AcDbZombieObject
 90
      499
 91
      501
 93
      412
310
40D11A5B50B409028333333333333E3BF0000000000000FB010790141107004050150841D405064090741402480A02677FFFFFD0
1001
ACAD
1000
AcDbSavedByObjectVersion
1070
     0
  0
ACAD_PROXY_OBJECT
  5
39
102
{ACAD_REACTORS
330
2A
102
}
330
2A
100
AcDbZombieObject
 90
      499
 91
      501
 93
      444
310
42D19858D95C185D1D195C9B90F409028333333333333E3BF0000000000000FB010790141107004050150841D405064090741402480A0350
1001
ACAD
1000
AcDbSavedByObjectVersion
1070
     0
  0
ACAD_PROXY_OBJECT
  5
2B
102
{ACAD_REACTORS
330
2A
102
}
330
2A
100
AcDbZombieObject
 90
      499
 91
      501
 93
      388
310
41119B185D240901404333333333333E3BF0000000000000F9010740A41107004050150841D405064090741402480A1B50
1001
ACAD
1000
AcDbSavedByObjectVersion
1070
     0
  0
ACAD_PROXY_OBJECT
  5
2C
102
{ACAD_REACTORS
330
2A
102
}
330
2A
100
AcDbZombieObject
 90
      499
 91
      501
 93
      476
310
43519B185D15DA5D1A115919D95CD0140901404333333333333E3BF0000000000000F9010740901411070040501600405405064090741402480A1B50
1001
ACAD
1000
AcDbSavedByObjectVersion
1070
     0
  0
ACAD_PROXY_OBJECT
  5
2D
102
{ACAD_REACTORS
330
2A
102
}
330
2A
100
AcDbZombieObject
 90
      499
 91
      501
 93
      412
310
41D1DBDD5C985D5910240902404333333333333E3BF0000000000000F9010740A411070040501641D405064090741402480A1B50
1001
ACAD
1000
AcDbSavedByObjectVersion
1070
     0
  0
ACAD_PROXY_OBJECT
  5
2E
102
{ACAD_REACTORS
330
2A
102
}
330
2A
100
AcDbZombieObject
 90
      499
 91
      501
 93
      500
310
4411DBDD5C985D5915DA5D1A115919D95CD0340902404333333333333E3BF0000000000000F9010740901411070040501600405405064090741402480A1B50
1001
ACAD
1000
AcDbSavedByObjectVersion
1070
     0
  0
ACAD_PROXY_OBJECT
  5
38
102
{ACAD_REACTORS
330
2A
102
}
330
2A
100
AcDbZombieObject
 90
      499
 91
      501
 93
      444
310
42D31A5B995C185D1D195C9B90E409028333333333333E3BF0000000000000FB010790141107004050750841D405064090741402483A0350
1001
ACAD
1000
AcDbSavedByObjectVersion
1070
     0
  0
ACAD_PROXY_OBJECT
  5
33
102
{ACAD_REACTORS
330
2A
102
}
330
2A
100
AcDbZombieObject
 90
      499
 91
      501
 93
      420
310
425499585B1A5CDD1A58D08409028333333333333E3BF0000000000000FB01079019070040501508421405064090741402480A1B40
1001
ACAD
1000
AcDbSavedByObjectVersion
1070
     0
  0
ACAD_PROXY_OBJECT
  5
37
102
{ACAD_REACTORS
330
2A
102
}
330
2A
100
AcDbZombieObject
 90
      499
 91
      501
 93
      412
310
41D51A1A58DAD95B90D409028333333333333E3BF0000000000000FB010790141107004050150C41D405064090741402480A0350
1001
ACAD
1000
AcDbSavedByObjectVersion
1070
     0
  0
DICTIONARYVAR
  5
20A
102
{ACAD_REACTORS
330
207
102
}
330
207
100
DictionaryVariables
280
     0
  1
1:1
  0
DICTIONARYVAR
  5
20B
102
{ACAD_REACTORS
330
207
102
}
330
207
100
DictionaryVariables
280
     0
  1
2
  0
DICTIONARYVAR
  5
20C
102
{ACAD_REACTORS
330
207
102
}
330
207
100
DictionaryVariables
280
     0
  1
1
  0
ENDSEC
  0
EOF
