  0
SECTION
  2
HEADER
  9
$ACADVER
  1
AC1012
  9
$DWGCODEPAGE
  3
ansi_1252
  9
$INSBASE
 10
0.0
 20
0.0
 30
0.0
  9
$EXTMIN
 10
0.0
 20
0.0
 30
0.0
  9
$EXTMAX
 10
11.0
 20
8.5
 30
0.0
  9
$LIMMIN
 10
0.0
 20
0.0
  9
$LIMMAX
 10
11.0
 20
8.5
  9
$ORTHOMODE
 70
     0
  9
$REGENMODE
 70
     1
  9
$FILLMODE
 70
     1
  9
$QTEXTMODE
 70
     0
  9
$MIRRTEXT
 70
     1
  9
$DRAGMODE
 70
     2
  9
$LTSCALE
 40
1.0
  9
$OSMODE
 70
    37
  9
$ATTMODE
 70
     1
  9
$TEXTSIZE
 40
0.125
  9
$TRACEWID
 40
0.05
  9
$TEXTSTYLE
  7
STANDARD
  9
$CLAYER
  8
0
  9
$CELTYPE
  6
BYLAYER
  9
$CECOLOR
 62
   256
  9
$CELTSCALE
 40
1.0
  9
$DELOBJ
 70
     1
  9
$DISPSILH
 70
     0
  9
$DIMSCALE
 40
1.0
  9
$DIMASZ
 40
0.13
  9
$DIMEXO
 40
0.05
  9
$DIMDLI
 40
0.38
  9
$DIMRND
 40
0.0
  9
$DIMDLE
 40
0.0
  9
$DIMEXE
 40
0.125
  9
$DIMTP
 40
0.0
  9
$DIMTM
 40
0.0
  9
$DIMTXT
 40
0.125
  9
$DIMCEN
 40
0.09
  9
$DIMTSZ
 40
0.0
  9
$DIMTOL
 70
     0
  9
$DIMLIM
 70
     0
  9
$DIMTIH
 70
     1
  9
$DIMTOH
 70
     1
  9
$DIMSE1
 70
     0
  9
$DIMSE2
 70
     0
  9
$DIMTAD
 70
     0
  9
$DIMZIN
 70
     0
  9
$DIMBLK
  1

  9
$DIMASO
 70
     1
  9
$DIMSHO
 70
     1
  9
$DIMPOST
  1

  9
$DIMAPOST
  1

  9
$DIMALT
 70
     0
  9
$DIMALTD
 70
     2
  9
$DIMALTF
 40
25.4
  9
$DIMLFAC
 40
1.0
  9
$DIMTOFL
 70
     0
  9
$DIMTVP
 40
0.0
  9
$DIMTIX
 70
     0
  9
$DIMSOXD
 70
     0
  9
$DIMSAH
 70
     0
  9
$DIMBLK1
  1

  9
$DIMBLK2
  1

  9
$DIMSTYLE
  2
STANDARD
  9
$DIMCLRD
 70
     0
  9
$DIMCLRE
 70
     0
  9
$DIMCLRT
 70
     0
  9
$DIMTFAC
 40
1.0
  9
$DIMGAP
 40
0.06
  9
$DIMJUST
 70
     0
  9
$DIMSD1
 70
     0
  9
$DIMSD2
 70
     0
  9
$DIMTOLJ
 70
     1
  9
$DIMTZIN
 70
     0
  9
$DIMALTZ
 70
     0
  9
$DIMALTTZ
 70
     0
  9
$DIMFIT
 70
     3
  9
$DIMUPT
 70
     0
  9
$DIMUNIT
 70
     2
  9
$DIMDEC
 70
     3
  9
$DIMTDEC
 70
     3
  9
$DIMALTU
 70
     2
  9
$DIMALTTD
 70
     2
  9
$DIMTXSTY
  7
STANDARD
  9
$DIMAUNIT
 70
     0
  9
$LUNITS
 70
     2
  9
$LUPREC
 70
     2
  9
$SKETCHINC
 40
0.1
  9
$FILLETRAD
 40
0.5
  9
$AUNITS
 70
     0
  9
$AUPREC
 70
     2
  9
$MENU
  1
.
  9
$ELEVATION
 40
0.0
  9
$PELEVATION
 40
0.0
  9
$THICKNESS
 40
0.0
  9
$LIMCHECK
 70
     0
  9
$CHAMFERA
 40
0.5
  9
$CHAMFERB
 40
0.5
  9
$CHAMFERC
 40
1.0
  9
$CHAMFERD
 40
0.0
  9
$SKPOLY
 70
     0
  9
$TDCREATE
 40
2455784.009821493
  9
$TDUPDATE
 40
2455784.009821505
  9
$TDINDWG
 40
0.0000000116
  9
$TDUSRTIMER
 40
0.0000000116
  9
$USRTIMER
 70
     1
  9
$ANGBASE
 50
0.0
  9
$ANGDIR
 70
     0
  9
$PDMODE
 70
     0
  9
$PDSIZE
 40
-1.0
  9
$PLINEWID
 40
0.0
  9
$COORDS
 70
     1
  9
$SPLFRAME
 70
     0
  9
$SPLINETYPE
 70
     6
  9
$SPLINESEGS
 70
     8
  9
$ATTDIA
 70
     0
  9
$ATTREQ
 70
     1
  9
$HANDLING
 70
     1
  9
$HANDSEED
  5
663
  9
$SURFTAB1
 70
     6
  9
$SURFTAB2
 70
     6
  9
$SURFTYPE
 70
     6
  9
$SURFU
 70
     6
  9
$SURFV
 70
     6
  9
$UCSNAME
  2

  9
$UCSORG
 10
0.0
 20
0.0
 30
0.0
  9
$UCSXDIR
 10
1.0
 20
0.0
 30
0.0
  9
$UCSYDIR
 10
0.0
 20
1.0
 30
0.0
  9
$PUCSNAME
  2

  9
$PUCSORG
 10
0.0
 20
0.0
 30
0.0
  9
$PUCSXDIR
 10
1.0
 20
0.0
 30
0.0
  9
$PUCSYDIR
 10
0.0
 20
1.0
 30
0.0
  9
$USERI1
 70
     0
  9
$USERI2
 70
     0
  9
$USERI3
 70
     0
  9
$USERI4
 70
     0
  9
$USERI5
 70
     0
  9
$USERR1
 40
0.0
  9
$USERR2
 40
0.0
  9
$USERR3
 40
0.0
  9
$USERR4
 40
0.0
  9
$USERR5
 40
0.0
  9
$WORLDVIEW
 70
     1
  9
$SHADEDGE
 70
     3
  9
$SHADEDIF
 70
    70
  9
$TILEMODE
 70
     1
  9
$MAXACTVP
 70
    64
  9
$PINSBASE
 10
0.0
 20
0.0
 30
0.0
  9
$PLIMCHECK
 70
     0
  9
$PEXTMIN
 10
1.0000000000E+20
 20
1.0000000000E+20
 30
1.0000000000E+20
  9
$PEXTMAX
 10
-1.0000000000E+20
 20
-1.0000000000E+20
 30
-1.0000000000E+20
  9
$PLIMMIN
 10
0.0
 20
0.0
  9
$PLIMMAX
 10
12.0
 20
9.0
  9
$UNITMODE
 70
     0
  9
$VISRETAIN
 70
     1
  9
$PLINEGEN
 70
     0
  9
$PSLTSCALE
 70
     1
  9
$TREEDEPTH
 70
  3020
  9
$PICKSTYLE
 70
     1
  9
$CMLSTYLE
  2
STANDARD
  9
$CMLJUST
 70
     0
  9
$CMLSCALE
 40
1.0
  9
$SAVEIMAGES
 70
     1
  0
ENDSEC
  0
SECTION
  2
CLASSES
  0
CLASS
  1
ACDBDICTIONARYWDFLT
  2
AcDbDictionaryWithDefault
  3
ObjectDBX Classes
 90
    32768
280
     0
281
     0
  0
CLASS
  1
VISUALSTYLE
  2
AcDbVisualStyle
  3
ObjectDBX Classes
 90
     4095
280
     0
281
     0
  0
CLASS
  1
SCALE
  2
AcDbScale
  3
ObjectDBX Classes
 90
     1153
280
     0
281
     0
  0
CLASS
  1
DICTIONARYVAR
  2
AcDbDictionaryVar
  3
ObjectDBX Classes
 90
        0
280
     0
281
     0
  0
CLASS
  1
XRECORD
  2
AcDbXrecord
  3
AutoCAD 2000
 90
    32768
280
     0
281
     0
  0
CLASS
  1
LWPOLYLINE
  2
AcDbPolyline
  3
AutoCAD 2000
 90
    32768
280
     0
281
     1
  0
CLASS
  1
HATCH
  2
AcDbHatch
  3
AutoCAD 2000
 90
    32768
280
     0
281
     1
  0
CLASS
  1
ACDBPLACEHOLDER
  2
AcDbPlaceHolder
  3
ObjectDBX Classes
 90
        0
280
     0
281
     0
  0
CLASS
  1
LAYOUT
  2
AcDbLayout
  3
ObjectDBX Classes
 90
        0
280
     0
281
     0
  0
ENDSEC
  0
SECTION
  2
TABLES
  0
TABLE
  2
VPORT
  5
8
330
0
100
AcDbSymbolTable
 70
     1
  0
VPORT
  5
29
330
8
100
AcDbSymbolTableRecord
100
AcDbViewportTableRecord
  2
*ACTIVE
 70
     0
 10
0.0
 20
0.0
 11
1.0
 21
1.0
 12
5.5
 22
4.25
 13
0.0
 23
0.0
 14
0.5
 24
0.5
 15
0.5
 25
0.5
 16
0.0
 26
0.0
 36
1.0
 17
0.0
 27
0.0
 37
0.0
 40
8.5
 41
1.2941176471
 42
50.0
 43
0.0
 44
0.0
 50
0.0
 51
0.0
 71
     0
 72
  2000
 73
     1
 74
     3
 75
     0
 76
     0
 77
     0
 78
     0
  0
ENDTAB
  0
TABLE
  2
LTYPE
  5
5
330
0
100
AcDbSymbolTable
 70
     6
  0
LTYPE
  5
14
330
5
100
AcDbSymbolTableRecord
100
AcDbLinetypeTableRecord
  2
BYBLOCK
 70
     0
  3

 72
    65
 73
     0
 40
0.0
  0
LTYPE
  5
15
330
5
100
AcDbSymbolTableRecord
100
AcDbLinetypeTableRecord
  2
BYLAYER
 70
     0
  3

 72
    65
 73
     0
 40
0.0
  0
LTYPE
  5
16
330
5
100
AcDbSymbolTableRecord
100
AcDbLinetypeTableRecord
  2
CONTINUOUS
 70
     0
  3
Solid line
 72
    65
 73
     0
 40
0.0
  0
LTYPE
  5
3B
330
5
100
AcDbSymbolTableRecord
100
AcDbLinetypeTableRecord
  2
HIDDEN
 70
     0
  3
Hidden __ __ __ __ __ __ __ __ __ __ __ __ __ __
 72
    65
 73
     2
 40
0.075
 49
0.05
 74
     0
 49
-0.025
 74
     0
  0
LTYPE
  5
3C
330
5
100
AcDbSymbolTableRecord
100
AcDbLinetypeTableRecord
  2
PHANTOM
 70
     0
  3
Phantom ______  __  __  ______  __  __  ______
 72
    65
 73
     6
 40
0.5
 49
0.25
 74
     0
 49
-0.05
 74
     0
 49
0.05
 74
     0
 49
-0.05
 74
     0
 49
0.05
 74
     0
 49
-0.05
 74
     0
  0
LTYPE
  5
3D
330
5
100
AcDbSymbolTableRecord
100
AcDbLinetypeTableRecord
  2
CENTER
 70
     0
  3
Center ____ _ ____ _ ____ _ ____ _ ____ _ ____
 72
    65
 73
     4
 40
0.4
 49
0.25
 74
     0
 49
-0.05
 74
     0
 49
0.05
 74
     0
 49
-0.05
 74
     0
  0
LTYPE
  5
3E
330
5
100
AcDbSymbolTableRecord
100
AcDbLinetypeTableRecord
  2
CENTERX2
 70
     0
  3
Center (2x) ________  __  ________  __  _____
 72
    65
 73
     4
 40
0.8
 49
0.5
 74
     0
 49
-0.1
 74
     0
 49
0.1
 74
     0
 49
-0.1
 74
     0
  0
LTYPE
  5
3F
330
5
100
AcDbSymbolTableRecord
100
AcDbLinetypeTableRecord
  2
DOT2
 70
     0
  3
Dot (.5x) ........................................
 72
    65
 73
     2
 40
0.025
 49
0.0
 74
     0
 49
-0.025
 74
     0
  0
ENDTAB
  0
TABLE
  2
LAYER
  5
2
330
0
100
AcDbSymbolTable
 70
     2
  0
LAYER
  5
10
330
2
100
AcDbSymbolTableRecord
100
AcDbLayerTableRecord
  2
0
 70
     0
 62
     7
  6
CONTINUOUS
  0
LAYER
  5
40
330
2
100
AcDbSymbolTableRecord
100
AcDbLayerTableRecord
  2
FORMAT
 70
     0
 62
     7
  6
CONTINUOUS
  0
ENDTAB
  0
TABLE
  2
STYLE
  5
3
330
0
100
AcDbSymbolTable
 70
     4
  0
STYLE
  5
11
330
3
100
AcDbSymbolTableRecord
100
AcDbTextStyleTableRecord
  2
STANDARD
 70
     0
 40
0.0
 41
1.0
 50
0.0
 71
     0
 42
0.2
  3
txt
  4

  0
STYLE
  5
6E
330
3
100
AcDbSymbolTableRecord
100
AcDbTextStyleTableRecord
  2
SLDTEXTSTYLE0
 70
     0
 40
0.0
 41
0.75
 50
0.0
 71
     0
 42
0.2
  3
TXT
  4

  0
STYLE
  5
93
330
3
100
AcDbSymbolTableRecord
100
AcDbTextStyleTableRecord
  2
SLDTEXTSTYLE1
 70
     0
 40
0.0
 41
0.6875
 50
0.0
 71
     0
 42
0.2
  3
TXT
  4

  0
STYLE
  5
99
330
3
100
AcDbSymbolTableRecord
100
AcDbTextStyleTableRecord
  2
SLDTEXTSTYLE2
 70
     0
 40
0.0
 41
0.6944444444
 50
0.0
 71
     0
 42
0.2
  3
TXT
  4

  0
ENDTAB
  0
TABLE
  2
VIEW
  5
6
330
0
100
AcDbSymbolTable
 70
     0
  0
ENDTAB
  0
TABLE
  2
UCS
  5
7
330
0
100
AcDbSymbolTable
 70
     0
  0
ENDTAB
  0
TABLE
  2
APPID
  5
9
330
0
100
AcDbSymbolTable
 70
     1
  0
APPID
  5
12
330
9
100
AcDbSymbolTableRecord
100
AcDbRegAppTableRecord
  2
ACAD
 70
     0
  0
ENDTAB
  0
TABLE
  2
DIMSTYLE
  5
A
330
0
100
AcDbSymbolTable
 70
     1
  0
DIMSTYLE
105
27
330
A
100
AcDbSymbolTableRecord
100
AcDbDimStyleTableRecord
  2
STANDARD
 70
     0
  3

  4

  5

  6

  7

 40
1.0
 41
0.18
 42
0.0625
 43
0.38
 44
0.18
 45
0.0
 46
0.0
 47
0.0
 48
0.0
140
0.18
141
0.09
142
0.0
143
25.4
144
1.0
145
0.0
146
1.0
147
0.09
 71
     0
 72
     0
 73
     1
 74
     1
 75
     0
 76
     0
 77
     0
 78
     0
170
     0
171
     2
172
     0
173
     0
174
     0
175
     0
176
     0
177
     0
178
     0
270
     2
271
     4
272
     4
273
     2
274
     2
340
11
275
     0
280
     0
281
     0
282
     0
283
     1
284
     0
285
     0
286
     0
287
     3
288
     0
  0
ENDTAB
  0
TABLE
  2
BLOCK_RECORD
  5
1
330
0
100
AcDbSymbolTable
 70
     4
  0
BLOCK_RECORD
  5
1F
330
1
100
AcDbSymbolTableRecord
100
AcDbBlockTableRecord
  2
*MODEL_SPACE
  0
BLOCK_RECORD
  5
1B
330
1
100
AcDbSymbolTableRecord
100
AcDbBlockTableRecord
  2
*PAPER_SPACE
  0
BLOCK_RECORD
  5
A8
330
1
100
AcDbSymbolTableRecord
100
AcDbBlockTableRecord
  2
SW_NOTE_0
  0
BLOCK_RECORD
  5
AE
330
1
100
AcDbSymbolTableRecord
100
AcDbBlockTableRecord
  2
SW_NOTE_1
  0
BLOCK_RECORD
  5
C2
330
1
100
AcDbSymbolTableRecord
100
AcDbBlockTableRecord
  2
SW_NOTE_2
  0
ENDTAB
  0
ENDSEC
  0
SECTION
  2
BLOCKS
  0
BLOCK
  5
20
330
1F
100
AcDbEntity
  8
0
100
AcDbBlockBegin
  2
*MODEL_SPACE
 70
     0
 10
0.0
 20
0.0
 30
0.0
  3
*MODEL_SPACE
  1

  0
ENDBLK
  5
21
330
1F
100
AcDbEntity
  8
0
100
AcDbBlockEnd
  0
BLOCK
  5
1C
330
1B
100
AcDbEntity
 67
     1
  8
0
100
AcDbBlockBegin
  2
*PAPER_SPACE
 70
     0
 10
0.0
 20
0.0
 30
0.0
  3
*PAPER_SPACE
  1

  0
ENDBLK
  5
1D
330
1B
100
AcDbEntity
 67
     1
  8
0
100
AcDbBlockEnd
  0
BLOCK
  5
A9
330
A8
100
AcDbEntity
  8
0
100
AcDbBlockBegin
  2
SW_NOTE_0
 70
     0
 10
0.0
 20
0.0
 30
0.0
  3
SW_NOTE_0
  1

  0
MTEXT
  5
AB
330
A8
100
AcDbEntity
  8
0
  6
CONTINUOUS
 62
     0
100
AcDbMText
 10
0.0
 20
0.0773440644
 30
0.0
 40
0.06
 41
0.0
 71
     1
 72
     1
  1
INTERPRET GEOMETRIC
  7
SLDTEXTSTYLE0
  0
MTEXT
  5
AC
330
A8
100
AcDbEntity
  8
0
  6
CONTINUOUS
 62
     0
100
AcDbMText
 10
0.0
 20
-0.0220260102
 30
0.0
 40
0.06
 41
0.0
 71
     1
 72
     1
  1
TOLERANCING PER:
  7
SLDTEXTSTYLE0
  0
ENDBLK
  5
AA
330
A8
100
AcDbEntity
  8
0
100
AcDbBlockEnd
  0
BLOCK
  5
AF
330
AE
100
AcDbEntity
  8
0
100
AcDbBlockBegin
  2
SW_NOTE_1
 70
     0
 10
0.0
 20
0.0
 30
0.0
  3
SW_NOTE_1
  1

  0
MTEXT
  5
B1
330
AE
100
AcDbEntity
  8
0
  6
CONTINUOUS
 62
     0
100
AcDbMText
 10
0.0
 20
0.0837894031
 30
0.0
 40
0.065
 41
0.0
 71
     1
 72
     1
  1
DIMENSIONS ARE IN INCHES
  7
SLDTEXTSTYLE0
  0
MTEXT
  5
B2
330
AE
100
AcDbEntity
  8
0
  6
CONTINUOUS
 62
     0
100
AcDbMText
 10
0.0
 20
-0.0205806729
 30
0.0
 40
0.065
 41
0.0
 71
     1
 72
     1
  1
TOLERANCES:
  7
SLDTEXTSTYLE0
  0
MTEXT
  5
B3
330
AE
100
AcDbEntity
  8
0
  6
CONTINUOUS
 62
     0
100
AcDbMText
 10
0.0
 20
-0.1249507489
 30
0.0
 40
0.065
 41
0.0
 71
     1
 72
     1
  1
FRACTIONAL
  7
SLDTEXTSTYLE0
  0
MTEXT
  5
B4
330
AE
100
AcDbEntity
  8
0
  6
CONTINUOUS
 62
     0
100
AcDbMText
 10
0.5175850875
 20
-0.1249507489
 30
0.0
 40
0.065
 41
0.0
 71
     1
 72
     1
  1
%%p
  7
SLDTEXTSTYLE0
  0
MTEXT
  5
B5
330
AE
100
AcDbEntity
  8
0
  6
CONTINUOUS
 62
     0
100
AcDbMText
 10
0.0
 20
-0.2293208248
 30
0.0
 40
0.065
 41
0.0
 71
     1
 72
     1
  1
ANGULAR: MACH
  7
SLDTEXTSTYLE0
  0
MTEXT
  5
B6
330
AE
100
AcDbEntity
  8
0
  6
CONTINUOUS
 62
     0
100
AcDbMText
 10
0.7233732769
 20
-0.2293208248
 30
0.0
 40
0.065
 41
0.0
 71
     1
 72
     1
  1
%%p
  7
SLDTEXTSTYLE0
  0
MTEXT
  5
B7
330
AE
100
AcDbEntity
  8
0
  6
CONTINUOUS
 62
     0
100
AcDbMText
 10
0.7852857683
 20
-0.2293208248
 30
0.0
 40
0.065
 41
0.0
 71
     1
 72
     1
  1
     BEND 
  7
SLDTEXTSTYLE0
  0
MTEXT
  5
B8
330
AE
100
AcDbEntity
  8
0
  6
CONTINUOUS
 62
     0
100
AcDbMText
 10
1.14784136
 20
-0.2293208248
 30
0.0
 40
0.065
 41
0.0
 71
     1
 72
     1
  1
%%p
  7
SLDTEXTSTYLE0
  0
MTEXT
  5
B9
330
AE
100
AcDbEntity
  8
0
  6
CONTINUOUS
 62
     0
100
AcDbMText
 10
0.0
 20
-0.3336909008
 30
0.0
 40
0.065
 41
0.0
 71
     1
 72
     1
  1
TWO PLACE DECIMAL    
  7
SLDTEXTSTYLE0
  0
MTEXT
  5
BA
330
AE
100
AcDbEntity
  8
0
  6
CONTINUOUS
 62
     0
100
AcDbMText
 10
0.9794349188
 20
-0.3336909008
 30
0.0
 40
0.065
 41
0.0
 71
     1
 72
     1
  1
%%p
  7
SLDTEXTSTYLE0
  0
MTEXT
  5
BB
330
AE
100
AcDbEntity
  8
0
  6
CONTINUOUS
 62
     0
100
AcDbMText
 10
0.0
 20
-0.4380609768
 30
0.0
 40
0.065
 41
0.0
 71
     1
 72
     1
  1
THREE PLACE DECIMAL  
  7
SLDTEXTSTYLE0
  0
MTEXT
  5
BC
330
AE
100
AcDbEntity
  8
0
  6
CONTINUOUS
 62
     0
100
AcDbMText
 10
0.9738038639
 20
-0.4380609768
 30
0.0
 40
0.065
 41
0.0
 71
     1
 72
     1
  1
%%p
  7
SLDTEXTSTYLE0
  0
ENDBLK
  5
B0
330
AE
100
AcDbEntity
  8
0
100
AcDbBlockEnd
  0
BLOCK
  5
C3
330
C2
100
AcDbEntity
  8
0
100
AcDbBlockBegin
  2
SW_NOTE_2
 70
     0
 10
0.0
 20
0.0
 30
0.0
  3
SW_NOTE_2
  1

  0
MTEXT
  5
C5
330
C2
100
AcDbEntity
  8
0
  6
CONTINUOUS
 62
     0
100
AcDbMText
 10
0.0
 20
0.0773440644
 30
0.0
 40
0.06
 41
0.0
 71
     1
 72
     1
  1
THE INFORMATION CONTAINED IN THIS
  7
SLDTEXTSTYLE0
  0
MTEXT
  5
C6
330
C2
100
AcDbEntity
  8
0
  6
CONTINUOUS
 62
     0
100
AcDbMText
 10
0.0
 20
-0.0220260102
 30
0.0
 40
0.06
 41
0.0
 71
     1
 72
     1
  1
DRAWING IS THE SOLE PROPERTY OF
  7
SLDTEXTSTYLE0
  0
MTEXT
  5
C7
330
C2
100
AcDbEntity
  8
0
  6
CONTINUOUS
 62
     0
100
AcDbMText
 10
0.0
 20
-0.1213960848
 30
0.0
 40
0.06
 41
0.0
 71
     1
 72
     1
  1
Candy Controls.  ANY 
  7
SLDTEXTSTYLE0
  0
MTEXT
  5
C8
330
C2
100
AcDbEntity
  8
0
  6
CONTINUOUS
 62
     0
100
AcDbMText
 10
0.0
 20
-0.2207661593
 30
0.0
 40
0.06
 41
0.0
 71
     1
 72
     1
  1
REPRODUCTION IN PART OR AS A WHOLE
  7
SLDTEXTSTYLE0
  0
MTEXT
  5
C9
330
C2
100
AcDbEntity
  8
0
  6
CONTINUOUS
 62
     0
100
AcDbMText
 10
0.0
 20
-0.3201362339
 30
0.0
 40
0.06
 41
0.0
 71
     1
 72
     1
  1
WITHOUT THE WRITTEN PERMISSION OF
  7
SLDTEXTSTYLE0
  0
MTEXT
  5
CA
330
C2
100
AcDbEntity
  8
0
  6
CONTINUOUS
 62
     0
100
AcDbMText
 10
0.0
 20
-0.4195063085
 30
0.0
 40
0.06
 41
0.0
 71
     1
 72
     1
  1
Candy Controls IS 
  7
SLDTEXTSTYLE0
  0
MTEXT
  5
CB
330
C2
100
AcDbEntity
  8
0
  6
CONTINUOUS
 62
     0
100
AcDbMText
 10
0.0
 20
-0.518876383
 30
0.0
 40
0.06
 41
0.0
 71
     1
 72
     1
  1
PROHIBITED.
  7
SLDTEXTSTYLE0
  0
ENDBLK
  5
C4
330
C2
100
AcDbEntity
  8
0
100
AcDbBlockEnd
  0
ENDSEC
  0
SECTION
  2
ENTITIES
  0
LINE
  5
41
330
1F
100
AcDbEntity
  8
0
  6
CONTINUOUS
 62
     7
100
AcDbLine
 10
0.329927
 20
8.1920731707
 30
0.0
 11
10.629927
 21
8.1920731707
 31
0.0
  0
LINE
  5
42
330
1F
100
AcDbEntity
  8
0
  6
CONTINUOUS
 62
     7
100
AcDbLine
 10
0.329927
 20
8.1920731707
 30
0.0
 11
0.329927
 21
0.3920731707
 31
0.0
  0
LINE
  5
43
330
1F
100
AcDbEntity
  8
0
  6
CONTINUOUS
 62
     7
100
AcDbLine
 10
10.629927
 20
0.3920731707
 30
0.0
 11
0.329927
 21
0.3920731707
 31
0.0
  0
LINE
  5
44
330
1F
100
AcDbEntity
  8
0
  6
CONTINUOUS
 62
     7
100
AcDbLine
 10
10.629927
 20
0.3920731707
 30
0.0
 11
10.629927
 21
8.1920731707
 31
0.0
  0
LINE
  5
45
330
1F
100
AcDbEntity
  8
0
  6
CONTINUOUS
 62
     7
100
AcDbLine
 10
4.7981841288
 20
0.3920731707
 30
0.0
 11
4.7981841288
 21
2.3564211366
 31
0.0
  0
LINE
  5
46
330
1F
100
AcDbEntity
  8
0
  6
CONTINUOUS
 62
     7
100
AcDbLine
 10
2.8210345579
 20
2.3564211366
 30
0.0
 11
10.629927
 21
2.3564211366
 31
0.0
  0
LINE
  5
47
330
1F
100
AcDbEntity
  8
0
  6
CONTINUOUS
 62
     7
100
AcDbLine
 10
6.1796352514
 20
2.3564211366
 30
0.0
 11
6.1796352514
 21
0.3920731707
 31
0.0
  0
LINE
  5
48
330
1F
100
AcDbEntity
  8
0
  6
CONTINUOUS
 62
     7
100
AcDbLine
 10
7.8712070044
 20
2.3564211366
 30
0.0
 11
7.8712070044
 21
0.3920731707
 31
0.0
  0
LINE
  5
49
330
1F
100
AcDbEntity
  8
0
  6
CONTINUOUS
 62
     7
100
AcDbLine
 10
7.8712070044
 20
0.6049590101
 30
0.0
 11
10.629927
 21
0.6049590101
 31
0.0
  0
LINE
  5
4A
330
1F
100
AcDbEntity
  8
0
  6
CONTINUOUS
 62
     7
100
AcDbLine
 10
7.8712070044
 20
1.1119362457
 30
0.0
 11
10.629927
 21
1.1119362457
 31
0.0
  0
LINE
  5
4B
330
1F
100
AcDbEntity
  8
0
  6
CONTINUOUS
 62
     7
100
AcDbLine
 10
7.8712070044
 20
1.9892703708
 30
0.0
 11
10.629927
 21
1.9892703708
 31
0.0
  0
LINE
  5
4C
330
1F
100
AcDbEntity
  8
0
  6
CONTINUOUS
 62
     7
100
AcDbLine
 10
8.266751752
 20
1.1119362457
 30
0.0
 11
8.266751752
 21
0.6049590101
 31
0.0
  0
LINE
  5
4D
330
1F
100
AcDbEntity
  8
0
  6
CONTINUOUS
 62
     7
100
AcDbLine
 10
8.6943435176
 20
0.6049590101
 30
0.0
 11
8.6943435176
 21
0.3920731707
 31
0.0
  0
LINE
  5
4E
330
1F
100
AcDbEntity
  8
0
  6
CONTINUOUS
 62
     7
100
AcDbLine
 10
10.0579917045
 20
1.1119362457
 30
0.0
 11
10.0579917045
 21
0.6049590101
 31
0.0
  0
LINE
  5
4F
330
1F
100
AcDbEntity
  8
0
  6
CONTINUOUS
 62
     7
100
AcDbLine
 10
9.6662556631
 20
0.6049590101
 30
0.0
 11
9.6662556631
 21
0.3920731707
 31
0.0
  0
LINE
  5
50
330
1F
100
AcDbEntity
  8
0
  6
CONTINUOUS
 62
     7
100
AcDbLine
 10
2.8210345579
 20
0.5883479999
 30
0.0
 11
6.1796352514
 21
0.5883479999
 31
0.0
  0
LINE
  5
51
330
1F
100
AcDbEntity
  8
0
  6
CONTINUOUS
 62
     7
100
AcDbLine
 10
6.1796352514
 20
1.7939211366
 30
0.0
 11
7.8712070044
 21
1.7939211366
 31
0.0
  0
LINE
  5
52
330
1F
100
AcDbEntity
  8
0
  6
CONTINUOUS
 62
     7
100
AcDbLine
 10
6.1796352514
 20
1.9814211366
 30
0.0
 11
7.8712070044
 21
1.9814211366
 31
0.0
  0
LINE
  5
53
330
1F
100
AcDbEntity
  8
0
  6
CONTINUOUS
 62
     7
100
AcDbLine
 10
6.1796352514
 20
2.1689211366
 30
0.0
 11
7.8712070044
 21
2.1689211366
 31
0.0
  0
LINE
  5
54
330
1F
100
AcDbEntity
  8
0
  6
CONTINUOUS
 62
     7
100
AcDbLine
 10
7.8712070044
 20
1.2314211366
 30
0.0
 11
6.1796352514
 21
1.2314211366
 31
0.0
  0
LINE
  5
55
330
1F
100
AcDbEntity
  8
0
  6
CONTINUOUS
 62
     7
100
AcDbLine
 10
7.3921580388
 20
2.3564211366
 30
0.0
 11
7.3921580388
 21
1.2314211366
 31
0.0
  0
LINE
  5
56
330
1F
100
AcDbEntity
  8
0
  6
CONTINUOUS
 62
     7
100
AcDbLine
 10
6.9236308342
 20
2.3564211366
 30
0.0
 11
6.9236308342
 21
1.2314211366
 31
0.0
  0
LINE
  5
57
330
1F
100
AcDbEntity
  8
0
  6
CONTINUOUS
 62
     7
100
AcDbLine
 10
4.7981841288
 20
0.8557965305
 30
0.0
 11
6.1796352514
 21
0.8557965305
 31
0.0
  0
LINE
  5
58
330
1F
100
AcDbEntity
  8
0
  6
CONTINUOUS
 62
     7
100
AcDbLine
 10
4.7981841288
 20
1.1257965305
 30
0.0
 11
6.1796352514
 21
1.1257965305
 31
0.0
  0
LINE
  5
59
330
1F
100
AcDbEntity
  8
0
  6
CONTINUOUS
 62
     7
100
AcDbLine
 10
2.8210345579
 20
0.3920731707
 30
0.0
 11
2.8210345579
 21
2.3564211366
 31
0.0
  0
LINE
  5
5A
330
1F
100
AcDbEntity
  8
0
  6
CONTINUOUS
 62
     7
100
AcDbLine
 10
2.8210345579
 20
1.1064211366
 30
0.0
 11
4.7981841288
 21
1.1064211366
 31
0.0
  0
LINE
  5
5B
330
1F
100
AcDbEntity
  8
0
  6
CONTINUOUS
 62
     7
100
AcDbLine
 10
2.8210345579
 20
1.3564211366
 30
0.0
 11
4.7981841288
 21
1.3564211366
 31
0.0
  0
LINE
  5
5C
330
1F
100
AcDbEntity
  8
0
  6
CONTINUOUS
 62
     7
100
AcDbLine
 10
2.8210345579
 20
1.6064211366
 30
0.0
 11
4.7981841288
 21
1.6064211366
 31
0.0
  0
LINE
  5
5D
330
1F
100
AcDbEntity
  8
0
  6
CONTINUOUS
 62
     7
100
AcDbLine
 10
2.8210345579
 20
1.8564211366
 30
0.0
 11
4.7981841288
 21
1.8564211366
 31
0.0
  0
LINE
  5
5E
330
1F
100
AcDbEntity
  8
0
  6
CONTINUOUS
 62
     7
100
AcDbLine
 10
3.8190146875
 20
2.3564211366
 30
0.0
 11
3.8190146875
 21
0.5883479999
 31
0.0
  0
LINE
  5
5F
330
1F
100
AcDbEntity
  8
0
  6
CONTINUOUS
 62
     7
100
AcDbLine
 10
6.1796352514
 20
2.2020813496
 30
0.0
 11
4.7981841288
 21
2.2020813496
 31
0.0
  0
LINE
  5
60
330
1F
100
AcDbEntity
  8
0
  6
CONTINUOUS
 62
     7
100
AcDbLine
 10
7.8712070044
 20
1.6064211366
 30
0.0
 11
6.1796352514
 21
1.6064211366
 31
0.0
  0
LINE
  5
61
330
1F
100
AcDbEntity
  8
0
  6
CONTINUOUS
 62
     7
100
AcDbLine
 10
7.8712070044
 20
1.4189211366
 30
0.0
 11
6.1796352514
 21
1.4189211366
 31
0.0
  0
LINE
  5
62
330
1F
100
AcDbEntity
  8
0
  6
CONTINUOUS
 62
     7
100
AcDbLine
 10
2.8210345579
 20
2.1064211366
 30
0.0
 11
4.7981841288
 21
2.1064211366
 31
0.0
  0
LINE
  5
63
330
1F
100
AcDbEntity
  8
0
  6
CONTINUOUS
 62
     7
100
AcDbLine
 10
4.7981841288
 20
1.3957965305
 30
0.0
 11
6.1796352514
 21
1.3957965305
 31
0.0
  0
LINE
  5
64
330
1F
100
AcDbEntity
  8
0
  6
CONTINUOUS
 62
     7
100
AcDbLine
 10
2.8210345579
 20
0.8564211366
 30
0.0
 11
4.7981841288
 21
0.8564211366
 31
0.0
  0
LINE
  5
65
330
1F
100
AcDbEntity
  8
0
  6
CONTINUOUS
 62
     7
100
AcDbLine
 10
1.1838252943
 20
0.3920731707
 30
0.0
 11
1.1838252943
 21
1.3064211366
 31
0.0
  0
LINE
  5
66
330
1F
100
AcDbEntity
  8
0
  6
CONTINUOUS
 62
     7
100
AcDbLine
 10
2.8210345579
 20
1.3064211366
 30
0.0
 11
1.1838252943
 21
1.3064211366
 31
0.0
  0
LINE
  5
67
330
1F
100
AcDbEntity
  8
0
  6
CONTINUOUS
 62
     7
100
AcDbLine
 10
8.660927
 20
0.3920731707
 30
0.0
 11
8.660927
 21
0.3072739649
 31
0.0
  0
LINE
  5
68
330
1F
100
AcDbEntity
  8
0
  6
CONTINUOUS
 62
     7
100
AcDbLine
 10
6.692177
 20
0.3920731707
 30
0.0
 11
6.692177
 21
0.3072739649
 31
0.0
  0
LINE
  5
69
330
1F
100
AcDbEntity
  8
0
  6
CONTINUOUS
 62
     7
100
AcDbLine
 10
4.723427
 20
0.3920731707
 30
0.0
 11
4.723427
 21
0.3072739649
 31
0.0
  0
LINE
  5
6A
330
1F
100
AcDbEntity
  8
0
  6
CONTINUOUS
 62
     7
100
AcDbLine
 10
2.754677
 20
0.3920731707
 30
0.0
 11
2.754677
 21
0.3072739649
 31
0.0
  0
LINE
  5
6B
330
1F
100
AcDbEntity
  8
0
  6
CONTINUOUS
 62
     7
100
AcDbLine
 10
2.754677
 20
0.3920731707
 30
0.0
 11
2.7672319738
 21
0.3575
 31
0.0
  0
LINE
  5
6C
330
1F
100
AcDbEntity
  8
0
  6
CONTINUOUS
 62
     7
100
AcDbLine
 10
2.7672319738
 20
0.3575
 30
0.0
 11
2.7414258825
 21
0.3575
 31
0.0
  0
LINE
  5
6D
330
1F
100
AcDbEntity
  8
0
  6
CONTINUOUS
 62
     7
100
AcDbLine
 10
2.7414258825
 20
0.3575
 30
0.0
 11
2.754677
 21
0.3920731707
 31
0.0
  0
MTEXT
  5
91
330
1F
100
AcDbEntity
  8
0
  6
CONTINUOUS
 62
     7
100
AcDbMText
 10
4.9775846961
 20
0.5178452352
 30
0.0
 40
0.0625
 41
0.0
 71
     1
 72
     1
  1
DO NOT SCALE DRAWING
  7
SLDTEXTSTYLE0
  0
MTEXT
  5
92
330
1F
100
AcDbEntity
  8
0
  6
CONTINUOUS
 62
     7
100
AcDbMText
 10
8.7940650694
 20
0.9417064595
 30
0.0
 40
0.125
 41
0.0
 71
     1
 72
     1
  1
CL18-C39
  7
SLDTEXTSTYLE0
  0
MTEXT
  5
94
330
1F
100
AcDbEntity
  8
0
  6
CONTINUOUS
 62
     7
100
AcDbMText
 10
9.7571278483
 20
0.5524239532
 30
0.0
 40
0.1
 41
0.0
 71
     1
 72
     1
  1
SHEET 1 OF 1
  7
SLDTEXTSTYLE1
  0
MTEXT
  5
95
330
1F
100
AcDbEntity
  8
0
  6
CONTINUOUS
 62
     7
100
AcDbMText
 10
4.8448077858
 20
2.3132954224
 30
0.0
 40
0.07
 41
0.0
 71
     1
 72
     1
  1
UNLESS OTHERWISE SPECIFIED:
  7
SLDTEXTSTYLE0
  0
MTEXT
  5
96
330
1F
100
AcDbEntity
  8
0
  6
CONTINUOUS
 62
     7
100
AcDbMText
 10
7.9586139647
 20
0.5520987879
 30
0.0
 40
0.1
 41
0.0
 71
     1
 72
     1
  1
SCALE: 1:1
  7
SLDTEXTSTYLE0
  0
MTEXT
  5
97
330
1F
100
AcDbEntity
  8
0
  6
CONTINUOUS
 62
     7
100
AcDbMText
 10
8.7023691647
 20
0.5486763345
 30
0.0
 40
0.1
 41
0.0
 71
     1
 72
     1
  1
WEIGHT: 
  7
SLDTEXTSTYLE0
  0
MTEXT
  5
98
330
1F
100
AcDbEntity
  8
0
  6
CONTINUOUS
 62
     7
100
AcDbMText
 10
10.2277580983
 20
1.081966299
 30
0.0
 40
0.1
 41
0.0
 71
     1
 72
     1
  1
REV
  7
SLDTEXTSTYLE0
  0
MTEXT
  5
9A
330
1F
100
AcDbEntity
  8
0
  6
CONTINUOUS
 62
     7
100
AcDbMText
 10
8.2984570898
 20
1.0858725293
 30
0.0
 40
0.1
 41
0.0
 71
     1
 72
     1
  1
DWG.  NO.
  7
SLDTEXTSTYLE2
  0
MTEXT
  5
9B
330
1F
100
AcDbEntity
  8
0
  6
CONTINUOUS
 62
     7
100
AcDbMText
 10
7.9598482632
 20
0.9442140768
 30
0.0
 40
0.25
 41
0.0
 71
     1
 72
     1
  1
A
  7
SLDTEXTSTYLE0
  0
MTEXT
  5
9C
330
1F
100
AcDbEntity
  8
0
  6
CONTINUOUS
 62
     7
100
AcDbMText
 10
7.9519581822
 20
1.0872713483
 30
0.0
 40
0.1
 41
0.0
 71
     1
 72
     1
  1
SIZE
  7
SLDTEXTSTYLE0
  0
MTEXT
  5
9D
330
1F
100
AcDbEntity
  8
0
  6
CONTINUOUS
 62
     7
100
AcDbMText
 10
7.9170704177
 20
1.9547881128
 30
0.0
 40
0.1
 41
0.0
 71
     1
 72
     1
  1
TITLE:
  7
SLDTEXTSTYLE0
  0
MTEXT
  5
9E
330
1F
100
AcDbEntity
  8
0
  6
CONTINUOUS
 62
     7
100
AcDbMText
 10
7.0363774929
 20
2.2906161274
 30
0.0
 40
0.065
 41
0.0
 71
     1
 72
     1
  1
NAME
  7
SLDTEXTSTYLE0
  0
MTEXT
  5
9F
330
1F
100
AcDbEntity
  8
0
  6
CONTINUOUS
 62
     7
100
AcDbMText
 10
7.5281510634
 20
2.2888799118
 30
0.0
 40
0.065
 41
0.0
 71
     1
 72
     1
  1
DATE
  7
SLDTEXTSTYLE0
  0
MTEXT
  5
A0
330
1F
100
AcDbEntity
  8
0
  6
CONTINUOUS
 62
     7
100
AcDbMText
 10
6.2277147029
 20
1.1876913145
 30
0.0
 40
0.065
 41
0.0
 71
     1
 72
     1
  1
COMMENTS:
  7
SLDTEXTSTYLE0
  0
MTEXT
  5
A1
330
1F
100
AcDbEntity
  8
0
  6
CONTINUOUS
 62
     7
100
AcDbMText
 10
6.2268411461
 20
1.3536101679
 30
0.0
 40
0.065
 41
0.0
 71
     1
 72
     1
  1
Q.A.
  7
SLDTEXTSTYLE0
  0
MTEXT
  5
A2
330
1F
100
AcDbEntity
  8
0
  6
CONTINUOUS
 62
     7
100
AcDbMText
 10
6.2284654509
 20
1.5395328424
 30
0.0
 40
0.065
 41
0.0
 71
     1
 72
     1
  1
MFG APPR.
  7
SLDTEXTSTYLE0
  0
MTEXT
  5
A3
330
1F
100
AcDbEntity
  8
0
  6
CONTINUOUS
 62
     7
100
AcDbMText
 10
6.2235171344
 20
1.7267501785
 30
0.0
 40
0.065
 41
0.0
 71
     1
 72
     1
  1
ENG APPR.
  7
SLDTEXTSTYLE0
  0
MTEXT
  5
A4
330
1F
100
AcDbEntity
  8
0
  6
CONTINUOUS
 62
     7
100
AcDbMText
 10
6.2264103951
 20
1.9092699088
 30
0.0
 40
0.065
 41
0.0
 71
     1
 72
     1
  1
CHECKED
  7
SLDTEXTSTYLE0
  0
MTEXT
  5
A5
330
1F
100
AcDbEntity
  8
0
  6
CONTINUOUS
 62
     7
100
AcDbMText
 10
6.2242794356
 20
2.1016301232
 30
0.0
 40
0.065
 41
0.0
 71
     1
 72
     1
  1
DRAWN
  7
SLDTEXTSTYLE0
  0
MTEXT
  5
A6
330
1F
100
AcDbEntity
  8
0
  6
CONTINUOUS
 62
     7
100
AcDbMText
 10
4.8208600979
 20
0.834523235
 30
0.0
 40
0.06
 41
0.0
 71
     1
 72
     1
  1
FINISH
  7
SLDTEXTSTYLE0
  0
MTEXT
  5
A7
330
1F
100
AcDbEntity
  8
0
  6
CONTINUOUS
 62
     7
100
AcDbMText
 10
4.8181240648
 20
1.1028217587
 30
0.0
 40
0.06
 41
0.0
 71
     1
 72
     1
  1
MATERIAL
  7
SLDTEXTSTYLE0
  0
INSERT
  5
AD
330
1F
100
AcDbEntity
  8
0
  6
CONTINUOUS
 62
     7
100
AcDbBlockReference
  2
SW_NOTE_0
 10
4.8231926633
 20
1.2646542947
 30
0.0
  0
INSERT
  5
BD
330
1F
100
AcDbEntity
  8
0
  6
CONTINUOUS
 62
     7
100
AcDbBlockReference
  2
SW_NOTE_1
 10
4.8353339353
 20
2.0049168724
 30
0.0
  0
MTEXT
  5
BE
330
1F
100
AcDbEntity
  8
0
  6
CONTINUOUS
 62
     7
100
AcDbMText
 10
3.5531400086
 20
0.5200091997
 30
0.0
 40
0.0625
 41
0.0
 71
     1
 72
     1
  1
APPLICATION
  7
SLDTEXTSTYLE0
  0
MTEXT
  5
BF
330
1F
100
AcDbEntity
  8
0
  6
CONTINUOUS
 62
     7
100
AcDbMText
 10
4.1005607758
 20
0.7502454275
 30
0.0
 40
0.0625
 41
0.0
 71
     1
 72
     1
  1
USED ON
  7
SLDTEXTSTYLE0
  0
MTEXT
  5
C0
330
1F
100
AcDbEntity
  8
0
  6
CONTINUOUS
 62
     7
100
AcDbMText
 10
3.1040019536
 20
0.7492094783
 30
0.0
 40
0.0625
 41
0.0
 71
     1
 72
     1
  1
NEXT ASSY
  7
SLDTEXTSTYLE0
  0
MTEXT
  5
C1
330
1F
100
AcDbEntity
  8
0
  6
CONTINUOUS
 62
     7
100
AcDbMText
 10
1.3712489489
 20
1.2496672684
 30
0.0
 40
0.06
 41
0.0
 71
     1
 72
     1
  1
PROPRIETARY AND CONFIDENTIAL
  7
SLDTEXTSTYLE0
  0
INSERT
  5
CC
330
1F
100
AcDbEntity
  8
0
  6
CONTINUOUS
 62
     7
100
AcDbBlockReference
  2
SW_NOTE_2
 10
1.2226209074
 20
1.0313492921
 30
0.0
  0
MTEXT
  5
CD
330
1F
100
AcDbEntity
  8
0
  6
CONTINUOUS
 62
     7
100
AcDbMText
 10
1.7387909509
 20
0.3105864247
 30
0.0
 40
0.09375
 41
0.0
 71
     1
 72
     1
  1
5
  7
SLDTEXTSTYLE0
  0
MTEXT
  5
CE
330
1F
100
AcDbEntity
  8
0
  6
CONTINUOUS
 62
     7
100
AcDbMText
 10
3.723800327
 20
0.3137237518
 30
0.0
 40
0.09375
 41
0.0
 71
     1
 72
     1
  1
4
  7
SLDTEXTSTYLE0
  0
MTEXT
  5
CF
330
1F
100
AcDbEntity
  8
0
  6
CONTINUOUS
 62
     7
100
AcDbMText
 10
5.6324457277
 20
0.3116191842
 30
0.0
 40
0.09375
 41
0.0
 71
     1
 72
     1
  1
3
  7
SLDTEXTSTYLE0
  0
MTEXT
  5
D0
330
1F
100
AcDbEntity
  8
0
  6
CONTINUOUS
 62
     7
100
AcDbMText
 10
7.6059721724
 20
0.3124391351
 30
0.0
 40
0.09375
 41
0.0
 71
     1
 72
     1
  1
2
  7
SLDTEXTSTYLE0
  0
MTEXT
  5
D1
330
1F
100
AcDbEntity
  8
0
  6
CONTINUOUS
 62
     7
100
AcDbMText
 10
9.6619921328
 20
0.301372012
 30
0.0
 40
0.09375
 41
0.0
 71
     1
 72
     1
  1
1
  7
SLDTEXTSTYLE0
  0
LINE
  5
D2
330
1F
100
AcDbEntity
  8
0
  6
CONTINUOUS
 62
     7
100
AcDbLine
 10
3.635126917
 20
2.990961751
 30
0.0
 11
3.9828959459
 21
2.990961751
 31
0.0
  0
LINE
  5
D3
330
1F
100
AcDbEntity
  8
0
  6
CONTINUOUS
 62
     7
100
AcDbLine
 10
3.4073447648
 20
2.990961751
 30
0.0
 11
3.5826334787
 21
2.990961751
 31
0.0
  0
LINE
  5
D4
330
1F
100
AcDbEntity
  8
0
  6
CONTINUOUS
 62
     7
100
AcDbLine
 10
3.5826334787
 20
4.5263948218
 30
0.0
 11
3.4073447648
 21
4.5263948218
 31
0.0
  0
LINE
  5
D5
330
1F
100
AcDbEntity
  8
0
  6
CONTINUOUS
 62
     7
100
AcDbLine
 10
3.9828959459
 20
4.5263948218
 30
0.0
 11
3.635126917
 21
4.5263948218
 31
0.0
  0
LINE
  5
D6
330
1F
100
AcDbEntity
  8
0
  6
CONTINUOUS
 62
     7
100
AcDbLine
 10
3.9828959459
 20
2.990961751
 30
0.0
 11
3.9978959459
 21
3.005961751
 31
0.0
  0
LINE
  5
D7
330
1F
100
AcDbEntity
  8
0
  6
CONTINUOUS
 62
     7
100
AcDbLine
 10
3.9978959459
 20
4.5113948218
 30
0.0
 11
3.9828959459
 21
4.5263948218
 31
0.0
  0
ARC
  5
D8
330
1F
100
AcDbEntity
  8
0
  6
CONTINUOUS
 62
     7
100
AcDbCircle
 10
3.7073053947
 20
4.2901743494
 30
0.0
 40
0.0196850393700794
100
AcDbArc
 50
90.0
 51
113.4151882725
  0
ARC
  5
D9
330
1F
100
AcDbEntity
  8
0
  6
CONTINUOUS
 62
     7
100
AcDbCircle
 10
3.9435258672
 20
4.2901743494
 30
0.0
 40
0.0196850393700788
100
AcDbArc
 50
66.0870390356
 51
90.0
  0
LINE
  5
DA
330
1F
100
AcDbEntity
  8
0
  6
CONTINUOUS
 62
     7
100
AcDbLine
 10
3.7466754735
 20
3.7783633258
 30
0.0
 11
3.7466754735
 21
3.738993247
 31
0.0
  0
LINE
  5
DB
330
1F
100
AcDbEntity
  8
0
  6
CONTINUOUS
 62
     7
100
AcDbLine
 10
3.9041557884
 20
3.738993247
 30
0.0
 11
3.9041557884
 21
3.7783633258
 31
0.0
  0
LINE
  5
DC
330
1F
100
AcDbEntity
  8
0
  6
CONTINUOUS
 62
     7
100
AcDbLine
 10
2.6553762609
 20
3.005961751
 30
0.0
 11
2.6703762609
 21
2.990961751
 31
0.0
  0
LINE
  5
DD
330
1F
100
AcDbEntity
  8
0
  6
CONTINUOUS
 62
     7
100
AcDbLine
 10
3.245927442
 20
4.5263948218
 30
0.0
 11
3.0706387281
 21
4.5263948218
 31
0.0
  0
LINE
  5
DE
330
1F
100
AcDbEntity
  8
0
  6
CONTINUOUS
 62
     7
100
AcDbLine
 10
2.6703762609
 20
2.990961751
 30
0.0
 11
3.245927442
 21
2.990961751
 31
0.0
  0
LINE
  5
DF
330
1F
100
AcDbEntity
  8
0
  6
CONTINUOUS
 62
     7
100
AcDbLine
 10
3.245927442
 20
3.6208830108
 30
0.0
 11
3.306951064
 21
3.6208830108
 31
0.0
  0
LINE
  5
E0
330
1F
100
AcDbEntity
  8
0
  6
CONTINUOUS
 62
     7
100
AcDbLine
 10
3.306951064
 20
3.896473562
 30
0.0
 11
3.245927442
 21
3.896473562
 31
0.0
  0
LINE
  5
E1
330
1F
100
AcDbEntity
  8
0
  6
CONTINUOUS
 62
     7
100
AcDbLine
 10
3.3463211428
 20
3.6208830108
 30
0.0
 11
3.4073447648
 21
3.6208830108
 31
0.0
  0
LINE
  5
E2
330
1F
100
AcDbEntity
  8
0
  6
CONTINUOUS
 62
     7
100
AcDbLine
 10
3.4073447648
 20
3.896473562
 30
0.0
 11
3.3463211428
 21
3.896473562
 31
0.0
  0
LINE
  5
E3
330
1F
100
AcDbEntity
  8
0
  6
CONTINUOUS
 62
     7
100
AcDbLine
 10
3.245927442
 20
4.1819066328
 30
0.0
 11
3.306951064
 21
4.1819066328
 31
0.0
  0
LINE
  5
E4
330
1F
100
AcDbEntity
  8
0
  6
CONTINUOUS
 62
     7
100
AcDbLine
 10
3.306951064
 20
4.457497184
 30
0.0
 11
3.245927442
 21
4.457497184
 31
0.0
  0
LINE
  5
E5
330
1F
100
AcDbEntity
  8
0
  6
CONTINUOUS
 62
     7
100
AcDbLine
 10
3.3463211428
 20
4.1819066328
 30
0.0
 11
3.4073447648
 21
4.1819066328
 31
0.0
  0
LINE
  5
E6
330
1F
100
AcDbEntity
  8
0
  6
CONTINUOUS
 62
     7
100
AcDbLine
 10
3.4073447648
 20
4.457497184
 30
0.0
 11
3.3463211428
 21
4.457497184
 31
0.0
  0
LINE
  5
E7
330
1F
100
AcDbEntity
  8
0
  6
CONTINUOUS
 62
     7
100
AcDbLine
 10
3.245927442
 20
3.0598593888
 30
0.0
 11
3.306951064
 21
3.0598593888
 31
0.0
  0
LINE
  5
E8
330
1F
100
AcDbEntity
  8
0
  6
CONTINUOUS
 62
     7
100
AcDbLine
 10
3.306951064
 20
3.3354499399
 30
0.0
 11
3.245927442
 21
3.3354499399
 31
0.0
  0
LINE
  5
E9
330
1F
100
AcDbEntity
  8
0
  6
CONTINUOUS
 62
     7
100
AcDbLine
 10
3.3463211428
 20
3.0598593888
 30
0.0
 11
3.4073447648
 21
3.0598593888
 31
0.0
  0
LINE
  5
EA
330
1F
100
AcDbEntity
  8
0
  6
CONTINUOUS
 62
     7
100
AcDbLine
 10
3.4073447648
 20
3.3354499399
 30
0.0
 11
3.3463211428
 21
3.3354499399
 31
0.0
  0
LINE
  5
EB
330
1F
100
AcDbEntity
  8
0
  6
CONTINUOUS
 62
     7
100
AcDbLine
 10
3.3463211428
 20
4.4919460029
 30
0.0
 11
3.306951064
 21
4.4919460029
 31
0.0
  0
LINE
  5
EC
330
1F
100
AcDbEntity
  8
0
  6
CONTINUOUS
 62
     7
100
AcDbLine
 10
3.306951064
 20
3.0254105699
 30
0.0
 11
3.3463211428
 21
3.0254105699
 31
0.0
  0
LINE
  5
ED
330
1F
100
AcDbEntity
  8
0
  6
CONTINUOUS
 62
     7
100
AcDbLine
 10
3.4073447648
 20
4.5263948218
 30
0.0
 11
3.4073447648
 21
2.990961751
 31
0.0
  0
SPLINE
  5
EE
330
1F
100
AcDbEntity
  8
0
  6
CONTINUOUS
 62
     7
100
AcDbSpline
210
0.0
220
0.0
230
1.0
 70
     8
 71
     3
 72
    76
 73
    72
 74
     0
 42
0.00000001
 43
0.00000001
 40
-0.0312499999999999
 40
-0.0312499999999999
 40
0.0
 40
0.0
 40
0.03125
 40
0.03125
 40
0.0625
 40
0.0625
 40
0.09375
 40
0.09375
 40
0.125
 40
0.125
 40
0.15625
 40
0.15625
 40
0.1875000000000001
 40
0.1875000000000001
 40
0.2187500000000001
 40
0.2187500000000001
 40
0.2500000000000001
 40
0.2500000000000001
 40
0.2812500000000001
 40
0.2812500000000001
 40
0.3125000000000001
 40
0.3125000000000001
 40
0.3437500000000001
 40
0.3437500000000001
 40
0.3750000000000001
 40
0.3750000000000001
 40
0.4062500000000001
 40
0.4062500000000001
 40
0.4375000000000001
 40
0.4375000000000001
 40
0.4531250000000001
 40
0.4531250000000001
 40
0.46875
 40
0.46875
 40
0.4843749999999999
 40
0.4843749999999999
 40
0.4999999999999999
 40
0.4999999999999999
 40
0.5156249999999999
 40
0.5156249999999999
 40
0.5312499999999999
 40
0.5312499999999999
 40
0.5625
 40
0.5625
 40
0.5937500000000001
 40
0.5937500000000001
 40
0.6250000000000002
 40
0.6250000000000002
 40
0.6562500000000003
 40
0.6562500000000003
 40
0.6875000000000003
 40
0.6875000000000003
 40
0.7187500000000003
 40
0.7187500000000003
 40
0.7500000000000004
 40
0.7500000000000004
 40
0.7812500000000004
 40
0.7812500000000004
 40
0.8125000000000003
 40
0.8125000000000003
 40
0.8437500000000002
 40
0.8437500000000002
 40
0.8750000000000001
 40
0.8750000000000001
 40
0.9062500000000001
 40
0.9062500000000001
 40
0.9375000000000001
 40
0.9375000000000001
 40
0.9687500000000001
 40
0.9687500000000001
 40
1.0
 40
1.0
 40
1.03125
 40
1.03125
 10
3.836023226267238
 20
4.445076895976092
 30
0.0
 10
3.814808035619976
 20
4.445076895976092
 30
0.0
 10
3.804434533309397
 20
4.444475116883734
 30
0.0
 10
3.784134691269585
 20
4.442085883847269
 30
0.0
 10
3.774211728128383
 20
4.44027353520806
 30
0.0
 10
3.755886082680789
 20
4.435569118985287
 30
0.0
 10
3.747240323150864
 20
4.432616898726628
 30
0.0
 10
3.731724590061855
 20
4.4257134400016
 30
0.0
 10
3.724842467989448
 20
4.421782797646289
 30
0.0
 10
3.712701401410985
 20
4.412898092296285
 30
0.0
 10
3.707588061250489
 20
4.408040807703639
 30
0.0
 10
3.699152790793003
 20
4.397605703780775
 30
0.0
 10
3.695795389788741
 20
4.391958879271733
 30
0.0
 10
3.690845978912155
 20
4.380204373604499
 30
0.0
 10
3.689222974205884
 20
4.374080298089676
 30
0.0
 10
3.687495575084986
 20
4.36133035468652
 30
0.0
 10
3.687405468322849
 20
4.354705278290423
 30
0.0
 10
3.688613759622016
 20
4.34131309811939
 30
0.0
 10
3.689904128950332
 20
4.334500781320422
 30
0.0
 10
3.693776353075069
 20
4.320650671682425
 30
0.0
 10
3.696373341504616
 20
4.313597477552937
 30
0.0
 10
3.702709023010796
 20
4.299637728247434
 30
0.0
 10
3.706456026530759
 20
4.292687335242452
 30
0.0
 10
3.715148909087061
 20
4.278895461573501
 30
0.0
 10
3.720118224394114
 20
4.272021971489877
 30
0.0
 10
3.73134949790236
 20
4.258624688292816
 30
0.0
 10
3.737539537840768
 20
4.252174235713772
 30
0.0
 10
3.751321477746937
 20
4.239990708778127
 30
0.0
 10
3.759005457879256
 20
4.234197645737869
 30
0.0
 10
3.771559645772038
 20
4.226680362298154
 30
0.0
 10
3.775918025560063
 20
4.224365824393223
 30
0.0
 10
3.785048439085295
 20
4.220208873409097
 30
0.0
 10
3.789863633468962
 20
4.218355406044037
 30
0.0
 10
3.799706955251535
 20
4.215338048456592
 30
0.0
 10
3.804745877783756
 20
4.21416306302847
 30
0.0
 10
3.815086360735574
 20
4.212570580784688
 30
0.0
 10
3.820428584678818
 20
4.212161285455054
 30
0.0
 10
3.830932098669247
 20
4.212188847468423
 30
0.0
 10
3.836143127596019
 20
4.212612069018658
 30
0.0
 10
3.84648647226979
 20
4.214246267700305
 30
0.0
 10
3.85161792947603
 20
4.215466459844598
 30
0.0
 10
3.86634297633233
 20
4.220052497597164
 30
0.0
 10
3.875572542945503
 20
4.224424636542711
 30
0.0
 10
3.892227488485203
 20
4.234481168807664
 30
0.0
 10
3.899765090685037
 20
4.240187349745269
 30
0.0
 10
3.913647042066902
 20
4.252518705681184
 30
0.0
 10
3.919798213491263
 20
4.258975851250051
 30
0.0
 10
3.93087746510319
 20
4.272245591514137
 30
0.0
 10
3.935800542336591
 20
4.279061914138616
 30
0.0
 10
3.944529270084102
 20
4.292953452223172
 30
0.0
 10
3.948305509166396
 20
4.299998013250812
 30
0.0
 10
3.954595488553543
 20
4.313946384035814
 30
0.0
 10
3.957135369761645
 20
4.320891926126053
 30
0.0
 10
3.960970486409095
 20
4.334703905760795
 30
0.0
 10
3.962264276980278
 20
4.341612303940218
 30
0.0
 10
3.963431870584225
 20
4.355001829159732
 30
0.0
 10
3.963322080116276
 20
4.36151224579024
 30
0.0
 10
3.961585290145134
 20
4.374166837140046
 30
0.0
 10
3.959937318100685
 20
4.380360344894497
 30
0.0
 10
3.95494532225959
 20
4.392130683749762
 30
0.0
 10
3.951634330697583
 20
4.397670201730722
 30
0.0
 10
3.943201497852381
 20
4.408082403343341
 30
0.0
 10
3.937998748200928
 20
4.413002991700447
 30
0.0
 10
3.925971268843558
 20
4.421786558089994
 30
0.0
 10
3.919144621261746
 20
4.425690837610539
 30
0.0
 10
3.90370451819678
 20
4.432572025121847
 30
0.0
 10
3.895016658613134
 20
4.435545751826337
 30
0.0
 10
3.876739244023943
 20
4.440247769452004
 30
0.0
 10
3.866994104028066
 20
4.442042808196478
 30
0.0
 10
3.84648016089171
 20
4.444473205752215
 30
0.0
 10
3.836023226267238
 20
4.445076895976092
 30
0.0
 10
3.814808035619976
 20
4.445076895976092
 30
0.0
  0
SPLINE
  5
EF
330
1F
100
AcDbEntity
  8
0
  6
CONTINUOUS
 62
     7
100
AcDbSpline
210
0.0
220
0.0
230
1.0
 70
     8
 71
     3
 72
    62
 73
    58
 74
     0
 42
0.00000001
 43
0.00000001
 40
-0.0312499999999998
 40
-0.0312499999999998
 40
0.0
 40
0.0
 40
0.03125
 40
0.03125
 40
0.0625000000000001
 40
0.0625000000000001
 40
0.0937500000000001
 40
0.0937500000000001
 40
0.1250000000000001
 40
0.1250000000000001
 40
0.1874999999999999
 40
0.1874999999999999
 40
0.2187499999999999
 40
0.2187499999999999
 40
0.2499999999999999
 40
0.2499999999999999
 40
0.2812499999999998
 40
0.2812499999999998
 40
0.3124999999999998
 40
0.3124999999999998
 40
0.34375
 40
0.34375
 40
0.3750000000000002
 40
0.3750000000000002
 40
0.4375000000000007
 40
0.4375000000000007
 40
0.4687500000000008
 40
0.4687500000000008
 40
0.5000000000000009
 40
0.5000000000000009
 40
0.531250000000001
 40
0.531250000000001
 40
0.5625000000000012
 40
0.5625000000000012
 40
0.5937500000000013
 40
0.5937500000000013
 40
0.6250000000000014
 40
0.6250000000000014
 40
0.6562500000000016
 40
0.6562500000000016
 40
0.6875000000000018
 40
0.6875000000000018
 40
0.7500000000000014
 40
0.7500000000000014
 40
0.7812500000000013
 40
0.7812500000000013
 40
0.8125000000000012
 40
0.8125000000000012
 40
0.8750000000000008
 40
0.8750000000000008
 40
0.9062500000000006
 40
0.9062500000000006
 40
0.9375000000000003
 40
0.9375000000000003
 40
0.9687500000000002
 40
0.9687500000000002
 40
1.0
 40
1.0
 40
1.03125
 40
1.03125
 10
3.819403274485871
 20
3.233953619029155
 30
0.0
 10
3.831427987401344
 20
3.233953619029156
 30
0.0
 10
3.837248626134711
 20
3.233226298762914
 30
0.0
 10
3.848550523040029
 20
3.230498012475352
 30
0.0
 10
3.85390972064919
 20
3.228511848478898
 30
0.0
 10
3.863756213105237
 20
3.223719980140405
 30
0.0
 10
3.868303620458887
 20
3.220886039146863
 30
0.0
 10
3.876433073563471
 20
3.214802300519562
 30
0.0
 10
3.880077357521893
 20
3.211521115725848
 30
0.0
 10
3.889932224599062
 20
3.201114009591179
 30
0.0
 10
3.894806016142678
 20
3.193757499650542
 30
0.0
 10
3.900000114733626
 20
3.182438781502836
 30
0.0
 10
3.901367009681748
 20
3.178600235144466
 30
0.0
 10
3.903305758848931
 20
3.17103434287413
 30
0.0
 10
3.903891990911345
 20
3.167280207590003
 30
0.0
 10
3.904278759904512
 20
3.159832092810338
 30
0.0
 10
3.904073442848993
 20
3.156108791372828
 30
0.0
 10
3.902811658977283
 20
3.148873071980597
 30
0.0
 10
3.901766077751122
 20
3.145377800022948
 30
0.0
 10
3.898800351258656
 20
3.138627262962837
 30
0.0
 10
3.896881500746451
 20
3.135371860778514
 30
0.0
 10
3.89203454201208
 20
3.129109274357647
 30
0.0
 10
3.889104839460966
 20
3.12612122831711
 30
0.0
 10
3.878989120390086
 20
3.117941810051228
 30
0.0
 10
3.870184840205168
 20
3.11334836736126
 30
0.0
 10
3.854867390110917
 20
3.108607702887334
 30
0.0
 10
3.849278265722702
 20
3.10734750525339
 30
0.0
 10
3.837872271906369
 20
3.105668484137276
 30
0.0
 10
3.832017969405522
 20
3.105223680192847
 30
0.0
 10
3.819997598695702
 20
3.105167941191367
 30
0.0
 10
3.814116973443362
 20
3.105558092019901
 30
0.0
 10
3.802601819590959
 20
3.107143568952293
 30
0.0
 10
3.797001213146576
 20
3.108349152550903
 30
0.0
 10
3.786638391269544
 20
3.11144203907667
 30
0.0
 10
3.781751541689915
 20
3.113367396622893
 30
0.0
 10
3.773000468348838
 20
3.117760537892572
 30
0.0
 10
3.76907873006864
 20
3.12024374162413
 30
0.0
 10
3.762152763852773
 20
3.125718453766261
 30
0.0
 10
3.759217956534809
 20
3.128650201515354
 30
0.0
 10
3.754268123096944
 20
3.134887267664801
 30
0.0
 10
3.752252451928979
 20
3.1382127728303
 30
0.0
 10
3.747642536170517
 20
3.148450529984344
 30
0.0
 10
3.746382736802178
 20
3.155807120063584
 30
0.0
 10
3.746907358535517
 20
3.167023332538696
 30
0.0
 10
3.74747927749727
 20
3.170794780350559
 30
0.0
 10
3.749398815466228
 20
3.178400720348352
 30
0.0
 10
3.750758799440769
 20
3.182252845449204
 30
0.0
 10
3.755917875449996
 20
3.193578066444677
 30
0.0
 10
3.760770743094859
 20
3.200948563442835
 30
0.0
 10
3.770628359666587
 20
3.211403089398106
 30
0.0
 10
3.774277390465337
 20
3.214701557001562
 30
0.0
 10
3.782427941355221
 20
3.220821495405306
 30
0.0
 10
3.786991023264915
 20
3.223672063419054
 30
0.0
 10
3.796838292985125
 20
3.228478241879932
 30
0.0
 10
3.802197881294335
 20
3.230473006502431
 30
0.0
 10
3.813542920506496
 20
3.233221661800631
 30
0.0
 10
3.819403274485871
 20
3.233953619029155
 30
0.0
 10
3.831427987401344
 20
3.233953619029156
 30
0.0
  0
LINE
  5
F0
330
1F
100
AcDbEntity
  8
0
  6
CONTINUOUS
 62
     7
100
AcDbLine
 10
3.635126917
 20
3.738993247
 30
0.0
 11
3.635126917
 21
2.990961751
 31
0.0
  0
LINE
  5
F1
330
1F
100
AcDbEntity
  8
0
  6
CONTINUOUS
 62
     7
100
AcDbLine
 10
3.9828959459
 20
3.738993247
 30
0.0
 11
3.635126917
 21
3.738993247
 31
0.0
  0
LINE
  5
F2
330
1F
100
AcDbEntity
  8
0
  6
CONTINUOUS
 62
     7
100
AcDbLine
 10
3.9828959459
 20
3.7783633258
 30
0.0
 11
3.9828959459
 21
4.5263948218
 31
0.0
  0
LINE
  5
F3
330
1F
100
AcDbEntity
  8
0
  6
CONTINUOUS
 62
     7
100
AcDbLine
 10
3.9828959459
 20
2.990961751
 30
0.0
 11
3.9828959459
 21
3.738993247
 31
0.0
  0
LINE
  5
F4
330
1F
100
AcDbEntity
  8
0
  6
CONTINUOUS
 62
     7
100
AcDbLine
 10
3.9828959459
 20
3.7783633258
 30
0.0
 11
3.635126917
 21
3.7783633258
 31
0.0
  0
LINE
  5
F5
330
1F
100
AcDbEntity
  8
0
  6
CONTINUOUS
 62
     7
100
AcDbLine
 10
3.635126917
 20
4.5263948218
 30
0.0
 11
3.635126917
 21
3.7783633258
 31
0.0
  0
LINE
  5
F6
330
1F
100
AcDbEntity
  8
0
  6
CONTINUOUS
 62
     7
100
AcDbLine
 10
3.5826334787
 20
4.4472151259
 30
0.0
 11
3.635126917
 21
4.4472151259
 31
0.0
  0
LINE
  5
F7
330
1F
100
AcDbEntity
  8
0
  6
CONTINUOUS
 62
     7
100
AcDbLine
 10
3.5826334787
 20
2.990961751
 30
0.0
 11
3.5826334787
 21
4.5263948218
 31
0.0
  0
LINE
  5
F8
330
1F
100
AcDbEntity
  8
0
  6
CONTINUOUS
 62
     7
100
AcDbLine
 10
3.635126917
 20
3.0701414468
 30
0.0
 11
3.5826334787
 21
3.0701414468
 31
0.0
  0
LINE
  5
F9
330
1F
100
AcDbEntity
  8
0
  6
CONTINUOUS
 62
     7
100
AcDbLine
 10
3.9978959459
 20
3.738993247
 30
0.0
 11
3.9978959459
 21
3.005961751
 31
0.0
  0
LINE
  5
FA
330
1F
100
AcDbEntity
  8
0
  6
CONTINUOUS
 62
     7
100
AcDbLine
 10
3.9978959459
 20
4.5113948218
 30
0.0
 11
3.9978959459
 21
3.7783633258
 31
0.0
  0
LINE
  5
FB
330
1F
100
AcDbEntity
  8
0
  6
CONTINUOUS
 62
     7
100
AcDbLine
 10
3.9828959459
 20
3.7783633258
 30
0.0
 11
3.9978959459
 21
3.7783633258
 31
0.0
  0
LINE
  5
FC
330
1F
100
AcDbEntity
  8
0
  6
CONTINUOUS
 62
     7
100
AcDbLine
 10
3.9828959459
 20
3.738993247
 30
0.0
 11
3.9978959459
 21
3.738993247
 31
0.0
  0
SPLINE
  5
FD
330
1F
100
AcDbEntity
  8
0
  6
CONTINUOUS
 62
     7
100
AcDbSpline
210
0.0
220
0.0
230
1.0
 70
     8
 71
     3
 72
     8
 73
     4
 74
     0
 42
0.00000001
 43
0.00000001
 40
0.0
 40
0.0
 40
0.0
 40
0.0
 40
1.0
 40
1.0
 40
1.0
 40
1.0
 10
3.692252199964967
 20
3.778363325762126
 30
0.0
 10
3.69309543466608
 20
3.765239966182073
 30
0.0
 10
3.69309543466608
 20
3.752116606602021
 30
0.0
 10
3.692252199964968
 20
3.738993247021968
 30
0.0
  0
LINE
  5
FE
330
1F
100
AcDbEntity
  8
0
  6
CONTINUOUS
 62
     7
100
AcDbLine
 10
3.635126917
 20
3.7783633258
 30
0.0
 11
3.635126917
 21
3.738993247
 31
0.0
  0
LINE
  5
FF
330
1F
100
AcDbEntity
  8
0
  6
CONTINUOUS
 62
     7
100
AcDbLine
 10
3.9978959459
 20
3.7783633258
 30
0.0
 11
3.9978959459
 21
3.738993247
 31
0.0
  0
LINE
  5
100
330
1F
100
AcDbEntity
  8
0
  6
CONTINUOUS
 62
     7
100
AcDbLine
 10
3.8254156309
 20
4.3098593888
 30
0.0
 11
3.9435258672
 21
4.3098593888
 31
0.0
  0
LINE
  5
101
330
1F
100
AcDbEntity
  8
0
  6
CONTINUOUS
 62
     7
100
AcDbLine
 10
3.7073053947
 20
4.3098593888
 30
0.0
 11
3.8254156309
 21
4.3098593888
 31
0.0
  0
CIRCLE
  5
102
330
1F
100
AcDbEntity
  8
0
  6
CONTINUOUS
 62
     7
100
AcDbCircle
 10
2.8278565758
 20
4.2403421816
 30
0.0
 40
0.0590551181102352
  0
LINE
  5
103
330
1F
100
AcDbEntity
  8
0
  6
CONTINUOUS
 62
     7
100
AcDbLine
 10
2.6703762609
 20
2.990961751
 30
0.0
 11
2.6703762609
 21
4.526142408
 31
0.0
  0
LINE
  5
104
330
1F
100
AcDbEntity
  8
0
  6
CONTINUOUS
 62
     7
100
AcDbLine
 10
2.6553762609
 20
4.5111373763
 30
0.0
 11
2.6553762609
 21
3.005961751
 31
0.0
  0
LINE
  5
105
330
1F
100
AcDbEntity
  8
0
  6
CONTINUOUS
 62
     7
100
AcDbLine
 10
2.6703762609
 20
4.526142408
 30
0.0
 11
2.6553762609
 21
4.5111373763
 31
0.0
  0
LINE
  5
106
330
1F
100
AcDbEntity
  8
0
  6
CONTINUOUS
 62
     7
100
AcDbLine
 10
3.245927442
 20
4.5263948218
 30
0.0
 11
3.245927442
 21
2.990961751
 31
0.0
  0
SPLINE
  5
107
330
1F
100
AcDbEntity
  8
0
  6
CONTINUOUS
 62
     7
100
AcDbSpline
210
0.0
220
0.0
230
1.0
 70
     8
 71
     3
 72
    62
 73
    58
 74
     0
 42
0.00000001
 43
0.00000001
 40
-0.0312500000000001
 40
-0.0312500000000001
 40
0.0
 40
0.0
 40
0.0312499999999998
 40
0.0312499999999998
 40
0.0624999999999996
 40
0.0624999999999996
 40
0.0937499999999993
 40
0.0937499999999993
 40
0.1249999999999991
 40
0.1249999999999991
 40
0.1874999999999987
 40
0.1874999999999987
 40
0.2187499999999985
 40
0.2187499999999985
 40
0.2499999999999983
 40
0.2499999999999983
 40
0.2812499999999982
 40
0.2812499999999982
 40
0.312499999999998
 40
0.312499999999998
 40
0.3437499999999977
 40
0.3437499999999977
 40
0.3749999999999973
 40
0.3749999999999973
 40
0.4374999999999971
 40
0.4374999999999971
 40
0.4687499999999972
 40
0.4687499999999972
 40
0.4999999999999973
 40
0.4999999999999973
 40
0.5312499999999974
 40
0.5312499999999974
 40
0.5624999999999976
 40
0.5624999999999976
 40
0.5937499999999977
 40
0.5937499999999977
 40
0.6249999999999978
 40
0.6249999999999978
 40
0.6562499999999979
 40
0.6562499999999979
 40
0.687499999999998
 40
0.687499999999998
 40
0.7499999999999986
 40
0.7499999999999986
 40
0.7812499999999989
 40
0.7812499999999989
 40
0.8124999999999992
 40
0.8124999999999992
 40
0.8749999999999996
 40
0.8749999999999996
 40
0.9062499999999997
 40
0.9062499999999997
 40
0.9374999999999998
 40
0.9374999999999998
 40
0.9687499999999999
 40
0.9687499999999999
 40
1.0
 40
1.0
 40
1.03125
 40
1.03125
 10
2.833868932283235
 20
4.319082339052502
 30
0.0
 10
2.821844219367761
 20
4.319082339052502
 30
0.0
 10
2.816023580634395
 20
4.318403580142443
 30
0.0
 10
2.804721683729077
 20
4.315829786446259
 30
0.0
 10
2.799362486119914
 20
4.31394695304511
 30
0.0
 10
2.789515993663869
 20
4.309331856823187
 30
0.0
 10
2.784968586310218
 20
4.30657111061407
 30
0.0
 10
2.776839133205633
 20
4.300532473440779
 30
0.0
 10
2.773194849247212
 20
4.297224934482668
 30
0.0
 10
2.763339982170042
 20
4.286513381121243
 30
0.0
 10
2.758466190626427
 20
4.278660434047234
 30
0.0
 10
2.753272092035479
 20
4.26599354772492
 30
0.0
 10
2.751905197087357
 20
4.261601815156497
 30
0.0
 10
2.749966447920174
 20
4.252740243003551
 30
0.0
 10
2.74938021585776
 20
4.248241093243053
 30
0.0
 10
2.748993446864593
 20
4.239101709941817
 30
0.0
 10
2.749198763920112
 20
4.234423432347207
 30
0.0
 10
2.750460547791822
 20
4.2251126769597
 30
0.0
 10
2.751506129017983
 20
4.220504340255219
 30
0.0
 10
2.754471855510449
 20
4.211400628398482
 30
0.0
 10
2.756390706022654
 20
4.206904923990074
 30
0.0
 10
2.761237664757025
 20
4.198065220596492
 30
0.0
 10
2.764167367308139
 20
4.193745898843097
 30
0.0
 10
2.774283086379019
 20
4.181691014393677
 30
0.0
 10
2.783087366563937
 20
4.174578322653278
 30
0.0
 10
2.798404816658188
 20
4.167096738086451
 30
0.0
 10
2.803993941046402
 20
4.165076396878585
 30
0.0
 10
2.815399934862736
 20
4.162372983935755
 30
0.0
 10
2.821254237363583
 20
4.161649450663328
 30
0.0
 10
2.833274608073403
 20
4.16155905077872
 30
0.0
 10
2.839155233325743
 20
4.162194024538533
 30
0.0
 10
2.850670387178146
 20
4.164749032936677
 30
0.0
 10
2.856270993622529
 20
4.166684491044428
 30
0.0
 10
2.866633815499561
 20
4.171573291833529
 30
0.0
 10
2.871520665079189
 20
4.174585380678917
 30
0.0
 10
2.880271738420267
 20
4.181323876918161
 30
0.0
 10
2.884193476700465
 20
4.185074636337739
 30
0.0
 10
2.891119442916331
 20
4.193160006930855
 30
0.0
 10
2.894054250234296
 20
4.197406539564196
 30
0.0
 10
2.899004083672161
 20
4.206230107771542
 30
0.0
 10
2.901019754840125
 20
4.210833264565945
 30
0.0
 10
2.905629670598588
 20
4.224663651189125
 30
0.0
 10
2.906889469966928
 20
4.234152080832104
 30
0.0
 10
2.906364848233589
 20
4.247930948889835
 30
0.0
 10
2.905792929271835
 20
4.252455564484202
 30
0.0
 10
2.903873391302877
 20
4.26137199371504
 30
0.0
 10
2.902513407328336
 20
4.265782333996874
 30
0.0
 10
2.897354331319109
 20
4.278465667286159
 30
0.0
 10
2.892501463674247
 20
4.286339468513388
 30
0.0
 10
2.882643847102518
 20
4.297105216980531
 30
0.0
 10
2.878994816303768
 20
4.300431542741753
 30
0.0
 10
2.870844265413885
 20
4.306507954512828
 30
0.0
 10
2.86628118350419
 20
4.309285363358148
 30
0.0
 10
2.85643391378398
 20
4.31391492479439
 30
0.0
 10
2.85107432547477
 20
4.315806127155413
 30
0.0
 10
2.839729286262609
 20
4.318399274322563
 30
0.0
 10
2.833868932283235
 20
4.319082339052502
 30
0.0
 10
2.821844219367761
 20
4.319082339052502
 30
0.0
  0
LINE
  5
108
330
1F
100
AcDbEntity
  8
0
  6
CONTINUOUS
 62
     7
100
AcDbLine
 10
2.6703762609
 20
4.526142408
 30
0.0
 11
3.0181452897
 21
4.526142408
 31
0.0
  0
LINE
  5
109
330
1F
100
AcDbEntity
  8
0
  6
CONTINUOUS
 62
     7
100
AcDbLine
 10
3.0181452897
 20
3.4191113573
 30
0.0
 11
3.0706387281
 21
3.4191113573
 31
0.0
  0
LINE
  5
10A
330
1F
100
AcDbEntity
  8
0
  6
CONTINUOUS
 62
     7
100
AcDbLine
 10
3.0181452897
 20
4.526142408
 30
0.0
 11
3.0181452897
 21
3.4191113573
 31
0.0
  0
LINE
  5
10B
330
1F
100
AcDbEntity
  8
0
  6
CONTINUOUS
 62
     7
100
AcDbLine
 10
3.0706387281
 20
3.4191113573
 30
0.0
 11
3.0706387281
 21
4.5263948218
 31
0.0
  0
LINE
  5
10C
330
1F
100
AcDbEntity
  8
0
  6
CONTINUOUS
 62
     7
100
AcDbLine
 10
3.3463211428
 20
3.8804732536
 30
0.0
 11
3.306951064
 21
3.8804732536
 31
0.0
  0
LINE
  5
10D
330
1F
100
AcDbEntity
  8
0
  6
CONTINUOUS
 62
     7
100
AcDbLine
 10
3.3463211428
 20
3.6368833192
 30
0.0
 11
3.306951064
 21
3.6368833192
 31
0.0
  0
LINE
  5
10E
330
1F
100
AcDbEntity
  8
0
  6
CONTINUOUS
 62
     7
100
AcDbLine
 10
3.306951064
 20
3.8804732536
 30
0.0
 11
3.306951064
 21
3.6368833192
 31
0.0
  0
LINE
  5
10F
330
1F
100
AcDbEntity
  8
0
  6
CONTINUOUS
 62
     7
100
AcDbLine
 10
3.3463211428
 20
3.8804732536
 30
0.0
 11
3.3463211428
 21
3.6368833192
 31
0.0
  0
LINE
  5
110
330
1F
100
AcDbEntity
  8
0
  6
CONTINUOUS
 62
     7
100
AcDbLine
 10
3.3463211428
 20
4.4414968757
 30
0.0
 11
3.306951064
 21
4.4414968757
 31
0.0
  0
LINE
  5
111
330
1F
100
AcDbEntity
  8
0
  6
CONTINUOUS
 62
     7
100
AcDbLine
 10
3.306951064
 20
4.4414968757
 30
0.0
 11
3.306951064
 21
3.8804732536
 31
0.0
  0
LINE
  5
112
330
1F
100
AcDbEntity
  8
0
  6
CONTINUOUS
 62
     7
100
AcDbLine
 10
3.3463211428
 20
4.4414968757
 30
0.0
 11
3.3463211428
 21
3.8804732536
 31
0.0
  0
LINE
  5
113
330
1F
100
AcDbEntity
  8
0
  6
CONTINUOUS
 62
     7
100
AcDbLine
 10
3.3463211428
 20
3.0758596971
 30
0.0
 11
3.306951064
 21
3.0758596971
 31
0.0
  0
LINE
  5
114
330
1F
100
AcDbEntity
  8
0
  6
CONTINUOUS
 62
     7
100
AcDbLine
 10
3.306951064
 20
3.6368833192
 30
0.0
 11
3.306951064
 21
3.0758596971
 31
0.0
  0
LINE
  5
115
330
1F
100
AcDbEntity
  8
0
  6
CONTINUOUS
 62
     7
100
AcDbLine
 10
3.3463211428
 20
3.6368833192
 30
0.0
 11
3.3463211428
 21
3.0758596971
 31
0.0
  0
LINE
  5
116
330
1F
100
AcDbEntity
  8
0
  6
CONTINUOUS
 62
     7
100
AcDbLine
 10
3.306951064
 20
4.4919460029
 30
0.0
 11
3.306951064
 21
4.4414968757
 31
0.0
  0
LINE
  5
117
330
1F
100
AcDbEntity
  8
0
  6
CONTINUOUS
 62
     7
100
AcDbLine
 10
3.3463211428
 20
4.4919460029
 30
0.0
 11
3.3463211428
 21
4.4414968757
 31
0.0
  0
LINE
  5
118
330
1F
100
AcDbEntity
  8
0
  6
CONTINUOUS
 62
     7
100
AcDbLine
 10
3.306951064
 20
3.0758596971
 30
0.0
 11
3.306951064
 21
3.0254105699
 31
0.0
  0
LINE
  5
119
330
1F
100
AcDbEntity
  8
0
  6
CONTINUOUS
 62
     7
100
AcDbLine
 10
3.3463211428
 20
3.0758596971
 30
0.0
 11
3.3463211428
 21
3.0254105699
 31
0.0
  0
LINE
  5
11A
330
1F
100
AcDbEntity
  8
0
  6
CONTINUOUS
 62
     8
100
AcDbLine
 10
3.8254156309
 20
4.2901743494
 30
0.0
 11
3.7077118951
 21
4.2901743494
 31
0.0
  0
LINE
  5
11B
330
1F
100
AcDbEntity
  8
0
  6
CONTINUOUS
 62
     8
100
AcDbLine
 10
3.9433160264
 20
4.2901743494
 30
0.0
 11
3.8254156309
 21
4.2901743494
 31
0.0
  0
LINE
  5
11C
330
1F
100
AcDbEntity
  8
0
  6
HIDDEN
 62
     7
100
AcDbLine
 10
3.9828959459
 20
3.7783633258
 30
0.0
 11
3.9828959459
 21
3.738993247
 31
0.0
  0
LINE
  5
11D
330
1F
100
AcDbEntity
  8
0
  6
HIDDEN
 62
     7
100
AcDbLine
 10
3.8254156309
 20
4.1523790738
 30
0.0
 11
3.9632109065
 21
4.1523790738
 31
0.0
  0
LINE
  5
11E
330
1F
100
AcDbEntity
  8
0
  6
HIDDEN
 62
     7
100
AcDbLine
 10
3.6876203554
 20
4.1523790738
 30
0.0
 11
3.8254156309
 21
4.1523790738
 31
0.0
  0
LINE
  5
11F
330
1F
100
AcDbEntity
  8
0
  6
HIDDEN
 62
     7
100
AcDbLine
 10
3.903935615
 20
3.2960798612
 30
0.0
 11
3.7468956469
 21
3.2960798612
 31
0.0
  0
LINE
  5
120
330
1F
100
AcDbEntity
  8
0
  6
HIDDEN
 62
     7
100
AcDbLine
 10
3.8844707491
 20
3.2763948218
 30
0.0
 11
3.7663605128
 21
3.2763948218
 31
0.0
  0
LINE
  5
121
330
1F
100
AcDbEntity
  8
0
  6
HIDDEN
 62
     7
100
AcDbLine
 10
3.8254156309
 20
4.1917491525
 30
0.0
 11
3.8844707491
 21
4.1917491525
 31
0.0
  0
LINE
  5
122
330
1F
100
AcDbEntity
  8
0
  6
HIDDEN
 62
     7
100
AcDbLine
 10
3.8254156309
 20
4.1917491525
 30
0.0
 11
3.8254156309
 21
4.3098593888
 31
0.0
  0
LINE
  5
123
330
1F
100
AcDbEntity
  8
0
  6
HIDDEN
 62
     7
100
AcDbLine
 10
3.7663605128
 20
4.1917491525
 30
0.0
 11
3.8254156309
 21
4.1917491525
 31
0.0
  0
LINE
  5
124
330
1F
100
AcDbEntity
  8
0
  6
HIDDEN
 62
     7
100
AcDbLine
 10
3.8844707491
 20
4.1917491525
 30
0.0
 11
3.8844707491
 21
4.3098593888
 31
0.0
  0
LINE
  5
125
330
1F
100
AcDbEntity
  8
0
  6
HIDDEN
 62
     7
100
AcDbLine
 10
3.7663605128
 20
4.1917491525
 30
0.0
 11
3.7663605128
 21
4.3098593888
 31
0.0
  0
POLYLINE
  5
126
330
1F
100
AcDbEntity
  8
0
  6
HIDDEN
 62
     7
100
AcDb2dPolyline
 66
     1
 10
0.0
 20
0.0
 30
0.0
  0
VERTEX
  5
2AD
330
126
100
AcDbEntity
  8
0
  6
HIDDEN
 62
     7
100
AcDbVertex
100
AcDb2dVertex
 10
2.9065967333
 20
4.2403421816
 30
0.0
  0
VERTEX
  5
2AE
330
126
100
AcDbEntity
  8
0
  6
HIDDEN
 62
     7
100
AcDbVertex
100
AcDb2dVertex
 10
2.9063765599
 20
4.2462264409
 30
0.0
  0
VERTEX
  5
2AF
330
126
100
AcDbEntity
  8
0
  6
HIDDEN
 62
     7
100
AcDbVertex
100
AcDb2dVertex
 10
2.9052821106
 20
4.254670439
 30
0.0
  0
SEQEND
  5
2B0
330
126
100
AcDbEntity
  8
0
  6
HIDDEN
 62
     7
  0
ARC
  5
127
330
1F
100
AcDbEntity
  8
0
  6
HIDDEN
 62
     7
100
AcDbCircle
 10
2.8278565758
 20
4.2403421816
 30
0.0
 40
0.0787401574803155
100
AcDbArc
 50
81.1523309161
 51
97.6238904006
  0
CIRCLE
  5
128
330
1F
100
AcDbEntity
  8
0
  6
HIDDEN
 62
     7
100
AcDbCircle
 10
2.8278565758
 20
4.2403421816
 30
0.0
 40
0.1377952755905518
  0
LINE
  5
129
330
1F
100
AcDbEntity
  8
0
  6
HIDDEN
 62
     7
100
AcDbLine
 10
2.7688014577
 20
4.2062466932
 30
0.0
 11
2.8278565758
 21
4.1721512049
 31
0.0
  0
LINE
  5
12A
330
1F
100
AcDbEntity
  8
0
  6
HIDDEN
 62
     7
100
AcDbLine
 10
2.8278565758
 20
4.1721512049
 30
0.0
 11
2.8869116939
 21
4.2062466932
 31
0.0
  0
LINE
  5
12B
330
1F
100
AcDbEntity
  8
0
  6
HIDDEN
 62
     7
100
AcDbLine
 10
2.7688014577
 20
4.2744376699
 30
0.0
 11
2.7688014577
 21
4.2062466932
 31
0.0
  0
LINE
  5
12C
330
1F
100
AcDbEntity
  8
0
  6
HIDDEN
 62
     7
100
AcDbLine
 10
2.8869116939
 20
4.2062466932
 30
0.0
 11
2.8869116939
 21
4.2744376699
 31
0.0
  0
LINE
  5
12D
330
1F
100
AcDbEntity
  8
0
  6
HIDDEN
 62
     7
100
AcDbLine
 10
2.8869116939
 20
4.2744376699
 30
0.0
 11
2.8278565758
 21
4.3085331582
 31
0.0
  0
LINE
  5
12E
330
1F
100
AcDbEntity
  8
0
  6
HIDDEN
 62
     7
100
AcDbLine
 10
2.8278565758
 20
4.3085331582
 30
0.0
 11
2.7688014577
 21
4.2744376699
 31
0.0
  0
CIRCLE
  5
12F
330
1F
100
AcDbEntity
  8
0
  6
HIDDEN
 62
     7
100
AcDbCircle
 10
2.8278565758
 20
4.2403421816
 30
0.0
 40
0.1181102362204713
  0
LINE
  5
130
330
1F
100
AcDbEntity
  8
0
  6
HIDDEN
 62
     7
100
AcDbLine
 10
2.6703762609
 20
3.5628146177
 30
0.0
 11
2.9610200068
 21
3.5628146177
 31
0.0
  0
LINE
  5
131
330
1F
100
AcDbEntity
  8
0
  6
HIDDEN
 62
     7
100
AcDbLine
 10
3.0181452897
 20
3.9545419551
 30
0.0
 11
2.6703762609
 21
3.9545419551
 31
0.0
  0
LINE
  5
132
330
1F
100
AcDbEntity
  8
0
  6
HIDDEN
 62
     7
100
AcDbLine
 10
3.3463211428
 20
4.4414968757
 30
0.0
 11
3.306951064
 21
4.4414968757
 31
0.0
  0
LINE
  5
133
330
1F
100
AcDbEntity
  8
0
  6
HIDDEN
 62
     7
100
AcDbLine
 10
3.3463211428
 20
3.0758596971
 30
0.0
 11
3.306951064
 21
3.0758596971
 31
0.0
  0
ARC
  5
134
330
1F
100
AcDbEntity
  8
0
  6
HIDDEN
 62
     7
100
AcDbCircle
 10
2.6553762609
 20
3.7582200139
 30
0.0
 40
0.3627690288713921
100
AcDbArc
 50
270.0
 51
327.4082407603
  0
SPLINE
  5
135
330
1F
100
AcDbEntity
  8
0
  6
HIDDEN
 62
     7
100
AcDbSpline
210
0.0
220
0.0
230
1.0
 70
     8
 71
     3
 72
     8
 73
     4
 74
     0
 42
0.00000001
 43
0.00000001
 40
0.0
 40
0.0
 40
0.0
 40
0.0
 40
1.0
 40
1.0
 40
1.0
 40
1.0
 10
2.670376260864867
 20
3.562814617670271
 30
0.0
 10
2.665377157725625
 20
3.557790329972952
 30
0.0
 10
2.660377093937545
 20
3.552767000250462
 30
0.0
 10
2.655376260864867
 20
3.547744437671229
 30
0.0
  0
SPLINE
  5
136
330
1F
100
AcDbEntity
  8
0
  6
HIDDEN
 62
     7
100
AcDbSpline
210
0.0
220
0.0
230
1.0
 70
     8
 71
     3
 72
     8
 73
     4
 74
     0
 42
0.00000001
 43
0.00000001
 40
0.0
 40
0.0
 40
0.0
 40
0.0
 40
1.0
 40
1.0
 40
1.0
 40
1.0
 10
2.655376260864867
 20
3.969612135112865
 30
0.0
 10
2.660377093937886
 20
3.96458957253329
 30
0.0
 10
2.665377157725992
 20
3.959566242810773
 30
0.0
 10
2.670376260864867
 20
3.954541955113823
 30
0.0
  0
LINE
  5
137
330
1F
100
AcDbEntity
  8
0
  6
HIDDEN
 62
     7
100
AcDbLine
 10
3.3463211428
 20
3.6368833192
 30
0.0
 11
3.306951064
 21
3.6368833192
 31
0.0
  0
LINE
  5
138
330
1F
100
AcDbEntity
  8
0
  6
HIDDEN
 62
     7
100
AcDbLine
 10
3.3463211428
 20
3.8804732536
 30
0.0
 11
3.306951064
 21
3.8804732536
 31
0.0
  0
LINE
  5
139
330
1F
100
AcDbEntity
  8
0
  6
HIDDEN
 62
     7
100
AcDbLine
 10
3.9632109065
 20
4.1523790738
 30
0.0
 11
3.9632109065
 21
4.3563300634
 31
0.0
  0
LINE
  5
13A
330
1F
100
AcDbEntity
  8
0
  6
HIDDEN
 62
     7
100
AcDbLine
 10
3.6876203554
 20
4.3563479018
 30
0.0
 11
3.6876203554
 21
4.1523790738
 31
0.0
  0
LINE
  5
13B
330
1F
100
AcDbEntity
  8
0
  6
HIDDEN
 62
     7
100
AcDbLine
 10
3.7466754735
 20
4.1523790738
 30
0.0
 11
3.7466754735
 21
3.7783633258
 31
0.0
  0
LINE
  5
13C
330
1F
100
AcDbEntity
  8
0
  6
HIDDEN
 62
     7
100
AcDbLine
 10
3.9041557884
 20
3.7783633258
 30
0.0
 11
3.9041557884
 21
4.1523790738
 31
0.0
  0
LINE
  5
13D
330
1F
100
AcDbEntity
  8
0
  6
HIDDEN
 62
     7
100
AcDbLine
 10
3.7466754735
 20
3.738993247
 30
0.0
 11
3.7466754735
 21
3.1609344097
 31
0.0
  0
LINE
  5
13E
330
1F
100
AcDbEntity
  8
0
  6
HIDDEN
 62
     7
100
AcDbLine
 10
3.9041557884
 20
3.1609461125
 30
0.0
 11
3.9041557884
 21
3.738993247
 31
0.0
  0
LINE
  5
13F
330
1F
100
AcDbEntity
  8
0
  6
HIDDEN
 62
     7
100
AcDbLine
 10
3.9978959459
 20
3.9705286801
 30
0.0
 11
3.9828959459
 21
3.9555286801
 31
0.0
  0
LINE
  5
140
330
1F
100
AcDbEntity
  8
0
  6
HIDDEN
 62
     7
100
AcDbLine
 10
3.9828959459
 20
3.5618278927
 30
0.0
 11
3.9978959459
 21
3.5468278927
 31
0.0
  0
LINE
  5
141
330
1F
100
AcDbEntity
  8
0
  6
HIDDEN
 62
     7
100
AcDbLine
 10
3.5826334787
 20
3.9555286801
 30
0.0
 11
3.4073447648
 21
3.9555286801
 31
0.0
  0
LINE
  5
142
330
1F
100
AcDbEntity
  8
0
  6
HIDDEN
 62
     7
100
AcDbLine
 10
3.4073447648
 20
3.5618278927
 30
0.0
 11
3.5826334787
 21
3.5618278927
 31
0.0
  0
LINE
  5
143
330
1F
100
AcDbEntity
  8
0
  6
HIDDEN
 62
     7
100
AcDbLine
 10
3.9828959459
 20
3.9555286801
 30
0.0
 11
3.635126917
 21
3.9555286801
 31
0.0
  0
LINE
  5
144
330
1F
100
AcDbEntity
  8
0
  6
HIDDEN
 62
     7
100
AcDbLine
 10
3.635126917
 20
3.5618278927
 30
0.0
 11
3.9828959459
 21
3.5618278927
 31
0.0
  0
ARC
  5
145
330
1F
100
AcDbEntity
  8
0
  6
HIDDEN
 62
     7
100
AcDbCircle
 10
3.7073053947
 20
4.2901743494
 30
0.0
 40
0.0196850393700794
100
AcDbArc
 50
113.4151882725
 51
180.0
  0
ARC
  5
146
330
1F
100
AcDbEntity
  8
0
  6
HIDDEN
 62
     7
100
AcDbCircle
 10
3.9435258672
 20
4.2901743494
 30
0.0
 40
0.0196850393700788
100
AcDbArc
 50
0.0
 51
66.0870390356
  0
LINE
  5
147
330
1F
100
AcDbEntity
  8
0
  6
HIDDEN
 62
     7
100
AcDbLine
 10
3.9632109065
 20
4.1523790738
 30
0.0
 11
3.9632109065
 21
4.2901743494
 31
0.0
  0
LINE
  5
148
330
1F
100
AcDbEntity
  8
0
  6
HIDDEN
 62
     7
100
AcDbLine
 10
3.6876203554
 20
4.2901743494
 30
0.0
 11
3.6876203554
 21
4.1523790738
 31
0.0
  0
LINE
  5
149
330
1F
100
AcDbEntity
  8
0
  6
HIDDEN
 62
     7
100
AcDbLine
 10
3.7466754735
 20
4.1523790738
 30
0.0
 11
3.7466754735
 21
3.7783633258
 31
0.0
  0
LINE
  5
14A
330
1F
100
AcDbEntity
  8
0
  6
HIDDEN
 62
     7
100
AcDbLine
 10
3.7466754735
 20
3.738993247
 30
0.0
 11
3.7466754735
 21
3.2960798612
 31
0.0
  0
LINE
  5
14B
330
1F
100
AcDbEntity
  8
0
  6
HIDDEN
 62
     7
100
AcDbLine
 10
3.9041557884
 20
3.2960798612
 30
0.0
 11
3.9041557884
 21
3.738993247
 31
0.0
  0
LINE
  5
14C
330
1F
100
AcDbEntity
  8
0
  6
HIDDEN
 62
     7
100
AcDbLine
 10
3.9041557884
 20
3.7783633258
 30
0.0
 11
3.9041557884
 21
4.1523790738
 31
0.0
  0
ARC
  5
14D
330
1F
100
AcDbEntity
  8
0
  6
HIDDEN
 62
     7
100
AcDbCircle
 10
3.8844707491
 20
3.2960798612
 30
0.0
 40
0.0196850393700787
100
AcDbArc
 50
270.0
 51
0.0
  0
ARC
  5
14E
330
1F
100
AcDbEntity
  8
0
  6
HIDDEN
 62
     7
100
AcDbCircle
 10
3.7663605128
 20
3.2960798612
 30
0.0
 40
0.0196850393700787
100
AcDbArc
 50
180.0
 51
270.0
  0
LINE
  5
14F
330
1F
100
AcDbEntity
  8
0
  6
HIDDEN
 62
     7
100
AcDbLine
 10
3.3463211428
 20
4.0342688376
 30
0.0
 11
3.306951064
 21
4.0342688376
 31
0.0
  0
LINE
  5
150
330
1F
100
AcDbEntity
  8
0
  6
HIDDEN
 62
     7
100
AcDbLine
 10
3.306951064
 20
3.4830877352
 30
0.0
 11
3.3463211428
 21
3.4830877352
 31
0.0
  0
LINE
  5
151
330
1F
100
AcDbEntity
  8
0
  6
HIDDEN
 62
     7
100
AcDbLine
 10
3.0706387281
 20
3.5618278927
 30
0.0
 11
3.245927442
 21
3.5618278927
 31
0.0
  0
LINE
  5
152
330
1F
100
AcDbEntity
  8
0
  6
HIDDEN
 62
     7
100
AcDbLine
 10
3.245927442
 20
3.9555286801
 30
0.0
 11
3.0706387281
 21
3.9555286801
 31
0.0
  0
LINE
  5
153
330
1F
100
AcDbEntity
  8
0
  6
HIDDEN
 62
     7
100
AcDbLine
 10
2.9603914077
 20
3.5618278927
 30
0.0
 11
3.0181452897
 21
3.5618278927
 31
0.0
  0
LINE
  5
154
330
1F
100
AcDbEntity
  8
0
  6
HIDDEN
 62
     7
100
AcDbLine
 10
3.9631547126
 20
4.2901743494
 30
0.0
 11
3.6876765493
 21
4.2901743494
 31
0.0
  0
ARC
  5
155
330
1F
100
AcDbEntity
  8
0
  6
CONTINUOUS
 62
     7
100
AcDbCircle
 10
7.6511104749
 20
4.2901743494
 30
0.0
 40
0.0196850393700787
100
AcDbArc
 50
90.0
 51
180.0
  0
LINE
  5
156
330
1F
100
AcDbEntity
  8
0
  6
CONTINUOUS
 62
     7
100
AcDbLine
 10
7.6314254356
 20
4.2901743494
 30
0.0
 11
7.6314254356
 21
4.2121747192
 31
0.0
  0
LINE
  5
157
330
1F
100
AcDbEntity
  8
0
  6
CONTINUOUS
 62
     7
100
AcDbLine
 10
7.6904805537
 20
3.7783633258
 30
0.0
 11
7.6904805537
 21
3.738993247
 31
0.0
  0
LINE
  5
158
330
1F
100
AcDbEntity
  8
0
  6
CONTINUOUS
 62
     7
100
AcDbLine
 10
7.8479608686
 20
3.738993247
 30
0.0
 11
7.8479608686
 21
3.7783633258
 31
0.0
  0
ARC
  5
159
330
1F
100
AcDbEntity
  8
0
  6
CONTINUOUS
 62
     7
100
AcDbCircle
 10
8.7823806693
 20
4.3584524178
 30
0.0
 40
0.0196850393700796
100
AcDbArc
 50
360.0
 51
90.0
  0
LINE
  5
15A
330
1F
100
AcDbEntity
  8
0
  6
CONTINUOUS
 62
     7
100
AcDbLine
 10
8.7823806693
 20
4.3781374572
 30
0.0
 11
8.7043810391
 21
4.3781374572
 31
0.0
  0
ARC
  5
15B
330
1F
100
AcDbEntity
  8
0
  6
CONTINUOUS
 62
     7
100
AcDbCircle
 10
8.2508846063
 20
3.7586782864
 30
0.0
 40
0.75271653543307
100
AcDbArc
 50
181.4985698139
 51
178.5014301861
  0
LINE
  5
15C
330
1F
100
AcDbEntity
  8
0
  6
CONTINUOUS
 62
     7
100
AcDbLine
 10
7.4834204847
 20
3.7783633258
 30
0.0
 11
7.4984255164
 21
3.7783633258
 31
0.0
  0
ARC
  5
15D
330
1F
100
AcDbEntity
  8
0
  6
CONTINUOUS
 62
     7
100
AcDbCircle
 10
8.2508846063
 20
3.7586782864
 30
0.0
 40
0.7677165354330704
100
AcDbArc
 50
181.4692835814
 51
178.5307164186
  0
LINE
  5
15E
330
1F
100
AcDbEntity
  8
0
  6
CONTINUOUS
 62
     7
100
AcDbLine
 10
7.4834204847
 20
3.738993247
 30
0.0
 11
7.4984255164
 21
3.738993247
 31
0.0
  0
LINE
  5
15F
330
1F
100
AcDbEntity
  8
0
  6
CONTINUOUS
 62
     7
100
AcDbLine
 10
8.6141119077
 20
3.7783633258
 30
0.0
 11
8.6141119077
 21
3.738993247
 31
0.0
  0
LINE
  5
160
330
1F
100
AcDbEntity
  8
0
  6
CONTINUOUS
 62
     7
100
AcDbLine
 10
8.6141119077
 20
3.7783633258
 30
0.0
 11
8.461818455
 21
3.7783633258
 31
0.0
  0
ARC
  5
161
330
1F
100
AcDbEntity
  8
0
  6
CONTINUOUS
 62
     7
100
AcDbCircle
 10
8.2508846063
 20
3.7586782864
 30
0.0
 40
0.2118503937007878
100
AcDbArc
 50
5.3315880424
 51
174.6684119576
  0
LINE
  5
162
330
1F
100
AcDbEntity
  8
0
  6
CONTINUOUS
 62
     7
100
AcDbLine
 10
7.4984255164
 20
3.7783633258
 30
0.0
 11
8.0399507576
 21
3.7783633258
 31
0.0
  0
LINE
  5
163
330
1F
100
AcDbEntity
  8
0
  6
CONTINUOUS
 62
     7
100
AcDbLine
 10
7.4984255164
 20
3.738993247
 30
0.0
 11
8.0399507576
 21
3.738993247
 31
0.0
  0
ARC
  5
164
330
1F
100
AcDbEntity
  8
0
  6
CONTINUOUS
 62
     7
100
AcDbCircle
 10
8.2508846063
 20
3.7586782864
 30
0.0
 40
0.2118503937007878
100
AcDbArc
 50
185.3315880424
 51
354.6684119576
  0
LINE
  5
165
330
1F
100
AcDbEntity
  8
0
  6
CONTINUOUS
 62
     7
100
AcDbLine
 10
8.461818455
 20
3.738993247
 30
0.0
 11
8.6141119077
 21
3.738993247
 31
0.0
  0
SPLINE
  5
166
330
1F
100
AcDbEntity
  8
0
  6
CONTINUOUS
 62
     7
100
AcDbSpline
210
0.0
220
0.0
230
1.0
 70
     8
 71
     3
 72
     8
 73
     4
 74
     0
 42
0.00000001
 43
0.00000001
 40
0.0
 40
0.0
 40
0.0
 40
0.0
 40
1.0
 40
1.0
 40
1.0
 40
1.0
 10
8.446748275045765
 20
3.778363325762126
 30
0.0
 10
8.448067222309884
 20
3.765239966182073
 30
0.0
 10
8.448067222309884
 20
3.752116606602021
 30
0.0
 10
8.446748275045765
 20
3.738993247021968
 30
0.0
  0
SPLINE
  5
167
330
1F
100
AcDbEntity
  8
0
  6
CONTINUOUS
 62
     7
100
AcDbSpline
210
0.0
220
0.0
230
1.0
 70
    24
 71
     3
 72
     8
 73
     4
 74
     0
 42
0.00000001
 43
0.00000001
 40
0.0
 40
0.0
 40
0.0
 40
0.0
 40
1.0
 40
1.0
 40
1.0
 40
1.0
 10
8.039950757603172
 20
3.738993247021968
 30
0.0
 10
8.044973320182747
 20
3.738993247021968
 30
0.0
 10
8.049996649905264
 20
3.738993247021968
 30
0.0
 10
8.055020937602215
 20
3.738993247021968
 30
0.0
  0
ARC
  5
168
330
1F
100
AcDbEntity
  8
0
  6
CONTINUOUS
 62
     7
100
AcDbCircle
 10
8.2508846063
 20
3.7586782864
 30
0.0
 40
0.1968503937007877
100
AcDbArc
 50
185.7391704773
 51
354.2608295227
  0
SPLINE
  5
169
330
1F
100
AcDbEntity
  8
0
  6
CONTINUOUS
 62
     7
100
AcDbSpline
210
0.0
220
0.0
230
1.0
 70
    24
 71
     3
 72
     8
 73
     4
 74
     0
 42
0.00000001
 43
0.00000001
 40
0.0
 40
0.0
 40
0.0
 40
0.0
 40
1.0
 40
1.0
 40
1.0
 40
1.0
 10
8.446748275045765
 20
3.738993247021968
 30
0.0
 10
8.451772562743084
 20
3.738993247021968
 30
0.0
 10
8.456795892465577
 20
3.738993247021968
 30
0.0
 10
8.461818455044808
 20
3.738993247021968
 30
0.0
  0
SPLINE
  5
16A
330
1F
100
AcDbEntity
  8
0
  6
CONTINUOUS
 62
     7
100
AcDbSpline
210
0.0
220
0.0
230
1.0
 70
    24
 71
     3
 72
     8
 73
     4
 74
     0
 42
0.00000001
 43
0.00000001
 40
0.0
 40
0.0
 40
0.0
 40
0.0
 40
1.0
 40
1.0
 40
1.0
 40
1.0
 10
8.039950757603172
 20
3.778363325762126
 30
0.0
 10
8.044973320182747
 20
3.778363325762126
 30
0.0
 10
8.049996649905264
 20
3.778363325762126
 30
0.0
 10
8.055020937602215
 20
3.778363325762126
 30
0.0
  0
ARC
  5
16B
330
1F
100
AcDbEntity
  8
0
  6
CONTINUOUS
 62
     7
100
AcDbCircle
 10
8.2508846063
 20
3.7586782864
 30
0.0
 40
0.1968503937007877
100
AcDbArc
 50
5.7391704773
 51
174.2608295227
  0
SPLINE
  5
16C
330
1F
100
AcDbEntity
  8
0
  6
CONTINUOUS
 62
     7
100
AcDbSpline
210
0.0
220
0.0
230
1.0
 70
    24
 71
     3
 72
     8
 73
     4
 74
     0
 42
0.00000001
 43
0.00000001
 40
0.0
 40
0.0
 40
0.0
 40
0.0
 40
1.0
 40
1.0
 40
1.0
 40
1.0
 10
8.446748275045765
 20
3.778363325762126
 30
0.0
 10
8.451772562743084
 20
3.778363325762126
 30
0.0
 10
8.456795892465575
 20
3.778363325762126
 30
0.0
 10
8.461818455044808
 20
3.778363325762126
 30
0.0
  0
POLYLINE
  5
16D
330
1F
100
AcDbEntity
  8
0
  6
CONTINUOUS
 62
     7
100
AcDb2dPolyline
 66
     1
 10
0.0
 20
0.0
 30
0.0
  0
VERTEX
  5
2B1
330
16D
100
AcDbEntity
  8
0
  6
CONTINUOUS
 62
     7
100
AcDbVertex
100
AcDb2dVertex
 10
8.0540342126
 20
3.7586782864
 30
0.0
  0
VERTEX
  5
2B2
330
16D
100
AcDbEntity
  8
0
  6
CONTINUOUS
 62
     7
100
AcDbVertex
100
AcDb2dVertex
 10
8.0549255664
 20
3.7399664668
 30
0.0
  0
VERTEX
  5
2B3
330
16D
100
AcDbEntity
  8
0
  6
CONTINUOUS
 62
     7
100
AcDbVertex
100
AcDb2dVertex
 10
8.0550209376
 20
3.738993247
 30
0.0
  0
SEQEND
  5
2B4
330
16D
100
AcDbEntity
  8
0
  6
CONTINUOUS
 62
     7
  0
ARC
  5
16E
330
1F
100
AcDbEntity
  8
0
  6
CONTINUOUS
 62
     7
100
AcDbCircle
 10
8.2508846063
 20
3.7586782864
 30
0.0
 40
0.1968503937007886
100
AcDbArc
 50
354.2608295227
 51
2.5401647151
  0
POLYLINE
  5
16F
330
1F
100
AcDbEntity
  8
0
  6
CONTINUOUS
 62
     7
100
AcDb2dPolyline
 66
     1
 10
0.0
 20
0.0
 30
0.0
  0
VERTEX
  5
2B5
330
16F
100
AcDbEntity
  8
0
  6
CONTINUOUS
 62
     7
100
AcDbVertex
100
AcDb2dVertex
 10
8.4472501917
 20
3.772485328
 30
0.0
  0
VERTEX
  5
2B6
330
16F
100
AcDbEntity
  8
0
  6
CONTINUOUS
 62
     7
100
AcDbVertex
100
AcDb2dVertex
 10
8.4468436462
 20
3.7773901059
 30
0.0
  0
VERTEX
  5
2B7
330
16F
100
AcDbEntity
  8
0
  6
CONTINUOUS
 62
     7
100
AcDbVertex
100
AcDb2dVertex
 10
8.446748275
 20
3.7783633258
 30
0.0
  0
SEQEND
  5
2B8
330
16F
100
AcDbEntity
  8
0
  6
CONTINUOUS
 62
     7
  0
POLYLINE
  5
170
330
1F
100
AcDbEntity
  8
0
  6
CONTINUOUS
 62
     7
100
AcDb2dPolyline
 66
     1
 10
0.0
 20
0.0
 30
0.0
  0
VERTEX
  5
2B9
330
170
100
AcDbEntity
  8
0
  6
CONTINUOUS
 62
     7
100
AcDbVertex
100
AcDb2dVertex
 10
8.0550209376
 20
3.7783633258
 30
0.0
  0
VERTEX
  5
2BA
330
170
100
AcDbEntity
  8
0
  6
CONTINUOUS
 62
     7
100
AcDbVertex
100
AcDb2dVertex
 10
8.0549255664
 20
3.7773901059
 30
0.0
  0
VERTEX
  5
2BB
330
170
100
AcDbEntity
  8
0
  6
CONTINUOUS
 62
     7
100
AcDbVertex
100
AcDb2dVertex
 10
8.0540342126
 20
3.7586782864
 30
0.0
  0
SEQEND
  5
2BC
330
170
100
AcDbEntity
  8
0
  6
CONTINUOUS
 62
     7
  0
ARC
  5
171
330
1F
100
AcDbEntity
  8
0
  6
CONTINUOUS
 62
     7
100
AcDbCircle
 10
8.2508846063
 20
3.7586782864
 30
0.0
 40
0.7677165354330713
100
AcDbArc
 50
178.5307164186
 51
181.4692835814
  0
LINE
  5
172
330
1F
100
AcDbEntity
  8
0
  6
CONTINUOUS
 62
     7
100
AcDbLine
 10
7.6511104749
 20
4.3098593888
 30
0.0
 11
7.7164801984
 21
4.3098593888
 31
0.0
  0
LINE
  5
173
330
1F
100
AcDbEntity
  8
0
  6
CONTINUOUS
 62
     7
100
AcDbLine
 10
8.8020657087
 20
4.2930826943
 30
0.0
 11
8.8020657087
 21
4.3584524178
 31
0.0
  0
LINE
  5
174
330
1F
100
AcDbEntity
  8
0
  6
CONTINUOUS
 62
     8
100
AcDbLine
 10
7.696898493
 20
4.2901743494
 30
0.0
 11
7.6314254356
 21
4.2901743494
 31
0.0
  0
LINE
  5
175
330
1F
100
AcDbEntity
  8
0
  6
CONTINUOUS
 62
     8
100
AcDbLine
 10
8.7823806693
 20
4.3781374572
 30
0.0
 11
8.7823806693
 21
4.3126643998
 31
0.0
  0
LINE
  5
176
330
1F
100
AcDbEntity
  8
0
  6
HIDDEN
 62
     7
100
AcDbLine
 10
7.6314254356
 20
4.1523790738
 30
0.0
 11
7.9070159867
 21
4.1523790738
 31
0.0
  0
LINE
  5
177
330
1F
100
AcDbEntity
  8
0
  6
HIDDEN
 62
     7
100
AcDbLine
 10
8.5904515355
 20
3.0701414468
 30
0.0
 11
8.5904515355
 21
4.4472151259
 31
0.0
  0
LINE
  5
178
330
1F
100
AcDbEntity
  8
0
  6
HIDDEN
 62
     7
100
AcDbLine
 10
7.7164801984
 20
4.3098593888
 30
0.0
 11
7.8873309471
 21
4.3098593888
 31
0.0
  0
LINE
  5
179
330
1F
100
AcDbEntity
  8
0
  6
HIDDEN
 62
     7
100
AcDbLine
 10
7.8479608686
 20
3.2960798612
 30
0.0
 11
7.6904805537
 21
3.2960798612
 31
0.0
  0
LINE
  5
17A
330
1F
100
AcDbEntity
  8
0
  6
HIDDEN
 62
     7
100
AcDbLine
 10
7.8282758293
 20
3.2763948218
 30
0.0
 11
7.7101655955
 21
3.2763948218
 31
0.0
  0
LINE
  5
17B
330
1F
100
AcDbEntity
  8
0
  6
HIDDEN
 62
     7
100
AcDbLine
 10
7.8033161995
 20
4.1917491525
 30
0.0
 11
7.8374116878
 21
4.1917491525
 31
0.0
  0
LINE
  5
17C
330
1F
100
AcDbEntity
  8
0
  6
HIDDEN
 62
     7
100
AcDbLine
 10
7.8033161995
 20
4.1917491525
 30
0.0
 11
7.8033161995
 21
4.3098593888
 31
0.0
  0
LINE
  5
17D
330
1F
100
AcDbEntity
  8
0
  6
HIDDEN
 62
     7
100
AcDbLine
 10
7.7351252228
 20
4.1917491525
 30
0.0
 11
7.8033161995
 21
4.1917491525
 31
0.0
  0
LINE
  5
17E
330
1F
100
AcDbEntity
  8
0
  6
HIDDEN
 62
     7
100
AcDbLine
 10
7.7351252228
 20
4.1917491525
 30
0.0
 11
7.7351252228
 21
4.3098593888
 31
0.0
  0
LINE
  5
17F
330
1F
100
AcDbEntity
  8
0
  6
HIDDEN
 62
     7
100
AcDbLine
 10
7.7010297345
 20
4.1917491525
 30
0.0
 11
7.7351252228
 21
4.1917491525
 31
0.0
  0
LINE
  5
180
330
1F
100
AcDbEntity
  8
0
  6
HIDDEN
 62
     7
100
AcDbLine
 10
7.8374116878
 20
4.1917491525
 30
0.0
 11
7.8374116878
 21
4.3098593888
 31
0.0
  0
LINE
  5
181
330
1F
100
AcDbEntity
  8
0
  6
HIDDEN
 62
     7
100
AcDbLine
 10
7.7010297345
 20
4.1917491525
 30
0.0
 11
7.7010297345
 21
4.3098593888
 31
0.0
  0
LINE
  5
182
330
1F
100
AcDbEntity
  8
0
  6
HIDDEN
 62
     7
100
AcDbLine
 10
8.8020657087
 20
4.1222319456
 30
0.0
 11
8.8020657087
 21
4.2930826943
 31
0.0
  0
LINE
  5
183
330
1F
100
AcDbEntity
  8
0
  6
HIDDEN
 62
     7
100
AcDbLine
 10
8.6445853937
 20
4.102546906
 30
0.0
 11
8.6445853937
 21
4.3781374572
 31
0.0
  0
LINE
  5
184
330
1F
100
AcDbEntity
  8
0
  6
HIDDEN
 62
     7
100
AcDbLine
 10
7.7882861811
 20
4.1616020241
 30
0.0
 11
7.7882861811
 21
4.3190823391
 31
0.0
  0
LINE
  5
185
330
1F
100
AcDbEntity
  8
0
  6
HIDDEN
 62
     7
100
AcDbLine
 10
7.7686011418
 20
4.1812870635
 30
0.0
 11
7.7686011418
 21
4.2993972997
 31
0.0
  0
LINE
  5
186
330
1F
100
AcDbEntity
  8
0
  6
HIDDEN
 62
     7
100
AcDbLine
 10
8.6839554725
 20
4.2062466932
 30
0.0
 11
8.8020657087
 21
4.2062466932
 31
0.0
  0
LINE
  5
187
330
1F
100
AcDbEntity
  8
0
  6
HIDDEN
 62
     7
100
AcDbLine
 10
8.6839554725
 20
4.2744376699
 30
0.0
 11
8.8020657087
 21
4.2744376699
 31
0.0
  0
LINE
  5
188
330
1F
100
AcDbEntity
  8
0
  6
HIDDEN
 62
     7
100
AcDbLine
 10
8.6839554725
 20
4.2744376699
 30
0.0
 11
8.6839554725
 21
4.3085331582
 31
0.0
  0
LINE
  5
189
330
1F
100
AcDbEntity
  8
0
  6
HIDDEN
 62
     7
100
AcDbLine
 10
8.6839554725
 20
4.2062466932
 30
0.0
 11
8.6839554725
 21
4.2744376699
 31
0.0
  0
LINE
  5
18A
330
1F
100
AcDbEntity
  8
0
  6
HIDDEN
 62
     7
100
AcDbLine
 10
8.6839554725
 20
4.1721512049
 30
0.0
 11
8.6839554725
 21
4.2062466932
 31
0.0
  0
LINE
  5
18B
330
1F
100
AcDbEntity
  8
0
  6
HIDDEN
 62
     7
100
AcDbLine
 10
8.6839554725
 20
4.1721512049
 30
0.0
 11
8.8020657087
 21
4.1721512049
 31
0.0
  0
LINE
  5
18C
330
1F
100
AcDbEntity
  8
0
  6
HIDDEN
 62
     7
100
AcDbLine
 10
8.6839554725
 20
4.3085331582
 30
0.0
 11
8.8020657087
 21
4.3085331582
 31
0.0
  0
CIRCLE
  5
18D
330
1F
100
AcDbEntity
  8
0
  6
HIDDEN
 62
     7
100
AcDbCircle
 10
8.8119082284
 20
3.7586782864
 30
0.0
 40
0.1377952755905518
  0
CIRCLE
  5
18E
330
1F
100
AcDbEntity
  8
0
  6
HIDDEN
 62
     7
100
AcDbCircle
 10
8.2508846063
 20
3.1976546643
 30
0.0
 40
0.1377952755905518
  0
CIRCLE
  5
18F
330
1F
100
AcDbEntity
  8
0
  6
HIDDEN
 62
     7
100
AcDbCircle
 10
8.2508846063
 20
4.3197019084
 30
0.0
 40
0.1377952755905518
  0
CIRCLE
  5
190
330
1F
100
AcDbEntity
  8
0
  6
HIDDEN
 62
     7
100
AcDbCircle
 10
7.6898609843
 20
3.7586782864
 30
0.0
 40
0.1377952755905509
  0
LINE
  5
191
330
1F
100
AcDbEntity
  8
0
  6
HIDDEN
 62
     7
100
AcDbLine
 10
8.1290896391
 20
4.4414968757
 30
0.0
 11
7.568066017
 21
3.8804732536
 31
0.0
  0
ARC
  5
192
330
1F
100
AcDbEntity
  8
0
  6
HIDDEN
 62
     7
100
AcDbCircle
 10
8.2508846063
 20
4.3197019084
 30
0.0
 40
0.1722440944881891
100
AcDbArc
 50
45.0
 51
135.0
  0
LINE
  5
193
330
1F
100
AcDbEntity
  8
0
  6
HIDDEN
 62
     7
100
AcDbLine
 10
8.9337031956
 20
3.8804732536
 30
0.0
 11
8.3726795736
 21
4.4414968757
 31
0.0
  0
ARC
  5
194
330
1F
100
AcDbEntity
  8
0
  6
HIDDEN
 62
     7
100
AcDbCircle
 10
8.8119082284
 20
3.7586782864
 30
0.0
 40
0.1722440944881891
100
AcDbArc
 50
315.0
 51
45.0
  0
LINE
  5
195
330
1F
100
AcDbEntity
  8
0
  6
HIDDEN
 62
     7
100
AcDbLine
 10
8.3726795736
 20
3.0758596971
 30
0.0
 11
8.9337031956
 21
3.6368833192
 31
0.0
  0
ARC
  5
196
330
1F
100
AcDbEntity
  8
0
  6
HIDDEN
 62
     7
100
AcDbCircle
 10
8.2508846063
 20
3.1976546643
 30
0.0
 40
0.1722440944881885
100
AcDbArc
 50
225.0
 51
315.0
  0
LINE
  5
197
330
1F
100
AcDbEntity
  8
0
  6
HIDDEN
 62
     7
100
AcDbLine
 10
7.568066017
 20
3.6368833192
 30
0.0
 11
8.1290896391
 21
3.0758596971
 31
0.0
  0
ARC
  5
198
330
1F
100
AcDbEntity
  8
0
  6
HIDDEN
 62
     7
100
AcDbCircle
 10
7.6898609843
 20
3.7586782864
 30
0.0
 40
0.1722440944881888
100
AcDbArc
 50
135.0
 51
225.0
  0
CIRCLE
  5
199
330
1F
100
AcDbEntity
  8
0
  6
HIDDEN
 62
     7
100
AcDbCircle
 10
8.2508846063
 20
3.7586782864
 30
0.0
 40
0.2755905511811036
  0
CIRCLE
  5
19A
330
1F
100
AcDbEntity
  8
0
  6
HIDDEN
 62
     7
100
AcDbCircle
 10
8.2508846063
 20
3.7586782864
 30
0.0
 40
0.7677165354330713
  0
LINE
  5
19B
330
1F
100
AcDbEntity
  8
0
  6
HIDDEN
 62
     7
100
AcDbLine
 10
7.5623477668
 20
3.4191113573
 30
0.0
 11
8.9394214459
 21
3.4191113573
 31
0.0
  0
LINE
  5
19C
330
1F
100
AcDbEntity
  8
0
  6
HIDDEN
 62
     7
100
AcDbLine
 10
8.231199567
 20
3.9545419551
 30
0.0
 11
8.231199567
 21
4.526142408
 31
0.0
  0
LINE
  5
19D
330
1F
100
AcDbEntity
  8
0
  6
HIDDEN
 62
     7
100
AcDbLine
 10
8.2705696457
 20
3.9545419551
 30
0.0
 11
8.2705696457
 21
4.526142408
 31
0.0
  0
LINE
  5
19E
330
1F
100
AcDbEntity
  8
0
  6
HIDDEN
 62
     7
100
AcDbLine
 10
8.231199567
 20
3.395450985
 30
0.0
 11
8.231199567
 21
3.5628146177
 31
0.0
  0
LINE
  5
19F
330
1F
100
AcDbEntity
  8
0
  6
HIDDEN
 62
     7
100
AcDbLine
 10
8.2705696457
 20
3.395450985
 30
0.0
 11
8.231199567
 21
3.395450985
 31
0.0
  0
LINE
  5
1A0
330
1F
100
AcDbEntity
  8
0
  6
HIDDEN
 62
     7
100
AcDbLine
 10
8.2705696457
 20
3.5628146177
 30
0.0
 11
8.2705696457
 21
3.395450985
 31
0.0
  0
ARC
  5
1A1
330
1F
100
AcDbEntity
  8
0
  6
HIDDEN
 62
     7
100
AcDbCircle
 10
8.2508846063
 20
3.7586782864
 30
0.0
 40
0.2118503937007914
100
AcDbArc
 50
174.6684119576
 51
185.3315880424
  0
ARC
  5
1A2
330
1F
100
AcDbEntity
  8
0
  6
HIDDEN
 62
     7
100
AcDbCircle
 10
8.2508846063
 20
3.7586782864
 30
0.0
 40
0.2118503937007825
100
AcDbArc
 50
354.6684119576
 51
5.3315880424
  0
POLYLINE
  5
1A3
330
1F
100
AcDbEntity
  8
0
  6
HIDDEN
 62
     7
100
AcDb2dPolyline
 66
     1
 10
0.0
 20
0.0
 30
0.0
  0
VERTEX
  5
2BD
330
1A3
100
AcDbEntity
  8
0
  6
HIDDEN
 62
     7
100
AcDbVertex
100
AcDb2dVertex
 10
7.4984255164
 20
3.7783633258
 30
0.0
  0
VERTEX
  5
2BE
330
1A3
100
AcDbEntity
  8
0
  6
HIDDEN
 62
     7
100
AcDbVertex
100
AcDb2dVertex
 10
7.4981684489
 20
3.7579239525
 30
0.0
  0
VERTEX
  5
2BF
330
1A3
100
AcDbEntity
  8
0
  6
HIDDEN
 62
     7
100
AcDbVertex
100
AcDb2dVertex
 10
7.4984255164
 20
3.738993247
 30
0.0
  0
SEQEND
  5
2C0
330
1A3
100
AcDbEntity
  8
0
  6
HIDDEN
 62
     7
  0
LINE
  5
1A4
330
1F
100
AcDbEntity
  8
0
  6
HIDDEN
 62
     7
100
AcDbLine
 10
7.9070159867
 20
4.1523790738
 30
0.0
 11
7.9070159867
 21
4.445076896
 31
0.0
  0
LINE
  5
1A5
330
1F
100
AcDbEntity
  8
0
  6
HIDDEN
 62
     7
100
AcDbLine
 10
7.6314254356
 20
4.2124534949
 30
0.0
 11
7.6314254356
 21
4.1523790738
 31
0.0
  0
LINE
  5
1A6
330
1F
100
AcDbEntity
  8
0
  6
HIDDEN
 62
     7
100
AcDbLine
 10
7.6904805537
 20
4.1523790738
 30
0.0
 11
7.6904805537
 21
3.7783633258
 31
0.0
  0
LINE
  5
1A7
330
1F
100
AcDbEntity
  8
0
  6
HIDDEN
 62
     7
100
AcDbLine
 10
7.8479608686
 20
3.7783633258
 30
0.0
 11
7.8479608686
 21
4.1523790738
 31
0.0
  0
LINE
  5
1A8
330
1F
100
AcDbEntity
  8
0
  6
HIDDEN
 62
     7
100
AcDbLine
 10
7.6904805537
 20
3.738993247
 30
0.0
 11
7.6904805537
 21
3.233953619
 31
0.0
  0
LINE
  5
1A9
330
1F
100
AcDbEntity
  8
0
  6
HIDDEN
 62
     7
100
AcDbLine
 10
7.8479608686
 20
3.1052224983
 30
0.0
 11
7.8479608686
 21
3.738993247
 31
0.0
  0
ARC
  5
1AA
330
1F
100
AcDbEntity
  8
0
  6
HIDDEN
 62
     7
100
AcDbCircle
 10
7.8873309474
 20
4.2901743494
 30
0.0
 40
0.0196850393700787
100
AcDbArc
 50
0.0
 51
90.0
  0
LINE
  5
1AB
330
1F
100
AcDbEntity
  8
0
  6
HIDDEN
 62
     7
100
AcDbLine
 10
7.9070159867
 20
4.1523790738
 30
0.0
 11
7.9070159867
 21
4.2901743494
 31
0.0
  0
LINE
  5
1AC
330
1F
100
AcDbEntity
  8
0
  6
HIDDEN
 62
     7
100
AcDbLine
 10
7.6314254356
 20
4.2121747192
 30
0.0
 11
7.6314254356
 21
4.1523790738
 31
0.0
  0
LINE
  5
1AD
330
1F
100
AcDbEntity
  8
0
  6
HIDDEN
 62
     7
100
AcDbLine
 10
7.6904805537
 20
4.1523790738
 30
0.0
 11
7.6904805537
 21
3.7783633258
 31
0.0
  0
LINE
  5
1AE
330
1F
100
AcDbEntity
  8
0
  6
HIDDEN
 62
     7
100
AcDbLine
 10
7.6904805537
 20
3.738993247
 30
0.0
 11
7.6904805537
 21
3.2960798612
 31
0.0
  0
LINE
  5
1AF
330
1F
100
AcDbEntity
  8
0
  6
HIDDEN
 62
     7
100
AcDbLine
 10
7.8479608686
 20
3.2960798612
 30
0.0
 11
7.8479608686
 21
3.738993247
 31
0.0
  0
LINE
  5
1B0
330
1F
100
AcDbEntity
  8
0
  6
HIDDEN
 62
     7
100
AcDbLine
 10
7.8479608686
 20
3.7783633258
 30
0.0
 11
7.8479608686
 21
4.1523790738
 31
0.0
  0
ARC
  5
1B1
330
1F
100
AcDbEntity
  8
0
  6
HIDDEN
 62
     7
100
AcDbCircle
 10
7.8282758293
 20
3.2960798612
 30
0.0
 40
0.0196850393700787
100
AcDbArc
 50
270.0
 51
0.0
  0
ARC
  5
1B2
330
1F
100
AcDbEntity
  8
0
  6
HIDDEN
 62
     7
100
AcDbCircle
 10
7.710165593
 20
3.2960798612
 30
0.0
 40
0.0196850393700787
100
AcDbArc
 50
180.0
 51
270.0
  0
ARC
  5
1B3
330
1F
100
AcDbEntity
  8
0
  6
HIDDEN
 62
     7
100
AcDbCircle
 10
8.7823806693
 20
4.1222319454
 30
0.0
 40
0.0196850393700796
100
AcDbArc
 50
270.0
 51
0.0
  0
LINE
  5
1B4
330
1F
100
AcDbEntity
  8
0
  6
HIDDEN
 62
     7
100
AcDbLine
 10
8.6445853937
 20
4.102546906
 30
0.0
 11
8.7823806693
 21
4.102546906
 31
0.0
  0
LINE
  5
1B5
330
1F
100
AcDbEntity
  8
0
  6
HIDDEN
 62
     7
100
AcDbLine
 10
8.7043810391
 20
4.3781374572
 30
0.0
 11
8.6445853937
 21
4.3781374572
 31
0.0
  0
LINE
  5
1B6
330
1F
100
AcDbEntity
  8
0
  6
HIDDEN
 62
     7
100
AcDbLine
 10
8.6445853937
 20
4.3190823391
 30
0.0
 11
7.7882861811
 21
4.3190823391
 31
0.0
  0
LINE
  5
1B7
330
1F
100
AcDbEntity
  8
0
  6
HIDDEN
 62
     7
100
AcDbLine
 10
7.7882861811
 20
4.1616020241
 30
0.0
 11
8.6445853937
 21
4.1616020241
 31
0.0
  0
ARC
  5
1B8
330
1F
100
AcDbEntity
  8
0
  6
HIDDEN
 62
     7
100
AcDbCircle
 10
7.7882861811
 20
4.1812870635
 30
0.0
 40
0.0196850393700787
100
AcDbArc
 50
180.0
 51
270.0
  0
ARC
  5
1B9
330
1F
100
AcDbEntity
  8
0
  6
HIDDEN
 62
     7
100
AcDbCircle
 10
7.7882861811
 20
4.2993972997
 30
0.0
 40
0.0196850393700787
100
AcDbArc
 50
90.0
 51
180.0
  0
LINE
  5
1BA
330
1F
100
AcDbEntity
  8
0
  6
HIDDEN
 62
     7
100
AcDbLine
 10
8.6445853937
 20
4.102546906
 30
0.0
 11
8.9372832159
 21
4.102546906
 31
0.0
  0
LINE
  5
1BB
330
1F
100
AcDbEntity
  8
0
  6
HIDDEN
 62
     7
100
AcDbLine
 10
8.7046598148
 20
4.3781374572
 30
0.0
 11
8.6445853937
 21
4.3781374572
 31
0.0
  0
LINE
  5
1BC
330
1F
100
AcDbEntity
  8
0
  6
HIDDEN
 62
     7
100
AcDbLine
 10
8.6445853937
 20
4.3190823391
 30
0.0
 11
8.2705696457
 21
4.3190823391
 31
0.0
  0
LINE
  5
1BD
330
1F
100
AcDbEntity
  8
0
  6
HIDDEN
 62
     7
100
AcDbLine
 10
8.2705696457
 20
4.1616020241
 30
0.0
 11
8.6445853937
 21
4.1616020241
 31
0.0
  0
LINE
  5
1BE
330
1F
100
AcDbEntity
  8
0
  6
HIDDEN
 62
     7
100
AcDbLine
 10
8.231199567
 20
4.3190823391
 30
0.0
 11
7.726159939
 21
4.3190823391
 31
0.0
  0
LINE
  5
1BF
330
1F
100
AcDbEntity
  8
0
  6
HIDDEN
 62
     7
100
AcDbLine
 10
7.5974288182
 20
4.1616020241
 30
0.0
 11
8.231199567
 21
4.1616020241
 31
0.0
  0
LINE
  5
1C0
330
1F
100
AcDbEntity
  8
0
  6
HIDDEN
 62
     7
100
AcDbLine
 10
7.6314254356
 20
4.2901743494
 30
0.0
 11
7.906791257
 21
4.2901743494
 31
0.0
  0
LINE
  5
1C1
330
1F
100
AcDbEntity
  8
0
  6
HIDDEN
 62
     7
100
AcDbLine
 10
8.7823806693
 20
4.3781374572
 30
0.0
 11
8.7823806693
 21
4.1027716358
 31
0.0
  0
LINE
  5
1C2
330
1F
100
AcDbEntity
  8
0
  6
CONTINUOUS
 62
     7
100
AcDbLine
 10
3.9978959459
 20
7.4246936743
 30
0.0
 11
3.9828959459
 21
7.4396936743
 31
0.0
  0
LINE
  5
1C3
330
1F
100
AcDbEntity
  8
0
  6
CONTINUOUS
 62
     7
100
AcDbLine
 10
3.4073447648
 20
5.9042606035
 30
0.0
 11
3.5826334787
 21
5.9042606035
 31
0.0
  0
LINE
  5
1C4
330
1F
100
AcDbEntity
  8
0
  6
CONTINUOUS
 62
     7
100
AcDbLine
 10
3.9828959459
 20
7.4396936743
 30
0.0
 11
3.4073447648
 21
7.4396936743
 31
0.0
  0
ARC
  5
1C5
330
1F
100
AcDbEntity
  8
0
  6
CONTINUOUS
 62
     7
100
AcDbCircle
 10
2.7097463396
 20
7.2034732019
 30
0.0
 40
0.019685039370079
100
AcDbArc
 50
90.0
 51
113.8948994235
  0
ARC
  5
1C6
330
1F
100
AcDbEntity
  8
0
  6
CONTINUOUS
 62
     7
100
AcDbCircle
 10
2.945966812
 20
7.2034732019
 30
0.0
 40
0.0196850393700794
100
AcDbArc
 50
66.5490642096
 51
90.0
  0
LINE
  5
1C7
330
1F
100
AcDbEntity
  8
0
  6
CONTINUOUS
 62
     7
100
AcDbLine
 10
2.7491164183
 20
6.6916621783
 30
0.0
 11
2.7491164183
 21
6.6522920995
 31
0.0
  0
LINE
  5
1C8
330
1F
100
AcDbEntity
  8
0
  6
CONTINUOUS
 62
     7
100
AcDbLine
 10
2.9065967333
 20
6.6522920995
 30
0.0
 11
2.9065967333
 21
6.6916621783
 31
0.0
  0
LINE
  5
1C9
330
1F
100
AcDbEntity
  8
0
  6
CONTINUOUS
 62
     7
100
AcDbLine
 10
3.0181452897
 20
7.4396936743
 30
0.0
 11
2.6703762609
 21
7.4396936743
 31
0.0
  0
LINE
  5
1CA
330
1F
100
AcDbEntity
  8
0
  6
CONTINUOUS
 62
     7
100
AcDbLine
 10
3.245927442
 20
7.4396936743
 30
0.0
 11
3.0706387281
 21
7.4396936743
 31
0.0
  0
LINE
  5
1CB
330
1F
100
AcDbEntity
  8
0
  6
CONTINUOUS
 62
     7
100
AcDbLine
 10
3.0706387281
 20
5.9042606035
 30
0.0
 11
3.245927442
 21
5.9042606035
 31
0.0
  0
LINE
  5
1CC
330
1F
100
AcDbEntity
  8
0
  6
CONTINUOUS
 62
     7
100
AcDbLine
 10
2.6703762609
 20
5.9042606035
 30
0.0
 11
3.0181452897
 21
5.9042606035
 31
0.0
  0
LINE
  5
1CD
330
1F
100
AcDbEntity
  8
0
  6
CONTINUOUS
 62
     7
100
AcDbLine
 10
2.6703762609
 20
7.4396936743
 30
0.0
 11
2.6553762609
 21
7.4246936743
 31
0.0
  0
LINE
  5
1CE
330
1F
100
AcDbEntity
  8
0
  6
CONTINUOUS
 62
     7
100
AcDbLine
 10
2.6553762609
 20
5.9192606035
 30
0.0
 11
2.6703762609
 21
5.9042606035
 31
0.0
  0
LINE
  5
1CF
330
1F
100
AcDbEntity
  8
0
  6
CONTINUOUS
 62
     7
100
AcDbLine
 10
3.3463211428
 20
6.5341818633
 30
0.0
 11
3.4073447648
 21
6.5341818633
 31
0.0
  0
LINE
  5
1D0
330
1F
100
AcDbEntity
  8
0
  6
CONTINUOUS
 62
     7
100
AcDbLine
 10
3.4073447648
 20
6.8097724145
 30
0.0
 11
3.3463211428
 21
6.8097724145
 31
0.0
  0
LINE
  5
1D1
330
1F
100
AcDbEntity
  8
0
  6
CONTINUOUS
 62
     7
100
AcDbLine
 10
3.245927442
 20
6.5341818633
 30
0.0
 11
3.306951064
 21
6.5341818633
 31
0.0
  0
LINE
  5
1D2
330
1F
100
AcDbEntity
  8
0
  6
CONTINUOUS
 62
     7
100
AcDbLine
 10
3.306951064
 20
6.8097724145
 30
0.0
 11
3.245927442
 21
6.8097724145
 31
0.0
  0
LINE
  5
1D3
330
1F
100
AcDbEntity
  8
0
  6
CONTINUOUS
 62
     7
100
AcDbLine
 10
3.245927442
 20
7.0952054854
 30
0.0
 11
3.306951064
 21
7.0952054854
 31
0.0
  0
LINE
  5
1D4
330
1F
100
AcDbEntity
  8
0
  6
CONTINUOUS
 62
     7
100
AcDbLine
 10
3.306951064
 20
7.3707960366
 30
0.0
 11
3.245927442
 21
7.3707960366
 31
0.0
  0
LINE
  5
1D5
330
1F
100
AcDbEntity
  8
0
  6
CONTINUOUS
 62
     7
100
AcDbLine
 10
3.3463211428
 20
7.0952054854
 30
0.0
 11
3.4073447648
 21
7.0952054854
 31
0.0
  0
LINE
  5
1D6
330
1F
100
AcDbEntity
  8
0
  6
CONTINUOUS
 62
     7
100
AcDbLine
 10
3.4073447648
 20
7.3707960366
 30
0.0
 11
3.3463211428
 21
7.3707960366
 31
0.0
  0
LINE
  5
1D7
330
1F
100
AcDbEntity
  8
0
  6
CONTINUOUS
 62
     7
100
AcDbLine
 10
3.245927442
 20
5.9731582413
 30
0.0
 11
3.306951064
 21
5.9731582413
 31
0.0
  0
LINE
  5
1D8
330
1F
100
AcDbEntity
  8
0
  6
CONTINUOUS
 62
     7
100
AcDbLine
 10
3.306951064
 20
6.2487487925
 30
0.0
 11
3.245927442
 21
6.2487487925
 31
0.0
  0
LINE
  5
1D9
330
1F
100
AcDbEntity
  8
0
  6
CONTINUOUS
 62
     7
100
AcDbLine
 10
3.3463211428
 20
5.9731582413
 30
0.0
 11
3.4073447648
 21
5.9731582413
 31
0.0
  0
LINE
  5
1DA
330
1F
100
AcDbEntity
  8
0
  6
CONTINUOUS
 62
     7
100
AcDbLine
 10
3.4073447648
 20
6.2487487925
 30
0.0
 11
3.3463211428
 21
6.2487487925
 31
0.0
  0
LINE
  5
1DB
330
1F
100
AcDbEntity
  8
0
  6
CONTINUOUS
 62
     7
100
AcDbLine
 10
3.3463211428
 20
7.4052448555
 30
0.0
 11
3.306951064
 21
7.4052448555
 31
0.0
  0
LINE
  5
1DC
330
1F
100
AcDbEntity
  8
0
  6
CONTINUOUS
 62
     7
100
AcDbLine
 10
3.306951064
 20
5.9387094224
 30
0.0
 11
3.3463211428
 21
5.9387094224
 31
0.0
  0
LINE
  5
1DD
330
1F
100
AcDbEntity
  8
0
  6
CONTINUOUS
 62
     7
100
AcDbLine
 10
3.9978959459
 20
7.4246936743
 30
0.0
 11
3.9978959459
 21
5.919518049
 31
0.0
  0
LINE
  5
1DE
330
1F
100
AcDbEntity
  8
0
  6
CONTINUOUS
 62
     7
100
AcDbLine
 10
3.9828959459
 20
5.9045130173
 30
0.0
 11
3.9978959459
 21
5.919518049
 31
0.0
  0
LINE
  5
1DF
330
1F
100
AcDbEntity
  8
0
  6
CONTINUOUS
 62
     7
100
AcDbLine
 10
3.9828959459
 20
5.9045130173
 30
0.0
 11
3.9828959459
 21
7.4396936743
 31
0.0
  0
LINE
  5
1E0
330
1F
100
AcDbEntity
  8
0
  6
CONTINUOUS
 62
     7
100
AcDbLine
 10
3.4073447648
 20
7.4396936743
 30
0.0
 11
3.4073447648
 21
5.9042606035
 31
0.0
  0
SPLINE
  5
1E1
330
1F
100
AcDbEntity
  8
0
  6
CONTINUOUS
 62
     7
100
AcDbSpline
210
0.0
220
0.0
230
1.0
 70
     8
 71
     3
 72
    76
 73
    72
 74
     0
 42
0.00000001
 43
0.00000001
 40
-0.0312499999999999
 40
-0.0312499999999999
 40
0.0
 40
0.0
 40
0.03125
 40
0.03125
 40
0.0625
 40
0.0625
 40
0.09375
 40
0.09375
 40
0.125
 40
0.125
 40
0.15625
 40
0.15625
 40
0.1875000000000001
 40
0.1875000000000001
 40
0.2187500000000001
 40
0.2187500000000001
 40
0.2500000000000001
 40
0.2500000000000001
 40
0.2812500000000001
 40
0.2812500000000001
 40
0.3125000000000001
 40
0.3125000000000001
 40
0.3437500000000001
 40
0.3437500000000001
 40
0.3750000000000001
 40
0.3750000000000001
 40
0.4062500000000001
 40
0.4062500000000001
 40
0.4375000000000001
 40
0.4375000000000001
 40
0.4531250000000001
 40
0.4531250000000001
 40
0.46875
 40
0.46875
 40
0.4843749999999999
 40
0.4843749999999999
 40
0.4999999999999999
 40
0.4999999999999999
 40
0.5156249999999999
 40
0.5156249999999999
 40
0.5312499999999999
 40
0.5312499999999999
 40
0.5625
 40
0.5625
 40
0.5937500000000001
 40
0.5937500000000001
 40
0.6250000000000002
 40
0.6250000000000002
 40
0.6562500000000003
 40
0.6562500000000003
 40
0.6875000000000003
 40
0.6875000000000003
 40
0.7187500000000003
 40
0.7187500000000003
 40
0.7500000000000004
 40
0.7500000000000004
 40
0.7812500000000004
 40
0.7812500000000004
 40
0.8125000000000003
 40
0.8125000000000003
 40
0.8437500000000002
 40
0.8437500000000002
 40
0.8750000000000001
 40
0.8750000000000001
 40
0.9062500000000001
 40
0.9062500000000001
 40
0.9375000000000001
 40
0.9375000000000001
 40
0.9687500000000001
 40
0.9687500000000001
 40
1.0
 40
1.0
 40
1.03125
 40
1.03125
 10
3.836023226267238
 20
6.32810851932684
 30
0.0
 10
3.814808035619976
 20
6.32810851932684
 30
0.0
 10
3.804434533309397
 20
6.32689982254889
 30
0.0
 10
3.784134691269585
 20
6.322191915208582
 30
0.0
 10
3.774211728128383
 20
6.318647167388492
 30
0.0
 10
3.755886082680789
 20
6.309716248480092
 30
0.0
 10
3.747240323150864
 20
6.304219551350941
 30
0.0
 10
3.731724590061855
 20
6.291841636422214
 30
0.0
 10
3.724842467989448
 20
6.284994116277046
 30
0.0
 10
3.712701401410985
 20
6.270156409959518
 30
0.0
 10
3.707588061250489
 20
6.262332219327853
 30
0.0
 10
3.699152790793003
 20
6.246239661663314
 30
0.0
 10
3.695795389788741
 20
6.237870733557926
 30
0.0
 10
3.690845978912155
 20
6.22120224675216
 30
0.0
 10
3.689222974205884
 20
6.212870746281333
 30
0.0
 10
3.687495575084986
 20
6.196257893625371
 30
0.0
 10
3.687405468322849
 20
6.187983677984854
 30
0.0
 10
3.688613759622016
 20
6.171942618648685
 30
0.0
 10
3.689904128950332
 20
6.164115450528221
 30
0.0
 10
3.693776353075069
 20
6.148830812952935
 30
0.0
 10
3.696373341504616
 20
6.141361764775349
 30
0.0
 10
3.702709023010796
 20
6.127136918061686
 30
0.0
 10
3.706456026530759
 20
6.120331437773903
 30
0.0
 10
3.715148909087061
 20
6.107306673521459
 30
0.0
 10
3.720118224394114
 20
6.101059954293281
 30
0.0
 10
3.73134949790236
 20
6.089292176046856
 30
0.0
 10
3.737539537840768
 20
6.083833794304918
 30
0.0
 10
3.751321477746937
 20
6.073822311246696
 30
0.0
 10
3.759005457879256
 20
6.069224916853445
 30
0.0
 10
3.771559645772038
 20
6.063394530218787
 30
0.0
 10
3.775918025560063
 20
6.061624293869587
 30
0.0
 10
3.785048439085295
 20
6.058474901142134
 30
0.0
 10
3.789863633468962
 20
6.057087588123425
 30
0.0
 10
3.799706955251535
 20
6.05484338054866
 30
0.0
 10
3.804745877783756
 20
6.053977726638601
 30
0.0
 10
3.815086360735574
 20
6.052807178070251
 30
0.0
 10
3.820428584678818
 20
6.052508133533687
 30
0.0
 10
3.830932098669247
 20
6.052528311279106
 30
0.0
 10
3.836143127596019
 20
6.052837551828817
 30
0.0
 10
3.84648647226979
 20
6.054039017649062
 30
0.0
 10
3.85161792947603
 20
6.054938344143194
 30
0.0
 10
3.86634297633233
 20
6.058350999033139
 30
0.0
 10
3.875572542945503
 20
6.061641545563553
 30
0.0
 10
3.892227488485203
 20
6.06944845389217
 30
0.0
 10
3.899765090685037
 20
6.073979285017964
 30
0.0
 10
3.913647042066902
 20
6.08412167059552
 30
0.0
 10
3.919798213491263
 20
6.089594893880516
 30
0.0
 10
3.93087746510319
 20
6.10126236265288
 30
0.0
 10
3.935800542336591
 20
6.107458852579943
 30
0.0
 10
3.944529270084102
 20
6.120587927187466
 30
0.0
 10
3.948305509166396
 20
6.127494899583228
 30
0.0
 10
3.954595488553543
 20
6.141726919326832
 30
0.0
 10
3.957135369761645
 20
6.149090555222243
 30
0.0
 10
3.960970486409095
 20
6.164346326276785
 30
0.0
 10
3.962264276980278
 20
6.172291345903776
 30
0.0
 10
3.963431870584225
 20
6.188348983310769
 30
0.0
 10
3.963322080116276
 20
6.196490040977005
 30
0.0
 10
3.961585290145134
 20
6.212988460615225
 30
0.0
 10
3.959937318100685
 20
6.221416944628485
 30
0.0
 10
3.95494532225959
 20
6.238121021266353
 30
0.0
 10
3.951634330697583
 20
6.246336904675296
 30
0.0
 10
3.943201497852381
 20
6.262398611940534
 30
0.0
 10
3.937998748200928
 20
6.270329316022373
 30
0.0
 10
3.925971268843558
 20
6.285002703561559
 30
0.0
 10
3.919144621261746
 20
6.291802424743381
 30
0.0
 10
3.90370451819678
 20
6.304137791265405
 30
0.0
 10
3.895016658613134
 20
6.30967263490903
 30
0.0
 10
3.876739244023943
 20
6.31859751422243
 30
0.0
 10
3.866994104028066
 20
6.322107423643609
 30
0.0
 10
3.84648016089171
 20
6.326895676206734
 30
0.0
 10
3.836023226267238
 20
6.32810851932684
 30
0.0
 10
3.814808035619976
 20
6.32810851932684
 30
0.0
  0
LINE
  5
1E2
330
1F
100
AcDbEntity
  8
0
  6
CONTINUOUS
 62
     7
100
AcDbLine
 10
3.9828959459
 20
5.9045130173
 30
0.0
 11
3.635126917
 21
5.9045130173
 31
0.0
  0
LINE
  5
1E3
330
1F
100
AcDbEntity
  8
0
  6
CONTINUOUS
 62
     7
100
AcDbLine
 10
3.635126917
 20
7.0115440681
 30
0.0
 11
3.635126917
 21
5.9045130173
 31
0.0
  0
LINE
  5
1E4
330
1F
100
AcDbEntity
  8
0
  6
CONTINUOUS
 62
     7
100
AcDbLine
 10
3.5826334787
 20
7.0115440681
 30
0.0
 11
3.635126917
 21
7.0115440681
 31
0.0
  0
LINE
  5
1E5
330
1F
100
AcDbEntity
  8
0
  6
CONTINUOUS
 62
     7
100
AcDbLine
 10
3.5826334787
 20
5.9042606035
 30
0.0
 11
3.5826334787
 21
7.0115440681
 31
0.0
  0
CIRCLE
  5
1E6
330
1F
100
AcDbEntity
  8
0
  6
CONTINUOUS
 62
     7
100
AcDbCircle
 10
3.8254156309
 20
6.1903132437
 30
0.0
 40
0.1181102362204722
  0
CIRCLE
  5
1E7
330
1F
100
AcDbEntity
  8
0
  6
CONTINUOUS
 62
     7
100
AcDbCircle
 10
3.8254156309
 20
6.1903132437
 30
0.0
 40
0.1377952755905509
  0
LINE
  5
1E8
330
1F
100
AcDbEntity
  8
0
  6
CONTINUOUS
 62
     7
100
AcDbLine
 10
3.8844707491
 20
6.1562177554
 30
0.0
 11
3.8844707491
 21
6.2244087321
 31
0.0
  0
LINE
  5
1E9
330
1F
100
AcDbEntity
  8
0
  6
CONTINUOUS
 62
     7
100
AcDbLine
 10
3.8844707491
 20
6.2244087321
 30
0.0
 11
3.8254156309
 21
6.2585042204
 31
0.0
  0
LINE
  5
1EA
330
1F
100
AcDbEntity
  8
0
  6
CONTINUOUS
 62
     7
100
AcDbLine
 10
3.8254156309
 20
6.2585042204
 30
0.0
 11
3.7663605128
 21
6.2244087321
 31
0.0
  0
LINE
  5
1EB
330
1F
100
AcDbEntity
  8
0
  6
CONTINUOUS
 62
     7
100
AcDbLine
 10
3.7663605128
 20
6.2244087321
 30
0.0
 11
3.7663605128
 21
6.1562177554
 31
0.0
  0
LINE
  5
1EC
330
1F
100
AcDbEntity
  8
0
  6
CONTINUOUS
 62
     7
100
AcDbLine
 10
3.7663605128
 20
6.1562177554
 30
0.0
 11
3.8254156309
 21
6.1221222671
 31
0.0
  0
LINE
  5
1ED
330
1F
100
AcDbEntity
  8
0
  6
CONTINUOUS
 62
     7
100
AcDbLine
 10
3.8254156309
 20
6.1221222671
 30
0.0
 11
3.8844707491
 21
6.1562177554
 31
0.0
  0
LINE
  5
1EE
330
1F
100
AcDbEntity
  8
0
  6
CONTINUOUS
 62
     7
100
AcDbLine
 10
2.8278565758
 20
7.2231582413
 30
0.0
 11
2.7097463396
 21
7.2231582413
 31
0.0
  0
LINE
  5
1EF
330
1F
100
AcDbEntity
  8
0
  6
CONTINUOUS
 62
     7
100
AcDbLine
 10
2.945966812
 20
7.2231582413
 30
0.0
 11
2.8278565758
 21
7.2231582413
 31
0.0
  0
LINE
  5
1F0
330
1F
100
AcDbEntity
  8
0
  6
CONTINUOUS
 62
     7
100
AcDbLine
 10
3.245927442
 20
7.4396936743
 30
0.0
 11
3.245927442
 21
5.9042606035
 31
0.0
  0
SPLINE
  5
1F1
330
1F
100
AcDbEntity
  8
0
  6
CONTINUOUS
 62
     7
100
AcDbSpline
210
0.0
220
0.0
230
1.0
 70
     8
 71
     3
 72
    76
 73
    72
 74
     0
 42
0.00000001
 43
0.00000001
 40
-0.03125
 40
-0.03125
 40
0.0
 40
0.0
 40
0.0312500000000001
 40
0.0312500000000001
 40
0.0625000000000002
 40
0.0625000000000002
 40
0.0937500000000003
 40
0.0937500000000003
 40
0.1250000000000004
 40
0.1250000000000004
 40
0.1562500000000005
 40
0.1562500000000005
 40
0.1875000000000006
 40
0.1875000000000006
 40
0.2187500000000007
 40
0.2187500000000007
 40
0.2500000000000008
 40
0.2500000000000008
 40
0.2812500000000009
 40
0.2812500000000009
 40
0.312500000000001
 40
0.312500000000001
 40
0.3437500000000011
 40
0.3437500000000011
 40
0.3750000000000012
 40
0.3750000000000012
 40
0.4062500000000013
 40
0.4062500000000013
 40
0.4375000000000013
 40
0.4375000000000013
 40
0.4531250000000013
 40
0.4531250000000013
 40
0.4687500000000013
 40
0.4687500000000013
 40
0.4843750000000013
 40
0.4843750000000013
 40
0.5000000000000012
 40
0.5000000000000012
 40
0.5156250000000011
 40
0.5156250000000011
 40
0.5312500000000011
 40
0.5312500000000011
 40
0.562500000000001
 40
0.562500000000001
 40
0.5937500000000009
 40
0.5937500000000009
 40
0.6250000000000007
 40
0.6250000000000007
 40
0.6562500000000006
 40
0.6562500000000006
 40
0.6875000000000004
 40
0.6875000000000004
 40
0.7187500000000003
 40
0.7187500000000003
 40
0.7500000000000002
 40
0.7500000000000002
 40
0.7812500000000001
 40
0.7812500000000001
 40
0.8125000000000001
 40
0.8125000000000001
 40
0.8437500000000001
 40
0.8437500000000001
 40
0.875
 40
0.875
 40
0.90625
 40
0.90625
 40
0.9375
 40
0.9375
 40
0.96875
 40
0.96875
 40
1.0
 40
1.0
 40
1.03125
 40
1.03125
 10
2.817248980501867
 20
7.358375748500472
 30
0.0
 10
2.838464171149129
 20
7.358375748500472
 30
0.0
 10
2.848837673459709
 20
7.357773969408115
 30
0.0
 10
2.869137515499521
 20
7.355384736371649
 30
0.0
 10
2.879060478640723
 20
7.353572387732441
 30
0.0
 10
2.897386124088316
 20
7.348867971509667
 30
0.0
 10
2.90603188361824
 20
7.345915751251008
 30
0.0
 10
2.92154761670725
 20
7.33901229252598
 30
0.0
 10
2.928429738779657
 20
7.335081650170669
 30
0.0
 10
2.94057080535812
 20
7.326196944820665
 30
0.0
 10
2.945684145518617
 20
7.321339660228019
 30
0.0
 10
2.954119415976102
 20
7.310904556305156
 30
0.0
 10
2.957476816980364
 20
7.305257731796114
 30
0.0
 10
2.96242622785695
 20
7.293503226128879
 30
0.0
 10
2.964049232563221
 20
7.287379150614056
 30
0.0
 10
2.965776631684119
 20
7.274629207210901
 30
0.0
 10
2.965866738446257
 20
7.268004130814804
 30
0.0
 10
2.964658447147089
 20
7.254611950643771
 30
0.0
 10
2.963368077818773
 20
7.247799633844802
 30
0.0
 10
2.959495853694037
 20
7.233949524206805
 30
0.0
 10
2.956898865264489
 20
7.226896330077317
 30
0.0
 10
2.950563183758308
 20
7.212936580771815
 30
0.0
 10
2.946816180238346
 20
7.205986187766833
 30
0.0
 10
2.938123297682043
 20
7.192194314097881
 30
0.0
 10
2.933153982374991
 20
7.185320824014257
 30
0.0
 10
2.921922708866745
 20
7.171923540817197
 30
0.0
 10
2.915732668928337
 20
7.165473088238153
 30
0.0
 10
2.901950729022168
 20
7.153289561302508
 30
0.0
 10
2.894266748889849
 20
7.147496498262251
 30
0.0
 10
2.881712560997067
 20
7.139979214822534
 30
0.0
 10
2.877354181209042
 20
7.137664676917603
 30
0.0
 10
2.868223767683809
 20
7.133507725933478
 30
0.0
 10
2.863408573300143
 20
7.131654258568419
 30
0.0
 10
2.85356525151757
 20
7.128636900980973
 30
0.0
 10
2.848526328985348
 20
7.127461915552851
 30
0.0
 10
2.838185846033531
 20
7.125869433309069
 30
0.0
 10
2.832843622090286
 20
7.125460137979434
 30
0.0
 10
2.822340108099858
 20
7.125487699992804
 30
0.0
 10
2.817129079173085
 20
7.12591092154304
 30
0.0
 10
2.806785734499314
 20
7.127545120224686
 30
0.0
 10
2.801654277293076
 20
7.12876531236898
 30
0.0
 10
2.786929230436775
 20
7.133351350121545
 30
0.0
 10
2.777699663823602
 20
7.137723489067093
 30
0.0
 10
2.761044718283902
 20
7.147780021332045
 30
0.0
 10
2.753507116084068
 20
7.15348620226965
 30
0.0
 10
2.739625164702202
 20
7.165817558205566
 30
0.0
 10
2.733473993277842
 20
7.172274703774432
 30
0.0
 10
2.722394741665914
 20
7.185544444038518
 30
0.0
 10
2.717471664432514
 20
7.192360766662997
 30
0.0
 10
2.708742936685002
 20
7.206252304747553
 30
0.0
 10
2.704966697602709
 20
7.213296865775193
 30
0.0
 10
2.698676718215562
 20
7.227245236560195
 30
0.0
 10
2.69613683700746
 20
7.234190778650434
 30
0.0
 10
2.692301720360009
 20
7.248002758285176
 30
0.0
 10
2.691007929788827
 20
7.254911156464599
 30
0.0
 10
2.68984033618488
 20
7.268300681684113
 30
0.0
 10
2.68995012665283
 20
7.27481109831462
 30
0.0
 10
2.691686916623972
 20
7.287465689664426
 30
0.0
 10
2.69333488866842
 20
7.293659197418878
 30
0.0
 10
2.698326884509515
 20
7.305429536274143
 30
0.0
 10
2.701637876071522
 20
7.310969054255102
 30
0.0
 10
2.710070708916724
 20
7.321381255867721
 30
0.0
 10
2.715273458568177
 20
7.326301844224828
 30
0.0
 10
2.727300937925547
 20
7.335085410614374
 30
0.0
 10
2.734127585507359
 20
7.338989690134919
 30
0.0
 10
2.749567688572324
 20
7.345870877646227
 30
0.0
 10
2.758255548155971
 20
7.348844604350717
 30
0.0
 10
2.776532962745162
 20
7.353546621976384
 30
0.0
 10
2.786278102741039
 20
7.355341660720859
 30
0.0
 10
2.806792045877395
 20
7.357772058276595
 30
0.0
 10
2.817248980501867
 20
7.358375748500472
 30
0.0
 10
2.838464171149129
 20
7.358375748500472
 30
0.0
  0
SPLINE
  5
1F2
330
1F
100
AcDbEntity
  8
0
  6
CONTINUOUS
 62
     7
100
AcDbSpline
210
0.0
220
0.0
230
1.0
 70
     8
 71
     3
 72
    62
 73
    58
 74
     0
 42
0.00000001
 43
0.00000001
 40
-0.0312500000000001
 40
-0.0312500000000001
 40
0.0
 40
0.0
 40
0.0312499999999998
 40
0.0312499999999998
 40
0.0624999999999996
 40
0.0624999999999996
 40
0.0937499999999993
 40
0.0937499999999993
 40
0.1249999999999991
 40
0.1249999999999991
 40
0.1874999999999987
 40
0.1874999999999987
 40
0.2187499999999985
 40
0.2187499999999985
 40
0.2499999999999983
 40
0.2499999999999983
 40
0.2812499999999982
 40
0.2812499999999982
 40
0.312499999999998
 40
0.312499999999998
 40
0.3437499999999977
 40
0.3437499999999977
 40
0.3749999999999973
 40
0.3749999999999973
 40
0.4374999999999971
 40
0.4374999999999971
 40
0.4687499999999972
 40
0.4687499999999972
 40
0.4999999999999973
 40
0.4999999999999973
 40
0.5312499999999974
 40
0.5312499999999974
 40
0.5624999999999976
 40
0.5624999999999976
 40
0.5937499999999977
 40
0.5937499999999977
 40
0.6249999999999978
 40
0.6249999999999978
 40
0.6562499999999979
 40
0.6562499999999979
 40
0.687499999999998
 40
0.687499999999998
 40
0.7499999999999986
 40
0.7499999999999986
 40
0.7812499999999989
 40
0.7812499999999989
 40
0.8124999999999992
 40
0.8124999999999992
 40
0.8749999999999996
 40
0.8749999999999996
 40
0.9062499999999997
 40
0.9062499999999997
 40
0.9374999999999998
 40
0.9374999999999998
 40
0.9687499999999999
 40
0.9687499999999999
 40
1.0
 40
1.0
 40
1.03125
 40
1.03125
 10
2.833868932283235
 20
6.147252471553537
 30
0.0
 10
2.821844219367761
 20
6.147252471553537
 30
0.0
 10
2.816023580634395
 20
6.146525151287296
 30
0.0
 10
2.804721683729077
 20
6.143796864999733
 30
0.0
 10
2.799362486119914
 20
6.141810701003278
 30
0.0
 10
2.789515993663869
 20
6.137018832664786
 30
0.0
 10
2.784968586310218
 20
6.134184891671245
 30
0.0
 10
2.776839133205633
 20
6.128101153043944
 30
0.0
 10
2.773194849247212
 20
6.12481996825023
 30
0.0
 10
2.763339982170042
 20
6.11441286211556
 30
0.0
 10
2.758466190626427
 20
6.107056352174922
 30
0.0
 10
2.753272092035479
 20
6.095737634027216
 30
0.0
 10
2.751905197087357
 20
6.091899087668847
 30
0.0
 10
2.749966447920174
 20
6.084333195398511
 30
0.0
 10
2.74938021585776
 20
6.080579060114385
 30
0.0
 10
2.748993446864593
 20
6.073130945334718
 30
0.0
 10
2.749198763920112
 20
6.069407643897209
 30
0.0
 10
2.750460547791822
 20
6.062171924504978
 30
0.0
 10
2.751506129017983
 20
6.058676652547328
 30
0.0
 10
2.754471855510449
 20
6.051926115487217
 30
0.0
 10
2.756390706022654
 20
6.048670713302896
 30
0.0
 10
2.761237664757025
 20
6.042408126882028
 30
0.0
 10
2.764167367308139
 20
6.03942008084149
 30
0.0
 10
2.774283086379019
 20
6.031240662575609
 30
0.0
 10
2.783087366563937
 20
6.026647219885641
 30
0.0
 10
2.798404816658188
 20
6.021906555411713
 30
0.0
 10
2.803993941046402
 20
6.020646357777771
 30
0.0
 10
2.815399934862736
 20
6.018967336661656
 30
0.0
 10
2.821254237363583
 20
6.018522532717227
 30
0.0
 10
2.833274608073403
 20
6.018466793715747
 30
0.0
 10
2.839155233325743
 20
6.018856944544281
 30
0.0
 10
2.850670387178146
 20
6.020442421476672
 30
0.0
 10
2.856270993622529
 20
6.021648005075283
 30
0.0
 10
2.866633815499561
 20
6.02474089160105
 30
0.0
 10
2.871520665079189
 20
6.026666249147273
 30
0.0
 10
2.880271738420267
 20
6.031059390416952
 30
0.0
 10
2.884193476700465
 20
6.03354259414851
 30
0.0
 10
2.891119442916331
 20
6.039017306290641
 30
0.0
 10
2.894054250234296
 20
6.041949054039734
 30
0.0
 10
2.899004083672161
 20
6.048186120189182
 30
0.0
 10
2.901019754840125
 20
6.05151162535468
 30
0.0
 10
2.905629670598588
 20
6.061749382508725
 30
0.0
 10
2.906889469966928
 20
6.069105972587964
 30
0.0
 10
2.906364848233589
 20
6.080322185063077
 30
0.0
 10
2.905792929271835
 20
6.08409363287494
 30
0.0
 10
2.903873391302877
 20
6.091699572872733
 30
0.0
 10
2.902513407328336
 20
6.095551697973584
 30
0.0
 10
2.897354331319109
 20
6.106876918969059
 30
0.0
 10
2.892501463674247
 20
6.114247415967214
 30
0.0
 10
2.882643847102518
 20
6.124701941922488
 30
0.0
 10
2.878994816303768
 20
6.128000409525943
 30
0.0
 10
2.870844265413885
 20
6.134120347929688
 30
0.0
 10
2.86628118350419
 20
6.136970915943435
 30
0.0
 10
2.85643391378398
 20
6.141777094404314
 30
0.0
 10
2.85107432547477
 20
6.143771859026812
 30
0.0
 10
2.839729286262609
 20
6.146520514325012
 30
0.0
 10
2.833868932283235
 20
6.147252471553537
 30
0.0
 10
2.821844219367761
 20
6.147252471553537
 30
0.0
  0
LINE
  5
1F3
330
1F
100
AcDbEntity
  8
0
  6
CONTINUOUS
 62
     7
100
AcDbLine
 10
3.0706387281
 20
7.3605139785
 30
0.0
 11
3.0181452897
 21
7.3605139785
 31
0.0
  0
LINE
  5
1F4
330
1F
100
AcDbEntity
  8
0
  6
CONTINUOUS
 62
     7
100
AcDbLine
 10
3.0181452897
 20
7.4396936743
 30
0.0
 11
3.0181452897
 21
6.6916621783
 31
0.0
  0
LINE
  5
1F5
330
1F
100
AcDbEntity
  8
0
  6
CONTINUOUS
 62
     7
100
AcDbLine
 10
2.6703762609
 20
6.6916621783
 30
0.0
 11
3.0181452897
 21
6.6916621783
 31
0.0
  0
LINE
  5
1F6
330
1F
100
AcDbEntity
  8
0
  6
CONTINUOUS
 62
     7
100
AcDbLine
 10
2.6703762609
 20
6.6916621783
 30
0.0
 11
2.6703762609
 21
7.4396936743
 31
0.0
  0
LINE
  5
1F7
330
1F
100
AcDbEntity
  8
0
  6
CONTINUOUS
 62
     7
100
AcDbLine
 10
2.6703762609
 20
5.9042606035
 30
0.0
 11
2.6703762609
 21
6.6522920995
 31
0.0
  0
LINE
  5
1F8
330
1F
100
AcDbEntity
  8
0
  6
CONTINUOUS
 62
     7
100
AcDbLine
 10
2.6703762609
 20
6.6522920995
 30
0.0
 11
3.0181452897
 21
6.6522920995
 31
0.0
  0
LINE
  5
1F9
330
1F
100
AcDbEntity
  8
0
  6
CONTINUOUS
 62
     7
100
AcDbLine
 10
3.0181452897
 20
6.6522920995
 30
0.0
 11
3.0181452897
 21
5.9042606035
 31
0.0
  0
LINE
  5
1FA
330
1F
100
AcDbEntity
  8
0
  6
CONTINUOUS
 62
     7
100
AcDbLine
 10
3.0181452897
 20
5.9834402994
 30
0.0
 11
3.0706387281
 21
5.9834402994
 31
0.0
  0
LINE
  5
1FB
330
1F
100
AcDbEntity
  8
0
  6
CONTINUOUS
 62
     7
100
AcDbLine
 10
3.0706387281
 20
5.9042606035
 30
0.0
 11
3.0706387281
 21
7.4396936743
 31
0.0
  0
LINE
  5
1FC
330
1F
100
AcDbEntity
  8
0
  6
CONTINUOUS
 62
     7
100
AcDbLine
 10
2.6703762609
 20
6.6916621783
 30
0.0
 11
2.6553762609
 21
6.6916621783
 31
0.0
  0
LINE
  5
1FD
330
1F
100
AcDbEntity
  8
0
  6
CONTINUOUS
 62
     7
100
AcDbLine
 10
2.6553762609
 20
6.6522920995
 30
0.0
 11
2.6553762609
 21
5.9192606035
 31
0.0
  0
LINE
  5
1FE
330
1F
100
AcDbEntity
  8
0
  6
CONTINUOUS
 62
     7
100
AcDbLine
 10
2.6553762609
 20
7.4246936743
 30
0.0
 11
2.6553762609
 21
6.6916621783
 31
0.0
  0
LINE
  5
1FF
330
1F
100
AcDbEntity
  8
0
  6
CONTINUOUS
 62
     7
100
AcDbLine
 10
2.6703762609
 20
6.6522920995
 30
0.0
 11
2.6553762609
 21
6.6522920995
 31
0.0
  0
LINE
  5
200
330
1F
100
AcDbEntity
  8
0
  6
CONTINUOUS
 62
     7
100
AcDbLine
 10
3.3463211428
 20
6.7937721061
 30
0.0
 11
3.306951064
 21
6.7937721061
 31
0.0
  0
LINE
  5
201
330
1F
100
AcDbEntity
  8
0
  6
CONTINUOUS
 62
     7
100
AcDbLine
 10
3.3463211428
 20
6.5501821717
 30
0.0
 11
3.306951064
 21
6.5501821717
 31
0.0
  0
LINE
  5
202
330
1F
100
AcDbEntity
  8
0
  6
CONTINUOUS
 62
     7
100
AcDbLine
 10
3.3463211428
 20
6.7937721061
 30
0.0
 11
3.3463211428
 21
6.5501821717
 31
0.0
  0
LINE
  5
203
330
1F
100
AcDbEntity
  8
0
  6
CONTINUOUS
 62
     7
100
AcDbLine
 10
3.306951064
 20
6.7937721061
 30
0.0
 11
3.306951064
 21
6.5501821717
 31
0.0
  0
LINE
  5
204
330
1F
100
AcDbEntity
  8
0
  6
CONTINUOUS
 62
     7
100
AcDbLine
 10
3.3463211428
 20
7.3547957282
 30
0.0
 11
3.306951064
 21
7.3547957282
 31
0.0
  0
LINE
  5
205
330
1F
100
AcDbEntity
  8
0
  6
CONTINUOUS
 62
     7
100
AcDbLine
 10
3.3463211428
 20
7.3547957282
 30
0.0
 11
3.3463211428
 21
6.7937721061
 31
0.0
  0
LINE
  5
206
330
1F
100
AcDbEntity
  8
0
  6
CONTINUOUS
 62
     7
100
AcDbLine
 10
3.306951064
 20
7.3547957282
 30
0.0
 11
3.306951064
 21
6.7937721061
 31
0.0
  0
LINE
  5
207
330
1F
100
AcDbEntity
  8
0
  6
CONTINUOUS
 62
     7
100
AcDbLine
 10
3.3463211428
 20
5.9891585496
 30
0.0
 11
3.306951064
 21
5.9891585496
 31
0.0
  0
LINE
  5
208
330
1F
100
AcDbEntity
  8
0
  6
CONTINUOUS
 62
     7
100
AcDbLine
 10
3.3463211428
 20
6.5501821717
 30
0.0
 11
3.3463211428
 21
5.9891585496
 31
0.0
  0
LINE
  5
209
330
1F
100
AcDbEntity
  8
0
  6
CONTINUOUS
 62
     7
100
AcDbLine
 10
3.306951064
 20
6.5501821717
 30
0.0
 11
3.306951064
 21
5.9891585496
 31
0.0
  0
SPLINE
  5
20A
330
1F
100
AcDbEntity
  8
0
  6
CONTINUOUS
 62
     7
100
AcDbSpline
210
0.0
220
0.0
230
1.0
 70
     8
 71
     3
 72
     8
 73
     4
 74
     0
 42
0.00000001
 43
0.00000001
 40
0.0
 40
0.0
 40
0.0
 40
0.0
 40
1.0
 40
1.0
 40
1.0
 40
1.0
 10
2.961020006804138
 20
6.691662178286504
 30
0.0
 10
2.960176772103025
 20
6.678538818706452
 30
0.0
 10
2.960176772103025
 20
6.665415459126399
 30
0.0
 10
2.961020006804138
 20
6.652292099546346
 30
0.0
  0
LINE
  5
20B
330
1F
100
AcDbEntity
  8
0
  6
CONTINUOUS
 62
     7
100
AcDbLine
 10
3.0181452897
 20
6.6916621783
 30
0.0
 11
3.0181452897
 21
6.6522920995
 31
0.0
  0
LINE
  5
20C
330
1F
100
AcDbEntity
  8
0
  6
CONTINUOUS
 62
     7
100
AcDbLine
 10
3.3463211428
 20
7.4052448555
 30
0.0
 11
3.3463211428
 21
7.3547957282
 31
0.0
  0
LINE
  5
20D
330
1F
100
AcDbEntity
  8
0
  6
CONTINUOUS
 62
     7
100
AcDbLine
 10
3.306951064
 20
7.4052448555
 30
0.0
 11
3.306951064
 21
7.3547957282
 31
0.0
  0
LINE
  5
20E
330
1F
100
AcDbEntity
  8
0
  6
CONTINUOUS
 62
     7
100
AcDbLine
 10
3.3463211428
 20
5.9891585496
 30
0.0
 11
3.3463211428
 21
5.9387094224
 31
0.0
  0
LINE
  5
20F
330
1F
100
AcDbEntity
  8
0
  6
CONTINUOUS
 62
     7
100
AcDbLine
 10
3.306951064
 20
5.9891585496
 30
0.0
 11
3.306951064
 21
5.9387094224
 31
0.0
  0
LINE
  5
210
330
1F
100
AcDbEntity
  8
0
  6
CONTINUOUS
 62
     7
100
AcDbLine
 10
2.6553762609
 20
6.6916621783
 30
0.0
 11
2.6553762609
 21
6.6522920995
 31
0.0
  0
LINE
  5
211
330
1F
100
AcDbEntity
  8
0
  6
CONTINUOUS
 62
     8
100
AcDbLine
 10
2.8278565758
 20
7.2034732019
 30
0.0
 11
2.9455603116
 21
7.2034732019
 31
0.0
  0
LINE
  5
212
330
1F
100
AcDbEntity
  8
0
  6
CONTINUOUS
 62
     8
100
AcDbLine
 10
2.7099561804
 20
7.2034732019
 30
0.0
 11
2.8278565758
 21
7.2034732019
 31
0.0
  0
CIRCLE
  5
213
330
1F
100
AcDbEntity
  8
0
  6
HIDDEN
 62
     7
100
AcDbCircle
 10
3.8254156309
 20
6.1903132437
 30
0.0
 40
0.0787401574803148
  0
LINE
  5
214
330
1F
100
AcDbEntity
  8
0
  6
HIDDEN
 62
     7
100
AcDbLine
 10
3.635126917
 20
6.4761134702
 30
0.0
 11
3.9828959459
 21
6.4761134702
 31
0.0
  0
LINE
  5
215
330
1F
100
AcDbEntity
  8
0
  6
HIDDEN
 62
     7
100
AcDbLine
 10
3.9828959459
 20
6.8678408076
 30
0.0
 11
3.6922522
 21
6.8678408076
 31
0.0
  0
ARC
  5
216
330
1F
100
AcDbEntity
  8
0
  6
HIDDEN
 62
     7
100
AcDbCircle
 10
3.9978959459
 20
6.6724354114
 30
0.0
 40
0.362769028871392
100
AcDbArc
 50
90.0
 51
147.4082407603
  0
SPLINE
  5
217
330
1F
100
AcDbEntity
  8
0
  6
HIDDEN
 62
     7
100
AcDbSpline
210
0.0
220
0.0
230
1.0
 70
     8
 71
     3
 72
     8
 73
     4
 74
     0
 42
0.00000001
 43
0.00000001
 40
0.0
 40
0.0
 40
0.0
 40
0.0
 40
1.0
 40
1.0
 40
1.0
 40
1.0
 10
3.982895945904238
 20
6.867840807638202
 30
0.0
 10
3.987895049043479
 20
6.872865095335521
 30
0.0
 10
3.99289511283156
 20
6.877888425058011
 30
0.0
 10
3.997895945904237
 20
6.882910987637245
 30
0.0
  0
SPLINE
  5
218
330
1F
100
AcDbEntity
  8
0
  6
HIDDEN
 62
     7
100
AcDbSpline
210
0.0
220
0.0
230
1.0
 70
     8
 71
     3
 72
     8
 73
     4
 74
     0
 42
0.00000001
 43
0.00000001
 40
0.0
 40
0.0
 40
0.0
 40
0.0
 40
1.0
 40
1.0
 40
1.0
 40
1.0
 10
3.997895945904237
 20
6.461043290195608
 30
0.0
 10
3.992895112831219
 20
6.466065852775183
 30
0.0
 10
3.987895049043113
 20
6.4710891824977
 30
0.0
 10
3.982895945904238
 20
6.47611347019465
 30
0.0
  0
CIRCLE
  5
219
330
1F
100
AcDbEntity
  8
0
  6
HIDDEN
 62
     7
100
AcDbCircle
 10
3.8254156309
 20
6.1903132437
 30
0.0
 40
0.0590551181102361
  0
LINE
  5
21A
330
1F
100
AcDbEntity
  8
0
  6
HIDDEN
 62
     7
100
AcDbLine
 10
2.8278565758
 20
7.0656779263
 30
0.0
 11
2.6900613002
 21
7.0656779263
 31
0.0
  0
LINE
  5
21B
330
1F
100
AcDbEntity
  8
0
  6
HIDDEN
 62
     7
100
AcDbLine
 10
2.9656518514
 20
7.0656779263
 30
0.0
 11
2.8278565758
 21
7.0656779263
 31
0.0
  0
LINE
  5
21C
330
1F
100
AcDbEntity
  8
0
  6
HIDDEN
 62
     7
100
AcDbLine
 10
2.7493365918
 20
6.2093787137
 30
0.0
 11
2.9063765599
 21
6.2093787137
 31
0.0
  0
LINE
  5
21D
330
1F
100
AcDbEntity
  8
0
  6
HIDDEN
 62
     7
100
AcDbLine
 10
2.7688014577
 20
6.1896936743
 30
0.0
 11
2.8869116939
 21
6.1896936743
 31
0.0
  0
LINE
  5
21E
330
1F
100
AcDbEntity
  8
0
  6
HIDDEN
 62
     7
100
AcDbLine
 10
2.8278565758
 20
7.1050480051
 30
0.0
 11
2.8278565758
 21
7.2231582413
 31
0.0
  0
LINE
  5
21F
330
1F
100
AcDbEntity
  8
0
  6
HIDDEN
 62
     7
100
AcDbLine
 10
2.8278565758
 20
7.1050480051
 30
0.0
 11
2.7688014577
 21
7.1050480051
 31
0.0
  0
LINE
  5
220
330
1F
100
AcDbEntity
  8
0
  6
HIDDEN
 62
     7
100
AcDbLine
 10
2.8869116939
 20
7.1050480051
 30
0.0
 11
2.8278565758
 21
7.1050480051
 31
0.0
  0
LINE
  5
221
330
1F
100
AcDbEntity
  8
0
  6
HIDDEN
 62
     7
100
AcDbLine
 10
2.7688014577
 20
7.1050480051
 30
0.0
 11
2.7688014577
 21
7.2231582413
 31
0.0
  0
LINE
  5
222
330
1F
100
AcDbEntity
  8
0
  6
HIDDEN
 62
     7
100
AcDbLine
 10
2.8869116939
 20
7.1050480051
 30
0.0
 11
2.8869116939
 21
7.2231582413
 31
0.0
  0
LINE
  5
223
330
1F
100
AcDbEntity
  8
0
  6
HIDDEN
 62
     7
100
AcDbLine
 10
2.6703762609
 20
6.6916621783
 30
0.0
 11
2.6703762609
 21
6.6522920995
 31
0.0
  0
LINE
  5
224
330
1F
100
AcDbEntity
  8
0
  6
HIDDEN
 62
     7
100
AcDbLine
 10
3.3463211428
 20
7.3547957282
 30
0.0
 11
3.306951064
 21
7.3547957282
 31
0.0
  0
LINE
  5
225
330
1F
100
AcDbEntity
  8
0
  6
HIDDEN
 62
     7
100
AcDbLine
 10
3.3463211428
 20
5.9891585496
 30
0.0
 11
3.306951064
 21
5.9891585496
 31
0.0
  0
LINE
  5
226
330
1F
100
AcDbEntity
  8
0
  6
HIDDEN
 62
     7
100
AcDbLine
 10
3.3463211428
 20
6.5501821717
 30
0.0
 11
3.306951064
 21
6.5501821717
 31
0.0
  0
LINE
  5
227
330
1F
100
AcDbEntity
  8
0
  6
HIDDEN
 62
     7
100
AcDbLine
 10
3.3463211428
 20
6.7937721061
 30
0.0
 11
3.306951064
 21
6.7937721061
 31
0.0
  0
LINE
  5
228
330
1F
100
AcDbEntity
  8
0
  6
HIDDEN
 62
     7
100
AcDbLine
 10
3.6928807991
 20
6.8688275326
 30
0.0
 11
3.635126917
 21
6.8688275326
 31
0.0
  0
LINE
  5
229
330
1F
100
AcDbEntity
  8
0
  6
HIDDEN
 62
     7
100
AcDbLine
 10
3.5826334787
 20
6.8688275326
 30
0.0
 11
3.4073447648
 21
6.8688275326
 31
0.0
  0
LINE
  5
22A
330
1F
100
AcDbEntity
  8
0
  6
HIDDEN
 62
     7
100
AcDbLine
 10
3.4073447648
 20
6.4751267452
 30
0.0
 11
3.5826334787
 21
6.4751267452
 31
0.0
  0
LINE
  5
22B
330
1F
100
AcDbEntity
  8
0
  6
HIDDEN
 62
     7
100
AcDbLine
 10
2.9656518514
 20
7.0656779263
 30
0.0
 11
2.9656518514
 21
7.2034732019
 31
0.0
  0
LINE
  5
22C
330
1F
100
AcDbEntity
  8
0
  6
HIDDEN
 62
     7
100
AcDbLine
 10
2.6900613002
 20
7.2034732019
 30
0.0
 11
2.6900613002
 21
7.0656779263
 31
0.0
  0
ARC
  5
22D
330
1F
100
AcDbEntity
  8
0
  6
HIDDEN
 62
     7
100
AcDbCircle
 10
2.7097463396
 20
7.2034732019
 30
0.0
 40
0.019685039370079
100
AcDbArc
 50
113.8948994235
 51
180.0
  0
ARC
  5
22E
330
1F
100
AcDbEntity
  8
0
  6
HIDDEN
 62
     7
100
AcDbCircle
 10
2.945966812
 20
7.2034732019
 30
0.0
 40
0.0196850393700794
100
AcDbArc
 50
0.0
 51
66.5490642096
  0
LINE
  5
22F
330
1F
100
AcDbEntity
  8
0
  6
HIDDEN
 62
     7
100
AcDbLine
 10
2.7491164183
 20
7.0656779263
 30
0.0
 11
2.7491164183
 21
6.6916621783
 31
0.0
  0
LINE
  5
230
330
1F
100
AcDbEntity
  8
0
  6
HIDDEN
 62
     7
100
AcDbLine
 10
2.7491164183
 20
6.6522920995
 30
0.0
 11
2.7491164183
 21
6.2093787137
 31
0.0
  0
LINE
  5
231
330
1F
100
AcDbEntity
  8
0
  6
HIDDEN
 62
     7
100
AcDbLine
 10
2.9065967333
 20
6.2093787137
 30
0.0
 11
2.9065967333
 21
6.6522920995
 31
0.0
  0
LINE
  5
232
330
1F
100
AcDbEntity
  8
0
  6
HIDDEN
 62
     7
100
AcDbLine
 10
2.9065967333
 20
6.6916621783
 30
0.0
 11
2.9065967333
 21
7.0656779263
 31
0.0
  0
ARC
  5
233
330
1F
100
AcDbEntity
  8
0
  6
HIDDEN
 62
     7
100
AcDbCircle
 10
2.8869116939
 20
6.2093787137
 30
0.0
 40
0.0196850393700787
100
AcDbArc
 50
270.0
 51
0.0
  0
ARC
  5
234
330
1F
100
AcDbEntity
  8
0
  6
HIDDEN
 62
     7
100
AcDbCircle
 10
2.7688014577
 20
6.2093787137
 30
0.0
 40
0.0196850393700787
100
AcDbArc
 50
180.0
 51
270.0
  0
LINE
  5
235
330
1F
100
AcDbEntity
  8
0
  6
HIDDEN
 62
     7
100
AcDbLine
 10
2.9656518514
 20
7.0656779263
 30
0.0
 11
2.9656518514
 21
7.2696467544
 31
0.0
  0
LINE
  5
236
330
1F
100
AcDbEntity
  8
0
  6
HIDDEN
 62
     7
100
AcDbLine
 10
2.6900613002
 20
7.2696289159
 30
0.0
 11
2.6900613002
 21
7.0656779263
 31
0.0
  0
LINE
  5
237
330
1F
100
AcDbEntity
  8
0
  6
HIDDEN
 62
     7
100
AcDbLine
 10
2.7491164183
 20
6.6522920995
 30
0.0
 11
2.7491164183
 21
6.074244965
 31
0.0
  0
LINE
  5
238
330
1F
100
AcDbEntity
  8
0
  6
HIDDEN
 62
     7
100
AcDbLine
 10
2.9065967333
 20
6.0742332622
 30
0.0
 11
2.9065967333
 21
6.6522920995
 31
0.0
  0
LINE
  5
239
330
1F
100
AcDbEntity
  8
0
  6
HIDDEN
 62
     7
100
AcDbLine
 10
2.7491164183
 20
7.0656779263
 30
0.0
 11
2.7491164183
 21
6.6916621783
 31
0.0
  0
LINE
  5
23A
330
1F
100
AcDbEntity
  8
0
  6
HIDDEN
 62
     7
100
AcDbLine
 10
2.9065967333
 20
6.6916621783
 30
0.0
 11
2.9065967333
 21
7.0656779263
 31
0.0
  0
LINE
  5
23B
330
1F
100
AcDbEntity
  8
0
  6
HIDDEN
 62
     7
100
AcDbLine
 10
3.3463211428
 20
6.9475676901
 30
0.0
 11
3.306951064
 21
6.9475676901
 31
0.0
  0
LINE
  5
23C
330
1F
100
AcDbEntity
  8
0
  6
HIDDEN
 62
     7
100
AcDbLine
 10
3.306951064
 20
6.3963865877
 30
0.0
 11
3.3463211428
 21
6.3963865877
 31
0.0
  0
LINE
  5
23D
330
1F
100
AcDbEntity
  8
0
  6
HIDDEN
 62
     7
100
AcDbLine
 10
2.6703762609
 20
6.8688275326
 30
0.0
 11
2.6553762609
 21
6.8838275326
 31
0.0
  0
LINE
  5
23E
330
1F
100
AcDbEntity
  8
0
  6
HIDDEN
 62
     7
100
AcDbLine
 10
2.6553762609
 20
6.4601267452
 30
0.0
 11
2.6703762609
 21
6.4751267452
 31
0.0
  0
LINE
  5
23F
330
1F
100
AcDbEntity
  8
0
  6
HIDDEN
 62
     7
100
AcDbLine
 10
3.0706387281
 20
6.4751267452
 30
0.0
 11
3.245927442
 21
6.4751267452
 31
0.0
  0
LINE
  5
240
330
1F
100
AcDbEntity
  8
0
  6
HIDDEN
 62
     7
100
AcDbLine
 10
3.245927442
 20
6.8688275326
 30
0.0
 11
3.0706387281
 21
6.8688275326
 31
0.0
  0
LINE
  5
241
330
1F
100
AcDbEntity
  8
0
  6
HIDDEN
 62
     7
100
AcDbLine
 10
2.6703762609
 20
6.4751267452
 30
0.0
 11
3.0181452897
 21
6.4751267452
 31
0.0
  0
LINE
  5
242
330
1F
100
AcDbEntity
  8
0
  6
HIDDEN
 62
     7
100
AcDbLine
 10
3.0181452897
 20
6.8688275326
 30
0.0
 11
2.6703762609
 21
6.8688275326
 31
0.0
  0
LINE
  5
243
330
1F
100
AcDbEntity
  8
0
  6
HIDDEN
 62
     7
100
AcDbLine
 10
2.6901174941
 20
7.2034732019
 30
0.0
 11
2.9655956575
 21
7.2034732019
 31
0.0
  0
LINE
  5
244
330
1F
100
AcDbEntity
  8
0
  6
CONTINUOUS
 62
     7
100
AcDbLine
 10
8.6376744035
 20
5.9577381089
 30
0.0
 11
8.6482792813
 21
5.9638621649
 31
0.0
  0
LINE
  5
245
330
1F
100
AcDbEntity
  8
0
  6
CONTINUOUS
 62
     7
100
AcDbLine
 10
9.1804437421
 20
6.8856979318
 30
0.0
 11
9.1804437421
 21
6.8979440534
 31
0.0
  0
LINE
  5
246
330
1F
100
AcDbEntity
  8
0
  6
CONTINUOUS
 62
     7
100
AcDbLine
 10
8.1774408028
 20
5.9637366337
 30
0.0
 11
8.2537591013
 21
5.9196790177
 31
0.0
  0
LINE
  5
247
330
1F
100
AcDbEntity
  8
0
  6
CONTINUOUS
 62
     7
100
AcDbLine
 10
8.0078492627
 20
6.0616397459
 30
0.0
 11
8.1073642314
 21
6.0041909772
 31
0.0
  0
LINE
  5
248
330
1F
100
AcDbEntity
  8
0
  6
CONTINUOUS
 62
     7
100
AcDbLine
 10
7.8467829582
 20
6.1546213443
 30
0.0
 11
7.9707307965
 21
6.0830677803
 31
0.0
  0
LINE
  5
249
330
1F
100
AcDbEntity
  8
0
  6
CONTINUOUS
 62
     7
100
AcDbLine
 10
9.0214132464
 20
7.249439082
 30
0.0
 11
8.6144371034
 21
7.4843814085
 31
0.0
  0
SPLINE
  5
24A
330
1F
100
AcDbEntity
  8
0
  6
CONTINUOUS
 62
     7
100
AcDbSpline
210
0.0
220
0.0
230
1.0
 70
     8
 71
     3
 72
    32
 73
    28
 74
     0
 42
0.00000001
 43
0.00000001
 40
0.0
 40
0.0
 40
0.0
 40
0.0
 40
0.0255119620232693
 40
0.0656799989090568
 40
0.1066244502082366
 40
0.1480414741074041
 40
0.1896507818538586
 40
0.2312254929391351
 40
0.2726979557909969
 40
0.314056253356054
 40
0.355319036898414
 40
0.3965199882504156
 40
0.4376997482284836
 40
0.4789009942459218
 40
0.5201555035298041
 40
0.5615094687965415
 40
0.6030080433218639
 40
0.6446911370724212
 40
0.6865840651056363
 40
0.7286788902114328
 40
0.7708916624497596
 40
0.8129632188438711
 40
0.8545421251483933
 40
0.8952341436112434
 40
0.934776270062936
 40
0.9731743643568367
 40
1.0
 40
1.0
 40
1.0
 40
1.0
 10
8.30713404451074
 20
6.928207820488567
 30
0.0
 10
8.305644996307485
 20
6.930007503649122
 30
0.0
 10
8.301811473653443
 20
6.934640749336539
 30
0.0
 10
8.294167002847905
 20
6.941358910868639
 30
0.0
 10
8.284423448253351
 20
6.948422531823121
 30
0.0
 10
8.273435365759632
 20
6.954736565124077
 30
0.0
 10
8.261431927580881
 20
6.960250427738636
 30
0.0
 10
8.248567769892869
 20
6.96489235582577
 30
0.0
 10
8.235018232671926
 20
6.968625074736133
 30
0.0
 10
8.220940577464315
 20
6.971423439901898
 30
0.0
 10
8.206490807042963
 20
6.973271374989842
 30
0.0
 10
8.191823325208846
 20
6.974158748964617
 30
0.0
 10
8.177092360095614
 20
6.974080964125712
 30
0.0
 10
8.162452978861223
 20
6.973038735868932
 30
0.0
 10
8.148058467910069
 20
6.971038107617678
 30
0.0
 10
8.134058924562526
 20
6.96808970096408
 30
0.0
 10
8.120599290766394
 20
6.964207111301832
 30
0.0
 10
8.10782143285254
 20
6.959405963788648
 30
0.0
 10
8.095866378348918
 20
6.953703527134594
 30
0.0
 10
8.08487946649592
 20
6.947121097989954
 30
0.0
 10
8.075021723951199
 20
6.939694851665418
 30
0.0
 10
8.066463516302317
 20
6.9314894192889
 30
0.0
 10
8.059381189186182
 20
6.922613458182612
 30
0.0
 10
8.053891861000114
 20
6.913222088280359
 30
0.0
 10
8.050157367059715
 20
6.903504129655272
 30
0.0
 10
8.048114658829407
 20
6.894571473677673
 30
0.0
 10
8.048042453040686
 20
6.888919063603331
 30
0.0
 10
8.048012755778947
 20
6.886594303990437
 30
0.0
  0
LINE
  5
24B
330
1F
100
AcDbEntity
  8
0
  6
CONTINUOUS
 62
     7
100
AcDbLine
 10
8.0478476931
 20
6.8862142244
 30
0.0
 11
8.0478476931
 21
6.8547145336
 31
0.0
  0
SPLINE
  5
24C
330
1F
100
AcDbEntity
  8
0
  6
CONTINUOUS
 62
     7
100
AcDbSpline
210
0.0
220
0.0
230
1.0
 70
     8
 71
     3
 72
    18
 73
    14
 74
     0
 42
0.00000001
 43
0.00000001
 40
0.0
 40
0.0
 40
0.0
 40
0.0
 40
0.0285574248516502
 40
0.1219736893801668
 40
0.2191387151446817
 40
0.3188193028200889
 40
0.4193514978929564
 40
0.5196289953099837
 40
0.6194838569182202
 40
0.7190826195689345
 40
0.8187343071908413
 40
0.9187311859498288
 40
1.0
 40
1.0
 40
1.0
 40
1.0
 10
7.435333351032237
 20
7.304045672628858
 30
0.0
 10
7.435022702101989
 20
7.303219636201983
 30
0.0
 10
7.433695866915657
 20
7.299691492082833
 30
0.0
 10
7.432610509366934
 20
7.29277491733911
 30
0.0
 10
7.432087174938705
 20
7.283346649128307
 30
0.0
 10
7.432907960596643
 20
7.273308056453345
 30
0.0
 10
7.434934784003276
 20
7.26297314076331
 30
0.0
 10
7.438129950761908
 20
7.252586045737766
 30
0.0
 10
7.442389624130025
 20
7.242375070851476
 30
0.0
 10
7.447613927567835
 20
7.232511223990634
 30
0.0
 10
7.453726854280155
 20
7.22320239617556
 30
0.0
 10
7.460115459600397
 20
7.215033882627607
 30
0.0
 10
7.464709714171309
 20
7.21048329568784
 30
0.0
 10
7.466769506151998
 20
7.208443081689838
 30
0.0
  0
LINE
  5
24D
330
1F
100
AcDbEntity
  8
0
  6
CONTINUOUS
 62
     7
100
AcDbLine
 10
8.1277824344
 20
7.7856453238
 30
0.0
 11
8.1083445871
 21
7.7744240934
 31
0.0
  0
SPLINE
  5
24E
330
1F
100
AcDbEntity
  8
0
  6
CONTINUOUS
 62
     7
100
AcDbSpline
210
0.0
220
0.0
230
1.0
 70
     8
 71
     3
 72
    18
 73
    14
 74
     0
 42
0.00000001
 43
0.00000001
 40
0.0
 40
0.0
 40
0.0
 40
0.0
 40
0.0322327338552148
 40
0.133379162508813
 40
0.2343556149063657
 40
0.3352591393647365
 40
0.4361960234302817
 40
0.5372450188694109
 40
0.6385146615059648
 40
0.7401166130551251
 40
0.8421525146474068
 40
0.9446943470619652
 40
0.9999999999999999
 40
0.9999999999999999
 40
0.9999999999999999
 40
0.9999999999999999
 10
8.290367675061619
 20
7.6712698095828
 30
0.0
 10
8.289914095676163
 20
7.672709419103587
 30
0.0
 10
8.288037182633818
 20
7.67866652820531
 30
0.0
 10
8.283676888424933
 20
7.68907039910956
 30
0.0
 10
8.2773573475253
 20
7.702289066344051
 30
0.0
 10
8.270079224108535
 20
7.715105358012476
 30
0.0
 10
8.262015507636534
 20
7.727387482268012
 30
0.0
 10
8.253221806166106
 20
7.739004467666586
 30
0.0
 10
8.243788751441251
 20
7.74982903638698
 30
0.0
 10
8.233799521064906
 20
7.759747571081679
 30
0.0
 10
8.223336232933836
 20
7.768621004520582
 30
0.0
 10
8.214177094873042
 20
7.77521271773924
 30
0.0
 10
8.20850392427753
 20
7.778608220439653
 30
0.0
 10
8.206516192871401
 20
7.779797916262046
 30
0.0
  0
SPLINE
  5
24F
330
1F
100
AcDbEntity
  8
0
  6
CONTINUOUS
 62
     7
100
AcDbSpline
210
0.0
220
0.0
230
1.0
 70
     8
 71
     3
 72
    15
 73
    11
 74
     0
 42
0.00000001
 43
0.00000001
 40
0.0
 40
0.0
 40
0.0
 40
0.0
 40
0.0753136849516051
 40
0.2161371947700988
 40
0.3569137537243952
 40
0.4962207782284362
 40
0.632728271899497
 40
0.7654644291426681
 40
0.8943189227285946
 40
1.0
 40
1.0
 40
1.0
 40
1.0
 10
8.206516192871401
 20
7.779797916262046
 30
0.0
 10
8.204520597754817
 20
7.780907888551003
 30
0.0
 10
8.198793586380027
 20
7.784093316232067
 30
0.0
 10
8.189201484321835
 20
7.788285232094683
 30
0.0
 10
8.177820103971833
 20
7.791814203097331
 30
0.0
 10
8.166558424027096
 20
7.793725191881082
 30
0.0
 10
8.15562146925206
 20
7.794002569865749
 30
0.0
 10
8.14524580967081
 20
7.792600197848897
 30
0.0
 10
8.136009783454636
 20
7.789939904609668
 30
0.0
 10
8.13064756030964
 20
7.78707036613199
 30
0.0
 10
8.128231357443433
 20
7.785777360058395
 30
0.0
  0
LINE
  5
250
330
1F
100
AcDbEntity
  8
0
  6
CONTINUOUS
 62
     7
100
AcDbLine
 10
8.1101792927
 20
7.7754832464
 30
0.0
 11
8.0933216767
 21
7.7852149409
 31
0.0
  0
LINE
  5
251
330
1F
100
AcDbEntity
  8
0
  6
CONTINUOUS
 62
     7
100
AcDbLine
 10
8.3392315153
 20
7.6432542128
 30
0.0
 11
8.2915188836
 21
7.6707981288
 31
0.0
  0
LINE
  5
252
330
1F
100
AcDbEntity
  8
0
  6
CONTINUOUS
 62
     7
100
AcDbLine
 10
8.5002978198
 20
7.5502726144
 30
0.0
 11
8.3763499815
 21
7.6218261784
 31
0.0
  0
LINE
  5
253
330
1F
100
AcDbEntity
  8
0
  6
CONTINUOUS
 62
     7
100
AcDbLine
 10
7.3256675316
 20
6.4554548766
 30
0.0
 11
7.7326436746
 21
6.2205125501
 31
0.0
  0
LINE
  5
254
330
1F
100
AcDbEntity
  8
0
  6
CONTINUOUS
 62
     7
100
AcDbLine
 10
7.1666370359
 20
6.8191960269
 30
0.0
 11
7.1666370359
 21
6.8069499052
 31
0.0
  0
POLYLINE
  5
255
330
1F
100
AcDbEntity
  8
0
  6
CONTINUOUS
 62
     7
100
AcDb2dPolyline
 66
     1
 10
0.0
 20
0.0
 30
0.0
  0
VERTEX
  5
2C1
330
255
100
AcDbEntity
  8
0
  6
CONTINUOUS
 62
     7
100
AcDbVertex
100
AcDb2dVertex
 10
8.1161238506
 20
6.2552054986
 30
0.0
  0
VERTEX
  5
2C2
330
255
100
AcDbEntity
  8
0
  6
CONTINUOUS
 62
     7
100
AcDbVertex
100
AcDb2dVertex
 10
8.1174164597
 20
6.2263049807
 30
0.0
  0
VERTEX
  5
2C3
330
255
100
AcDbEntity
  8
0
  6
CONTINUOUS
 62
     7
100
AcDbVertex
100
AcDb2dVertex
 10
8.1199471406
 20
6.1982258321
 30
0.0
  0
VERTEX
  5
2C4
330
255
100
AcDbEntity
  8
0
  6
CONTINUOUS
 62
     7
100
AcDbVertex
100
AcDb2dVertex
 10
8.1237099902
 20
6.1710335495
 30
0.0
  0
VERTEX
  5
2C5
330
255
100
AcDbEntity
  8
0
  6
CONTINUOUS
 62
     7
100
AcDbVertex
100
AcDb2dVertex
 10
8.1286962315
 20
6.1447915608
 30
0.0
  0
VERTEX
  5
2C6
330
255
100
AcDbEntity
  8
0
  6
CONTINUOUS
 62
     7
100
AcDbVertex
100
AcDb2dVertex
 10
8.1348942336
 20
6.119561077
 30
0.0
  0
VERTEX
  5
2C7
330
255
100
AcDbEntity
  8
0
  6
CONTINUOUS
 62
     7
100
AcDbVertex
100
AcDb2dVertex
 10
8.1422895394
 20
6.0954009501
 30
0.0
  0
VERTEX
  5
2C8
330
255
100
AcDbEntity
  8
0
  6
CONTINUOUS
 62
     7
100
AcDbVertex
100
AcDb2dVertex
 10
8.1508648988
 20
6.0723675351
 30
0.0
  0
VERTEX
  5
2C9
330
255
100
AcDbEntity
  8
0
  6
CONTINUOUS
 62
     7
100
AcDbVertex
100
AcDb2dVertex
 10
8.1606003091
 20
6.0505145591
 30
0.0
  0
VERTEX
  5
2CA
330
255
100
AcDbEntity
  8
0
  6
CONTINUOUS
 62
     7
100
AcDbVertex
100
AcDb2dVertex
 10
8.1714730619
 20
6.0298929956
 30
0.0
  0
VERTEX
  5
2CB
330
255
100
AcDbEntity
  8
0
  6
CONTINUOUS
 62
     7
100
AcDbVertex
100
AcDb2dVertex
 10
8.1834577958
 20
6.0105509458
 30
0.0
  0
VERTEX
  5
2CC
330
255
100
AcDbEntity
  8
0
  6
CONTINUOUS
 62
     7
100
AcDbVertex
100
AcDb2dVertex
 10
8.1965265555
 20
5.9925335263
 30
0.0
  0
VERTEX
  5
2CD
330
255
100
AcDbEntity
  8
0
  6
CONTINUOUS
 62
     7
100
AcDbVertex
100
AcDb2dVertex
 10
8.2106488572
 20
5.9758827641
 30
0.0
  0
VERTEX
  5
2CE
330
255
100
AcDbEntity
  8
0
  6
CONTINUOUS
 62
     7
100
AcDbVertex
100
AcDb2dVertex
 10
8.2257917598
 20
5.9606374981
 30
0.0
  0
VERTEX
  5
2CF
330
255
100
AcDbEntity
  8
0
  6
CONTINUOUS
 62
     7
100
AcDbVertex
100
AcDb2dVertex
 10
8.2419199414
 20
5.9468332889
 30
0.0
  0
VERTEX
  5
2D0
330
255
100
AcDbEntity
  8
0
  6
CONTINUOUS
 62
     7
100
AcDbVertex
100
AcDb2dVertex
 10
8.2589957819
 20
5.9345023358
 30
0.0
  0
VERTEX
  5
2D1
330
255
100
AcDbEntity
  8
0
  6
CONTINUOUS
 62
     7
100
AcDbVertex
100
AcDb2dVertex
 10
8.2769794507
 20
5.9236734016
 30
0.0
  0
VERTEX
  5
2D2
330
255
100
AcDbEntity
  8
0
  6
CONTINUOUS
 62
     7
100
AcDbVertex
100
AcDb2dVertex
 10
8.2958289998
 20
5.9143717455
 30
0.0
  0
VERTEX
  5
2D3
330
255
100
AcDbEntity
  8
0
  6
CONTINUOUS
 62
     7
100
AcDbVertex
100
AcDb2dVertex
 10
8.3155004613
 20
5.9066190643
 30
0.0
  0
VERTEX
  5
2D4
330
255
100
AcDbEntity
  8
0
  6
CONTINUOUS
 62
     7
100
AcDbVertex
100
AcDb2dVertex
 10
8.3359479502
 20
5.9004334416
 30
0.0
  0
VERTEX
  5
2D5
330
255
100
AcDbEntity
  8
0
  6
CONTINUOUS
 62
     7
100
AcDbVertex
100
AcDb2dVertex
 10
8.3571237712
 20
5.8958293057
 30
0.0
  0
VERTEX
  5
2D6
330
255
100
AcDbEntity
  8
0
  6
CONTINUOUS
 62
     7
100
AcDbVertex
100
AcDb2dVertex
 10
8.3789785305
 20
5.8928173962
 30
0.0
  0
VERTEX
  5
2D7
330
255
100
AcDbEntity
  8
0
  6
CONTINUOUS
 62
     7
100
AcDbVertex
100
AcDb2dVertex
 10
8.4014612502
 20
5.8914047385
 30
0.0
  0
VERTEX
  5
2D8
330
255
100
AcDbEntity
  8
0
  6
CONTINUOUS
 62
     7
100
AcDbVertex
100
AcDb2dVertex
 10
8.4245194879
 20
5.8915946278
 30
0.0
  0
VERTEX
  5
2D9
330
255
100
AcDbEntity
  8
0
  6
CONTINUOUS
 62
     7
100
AcDbVertex
100
AcDb2dVertex
 10
8.4480994587
 20
5.8933866211
 30
0.0
  0
VERTEX
  5
2DA
330
255
100
AcDbEntity
  8
0
  6
CONTINUOUS
 62
     7
100
AcDbVertex
100
AcDb2dVertex
 10
8.4721461607
 20
5.8967765385
 30
0.0
  0
VERTEX
  5
2DB
330
255
100
AcDbEntity
  8
0
  6
CONTINUOUS
 62
     7
100
AcDbVertex
100
AcDb2dVertex
 10
8.4966035034
 20
5.9017564727
 30
0.0
  0
VERTEX
  5
2DC
330
255
100
AcDbEntity
  8
0
  6
CONTINUOUS
 62
     7
100
AcDbVertex
100
AcDb2dVertex
 10
8.5214144384
 20
5.9083148077
 30
0.0
  0
VERTEX
  5
2DD
330
255
100
AcDbEntity
  8
0
  6
CONTINUOUS
 62
     7
100
AcDbVertex
100
AcDb2dVertex
 10
8.5465210924
 20
5.9164362458
 30
0.0
  0
VERTEX
  5
2DE
330
255
100
AcDbEntity
  8
0
  6
CONTINUOUS
 62
     7
100
AcDbVertex
100
AcDb2dVertex
 10
8.5718649025
 20
5.9261018432
 30
0.0
  0
VERTEX
  5
2DF
330
255
100
AcDbEntity
  8
0
  6
CONTINUOUS
 62
     7
100
AcDbVertex
100
AcDb2dVertex
 10
8.5973867525
 20
5.9372890542
 30
0.0
  0
VERTEX
  5
2E0
330
255
100
AcDbEntity
  8
0
  6
CONTINUOUS
 62
     7
100
AcDbVertex
100
AcDb2dVertex
 10
8.623027111
 20
5.9499717839
 30
0.0
  0
VERTEX
  5
2E1
330
255
100
AcDbEntity
  8
0
  6
CONTINUOUS
 62
     7
100
AcDbVertex
100
AcDb2dVertex
 10
8.6487261702
 20
5.9641204489
 30
0.0
  0
VERTEX
  5
2E2
330
255
100
AcDbEntity
  8
0
  6
CONTINUOUS
 62
     7
100
AcDbVertex
100
AcDb2dVertex
 10
8.6744239851
 20
5.9797020465
 30
0.0
  0
VERTEX
  5
2E3
330
255
100
AcDbEntity
  8
0
  6
CONTINUOUS
 62
     7
100
AcDbVertex
100
AcDb2dVertex
 10
8.700060614
 20
5.9966802316
 30
0.0
  0
VERTEX
  5
2E4
330
255
100
AcDbEntity
  8
0
  6
CONTINUOUS
 62
     7
100
AcDbVertex
100
AcDb2dVertex
 10
8.7255762577
 20
6.0150154015
 30
0.0
  0
VERTEX
  5
2E5
330
255
100
AcDbEntity
  8
0
  6
CONTINUOUS
 62
     7
100
AcDbVertex
100
AcDb2dVertex
 10
8.7509113991
 20
6.034664788
 30
0.0
  0
VERTEX
  5
2E6
330
255
100
AcDbEntity
  8
0
  6
CONTINUOUS
 62
     7
100
AcDbVertex
100
AcDb2dVertex
 10
8.7760069424
 20
6.0555825577
 30
0.0
  0
VERTEX
  5
2E7
330
255
100
AcDbEntity
  8
0
  6
CONTINUOUS
 62
     7
100
AcDbVertex
100
AcDb2dVertex
 10
8.8008043504
 20
6.0777199185
 30
0.0
  0
VERTEX
  5
2E8
330
255
100
AcDbEntity
  8
0
  6
CONTINUOUS
 62
     7
100
AcDbVertex
100
AcDb2dVertex
 10
8.8252457817
 20
6.1010252335
 30
0.0
  0
VERTEX
  5
2E9
330
255
100
AcDbEntity
  8
0
  6
CONTINUOUS
 62
     7
100
AcDbVertex
100
AcDb2dVertex
 10
8.8492742248
 20
6.1254441414
 30
0.0
  0
VERTEX
  5
2EA
330
255
100
AcDbEntity
  8
0
  6
CONTINUOUS
 62
     7
100
AcDbVertex
100
AcDb2dVertex
 10
8.8728336318
 20
6.1509196834
 30
0.0
  0
VERTEX
  5
2EB
330
255
100
AcDbEntity
  8
0
  6
CONTINUOUS
 62
     7
100
AcDbVertex
100
AcDb2dVertex
 10
8.8958690487
 20
6.1773924363
 30
0.0
  0
VERTEX
  5
2EC
330
255
100
AcDbEntity
  8
0
  6
CONTINUOUS
 62
     7
100
AcDbVertex
100
AcDb2dVertex
 10
8.918326744
 20
6.2048006504
 30
0.0
  0
VERTEX
  5
2ED
330
255
100
AcDbEntity
  8
0
  6
CONTINUOUS
 62
     7
100
AcDbVertex
100
AcDb2dVertex
 10
8.9401543335
 20
6.2330803942
 30
0.0
  0
VERTEX
  5
2EE
330
255
100
AcDbEntity
  8
0
  6
CONTINUOUS
 62
     7
100
AcDbVertex
100
AcDb2dVertex
 10
8.9613009029
 20
6.2621657034
 30
0.0
  0
VERTEX
  5
2EF
330
255
100
AcDbEntity
  8
0
  6
CONTINUOUS
 62
     7
100
AcDbVertex
100
AcDb2dVertex
 10
8.9817171263
 20
6.2919887344
 30
0.0
  0
VERTEX
  5
2F0
330
255
100
AcDbEntity
  8
0
  6
CONTINUOUS
 62
     7
100
AcDbVertex
100
AcDb2dVertex
 10
9.0013553816
 20
6.3224799231
 30
0.0
  0
VERTEX
  5
2F1
330
255
100
AcDbEntity
  8
0
  6
CONTINUOUS
 62
     7
100
AcDbVertex
100
AcDb2dVertex
 10
9.0201698612
 20
6.3535681466
 30
0.0
  0
VERTEX
  5
2F2
330
255
100
AcDbEntity
  8
0
  6
CONTINUOUS
 62
     7
100
AcDbVertex
100
AcDb2dVertex
 10
9.038116679
 20
6.3851808896
 30
0.0
  0
VERTEX
  5
2F3
330
255
100
AcDbEntity
  8
0
  6
CONTINUOUS
 62
     7
100
AcDbVertex
100
AcDb2dVertex
 10
9.0551539729
 20
6.4172444133
 30
0.0
  0
VERTEX
  5
2F4
330
255
100
AcDbEntity
  8
0
  6
CONTINUOUS
 62
     7
100
AcDbVertex
100
AcDb2dVertex
 10
9.0712420023
 20
6.4496839272
 30
0.0
  0
VERTEX
  5
2F5
330
255
100
AcDbEntity
  8
0
  6
CONTINUOUS
 62
     7
100
AcDbVertex
100
AcDb2dVertex
 10
9.0863432406
 20
6.482423764
 30
0.0
  0
VERTEX
  5
2F6
330
255
100
AcDbEntity
  8
0
  6
CONTINUOUS
 62
     7
100
AcDbVertex
100
AcDb2dVertex
 10
9.1004224633
 20
6.5153875558
 30
0.0
  0
VERTEX
  5
2F7
330
255
100
AcDbEntity
  8
0
  6
CONTINUOUS
 62
     7
100
AcDbVertex
100
AcDb2dVertex
 10
9.1134468296
 20
6.5484984124
 30
0.0
  0
VERTEX
  5
2F8
330
255
100
AcDbEntity
  8
0
  6
CONTINUOUS
 62
     7
100
AcDbVertex
100
AcDb2dVertex
 10
9.1253859593
 20
6.5816791004
 30
0.0
  0
VERTEX
  5
2F9
330
255
100
AcDbEntity
  8
0
  6
CONTINUOUS
 62
     7
100
AcDbVertex
100
AcDb2dVertex
 10
9.1362120035
 20
6.6148522237
 30
0.0
  0
VERTEX
  5
2FA
330
255
100
AcDbEntity
  8
0
  6
CONTINUOUS
 62
     7
100
AcDbVertex
100
AcDb2dVertex
 10
9.1458997099
 20
6.6479404036
 30
0.0
  0
VERTEX
  5
2FB
330
255
100
AcDbEntity
  8
0
  6
CONTINUOUS
 62
     7
100
AcDbVertex
100
AcDb2dVertex
 10
9.154426481
 20
6.6808664597
 30
0.0
  0
VERTEX
  5
2FC
330
255
100
AcDbEntity
  8
0
  6
CONTINUOUS
 62
     7
100
AcDbVertex
100
AcDb2dVertex
 10
9.1617724278
 20
6.7135535898
 30
0.0
  0
VERTEX
  5
2FD
330
255
100
AcDbEntity
  8
0
  6
CONTINUOUS
 62
     7
100
AcDbVertex
100
AcDb2dVertex
 10
9.1679204152
 20
6.745925549
 30
0.0
  0
VERTEX
  5
2FE
330
255
100
AcDbEntity
  8
0
  6
CONTINUOUS
 62
     7
100
AcDbVertex
100
AcDb2dVertex
 10
9.1728561027
 20
6.7779068274
 30
0.0
  0
VERTEX
  5
2FF
330
255
100
AcDbEntity
  8
0
  6
CONTINUOUS
 62
     7
100
AcDbVertex
100
AcDb2dVertex
 10
9.1765679774
 20
6.8094228266
 30
0.0
  0
VERTEX
  5
300
330
255
100
AcDbEntity
  8
0
  6
CONTINUOUS
 62
     7
100
AcDbVertex
100
AcDb2dVertex
 10
9.1790473811
 20
6.8404000333
 30
0.0
  0
VERTEX
  5
301
330
255
100
AcDbEntity
  8
0
  6
CONTINUOUS
 62
     7
100
AcDbVertex
100
AcDb2dVertex
 10
9.1802885305
 20
6.8707661911
 30
0.0
  0
VERTEX
  5
302
330
255
100
AcDbEntity
  8
0
  6
CONTINUOUS
 62
     7
100
AcDbVertex
100
AcDb2dVertex
 10
9.1802885305
 20
6.900450469
 30
0.0
  0
VERTEX
  5
303
330
255
100
AcDbEntity
  8
0
  6
CONTINUOUS
 62
     7
100
AcDbVertex
100
AcDb2dVertex
 10
9.1790473811
 20
6.9293836262
 30
0.0
  0
VERTEX
  5
304
330
255
100
AcDbEntity
  8
0
  6
CONTINUOUS
 62
     7
100
AcDbVertex
100
AcDb2dVertex
 10
9.1765679774
 20
6.9574981743
 30
0.0
  0
VERTEX
  5
305
330
255
100
AcDbEntity
  8
0
  6
CONTINUOUS
 62
     7
100
AcDbVertex
100
AcDb2dVertex
 10
9.1728561027
 20
6.9847285341
 30
0.0
  0
VERTEX
  5
306
330
255
100
AcDbEntity
  8
0
  6
CONTINUOUS
 62
     7
100
AcDbVertex
100
AcDb2dVertex
 10
9.1679204152
 20
7.0110111891
 30
0.0
  0
VERTEX
  5
307
330
255
100
AcDbEntity
  8
0
  6
CONTINUOUS
 62
     7
100
AcDbVertex
100
AcDb2dVertex
 10
9.1617724278
 20
7.0362848331
 30
0.0
  0
VERTEX
  5
308
330
255
100
AcDbEntity
  8
0
  6
CONTINUOUS
 62
     7
100
AcDbVertex
100
AcDb2dVertex
 10
9.154426481
 20
7.0604905136
 30
0.0
  0
VERTEX
  5
309
330
255
100
AcDbEntity
  8
0
  6
CONTINUOUS
 62
     7
100
AcDbVertex
100
AcDb2dVertex
 10
9.1458997099
 20
7.0835717693
 30
0.0
  0
VERTEX
  5
30A
330
255
100
AcDbEntity
  8
0
  6
CONTINUOUS
 62
     7
100
AcDbVertex
100
AcDb2dVertex
 10
9.1362120035
 20
7.1054747615
 30
0.0
  0
VERTEX
  5
30B
330
255
100
AcDbEntity
  8
0
  6
CONTINUOUS
 62
     7
100
AcDbVertex
100
AcDb2dVertex
 10
9.1253859593
 20
7.1261484001
 30
0.0
  0
VERTEX
  5
30C
330
255
100
AcDbEntity
  8
0
  6
CONTINUOUS
 62
     7
100
AcDbVertex
100
AcDb2dVertex
 10
9.1134468296
 20
7.1455444624
 30
0.0
  0
VERTEX
  5
30D
330
255
100
AcDbEntity
  8
0
  6
CONTINUOUS
 62
     7
100
AcDbVertex
100
AcDb2dVertex
 10
9.1004224633
 20
7.1636177058
 30
0.0
  0
VERTEX
  5
30E
330
255
100
AcDbEntity
  8
0
  6
CONTINUOUS
 62
     7
100
AcDbVertex
100
AcDb2dVertex
 10
9.0863432406
 20
7.1803259731
 30
0.0
  0
VERTEX
  5
30F
330
255
100
AcDbEntity
  8
0
  6
CONTINUOUS
 62
     7
100
AcDbVertex
100
AcDb2dVertex
 10
9.0712420023
 20
7.1956302913
 30
0.0
  0
VERTEX
  5
310
330
255
100
AcDbEntity
  8
0
  6
CONTINUOUS
 62
     7
100
AcDbVertex
100
AcDb2dVertex
 10
9.0551539729
 20
7.2094949619
 30
0.0
  0
VERTEX
  5
311
330
255
100
AcDbEntity
  8
0
  6
CONTINUOUS
 62
     7
100
AcDbVertex
100
AcDb2dVertex
 10
9.038116679
 20
7.2218876447
 30
0.0
  0
VERTEX
  5
312
330
255
100
AcDbEntity
  8
0
  6
CONTINUOUS
 62
     7
100
AcDbVertex
100
AcDb2dVertex
 10
9.0201698612
 20
7.2327794329
 30
0.0
  0
VERTEX
  5
313
330
255
100
AcDbEntity
  8
0
  6
CONTINUOUS
 62
     7
100
AcDbVertex
100
AcDb2dVertex
 10
9.0013553816
 20
7.2421449207
 30
0.0
  0
VERTEX
  5
314
330
255
100
AcDbEntity
  8
0
  6
CONTINUOUS
 62
     7
100
AcDbVertex
100
AcDb2dVertex
 10
8.9817171263
 20
7.2499622624
 30
0.0
  0
VERTEX
  5
315
330
255
100
AcDbEntity
  8
0
  6
CONTINUOUS
 62
     7
100
AcDbVertex
100
AcDb2dVertex
 10
8.9613009029
 20
7.2562132236
 30
0.0
  0
VERTEX
  5
316
330
255
100
AcDbEntity
  8
0
  6
CONTINUOUS
 62
     7
100
AcDbVertex
100
AcDb2dVertex
 10
8.9401543335
 20
7.2608832235
 30
0.0
  0
VERTEX
  5
317
330
255
100
AcDbEntity
  8
0
  6
CONTINUOUS
 62
     7
100
AcDbVertex
100
AcDb2dVertex
 10
8.918326744
 20
7.2639613689
 30
0.0
  0
VERTEX
  5
318
330
255
100
AcDbEntity
  8
0
  6
CONTINUOUS
 62
     7
100
AcDbVertex
100
AcDb2dVertex
 10
8.8958690487
 20
7.26544048
 30
0.0
  0
VERTEX
  5
319
330
255
100
AcDbEntity
  8
0
  6
CONTINUOUS
 62
     7
100
AcDbVertex
100
AcDb2dVertex
 10
8.8728336318
 20
7.2653171065
 30
0.0
  0
VERTEX
  5
31A
330
255
100
AcDbEntity
  8
0
  6
CONTINUOUS
 62
     7
100
AcDbVertex
100
AcDb2dVertex
 10
8.8492742248
 20
7.2635915362
 30
0.0
  0
VERTEX
  5
31B
330
255
100
AcDbEntity
  8
0
  6
CONTINUOUS
 62
     7
100
AcDbVertex
100
AcDb2dVertex
 10
8.8252457817
 20
7.2602677942
 30
0.0
  0
VERTEX
  5
31C
330
255
100
AcDbEntity
  8
0
  6
CONTINUOUS
 62
     7
100
AcDbVertex
100
AcDb2dVertex
 10
8.8008043504
 20
7.2553536334
 30
0.0
  0
VERTEX
  5
31D
330
255
100
AcDbEntity
  8
0
  6
CONTINUOUS
 62
     7
100
AcDbVertex
100
AcDb2dVertex
 10
8.7760069424
 20
7.2488605162
 30
0.0
  0
VERTEX
  5
31E
330
255
100
AcDbEntity
  8
0
  6
CONTINUOUS
 62
     7
100
AcDbVertex
100
AcDb2dVertex
 10
8.7509113991
 20
7.2408035884
 30
0.0
  0
VERTEX
  5
31F
330
255
100
AcDbEntity
  8
0
  6
CONTINUOUS
 62
     7
100
AcDbVertex
100
AcDb2dVertex
 10
8.7255762577
 20
7.2312016433
 30
0.0
  0
VERTEX
  5
320
330
255
100
AcDbEntity
  8
0
  6
CONTINUOUS
 62
     7
100
AcDbVertex
100
AcDb2dVertex
 10
8.700060614
 20
7.2200770781
 30
0.0
  0
VERTEX
  5
321
330
255
100
AcDbEntity
  8
0
  6
CONTINUOUS
 62
     7
100
AcDbVertex
100
AcDb2dVertex
 10
8.6744239851
 20
7.2074558415
 30
0.0
  0
VERTEX
  5
322
330
255
100
AcDbEntity
  8
0
  6
CONTINUOUS
 62
     7
100
AcDbVertex
100
AcDb2dVertex
 10
8.6487261702
 20
7.1933673735
 30
0.0
  0
VERTEX
  5
323
330
255
100
AcDbEntity
  8
0
  6
CONTINUOUS
 62
     7
100
AcDbVertex
100
AcDb2dVertex
 10
8.623027111
 20
7.1778445364
 30
0.0
  0
VERTEX
  5
324
330
255
100
AcDbEntity
  8
0
  6
CONTINUOUS
 62
     7
100
AcDbVertex
100
AcDb2dVertex
 10
8.5973867525
 20
7.1609235383
 30
0.0
  0
VERTEX
  5
325
330
255
100
AcDbEntity
  8
0
  6
CONTINUOUS
 62
     7
100
AcDbVertex
100
AcDb2dVertex
 10
8.5718649025
 20
7.1426438484
 30
0.0
  0
VERTEX
  5
326
330
255
100
AcDbEntity
  8
0
  6
CONTINUOUS
 62
     7
100
AcDbVertex
100
AcDb2dVertex
 10
8.5465210924
 20
7.1230481055
 30
0.0
  0
VERTEX
  5
327
330
255
100
AcDbEntity
  8
0
  6
CONTINUOUS
 62
     7
100
AcDbVertex
100
AcDb2dVertex
 10
8.5214144384
 20
7.1021820179
 30
0.0
  0
VERTEX
  5
328
330
255
100
AcDbEntity
  8
0
  6
CONTINUOUS
 62
     7
100
AcDbVertex
100
AcDb2dVertex
 10
8.4966035034
 20
7.0800942572
 30
0.0
  0
VERTEX
  5
329
330
255
100
AcDbEntity
  8
0
  6
CONTINUOUS
 62
     7
100
AcDbVertex
100
AcDb2dVertex
 10
8.4721461607
 20
7.0568363446
 30
0.0
  0
VERTEX
  5
32A
330
255
100
AcDbEntity
  8
0
  6
CONTINUOUS
 62
     7
100
AcDbVertex
100
AcDb2dVertex
 10
8.4480994587
 20
7.0324625308
 30
0.0
  0
VERTEX
  5
32B
330
255
100
AcDbEntity
  8
0
  6
CONTINUOUS
 62
     7
100
AcDbVertex
100
AcDb2dVertex
 10
8.4245194879
 20
7.0070296693
 30
0.0
  0
VERTEX
  5
32C
330
255
100
AcDbEntity
  8
0
  6
CONTINUOUS
 62
     7
100
AcDbVertex
100
AcDb2dVertex
 10
8.4014612502
 20
6.980597084
 30
0.0
  0
VERTEX
  5
32D
330
255
100
AcDbEntity
  8
0
  6
CONTINUOUS
 62
     7
100
AcDbVertex
100
AcDb2dVertex
 10
8.3789785305
 20
6.9532264307
 30
0.0
  0
VERTEX
  5
32E
330
255
100
AcDbEntity
  8
0
  6
CONTINUOUS
 62
     7
100
AcDbVertex
100
AcDb2dVertex
 10
8.3571237712
 20
6.9249815532
 30
0.0
  0
VERTEX
  5
32F
330
255
100
AcDbEntity
  8
0
  6
CONTINUOUS
 62
     7
100
AcDbVertex
100
AcDb2dVertex
 10
8.3359479502
 20
6.8959283348
 30
0.0
  0
VERTEX
  5
330
330
255
100
AcDbEntity
  8
0
  6
CONTINUOUS
 62
     7
100
AcDbVertex
100
AcDb2dVertex
 10
8.3155004613
 20
6.866134544
 30
0.0
  0
VERTEX
  5
331
330
255
100
AcDbEntity
  8
0
  6
CONTINUOUS
 62
     7
100
AcDbVertex
100
AcDb2dVertex
 10
8.2958289998
 20
6.8356696767
 30
0.0
  0
VERTEX
  5
332
330
255
100
AcDbEntity
  8
0
  6
CONTINUOUS
 62
     7
100
AcDbVertex
100
AcDb2dVertex
 10
8.2769794507
 20
6.8046047945
 30
0.0
  0
VERTEX
  5
333
330
255
100
AcDbEntity
  8
0
  6
CONTINUOUS
 62
     7
100
AcDbVertex
100
AcDb2dVertex
 10
8.2589957819
 20
6.7730123582
 30
0.0
  0
VERTEX
  5
334
330
255
100
AcDbEntity
  8
0
  6
CONTINUOUS
 62
     7
100
AcDbVertex
100
AcDb2dVertex
 10
8.2419199414
 20
6.7409660593
 30
0.0
  0
VERTEX
  5
335
330
255
100
AcDbEntity
  8
0
  6
CONTINUOUS
 62
     7
100
AcDbVertex
100
AcDb2dVertex
 10
8.2257917598
 20
6.7085406481
 30
0.0
  0
VERTEX
  5
336
330
255
100
AcDbEntity
  8
0
  6
CONTINUOUS
 62
     7
100
AcDbVertex
100
AcDb2dVertex
 10
8.2106488572
 20
6.6758117589
 30
0.0
  0
VERTEX
  5
337
330
255
100
AcDbEntity
  8
0
  6
CONTINUOUS
 62
     7
100
AcDbVertex
100
AcDb2dVertex
 10
8.1965265555
 20
6.6428557341
 30
0.0
  0
VERTEX
  5
338
330
255
100
AcDbEntity
  8
0
  6
CONTINUOUS
 62
     7
100
AcDbVertex
100
AcDb2dVertex
 10
8.1834577958
 20
6.6097494459
 30
0.0
  0
VERTEX
  5
339
330
255
100
AcDbEntity
  8
0
  6
CONTINUOUS
 62
     7
100
AcDbVertex
100
AcDb2dVertex
 10
8.1714730619
 20
6.5765701169
 30
0.0
  0
VERTEX
  5
33A
330
255
100
AcDbEntity
  8
0
  6
CONTINUOUS
 62
     7
100
AcDbVertex
100
AcDb2dVertex
 10
8.1606003091
 20
6.5433951402
 30
0.0
  0
VERTEX
  5
33B
330
255
100
AcDbEntity
  8
0
  6
CONTINUOUS
 62
     7
100
AcDbVertex
100
AcDb2dVertex
 10
8.1508648988
 20
6.5103018987
 30
0.0
  0
VERTEX
  5
33C
330
255
100
AcDbEntity
  8
0
  6
CONTINUOUS
 62
     7
100
AcDbVertex
100
AcDb2dVertex
 10
8.1422895394
 20
6.4773675846
 30
0.0
  0
VERTEX
  5
33D
330
255
100
AcDbEntity
  8
0
  6
CONTINUOUS
 62
     7
100
AcDbVertex
100
AcDb2dVertex
 10
8.1348942336
 20
6.4446690193
 30
0.0
  0
VERTEX
  5
33E
330
255
100
AcDbEntity
  8
0
  6
CONTINUOUS
 62
     7
100
AcDbVertex
100
AcDb2dVertex
 10
8.1286962315
 20
6.4122824746
 30
0.0
  0
VERTEX
  5
33F
330
255
100
AcDbEntity
  8
0
  6
CONTINUOUS
 62
     7
100
AcDbVertex
100
AcDb2dVertex
 10
8.1237099902
 20
6.3802834942
 30
0.0
  0
VERTEX
  5
340
330
255
100
AcDbEntity
  8
0
  6
CONTINUOUS
 62
     7
100
AcDbVertex
100
AcDb2dVertex
 10
8.1199471406
 20
6.3487467179
 30
0.0
  0
VERTEX
  5
341
330
255
100
AcDbEntity
  8
0
  6
CONTINUOUS
 62
     7
100
AcDbVertex
100
AcDb2dVertex
 10
8.1174164597
 20
6.3177457074
 30
0.0
  0
VERTEX
  5
342
330
255
100
AcDbEntity
  8
0
  6
CONTINUOUS
 62
     7
100
AcDbVertex
100
AcDb2dVertex
 10
8.1161238506
 20
6.2873527747
 30
0.0
  0
SEQEND
  5
343
330
255
100
AcDbEntity
  8
0
  6
CONTINUOUS
 62
     7
  0
LINE
  5
256
330
1F
100
AcDbEntity
  8
0
  6
CONTINUOUS
 62
     7
100
AcDbLine
 10
8.0949070891
 20
6.2873507207
 30
0.0
 11
8.1161238506
 21
6.2873527747
 31
0.0
  0
POLYLINE
  5
257
330
1F
100
AcDbEntity
  8
0
  6
CONTINUOUS
 62
     7
100
AcDb2dPolyline
 66
     1
 10
0.0
 20
0.0
 30
0.0
  0
VERTEX
  5
344
330
257
100
AcDbEntity
  8
0
  6
CONTINUOUS
 62
     7
100
AcDbVertex
100
AcDb2dVertex
 10
8.0949070891
 20
6.2873507207
 30
0.0
  0
VERTEX
  5
345
330
257
100
AcDbEntity
  8
0
  6
CONTINUOUS
 62
     7
100
AcDbVertex
100
AcDb2dVertex
 10
8.0961975229
 20
6.3181066024
 30
0.0
  0
VERTEX
  5
346
330
257
100
AcDbEntity
  8
0
  6
CONTINUOUS
 62
     7
100
AcDbVertex
100
AcDb2dVertex
 10
8.0987318407
 20
6.34947468
 30
0.0
  0
VERTEX
  5
347
330
257
100
AcDbEntity
  8
0
  6
CONTINUOUS
 62
     7
100
AcDbVertex
100
AcDb2dVertex
 10
8.1025042198
 20
6.3813828829
 30
0.0
  0
VERTEX
  5
348
330
257
100
AcDbEntity
  8
0
  6
CONTINUOUS
 62
     7
100
AcDbVertex
100
AcDb2dVertex
 10
8.1075059927
 20
6.4137578994
 30
0.0
  0
VERTEX
  5
349
330
257
100
AcDbEntity
  8
0
  6
CONTINUOUS
 62
     7
100
AcDbVertex
100
AcDb2dVertex
 10
8.1137256676
 20
6.4465253454
 30
0.0
  0
VERTEX
  5
34A
330
257
100
AcDbEntity
  8
0
  6
CONTINUOUS
 62
     7
100
AcDbVertex
100
AcDb2dVertex
 10
8.1211489542
 20
6.4796099348
 30
0.0
  0
VERTEX
  5
34B
330
257
100
AcDbEntity
  8
0
  6
CONTINUOUS
 62
     7
100
AcDbVertex
100
AcDb2dVertex
 10
8.1297587969
 20
6.5129356534
 30
0.0
  0
VERTEX
  5
34C
330
257
100
AcDbEntity
  8
0
  6
CONTINUOUS
 62
     7
100
AcDbVertex
100
AcDb2dVertex
 10
8.1395354139
 20
6.5464259324
 30
0.0
  0
VERTEX
  5
34D
330
257
100
AcDbEntity
  8
0
  6
CONTINUOUS
 62
     7
100
AcDbVertex
100
AcDb2dVertex
 10
8.1504563426
 20
6.5800038254
 30
0.0
  0
VERTEX
  5
34E
330
257
100
AcDbEntity
  8
0
  6
CONTINUOUS
 62
     7
100
AcDbVertex
100
AcDb2dVertex
 10
8.1624964914
 20
6.6135921843
 30
0.0
  0
VERTEX
  5
34F
330
257
100
AcDbEntity
  8
0
  6
CONTINUOUS
 62
     7
100
AcDbVertex
100
AcDb2dVertex
 10
8.175628197
 20
6.6471138373
 30
0.0
  0
VERTEX
  5
350
330
257
100
AcDbEntity
  8
0
  6
CONTINUOUS
 62
     7
100
AcDbVertex
100
AcDb2dVertex
 10
8.1898212882
 20
6.6804917657
 30
0.0
  0
VERTEX
  5
351
330
257
100
AcDbEntity
  8
0
  6
CONTINUOUS
 62
     7
100
AcDbVertex
100
AcDb2dVertex
 10
8.2050431554
 20
6.7136492808
 30
0.0
  0
VERTEX
  5
352
330
257
100
AcDbEntity
  8
0
  6
CONTINUOUS
 62
     7
100
AcDbVertex
100
AcDb2dVertex
 10
8.221258825
 20
6.7465102008
 30
0.0
  0
VERTEX
  5
353
330
257
100
AcDbEntity
  8
0
  6
CONTINUOUS
 62
     7
100
AcDbVertex
100
AcDb2dVertex
 10
8.2384310402
 20
6.778999025
 30
0.0
  0
VERTEX
  5
354
330
257
100
AcDbEntity
  8
0
  6
CONTINUOUS
 62
     7
100
AcDbVertex
100
AcDb2dVertex
 10
8.2565203465
 20
6.8110411076
 30
0.0
  0
VERTEX
  5
355
330
257
100
AcDbEntity
  8
0
  6
CONTINUOUS
 62
     7
100
AcDbVertex
100
AcDb2dVertex
 10
8.2754851822
 20
6.8425628295
 30
0.0
  0
VERTEX
  5
356
330
257
100
AcDbEntity
  8
0
  6
CONTINUOUS
 62
     7
100
AcDbVertex
100
AcDb2dVertex
 10
8.2952819741
 20
6.8734917669
 30
0.0
  0
VERTEX
  5
357
330
257
100
AcDbEntity
  8
0
  6
CONTINUOUS
 62
     7
100
AcDbVertex
100
AcDb2dVertex
 10
8.3158652375
 20
6.9037568582
 30
0.0
  0
VERTEX
  5
358
330
257
100
AcDbEntity
  8
0
  6
CONTINUOUS
 62
     7
100
AcDbVertex
100
AcDb2dVertex
 10
8.3371876807
 20
6.9332885667
 30
0.0
  0
VERTEX
  5
359
330
257
100
AcDbEntity
  8
0
  6
CONTINUOUS
 62
     7
100
AcDbVertex
100
AcDb2dVertex
 10
8.3592003136
 20
6.9620190411
 30
0.0
  0
VERTEX
  5
35A
330
257
100
AcDbEntity
  8
0
  6
CONTINUOUS
 62
     7
100
AcDbVertex
100
AcDb2dVertex
 10
8.3818525604
 20
6.9898822708
 30
0.0
  0
VERTEX
  5
35B
330
257
100
AcDbEntity
  8
0
  6
CONTINUOUS
 62
     7
100
AcDbVertex
100
AcDb2dVertex
 10
8.4050923758
 20
7.0168142376
 30
0.0
  0
VERTEX
  5
35C
330
257
100
AcDbEntity
  8
0
  6
CONTINUOUS
 62
     7
100
AcDbVertex
100
AcDb2dVertex
 10
8.4288663645
 20
7.0427530634
 30
0.0
  0
VERTEX
  5
35D
330
257
100
AcDbEntity
  8
0
  6
CONTINUOUS
 62
     7
100
AcDbVertex
100
AcDb2dVertex
 10
8.4531199037
 20
7.0676391516
 30
0.0
  0
VERTEX
  5
35E
330
257
100
AcDbEntity
  8
0
  6
CONTINUOUS
 62
     7
100
AcDbVertex
100
AcDb2dVertex
 10
8.477797269
 20
7.0914153242
 30
0.0
  0
VERTEX
  5
35F
330
257
100
AcDbEntity
  8
0
  6
CONTINUOUS
 62
     7
100
AcDbVertex
100
AcDb2dVertex
 10
8.5028417623
 20
7.1140269538
 30
0.0
  0
VERTEX
  5
360
330
257
100
AcDbEntity
  8
0
  6
CONTINUOUS
 62
     7
100
AcDbVertex
100
AcDb2dVertex
 10
8.5281958416
 20
7.1354220882
 30
0.0
  0
VERTEX
  5
361
330
257
100
AcDbEntity
  8
0
  6
CONTINUOUS
 62
     7
100
AcDbVertex
100
AcDb2dVertex
 10
8.5538012541
 20
7.1555515704
 30
0.0
  0
VERTEX
  5
362
330
257
100
AcDbEntity
  8
0
  6
CONTINUOUS
 62
     7
100
AcDbVertex
100
AcDb2dVertex
 10
8.5795991692
 20
7.1743691512
 30
0.0
  0
VERTEX
  5
363
330
257
100
AcDbEntity
  8
0
  6
CONTINUOUS
 62
     7
100
AcDbVertex
100
AcDb2dVertex
 10
8.605530314
 20
7.1918315959
 30
0.0
  0
VERTEX
  5
364
330
257
100
AcDbEntity
  8
0
  6
CONTINUOUS
 62
     7
100
AcDbVertex
100
AcDb2dVertex
 10
8.6315351098
 20
7.2078987829
 30
0.0
  0
VERTEX
  5
365
330
257
100
AcDbEntity
  8
0
  6
CONTINUOUS
 62
     7
100
AcDbVertex
100
AcDb2dVertex
 10
8.6575538085
 20
7.2225337967
 30
0.0
  0
VERTEX
  5
366
330
257
100
AcDbEntity
  8
0
  6
CONTINUOUS
 62
     7
100
AcDbVertex
100
AcDb2dVertex
 10
8.6835266298
 20
7.2357030121
 30
0.0
  0
VERTEX
  5
367
330
257
100
AcDbEntity
  8
0
  6
CONTINUOUS
 62
     7
100
AcDbVertex
100
AcDb2dVertex
 10
8.7093938993
 20
7.2473761719
 30
0.0
  0
VERTEX
  5
368
330
257
100
AcDbEntity
  8
0
  6
CONTINUOUS
 62
     7
100
AcDbVertex
100
AcDb2dVertex
 10
8.7350961847
 20
7.2575264558
 30
0.0
  0
VERTEX
  5
369
330
257
100
AcDbEntity
  8
0
  6
CONTINUOUS
 62
     7
100
AcDbVertex
100
AcDb2dVertex
 10
8.760574433
 20
7.266130543
 30
0.0
  0
VERTEX
  5
36A
330
257
100
AcDbEntity
  8
0
  6
CONTINUOUS
 62
     7
100
AcDbVertex
100
AcDb2dVertex
 10
8.7857701059
 20
7.2731686647
 30
0.0
  0
VERTEX
  5
36B
330
257
100
AcDbEntity
  8
0
  6
CONTINUOUS
 62
     7
100
AcDbVertex
100
AcDb2dVertex
 10
8.8106253143
 20
7.2786246504
 30
0.0
  0
VERTEX
  5
36C
330
257
100
AcDbEntity
  8
0
  6
CONTINUOUS
 62
     7
100
AcDbVertex
100
AcDb2dVertex
 10
8.8350829513
 20
7.2824859645
 30
0.0
  0
VERTEX
  5
36D
330
257
100
AcDbEntity
  8
0
  6
CONTINUOUS
 62
     7
100
AcDbVertex
100
AcDb2dVertex
 10
8.8590868235
 20
7.2847437352
 30
0.0
  0
VERTEX
  5
36E
330
257
100
AcDbEntity
  8
0
  6
CONTINUOUS
 62
     7
100
AcDbVertex
100
AcDb2dVertex
 10
8.8825817802
 20
7.2853927752
 30
0.0
  0
VERTEX
  5
36F
330
257
100
AcDbEntity
  8
0
  6
CONTINUOUS
 62
     7
100
AcDbVertex
100
AcDb2dVertex
 10
8.9055138397
 20
7.2844315933
 30
0.0
  0
VERTEX
  5
370
330
257
100
AcDbEntity
  8
0
  6
CONTINUOUS
 62
     7
100
AcDbVertex
100
AcDb2dVertex
 10
8.9278303138
 20
7.2818623978
 30
0.0
  0
VERTEX
  5
371
330
257
100
AcDbEntity
  8
0
  6
CONTINUOUS
 62
     7
100
AcDbVertex
100
AcDb2dVertex
 10
8.9494799287
 20
7.2776910918
 30
0.0
  0
VERTEX
  5
372
330
257
100
AcDbEntity
  8
0
  6
CONTINUOUS
 62
     7
100
AcDbVertex
100
AcDb2dVertex
 10
8.9704129425
 20
7.271927259
 30
0.0
  0
VERTEX
  5
373
330
257
100
AcDbEntity
  8
0
  6
CONTINUOUS
 62
     7
100
AcDbVertex
100
AcDb2dVertex
 10
8.9905812599
 20
7.2645841423
 30
0.0
  0
VERTEX
  5
374
330
257
100
AcDbEntity
  8
0
  6
CONTINUOUS
 62
     7
100
AcDbVertex
100
AcDb2dVertex
 10
9.0099385428
 20
7.2556786133
 30
0.0
  0
VERTEX
  5
375
330
257
100
AcDbEntity
  8
0
  6
CONTINUOUS
 62
     7
100
AcDbVertex
100
AcDb2dVertex
 10
9.0284403161
 20
7.245231133
 30
0.0
  0
VERTEX
  5
376
330
257
100
AcDbEntity
  8
0
  6
CONTINUOUS
 62
     7
100
AcDbVertex
100
AcDb2dVertex
 10
9.0460440705
 20
7.2332657053
 30
0.0
  0
VERTEX
  5
377
330
257
100
AcDbEntity
  8
0
  6
CONTINUOUS
 62
     7
100
AcDbVertex
100
AcDb2dVertex
 10
9.0627093599
 20
7.2198098219
 30
0.0
  0
VERTEX
  5
378
330
257
100
AcDbEntity
  8
0
  6
CONTINUOUS
 62
     7
100
AcDbVertex
100
AcDb2dVertex
 10
9.0783978947
 20
7.2048943986
 30
0.0
  0
VERTEX
  5
379
330
257
100
AcDbEntity
  8
0
  6
CONTINUOUS
 62
     7
100
AcDbVertex
100
AcDb2dVertex
 10
9.0930736289
 20
7.1885537049
 30
0.0
  0
VERTEX
  5
37A
330
257
100
AcDbEntity
  8
0
  6
CONTINUOUS
 62
     7
100
AcDbVertex
100
AcDb2dVertex
 10
9.1067028441
 20
7.1708252848
 30
0.0
  0
VERTEX
  5
37B
330
257
100
AcDbEntity
  8
0
  6
CONTINUOUS
 62
     7
100
AcDbVertex
100
AcDb2dVertex
 10
9.1192542259
 20
7.1517498708
 30
0.0
  0
VERTEX
  5
37C
330
257
100
AcDbEntity
  8
0
  6
CONTINUOUS
 62
     7
100
AcDbVertex
100
AcDb2dVertex
 10
9.1306989365
 20
7.1313712902
 30
0.0
  0
VERTEX
  5
37D
330
257
100
AcDbEntity
  8
0
  6
CONTINUOUS
 62
     7
100
AcDbVertex
100
AcDb2dVertex
 10
9.1410106809
 20
7.1097363645
 30
0.0
  0
VERTEX
  5
37E
330
257
100
AcDbEntity
  8
0
  6
CONTINUOUS
 62
     7
100
AcDbVertex
100
AcDb2dVertex
 10
9.1501657669
 20
7.0868948015
 30
0.0
  0
VERTEX
  5
37F
330
257
100
AcDbEntity
  8
0
  6
CONTINUOUS
 62
     7
100
AcDbVertex
100
AcDb2dVertex
 10
9.15814316
 20
7.0628990817
 30
0.0
  0
VERTEX
  5
380
330
257
100
AcDbEntity
  8
0
  6
CONTINUOUS
 62
     7
100
AcDbVertex
100
AcDb2dVertex
 10
9.1649245315
 20
7.0378043371
 30
0.0
  0
VERTEX
  5
381
330
257
100
AcDbEntity
  8
0
  6
CONTINUOUS
 62
     7
100
AcDbVertex
100
AcDb2dVertex
 10
9.1704943006
 20
7.011668225
 30
0.0
  0
VERTEX
  5
382
330
257
100
AcDbEntity
  8
0
  6
CONTINUOUS
 62
     7
100
AcDbVertex
100
AcDb2dVertex
 10
9.1748396704
 20
6.9845507951
 30
0.0
  0
VERTEX
  5
383
330
257
100
AcDbEntity
  8
0
  6
CONTINUOUS
 62
     7
100
AcDbVertex
100
AcDb2dVertex
 10
9.1779506569
 20
6.956514352
 30
0.0
  0
VERTEX
  5
384
330
257
100
AcDbEntity
  8
0
  6
CONTINUOUS
 62
     7
100
AcDbVertex
100
AcDb2dVertex
 10
9.1798201126
 20
6.9276233116
 30
0.0
  0
VERTEX
  5
385
330
257
100
AcDbEntity
  8
0
  6
CONTINUOUS
 62
     7
100
AcDbVertex
100
AcDb2dVertex
 10
9.1804437421
 20
6.8979440534
 30
0.0
  0
SEQEND
  5
386
330
257
100
AcDbEntity
  8
0
  6
CONTINUOUS
 62
     7
  0
POLYLINE
  5
258
330
1F
100
AcDbEntity
  8
0
  6
CONTINUOUS
 62
     7
100
AcDb2dPolyline
 66
     1
 10
0.0
 20
0.0
 30
0.0
  0
VERTEX
  5
387
330
258
100
AcDbEntity
  8
0
  6
CONTINUOUS
 62
     7
100
AcDbVertex
100
AcDb2dVertex
 10
8.6376744035
 20
5.9577381089
 30
0.0
  0
VERTEX
  5
388
330
258
100
AcDbEntity
  8
0
  6
CONTINUOUS
 62
     7
100
AcDbVertex
100
AcDb2dVertex
 10
8.6315351098
 20
5.954232907
 30
0.0
  0
VERTEX
  5
389
330
258
100
AcDbEntity
  8
0
  6
CONTINUOUS
 62
     7
100
AcDbVertex
100
AcDb2dVertex
 10
8.605530314
 20
5.940275596
 30
0.0
  0
VERTEX
  5
38A
330
258
100
AcDbEntity
  8
0
  6
CONTINUOUS
 62
     7
100
AcDbVertex
100
AcDb2dVertex
 10
8.5795991692
 20
5.927798578
 30
0.0
  0
VERTEX
  5
38B
330
258
100
AcDbEntity
  8
0
  6
CONTINUOUS
 62
     7
100
AcDbVertex
100
AcDb2dVertex
 10
8.5538012541
 20
5.9168305201
 30
0.0
  0
VERTEX
  5
38C
330
258
100
AcDbEntity
  8
0
  6
CONTINUOUS
 62
     7
100
AcDbVertex
100
AcDb2dVertex
 10
8.5281958416
 20
5.9073966224
 30
0.0
  0
VERTEX
  5
38D
330
258
100
AcDbEntity
  8
0
  6
CONTINUOUS
 62
     7
100
AcDbVertex
100
AcDb2dVertex
 10
8.5028417623
 20
5.8995185598
 30
0.0
  0
VERTEX
  5
38E
330
258
100
AcDbEntity
  8
0
  6
CONTINUOUS
 62
     7
100
AcDbVertex
100
AcDb2dVertex
 10
8.477797269
 20
5.893214433
 30
0.0
  0
VERTEX
  5
38F
330
258
100
AcDbEntity
  8
0
  6
CONTINUOUS
 62
     7
100
AcDbVertex
100
AcDb2dVertex
 10
8.4531199037
 20
5.8884987261
 30
0.0
  0
VERTEX
  5
390
330
258
100
AcDbEntity
  8
0
  6
CONTINUOUS
 62
     7
100
AcDbVertex
100
AcDb2dVertex
 10
8.4288663645
 20
5.8853822739
 30
0.0
  0
VERTEX
  5
391
330
258
100
AcDbEntity
  8
0
  6
CONTINUOUS
 62
     7
100
AcDbVertex
100
AcDb2dVertex
 10
8.4050923758
 20
5.8838722367
 30
0.0
  0
VERTEX
  5
392
330
258
100
AcDbEntity
  8
0
  6
CONTINUOUS
 62
     7
100
AcDbVertex
100
AcDb2dVertex
 10
8.3818525604
 20
5.8839720838
 30
0.0
  0
VERTEX
  5
393
330
258
100
AcDbEntity
  8
0
  6
CONTINUOUS
 62
     7
100
AcDbVertex
100
AcDb2dVertex
 10
8.3592003136
 20
5.885681586
 30
0.0
  0
VERTEX
  5
394
330
258
100
AcDbEntity
  8
0
  6
CONTINUOUS
 62
     7
100
AcDbVertex
100
AcDb2dVertex
 10
8.3371876807
 20
5.8889968154
 30
0.0
  0
VERTEX
  5
395
330
258
100
AcDbEntity
  8
0
  6
CONTINUOUS
 62
     7
100
AcDbVertex
100
AcDb2dVertex
 10
8.3158652375
 20
5.8939101551
 30
0.0
  0
VERTEX
  5
396
330
258
100
AcDbEntity
  8
0
  6
CONTINUOUS
 62
     7
100
AcDbVertex
100
AcDb2dVertex
 10
8.2952819741
 20
5.9004103162
 30
0.0
  0
VERTEX
  5
397
330
258
100
AcDbEntity
  8
0
  6
CONTINUOUS
 62
     7
100
AcDbVertex
100
AcDb2dVertex
 10
8.2754851822
 20
5.9084823642
 30
0.0
  0
VERTEX
  5
398
330
258
100
AcDbEntity
  8
0
  6
CONTINUOUS
 62
     7
100
AcDbVertex
100
AcDb2dVertex
 10
8.2565203465
 20
5.9181077528
 30
0.0
  0
VERTEX
  5
399
330
258
100
AcDbEntity
  8
0
  6
CONTINUOUS
 62
     7
100
AcDbVertex
100
AcDb2dVertex
 10
8.2384310402
 20
5.929264367
 30
0.0
  0
VERTEX
  5
39A
330
258
100
AcDbEntity
  8
0
  6
CONTINUOUS
 62
     7
100
AcDbVertex
100
AcDb2dVertex
 10
8.221258825
 20
5.9419265735
 30
0.0
  0
VERTEX
  5
39B
330
258
100
AcDbEntity
  8
0
  6
CONTINUOUS
 62
     7
100
AcDbVertex
100
AcDb2dVertex
 10
8.2050431554
 20
5.9560652799
 30
0.0
  0
VERTEX
  5
39C
330
258
100
AcDbEntity
  8
0
  6
CONTINUOUS
 62
     7
100
AcDbVertex
100
AcDb2dVertex
 10
8.1898212882
 20
5.9716480014
 30
0.0
  0
VERTEX
  5
39D
330
258
100
AcDbEntity
  8
0
  6
CONTINUOUS
 62
     7
100
AcDbVertex
100
AcDb2dVertex
 10
8.175628197
 20
5.9886389353
 30
0.0
  0
VERTEX
  5
39E
330
258
100
AcDbEntity
  8
0
  6
CONTINUOUS
 62
     7
100
AcDbVertex
100
AcDb2dVertex
 10
8.1624964914
 20
6.0069990438
 30
0.0
  0
VERTEX
  5
39F
330
258
100
AcDbEntity
  8
0
  6
CONTINUOUS
 62
     7
100
AcDbVertex
100
AcDb2dVertex
 10
8.1504563426
 20
6.0266861428
 30
0.0
  0
VERTEX
  5
3A0
330
258
100
AcDbEntity
  8
0
  6
CONTINUOUS
 62
     7
100
AcDbVertex
100
AcDb2dVertex
 10
8.1395354139
 20
6.0476549999
 30
0.0
  0
VERTEX
  5
3A1
330
258
100
AcDbEntity
  8
0
  6
CONTINUOUS
 62
     7
100
AcDbVertex
100
AcDb2dVertex
 10
8.1297587969
 20
6.0698574372
 30
0.0
  0
VERTEX
  5
3A2
330
258
100
AcDbEntity
  8
0
  6
CONTINUOUS
 62
     7
100
AcDbVertex
100
AcDb2dVertex
 10
8.1211489542
 20
6.0932424429
 30
0.0
  0
VERTEX
  5
3A3
330
258
100
AcDbEntity
  8
0
  6
CONTINUOUS
 62
     7
100
AcDbVertex
100
AcDb2dVertex
 10
8.1137256676
 20
6.1177562882
 30
0.0
  0
VERTEX
  5
3A4
330
258
100
AcDbEntity
  8
0
  6
CONTINUOUS
 62
     7
100
AcDbVertex
100
AcDb2dVertex
 10
8.1075059927
 20
6.1433426503
 30
0.0
  0
VERTEX
  5
3A5
330
258
100
AcDbEntity
  8
0
  6
CONTINUOUS
 62
     7
100
AcDbVertex
100
AcDb2dVertex
 10
8.1025042198
 20
6.1699427428
 30
0.0
  0
VERTEX
  5
3A6
330
258
100
AcDbEntity
  8
0
  6
CONTINUOUS
 62
     7
100
AcDbVertex
100
AcDb2dVertex
 10
8.0987318407
 20
6.1974954495
 30
0.0
  0
VERTEX
  5
3A7
330
258
100
AcDbEntity
  8
0
  6
CONTINUOUS
 62
     7
100
AcDbVertex
100
AcDb2dVertex
 10
8.0961975229
 20
6.2259374661
 30
0.0
  0
VERTEX
  5
3A8
330
258
100
AcDbEntity
  8
0
  6
CONTINUOUS
 62
     7
100
AcDbVertex
100
AcDb2dVertex
 10
8.0949070891
 20
6.2552034446
 30
0.0
  0
SEQEND
  5
3A9
330
258
100
AcDbEntity
  8
0
  6
CONTINUOUS
 62
     7
  0
LINE
  5
259
330
1F
100
AcDbEntity
  8
0
  6
CONTINUOUS
 62
     7
100
AcDbLine
 10
8.0949070891
 20
6.2552034446
 30
0.0
 11
8.1161238506
 21
6.2552054986
 31
0.0
  0
POLYLINE
  5
25A
330
1F
100
AcDbEntity
  8
0
  6
CONTINUOUS
 62
     7
100
AcDb2dPolyline
 66
     1
 10
0.0
 20
0.0
 30
0.0
  0
VERTEX
  5
3AA
330
25A
100
AcDbEntity
  8
0
  6
CONTINUOUS
 62
     7
100
AcDbVertex
100
AcDb2dVertex
 10
8.6144371034
 20
7.4843814085
 30
0.0
  0
VERTEX
  5
3AB
330
25A
100
AcDbEntity
  8
0
  6
CONTINUOUS
 62
     7
100
AcDbVertex
100
AcDb2dVertex
 10
8.6027906325
 20
7.4907086634
 30
0.0
  0
VERTEX
  5
3AC
330
25A
100
AcDbEntity
  8
0
  6
CONTINUOUS
 62
     7
100
AcDbVertex
100
AcDb2dVertex
 10
8.5834152413
 20
7.4996044377
 30
0.0
  0
VERTEX
  5
3AD
330
25A
100
AcDbEntity
  8
0
  6
CONTINUOUS
 62
     7
100
AcDbVertex
100
AcDb2dVertex
 10
8.5632283868
 20
7.5069359533
 30
0.0
  0
VERTEX
  5
3AE
330
25A
100
AcDbEntity
  8
0
  6
CONTINUOUS
 62
     7
100
AcDbVertex
100
AcDb2dVertex
 10
8.5422764994
 20
7.5126863472
 30
0.0
  0
VERTEX
  5
3AF
330
25A
100
AcDbEntity
  8
0
  6
CONTINUOUS
 62
     7
100
AcDbVertex
100
AcDb2dVertex
 10
8.5206077691
 20
7.5168423936
 30
0.0
  0
VERTEX
  5
3B0
330
25A
100
AcDbEntity
  8
0
  6
CONTINUOUS
 62
     7
100
AcDbVertex
100
AcDb2dVertex
 10
8.4982720348
 20
7.5193945332
 30
0.0
  0
VERTEX
  5
3B1
330
25A
100
AcDbEntity
  8
0
  6
CONTINUOUS
 62
     7
100
AcDbVertex
100
AcDb2dVertex
 10
8.4753206693
 20
7.5203368962
 30
0.0
  0
VERTEX
  5
3B2
330
25A
100
AcDbEntity
  8
0
  6
CONTINUOUS
 62
     7
100
AcDbVertex
100
AcDb2dVertex
 10
8.4518064614
 20
7.519667315
 30
0.0
  0
VERTEX
  5
3B3
330
25A
100
AcDbEntity
  8
0
  6
CONTINUOUS
 62
     7
100
AcDbVertex
100
AcDb2dVertex
 10
8.4277834947
 20
7.5173873297
 30
0.0
  0
VERTEX
  5
3B4
330
25A
100
AcDbEntity
  8
0
  6
CONTINUOUS
 62
     7
100
AcDbVertex
100
AcDb2dVertex
 10
8.4033070227
 20
7.5135021843
 30
0.0
  0
VERTEX
  5
3B5
330
25A
100
AcDbEntity
  8
0
  6
CONTINUOUS
 62
     7
100
AcDbVertex
100
AcDb2dVertex
 10
8.3784333421
 20
7.5080208149
 30
0.0
  0
VERTEX
  5
3B6
330
25A
100
AcDbEntity
  8
0
  6
CONTINUOUS
 62
     7
100
AcDbVertex
100
AcDb2dVertex
 10
8.3532196632
 20
7.5009558286
 30
0.0
  0
VERTEX
  5
3B7
330
25A
100
AcDbEntity
  8
0
  6
CONTINUOUS
 62
     7
100
AcDbVertex
100
AcDb2dVertex
 10
8.3277239781
 20
7.4923234753
 30
0.0
  0
VERTEX
  5
3B8
330
25A
100
AcDbEntity
  8
0
  6
CONTINUOUS
 62
     7
100
AcDbVertex
100
AcDb2dVertex
 10
8.3020049279
 20
7.4821436097
 30
0.0
  0
VERTEX
  5
3B9
330
25A
100
AcDbEntity
  8
0
  6
CONTINUOUS
 62
     7
100
AcDbVertex
100
AcDb2dVertex
 10
8.2761216671
 20
7.4704396456
 30
0.0
  0
VERTEX
  5
3BA
330
25A
100
AcDbEntity
  8
0
  6
CONTINUOUS
 62
     7
100
AcDbVertex
100
AcDb2dVertex
 10
8.2501337281
 20
7.4572385027
 30
0.0
  0
VERTEX
  5
3BB
330
25A
100
AcDbEntity
  8
0
  6
CONTINUOUS
 62
     7
100
AcDbVertex
100
AcDb2dVertex
 10
8.2241008839
 20
7.4425705439
 30
0.0
  0
VERTEX
  5
3BC
330
25A
100
AcDbEntity
  8
0
  6
CONTINUOUS
 62
     7
100
AcDbVertex
100
AcDb2dVertex
 10
8.198083011
 20
7.4264695061
 30
0.0
  0
VERTEX
  5
3BD
330
25A
100
AcDbEntity
  8
0
  6
CONTINUOUS
 62
     7
100
AcDbVertex
100
AcDb2dVertex
 10
8.1721399513
 20
7.4089724221
 30
0.0
  0
VERTEX
  5
3BE
330
25A
100
AcDbEntity
  8
0
  6
CONTINUOUS
 62
     7
100
AcDbVertex
100
AcDb2dVertex
 10
8.1463313747
 20
7.3901195359
 30
0.0
  0
VERTEX
  5
3BF
330
25A
100
AcDbEntity
  8
0
  6
CONTINUOUS
 62
     7
100
AcDbVertex
100
AcDb2dVertex
 10
8.1207166416
 20
7.3699542095
 30
0.0
  0
VERTEX
  5
3C0
330
25A
100
AcDbEntity
  8
0
  6
CONTINUOUS
 62
     7
100
AcDbVertex
100
AcDb2dVertex
 10
8.0953546669
 20
7.3485228241
 30
0.0
  0
VERTEX
  5
3C1
330
25A
100
AcDbEntity
  8
0
  6
CONTINUOUS
 62
     7
100
AcDbVertex
100
AcDb2dVertex
 10
8.0703037838
 20
7.3258746723
 30
0.0
  0
VERTEX
  5
3C2
330
25A
100
AcDbEntity
  8
0
  6
CONTINUOUS
 62
     7
100
AcDbVertex
100
AcDb2dVertex
 10
8.0456216103
 20
7.3020618458
 30
0.0
  0
VERTEX
  5
3C3
330
25A
100
AcDbEntity
  8
0
  6
CONTINUOUS
 62
     7
100
AcDbVertex
100
AcDb2dVertex
 10
8.021364916
 20
7.2771391147
 30
0.0
  0
VERTEX
  5
3C4
330
25A
100
AcDbEntity
  8
0
  6
CONTINUOUS
 62
     7
100
AcDbVertex
100
AcDb2dVertex
 10
7.9975894922
 20
7.2511638021
 30
0.0
  0
VERTEX
  5
3C5
330
25A
100
AcDbEntity
  8
0
  6
CONTINUOUS
 62
     7
100
AcDbVertex
100
AcDb2dVertex
 10
7.9743500232
 20
7.2241956521
 30
0.0
  0
VERTEX
  5
3C6
330
25A
100
AcDbEntity
  8
0
  6
CONTINUOUS
 62
     7
100
AcDbVertex
100
AcDb2dVertex
 10
7.9516999603
 20
7.1962966923
 30
0.0
  0
VERTEX
  5
3C7
330
25A
100
AcDbEntity
  8
0
  6
CONTINUOUS
 62
     7
100
AcDbVertex
100
AcDb2dVertex
 10
7.9296913996
 20
7.1675310913
 30
0.0
  0
VERTEX
  5
3C8
330
25A
100
AcDbEntity
  8
0
  6
CONTINUOUS
 62
     7
100
AcDbVertex
100
AcDb2dVertex
 10
7.9083749613
 20
7.1379650107
 30
0.0
  0
VERTEX
  5
3C9
330
25A
100
AcDbEntity
  8
0
  6
CONTINUOUS
 62
     7
100
AcDbVertex
100
AcDb2dVertex
 10
7.887799674
 20
7.1076664535
 30
0.0
  0
VERTEX
  5
3CA
330
25A
100
AcDbEntity
  8
0
  6
CONTINUOUS
 62
     7
100
AcDbVertex
100
AcDb2dVertex
 10
7.8680128616
 20
7.0767051075
 30
0.0
  0
VERTEX
  5
3CB
330
25A
100
AcDbEntity
  8
0
  6
CONTINUOUS
 62
     7
100
AcDbVertex
100
AcDb2dVertex
 10
7.8490600342
 20
7.0451521846
 30
0.0
  0
VERTEX
  5
3CC
330
25A
100
AcDbEntity
  8
0
  6
CONTINUOUS
 62
     7
100
AcDbVertex
100
AcDb2dVertex
 10
7.8309847841
 20
7.0130802576
 30
0.0
  0
VERTEX
  5
3CD
330
25A
100
AcDbEntity
  8
0
  6
CONTINUOUS
 62
     7
100
AcDbVertex
100
AcDb2dVertex
 10
7.8138286848
 20
6.980563093
 30
0.0
  0
VERTEX
  5
3CE
330
25A
100
AcDbEntity
  8
0
  6
CONTINUOUS
 62
     7
100
AcDbVertex
100
AcDb2dVertex
 10
7.797631196
 20
6.9476754813
 30
0.0
  0
VERTEX
  5
3CF
330
25A
100
AcDbEntity
  8
0
  6
CONTINUOUS
 62
     7
100
AcDbVertex
100
AcDb2dVertex
 10
7.7824295724
 20
6.9144930651
 30
0.0
  0
VERTEX
  5
3D0
330
25A
100
AcDbEntity
  8
0
  6
CONTINUOUS
 62
     7
100
AcDbVertex
100
AcDb2dVertex
 10
7.7682587782
 20
6.8810921649
 30
0.0
  0
VERTEX
  5
3D1
330
25A
100
AcDbEntity
  8
0
  6
CONTINUOUS
 62
     7
100
AcDbVertex
100
AcDb2dVertex
 10
7.7551514067
 20
6.8475496039
 30
0.0
  0
VERTEX
  5
3D2
330
25A
100
AcDbEntity
  8
0
  6
CONTINUOUS
 62
     7
100
AcDbVertex
100
AcDb2dVertex
 10
7.7431376053
 20
6.8139425311
 30
0.0
  0
VERTEX
  5
3D3
330
25A
100
AcDbEntity
  8
0
  6
CONTINUOUS
 62
     7
100
AcDbVertex
100
AcDb2dVertex
 10
7.7322450061
 20
6.7803482439
 30
0.0
  0
VERTEX
  5
3D4
330
25A
100
AcDbEntity
  8
0
  6
CONTINUOUS
 62
     7
100
AcDbVertex
100
AcDb2dVertex
 10
7.7224986624
 20
6.74684401
 30
0.0
  0
VERTEX
  5
3D5
330
25A
100
AcDbEntity
  8
0
  6
CONTINUOUS
 62
     7
100
AcDbVertex
100
AcDb2dVertex
 10
7.7139209911
 20
6.7135068905
 30
0.0
  0
VERTEX
  5
3D6
330
25A
100
AcDbEntity
  8
0
  6
CONTINUOUS
 62
     7
100
AcDbVertex
100
AcDb2dVertex
 10
7.7065317212
 20
6.6804135617
 30
0.0
  0
VERTEX
  5
3D7
330
25A
100
AcDbEntity
  8
0
  6
CONTINUOUS
 62
     7
100
AcDbVertex
100
AcDb2dVertex
 10
7.7003478481
 20
6.6476401393
 30
0.0
  0
VERTEX
  5
3D8
330
25A
100
AcDbEntity
  8
0
  6
CONTINUOUS
 62
     7
100
AcDbVertex
100
AcDb2dVertex
 10
7.6953835951
 20
6.6152620032
 30
0.0
  0
VERTEX
  5
3D9
330
25A
100
AcDbEntity
  8
0
  6
CONTINUOUS
 62
     7
100
AcDbVertex
100
AcDb2dVertex
 10
7.6916503801
 20
6.5833536243
 30
0.0
  0
VERTEX
  5
3DA
330
25A
100
AcDbEntity
  8
0
  6
CONTINUOUS
 62
     7
100
AcDbVertex
100
AcDb2dVertex
 10
7.6891567895
 20
6.5519883928
 30
0.0
  0
VERTEX
  5
3DB
330
25A
100
AcDbEntity
  8
0
  6
CONTINUOUS
 62
     7
100
AcDbVertex
100
AcDb2dVertex
 10
7.6879085587
 20
6.5212384497
 30
0.0
  0
VERTEX
  5
3DC
330
25A
100
AcDbEntity
  8
0
  6
CONTINUOUS
 62
     7
100
AcDbVertex
100
AcDb2dVertex
 10
7.6879085587
 20
6.4911745208
 30
0.0
  0
VERTEX
  5
3DD
330
25A
100
AcDbEntity
  8
0
  6
CONTINUOUS
 62
     7
100
AcDbVertex
100
AcDb2dVertex
 10
7.6891567895
 20
6.4618657543
 30
0.0
  0
VERTEX
  5
3DE
330
25A
100
AcDbEntity
  8
0
  6
CONTINUOUS
 62
     7
100
AcDbVertex
100
AcDb2dVertex
 10
7.6916503801
 20
6.4333795612
 30
0.0
  0
VERTEX
  5
3DF
330
25A
100
AcDbEntity
  8
0
  6
CONTINUOUS
 62
     7
100
AcDbVertex
100
AcDb2dVertex
 10
7.6953835951
 20
6.4057814606
 30
0.0
  0
VERTEX
  5
3E0
330
25A
100
AcDbEntity
  8
0
  6
CONTINUOUS
 62
     7
100
AcDbVertex
100
AcDb2dVertex
 10
7.7003478481
 20
6.3791349291
 30
0.0
  0
VERTEX
  5
3E1
330
25A
100
AcDbEntity
  8
0
  6
CONTINUOUS
 62
     7
100
AcDbVertex
100
AcDb2dVertex
 10
7.7065317212
 20
6.3535012545
 30
0.0
  0
VERTEX
  5
3E2
330
25A
100
AcDbEntity
  8
0
  6
CONTINUOUS
 62
     7
100
AcDbVertex
100
AcDb2dVertex
 10
7.7139209911
 20
6.3289393951
 30
0.0
  0
VERTEX
  5
3E3
330
25A
100
AcDbEntity
  8
0
  6
CONTINUOUS
 62
     7
100
AcDbVertex
100
AcDb2dVertex
 10
7.7224986624
 20
6.305505844
 30
0.0
  0
VERTEX
  5
3E4
330
25A
100
AcDbEntity
  8
0
  6
CONTINUOUS
 62
     7
100
AcDbVertex
100
AcDb2dVertex
 10
7.7322450061
 20
6.2832544991
 30
0.0
  0
VERTEX
  5
3E5
330
25A
100
AcDbEntity
  8
0
  6
CONTINUOUS
 62
     7
100
AcDbVertex
100
AcDb2dVertex
 10
7.7431376053
 20
6.2622365392
 30
0.0
  0
VERTEX
  5
3E6
330
25A
100
AcDbEntity
  8
0
  6
CONTINUOUS
 62
     7
100
AcDbVertex
100
AcDb2dVertex
 10
7.7551514067
 20
6.2425003063
 30
0.0
  0
VERTEX
  5
3E7
330
25A
100
AcDbEntity
  8
0
  6
CONTINUOUS
 62
     7
100
AcDbVertex
100
AcDb2dVertex
 10
7.7682587782
 20
6.2240911943
 30
0.0
  0
VERTEX
  5
3E8
330
25A
100
AcDbEntity
  8
0
  6
CONTINUOUS
 62
     7
100
AcDbVertex
100
AcDb2dVertex
 10
7.7824295724
 20
6.2070515449
 30
0.0
  0
VERTEX
  5
3E9
330
25A
100
AcDbEntity
  8
0
  6
CONTINUOUS
 62
     7
100
AcDbVertex
100
AcDb2dVertex
 10
7.797631196
 20
6.1914205497
 30
0.0
  0
VERTEX
  5
3EA
330
25A
100
AcDbEntity
  8
0
  6
CONTINUOUS
 62
     7
100
AcDbVertex
100
AcDb2dVertex
 10
7.8138286848
 20
6.1772341605
 30
0.0
  0
VERTEX
  5
3EB
330
25A
100
AcDbEntity
  8
0
  6
CONTINUOUS
 62
     7
100
AcDbVertex
100
AcDb2dVertex
 10
7.8309847841
 20
6.1645250065
 30
0.0
  0
VERTEX
  5
3EC
330
25A
100
AcDbEntity
  8
0
  6
CONTINUOUS
 62
     7
100
AcDbVertex
100
AcDb2dVertex
 10
7.8467829582
 20
6.1546213443
 30
0.0
  0
SEQEND
  5
3ED
330
25A
100
AcDbEntity
  8
0
  6
CONTINUOUS
 62
     7
  0
SPLINE
  5
25B
330
1F
100
AcDbEntity
  8
0
  6
CONTINUOUS
 62
     7
100
AcDbSpline
210
0.0
220
0.0
230
1.0
 70
     8
 71
     3
 72
    21
 73
    17
 74
     0
 42
0.00000001
 43
0.00000001
 40
0.0
 40
0.0
 40
0.0
 40
0.0
 40
0.063221635342376
 40
0.1264498767298862
 40
0.1895771061826905
 40
0.2527229242790749
 40
0.317674351987289
 40
0.3826547778495517
 40
0.4536668507313078
 40
0.5247191760181694
 40
0.6061733947932124
 40
0.6876770197435785
 40
0.7847407298380169
 40
0.8818511004982313
 40
0.9976006627602243
 40
1.0
 40
1.0
 40
1.0
 40
1.0
 10
8.283078942505307
 20
7.06894706591303
 30
0.0
 10
8.27784840413291
 20
7.071571136373437
 30
0.0
 10
8.2673867808478
 20
7.076819551484057
 30
0.0
 10
8.249289901456155
 20
7.081124549405889
 30
0.0
 10
8.230088943110639
 20
7.08254990279575
 30
0.0
 10
8.210026219327972
 20
7.080952265256725
 30
0.0
 10
8.189695439181753
 20
7.076264612562209
 30
0.0
 10
8.169016904632384
 20
7.068457159249792
 30
0.0
 10
8.148759208605384
 20
7.057447961435669
 30
0.0
 10
8.128496848580678
 20
7.042775312509217
 30
0.0
 10
8.109467005954196
 20
7.024684351290007
 30
0.0
 10
8.091150924653972
 20
7.002089064460103
 30
0.0
 10
8.075018221938645
 20
6.975825193279088
 30
0.0
 10
8.061645406109864
 20
6.944314899848439
 30
0.0
 10
8.053895124105635
 20
6.921528259454875
 30
0.0
 10
8.052395590041268
 20
6.908767679230135
 30
0.0
 10
8.052365137892005
 20
6.908508540673082
 30
0.0
  0
POLYLINE
  5
25C
330
1F
100
AcDbEntity
  8
0
  6
CONTINUOUS
 62
     7
100
AcDb2dPolyline
 66
     1
 10
0.0
 20
0.0
 30
0.0
  0
VERTEX
  5
3EE
330
25C
100
AcDbEntity
  8
0
  6
CONTINUOUS
 62
     7
100
AcDbVertex
100
AcDb2dVertex
 10
8.0481964017
 20
6.8639325518
 30
0.0
  0
VERTEX
  5
3EF
330
25C
100
AcDbEntity
  8
0
  6
CONTINUOUS
 62
     7
100
AcDbVertex
100
AcDb2dVertex
 10
8.0486622336
 20
6.8455112209
 30
0.0
  0
VERTEX
  5
3F0
330
25C
100
AcDbEntity
  8
0
  6
CONTINUOUS
 62
     7
100
AcDbVertex
100
AcDb2dVertex
 10
8.0529412443
 20
6.8200846398
 30
0.0
  0
VERTEX
  5
3F1
330
25C
100
AcDbEntity
  8
0
  6
CONTINUOUS
 62
     7
100
AcDbVertex
100
AcDb2dVertex
 10
8.0582747608
 20
6.803669047
 30
0.0
  0
VERTEX
  5
3F2
330
25C
100
AcDbEntity
  8
0
  6
CONTINUOUS
 62
     7
100
AcDbVertex
100
AcDb2dVertex
 10
8.0658151576
 20
6.7887133835
 30
0.0
  0
VERTEX
  5
3F3
330
25C
100
AcDbEntity
  8
0
  6
CONTINUOUS
 62
     7
100
AcDbVertex
100
AcDb2dVertex
 10
8.0734650729
 20
6.7784433683
 30
0.0
  0
VERTEX
  5
3F4
330
25C
100
AcDbEntity
  8
0
  6
CONTINUOUS
 62
     7
100
AcDbVertex
100
AcDb2dVertex
 10
8.0825598179
 20
6.770011129
 30
0.0
  0
VERTEX
  5
3F5
330
25C
100
AcDbEntity
  8
0
  6
CONTINUOUS
 62
     7
100
AcDbVertex
100
AcDb2dVertex
 10
8.0930034
 20
6.7638350238
 30
0.0
  0
VERTEX
  5
3F6
330
25C
100
AcDbEntity
  8
0
  6
CONTINUOUS
 62
     7
100
AcDbVertex
100
AcDb2dVertex
 10
8.1044025702
 20
6.7601050355
 30
0.0
  0
VERTEX
  5
3F7
330
25C
100
AcDbEntity
  8
0
  6
CONTINUOUS
 62
     7
100
AcDbVertex
100
AcDb2dVertex
 10
8.1156234577
 20
6.7588377373
 30
0.0
  0
VERTEX
  5
3F8
330
25C
100
AcDbEntity
  8
0
  6
CONTINUOUS
 62
     7
100
AcDbVertex
100
AcDb2dVertex
 10
8.1270931305
 20
6.7594824346
 30
0.0
  0
VERTEX
  5
3F9
330
25C
100
AcDbEntity
  8
0
  6
CONTINUOUS
 62
     7
100
AcDbVertex
100
AcDb2dVertex
 10
8.1459277785
 20
6.763992308
 30
0.0
  0
VERTEX
  5
3FA
330
25C
100
AcDbEntity
  8
0
  6
CONTINUOUS
 62
     7
100
AcDbVertex
100
AcDb2dVertex
 10
8.1644944354
 20
6.7718540189
 30
0.0
  0
VERTEX
  5
3FB
330
25C
100
AcDbEntity
  8
0
  6
CONTINUOUS
 62
     7
100
AcDbVertex
100
AcDb2dVertex
 10
8.1919974303
 20
6.7885642057
 30
0.0
  0
VERTEX
  5
3FC
330
25C
100
AcDbEntity
  8
0
  6
CONTINUOUS
 62
     7
100
AcDbVertex
100
AcDb2dVertex
 10
8.2181707269
 20
6.8094592777
 30
0.0
  0
VERTEX
  5
3FD
330
25C
100
AcDbEntity
  8
0
  6
CONTINUOUS
 62
     7
100
AcDbVertex
100
AcDb2dVertex
 10
8.2437437328
 20
6.834438283
 30
0.0
  0
VERTEX
  5
3FE
330
25C
100
AcDbEntity
  8
0
  6
CONTINUOUS
 62
     7
100
AcDbVertex
100
AcDb2dVertex
 10
8.2672429446
 20
6.8620748067
 30
0.0
  0
VERTEX
  5
3FF
330
25C
100
AcDbEntity
  8
0
  6
CONTINUOUS
 62
     7
100
AcDbVertex
100
AcDb2dVertex
 10
8.2872808127
 20
6.890616323
 30
0.0
  0
VERTEX
  5
400
330
25C
100
AcDbEntity
  8
0
  6
CONTINUOUS
 62
     7
100
AcDbVertex
100
AcDb2dVertex
 10
8.3039817895
 20
6.9205990417
 30
0.0
  0
VERTEX
  5
401
330
25C
100
AcDbEntity
  8
0
  6
CONTINUOUS
 62
     7
100
AcDbVertex
100
AcDb2dVertex
 10
8.3143040107
 20
6.9455143793
 30
0.0
  0
VERTEX
  5
402
330
25C
100
AcDbEntity
  8
0
  6
CONTINUOUS
 62
     7
100
AcDbVertex
100
AcDb2dVertex
 10
8.3210371876
 20
6.9704761825
 30
0.0
  0
VERTEX
  5
403
330
25C
100
AcDbEntity
  8
0
  6
CONTINUOUS
 62
     7
100
AcDbVertex
100
AcDb2dVertex
 10
8.3234110025
 20
6.9950672024
 30
0.0
  0
VERTEX
  5
404
330
25C
100
AcDbEntity
  8
0
  6
CONTINUOUS
 62
     7
100
AcDbVertex
100
AcDb2dVertex
 10
8.3208009528
 20
7.0182660279
 30
0.0
  0
VERTEX
  5
405
330
25C
100
AcDbEntity
  8
0
  6
CONTINUOUS
 62
     7
100
AcDbVertex
100
AcDb2dVertex
 10
8.3142256461
 20
7.0362930172
 30
0.0
  0
VERTEX
  5
406
330
25C
100
AcDbEntity
  8
0
  6
CONTINUOUS
 62
     7
100
AcDbVertex
100
AcDb2dVertex
 10
8.3037062669
 20
7.0520397036
 30
0.0
  0
VERTEX
  5
407
330
25C
100
AcDbEntity
  8
0
  6
CONTINUOUS
 62
     7
100
AcDbVertex
100
AcDb2dVertex
 10
8.2942116812
 20
7.0612572904
 30
0.0
  0
VERTEX
  5
408
330
25C
100
AcDbEntity
  8
0
  6
CONTINUOUS
 62
     7
100
AcDbVertex
100
AcDb2dVertex
 10
8.2830789425
 20
7.0689470659
 30
0.0
  0
VERTEX
  5
409
330
25C
100
AcDbEntity
  8
0
  6
CONTINUOUS
 62
     7
100
AcDbVertex
100
AcDb2dVertex
 10
8.2830789425
 20
7.0689470659
 30
0.0
  0
SEQEND
  5
40A
330
25C
100
AcDbEntity
  8
0
  6
CONTINUOUS
 62
     7
  0
SPLINE
  5
25D
330
1F
100
AcDbEntity
  8
0
  6
CONTINUOUS
 62
     7
100
AcDbSpline
210
0.0
220
0.0
230
1.0
 70
     8
 71
     3
 72
    13
 73
     9
 74
     0
 42
0.00000001
 43
0.00000001
 40
0.0
 40
0.0
 40
0.0
 40
0.0
 40
0.1790919634211669
 40
0.3647278302593409
 40
0.543598364030703
 40
0.7267711333836457
 40
0.9900515082543436
 40
0.9999999999999999
 40
0.9999999999999999
 40
0.9999999999999999
 40
0.9999999999999999
 10
8.129965269413733
 20
5.991624840033
 30
0.0
 10
8.132481323477696
 20
5.990164887832961
 30
0.0
 10
8.137605366578432
 20
5.987191637732677
 30
0.0
 10
8.146173699386923
 20
5.982136372400489
 30
0.0
 10
8.155093643572446
 20
5.976846605763583
 30
0.0
 10
8.165387183619982
 20
5.970768189610094
 30
0.0
 10
8.172964195859764
 20
5.96628643790467
 30
0.0
 10
8.177285226608346
 20
5.963829177280229
 30
0.0
 10
8.177442558954915
 20
5.963739706363989
 30
0.0
  0
SPLINE
  5
25E
330
1F
100
AcDbEntity
  8
0
  6
CONTINUOUS
 62
     7
100
AcDbSpline
210
0.0
220
0.0
230
1.0
 70
     8
 71
     3
 72
    12
 73
     8
 74
     0
 42
0.00000001
 43
0.00000001
 40
0.0
 40
0.0
 40
0.0
 40
0.0
 40
0.2506648414472432
 40
0.4431785909060356
 40
0.6405255086295111
 40
0.817257136010679
 40
1.0
 40
1.0
 40
1.0
 40
1.0
 10
8.10736539281042
 20
6.004192972174496
 30
0.0
 10
8.107955152001646
 20
6.003868367970359
 30
0.0
 10
8.108997853665873
 20
6.003294463656691
 30
0.0
 10
8.11262909955835
 20
6.001356650370292
 30
0.0
 10
8.117156759520174
 20
5.998884267092134
 30
0.0
 10
8.122912416683478
 20
5.995673610819922
 30
0.0
 10
8.12758825492963
 20
5.99298939238811
 30
0.0
 10
8.129965269413733
 20
5.991624840033
 30
0.0
  0
POLYLINE
  5
25F
330
1F
100
AcDbEntity
  8
0
  6
CONTINUOUS
 62
     7
100
AcDb2dPolyline
 66
     1
 10
0.0
 20
0.0
 30
0.0
  0
VERTEX
  5
40B
330
25F
100
AcDbEntity
  8
0
  6
CONTINUOUS
 62
     7
100
AcDbVertex
100
AcDb2dVertex
 10
7.8489972505
 20
6.3971641727
 30
0.0
  0
VERTEX
  5
40C
330
25F
100
AcDbEntity
  8
0
  6
CONTINUOUS
 62
     7
100
AcDbVertex
100
AcDb2dVertex
 10
7.8502781411
 20
6.3680424264
 30
0.0
  0
VERTEX
  5
40D
330
25F
100
AcDbEntity
  8
0
  6
CONTINUOUS
 62
     7
100
AcDbVertex
100
AcDb2dVertex
 10
7.852790541
 20
6.3397361024
 30
0.0
  0
VERTEX
  5
40E
330
25F
100
AcDbEntity
  8
0
  6
CONTINUOUS
 62
     7
100
AcDbVertex
100
AcDb2dVertex
 10
7.8565287351
 20
6.3123095886
 30
0.0
  0
VERTEX
  5
40F
330
25F
100
AcDbEntity
  8
0
  6
CONTINUOUS
 62
     7
100
AcDbVertex
100
AcDb2dVertex
 10
7.8614842203
 20
6.2858252717
 30
0.0
  0
VERTEX
  5
410
330
25F
100
AcDbEntity
  8
0
  6
CONTINUOUS
 62
     7
100
AcDbVertex
100
AcDb2dVertex
 10
7.8676457244
 20
6.260343395
 30
0.0
  0
VERTEX
  5
411
330
25F
100
AcDbEntity
  8
0
  6
CONTINUOUS
 62
     7
100
AcDbVertex
100
AcDb2dVertex
 10
7.8749992321
 20
6.2359219217
 30
0.0
  0
VERTEX
  5
412
330
25F
100
AcDbEntity
  8
0
  6
CONTINUOUS
 62
     7
100
AcDbVertex
100
AcDb2dVertex
 10
7.8835280162
 20
6.212616403
 30
0.0
  0
VERTEX
  5
413
330
25F
100
AcDbEntity
  8
0
  6
CONTINUOUS
 62
     7
100
AcDbVertex
100
AcDb2dVertex
 10
7.8932126767
 20
6.1904798515
 30
0.0
  0
VERTEX
  5
414
330
25F
100
AcDbEntity
  8
0
  6
CONTINUOUS
 62
     7
100
AcDbVertex
100
AcDb2dVertex
 10
7.904031184
 20
6.1695626209
 30
0.0
  0
VERTEX
  5
415
330
25F
100
AcDbEntity
  8
0
  6
CONTINUOUS
 62
     7
100
AcDbVertex
100
AcDb2dVertex
 10
7.9159589293
 20
6.1499122912
 30
0.0
  0
VERTEX
  5
416
330
25F
100
AcDbEntity
  8
0
  6
CONTINUOUS
 62
     7
100
AcDbVertex
100
AcDb2dVertex
 10
7.9289687808
 20
6.1315735607
 30
0.0
  0
VERTEX
  5
417
330
25F
100
AcDbEntity
  8
0
  6
CONTINUOUS
 62
     7
100
AcDbVertex
100
AcDb2dVertex
 10
7.9430311454
 20
6.1145881441
 30
0.0
  0
VERTEX
  5
418
330
25F
100
AcDbEntity
  8
0
  6
CONTINUOUS
 62
     7
100
AcDbVertex
100
AcDb2dVertex
 10
7.9581140354
 20
6.098994678
 30
0.0
  0
VERTEX
  5
419
330
25F
100
AcDbEntity
  8
0
  6
CONTINUOUS
 62
     7
100
AcDbVertex
100
AcDb2dVertex
 10
7.9741831423
 20
6.0848286325
 30
0.0
  0
VERTEX
  5
41A
330
25F
100
AcDbEntity
  8
0
  6
CONTINUOUS
 62
     7
100
AcDbVertex
100
AcDb2dVertex
 10
7.9912019137
 20
6.0721222309
 30
0.0
  0
VERTEX
  5
41B
330
25F
100
AcDbEntity
  8
0
  6
CONTINUOUS
 62
     7
100
AcDbVertex
100
AcDb2dVertex
 10
8.0078492627
 20
6.0616397459
 30
0.0
  0
SEQEND
  5
41C
330
25F
100
AcDbEntity
  8
0
  6
CONTINUOUS
 62
     7
  0
LINE
  5
260
330
1F
100
AcDbEntity
  8
0
  6
CONTINUOUS
 62
     7
100
AcDbLine
 10
8.0949070891
 20
6.2552034446
 30
0.0
 11
7.8489972505
 21
6.3971641727
 31
0.0
  0
LINE
  5
261
330
1F
100
AcDbEntity
  8
0
  6
CONTINUOUS
 62
     7
100
AcDbLine
 10
8.0949070891
 20
6.2873507207
 30
0.0
 11
7.8489972505
 21
6.4293114488
 31
0.0
  0
POLYLINE
  5
262
330
1F
100
AcDbEntity
  8
0
  6
CONTINUOUS
 62
     7
100
AcDb2dPolyline
 66
     1
 10
0.0
 20
0.0
 30
0.0
  0
VERTEX
  5
41D
330
262
100
AcDbEntity
  8
0
  6
CONTINUOUS
 62
     7
100
AcDbVertex
100
AcDb2dVertex
 10
8.6317864135
 20
7.4273508057
 30
0.0
  0
VERTEX
  5
41E
330
262
100
AcDbEntity
  8
0
  6
CONTINUOUS
 62
     7
100
AcDbVertex
100
AcDb2dVertex
 10
8.6082993737
 20
7.4263728579
 30
0.0
  0
VERTEX
  5
41F
330
262
100
AcDbEntity
  8
0
  6
CONTINUOUS
 62
     7
100
AcDbVertex
100
AcDb2dVertex
 10
8.5843195852
 20
7.4238029663
 30
0.0
  0
VERTEX
  5
420
330
262
100
AcDbEntity
  8
0
  6
CONTINUOUS
 62
     7
100
AcDbVertex
100
AcDb2dVertex
 10
8.5599015943
 20
7.4196469765
 30
0.0
  0
VERTEX
  5
421
330
262
100
AcDbEntity
  8
0
  6
CONTINUOUS
 62
     7
100
AcDbVertex
100
AcDb2dVertex
 10
8.5351009444
 20
7.4139143422
 30
0.0
  0
VERTEX
  5
422
330
262
100
AcDbEntity
  8
0
  6
CONTINUOUS
 62
     7
100
AcDbVertex
100
AcDb2dVertex
 10
8.5099740489
 20
7.4066181032
 30
0.0
  0
VERTEX
  5
423
330
262
100
AcDbEntity
  8
0
  6
CONTINUOUS
 62
     7
100
AcDbVertex
100
AcDb2dVertex
 10
8.4845780637
 20
7.3977748562
 30
0.0
  0
VERTEX
  5
424
330
262
100
AcDbEntity
  8
0
  6
CONTINUOUS
 62
     7
100
AcDbVertex
100
AcDb2dVertex
 10
8.4589707564
 20
7.3874047167
 30
0.0
  0
VERTEX
  5
425
330
262
100
AcDbEntity
  8
0
  6
CONTINUOUS
 62
     7
100
AcDbVertex
100
AcDb2dVertex
 10
8.4332103757
 20
7.3755312736
 30
0.0
  0
VERTEX
  5
426
330
262
100
AcDbEntity
  8
0
  6
CONTINUOUS
 62
     7
100
AcDbVertex
100
AcDb2dVertex
 10
8.4073555183
 20
7.3621815351
 30
0.0
  0
VERTEX
  5
427
330
262
100
AcDbEntity
  8
0
  6
CONTINUOUS
 62
     7
100
AcDbVertex
100
AcDb2dVertex
 10
8.3814649957
 20
7.3473858677
 30
0.0
  0
VERTEX
  5
428
330
262
100
AcDbEntity
  8
0
  6
CONTINUOUS
 62
     7
100
AcDbVertex
100
AcDb2dVertex
 10
8.3555977006
 20
7.3311779268
 30
0.0
  0
VERTEX
  5
429
330
262
100
AcDbEntity
  8
0
  6
CONTINUOUS
 62
     7
100
AcDbVertex
100
AcDb2dVertex
 10
8.329812473
 20
7.3135945803
 30
0.0
  0
VERTEX
  5
42A
330
262
100
AcDbEntity
  8
0
  6
CONTINUOUS
 62
     7
100
AcDbVertex
100
AcDb2dVertex
 10
8.304167966
 20
7.2946758249
 30
0.0
  0
VERTEX
  5
42B
330
262
100
AcDbEntity
  8
0
  6
CONTINUOUS
 62
     7
100
AcDbVertex
100
AcDb2dVertex
 10
8.2787225128
 20
7.2744646946
 30
0.0
  0
VERTEX
  5
42C
330
262
100
AcDbEntity
  8
0
  6
CONTINUOUS
 62
     7
100
AcDbVertex
100
AcDb2dVertex
 10
8.2535339938
 20
7.2530071634
 30
0.0
  0
VERTEX
  5
42D
330
262
100
AcDbEntity
  8
0
  6
CONTINUOUS
 62
     7
100
AcDbVertex
100
AcDb2dVertex
 10
8.2286597048
 20
7.2303520403
 30
0.0
  0
VERTEX
  5
42E
330
262
100
AcDbEntity
  8
0
  6
CONTINUOUS
 62
     7
100
AcDbVertex
100
AcDb2dVertex
 10
8.2041562269
 20
7.2065508586
 30
0.0
  0
VERTEX
  5
42F
330
262
100
AcDbEntity
  8
0
  6
CONTINUOUS
 62
     7
100
AcDbVertex
100
AcDb2dVertex
 10
8.1800792979
 20
7.1816577584
 30
0.0
  0
VERTEX
  5
430
330
262
100
AcDbEntity
  8
0
  6
CONTINUOUS
 62
     7
100
AcDbVertex
100
AcDb2dVertex
 10
8.1564836849
 20
7.1557293636
 30
0.0
  0
VERTEX
  5
431
330
262
100
AcDbEntity
  8
0
  6
CONTINUOUS
 62
     7
100
AcDbVertex
100
AcDb2dVertex
 10
8.1334230607
 20
7.1288246531
 30
0.0
  0
VERTEX
  5
432
330
262
100
AcDbEntity
  8
0
  6
CONTINUOUS
 62
     7
100
AcDbVertex
100
AcDb2dVertex
 10
8.1109498808
 20
7.1010048266
 30
0.0
  0
VERTEX
  5
433
330
262
100
AcDbEntity
  8
0
  6
CONTINUOUS
 62
     7
100
AcDbVertex
100
AcDb2dVertex
 10
8.0891152645
 20
7.0723331654
 30
0.0
  0
VERTEX
  5
434
330
262
100
AcDbEntity
  8
0
  6
CONTINUOUS
 62
     7
100
AcDbVertex
100
AcDb2dVertex
 10
8.0679688788
 20
7.0428748884
 30
0.0
  0
VERTEX
  5
435
330
262
100
AcDbEntity
  8
0
  6
CONTINUOUS
 62
     7
100
AcDbVertex
100
AcDb2dVertex
 10
8.0475588248
 20
7.0126970038
 30
0.0
  0
VERTEX
  5
436
330
262
100
AcDbEntity
  8
0
  6
CONTINUOUS
 62
     7
100
AcDbVertex
100
AcDb2dVertex
 10
8.0279315291
 20
6.9818681567
 30
0.0
  0
VERTEX
  5
437
330
262
100
AcDbEntity
  8
0
  6
CONTINUOUS
 62
     7
100
AcDbVertex
100
AcDb2dVertex
 10
8.0091316375
 20
6.9504584731
 30
0.0
  0
VERTEX
  5
438
330
262
100
AcDbEntity
  8
0
  6
CONTINUOUS
 62
     7
100
AcDbVertex
100
AcDb2dVertex
 10
7.9912019137
 20
6.9185394
 30
0.0
  0
VERTEX
  5
439
330
262
100
AcDbEntity
  8
0
  6
CONTINUOUS
 62
     7
100
AcDbVertex
100
AcDb2dVertex
 10
7.9741831423
 20
6.8861835431
 30
0.0
  0
VERTEX
  5
43A
330
262
100
AcDbEntity
  8
0
  6
CONTINUOUS
 62
     7
100
AcDbVertex
100
AcDb2dVertex
 10
7.9581140354
 20
6.8534645018
 30
0.0
  0
VERTEX
  5
43B
330
262
100
AcDbEntity
  8
0
  6
CONTINUOUS
 62
     7
100
AcDbVertex
100
AcDb2dVertex
 10
7.9430311454
 20
6.8204567014
 30
0.0
  0
VERTEX
  5
43C
330
262
100
AcDbEntity
  8
0
  6
CONTINUOUS
 62
     7
100
AcDbVertex
100
AcDb2dVertex
 10
7.9289687808
 20
6.7872352244
 30
0.0
  0
VERTEX
  5
43D
330
262
100
AcDbEntity
  8
0
  6
CONTINUOUS
 62
     7
100
AcDbVertex
100
AcDb2dVertex
 10
7.9159589293
 20
6.753875639
 30
0.0
  0
VERTEX
  5
43E
330
262
100
AcDbEntity
  8
0
  6
CONTINUOUS
 62
     7
100
AcDbVertex
100
AcDb2dVertex
 10
7.904031184
 20
6.7204538277
 30
0.0
  0
VERTEX
  5
43F
330
262
100
AcDbEntity
  8
0
  6
CONTINUOUS
 62
     7
100
AcDbVertex
100
AcDb2dVertex
 10
7.8932126767
 20
6.6870458145
 30
0.0
  0
VERTEX
  5
440
330
262
100
AcDbEntity
  8
0
  6
CONTINUOUS
 62
     7
100
AcDbVertex
100
AcDb2dVertex
 10
7.8835280162
 20
6.653727592
 30
0.0
  0
VERTEX
  5
441
330
262
100
AcDbEntity
  8
0
  6
CONTINUOUS
 62
     7
100
AcDbVertex
100
AcDb2dVertex
 10
7.8749992321
 20
6.6205749487
 30
0.0
  0
VERTEX
  5
442
330
262
100
AcDbEntity
  8
0
  6
CONTINUOUS
 62
     7
100
AcDbVertex
100
AcDb2dVertex
 10
7.8676457244
 20
6.5876632962
 30
0.0
  0
VERTEX
  5
443
330
262
100
AcDbEntity
  8
0
  6
CONTINUOUS
 62
     7
100
AcDbVertex
100
AcDb2dVertex
 10
7.8614842203
 20
6.5550674983
 30
0.0
  0
VERTEX
  5
444
330
262
100
AcDbEntity
  8
0
  6
CONTINUOUS
 62
     7
100
AcDbVertex
100
AcDb2dVertex
 10
7.8565287351
 20
6.5228616999
 30
0.0
  0
VERTEX
  5
445
330
262
100
AcDbEntity
  8
0
  6
CONTINUOUS
 62
     7
100
AcDbVertex
100
AcDb2dVertex
 10
7.852790541
 20
6.491119159
 30
0.0
  0
VERTEX
  5
446
330
262
100
AcDbEntity
  8
0
  6
CONTINUOUS
 62
     7
100
AcDbVertex
100
AcDb2dVertex
 10
7.8502781411
 20
6.4599120799
 30
0.0
  0
VERTEX
  5
447
330
262
100
AcDbEntity
  8
0
  6
CONTINUOUS
 62
     7
100
AcDbVertex
100
AcDb2dVertex
 10
7.8489972505
 20
6.4293114488
 30
0.0
  0
SEQEND
  5
448
330
262
100
AcDbEntity
  8
0
  6
CONTINUOUS
 62
     7
  0
LINE
  5
263
330
1F
100
AcDbEntity
  8
0
  6
CONTINUOUS
 62
     7
100
AcDbLine
 10
8.5946679473
 20
7.4487788401
 30
0.0
 11
8.6317864135
 21
7.4273508057
 31
0.0
  0
POLYLINE
  5
264
330
1F
100
AcDbEntity
  8
0
  6
CONTINUOUS
 62
     7
100
AcDb2dPolyline
 66
     1
 10
0.0
 20
0.0
 30
0.0
  0
VERTEX
  5
449
330
264
100
AcDbEntity
  8
0
  6
CONTINUOUS
 62
     7
100
AcDbVertex
100
AcDb2dVertex
 10
7.9897388445
 20
6.0731312175
 30
0.0
  0
VERTEX
  5
44A
330
264
100
AcDbEntity
  8
0
  6
CONTINUOUS
 62
     7
100
AcDbVertex
100
AcDb2dVertex
 10
7.9715905
 20
6.0825737019
 30
0.0
  0
VERTEX
  5
44B
330
264
100
AcDbEntity
  8
0
  6
CONTINUOUS
 62
     7
100
AcDbVertex
100
AcDb2dVertex
 10
7.9536658369
 20
6.0938367473
 30
0.0
  0
VERTEX
  5
44C
330
264
100
AcDbEntity
  8
0
  6
CONTINUOUS
 62
     7
100
AcDbVertex
100
AcDb2dVertex
 10
7.9366546913
 20
6.1065903233
 30
0.0
  0
VERTEX
  5
44D
330
264
100
AcDbEntity
  8
0
  6
CONTINUOUS
 62
     7
100
AcDbVertex
100
AcDb2dVertex
 10
7.9205958264
 20
6.120805368
 30
0.0
  0
VERTEX
  5
44E
330
264
100
AcDbEntity
  8
0
  6
CONTINUOUS
 62
     7
100
AcDbVertex
100
AcDb2dVertex
 10
7.905525836
 20
6.1364494896
 30
0.0
  0
VERTEX
  5
44F
330
264
100
AcDbEntity
  8
0
  6
CONTINUOUS
 62
     7
100
AcDbVertex
100
AcDb2dVertex
 10
7.8914790601
 20
6.1534870395
 30
0.0
  0
VERTEX
  5
450
330
264
100
AcDbEntity
  8
0
  6
CONTINUOUS
 62
     7
100
AcDbVertex
100
AcDb2dVertex
 10
7.8784875073
 20
6.1718791942
 30
0.0
  0
VERTEX
  5
451
330
264
100
AcDbEntity
  8
0
  6
CONTINUOUS
 62
     7
100
AcDbVertex
100
AcDb2dVertex
 10
7.8665807816
 20
6.1915840432
 30
0.0
  0
VERTEX
  5
452
330
264
100
AcDbEntity
  8
0
  6
CONTINUOUS
 62
     7
100
AcDbVertex
100
AcDb2dVertex
 10
7.855786015
 20
6.2125566848
 30
0.0
  0
VERTEX
  5
453
330
264
100
AcDbEntity
  8
0
  6
CONTINUOUS
 62
     7
100
AcDbVertex
100
AcDb2dVertex
 10
7.8461278057
 20
6.2347493284
 30
0.0
  0
VERTEX
  5
454
330
264
100
AcDbEntity
  8
0
  6
CONTINUOUS
 62
     7
100
AcDbVertex
100
AcDb2dVertex
 10
7.8376281619
 20
6.2581114034
 30
0.0
  0
VERTEX
  5
455
330
264
100
AcDbEntity
  8
0
  6
CONTINUOUS
 62
     7
100
AcDbVertex
100
AcDb2dVertex
 10
7.8303064519
 20
6.2825896744
 30
0.0
  0
VERTEX
  5
456
330
264
100
AcDbEntity
  8
0
  6
CONTINUOUS
 62
     7
100
AcDbVertex
100
AcDb2dVertex
 10
7.8241793597
 20
6.3081283624
 30
0.0
  0
VERTEX
  5
457
330
264
100
AcDbEntity
  8
0
  6
CONTINUOUS
 62
     7
100
AcDbVertex
100
AcDb2dVertex
 10
7.8192608472
 20
6.3346692721
 30
0.0
  0
VERTEX
  5
458
330
264
100
AcDbEntity
  8
0
  6
CONTINUOUS
 62
     7
100
AcDbVertex
100
AcDb2dVertex
 10
7.8155621223
 20
6.3621519244
 30
0.0
  0
VERTEX
  5
459
330
264
100
AcDbEntity
  8
0
  6
CONTINUOUS
 62
     7
100
AcDbVertex
100
AcDb2dVertex
 10
7.8130916133
 20
6.3905136944
 30
0.0
  0
VERTEX
  5
45A
330
264
100
AcDbEntity
  8
0
  6
CONTINUOUS
 62
     7
100
AcDbVertex
100
AcDb2dVertex
 10
7.8118549498
 20
6.4196899537
 30
0.0
  0
VERTEX
  5
45B
330
264
100
AcDbEntity
  8
0
  6
CONTINUOUS
 62
     7
100
AcDbVertex
100
AcDb2dVertex
 10
7.8118549498
 20
6.449614218
 30
0.0
  0
VERTEX
  5
45C
330
264
100
AcDbEntity
  8
0
  6
CONTINUOUS
 62
     7
100
AcDbVertex
100
AcDb2dVertex
 10
7.8130916133
 20
6.4802182986
 30
0.0
  0
VERTEX
  5
45D
330
264
100
AcDbEntity
  8
0
  6
CONTINUOUS
 62
     7
100
AcDbVertex
100
AcDb2dVertex
 10
7.8155621223
 20
6.5114324575
 30
0.0
  0
VERTEX
  5
45E
330
264
100
AcDbEntity
  8
0
  6
CONTINUOUS
 62
     7
100
AcDbVertex
100
AcDb2dVertex
 10
7.8192608472
 20
6.5431855667
 30
0.0
  0
VERTEX
  5
45F
330
264
100
AcDbEntity
  8
0
  6
CONTINUOUS
 62
     7
100
AcDbVertex
100
AcDb2dVertex
 10
7.8241793597
 20
6.5754052701
 30
0.0
  0
VERTEX
  5
460
330
264
100
AcDbEntity
  8
0
  6
CONTINUOUS
 62
     7
100
AcDbVertex
100
AcDb2dVertex
 10
7.8303064519
 20
6.6080181481
 30
0.0
  0
VERTEX
  5
461
330
264
100
AcDbEntity
  8
0
  6
CONTINUOUS
 62
     7
100
AcDbVertex
100
AcDb2dVertex
 10
7.8376281619
 20
6.6409498856
 30
0.0
  0
VERTEX
  5
462
330
264
100
AcDbEntity
  8
0
  6
CONTINUOUS
 62
     7
100
AcDbVertex
100
AcDb2dVertex
 10
7.8461278057
 20
6.6741254404
 30
0.0
  0
VERTEX
  5
463
330
264
100
AcDbEntity
  8
0
  6
CONTINUOUS
 62
     7
100
AcDbVertex
100
AcDb2dVertex
 10
7.855786015
 20
6.7074692152
 30
0.0
  0
VERTEX
  5
464
330
264
100
AcDbEntity
  8
0
  6
CONTINUOUS
 62
     7
100
AcDbVertex
100
AcDb2dVertex
 10
7.8665807816
 20
6.740905229
 30
0.0
  0
VERTEX
  5
465
330
264
100
AcDbEntity
  8
0
  6
CONTINUOUS
 62
     7
100
AcDbVertex
100
AcDb2dVertex
 10
7.8784875073
 20
6.7743572908
 30
0.0
  0
VERTEX
  5
466
330
264
100
AcDbEntity
  8
0
  6
CONTINUOUS
 62
     7
100
AcDbVertex
100
AcDb2dVertex
 10
7.8914790601
 20
6.8077491731
 30
0.0
  0
VERTEX
  5
467
330
264
100
AcDbEntity
  8
0
  6
CONTINUOUS
 62
     7
100
AcDbVertex
100
AcDb2dVertex
 10
7.905525836
 20
6.8410047853
 30
0.0
  0
VERTEX
  5
468
330
264
100
AcDbEntity
  8
0
  6
CONTINUOUS
 62
     7
100
AcDbVertex
100
AcDb2dVertex
 10
7.9205958264
 20
6.8740483474
 30
0.0
  0
VERTEX
  5
469
330
264
100
AcDbEntity
  8
0
  6
CONTINUOUS
 62
     7
100
AcDbVertex
100
AcDb2dVertex
 10
7.9366546913
 20
6.9068045628
 30
0.0
  0
VERTEX
  5
46A
330
264
100
AcDbEntity
  8
0
  6
CONTINUOUS
 62
     7
100
AcDbVertex
100
AcDb2dVertex
 10
7.9536658369
 20
6.9391987895
 30
0.0
  0
VERTEX
  5
46B
330
264
100
AcDbEntity
  8
0
  6
CONTINUOUS
 62
     7
100
AcDbVertex
100
AcDb2dVertex
 10
7.9715905
 20
6.9711572103
 30
0.0
  0
VERTEX
  5
46C
330
264
100
AcDbEntity
  8
0
  6
CONTINUOUS
 62
     7
100
AcDbVertex
100
AcDb2dVertex
 10
7.9903878353
 20
7.0026070013
 30
0.0
  0
VERTEX
  5
46D
330
264
100
AcDbEntity
  8
0
  6
CONTINUOUS
 62
     7
100
AcDbVertex
100
AcDb2dVertex
 10
8.010015009
 20
7.0334764974
 30
0.0
  0
VERTEX
  5
46E
330
264
100
AcDbEntity
  8
0
  6
CONTINUOUS
 62
     7
100
AcDbVertex
100
AcDb2dVertex
 10
8.0304272967
 20
7.0636953559
 30
0.0
  0
VERTEX
  5
46F
330
264
100
AcDbEntity
  8
0
  6
CONTINUOUS
 62
     7
100
AcDbVertex
100
AcDb2dVertex
 10
8.0515781844
 20
7.0931947169
 30
0.0
  0
VERTEX
  5
470
330
264
100
AcDbEntity
  8
0
  6
CONTINUOUS
 62
     7
100
AcDbVertex
100
AcDb2dVertex
 10
8.0734194755
 20
7.1219073596
 30
0.0
  0
VERTEX
  5
471
330
264
100
AcDbEntity
  8
0
  6
CONTINUOUS
 62
     7
100
AcDbVertex
100
AcDb2dVertex
 10
8.0959014
 20
7.1497678564
 30
0.0
  0
VERTEX
  5
472
330
264
100
AcDbEntity
  8
0
  6
CONTINUOUS
 62
     7
100
AcDbVertex
100
AcDb2dVertex
 10
8.118972728
 20
7.1767127211
 30
0.0
  0
VERTEX
  5
473
330
264
100
AcDbEntity
  8
0
  6
CONTINUOUS
 62
     7
100
AcDbVertex
100
AcDb2dVertex
 10
8.1425808866
 20
7.2026805542
 30
0.0
  0
VERTEX
  5
474
330
264
100
AcDbEntity
  8
0
  6
CONTINUOUS
 62
     7
100
AcDbVertex
100
AcDb2dVertex
 10
8.1666720796
 20
7.2276121825
 30
0.0
  0
VERTEX
  5
475
330
264
100
AcDbEntity
  8
0
  6
CONTINUOUS
 62
     7
100
AcDbVertex
100
AcDb2dVertex
 10
8.1911914101
 20
7.251450794
 30
0.0
  0
VERTEX
  5
476
330
264
100
AcDbEntity
  8
0
  6
CONTINUOUS
 62
     7
100
AcDbVertex
100
AcDb2dVertex
 10
8.2160830058
 20
7.2741420674
 30
0.0
  0
VERTEX
  5
477
330
264
100
AcDbEntity
  8
0
  6
CONTINUOUS
 62
     7
100
AcDbVertex
100
AcDb2dVertex
 10
8.2412901457
 20
7.2956342957
 30
0.0
  0
VERTEX
  5
478
330
264
100
AcDbEntity
  8
0
  6
CONTINUOUS
 62
     7
100
AcDbVertex
100
AcDb2dVertex
 10
8.2667553901
 20
7.3158785045
 30
0.0
  0
VERTEX
  5
479
330
264
100
AcDbEntity
  8
0
  6
CONTINUOUS
 62
     7
100
AcDbVertex
100
AcDb2dVertex
 10
8.292420711
 20
7.3348285629
 30
0.0
  0
VERTEX
  5
47A
330
264
100
AcDbEntity
  8
0
  6
CONTINUOUS
 62
     7
100
AcDbVertex
100
AcDb2dVertex
 10
8.3182276246
 20
7.3524412893
 30
0.0
  0
VERTEX
  5
47B
330
264
100
AcDbEntity
  8
0
  6
CONTINUOUS
 62
     7
100
AcDbVertex
100
AcDb2dVertex
 10
8.3441173244
 20
7.3686765494
 30
0.0
  0
VERTEX
  5
47C
330
264
100
AcDbEntity
  8
0
  6
CONTINUOUS
 62
     7
100
AcDbVertex
100
AcDb2dVertex
 10
8.3700308152
 20
7.3834973476
 30
0.0
  0
VERTEX
  5
47D
330
264
100
AcDbEntity
  8
0
  6
CONTINUOUS
 62
     7
100
AcDbVertex
100
AcDb2dVertex
 10
8.3959090475
 20
7.3968699117
 30
0.0
  0
VERTEX
  5
47E
330
264
100
AcDbEntity
  8
0
  6
CONTINUOUS
 62
     7
100
AcDbVertex
100
AcDb2dVertex
 10
8.4216930525
 20
7.4087637693
 30
0.0
  0
VERTEX
  5
47F
330
264
100
AcDbEntity
  8
0
  6
CONTINUOUS
 62
     7
100
AcDbVertex
100
AcDb2dVertex
 10
8.4473240757
 20
7.419151818
 30
0.0
  0
VERTEX
  5
480
330
264
100
AcDbEntity
  8
0
  6
CONTINUOUS
 62
     7
100
AcDbVertex
100
AcDb2dVertex
 10
8.4727437115
 20
7.4280103862
 30
0.0
  0
VERTEX
  5
481
330
264
100
AcDbEntity
  8
0
  6
CONTINUOUS
 62
     7
100
AcDbVertex
100
AcDb2dVertex
 10
8.4978940358
 20
7.4353192878
 30
0.0
  0
VERTEX
  5
482
330
264
100
AcDbEntity
  8
0
  6
CONTINUOUS
 62
     7
100
AcDbVertex
100
AcDb2dVertex
 10
8.5227177384
 20
7.4410618681
 30
0.0
  0
VERTEX
  5
483
330
264
100
AcDbEntity
  8
0
  6
CONTINUOUS
 62
     7
100
AcDbVertex
100
AcDb2dVertex
 10
8.547158253
 20
7.4452250412
 30
0.0
  0
VERTEX
  5
484
330
264
100
AcDbEntity
  8
0
  6
CONTINUOUS
 62
     7
100
AcDbVertex
100
AcDb2dVertex
 10
8.571159887
 20
7.4477993206
 30
0.0
  0
VERTEX
  5
485
330
264
100
AcDbEntity
  8
0
  6
CONTINUOUS
 62
     7
100
AcDbVertex
100
AcDb2dVertex
 10
8.5946679473
 20
7.4487788401
 30
0.0
  0
SEQEND
  5
486
330
264
100
AcDbEntity
  8
0
  6
CONTINUOUS
 62
     7
  0
LINE
  5
265
330
1F
100
AcDbEntity
  8
0
  6
CONTINUOUS
 62
     7
100
AcDbLine
 10
8.9050332635
 20
6.7427804847
 30
0.0
 11
8.9050332635
 21
6.7106332087
 31
0.0
  0
LINE
  5
266
330
1F
100
AcDbEntity
  8
0
  6
CONTINUOUS
 62
     7
100
AcDbLine
 10
8.9050332635
 20
6.7427804847
 30
0.0
 11
8.7973455304
 21
6.6806136797
 31
0.0
  0
POLYLINE
  5
267
330
1F
100
AcDbEntity
  8
0
  6
CONTINUOUS
 62
     7
100
AcDb2dPolyline
 66
     1
 10
0.0
 20
0.0
 30
0.0
  0
VERTEX
  5
487
330
267
100
AcDbEntity
  8
0
  6
CONTINUOUS
 62
     7
100
AcDbVertex
100
AcDb2dVertex
 10
8.4990400208
 20
6.5084055745
 30
0.0
  0
VERTEX
  5
488
330
267
100
AcDbEntity
  8
0
  6
CONTINUOUS
 62
     7
100
AcDbVertex
100
AcDb2dVertex
 10
8.5009594737
 20
6.5253300765
 30
0.0
  0
VERTEX
  5
489
330
267
100
AcDbEntity
  8
0
  6
CONTINUOUS
 62
     7
100
AcDbVertex
100
AcDb2dVertex
 10
8.504133959
 20
6.5427072589
 30
0.0
  0
VERTEX
  5
48A
330
267
100
AcDbEntity
  8
0
  6
CONTINUOUS
 62
     7
100
AcDbVertex
100
AcDb2dVertex
 10
8.5085364169
 20
6.5603889969
 30
0.0
  0
VERTEX
  5
48B
330
267
100
AcDbEntity
  8
0
  6
CONTINUOUS
 62
     7
100
AcDbVertex
100
AcDb2dVertex
 10
8.5141293205
 20
6.5782245693
 30
0.0
  0
VERTEX
  5
48C
330
267
100
AcDbEntity
  8
0
  6
CONTINUOUS
 62
     7
100
AcDbVertex
100
AcDb2dVertex
 10
8.5208649953
 20
6.5960619439
 30
0.0
  0
VERTEX
  5
48D
330
267
100
AcDbEntity
  8
0
  6
CONTINUOUS
 62
     7
100
AcDbVertex
100
AcDb2dVertex
 10
8.5286860256
 20
6.6137490729
 30
0.0
  0
VERTEX
  5
48E
330
267
100
AcDbEntity
  8
0
  6
CONTINUOUS
 62
     7
100
AcDbVertex
100
AcDb2dVertex
 10
8.5375257441
 20
6.6311351895
 30
0.0
  0
VERTEX
  5
48F
330
267
100
AcDbEntity
  8
0
  6
CONTINUOUS
 62
     7
100
AcDbVertex
100
AcDb2dVertex
 10
8.5473088002
 20
6.6480720925
 30
0.0
  0
VERTEX
  5
490
330
267
100
AcDbEntity
  8
0
  6
CONTINUOUS
 62
     7
100
AcDbVertex
100
AcDb2dVertex
 10
8.557951802
 20
6.6644154099
 30
0.0
  0
VERTEX
  5
491
330
267
100
AcDbEntity
  8
0
  6
CONTINUOUS
 62
     7
100
AcDbVertex
100
AcDb2dVertex
 10
8.5693640275
 20
6.6800258297
 30
0.0
  0
VERTEX
  5
492
330
267
100
AcDbEntity
  8
0
  6
CONTINUOUS
 62
     7
100
AcDbVertex
100
AcDb2dVertex
 10
8.5814481976
 20
6.6947702868
 30
0.0
  0
VERTEX
  5
493
330
267
100
AcDbEntity
  8
0
  6
CONTINUOUS
 62
     7
100
AcDbVertex
100
AcDb2dVertex
 10
8.5941013055
 20
6.708523098
 30
0.0
  0
VERTEX
  5
494
330
267
100
AcDbEntity
  8
0
  6
CONTINUOUS
 62
     7
100
AcDbVertex
100
AcDb2dVertex
 10
8.607215495
 20
6.7211670328
 30
0.0
  0
VERTEX
  5
495
330
267
100
AcDbEntity
  8
0
  6
CONTINUOUS
 62
     7
100
AcDbVertex
100
AcDb2dVertex
 10
8.6206789791
 20
6.732594313
 30
0.0
  0
VERTEX
  5
496
330
267
100
AcDbEntity
  8
0
  6
CONTINUOUS
 62
     7
100
AcDbVertex
100
AcDb2dVertex
 10
8.6343769937
 20
6.7427075313
 30
0.0
  0
VERTEX
  5
497
330
267
100
AcDbEntity
  8
0
  6
CONTINUOUS
 62
     7
100
AcDbVertex
100
AcDb2dVertex
 10
8.6481927756
 20
6.7514204815
 30
0.0
  0
VERTEX
  5
498
330
267
100
AcDbEntity
  8
0
  6
CONTINUOUS
 62
     7
100
AcDbVertex
100
AcDb2dVertex
 10
8.6620085574
 20
6.7586588935
 30
0.0
  0
VERTEX
  5
499
330
267
100
AcDbEntity
  8
0
  6
CONTINUOUS
 62
     7
100
AcDbVertex
100
AcDb2dVertex
 10
8.6757065721
 20
6.7643610663
 30
0.0
  0
VERTEX
  5
49A
330
267
100
AcDbEntity
  8
0
  6
CONTINUOUS
 62
     7
100
AcDbVertex
100
AcDb2dVertex
 10
8.6891700562
 20
6.7684783939
 30
0.0
  0
VERTEX
  5
49B
330
267
100
AcDbEntity
  8
0
  6
CONTINUOUS
 62
     7
100
AcDbVertex
100
AcDb2dVertex
 10
8.7022842456
 20
6.7709757799
 30
0.0
  0
VERTEX
  5
49C
330
267
100
AcDbEntity
  8
0
  6
CONTINUOUS
 62
     7
100
AcDbVertex
100
AcDb2dVertex
 10
8.7149373536
 20
6.7718319363
 30
0.0
  0
VERTEX
  5
49D
330
267
100
AcDbEntity
  8
0
  6
CONTINUOUS
 62
     7
100
AcDbVertex
100
AcDb2dVertex
 10
8.7270215237
 20
6.771039565
 30
0.0
  0
VERTEX
  5
49E
330
267
100
AcDbEntity
  8
0
  6
CONTINUOUS
 62
     7
100
AcDbVertex
100
AcDb2dVertex
 10
8.7384337492
 20
6.7686054203
 30
0.0
  0
VERTEX
  5
49F
330
267
100
AcDbEntity
  8
0
  6
CONTINUOUS
 62
     7
100
AcDbVertex
100
AcDb2dVertex
 10
8.749076751
 20
6.7645502512
 30
0.0
  0
VERTEX
  5
4A0
330
267
100
AcDbEntity
  8
0
  6
CONTINUOUS
 62
     7
100
AcDbVertex
100
AcDb2dVertex
 10
8.7588598071
 20
6.7589086243
 30
0.0
  0
VERTEX
  5
4A1
330
267
100
AcDbEntity
  8
0
  6
CONTINUOUS
 62
     7
100
AcDbVertex
100
AcDb2dVertex
 10
8.7676995256
 20
6.7517286295
 30
0.0
  0
VERTEX
  5
4A2
330
267
100
AcDbEntity
  8
0
  6
CONTINUOUS
 62
     7
100
AcDbVertex
100
AcDb2dVertex
 10
8.7755205559
 20
6.7430714698
 30
0.0
  0
VERTEX
  5
4A3
330
267
100
AcDbEntity
  8
0
  6
CONTINUOUS
 62
     7
100
AcDbVertex
100
AcDb2dVertex
 10
8.7822562306
 20
6.7330109398
 30
0.0
  0
VERTEX
  5
4A4
330
267
100
AcDbEntity
  8
0
  6
CONTINUOUS
 62
     7
100
AcDbVertex
100
AcDb2dVertex
 10
8.7878491342
 20
6.7216327964
 30
0.0
  0
VERTEX
  5
4A5
330
267
100
AcDbEntity
  8
0
  6
CONTINUOUS
 62
     7
100
AcDbVertex
100
AcDb2dVertex
 10
8.7922515922
 20
6.7090340282
 30
0.0
  0
VERTEX
  5
4A6
330
267
100
AcDbEntity
  8
0
  6
CONTINUOUS
 62
     7
100
AcDbVertex
100
AcDb2dVertex
 10
8.7954260774
 20
6.6953220284
 30
0.0
  0
VERTEX
  5
4A7
330
267
100
AcDbEntity
  8
0
  6
CONTINUOUS
 62
     7
100
AcDbVertex
100
AcDb2dVertex
 10
8.7973455304
 20
6.6806136797
 30
0.0
  0
SEQEND
  5
4A8
330
267
100
AcDbEntity
  8
0
  6
CONTINUOUS
 62
     7
  0
LINE
  5
268
330
1F
100
AcDbEntity
  8
0
  6
CONTINUOUS
 62
     7
100
AcDbLine
 10
8.1161238506
 20
6.2873527747
 30
0.0
 11
8.4990400208
 21
6.5084055745
 31
0.0
  0
LINE
  5
269
330
1F
100
AcDbEntity
  8
0
  6
CONTINUOUS
 62
     7
100
AcDbLine
 10
8.1161238506
 20
6.2552054986
 30
0.0
 11
8.4990400208
 21
6.4762582984
 31
0.0
  0
POLYLINE
  5
26A
330
1F
100
AcDbEntity
  8
0
  6
CONTINUOUS
 62
     7
100
AcDb2dPolyline
 66
     1
 10
0.0
 20
0.0
 30
0.0
  0
VERTEX
  5
4A9
330
26A
100
AcDbEntity
  8
0
  6
CONTINUOUS
 62
     7
100
AcDbVertex
100
AcDb2dVertex
 10
8.7973455304
 20
6.6484664036
 30
0.0
  0
VERTEX
  5
4AA
330
26A
100
AcDbEntity
  8
0
  6
CONTINUOUS
 62
     7
100
AcDbVertex
100
AcDb2dVertex
 10
8.7954260774
 20
6.6315419016
 30
0.0
  0
VERTEX
  5
4AB
330
26A
100
AcDbEntity
  8
0
  6
CONTINUOUS
 62
     7
100
AcDbVertex
100
AcDb2dVertex
 10
8.7922515922
 20
6.6141647192
 30
0.0
  0
VERTEX
  5
4AC
330
26A
100
AcDbEntity
  8
0
  6
CONTINUOUS
 62
     7
100
AcDbVertex
100
AcDb2dVertex
 10
8.7878491342
 20
6.5964829812
 30
0.0
  0
VERTEX
  5
4AD
330
26A
100
AcDbEntity
  8
0
  6
CONTINUOUS
 62
     7
100
AcDbVertex
100
AcDb2dVertex
 10
8.7822562306
 20
6.5786474088
 30
0.0
  0
VERTEX
  5
4AE
330
26A
100
AcDbEntity
  8
0
  6
CONTINUOUS
 62
     7
100
AcDbVertex
100
AcDb2dVertex
 10
8.7755205559
 20
6.5608100342
 30
0.0
  0
VERTEX
  5
4AF
330
26A
100
AcDbEntity
  8
0
  6
CONTINUOUS
 62
     7
100
AcDbVertex
100
AcDb2dVertex
 10
8.7676995256
 20
6.5431229052
 30
0.0
  0
VERTEX
  5
4B0
330
26A
100
AcDbEntity
  8
0
  6
CONTINUOUS
 62
     7
100
AcDbVertex
100
AcDb2dVertex
 10
8.7588598071
 20
6.5257367886
 30
0.0
  0
VERTEX
  5
4B1
330
26A
100
AcDbEntity
  8
0
  6
CONTINUOUS
 62
     7
100
AcDbVertex
100
AcDb2dVertex
 10
8.749076751
 20
6.5087998856
 30
0.0
  0
VERTEX
  5
4B2
330
26A
100
AcDbEntity
  8
0
  6
CONTINUOUS
 62
     7
100
AcDbVertex
100
AcDb2dVertex
 10
8.7384337492
 20
6.4924565682
 30
0.0
  0
VERTEX
  5
4B3
330
26A
100
AcDbEntity
  8
0
  6
CONTINUOUS
 62
     7
100
AcDbVertex
100
AcDb2dVertex
 10
8.7270215237
 20
6.4768461484
 30
0.0
  0
VERTEX
  5
4B4
330
26A
100
AcDbEntity
  8
0
  6
CONTINUOUS
 62
     7
100
AcDbVertex
100
AcDb2dVertex
 10
8.7149373536
 20
6.4621016913
 30
0.0
  0
VERTEX
  5
4B5
330
26A
100
AcDbEntity
  8
0
  6
CONTINUOUS
 62
     7
100
AcDbVertex
100
AcDb2dVertex
 10
8.7022842456
 20
6.4483488801
 30
0.0
  0
VERTEX
  5
4B6
330
26A
100
AcDbEntity
  8
0
  6
CONTINUOUS
 62
     7
100
AcDbVertex
100
AcDb2dVertex
 10
8.6891700562
 20
6.4357049453
 30
0.0
  0
VERTEX
  5
4B7
330
26A
100
AcDbEntity
  8
0
  6
CONTINUOUS
 62
     7
100
AcDbVertex
100
AcDb2dVertex
 10
8.6757065721
 20
6.4242776651
 30
0.0
  0
VERTEX
  5
4B8
330
26A
100
AcDbEntity
  8
0
  6
CONTINUOUS
 62
     7
100
AcDbVertex
100
AcDb2dVertex
 10
8.6620085574
 20
6.4141644468
 30
0.0
  0
VERTEX
  5
4B9
330
26A
100
AcDbEntity
  8
0
  6
CONTINUOUS
 62
     7
100
AcDbVertex
100
AcDb2dVertex
 10
8.6481927756
 20
6.4054514966
 30
0.0
  0
VERTEX
  5
4BA
330
26A
100
AcDbEntity
  8
0
  6
CONTINUOUS
 62
     7
100
AcDbVertex
100
AcDb2dVertex
 10
8.6343769937
 20
6.3982130846
 30
0.0
  0
VERTEX
  5
4BB
330
26A
100
AcDbEntity
  8
0
  6
CONTINUOUS
 62
     7
100
AcDbVertex
100
AcDb2dVertex
 10
8.6206789791
 20
6.3925109118
 30
0.0
  0
VERTEX
  5
4BC
330
26A
100
AcDbEntity
  8
0
  6
CONTINUOUS
 62
     7
100
AcDbVertex
100
AcDb2dVertex
 10
8.607215495
 20
6.3883935842
 30
0.0
  0
VERTEX
  5
4BD
330
26A
100
AcDbEntity
  8
0
  6
CONTINUOUS
 62
     7
100
AcDbVertex
100
AcDb2dVertex
 10
8.5941013055
 20
6.3858961982
 30
0.0
  0
VERTEX
  5
4BE
330
26A
100
AcDbEntity
  8
0
  6
CONTINUOUS
 62
     7
100
AcDbVertex
100
AcDb2dVertex
 10
8.5814481976
 20
6.3850400418
 30
0.0
  0
VERTEX
  5
4BF
330
26A
100
AcDbEntity
  8
0
  6
CONTINUOUS
 62
     7
100
AcDbVertex
100
AcDb2dVertex
 10
8.5693640275
 20
6.3858324131
 30
0.0
  0
VERTEX
  5
4C0
330
26A
100
AcDbEntity
  8
0
  6
CONTINUOUS
 62
     7
100
AcDbVertex
100
AcDb2dVertex
 10
8.557951802
 20
6.3882665578
 30
0.0
  0
VERTEX
  5
4C1
330
26A
100
AcDbEntity
  8
0
  6
CONTINUOUS
 62
     7
100
AcDbVertex
100
AcDb2dVertex
 10
8.5473088002
 20
6.3923217269
 30
0.0
  0
VERTEX
  5
4C2
330
26A
100
AcDbEntity
  8
0
  6
CONTINUOUS
 62
     7
100
AcDbVertex
100
AcDb2dVertex
 10
8.5375257441
 20
6.3979633538
 30
0.0
  0
VERTEX
  5
4C3
330
26A
100
AcDbEntity
  8
0
  6
CONTINUOUS
 62
     7
100
AcDbVertex
100
AcDb2dVertex
 10
8.5286860256
 20
6.4051433486
 30
0.0
  0
VERTEX
  5
4C4
330
26A
100
AcDbEntity
  8
0
  6
CONTINUOUS
 62
     7
100
AcDbVertex
100
AcDb2dVertex
 10
8.5208649953
 20
6.4138005083
 30
0.0
  0
VERTEX
  5
4C5
330
26A
100
AcDbEntity
  8
0
  6
CONTINUOUS
 62
     7
100
AcDbVertex
100
AcDb2dVertex
 10
8.5141293205
 20
6.4238610383
 30
0.0
  0
VERTEX
  5
4C6
330
26A
100
AcDbEntity
  8
0
  6
CONTINUOUS
 62
     7
100
AcDbVertex
100
AcDb2dVertex
 10
8.5085364169
 20
6.4352391817
 30
0.0
  0
VERTEX
  5
4C7
330
26A
100
AcDbEntity
  8
0
  6
CONTINUOUS
 62
     7
100
AcDbVertex
100
AcDb2dVertex
 10
8.504133959
 20
6.4478379499
 30
0.0
  0
VERTEX
  5
4C8
330
26A
100
AcDbEntity
  8
0
  6
CONTINUOUS
 62
     7
100
AcDbVertex
100
AcDb2dVertex
 10
8.5009594737
 20
6.4615499497
 30
0.0
  0
VERTEX
  5
4C9
330
26A
100
AcDbEntity
  8
0
  6
CONTINUOUS
 62
     7
100
AcDbVertex
100
AcDb2dVertex
 10
8.4990400208
 20
6.4762582984
 30
0.0
  0
SEQEND
  5
4CA
330
26A
100
AcDbEntity
  8
0
  6
CONTINUOUS
 62
     7
  0
LINE
  5
26B
330
1F
100
AcDbEntity
  8
0
  6
CONTINUOUS
 62
     7
100
AcDbLine
 10
8.7973455304
 20
6.6484664036
 30
0.0
 11
8.9050332635
 21
6.7106332087
 31
0.0
  0
LINE
  5
26C
330
1F
100
AcDbEntity
  8
0
  6
CONTINUOUS
 62
     7
100
AcDbLine
 10
8.5946679473
 20
7.4251006025
 30
0.0
 11
8.5946679473
 21
7.4487788401
 31
0.0
  0
SPLINE
  5
26D
330
1F
100
AcDbEntity
  8
0
  6
CONTINUOUS
 62
     7
100
AcDbSpline
210
0.0
220
0.0
230
1.0
 70
     8
 71
     3
 72
     8
 73
     4
 74
     0
 42
0.00000001
 43
0.00000001
 40
0.0
 40
0.0
 40
0.0
 40
0.0
 40
1.0
 40
1.0
 40
1.0
 40
1.0
 10
8.499040020771947
 20
6.476258298445259
 30
0.0
 10
8.499055385853385
 20
6.480349889204651
 30
0.0
 10
8.499071837353378
 20
6.484441479089683
 30
0.0
 10
8.499089645525174
 20
6.488533067882852
 30
0.0
  0
LINE
  5
26E
330
1F
100
AcDbEntity
  8
0
  6
CONTINUOUS
 62
     7
100
AcDbLine
 10
8.4818528726
 20
6.4984836451
 30
0.0
 11
8.4990896455
 21
6.4885330679
 31
0.0
  0
LINE
  5
26F
330
1F
100
AcDbEntity
  8
0
  6
CONTINUOUS
 62
     7
100
AcDbLine
 10
7.8768406252
 20
6.4132378108
 30
0.0
 11
7.8489972505
 21
6.3971641727
 31
0.0
  0
SPLINE
  5
270
330
1F
100
AcDbEntity
  8
0
  6
CONTINUOUS
 62
     7
100
AcDbSpline
210
0.0
220
0.0
230
1.0
 70
     8
 71
     3
 72
     8
 73
     4
 74
     0
 42
0.00000001
 43
0.00000001
 40
0.0
 40
0.0
 40
0.0
 40
0.0
 40
1.0
 40
1.0
 40
1.0
 40
1.0
 10
8.77608270220766
 20
6.680585031897158
 30
0.0
 10
8.783170309838676
 20
6.680595312335913
 30
0.0
 10
8.790257919360503
 20
6.680604809584704
 30
0.0
 10
8.797345530396484
 20
6.680613679657412
 30
0.0
  0
ARC
  5
271
330
1F
100
AcDbEntity
  8
0
  6
CONTINUOUS
 62
     7
100
AcDbCircle
 10
8.6927706506
 20
6.6815304981
 30
0.0
 40
0.083317416258731
100
AcDbArc
 50
359.3498071732
 51
126.8798395614
  0
LINE
  5
272
330
1F
100
AcDbEntity
  8
0
  6
CONTINUOUS
 62
     7
100
AcDbLine
 10
8.7760827022
 20
6.6805850319
 30
0.0
 11
8.6514830889
 21
6.7525148576
 31
0.0
  0
LINE
  5
273
330
1F
100
AcDbEntity
  8
0
  6
CONTINUOUS
 62
     7
100
AcDbLine
 10
8.7760827022
 20
6.6484377558
 30
0.0
 11
8.6247831526
 21
6.7357811267
 31
0.0
  0
POLYLINE
  5
274
330
1F
100
AcDbEntity
  8
0
  6
CONTINUOUS
 62
     7
100
AcDb2dPolyline
 66
     1
 10
0.0
 20
0.0
 30
0.0
  0
VERTEX
  5
4CB
330
274
100
AcDbEntity
  8
0
  6
CONTINUOUS
 62
     7
100
AcDbVertex
100
AcDb2dVertex
 10
8.4990896455
 20
6.4885330679
 30
0.0
  0
VERTEX
  5
4CC
330
274
100
AcDbEntity
  8
0
  6
CONTINUOUS
 62
     7
100
AcDbVertex
100
AcDb2dVertex
 10
8.5010312408
 20
6.4745748686
 30
0.0
  0
VERTEX
  5
4CD
330
274
100
AcDbEntity
  8
0
  6
CONTINUOUS
 62
     7
100
AcDbVertex
100
AcDb2dVertex
 10
8.5042011925
 20
6.4616060131
 30
0.0
  0
VERTEX
  5
4CE
330
274
100
AcDbEntity
  8
0
  6
CONTINUOUS
 62
     7
100
AcDbVertex
100
AcDb2dVertex
 10
8.5085709857
 20
6.4497431604
 30
0.0
  0
VERTEX
  5
4CF
330
274
100
AcDbEntity
  8
0
  6
CONTINUOUS
 62
     7
100
AcDbVertex
100
AcDb2dVertex
 10
8.5141013129
 20
6.4390930208
 30
0.0
  0
VERTEX
  5
4D0
330
274
100
AcDbEntity
  8
0
  6
CONTINUOUS
 62
     7
100
AcDbVertex
100
AcDb2dVertex
 10
8.5207424267
 20
6.4297513958
 30
0.0
  0
VERTEX
  5
4D1
330
274
100
AcDbEntity
  8
0
  6
CONTINUOUS
 62
     7
100
AcDbVertex
100
AcDb2dVertex
 10
8.5284345884
 20
6.4218023163
 30
0.0
  0
VERTEX
  5
4D2
330
274
100
AcDbEntity
  8
0
  6
CONTINUOUS
 62
     7
100
AcDbVertex
100
AcDb2dVertex
 10
8.5371086043
 20
6.4153172869
 30
0.0
  0
VERTEX
  5
4D3
330
274
100
AcDbEntity
  8
0
  6
CONTINUOUS
 62
     7
100
AcDbVertex
100
AcDb2dVertex
 10
8.5466864488
 20
6.4103546426
 30
0.0
  0
VERTEX
  5
4D4
330
274
100
AcDbEntity
  8
0
  6
CONTINUOUS
 62
     7
100
AcDbVertex
100
AcDb2dVertex
 10
8.5570819662
 20
6.406959024
 30
0.0
  0
VERTEX
  5
4D5
330
274
100
AcDbEntity
  8
0
  6
CONTINUOUS
 62
     7
100
AcDbVertex
100
AcDb2dVertex
 10
8.5682016452
 20
6.4051609758
 30
0.0
  0
VERTEX
  5
4D6
330
274
100
AcDbEntity
  8
0
  6
CONTINUOUS
 62
     7
100
AcDbVertex
100
AcDb2dVertex
 10
8.5799454608
 20
6.404976672
 30
0.0
  0
VERTEX
  5
4D7
330
274
100
AcDbEntity
  8
0
  6
CONTINUOUS
 62
     7
100
AcDbVertex
100
AcDb2dVertex
 10
8.5922077735
 20
6.4064077705
 30
0.0
  0
VERTEX
  5
4D8
330
274
100
AcDbEntity
  8
0
  6
CONTINUOUS
 62
     7
100
AcDbVertex
100
AcDb2dVertex
 10
8.6048782798
 20
6.4094413981
 30
0.0
  0
VERTEX
  5
4D9
330
274
100
AcDbEntity
  8
0
  6
CONTINUOUS
 62
     7
100
AcDbVertex
100
AcDb2dVertex
 10
8.6178430043
 20
6.4140502664
 30
0.0
  0
VERTEX
  5
4DA
330
274
100
AcDbEntity
  8
0
  6
CONTINUOUS
 62
     7
100
AcDbVertex
100
AcDb2dVertex
 10
8.6309853251
 20
6.420192917
 30
0.0
  0
VERTEX
  5
4DB
330
274
100
AcDbEntity
  8
0
  6
CONTINUOUS
 62
     7
100
AcDbVertex
100
AcDb2dVertex
 10
8.6441870226
 20
6.4278140948
 30
0.0
  0
VERTEX
  5
4DC
330
274
100
AcDbEntity
  8
0
  6
CONTINUOUS
 62
     7
100
AcDbVertex
100
AcDb2dVertex
 10
8.6573293434
 20
6.4368452447
 30
0.0
  0
VERTEX
  5
4DD
330
274
100
AcDbEntity
  8
0
  6
CONTINUOUS
 62
     7
100
AcDbVertex
100
AcDb2dVertex
 10
8.6702940679
 20
6.4472051288
 30
0.0
  0
VERTEX
  5
4DE
330
274
100
AcDbEntity
  8
0
  6
CONTINUOUS
 62
     7
100
AcDbVertex
100
AcDb2dVertex
 10
8.6829645742
 20
6.4588005563
 30
0.0
  0
VERTEX
  5
4DF
330
274
100
AcDbEntity
  8
0
  6
CONTINUOUS
 62
     7
100
AcDbVertex
100
AcDb2dVertex
 10
8.6952268869
 20
6.4715272227
 30
0.0
  0
VERTEX
  5
4E0
330
274
100
AcDbEntity
  8
0
  6
CONTINUOUS
 62
     7
100
AcDbVertex
100
AcDb2dVertex
 10
8.7069707025
 20
6.4852706474
 30
0.0
  0
VERTEX
  5
4E1
330
274
100
AcDbEntity
  8
0
  6
CONTINUOUS
 62
     7
100
AcDbVertex
100
AcDb2dVertex
 10
8.7180903816
 20
6.4999072037
 30
0.0
  0
VERTEX
  5
4E2
330
274
100
AcDbEntity
  8
0
  6
CONTINUOUS
 62
     7
100
AcDbVertex
100
AcDb2dVertex
 10
8.7284858989
 20
6.5153052312
 30
0.0
  0
VERTEX
  5
4E3
330
274
100
AcDbEntity
  8
0
  6
CONTINUOUS
 62
     7
100
AcDbVertex
100
AcDb2dVertex
 10
8.7380637434
 20
6.5313262194
 30
0.0
  0
VERTEX
  5
4E4
330
274
100
AcDbEntity
  8
0
  6
CONTINUOUS
 62
     7
100
AcDbVertex
100
AcDb2dVertex
 10
8.7467377593
 20
6.5478260544
 30
0.0
  0
VERTEX
  5
4E5
330
274
100
AcDbEntity
  8
0
  6
CONTINUOUS
 62
     7
100
AcDbVertex
100
AcDb2dVertex
 10
8.754429921
 20
6.5646563147
 30
0.0
  0
VERTEX
  5
4E6
330
274
100
AcDbEntity
  8
0
  6
CONTINUOUS
 62
     7
100
AcDbVertex
100
AcDb2dVertex
 10
8.7610710349
 20
6.5816656066
 30
0.0
  0
VERTEX
  5
4E7
330
274
100
AcDbEntity
  8
0
  6
CONTINUOUS
 62
     7
100
AcDbVertex
100
AcDb2dVertex
 10
8.766601362
 20
6.598700926
 30
0.0
  0
VERTEX
  5
4E8
330
274
100
AcDbEntity
  8
0
  6
CONTINUOUS
 62
     7
100
AcDbVertex
100
AcDb2dVertex
 10
8.7709711552
 20
6.6156090346
 30
0.0
  0
VERTEX
  5
4E9
330
274
100
AcDbEntity
  8
0
  6
CONTINUOUS
 62
     7
100
AcDbVertex
100
AcDb2dVertex
 10
8.7741411069
 20
6.6322378384
 30
0.0
  0
VERTEX
  5
4EA
330
274
100
AcDbEntity
  8
0
  6
CONTINUOUS
 62
     7
100
AcDbVertex
100
AcDb2dVertex
 10
8.7760827022
 20
6.6484377558
 30
0.0
  0
SEQEND
  5
4EB
330
274
100
AcDbEntity
  8
0
  6
CONTINUOUS
 62
     7
  0
SPLINE
  5
275
330
1F
100
AcDbEntity
  8
0
  6
CONTINUOUS
 62
     7
100
AcDbSpline
210
0.0
220
0.0
230
1.0
 70
     8
 71
     3
 72
     8
 73
     4
 74
     0
 42
0.00000001
 43
0.00000001
 40
0.0
 40
0.0
 40
0.0
 40
0.0
 40
1.0
 40
1.0
 40
1.0
 40
1.0
 10
8.77608270220766
 20
6.648437755838666
 30
0.0
 10
8.783170309838676
 20
6.648448036277419
 30
0.0
 10
8.790257919360503
 20
6.648457533526209
 30
0.0
 10
8.797345530396484
 20
6.648466403598918
 30
0.0
  0
POLYLINE
  5
276
330
1F
100
AcDbEntity
  8
0
  6
CONTINUOUS
 62
     7
100
AcDb2dPolyline
 66
     1
 10
0.0
 20
0.0
 30
0.0
  0
VERTEX
  5
4EC
330
276
100
AcDbEntity
  8
0
  6
CONTINUOUS
 62
     7
100
AcDbVertex
100
AcDb2dVertex
 10
8.9050332635
 20
6.7106332087
 30
0.0
  0
VERTEX
  5
4ED
330
276
100
AcDbEntity
  8
0
  6
CONTINUOUS
 62
     7
100
AcDbVertex
100
AcDb2dVertex
 10
8.8860336953
 20
6.7208432512
 30
0.0
  0
VERTEX
  5
4EE
330
276
100
AcDbEntity
  8
0
  6
CONTINUOUS
 62
     7
100
AcDbVertex
100
AcDb2dVertex
 10
8.875674293
 20
6.7258319118
 30
0.0
  0
SEQEND
  5
4EF
330
276
100
AcDbEntity
  8
0
  6
CONTINUOUS
 62
     7
  0
LINE
  5
277
330
1F
100
AcDbEntity
  8
0
  6
CONTINUOUS
 62
     7
100
AcDbLine
 10
8.2032920922
 20
6.864263407
 30
0.0
 11
8.2515103942
 21
6.8920992403
 31
0.0
  0
LINE
  5
278
330
1F
100
AcDbEntity
  8
0
  6
CONTINUOUS
 62
     7
100
AcDbLine
 10
8.2515103942
 20
6.8920992403
 30
0.0
 11
8.2338612707
 21
6.9301236957
 31
0.0
  0
LINE
  5
279
330
1F
100
AcDbEntity
  8
0
  6
CONTINUOUS
 62
     7
100
AcDbLine
 10
8.2338612707
 20
6.9301236957
 30
0.0
 11
8.1679938453
 21
6.9403123178
 31
0.0
  0
LINE
  5
27A
330
1F
100
AcDbEntity
  8
0
  6
CONTINUOUS
 62
     7
100
AcDbLine
 10
8.1679938453
 20
6.9403123178
 30
0.0
 11
8.1197755432
 21
6.9124764845
 31
0.0
  0
LINE
  5
27B
330
1F
100
AcDbEntity
  8
0
  6
CONTINUOUS
 62
     7
100
AcDbLine
 10
8.1197755432
 20
6.9124764845
 30
0.0
 11
8.1374246667
 21
6.8744520291
 31
0.0
  0
LINE
  5
27C
330
1F
100
AcDbEntity
  8
0
  6
CONTINUOUS
 62
     7
100
AcDbLine
 10
8.1374246667
 20
6.8744520291
 30
0.0
 11
8.2032920922
 21
6.864263407
 31
0.0
  0
LINE
  5
27D
330
1F
100
AcDbEntity
  8
0
  6
CONTINUOUS
 62
     7
100
AcDbLine
 10
8.2338612707
 20
6.8819106182
 30
0.0
 11
8.2338612707
 21
6.9301236957
 31
0.0
  0
LINE
  5
27E
330
1F
100
AcDbEntity
  8
0
  6
CONTINUOUS
 62
     7
100
AcDbLine
 10
8.1679938453
 20
6.8697234732
 30
0.0
 11
8.1679938453
 21
6.9403123178
 31
0.0
  0
ARC
  5
27F
330
1F
100
AcDbEntity
  8
0
  6
CONTINUOUS
 62
     7
100
AcDbCircle
 10
8.2641186047
 20
7.2824993329
 30
0.0
 40
0.1767006887079878
100
AcDbArc
 50
93.5487794516
 51
155.7070610221
  0
ARC
  5
280
330
1F
100
AcDbEntity
  8
0
  6
CONTINUOUS
 62
     7
100
AcDbCircle
 10
7.8435547525
 20
6.5592571808
 30
0.0
 40
0.1742471354650205
100
AcDbArc
 50
143.797399206
 51
206.9443805269
  0
ARC
  5
281
330
1F
100
AcDbEntity
  8
0
  6
CONTINUOUS
 62
     7
100
AcDbCircle
 10
7.6981833405
 20
6.5949435398
 30
0.0
 40
0.0760294101243513
100
AcDbArc
 50
176.087029244
 51
222.5186152618
  0
ARC
  5
282
330
1F
100
AcDbEntity
  8
0
  6
CONTINUOUS
 62
     7
100
AcDbCircle
 10
7.8292700496
 20
6.5924034411
 30
0.0
 40
0.2070831482609633
100
AcDbArc
 50
118.5105705127
 51
177.8611999868
  0
POLYLINE
  5
283
330
1F
100
AcDbEntity
  8
0
  6
CONTINUOUS
 62
     7
100
AcDb2dPolyline
 66
     1
 10
0.0
 20
0.0
 30
0.0
  0
VERTEX
  5
4F0
330
283
100
AcDbEntity
  8
0
  6
CONTINUOUS
 62
     7
100
AcDbVertex
100
AcDb2dVertex
 10
8.553102421
 20
7.509938944
 30
0.0
  0
VERTEX
  5
4F1
330
283
100
AcDbEntity
  8
0
  6
CONTINUOUS
 62
     7
100
AcDbVertex
100
AcDb2dVertex
 10
8.5373928287
 20
7.5242504746
 30
0.0
  0
VERTEX
  5
4F2
330
283
100
AcDbEntity
  8
0
  6
CONTINUOUS
 62
     7
100
AcDbVertex
100
AcDb2dVertex
 10
8.5204727673
 20
7.5373318118
 30
0.0
  0
VERTEX
  5
4F3
330
283
100
AcDbEntity
  8
0
  6
CONTINUOUS
 62
     7
100
AcDbVertex
100
AcDb2dVertex
 10
8.5026234884
 20
7.5489136679
 30
0.0
  0
VERTEX
  5
4F4
330
283
100
AcDbEntity
  8
0
  6
CONTINUOUS
 62
     7
100
AcDbVertex
100
AcDb2dVertex
 10
8.4838860457
 20
7.5589694042
 30
0.0
  0
VERTEX
  5
4F5
330
283
100
AcDbEntity
  8
0
  6
CONTINUOUS
 62
     7
100
AcDbVertex
100
AcDb2dVertex
 10
8.4643035361
 20
7.5674758923
 30
0.0
  0
VERTEX
  5
4F6
330
283
100
AcDbEntity
  8
0
  6
CONTINUOUS
 62
     7
100
AcDbVertex
100
AcDb2dVertex
 10
8.443921
 20
7.5744135668
 30
0.0
  0
VERTEX
  5
4F7
330
283
100
AcDbEntity
  8
0
  6
CONTINUOUS
 62
     7
100
AcDbVertex
100
AcDb2dVertex
 10
8.4227853177
 20
7.579766471
 30
0.0
  0
VERTEX
  5
4F8
330
283
100
AcDbEntity
  8
0
  6
CONTINUOUS
 62
     7
100
AcDbVertex
100
AcDb2dVertex
 10
8.4009451022
 20
7.5835222931
 30
0.0
  0
VERTEX
  5
4F9
330
283
100
AcDbEntity
  8
0
  6
CONTINUOUS
 62
     7
100
AcDbVertex
100
AcDb2dVertex
 10
8.3784505865
 20
7.5856723944
 30
0.0
  0
VERTEX
  5
4FA
330
283
100
AcDbEntity
  8
0
  6
CONTINUOUS
 62
     7
100
AcDbVertex
100
AcDb2dVertex
 10
8.3553535087
 20
7.5862118297
 30
0.0
  0
VERTEX
  5
4FB
330
283
100
AcDbEntity
  8
0
  6
CONTINUOUS
 62
     7
100
AcDbVertex
100
AcDb2dVertex
 10
8.331706993
 20
7.5851393583
 30
0.0
  0
VERTEX
  5
4FC
330
283
100
AcDbEntity
  8
0
  6
CONTINUOUS
 62
     7
100
AcDbVertex
100
AcDb2dVertex
 10
8.307565427
 20
7.5824574469
 30
0.0
  0
VERTEX
  5
4FD
330
283
100
AcDbEntity
  8
0
  6
CONTINUOUS
 62
     7
100
AcDbVertex
100
AcDb2dVertex
 10
8.2829843371
 20
7.5781722639
 30
0.0
  0
VERTEX
  5
4FE
330
283
100
AcDbEntity
  8
0
  6
CONTINUOUS
 62
     7
100
AcDbVertex
100
AcDb2dVertex
 10
8.2580202607
 20
7.5722936655
 30
0.0
  0
VERTEX
  5
4FF
330
283
100
AcDbEntity
  8
0
  6
CONTINUOUS
 62
     7
100
AcDbVertex
100
AcDb2dVertex
 10
8.2327306158
 20
7.5648351726
 30
0.0
  0
VERTEX
  5
500
330
283
100
AcDbEntity
  8
0
  6
CONTINUOUS
 62
     7
100
AcDbVertex
100
AcDb2dVertex
 10
8.2071735695
 20
7.5558139399
 30
0.0
  0
VERTEX
  5
501
330
283
100
AcDbEntity
  8
0
  6
CONTINUOUS
 62
     7
100
AcDbVertex
100
AcDb2dVertex
 10
8.1814079038
 20
7.5452507167
 30
0.0
  0
VERTEX
  5
502
330
283
100
AcDbEntity
  8
0
  6
CONTINUOUS
 62
     7
100
AcDbVertex
100
AcDb2dVertex
 10
8.1554928805
 20
7.5331697985
 30
0.0
  0
VERTEX
  5
503
330
283
100
AcDbEntity
  8
0
  6
CONTINUOUS
 62
     7
100
AcDbVertex
100
AcDb2dVertex
 10
8.1294881051
 20
7.5195989721
 30
0.0
  0
VERTEX
  5
504
330
283
100
AcDbEntity
  8
0
  6
CONTINUOUS
 62
     7
100
AcDbVertex
100
AcDb2dVertex
 10
8.1034533893
 20
7.5045694506
 30
0.0
  0
VERTEX
  5
505
330
283
100
AcDbEntity
  8
0
  6
CONTINUOUS
 62
     7
100
AcDbVertex
100
AcDb2dVertex
 10
8.0774486139
 20
7.4881158024
 30
0.0
  0
VERTEX
  5
506
330
283
100
AcDbEntity
  8
0
  6
CONTINUOUS
 62
     7
100
AcDbVertex
100
AcDb2dVertex
 10
8.0515335907
 20
7.4702758716
 30
0.0
  0
VERTEX
  5
507
330
283
100
AcDbEntity
  8
0
  6
CONTINUOUS
 62
     7
100
AcDbVertex
100
AcDb2dVertex
 10
8.025767925
 20
7.4510906904
 30
0.0
  0
VERTEX
  5
508
330
283
100
AcDbEntity
  8
0
  6
CONTINUOUS
 62
     7
100
AcDbVertex
100
AcDb2dVertex
 10
8.0002108786
 20
7.4306043855
 30
0.0
  0
VERTEX
  5
509
330
283
100
AcDbEntity
  8
0
  6
CONTINUOUS
 62
     7
100
AcDbVertex
100
AcDb2dVertex
 10
7.9749212338
 20
7.408864076
 30
0.0
  0
VERTEX
  5
50A
330
283
100
AcDbEntity
  8
0
  6
CONTINUOUS
 62
     7
100
AcDbVertex
100
AcDb2dVertex
 10
7.9499571573
 20
7.3859197652
 30
0.0
  0
VERTEX
  5
50B
330
283
100
AcDbEntity
  8
0
  6
CONTINUOUS
 62
     7
100
AcDbVertex
100
AcDb2dVertex
 10
7.9253760674
 20
7.3618242259
 30
0.0
  0
VERTEX
  5
50C
330
283
100
AcDbEntity
  8
0
  6
CONTINUOUS
 62
     7
100
AcDbVertex
100
AcDb2dVertex
 10
7.9012345014
 20
7.3366328785
 30
0.0
  0
VERTEX
  5
50D
330
283
100
AcDbEntity
  8
0
  6
CONTINUOUS
 62
     7
100
AcDbVertex
100
AcDb2dVertex
 10
7.8775879857
 20
7.310403664
 30
0.0
  0
VERTEX
  5
50E
330
283
100
AcDbEntity
  8
0
  6
CONTINUOUS
 62
     7
100
AcDbVertex
100
AcDb2dVertex
 10
7.854490908
 20
7.2831969104
 30
0.0
  0
VERTEX
  5
50F
330
283
100
AcDbEntity
  8
0
  6
CONTINUOUS
 62
     7
100
AcDbVertex
100
AcDb2dVertex
 10
7.8319963923
 20
7.255075194
 30
0.0
  0
VERTEX
  5
510
330
283
100
AcDbEntity
  8
0
  6
CONTINUOUS
 62
     7
100
AcDbVertex
100
AcDb2dVertex
 10
7.8101561767
 20
7.2261031959
 30
0.0
  0
VERTEX
  5
511
330
283
100
AcDbEntity
  8
0
  6
CONTINUOUS
 62
     7
100
AcDbVertex
100
AcDb2dVertex
 10
7.7890204944
 20
7.1963475523
 30
0.0
  0
VERTEX
  5
512
330
283
100
AcDbEntity
  8
0
  6
CONTINUOUS
 62
     7
100
AcDbVertex
100
AcDb2dVertex
 10
7.7686379583
 20
7.1658767024
 30
0.0
  0
VERTEX
  5
513
330
283
100
AcDbEntity
  8
0
  6
CONTINUOUS
 62
     7
100
AcDbVertex
100
AcDb2dVertex
 10
7.7490554487
 20
7.1347607301
 30
0.0
  0
VERTEX
  5
514
330
283
100
AcDbEntity
  8
0
  6
CONTINUOUS
 62
     7
100
AcDbVertex
100
AcDb2dVertex
 10
7.730318006
 20
7.103071203
 30
0.0
  0
VERTEX
  5
515
330
283
100
AcDbEntity
  8
0
  6
CONTINUOUS
 62
     7
100
AcDbVertex
100
AcDb2dVertex
 10
7.7124687271
 20
7.0708810081
 30
0.0
  0
VERTEX
  5
516
330
283
100
AcDbEntity
  8
0
  6
CONTINUOUS
 62
     7
100
AcDbVertex
100
AcDb2dVertex
 10
7.6955486657
 20
7.0382641838
 30
0.0
  0
VERTEX
  5
517
330
283
100
AcDbEntity
  8
0
  6
CONTINUOUS
 62
     7
100
AcDbVertex
100
AcDb2dVertex
 10
7.6795967386
 20
7.00529575
 30
0.0
  0
VERTEX
  5
518
330
283
100
AcDbEntity
  8
0
  6
CONTINUOUS
 62
     7
100
AcDbVertex
100
AcDb2dVertex
 10
7.6646496357
 20
6.9720515351
 30
0.0
  0
VERTEX
  5
519
330
283
100
AcDbEntity
  8
0
  6
CONTINUOUS
 62
     7
100
AcDbVertex
100
AcDb2dVertex
 10
7.6507417359
 20
6.9386080018
 30
0.0
  0
VERTEX
  5
51A
330
283
100
AcDbEntity
  8
0
  6
CONTINUOUS
 62
     7
100
AcDbVertex
100
AcDb2dVertex
 10
7.6379050277
 20
6.9050420713
 30
0.0
  0
VERTEX
  5
51B
330
283
100
AcDbEntity
  8
0
  6
CONTINUOUS
 62
     7
100
AcDbVertex
100
AcDb2dVertex
 10
7.626169036
 20
6.8714309464
 30
0.0
  0
VERTEX
  5
51C
330
283
100
AcDbEntity
  8
0
  6
CONTINUOUS
 62
     7
100
AcDbVertex
100
AcDb2dVertex
 10
7.615560754
 20
6.8378519337
 30
0.0
  0
VERTEX
  5
51D
330
283
100
AcDbEntity
  8
0
  6
CONTINUOUS
 62
     7
100
AcDbVertex
100
AcDb2dVertex
 10
7.6061045809
 20
6.804382266
 30
0.0
  0
VERTEX
  5
51E
330
283
100
AcDbEntity
  8
0
  6
CONTINUOUS
 62
     7
100
AcDbVertex
100
AcDb2dVertex
 10
7.5978222665
 20
6.7710989246
 30
0.0
  0
VERTEX
  5
51F
330
283
100
AcDbEntity
  8
0
  6
CONTINUOUS
 62
     7
100
AcDbVertex
100
AcDb2dVertex
 10
7.5907328601
 20
6.7380784623
 30
0.0
  0
VERTEX
  5
520
330
283
100
AcDbEntity
  8
0
  6
CONTINUOUS
 62
     7
100
AcDbVertex
100
AcDb2dVertex
 10
7.5848526678
 20
6.7053968272
 30
0.0
  0
VERTEX
  5
521
330
283
100
AcDbEntity
  8
0
  6
CONTINUOUS
 62
     7
100
AcDbVertex
100
AcDb2dVertex
 10
7.580195214
 20
6.6731291881
 30
0.0
  0
VERTEX
  5
522
330
283
100
AcDbEntity
  8
0
  6
CONTINUOUS
 62
     7
100
AcDbVertex
100
AcDb2dVertex
 10
7.5767712112
 20
6.6413497616
 30
0.0
  0
VERTEX
  5
523
330
283
100
AcDbEntity
  8
0
  6
CONTINUOUS
 62
     7
100
AcDbVertex
100
AcDb2dVertex
 10
7.5745885346
 20
6.6101316414
 30
0.0
  0
VERTEX
  5
524
330
283
100
AcDbEntity
  8
0
  6
CONTINUOUS
 62
     7
100
AcDbVertex
100
AcDb2dVertex
 10
7.5736522044
 20
6.5795466302
 30
0.0
  0
VERTEX
  5
525
330
283
100
AcDbEntity
  8
0
  6
CONTINUOUS
 62
     7
100
AcDbVertex
100
AcDb2dVertex
 10
7.5739643743
 20
6.5496650745
 30
0.0
  0
VERTEX
  5
526
330
283
100
AcDbEntity
  8
0
  6
CONTINUOUS
 62
     7
100
AcDbVertex
100
AcDb2dVertex
 10
7.5755243262
 20
6.5205557028
 30
0.0
  0
VERTEX
  5
527
330
283
100
AcDbEntity
  8
0
  6
CONTINUOUS
 62
     7
100
AcDbVertex
100
AcDb2dVertex
 10
7.5783284723
 20
6.4922854676
 30
0.0
  0
VERTEX
  5
528
330
283
100
AcDbEntity
  8
0
  6
CONTINUOUS
 62
     7
100
AcDbVertex
100
AcDb2dVertex
 10
7.5823703628
 20
6.4649193914
 30
0.0
  0
VERTEX
  5
529
330
283
100
AcDbEntity
  8
0
  6
CONTINUOUS
 62
     7
100
AcDbVertex
100
AcDb2dVertex
 10
7.5876407013
 20
6.438520417
 30
0.0
  0
VERTEX
  5
52A
330
283
100
AcDbEntity
  8
0
  6
CONTINUOUS
 62
     7
100
AcDbVertex
100
AcDb2dVertex
 10
7.5941273659
 20
6.4131492629
 30
0.0
  0
VERTEX
  5
52B
330
283
100
AcDbEntity
  8
0
  6
CONTINUOUS
 62
     7
100
AcDbVertex
100
AcDb2dVertex
 10
7.601815437
 20
6.3888642836
 30
0.0
  0
VERTEX
  5
52C
330
283
100
AcDbEntity
  8
0
  6
CONTINUOUS
 62
     7
100
AcDbVertex
100
AcDb2dVertex
 10
7.6106872318
 20
6.3657213353
 30
0.0
  0
VERTEX
  5
52D
330
283
100
AcDbEntity
  8
0
  6
CONTINUOUS
 62
     7
100
AcDbVertex
100
AcDb2dVertex
 10
7.6207223448
 20
6.3437736475
 30
0.0
  0
VERTEX
  5
52E
330
283
100
AcDbEntity
  8
0
  6
CONTINUOUS
 62
     7
100
AcDbVertex
100
AcDb2dVertex
 10
7.6318976951
 20
6.3230717006
 30
0.0
  0
VERTEX
  5
52F
330
283
100
AcDbEntity
  8
0
  6
CONTINUOUS
 62
     7
100
AcDbVertex
100
AcDb2dVertex
 10
7.644187579
 20
6.3036631097
 30
0.0
  0
VERTEX
  5
530
330
283
100
AcDbEntity
  8
0
  6
CONTINUOUS
 62
     7
100
AcDbVertex
100
AcDb2dVertex
 10
7.6575637292
 20
6.2855925153
 30
0.0
  0
VERTEX
  5
531
330
283
100
AcDbEntity
  8
0
  6
CONTINUOUS
 62
     7
100
AcDbVertex
100
AcDb2dVertex
 10
7.6719953804
 20
6.2689014802
 30
0.0
  0
VERTEX
  5
532
330
283
100
AcDbEntity
  8
0
  6
CONTINUOUS
 62
     7
100
AcDbVertex
100
AcDb2dVertex
 10
7.687449339
 20
6.2536283945
 30
0.0
  0
VERTEX
  5
533
330
283
100
AcDbEntity
  8
0
  6
CONTINUOUS
 62
     7
100
AcDbVertex
100
AcDb2dVertex
 10
7.7038900607
 20
6.2398083866
 30
0.0
  0
VERTEX
  5
534
330
283
100
AcDbEntity
  8
0
  6
CONTINUOUS
 62
     7
100
AcDbVertex
100
AcDb2dVertex
 10
7.7212797312
 20
6.227473243
 30
0.0
  0
VERTEX
  5
535
330
283
100
AcDbEntity
  8
0
  6
CONTINUOUS
 62
     7
100
AcDbVertex
100
AcDb2dVertex
 10
7.7395783537
 20
6.2166513351
 30
0.0
  0
VERTEX
  5
536
330
283
100
AcDbEntity
  8
0
  6
CONTINUOUS
 62
     7
100
AcDbVertex
100
AcDb2dVertex
 10
7.7587438408
 20
6.2073675534
 30
0.0
  0
VERTEX
  5
537
330
283
100
AcDbEntity
  8
0
  6
CONTINUOUS
 62
     7
100
AcDbVertex
100
AcDb2dVertex
 10
7.7787321112
 20
6.199643251
 30
0.0
  0
VERTEX
  5
538
330
283
100
AcDbEntity
  8
0
  6
CONTINUOUS
 62
     7
100
AcDbVertex
100
AcDb2dVertex
 10
7.793978357
 20
6.1949550147
 30
0.0
  0
SEQEND
  5
539
330
283
100
AcDbEntity
  8
0
  6
CONTINUOUS
 62
     7
  0
LINE
  5
284
330
1F
100
AcDbEntity
  8
0
  6
CONTINUOUS
 62
     7
100
AcDbLine
 10
8.0190347734
 20
7.2872426757
 30
0.0
 11
8.0196437167
 21
7.2750345951
 31
0.0
  0
POLYLINE
  5
285
330
1F
100
AcDbEntity
  8
0
  6
CONTINUOUS
 62
     7
100
AcDb2dPolyline
 66
     1
 10
0.0
 20
0.0
 30
0.0
  0
VERTEX
  5
53A
330
285
100
AcDbEntity
  8
0
  6
CONTINUOUS
 62
     7
100
AcDbVertex
100
AcDb2dVertex
 10
8.1753530748
 20
7.4671292319
 30
0.0
  0
VERTEX
  5
53B
330
285
100
AcDbEntity
  8
0
  6
CONTINUOUS
 62
     7
100
AcDbVertex
100
AcDb2dVertex
 10
8.1714678219
 20
7.4681187568
 30
0.0
  0
VERTEX
  5
53C
330
285
100
AcDbEntity
  8
0
  6
CONTINUOUS
 62
     7
100
AcDbVertex
100
AcDb2dVertex
 10
8.1619409323
 20
7.4692530288
 30
0.0
  0
VERTEX
  5
53D
330
285
100
AcDbEntity
  8
0
  6
CONTINUOUS
 62
     7
100
AcDbVertex
100
AcDb2dVertex
 10
8.1518212693
 20
7.4687478038
 30
0.0
  0
VERTEX
  5
53E
330
285
100
AcDbEntity
  8
0
  6
CONTINUOUS
 62
     7
100
AcDbVertex
100
AcDb2dVertex
 10
8.1412407582
 20
7.4666096683
 30
0.0
  0
VERTEX
  5
53F
330
285
100
AcDbEntity
  8
0
  6
CONTINUOUS
 62
     7
100
AcDbVertex
100
AcDb2dVertex
 10
8.1303373321
 20
7.4628664961
 30
0.0
  0
VERTEX
  5
540
330
285
100
AcDbEntity
  8
0
  6
CONTINUOUS
 62
     7
100
AcDbVertex
100
AcDb2dVertex
 10
8.1192531338
 20
7.4575670853
 30
0.0
  0
VERTEX
  5
541
330
285
100
AcDbEntity
  8
0
  6
CONTINUOUS
 62
     7
100
AcDbVertex
100
AcDb2dVertex
 10
8.1081326629
 20
7.4507805217
 30
0.0
  0
VERTEX
  5
542
330
285
100
AcDbEntity
  8
0
  6
CONTINUOUS
 62
     7
100
AcDbVertex
100
AcDb2dVertex
 10
8.0971208917
 20
7.4425952786
 30
0.0
  0
VERTEX
  5
543
330
285
100
AcDbEntity
  8
0
  6
CONTINUOUS
 62
     7
100
AcDbVertex
100
AcDb2dVertex
 10
8.0863613754
 20
7.4331180631
 30
0.0
  0
VERTEX
  5
544
330
285
100
AcDbEntity
  8
0
  6
CONTINUOUS
 62
     7
100
AcDbVertex
100
AcDb2dVertex
 10
8.0759943809
 20
7.4224724252
 30
0.0
  0
VERTEX
  5
545
330
285
100
AcDbEntity
  8
0
  6
CONTINUOUS
 62
     7
100
AcDbVertex
100
AcDb2dVertex
 10
8.0661550577
 20
7.4107971472
 30
0.0
  0
VERTEX
  5
546
330
285
100
AcDbEntity
  8
0
  6
CONTINUOUS
 62
     7
100
AcDbVertex
100
AcDb2dVertex
 10
8.0569716764
 20
7.398244434
 30
0.0
  0
VERTEX
  5
547
330
285
100
AcDbEntity
  8
0
  6
CONTINUOUS
 62
     7
100
AcDbVertex
100
AcDb2dVertex
 10
8.0485639565
 20
7.3849779296
 30
0.0
  0
VERTEX
  5
548
330
285
100
AcDbEntity
  8
0
  6
CONTINUOUS
 62
     7
100
AcDbVertex
100
AcDb2dVertex
 10
8.0410415055
 20
7.3711705831
 30
0.0
  0
VERTEX
  5
549
330
285
100
AcDbEntity
  8
0
  6
CONTINUOUS
 62
     7
100
AcDbVertex
100
AcDb2dVertex
 10
8.03450239
 20
7.3570023944
 30
0.0
  0
VERTEX
  5
54A
330
285
100
AcDbEntity
  8
0
  6
CONTINUOUS
 62
     7
100
AcDbVertex
100
AcDb2dVertex
 10
8.0290318574
 20
7.3426580674
 30
0.0
  0
VERTEX
  5
54B
330
285
100
AcDbEntity
  8
0
  6
CONTINUOUS
 62
     7
100
AcDbVertex
100
AcDb2dVertex
 10
8.0247012245
 20
7.3283246024
 30
0.0
  0
VERTEX
  5
54C
330
285
100
AcDbEntity
  8
0
  6
CONTINUOUS
 62
     7
100
AcDbVertex
100
AcDb2dVertex
 10
8.0215669476
 20
7.3141888581
 30
0.0
  0
VERTEX
  5
54D
330
285
100
AcDbEntity
  8
0
  6
CONTINUOUS
 62
     7
100
AcDbVertex
100
AcDb2dVertex
 10
8.0196698869
 20
7.3004351156
 30
0.0
  0
VERTEX
  5
54E
330
285
100
AcDbEntity
  8
0
  6
CONTINUOUS
 62
     7
100
AcDbVertex
100
AcDb2dVertex
 10
8.0190347734
 20
7.2872426757
 30
0.0
  0
SEQEND
  5
54F
330
285
100
AcDbEntity
  8
0
  6
CONTINUOUS
 62
     7
  0
SPLINE
  5
286
330
1F
100
AcDbEntity
  8
0
  6
CONTINUOUS
 62
     7
100
AcDbSpline
210
0.0
220
0.0
230
1.0
 70
     8
 71
     3
 72
    22
 73
    18
 74
     0
 42
0.00000001
 43
0.00000001
 40
0.0
 40
0.0
 40
0.0
 40
0.0
 40
0.0376153900807547
 40
0.1674908946772834
 40
0.2570457844410106
 40
0.3484132124090148
 40
0.4096670085813573
 40
0.4722692879830454
 40
0.5204990905194888
 40
0.5700230757238374
 40
0.6183089395057938
 40
0.6682047245043673
 40
0.7137572864612965
 40
0.7602630808823744
 40
0.834648455654239
 40
0.9110872148967389
 40
1.0
 40
1.0
 40
1.0
 40
1.0
 10
8.291427386766298
 20
7.670641654973057
 30
0.0
 10
8.28886032283214
 20
7.672183272117453
 30
0.0
 10
8.277429899430896
 20
7.679047665500335
 30
0.0
 10
8.256561055794434
 20
7.689731873913489
 30
0.0
 10
8.230234348915895
 20
7.702747367109366
 30
0.0
 10
8.20853344330802
 20
7.713090351210174
 30
0.0
 10
8.1889348849035
 20
7.722463054644178
 30
0.0
 10
8.173330079865195
 20
7.730081342402901
 30
0.0
 10
8.159344195739274
 20
7.737189054784588
 30
0.0
 10
8.147452662495517
 20
7.743556347752532
 30
0.0
 10
8.136764906518865
 20
7.749695370413777
 30
0.0
 10
8.128023286758449
 20
7.755178809418351
 30
0.0
 10
8.121124099587826
 20
7.759967724260281
 30
0.0
 10
8.114905451475066
 20
7.764811133436874
 30
0.0
 10
8.110237021728539
 20
7.769259819164146
 30
0.0
 10
8.107477157230784
 20
7.77307495287883
 30
0.0
 10
8.108303756632687
 20
7.773757315253856
 30
0.0
 10
8.10874823542651
 20
7.774124234954867
 30
0.0
  0
SPLINE
  5
287
330
1F
100
AcDbEntity
  8
0
  6
CONTINUOUS
 62
     7
100
AcDbSpline
210
0.0
220
0.0
230
1.0
 70
     8
 71
     3
 72
    62
 73
    58
 74
     0
 42
0.00000001
 43
0.00000001
 40
-0.0312500000000001
 40
-0.0312500000000001
 40
0.0
 40
0.0
 40
0.0312499999999998
 40
0.0312499999999998
 40
0.0624999999999996
 40
0.0624999999999996
 40
0.0937499999999993
 40
0.0937499999999993
 40
0.1249999999999991
 40
0.1249999999999991
 40
0.1874999999999987
 40
0.1874999999999987
 40
0.2187499999999985
 40
0.2187499999999985
 40
0.2499999999999983
 40
0.2499999999999983
 40
0.2812499999999982
 40
0.2812499999999982
 40
0.312499999999998
 40
0.312499999999998
 40
0.3437499999999977
 40
0.3437499999999977
 40
0.3749999999999973
 40
0.3749999999999973
 40
0.4374999999999971
 40
0.4374999999999971
 40
0.4687499999999972
 40
0.4687499999999972
 40
0.4999999999999973
 40
0.4999999999999973
 40
0.5312499999999974
 40
0.5312499999999974
 40
0.5624999999999976
 40
0.5624999999999976
 40
0.5937499999999977
 40
0.5937499999999977
 40
0.6249999999999978
 40
0.6249999999999978
 40
0.6562499999999979
 40
0.6562499999999979
 40
0.687499999999998
 40
0.687499999999998
 40
0.7499999999999986
 40
0.7499999999999986
 40
0.7812499999999989
 40
0.7812499999999989
 40
0.8124999999999992
 40
0.8124999999999992
 40
0.8749999999999996
 40
0.8749999999999996
 40
0.9062499999999997
 40
0.9062499999999997
 40
0.9374999999999998
 40
0.9374999999999998
 40
0.9687499999999999
 40
0.9687499999999999
 40
1.0
 40
1.0
 40
1.03125
 40
1.03125
 10
7.454065010220325
 20
7.296994579890977
 30
0.0
 10
7.445562254175972
 20
7.301903116474242
 30
0.0
 10
7.440932147964417
 20
7.303427995379076
 30
0.0
 10
7.431011310287443
 20
7.304826170412741
 30
0.0
 10
7.425817355285844
 20
7.304665646100153
 30
0.0
 10
7.41546647110257
 20
7.302960549750066
 30
0.0
 10
7.410247069631971
 20
7.301405731716926
 30
0.0
 10
7.40019682537605
 20
7.297310006963628
 30
0.0
 10
7.395299779458519
 20
7.294757484969161
 30
0.0
 10
7.380972400800207
 20
7.28578563826776
 30
0.0
 10
7.372324271684736
 20
7.278359930768904
 30
0.0
 10
7.360647946992343
 20
7.265516806583234
 30
0.0
 10
7.356967144145455
 20
7.260921839575766
 30
0.0
 10
7.350246347732239
 20
7.251388981617516
 30
0.0
 10
7.347177244548659
 20
7.246422091275445
 30
0.0
 10
7.341637145103079
 20
7.236076941824278
 30
0.0
 10
7.339149554490467
 20
7.230653259235965
 30
0.0
 10
7.334925344173535
 20
7.21958193217512
 30
0.0
 10
7.33319315124549
 20
7.213965442494071
 30
0.0
 10
7.3305168860276
 20
7.202565672032931
 30
0.0
 10
7.329571801276842
 20
7.196782594968259
 30
0.0
 10
7.328570801340084
 20
7.185029654990736
 30
0.0
 10
7.328529546263074
 20
7.179087103522446
 30
0.0
 10
7.329898717692706
 20
7.161775649122608
 30
0.0
 10
7.332876229439859
 20
7.150498841216704
 30
0.0
 10
7.340355146275147
 20
7.13620201835965
 30
0.0
 10
7.343416159738352
 20
7.131756406279806
 30
0.0
 10
7.350294168095093
 20
7.124207603113518
 30
0.0
 10
7.354119261207154
 20
7.121045487868246
 30
0.0
 10
7.362579533422521
 20
7.11604215570929
 30
0.0
 10
7.367013641712611
 20
7.114319403769978
 30
0.0
 10
7.37627718657836
 20
7.112352338009137
 30
0.0
 10
7.381089889711806
 20
7.112138652392343
 30
0.0
 10
7.390604512369093
 20
7.113162940661224
 30
0.0
 10
7.39542147022263
 20
7.114413541072922
 30
0.0
 10
7.404715833507266
 20
7.118136872716073
 30
0.0
 10
7.409244811436887
 20
7.1206123052204
 30
0.0
 10
7.41801341519514
 20
7.126621932489844
 30
0.0
 10
7.42216169606526
 20
7.130088150765548
 30
0.0
 10
7.430072028623902
 20
7.137818407927075
 30
0.0
 10
7.433848810628807
 20
7.142111752863578
 30
0.0
 10
7.444347700830081
 20
7.155702135669264
 30
0.0
 10
7.450440408237808
 20
7.165938560409695
 30
0.0
 10
7.458000504552986
 20
7.181982224664095
 30
0.0
 10
7.460262913099502
 20
7.187449737888291
 30
0.0
 10
7.464283806534644
 20
7.198618704992083
 30
0.0
 10
7.46604601642473
 20
7.204347531890932
 30
0.0
 10
7.470406139358286
 20
7.221432948048547
 30
0.0
 10
7.472186372146515
 20
7.23285185511942
 30
0.0
 10
7.472608450819372
 20
7.249934027077112
 30
0.0
 10
7.472360565206746
 20
7.255486104840994
 30
0.0
 10
7.470924705347834
 20
7.266273014651397
 30
0.0
 10
7.469713775159135
 20
7.27156716429275
 30
0.0
 10
7.466149185345081
 20
7.281328987127181
 30
0.0
 10
7.46376989569871
 20
7.285875307733818
 30
0.0
 10
7.457691334339466
 20
7.293745821488927
 30
0.0
 10
7.454065010220325
 20
7.296994579890977
 30
0.0
 10
7.445562254175972
 20
7.301903116474242
 30
0.0
  0
POLYLINE
  5
288
330
1F
100
AcDbEntity
  8
0
  6
CONTINUOUS
 62
     7
100
AcDb2dPolyline
 66
     1
 10
0.0
 20
0.0
 30
0.0
  0
VERTEX
  5
550
330
288
100
AcDbEntity
  8
0
  6
CONTINUOUS
 62
     7
100
AcDbVertex
100
AcDb2dVertex
 10
7.5056538406
 20
6.3986123597
 30
0.0
  0
VERTEX
  5
551
330
288
100
AcDbEntity
  8
0
  6
CONTINUOUS
 62
     7
100
AcDbVertex
100
AcDb2dVertex
 10
7.4947499635
 20
6.4194639259
 30
0.0
  0
VERTEX
  5
552
330
288
100
AcDbEntity
  8
0
  6
CONTINUOUS
 62
     7
100
AcDbVertex
100
AcDb2dVertex
 10
7.4849803674
 20
6.441540259
 30
0.0
  0
VERTEX
  5
553
330
288
100
AcDbEntity
  8
0
  6
CONTINUOUS
 62
     7
100
AcDbVertex
100
AcDb2dVertex
 10
7.4763673144
 20
6.4647910537
 30
0.0
  0
VERTEX
  5
554
330
288
100
AcDbEntity
  8
0
  6
CONTINUOUS
 62
     7
100
AcDbVertex
100
AcDb2dVertex
 10
7.4689304313
 20
6.4891633278
 30
0.0
  0
VERTEX
  5
555
330
288
100
AcDbEntity
  8
0
  6
CONTINUOUS
 62
     7
100
AcDbVertex
100
AcDb2dVertex
 10
7.4626866644
 20
6.5146015442
 30
0.0
  0
VERTEX
  5
556
330
288
100
AcDbEntity
  8
0
  6
CONTINUOUS
 62
     7
100
AcDbVertex
100
AcDb2dVertex
 10
7.4576502416
 20
6.5410477364
 30
0.0
  0
VERTEX
  5
557
330
288
100
AcDbEntity
  8
0
  6
CONTINUOUS
 62
     7
100
AcDbVertex
100
AcDb2dVertex
 10
7.4538326394
 20
6.5684416411
 30
0.0
  0
VERTEX
  5
558
330
288
100
AcDbEntity
  8
0
  6
CONTINUOUS
 62
     7
100
AcDbVertex
100
AcDb2dVertex
 10
7.451242557
 20
6.5967208356
 30
0.0
  0
VERTEX
  5
559
330
288
100
AcDbEntity
  8
0
  6
CONTINUOUS
 62
     7
100
AcDbVertex
100
AcDb2dVertex
 10
7.4498858964
 20
6.6258208798
 30
0.0
  0
VERTEX
  5
55A
330
288
100
AcDbEntity
  8
0
  6
CONTINUOUS
 62
     7
100
AcDbVertex
100
AcDb2dVertex
 10
7.4497657492
 20
6.6556754629
 30
0.0
  0
VERTEX
  5
55B
330
288
100
AcDbEntity
  8
0
  6
CONTINUOUS
 62
     7
100
AcDbVertex
100
AcDb2dVertex
 10
7.4508823891
 20
6.6862165551
 30
0.0
  0
VERTEX
  5
55C
330
288
100
AcDbEntity
  8
0
  6
CONTINUOUS
 62
     7
100
AcDbVertex
100
AcDb2dVertex
 10
7.4532332716
 20
6.717374562
 30
0.0
  0
VERTEX
  5
55D
330
288
100
AcDbEntity
  8
0
  6
CONTINUOUS
 62
     7
100
AcDbVertex
100
AcDb2dVertex
 10
7.4568130396
 20
6.7490784834
 30
0.0
  0
VERTEX
  5
55E
330
288
100
AcDbEntity
  8
0
  6
CONTINUOUS
 62
     7
100
AcDbVertex
100
AcDb2dVertex
 10
7.461613536
 20
6.7812560753
 30
0.0
  0
VERTEX
  5
55F
330
288
100
AcDbEntity
  8
0
  6
CONTINUOUS
 62
     7
100
AcDbVertex
100
AcDb2dVertex
 10
7.4676238219
 20
6.8138340143
 30
0.0
  0
VERTEX
  5
560
330
288
100
AcDbEntity
  8
0
  6
CONTINUOUS
 62
     7
100
AcDbVertex
100
AcDb2dVertex
 10
7.4748302014
 20
6.8467380645
 30
0.0
  0
VERTEX
  5
561
330
288
100
AcDbEntity
  8
0
  6
CONTINUOUS
 62
     7
100
AcDbVertex
100
AcDb2dVertex
 10
7.4832162533
 20
6.8798932472
 30
0.0
  0
VERTEX
  5
562
330
288
100
AcDbEntity
  8
0
  6
CONTINUOUS
 62
     7
100
AcDbVertex
100
AcDb2dVertex
 10
7.4927628682
 20
6.9132240112
 30
0.0
  0
VERTEX
  5
563
330
288
100
AcDbEntity
  8
0
  6
CONTINUOUS
 62
     7
100
AcDbVertex
100
AcDb2dVertex
 10
7.5034482923
 20
6.9466544053
 30
0.0
  0
VERTEX
  5
564
330
288
100
AcDbEntity
  8
0
  6
CONTINUOUS
 62
     7
100
AcDbVertex
100
AcDb2dVertex
 10
7.5152481763
 20
6.9801082514
 30
0.0
  0
VERTEX
  5
565
330
288
100
AcDbEntity
  8
0
  6
CONTINUOUS
 62
     7
100
AcDbVertex
100
AcDb2dVertex
 10
7.5281356319
 20
7.0135093177
 30
0.0
  0
VERTEX
  5
566
330
288
100
AcDbEntity
  8
0
  6
CONTINUOUS
 62
     7
100
AcDbVertex
100
AcDb2dVertex
 10
7.5420812922
 20
7.0467814929
 30
0.0
  0
VERTEX
  5
567
330
288
100
AcDbEntity
  8
0
  6
CONTINUOUS
 62
     7
100
AcDbVertex
100
AcDb2dVertex
 10
7.5570533791
 20
7.0798489591
 30
0.0
  0
VERTEX
  5
568
330
288
100
AcDbEntity
  8
0
  6
CONTINUOUS
 62
     7
100
AcDbVertex
100
AcDb2dVertex
 10
7.5730177755
 20
7.1126363654
 30
0.0
  0
VERTEX
  5
569
330
288
100
AcDbEntity
  8
0
  6
CONTINUOUS
 62
     7
100
AcDbVertex
100
AcDb2dVertex
 10
7.5899381031
 20
7.1450689984
 30
0.0
  0
VERTEX
  5
56A
330
288
100
AcDbEntity
  8
0
  6
CONTINUOUS
 62
     7
100
AcDbVertex
100
AcDb2dVertex
 10
7.6077758055
 20
7.1770729538
 30
0.0
  0
VERTEX
  5
56B
330
288
100
AcDbEntity
  8
0
  6
CONTINUOUS
 62
     7
100
AcDbVertex
100
AcDb2dVertex
 10
7.6264902356
 20
7.2085753036
 30
0.0
  0
VERTEX
  5
56C
330
288
100
AcDbEntity
  8
0
  6
CONTINUOUS
 62
     7
100
AcDbVertex
100
AcDb2dVertex
 10
7.6460387486
 20
7.2395042631
 30
0.0
  0
VERTEX
  5
56D
330
288
100
AcDbEntity
  8
0
  6
CONTINUOUS
 62
     7
100
AcDbVertex
100
AcDb2dVertex
 10
7.6663767991
 20
7.2697893541
 30
0.0
  0
VERTEX
  5
56E
330
288
100
AcDbEntity
  8
0
  6
CONTINUOUS
 62
     7
100
AcDbVertex
100
AcDb2dVertex
 10
7.6874580426
 20
7.2993615657
 30
0.0
  0
VERTEX
  5
56F
330
288
100
AcDbEntity
  8
0
  6
CONTINUOUS
 62
     7
100
AcDbVertex
100
AcDb2dVertex
 10
7.7092344409
 20
7.3281535112
 30
0.0
  0
VERTEX
  5
570
330
288
100
AcDbEntity
  8
0
  6
CONTINUOUS
 62
     7
100
AcDbVertex
100
AcDb2dVertex
 10
7.731656372
 20
7.3560995822
 30
0.0
  0
VERTEX
  5
571
330
288
100
AcDbEntity
  8
0
  6
CONTINUOUS
 62
     7
100
AcDbVertex
100
AcDb2dVertex
 10
7.7546727428
 20
7.3831360975
 30
0.0
  0
VERTEX
  5
572
330
288
100
AcDbEntity
  8
0
  6
CONTINUOUS
 62
     7
100
AcDbVertex
100
AcDb2dVertex
 10
7.7782311055
 20
7.4092014489
 30
0.0
  0
VERTEX
  5
573
330
288
100
AcDbEntity
  8
0
  6
CONTINUOUS
 62
     7
100
AcDbVertex
100
AcDb2dVertex
 10
7.8022777774
 20
7.4342362407
 30
0.0
  0
VERTEX
  5
574
330
288
100
AcDbEntity
  8
0
  6
CONTINUOUS
 62
     7
100
AcDbVertex
100
AcDb2dVertex
 10
7.8267579631
 20
7.4581834261
 30
0.0
  0
VERTEX
  5
575
330
288
100
AcDbEntity
  8
0
  6
CONTINUOUS
 62
     7
100
AcDbVertex
100
AcDb2dVertex
 10
7.8516158794
 20
7.4809884362
 30
0.0
  0
VERTEX
  5
576
330
288
100
AcDbEntity
  8
0
  6
CONTINUOUS
 62
     7
100
AcDbVertex
100
AcDb2dVertex
 10
7.8767948822
 20
7.502599305
 30
0.0
  0
VERTEX
  5
577
330
288
100
AcDbEntity
  8
0
  6
CONTINUOUS
 62
     7
100
AcDbVertex
100
AcDb2dVertex
 10
7.9022375957
 20
7.5229667876
 30
0.0
  0
VERTEX
  5
578
330
288
100
AcDbEntity
  8
0
  6
CONTINUOUS
 62
     7
100
AcDbVertex
100
AcDb2dVertex
 10
7.9278860435
 20
7.5420444723
 30
0.0
  0
VERTEX
  5
579
330
288
100
AcDbEntity
  8
0
  6
CONTINUOUS
 62
     7
100
AcDbVertex
100
AcDb2dVertex
 10
7.95368178
 20
7.5597888866
 30
0.0
  0
VERTEX
  5
57A
330
288
100
AcDbEntity
  8
0
  6
CONTINUOUS
 62
     7
100
AcDbVertex
100
AcDb2dVertex
 10
7.9795660243
 20
7.5761595961
 30
0.0
  0
VERTEX
  5
57B
330
288
100
AcDbEntity
  8
0
  6
CONTINUOUS
 62
     7
100
AcDbVertex
100
AcDb2dVertex
 10
8.0054797936
 20
7.5911192967
 30
0.0
  0
VERTEX
  5
57C
330
288
100
AcDbEntity
  8
0
  6
CONTINUOUS
 62
     7
100
AcDbVertex
100
AcDb2dVertex
 10
8.0313640379
 20
7.6046338995
 30
0.0
  0
VERTEX
  5
57D
330
288
100
AcDbEntity
  8
0
  6
CONTINUOUS
 62
     7
100
AcDbVertex
100
AcDb2dVertex
 10
8.0571597744
 20
7.6166726087
 30
0.0
  0
VERTEX
  5
57E
330
288
100
AcDbEntity
  8
0
  6
CONTINUOUS
 62
     7
100
AcDbVertex
100
AcDb2dVertex
 10
8.0828082222
 20
7.6272079914
 30
0.0
  0
VERTEX
  5
57F
330
288
100
AcDbEntity
  8
0
  6
CONTINUOUS
 62
     7
100
AcDbVertex
100
AcDb2dVertex
 10
8.1082509357
 20
7.6362160406
 30
0.0
  0
VERTEX
  5
580
330
288
100
AcDbEntity
  8
0
  6
CONTINUOUS
 62
     7
100
AcDbVertex
100
AcDb2dVertex
 10
8.1334299385
 20
7.6436762296
 30
0.0
  0
VERTEX
  5
581
330
288
100
AcDbEntity
  8
0
  6
CONTINUOUS
 62
     7
100
AcDbVertex
100
AcDb2dVertex
 10
8.1582878547
 20
7.6495715587
 30
0.0
  0
VERTEX
  5
582
330
288
100
AcDbEntity
  8
0
  6
CONTINUOUS
 62
     7
100
AcDbVertex
100
AcDb2dVertex
 10
8.1827680405
 20
7.6538885942
 30
0.0
  0
VERTEX
  5
583
330
288
100
AcDbEntity
  8
0
  6
CONTINUOUS
 62
     7
100
AcDbVertex
100
AcDb2dVertex
 10
8.2068147124
 20
7.6566174987
 30
0.0
  0
VERTEX
  5
584
330
288
100
AcDbEntity
  8
0
  6
CONTINUOUS
 62
     7
100
AcDbVertex
100
AcDb2dVertex
 10
8.2303730751
 20
7.657752054
 30
0.0
  0
VERTEX
  5
585
330
288
100
AcDbEntity
  8
0
  6
CONTINUOUS
 62
     7
100
AcDbVertex
100
AcDb2dVertex
 10
8.2533894458
 20
7.6572896747
 30
0.0
  0
VERTEX
  5
586
330
288
100
AcDbEntity
  8
0
  6
CONTINUOUS
 62
     7
100
AcDbVertex
100
AcDb2dVertex
 10
8.2758113769
 20
7.6552314143
 30
0.0
  0
VERTEX
  5
587
330
288
100
AcDbEntity
  8
0
  6
CONTINUOUS
 62
     7
100
AcDbVertex
100
AcDb2dVertex
 10
8.2975877753
 20
7.6515819632
 30
0.0
  0
VERTEX
  5
588
330
288
100
AcDbEntity
  8
0
  6
CONTINUOUS
 62
     7
100
AcDbVertex
100
AcDb2dVertex
 10
8.3186690188
 20
7.6463496372
 30
0.0
  0
VERTEX
  5
589
330
288
100
AcDbEntity
  8
0
  6
CONTINUOUS
 62
     7
100
AcDbVertex
100
AcDb2dVertex
 10
8.3390070693
 20
7.6395463595
 30
0.0
  0
VERTEX
  5
58A
330
288
100
AcDbEntity
  8
0
  6
CONTINUOUS
 62
     7
100
AcDbVertex
100
AcDb2dVertex
 10
8.3585555823
 20
7.6311876327
 30
0.0
  0
VERTEX
  5
58B
330
288
100
AcDbEntity
  8
0
  6
CONTINUOUS
 62
     7
100
AcDbVertex
100
AcDb2dVertex
 10
8.3763499815
 20
7.6218261784
 30
0.0
  0
SEQEND
  5
58C
330
288
100
AcDbEntity
  8
0
  6
CONTINUOUS
 62
     7
  0
POLYLINE
  5
289
330
1F
100
AcDbEntity
  8
0
  6
CONTINUOUS
 62
     7
100
AcDb2dPolyline
 66
     1
 10
0.0
 20
0.0
 30
0.0
  0
VERTEX
  5
58D
330
289
100
AcDbEntity
  8
0
  6
CONTINUOUS
 62
     7
100
AcDbVertex
100
AcDb2dVertex
 10
8.3573419335
 20
7.6317627412
 30
0.0
  0
VERTEX
  5
58E
330
289
100
AcDbEntity
  8
0
  6
CONTINUOUS
 62
     7
100
AcDbVertex
100
AcDb2dVertex
 10
8.3405718006
 20
7.6424750609
 30
0.0
  0
VERTEX
  5
58F
330
289
100
AcDbEntity
  8
0
  6
CONTINUOUS
 62
     7
100
AcDbVertex
100
AcDb2dVertex
 10
8.3218939747
 20
7.6523971648
 30
0.0
  0
VERTEX
  5
590
330
289
100
AcDbEntity
  8
0
  6
CONTINUOUS
 62
     7
100
AcDbVertex
100
AcDb2dVertex
 10
8.3023825014
 20
7.6607860801
 30
0.0
  0
VERTEX
  5
591
330
289
100
AcDbEntity
  8
0
  6
CONTINUOUS
 62
     7
100
AcDbVertex
100
AcDb2dVertex
 10
8.282081763
 20
7.6676227247
 30
0.0
  0
VERTEX
  5
592
330
289
100
AcDbEntity
  8
0
  6
CONTINUOUS
 62
     7
100
AcDbVertex
100
AcDb2dVertex
 10
8.2610379373
 20
7.6728915474
 30
0.0
  0
VERTEX
  5
593
330
289
100
AcDbEntity
  8
0
  6
CONTINUOUS
 62
     7
100
AcDbVertex
100
AcDb2dVertex
 10
8.2392988923
 20
7.6765805634
 30
0.0
  0
VERTEX
  5
594
330
289
100
AcDbEntity
  8
0
  6
CONTINUOUS
 62
     7
100
AcDbVertex
100
AcDb2dVertex
 10
8.2169140774
 20
7.6786813813
 30
0.0
  0
VERTEX
  5
595
330
289
100
AcDbEntity
  8
0
  6
CONTINUOUS
 62
     7
100
AcDbVertex
100
AcDb2dVertex
 10
8.1939344111
 20
7.6791892223
 30
0.0
  0
VERTEX
  5
596
330
289
100
AcDbEntity
  8
0
  6
CONTINUOUS
 62
     7
100
AcDbVertex
100
AcDb2dVertex
 10
8.1704121647
 20
7.6781029314
 30
0.0
  0
VERTEX
  5
597
330
289
100
AcDbEntity
  8
0
  6
CONTINUOUS
 62
     7
100
AcDbVertex
100
AcDb2dVertex
 10
8.1464008439
 20
7.6754249794
 30
0.0
  0
VERTEX
  5
598
330
289
100
AcDbEntity
  8
0
  6
CONTINUOUS
 62
     7
100
AcDbVertex
100
AcDb2dVertex
 10
8.1219550669
 20
7.6711614579
 30
0.0
  0
VERTEX
  5
599
330
289
100
AcDbEntity
  8
0
  6
CONTINUOUS
 62
     7
100
AcDbVertex
100
AcDb2dVertex
 10
8.09713044
 20
7.665322065
 30
0.0
  0
VERTEX
  5
59A
330
289
100
AcDbEntity
  8
0
  6
CONTINUOUS
 62
     7
100
AcDbVertex
100
AcDb2dVertex
 10
8.0719834315
 20
7.6579200835
 30
0.0
  0
VERTEX
  5
59B
330
289
100
AcDbEntity
  8
0
  6
CONTINUOUS
 62
     7
100
AcDbVertex
100
AcDb2dVertex
 10
8.0465712427
 20
7.6489723506
 30
0.0
  0
VERTEX
  5
59C
330
289
100
AcDbEntity
  8
0
  6
CONTINUOUS
 62
     7
100
AcDbVertex
100
AcDb2dVertex
 10
8.0209516783
 20
7.6384992195
 30
0.0
  0
VERTEX
  5
59D
330
289
100
AcDbEntity
  8
0
  6
CONTINUOUS
 62
     7
100
AcDbVertex
100
AcDb2dVertex
 10
7.9951830147
 20
7.6265245133
 30
0.0
  0
VERTEX
  5
59E
330
289
100
AcDbEntity
  8
0
  6
CONTINUOUS
 62
     7
100
AcDbVertex
100
AcDb2dVertex
 10
7.9693238676
 20
7.6130754706
 30
0.0
  0
SEQEND
  5
59F
330
289
100
AcDbEntity
  8
0
  6
CONTINUOUS
 62
     7
  0
LINE
  5
28A
330
1F
100
AcDbEntity
  8
0
  6
CONTINUOUS
 62
     7
100
AcDbLine
 10
7.723414029
 20
7.7550361987
 30
0.0
 11
7.9693238676
 21
7.6130754706
 31
0.0
  0
POLYLINE
  5
28B
330
1F
100
AcDbEntity
  8
0
  6
CONTINUOUS
 62
     7
100
AcDb2dPolyline
 66
     1
 10
0.0
 20
0.0
 30
0.0
  0
VERTEX
  5
5A0
330
28B
100
AcDbEntity
  8
0
  6
CONTINUOUS
 62
     7
100
AcDbVertex
100
AcDb2dVertex
 10
7.723414029
 20
7.7550361987
 30
0.0
  0
VERTEX
  5
5A1
330
28B
100
AcDbEntity
  8
0
  6
CONTINUOUS
 62
     7
100
AcDbVertex
100
AcDb2dVertex
 10
7.749402849
 20
7.7685490798
 30
0.0
  0
VERTEX
  5
5A2
330
28B
100
AcDbEntity
  8
0
  6
CONTINUOUS
 62
     7
100
AcDbVertex
100
AcDb2dVertex
 10
7.7752999766
 20
7.7805726367
 30
0.0
  0
VERTEX
  5
5A3
330
28B
100
AcDbEntity
  8
0
  6
CONTINUOUS
 62
     7
100
AcDbVertex
100
AcDb2dVertex
 10
7.801045911
 20
7.7910792442
 30
0.0
  0
VERTEX
  5
5A4
330
28B
100
AcDbEntity
  8
0
  6
CONTINUOUS
 62
     7
100
AcDbVertex
100
AcDb2dVertex
 10
7.826581499
 20
7.8000447626
 30
0.0
  0
VERTEX
  5
5A5
330
28B
100
AcDbEntity
  8
0
  6
CONTINUOUS
 62
     7
100
AcDbVertex
100
AcDb2dVertex
 10
7.8518480704
 20
7.8074485928
 30
0.0
  0
VERTEX
  5
5A6
330
28B
100
AcDbEntity
  8
0
  6
CONTINUOUS
 62
     7
100
AcDbVertex
100
AcDb2dVertex
 10
7.8767875732
 20
7.813273724
 30
0.0
  0
VERTEX
  5
5A7
330
28B
100
AcDbEntity
  8
0
  6
CONTINUOUS
 62
     7
100
AcDbVertex
100
AcDb2dVertex
 10
7.9013427069
 20
7.8175067724
 30
0.0
  0
VERTEX
  5
5A8
330
28B
100
AcDbEntity
  8
0
  6
CONTINUOUS
 62
     7
100
AcDbVertex
100
AcDb2dVertex
 10
7.9254570542
 20
7.8201380123
 30
0.0
  0
VERTEX
  5
5A9
330
28B
100
AcDbEntity
  8
0
  6
CONTINUOUS
 62
     7
100
AcDbVertex
100
AcDb2dVertex
 10
7.9490752104
 20
7.8211613982
 30
0.0
  0
VERTEX
  5
5AA
330
28B
100
AcDbEntity
  8
0
  6
CONTINUOUS
 62
     7
100
AcDbVertex
100
AcDb2dVertex
 10
7.9721429108
 20
7.8205745788
 30
0.0
  0
VERTEX
  5
5AB
330
28B
100
AcDbEntity
  8
0
  6
CONTINUOUS
 62
     7
100
AcDbVertex
100
AcDb2dVertex
 10
7.9946071556
 20
7.8183789023
 30
0.0
  0
VERTEX
  5
5AC
330
28B
100
AcDbEntity
  8
0
  6
CONTINUOUS
 62
     7
100
AcDbVertex
100
AcDb2dVertex
 10
8.0164163313
 20
7.8145794135
 30
0.0
  0
VERTEX
  5
5AD
330
28B
100
AcDbEntity
  8
0
  6
CONTINUOUS
 62
     7
100
AcDbVertex
100
AcDb2dVertex
 10
8.0375203296
 20
7.8091848421
 30
0.0
  0
VERTEX
  5
5AE
330
28B
100
AcDbEntity
  8
0
  6
CONTINUOUS
 62
     7
100
AcDbVertex
100
AcDb2dVertex
 10
8.0578706624
 20
7.8022075824
 30
0.0
  0
VERTEX
  5
5AF
330
28B
100
AcDbEntity
  8
0
  6
CONTINUOUS
 62
     7
100
AcDbVertex
100
AcDb2dVertex
 10
8.0774205731
 20
7.7936636653
 30
0.0
  0
VERTEX
  5
5B0
330
28B
100
AcDbEntity
  8
0
  6
CONTINUOUS
 62
     7
100
AcDbVertex
100
AcDb2dVertex
 10
8.0933216767
 20
7.7852149409
 30
0.0
  0
SEQEND
  5
5B1
330
28B
100
AcDbEntity
  8
0
  6
CONTINUOUS
 62
     7
  0
POLYLINE
  5
28C
330
1F
100
AcDbEntity
  8
0
  6
CONTINUOUS
 62
     7
100
AcDb2dPolyline
 66
     1
 10
0.0
 20
0.0
 30
0.0
  0
VERTEX
  5
5B2
330
28C
100
AcDbEntity
  8
0
  6
CONTINUOUS
 62
     7
100
AcDbVertex
100
AcDb2dVertex
 10
7.3256675316
 20
6.4554548766
 30
0.0
  0
VERTEX
  5
5B3
330
28C
100
AcDbEntity
  8
0
  6
CONTINUOUS
 62
     7
100
AcDbVertex
100
AcDb2dVertex
 10
7.3144654245
 20
6.4623106452
 30
0.0
  0
VERTEX
  5
5B4
330
28C
100
AcDbEntity
  8
0
  6
CONTINUOUS
 62
     7
100
AcDbVertex
100
AcDb2dVertex
 10
7.2970763594
 20
6.4746252274
 30
0.0
  0
VERTEX
  5
5B5
330
28C
100
AcDbEntity
  8
0
  6
CONTINUOUS
 62
     7
100
AcDbVertex
100
AcDb2dVertex
 10
7.2806348584
 20
6.4884233795
 30
0.0
  0
VERTEX
  5
5B6
330
28C
100
AcDbEntity
  8
0
  6
CONTINUOUS
 62
     7
100
AcDbVertex
100
AcDb2dVertex
 10
7.2651786972
 20
6.5036733993
 30
0.0
  0
VERTEX
  5
5B7
330
28C
100
AcDbEntity
  8
0
  6
CONTINUOUS
 62
     7
100
AcDbVertex
100
AcDb2dVertex
 10
7.2507433877
 20
6.5203402486
 30
0.0
  0
VERTEX
  5
5B8
330
28C
100
AcDbEntity
  8
0
  6
CONTINUOUS
 62
     7
100
AcDbVertex
100
AcDb2dVertex
 10
7.237362096
 20
6.5383856339
 30
0.0
  0
VERTEX
  5
5B9
330
28C
100
AcDbEntity
  8
0
  6
CONTINUOUS
 62
     7
100
AcDbVertex
100
AcDb2dVertex
 10
7.2250655667
 20
6.5577680946
 30
0.0
  0
VERTEX
  5
5BA
330
28C
100
AcDbEntity
  8
0
  6
CONTINUOUS
 62
     7
100
AcDbVertex
100
AcDb2dVertex
 10
7.2138820522
 20
6.5784430979
 30
0.0
  0
VERTEX
  5
5BB
330
28C
100
AcDbEntity
  8
0
  6
CONTINUOUS
 62
     7
100
AcDbVertex
100
AcDb2dVertex
 10
7.2038372475
 20
6.6003631413
 30
0.0
  0
VERTEX
  5
5BC
330
28C
100
AcDbEntity
  8
0
  6
CONTINUOUS
 62
     7
100
AcDbVertex
100
AcDb2dVertex
 10
7.1949542313
 20
6.6234778616
 30
0.0
  0
VERTEX
  5
5BD
330
28C
100
AcDbEntity
  8
0
  6
CONTINUOUS
 62
     7
100
AcDbVertex
100
AcDb2dVertex
 10
7.187253413
 20
6.6477341511
 30
0.0
  0
VERTEX
  5
5BE
330
28C
100
AcDbEntity
  8
0
  6
CONTINUOUS
 62
     7
100
AcDbVertex
100
AcDb2dVertex
 10
7.180752486
 20
6.6730762789
 30
0.0
  0
VERTEX
  5
5BF
330
28C
100
AcDbEntity
  8
0
  6
CONTINUOUS
 62
     7
100
AcDbVertex
100
AcDb2dVertex
 10
7.1754663866
 20
6.6994460194
 30
0.0
  0
VERTEX
  5
5C0
330
28C
100
AcDbEntity
  8
0
  6
CONTINUOUS
 62
     7
100
AcDbVertex
100
AcDb2dVertex
 10
7.17140726
 20
6.7267827861
 30
0.0
  0
VERTEX
  5
5C1
330
28C
100
AcDbEntity
  8
0
  6
CONTINUOUS
 62
     7
100
AcDbVertex
100
AcDb2dVertex
 10
7.1685844324
 20
6.7550237704
 30
0.0
  0
VERTEX
  5
5C2
330
28C
100
AcDbEntity
  8
0
  6
CONTINUOUS
 62
     7
100
AcDbVertex
100
AcDb2dVertex
 10
7.1670043895
 20
6.7841040865
 30
0.0
  0
VERTEX
  5
5C3
330
28C
100
AcDbEntity
  8
0
  6
CONTINUOUS
 62
     7
100
AcDbVertex
100
AcDb2dVertex
 10
7.1666707616
 20
6.8139569201
 30
0.0
  0
VERTEX
  5
5C4
330
28C
100
AcDbEntity
  8
0
  6
CONTINUOUS
 62
     7
100
AcDbVertex
100
AcDb2dVertex
 10
7.1675843152
 20
6.8445136817
 30
0.0
  0
VERTEX
  5
5C5
330
28C
100
AcDbEntity
  8
0
  6
CONTINUOUS
 62
     7
100
AcDbVertex
100
AcDb2dVertex
 10
7.1697429514
 20
6.8757041648
 30
0.0
  0
VERTEX
  5
5C6
330
28C
100
AcDbEntity
  8
0
  6
CONTINUOUS
 62
     7
100
AcDbVertex
100
AcDb2dVertex
 10
7.1731417104
 20
6.9074567068
 30
0.0
  0
VERTEX
  5
5C7
330
28C
100
AcDbEntity
  8
0
  6
CONTINUOUS
 62
     7
100
AcDbVertex
100
AcDb2dVertex
 10
7.1777727834
 20
6.9396983536
 30
0.0
  0
VERTEX
  5
5C8
330
28C
100
AcDbEntity
  8
0
  6
CONTINUOUS
 62
     7
100
AcDbVertex
100
AcDb2dVertex
 10
7.1836255302
 20
6.9723550274
 30
0.0
  0
VERTEX
  5
5C9
330
28C
100
AcDbEntity
  8
0
  6
CONTINUOUS
 62
     7
100
AcDbVertex
100
AcDb2dVertex
 10
7.1906865035
 20
7.0053516969
 30
0.0
  0
VERTEX
  5
5CA
330
28C
100
AcDbEntity
  8
0
  6
CONTINUOUS
 62
     7
100
AcDbVertex
100
AcDb2dVertex
 10
7.1989394802
 20
7.0386125496
 30
0.0
  0
VERTEX
  5
5CB
330
28C
100
AcDbEntity
  8
0
  6
CONTINUOUS
 62
     7
100
AcDbVertex
100
AcDb2dVertex
 10
7.2083654985
 20
7.072061166
 30
0.0
  0
VERTEX
  5
5CC
330
28C
100
AcDbEntity
  8
0
  6
CONTINUOUS
 62
     7
100
AcDbVertex
100
AcDb2dVertex
 10
7.2189429012
 20
7.1056206952
 30
0.0
  0
VERTEX
  5
5CD
330
28C
100
AcDbEntity
  8
0
  6
CONTINUOUS
 62
     7
100
AcDbVertex
100
AcDb2dVertex
 10
7.230647386
 20
7.1392140316
 30
0.0
  0
VERTEX
  5
5CE
330
28C
100
AcDbEntity
  8
0
  6
CONTINUOUS
 62
     7
100
AcDbVertex
100
AcDb2dVertex
 10
7.2434520608
 20
7.1727639916
 30
0.0
  0
VERTEX
  5
5CF
330
28C
100
AcDbEntity
  8
0
  6
CONTINUOUS
 62
     7
100
AcDbVertex
100
AcDb2dVertex
 10
7.257327506
 20
7.2061934915
 30
0.0
  0
VERTEX
  5
5D0
330
28C
100
AcDbEntity
  8
0
  6
CONTINUOUS
 62
     7
100
AcDbVertex
100
AcDb2dVertex
 10
7.2722418414
 20
7.2394257245
 30
0.0
  0
VERTEX
  5
5D1
330
28C
100
AcDbEntity
  8
0
  6
CONTINUOUS
 62
     7
100
AcDbVertex
100
AcDb2dVertex
 10
7.2881608003
 20
7.2723843367
 30
0.0
  0
VERTEX
  5
5D2
330
28C
100
AcDbEntity
  8
0
  6
CONTINUOUS
 62
     7
100
AcDbVertex
100
AcDb2dVertex
 10
7.3050478076
 20
7.3049936031
 30
0.0
  0
VERTEX
  5
5D3
330
28C
100
AcDbEntity
  8
0
  6
CONTINUOUS
 62
     7
100
AcDbVertex
100
AcDb2dVertex
 10
7.322864064
 20
7.3371786013
 30
0.0
  0
VERTEX
  5
5D4
330
28C
100
AcDbEntity
  8
0
  6
CONTINUOUS
 62
     7
100
AcDbVertex
100
AcDb2dVertex
 10
7.3415686351
 20
7.3688653836
 30
0.0
  0
VERTEX
  5
5D5
330
28C
100
AcDbEntity
  8
0
  6
CONTINUOUS
 62
     7
100
AcDbVertex
100
AcDb2dVertex
 10
7.3611185459
 20
7.3999811472
 30
0.0
  0
VERTEX
  5
5D6
330
28C
100
AcDbEntity
  8
0
  6
CONTINUOUS
 62
     7
100
AcDbVertex
100
AcDb2dVertex
 10
7.3814688787
 20
7.430454401
 30
0.0
  0
VERTEX
  5
5D7
330
28C
100
AcDbEntity
  8
0
  6
CONTINUOUS
 62
     7
100
AcDbVertex
100
AcDb2dVertex
 10
7.402572877
 20
7.4602151302
 30
0.0
  0
VERTEX
  5
5D8
330
28C
100
AcDbEntity
  8
0
  6
CONTINUOUS
 62
     7
100
AcDbVertex
100
AcDb2dVertex
 10
7.4243820527
 20
7.4891949573
 30
0.0
  0
VERTEX
  5
5D9
330
28C
100
AcDbEntity
  8
0
  6
CONTINUOUS
 62
     7
100
AcDbVertex
100
AcDb2dVertex
 10
7.4468462975
 20
7.5173272987
 30
0.0
  0
VERTEX
  5
5DA
330
28C
100
AcDbEntity
  8
0
  6
CONTINUOUS
 62
     7
100
AcDbVertex
100
AcDb2dVertex
 10
7.4699139979
 20
7.5445475181
 30
0.0
  0
VERTEX
  5
5DB
330
28C
100
AcDbEntity
  8
0
  6
CONTINUOUS
 62
     7
100
AcDbVertex
100
AcDb2dVertex
 10
7.493532154
 20
7.5707930749
 30
0.0
  0
VERTEX
  5
5DC
330
28C
100
AcDbEntity
  8
0
  6
CONTINUOUS
 62
     7
100
AcDbVertex
100
AcDb2dVertex
 10
7.5176465013
 20
7.5960036677
 30
0.0
  0
VERTEX
  5
5DD
330
28C
100
AcDbEntity
  8
0
  6
CONTINUOUS
 62
     7
100
AcDbVertex
100
AcDb2dVertex
 10
7.5422016351
 20
7.6201213732
 30
0.0
  0
VERTEX
  5
5DE
330
28C
100
AcDbEntity
  8
0
  6
CONTINUOUS
 62
     7
100
AcDbVertex
100
AcDb2dVertex
 10
7.5671411379
 20
7.6430907791
 30
0.0
  0
VERTEX
  5
5DF
330
28C
100
AcDbEntity
  8
0
  6
CONTINUOUS
 62
     7
100
AcDbVertex
100
AcDb2dVertex
 10
7.5924077093
 20
7.6648591113
 30
0.0
  0
VERTEX
  5
5E0
330
28C
100
AcDbEntity
  8
0
  6
CONTINUOUS
 62
     7
100
AcDbVertex
100
AcDb2dVertex
 10
7.6179432972
 20
7.6853763552
 30
0.0
  0
VERTEX
  5
5E1
330
28C
100
AcDbEntity
  8
0
  6
CONTINUOUS
 62
     7
100
AcDbVertex
100
AcDb2dVertex
 10
7.6436892317
 20
7.7045953709
 30
0.0
  0
VERTEX
  5
5E2
330
28C
100
AcDbEntity
  8
0
  6
CONTINUOUS
 62
     7
100
AcDbVertex
100
AcDb2dVertex
 10
7.6695863593
 20
7.7224720011
 30
0.0
  0
VERTEX
  5
5E3
330
28C
100
AcDbEntity
  8
0
  6
CONTINUOUS
 62
     7
100
AcDbVertex
100
AcDb2dVertex
 10
7.6955751793
 20
7.7389651729
 30
0.0
  0
SEQEND
  5
5E4
330
28C
100
AcDbEntity
  8
0
  6
CONTINUOUS
 62
     7
  0
LINE
  5
28D
330
1F
100
AcDbEntity
  8
0
  6
CONTINUOUS
 62
     7
100
AcDbLine
 10
7.6955751793
 20
7.7389651729
 30
0.0
 11
7.9414850179
 21
7.5970044447
 31
0.0
  0
POLYLINE
  5
28E
330
1F
100
AcDbEntity
  8
0
  6
CONTINUOUS
 62
     7
100
AcDb2dPolyline
 66
     1
 10
0.0
 20
0.0
 30
0.0
  0
VERTEX
  5
5E5
330
28E
100
AcDbEntity
  8
0
  6
CONTINUOUS
 62
     7
100
AcDbVertex
100
AcDb2dVertex
 10
7.9414850179
 20
7.5970044447
 30
0.0
  0
VERTEX
  5
5E6
330
28E
100
AcDbEntity
  8
0
  6
CONTINUOUS
 62
     7
100
AcDbVertex
100
AcDb2dVertex
 10
7.9156258707
 20
7.5805971516
 30
0.0
  0
VERTEX
  5
5E7
330
28E
100
AcDbEntity
  8
0
  6
CONTINUOUS
 62
     7
100
AcDbVertex
100
AcDb2dVertex
 10
7.8898572072
 20
7.5628199922
 30
0.0
  0
VERTEX
  5
5E8
330
28E
100
AcDbEntity
  8
0
  6
CONTINUOUS
 62
     7
100
AcDbVertex
100
AcDb2dVertex
 10
7.8642376428
 20
7.5437134039
 30
0.0
  0
VERTEX
  5
5E9
330
28E
100
AcDbEntity
  8
0
  6
CONTINUOUS
 62
     7
100
AcDbVertex
100
AcDb2dVertex
 10
7.838825454
 20
7.5233208482
 30
0.0
  0
VERTEX
  5
5EA
330
28E
100
AcDbEntity
  8
0
  6
CONTINUOUS
 62
     7
100
AcDbVertex
100
AcDb2dVertex
 10
7.8136784454
 20
7.5016887116
 30
0.0
  0
VERTEX
  5
5EB
330
28E
100
AcDbEntity
  8
0
  6
CONTINUOUS
 62
     7
100
AcDbVertex
100
AcDb2dVertex
 10
7.7888538186
 20
7.4788662003
 30
0.0
  0
VERTEX
  5
5EC
330
28E
100
AcDbEntity
  8
0
  6
CONTINUOUS
 62
     7
100
AcDbVertex
100
AcDb2dVertex
 10
7.7644080416
 20
7.4549052285
 30
0.0
  0
VERTEX
  5
5ED
330
28E
100
AcDbEntity
  8
0
  6
CONTINUOUS
 62
     7
100
AcDbVertex
100
AcDb2dVertex
 10
7.7403967208
 20
7.4298602996
 30
0.0
  0
VERTEX
  5
5EE
330
28E
100
AcDbEntity
  8
0
  6
CONTINUOUS
 62
     7
100
AcDbVertex
100
AcDb2dVertex
 10
7.7168744744
 20
7.4037883829
 30
0.0
  0
VERTEX
  5
5EF
330
28E
100
AcDbEntity
  8
0
  6
CONTINUOUS
 62
     7
100
AcDbVertex
100
AcDb2dVertex
 10
7.6938948081
 20
7.3767487839
 30
0.0
  0
VERTEX
  5
5F0
330
28E
100
AcDbEntity
  8
0
  6
CONTINUOUS
 62
     7
100
AcDbVertex
100
AcDb2dVertex
 10
7.6715099932
 20
7.3488030089
 30
0.0
  0
VERTEX
  5
5F1
330
28E
100
AcDbEntity
  8
0
  6
CONTINUOUS
 62
     7
100
AcDbVertex
100
AcDb2dVertex
 10
7.6497709482
 20
7.3200146259
 30
0.0
  0
VERTEX
  5
5F2
330
28E
100
AcDbEntity
  8
0
  6
CONTINUOUS
 62
     7
100
AcDbVertex
100
AcDb2dVertex
 10
7.6287271225
 20
7.2904491191
 30
0.0
  0
VERTEX
  5
5F3
330
28E
100
AcDbEntity
  8
0
  6
CONTINUOUS
 62
     7
100
AcDbVertex
100
AcDb2dVertex
 10
7.6084263841
 20
7.2601737408
 30
0.0
  0
VERTEX
  5
5F4
330
28E
100
AcDbEntity
  8
0
  6
CONTINUOUS
 62
     7
100
AcDbVertex
100
AcDb2dVertex
 10
7.5889149107
 20
7.2292573579
 30
0.0
  0
VERTEX
  5
5F5
330
28E
100
AcDbEntity
  8
0
  6
CONTINUOUS
 62
     7
100
AcDbVertex
100
AcDb2dVertex
 10
7.5702370849
 20
7.1977702953
 30
0.0
  0
VERTEX
  5
5F6
330
28E
100
AcDbEntity
  8
0
  6
CONTINUOUS
 62
     7
100
AcDbVertex
100
AcDb2dVertex
 10
7.5524353926
 20
7.1657841762
 30
0.0
  0
VERTEX
  5
5F7
330
28E
100
AcDbEntity
  8
0
  6
CONTINUOUS
 62
     7
100
AcDbVertex
100
AcDb2dVertex
 10
7.5355503271
 20
7.1333717587
 30
0.0
  0
VERTEX
  5
5F8
330
28E
100
AcDbEntity
  8
0
  6
CONTINUOUS
 62
     7
100
AcDbVertex
100
AcDb2dVertex
 10
7.5196202966
 20
7.1006067709
 30
0.0
  0
VERTEX
  5
5F9
330
28E
100
AcDbEntity
  8
0
  6
CONTINUOUS
 62
     7
100
AcDbVertex
100
AcDb2dVertex
 10
7.5046815369
 20
7.0675637426
 30
0.0
  0
VERTEX
  5
5FA
330
28E
100
AcDbEntity
  8
0
  6
CONTINUOUS
 62
     7
100
AcDbVertex
100
AcDb2dVertex
 10
7.4907680288
 20
7.0343178365
 30
0.0
  0
VERTEX
  5
5FB
330
28E
100
AcDbEntity
  8
0
  6
CONTINUOUS
 62
     7
100
AcDbVertex
100
AcDb2dVertex
 10
7.4779114213
 20
7.0009446762
 30
0.0
  0
VERTEX
  5
5FC
330
28E
100
AcDbEntity
  8
0
  6
CONTINUOUS
 62
     7
100
AcDbVertex
100
AcDb2dVertex
 10
7.4661409589
 20
6.9675201752
 30
0.0
  0
VERTEX
  5
5FD
330
28E
100
AcDbEntity
  8
0
  6
CONTINUOUS
 62
     7
100
AcDbVertex
100
AcDb2dVertex
 10
7.4554834158
 20
6.9341203637
 30
0.0
  0
VERTEX
  5
5FE
330
28E
100
AcDbEntity
  8
0
  6
CONTINUOUS
 62
     7
100
AcDbVertex
100
AcDb2dVertex
 10
7.4459630346
 20
6.9008212155
 30
0.0
  0
VERTEX
  5
5FF
330
28E
100
AcDbEntity
  8
0
  6
CONTINUOUS
 62
     7
100
AcDbVertex
100
AcDb2dVertex
 10
7.437601471
 20
6.8676984758
 30
0.0
  0
VERTEX
  5
600
330
28E
100
AcDbEntity
  8
0
  6
CONTINUOUS
 62
     7
100
AcDbVertex
100
AcDb2dVertex
 10
7.4304177449
 20
6.8348274881
 30
0.0
  0
VERTEX
  5
601
330
28E
100
AcDbEntity
  8
0
  6
CONTINUOUS
 62
     7
100
AcDbVertex
100
AcDb2dVertex
 10
7.4244281971
 20
6.8022830237
 30
0.0
  0
VERTEX
  5
602
330
28E
100
AcDbEntity
  8
0
  6
CONTINUOUS
 62
     7
100
AcDbVertex
100
AcDb2dVertex
 10
7.4196464519
 20
6.7701391109
 30
0.0
  0
VERTEX
  5
603
330
28E
100
AcDbEntity
  8
0
  6
CONTINUOUS
 62
     7
100
AcDbVertex
100
AcDb2dVertex
 10
7.4160833863
 20
6.7384688667
 30
0.0
  0
VERTEX
  5
604
330
28E
100
AcDbEntity
  8
0
  6
CONTINUOUS
 62
     7
100
AcDbVertex
100
AcDb2dVertex
 10
7.413747105
 20
6.7073443311
 30
0.0
  0
VERTEX
  5
605
330
28E
100
AcDbEntity
  8
0
  6
CONTINUOUS
 62
     7
100
AcDbVertex
100
AcDb2dVertex
 10
7.4126429224
 20
6.6768363025
 30
0.0
  0
VERTEX
  5
606
330
28E
100
AcDbEntity
  8
0
  6
CONTINUOUS
 62
     7
100
AcDbVertex
100
AcDb2dVertex
 10
7.4127733502
 20
6.6470141769
 30
0.0
  0
VERTEX
  5
607
330
28E
100
AcDbEntity
  8
0
  6
CONTINUOUS
 62
     7
100
AcDbVertex
100
AcDb2dVertex
 10
7.4141380916
 20
6.6179457903
 30
0.0
  0
VERTEX
  5
608
330
28E
100
AcDbEntity
  8
0
  6
CONTINUOUS
 62
     7
100
AcDbVertex
100
AcDb2dVertex
 10
7.4167340423
 20
6.5896972639
 30
0.0
  0
VERTEX
  5
609
330
28E
100
AcDbEntity
  8
0
  6
CONTINUOUS
 62
     7
100
AcDbVertex
100
AcDb2dVertex
 10
7.4205552974
 20
6.5623328543
 30
0.0
  0
VERTEX
  5
60A
330
28E
100
AcDbEntity
  8
0
  6
CONTINUOUS
 62
     7
100
AcDbVertex
100
AcDb2dVertex
 10
7.4255931647
 20
6.5359148067
 30
0.0
  0
VERTEX
  5
60B
330
28E
100
AcDbEntity
  8
0
  6
CONTINUOUS
 62
     7
100
AcDbVertex
100
AcDb2dVertex
 10
7.4318361846
 20
6.510503214
 30
0.0
  0
VERTEX
  5
60C
330
28E
100
AcDbEntity
  8
0
  6
CONTINUOUS
 62
     7
100
AcDbVertex
100
AcDb2dVertex
 10
7.4392701563
 20
6.4861558793
 30
0.0
  0
VERTEX
  5
60D
330
28E
100
AcDbEntity
  8
0
  6
CONTINUOUS
 62
     7
100
AcDbVertex
100
AcDb2dVertex
 10
7.4478781699
 20
6.4629281852
 30
0.0
  0
VERTEX
  5
60E
330
28E
100
AcDbEntity
  8
0
  6
CONTINUOUS
 62
     7
100
AcDbVertex
100
AcDb2dVertex
 10
7.4576406447
 20
6.4408729672
 30
0.0
  0
VERTEX
  5
60F
330
28E
100
AcDbEntity
  8
0
  6
CONTINUOUS
 62
     7
100
AcDbVertex
100
AcDb2dVertex
 10
7.4685353744
 20
6.4200403941
 30
0.0
  0
SEQEND
  5
610
330
28E
100
AcDbEntity
  8
0
  6
CONTINUOUS
 62
     7
  0
LINE
  5
28F
330
1F
100
AcDbEntity
  8
0
  6
CONTINUOUS
 62
     7
100
AcDbLine
 10
7.4685353744
 20
6.4200403941
 30
0.0
 11
7.5056538406
 21
6.3986123597
 31
0.0
  0
LINE
  5
290
330
1F
100
AcDbEntity
  8
0
  6
CONTINUOUS
 62
     7
100
AcDbLine
 10
8.0734989169
 20
7.3683145379
 30
0.0
 11
8.0200576252
 21
7.2757515057
 31
0.0
  0
LINE
  5
291
330
1F
100
AcDbEntity
  8
0
  6
CONTINUOUS
 62
     7
100
AcDbLine
 10
7.7302481379
 20
6.7737867505
 30
0.0
 11
7.6767953094
 21
6.6812037361
 31
0.0
  0
LINE
  5
292
330
1F
100
AcDbEntity
  8
0
  6
CONTINUOUS
 62
     7
100
AcDbLine
 10
7.9414850179
 20
7.5515778052
 30
0.0
 11
7.9414850179
 21
7.5970044447
 31
0.0
  0
LINE
  5
293
330
1F
100
AcDbEntity
  8
0
  6
CONTINUOUS
 62
     7
100
AcDbLine
 10
7.9693238676
 20
7.5698528233
 30
0.0
 11
7.9693238676
 21
7.6130754706
 31
0.0
  0
LINE
  5
294
330
1F
100
AcDbEntity
  8
0
  6
CONTINUOUS
 62
     7
100
AcDbLine
 10
7.4685353744
 20
6.4200403941
 30
0.0
 11
7.4890486834
 21
6.4318824754
 31
0.0
  0
LINE
  5
295
330
1F
100
AcDbEntity
  8
0
  6
CONTINUOUS
 62
     7
100
AcDbLine
 10
7.723414029
 20
7.7550361987
 30
0.0
 11
7.7128074272
 21
7.7489070387
 31
0.0
  0
ARC
  5
296
330
1F
100
AcDbEntity
  8
0
  6
CONTINUOUS
 62
     7
100
AcDbCircle
 10
8.3264815775
 20
6.7650377101
 30
0.0
 40
1.161108299814134
100
AcDbArc
 50
123.538732366
 51
177.3265463166
  0
LINE
  5
297
330
1F
100
AcDbEntity
  8
0
  6
CONTINUOUS
 62
     7
100
AcDbLine
 10
7.6955751793
 20
7.7389651729
 30
0.0
 11
7.6849685776
 21
7.7328360129
 31
0.0
  0
POLYLINE
  5
298
330
1F
100
AcDbEntity
  8
0
  6
CONTINUOUS
 62
     7
100
AcDb2dPolyline
 66
     1
 10
0.0
 20
0.0
 30
0.0
  0
VERTEX
  5
611
330
298
100
AcDbEntity
  8
0
  6
CONTINUOUS
 62
     7
100
AcDbVertex
100
AcDb2dVertex
 10
7.6767953094
 20
6.6812037361
 30
0.0
  0
VERTEX
  5
612
330
298
100
AcDbEntity
  8
0
  6
CONTINUOUS
 62
     7
100
AcDbVertex
100
AcDb2dVertex
 10
7.6682648897
 20
6.6653390147
 30
0.0
  0
VERTEX
  5
613
330
298
100
AcDbEntity
  8
0
  6
CONTINUOUS
 62
     7
100
AcDbVertex
100
AcDb2dVertex
 10
7.6607715023
 20
6.6491032214
 30
0.0
  0
VERTEX
  5
614
330
298
100
AcDbEntity
  8
0
  6
CONTINUOUS
 62
     7
100
AcDbVertex
100
AcDb2dVertex
 10
7.6543972462
 20
6.6326742389
 30
0.0
  0
VERTEX
  5
615
330
298
100
AcDbEntity
  8
0
  6
CONTINUOUS
 62
     7
100
AcDbVertex
100
AcDb2dVertex
 10
7.6492119592
 20
6.6162320667
 30
0.0
  0
VERTEX
  5
616
330
298
100
AcDbEntity
  8
0
  6
CONTINUOUS
 62
     7
100
AcDbVertex
100
AcDb2dVertex
 10
7.6452724523
 20
6.5999568485
 30
0.0
  0
VERTEX
  5
617
330
298
100
AcDbEntity
  8
0
  6
CONTINUOUS
 62
     7
100
AcDbVertex
100
AcDb2dVertex
 10
7.6426218875
 20
6.5840268991
 30
0.0
  0
VERTEX
  5
618
330
298
100
AcDbEntity
  8
0
  6
CONTINUOUS
 62
     7
100
AcDbVertex
100
AcDb2dVertex
 10
7.6412893052
 20
6.5686167504
 30
0.0
  0
VERTEX
  5
619
330
298
100
AcDbEntity
  8
0
  6
CONTINUOUS
 62
     7
100
AcDbVertex
100
AcDb2dVertex
 10
7.6412893052
 20
6.5538952391
 30
0.0
  0
VERTEX
  5
61A
330
298
100
AcDbEntity
  8
0
  6
CONTINUOUS
 62
     7
100
AcDbVertex
100
AcDb2dVertex
 10
7.6426218875
 20
6.5400236572
 30
0.0
  0
VERTEX
  5
61B
330
298
100
AcDbEntity
  8
0
  6
CONTINUOUS
 62
     7
100
AcDbVertex
100
AcDb2dVertex
 10
7.6452724523
 20
6.5271539847
 30
0.0
  0
VERTEX
  5
61C
330
298
100
AcDbEntity
  8
0
  6
CONTINUOUS
 62
     7
100
AcDbVertex
100
AcDb2dVertex
 10
7.6492119592
 20
6.5154272244
 30
0.0
  0
VERTEX
  5
61D
330
298
100
AcDbEntity
  8
0
  6
CONTINUOUS
 62
     7
100
AcDbVertex
100
AcDb2dVertex
 10
7.6543972462
 20
6.5049718571
 30
0.0
  0
VERTEX
  5
61E
330
298
100
AcDbEntity
  8
0
  6
CONTINUOUS
 62
     7
100
AcDbVertex
100
AcDb2dVertex
 10
7.6607715023
 20
6.495902434
 30
0.0
  0
VERTEX
  5
61F
330
298
100
AcDbEntity
  8
0
  6
CONTINUOUS
 62
     7
100
AcDbVertex
100
AcDb2dVertex
 10
7.6682648897
 20
6.4883183217
 30
0.0
  0
VERTEX
  5
620
330
298
100
AcDbEntity
  8
0
  6
CONTINUOUS
 62
     7
100
AcDbVertex
100
AcDb2dVertex
 10
7.6767953094
 20
6.4823026132
 30
0.0
  0
SEQEND
  5
621
330
298
100
AcDbEntity
  8
0
  6
CONTINUOUS
 62
     7
  0
LINE
  5
299
330
1F
100
AcDbEntity
  8
0
  6
CONTINUOUS
 62
     7
100
AcDbLine
 10
8.2573494636
 20
7.4610486749
 30
0.0
 11
8.2457430114
 21
7.4677489371
 31
0.0
  0
POLYLINE
  5
29A
330
1F
100
AcDbEntity
  8
0
  6
CONTINUOUS
 62
     7
100
AcDb2dPolyline
 66
     1
 10
0.0
 20
0.0
 30
0.0
  0
VERTEX
  5
622
330
29A
100
AcDbEntity
  8
0
  6
CONTINUOUS
 62
     7
100
AcDbVertex
100
AcDb2dVertex
 10
8.2457430114
 20
7.4677489371
 30
0.0
  0
VERTEX
  5
623
330
29A
100
AcDbEntity
  8
0
  6
CONTINUOUS
 62
     7
100
AcDbVertex
100
AcDb2dVertex
 10
8.2362690206
 20
7.4721303324
 30
0.0
  0
VERTEX
  5
624
330
29A
100
AcDbEntity
  8
0
  6
CONTINUOUS
 62
     7
100
AcDbVertex
100
AcDb2dVertex
 10
8.2259552576
 20
7.474829411
 30
0.0
  0
VERTEX
  5
625
330
29A
100
AcDbEntity
  8
0
  6
CONTINUOUS
 62
     7
100
AcDbVertex
100
AcDb2dVertex
 10
8.2149147222
 20
7.4758166012
 30
0.0
  0
VERTEX
  5
626
330
29A
100
AcDbEntity
  8
0
  6
CONTINUOUS
 62
     7
100
AcDbVertex
100
AcDb2dVertex
 10
8.2032683768
 20
7.4750810872
 30
0.0
  0
VERTEX
  5
627
330
29A
100
AcDbEntity
  8
0
  6
CONTINUOUS
 62
     7
100
AcDbVertex
100
AcDb2dVertex
 10
8.1911438213
 20
7.4726309275
 30
0.0
  0
VERTEX
  5
628
330
29A
100
AcDbEntity
  8
0
  6
CONTINUOUS
 62
     7
100
AcDbVertex
100
AcDb2dVertex
 10
8.1786738947
 20
7.4684929664
 30
0.0
  0
VERTEX
  5
629
330
29A
100
AcDbEntity
  8
0
  6
CONTINUOUS
 62
     7
100
AcDbVertex
100
AcDb2dVertex
 10
8.1659952202
 20
7.4627125404
 30
0.0
  0
VERTEX
  5
62A
330
29A
100
AcDbEntity
  8
0
  6
CONTINUOUS
 62
     7
100
AcDbVertex
100
AcDb2dVertex
 10
8.1532467081
 20
7.455352981
 30
0.0
  0
VERTEX
  5
62B
330
29A
100
AcDbEntity
  8
0
  6
CONTINUOUS
 62
     7
100
AcDbVertex
100
AcDb2dVertex
 10
8.1405680336
 20
7.446494921
 30
0.0
  0
VERTEX
  5
62C
330
29A
100
AcDbEntity
  8
0
  6
CONTINUOUS
 62
     7
100
AcDbVertex
100
AcDb2dVertex
 10
8.1280981071
 20
7.4362354113
 30
0.0
  0
VERTEX
  5
62D
330
29A
100
AcDbEntity
  8
0
  6
CONTINUOUS
 62
     7
100
AcDbVertex
100
AcDb2dVertex
 10
8.1159735515
 20
7.4246868572
 30
0.0
  0
VERTEX
  5
62E
330
29A
100
AcDbEntity
  8
0
  6
CONTINUOUS
 62
     7
100
AcDbVertex
100
AcDb2dVertex
 10
8.1043272061
 20
7.4119757871
 30
0.0
  0
VERTEX
  5
62F
330
29A
100
AcDbEntity
  8
0
  6
CONTINUOUS
 62
     7
100
AcDbVertex
100
AcDb2dVertex
 10
8.0932866708
 20
7.398241466
 30
0.0
  0
VERTEX
  5
630
330
29A
100
AcDbEntity
  8
0
  6
CONTINUOUS
 62
     7
100
AcDbVertex
100
AcDb2dVertex
 10
8.0829729078
 20
7.3836343702
 30
0.0
  0
VERTEX
  5
631
330
29A
100
AcDbEntity
  8
0
  6
CONTINUOUS
 62
     7
100
AcDbVertex
100
AcDb2dVertex
 10
8.0734989169
 20
7.3683145379
 30
0.0
  0
SEQEND
  5
632
330
29A
100
AcDbEntity
  8
0
  6
CONTINUOUS
 62
     7
  0
LINE
  5
29B
330
1F
100
AcDbEntity
  8
0
  6
CONTINUOUS
 62
     7
100
AcDbLine
 10
7.6767953094
 20
6.4823026132
 30
0.0
 11
7.6884125117
 21
6.4755939649
 31
0.0
  0
LINE
  5
29C
330
1F
100
AcDbEntity
  8
0
  6
CONTINUOUS
 62
     7
100
AcDbLine
 10
7.7128074272
 20
7.7489070387
 30
0.0
 11
7.7128074272
 21
7.7290172079
 31
0.0
  0
ARC
  5
29D
330
1F
100
AcDbEntity
  8
0
  6
CONTINUOUS
 62
     8
100
AcDbCircle
 10
8.186222348
 20
7.0184284833
 30
0.0
 40
0.1846192387204383
100
AcDbArc
 50
242.9022401115
 51
291.878923027
  0
POLYLINE
  5
29E
330
1F
100
AcDbEntity
  8
0
  6
CONTINUOUS
 62
     8
100
AcDb2dPolyline
 66
     1
 10
0.0
 20
0.0
 30
0.0
  0
VERTEX
  5
633
330
29E
100
AcDbEntity
  8
0
  6
CONTINUOUS
 62
     8
100
AcDbVertex
100
AcDb2dVertex
 10
8.3016742449
 20
6.9150244943
 30
0.0
  0
VERTEX
  5
634
330
29E
100
AcDbEntity
  8
0
  6
CONTINUOUS
 62
     8
100
AcDbVertex
100
AcDb2dVertex
 10
8.3006159673
 20
6.9178985324
 30
0.0
  0
VERTEX
  5
635
330
29E
100
AcDbEntity
  8
0
  6
CONTINUOUS
 62
     8
100
AcDbVertex
100
AcDb2dVertex
 10
8.2964214587
 20
6.9259366144
 30
0.0
  0
VERTEX
  5
636
330
29E
100
AcDbEntity
  8
0
  6
CONTINUOUS
 62
     8
100
AcDbVertex
100
AcDb2dVertex
 10
8.2905476611
 20
6.9336162055
 30
0.0
  0
VERTEX
  5
637
330
29E
100
AcDbEntity
  8
0
  6
CONTINUOUS
 62
     8
100
AcDbVertex
100
AcDb2dVertex
 10
8.2830836153
 20
6.9408208909
 30
0.0
  0
VERTEX
  5
638
330
29E
100
AcDbEntity
  8
0
  6
CONTINUOUS
 62
     8
100
AcDbVertex
100
AcDb2dVertex
 10
8.2741424687
 20
6.9474414548
 30
0.0
  0
VERTEX
  5
639
330
29E
100
AcDbEntity
  8
0
  6
CONTINUOUS
 62
     8
100
AcDbVertex
100
AcDb2dVertex
 10
8.2638597598
 20
6.9533775363
 30
0.0
  0
VERTEX
  5
63A
330
29E
100
AcDbEntity
  8
0
  6
CONTINUOUS
 62
     8
100
AcDbVertex
100
AcDb2dVertex
 10
8.2523913641
 20
6.9585391503
 30
0.0
  0
VERTEX
  5
63B
330
29E
100
AcDbEntity
  8
0
  6
CONTINUOUS
 62
     8
100
AcDbVertex
100
AcDb2dVertex
 10
8.2399111308
 20
6.9628480523
 30
0.0
  0
VERTEX
  5
63C
330
29E
100
AcDbEntity
  8
0
  6
CONTINUOUS
 62
     8
100
AcDbVertex
100
AcDb2dVertex
 10
8.2266082475
 20
6.9662389234
 30
0.0
  0
VERTEX
  5
63D
330
29E
100
AcDbEntity
  8
0
  6
CONTINUOUS
 62
     8
100
AcDbVertex
100
AcDb2dVertex
 10
8.2126843723
 20
6.9686603617
 30
0.0
  0
VERTEX
  5
63E
330
29E
100
AcDbEntity
  8
0
  6
CONTINUOUS
 62
     8
100
AcDbVertex
100
AcDb2dVertex
 10
8.1983505769
 20
6.9700756605
 30
0.0
  0
VERTEX
  5
63F
330
29E
100
AcDbEntity
  8
0
  6
CONTINUOUS
 62
     8
100
AcDbVertex
100
AcDb2dVertex
 10
8.1838241472
 20
6.9704633654
 30
0.0
  0
VERTEX
  5
640
330
29E
100
AcDbEntity
  8
0
  6
CONTINUOUS
 62
     8
100
AcDbVertex
100
AcDb2dVertex
 10
8.169325289
 20
6.9698175992
 30
0.0
  0
VERTEX
  5
641
330
29E
100
AcDbEntity
  8
0
  6
CONTINUOUS
 62
     8
100
AcDbVertex
100
AcDb2dVertex
 10
8.1550737902
 20
6.968148151
 30
0.0
  0
VERTEX
  5
642
330
29E
100
AcDbEntity
  8
0
  6
CONTINUOUS
 62
     8
100
AcDbVertex
100
AcDb2dVertex
 10
8.1412856889
 20
6.965480328
 30
0.0
  0
VERTEX
  5
643
330
29E
100
AcDbEntity
  8
0
  6
CONTINUOUS
 62
     8
100
AcDbVertex
100
AcDb2dVertex
 10
8.1281699988
 20
6.9618545716
 30
0.0
  0
VERTEX
  5
644
330
29E
100
AcDbEntity
  8
0
  6
CONTINUOUS
 62
     8
100
AcDbVertex
100
AcDb2dVertex
 10
8.1159255403
 20
6.9573258446
 30
0.0
  0
VERTEX
  5
645
330
29E
100
AcDbEntity
  8
0
  6
CONTINUOUS
 62
     8
100
AcDbVertex
100
AcDb2dVertex
 10
8.104737927
 20
6.9519627979
 30
0.0
  0
VERTEX
  5
646
330
29E
100
AcDbEntity
  8
0
  6
CONTINUOUS
 62
     8
100
AcDbVertex
100
AcDb2dVertex
 10
8.0947767517
 20
6.9458467298
 30
0.0
  0
VERTEX
  5
647
330
29E
100
AcDbEntity
  8
0
  6
CONTINUOUS
 62
     8
100
AcDbVertex
100
AcDb2dVertex
 10
8.0861930155
 20
6.9390703537
 30
0.0
  0
VERTEX
  5
648
330
29E
100
AcDbEntity
  8
0
  6
CONTINUOUS
 62
     8
100
AcDbVertex
100
AcDb2dVertex
 10
8.0791168393
 20
6.9317363925
 30
0.0
  0
VERTEX
  5
649
330
29E
100
AcDbEntity
  8
0
  6
CONTINUOUS
 62
     8
100
AcDbVertex
100
AcDb2dVertex
 10
8.0736554907
 20
6.9239560216
 30
0.0
  0
VERTEX
  5
64A
330
29E
100
AcDbEntity
  8
0
  6
CONTINUOUS
 62
     8
100
AcDbVertex
100
AcDb2dVertex
 10
8.069891758
 20
6.9158471835
 30
0.0
  0
VERTEX
  5
64B
330
29E
100
AcDbEntity
  8
0
  6
CONTINUOUS
 62
     8
100
AcDbVertex
100
AcDb2dVertex
 10
8.0678826957
 20
6.9075328
 30
0.0
  0
VERTEX
  5
64C
330
29E
100
AcDbEntity
  8
0
  6
CONTINUOUS
 62
     8
100
AcDbVertex
100
AcDb2dVertex
 10
8.0676587591
 20
6.8991389085
 30
0.0
  0
VERTEX
  5
64D
330
29E
100
AcDbEntity
  8
0
  6
CONTINUOUS
 62
     8
100
AcDbVertex
100
AcDb2dVertex
 10
8.0692233429
 20
6.8907927519
 30
0.0
  0
VERTEX
  5
64E
330
29E
100
AcDbEntity
  8
0
  6
CONTINUOUS
 62
     8
100
AcDbVertex
100
AcDb2dVertex
 10
8.0725527295
 20
6.8826208495
 30
0.0
  0
VERTEX
  5
64F
330
29E
100
AcDbEntity
  8
0
  6
CONTINUOUS
 62
     8
100
AcDbVertex
100
AcDb2dVertex
 10
8.0775964488
 20
6.874747079
 30
0.0
  0
VERTEX
  5
650
330
29E
100
AcDbEntity
  8
0
  6
CONTINUOUS
 62
     8
100
AcDbVertex
100
AcDb2dVertex
 10
8.0842780433
 20
6.8672907987
 30
0.0
  0
VERTEX
  5
651
330
29E
100
AcDbEntity
  8
0
  6
CONTINUOUS
 62
     8
100
AcDbVertex
100
AcDb2dVertex
 10
8.0924962267
 20
6.8603650382
 30
0.0
  0
VERTEX
  5
652
330
29E
100
AcDbEntity
  8
0
  6
CONTINUOUS
 62
     8
100
AcDbVertex
100
AcDb2dVertex
 10
8.1021264198
 20
6.8540747849
 30
0.0
  0
VERTEX
  5
653
330
29E
100
AcDbEntity
  8
0
  6
CONTINUOUS
 62
     8
100
AcDbVertex
100
AcDb2dVertex
 10
8.1021264198
 20
6.8540747849
 30
0.0
  0
SEQEND
  5
654
330
29E
100
AcDbEntity
  8
0
  6
CONTINUOUS
 62
     8
  0
ARC
  5
29F
330
1F
100
AcDbEntity
  8
0
  6
CONTINUOUS
 62
     8
100
AcDbCircle
 10
8.1150354638
 20
6.8917891868
 30
0.0
 40
0.0673937565188945
100
AcDbArc
 50
184.4912928649
 51
246.5414595442
  0
ARC
  5
2A0
330
1F
100
AcDbEntity
  8
0
  6
CONTINUOUS
 62
     8
100
AcDbCircle
 10
8.1850263134
 20
7.0159821736
 30
0.0
 40
0.2097048722396025
100
AcDbArc
 50
242.5035778029
 51
279.1170759915
  0
POLYLINE
  5
2A1
330
1F
100
AcDbEntity
  8
0
  6
CONTINUOUS
 62
     8
100
AcDb2dPolyline
 66
     1
 10
0.0
 20
0.0
 30
0.0
  0
VERTEX
  5
655
330
2A1
100
AcDbEntity
  8
0
  6
CONTINUOUS
 62
     8
100
AcDbVertex
100
AcDb2dVertex
 10
7.4679332245
 20
7.2131188337
 30
0.0
  0
VERTEX
  5
656
330
2A1
100
AcDbEntity
  8
0
  6
CONTINUOUS
 62
     8
100
AcDbVertex
100
AcDb2dVertex
 10
7.4655419235
 20
7.2154110519
 30
0.0
  0
VERTEX
  5
657
330
2A1
100
AcDbEntity
  8
0
  6
CONTINUOUS
 62
     8
100
AcDbVertex
100
AcDb2dVertex
 10
7.4589449573
 20
7.2227717
 30
0.0
  0
VERTEX
  5
658
330
2A1
100
AcDbEntity
  8
0
  6
CONTINUOUS
 62
     8
100
AcDbVertex
100
AcDb2dVertex
 10
7.4529823931
 20
7.2310349883
 30
0.0
  0
VERTEX
  5
659
330
2A1
100
AcDbEntity
  8
0
  6
CONTINUOUS
 62
     8
100
AcDbVertex
100
AcDb2dVertex
 10
7.4478354004
 20
7.2399498411
 30
0.0
  0
VERTEX
  5
65A
330
2A1
100
AcDbEntity
  8
0
  6
CONTINUOUS
 62
     8
100
AcDbVertex
100
AcDb2dVertex
 10
7.443660368
 20
7.2492453851
 30
0.0
  0
VERTEX
  5
65B
330
2A1
100
AcDbEntity
  8
0
  6
CONTINUOUS
 62
     8
100
AcDbVertex
100
AcDb2dVertex
 10
7.4405841521
 20
7.2586391798
 30
0.0
  0
VERTEX
  5
65C
330
2A1
100
AcDbEntity
  8
0
  6
CONTINUOUS
 62
     8
100
AcDbVertex
100
AcDb2dVertex
 10
7.438700222
 20
7.2678457996
 30
0.0
  0
VERTEX
  5
65D
330
2A1
100
AcDbEntity
  8
0
  6
CONTINUOUS
 62
     8
100
AcDbVertex
100
AcDb2dVertex
 10
7.43806582
 20
7.2765855059
 30
0.0
  0
VERTEX
  5
65E
330
2A1
100
AcDbEntity
  8
0
  6
CONTINUOUS
 62
     8
100
AcDbVertex
100
AcDb2dVertex
 10
7.438700222
 20
7.2845927473
 30
0.0
  0
VERTEX
  5
65F
330
2A1
100
AcDbEntity
  8
0
  6
CONTINUOUS
 62
     8
100
AcDbVertex
100
AcDb2dVertex
 10
7.4405841521
 20
7.2916242277
 30
0.0
  0
VERTEX
  5
660
330
2A1
100
AcDbEntity
  8
0
  6
CONTINUOUS
 62
     8
100
AcDbVertex
100
AcDb2dVertex
 10
7.443660368
 20
7.2974662992
 30
0.0
  0
VERTEX
  5
661
330
2A1
100
AcDbEntity
  8
0
  6
CONTINUOUS
 62
     8
100
AcDbVertex
100
AcDb2dVertex
 10
7.4469449456
 20
7.3011870538
 30
0.0
  0
SEQEND
  5
662
330
2A1
100
AcDbEntity
  8
0
  6
CONTINUOUS
 62
     8
  0
ARC
  5
2A2
330
1F
100
AcDbEntity
  8
0
  6
CONTINUOUS
 62
     8
100
AcDbCircle
 10
8.0829487806
 20
7.6011546401
 30
0.0
 40
0.210949527210872
100
AcDbArc
 50
21.3071653541
 51
57.3767033391
  0
ARC
  5
2A3
330
1F
100
AcDbEntity
  8
0
  6
CONTINUOUS
 62
     8
100
AcDbCircle
 10
8.1561119536
 20
7.7204665735
 30
0.0
 40
0.0710691997091395
100
AcDbArc
 50
55.1976800934
 51
113.4918614775
  0
LINE
  5
2A4
330
1F
100
AcDbEntity
  8
0
  6
CONTINUOUS
 62
     8
100
AcDbLine
 10
8.1003168671
 20
7.3528328648
 30
0.0
 11
8.0734989169
 21
7.3683145379
 31
0.0
  0
LINE
  5
2A5
330
1F
100
AcDbEntity
  8
0
  6
CONTINUOUS
 62
     8
100
AcDbLine
 10
7.7036175923
 20
6.6657195617
 30
0.0
 11
7.6767953094
 21
6.6812037361
 31
0.0
  0
LINE
  5
2A6
330
1F
100
AcDbEntity
  8
0
  6
CONTINUOUS
 62
     8
100
AcDbLine
 10
7.6884124136
 20
6.4755962017
 30
0.0
 11
7.6767953094
 21
6.4823026132
 31
0.0
  0
ENDSEC
  0
SECTION
  2
OBJECTS
  0
DICTIONARY
  5
C
330
0
100
AcDbDictionary
  3
ACAD_GROUP
350
D
  3
ACAD_LAYOUT
350
1A
  3
ACAD_MLEADERSTYLE
350
2A9
  3
ACAD_MLINESTYLE
350
17
  3
ACAD_PLOTSETTINGS
350
19
  3
ACAD_SCALELIST
350
6F
  3
ACAD_VISUALSTYLE
350
2A
  3
ACDBVARIABLEDICTIONARY
350
2A7
1001
ACAD
1000
TREAT_AS_HARD
1070
     0
  0
DICTIONARY
  5
D
102
{ACAD_REACTORS
330
C
102
}
330
C
100
AcDbDictionary
1001
ACAD
1000
TREAT_AS_HARD
1070
     0
  0
DICTIONARY
  5
1A
102
{ACAD_REACTORS
330
C
102
}
330
C
100
AcDbDictionary
1001
ACAD
1000
TREAT_AS_HARD
1070
     0
  0
DICTIONARY
  5
2A9
102
{ACAD_REACTORS
330
C
102
}
330
C
100
AcDbDictionary
1001
ACAD
1000
TREAT_AS_HARD
1070
     0
  0
DICTIONARY
  5
17
102
{ACAD_REACTORS
330
C
102
}
330
C
100
AcDbDictionary
  3
STANDARD
350
18
1001
ACAD
1000
TREAT_AS_HARD
1070
     0
  0
DICTIONARY
  5
19
102
{ACAD_REACTORS
330
C
102
}
330
C
100
AcDbDictionary
1001
ACAD
1000
TREAT_AS_HARD
1070
     0
  0
DICTIONARY
  5
6F
102
{ACAD_REACTORS
330
C
102
}
330
C
100
AcDbDictionary
  3
A0
350
70
  3
A1
350
71
  3
A2
350
72
  3
A3
350
73
  3
A4
350
74
  3
A5
350
75
  3
A6
350
76
  3
A7
350
77
  3
A8
350
78
  3
A9
350
79
  3
B0
350
7A
  3
B1
350
7B
  3
B2
350
7C
  3
B3
350
7D
  3
B4
350
7E
  3
B5
350
7F
  3
B6
350
80
  3
B7
350
81
  3
B8
350
82
  3
B9
350
83
  3
C0
350
84
  3
C1
350
85
  3
C2
350
86
  3
C3
350
87
  3
C4
350
88
  3
C5
350
89
  3
C6
350
8A
  3
C7
350
8B
  3
C8
350
8C
  3
C9
350
8D
  3
D0
350
8E
  3
D1
350
8F
  3
D2
350
90
1001
ACAD
1000
TREAT_AS_HARD
1070
     0
  0
DICTIONARY
  5
2A
102
{ACAD_REACTORS
330
C
102
}
330
C
100
AcDbDictionary
  3
2DWIREFRAME
350
2F
  3
3D_HIDDEN
350
31
  3
3DWIREFRAME
350
30
  3
BASIC
350
32
  3
BRIGHTEN
350
36
  3
COLORCHANGE
350
3A
  3
CONCEPTUAL
350
34
  3
DIM
350
35
  3
FACEPATTERN
350
39
  3
FLAT
350
2B
  3
FLATWITHEDGES
350
2C
  3
GOURAUD
350
2D
  3
GOURAUDWITHEDGES
350
2E
  3
LINEPATTERN
350
38
  3
REALISTIC
350
33
  3
THICKEN
350
37
1001
ACAD
1000
TREAT_AS_HARD
1070
     0
  0
DICTIONARY
  5
2A7
102
{ACAD_REACTORS
330
C
102
}
330
C
100
AcDbDictionary
  3
CANNOSCALE
350
2AA
  3
DIMASSOC
350
2AB
  3
HIDETEXT
350
2AC
1001
ACAD
1000
TREAT_AS_HARD
1070
     0
  0
MLINESTYLE
  5
18
102
{ACAD_REACTORS
330
17
102
}
330
17
100
AcDbMlineStyle
  2
Standard
 70
     0
  3

 62
   256
 51
90.0
 52
90.0
 71
     2
 49
0.5
 62
   256
  6
BYLAYER
 49
-0.5
 62
   256
  6
BYLAYER
  0
ACAD_PROXY_OBJECT
  5
70
102
{ACAD_REACTORS
330
6F
102
}
330
6F
100
AcDbZombieObject
 90
      499
 91
      502
 93
       41
310
903313A31580
  0
ACAD_PROXY_OBJECT
  5
71
102
{ACAD_REACTORS
330
6F
102
}
330
6F
100
AcDbZombieObject
 90
      499
 91
      502
 93
      105
310
903313A324000000000000004000
  0
ACAD_PROXY_OBJECT
  5
72
102
{ACAD_REACTORS
330
6F
102
}
330
6F
100
AcDbZombieObject
 90
      499
 91
      502
 93
      105
310
903313A344000000000000104000
  0
ACAD_PROXY_OBJECT
  5
73
102
{ACAD_REACTORS
330
6F
102
}
330
6F
100
AcDbZombieObject
 90
      499
 91
      502
 93
      105
310
903313A354000000000000144000
  0
ACAD_PROXY_OBJECT
  5
74
102
{ACAD_REACTORS
330
6F
102
}
330
6F
100
AcDbZombieObject
 90
      499
 91
      502
 93
      105
310
903313A384000000000000204000
  0
ACAD_PROXY_OBJECT
  5
75
102
{ACAD_REACTORS
330
6F
102
}
330
6F
100
AcDbZombieObject
 90
      499
 91
      502
 93
      113
310
904313A31304000000000000244000
  0
ACAD_PROXY_OBJECT
  5
76
102
{ACAD_REACTORS
330
6F
102
}
330
6F
100
AcDbZombieObject
 90
      499
 91
      502
 93
      113
310
904313A31364000000000000304000
  0
ACAD_PROXY_OBJECT
  5
77
102
{ACAD_REACTORS
330
6F
102
}
330
6F
100
AcDbZombieObject
 90
      499
 91
      502
 93
      113
310
904313A32304000000000000344000
  0
ACAD_PROXY_OBJECT
  5
78
102
{ACAD_REACTORS
330
6F
102
}
330
6F
100
AcDbZombieObject
 90
      499
 91
      502
 93
      113
310
904313A333040000000000003E4000
  0
ACAD_PROXY_OBJECT
  5
79
102
{ACAD_REACTORS
330
6F
102
}
330
6F
100
AcDbZombieObject
 90
      499
 91
      502
 93
      113
310
904313A34304000000000000444000
  0
ACAD_PROXY_OBJECT
  5
7A
102
{ACAD_REACTORS
330
6F
102
}
330
6F
100
AcDbZombieObject
 90
      499
 91
      502
 93
      113
310
904313A35304000000000000494000
  0
ACAD_PROXY_OBJECT
  5
7B
102
{ACAD_REACTORS
330
6F
102
}
330
6F
100
AcDbZombieObject
 90
      499
 91
      502
 93
      121
310
905313A3130304000000000000594000
  0
ACAD_PROXY_OBJECT
  5
7C
102
{ACAD_REACTORS
330
6F
102
}
330
6F
100
AcDbZombieObject
 90
      499
 91
      502
 93
      105
310
903323A310000000000000010100
  0
ACAD_PROXY_OBJECT
  5
7D
102
{ACAD_REACTORS
330
6F
102
}
330
6F
100
AcDbZombieObject
 90
      499
 91
      502
 93
      105
310
903343A310000000000000410100
  0
ACAD_PROXY_OBJECT
  5
7E
102
{ACAD_REACTORS
330
6F
102
}
330
6F
100
AcDbZombieObject
 90
      499
 91
      502
 93
      105
310
903383A310000000000000810100
  0
ACAD_PROXY_OBJECT
  5
7F
102
{ACAD_REACTORS
330
6F
102
}
330
6F
100
AcDbZombieObject
 90
      499
 91
      502
 93
      113
310
90431303A310000000000000910100
  0
ACAD_PROXY_OBJECT
  5
80
102
{ACAD_REACTORS
330
6F
102
}
330
6F
100
AcDbZombieObject
 90
      499
 91
      502
 93
      121
310
9053130303A310000000000001650100
  0
ACAD_PROXY_OBJECT
  5
81
102
{ACAD_REACTORS
330
6F
102
}
330
6F
100
AcDbZombieObject
 90
      499
 91
      502
 93
      257
310
90E312F31323822203D2031272D3022000000000000200FC000000000000284000
  0
ACAD_PROXY_OBJECT
  5
82
102
{ACAD_REACTORS
330
6F
102
}
330
6F
100
AcDbZombieObject
 90
      499
 91
      502
 93
      249
310
90D312F363422203D2031272D3022000000000000240FC000000000000284000
  0
ACAD_PROXY_OBJECT
  5
83
102
{ACAD_REACTORS
330
6F
102
}
330
6F
100
AcDbZombieObject
 90
      499
 91
      502
 93
      249
310
90D312F333222203D2031272D3022000000000000280FC000000000000284000
  0
ACAD_PROXY_OBJECT
  5
84
102
{ACAD_REACTORS
330
6F
102
}
330
6F
100
AcDbZombieObject
 90
      499
 91
      502
 93
      249
310
90D312F313622203D2031272D30220000000000002C0FC000000000000284000
  0
ACAD_PROXY_OBJECT
  5
85
102
{ACAD_REACTORS
330
6F
102
}
330
6F
100
AcDbZombieObject
 90
      499
 91
      502
 93
      249
310
90D332F333222203D2031272D30220000000000002E0FC000000000000284000
  0
ACAD_PROXY_OBJECT
  5
86
102
{ACAD_REACTORS
330
6F
102
}
330
6F
100
AcDbZombieObject
 90
      499
 91
      502
 93
      241
310
90C312F3822203D2031272D3022000000000000300FC000000000000284000
  0
ACAD_PROXY_OBJECT
  5
87
102
{ACAD_REACTORS
330
6F
102
}
330
6F
100
AcDbZombieObject
 90
      499
 91
      502
 93
      249
310
90D332F313622203D2031272D3022000000000000320FC000000000000284000
  0
ACAD_PROXY_OBJECT
  5
88
102
{ACAD_REACTORS
330
6F
102
}
330
6F
100
AcDbZombieObject
 90
      499
 91
      502
 93
      241
310
90C312F3422203D2031272D3022000000000000340FC000000000000284000
  0
ACAD_PROXY_OBJECT
  5
89
102
{ACAD_REACTORS
330
6F
102
}
330
6F
100
AcDbZombieObject
 90
      499
 91
      502
 93
      241
310
90C332F3822203D2031272D3022000000000000360FC000000000000284000
  0
ACAD_PROXY_OBJECT
  5
8A
102
{ACAD_REACTORS
330
6F
102
}
330
6F
100
AcDbZombieObject
 90
      499
 91
      502
 93
      241
310
90C312F3222203D2031272D3022000000000000380FC000000000000284000
  0
ACAD_PROXY_OBJECT
  5
8B
102
{ACAD_REACTORS
330
6F
102
}
330
6F
100
AcDbZombieObject
 90
      499
 91
      502
 93
      241
310
90C332F3422203D2031272D30220000000000003A0FC000000000000284000
  0
ACAD_PROXY_OBJECT
  5
8C
102
{ACAD_REACTORS
330
6F
102
}
330
6F
100
AcDbZombieObject
 90
      499
 91
      502
 93
      161
310
90A3122203D2031272D30224000000000000284000
  0
ACAD_PROXY_OBJECT
  5
8D
102
{ACAD_REACTORS
330
6F
102
}
330
6F
100
AcDbZombieObject
 90
      499
 91
      502
 93
      257
310
90E312D312F3222203D2031272D30220000000000003E0FC000000000000284000
  0
ACAD_PROXY_OBJECT
  5
8E
102
{ACAD_REACTORS
330
6F
102
}
330
6F
100
AcDbZombieObject
 90
      499
 91
      502
 93
      225
310
90A3322203D2031272D302200000000000002100000000000000284000
  0
ACAD_PROXY_OBJECT
  5
8F
102
{ACAD_REACTORS
330
6F
102
}
330
6F
100
AcDbZombieObject
 90
      499
 91
      502
 93
      225
310
90A3622203D2031272D302200000000000006100000000000000284000
  0
ACAD_PROXY_OBJECT
  5
90
102
{ACAD_REACTORS
330
6F
102
}
330
6F
100
AcDbZombieObject
 90
      499
 91
      502
 93
      249
310
90D31272D3022203D2031272D30220000000000000A100000000000000284000
  0
ACAD_PROXY_OBJECT
  5
2F
102
{ACAD_REACTORS
330
2A
102
}
330
2A
100
AcDbZombieObject
 90
      499
 91
      501
 93
      436
310
42CC9915DA5C99599C985B595049028333333333333E3BF0000000000000FB0107901411070040501600405405064090741402480A0340
1001
ACAD
1000
AcDbSavedByObjectVersion
1070
     0
  0
ACAD_PROXY_OBJECT
  5
31
102
{ACAD_REACTORS
330
2A
102
}
330
2A
100
AcDbZombieObject
 90
      499
 91
      501
 93
      500
310
424CD108121A5919195B90640502408333333333333E3BF0000000000000FB01079024090700405020000000000001110200405405064090740C02480A0340
1001
ACAD
1000
AcDbSavedByObjectVersion
1070
     0
  0
ACAD_PROXY_OBJECT
  5
30
102
{ACAD_REACTORS
330
2A
102
}
330
2A
100
AcDbZombieObject
 90
      499
 91
      501
 93
      436
310
42CCD915DA5C99599C985B595059028333333333333E3BF0000000000000FB0107901411070040501600405405064090741402480A0340
1001
ACAD
1000
AcDbSavedByObjectVersion
1070
     0
  0
ACAD_PROXY_OBJECT
  5
32
102
{ACAD_REACTORS
330
2A
102
}
330
2A
100
AcDbZombieObject
 90
      499
 91
      501
 93
      388
310
4150985CDA58D07406404333333333333E3BF0000000000000FB0107A41107004050150841D405064090741402480A0350
1001
ACAD
1000
AcDbSavedByObjectVersion
1070
     0
  0
ACAD_PROXY_OBJECT
  5
36
102
{ACAD_REACTORS
330
2A
102
}
330
2A
100
AcDbZombieObject
 90
      499
 91
      501
 93
      428
310
42109C9A59DA1D195B90C409028333333333333E3BF0000000000000FB010790141107004050150841D405064090741402480A029950
1001
ACAD
1000
AcDbSavedByObjectVersion
1070
     0
  0
ACAD_PROXY_OBJECT
  5
3A
102
{ACAD_REACTORS
330
2A
102
}
330
2A
100
AcDbZombieObject
 90
      499
 91
      501
 93
      452
310
42D0DBDB1BDC90DA185B99D95104090240C333333333333E3BF0000000000000FB0108901411070040501508421405064090741402480A0350
1001
ACAD
1000
AcDbSavedByObjectVersion
1070
     0
  0
ACAD_PROXY_OBJECT
  5
34
102
{ACAD_REACTORS
330
2A
102
}
330
2A
100
AcDbZombieObject
 90
      499
 91
      501
 93
      500
310
4290DBDB98D95C1D1D585B10940D028333333333333E3BF0000000000000FB0107902409070040501000000000000111010841D405064090740C02480A0340
1001
ACAD
1000
AcDbSavedByObjectVersion
1070
     0
  0
ACAD_PROXY_OBJECT
  5
35
102
{ACAD_REACTORS
330
2A
102
}
330
2A
100
AcDbZombieObject
 90
      499
 91
      501
 93
      412
310
40D11A5B50B409028333333333333E3BF0000000000000FB010790141107004050150841D405064090741402480A02677FFFFFD0
1001
ACAD
1000
AcDbSavedByObjectVersion
1070
     0
  0
ACAD_PROXY_OBJECT
  5
39
102
{ACAD_REACTORS
330
2A
102
}
330
2A
100
AcDbZombieObject
 90
      499
 91
      501
 93
      444
310
42D19858D95C185D1D195C9B90F409028333333333333E3BF0000000000000FB010790141107004050150841D405064090741402480A0350
1001
ACAD
1000
AcDbSavedByObjectVersion
1070
     0
  0
ACAD_PROXY_OBJECT
  5
2B
102
{ACAD_REACTORS
330
2A
102
}
330
2A
100
AcDbZombieObject
 90
      499
 91
      501
 93
      388
310
41119B185D240901404333333333333E3BF0000000000000F9010740A41107004050150841D405064090741402480A1B50
1001
ACAD
1000
AcDbSavedByObjectVersion
1070
     0
  0
ACAD_PROXY_OBJECT
  5
2C
102
{ACAD_REACTORS
330
2A
102
}
330
2A
100
AcDbZombieObject
 90
      499
 91
      501
 93
      476
310
43519B185D15DA5D1A115919D95CD0140901404333333333333E3BF0000000000000F9010740901411070040501600405405064090741402480A1B50
1001
ACAD
1000
AcDbSavedByObjectVersion
1070
     0
  0
ACAD_PROXY_OBJECT
  5
2D
102
{ACAD_REACTORS
330
2A
102
}
330
2A
100
AcDbZombieObject
 90
      499
 91
      501
 93
      412
310
41D1DBDD5C985D5910240902404333333333333E3BF0000000000000F9010740A411070040501641D405064090741402480A1B50
1001
ACAD
1000
AcDbSavedByObjectVersion
1070
     0
  0
ACAD_PROXY_OBJECT
  5
2E
102
{ACAD_REACTORS
330
2A
102
}
330
2A
100
AcDbZombieObject
 90
      499
 91
      501
 93
      500
310
4411DBDD5C985D5915DA5D1A115919D95CD0340902404333333333333E3BF0000000000000F9010740901411070040501600405405064090741402480A1B50
1001
ACAD
1000
AcDbSavedByObjectVersion
1070
     0
  0
ACAD_PROXY_OBJECT
  5
38
102
{ACAD_REACTORS
330
2A
102
}
330
2A
100
AcDbZombieObject
 90
      499
 91
      501
 93
      444
310
42D31A5B995C185D1D195C9B90E409028333333333333E3BF0000000000000FB010790141107004050750841D405064090741402483A0350
1001
ACAD
1000
AcDbSavedByObjectVersion
1070
     0
  0
ACAD_PROXY_OBJECT
  5
33
102
{ACAD_REACTORS
330
2A
102
}
330
2A
100
AcDbZombieObject
 90
      499
 91
      501
 93
      420
310
425499585B1A5CDD1A58D08409028333333333333E3BF0000000000000FB01079019070040501508421405064090741402480A1B40
1001
ACAD
1000
AcDbSavedByObjectVersion
1070
     0
  0
ACAD_PROXY_OBJECT
  5
37
102
{ACAD_REACTORS
330
2A
102
}
330
2A
100
AcDbZombieObject
 90
      499
 91
      501
 93
      412
310
41D51A1A58DAD95B90D409028333333333333E3BF0000000000000FB010790141107004050150C41D405064090741402480A0350
1001
ACAD
1000
AcDbSavedByObjectVersion
1070
     0
  0
DICTIONARYVAR
  5
2AA
102
{ACAD_REACTORS
330
2A7
102
}
330
2A7
100
DictionaryVariables
280
     0
  1
1:1
  0
DICTIONARYVAR
  5
2AB
102
{ACAD_REACTORS
330
2A7
102
}
330
2A7
100
DictionaryVariables
280
     0
  1
2
  0
DICTIONARYVAR
  5
2AC
102
{ACAD_REACTORS
330
2A7
102
}
330
2A7
100
DictionaryVariables
280
     0
  1
1
  0
ENDSEC
  0
EOF
