  0
SECTION
  2
HEADER
  9
$ACADVER
  1
AC1012
  9
$DWGCODEPAGE
  3
ansi_1252
  9
$INSBASE
 10
0.0
 20
0.0
 30
0.0
  9
$EXTMIN
 10
0.0
 20
0.0
 30
0.0
  9
$EXTMAX
 10
11.0
 20
8.5
 30
0.0
  9
$LIMMIN
 10
0.0
 20
0.0
  9
$LIMMAX
 10
11.0
 20
8.5
  9
$ORTHOMODE
 70
     0
  9
$REGENMODE
 70
     1
  9
$FILLMODE
 70
     1
  9
$QTEXTMODE
 70
     0
  9
$MIRRTEXT
 70
     1
  9
$DRAGMODE
 70
     2
  9
$LTSCALE
 40
1.0
  9
$OSMODE
 70
    37
  9
$ATTMODE
 70
     1
  9
$TEXTSIZE
 40
0.125
  9
$TRACEWID
 40
0.05
  9
$TEXTSTYLE
  7
STANDARD
  9
$CLAYER
  8
0
  9
$CELTYPE
  6
BYLAYER
  9
$CECOLOR
 62
   256
  9
$CELTSCALE
 40
1.0
  9
$DELOBJ
 70
     1
  9
$DISPSILH
 70
     0
  9
$DIMSCALE
 40
1.0
  9
$DIMASZ
 40
0.13
  9
$DIMEXO
 40
0.05
  9
$DIMDLI
 40
0.38
  9
$DIMRND
 40
0.0
  9
$DIMDLE
 40
0.0
  9
$DIMEXE
 40
0.125
  9
$DIMTP
 40
0.0
  9
$DIMTM
 40
0.0
  9
$DIMTXT
 40
0.125
  9
$DIMCEN
 40
0.09
  9
$DIMTSZ
 40
0.0
  9
$DIMTOL
 70
     0
  9
$DIMLIM
 70
     0
  9
$DIMTIH
 70
     1
  9
$DIMTOH
 70
     1
  9
$DIMSE1
 70
     0
  9
$DIMSE2
 70
     0
  9
$DIMTAD
 70
     0
  9
$DIMZIN
 70
     0
  9
$DIMBLK
  1

  9
$DIMASO
 70
     1
  9
$DIMSHO
 70
     1
  9
$DIMPOST
  1

  9
$DIMAPOST
  1

  9
$DIMALT
 70
     0
  9
$DIMALTD
 70
     2
  9
$DIMALTF
 40
25.4
  9
$DIMLFAC
 40
2.0
  9
$DIMTOFL
 70
     0
  9
$DIMTVP
 40
0.0
  9
$DIMTIX
 70
     0
  9
$DIMSOXD
 70
     0
  9
$DIMSAH
 70
     0
  9
$DIMBLK1
  1

  9
$DIMBLK2
  1

  9
$DIMSTYLE
  2
STANDARD
  9
$DIMCLRD
 70
     0
  9
$DIMCLRE
 70
     0
  9
$DIMCLRT
 70
     0
  9
$DIMTFAC
 40
1.0
  9
$DIMGAP
 40
0.06
  9
$DIMJUST
 70
     0
  9
$DIMSD1
 70
     0
  9
$DIMSD2
 70
     0
  9
$DIMTOLJ
 70
     1
  9
$DIMTZIN
 70
     0
  9
$DIMALTZ
 70
     0
  9
$DIMALTTZ
 70
     0
  9
$DIMFIT
 70
     3
  9
$DIMUPT
 70
     0
  9
$DIMUNIT
 70
     2
  9
$DIMDEC
 70
     3
  9
$DIMTDEC
 70
     3
  9
$DIMALTU
 70
     2
  9
$DIMALTTD
 70
     2
  9
$DIMTXSTY
  7
STANDARD
  9
$DIMAUNIT
 70
     0
  9
$LUNITS
 70
     2
  9
$LUPREC
 70
     2
  9
$SKETCHINC
 40
0.1
  9
$FILLETRAD
 40
0.5
  9
$AUNITS
 70
     0
  9
$AUPREC
 70
     2
  9
$MENU
  1
.
  9
$ELEVATION
 40
0.0
  9
$PELEVATION
 40
0.0
  9
$THICKNESS
 40
0.0
  9
$LIMCHECK
 70
     0
  9
$CHAMFERA
 40
0.5
  9
$CHAMFERB
 40
0.5
  9
$CHAMFERC
 40
1.0
  9
$CHAMFERD
 40
0.0
  9
$SKPOLY
 70
     0
  9
$TDCREATE
 40
2455784.008964213
  9
$TDUPDATE
 40
2455784.008964225
  9
$TDINDWG
 40
0.0000000116
  9
$TDUSRTIMER
 40
0.0000000116
  9
$USRTIMER
 70
     1
  9
$ANGBASE
 50
0.0
  9
$ANGDIR
 70
     0
  9
$PDMODE
 70
     0
  9
$PDSIZE
 40
-1.0
  9
$PLINEWID
 40
0.0
  9
$COORDS
 70
     1
  9
$SPLFRAME
 70
     0
  9
$SPLINETYPE
 70
     6
  9
$SPLINESEGS
 70
     8
  9
$ATTDIA
 70
     0
  9
$ATTREQ
 70
     1
  9
$HANDLING
 70
     1
  9
$HANDSEED
  5
6B2
  9
$SURFTAB1
 70
     6
  9
$SURFTAB2
 70
     6
  9
$SURFTYPE
 70
     6
  9
$SURFU
 70
     6
  9
$SURFV
 70
     6
  9
$UCSNAME
  2

  9
$UCSORG
 10
0.0
 20
0.0
 30
0.0
  9
$UCSXDIR
 10
1.0
 20
0.0
 30
0.0
  9
$UCSYDIR
 10
0.0
 20
1.0
 30
0.0
  9
$PUCSNAME
  2

  9
$PUCSORG
 10
0.0
 20
0.0
 30
0.0
  9
$PUCSXDIR
 10
1.0
 20
0.0
 30
0.0
  9
$PUCSYDIR
 10
0.0
 20
1.0
 30
0.0
  9
$USERI1
 70
     0
  9
$USERI2
 70
     0
  9
$USERI3
 70
     0
  9
$USERI4
 70
     0
  9
$USERI5
 70
     0
  9
$USERR1
 40
0.0
  9
$USERR2
 40
0.0
  9
$USERR3
 40
0.0
  9
$USERR4
 40
0.0
  9
$USERR5
 40
0.0
  9
$WORLDVIEW
 70
     1
  9
$SHADEDGE
 70
     3
  9
$SHADEDIF
 70
    70
  9
$TILEMODE
 70
     1
  9
$MAXACTVP
 70
    64
  9
$PINSBASE
 10
0.0
 20
0.0
 30
0.0
  9
$PLIMCHECK
 70
     0
  9
$PEXTMIN
 10
1.0000000000E+20
 20
1.0000000000E+20
 30
1.0000000000E+20
  9
$PEXTMAX
 10
-1.0000000000E+20
 20
-1.0000000000E+20
 30
-1.0000000000E+20
  9
$PLIMMIN
 10
0.0
 20
0.0
  9
$PLIMMAX
 10
12.0
 20
9.0
  9
$UNITMODE
 70
     0
  9
$VISRETAIN
 70
     1
  9
$PLINEGEN
 70
     0
  9
$PSLTSCALE
 70
     1
  9
$TREEDEPTH
 70
  3020
  9
$PICKSTYLE
 70
     1
  9
$CMLSTYLE
  2
STANDARD
  9
$CMLJUST
 70
     0
  9
$CMLSCALE
 40
1.0
  9
$SAVEIMAGES
 70
     1
  0
ENDSEC
  0
SECTION
  2
CLASSES
  0
CLASS
  1
ACDBDICTIONARYWDFLT
  2
AcDbDictionaryWithDefault
  3
ObjectDBX Classes
 90
    32768
280
     0
281
     0
  0
CLASS
  1
VISUALSTYLE
  2
AcDbVisualStyle
  3
ObjectDBX Classes
 90
     4095
280
     0
281
     0
  0
CLASS
  1
SCALE
  2
AcDbScale
  3
ObjectDBX Classes
 90
     1153
280
     0
281
     0
  0
CLASS
  1
DICTIONARYVAR
  2
AcDbDictionaryVar
  3
ObjectDBX Classes
 90
        0
280
     0
281
     0
  0
CLASS
  1
XRECORD
  2
AcDbXrecord
  3
AutoCAD 2000
 90
    32768
280
     0
281
     0
  0
CLASS
  1
LWPOLYLINE
  2
AcDbPolyline
  3
AutoCAD 2000
 90
    32768
280
     0
281
     1
  0
CLASS
  1
HATCH
  2
AcDbHatch
  3
AutoCAD 2000
 90
    32768
280
     0
281
     1
  0
CLASS
  1
ACDBPLACEHOLDER
  2
AcDbPlaceHolder
  3
ObjectDBX Classes
 90
        0
280
     0
281
     0
  0
CLASS
  1
LAYOUT
  2
AcDbLayout
  3
ObjectDBX Classes
 90
        0
280
     0
281
     0
  0
ENDSEC
  0
SECTION
  2
TABLES
  0
TABLE
  2
VPORT
  5
8
330
0
100
AcDbSymbolTable
 70
     1
  0
VPORT
  5
29
330
8
100
AcDbSymbolTableRecord
100
AcDbViewportTableRecord
  2
*ACTIVE
 70
     0
 10
0.0
 20
0.0
 11
1.0
 21
1.0
 12
5.5
 22
4.25
 13
0.0
 23
0.0
 14
0.5
 24
0.5
 15
0.5
 25
0.5
 16
0.0
 26
0.0
 36
1.0
 17
0.0
 27
0.0
 37
0.0
 40
8.5
 41
1.2941176471
 42
50.0
 43
0.0
 44
0.0
 50
0.0
 51
0.0
 71
     0
 72
  2000
 73
     1
 74
     3
 75
     0
 76
     0
 77
     0
 78
     0
  0
ENDTAB
  0
TABLE
  2
LTYPE
  5
5
330
0
100
AcDbSymbolTable
 70
     6
  0
LTYPE
  5
14
330
5
100
AcDbSymbolTableRecord
100
AcDbLinetypeTableRecord
  2
BYBLOCK
 70
     0
  3

 72
    65
 73
     0
 40
0.0
  0
LTYPE
  5
15
330
5
100
AcDbSymbolTableRecord
100
AcDbLinetypeTableRecord
  2
BYLAYER
 70
     0
  3

 72
    65
 73
     0
 40
0.0
  0
LTYPE
  5
16
330
5
100
AcDbSymbolTableRecord
100
AcDbLinetypeTableRecord
  2
CONTINUOUS
 70
     0
  3
Solid line
 72
    65
 73
     0
 40
0.0
  0
LTYPE
  5
3B
330
5
100
AcDbSymbolTableRecord
100
AcDbLinetypeTableRecord
  2
HIDDEN
 70
     0
  3
Hidden __ __ __ __ __ __ __ __ __ __ __ __ __ __
 72
    65
 73
     2
 40
0.075
 49
0.05
 74
     0
 49
-0.025
 74
     0
  0
LTYPE
  5
3C
330
5
100
AcDbSymbolTableRecord
100
AcDbLinetypeTableRecord
  2
PHANTOM
 70
     0
  3
Phantom ______  __  __  ______  __  __  ______
 72
    65
 73
     6
 40
0.5
 49
0.25
 74
     0
 49
-0.05
 74
     0
 49
0.05
 74
     0
 49
-0.05
 74
     0
 49
0.05
 74
     0
 49
-0.05
 74
     0
  0
LTYPE
  5
3D
330
5
100
AcDbSymbolTableRecord
100
AcDbLinetypeTableRecord
  2
CENTER
 70
     0
  3
Center ____ _ ____ _ ____ _ ____ _ ____ _ ____
 72
    65
 73
     4
 40
0.4
 49
0.25
 74
     0
 49
-0.05
 74
     0
 49
0.05
 74
     0
 49
-0.05
 74
     0
  0
LTYPE
  5
3E
330
5
100
AcDbSymbolTableRecord
100
AcDbLinetypeTableRecord
  2
CENTERX2
 70
     0
  3
Center (2x) ________  __  ________  __  _____
 72
    65
 73
     4
 40
0.8
 49
0.5
 74
     0
 49
-0.1
 74
     0
 49
0.1
 74
     0
 49
-0.1
 74
     0
  0
LTYPE
  5
3F
330
5
100
AcDbSymbolTableRecord
100
AcDbLinetypeTableRecord
  2
DOT2
 70
     0
  3
Dot (.5x) ........................................
 72
    65
 73
     2
 40
0.025
 49
0.0
 74
     0
 49
-0.025
 74
     0
  0
ENDTAB
  0
TABLE
  2
LAYER
  5
2
330
0
100
AcDbSymbolTable
 70
     2
  0
LAYER
  5
10
330
2
100
AcDbSymbolTableRecord
100
AcDbLayerTableRecord
  2
0
 70
     0
 62
     7
  6
CONTINUOUS
  0
LAYER
  5
40
330
2
100
AcDbSymbolTableRecord
100
AcDbLayerTableRecord
  2
FORMAT
 70
     0
 62
     7
  6
CONTINUOUS
  0
ENDTAB
  0
TABLE
  2
STYLE
  5
3
330
0
100
AcDbSymbolTable
 70
     4
  0
STYLE
  5
11
330
3
100
AcDbSymbolTableRecord
100
AcDbTextStyleTableRecord
  2
STANDARD
 70
     0
 40
0.0
 41
1.0
 50
0.0
 71
     0
 42
0.2
  3
txt
  4

  0
STYLE
  5
6E
330
3
100
AcDbSymbolTableRecord
100
AcDbTextStyleTableRecord
  2
SLDTEXTSTYLE0
 70
     0
 40
0.0
 41
0.75
 50
0.0
 71
     0
 42
0.2
  3
TXT
  4

  0
STYLE
  5
93
330
3
100
AcDbSymbolTableRecord
100
AcDbTextStyleTableRecord
  2
SLDTEXTSTYLE1
 70
     0
 40
0.0
 41
0.6875
 50
0.0
 71
     0
 42
0.2
  3
TXT
  4

  0
STYLE
  5
99
330
3
100
AcDbSymbolTableRecord
100
AcDbTextStyleTableRecord
  2
SLDTEXTSTYLE2
 70
     0
 40
0.0
 41
0.6944444444
 50
0.0
 71
     0
 42
0.2
  3
TXT
  4

  0
ENDTAB
  0
TABLE
  2
VIEW
  5
6
330
0
100
AcDbSymbolTable
 70
     0
  0
ENDTAB
  0
TABLE
  2
UCS
  5
7
330
0
100
AcDbSymbolTable
 70
     0
  0
ENDTAB
  0
TABLE
  2
APPID
  5
9
330
0
100
AcDbSymbolTable
 70
     1
  0
APPID
  5
12
330
9
100
AcDbSymbolTableRecord
100
AcDbRegAppTableRecord
  2
ACAD
 70
     0
  0
ENDTAB
  0
TABLE
  2
DIMSTYLE
  5
A
330
0
100
AcDbSymbolTable
 70
     1
  0
DIMSTYLE
105
27
330
A
100
AcDbSymbolTableRecord
100
AcDbDimStyleTableRecord
  2
STANDARD
 70
     0
  3

  4

  5

  6

  7

 40
1.0
 41
0.18
 42
0.0625
 43
0.38
 44
0.18
 45
0.0
 46
0.0
 47
0.0
 48
0.0
140
0.18
141
0.09
142
0.0
143
25.4
144
1.0
145
0.0
146
1.0
147
0.09
 71
     0
 72
     0
 73
     1
 74
     1
 75
     0
 76
     0
 77
     0
 78
     0
170
     0
171
     2
172
     0
173
     0
174
     0
175
     0
176
     0
177
     0
178
     0
270
     2
271
     4
272
     4
273
     2
274
     2
340
11
275
     0
280
     0
281
     0
282
     0
283
     1
284
     0
285
     0
286
     0
287
     3
288
     0
  0
ENDTAB
  0
TABLE
  2
BLOCK_RECORD
  5
1
330
0
100
AcDbSymbolTable
 70
     4
  0
BLOCK_RECORD
  5
1F
330
1
100
AcDbSymbolTableRecord
100
AcDbBlockTableRecord
  2
*MODEL_SPACE
  0
BLOCK_RECORD
  5
1B
330
1
100
AcDbSymbolTableRecord
100
AcDbBlockTableRecord
  2
*PAPER_SPACE
  0
BLOCK_RECORD
  5
A8
330
1
100
AcDbSymbolTableRecord
100
AcDbBlockTableRecord
  2
SW_NOTE_0
  0
BLOCK_RECORD
  5
AE
330
1
100
AcDbSymbolTableRecord
100
AcDbBlockTableRecord
  2
SW_NOTE_1
  0
BLOCK_RECORD
  5
C2
330
1
100
AcDbSymbolTableRecord
100
AcDbBlockTableRecord
  2
SW_NOTE_2
  0
ENDTAB
  0
ENDSEC
  0
SECTION
  2
BLOCKS
  0
BLOCK
  5
20
330
1F
100
AcDbEntity
  8
0
100
AcDbBlockBegin
  2
*MODEL_SPACE
 70
     0
 10
0.0
 20
0.0
 30
0.0
  3
*MODEL_SPACE
  1

  0
ENDBLK
  5
21
330
1F
100
AcDbEntity
  8
0
100
AcDbBlockEnd
  0
BLOCK
  5
1C
330
1B
100
AcDbEntity
 67
     1
  8
0
100
AcDbBlockBegin
  2
*PAPER_SPACE
 70
     0
 10
0.0
 20
0.0
 30
0.0
  3
*PAPER_SPACE
  1

  0
ENDBLK
  5
1D
330
1B
100
AcDbEntity
 67
     1
  8
0
100
AcDbBlockEnd
  0
BLOCK
  5
A9
330
A8
100
AcDbEntity
  8
0
100
AcDbBlockBegin
  2
SW_NOTE_0
 70
     0
 10
0.0
 20
0.0
 30
0.0
  3
SW_NOTE_0
  1

  0
MTEXT
  5
AB
330
A8
100
AcDbEntity
  8
0
  6
CONTINUOUS
 62
     0
100
AcDbMText
 10
0.0
 20
0.0773440644
 30
0.0
 40
0.06
 41
0.0
 71
     1
 72
     1
  1
INTERPRET GEOMETRIC
  7
SLDTEXTSTYLE0
  0
MTEXT
  5
AC
330
A8
100
AcDbEntity
  8
0
  6
CONTINUOUS
 62
     0
100
AcDbMText
 10
0.0
 20
-0.0220260102
 30
0.0
 40
0.06
 41
0.0
 71
     1
 72
     1
  1
TOLERANCING PER:
  7
SLDTEXTSTYLE0
  0
ENDBLK
  5
AA
330
A8
100
AcDbEntity
  8
0
100
AcDbBlockEnd
  0
BLOCK
  5
AF
330
AE
100
AcDbEntity
  8
0
100
AcDbBlockBegin
  2
SW_NOTE_1
 70
     0
 10
0.0
 20
0.0
 30
0.0
  3
SW_NOTE_1
  1

  0
MTEXT
  5
B1
330
AE
100
AcDbEntity
  8
0
  6
CONTINUOUS
 62
     0
100
AcDbMText
 10
0.0
 20
0.0837894031
 30
0.0
 40
0.065
 41
0.0
 71
     1
 72
     1
  1
DIMENSIONS ARE IN INCHES
  7
SLDTEXTSTYLE0
  0
MTEXT
  5
B2
330
AE
100
AcDbEntity
  8
0
  6
CONTINUOUS
 62
     0
100
AcDbMText
 10
0.0
 20
-0.0205806729
 30
0.0
 40
0.065
 41
0.0
 71
     1
 72
     1
  1
TOLERANCES:
  7
SLDTEXTSTYLE0
  0
MTEXT
  5
B3
330
AE
100
AcDbEntity
  8
0
  6
CONTINUOUS
 62
     0
100
AcDbMText
 10
0.0
 20
-0.1249507489
 30
0.0
 40
0.065
 41
0.0
 71
     1
 72
     1
  1
FRACTIONAL
  7
SLDTEXTSTYLE0
  0
MTEXT
  5
B4
330
AE
100
AcDbEntity
  8
0
  6
CONTINUOUS
 62
     0
100
AcDbMText
 10
0.5175850875
 20
-0.1249507489
 30
0.0
 40
0.065
 41
0.0
 71
     1
 72
     1
  1
%%p
  7
SLDTEXTSTYLE0
  0
MTEXT
  5
B5
330
AE
100
AcDbEntity
  8
0
  6
CONTINUOUS
 62
     0
100
AcDbMText
 10
0.0
 20
-0.2293208248
 30
0.0
 40
0.065
 41
0.0
 71
     1
 72
     1
  1
ANGULAR: MACH
  7
SLDTEXTSTYLE0
  0
MTEXT
  5
B6
330
AE
100
AcDbEntity
  8
0
  6
CONTINUOUS
 62
     0
100
AcDbMText
 10
0.7233732769
 20
-0.2293208248
 30
0.0
 40
0.065
 41
0.0
 71
     1
 72
     1
  1
%%p
  7
SLDTEXTSTYLE0
  0
MTEXT
  5
B7
330
AE
100
AcDbEntity
  8
0
  6
CONTINUOUS
 62
     0
100
AcDbMText
 10
0.7852857683
 20
-0.2293208248
 30
0.0
 40
0.065
 41
0.0
 71
     1
 72
     1
  1
     BEND 
  7
SLDTEXTSTYLE0
  0
MTEXT
  5
B8
330
AE
100
AcDbEntity
  8
0
  6
CONTINUOUS
 62
     0
100
AcDbMText
 10
1.14784136
 20
-0.2293208248
 30
0.0
 40
0.065
 41
0.0
 71
     1
 72
     1
  1
%%p
  7
SLDTEXTSTYLE0
  0
MTEXT
  5
B9
330
AE
100
AcDbEntity
  8
0
  6
CONTINUOUS
 62
     0
100
AcDbMText
 10
0.0
 20
-0.3336909008
 30
0.0
 40
0.065
 41
0.0
 71
     1
 72
     1
  1
TWO PLACE DECIMAL    
  7
SLDTEXTSTYLE0
  0
MTEXT
  5
BA
330
AE
100
AcDbEntity
  8
0
  6
CONTINUOUS
 62
     0
100
AcDbMText
 10
0.9794349188
 20
-0.3336909008
 30
0.0
 40
0.065
 41
0.0
 71
     1
 72
     1
  1
%%p
  7
SLDTEXTSTYLE0
  0
MTEXT
  5
BB
330
AE
100
AcDbEntity
  8
0
  6
CONTINUOUS
 62
     0
100
AcDbMText
 10
0.0
 20
-0.4380609768
 30
0.0
 40
0.065
 41
0.0
 71
     1
 72
     1
  1
THREE PLACE DECIMAL  
  7
SLDTEXTSTYLE0
  0
MTEXT
  5
BC
330
AE
100
AcDbEntity
  8
0
  6
CONTINUOUS
 62
     0
100
AcDbMText
 10
0.9738038639
 20
-0.4380609768
 30
0.0
 40
0.065
 41
0.0
 71
     1
 72
     1
  1
%%p
  7
SLDTEXTSTYLE0
  0
ENDBLK
  5
B0
330
AE
100
AcDbEntity
  8
0
100
AcDbBlockEnd
  0
BLOCK
  5
C3
330
C2
100
AcDbEntity
  8
0
100
AcDbBlockBegin
  2
SW_NOTE_2
 70
     0
 10
0.0
 20
0.0
 30
0.0
  3
SW_NOTE_2
  1

  0
MTEXT
  5
C5
330
C2
100
AcDbEntity
  8
0
  6
CONTINUOUS
 62
     0
100
AcDbMText
 10
0.0
 20
0.0773440644
 30
0.0
 40
0.06
 41
0.0
 71
     1
 72
     1
  1
THE INFORMATION CONTAINED IN THIS
  7
SLDTEXTSTYLE0
  0
MTEXT
  5
C6
330
C2
100
AcDbEntity
  8
0
  6
CONTINUOUS
 62
     0
100
AcDbMText
 10
0.0
 20
-0.0220260102
 30
0.0
 40
0.06
 41
0.0
 71
     1
 72
     1
  1
DRAWING IS THE SOLE PROPERTY OF
  7
SLDTEXTSTYLE0
  0
MTEXT
  5
C7
330
C2
100
AcDbEntity
  8
0
  6
CONTINUOUS
 62
     0
100
AcDbMText
 10
0.0
 20
-0.1213960848
 30
0.0
 40
0.06
 41
0.0
 71
     1
 72
     1
  1
Candy Controls.  ANY 
  7
SLDTEXTSTYLE0
  0
MTEXT
  5
C8
330
C2
100
AcDbEntity
  8
0
  6
CONTINUOUS
 62
     0
100
AcDbMText
 10
0.0
 20
-0.2207661593
 30
0.0
 40
0.06
 41
0.0
 71
     1
 72
     1
  1
REPRODUCTION IN PART OR AS A WHOLE
  7
SLDTEXTSTYLE0
  0
MTEXT
  5
C9
330
C2
100
AcDbEntity
  8
0
  6
CONTINUOUS
 62
     0
100
AcDbMText
 10
0.0
 20
-0.3201362339
 30
0.0
 40
0.06
 41
0.0
 71
     1
 72
     1
  1
WITHOUT THE WRITTEN PERMISSION OF
  7
SLDTEXTSTYLE0
  0
MTEXT
  5
CA
330
C2
100
AcDbEntity
  8
0
  6
CONTINUOUS
 62
     0
100
AcDbMText
 10
0.0
 20
-0.4195063085
 30
0.0
 40
0.06
 41
0.0
 71
     1
 72
     1
  1
Candy Controls IS 
  7
SLDTEXTSTYLE0
  0
MTEXT
  5
CB
330
C2
100
AcDbEntity
  8
0
  6
CONTINUOUS
 62
     0
100
AcDbMText
 10
0.0
 20
-0.518876383
 30
0.0
 40
0.06
 41
0.0
 71
     1
 72
     1
  1
PROHIBITED.
  7
SLDTEXTSTYLE0
  0
ENDBLK
  5
C4
330
C2
100
AcDbEntity
  8
0
100
AcDbBlockEnd
  0
ENDSEC
  0
SECTION
  2
ENTITIES
  0
LINE
  5
41
330
1F
100
AcDbEntity
  8
0
  6
CONTINUOUS
 62
     7
100
AcDbLine
 10
0.329927
 20
8.1920731707
 30
0.0
 11
10.629927
 21
8.1920731707
 31
0.0
  0
LINE
  5
42
330
1F
100
AcDbEntity
  8
0
  6
CONTINUOUS
 62
     7
100
AcDbLine
 10
0.329927
 20
8.1920731707
 30
0.0
 11
0.329927
 21
0.3920731707
 31
0.0
  0
LINE
  5
43
330
1F
100
AcDbEntity
  8
0
  6
CONTINUOUS
 62
     7
100
AcDbLine
 10
10.629927
 20
0.3920731707
 30
0.0
 11
0.329927
 21
0.3920731707
 31
0.0
  0
LINE
  5
44
330
1F
100
AcDbEntity
  8
0
  6
CONTINUOUS
 62
     7
100
AcDbLine
 10
10.629927
 20
0.3920731707
 30
0.0
 11
10.629927
 21
8.1920731707
 31
0.0
  0
LINE
  5
45
330
1F
100
AcDbEntity
  8
0
  6
CONTINUOUS
 62
     7
100
AcDbLine
 10
4.7981841288
 20
0.3920731707
 30
0.0
 11
4.7981841288
 21
2.3564211366
 31
0.0
  0
LINE
  5
46
330
1F
100
AcDbEntity
  8
0
  6
CONTINUOUS
 62
     7
100
AcDbLine
 10
2.8210345579
 20
2.3564211366
 30
0.0
 11
10.629927
 21
2.3564211366
 31
0.0
  0
LINE
  5
47
330
1F
100
AcDbEntity
  8
0
  6
CONTINUOUS
 62
     7
100
AcDbLine
 10
6.1796352514
 20
2.3564211366
 30
0.0
 11
6.1796352514
 21
0.3920731707
 31
0.0
  0
LINE
  5
48
330
1F
100
AcDbEntity
  8
0
  6
CONTINUOUS
 62
     7
100
AcDbLine
 10
7.8712070044
 20
2.3564211366
 30
0.0
 11
7.8712070044
 21
0.3920731707
 31
0.0
  0
LINE
  5
49
330
1F
100
AcDbEntity
  8
0
  6
CONTINUOUS
 62
     7
100
AcDbLine
 10
7.8712070044
 20
0.6049590101
 30
0.0
 11
10.629927
 21
0.6049590101
 31
0.0
  0
LINE
  5
4A
330
1F
100
AcDbEntity
  8
0
  6
CONTINUOUS
 62
     7
100
AcDbLine
 10
7.8712070044
 20
1.1119362457
 30
0.0
 11
10.629927
 21
1.1119362457
 31
0.0
  0
LINE
  5
4B
330
1F
100
AcDbEntity
  8
0
  6
CONTINUOUS
 62
     7
100
AcDbLine
 10
7.8712070044
 20
1.9892703708
 30
0.0
 11
10.629927
 21
1.9892703708
 31
0.0
  0
LINE
  5
4C
330
1F
100
AcDbEntity
  8
0
  6
CONTINUOUS
 62
     7
100
AcDbLine
 10
8.266751752
 20
1.1119362457
 30
0.0
 11
8.266751752
 21
0.6049590101
 31
0.0
  0
LINE
  5
4D
330
1F
100
AcDbEntity
  8
0
  6
CONTINUOUS
 62
     7
100
AcDbLine
 10
8.6943435176
 20
0.6049590101
 30
0.0
 11
8.6943435176
 21
0.3920731707
 31
0.0
  0
LINE
  5
4E
330
1F
100
AcDbEntity
  8
0
  6
CONTINUOUS
 62
     7
100
AcDbLine
 10
10.0579917045
 20
1.1119362457
 30
0.0
 11
10.0579917045
 21
0.6049590101
 31
0.0
  0
LINE
  5
4F
330
1F
100
AcDbEntity
  8
0
  6
CONTINUOUS
 62
     7
100
AcDbLine
 10
9.6662556631
 20
0.6049590101
 30
0.0
 11
9.6662556631
 21
0.3920731707
 31
0.0
  0
LINE
  5
50
330
1F
100
AcDbEntity
  8
0
  6
CONTINUOUS
 62
     7
100
AcDbLine
 10
2.8210345579
 20
0.5883479999
 30
0.0
 11
6.1796352514
 21
0.5883479999
 31
0.0
  0
LINE
  5
51
330
1F
100
AcDbEntity
  8
0
  6
CONTINUOUS
 62
     7
100
AcDbLine
 10
6.1796352514
 20
1.7939211366
 30
0.0
 11
7.8712070044
 21
1.7939211366
 31
0.0
  0
LINE
  5
52
330
1F
100
AcDbEntity
  8
0
  6
CONTINUOUS
 62
     7
100
AcDbLine
 10
6.1796352514
 20
1.9814211366
 30
0.0
 11
7.8712070044
 21
1.9814211366
 31
0.0
  0
LINE
  5
53
330
1F
100
AcDbEntity
  8
0
  6
CONTINUOUS
 62
     7
100
AcDbLine
 10
6.1796352514
 20
2.1689211366
 30
0.0
 11
7.8712070044
 21
2.1689211366
 31
0.0
  0
LINE
  5
54
330
1F
100
AcDbEntity
  8
0
  6
CONTINUOUS
 62
     7
100
AcDbLine
 10
7.8712070044
 20
1.2314211366
 30
0.0
 11
6.1796352514
 21
1.2314211366
 31
0.0
  0
LINE
  5
55
330
1F
100
AcDbEntity
  8
0
  6
CONTINUOUS
 62
     7
100
AcDbLine
 10
7.3921580388
 20
2.3564211366
 30
0.0
 11
7.3921580388
 21
1.2314211366
 31
0.0
  0
LINE
  5
56
330
1F
100
AcDbEntity
  8
0
  6
CONTINUOUS
 62
     7
100
AcDbLine
 10
6.9236308342
 20
2.3564211366
 30
0.0
 11
6.9236308342
 21
1.2314211366
 31
0.0
  0
LINE
  5
57
330
1F
100
AcDbEntity
  8
0
  6
CONTINUOUS
 62
     7
100
AcDbLine
 10
4.7981841288
 20
0.8557965305
 30
0.0
 11
6.1796352514
 21
0.8557965305
 31
0.0
  0
LINE
  5
58
330
1F
100
AcDbEntity
  8
0
  6
CONTINUOUS
 62
     7
100
AcDbLine
 10
4.7981841288
 20
1.1257965305
 30
0.0
 11
6.1796352514
 21
1.1257965305
 31
0.0
  0
LINE
  5
59
330
1F
100
AcDbEntity
  8
0
  6
CONTINUOUS
 62
     7
100
AcDbLine
 10
2.8210345579
 20
0.3920731707
 30
0.0
 11
2.8210345579
 21
2.3564211366
 31
0.0
  0
LINE
  5
5A
330
1F
100
AcDbEntity
  8
0
  6
CONTINUOUS
 62
     7
100
AcDbLine
 10
2.8210345579
 20
1.1064211366
 30
0.0
 11
4.7981841288
 21
1.1064211366
 31
0.0
  0
LINE
  5
5B
330
1F
100
AcDbEntity
  8
0
  6
CONTINUOUS
 62
     7
100
AcDbLine
 10
2.8210345579
 20
1.3564211366
 30
0.0
 11
4.7981841288
 21
1.3564211366
 31
0.0
  0
LINE
  5
5C
330
1F
100
AcDbEntity
  8
0
  6
CONTINUOUS
 62
     7
100
AcDbLine
 10
2.8210345579
 20
1.6064211366
 30
0.0
 11
4.7981841288
 21
1.6064211366
 31
0.0
  0
LINE
  5
5D
330
1F
100
AcDbEntity
  8
0
  6
CONTINUOUS
 62
     7
100
AcDbLine
 10
2.8210345579
 20
1.8564211366
 30
0.0
 11
4.7981841288
 21
1.8564211366
 31
0.0
  0
LINE
  5
5E
330
1F
100
AcDbEntity
  8
0
  6
CONTINUOUS
 62
     7
100
AcDbLine
 10
3.8190146875
 20
2.3564211366
 30
0.0
 11
3.8190146875
 21
0.5883479999
 31
0.0
  0
LINE
  5
5F
330
1F
100
AcDbEntity
  8
0
  6
CONTINUOUS
 62
     7
100
AcDbLine
 10
6.1796352514
 20
2.2020813496
 30
0.0
 11
4.7981841288
 21
2.2020813496
 31
0.0
  0
LINE
  5
60
330
1F
100
AcDbEntity
  8
0
  6
CONTINUOUS
 62
     7
100
AcDbLine
 10
7.8712070044
 20
1.6064211366
 30
0.0
 11
6.1796352514
 21
1.6064211366
 31
0.0
  0
LINE
  5
61
330
1F
100
AcDbEntity
  8
0
  6
CONTINUOUS
 62
     7
100
AcDbLine
 10
7.8712070044
 20
1.4189211366
 30
0.0
 11
6.1796352514
 21
1.4189211366
 31
0.0
  0
LINE
  5
62
330
1F
100
AcDbEntity
  8
0
  6
CONTINUOUS
 62
     7
100
AcDbLine
 10
2.8210345579
 20
2.1064211366
 30
0.0
 11
4.7981841288
 21
2.1064211366
 31
0.0
  0
LINE
  5
63
330
1F
100
AcDbEntity
  8
0
  6
CONTINUOUS
 62
     7
100
AcDbLine
 10
4.7981841288
 20
1.3957965305
 30
0.0
 11
6.1796352514
 21
1.3957965305
 31
0.0
  0
LINE
  5
64
330
1F
100
AcDbEntity
  8
0
  6
CONTINUOUS
 62
     7
100
AcDbLine
 10
2.8210345579
 20
0.8564211366
 30
0.0
 11
4.7981841288
 21
0.8564211366
 31
0.0
  0
LINE
  5
65
330
1F
100
AcDbEntity
  8
0
  6
CONTINUOUS
 62
     7
100
AcDbLine
 10
1.1838252943
 20
0.3920731707
 30
0.0
 11
1.1838252943
 21
1.3064211366
 31
0.0
  0
LINE
  5
66
330
1F
100
AcDbEntity
  8
0
  6
CONTINUOUS
 62
     7
100
AcDbLine
 10
2.8210345579
 20
1.3064211366
 30
0.0
 11
1.1838252943
 21
1.3064211366
 31
0.0
  0
LINE
  5
67
330
1F
100
AcDbEntity
  8
0
  6
CONTINUOUS
 62
     7
100
AcDbLine
 10
8.660927
 20
0.3920731707
 30
0.0
 11
8.660927
 21
0.3072739649
 31
0.0
  0
LINE
  5
68
330
1F
100
AcDbEntity
  8
0
  6
CONTINUOUS
 62
     7
100
AcDbLine
 10
6.692177
 20
0.3920731707
 30
0.0
 11
6.692177
 21
0.3072739649
 31
0.0
  0
LINE
  5
69
330
1F
100
AcDbEntity
  8
0
  6
CONTINUOUS
 62
     7
100
AcDbLine
 10
4.723427
 20
0.3920731707
 30
0.0
 11
4.723427
 21
0.3072739649
 31
0.0
  0
LINE
  5
6A
330
1F
100
AcDbEntity
  8
0
  6
CONTINUOUS
 62
     7
100
AcDbLine
 10
2.754677
 20
0.3920731707
 30
0.0
 11
2.754677
 21
0.3072739649
 31
0.0
  0
LINE
  5
6B
330
1F
100
AcDbEntity
  8
0
  6
CONTINUOUS
 62
     7
100
AcDbLine
 10
2.754677
 20
0.3920731707
 30
0.0
 11
2.7672319738
 21
0.3575
 31
0.0
  0
LINE
  5
6C
330
1F
100
AcDbEntity
  8
0
  6
CONTINUOUS
 62
     7
100
AcDbLine
 10
2.7672319738
 20
0.3575
 30
0.0
 11
2.7414258825
 21
0.3575
 31
0.0
  0
LINE
  5
6D
330
1F
100
AcDbEntity
  8
0
  6
CONTINUOUS
 62
     7
100
AcDbLine
 10
2.7414258825
 20
0.3575
 30
0.0
 11
2.754677
 21
0.3920731707
 31
0.0
  0
MTEXT
  5
91
330
1F
100
AcDbEntity
  8
0
  6
CONTINUOUS
 62
     7
100
AcDbMText
 10
4.9775846961
 20
0.5178452352
 30
0.0
 40
0.0625
 41
0.0
 71
     1
 72
     1
  1
DO NOT SCALE DRAWING
  7
SLDTEXTSTYLE0
  0
MTEXT
  5
92
330
1F
100
AcDbEntity
  8
0
  6
CONTINUOUS
 62
     7
100
AcDbMText
 10
8.7509805838
 20
0.9417064595
 30
0.0
 40
0.125
 41
0.0
 71
     1
 72
     1
  1
CL18-C104
  7
SLDTEXTSTYLE0
  0
MTEXT
  5
94
330
1F
100
AcDbEntity
  8
0
  6
CONTINUOUS
 62
     7
100
AcDbMText
 10
9.7571278483
 20
0.5524239532
 30
0.0
 40
0.1
 41
0.0
 71
     1
 72
     1
  1
SHEET 1 OF 1
  7
SLDTEXTSTYLE1
  0
MTEXT
  5
95
330
1F
100
AcDbEntity
  8
0
  6
CONTINUOUS
 62
     7
100
AcDbMText
 10
4.8448077858
 20
2.3132954224
 30
0.0
 40
0.07
 41
0.0
 71
     1
 72
     1
  1
UNLESS OTHERWISE SPECIFIED:
  7
SLDTEXTSTYLE0
  0
MTEXT
  5
96
330
1F
100
AcDbEntity
  8
0
  6
CONTINUOUS
 62
     7
100
AcDbMText
 10
7.9586139647
 20
0.5520987879
 30
0.0
 40
0.1
 41
0.0
 71
     1
 72
     1
  1
SCALE: 1:2
  7
SLDTEXTSTYLE0
  0
MTEXT
  5
97
330
1F
100
AcDbEntity
  8
0
  6
CONTINUOUS
 62
     7
100
AcDbMText
 10
8.7023691647
 20
0.5486763345
 30
0.0
 40
0.1
 41
0.0
 71
     1
 72
     1
  1
WEIGHT: 
  7
SLDTEXTSTYLE0
  0
MTEXT
  5
98
330
1F
100
AcDbEntity
  8
0
  6
CONTINUOUS
 62
     7
100
AcDbMText
 10
10.2277580983
 20
1.081966299
 30
0.0
 40
0.1
 41
0.0
 71
     1
 72
     1
  1
REV
  7
SLDTEXTSTYLE0
  0
MTEXT
  5
9A
330
1F
100
AcDbEntity
  8
0
  6
CONTINUOUS
 62
     7
100
AcDbMText
 10
8.2984570898
 20
1.0858725293
 30
0.0
 40
0.1
 41
0.0
 71
     1
 72
     1
  1
DWG.  NO.
  7
SLDTEXTSTYLE2
  0
MTEXT
  5
9B
330
1F
100
AcDbEntity
  8
0
  6
CONTINUOUS
 62
     7
100
AcDbMText
 10
7.9598482632
 20
0.9442140768
 30
0.0
 40
0.25
 41
0.0
 71
     1
 72
     1
  1
A
  7
SLDTEXTSTYLE0
  0
MTEXT
  5
9C
330
1F
100
AcDbEntity
  8
0
  6
CONTINUOUS
 62
     7
100
AcDbMText
 10
7.9519581822
 20
1.0872713483
 30
0.0
 40
0.1
 41
0.0
 71
     1
 72
     1
  1
SIZE
  7
SLDTEXTSTYLE0
  0
MTEXT
  5
9D
330
1F
100
AcDbEntity
  8
0
  6
CONTINUOUS
 62
     7
100
AcDbMText
 10
7.9170704177
 20
1.9547881128
 30
0.0
 40
0.1
 41
0.0
 71
     1
 72
     1
  1
TITLE:
  7
SLDTEXTSTYLE0
  0
MTEXT
  5
9E
330
1F
100
AcDbEntity
  8
0
  6
CONTINUOUS
 62
     7
100
AcDbMText
 10
7.0363774929
 20
2.2906161274
 30
0.0
 40
0.065
 41
0.0
 71
     1
 72
     1
  1
NAME
  7
SLDTEXTSTYLE0
  0
MTEXT
  5
9F
330
1F
100
AcDbEntity
  8
0
  6
CONTINUOUS
 62
     7
100
AcDbMText
 10
7.5281510634
 20
2.2888799118
 30
0.0
 40
0.065
 41
0.0
 71
     1
 72
     1
  1
DATE
  7
SLDTEXTSTYLE0
  0
MTEXT
  5
A0
330
1F
100
AcDbEntity
  8
0
  6
CONTINUOUS
 62
     7
100
AcDbMText
 10
6.2277147029
 20
1.1876913145
 30
0.0
 40
0.065
 41
0.0
 71
     1
 72
     1
  1
COMMENTS:
  7
SLDTEXTSTYLE0
  0
MTEXT
  5
A1
330
1F
100
AcDbEntity
  8
0
  6
CONTINUOUS
 62
     7
100
AcDbMText
 10
6.2268411461
 20
1.3536101679
 30
0.0
 40
0.065
 41
0.0
 71
     1
 72
     1
  1
Q.A.
  7
SLDTEXTSTYLE0
  0
MTEXT
  5
A2
330
1F
100
AcDbEntity
  8
0
  6
CONTINUOUS
 62
     7
100
AcDbMText
 10
6.2284654509
 20
1.5395328424
 30
0.0
 40
0.065
 41
0.0
 71
     1
 72
     1
  1
MFG APPR.
  7
SLDTEXTSTYLE0
  0
MTEXT
  5
A3
330
1F
100
AcDbEntity
  8
0
  6
CONTINUOUS
 62
     7
100
AcDbMText
 10
6.2235171344
 20
1.7267501785
 30
0.0
 40
0.065
 41
0.0
 71
     1
 72
     1
  1
ENG APPR.
  7
SLDTEXTSTYLE0
  0
MTEXT
  5
A4
330
1F
100
AcDbEntity
  8
0
  6
CONTINUOUS
 62
     7
100
AcDbMText
 10
6.2264103951
 20
1.9092699088
 30
0.0
 40
0.065
 41
0.0
 71
     1
 72
     1
  1
CHECKED
  7
SLDTEXTSTYLE0
  0
MTEXT
  5
A5
330
1F
100
AcDbEntity
  8
0
  6
CONTINUOUS
 62
     7
100
AcDbMText
 10
6.2242794356
 20
2.1016301232
 30
0.0
 40
0.065
 41
0.0
 71
     1
 72
     1
  1
DRAWN
  7
SLDTEXTSTYLE0
  0
MTEXT
  5
A6
330
1F
100
AcDbEntity
  8
0
  6
CONTINUOUS
 62
     7
100
AcDbMText
 10
4.8208600979
 20
0.834523235
 30
0.0
 40
0.06
 41
0.0
 71
     1
 72
     1
  1
FINISH
  7
SLDTEXTSTYLE0
  0
MTEXT
  5
A7
330
1F
100
AcDbEntity
  8
0
  6
CONTINUOUS
 62
     7
100
AcDbMText
 10
4.8181240648
 20
1.1028217587
 30
0.0
 40
0.06
 41
0.0
 71
     1
 72
     1
  1
MATERIAL
  7
SLDTEXTSTYLE0
  0
INSERT
  5
AD
330
1F
100
AcDbEntity
  8
0
  6
CONTINUOUS
 62
     7
100
AcDbBlockReference
  2
SW_NOTE_0
 10
4.8231926633
 20
1.2646542947
 30
0.0
  0
INSERT
  5
BD
330
1F
100
AcDbEntity
  8
0
  6
CONTINUOUS
 62
     7
100
AcDbBlockReference
  2
SW_NOTE_1
 10
4.8353339353
 20
2.0049168724
 30
0.0
  0
MTEXT
  5
BE
330
1F
100
AcDbEntity
  8
0
  6
CONTINUOUS
 62
     7
100
AcDbMText
 10
3.5531400086
 20
0.5200091997
 30
0.0
 40
0.0625
 41
0.0
 71
     1
 72
     1
  1
APPLICATION
  7
SLDTEXTSTYLE0
  0
MTEXT
  5
BF
330
1F
100
AcDbEntity
  8
0
  6
CONTINUOUS
 62
     7
100
AcDbMText
 10
4.1005607758
 20
0.7502454275
 30
0.0
 40
0.0625
 41
0.0
 71
     1
 72
     1
  1
USED ON
  7
SLDTEXTSTYLE0
  0
MTEXT
  5
C0
330
1F
100
AcDbEntity
  8
0
  6
CONTINUOUS
 62
     7
100
AcDbMText
 10
3.1040019536
 20
0.7492094783
 30
0.0
 40
0.0625
 41
0.0
 71
     1
 72
     1
  1
NEXT ASSY
  7
SLDTEXTSTYLE0
  0
MTEXT
  5
C1
330
1F
100
AcDbEntity
  8
0
  6
CONTINUOUS
 62
     7
100
AcDbMText
 10
1.3712489489
 20
1.2496672684
 30
0.0
 40
0.06
 41
0.0
 71
     1
 72
     1
  1
PROPRIETARY AND CONFIDENTIAL
  7
SLDTEXTSTYLE0
  0
INSERT
  5
CC
330
1F
100
AcDbEntity
  8
0
  6
CONTINUOUS
 62
     7
100
AcDbBlockReference
  2
SW_NOTE_2
 10
1.2226209074
 20
1.0313492921
 30
0.0
  0
MTEXT
  5
CD
330
1F
100
AcDbEntity
  8
0
  6
CONTINUOUS
 62
     7
100
AcDbMText
 10
1.7387909509
 20
0.3105864247
 30
0.0
 40
0.09375
 41
0.0
 71
     1
 72
     1
  1
5
  7
SLDTEXTSTYLE0
  0
MTEXT
  5
CE
330
1F
100
AcDbEntity
  8
0
  6
CONTINUOUS
 62
     7
100
AcDbMText
 10
3.723800327
 20
0.3137237518
 30
0.0
 40
0.09375
 41
0.0
 71
     1
 72
     1
  1
4
  7
SLDTEXTSTYLE0
  0
MTEXT
  5
CF
330
1F
100
AcDbEntity
  8
0
  6
CONTINUOUS
 62
     7
100
AcDbMText
 10
5.6324457277
 20
0.3116191842
 30
0.0
 40
0.09375
 41
0.0
 71
     1
 72
     1
  1
3
  7
SLDTEXTSTYLE0
  0
MTEXT
  5
D0
330
1F
100
AcDbEntity
  8
0
  6
CONTINUOUS
 62
     7
100
AcDbMText
 10
7.6059721724
 20
0.3124391351
 30
0.0
 40
0.09375
 41
0.0
 71
     1
 72
     1
  1
2
  7
SLDTEXTSTYLE0
  0
MTEXT
  5
D1
330
1F
100
AcDbEntity
  8
0
  6
CONTINUOUS
 62
     7
100
AcDbMText
 10
9.6619921328
 20
0.301372012
 30
0.0
 40
0.09375
 41
0.0
 71
     1
 72
     1
  1
1
  7
SLDTEXTSTYLE0
  0
LINE
  5
D2
330
1F
100
AcDbEntity
  8
0
  6
CONTINUOUS
 62
     7
100
AcDbLine
 10
3.6964326913
 20
2.7350562391
 30
0.0
 11
4.0081124813
 21
2.7350562391
 31
0.0
  0
LINE
  5
D3
330
1F
100
AcDbEntity
  8
0
  6
CONTINUOUS
 62
     7
100
AcDbLine
 10
3.4250613002
 20
2.7350562391
 30
0.0
 11
3.6701859722
 21
2.7350562391
 31
0.0
  0
LINE
  5
D4
330
1F
100
AcDbEntity
  8
0
  6
CONTINUOUS
 62
     7
100
AcDbLine
 10
3.6701859722
 20
4.7823003336
 30
0.0
 11
3.4250613002
 21
4.7823003336
 31
0.0
  0
LINE
  5
D5
330
1F
100
AcDbEntity
  8
0
  6
CONTINUOUS
 62
     7
100
AcDbLine
 10
4.0081124813
 20
4.7823003336
 30
0.0
 11
3.6964326913
 21
4.7823003336
 31
0.0
  0
LINE
  5
D6
330
1F
100
AcDbEntity
  8
0
  6
CONTINUOUS
 62
     7
100
AcDbLine
 10
4.0081124813
 20
2.7350562391
 30
0.0
 11
4.0156124813
 21
2.7425562391
 31
0.0
  0
LINE
  5
D7
330
1F
100
AcDbEntity
  8
0
  6
CONTINUOUS
 62
     7
100
AcDbLine
 10
4.0156124813
 20
4.7748003336
 30
0.0
 11
4.0081124813
 21
4.7823003336
 31
0.0
  0
LINE
  5
D8
330
1F
100
AcDbEntity
  8
0
  6
CONTINUOUS
 62
     7
100
AcDbLine
 10
3.7718920089
 20
3.7685208061
 30
0.0
 11
3.7718920089
 21
3.7488357667
 31
0.0
  0
LINE
  5
D9
330
1F
100
AcDbEntity
  8
0
  6
CONTINUOUS
 62
     7
100
AcDbLine
 10
3.9293723239
 20
3.7488357667
 30
0.0
 11
3.9293723239
 21
3.7685208061
 31
0.0
  0
LINE
  5
DA
330
1F
100
AcDbEntity
  8
0
  6
CONTINUOUS
 62
     7
100
AcDbLine
 10
2.6376597254
 20
2.7425562391
 30
0.0
 11
2.6451597254
 21
2.7350562391
 31
0.0
  0
LINE
  5
DB
330
1F
100
AcDbEntity
  8
0
  6
CONTINUOUS
 62
     7
100
AcDbLine
 10
3.2282109065
 20
4.7823003336
 30
0.0
 11
2.9830862346
 21
4.7823003336
 31
0.0
  0
LINE
  5
DC
330
1F
100
AcDbEntity
  8
0
  6
CONTINUOUS
 62
     7
100
AcDbLine
 10
2.6451597254
 20
2.7350562391
 30
0.0
 11
3.2282109065
 21
2.7350562391
 31
0.0
  0
LINE
  5
DD
330
1F
100
AcDbEntity
  8
0
  6
CONTINUOUS
 62
     7
100
AcDbLine
 10
3.2282109065
 20
3.6307255305
 30
0.0
 11
3.2971085443
 21
3.6307255305
 31
0.0
  0
LINE
  5
DE
330
1F
100
AcDbEntity
  8
0
  6
CONTINUOUS
 62
     7
100
AcDbLine
 10
3.2971085443
 20
3.8866310423
 30
0.0
 11
3.2282109065
 21
3.8866310423
 31
0.0
  0
LINE
  5
DF
330
1F
100
AcDbEntity
  8
0
  6
CONTINUOUS
 62
     7
100
AcDbLine
 10
3.3561636624
 20
3.6307255305
 30
0.0
 11
3.4250613002
 21
3.6307255305
 31
0.0
  0
LINE
  5
E0
330
1F
100
AcDbEntity
  8
0
  6
CONTINUOUS
 62
     7
100
AcDbLine
 10
3.4250613002
 20
3.8866310423
 30
0.0
 11
3.3561636624
 21
3.8866310423
 31
0.0
  0
LINE
  5
E1
330
1F
100
AcDbEntity
  8
0
  6
CONTINUOUS
 62
     7
100
AcDbLine
 10
3.2282109065
 20
4.4624184439
 30
0.0
 11
3.2971085443
 21
4.4624184439
 31
0.0
  0
LINE
  5
E2
330
1F
100
AcDbEntity
  8
0
  6
CONTINUOUS
 62
     7
100
AcDbLine
 10
3.2971085443
 20
4.7183239557
 30
0.0
 11
3.2282109065
 21
4.7183239557
 31
0.0
  0
LINE
  5
E3
330
1F
100
AcDbEntity
  8
0
  6
CONTINUOUS
 62
     7
100
AcDbLine
 10
3.3561636624
 20
4.4624184439
 30
0.0
 11
3.4250613002
 21
4.4624184439
 31
0.0
  0
LINE
  5
E4
330
1F
100
AcDbEntity
  8
0
  6
CONTINUOUS
 62
     7
100
AcDbLine
 10
3.4250613002
 20
4.7183239557
 30
0.0
 11
3.3561636624
 21
4.7183239557
 31
0.0
  0
LINE
  5
E5
330
1F
100
AcDbEntity
  8
0
  6
CONTINUOUS
 62
     7
100
AcDbLine
 10
3.2282109065
 20
2.7990326171
 30
0.0
 11
3.2971085443
 21
2.7990326171
 31
0.0
  0
LINE
  5
E6
330
1F
100
AcDbEntity
  8
0
  6
CONTINUOUS
 62
     7
100
AcDbLine
 10
3.2971085443
 20
3.0549381289
 30
0.0
 11
3.2282109065
 21
3.0549381289
 31
0.0
  0
LINE
  5
E7
330
1F
100
AcDbEntity
  8
0
  6
CONTINUOUS
 62
     7
100
AcDbLine
 10
3.3561636624
 20
2.7990326171
 30
0.0
 11
3.4250613002
 21
2.7990326171
 31
0.0
  0
LINE
  5
E8
330
1F
100
AcDbEntity
  8
0
  6
CONTINUOUS
 62
     7
100
AcDbLine
 10
3.4250613002
 20
3.0549381289
 30
0.0
 11
3.3561636624
 21
3.0549381289
 31
0.0
  0
LINE
  5
E9
330
1F
100
AcDbEntity
  8
0
  6
CONTINUOUS
 62
     7
100
AcDbLine
 10
3.3561636624
 20
4.7503121447
 30
0.0
 11
3.2971085443
 21
4.7503121447
 31
0.0
  0
LINE
  5
EA
330
1F
100
AcDbEntity
  8
0
  6
CONTINUOUS
 62
     7
100
AcDbLine
 10
3.2971085443
 20
2.7670444281
 30
0.0
 11
3.3561636624
 21
2.7670444281
 31
0.0
  0
LINE
  5
EB
330
1F
100
AcDbEntity
  8
0
  6
CONTINUOUS
 62
     7
100
AcDbLine
 10
3.4250613002
 20
4.7823003336
 30
0.0
 11
3.4250613002
 21
2.7350562391
 31
0.0
  0
SPLINE
  5
EC
330
1F
100
AcDbEntity
  8
0
  6
CONTINUOUS
 62
     7
100
AcDbSpline
210
0.0
220
0.0
230
1.0
 70
     8
 71
     3
 72
    90
 73
    86
 74
     0
 42
0.00000001
 43
0.00000001
 40
-0.0156249999999999
 40
-0.0156249999999999
 40
0.0
 40
0.0
 40
0.0312499999999998
 40
0.0312499999999998
 40
0.0468749999999998
 40
0.0468749999999998
 40
0.0624999999999997
 40
0.0624999999999997
 40
0.0781249999999997
 40
0.0781249999999997
 40
0.0937499999999996
 40
0.0937499999999996
 40
0.1249999999999995
 40
0.1249999999999995
 40
0.1562499999999994
 40
0.1562499999999994
 40
0.1874999999999993
 40
0.1874999999999993
 40
0.2187499999999992
 40
0.2187499999999992
 40
0.2499999999999991
 40
0.2499999999999991
 40
0.281249999999999
 40
0.281249999999999
 40
0.3124999999999989
 40
0.3124999999999989
 40
0.3437499999999988
 40
0.3437499999999988
 40
0.3749999999999987
 40
0.3749999999999987
 40
0.4062499999999986
 40
0.4062499999999986
 40
0.4218749999999985
 40
0.4218749999999985
 40
0.4374999999999984
 40
0.4374999999999984
 40
0.4531249999999983
 40
0.4531249999999983
 40
0.4687499999999983
 40
0.4687499999999983
 40
0.4843749999999982
 40
0.4843749999999982
 40
0.4999999999999981
 40
0.4999999999999981
 40
0.515624999999998
 40
0.515624999999998
 40
0.531249999999998
 40
0.531249999999998
 40
0.5468749999999979
 40
0.5468749999999979
 40
0.5624999999999978
 40
0.5624999999999978
 40
0.5937499999999981
 40
0.5937499999999981
 40
0.6093749999999984
 40
0.6093749999999984
 40
0.6249999999999988
 40
0.6249999999999988
 40
0.656249999999999
 40
0.656249999999999
 40
0.6874999999999991
 40
0.6874999999999991
 40
0.7187499999999993
 40
0.7187499999999993
 40
0.7499999999999994
 40
0.7499999999999994
 40
0.8125000000000001
 40
0.8125000000000001
 40
0.84375
 40
0.84375
 40
0.875
 40
0.875
 40
0.890625
 40
0.890625
 40
0.90625
 40
0.90625
 40
0.9218750000000001
 40
0.9218750000000001
 40
0.9375000000000001
 40
0.9375000000000001
 40
0.9687500000000001
 40
0.9687500000000001
 40
0.9843750000000001
 40
0.9843750000000001
 40
1.0
 40
1.0
 40
1.03125
 40
1.03125
 10
3.855574036602372
 20
4.633564783163683
 30
0.0
 10
3.840748425925292
 20
4.633564783163683
 30
0.0
 10
3.831096718040555
 20
4.63288129661067
 30
0.0
 10
3.816948724097748
 20
4.630866849133725
 30
0.0
 10
3.812256552787182
 20
4.630020106379461
 30
0.0
 10
3.803206622302373
 20
4.628026279486387
 30
0.0
 10
3.798835388592205
 20
4.626880052155389
 30
0.0
 10
3.790383999278091
 20
4.624295861189727
 30
0.0
 10
3.786303926740568
 20
4.622857830654609
 30
0.0
 10
3.778429935640234
 20
4.619684426493532
 30
0.0
 10
3.774659867603501
 20
4.617956227588666
 30
0.0
 10
3.764012886935076
 20
4.612448778726186
 30
0.0
 10
3.75769684526137
 20
4.608306760569302
 30
0.0
 10
3.74656981902314
 20
4.59913282823379
 30
0.0
 10
3.741893827333223
 20
4.59421700797773
 30
0.0
 10
3.734072103568121
 20
4.583747404263922
 30
0.0
 10
3.730924140032553
 20
4.578156661299882
 30
0.0
 10
3.726193017104271
 20
4.566660616181452
 30
0.0
 10
3.724577482859574
 20
4.560724099782572
 30
0.0
 10
3.722707923854216
 20
4.548472238651466
 30
0.0
 10
3.722466493183002
 20
4.54216007341745
 30
0.0
 10
3.723262090697325
 20
4.529486458975314
 30
0.0
 10
3.724291039110992
 20
4.523083399899426
 30
0.0
 10
3.727564486203361
 20
4.510149216364217
 30
0.0
 10
3.729829024361295
 20
4.503584671889022
 30
0.0
 10
3.735477981495869
 20
4.490667272158577
 30
0.0
 10
3.738864353068835
 20
4.484281214960276
 30
0.0
 10
3.746813308340724
 20
4.471697079906636
 30
0.0
 10
3.751373043975927
 20
4.465497953985509
 30
0.0
 10
3.761882177780217
 20
4.453380041089469
 30
0.0
 10
3.767733992112908
 20
4.447577460031144
 30
0.0
 10
3.77750670774626
 20
4.439470463721389
 30
0.0
 10
3.78093496645562
 20
4.43686466815319
 30
0.0
 10
3.788187775473556
 20
4.431888058094623
 30
0.0
 10
3.79201859654606
 20
4.429517270793495
 30
0.0
 10
3.799953131908672
 20
4.425173409935907
 30
0.0
 10
3.804076381875147
 20
4.423185411297254
 30
0.0
 10
3.812680725554765
 20
4.419641967863577
 30
0.0
 10
3.817200483255399
 20
4.418076236226544
 30
0.0
 10
3.826468048895452
 20
4.415525995694931
 30
0.0
 10
3.831188795727932
 20
4.414543894024294
 30
0.0
 10
3.840816675027736
 20
4.413213848904261
 30
0.0
 10
3.845775434791407
 20
4.412867466110927
 30
0.0
 10
3.855616060727201
 20
4.412873350965778
 30
0.0
 10
3.860480949407004
 20
4.413217005450791
 30
0.0
 10
3.87010543544821
 20
4.414549476388266
 30
0.0
 10
3.87490492169171
 20
4.415551083361676
 30
0.0
 10
3.884167951529107
 20
4.418109801808249
 30
0.0
 10
3.888631500212075
 20
4.419658875683171
 30
0.0
 10
3.897265187701037
 20
4.423220075585871
 30
0.0
 10
3.901458523018953
 20
4.425247186483817
 30
0.0
 10
3.913379561117841
 20
4.431794545567973
 30
0.0
 10
3.920523155526829
 20
4.436783095268781
 30
0.0
 10
3.930325448458773
 20
4.444920949815867
 30
0.0
 10
3.933450689931289
 20
4.447758775326536
 30
0.0
 10
3.939330046584784
 20
4.453546659647233
 30
0.0
 10
3.942089121534321
 20
4.456498384120801
 30
0.0
 10
3.949884177318385
 20
4.465495876108044
 30
0.0
 10
3.954442859342746
 20
4.471681975200601
 30
0.0
 10
3.962433122872921
 20
4.484335869797789
 30
0.0
 10
3.965874263542636
 20
4.490841995208434
 30
0.0
 10
3.971511700204834
 20
4.503786437421558
 30
0.0
 10
3.973731015120803
 20
4.510251817429013
 30
0.0
 10
3.976985277071892
 20
4.523151576763946
 30
0.0
 10
3.978021881438726
 20
4.529623027081635
 30
0.0
 10
3.979187510624657
 20
4.548727028382553
 30
0.0
 10
3.97745120371906
 20
4.560827259218892
 30
0.0
 10
3.970399121210295
 20
4.578038380787127
 30
0.0
 10
3.967252274753257
 20
4.583650161809293
 30
0.0
 10
3.959454947492774
 20
4.594120540161458
 30
0.0
 10
3.954796417097064
 20
4.59903167116987
 30
0.0
 10
3.946496686011364
 20
4.605899982479111
 30
0.0
 10
3.943498298353905
 20
4.608110802435768
 30
0.0
 10
3.937165817485484
 20
4.612264024031699
 30
0.0
 10
3.933818381056473
 20
4.614219219668381
 30
0.0
 10
3.926746054700418
 20
4.617888201077828
 30
0.0
 10
3.923021303962701
 20
4.619602053161277
 30
0.0
 10
3.915165866898114
 20
4.622781727425903
 30
0.0
 10
3.911020988596372
 20
4.624248938591976
 30
0.0
 10
3.898304133840142
 20
4.628148954967731
 30
0.0
 10
3.889348816241661
 20
4.630136003472603
 30
0.0
 10
3.875145449373647
 20
4.632179321075902
 30
0.0
 10
3.870268526907257
 20
4.632700825679406
 30
0.0
 10
3.860504365098999
 20
4.633390790015441
 30
0.0
 10
3.855574036602372
 20
4.633564783163683
 30
0.0
 10
3.840748425925292
 20
4.633564783163683
 30
0.0
  0
SPLINE
  5
ED
330
1F
100
AcDbEntity
  8
0
  6
CONTINUOUS
 62
     7
100
AcDbSpline
210
0.0
220
0.0
230
1.0
 70
     8
 71
     3
 72
    74
 73
    70
 74
     0
 42
0.00000001
 43
0.00000001
 40
-0.0156249999999997
 40
-0.0156249999999997
 40
0.0
 40
0.0
 40
0.0312500000000013
 40
0.0312500000000013
 40
0.0468750000000019
 40
0.0468750000000019
 40
0.0625000000000024
 40
0.0625000000000024
 40
0.093750000000003
 40
0.093750000000003
 40
0.1250000000000036
 40
0.1250000000000036
 40
0.1875000000000047
 40
0.1875000000000047
 40
0.2187500000000049
 40
0.2187500000000049
 40
0.2500000000000052
 40
0.2500000000000052
 40
0.2812500000000055
 40
0.2812500000000055
 40
0.3125000000000058
 40
0.3125000000000058
 40
0.3437500000000061
 40
0.3437500000000061
 40
0.3750000000000064
 40
0.3750000000000064
 40
0.4062500000000067
 40
0.4062500000000067
 40
0.4375000000000069
 40
0.4375000000000069
 40
0.453125000000007
 40
0.453125000000007
 40
0.468750000000007
 40
0.468750000000007
 40
0.484375000000007
 40
0.484375000000007
 40
0.5000000000000071
 40
0.5000000000000071
 40
0.5312500000000072
 40
0.5312500000000072
 40
0.5625000000000072
 40
0.5625000000000072
 40
0.5781250000000071
 40
0.5781250000000071
 40
0.593750000000007
 40
0.593750000000007
 40
0.6250000000000064
 40
0.6250000000000064
 40
0.6875000000000058
 40
0.6875000000000058
 40
0.7187500000000053
 40
0.7187500000000053
 40
0.750000000000005
 40
0.750000000000005
 40
0.8125000000000037
 40
0.8125000000000037
 40
0.8437500000000031
 40
0.8437500000000031
 40
0.8750000000000024
 40
0.8750000000000024
 40
0.9062500000000019
 40
0.9062500000000019
 40
0.9375000000000013
 40
0.9375000000000013
 40
0.9687500000000007
 40
0.9687500000000007
 40
0.9843750000000003
 40
0.9843750000000003
 40
1.0
 40
1.0
 40
1.031250000000001
 40
1.031250000000001
 10
3.847599658628029
 20
3.049428556748323
 30
0.0
 10
3.856697181873978
 20
3.049428556748323
 30
0.0
 10
3.86257138279433
 20
3.048708019505048
 30
0.0
 10
3.871127685075217
 20
3.046672316351489
 30
0.0
 10
3.87393546342171
 20
3.045829890505621
 30
0.0
 10
3.879293629330695
 20
3.043904800296799
 30
0.0
 10
3.881869158589589
 20
3.042816895350586
 30
0.0
 10
3.889317210479666
 20
3.039221176154913
 30
0.0
 10
3.893896791573688
 20
3.036378673951329
 30
0.0
 10
3.902066421209877
 20
3.030256380770494
 30
0.0
 10
3.905720134179872
 20
3.02694472759925
 30
0.0
 10
3.91557192834061
 20
3.016404097084895
 30
0.0
 10
3.920376284939806
 20
3.008943873906957
 30
0.0
 10
3.925457191445317
 20
2.997370992455072
 30
0.0
 10
3.926777299886938
 20
2.993445634117763
 30
0.0
 10
3.928627881521095
 20
2.985679763557175
 30
0.0
 10
3.929171549013256
 20
2.981811910667859
 30
0.0
 10
3.92948151423166
 20
2.974108326175766
 30
0.0
 10
3.929240660477623
 20
2.970242133123786
 30
0.0
 10
3.927933885541954
 20
2.962726236980026
 30
0.0
 10
3.926876391501584
 20
2.959073846938471
 30
0.0
 10
3.923907653898539
 20
2.951978923657465
 30
0.0
 10
3.92199773253193
 20
2.948536229684296
 30
0.0
 10
3.917190026198301
 20
2.941872716029933
 30
0.0
 10
3.914298834213555
 20
2.938679752165658
 30
0.0
 10
3.907632571387277
 20
2.932799422604079
 30
0.0
 10
3.903811519308975
 20
2.930063918836546
 30
0.0
 10
3.895178995464102
 20
2.925151556315577
 30
0.0
 10
3.890471957515538
 20
2.923027393239949
 30
0.0
 10
3.882762319160045
 20
2.920366815835697
 30
0.0
 10
3.880061448026438
 20
2.919563580639588
 30
0.0
 10
3.874559673810937
 20
2.918182830795991
 30
0.0
 10
3.871755627748616
 20
2.917601915033097
 30
0.0
 10
3.866040299612846
 20
2.916658074014211
 30
0.0
 10
3.863129041249941
 20
2.9162951027426
 30
0.0
 10
3.857193999927776
 20
2.915796024617495
 30
0.0
 10
3.854152840186585
 20
2.91566151126741
 30
0.0
 10
3.845151724457173
 20
2.915620547278651
 30
0.0
 10
3.839224659047763
 20
2.916059158863324
 30
0.0
 10
3.827532705915151
 20
2.917876337399078
 30
0.0
 10
3.822026386200644
 20
2.919214347224209
 30
0.0
 10
3.814225021037195
 20
2.921818494941867
 30
0.0
 10
3.811695647147384
 20
2.922791548965244
 30
0.0
 10
3.806903612797886
 20
2.924888394165234
 30
0.0
 10
3.804625067979826
 20
2.926016719331967
 30
0.0
 10
3.798117917540164
 20
2.929631134482536
 30
0.0
 10
3.794194483191624
 20
2.93237109813254
 30
0.0
 10
3.784003658687229
 20
2.941170337823563
 30
0.0
 10
3.77911947803644
 20
2.94795066023847
 30
0.0
 10
3.774512554643051
 20
2.958691517466203
 30
0.0
 10
3.773409102891394
 20
2.962408281707874
 30
0.0
 10
3.772049514468367
 20
2.969969174085324
 30
0.0
 10
3.771792150216168
 20
2.973788109678502
 30
0.0
 10
3.772193740576645
 20
2.985360402842846
 30
0.0
 10
3.774056601347908
 20
2.993306388544483
 30
0.0
 10
3.779063292297939
 20
3.004824462170433
 30
0.0
 10
3.781103117183148
 20
3.008618097293226
 30
0.0
 10
3.785994803559455
 20
3.016089319600895
 30
0.0
 10
3.788869185218535
 20
3.019785459513192
 30
0.0
 10
3.795370654985202
 20
3.026775848193684
 30
0.0
 10
3.79900853740839
 20
3.030098505191462
 30
0.0
 10
3.807230125499455
 20
3.036291032881956
 30
0.0
 10
3.811799348011697
 20
3.039135885046779
 30
0.0
 10
3.821697847020576
 20
3.043942059351341
 30
0.0
 10
3.827157002740339
 20
3.045951659722842
 30
0.0
 10
3.835686935691613
 20
3.047998482890457
 30
0.0
 10
3.83859450258808
 20
3.048526328856404
 30
0.0
 10
3.844549737544888
 20
3.049243119973853
 30
0.0
 10
3.847599658628029
 20
3.049428556748323
 30
0.0
 10
3.856697181873978
 20
3.049428556748323
 30
0.0
  0
LINE
  5
EE
330
1F
100
AcDbEntity
  8
0
  6
CONTINUOUS
 62
     7
100
AcDbLine
 10
3.6964326913
 20
3.7488357667
 30
0.0
 11
3.6964326913
 21
2.7350562391
 31
0.0
  0
LINE
  5
EF
330
1F
100
AcDbEntity
  8
0
  6
CONTINUOUS
 62
     7
100
AcDbLine
 10
4.0081124813
 20
3.7488357667
 30
0.0
 11
3.6964326913
 21
3.7488357667
 31
0.0
  0
LINE
  5
F0
330
1F
100
AcDbEntity
  8
0
  6
CONTINUOUS
 62
     7
100
AcDbLine
 10
4.0081124813
 20
3.7685208061
 30
0.0
 11
4.0081124813
 21
4.7823003336
 31
0.0
  0
LINE
  5
F1
330
1F
100
AcDbEntity
  8
0
  6
CONTINUOUS
 62
     7
100
AcDbLine
 10
4.0081124813
 20
2.7350562391
 30
0.0
 11
4.0081124813
 21
3.7488357667
 31
0.0
  0
LINE
  5
F2
330
1F
100
AcDbEntity
  8
0
  6
CONTINUOUS
 62
     7
100
AcDbLine
 10
4.0081124813
 20
3.7685208061
 30
0.0
 11
3.6964326913
 21
3.7685208061
 31
0.0
  0
LINE
  5
F3
330
1F
100
AcDbEntity
  8
0
  6
CONTINUOUS
 62
     7
100
AcDbLine
 10
3.6964326913
 20
4.7823003336
 30
0.0
 11
3.6964326913
 21
3.7685208061
 31
0.0
  0
LINE
  5
F4
330
1F
100
AcDbEntity
  8
0
  6
CONTINUOUS
 62
     7
100
AcDbLine
 10
3.6701859722
 20
4.6641767243
 30
0.0
 11
3.6964326913
 21
4.6641767243
 31
0.0
  0
LINE
  5
F5
330
1F
100
AcDbEntity
  8
0
  6
CONTINUOUS
 62
     7
100
AcDbLine
 10
3.6701859722
 20
2.7350562391
 30
0.0
 11
3.6701859722
 21
4.7823003336
 31
0.0
  0
LINE
  5
F6
330
1F
100
AcDbEntity
  8
0
  6
CONTINUOUS
 62
     7
100
AcDbLine
 10
3.6964326913
 20
2.8531798485
 30
0.0
 11
3.6701859722
 21
2.8531798485
 31
0.0
  0
LINE
  5
F7
330
1F
100
AcDbEntity
  8
0
  6
CONTINUOUS
 62
     7
100
AcDbLine
 10
4.0156124813
 20
3.7488357667
 30
0.0
 11
4.0156124813
 21
2.7425562391
 31
0.0
  0
LINE
  5
F8
330
1F
100
AcDbEntity
  8
0
  6
CONTINUOUS
 62
     7
100
AcDbLine
 10
4.0156124813
 20
4.7748003336
 30
0.0
 11
4.0156124813
 21
3.7685208061
 31
0.0
  0
LINE
  5
F9
330
1F
100
AcDbEntity
  8
0
  6
CONTINUOUS
 62
     7
100
AcDbLine
 10
4.0081124813
 20
3.7685208061
 30
0.0
 11
4.0156124813
 21
3.7685208061
 31
0.0
  0
LINE
  5
FA
330
1F
100
AcDbEntity
  8
0
  6
CONTINUOUS
 62
     7
100
AcDbLine
 10
4.0081124813
 20
3.7488357667
 30
0.0
 11
4.0156124813
 21
3.7488357667
 31
0.0
  0
LINE
  5
FB
330
1F
100
AcDbEntity
  8
0
  6
CONTINUOUS
 62
     7
100
AcDbLine
 10
3.6964326913
 20
3.7685208061
 30
0.0
 11
3.6964326913
 21
3.7488357667
 31
0.0
  0
LINE
  5
FC
330
1F
100
AcDbEntity
  8
0
  6
CONTINUOUS
 62
     7
100
AcDbLine
 10
4.0156124813
 20
3.7685208061
 30
0.0
 11
4.0156124813
 21
3.7488357667
 31
0.0
  0
LINE
  5
FD
330
1F
100
AcDbEntity
  8
0
  6
CONTINUOUS
 62
     7
100
AcDbLine
 10
3.8506321664
 20
4.4328908848
 30
0.0
 11
3.9141934327
 21
4.4328908848
 31
0.0
  0
LINE
  5
FE
330
1F
100
AcDbEntity
  8
0
  6
CONTINUOUS
 62
     7
100
AcDbLine
 10
3.7869199539
 20
4.4328908848
 30
0.0
 11
3.8506321664
 21
4.4328908848
 31
0.0
  0
CIRCLE
  5
FF
330
1F
100
AcDbEntity
  8
0
  6
CONTINUOUS
 62
     7
100
AcDbCircle
 10
2.8026400404
 20
4.418021401
 30
0.0
 40
0.0688976377952759
  0
LINE
  5
100
330
1F
100
AcDbEntity
  8
0
  6
CONTINUOUS
 62
     7
100
AcDbLine
 10
2.6451597254
 20
2.7350562391
 30
0.0
 11
2.6451597254
 21
4.7822530127
 31
0.0
  0
LINE
  5
101
330
1F
100
AcDbEntity
  8
0
  6
CONTINUOUS
 62
     7
100
AcDbLine
 10
2.6376597254
 20
4.7747526634
 30
0.0
 11
2.6376597254
 21
2.7425562391
 31
0.0
  0
LINE
  5
102
330
1F
100
AcDbEntity
  8
0
  6
CONTINUOUS
 62
     7
100
AcDbLine
 10
2.6451597254
 20
4.7822530127
 30
0.0
 11
2.6376597254
 21
4.7747526634
 31
0.0
  0
LINE
  5
103
330
1F
100
AcDbEntity
  8
0
  6
CONTINUOUS
 62
     7
100
AcDbLine
 10
3.2282109065
 20
4.7823003336
 30
0.0
 11
3.2282109065
 21
2.7350562391
 31
0.0
  0
SPLINE
  5
104
330
1F
100
AcDbEntity
  8
0
  6
CONTINUOUS
 62
     7
100
AcDbSpline
210
0.0
220
0.0
230
1.0
 70
     8
 71
     3
 72
    74
 73
    70
 74
     0
 42
0.00000001
 43
0.00000001
 40
-0.0156250000000002
 40
-0.0156250000000002
 40
0.0
 40
0.0
 40
0.03125
 40
0.03125
 40
0.0468749999999999
 40
0.0468749999999999
 40
0.0624999999999998
 40
0.0624999999999998
 40
0.0937499999999997
 40
0.0937499999999997
 40
0.1249999999999995
 40
0.1249999999999995
 40
0.187499999999999
 40
0.187499999999999
 40
0.2187499999999988
 40
0.2187499999999988
 40
0.2499999999999986
 40
0.2499999999999986
 40
0.2812499999999984
 40
0.2812499999999984
 40
0.3124999999999982
 40
0.3124999999999982
 40
0.343749999999998
 40
0.343749999999998
 40
0.3749999999999978
 40
0.3749999999999978
 40
0.4062499999999976
 40
0.4062499999999976
 40
0.4374999999999973
 40
0.4374999999999973
 40
0.4531249999999972
 40
0.4531249999999972
 40
0.4687499999999971
 40
0.4687499999999971
 40
0.484374999999997
 40
0.484374999999997
 40
0.4999999999999969
 40
0.4999999999999969
 40
0.531249999999997
 40
0.531249999999997
 40
0.5624999999999971
 40
0.5624999999999971
 40
0.5781249999999971
 40
0.5781249999999971
 40
0.5937499999999971
 40
0.5937499999999971
 40
0.6249999999999971
 40
0.6249999999999971
 40
0.6874999999999976
 40
0.6874999999999976
 40
0.7187499999999978
 40
0.7187499999999978
 40
0.749999999999998
 40
0.749999999999998
 40
0.8124999999999984
 40
0.8124999999999984
 40
0.8437499999999987
 40
0.8437499999999987
 40
0.8749999999999989
 40
0.8749999999999989
 40
0.9062499999999991
 40
0.9062499999999991
 40
0.9374999999999993
 40
0.9374999999999993
 40
0.9687499999999996
 40
0.9687499999999996
 40
0.9843749999999998
 40
0.9843749999999998
 40
1.0
 40
1.0
 40
1.03125
 40
1.03125
 10
2.805672548141076
 20
4.496761558526363
 30
0.0
 10
2.796575024895128
 20
4.496761558526362
 30
0.0
 10
2.790700823974774
 20
4.496070907442438
 30
0.0
 10
2.782144521693888
 20
4.494103663089466
 30
0.0
 10
2.779336743347395
 20
4.493287749703936
 30
0.0
 10
2.77397857743841
 20
4.491414775643454
 30
0.0
 10
2.771403048179516
 20
4.490352657412475
 30
0.0
 10
2.763954996289438
 20
4.486823083313973
 30
0.0
 10
2.759375415195417
 20
4.48400868520535
 30
0.0
 10
2.751205785559228
 20
4.477860074944387
 30
0.0
 10
2.747552072589234
 20
4.474495020488734
 30
0.0
 10
2.737700278428495
 20
4.463613129183564
 30
0.0
 10
2.732895921829299
 20
4.455694763831119
 30
0.0
 10
2.727815015323789
 20
4.442963454047309
 30
0.0
 10
2.726494906882167
 20
4.438572181083091
 30
0.0
 10
2.72464432524801
 20
4.42972970308081
 30
0.0
 10
2.724100657755849
 20
4.425248762133704
 30
0.0
 10
2.723790692537444
 20
4.416164059916856
 30
0.0
 10
2.724031546291481
 20
4.411522632329041
 30
0.0
 10
2.725338321227151
 20
4.402337857003062
 30
0.0
 10
2.726395815267521
 20
4.397792967897789
 30
0.0
 10
2.729364552870566
 20
4.388813965332441
 30
0.0
 10
2.731274474237175
 20
4.384379550109874
 30
0.0
 10
2.736082180570804
 20
4.375655501279413
 30
0.0
 10
2.73897337255555
 20
4.371400851739345
 30
0.0
 10
2.745639635381827
 20
4.363451500553766
 30
0.0
 10
2.749460687460131
 20
4.359692450792631
 30
0.0
 10
2.758093211305003
 20
4.352860906617145
 30
0.0
 10
2.762800249253567
 20
4.349862854340338
 30
0.0
 10
2.77050988760906
 20
4.346077939259089
 30
0.0
 10
2.773210758742668
 20
4.344929140696889
 30
0.0
 10
2.778712532958168
 20
4.342947866898831
 30
0.0
 10
2.781516579020488
 20
4.342110647763241
 30
0.0
 10
2.78723190715626
 20
4.340747650558114
 30
0.0
 10
2.790143165519164
 20
4.340221802111724
 30
0.0
 10
2.796078206841329
 20
4.339498208189495
 30
0.0
 10
2.79911936658252
 20
4.339302789011588
 30
0.0
 10
2.808120482311931
 20
4.339243309833303
 30
0.0
 10
2.814047547721342
 20
4.33988190879329
 30
0.0
 10
2.825739500853953
 20
4.342507651308901
 30
0.0
 10
2.831245820568461
 20
4.344435503648659
 30
0.0
 10
2.83904718573191
 20
4.348144202997879
 30
0.0
 10
2.841576559621722
 20
4.349524070434236
 30
0.0
 10
2.846368593971219
 20
4.352479426460719
 30
0.0
 10
2.848647138789279
 20
4.354061420921657
 30
0.0
 10
2.855154289228941
 20
4.359094793213059
 30
0.0
 10
2.859077723577482
 20
4.362866086945624
 30
0.0
 10
2.869268548081876
 20
4.374779201862206
 30
0.0
 10
2.874152728732665
 20
4.383703428478061
 30
0.0
 10
2.878759652126054
 20
4.397314856953738
 30
0.0
 10
2.879863103877711
 20
4.401944833065916
 30
0.0
 10
2.881222692300737
 20
4.411193195488995
 30
0.0
 10
2.881480056552937
 20
4.415781869707854
 30
0.0
 10
2.88107846619246
 20
4.429442029450637
 30
0.0
 10
2.879215605421197
 20
4.438485888135142
 30
0.0
 10
2.874208914471166
 20
4.451165912823173
 30
0.0
 10
2.872169089585956
 20
4.455271137430189
 30
0.0
 10
2.86727740320965
 20
4.463230281484287
 30
0.0
 10
2.86440302155057
 20
4.467102406260763
 30
0.0
 10
2.857901551783902
 20
4.474322167232289
 30
0.0
 10
2.854263669360715
 20
4.477700442450391
 30
0.0
 10
2.846042081269649
 20
4.483921703765296
 30
0.0
 10
2.841472858757407
 20
4.486738840080609
 30
0.0
 10
2.831574359748529
 20
4.491457627617375
 30
0.0
 10
2.826115204028766
 20
4.493407115571294
 30
0.0
 10
2.817585271077491
 20
4.495385292464122
 30
0.0
 10
2.814677704181025
 20
4.495893682472487
 30
0.0
 10
2.808722469224218
 20
4.496583488744581
 30
0.0
 10
2.805672548141076
 20
4.496761558526363
 30
0.0
 10
2.796575024895128
 20
4.496761558526362
 30
0.0
  0
LINE
  5
105
330
1F
100
AcDbEntity
  8
0
  6
CONTINUOUS
 62
     7
100
AcDbLine
 10
2.6451597254
 20
4.7822530127
 30
0.0
 11
2.9568395155
 21
4.7822530127
 31
0.0
  0
LINE
  5
106
330
1F
100
AcDbEntity
  8
0
  6
CONTINUOUS
 62
     7
100
AcDbLine
 10
2.9568395155
 20
3.2813160817
 30
0.0
 11
2.9830862346
 21
3.2813160817
 31
0.0
  0
LINE
  5
107
330
1F
100
AcDbEntity
  8
0
  6
CONTINUOUS
 62
     7
100
AcDbLine
 10
2.9568395155
 20
4.7822530127
 30
0.0
 11
2.9568395155
 21
3.2813160817
 31
0.0
  0
LINE
  5
108
330
1F
100
AcDbEntity
  8
0
  6
CONTINUOUS
 62
     7
100
AcDbLine
 10
2.9830862346
 20
3.2813160817
 30
0.0
 11
2.9830862346
 21
4.7823003336
 31
0.0
  0
LINE
  5
109
330
1F
100
AcDbEntity
  8
0
  6
CONTINUOUS
 62
     7
100
AcDbLine
 10
3.3561636624
 20
3.8717736131
 30
0.0
 11
3.2971085443
 21
3.8717736131
 31
0.0
  0
LINE
  5
10A
330
1F
100
AcDbEntity
  8
0
  6
CONTINUOUS
 62
     7
100
AcDbLine
 10
3.3561636624
 20
3.6455829597
 30
0.0
 11
3.2971085443
 21
3.6455829597
 31
0.0
  0
LINE
  5
10B
330
1F
100
AcDbEntity
  8
0
  6
CONTINUOUS
 62
     7
100
AcDbLine
 10
3.2971085443
 20
3.8717736131
 30
0.0
 11
3.2971085443
 21
3.6455829597
 31
0.0
  0
LINE
  5
10C
330
1F
100
AcDbEntity
  8
0
  6
CONTINUOUS
 62
     7
100
AcDbLine
 10
3.3561636624
 20
3.8717736131
 30
0.0
 11
3.3561636624
 21
3.6455829597
 31
0.0
  0
LINE
  5
10D
330
1F
100
AcDbEntity
  8
0
  6
CONTINUOUS
 62
     7
100
AcDbLine
 10
3.3561636624
 20
2.8138900463
 30
0.0
 11
3.2971085443
 21
2.8138900463
 31
0.0
  0
LINE
  5
10E
330
1F
100
AcDbEntity
  8
0
  6
CONTINUOUS
 62
     7
100
AcDbLine
 10
3.2971085443
 20
3.6455829597
 30
0.0
 11
3.2971085443
 21
2.8138900463
 31
0.0
  0
LINE
  5
10F
330
1F
100
AcDbEntity
  8
0
  6
CONTINUOUS
 62
     7
100
AcDbLine
 10
3.3561636624
 20
3.6455829597
 30
0.0
 11
3.3561636624
 21
2.8138900463
 31
0.0
  0
LINE
  5
110
330
1F
100
AcDbEntity
  8
0
  6
CONTINUOUS
 62
     7
100
AcDbLine
 10
3.3561636624
 20
4.7034665265
 30
0.0
 11
3.2971085443
 21
4.7034665265
 31
0.0
  0
LINE
  5
111
330
1F
100
AcDbEntity
  8
0
  6
CONTINUOUS
 62
     7
100
AcDbLine
 10
3.2971085443
 20
4.7034665265
 30
0.0
 11
3.2971085443
 21
3.8717736131
 31
0.0
  0
LINE
  5
112
330
1F
100
AcDbEntity
  8
0
  6
CONTINUOUS
 62
     7
100
AcDbLine
 10
3.3561636624
 20
4.7034665265
 30
0.0
 11
3.3561636624
 21
3.8717736131
 31
0.0
  0
LINE
  5
113
330
1F
100
AcDbEntity
  8
0
  6
CONTINUOUS
 62
     7
100
AcDbLine
 10
3.2971085443
 20
4.7503121447
 30
0.0
 11
3.2971085443
 21
4.7034665265
 31
0.0
  0
LINE
  5
114
330
1F
100
AcDbEntity
  8
0
  6
CONTINUOUS
 62
     7
100
AcDbLine
 10
3.3561636624
 20
4.7503121447
 30
0.0
 11
3.3561636624
 21
4.7034665265
 31
0.0
  0
LINE
  5
115
330
1F
100
AcDbEntity
  8
0
  6
CONTINUOUS
 62
     7
100
AcDbLine
 10
3.2971085443
 20
2.8138900463
 30
0.0
 11
3.2971085443
 21
2.7670444281
 31
0.0
  0
LINE
  5
116
330
1F
100
AcDbEntity
  8
0
  6
CONTINUOUS
 62
     7
100
AcDbLine
 10
3.3561636624
 20
2.8138900463
 30
0.0
 11
3.3561636624
 21
2.7670444281
 31
0.0
  0
LINE
  5
117
330
1F
100
AcDbEntity
  8
0
  6
CONTINUOUS
 62
     8
100
AcDbLine
 10
3.8506321664
 20
4.4230483651
 30
0.0
 11
3.8045631951
 21
4.4230483651
 31
0.0
  0
LINE
  5
118
330
1F
100
AcDbEntity
  8
0
  6
CONTINUOUS
 62
     8
100
AcDbLine
 10
3.8966607754
 20
4.4230483651
 30
0.0
 11
3.8506321664
 21
4.4230483651
 31
0.0
  0
LINE
  5
119
330
1F
100
AcDbEntity
  8
0
  6
HIDDEN
 62
     7
100
AcDbLine
 10
4.0081124813
 20
3.7685208061
 30
0.0
 11
4.0081124813
 21
3.7488357667
 31
0.0
  0
LINE
  5
11A
330
1F
100
AcDbEntity
  8
0
  6
HIDDEN
 62
     7
100
AcDbLine
 10
3.8506321664
 20
4.2754105699
 30
0.0
 11
3.9785849223
 21
4.2754105699
 31
0.0
  0
LINE
  5
11B
330
1F
100
AcDbEntity
  8
0
  6
HIDDEN
 62
     7
100
AcDbLine
 10
3.7226794105
 20
4.2754105699
 30
0.0
 11
3.8506321664
 21
4.2754105699
 31
0.0
  0
SPLINE
  5
11C
330
1F
100
AcDbEntity
  8
0
  6
HIDDEN
 62
     7
100
AcDbSpline
210
0.0
220
0.0
230
1.0
 70
     8
 71
     3
 72
     8
 73
     4
 74
     0
 42
0.00000001
 43
0.00000001
 40
0.0
 40
0.0
 40
0.0
 40
0.0
 40
1.0
 40
1.0
 40
1.0
 40
1.0
 10
3.893825138955133
 20
3.768520806077087
 30
0.0
 10
3.894355292183019
 20
3.76195912628706
 30
0.0
 10
3.89435529218302
 20
3.755397446497034
 30
0.0
 10
3.893825138955134
 20
3.748835766707008
 30
0.0
  0
LINE
  5
11D
330
1F
100
AcDbEntity
  8
0
  6
HIDDEN
 62
     7
100
AcDbLine
 10
3.9141934327
 20
4.4328908848
 30
0.0
 11
3.9687424026
 21
4.4328908848
 31
0.0
  0
LINE
  5
11E
330
1F
100
AcDbEntity
  8
0
  6
HIDDEN
 62
     7
100
AcDbLine
 10
3.7325219302
 20
4.4328908848
 30
0.0
 11
3.7869199539
 21
4.4328908848
 31
0.0
  0
LINE
  5
11F
330
1F
100
AcDbEntity
  8
0
  6
HIDDEN
 62
     7
100
AcDbLine
 10
3.9293013763
 20
3.1090719872
 30
0.0
 11
3.7719629564
 21
3.1090719872
 31
0.0
  0
LINE
  5
120
330
1F
100
AcDbEntity
  8
0
  6
HIDDEN
 62
     7
100
AcDbLine
 10
3.9195298042
 20
3.0992294675
 30
0.0
 11
3.7817345286
 21
3.0992294675
 31
0.0
  0
LINE
  5
121
330
1F
100
AcDbEntity
  8
0
  6
HIDDEN
 62
     7
100
AcDbLine
 10
3.8506321664
 20
4.3147806486
 30
0.0
 11
3.9096872845
 21
4.3147806486
 31
0.0
  0
LINE
  5
122
330
1F
100
AcDbEntity
  8
0
  6
HIDDEN
 62
     7
100
AcDbLine
 10
3.8506321664
 20
4.3147806486
 30
0.0
 11
3.8506321664
 21
4.4328908848
 31
0.0
  0
LINE
  5
123
330
1F
100
AcDbEntity
  8
0
  6
HIDDEN
 62
     7
100
AcDbLine
 10
3.7915770483
 20
4.3147806486
 30
0.0
 11
3.8506321664
 21
4.3147806486
 31
0.0
  0
LINE
  5
124
330
1F
100
AcDbEntity
  8
0
  6
HIDDEN
 62
     7
100
AcDbLine
 10
3.9096872845
 20
4.3147806486
 30
0.0
 11
3.9096872845
 21
4.4328908848
 31
0.0
  0
LINE
  5
125
330
1F
100
AcDbEntity
  8
0
  6
HIDDEN
 62
     7
100
AcDbLine
 10
3.7915770483
 20
4.3147806486
 30
0.0
 11
3.7915770483
 21
4.4328908848
 31
0.0
  0
LINE
  5
126
330
1F
100
AcDbEntity
  8
0
  6
HIDDEN
 62
     7
100
AcDbLine
 10
2.8813801979
 20
4.418021401
 30
0.0
 11
2.8811747788
 21
4.4237053483
 31
0.0
  0
ARC
  5
127
330
1F
100
AcDbEntity
  8
0
  6
HIDDEN
 62
     7
100
AcDbCircle
 10
2.8026400404
 20
4.418021401
 30
0.0
 40
0.0787401574803147
100
AcDbArc
 50
83.4016335463
 51
97.5338231211
  0
LINE
  5
128
330
1F
100
AcDbEntity
  8
0
  6
HIDDEN
 62
     7
100
AcDbLine
 10
2.7998655926
 20
4.3393301383
 30
0.0
 11
2.8026400404
 21
4.3392812436
 31
0.0
  0
CIRCLE
  5
129
330
1F
100
AcDbEntity
  8
0
  6
HIDDEN
 62
     7
100
AcDbCircle
 10
2.8026400404
 20
4.418021401
 30
0.0
 40
0.127952755905512
  0
LINE
  5
12A
330
1F
100
AcDbEntity
  8
0
  6
HIDDEN
 62
     7
100
AcDbLine
 10
2.7435849223
 20
4.3839259127
 30
0.0
 11
2.8026400404
 21
4.3498304244
 31
0.0
  0
LINE
  5
12B
330
1F
100
AcDbEntity
  8
0
  6
HIDDEN
 62
     7
100
AcDbLine
 10
2.8026400404
 20
4.3498304244
 30
0.0
 11
2.8616951585
 21
4.3839259127
 31
0.0
  0
LINE
  5
12C
330
1F
100
AcDbEntity
  8
0
  6
HIDDEN
 62
     7
100
AcDbLine
 10
2.8616951585
 20
4.3839259127
 30
0.0
 11
2.8616951585
 21
4.4521168894
 31
0.0
  0
LINE
  5
12D
330
1F
100
AcDbEntity
  8
0
  6
HIDDEN
 62
     7
100
AcDbLine
 10
2.7435849223
 20
4.4521168894
 30
0.0
 11
2.7435849223
 21
4.3839259127
 31
0.0
  0
LINE
  5
12E
330
1F
100
AcDbEntity
  8
0
  6
HIDDEN
 62
     7
100
AcDbLine
 10
2.8026400404
 20
4.4862123777
 30
0.0
 11
2.7435849223
 21
4.4521168894
 31
0.0
  0
LINE
  5
12F
330
1F
100
AcDbEntity
  8
0
  6
HIDDEN
 62
     7
100
AcDbLine
 10
2.8616951585
 20
4.4521168894
 30
0.0
 11
2.8026400404
 21
4.4862123777
 31
0.0
  0
CIRCLE
  5
130
330
1F
100
AcDbEntity
  8
0
  6
HIDDEN
 62
     7
100
AcDbCircle
 10
2.8026400404
 20
4.418021401
 30
0.0
 40
0.1181102362204731
  0
LINE
  5
131
330
1F
100
AcDbEntity
  8
0
  6
HIDDEN
 62
     7
100
AcDbLine
 10
2.6451597254
 20
3.4635667834
 30
0.0
 11
2.7594470678
 21
3.4635667834
 31
0.0
  0
POLYLINE
  5
132
330
1F
100
AcDbEntity
  8
0
  6
HIDDEN
 62
     7
100
AcDb2dPolyline
 66
     1
 10
0.0
 20
0.0
 30
0.0
  0
VERTEX
  5
2B5
330
132
100
AcDbEntity
  8
0
  6
HIDDEN
 62
     7
100
AcDbVertex
100
AcDb2dVertex
 10
2.7594470678
 20
3.4635667834
 30
0.0
  0
VERTEX
  5
2B6
330
132
100
AcDbEntity
  8
0
  6
HIDDEN
 62
     7
100
AcDbVertex
100
AcDb2dVertex
 10
2.7594470678
 20
3.4635667834
 30
0.0
  0
SEQEND
  5
2B7
330
132
100
AcDbEntity
  8
0
  6
HIDDEN
 62
     7
  0
LINE
  5
133
330
1F
100
AcDbEntity
  8
0
  6
HIDDEN
 62
     7
100
AcDbLine
 10
2.9568395155
 20
4.0537897894
 30
0.0
 11
2.6451597254
 21
4.0537897894
 31
0.0
  0
LINE
  5
134
330
1F
100
AcDbEntity
  8
0
  6
HIDDEN
 62
     7
100
AcDbLine
 10
3.3561636624
 20
4.7034665265
 30
0.0
 11
3.2971085443
 21
4.7034665265
 31
0.0
  0
LINE
  5
135
330
1F
100
AcDbEntity
  8
0
  6
HIDDEN
 62
     7
100
AcDbLine
 10
3.3561636624
 20
2.8138900463
 30
0.0
 11
3.2971085443
 21
2.8138900463
 31
0.0
  0
ARC
  5
136
330
1F
100
AcDbEntity
  8
0
  6
HIDDEN
 62
     7
100
AcDbCircle
 10
2.6376597254
 20
3.758598276
 30
0.0
 40
0.3191797900262472
100
AcDbArc
 50
270.0
 51
292.4305601238
  0
LINE
  5
137
330
1F
100
AcDbEntity
  8
0
  6
HIDDEN
 62
     7
100
AcDbLine
 10
2.6451597254
 20
3.4635667834
 30
0.0
 11
2.6376597254
 21
3.4560627167
 31
0.0
  0
LINE
  5
138
330
1F
100
AcDbEntity
  8
0
  6
HIDDEN
 62
     7
100
AcDbLine
 10
2.6376597254
 20
4.0612938561
 30
0.0
 11
2.6451597254
 21
4.0537897894
 31
0.0
  0
LINE
  5
139
330
1F
100
AcDbEntity
  8
0
  6
HIDDEN
 62
     7
100
AcDbLine
 10
3.3561636624
 20
3.6455829597
 30
0.0
 11
3.2971085443
 21
3.6455829597
 31
0.0
  0
LINE
  5
13A
330
1F
100
AcDbEntity
  8
0
  6
HIDDEN
 62
     7
100
AcDbLine
 10
3.3561636624
 20
3.8717736131
 30
0.0
 11
3.2971085443
 21
3.8717736131
 31
0.0
  0
LINE
  5
13B
330
1F
100
AcDbEntity
  8
0
  6
HIDDEN
 62
     7
100
AcDbLine
 10
3.9785849223
 20
4.2754105699
 30
0.0
 11
3.9785849223
 21
4.5414214864
 31
0.0
  0
LINE
  5
13C
330
1F
100
AcDbEntity
  8
0
  6
HIDDEN
 62
     7
100
AcDbLine
 10
3.7226794105
 20
4.5415278703
 30
0.0
 11
3.7226794105
 21
4.2754105699
 31
0.0
  0
LINE
  5
13D
330
1F
100
AcDbEntity
  8
0
  6
HIDDEN
 62
     7
100
AcDbLine
 10
3.7718920089
 20
4.2754105699
 30
0.0
 11
3.7718920089
 21
3.7685208061
 31
0.0
  0
LINE
  5
13E
330
1F
100
AcDbEntity
  8
0
  6
HIDDEN
 62
     7
100
AcDbLine
 10
3.9293723239
 20
3.7685208061
 30
0.0
 11
3.9293723239
 21
4.2754105699
 31
0.0
  0
LINE
  5
13F
330
1F
100
AcDbEntity
  8
0
  6
HIDDEN
 62
     7
100
AcDbLine
 10
3.7718920089
 20
3.7488357667
 30
0.0
 11
3.7718920089
 21
2.9757084661
 31
0.0
  0
LINE
  5
140
330
1F
100
AcDbEntity
  8
0
  6
HIDDEN
 62
     7
100
AcDbLine
 10
3.9293723239
 20
2.9757524951
 30
0.0
 11
3.9293723239
 21
3.7488357667
 31
0.0
  0
LINE
  5
141
330
1F
100
AcDbEntity
  8
0
  6
HIDDEN
 62
     7
100
AcDbLine
 10
4.0156124813
 20
4.0614538769
 30
0.0
 11
4.0081124813
 21
4.0539538769
 31
0.0
  0
LINE
  5
142
330
1F
100
AcDbEntity
  8
0
  6
HIDDEN
 62
     7
100
AcDbLine
 10
4.0081124813
 20
3.4634026958
 30
0.0
 11
4.0156124813
 21
3.4559026958
 31
0.0
  0
LINE
  5
143
330
1F
100
AcDbEntity
  8
0
  6
HIDDEN
 62
     7
100
AcDbLine
 10
3.6701859722
 20
4.0539538769
 30
0.0
 11
3.4250613002
 21
4.0539538769
 31
0.0
  0
LINE
  5
144
330
1F
100
AcDbEntity
  8
0
  6
HIDDEN
 62
     7
100
AcDbLine
 10
3.4250613002
 20
3.4634026958
 30
0.0
 11
3.6701859722
 21
3.4634026958
 31
0.0
  0
LINE
  5
145
330
1F
100
AcDbEntity
  8
0
  6
HIDDEN
 62
     7
100
AcDbLine
 10
4.0081124813
 20
4.0539538769
 30
0.0
 11
3.6964326913
 21
4.0539538769
 31
0.0
  0
LINE
  5
146
330
1F
100
AcDbEntity
  8
0
  6
HIDDEN
 62
     7
100
AcDbLine
 10
3.6964326913
 20
3.4634026958
 30
0.0
 11
4.0081124813
 21
3.4634026958
 31
0.0
  0
ARC
  5
147
330
1F
100
AcDbEntity
  8
0
  6
HIDDEN
 62
     7
100
AcDbCircle
 10
3.7325219302
 20
4.4230483651
 30
0.0
 40
0.0098425196850394
100
AcDbArc
 50
90.0
 51
180.0
  0
ARC
  5
148
330
1F
100
AcDbEntity
  8
0
  6
HIDDEN
 62
     7
100
AcDbCircle
 10
3.9687424026
 20
4.4230483651
 30
0.0
 40
0.0098425196850394
100
AcDbArc
 50
0.0
 51
90.0
  0
LINE
  5
149
330
1F
100
AcDbEntity
  8
0
  6
HIDDEN
 62
     7
100
AcDbLine
 10
3.9785849223
 20
4.2754105699
 30
0.0
 11
3.9785849223
 21
4.4230483651
 31
0.0
  0
LINE
  5
14A
330
1F
100
AcDbEntity
  8
0
  6
HIDDEN
 62
     7
100
AcDbLine
 10
3.7226794105
 20
4.4230483651
 30
0.0
 11
3.7226794105
 21
4.2754105699
 31
0.0
  0
LINE
  5
14B
330
1F
100
AcDbEntity
  8
0
  6
HIDDEN
 62
     7
100
AcDbLine
 10
3.7718920089
 20
4.2754105699
 30
0.0
 11
3.7718920089
 21
3.7685208061
 31
0.0
  0
LINE
  5
14C
330
1F
100
AcDbEntity
  8
0
  6
HIDDEN
 62
     7
100
AcDbLine
 10
3.7718920089
 20
3.7488357667
 30
0.0
 11
3.7718920089
 21
3.1090719872
 31
0.0
  0
LINE
  5
14D
330
1F
100
AcDbEntity
  8
0
  6
HIDDEN
 62
     7
100
AcDbLine
 10
3.9293723239
 20
3.1090719872
 30
0.0
 11
3.9293723239
 21
3.7488357667
 31
0.0
  0
LINE
  5
14E
330
1F
100
AcDbEntity
  8
0
  6
HIDDEN
 62
     7
100
AcDbLine
 10
3.9293723239
 20
3.7685208061
 30
0.0
 11
3.9293723239
 21
4.2754105699
 31
0.0
  0
ARC
  5
14F
330
1F
100
AcDbEntity
  8
0
  6
HIDDEN
 62
     7
100
AcDbCircle
 10
3.9195298042
 20
3.1090719872
 30
0.0
 40
0.0098425196850394
100
AcDbArc
 50
270.0
 51
0.0
  0
ARC
  5
150
330
1F
100
AcDbEntity
  8
0
  6
HIDDEN
 62
     7
100
AcDbCircle
 10
3.7817345286
 20
3.1090719872
 30
0.0
 40
0.0098425196850394
100
AcDbArc
 50
180.0
 51
270.0
  0
LINE
  5
151
330
1F
100
AcDbEntity
  8
0
  6
HIDDEN
 62
     7
100
AcDbLine
 10
3.3561636624
 20
4.0933239557
 30
0.0
 11
3.2971085443
 21
4.0933239557
 31
0.0
  0
LINE
  5
152
330
1F
100
AcDbEntity
  8
0
  6
HIDDEN
 62
     7
100
AcDbLine
 10
3.2971085443
 20
3.4240326171
 30
0.0
 11
3.3561636624
 21
3.4240326171
 31
0.0
  0
LINE
  5
153
330
1F
100
AcDbEntity
  8
0
  6
HIDDEN
 62
     7
100
AcDbLine
 10
2.9830862346
 20
3.4634026958
 30
0.0
 11
3.2282109065
 21
3.4634026958
 31
0.0
  0
LINE
  5
154
330
1F
100
AcDbEntity
  8
0
  6
HIDDEN
 62
     7
100
AcDbLine
 10
3.2282109065
 20
4.0539538769
 30
0.0
 11
2.9830862346
 21
4.0539538769
 31
0.0
  0
LINE
  5
155
330
1F
100
AcDbEntity
  8
0
  6
HIDDEN
 62
     7
100
AcDbLine
 10
2.7594470678
 20
3.4634026958
 30
0.0
 11
2.9568395155
 21
3.4634026958
 31
0.0
  0
LINE
  5
156
330
1F
100
AcDbEntity
  8
0
  6
HIDDEN
 62
     7
100
AcDbLine
 10
3.9785849223
 20
4.4230483651
 30
0.0
 11
3.7226794105
 21
4.4230483651
 31
0.0
  0
ARC
  5
157
330
1F
100
AcDbEntity
  8
0
  6
CONTINUOUS
 62
     7
100
AcDbCircle
 10
7.4734312554
 20
4.4230483651
 30
0.0
 40
0.0098425196850389
100
AcDbArc
 50
90.0
 51
180.0
  0
LINE
  5
158
330
1F
100
AcDbEntity
  8
0
  6
CONTINUOUS
 62
     7
100
AcDbLine
 10
7.4635887358
 20
4.4230483651
 30
0.0
 11
7.4635887358
 21
4.4128703895
 31
0.0
  0
LINE
  5
159
330
1F
100
AcDbEntity
  8
0
  6
CONTINUOUS
 62
     7
100
AcDbLine
 10
7.5128013342
 20
3.7685208061
 30
0.0
 11
7.5128013342
 21
3.7488357667
 31
0.0
  0
LINE
  5
15A
330
1F
100
AcDbEntity
  8
0
  6
CONTINUOUS
 62
     7
100
AcDbLine
 10
7.6702816492
 20
3.7488357667
 30
0.0
 11
7.6702816492
 21
3.7685208061
 31
0.0
  0
LINE
  5
15B
330
1F
100
AcDbEntity
  8
0
  6
CONTINUOUS
 62
     7
100
AcDbLine
 10
8.9152546851
 20
4.545974157
 30
0.0
 11
8.9050767095
 21
4.545974157
 31
0.0
  0
ARC
  5
15C
330
1F
100
AcDbEntity
  8
0
  6
CONTINUOUS
 62
     7
100
AcDbCircle
 10
8.9152546851
 20
4.5361316373
 30
0.0
 40
0.0098425196850407
100
AcDbArc
 50
0.0
 51
90.0
  0
LINE
  5
15D
330
1F
100
AcDbEntity
  8
0
  6
CONTINUOUS
 62
     7
100
AcDbLine
 10
8.5701444068
 20
3.7685208061
 30
0.0
 11
8.5701444068
 21
3.7488357667
 31
0.0
  0
LINE
  5
15E
330
1F
100
AcDbEntity
  8
0
  6
CONTINUOUS
 62
     7
100
AcDbLine
 10
8.5701444068
 20
3.7685208061
 30
0.0
 11
8.553500176
 21
3.7685208061
 31
0.0
  0
ARC
  5
15F
330
1F
100
AcDbEntity
  8
0
  6
CONTINUOUS
 62
     7
100
AcDbCircle
 10
8.2508846063
 20
3.7586782864
 30
0.0
 40
0.3027755905511816
100
AcDbArc
 50
1.8628787303
 51
178.1371212697
  0
LINE
  5
160
330
1F
100
AcDbEntity
  8
0
  6
CONTINUOUS
 62
     7
100
AcDbLine
 10
7.2348102293
 20
3.7685208061
 30
0.0
 11
7.9482690366
 21
3.7685208061
 31
0.0
  0
ARC
  5
161
330
1F
100
AcDbEntity
  8
0
  6
CONTINUOUS
 62
     7
100
AcDbCircle
 10
8.2508846063
 20
3.7586782864
 30
0.0
 40
1.016122047244094
100
AcDbArc
 50
180.5549959852
 51
179.4450040148
  0
LINE
  5
162
330
1F
100
AcDbEntity
  8
0
  6
CONTINUOUS
 62
     7
100
AcDbLine
 10
7.2348102293
 20
3.7488357667
 30
0.0
 11
7.9482690366
 21
3.7488357667
 31
0.0
  0
ARC
  5
163
330
1F
100
AcDbEntity
  8
0
  6
CONTINUOUS
 62
     7
100
AcDbCircle
 10
8.2508846063
 20
3.7586782864
 30
0.0
 40
0.3027755905511816
100
AcDbArc
 50
181.8628787303
 51
358.1371212697
  0
LINE
  5
164
330
1F
100
AcDbEntity
  8
0
  6
CONTINUOUS
 62
     7
100
AcDbLine
 10
8.553500176
 20
3.7488357667
 30
0.0
 11
8.5701444068
 21
3.7488357667
 31
0.0
  0
LINE
  5
165
330
1F
100
AcDbEntity
  8
0
  6
CONTINUOUS
 62
     7
100
AcDbLine
 10
7.22730988
 20
3.7685208061
 30
0.0
 11
7.2348102293
 21
3.7685208061
 31
0.0
  0
ARC
  5
166
330
1F
100
AcDbEntity
  8
0
  6
CONTINUOUS
 62
     7
100
AcDbCircle
 10
8.2508846063
 20
3.7586782864
 30
0.0
 40
1.023622047244094
100
AcDbArc
 50
180.5509294465
 51
179.4490705535
  0
LINE
  5
167
330
1F
100
AcDbEntity
  8
0
  6
CONTINUOUS
 62
     7
100
AcDbLine
 10
7.22730988
 20
3.7488357667
 30
0.0
 11
7.2348102293
 21
3.7488357667
 31
0.0
  0
LINE
  5
168
330
1F
100
AcDbEntity
  8
0
  6
CONTINUOUS
 62
     7
100
AcDbLine
 10
7.9482690366
 20
3.7488357667
 30
0.0
 11
7.9557731034
 21
3.7488357667
 31
0.0
  0
ARC
  5
169
330
1F
100
AcDbEntity
  8
0
  6
CONTINUOUS
 62
     7
100
AcDbCircle
 10
8.2508846063
 20
3.7586782864
 30
0.0
 40
0.2952755905511812
100
AcDbArc
 50
181.9102131717
 51
358.0897868283
  0
LINE
  5
16A
330
1F
100
AcDbEntity
  8
0
  6
CONTINUOUS
 62
     7
100
AcDbLine
 10
8.5459961093
 20
3.7488357667
 30
0.0
 11
8.553500176
 21
3.7488357667
 31
0.0
  0
SPLINE
  5
16B
330
1F
100
AcDbEntity
  8
0
  6
CONTINUOUS
 62
     7
100
AcDbSpline
210
0.0
220
0.0
230
1.0
 70
     8
 71
     3
 72
     8
 73
     4
 74
     0
 42
0.00000001
 43
0.00000001
 40
0.0
 40
0.0
 40
0.0
 40
0.0
 40
1.0
 40
1.0
 40
1.0
 40
1.0
 10
8.545996109287866
 20
3.768520806077087
 30
0.0
 10
8.546214953561478
 20
3.76195912628706
 30
0.0
 10
8.546214953561478
 20
3.755397446497034
 30
0.0
 10
8.545996109287866
 20
3.748835766707008
 30
0.0
  0
LINE
  5
16C
330
1F
100
AcDbEntity
  8
0
  6
CONTINUOUS
 62
     7
100
AcDbLine
 10
7.9482690366
 20
3.7685208061
 30
0.0
 11
7.9557731034
 21
3.7685208061
 31
0.0
  0
ARC
  5
16D
330
1F
100
AcDbEntity
  8
0
  6
CONTINUOUS
 62
     7
100
AcDbCircle
 10
8.2508846063
 20
3.7586782864
 30
0.0
 40
0.2952755905511812
100
AcDbArc
 50
1.9102131717
 51
178.0897868283
  0
LINE
  5
16E
330
1F
100
AcDbEntity
  8
0
  6
CONTINUOUS
 62
     7
100
AcDbLine
 10
8.5459961093
 20
3.7685208061
 30
0.0
 11
8.553500176
 21
3.7685208061
 31
0.0
  0
LINE
  5
16F
330
1F
100
AcDbEntity
  8
0
  6
CONTINUOUS
 62
     7
100
AcDbLine
 10
7.9556090158
 20
3.7586782864
 30
0.0
 11
7.9557731034
 21
3.7488357667
 31
0.0
  0
POLYLINE
  5
170
330
1F
100
AcDbEntity
  8
0
  6
CONTINUOUS
 62
     7
100
AcDb2dPolyline
 66
     1
 10
0.0
 20
0.0
 30
0.0
  0
VERTEX
  5
2B8
330
170
100
AcDbEntity
  8
0
  6
CONTINUOUS
 62
     7
100
AcDbVertex
100
AcDb2dVertex
 10
8.5459961093
 20
3.7488357667
 30
0.0
  0
VERTEX
  5
2B9
330
170
100
AcDbEntity
  8
0
  6
CONTINUOUS
 62
     7
100
AcDbVertex
100
AcDb2dVertex
 10
8.5461601969
 20
3.7586782864
 30
0.0
  0
VERTEX
  5
2BA
330
170
100
AcDbEntity
  8
0
  6
CONTINUOUS
 62
     7
100
AcDbVertex
100
AcDb2dVertex
 10
8.5459961093
 20
3.7685208061
 30
0.0
  0
SEQEND
  5
2BB
330
170
100
AcDbEntity
  8
0
  6
CONTINUOUS
 62
     7
  0
LINE
  5
171
330
1F
100
AcDbEntity
  8
0
  6
CONTINUOUS
 62
     7
100
AcDbLine
 10
7.9557731034
 20
3.7685208061
 30
0.0
 11
7.9556090158
 21
3.7586782864
 31
0.0
  0
POLYLINE
  5
172
330
1F
100
AcDbEntity
  8
0
  6
CONTINUOUS
 62
     7
100
AcDb2dPolyline
 66
     1
 10
0.0
 20
0.0
 30
0.0
  0
VERTEX
  5
2BC
330
172
100
AcDbEntity
  8
0
  6
CONTINUOUS
 62
     7
100
AcDbVertex
100
AcDb2dVertex
 10
7.22730988
 20
3.7488357667
 30
0.0
  0
VERTEX
  5
2BD
330
172
100
AcDbEntity
  8
0
  6
CONTINUOUS
 62
     7
100
AcDbVertex
100
AcDb2dVertex
 10
7.2272625591
 20
3.7586782864
 30
0.0
  0
VERTEX
  5
2BE
330
172
100
AcDbEntity
  8
0
  6
CONTINUOUS
 62
     7
100
AcDbVertex
100
AcDb2dVertex
 10
7.22730988
 20
3.7685208061
 30
0.0
  0
SEQEND
  5
2BF
330
172
100
AcDbEntity
  8
0
  6
CONTINUOUS
 62
     7
  0
LINE
  5
173
330
1F
100
AcDbEntity
  8
0
  6
CONTINUOUS
 62
     7
100
AcDbLine
 10
7.4734312554
 20
4.4328908848
 30
0.0
 11
7.4806642043
 21
4.4328908848
 31
0.0
  0
LINE
  5
174
330
1F
100
AcDbEntity
  8
0
  6
CONTINUOUS
 62
     7
100
AcDbLine
 10
8.9250972047
 20
4.5288986884
 30
0.0
 11
8.9250972047
 21
4.5361316373
 31
0.0
  0
LINE
  5
175
330
1F
100
AcDbEntity
  8
0
  6
CONTINUOUS
 62
     8
100
AcDbLine
 10
7.4721584066
 20
4.4230483651
 30
0.0
 11
7.4635887358
 21
4.4230483651
 31
0.0
  0
LINE
  5
176
330
1F
100
AcDbEntity
  8
0
  6
CONTINUOUS
 62
     8
100
AcDbLine
 10
8.9152546851
 20
4.545974157
 30
0.0
 11
8.9152546851
 21
4.5374044861
 31
0.0
  0
LINE
  5
177
330
1F
100
AcDbEntity
  8
0
  6
HIDDEN
 62
     7
100
AcDbLine
 10
7.4635887358
 20
4.2754105699
 30
0.0
 11
7.7194942476
 21
4.2754105699
 31
0.0
  0
LINE
  5
178
330
1F
100
AcDbEntity
  8
0
  6
HIDDEN
 62
     7
100
AcDbLine
 10
8.728246811
 20
2.8531798485
 30
0.0
 11
8.728246811
 21
4.6641767243
 31
0.0
  0
LINE
  5
179
330
1F
100
AcDbEntity
  8
0
  6
HIDDEN
 62
     7
100
AcDbLine
 10
7.4806642043
 20
4.4328908848
 30
0.0
 11
7.7096517279
 21
4.4328908848
 31
0.0
  0
LINE
  5
17A
330
1F
100
AcDbEntity
  8
0
  6
HIDDEN
 62
     7
100
AcDbLine
 10
7.6702816492
 20
3.1090719872
 30
0.0
 11
7.5130849965
 21
3.1090719872
 31
0.0
  0
LINE
  5
17B
330
1F
100
AcDbEntity
  8
0
  6
HIDDEN
 62
     7
100
AcDbLine
 10
7.6604391295
 20
3.0992294675
 30
0.0
 11
7.5226438585
 21
3.0992294675
 31
0.0
  0
LINE
  5
17C
330
1F
100
AcDbEntity
  8
0
  6
HIDDEN
 62
     7
100
AcDbLine
 10
7.62563698
 20
4.3147806486
 30
0.0
 11
7.6597324683
 21
4.3147806486
 31
0.0
  0
LINE
  5
17D
330
1F
100
AcDbEntity
  8
0
  6
HIDDEN
 62
     7
100
AcDbLine
 10
7.5574460033
 20
4.3147806486
 30
0.0
 11
7.62563698
 21
4.3147806486
 31
0.0
  0
LINE
  5
17E
330
1F
100
AcDbEntity
  8
0
  6
HIDDEN
 62
     7
100
AcDbLine
 10
7.62563698
 20
4.3147806486
 30
0.0
 11
7.62563698
 21
4.4328908848
 31
0.0
  0
LINE
  5
17F
330
1F
100
AcDbEntity
  8
0
  6
HIDDEN
 62
     7
100
AcDbLine
 10
7.5574460033
 20
4.3147806486
 30
0.0
 11
7.5574460033
 21
4.4328908848
 31
0.0
  0
LINE
  5
180
330
1F
100
AcDbEntity
  8
0
  6
HIDDEN
 62
     7
100
AcDbLine
 10
7.523350515
 20
4.3147806486
 30
0.0
 11
7.5574460033
 21
4.3147806486
 31
0.0
  0
LINE
  5
181
330
1F
100
AcDbEntity
  8
0
  6
HIDDEN
 62
     7
100
AcDbLine
 10
7.6597324683
 20
4.3147806486
 30
0.0
 11
7.6597324683
 21
4.4328908848
 31
0.0
  0
LINE
  5
182
330
1F
100
AcDbEntity
  8
0
  6
HIDDEN
 62
     7
100
AcDbLine
 10
7.523350515
 20
4.3147806486
 30
0.0
 11
7.523350515
 21
4.4328908848
 31
0.0
  0
LINE
  5
183
330
1F
100
AcDbEntity
  8
0
  6
HIDDEN
 62
     7
100
AcDbLine
 10
8.7676168898
 20
4.2900686451
 30
0.0
 11
8.7676168898
 21
4.545974157
 31
0.0
  0
LINE
  5
184
330
1F
100
AcDbEntity
  8
0
  6
HIDDEN
 62
     7
100
AcDbLine
 10
8.9250972047
 20
4.2999111649
 30
0.0
 11
8.9250972047
 21
4.5288986884
 31
0.0
  0
LINE
  5
185
330
1F
100
AcDbEntity
  8
0
  6
HIDDEN
 62
     7
100
AcDbLine
 10
7.6012783071
 20
4.3392812436
 30
0.0
 11
7.6012783071
 21
4.4964778962
 31
0.0
  0
LINE
  5
186
330
1F
100
AcDbEntity
  8
0
  6
HIDDEN
 62
     7
100
AcDbLine
 10
7.5914357874
 20
4.4869190343
 30
0.0
 11
7.5914357874
 21
4.3491237633
 31
0.0
  0
LINE
  5
187
330
1F
100
AcDbEntity
  8
0
  6
HIDDEN
 62
     7
100
AcDbLine
 10
8.8069869685
 20
4.4521168894
 30
0.0
 11
8.9250972047
 21
4.4521168894
 31
0.0
  0
LINE
  5
188
330
1F
100
AcDbEntity
  8
0
  6
HIDDEN
 62
     7
100
AcDbLine
 10
8.8069869685
 20
4.3839259127
 30
0.0
 11
8.9250972047
 21
4.3839259127
 31
0.0
  0
LINE
  5
189
330
1F
100
AcDbEntity
  8
0
  6
HIDDEN
 62
     7
100
AcDbLine
 10
8.8069869685
 20
4.3839259127
 30
0.0
 11
8.8069869685
 21
4.4521168894
 31
0.0
  0
LINE
  5
18A
330
1F
100
AcDbEntity
  8
0
  6
HIDDEN
 62
     7
100
AcDbLine
 10
8.8069869685
 20
4.4521168894
 30
0.0
 11
8.8069869685
 21
4.4862123777
 31
0.0
  0
LINE
  5
18B
330
1F
100
AcDbEntity
  8
0
  6
HIDDEN
 62
     7
100
AcDbLine
 10
8.8069869685
 20
4.3498304244
 30
0.0
 11
8.8069869685
 21
4.3839259127
 31
0.0
  0
LINE
  5
18C
330
1F
100
AcDbEntity
  8
0
  6
HIDDEN
 62
     7
100
AcDbLine
 10
8.8069869685
 20
4.3498304244
 30
0.0
 11
8.9250972047
 21
4.3498304244
 31
0.0
  0
LINE
  5
18D
330
1F
100
AcDbEntity
  8
0
  6
HIDDEN
 62
     7
100
AcDbLine
 10
8.8069869685
 20
4.4862123777
 30
0.0
 11
8.9250972047
 21
4.4862123777
 31
0.0
  0
CIRCLE
  5
18E
330
1F
100
AcDbEntity
  8
0
  6
HIDDEN
 62
     7
100
AcDbCircle
 10
9.0825775197
 20
3.7586782864
 30
0.0
 40
0.1279527559055111
  0
CIRCLE
  5
18F
330
1F
100
AcDbEntity
  8
0
  6
HIDDEN
 62
     7
100
AcDbCircle
 10
8.2508846063
 20
2.926985373
 30
0.0
 40
0.1279527559055129
  0
CIRCLE
  5
190
330
1F
100
AcDbEntity
  8
0
  6
HIDDEN
 62
     7
100
AcDbCircle
 10
8.2508846063
 20
4.5903711998
 30
0.0
 40
0.1279527559055129
  0
CIRCLE
  5
191
330
1F
100
AcDbEntity
  8
0
  6
HIDDEN
 62
     7
100
AcDbCircle
 10
7.4191916929
 20
3.7586782864
 30
0.0
 40
0.127952755905512
  0
LINE
  5
192
330
1F
100
AcDbEntity
  8
0
  6
HIDDEN
 62
     7
100
AcDbLine
 10
8.1377892796
 20
4.7034665265
 30
0.0
 11
7.3060963662
 21
3.8717736131
 31
0.0
  0
ARC
  5
193
330
1F
100
AcDbEntity
  8
0
  6
HIDDEN
 62
     7
100
AcDbCircle
 10
8.2508846063
 20
4.5903711998
 30
0.0
 40
0.1599409448818897
100
AcDbArc
 50
45.0
 51
135.0
  0
LINE
  5
194
330
1F
100
AcDbEntity
  8
0
  6
HIDDEN
 62
     7
100
AcDbLine
 10
9.1956728464
 20
3.8717736131
 30
0.0
 11
8.363979933
 21
4.7034665265
 31
0.0
  0
ARC
  5
195
330
1F
100
AcDbEntity
  8
0
  6
HIDDEN
 62
     7
100
AcDbCircle
 10
9.0825775197
 20
3.7586782864
 30
0.0
 40
0.1599409448818903
100
AcDbArc
 50
315.0
 51
45.0
  0
LINE
  5
196
330
1F
100
AcDbEntity
  8
0
  6
HIDDEN
 62
     7
100
AcDbLine
 10
8.363979933
 20
2.8138900463
 30
0.0
 11
9.1956728464
 21
3.6455829597
 31
0.0
  0
ARC
  5
197
330
1F
100
AcDbEntity
  8
0
  6
HIDDEN
 62
     7
100
AcDbCircle
 10
8.2508846063
 20
2.926985373
 30
0.0
 40
0.1599409448818906
100
AcDbArc
 50
225.0
 51
315.0
  0
LINE
  5
198
330
1F
100
AcDbEntity
  8
0
  6
HIDDEN
 62
     7
100
AcDbLine
 10
7.3060963662
 20
3.6455829597
 30
0.0
 11
8.1377892796
 21
2.8138900463
 31
0.0
  0
ARC
  5
199
330
1F
100
AcDbEntity
  8
0
  6
HIDDEN
 62
     7
100
AcDbCircle
 10
7.4191916929
 20
3.7586782864
 30
0.0
 40
0.1599409448818906
100
AcDbArc
 50
135.0
 51
225.0
  0
CIRCLE
  5
19A
330
1F
100
AcDbEntity
  8
0
  6
HIDDEN
 62
     7
100
AcDbCircle
 10
8.2508846063
 20
3.7586782864
 30
0.0
 40
0.3346456692913389
  0
CIRCLE
  5
19B
330
1F
100
AcDbEntity
  8
0
  6
HIDDEN
 62
     7
100
AcDbCircle
 10
8.2508846063
 20
3.7586782864
 30
0.0
 40
1.023622047244094
  0
LINE
  5
19C
330
1F
100
AcDbEntity
  8
0
  6
HIDDEN
 62
     7
100
AcDbLine
 10
7.3453861684
 20
3.2813160817
 30
0.0
 11
9.1563830443
 21
3.2813160817
 31
0.0
  0
LINE
  5
19D
330
1F
100
AcDbEntity
  8
0
  6
HIDDEN
 62
     7
100
AcDbLine
 10
8.2410420866
 20
4.0537897894
 30
0.0
 11
8.2410420866
 21
4.7822530127
 31
0.0
  0
LINE
  5
19E
330
1F
100
AcDbEntity
  8
0
  6
HIDDEN
 62
     7
100
AcDbLine
 10
8.260727126
 20
4.0537897894
 30
0.0
 11
8.260727126
 21
4.7822530127
 31
0.0
  0
LINE
  5
19F
330
1F
100
AcDbEntity
  8
0
  6
HIDDEN
 62
     7
100
AcDbLine
 10
8.2410420866
 20
3.439418486
 30
0.0
 11
8.2410420866
 21
3.4635667834
 31
0.0
  0
LINE
  5
1A0
330
1F
100
AcDbEntity
  8
0
  6
HIDDEN
 62
     7
100
AcDbLine
 10
8.260727126
 20
3.439418486
 30
0.0
 11
8.2410420866
 21
3.439418486
 31
0.0
  0
LINE
  5
1A1
330
1F
100
AcDbEntity
  8
0
  6
HIDDEN
 62
     7
100
AcDbLine
 10
8.260727126
 20
3.4635667834
 30
0.0
 11
8.260727126
 21
3.439418486
 31
0.0
  0
POLYLINE
  5
1A2
330
1F
100
AcDbEntity
  8
0
  6
HIDDEN
 62
     7
100
AcDb2dPolyline
 66
     1
 10
0.0
 20
0.0
 30
0.0
  0
VERTEX
  5
2C0
330
1A2
100
AcDbEntity
  8
0
  6
HIDDEN
 62
     7
100
AcDbVertex
100
AcDb2dVertex
 10
7.9482690366
 20
3.7488357667
 30
0.0
  0
VERTEX
  5
2C1
330
1A2
100
AcDbEntity
  8
0
  6
HIDDEN
 62
     7
100
AcDbVertex
100
AcDb2dVertex
 10
7.9481090158
 20
3.7586782864
 30
0.0
  0
VERTEX
  5
2C2
330
1A2
100
AcDbEntity
  8
0
  6
HIDDEN
 62
     7
100
AcDbVertex
100
AcDb2dVertex
 10
7.9482690366
 20
3.7685208061
 30
0.0
  0
SEQEND
  5
2C3
330
1A2
100
AcDbEntity
  8
0
  6
HIDDEN
 62
     7
  0
POLYLINE
  5
1A3
330
1F
100
AcDbEntity
  8
0
  6
HIDDEN
 62
     7
100
AcDb2dPolyline
 66
     1
 10
0.0
 20
0.0
 30
0.0
  0
VERTEX
  5
2C4
330
1A3
100
AcDbEntity
  8
0
  6
HIDDEN
 62
     7
100
AcDbVertex
100
AcDb2dVertex
 10
8.553500176
 20
3.7685208061
 30
0.0
  0
VERTEX
  5
2C5
330
1A3
100
AcDbEntity
  8
0
  6
HIDDEN
 62
     7
100
AcDbVertex
100
AcDb2dVertex
 10
8.5536601969
 20
3.7586782864
 30
0.0
  0
VERTEX
  5
2C6
330
1A3
100
AcDbEntity
  8
0
  6
HIDDEN
 62
     7
100
AcDbVertex
100
AcDb2dVertex
 10
8.553500176
 20
3.7488357667
 30
0.0
  0
SEQEND
  5
2C7
330
1A3
100
AcDbEntity
  8
0
  6
HIDDEN
 62
     7
  0
LINE
  5
1A4
330
1F
100
AcDbEntity
  8
0
  6
HIDDEN
 62
     7
100
AcDbLine
 10
7.2348102293
 20
3.7685208061
 30
0.0
 11
7.2348102293
 21
3.7488357667
 31
0.0
  0
LINE
  5
1A5
330
1F
100
AcDbEntity
  8
0
  6
HIDDEN
 62
     7
100
AcDbLine
 10
7.7194942476
 20
4.2754105699
 30
0.0
 11
7.7194942476
 21
4.6335647832
 31
0.0
  0
LINE
  5
1A6
330
1F
100
AcDbEntity
  8
0
  6
HIDDEN
 62
     7
100
AcDbLine
 10
7.4635887358
 20
4.4130754576
 30
0.0
 11
7.4635887358
 21
4.2754105699
 31
0.0
  0
LINE
  5
1A7
330
1F
100
AcDbEntity
  8
0
  6
HIDDEN
 62
     7
100
AcDbLine
 10
7.5128013342
 20
4.2754105699
 30
0.0
 11
7.5128013342
 21
3.7685208061
 31
0.0
  0
LINE
  5
1A8
330
1F
100
AcDbEntity
  8
0
  6
HIDDEN
 62
     7
100
AcDbLine
 10
7.6702816492
 20
3.7685208061
 30
0.0
 11
7.6702816492
 21
4.2754105699
 31
0.0
  0
LINE
  5
1A9
330
1F
100
AcDbEntity
  8
0
  6
HIDDEN
 62
     7
100
AcDbLine
 10
7.5128013342
 20
3.7488357667
 30
0.0
 11
7.5128013342
 21
3.0494285567
 31
0.0
  0
LINE
  5
1AA
330
1F
100
AcDbEntity
  8
0
  6
HIDDEN
 62
     7
100
AcDbLine
 10
7.6702816492
 20
2.9160496422
 30
0.0
 11
7.6702816492
 21
3.7488357667
 31
0.0
  0
ARC
  5
1AB
330
1F
100
AcDbEntity
  8
0
  6
HIDDEN
 62
     7
100
AcDbCircle
 10
7.7096517279
 20
4.4230483651
 30
0.0
 40
0.0098425196850389
100
AcDbArc
 50
0.0
 51
90.0
  0
LINE
  5
1AC
330
1F
100
AcDbEntity
  8
0
  6
HIDDEN
 62
     7
100
AcDbLine
 10
7.7194942476
 20
4.2754105699
 30
0.0
 11
7.7194942476
 21
4.4230483651
 31
0.0
  0
LINE
  5
1AD
330
1F
100
AcDbEntity
  8
0
  6
HIDDEN
 62
     7
100
AcDbLine
 10
7.4635887358
 20
4.4128703895
 30
0.0
 11
7.4635887358
 21
4.2754105699
 31
0.0
  0
LINE
  5
1AE
330
1F
100
AcDbEntity
  8
0
  6
HIDDEN
 62
     7
100
AcDbLine
 10
7.5128013342
 20
4.2754105699
 30
0.0
 11
7.5128013342
 21
3.7685208061
 31
0.0
  0
LINE
  5
1AF
330
1F
100
AcDbEntity
  8
0
  6
HIDDEN
 62
     7
100
AcDbLine
 10
7.5128013342
 20
3.7488357667
 30
0.0
 11
7.5128013342
 21
3.1090719872
 31
0.0
  0
LINE
  5
1B0
330
1F
100
AcDbEntity
  8
0
  6
HIDDEN
 62
     7
100
AcDbLine
 10
7.6702816492
 20
3.1090719872
 30
0.0
 11
7.6702816492
 21
3.7488357667
 31
0.0
  0
LINE
  5
1B1
330
1F
100
AcDbEntity
  8
0
  6
HIDDEN
 62
     7
100
AcDbLine
 10
7.6702816492
 20
3.7685208061
 30
0.0
 11
7.6702816492
 21
4.2754105699
 31
0.0
  0
ARC
  5
1B2
330
1F
100
AcDbEntity
  8
0
  6
HIDDEN
 62
     7
100
AcDbCircle
 10
7.6604391295
 20
3.1090719872
 30
0.0
 40
0.0098425196850398
100
AcDbArc
 50
270.0
 51
0.0
  0
ARC
  5
1B3
330
1F
100
AcDbEntity
  8
0
  6
HIDDEN
 62
     7
100
AcDbCircle
 10
7.5226438539
 20
3.1090719872
 30
0.0
 40
0.0098425196850398
100
AcDbArc
 50
180.0
 51
270.0
  0
LINE
  5
1B4
330
1F
100
AcDbEntity
  8
0
  6
HIDDEN
 62
     7
100
AcDbLine
 10
8.7676168898
 20
4.2900686451
 30
0.0
 11
8.9152546851
 21
4.2900686451
 31
0.0
  0
LINE
  5
1B5
330
1F
100
AcDbEntity
  8
0
  6
HIDDEN
 62
     7
100
AcDbLine
 10
8.9050767095
 20
4.545974157
 30
0.0
 11
8.7676168898
 21
4.545974157
 31
0.0
  0
ARC
  5
1B6
330
1F
100
AcDbEntity
  8
0
  6
HIDDEN
 62
     7
100
AcDbCircle
 10
8.9152546851
 20
4.2999111648
 30
0.0
 40
0.0098425196850398
100
AcDbArc
 50
270.0
 51
0.0
  0
LINE
  5
1B7
330
1F
100
AcDbEntity
  8
0
  6
HIDDEN
 62
     7
100
AcDbLine
 10
8.7676168898
 20
4.4967615585
 30
0.0
 11
7.6012783071
 21
4.4967615585
 31
0.0
  0
LINE
  5
1B8
330
1F
100
AcDbEntity
  8
0
  6
HIDDEN
 62
     7
100
AcDbLine
 10
7.6012783071
 20
4.3392812436
 30
0.0
 11
8.7676168898
 21
4.3392812436
 31
0.0
  0
ARC
  5
1B9
330
1F
100
AcDbEntity
  8
0
  6
HIDDEN
 62
     7
100
AcDbCircle
 10
7.6012783071
 20
4.3491237633
 30
0.0
 40
0.0098425196850389
100
AcDbArc
 50
180.0
 51
270.0
  0
ARC
  5
1BA
330
1F
100
AcDbEntity
  8
0
  6
HIDDEN
 62
     7
100
AcDbCircle
 10
7.6012783071
 20
4.4869190388
 30
0.0
 40
0.0098425196850398
100
AcDbArc
 50
90.0
 51
180.0
  0
LINE
  5
1BB
330
1F
100
AcDbEntity
  8
0
  6
HIDDEN
 62
     7
100
AcDbLine
 10
8.7676168898
 20
4.2900686451
 30
0.0
 11
9.1257711031
 21
4.2900686451
 31
0.0
  0
LINE
  5
1BC
330
1F
100
AcDbEntity
  8
0
  6
HIDDEN
 62
     7
100
AcDbLine
 10
8.9052817775
 20
4.545974157
 30
0.0
 11
8.7676168898
 21
4.545974157
 31
0.0
  0
LINE
  5
1BD
330
1F
100
AcDbEntity
  8
0
  6
HIDDEN
 62
     7
100
AcDbLine
 10
8.7676168898
 20
4.4967615585
 30
0.0
 11
8.260727126
 21
4.4967615585
 31
0.0
  0
LINE
  5
1BE
330
1F
100
AcDbEntity
  8
0
  6
HIDDEN
 62
     7
100
AcDbLine
 10
8.260727126
 20
4.3392812436
 30
0.0
 11
8.7676168898
 21
4.3392812436
 31
0.0
  0
LINE
  5
1BF
330
1F
100
AcDbEntity
  8
0
  6
HIDDEN
 62
     7
100
AcDbLine
 10
8.2410420866
 20
4.4967615585
 30
0.0
 11
7.5416348767
 21
4.4967615585
 31
0.0
  0
LINE
  5
1C0
330
1F
100
AcDbEntity
  8
0
  6
HIDDEN
 62
     7
100
AcDbLine
 10
7.4082559621
 20
4.3392812436
 30
0.0
 11
8.2410420866
 21
4.3392812436
 31
0.0
  0
LINE
  5
1C1
330
1F
100
AcDbEntity
  8
0
  6
HIDDEN
 62
     7
100
AcDbLine
 10
7.4635887358
 20
4.4230483651
 30
0.0
 11
7.7194942476
 21
4.4230483651
 31
0.0
  0
LINE
  5
1C2
330
1F
100
AcDbEntity
  8
0
  6
HIDDEN
 62
     7
100
AcDbLine
 10
8.9152546851
 20
4.545974157
 30
0.0
 11
8.9152546851
 21
4.2900686451
 31
0.0
  0
LINE
  5
1C3
330
1F
100
AcDbEntity
  8
0
  6
CONTINUOUS
 62
     7
100
AcDbLine
 10
4.0156124813
 20
7.6880991862
 30
0.0
 11
4.0081124813
 21
7.6955991862
 31
0.0
  0
LINE
  5
1C4
330
1F
100
AcDbEntity
  8
0
  6
CONTINUOUS
 62
     7
100
AcDbLine
 10
3.4250613002
 20
5.6483550917
 30
0.0
 11
3.6701859722
 21
5.6483550917
 31
0.0
  0
LINE
  5
1C5
330
1F
100
AcDbEntity
  8
0
  6
CONTINUOUS
 62
     7
100
AcDbLine
 10
4.0081124813
 20
7.6955991862
 30
0.0
 11
3.4250613002
 21
7.6955991862
 31
0.0
  0
LINE
  5
1C6
330
1F
100
AcDbEntity
  8
0
  6
CONTINUOUS
 62
     7
100
AcDbLine
 10
2.7238998829
 20
6.6818196586
 30
0.0
 11
2.7238998829
 21
6.6621346192
 31
0.0
  0
LINE
  5
1C7
330
1F
100
AcDbEntity
  8
0
  6
CONTINUOUS
 62
     7
100
AcDbLine
 10
2.8813801979
 20
6.6621346192
 30
0.0
 11
2.8813801979
 21
6.6818196586
 31
0.0
  0
LINE
  5
1C8
330
1F
100
AcDbEntity
  8
0
  6
CONTINUOUS
 62
     7
100
AcDbLine
 10
2.9568395155
 20
7.6955991862
 30
0.0
 11
2.6451597254
 21
7.6955991862
 31
0.0
  0
LINE
  5
1C9
330
1F
100
AcDbEntity
  8
0
  6
CONTINUOUS
 62
     7
100
AcDbLine
 10
3.2282109065
 20
7.6955991862
 30
0.0
 11
2.9830862346
 21
7.6955991862
 31
0.0
  0
LINE
  5
1CA
330
1F
100
AcDbEntity
  8
0
  6
CONTINUOUS
 62
     7
100
AcDbLine
 10
2.9830862346
 20
5.6483550917
 30
0.0
 11
3.2282109065
 21
5.6483550917
 31
0.0
  0
LINE
  5
1CB
330
1F
100
AcDbEntity
  8
0
  6
CONTINUOUS
 62
     7
100
AcDbLine
 10
2.6451597254
 20
5.6483550917
 30
0.0
 11
2.9568395155
 21
5.6483550917
 31
0.0
  0
LINE
  5
1CC
330
1F
100
AcDbEntity
  8
0
  6
CONTINUOUS
 62
     7
100
AcDbLine
 10
2.6451597254
 20
7.6955991862
 30
0.0
 11
2.6376597254
 21
7.6880991862
 31
0.0
  0
LINE
  5
1CD
330
1F
100
AcDbEntity
  8
0
  6
CONTINUOUS
 62
     7
100
AcDbLine
 10
2.6376597254
 20
5.6558550917
 30
0.0
 11
2.6451597254
 21
5.6483550917
 31
0.0
  0
LINE
  5
1CE
330
1F
100
AcDbEntity
  8
0
  6
CONTINUOUS
 62
     7
100
AcDbLine
 10
3.2282109065
 20
6.544024383
 30
0.0
 11
3.2971085443
 21
6.544024383
 31
0.0
  0
LINE
  5
1CF
330
1F
100
AcDbEntity
  8
0
  6
CONTINUOUS
 62
     7
100
AcDbLine
 10
3.2971085443
 20
6.7999298948
 30
0.0
 11
3.2282109065
 21
6.7999298948
 31
0.0
  0
LINE
  5
1D0
330
1F
100
AcDbEntity
  8
0
  6
CONTINUOUS
 62
     7
100
AcDbLine
 10
3.3561636624
 20
6.544024383
 30
0.0
 11
3.4250613002
 21
6.544024383
 31
0.0
  0
LINE
  5
1D1
330
1F
100
AcDbEntity
  8
0
  6
CONTINUOUS
 62
     7
100
AcDbLine
 10
3.4250613002
 20
6.7999298948
 30
0.0
 11
3.3561636624
 21
6.7999298948
 31
0.0
  0
LINE
  5
1D2
330
1F
100
AcDbEntity
  8
0
  6
CONTINUOUS
 62
     7
100
AcDbLine
 10
3.2282109065
 20
7.3757172964
 30
0.0
 11
3.2971085443
 21
7.3757172964
 31
0.0
  0
LINE
  5
1D3
330
1F
100
AcDbEntity
  8
0
  6
CONTINUOUS
 62
     7
100
AcDbLine
 10
3.2971085443
 20
7.6316228082
 30
0.0
 11
3.2282109065
 21
7.6316228082
 31
0.0
  0
LINE
  5
1D4
330
1F
100
AcDbEntity
  8
0
  6
CONTINUOUS
 62
     7
100
AcDbLine
 10
3.3561636624
 20
7.3757172964
 30
0.0
 11
3.4250613002
 21
7.3757172964
 31
0.0
  0
LINE
  5
1D5
330
1F
100
AcDbEntity
  8
0
  6
CONTINUOUS
 62
     7
100
AcDbLine
 10
3.4250613002
 20
7.6316228082
 30
0.0
 11
3.3561636624
 21
7.6316228082
 31
0.0
  0
LINE
  5
1D6
330
1F
100
AcDbEntity
  8
0
  6
CONTINUOUS
 62
     7
100
AcDbLine
 10
3.2282109065
 20
5.7123314696
 30
0.0
 11
3.2971085443
 21
5.7123314696
 31
0.0
  0
LINE
  5
1D7
330
1F
100
AcDbEntity
  8
0
  6
CONTINUOUS
 62
     7
100
AcDbLine
 10
3.2971085443
 20
5.9682369814
 30
0.0
 11
3.2282109065
 21
5.9682369814
 31
0.0
  0
LINE
  5
1D8
330
1F
100
AcDbEntity
  8
0
  6
CONTINUOUS
 62
     7
100
AcDbLine
 10
3.3561636624
 20
5.7123314696
 30
0.0
 11
3.4250613002
 21
5.7123314696
 31
0.0
  0
LINE
  5
1D9
330
1F
100
AcDbEntity
  8
0
  6
CONTINUOUS
 62
     7
100
AcDbLine
 10
3.4250613002
 20
5.9682369814
 30
0.0
 11
3.3561636624
 21
5.9682369814
 31
0.0
  0
LINE
  5
1DA
330
1F
100
AcDbEntity
  8
0
  6
CONTINUOUS
 62
     7
100
AcDbLine
 10
3.3561636624
 20
7.6636109972
 30
0.0
 11
3.2971085443
 21
7.6636109972
 31
0.0
  0
LINE
  5
1DB
330
1F
100
AcDbEntity
  8
0
  6
CONTINUOUS
 62
     7
100
AcDbLine
 10
3.2971085443
 20
5.6803432806
 30
0.0
 11
3.3561636624
 21
5.6803432806
 31
0.0
  0
LINE
  5
1DC
330
1F
100
AcDbEntity
  8
0
  6
CONTINUOUS
 62
     7
100
AcDbLine
 10
4.0156124813
 20
7.6880991862
 30
0.0
 11
4.0156124813
 21
5.6559027619
 31
0.0
  0
LINE
  5
1DD
330
1F
100
AcDbEntity
  8
0
  6
CONTINUOUS
 62
     7
100
AcDbLine
 10
4.0081124813
 20
5.6484024126
 30
0.0
 11
4.0156124813
 21
5.6559027619
 31
0.0
  0
LINE
  5
1DE
330
1F
100
AcDbEntity
  8
0
  6
CONTINUOUS
 62
     7
100
AcDbLine
 10
4.0081124813
 20
5.6484024126
 30
0.0
 11
4.0081124813
 21
7.6955991862
 31
0.0
  0
LINE
  5
1DF
330
1F
100
AcDbEntity
  8
0
  6
CONTINUOUS
 62
     7
100
AcDbLine
 10
3.4250613002
 20
7.6955991862
 30
0.0
 11
3.4250613002
 21
5.6483550917
 31
0.0
  0
SPLINE
  5
1E0
330
1F
100
AcDbEntity
  8
0
  6
CONTINUOUS
 62
     7
100
AcDbSpline
210
0.0
220
0.0
230
1.0
 70
     8
 71
     3
 72
    90
 73
    86
 74
     0
 42
0.00000001
 43
0.00000001
 40
-0.0156249999999999
 40
-0.0156249999999999
 40
0.0
 40
0.0
 40
0.0312499999999998
 40
0.0312499999999998
 40
0.0468749999999998
 40
0.0468749999999998
 40
0.0624999999999997
 40
0.0624999999999997
 40
0.0781249999999997
 40
0.0781249999999997
 40
0.0937499999999996
 40
0.0937499999999996
 40
0.1249999999999995
 40
0.1249999999999995
 40
0.1562499999999994
 40
0.1562499999999994
 40
0.1874999999999993
 40
0.1874999999999993
 40
0.2187499999999992
 40
0.2187499999999992
 40
0.2499999999999991
 40
0.2499999999999991
 40
0.281249999999999
 40
0.281249999999999
 40
0.3124999999999989
 40
0.3124999999999989
 40
0.3437499999999988
 40
0.3437499999999988
 40
0.3749999999999987
 40
0.3749999999999987
 40
0.4062499999999986
 40
0.4062499999999986
 40
0.4218749999999985
 40
0.4218749999999985
 40
0.4374999999999984
 40
0.4374999999999984
 40
0.4531249999999983
 40
0.4531249999999983
 40
0.4687499999999983
 40
0.4687499999999983
 40
0.4843749999999982
 40
0.4843749999999982
 40
0.4999999999999981
 40
0.4999999999999981
 40
0.515624999999998
 40
0.515624999999998
 40
0.531249999999998
 40
0.531249999999998
 40
0.5468749999999979
 40
0.5468749999999979
 40
0.5624999999999978
 40
0.5624999999999978
 40
0.5937499999999981
 40
0.5937499999999981
 40
0.6093749999999984
 40
0.6093749999999984
 40
0.6249999999999988
 40
0.6249999999999988
 40
0.656249999999999
 40
0.656249999999999
 40
0.6874999999999991
 40
0.6874999999999991
 40
0.7187499999999993
 40
0.7187499999999993
 40
0.7499999999999994
 40
0.7499999999999994
 40
0.8125000000000001
 40
0.8125000000000001
 40
0.84375
 40
0.84375
 40
0.875
 40
0.875
 40
0.890625
 40
0.890625
 40
0.90625
 40
0.90625
 40
0.9218750000000001
 40
0.9218750000000001
 40
0.9375000000000001
 40
0.9375000000000001
 40
0.9687500000000001
 40
0.9687500000000001
 40
0.9843750000000001
 40
0.9843750000000001
 40
1.0
 40
1.0
 40
1.03125
 40
1.03125
 10
3.855574036602372
 20
6.140586780167939
 30
0.0
 10
3.840748425925292
 20
6.14058678016794
 30
0.0
 10
3.831096718040555
 20
6.139456902662775
 30
0.0
 10
3.816948724097748
 20
6.136168535962455
 30
0.0
 10
3.812256552787182
 20
6.134790843993855
 30
0.0
 10
3.803206622302373
 20
6.131570116742897
 30
0.0
 10
3.798835388592205
 20
6.129728400786417
 30
0.0
 10
3.790383999278091
 20
6.125612595521124
 30
0.0
 10
3.786303926740568
 20
6.123338372540566
 30
0.0
 10
3.778429935640234
 20
6.118371496423669
 30
0.0
 10
3.774659867603501
 20
6.115690511196862
 30
0.0
 10
3.764012886935076
 20
6.107244255834731
 30
0.0
 10
3.75769684526137
 20
6.101013378677909
 30
0.0
 10
3.74656981902314
 20
6.08759342701468
 30
0.0
 10
3.741893827333223
 20
6.080574352728257
 30
0.0
 10
3.734072103568121
 20
6.066053743168834
 30
0.0
 10
3.730924140032553
 20
6.058505820846733
 30
0.0
 10
3.726193017104271
 20
6.043442000850272
 30
0.0
 10
3.724577482859574
 20
6.035880043389694
 30
0.0
 10
3.722707923854216
 20
6.020730246648017
 30
0.0
 10
3.722466493183002
 20
6.013150014267905
 30
0.0
 10
3.723262090697325
 20
5.998366233532614
 30
0.0
 10
3.724291039110992
 20
5.991110411076496
 30
0.0
 10
3.727564486203361
 20
5.976861234881392
 30
0.0
 10
3.729829024361295
 20
5.969835019574443
 30
0.0
 10
3.735477981495869
 20
5.956378645608408
 30
0.0
 10
3.738864353068835
 20
5.949910177628908
 30
0.0
 10
3.746813308340724
 20
5.937481048644475
 30
0.0
 10
3.751373043975927
 20
5.931519750067256
 30
0.0
 10
3.761882177780217
 20
5.920138952057987
 30
0.0
 10
3.767733992112908
 20
5.91482937497972
 30
0.0
 10
3.77750670774626
 20
5.907557565017992
 30
0.0
 10
3.78093496645562
 20
5.90524622116398
 30
0.0
 10
3.788187775473556
 20
5.900872948856519
 30
0.0
 10
3.79201859654606
 20
5.898811321539611
 30
0.0
 10
3.799953131908672
 20
5.895063646663282
 30
0.0
 10
3.804076381875147
 20
5.893364410415511
 30
0.0
 10
3.812680725554765
 20
5.8903541404005
 30
0.0
 10
3.817200483255399
 20
5.889034477550603
 30
0.0
 10
3.826468048895452
 20
5.886893733146001
 30
0.0
 10
3.831188795727932
 20
5.886074378050197
 30
0.0
 10
3.840816675027736
 20
5.88496631166003
 30
0.0
 10
3.845775434791407
 20
5.884678839186543
 30
0.0
 10
3.855616060727201
 20
5.884683729121704
 30
0.0
 10
3.860480949407004
 20
5.884968935142621
 30
0.0
 10
3.87010543544821
 20
5.886079035033183
 30
0.0
 10
3.87490492169171
 20
5.886914711801571
 30
0.0
 10
3.884167951529107
 20
5.889062735969297
 30
0.0
 10
3.888631500212075
 20
5.890368403537843
 30
0.0
 10
3.897265187701037
 20
5.893393960922693
 30
0.0
 10
3.901458523018953
 20
5.89512689139918
 30
0.0
 10
3.913379561117841
 20
5.900776881286109
 30
0.0
 10
3.920523155526829
 20
5.90514659535024
 30
0.0
 10
3.930325448458773
 20
5.912446769416913
 30
0.0
 10
3.933450689931289
 20
5.915019017019633
 30
0.0
 10
3.939330046584784
 20
5.920328642353434
 30
0.0
 10
3.942089121534321
 20
5.923067172195433
 30
0.0
 10
3.949884177318385
 20
5.931518688867865
 30
0.0
 10
3.954442859342746
 20
5.937465791122885
 30
0.0
 10
3.962433122872921
 20
5.949964499180924
 30
0.0
 10
3.965874263542636
 20
5.956557125679806
 30
0.0
 10
3.971511700204834
 20
5.970048841213139
 30
0.0
 10
3.973731015120803
 20
5.976972506478407
 30
0.0
 10
3.976985277071892
 20
5.991187303524005
 30
0.0
 10
3.978021881438726
 20
5.998521803041331
 30
0.0
 10
3.979187510624657
 20
6.020817996364525
 30
0.0
 10
3.97745120371906
 20
6.035803682967733
 30
0.0
 10
3.970399121210295
 20
6.058348165039502
 30
0.0
 10
3.967252274753257
 20
6.06592137294598
 30
0.0
 10
3.959454947492774
 20
6.080438106128091
 30
0.0
 10
3.954796417097064
 20
6.087448201185516
 30
0.0
 10
3.946496686011364
 20
6.097491332328836
 30
0.0
 10
3.943498298353905
 20
6.100767460411436
 30
0.0
 10
3.937165817485484
 20
6.106992639457981
 30
0.0
 10
3.933818381056473
 20
6.109960161004655
 30
0.0
 10
3.926746054700418
 20
6.115585465292464
 30
0.0
 10
3.923021303962701
 20
6.118243377135381
 30
0.0
 10
3.915165866898114
 20
6.123218490403481
 30
0.0
 10
3.911020988596372
 20
6.125538196968069
 30
0.0
 10
3.898304133840142
 20
6.131748710764235
 30
0.0
 10
3.889348816241661
 20
6.1349758897779
 30
0.0
 10
3.875145449373647
 20
6.138310822133854
 30
0.0
 10
3.870268526907257
 20
6.139166537836574
 30
0.0
 10
3.860504365098999
 20
6.140300007745365
 30
0.0
 10
3.855574036602372
 20
6.140586780167939
 30
0.0
 10
3.840748425925292
 20
6.14058678016794
 30
0.0
  0
LINE
  5
1E1
330
1F
100
AcDbEntity
  8
0
  6
CONTINUOUS
 62
     7
100
AcDbLine
 10
4.0081124813
 20
5.6484024126
 30
0.0
 11
3.6964326913
 21
5.6484024126
 31
0.0
  0
LINE
  5
1E2
330
1F
100
AcDbEntity
  8
0
  6
CONTINUOUS
 62
     7
100
AcDbLine
 10
3.6964326913
 20
7.1493393436
 30
0.0
 11
3.6964326913
 21
5.6484024126
 31
0.0
  0
LINE
  5
1E3
330
1F
100
AcDbEntity
  8
0
  6
CONTINUOUS
 62
     7
100
AcDbLine
 10
3.6701859722
 20
7.1493393436
 30
0.0
 11
3.6964326913
 21
7.1493393436
 31
0.0
  0
LINE
  5
1E4
330
1F
100
AcDbEntity
  8
0
  6
CONTINUOUS
 62
     7
100
AcDbLine
 10
3.6701859722
 20
5.6483550917
 30
0.0
 11
3.6701859722
 21
7.1493393436
 31
0.0
  0
LINE
  5
1E5
330
1F
100
AcDbEntity
  8
0
  6
CONTINUOUS
 62
     7
100
AcDbLine
 10
3.9096872845
 20
5.9785385359
 30
0.0
 11
3.9096872845
 21
6.0467295126
 31
0.0
  0
LINE
  5
1E6
330
1F
100
AcDbEntity
  8
0
  6
CONTINUOUS
 62
     7
100
AcDbLine
 10
3.9096872845
 20
6.0467295126
 30
0.0
 11
3.8506321664
 21
6.0808250009
 31
0.0
  0
LINE
  5
1E7
330
1F
100
AcDbEntity
  8
0
  6
CONTINUOUS
 62
     7
100
AcDbLine
 10
3.8506321664
 20
6.0808250009
 30
0.0
 11
3.7915770483
 21
6.0467295126
 31
0.0
  0
LINE
  5
1E8
330
1F
100
AcDbEntity
  8
0
  6
CONTINUOUS
 62
     7
100
AcDbLine
 10
3.7915770483
 20
6.0467295126
 30
0.0
 11
3.7915770483
 21
5.9785385359
 31
0.0
  0
LINE
  5
1E9
330
1F
100
AcDbEntity
  8
0
  6
CONTINUOUS
 62
     7
100
AcDbLine
 10
3.7915770483
 20
5.9785385359
 30
0.0
 11
3.8506321664
 21
5.9444430476
 31
0.0
  0
LINE
  5
1EA
330
1F
100
AcDbEntity
  8
0
  6
CONTINUOUS
 62
     7
100
AcDbLine
 10
3.8506321664
 20
5.9444430476
 30
0.0
 11
3.9096872845
 21
5.9785385359
 31
0.0
  0
CIRCLE
  5
1EB
330
1F
100
AcDbEntity
  8
0
  6
CONTINUOUS
 62
     7
100
AcDbCircle
 10
3.8506321664
 20
6.0126340243
 30
0.0
 40
0.1181102362204722
  0
CIRCLE
  5
1EC
330
1F
100
AcDbEntity
  8
0
  6
CONTINUOUS
 62
     7
100
AcDbCircle
 10
3.8506321664
 20
6.0126340243
 30
0.0
 40
0.127952755905512
  0
LINE
  5
1ED
330
1F
100
AcDbEntity
  8
0
  6
CONTINUOUS
 62
     7
100
AcDbLine
 10
2.8026400404
 20
7.3461897373
 30
0.0
 11
2.739078774
 21
7.3461897373
 31
0.0
  0
LINE
  5
1EE
330
1F
100
AcDbEntity
  8
0
  6
CONTINUOUS
 62
     7
100
AcDbLine
 10
2.8663522528
 20
7.3461897373
 30
0.0
 11
2.8026400404
 21
7.3461897373
 31
0.0
  0
LINE
  5
1EF
330
1F
100
AcDbEntity
  8
0
  6
CONTINUOUS
 62
     7
100
AcDbLine
 10
3.2282109065
 20
7.6955991862
 30
0.0
 11
3.2282109065
 21
5.6483550917
 31
0.0
  0
SPLINE
  5
1F0
330
1F
100
AcDbEntity
  8
0
  6
CONTINUOUS
 62
     7
100
AcDbSpline
210
0.0
220
0.0
230
1.0
 70
     8
 71
     3
 72
    90
 73
    86
 74
     0
 42
0.00000001
 43
0.00000001
 40
-0.0156250000000004
 40
-0.0156250000000004
 40
0.0
 40
0.0
 40
0.0312499999999998
 40
0.0312499999999998
 40
0.0468749999999997
 40
0.0468749999999997
 40
0.0624999999999995
 40
0.0624999999999995
 40
0.0781249999999994
 40
0.0781249999999994
 40
0.0937499999999993
 40
0.0937499999999993
 40
0.1249999999999991
 40
0.1249999999999991
 40
0.1562499999999989
 40
0.1562499999999989
 40
0.1874999999999988
 40
0.1874999999999988
 40
0.2187499999999986
 40
0.2187499999999986
 40
0.2499999999999985
 40
0.2499999999999985
 40
0.2812499999999983
 40
0.2812499999999983
 40
0.3124999999999982
 40
0.3124999999999982
 40
0.3437499999999981
 40
0.3437499999999981
 40
0.3749999999999979
 40
0.3749999999999979
 40
0.4062499999999977
 40
0.4062499999999977
 40
0.4218749999999977
 40
0.4218749999999977
 40
0.4374999999999976
 40
0.4374999999999976
 40
0.4531249999999976
 40
0.4531249999999976
 40
0.4687499999999976
 40
0.4687499999999976
 40
0.4843749999999975
 40
0.4843749999999975
 40
0.4999999999999974
 40
0.4999999999999974
 40
0.5156249999999973
 40
0.5156249999999973
 40
0.5312499999999972
 40
0.5312499999999972
 40
0.5468749999999971
 40
0.5468749999999971
 40
0.562499999999997
 40
0.562499999999997
 40
0.5937499999999968
 40
0.5937499999999968
 40
0.6093749999999967
 40
0.6093749999999967
 40
0.6249999999999966
 40
0.6249999999999966
 40
0.6562499999999969
 40
0.6562499999999969
 40
0.6874999999999971
 40
0.6874999999999971
 40
0.7187499999999973
 40
0.7187499999999973
 40
0.7499999999999976
 40
0.7499999999999976
 40
0.8124999999999977
 40
0.8124999999999977
 40
0.8437499999999977
 40
0.8437499999999977
 40
0.8749999999999977
 40
0.8749999999999977
 40
0.8906249999999979
 40
0.8906249999999979
 40
0.9062499999999981
 40
0.9062499999999981
 40
0.9218749999999983
 40
0.9218749999999983
 40
0.9374999999999986
 40
0.9374999999999986
 40
0.9687499999999992
 40
0.9687499999999992
 40
0.9843749999999996
 40
0.9843749999999996
 40
1.0
 40
1.0
 40
1.03125
 40
1.03125
 10
2.797698170166734
 20
7.546863635688065
 30
0.0
 10
2.812523780843813
 20
7.546863635688063
 30
0.0
 10
2.822175488728551
 20
7.54618014913505
 30
0.0
 10
2.836323482671356
 20
7.544165701658105
 30
0.0
 10
2.841015653981922
 20
7.543318958903841
 30
0.0
 10
2.850065584466731
 20
7.541325132010768
 30
0.0
 10
2.8544368181769
 20
7.54017890467977
 30
0.0
 10
2.862888207491014
 20
7.537594713714109
 30
0.0
 10
2.866968280028536
 20
7.536156683178991
 30
0.0
 10
2.874842271128871
 20
7.532983279017913
 30
0.0
 10
2.878612339165605
 20
7.531255080113047
 30
0.0
 10
2.889259319834029
 20
7.525747631250567
 30
0.0
 10
2.895575361507734
 20
7.521605613093684
 30
0.0
 10
2.906702387745965
 20
7.512431680758172
 30
0.0
 10
2.911378379435882
 20
7.507515860502111
 30
0.0
 10
2.919200103200984
 20
7.497046256788303
 30
0.0
 10
2.922348066736551
 20
7.491455513824263
 30
0.0
 10
2.927079189664834
 20
7.479959468705832
 30
0.0
 10
2.928694723909532
 20
7.474022952306954
 30
0.0
 10
2.930564282914889
 20
7.461771091175847
 30
0.0
 10
2.930805713586103
 20
7.455458925941831
 30
0.0
 10
2.93001011607178
 20
7.442785311499695
 30
0.0
 10
2.928981167658113
 20
7.436382252423809
 30
0.0
 10
2.925707720565744
 20
7.423448068888598
 30
0.0
 10
2.92344318240781
 20
7.416883524413403
 30
0.0
 10
2.917794225273237
 20
7.403966124682958
 30
0.0
 10
2.914407853700269
 20
7.397580067484659
 30
0.0
 10
2.906458898428381
 20
7.384995932431017
 30
0.0
 10
2.901899162793178
 20
7.378796806509891
 30
0.0
 10
2.891390028988888
 20
7.36667889361385
 30
0.0
 10
2.885538214656196
 20
7.360876312555527
 30
0.0
 10
2.875765499022845
 20
7.352769316245771
 30
0.0
 10
2.872337240313485
 20
7.350163520677572
 30
0.0
 10
2.865084431295548
 20
7.345186910619005
 30
0.0
 10
2.861253610223045
 20
7.342816123317877
 30
0.0
 10
2.853319074860433
 20
7.338472262460288
 30
0.0
 10
2.849195824893958
 20
7.336484263821636
 30
0.0
 10
2.84059148121434
 20
7.332940820387959
 30
0.0
 10
2.836071723513706
 20
7.331375088750925
 30
0.0
 10
2.826804157873653
 20
7.328824848219312
 30
0.0
 10
2.822083411041174
 20
7.327842746548676
 30
0.0
 10
2.81245553174137
 20
7.326512701428643
 30
0.0
 10
2.807496771977697
 20
7.326166318635309
 30
0.0
 10
2.797656146041904
 20
7.326172203490159
 30
0.0
 10
2.792791257362101
 20
7.326515857975173
 30
0.0
 10
2.783166771320895
 20
7.327848328912647
 30
0.0
 10
2.778367285077394
 20
7.328849935886058
 30
0.0
 10
2.769104255239998
 20
7.331408654332632
 30
0.0
 10
2.76464070655703
 20
7.332957728207553
 30
0.0
 10
2.756007019068068
 20
7.336518928110253
 30
0.0
 10
2.751813683750152
 20
7.338546039008199
 30
0.0
 10
2.739892645651263
 20
7.345093398092354
 30
0.0
 10
2.732749051242276
 20
7.350081947793162
 30
0.0
 10
2.722946758310331
 20
7.358219802340249
 30
0.0
 10
2.719821516837816
 20
7.361057627850918
 30
0.0
 10
2.713942160184321
 20
7.366845512171615
 30
0.0
 10
2.711183085234784
 20
7.369797236645183
 30
0.0
 10
2.70338802945072
 20
7.378794728632425
 30
0.0
 10
2.698829347426358
 20
7.384980827724983
 30
0.0
 10
2.690839083896184
 20
7.397634722322172
 30
0.0
 10
2.687397943226468
 20
7.404140847732815
 30
0.0
 10
2.681760506564271
 20
7.41708528994594
 30
0.0
 10
2.679541191648302
 20
7.423550669953394
 30
0.0
 10
2.676286929697213
 20
7.436450429288327
 30
0.0
 10
2.67525032533038
 20
7.442921879606016
 30
0.0
 10
2.674084696144448
 20
7.462025880906935
 30
0.0
 10
2.675821003050046
 20
7.474126111743274
 30
0.0
 10
2.68287308555881
 20
7.491337233311508
 30
0.0
 10
2.686019932015848
 20
7.496949014333674
 30
0.0
 10
2.69381725927633
 20
7.507419392685838
 30
0.0
 10
2.698475789672041
 20
7.512330523694252
 30
0.0
 10
2.706775520757742
 20
7.519198835003493
 30
0.0
 10
2.7097739084152
 20
7.521409654960149
 30
0.0
 10
2.716106389283621
 20
7.525562876556079
 30
0.0
 10
2.719453825712632
 20
7.527518072192763
 30
0.0
 10
2.726526152068688
 20
7.531187053602208
 30
0.0
 10
2.730250902806405
 20
7.532900905685659
 30
0.0
 10
2.738106339870992
 20
7.536080579950285
 30
0.0
 10
2.742251218172732
 20
7.537547791116357
 30
0.0
 10
2.754968072928963
 20
7.541447807492111
 30
0.0
 10
2.763923390527443
 20
7.543434855996983
 30
0.0
 10
2.778126757395457
 20
7.545478173600283
 30
0.0
 10
2.783003679861848
 20
7.545999678203787
 30
0.0
 10
2.792767841670106
 20
7.546689642539821
 30
0.0
 10
2.797698170166734
 20
7.546863635688065
 30
0.0
 10
2.812523780843813
 20
7.546863635688063
 30
0.0
  0
SPLINE
  5
1F1
330
1F
100
AcDbEntity
  8
0
  6
CONTINUOUS
 62
     7
100
AcDbSpline
210
0.0
220
0.0
230
1.0
 70
     8
 71
     3
 72
    74
 73
    70
 74
     0
 42
0.00000001
 43
0.00000001
 40
-0.0156250000000002
 40
-0.0156250000000002
 40
0.0
 40
0.0
 40
0.03125
 40
0.03125
 40
0.0468749999999999
 40
0.0468749999999999
 40
0.0624999999999998
 40
0.0624999999999998
 40
0.0937499999999997
 40
0.0937499999999997
 40
0.1249999999999995
 40
0.1249999999999995
 40
0.187499999999999
 40
0.187499999999999
 40
0.2187499999999988
 40
0.2187499999999988
 40
0.2499999999999986
 40
0.2499999999999986
 40
0.2812499999999984
 40
0.2812499999999984
 40
0.3124999999999982
 40
0.3124999999999982
 40
0.343749999999998
 40
0.343749999999998
 40
0.3749999999999978
 40
0.3749999999999978
 40
0.4062499999999976
 40
0.4062499999999976
 40
0.4374999999999973
 40
0.4374999999999973
 40
0.4531249999999972
 40
0.4531249999999972
 40
0.4687499999999971
 40
0.4687499999999971
 40
0.484374999999997
 40
0.484374999999997
 40
0.4999999999999969
 40
0.4999999999999969
 40
0.531249999999997
 40
0.531249999999997
 40
0.5624999999999971
 40
0.5624999999999971
 40
0.5781249999999971
 40
0.5781249999999971
 40
0.5937499999999971
 40
0.5937499999999971
 40
0.6249999999999971
 40
0.6249999999999971
 40
0.6874999999999976
 40
0.6874999999999976
 40
0.7187499999999978
 40
0.7187499999999978
 40
0.749999999999998
 40
0.749999999999998
 40
0.8124999999999984
 40
0.8124999999999984
 40
0.8437499999999987
 40
0.8437499999999987
 40
0.8749999999999989
 40
0.8749999999999989
 40
0.9062499999999991
 40
0.9062499999999991
 40
0.9374999999999993
 40
0.9374999999999993
 40
0.9687499999999996
 40
0.9687499999999996
 40
0.9843749999999998
 40
0.9843749999999998
 40
1.0
 40
1.0
 40
1.03125
 40
1.03125
 10
2.805672548141076
 20
5.962727409272704
 30
0.0
 10
2.796575024895128
 20
5.962727409272704
 30
0.0
 10
2.790700823974774
 20
5.96200687202943
 30
0.0
 10
2.782144521693888
 20
5.959971168875871
 30
0.0
 10
2.779336743347395
 20
5.959128743030004
 30
0.0
 10
2.77397857743841
 20
5.957203652821182
 30
0.0
 10
2.771403048179516
 20
5.956115747874966
 30
0.0
 10
2.763954996289438
 20
5.952520028679295
 30
0.0
 10
2.759375415195417
 20
5.94967752647571
 30
0.0
 10
2.751205785559228
 20
5.943555233294875
 30
0.0
 10
2.747552072589234
 20
5.940243580123631
 30
0.0
 10
2.737700278428495
 20
5.929702949609276
 30
0.0
 10
2.732895921829299
 20
5.922242726431338
 30
0.0
 10
2.727815015323789
 20
5.910669844979453
 30
0.0
 10
2.726494906882167
 20
5.906744486642145
 30
0.0
 10
2.72464432524801
 20
5.898978616081557
 30
0.0
 10
2.724100657755849
 20
5.895110763192241
 30
0.0
 10
2.723790692537444
 20
5.887407178700147
 30
0.0
 10
2.724031546291481
 20
5.883540985648168
 30
0.0
 10
2.725338321227151
 20
5.876025089504407
 30
0.0
 10
2.726395815267521
 20
5.872372699462853
 30
0.0
 10
2.729364552870566
 20
5.865277776181846
 30
0.0
 10
2.731274474237175
 20
5.861835082208677
 30
0.0
 10
2.736082180570804
 20
5.855171568554314
 30
0.0
 10
2.73897337255555
 20
5.851978604690039
 30
0.0
 10
2.745639635381827
 20
5.84609827512846
 30
0.0
 10
2.749460687460131
 20
5.843362771360928
 30
0.0
 10
2.758093211305003
 20
5.838450408839958
 30
0.0
 10
2.762800249253567
 20
5.836326245764332
 30
0.0
 10
2.77050988760906
 20
5.833665668360076
 30
0.0
 10
2.773210758742668
 20
5.83286243316397
 30
0.0
 10
2.778712532958168
 20
5.831481683320373
 30
0.0
 10
2.781516579020488
 20
5.830900767557478
 30
0.0
 10
2.78723190715626
 20
5.829956926538591
 30
0.0
 10
2.790143165519164
 20
5.829593955266981
 30
0.0
 10
2.796078206841329
 20
5.829094877141875
 30
0.0
 10
2.79911936658252
 20
5.828960363791792
 30
0.0
 10
2.808120482311931
 20
5.828919399803032
 30
0.0
 10
2.814047547721342
 20
5.829358011387706
 30
0.0
 10
2.825739500853953
 20
5.831175189923459
 30
0.0
 10
2.831245820568461
 20
5.832513199748589
 30
0.0
 10
2.83904718573191
 20
5.835117347466247
 30
0.0
 10
2.841576559621722
 20
5.836090401489625
 30
0.0
 10
2.846368593971219
 20
5.838187246689616
 30
0.0
 10
2.848647138789279
 20
5.839315571856348
 30
0.0
 10
2.855154289228941
 20
5.842929987006916
 30
0.0
 10
2.859077723577482
 20
5.845669950656921
 30
0.0
 10
2.869268548081876
 20
5.854469190347944
 30
0.0
 10
2.874152728732665
 20
5.861249512762853
 30
0.0
 10
2.878759652126054
 20
5.871990369990584
 30
0.0
 10
2.879863103877711
 20
5.875707134232256
 30
0.0
 10
2.881222692300737
 20
5.883268026609704
 30
0.0
 10
2.881480056552937
 20
5.887086962202884
 30
0.0
 10
2.88107846619246
 20
5.898659255367227
 30
0.0
 10
2.879215605421197
 20
5.906605241068865
 30
0.0
 10
2.874208914471166
 20
5.918123314694815
 30
0.0
 10
2.872169089585956
 20
5.921916949817607
 30
0.0
 10
2.86727740320965
 20
5.929388172125276
 30
0.0
 10
2.86440302155057
 20
5.933084312037572
 30
0.0
 10
2.857901551783902
 20
5.940074700718065
 30
0.0
 10
2.854263669360715
 20
5.943397357715844
 30
0.0
 10
2.846042081269649
 20
5.949589885406337
 30
0.0
 10
2.841472858757407
 20
5.952434737571161
 30
0.0
 10
2.831574359748529
 20
5.957240911875723
 30
0.0
 10
2.826115204028766
 20
5.959250512247224
 30
0.0
 10
2.817585271077491
 20
5.961297335414838
 30
0.0
 10
2.814677704181025
 20
5.961825181380786
 30
0.0
 10
2.808722469224218
 20
5.962541972498235
 30
0.0
 10
2.805672548141076
 20
5.962727409272704
 30
0.0
 10
2.796575024895128
 20
5.962727409272704
 30
0.0
  0
LINE
  5
1F2
330
1F
100
AcDbEntity
  8
0
  6
CONTINUOUS
 62
     7
100
AcDbLine
 10
2.9830862346
 20
7.5774755769
 30
0.0
 11
2.9568395155
 21
7.5774755769
 31
0.0
  0
LINE
  5
1F3
330
1F
100
AcDbEntity
  8
0
  6
CONTINUOUS
 62
     7
100
AcDbLine
 10
2.9568395155
 20
7.6955991862
 30
0.0
 11
2.9568395155
 21
6.6818196586
 31
0.0
  0
LINE
  5
1F4
330
1F
100
AcDbEntity
  8
0
  6
CONTINUOUS
 62
     7
100
AcDbLine
 10
2.6451597254
 20
6.6818196586
 30
0.0
 11
2.9568395155
 21
6.6818196586
 31
0.0
  0
LINE
  5
1F5
330
1F
100
AcDbEntity
  8
0
  6
CONTINUOUS
 62
     7
100
AcDbLine
 10
2.6451597254
 20
6.6818196586
 30
0.0
 11
2.6451597254
 21
7.6955991862
 31
0.0
  0
LINE
  5
1F6
330
1F
100
AcDbEntity
  8
0
  6
CONTINUOUS
 62
     7
100
AcDbLine
 10
2.6451597254
 20
5.6483550917
 30
0.0
 11
2.6451597254
 21
6.6621346192
 31
0.0
  0
LINE
  5
1F7
330
1F
100
AcDbEntity
  8
0
  6
CONTINUOUS
 62
     7
100
AcDbLine
 10
2.6451597254
 20
6.6621346192
 30
0.0
 11
2.9568395155
 21
6.6621346192
 31
0.0
  0
LINE
  5
1F8
330
1F
100
AcDbEntity
  8
0
  6
CONTINUOUS
 62
     7
100
AcDbLine
 10
2.9568395155
 20
6.6621346192
 30
0.0
 11
2.9568395155
 21
5.6483550917
 31
0.0
  0
LINE
  5
1F9
330
1F
100
AcDbEntity
  8
0
  6
CONTINUOUS
 62
     7
100
AcDbLine
 10
2.9568395155
 20
5.766478701
 30
0.0
 11
2.9830862346
 21
5.766478701
 31
0.0
  0
LINE
  5
1FA
330
1F
100
AcDbEntity
  8
0
  6
CONTINUOUS
 62
     7
100
AcDbLine
 10
2.9830862346
 20
5.6483550917
 30
0.0
 11
2.9830862346
 21
7.6955991862
 31
0.0
  0
LINE
  5
1FB
330
1F
100
AcDbEntity
  8
0
  6
CONTINUOUS
 62
     7
100
AcDbLine
 10
2.6451597254
 20
6.6818196586
 30
0.0
 11
2.6376597254
 21
6.6818196586
 31
0.0
  0
LINE
  5
1FC
330
1F
100
AcDbEntity
  8
0
  6
CONTINUOUS
 62
     7
100
AcDbLine
 10
2.6376597254
 20
6.6621346192
 30
0.0
 11
2.6376597254
 21
5.6558550917
 31
0.0
  0
LINE
  5
1FD
330
1F
100
AcDbEntity
  8
0
  6
CONTINUOUS
 62
     7
100
AcDbLine
 10
2.6376597254
 20
7.6880991862
 30
0.0
 11
2.6376597254
 21
6.6818196586
 31
0.0
  0
LINE
  5
1FE
330
1F
100
AcDbEntity
  8
0
  6
CONTINUOUS
 62
     7
100
AcDbLine
 10
2.6451597254
 20
6.6621346192
 30
0.0
 11
2.6376597254
 21
6.6621346192
 31
0.0
  0
LINE
  5
1FF
330
1F
100
AcDbEntity
  8
0
  6
CONTINUOUS
 62
     7
100
AcDbLine
 10
3.3561636624
 20
6.7850724656
 30
0.0
 11
3.2971085443
 21
6.7850724656
 31
0.0
  0
LINE
  5
200
330
1F
100
AcDbEntity
  8
0
  6
CONTINUOUS
 62
     7
100
AcDbLine
 10
3.3561636624
 20
6.5588818122
 30
0.0
 11
3.2971085443
 21
6.5588818122
 31
0.0
  0
LINE
  5
201
330
1F
100
AcDbEntity
  8
0
  6
CONTINUOUS
 62
     7
100
AcDbLine
 10
3.3561636624
 20
6.7850724656
 30
0.0
 11
3.3561636624
 21
6.5588818122
 31
0.0
  0
LINE
  5
202
330
1F
100
AcDbEntity
  8
0
  6
CONTINUOUS
 62
     7
100
AcDbLine
 10
3.2971085443
 20
6.7850724656
 30
0.0
 11
3.2971085443
 21
6.5588818122
 31
0.0
  0
LINE
  5
203
330
1F
100
AcDbEntity
  8
0
  6
CONTINUOUS
 62
     7
100
AcDbLine
 10
3.3561636624
 20
7.616765379
 30
0.0
 11
3.2971085443
 21
7.616765379
 31
0.0
  0
LINE
  5
204
330
1F
100
AcDbEntity
  8
0
  6
CONTINUOUS
 62
     7
100
AcDbLine
 10
3.3561636624
 20
7.616765379
 30
0.0
 11
3.3561636624
 21
6.7850724656
 31
0.0
  0
LINE
  5
205
330
1F
100
AcDbEntity
  8
0
  6
CONTINUOUS
 62
     7
100
AcDbLine
 10
3.2971085443
 20
7.616765379
 30
0.0
 11
3.2971085443
 21
6.7850724656
 31
0.0
  0
LINE
  5
206
330
1F
100
AcDbEntity
  8
0
  6
CONTINUOUS
 62
     7
100
AcDbLine
 10
3.3561636624
 20
5.7271888988
 30
0.0
 11
3.2971085443
 21
5.7271888988
 31
0.0
  0
LINE
  5
207
330
1F
100
AcDbEntity
  8
0
  6
CONTINUOUS
 62
     7
100
AcDbLine
 10
3.3561636624
 20
6.5588818122
 30
0.0
 11
3.3561636624
 21
5.7271888988
 31
0.0
  0
LINE
  5
208
330
1F
100
AcDbEntity
  8
0
  6
CONTINUOUS
 62
     7
100
AcDbLine
 10
3.2971085443
 20
6.5588818122
 30
0.0
 11
3.2971085443
 21
5.7271888988
 31
0.0
  0
LINE
  5
209
330
1F
100
AcDbEntity
  8
0
  6
CONTINUOUS
 62
     7
100
AcDbLine
 10
2.9568395155
 20
6.6818196586
 30
0.0
 11
2.9568395155
 21
6.6621346192
 31
0.0
  0
LINE
  5
20A
330
1F
100
AcDbEntity
  8
0
  6
CONTINUOUS
 62
     7
100
AcDbLine
 10
3.3561636624
 20
7.6636109972
 30
0.0
 11
3.3561636624
 21
7.616765379
 31
0.0
  0
LINE
  5
20B
330
1F
100
AcDbEntity
  8
0
  6
CONTINUOUS
 62
     7
100
AcDbLine
 10
3.2971085443
 20
7.6636109972
 30
0.0
 11
3.2971085443
 21
7.616765379
 31
0.0
  0
LINE
  5
20C
330
1F
100
AcDbEntity
  8
0
  6
CONTINUOUS
 62
     7
100
AcDbLine
 10
3.3561636624
 20
5.7271888988
 30
0.0
 11
3.3561636624
 21
5.6803432806
 31
0.0
  0
LINE
  5
20D
330
1F
100
AcDbEntity
  8
0
  6
CONTINUOUS
 62
     7
100
AcDbLine
 10
3.2971085443
 20
5.7271888988
 30
0.0
 11
3.2971085443
 21
5.6803432806
 31
0.0
  0
LINE
  5
20E
330
1F
100
AcDbEntity
  8
0
  6
CONTINUOUS
 62
     7
100
AcDbLine
 10
2.6376597254
 20
6.6818196586
 30
0.0
 11
2.6376597254
 21
6.6621346192
 31
0.0
  0
LINE
  5
20F
330
1F
100
AcDbEntity
  8
0
  6
CONTINUOUS
 62
     8
100
AcDbLine
 10
2.8026400404
 20
7.3363472177
 30
0.0
 11
2.8487090116
 21
7.3363472177
 31
0.0
  0
LINE
  5
210
330
1F
100
AcDbEntity
  8
0
  6
CONTINUOUS
 62
     8
100
AcDbLine
 10
2.7566114314
 20
7.3363472177
 30
0.0
 11
2.8026400404
 21
7.3363472177
 31
0.0
  0
CIRCLE
  5
211
330
1F
100
AcDbEntity
  8
0
  6
HIDDEN
 62
     7
100
AcDbCircle
 10
3.8506321664
 20
6.0126340243
 30
0.0
 40
0.0787401574803148
  0
LINE
  5
212
330
1F
100
AcDbEntity
  8
0
  6
HIDDEN
 62
     7
100
AcDbLine
 10
3.6964326913
 20
6.376865636
 30
0.0
 11
4.0081124813
 21
6.376865636
 31
0.0
  0
LINE
  5
213
330
1F
100
AcDbEntity
  8
0
  6
HIDDEN
 62
     7
100
AcDbLine
 10
4.0081124813
 20
6.9670886419
 30
0.0
 11
3.893825139
 21
6.9670886419
 31
0.0
  0
POLYLINE
  5
214
330
1F
100
AcDbEntity
  8
0
  6
HIDDEN
 62
     7
100
AcDb2dPolyline
 66
     1
 10
0.0
 20
0.0
 30
0.0
  0
VERTEX
  5
2C8
330
214
100
AcDbEntity
  8
0
  6
HIDDEN
 62
     7
100
AcDbVertex
100
AcDb2dVertex
 10
3.893825139
 20
6.9670886419
 30
0.0
  0
VERTEX
  5
2C9
330
214
100
AcDbEntity
  8
0
  6
HIDDEN
 62
     7
100
AcDbVertex
100
AcDb2dVertex
 10
3.893825139
 20
6.9670886419
 30
0.0
  0
SEQEND
  5
2CA
330
214
100
AcDbEntity
  8
0
  6
HIDDEN
 62
     7
  0
ARC
  5
215
330
1F
100
AcDbEntity
  8
0
  6
HIDDEN
 62
     7
100
AcDbCircle
 10
4.0156124813
 20
6.6720571493
 30
0.0
 40
0.3191797900262474
100
AcDbArc
 50
90.0
 51
112.4305601238
  0
LINE
  5
216
330
1F
100
AcDbEntity
  8
0
  6
HIDDEN
 62
     7
100
AcDbLine
 10
4.0081124813
 20
6.9670886419
 30
0.0
 11
4.0156124813
 21
6.9745927086
 31
0.0
  0
LINE
  5
217
330
1F
100
AcDbEntity
  8
0
  6
HIDDEN
 62
     7
100
AcDbLine
 10
4.0156124813
 20
6.3693615692
 30
0.0
 11
4.0081124813
 21
6.376865636
 31
0.0
  0
CIRCLE
  5
218
330
1F
100
AcDbEntity
  8
0
  6
HIDDEN
 62
     7
100
AcDbCircle
 10
3.8506321664
 20
6.0126340243
 30
0.0
 40
0.0688976377952759
  0
LINE
  5
219
330
1F
100
AcDbEntity
  8
0
  6
HIDDEN
 62
     7
100
AcDbLine
 10
2.8026400404
 20
7.1887094224
 30
0.0
 11
2.6746872845
 21
7.1887094224
 31
0.0
  0
LINE
  5
21A
330
1F
100
AcDbEntity
  8
0
  6
HIDDEN
 62
     7
100
AcDbLine
 10
2.9305927963
 20
7.1887094224
 30
0.0
 11
2.8026400404
 21
7.1887094224
 31
0.0
  0
LINE
  5
21B
330
1F
100
AcDbEntity
  8
0
  6
HIDDEN
 62
     7
100
AcDbLine
 10
2.739078774
 20
7.3461897373
 30
0.0
 11
2.6845298042
 21
7.3461897373
 31
0.0
  0
LINE
  5
21C
330
1F
100
AcDbEntity
  8
0
  6
HIDDEN
 62
     7
100
AcDbLine
 10
2.9207502766
 20
7.3461897373
 30
0.0
 11
2.8663522528
 21
7.3461897373
 31
0.0
  0
LINE
  5
21D
330
1F
100
AcDbEntity
  8
0
  6
HIDDEN
 62
     7
100
AcDbLine
 10
2.7239708305
 20
6.0223708397
 30
0.0
 11
2.8813092503
 21
6.0223708397
 31
0.0
  0
LINE
  5
21E
330
1F
100
AcDbEntity
  8
0
  6
HIDDEN
 62
     7
100
AcDbLine
 10
2.7337424026
 20
6.01252832
 30
0.0
 11
2.8715376782
 21
6.01252832
 31
0.0
  0
LINE
  5
21F
330
1F
100
AcDbEntity
  8
0
  6
HIDDEN
 62
     7
100
AcDbLine
 10
2.8026400404
 20
7.2280795011
 30
0.0
 11
2.8026400404
 21
7.3461897373
 31
0.0
  0
LINE
  5
220
330
1F
100
AcDbEntity
  8
0
  6
HIDDEN
 62
     7
100
AcDbLine
 10
2.8026400404
 20
7.2280795011
 30
0.0
 11
2.7435849223
 21
7.2280795011
 31
0.0
  0
LINE
  5
221
330
1F
100
AcDbEntity
  8
0
  6
HIDDEN
 62
     7
100
AcDbLine
 10
2.8616951585
 20
7.2280795011
 30
0.0
 11
2.8026400404
 21
7.2280795011
 31
0.0
  0
LINE
  5
222
330
1F
100
AcDbEntity
  8
0
  6
HIDDEN
 62
     7
100
AcDbLine
 10
2.7435849223
 20
7.2280795011
 30
0.0
 11
2.7435849223
 21
7.3461897373
 31
0.0
  0
LINE
  5
223
330
1F
100
AcDbEntity
  8
0
  6
HIDDEN
 62
     7
100
AcDbLine
 10
2.8616951585
 20
7.2280795011
 30
0.0
 11
2.8616951585
 21
7.3461897373
 31
0.0
  0
LINE
  5
224
330
1F
100
AcDbEntity
  8
0
  6
HIDDEN
 62
     7
100
AcDbLine
 10
2.6451597254
 20
6.6818196586
 30
0.0
 11
2.6451597254
 21
6.6621346192
 31
0.0
  0
SPLINE
  5
225
330
1F
100
AcDbEntity
  8
0
  6
HIDDEN
 62
     7
100
AcDbSpline
210
0.0
220
0.0
230
1.0
 70
     8
 71
     3
 72
     8
 73
     4
 74
     0
 42
0.00000001
 43
0.00000001
 40
0.0
 40
0.0
 40
0.0
 40
0.0
 40
1.0
 40
1.0
 40
1.0
 40
1.0
 10
2.759447067813972
 20
6.681819658601465
 30
0.0
 10
2.758916914586086
 20
6.675257978811437
 30
0.0
 10
2.758916914586086
 20
6.668696299021413
 30
0.0
 10
2.759447067813971
 20
6.662134619231386
 30
0.0
  0
LINE
  5
226
330
1F
100
AcDbEntity
  8
0
  6
HIDDEN
 62
     7
100
AcDbLine
 10
3.3561636624
 20
7.616765379
 30
0.0
 11
3.2971085443
 21
7.616765379
 31
0.0
  0
LINE
  5
227
330
1F
100
AcDbEntity
  8
0
  6
HIDDEN
 62
     7
100
AcDbLine
 10
3.3561636624
 20
5.7271888988
 30
0.0
 11
3.2971085443
 21
5.7271888988
 31
0.0
  0
LINE
  5
228
330
1F
100
AcDbEntity
  8
0
  6
HIDDEN
 62
     7
100
AcDbLine
 10
3.3561636624
 20
6.5588818122
 30
0.0
 11
3.2971085443
 21
6.5588818122
 31
0.0
  0
LINE
  5
229
330
1F
100
AcDbEntity
  8
0
  6
HIDDEN
 62
     7
100
AcDbLine
 10
3.3561636624
 20
6.7850724656
 30
0.0
 11
3.2971085443
 21
6.7850724656
 31
0.0
  0
LINE
  5
22A
330
1F
100
AcDbEntity
  8
0
  6
HIDDEN
 62
     7
100
AcDbLine
 10
3.893825139
 20
6.9672527295
 30
0.0
 11
3.6964326913
 21
6.9672527295
 31
0.0
  0
LINE
  5
22B
330
1F
100
AcDbEntity
  8
0
  6
HIDDEN
 62
     7
100
AcDbLine
 10
3.6701859722
 20
6.9672527295
 30
0.0
 11
3.4250613002
 21
6.9672527295
 31
0.0
  0
LINE
  5
22C
330
1F
100
AcDbEntity
  8
0
  6
HIDDEN
 62
     7
100
AcDbLine
 10
3.4250613002
 20
6.3767015484
 30
0.0
 11
3.6701859722
 21
6.3767015484
 31
0.0
  0
LINE
  5
22D
330
1F
100
AcDbEntity
  8
0
  6
HIDDEN
 62
     7
100
AcDbLine
 10
2.9305927963
 20
7.1887094224
 30
0.0
 11
2.9305927963
 21
7.3363472177
 31
0.0
  0
LINE
  5
22E
330
1F
100
AcDbEntity
  8
0
  6
HIDDEN
 62
     7
100
AcDbLine
 10
2.6746872845
 20
7.3363472177
 30
0.0
 11
2.6746872845
 21
7.1887094224
 31
0.0
  0
ARC
  5
22F
330
1F
100
AcDbEntity
  8
0
  6
HIDDEN
 62
     7
100
AcDbCircle
 10
2.6845298042
 20
7.3363472177
 30
0.0
 40
0.0098425196850394
100
AcDbArc
 50
90.0
 51
180.0
  0
ARC
  5
230
330
1F
100
AcDbEntity
  8
0
  6
HIDDEN
 62
     7
100
AcDbCircle
 10
2.9207502766
 20
7.3363472177
 30
0.0
 40
0.0098425196850398
100
AcDbArc
 50
0.0
 51
90.0
  0
LINE
  5
231
330
1F
100
AcDbEntity
  8
0
  6
HIDDEN
 62
     7
100
AcDbLine
 10
2.7238998829
 20
7.1887094224
 30
0.0
 11
2.7238998829
 21
6.6818196586
 31
0.0
  0
LINE
  5
232
330
1F
100
AcDbEntity
  8
0
  6
HIDDEN
 62
     7
100
AcDbLine
 10
2.7238998829
 20
6.6621346192
 30
0.0
 11
2.7238998829
 21
6.0223708397
 31
0.0
  0
LINE
  5
233
330
1F
100
AcDbEntity
  8
0
  6
HIDDEN
 62
     7
100
AcDbLine
 10
2.8813801979
 20
6.0223708397
 30
0.0
 11
2.8813801979
 21
6.6621346192
 31
0.0
  0
LINE
  5
234
330
1F
100
AcDbEntity
  8
0
  6
HIDDEN
 62
     7
100
AcDbLine
 10
2.8813801979
 20
6.6818196586
 30
0.0
 11
2.8813801979
 21
7.1887094224
 31
0.0
  0
ARC
  5
235
330
1F
100
AcDbEntity
  8
0
  6
HIDDEN
 62
     7
100
AcDbCircle
 10
2.8715376782
 20
6.0223708397
 30
0.0
 40
0.0098425196850398
100
AcDbArc
 50
270.0
 51
0.0
  0
ARC
  5
236
330
1F
100
AcDbEntity
  8
0
  6
HIDDEN
 62
     7
100
AcDbCircle
 10
2.7337424026
 20
6.0223708397
 30
0.0
 40
0.0098425196850398
100
AcDbArc
 50
180.0
 51
270.0
  0
LINE
  5
237
330
1F
100
AcDbEntity
  8
0
  6
HIDDEN
 62
     7
100
AcDbLine
 10
2.9305927963
 20
7.1887094224
 30
0.0
 11
2.9305927963
 21
7.4548267228
 31
0.0
  0
LINE
  5
238
330
1F
100
AcDbEntity
  8
0
  6
HIDDEN
 62
     7
100
AcDbLine
 10
2.6746872845
 20
7.4547203389
 30
0.0
 11
2.6746872845
 21
7.1887094224
 31
0.0
  0
LINE
  5
239
330
1F
100
AcDbEntity
  8
0
  6
HIDDEN
 62
     7
100
AcDbLine
 10
2.7238998829
 20
6.6621346192
 30
0.0
 11
2.7238998829
 21
5.8890513476
 31
0.0
  0
LINE
  5
23A
330
1F
100
AcDbEntity
  8
0
  6
HIDDEN
 62
     7
100
AcDbLine
 10
2.8813801979
 20
5.8890073186
 30
0.0
 11
2.8813801979
 21
6.6621346192
 31
0.0
  0
LINE
  5
23B
330
1F
100
AcDbEntity
  8
0
  6
HIDDEN
 62
     7
100
AcDbLine
 10
2.7238998829
 20
7.1887094224
 30
0.0
 11
2.7238998829
 21
6.6818196586
 31
0.0
  0
LINE
  5
23C
330
1F
100
AcDbEntity
  8
0
  6
HIDDEN
 62
     7
100
AcDbLine
 10
2.8813801979
 20
6.6818196586
 30
0.0
 11
2.8813801979
 21
7.1887094224
 31
0.0
  0
LINE
  5
23D
330
1F
100
AcDbEntity
  8
0
  6
HIDDEN
 62
     7
100
AcDbLine
 10
3.3561636624
 20
7.0066228082
 30
0.0
 11
3.2971085443
 21
7.0066228082
 31
0.0
  0
LINE
  5
23E
330
1F
100
AcDbEntity
  8
0
  6
HIDDEN
 62
     7
100
AcDbLine
 10
3.2971085443
 20
6.3373314696
 30
0.0
 11
3.3561636624
 21
6.3373314696
 31
0.0
  0
LINE
  5
23F
330
1F
100
AcDbEntity
  8
0
  6
HIDDEN
 62
     7
100
AcDbLine
 10
2.6451597254
 20
6.9672527295
 30
0.0
 11
2.6376597254
 21
6.9747527295
 31
0.0
  0
LINE
  5
240
330
1F
100
AcDbEntity
  8
0
  6
HIDDEN
 62
     7
100
AcDbLine
 10
2.6376597254
 20
6.3692015484
 30
0.0
 11
2.6451597254
 21
6.3767015484
 31
0.0
  0
LINE
  5
241
330
1F
100
AcDbEntity
  8
0
  6
HIDDEN
 62
     7
100
AcDbLine
 10
2.9830862346
 20
6.3767015484
 30
0.0
 11
3.2282109065
 21
6.3767015484
 31
0.0
  0
LINE
  5
242
330
1F
100
AcDbEntity
  8
0
  6
HIDDEN
 62
     7
100
AcDbLine
 10
3.2282109065
 20
6.9672527295
 30
0.0
 11
2.9830862346
 21
6.9672527295
 31
0.0
  0
LINE
  5
243
330
1F
100
AcDbEntity
  8
0
  6
HIDDEN
 62
     7
100
AcDbLine
 10
2.6451597254
 20
6.3767015484
 30
0.0
 11
2.9568395155
 21
6.3767015484
 31
0.0
  0
LINE
  5
244
330
1F
100
AcDbEntity
  8
0
  6
HIDDEN
 62
     7
100
AcDbLine
 10
2.9568395155
 20
6.9672527295
 30
0.0
 11
2.6451597254
 21
6.9672527295
 31
0.0
  0
LINE
  5
245
330
1F
100
AcDbEntity
  8
0
  6
HIDDEN
 62
     7
100
AcDbLine
 10
2.6746872845
 20
7.3363472177
 30
0.0
 11
2.9305927963
 21
7.3363472177
 31
0.0
  0
LINE
  5
246
330
1F
100
AcDbEntity
  8
0
  6
CONTINUOUS
 62
     7
100
AcDbLine
 10
8.6555345966
 20
5.7385043032
 30
0.0
 11
8.6608370355
 21
5.7415663312
 31
0.0
  0
LINE
  5
247
330
1F
100
AcDbEntity
  8
0
  6
CONTINUOUS
 62
     7
100
AcDbLine
 10
9.379227048
 20
6.9859891684
 30
0.0
 11
9.379227048
 21
6.9921122293
 31
0.0
  0
LINE
  5
248
330
1F
100
AcDbEntity
  8
0
  6
CONTINUOUS
 62
     7
100
AcDbLine
 10
8.0640058131
 20
5.7337350311
 30
0.0
 11
8.143647527
 21
5.6877588483
 31
0.0
  0
LINE
  5
249
330
1F
100
AcDbEntity
  8
0
  6
CONTINUOUS
 62
     7
100
AcDbLine
 10
7.9232566339
 20
5.8149878028
 30
0.0
 11
8.0003498566
 21
5.7704828326
 31
0.0
  0
LINE
  5
24A
330
1F
100
AcDbEntity
  8
0
  6
CONTINUOUS
 62
     7
100
AcDbLine
 10
7.731368083
 20
5.9257627053
 30
0.0
 11
7.9046974008
 21
5.82570182
 31
0.0
  0
LINE
  5
24B
330
1F
100
AcDbEntity
  8
0
  6
CONTINUOUS
 62
     7
100
AcDbLine
 10
9.1671863872
 20
7.4607722674
 30
0.0
 11
8.7549069432
 21
7.6987761243
 31
0.0
  0
SPLINE
  5
24C
330
1F
100
AcDbEntity
  8
0
  6
CONTINUOUS
 62
     7
100
AcDbSpline
210
0.0
220
0.0
230
1.0
 70
     8
 71
     3
 72
    27
 73
    23
 74
     0
 42
0.00000001
 43
0.00000001
 40
0.0
 40
0.0
 40
0.0
 40
0.0
 40
0.0013218330118358
 40
0.0560749790888247
 40
0.1109679580152703
 40
0.1658087407186703
 40
0.2205538337859515
 40
0.2752071067370166
 40
0.3297945125231964
 40
0.384351325363976
 40
0.4389166389508981
 40
0.493520156545195
 40
0.5482013057743805
 40
0.6030013579418427
 40
0.657957018925426
 40
0.7130901482970484
 40
0.7683852234510035
 40
0.8237134057704165
 40
0.8787676656207528
 40
0.9331176304692138
 40
0.9863594947745075
 40
1.0
 40
1.0
 40
1.0
 40
1.0
 10
8.172692678808827
 20
6.964616288542216
 30
0.0
 10
8.172611698905351
 20
6.964677683397988
 30
0.0
 10
8.169176358470224
 20
6.967282184286344
 30
0.0
 10
8.161036016919303
 20
6.971632064528359
 30
0.0
 10
8.14835779308175
 20
6.977502798246114
 30
0.0
 10
8.134423196918624
 20
6.982243609187354
 30
0.0
 10
8.119684538849341
 20
6.985923077657738
 30
0.0
 10
8.104309990112576
 20
6.988463041437627
 30
0.0
 10
8.088547072819827
 20
6.989843940172038
 30
0.0
 10
8.072625947431792
 20
6.990047869791539
 30
0.0
 10
8.05678415075763
 20
6.989073515004082
 30
0.0
 10
8.041256035818263
 20
6.986932189930226
 30
0.0
 10
8.026271104812409
 20
6.983648208282973
 30
0.0
 10
8.012049970013488
 20
6.979256856026458
 30
0.0
 10
7.998803368998831
 20
6.973802854550597
 30
0.0
 10
7.986734544654767
 20
6.967339010148749
 30
0.0
 10
7.976037661944762
 20
6.959929433979646
 30
0.0
 10
7.96692833871295
 20
6.951656795720662
 30
0.0
 10
7.959544228106637
 20
6.942646280577486
 30
0.0
 10
7.954272054666191
 20
6.933047683809979
 30
0.0
 10
7.951365994126332
 20
6.925535081457099
 30
0.0
 10
7.950909574245338
 20
6.921251959083428
 30
0.0
 10
7.950816488461813
 20
6.920378426140004
 30
0.0
  0
SPLINE
  5
24D
330
1F
100
AcDbEntity
  8
0
  6
CONTINUOUS
 62
     7
100
AcDbSpline
210
0.0
220
0.0
230
1.0
 70
     8
 71
     3
 72
    17
 73
    13
 74
     0
 42
0.00000001
 43
0.00000001
 40
0.0
 40
0.0
 40
0.0
 40
0.0
 40
0.0410865674815282
 40
0.1520320034888411
 40
0.2651691453610275
 40
0.3789508573161555
 40
0.4924981232093684
 40
0.6057101959878689
 40
0.7187082736049343
 40
0.8316943067129634
 40
0.9448593746082282
 40
1.0
 40
1.0
 40
1.0
 40
1.0
 10
7.287306543756108
 20
7.38380122967369
 30
0.0
 10
7.286956984413505
 20
7.382695416474446
 30
0.0
 10
7.285663515271358
 20
7.378603592638322
 30
0.0
 10
7.284983405925838
 20
7.370552871322287
 30
0.0
 10
7.285253556234716
 20
7.359847421160278
 30
0.0
 10
7.287106677169263
 20
7.348531400792331
 30
0.0
 10
7.290345827846605
 20
7.337008157178677
 30
0.0
 10
7.294901467281102
 20
7.325562567987959
 30
0.0
 10
7.300628525731599
 20
7.314449650660039
 30
0.0
 10
7.307429816316724
 20
7.304011598214334
 30
0.0
 10
7.313695697529479
 20
7.295874443284903
 30
0.0
 10
7.317867049437687
 20
7.291756649158923
 30
0.0
 10
7.319233675536043
 20
7.290407569761151
 30
0.0
  0
SPLINE
  5
24E
330
1F
100
AcDbEntity
  8
0
  6
CONTINUOUS
 62
     7
100
AcDbSpline
210
0.0
220
0.0
230
1.0
 70
     8
 71
     3
 72
    15
 73
    11
 74
     0
 42
0.00000001
 43
0.00000001
 40
0.0
 40
0.0
 40
0.0
 40
0.0
 40
0.1121723409116319
 40
0.259412517489071
 40
0.4070828613809422
 40
0.501866764198271
 40
0.5803626092793189
 40
0.7287972768683494
 40
0.87726661484538
 40
1.0
 40
1.0
 40
1.0
 40
1.0
 10
8.315426210304478
 20
7.949354251408153
 30
0.0
 10
8.312804392350765
 20
7.952245059160879
 30
0.0
 10
8.306741111596851
 20
7.95893041234703
 30
0.0
 10
8.296560769310744
 20
7.967971274022179
 30
0.0
 10
8.286547894199641
 20
7.975497706444331
 30
0.0
 10
8.278155368857233
 20
7.980734092022093
 30
0.0
 10
8.269688345224935
 20
7.985297380499348
 30
0.0
 10
8.259769363775257
 20
7.989470186204347
 30
0.0
 10
8.248724048382439
 20
7.992615445927035
 30
0.0
 10
8.241788685573319
 20
7.993135000811295
 30
0.0
 10
8.23865007197457
 20
7.993370126509823
 30
0.0
  0
LINE
  5
24F
330
1F
100
AcDbEntity
  8
0
  6
CONTINUOUS
 62
     7
100
AcDbLine
 10
8.2370412346
 20
7.9977336344
 30
0.0
 11
8.203433251
 21
8.0171351103
 31
0.0
  0
LINE
  5
250
330
1F
100
AcDbEntity
  8
0
  6
CONTINUOUS
 62
     7
100
AcDbLine
 10
8.4238241441
 20
7.8899061559
 30
0.0
 11
8.3929085385
 21
7.9077533552
 31
0.0
  0
LINE
  5
251
330
1F
100
AcDbEntity
  8
0
  6
CONTINUOUS
 62
     7
100
AcDbLine
 10
8.615712695
 20
7.7791312534
 30
0.0
 11
8.4423833772
 21
7.8791921387
 31
0.0
  0
LINE
  5
252
330
1F
100
AcDbEntity
  8
0
  6
CONTINUOUS
 62
     7
100
AcDbLine
 10
7.1798943908
 20
6.2441216913
 30
0.0
 11
7.5921738348
 21
6.0061178344
 31
0.0
  0
LINE
  5
253
330
1F
100
AcDbEntity
  8
0
  6
CONTINUOUS
 62
     7
100
AcDbLine
 10
6.96785373
 20
6.7189047903
 30
0.0
 11
6.96785373
 21
6.7127817294
 31
0.0
  0
LINE
  5
254
330
1F
100
AcDbEntity
  8
0
  6
CONTINUOUS
 62
     7
100
AcDbLine
 10
7.4518763872
 20
6.4423107847
 30
0.0
 11
7.4526081915
 21
6.441888323
 31
0.0
  0
LINE
  5
255
330
1F
100
AcDbEntity
  8
0
  6
CONTINUOUS
 62
     7
100
AcDbLine
 10
8.168646248
 20
7.6821266277
 30
0.0
 11
8.1679144436
 21
7.6825490893
 31
0.0
  0
POLYLINE
  5
256
330
1F
100
AcDbEntity
  8
0
  6
CONTINUOUS
 62
     7
100
AcDb2dPolyline
 66
     1
 10
0.0
 20
0.0
 30
0.0
  0
VERTEX
  5
2CB
330
256
100
AcDbEntity
  8
0
  6
CONTINUOUS
 62
     7
100
AcDbVertex
100
AcDb2dVertex
 10
7.9422471757
 20
6.1484015266
 30
0.0
  0
VERTEX
  5
2CC
330
256
100
AcDbEntity
  8
0
  6
CONTINUOUS
 62
     7
100
AcDbVertex
100
AcDb2dVertex
 10
7.9433572067
 20
6.1102825984
 30
0.0
  0
VERTEX
  5
2CD
330
256
100
AcDbEntity
  8
0
  6
CONTINUOUS
 62
     7
100
AcDbVertex
100
AcDb2dVertex
 10
7.9460344499
 20
6.0731706383
 30
0.0
  0
VERTEX
  5
2CE
330
256
100
AcDbEntity
  8
0
  6
CONTINUOUS
 62
     7
100
AcDbVertex
100
AcDb2dVertex
 10
7.9502730563
 20
6.0371467241
 30
0.0
  0
VERTEX
  5
2CF
330
256
100
AcDbEntity
  8
0
  6
CONTINUOUS
 62
     7
100
AcDbVertex
100
AcDb2dVertex
 10
7.9560637659
 20
6.0022895568
 30
0.0
  0
VERTEX
  5
2D0
330
256
100
AcDbEntity
  8
0
  6
CONTINUOUS
 62
     7
100
AcDbVertex
100
AcDb2dVertex
 10
7.9633939278
 20
5.9686752884
 30
0.0
  0
VERTEX
  5
2D1
330
256
100
AcDbEntity
  8
0
  6
CONTINUOUS
 62
     7
100
AcDbVertex
100
AcDb2dVertex
 10
7.972247528
 20
5.9363773553
 30
0.0
  0
VERTEX
  5
2D2
330
256
100
AcDbEntity
  8
0
  6
CONTINUOUS
 62
     7
100
AcDbVertex
100
AcDb2dVertex
 10
7.9826052241
 20
5.9054663184
 30
0.0
  0
VERTEX
  5
2D3
330
256
100
AcDbEntity
  8
0
  6
CONTINUOUS
 62
     7
100
AcDbVertex
100
AcDb2dVertex
 10
7.9944443878
 20
5.8760097086
 30
0.0
  0
VERTEX
  5
2D4
330
256
100
AcDbEntity
  8
0
  6
CONTINUOUS
 62
     7
100
AcDbVertex
100
AcDb2dVertex
 10
8.0077391543
 20
5.8480718792
 30
0.0
  0
VERTEX
  5
2D5
330
256
100
AcDbEntity
  8
0
  6
CONTINUOUS
 62
     7
100
AcDbVertex
100
AcDb2dVertex
 10
8.0224604788
 20
5.8217138657
 30
0.0
  0
VERTEX
  5
2D6
330
256
100
AcDbEntity
  8
0
  6
CONTINUOUS
 62
     7
100
AcDbVertex
100
AcDb2dVertex
 10
8.0385761996
 20
5.796993252
 30
0.0
  0
VERTEX
  5
2D7
330
256
100
AcDbEntity
  8
0
  6
CONTINUOUS
 62
     7
100
AcDbVertex
100
AcDb2dVertex
 10
8.0560511092
 20
5.7739640447
 30
0.0
  0
VERTEX
  5
2D8
330
256
100
AcDbEntity
  8
0
  6
CONTINUOUS
 62
     7
100
AcDbVertex
100
AcDb2dVertex
 10
8.0748470302
 20
5.7526765556
 30
0.0
  0
VERTEX
  5
2D9
330
256
100
AcDbEntity
  8
0
  6
CONTINUOUS
 62
     7
100
AcDbVertex
100
AcDb2dVertex
 10
8.0949228996
 20
5.733177291
 30
0.0
  0
VERTEX
  5
2DA
330
256
100
AcDbEntity
  8
0
  6
CONTINUOUS
 62
     7
100
AcDbVertex
100
AcDb2dVertex
 10
8.1162348579
 20
5.7155088507
 30
0.0
  0
VERTEX
  5
2DB
330
256
100
AcDbEntity
  8
0
  6
CONTINUOUS
 62
     7
100
AcDbVertex
100
AcDb2dVertex
 10
8.1387363452
 20
5.6997098347
 30
0.0
  0
VERTEX
  5
2DC
330
256
100
AcDbEntity
  8
0
  6
CONTINUOUS
 62
     7
100
AcDbVertex
100
AcDb2dVertex
 10
8.1623782028
 20
5.6858147587
 30
0.0
  0
VERTEX
  5
2DD
330
256
100
AcDbEntity
  8
0
  6
CONTINUOUS
 62
     7
100
AcDbVertex
100
AcDb2dVertex
 10
8.1871087807
 20
5.6738539793
 30
0.0
  0
VERTEX
  5
2DE
330
256
100
AcDbEntity
  8
0
  6
CONTINUOUS
 62
     7
100
AcDbVertex
100
AcDb2dVertex
 10
8.2128740504
 20
5.6638536269
 30
0.0
  0
VERTEX
  5
2DF
330
256
100
AcDbEntity
  8
0
  6
CONTINUOUS
 62
     7
100
AcDbVertex
100
AcDb2dVertex
 10
8.239617723
 20
5.6558355492
 30
0.0
  0
VERTEX
  5
2E0
330
256
100
AcDbEntity
  8
0
  6
CONTINUOUS
 62
     7
100
AcDbVertex
100
AcDb2dVertex
 10
8.2672813718
 20
5.6498172631
 30
0.0
  0
VERTEX
  5
2E1
330
256
100
AcDbEntity
  8
0
  6
CONTINUOUS
 62
     7
100
AcDbVertex
100
AcDb2dVertex
 10
8.2958045607
 20
5.6458119166
 30
0.0
  0
VERTEX
  5
2E2
330
256
100
AcDbEntity
  8
0
  6
CONTINUOUS
 62
     7
100
AcDbVertex
100
AcDb2dVertex
 10
8.3251249753
 20
5.6438282602
 30
0.0
  0
VERTEX
  5
2E3
330
256
100
AcDbEntity
  8
0
  6
CONTINUOUS
 62
     7
100
AcDbVertex
100
AcDb2dVertex
 10
8.3551785598
 20
5.6438706276
 30
0.0
  0
VERTEX
  5
2E4
330
256
100
AcDbEntity
  8
0
  6
CONTINUOUS
 62
     7
100
AcDbVertex
100
AcDb2dVertex
 10
8.3858996566
 20
5.6459389262
 30
0.0
  0
VERTEX
  5
2E5
330
256
100
AcDbEntity
  8
0
  6
CONTINUOUS
 62
     7
100
AcDbVertex
100
AcDb2dVertex
 10
8.4172211498
 20
5.6500286374
 30
0.0
  0
VERTEX
  5
2E6
330
256
100
AcDbEntity
  8
0
  6
CONTINUOUS
 62
     7
100
AcDbVertex
100
AcDb2dVertex
 10
8.4490746119
 20
5.6561308265
 30
0.0
  0
VERTEX
  5
2E7
330
256
100
AcDbEntity
  8
0
  6
CONTINUOUS
 62
     7
100
AcDbVertex
100
AcDb2dVertex
 10
8.4813904529
 20
5.6642321622
 30
0.0
  0
VERTEX
  5
2E8
330
256
100
AcDbEntity
  8
0
  6
CONTINUOUS
 62
     7
100
AcDbVertex
100
AcDb2dVertex
 10
8.5140980731
 20
5.6743149455
 30
0.0
  0
VERTEX
  5
2E9
330
256
100
AcDbEntity
  8
0
  6
CONTINUOUS
 62
     7
100
AcDbVertex
100
AcDb2dVertex
 10
8.5471260165
 20
5.6863571487
 30
0.0
  0
VERTEX
  5
2EA
330
256
100
AcDbEntity
  8
0
  6
CONTINUOUS
 62
     7
100
AcDbVertex
100
AcDb2dVertex
 10
8.5804021276
 20
5.7003324635
 30
0.0
  0
VERTEX
  5
2EB
330
256
100
AcDbEntity
  8
0
  6
CONTINUOUS
 62
     7
100
AcDbVertex
100
AcDb2dVertex
 10
8.6138537084
 20
5.7162103582
 30
0.0
  0
VERTEX
  5
2EC
330
256
100
AcDbEntity
  8
0
  6
CONTINUOUS
 62
     7
100
AcDbVertex
100
AcDb2dVertex
 10
8.6474076779
 20
5.7339561446
 30
0.0
  0
VERTEX
  5
2ED
330
256
100
AcDbEntity
  8
0
  6
CONTINUOUS
 62
     7
100
AcDbVertex
100
AcDb2dVertex
 10
8.6809907311
 20
5.7535310537
 30
0.0
  0
VERTEX
  5
2EE
330
256
100
AcDbEntity
  8
0
  6
CONTINUOUS
 62
     7
100
AcDbVertex
100
AcDb2dVertex
 10
8.7145294998
 20
5.7748923205
 30
0.0
  0
VERTEX
  5
2EF
330
256
100
AcDbEntity
  8
0
  6
CONTINUOUS
 62
     7
100
AcDbVertex
100
AcDb2dVertex
 10
8.7479507123
 20
5.7979932775
 30
0.0
  0
VERTEX
  5
2F0
330
256
100
AcDbEntity
  8
0
  6
CONTINUOUS
 62
     7
100
AcDbVertex
100
AcDb2dVertex
 10
8.7811813536
 20
5.8227834562
 30
0.0
  0
VERTEX
  5
2F1
330
256
100
AcDbEntity
  8
0
  6
CONTINUOUS
 62
     7
100
AcDbVertex
100
AcDb2dVertex
 10
8.8141488255
 20
5.849208698
 30
0.0
  0
VERTEX
  5
2F2
330
256
100
AcDbEntity
  8
0
  6
CONTINUOUS
 62
     7
100
AcDbVertex
100
AcDb2dVertex
 10
8.8467811043
 20
5.877211272
 30
0.0
  0
VERTEX
  5
2F3
330
256
100
AcDbEntity
  8
0
  6
CONTINUOUS
 62
     7
100
AcDbVertex
100
AcDb2dVertex
 10
8.8790068988
 20
5.9067300015
 30
0.0
  0
VERTEX
  5
2F4
330
256
100
AcDbEntity
  8
0
  6
CONTINUOUS
 62
     7
100
AcDbVertex
100
AcDb2dVertex
 10
8.9107558058
 20
5.9377003972
 30
0.0
  0
VERTEX
  5
2F5
330
256
100
AcDbEntity
  8
0
  6
CONTINUOUS
 62
     7
100
AcDbVertex
100
AcDb2dVertex
 10
8.9419584639
 20
5.9700547988
 30
0.0
  0
VERTEX
  5
2F6
330
256
100
AcDbEntity
  8
0
  6
CONTINUOUS
 62
     7
100
AcDbVertex
100
AcDb2dVertex
 10
8.9725467052
 20
6.0037225219
 30
0.0
  0
VERTEX
  5
2F7
330
256
100
AcDbEntity
  8
0
  6
CONTINUOUS
 62
     7
100
AcDbVertex
100
AcDb2dVertex
 10
9.002453704
 20
6.0386300132
 30
0.0
  0
VERTEX
  5
2F8
330
256
100
AcDbEntity
  8
0
  6
CONTINUOUS
 62
     7
100
AcDbVertex
100
AcDb2dVertex
 10
9.0316141229
 20
6.074701011
 30
0.0
  0
VERTEX
  5
2F9
330
256
100
AcDbEntity
  8
0
  6
CONTINUOUS
 62
     7
100
AcDbVertex
100
AcDb2dVertex
 10
9.0599642556
 20
6.1118567113
 30
0.0
  0
VERTEX
  5
2FA
330
256
100
AcDbEntity
  8
0
  6
CONTINUOUS
 62
     7
100
AcDbVertex
100
AcDb2dVertex
 10
9.087442166
 20
6.1500159407
 30
0.0
  0
VERTEX
  5
2FB
330
256
100
AcDbEntity
  8
0
  6
CONTINUOUS
 62
     7
100
AcDbVertex
100
AcDb2dVertex
 10
9.1139878235
 20
6.1890953333
 30
0.0
  0
VERTEX
  5
2FC
330
256
100
AcDbEntity
  8
0
  6
CONTINUOUS
 62
     7
100
AcDbVertex
100
AcDb2dVertex
 10
9.1395432343
 20
6.2290095131
 30
0.0
  0
VERTEX
  5
2FD
330
256
100
AcDbEntity
  8
0
  6
CONTINUOUS
 62
     7
100
AcDbVertex
100
AcDb2dVertex
 10
9.1640525678
 20
6.2696712799
 30
0.0
  0
VERTEX
  5
2FE
330
256
100
AcDbEntity
  8
0
  6
CONTINUOUS
 62
     7
100
AcDbVertex
100
AcDb2dVertex
 10
9.1874622788
 20
6.3109918008
 30
0.0
  0
VERTEX
  5
2FF
330
256
100
AcDbEntity
  8
0
  6
CONTINUOUS
 62
     7
100
AcDbVertex
100
AcDb2dVertex
 10
9.2097212245
 20
6.3528808034
 30
0.0
  0
VERTEX
  5
300
330
256
100
AcDbEntity
  8
0
  6
CONTINUOUS
 62
     7
100
AcDbVertex
100
AcDb2dVertex
 10
9.2307807762
 20
6.3952467734
 30
0.0
  0
VERTEX
  5
301
330
256
100
AcDbEntity
  8
0
  6
CONTINUOUS
 62
     7
100
AcDbVertex
100
AcDb2dVertex
 10
9.2505949253
 20
6.4379971546
 30
0.0
  0
VERTEX
  5
302
330
256
100
AcDbEntity
  8
0
  6
CONTINUOUS
 62
     7
100
AcDbVertex
100
AcDb2dVertex
 10
9.2691203841
 20
6.4810385508
 30
0.0
  0
VERTEX
  5
303
330
256
100
AcDbEntity
  8
0
  6
CONTINUOUS
 62
     7
100
AcDbVertex
100
AcDb2dVertex
 10
9.2863166805
 20
6.5242769301
 30
0.0
  0
VERTEX
  5
304
330
256
100
AcDbEntity
  8
0
  6
CONTINUOUS
 62
     7
100
AcDbVertex
100
AcDb2dVertex
 10
9.3021462458
 20
6.5676178304
 30
0.0
  0
VERTEX
  5
305
330
256
100
AcDbEntity
  8
0
  6
CONTINUOUS
 62
     7
100
AcDbVertex
100
AcDb2dVertex
 10
9.3165744975
 20
6.6109665653
 30
0.0
  0
VERTEX
  5
306
330
256
100
AcDbEntity
  8
0
  6
CONTINUOUS
 62
     7
100
AcDbVertex
100
AcDb2dVertex
 10
9.3295699145
 20
6.6542284317
 30
0.0
  0
VERTEX
  5
307
330
256
100
AcDbEntity
  8
0
  6
CONTINUOUS
 62
     7
100
AcDbVertex
100
AcDb2dVertex
 10
9.3411041057
 20
6.6973089159
 30
0.0
  0
VERTEX
  5
308
330
256
100
AcDbEntity
  8
0
  6
CONTINUOUS
 62
     7
100
AcDbVertex
100
AcDb2dVertex
 10
9.3511518727
 20
6.7401139006
 30
0.0
  0
VERTEX
  5
309
330
256
100
AcDbEntity
  8
0
  6
CONTINUOUS
 62
     7
100
AcDbVertex
100
AcDb2dVertex
 10
9.3596912642
 20
6.7825498706
 30
0.0
  0
VERTEX
  5
30A
330
256
100
AcDbEntity
  8
0
  6
CONTINUOUS
 62
     7
100
AcDbVertex
100
AcDb2dVertex
 10
9.3667036243
 20
6.8245241165
 30
0.0
  0
VERTEX
  5
30B
330
256
100
AcDbEntity
  8
0
  6
CONTINUOUS
 62
     7
100
AcDbVertex
100
AcDb2dVertex
 10
9.3721736333
 20
6.8659449378
 30
0.0
  0
VERTEX
  5
30C
330
256
100
AcDbEntity
  8
0
  6
CONTINUOUS
 62
     7
100
AcDbVertex
100
AcDb2dVertex
 10
9.376089341
 20
6.9067218431
 30
0.0
  0
VERTEX
  5
30D
330
256
100
AcDbEntity
  8
0
  6
CONTINUOUS
 62
     7
100
AcDbVertex
100
AcDb2dVertex
 10
9.3784421926
 20
6.9467657478
 30
0.0
  0
VERTEX
  5
30E
330
256
100
AcDbEntity
  8
0
  6
CONTINUOUS
 62
     7
100
AcDbVertex
100
AcDb2dVertex
 10
9.379227048
 20
6.9859891684
 30
0.0
  0
VERTEX
  5
30F
330
256
100
AcDbEntity
  8
0
  6
CONTINUOUS
 62
     7
100
AcDbVertex
100
AcDb2dVertex
 10
9.3784421926
 20
7.0243064143
 30
0.0
  0
VERTEX
  5
310
330
256
100
AcDbEntity
  8
0
  6
CONTINUOUS
 62
     7
100
AcDbVertex
100
AcDb2dVertex
 10
9.376089341
 20
7.0616337742
 30
0.0
  0
VERTEX
  5
311
330
256
100
AcDbEntity
  8
0
  6
CONTINUOUS
 62
     7
100
AcDbVertex
100
AcDb2dVertex
 10
9.3721736333
 20
7.0978896998
 30
0.0
  0
VERTEX
  5
312
330
256
100
AcDbEntity
  8
0
  6
CONTINUOUS
 62
     7
100
AcDbVertex
100
AcDb2dVertex
 10
9.3667036243
 20
7.1329949831
 30
0.0
  0
VERTEX
  5
313
330
256
100
AcDbEntity
  8
0
  6
CONTINUOUS
 62
     7
100
AcDbVertex
100
AcDb2dVertex
 10
9.3596912642
 20
7.1668729303
 30
0.0
  0
VERTEX
  5
314
330
256
100
AcDbEntity
  8
0
  6
CONTINUOUS
 62
     7
100
AcDbVertex
100
AcDb2dVertex
 10
9.3511518727
 20
7.1994495287
 30
0.0
  0
VERTEX
  5
315
330
256
100
AcDbEntity
  8
0
  6
CONTINUOUS
 62
     7
100
AcDbVertex
100
AcDb2dVertex
 10
9.3411041057
 20
7.2306536086
 30
0.0
  0
VERTEX
  5
316
330
256
100
AcDbEntity
  8
0
  6
CONTINUOUS
 62
     7
100
AcDbVertex
100
AcDb2dVertex
 10
9.3295699145
 20
7.2604169991
 30
0.0
  0
VERTEX
  5
317
330
256
100
AcDbEntity
  8
0
  6
CONTINUOUS
 62
     7
100
AcDbVertex
100
AcDb2dVertex
 10
9.3165744975
 20
7.2886746764
 30
0.0
  0
VERTEX
  5
318
330
256
100
AcDbEntity
  8
0
  6
CONTINUOUS
 62
     7
100
AcDbVertex
100
AcDb2dVertex
 10
9.3021462458
 20
7.3153649065
 30
0.0
  0
VERTEX
  5
319
330
256
100
AcDbEntity
  8
0
  6
CONTINUOUS
 62
     7
100
AcDbVertex
100
AcDb2dVertex
 10
9.2863166805
 20
7.3404293797
 30
0.0
  0
VERTEX
  5
31A
330
256
100
AcDbEntity
  8
0
  6
CONTINUOUS
 62
     7
100
AcDbVertex
100
AcDb2dVertex
 10
9.2691203841
 20
7.3638133379
 30
0.0
  0
VERTEX
  5
31B
330
256
100
AcDbEntity
  8
0
  6
CONTINUOUS
 62
     7
100
AcDbVertex
100
AcDb2dVertex
 10
9.2505949253
 20
7.3854656946
 30
0.0
  0
VERTEX
  5
31C
330
256
100
AcDbEntity
  8
0
  6
CONTINUOUS
 62
     7
100
AcDbVertex
100
AcDb2dVertex
 10
9.2307807762
 20
7.4053391461
 30
0.0
  0
VERTEX
  5
31D
330
256
100
AcDbEntity
  8
0
  6
CONTINUOUS
 62
     7
100
AcDbVertex
100
AcDb2dVertex
 10
9.2097212245
 20
7.4233902754
 30
0.0
  0
VERTEX
  5
31E
330
256
100
AcDbEntity
  8
0
  6
CONTINUOUS
 62
     7
100
AcDbVertex
100
AcDb2dVertex
 10
9.1874622788
 20
7.4395796462
 30
0.0
  0
VERTEX
  5
31F
330
256
100
AcDbEntity
  8
0
  6
CONTINUOUS
 62
     7
100
AcDbVertex
100
AcDb2dVertex
 10
9.1640525678
 20
7.4538718901
 30
0.0
  0
VERTEX
  5
320
330
256
100
AcDbEntity
  8
0
  6
CONTINUOUS
 62
     7
100
AcDbVertex
100
AcDb2dVertex
 10
9.1395432343
 20
7.4662357829
 30
0.0
  0
VERTEX
  5
321
330
256
100
AcDbEntity
  8
0
  6
CONTINUOUS
 62
     7
100
AcDbVertex
100
AcDb2dVertex
 10
9.1139878235
 20
7.4766443133
 30
0.0
  0
VERTEX
  5
322
330
256
100
AcDbEntity
  8
0
  6
CONTINUOUS
 62
     7
100
AcDbVertex
100
AcDb2dVertex
 10
9.087442166
 20
7.4850747422
 30
0.0
  0
VERTEX
  5
323
330
256
100
AcDbEntity
  8
0
  6
CONTINUOUS
 62
     7
100
AcDbVertex
100
AcDb2dVertex
 10
9.0599642556
 20
7.4915086515
 30
0.0
  0
VERTEX
  5
324
330
256
100
AcDbEntity
  8
0
  6
CONTINUOUS
 62
     7
100
AcDbVertex
100
AcDb2dVertex
 10
9.0316141229
 20
7.4959319854
 30
0.0
  0
VERTEX
  5
325
330
256
100
AcDbEntity
  8
0
  6
CONTINUOUS
 62
     7
100
AcDbVertex
100
AcDb2dVertex
 10
9.002453704
 20
7.49833508
 30
0.0
  0
VERTEX
  5
326
330
256
100
AcDbEntity
  8
0
  6
CONTINUOUS
 62
     7
100
AcDbVertex
100
AcDb2dVertex
 10
8.9725467052
 20
7.4987126856
 30
0.0
  0
VERTEX
  5
327
330
256
100
AcDbEntity
  8
0
  6
CONTINUOUS
 62
     7
100
AcDbVertex
100
AcDb2dVertex
 10
8.9419584639
 20
7.4970639771
 30
0.0
  0
VERTEX
  5
328
330
256
100
AcDbEntity
  8
0
  6
CONTINUOUS
 62
     7
100
AcDbVertex
100
AcDb2dVertex
 10
8.9107558058
 20
7.4933925564
 30
0.0
  0
VERTEX
  5
329
330
256
100
AcDbEntity
  8
0
  6
CONTINUOUS
 62
     7
100
AcDbVertex
100
AcDb2dVertex
 10
8.8790068988
 20
7.4877064444
 30
0.0
  0
VERTEX
  5
32A
330
256
100
AcDbEntity
  8
0
  6
CONTINUOUS
 62
     7
100
AcDbVertex
100
AcDb2dVertex
 10
8.8467811043
 20
7.4800180635
 30
0.0
  0
VERTEX
  5
32B
330
256
100
AcDbEntity
  8
0
  6
CONTINUOUS
 62
     7
100
AcDbVertex
100
AcDb2dVertex
 10
8.8141488255
 20
7.4703442104
 30
0.0
  0
VERTEX
  5
32C
330
256
100
AcDbEntity
  8
0
  6
CONTINUOUS
 62
     7
100
AcDbVertex
100
AcDb2dVertex
 10
8.7811813536
 20
7.4587060194
 30
0.0
  0
VERTEX
  5
32D
330
256
100
AcDbEntity
  8
0
  6
CONTINUOUS
 62
     7
100
AcDbVertex
100
AcDb2dVertex
 10
8.7479507123
 20
7.4451289162
 30
0.0
  0
VERTEX
  5
32E
330
256
100
AcDbEntity
  8
0
  6
CONTINUOUS
 62
     7
100
AcDbVertex
100
AcDb2dVertex
 10
8.7145294998
 20
7.4296425626
 30
0.0
  0
VERTEX
  5
32F
330
256
100
AcDbEntity
  8
0
  6
CONTINUOUS
 62
     7
100
AcDbVertex
100
AcDb2dVertex
 10
8.6809907311
 20
7.4122807914
 30
0.0
  0
VERTEX
  5
330
330
256
100
AcDbEntity
  8
0
  6
CONTINUOUS
 62
     7
100
AcDbVertex
100
AcDb2dVertex
 10
8.6474076779
 20
7.3930815325
 30
0.0
  0
VERTEX
  5
331
330
256
100
AcDbEntity
  8
0
  6
CONTINUOUS
 62
     7
100
AcDbVertex
100
AcDb2dVertex
 10
8.6138537084
 20
7.3720867303
 30
0.0
  0
VERTEX
  5
332
330
256
100
AcDbEntity
  8
0
  6
CONTINUOUS
 62
     7
100
AcDbVertex
100
AcDb2dVertex
 10
8.5804021276
 20
7.3493422519
 30
0.0
  0
VERTEX
  5
333
330
256
100
AcDbEntity
  8
0
  6
CONTINUOUS
 62
     7
100
AcDbVertex
100
AcDb2dVertex
 10
8.5471260165
 20
7.3248977867
 30
0.0
  0
VERTEX
  5
334
330
256
100
AcDbEntity
  8
0
  6
CONTINUOUS
 62
     7
100
AcDbVertex
100
AcDb2dVertex
 10
8.5140980731
 20
7.2988067381
 30
0.0
  0
VERTEX
  5
335
330
256
100
AcDbEntity
  8
0
  6
CONTINUOUS
 62
     7
100
AcDbVertex
100
AcDb2dVertex
 10
8.4813904529
 20
7.271126107
 30
0.0
  0
VERTEX
  5
336
330
256
100
AcDbEntity
  8
0
  6
CONTINUOUS
 62
     7
100
AcDbVertex
100
AcDb2dVertex
 10
8.4490746119
 20
7.2419163667
 30
0.0
  0
VERTEX
  5
337
330
256
100
AcDbEntity
  8
0
  6
CONTINUOUS
 62
     7
100
AcDbVertex
100
AcDb2dVertex
 10
8.4172211498
 20
7.2112413314
 30
0.0
  0
VERTEX
  5
338
330
256
100
AcDbEntity
  8
0
  6
CONTINUOUS
 62
     7
100
AcDbVertex
100
AcDb2dVertex
 10
8.3858996566
 20
7.1791680163
 30
0.0
  0
VERTEX
  5
339
330
256
100
AcDbEntity
  8
0
  6
CONTINUOUS
 62
     7
100
AcDbVertex
100
AcDb2dVertex
 10
8.3551785598
 20
7.1457664915
 30
0.0
  0
VERTEX
  5
33A
330
256
100
AcDbEntity
  8
0
  6
CONTINUOUS
 62
     7
100
AcDbVertex
100
AcDb2dVertex
 10
8.3251249753
 20
7.1111097288
 30
0.0
  0
VERTEX
  5
33B
330
256
100
AcDbEntity
  8
0
  6
CONTINUOUS
 62
     7
100
AcDbVertex
100
AcDb2dVertex
 10
8.2958045607
 20
7.0752734423
 30
0.0
  0
VERTEX
  5
33C
330
256
100
AcDbEntity
  8
0
  6
CONTINUOUS
 62
     7
100
AcDbVertex
100
AcDb2dVertex
 10
8.2672813718
 20
7.038335923
 30
0.0
  0
VERTEX
  5
33D
330
256
100
AcDbEntity
  8
0
  6
CONTINUOUS
 62
     7
100
AcDbVertex
100
AcDb2dVertex
 10
8.239617723
 20
7.0003778678
 30
0.0
  0
VERTEX
  5
33E
330
256
100
AcDbEntity
  8
0
  6
CONTINUOUS
 62
     7
100
AcDbVertex
100
AcDb2dVertex
 10
8.2128740504
 20
6.9614822029
 30
0.0
  0
VERTEX
  5
33F
330
256
100
AcDbEntity
  8
0
  6
CONTINUOUS
 62
     7
100
AcDbVertex
100
AcDb2dVertex
 10
8.1871087807
 20
6.9217339033
 30
0.0
  0
VERTEX
  5
340
330
256
100
AcDbEntity
  8
0
  6
CONTINUOUS
 62
     7
100
AcDbVertex
100
AcDb2dVertex
 10
8.1623782028
 20
6.8812198064
 30
0.0
  0
VERTEX
  5
341
330
256
100
AcDbEntity
  8
0
  6
CONTINUOUS
 62
     7
100
AcDbVertex
100
AcDb2dVertex
 10
8.1387363452
 20
6.8400284227
 30
0.0
  0
VERTEX
  5
342
330
256
100
AcDbEntity
  8
0
  6
CONTINUOUS
 62
     7
100
AcDbVertex
100
AcDb2dVertex
 10
8.1162348579
 20
6.7982497425
 30
0.0
  0
VERTEX
  5
343
330
256
100
AcDbEntity
  8
0
  6
CONTINUOUS
 62
     7
100
AcDbVertex
100
AcDb2dVertex
 10
8.0949228996
 20
6.7559750389
 30
0.0
  0
VERTEX
  5
344
330
256
100
AcDbEntity
  8
0
  6
CONTINUOUS
 62
     7
100
AcDbVertex
100
AcDb2dVertex
 10
8.0748470302
 20
6.7132966688
 30
0.0
  0
VERTEX
  5
345
330
256
100
AcDbEntity
  8
0
  6
CONTINUOUS
 62
     7
100
AcDbVertex
100
AcDb2dVertex
 10
8.0560511092
 20
6.6703078712
 30
0.0
  0
VERTEX
  5
346
330
256
100
AcDbEntity
  8
0
  6
CONTINUOUS
 62
     7
100
AcDbVertex
100
AcDb2dVertex
 10
8.0385761996
 20
6.6271025629
 30
0.0
  0
VERTEX
  5
347
330
256
100
AcDbEntity
  8
0
  6
CONTINUOUS
 62
     7
100
AcDbVertex
100
AcDb2dVertex
 10
8.0224604788
 20
6.5837751339
 30
0.0
  0
VERTEX
  5
348
330
256
100
AcDbEntity
  8
0
  6
CONTINUOUS
 62
     7
100
AcDbVertex
100
AcDb2dVertex
 10
8.0077391543
 20
6.540420241
 30
0.0
  0
VERTEX
  5
349
330
256
100
AcDbEntity
  8
0
  6
CONTINUOUS
 62
     7
100
AcDbVertex
100
AcDb2dVertex
 10
7.9944443878
 20
6.497132601
 30
0.0
  0
VERTEX
  5
34A
330
256
100
AcDbEntity
  8
0
  6
CONTINUOUS
 62
     7
100
AcDbVertex
100
AcDb2dVertex
 10
7.9826052241
 20
6.4540067837
 30
0.0
  0
VERTEX
  5
34B
330
256
100
AcDbEntity
  8
0
  6
CONTINUOUS
 62
     7
100
AcDbVertex
100
AcDb2dVertex
 10
7.972247528
 20
6.4111370054
 30
0.0
  0
VERTEX
  5
34C
330
256
100
AcDbEntity
  8
0
  6
CONTINUOUS
 62
     7
100
AcDbVertex
100
AcDb2dVertex
 10
7.9633939278
 20
6.3686169231
 30
0.0
  0
VERTEX
  5
34D
330
256
100
AcDbEntity
  8
0
  6
CONTINUOUS
 62
     7
100
AcDbVertex
100
AcDb2dVertex
 10
7.9560637659
 20
6.3265394298
 30
0.0
  0
VERTEX
  5
34E
330
256
100
AcDbEntity
  8
0
  6
CONTINUOUS
 62
     7
100
AcDbVertex
100
AcDb2dVertex
 10
7.9502730563
 20
6.2849964515
 30
0.0
  0
VERTEX
  5
34F
330
256
100
AcDbEntity
  8
0
  6
CONTINUOUS
 62
     7
100
AcDbVertex
100
AcDb2dVertex
 10
7.9460344499
 20
6.2440787466
 30
0.0
  0
VERTEX
  5
350
330
256
100
AcDbEntity
  8
0
  6
CONTINUOUS
 62
     7
100
AcDbVertex
100
AcDb2dVertex
 10
7.9433572067
 20
6.2038757073
 30
0.0
  0
VERTEX
  5
351
330
256
100
AcDbEntity
  8
0
  6
CONTINUOUS
 62
     7
100
AcDbVertex
100
AcDb2dVertex
 10
7.9422471757
 20
6.1644751646
 30
0.0
  0
SEQEND
  5
352
330
256
100
AcDbEntity
  8
0
  6
CONTINUOUS
 62
     7
  0
LINE
  5
257
330
1F
100
AcDbEntity
  8
0
  6
CONTINUOUS
 62
     7
100
AcDbLine
 10
7.931640327
 20
6.164475022
 30
0.0
 11
7.9422471757
 21
6.1644751646
 31
0.0
  0
POLYLINE
  5
258
330
1F
100
AcDbEntity
  8
0
  6
CONTINUOUS
 62
     7
100
AcDb2dPolyline
 66
     1
 10
0.0
 20
0.0
 30
0.0
  0
VERTEX
  5
353
330
258
100
AcDbEntity
  8
0
  6
CONTINUOUS
 62
     7
100
AcDbVertex
100
AcDb2dVertex
 10
7.931640327
 20
6.164475022
 30
0.0
  0
VERTEX
  5
354
330
258
100
AcDbEntity
  8
0
  6
CONTINUOUS
 62
     7
100
AcDbVertex
100
AcDb2dVertex
 10
7.9327421194
 20
6.2038689074
 30
0.0
  0
VERTEX
  5
355
330
258
100
AcDbEntity
  8
0
  6
CONTINUOUS
 62
     7
100
AcDbVertex
100
AcDb2dVertex
 10
7.9353994999
 20
6.2440600871
 30
0.0
  0
VERTEX
  5
356
330
258
100
AcDbEntity
  8
0
  6
CONTINUOUS
 62
     7
100
AcDbVertex
100
AcDb2dVertex
 10
7.9396067484
 20
6.2849620482
 30
0.0
  0
VERTEX
  5
357
330
258
100
AcDbEntity
  8
0
  6
CONTINUOUS
 62
     7
100
AcDbVertex
100
AcDb2dVertex
 10
7.9453548088
 20
6.3264867473
 30
0.0
  0
VERTEX
  5
358
330
258
100
AcDbEntity
  8
0
  6
CONTINUOUS
 62
     7
100
AcDbVertex
100
AcDb2dVertex
 10
7.9526313079
 20
6.3685448007
 30
0.0
  0
VERTEX
  5
359
330
258
100
AcDbEntity
  8
0
  6
CONTINUOUS
 62
     7
100
AcDbVertex
100
AcDb2dVertex
 10
7.9614205829
 20
6.4110456768
 30
0.0
  0
VERTEX
  5
35A
330
258
100
AcDbEntity
  8
0
  6
CONTINUOUS
 62
     7
100
AcDbVertex
100
AcDb2dVertex
 10
7.9717037144
 20
6.4538978906
 30
0.0
  0
VERTEX
  5
35B
330
258
100
AcDbEntity
  8
0
  6
CONTINUOUS
 62
     7
100
AcDbVertex
100
AcDb2dVertex
 10
7.9834585677
 20
6.4970092009
 30
0.0
  0
VERTEX
  5
35C
330
258
100
AcDbEntity
  8
0
  6
CONTINUOUS
 62
     7
100
AcDbVertex
100
AcDb2dVertex
 10
7.9966598398
 20
6.5402868087
 30
0.0
  0
VERTEX
  5
35D
330
258
100
AcDbEntity
  8
0
  6
CONTINUOUS
 62
     7
100
AcDbVertex
100
AcDb2dVertex
 10
8.0112791145
 20
6.5836375573
 30
0.0
  0
VERTEX
  5
35E
330
258
100
AcDbEntity
  8
0
  6
CONTINUOUS
 62
     7
100
AcDbVertex
100
AcDb2dVertex
 10
8.0272849231
 20
6.6269681322
 30
0.0
  0
VERTEX
  5
35F
330
258
100
AcDbEntity
  8
0
  6
CONTINUOUS
 62
     7
100
AcDbVertex
100
AcDb2dVertex
 10
8.0446428125
 20
6.6701852627
 30
0.0
  0
VERTEX
  5
360
330
258
100
AcDbEntity
  8
0
  6
CONTINUOUS
 62
     7
100
AcDbVertex
100
AcDb2dVertex
 10
8.0633154191
 20
6.7131959218
 30
0.0
  0
VERTEX
  5
361
330
258
100
AcDbEntity
  8
0
  6
CONTINUOUS
 62
     7
100
AcDbVertex
100
AcDb2dVertex
 10
8.0832625494
 20
6.7559075275
 30
0.0
  0
VERTEX
  5
362
330
258
100
AcDbEntity
  8
0
  6
CONTINUOUS
 62
     7
100
AcDbVertex
100
AcDb2dVertex
 10
8.1044412662
 20
6.7982281412
 30
0.0
  0
VERTEX
  5
363
330
258
100
AcDbEntity
  8
0
  6
CONTINUOUS
 62
     7
100
AcDbVertex
100
AcDb2dVertex
 10
8.1268059815
 20
6.840066666
 30
0.0
  0
VERTEX
  5
364
330
258
100
AcDbEntity
  8
0
  6
CONTINUOUS
 62
     7
100
AcDbVertex
100
AcDb2dVertex
 10
8.1503085542
 20
6.8813330426
 30
0.0
  0
VERTEX
  5
365
330
258
100
AcDbEntity
  8
0
  6
CONTINUOUS
 62
     7
100
AcDbVertex
100
AcDb2dVertex
 10
8.1748983942
 20
6.9219384434
 30
0.0
  0
VERTEX
  5
366
330
258
100
AcDbEntity
  8
0
  6
CONTINUOUS
 62
     7
100
AcDbVertex
100
AcDb2dVertex
 10
8.2005225708
 20
6.9617954637
 30
0.0
  0
VERTEX
  5
367
330
258
100
AcDbEntity
  8
0
  6
CONTINUOUS
 62
     7
100
AcDbVertex
100
AcDb2dVertex
 10
8.2271259267
 20
7.0008183094
 30
0.0
  0
VERTEX
  5
368
330
258
100
AcDbEntity
  8
0
  6
CONTINUOUS
 62
     7
100
AcDbVertex
100
AcDb2dVertex
 10
8.2546511972
 20
7.0389229823
 30
0.0
  0
VERTEX
  5
369
330
258
100
AcDbEntity
  8
0
  6
CONTINUOUS
 62
     7
100
AcDbVertex
100
AcDb2dVertex
 10
8.283039133
 20
7.0760274604
 30
0.0
  0
VERTEX
  5
36A
330
258
100
AcDbEntity
  8
0
  6
CONTINUOUS
 62
     7
100
AcDbVertex
100
AcDb2dVertex
 10
8.3122286278
 20
7.1120518748
 30
0.0
  0
VERTEX
  5
36B
330
258
100
AcDbEntity
  8
0
  6
CONTINUOUS
 62
     7
100
AcDbVertex
100
AcDb2dVertex
 10
8.34215685
 20
7.1469186814
 30
0.0
  0
VERTEX
  5
36C
330
258
100
AcDbEntity
  8
0
  6
CONTINUOUS
 62
     7
100
AcDbVertex
100
AcDb2dVertex
 10
8.3727593778
 20
7.1805528279
 30
0.0
  0
VERTEX
  5
36D
330
258
100
AcDbEntity
  8
0
  6
CONTINUOUS
 62
     7
100
AcDbVertex
100
AcDb2dVertex
 10
8.403970338
 20
7.2128819154
 30
0.0
  0
VERTEX
  5
36E
330
258
100
AcDbEntity
  8
0
  6
CONTINUOUS
 62
     7
100
AcDbVertex
100
AcDb2dVertex
 10
8.4357225477
 20
7.2438363542
 30
0.0
  0
VERTEX
  5
36F
330
258
100
AcDbEntity
  8
0
  6
CONTINUOUS
 62
     7
100
AcDbVertex
100
AcDb2dVertex
 10
8.467947659
 20
7.2733495135
 30
0.0
  0
VERTEX
  5
370
330
258
100
AcDbEntity
  8
0
  6
CONTINUOUS
 62
     7
100
AcDbVertex
100
AcDb2dVertex
 10
8.5005763058
 20
7.301357865
 30
0.0
  0
VERTEX
  5
371
330
258
100
AcDbEntity
  8
0
  6
CONTINUOUS
 62
     7
100
AcDbVertex
100
AcDb2dVertex
 10
8.5335382537
 20
7.3278011195
 30
0.0
  0
VERTEX
  5
372
330
258
100
AcDbEntity
  8
0
  6
CONTINUOUS
 62
     7
100
AcDbVertex
100
AcDb2dVertex
 10
8.5667625506
 20
7.3526223569
 30
0.0
  0
VERTEX
  5
373
330
258
100
AcDbEntity
  8
0
  6
CONTINUOUS
 62
     7
100
AcDbVertex
100
AcDb2dVertex
 10
8.6001776799
 20
7.3757681483
 30
0.0
  0
VERTEX
  5
374
330
258
100
AcDbEntity
  8
0
  6
CONTINUOUS
 62
     7
100
AcDbVertex
100
AcDb2dVertex
 10
8.6337117141
 20
7.3971886715
 30
0.0
  0
VERTEX
  5
375
330
258
100
AcDbEntity
  8
0
  6
CONTINUOUS
 62
     7
100
AcDbVertex
100
AcDb2dVertex
 10
8.6672924698
 20
7.4168378178
 30
0.0
  0
VERTEX
  5
376
330
258
100
AcDbEntity
  8
0
  6
CONTINUOUS
 62
     7
100
AcDbVertex
100
AcDb2dVertex
 10
8.7008476629
 20
7.4346732917
 30
0.0
  0
VERTEX
  5
377
330
258
100
AcDbEntity
  8
0
  6
CONTINUOUS
 62
     7
100
AcDbVertex
100
AcDb2dVertex
 10
8.7343050644
 20
7.4506567016
 30
0.0
  0
VERTEX
  5
378
330
258
100
AcDbEntity
  8
0
  6
CONTINUOUS
 62
     7
100
AcDbVertex
100
AcDb2dVertex
 10
8.767592656
 20
7.4647536424
 30
0.0
  0
VERTEX
  5
379
330
258
100
AcDbEntity
  8
0
  6
CONTINUOUS
 62
     7
100
AcDbVertex
100
AcDb2dVertex
 10
8.8006387847
 20
7.47693377
 30
0.0
  0
VERTEX
  5
37A
330
258
100
AcDbEntity
  8
0
  6
CONTINUOUS
 62
     7
100
AcDbVertex
100
AcDb2dVertex
 10
8.8333723172
 20
7.487170866
 30
0.0
  0
VERTEX
  5
37B
330
258
100
AcDbEntity
  8
0
  6
CONTINUOUS
 62
     7
100
AcDbVertex
100
AcDb2dVertex
 10
8.8657227933
 20
7.4954428947
 30
0.0
  0
VERTEX
  5
37C
330
258
100
AcDbEntity
  8
0
  6
CONTINUOUS
 62
     7
100
AcDbVertex
100
AcDb2dVertex
 10
8.8976205772
 20
7.5017320502
 30
0.0
  0
VERTEX
  5
37D
330
258
100
AcDbEntity
  8
0
  6
CONTINUOUS
 62
     7
100
AcDbVertex
100
AcDb2dVertex
 10
8.9289970075
 20
7.5060247949
 30
0.0
  0
VERTEX
  5
37E
330
258
100
AcDbEntity
  8
0
  6
CONTINUOUS
 62
     7
100
AcDbVertex
100
AcDb2dVertex
 10
8.9597845452
 20
7.5083118884
 30
0.0
  0
VERTEX
  5
37F
330
258
100
AcDbEntity
  8
0
  6
CONTINUOUS
 62
     7
100
AcDbVertex
100
AcDb2dVertex
 10
8.9899169188
 20
7.5085884076
 30
0.0
  0
VERTEX
  5
380
330
258
100
AcDbEntity
  8
0
  6
CONTINUOUS
 62
     7
100
AcDbVertex
100
AcDb2dVertex
 10
9.019329267
 20
7.5068537573
 30
0.0
  0
VERTEX
  5
381
330
258
100
AcDbEntity
  8
0
  6
CONTINUOUS
 62
     7
100
AcDbVertex
100
AcDb2dVertex
 10
9.0479582787
 20
7.5031116715
 30
0.0
  0
VERTEX
  5
382
330
258
100
AcDbEntity
  8
0
  6
CONTINUOUS
 62
     7
100
AcDbVertex
100
AcDb2dVertex
 10
9.0757423285
 20
7.4973702052
 30
0.0
  0
VERTEX
  5
383
330
258
100
AcDbEntity
  8
0
  6
CONTINUOUS
 62
     7
100
AcDbVertex
100
AcDb2dVertex
 10
9.1026216101
 20
7.489641717
 30
0.0
  0
VERTEX
  5
384
330
258
100
AcDbEntity
  8
0
  6
CONTINUOUS
 62
     7
100
AcDbVertex
100
AcDb2dVertex
 10
9.1285382649
 20
7.4799428429
 30
0.0
  0
VERTEX
  5
385
330
258
100
AcDbEntity
  8
0
  6
CONTINUOUS
 62
     7
100
AcDbVertex
100
AcDb2dVertex
 10
9.1534365059
 20
7.4682944601
 30
0.0
  0
VERTEX
  5
386
330
258
100
AcDbEntity
  8
0
  6
CONTINUOUS
 62
     7
100
AcDbVertex
100
AcDb2dVertex
 10
9.1772627389
 20
7.4547216422
 30
0.0
  0
VERTEX
  5
387
330
258
100
AcDbEntity
  8
0
  6
CONTINUOUS
 62
     7
100
AcDbVertex
100
AcDb2dVertex
 10
9.1999656767
 20
7.4392536054
 30
0.0
  0
VERTEX
  5
388
330
258
100
AcDbEntity
  8
0
  6
CONTINUOUS
 62
     7
100
AcDbVertex
100
AcDb2dVertex
 10
9.2214964503
 20
7.4219236453
 30
0.0
  0
VERTEX
  5
389
330
258
100
AcDbEntity
  8
0
  6
CONTINUOUS
 62
     7
100
AcDbVertex
100
AcDb2dVertex
 10
9.2418087139
 20
7.4027690652
 30
0.0
  0
VERTEX
  5
38A
330
258
100
AcDbEntity
  8
0
  6
CONTINUOUS
 62
     7
100
AcDbVertex
100
AcDb2dVertex
 10
9.2608587444
 20
7.3818310962
 30
0.0
  0
VERTEX
  5
38B
330
258
100
AcDbEntity
  8
0
  6
CONTINUOUS
 62
     7
100
AcDbVertex
100
AcDb2dVertex
 10
9.2786055359
 20
7.3591548083
 30
0.0
  0
VERTEX
  5
38C
330
258
100
AcDbEntity
  8
0
  6
CONTINUOUS
 62
     7
100
AcDbVertex
100
AcDb2dVertex
 10
9.2950108875
 20
7.3347890131
 30
0.0
  0
VERTEX
  5
38D
330
258
100
AcDbEntity
  8
0
  6
CONTINUOUS
 62
     7
100
AcDbVertex
100
AcDb2dVertex
 10
9.3100394862
 20
7.3087861589
 30
0.0
  0
VERTEX
  5
38E
330
258
100
AcDbEntity
  8
0
  6
CONTINUOUS
 62
     7
100
AcDbVertex
100
AcDb2dVertex
 10
9.3236589822
 20
7.281202218
 30
0.0
  0
VERTEX
  5
38F
330
258
100
AcDbEntity
  8
0
  6
CONTINUOUS
 62
     7
100
AcDbVertex
100
AcDb2dVertex
 10
9.3358400589
 20
7.2520965661
 30
0.0
  0
VERTEX
  5
390
330
258
100
AcDbEntity
  8
0
  6
CONTINUOUS
 62
     7
100
AcDbVertex
100
AcDb2dVertex
 10
9.3465564961
 20
7.2215318543
 30
0.0
  0
VERTEX
  5
391
330
258
100
AcDbEntity
  8
0
  6
CONTINUOUS
 62
     7
100
AcDbVertex
100
AcDb2dVertex
 10
9.3557852262
 20
7.1895738743
 30
0.0
  0
VERTEX
  5
392
330
258
100
AcDbEntity
  8
0
  6
CONTINUOUS
 62
     7
100
AcDbVertex
100
AcDb2dVertex
 10
9.363506384
 20
7.1562914172
 30
0.0
  0
VERTEX
  5
393
330
258
100
AcDbEntity
  8
0
  6
CONTINUOUS
 62
     7
100
AcDbVertex
100
AcDb2dVertex
 10
9.3697033493
 20
7.1217561248
 30
0.0
  0
VERTEX
  5
394
330
258
100
AcDbEntity
  8
0
  6
CONTINUOUS
 62
     7
100
AcDbVertex
100
AcDb2dVertex
 10
9.374362783
 20
7.0860423357
 30
0.0
  0
VERTEX
  5
395
330
258
100
AcDbEntity
  8
0
  6
CONTINUOUS
 62
     7
100
AcDbVertex
100
AcDb2dVertex
 10
9.3774746553
 20
7.0492269255
 30
0.0
  0
VERTEX
  5
396
330
258
100
AcDbEntity
  8
0
  6
CONTINUOUS
 62
     7
100
AcDbVertex
100
AcDb2dVertex
 10
9.3790322679
 20
7.0113891409
 30
0.0
  0
VERTEX
  5
397
330
258
100
AcDbEntity
  8
0
  6
CONTINUOUS
 62
     7
100
AcDbVertex
100
AcDb2dVertex
 10
9.379227048
 20
6.9921122293
 30
0.0
  0
SEQEND
  5
398
330
258
100
AcDbEntity
  8
0
  6
CONTINUOUS
 62
     7
  0
POLYLINE
  5
259
330
1F
100
AcDbEntity
  8
0
  6
CONTINUOUS
 62
     7
100
AcDb2dPolyline
 66
     1
 10
0.0
 20
0.0
 30
0.0
  0
VERTEX
  5
399
330
259
100
AcDbEntity
  8
0
  6
CONTINUOUS
 62
     7
100
AcDbVertex
100
AcDb2dVertex
 10
8.6555345966
 20
5.7385043032
 30
0.0
  0
VERTEX
  5
39A
330
259
100
AcDbEntity
  8
0
  6
CONTINUOUS
 62
     7
100
AcDbVertex
100
AcDb2dVertex
 10
8.6337117141
 20
5.7262821042
 30
0.0
  0
VERTEX
  5
39B
330
259
100
AcDbEntity
  8
0
  6
CONTINUOUS
 62
     7
100
AcDbVertex
100
AcDb2dVertex
 10
8.6001776799
 20
5.7089850556
 30
0.0
  0
VERTEX
  5
39C
330
259
100
AcDbEntity
  8
0
  6
CONTINUOUS
 62
     7
100
AcDbVertex
100
AcDb2dVertex
 10
8.5667625506
 20
5.6935505599
 30
0.0
  0
VERTEX
  5
39D
330
259
100
AcDbEntity
  8
0
  6
CONTINUOUS
 62
     7
100
AcDbVertex
100
AcDb2dVertex
 10
8.5335382537
 20
5.6800118405
 30
0.0
  0
VERTEX
  5
39E
330
259
100
AcDbEntity
  8
0
  6
CONTINUOUS
 62
     7
100
AcDbVertex
100
AcDb2dVertex
 10
8.5005763058
 20
5.6683980401
 30
0.0
  0
VERTEX
  5
39F
330
259
100
AcDbEntity
  8
0
  6
CONTINUOUS
 62
     7
100
AcDbVertex
100
AcDb2dVertex
 10
8.467947659
 20
5.6587341579
 30
0.0
  0
VERTEX
  5
3A0
330
259
100
AcDbEntity
  8
0
  6
CONTINUOUS
 62
     7
100
AcDbVertex
100
AcDb2dVertex
 10
8.4357225477
 20
5.6510409957
 30
0.0
  0
VERTEX
  5
3A1
330
259
100
AcDbEntity
  8
0
  6
CONTINUOUS
 62
     7
100
AcDbVertex
100
AcDb2dVertex
 10
8.403970338
 20
5.6453351135
 30
0.0
  0
VERTEX
  5
3A2
330
259
100
AcDbEntity
  8
0
  6
CONTINUOUS
 62
     7
100
AcDbVertex
100
AcDb2dVertex
 10
8.3727593778
 20
5.6416287933
 30
0.0
  0
VERTEX
  5
3A3
330
259
100
AcDbEntity
  8
0
  6
CONTINUOUS
 62
     7
100
AcDbVertex
100
AcDb2dVertex
 10
8.34215685
 20
5.6399300133
 30
0.0
  0
VERTEX
  5
3A4
330
259
100
AcDbEntity
  8
0
  6
CONTINUOUS
 62
     7
100
AcDbVertex
100
AcDb2dVertex
 10
8.3122286278
 20
5.64024243
 30
0.0
  0
VERTEX
  5
3A5
330
259
100
AcDbEntity
  8
0
  6
CONTINUOUS
 62
     7
100
AcDbVertex
100
AcDb2dVertex
 10
8.283039133
 20
5.6425653711
 30
0.0
  0
VERTEX
  5
3A6
330
259
100
AcDbEntity
  8
0
  6
CONTINUOUS
 62
     7
100
AcDbVertex
100
AcDb2dVertex
 10
8.2546511972
 20
5.6468938362
 30
0.0
  0
VERTEX
  5
3A7
330
259
100
AcDbEntity
  8
0
  6
CONTINUOUS
 62
     7
100
AcDbVertex
100
AcDb2dVertex
 10
8.2271259267
 20
5.6532185082
 30
0.0
  0
VERTEX
  5
3A8
330
259
100
AcDbEntity
  8
0
  6
CONTINUOUS
 62
     7
100
AcDbVertex
100
AcDb2dVertex
 10
8.2005225708
 20
5.661525773
 30
0.0
  0
VERTEX
  5
3A9
330
259
100
AcDbEntity
  8
0
  6
CONTINUOUS
 62
     7
100
AcDbVertex
100
AcDb2dVertex
 10
8.1748983942
 20
5.6717977488
 30
0.0
  0
VERTEX
  5
3AA
330
259
100
AcDbEntity
  8
0
  6
CONTINUOUS
 62
     7
100
AcDbVertex
100
AcDb2dVertex
 10
8.1503085542
 20
5.6840123247
 30
0.0
  0
VERTEX
  5
3AB
330
259
100
AcDbEntity
  8
0
  6
CONTINUOUS
 62
     7
100
AcDbVertex
100
AcDb2dVertex
 10
8.1268059815
 20
5.6981432083
 30
0.0
  0
VERTEX
  5
3AC
330
259
100
AcDbEntity
  8
0
  6
CONTINUOUS
 62
     7
100
AcDbVertex
100
AcDb2dVertex
 10
8.1044412662
 20
5.7141599824
 30
0.0
  0
VERTEX
  5
3AD
330
259
100
AcDbEntity
  8
0
  6
CONTINUOUS
 62
     7
100
AcDbVertex
100
AcDb2dVertex
 10
8.0832625494
 20
5.7320281702
 30
0.0
  0
VERTEX
  5
3AE
330
259
100
AcDbEntity
  8
0
  6
CONTINUOUS
 62
     7
100
AcDbVertex
100
AcDb2dVertex
 10
8.0633154191
 20
5.7517093096
 30
0.0
  0
VERTEX
  5
3AF
330
259
100
AcDbEntity
  8
0
  6
CONTINUOUS
 62
     7
100
AcDbVertex
100
AcDb2dVertex
 10
8.0446428125
 20
5.773161036
 30
0.0
  0
VERTEX
  5
3B0
330
259
100
AcDbEntity
  8
0
  6
CONTINUOUS
 62
     7
100
AcDbVertex
100
AcDb2dVertex
 10
8.0272849231
 20
5.7963371739
 30
0.0
  0
VERTEX
  5
3B1
330
259
100
AcDbEntity
  8
0
  6
CONTINUOUS
 62
     7
100
AcDbVertex
100
AcDb2dVertex
 10
8.0112791145
 20
5.8211878356
 30
0.0
  0
VERTEX
  5
3B2
330
259
100
AcDbEntity
  8
0
  6
CONTINUOUS
 62
     7
100
AcDbVertex
100
AcDb2dVertex
 10
7.9966598398
 20
5.8476595289
 30
0.0
  0
VERTEX
  5
3B3
330
259
100
AcDbEntity
  8
0
  6
CONTINUOUS
 62
     7
100
AcDbVertex
100
AcDb2dVertex
 10
7.9834585677
 20
5.8756952724
 30
0.0
  0
VERTEX
  5
3B4
330
259
100
AcDbEntity
  8
0
  6
CONTINUOUS
 62
     7
100
AcDbVertex
100
AcDb2dVertex
 10
7.9717037144
 20
5.905234718
 30
0.0
  0
VERTEX
  5
3B5
330
259
100
AcDbEntity
  8
0
  6
CONTINUOUS
 62
     7
100
AcDbVertex
100
AcDb2dVertex
 10
7.9614205829
 20
5.9362142808
 30
0.0
  0
VERTEX
  5
3B6
330
259
100
AcDbEntity
  8
0
  6
CONTINUOUS
 62
     7
100
AcDbVertex
100
AcDb2dVertex
 10
7.9526313079
 20
5.968567276
 30
0.0
  0
VERTEX
  5
3B7
330
259
100
AcDbEntity
  8
0
  6
CONTINUOUS
 62
     7
100
AcDbVertex
100
AcDb2dVertex
 10
7.9453548088
 20
6.0022240624
 30
0.0
  0
VERTEX
  5
3B8
330
259
100
AcDbEntity
  8
0
  6
CONTINUOUS
 62
     7
100
AcDbVertex
100
AcDb2dVertex
 10
7.9396067484
 20
6.0371121923
 30
0.0
  0
VERTEX
  5
3B9
330
259
100
AcDbEntity
  8
0
  6
CONTINUOUS
 62
     7
100
AcDbVertex
100
AcDb2dVertex
 10
7.9353994999
 20
6.0731565675
 30
0.0
  0
VERTEX
  5
3BA
330
259
100
AcDbEntity
  8
0
  6
CONTINUOUS
 62
     7
100
AcDbVertex
100
AcDb2dVertex
 10
7.9327421194
 20
6.1102796011
 30
0.0
  0
VERTEX
  5
3BB
330
259
100
AcDbEntity
  8
0
  6
CONTINUOUS
 62
     7
100
AcDbVertex
100
AcDb2dVertex
 10
7.931640327
 20
6.148401384
 30
0.0
  0
SEQEND
  5
3BC
330
259
100
AcDbEntity
  8
0
  6
CONTINUOUS
 62
     7
  0
LINE
  5
25A
330
1F
100
AcDbEntity
  8
0
  6
CONTINUOUS
 62
     7
100
AcDbLine
 10
7.931640327
 20
6.148401384
 30
0.0
 11
7.9422471757
 21
6.1484015266
 31
0.0
  0
POLYLINE
  5
25B
330
1F
100
AcDbEntity
  8
0
  6
CONTINUOUS
 62
     7
100
AcDb2dPolyline
 66
     1
 10
0.0
 20
0.0
 30
0.0
  0
VERTEX
  5
3BD
330
25B
100
AcDbEntity
  8
0
  6
CONTINUOUS
 62
     7
100
AcDbVertex
100
AcDb2dVertex
 10
8.7549069432
 20
7.6987761243
 30
0.0
  0
VERTEX
  5
3BE
330
25B
100
AcDbEntity
  8
0
  6
CONTINUOUS
 62
     7
100
AcDbVertex
100
AcDb2dVertex
 10
8.7519622963
 20
7.7004565855
 30
0.0
  0
VERTEX
  5
3BF
330
25B
100
AcDbEntity
  8
0
  6
CONTINUOUS
 62
     7
100
AcDbVertex
100
AcDb2dVertex
 10
8.7274609982
 20
7.7130055396
 30
0.0
  0
VERTEX
  5
3C0
330
25B
100
AcDbEntity
  8
0
  6
CONTINUOUS
 62
     7
100
AcDbVertex
100
AcDb2dVertex
 10
8.7019107633
 20
7.7236036999
 30
0.0
  0
VERTEX
  5
3C1
330
25B
100
AcDbEntity
  8
0
  6
CONTINUOUS
 62
     7
100
AcDbVertex
100
AcDb2dVertex
 10
8.6753669277
 20
7.7322281131
 30
0.0
  0
VERTEX
  5
3C2
330
25B
100
AcDbEntity
  8
0
  6
CONTINUOUS
 62
     7
100
AcDbVertex
100
AcDb2dVertex
 10
8.6478869795
 20
7.7388601006
 30
0.0
  0
VERTEX
  5
3C3
330
25B
100
AcDbEntity
  8
0
  6
CONTINUOUS
 62
     7
100
AcDbVertex
100
AcDb2dVertex
 10
8.619530434
 20
7.743485299
 30
0.0
  0
VERTEX
  5
3C4
330
25B
100
AcDbEntity
  8
0
  6
CONTINUOUS
 62
     7
100
AcDbVertex
100
AcDb2dVertex
 10
8.5903587053
 20
7.7460936911
 30
0.0
  0
VERTEX
  5
3C5
330
25B
100
AcDbEntity
  8
0
  6
CONTINUOUS
 62
     7
100
AcDbVertex
100
AcDb2dVertex
 10
8.5604349728
 20
7.7466796278
 30
0.0
  0
VERTEX
  5
3C6
330
25B
100
AcDbEntity
  8
0
  6
CONTINUOUS
 62
     7
100
AcDbVertex
100
AcDb2dVertex
 10
8.5298240446
 20
7.74524184
 30
0.0
  0
VERTEX
  5
3C7
330
25B
100
AcDbEntity
  8
0
  6
CONTINUOUS
 62
     7
100
AcDbVertex
100
AcDb2dVertex
 10
8.4985922173
 20
7.7417834418
 30
0.0
  0
VERTEX
  5
3C8
330
25B
100
AcDbEntity
  8
0
  6
CONTINUOUS
 62
     7
100
AcDbVertex
100
AcDb2dVertex
 10
8.4668071319
 20
7.7363119231
 30
0.0
  0
VERTEX
  5
3C9
330
25B
100
AcDbEntity
  8
0
  6
CONTINUOUS
 62
     7
100
AcDbVertex
100
AcDb2dVertex
 10
8.434537628
 20
7.7288391341
 30
0.0
  0
VERTEX
  5
3CA
330
25B
100
AcDbEntity
  8
0
  6
CONTINUOUS
 62
     7
100
AcDbVertex
100
AcDb2dVertex
 10
8.4018535941
 20
7.7193812592
 30
0.0
  0
VERTEX
  5
3CB
330
25B
100
AcDbEntity
  8
0
  6
CONTINUOUS
 62
     7
100
AcDbVertex
100
AcDb2dVertex
 10
8.3688258164
 20
7.707958782
 30
0.0
  0
VERTEX
  5
3CC
330
25B
100
AcDbEntity
  8
0
  6
CONTINUOUS
 62
     7
100
AcDbVertex
100
AcDb2dVertex
 10
8.3355258259
 20
7.6945964411
 30
0.0
  0
VERTEX
  5
3CD
330
25B
100
AcDbEntity
  8
0
  6
CONTINUOUS
 62
     7
100
AcDbVertex
100
AcDb2dVertex
 10
8.3020257428
 20
7.6793231764
 30
0.0
  0
VERTEX
  5
3CE
330
25B
100
AcDbEntity
  8
0
  6
CONTINUOUS
 62
     7
100
AcDbVertex
100
AcDb2dVertex
 10
8.268398121
 20
7.6621720663
 30
0.0
  0
VERTEX
  5
3CF
330
25B
100
AcDbEntity
  8
0
  6
CONTINUOUS
 62
     7
100
AcDbVertex
100
AcDb2dVertex
 10
8.2347157903
 20
7.6431802563
 30
0.0
  0
VERTEX
  5
3D0
330
25B
100
AcDbEntity
  8
0
  6
CONTINUOUS
 62
     7
100
AcDbVertex
100
AcDb2dVertex
 10
8.2010516992
 20
7.6223888784
 30
0.0
  0
VERTEX
  5
3D1
330
25B
100
AcDbEntity
  8
0
  6
CONTINUOUS
 62
     7
100
AcDbVertex
100
AcDb2dVertex
 10
8.1674787566
 20
7.5998429622
 30
0.0
  0
VERTEX
  5
3D2
330
25B
100
AcDbEntity
  8
0
  6
CONTINUOUS
 62
     7
100
AcDbVertex
100
AcDb2dVertex
 10
8.134069674
 20
7.575591337
 30
0.0
  0
VERTEX
  5
3D3
330
25B
100
AcDbEntity
  8
0
  6
CONTINUOUS
 62
     7
100
AcDbVertex
100
AcDb2dVertex
 10
8.1008968081
 20
7.5496865265
 30
0.0
  0
VERTEX
  5
3D4
330
25B
100
AcDbEntity
  8
0
  6
CONTINUOUS
 62
     7
100
AcDbVertex
100
AcDb2dVertex
 10
8.0680320039
 20
7.5221846348
 30
0.0
  0
VERTEX
  5
3D5
330
25B
100
AcDbEntity
  8
0
  6
CONTINUOUS
 62
     7
100
AcDbVertex
100
AcDb2dVertex
 10
8.0355464392
 20
7.4931452248
 30
0.0
  0
VERTEX
  5
3D6
330
25B
100
AcDbEntity
  8
0
  6
CONTINUOUS
 62
     7
100
AcDbVertex
100
AcDb2dVertex
 10
8.0035104705
 20
7.4626311894
 30
0.0
  0
VERTEX
  5
3D7
330
25B
100
AcDbEntity
  8
0
  6
CONTINUOUS
 62
     7
100
AcDbVertex
100
AcDb2dVertex
 10
7.9719934807
 20
7.4307086152
 30
0.0
  0
VERTEX
  5
3D8
330
25B
100
AcDbEntity
  8
0
  6
CONTINUOUS
 62
     7
100
AcDbVertex
100
AcDb2dVertex
 10
7.9410637284
 20
7.3974466394
 30
0.0
  0
VERTEX
  5
3D9
330
25B
100
AcDbEntity
  8
0
  6
CONTINUOUS
 62
     7
100
AcDbVertex
100
AcDb2dVertex
 10
7.9107882007
 20
7.3629173001
 30
0.0
  0
VERTEX
  5
3DA
330
25B
100
AcDbEntity
  8
0
  6
CONTINUOUS
 62
     7
100
AcDbVertex
100
AcDb2dVertex
 10
7.8812324676
 20
7.32719538
 30
0.0
  0
VERTEX
  5
3DB
330
25B
100
AcDbEntity
  8
0
  6
CONTINUOUS
 62
     7
100
AcDbVertex
100
AcDb2dVertex
 10
7.8524605403
 20
7.290358245
 30
0.0
  0
VERTEX
  5
3DC
330
25B
100
AcDbEntity
  8
0
  6
CONTINUOUS
 62
     7
100
AcDbVertex
100
AcDb2dVertex
 10
7.8245347323
 20
7.252485676
 30
0.0
  0
VERTEX
  5
3DD
330
25B
100
AcDbEntity
  8
0
  6
CONTINUOUS
 62
     7
100
AcDbVertex
100
AcDb2dVertex
 10
7.7975155247
 20
7.2136596967
 30
0.0
  0
VERTEX
  5
3DE
330
25B
100
AcDbEntity
  8
0
  6
CONTINUOUS
 62
     7
100
AcDbVertex
100
AcDb2dVertex
 10
7.7714614351
 20
7.1739643953
 30
0.0
  0
VERTEX
  5
3DF
330
25B
100
AcDbEntity
  8
0
  6
CONTINUOUS
 62
     7
100
AcDbVertex
100
AcDb2dVertex
 10
7.7464288908
 20
7.1334857432
 30
0.0
  0
VERTEX
  5
3E0
330
25B
100
AcDbEntity
  8
0
  6
CONTINUOUS
 62
     7
100
AcDbVertex
100
AcDb2dVertex
 10
7.7224721068
 20
7.092311408
 30
0.0
  0
VERTEX
  5
3E1
330
25B
100
AcDbEntity
  8
0
  6
CONTINUOUS
 62
     7
100
AcDbVertex
100
AcDb2dVertex
 10
7.6996429681
 20
7.0505305643
 30
0.0
  0
VERTEX
  5
3E2
330
25B
100
AcDbEntity
  8
0
  6
CONTINUOUS
 62
     7
100
AcDbVertex
100
AcDb2dVertex
 10
7.6779909176
 20
7.0082336999
 30
0.0
  0
VERTEX
  5
3E3
330
25B
100
AcDbEntity
  8
0
  6
CONTINUOUS
 62
     7
100
AcDbVertex
100
AcDb2dVertex
 10
7.6575628488
 20
6.9655124206
 30
0.0
  0
VERTEX
  5
3E4
330
25B
100
AcDbEntity
  8
0
  6
CONTINUOUS
 62
     7
100
AcDbVertex
100
AcDb2dVertex
 10
7.6384030043
 20
6.922459251
 30
0.0
  0
VERTEX
  5
3E5
330
25B
100
AcDbEntity
  8
0
  6
CONTINUOUS
 62
     7
100
AcDbVertex
100
AcDb2dVertex
 10
7.6205528801
 20
6.8791674347
 30
0.0
  0
VERTEX
  5
3E6
330
25B
100
AcDbEntity
  8
0
  6
CONTINUOUS
 62
     7
100
AcDbVertex
100
AcDb2dVertex
 10
7.6040511356
 20
6.8357307323
 30
0.0
  0
VERTEX
  5
3E7
330
25B
100
AcDbEntity
  8
0
  6
CONTINUOUS
 62
     7
100
AcDbVertex
100
AcDb2dVertex
 10
7.5889335099
 20
6.7922432178
 30
0.0
  0
VERTEX
  5
3E8
330
25B
100
AcDbEntity
  8
0
  6
CONTINUOUS
 62
     7
100
AcDbVertex
100
AcDb2dVertex
 10
7.5752327443
 20
6.7487990757
 30
0.0
  0
VERTEX
  5
3E9
330
25B
100
AcDbEntity
  8
0
  6
CONTINUOUS
 62
     7
100
AcDbVertex
100
AcDb2dVertex
 10
7.5629785118
 20
6.7054923961
 30
0.0
  0
VERTEX
  5
3EA
330
25B
100
AcDbEntity
  8
0
  6
CONTINUOUS
 62
     7
100
AcDbVertex
100
AcDb2dVertex
 10
7.5521973522
 20
6.6624169718
 30
0.0
  0
VERTEX
  5
3EB
330
25B
100
AcDbEntity
  8
0
  6
CONTINUOUS
 62
     7
100
AcDbVertex
100
AcDb2dVertex
 10
7.5429126151
 20
6.6196660946
 30
0.0
  0
VERTEX
  5
3EC
330
25B
100
AcDbEntity
  8
0
  6
CONTINUOUS
 62
     7
100
AcDbVertex
100
AcDb2dVertex
 10
7.5351444093
 20
6.5773323532
 30
0.0
  0
VERTEX
  5
3ED
330
25B
100
AcDbEntity
  8
0
  6
CONTINUOUS
 62
     7
100
AcDbVertex
100
AcDb2dVertex
 10
7.5289095588
 20
6.5355074332
 30
0.0
  0
VERTEX
  5
3EE
330
25B
100
AcDbEntity
  8
0
  6
CONTINUOUS
 62
     7
100
AcDbVertex
100
AcDb2dVertex
 10
7.5242215671
 20
6.494281918
 30
0.0
  0
VERTEX
  5
3EF
330
25B
100
AcDbEntity
  8
0
  6
CONTINUOUS
 62
     7
100
AcDbVertex
100
AcDb2dVertex
 10
7.5210905872
 20
6.4537450929
 30
0.0
  0
VERTEX
  5
3F0
330
25B
100
AcDbEntity
  8
0
  6
CONTINUOUS
 62
     7
100
AcDbVertex
100
AcDb2dVertex
 10
7.5195234001
 20
6.4139847517
 30
0.0
  0
VERTEX
  5
3F1
330
25B
100
AcDbEntity
  8
0
  6
CONTINUOUS
 62
     7
100
AcDbVertex
100
AcDb2dVertex
 10
7.5195234001
 20
6.3750870064
 30
0.0
  0
VERTEX
  5
3F2
330
25B
100
AcDbEntity
  8
0
  6
CONTINUOUS
 62
     7
100
AcDbVertex
100
AcDb2dVertex
 10
7.5210905872
 20
6.3371361008
 30
0.0
  0
VERTEX
  5
3F3
330
25B
100
AcDbEntity
  8
0
  6
CONTINUOUS
 62
     7
100
AcDbVertex
100
AcDb2dVertex
 10
7.5242215671
 20
6.3002142282
 30
0.0
  0
VERTEX
  5
3F4
330
25B
100
AcDbEntity
  8
0
  6
CONTINUOUS
 62
     7
100
AcDbVertex
100
AcDb2dVertex
 10
7.5289095588
 20
6.264401353
 30
0.0
  0
VERTEX
  5
3F5
330
25B
100
AcDbEntity
  8
0
  6
CONTINUOUS
 62
     7
100
AcDbVertex
100
AcDb2dVertex
 10
7.5351444093
 20
6.2297750381
 30
0.0
  0
VERTEX
  5
3F6
330
25B
100
AcDbEntity
  8
0
  6
CONTINUOUS
 62
     7
100
AcDbVertex
100
AcDb2dVertex
 10
7.5429126151
 20
6.1964102764
 30
0.0
  0
VERTEX
  5
3F7
330
25B
100
AcDbEntity
  8
0
  6
CONTINUOUS
 62
     7
100
AcDbVertex
100
AcDb2dVertex
 10
7.5521973522
 20
6.1643793283
 30
0.0
  0
VERTEX
  5
3F8
330
25B
100
AcDbEntity
  8
0
  6
CONTINUOUS
 62
     7
100
AcDbVertex
100
AcDb2dVertex
 10
7.5629785118
 20
6.1337515659
 30
0.0
  0
VERTEX
  5
3F9
330
25B
100
AcDbEntity
  8
0
  6
CONTINUOUS
 62
     7
100
AcDbVertex
100
AcDb2dVertex
 10
7.5752327443
 20
6.1045933221
 30
0.0
  0
VERTEX
  5
3FA
330
25B
100
AcDbEntity
  8
0
  6
CONTINUOUS
 62
     7
100
AcDbVertex
100
AcDb2dVertex
 10
7.5889335099
 20
6.0769677472
 30
0.0
  0
VERTEX
  5
3FB
330
25B
100
AcDbEntity
  8
0
  6
CONTINUOUS
 62
     7
100
AcDbVertex
100
AcDb2dVertex
 10
7.6040511356
 20
6.0509346719
 30
0.0
  0
VERTEX
  5
3FC
330
25B
100
AcDbEntity
  8
0
  6
CONTINUOUS
 62
     7
100
AcDbVertex
100
AcDb2dVertex
 10
7.6205528801
 20
6.0265504781
 30
0.0
  0
VERTEX
  5
3FD
330
25B
100
AcDbEntity
  8
0
  6
CONTINUOUS
 62
     7
100
AcDbVertex
100
AcDb2dVertex
 10
7.6384030043
 20
6.0038679766
 30
0.0
  0
VERTEX
  5
3FE
330
25B
100
AcDbEntity
  8
0
  6
CONTINUOUS
 62
     7
100
AcDbVertex
100
AcDb2dVertex
 10
7.6575628488
 20
5.9829362926
 30
0.0
  0
VERTEX
  5
3FF
330
25B
100
AcDbEntity
  8
0
  6
CONTINUOUS
 62
     7
100
AcDbVertex
100
AcDb2dVertex
 10
7.6779909176
 20
5.9638007594
 30
0.0
  0
VERTEX
  5
400
330
25B
100
AcDbEntity
  8
0
  6
CONTINUOUS
 62
     7
100
AcDbVertex
100
AcDb2dVertex
 10
7.6996429681
 20
5.9465028205
 30
0.0
  0
VERTEX
  5
401
330
25B
100
AcDbEntity
  8
0
  6
CONTINUOUS
 62
     7
100
AcDbVertex
100
AcDb2dVertex
 10
7.7224721068
 20
5.9310799392
 30
0.0
  0
VERTEX
  5
402
330
25B
100
AcDbEntity
  8
0
  6
CONTINUOUS
 62
     7
100
AcDbVertex
100
AcDb2dVertex
 10
7.731368083
 20
5.9257627053
 30
0.0
  0
SEQEND
  5
403
330
25B
100
AcDbEntity
  8
0
  6
CONTINUOUS
 62
     7
  0
SPLINE
  5
25C
330
1F
100
AcDbEntity
  8
0
  6
CONTINUOUS
 62
     7
100
AcDbSpline
210
0.0
220
0.0
230
1.0
 70
     8
 71
     3
 72
    90
 73
    86
 74
     0
 42
0.00000001
 43
0.00000001
 40
-0.0156249999999999
 40
-0.0156249999999999
 40
0.0
 40
0.0
 40
0.0312499999999998
 40
0.0312499999999998
 40
0.0468749999999998
 40
0.0468749999999998
 40
0.0624999999999997
 40
0.0624999999999997
 40
0.0781249999999997
 40
0.0781249999999997
 40
0.0937499999999996
 40
0.0937499999999996
 40
0.1249999999999995
 40
0.1249999999999995
 40
0.1562499999999994
 40
0.1562499999999994
 40
0.1874999999999993
 40
0.1874999999999993
 40
0.2187499999999992
 40
0.2187499999999992
 40
0.2499999999999991
 40
0.2499999999999991
 40
0.281249999999999
 40
0.281249999999999
 40
0.3124999999999989
 40
0.3124999999999989
 40
0.3437499999999988
 40
0.3437499999999988
 40
0.3749999999999987
 40
0.3749999999999987
 40
0.4062499999999986
 40
0.4062499999999986
 40
0.4218749999999985
 40
0.4218749999999985
 40
0.4374999999999984
 40
0.4374999999999984
 40
0.4531249999999983
 40
0.4531249999999983
 40
0.4687499999999983
 40
0.4687499999999983
 40
0.4843749999999982
 40
0.4843749999999982
 40
0.4999999999999981
 40
0.4999999999999981
 40
0.515624999999998
 40
0.515624999999998
 40
0.531249999999998
 40
0.531249999999998
 40
0.5468749999999979
 40
0.5468749999999979
 40
0.5624999999999978
 40
0.5624999999999978
 40
0.5937499999999981
 40
0.5937499999999981
 40
0.6093749999999984
 40
0.6093749999999984
 40
0.6249999999999988
 40
0.6249999999999988
 40
0.656249999999999
 40
0.656249999999999
 40
0.6874999999999991
 40
0.6874999999999991
 40
0.7187499999999993
 40
0.7187499999999993
 40
0.7499999999999994
 40
0.7499999999999994
 40
0.8125000000000001
 40
0.8125000000000001
 40
0.84375
 40
0.84375
 40
0.875
 40
0.875
 40
0.890625
 40
0.890625
 40
0.90625
 40
0.90625
 40
0.9218750000000001
 40
0.9218750000000001
 40
0.9375000000000001
 40
0.9375000000000001
 40
0.9687500000000001
 40
0.9687500000000001
 40
0.9843750000000001
 40
0.9843750000000001
 40
1.0
 40
1.0
 40
1.03125
 40
1.03125
 10
8.171806262277242
 20
7.133997200341875
 30
0.0
 10
8.161322972432247
 20
7.140049074751621
 30
0.0
 10
8.153699240291106
 20
7.142969625811441
 30
0.0
 10
8.141369871441137
 20
7.145757691119184
 30
0.0
 10
8.137077829955562
 20
7.146419275013783
 30
0.0
 10
8.128401164660984
 20
7.147170738386544
 30
0.0
 10
8.124007945820525
 20
7.147267356397639
 30
0.0
 10
8.115121597312937
 20
7.146927062001943
 30
0.0
 10
8.110628431862438
 20
7.1464900064948
 30
0.0
 10
8.101548567576817
 20
7.145085488611913
 30
0.0
 10
8.096986984068373
 20
7.144118911695268
 30
0.0
 10
8.08348602739637
 20
7.140520199925655
 30
0.0
 10
8.074614016008308
 20
7.137172837558201
 30
0.0
 10
8.057256681476549
 20
7.12874596594239
 30
0.0
 10
8.048987021018256
 20
7.123775542260192
 30
0.0
 10
8.033188605616953
 20
7.112492171192268
 30
0.0
 10
8.025625472196198
 20
7.106131020370862
 30
0.0
 10
8.011628333820912
 20
7.09252618150465
 30
0.0
 10
8.005138867201829
 20
7.085251419509648
 30
0.0
 10
7.993104365341675
 20
7.06982622796711
 30
0.0
 10
7.987573614357925
 20
7.061676358819067
 30
0.0
 10
7.977682475145897
 20
7.044968270002889
 30
0.0
 10
7.973279410284888
 20
7.03635803387517
 30
0.0
 10
7.965518397807876
 20
7.018643939254097
 30
0.0
 10
7.962151383605987
 20
7.009491197531823
 30
0.0
 10
7.95663070622091
 20
6.991144739823675
 30
0.0
 10
7.954451334951582
 20
6.981907478018554
 30
0.0
 10
7.951283373738548
 20
6.96331360151984
 30
0.0
 10
7.950292319077988
 20
6.953957033369329
 30
0.0
 10
7.949675959407729
 20
6.935126703984917
 30
0.0
 10
7.950059379047344
 20
6.925832534492953
 30
0.0
 10
7.951827786406858
 20
6.912255196665234
 30
0.0
 10
7.952617564475082
 20
6.90778452919068
 30
0.0
 10
7.954653704409735
 20
6.898975110421638
 30
0.0
 10
7.95590471331155
 20
6.89463394450216
 30
0.0
 10
7.958865270753282
 20
6.886318279229241
 30
0.0
 10
7.960579307291467
 20
6.882318234718665
 30
0.0
 10
7.964534914714167
 20
6.874683736122468
 30
0.0
 10
7.966797723483563
 20
6.871021577187471
 30
0.0
 10
7.971837147107457
 20
6.86428228328196
 30
0.0
 10
7.974595847660524
 20
6.861218865109177
 30
0.0
 10
7.980620265143369
 20
6.85575037241233
 30
0.0
 10
7.983923364063129
 20
6.853326003447577
 30
0.0
 10
7.990885195099762
 20
6.849315821343403
 30
0.0
 10
7.994526861986393
 20
6.84772698421946
 30
0.0
 10
8.002117360491976
 20
6.845339394160272
 30
0.0
 10
8.006102022470774
 20
6.84453920402693
 30
0.0
 10
8.014170856138282
 20
6.84372412789249
 30
0.0
 10
8.01825030807186
 20
6.843699950052996
 30
0.0
 10
8.026494639185646
 20
6.844318553658257
 30
0.0
 10
8.030685141915983
 20
6.844969425201194
 30
0.0
 10
8.043109734957174
 20
6.84775574378854
 30
0.0
 10
8.051250873452409
 20
6.850696789003988
 30
0.0
 10
8.06334414384215
 20
6.856320304293697
 30
0.0
 10
8.067372877002985
 20
6.858411770299623
 30
0.0
 10
8.075284682040776
 20
6.862905247426468
 30
0.0
 10
8.079172075669154
 20
6.865307064328352
 30
0.0
 10
8.090660137224182
 20
6.87292185373773
 30
0.0
 10
8.098088848529814
 20
6.878539814882637
 30
0.0
 10
8.112576739279378
 20
6.890712601592666
 30
0.0
 10
8.11967168408514
 20
6.897311567815318
 30
0.0
 10
8.13319803732095
 20
6.911087381660887
 30
0.0
 10
8.139663100607358
 20
6.918286963194335
 30
0.0
 10
8.152015590684863
 20
6.933294278035349
 30
0.0
 10
8.157934855007369
 20
6.941149307675969
 30
0.0
 10
8.174524868802566
 20
6.965374086393012
 30
0.0
 10
8.183893595033261
 20
6.982080404277339
 30
0.0
 10
8.194848375821115
 20
7.008215425158946
 30
0.0
 10
8.197978286017996
 20
7.017173643061689
 30
0.0
 10
8.202729623510725
 20
7.034831824278634
 30
0.0
 10
8.204392430829422
 20
7.043605143416401
 30
0.0
 10
8.205625200832486
 20
7.056701030668043
 30
0.0
 10
8.205821592970514
 20
7.061067538164354
 30
0.0
 10
8.20574571912463
 20
7.069584900808282
 30
0.0
 10
8.205477078735056
 20
7.073759189299439
 30
0.0
 10
8.204453879618072
 20
7.081938286687592
 30
0.0
 10
8.203699510601126
 20
7.085943145612192
 30
0.0
 10
8.201662814112616
 20
7.09377696210314
 30
0.0
 10
8.200372222800445
 20
7.097613869662112
 30
0.0
 10
8.195771544986872
 20
7.108524620810755
 30
0.0
 10
8.191721139349973
 20
7.115120071538384
 30
0.0
 10
8.184035995605615
 20
7.123947728630133
 30
0.0
 10
8.181192573034469
 20
7.126713644574184
 30
0.0
 10
8.175089752266024
 20
7.131725486080029
 30
0.0
 10
8.171806262277242
 20
7.133997200341875
 30
0.0
 10
8.161322972432247
 20
7.140049074751621
 30
0.0
  0
SPLINE
  5
25D
330
1F
100
AcDbEntity
  8
0
  6
CONTINUOUS
 62
     7
100
AcDbSpline
210
0.0
220
0.0
230
1.0
 70
     8
 71
     3
 72
    10
 73
     6
 74
     0
 42
0.00000001
 43
0.00000001
 40
0.0
 40
0.0
 40
0.0
 40
0.0
 40
0.414209933671479
 40
0.826164528313269
 40
1.0
 40
1.0
 40
1.0
 40
1.0
 10
8.022157871650586
 20
5.758129725784735
 30
0.0
 10
8.027499260494247
 20
5.755027535634195
 30
0.0
 10
8.038152954758518
 20
5.748840046503401
 30
0.0
 10
8.053109551884264
 20
5.740035647906092
 30
0.0
 10
8.06151714860433
 20
5.735185322915479
 30
0.0
 10
8.064012135504237
 20
5.733745970183089
 30
0.0
  0
SPLINE
  5
25E
330
1F
100
AcDbEntity
  8
0
  6
CONTINUOUS
 62
     7
100
AcDbSpline
210
0.0
220
0.0
230
1.0
 70
     8
 71
     3
 72
    12
 73
     8
 74
     0
 42
0.00000001
 43
0.00000001
 40
0.0
 40
0.0
 40
0.0
 40
0.0
 40
0.0206229197823574
 40
0.2520464524214913
 40
0.4891602404537767
 40
0.8715281471507738
 40
1.0
 40
1.0
 40
1.0
 40
1.0
 10
8.000352061998537
 20
5.770486679664849
 30
0.0
 10
8.000379121582643
 20
5.770469355678645
 30
0.0
 10
8.000709834801208
 20
5.770257627692946
 30
0.0
 10
8.002930751905193
 20
5.769034404431997
 30
0.0
 10
8.007813518642193
 20
5.766307439532482
 30
0.0
 10
8.014698896471474
 20
5.762426935578903
 30
0.0
 10
8.020658965103237
 20
5.758993264775164
 30
0.0
 10
8.022157871650586
 20
5.758129725784733
 30
0.0
  0
POLYLINE
  5
25F
330
1F
100
AcDbEntity
  8
0
  6
CONTINUOUS
 62
     7
100
AcDb2dPolyline
 66
     1
 10
0.0
 20
0.0
 30
0.0
  0
VERTEX
  5
404
330
25F
100
AcDbEntity
  8
0
  6
CONTINUOUS
 62
     7
100
AcDbVertex
100
AcDb2dVertex
 10
7.7112494339
 20
6.2756303384
 30
0.0
  0
VERTEX
  5
405
330
25F
100
AcDbEntity
  8
0
  6
CONTINUOUS
 62
     7
100
AcDbVertex
100
AcDb2dVertex
 10
7.7123556065
 20
6.2374209665
 30
0.0
  0
VERTEX
  5
406
330
25F
100
AcDbEntity
  8
0
  6
CONTINUOUS
 62
     7
100
AcDbVertex
100
AcDb2dVertex
 10
7.7150246057
 20
6.2002151868
 30
0.0
  0
VERTEX
  5
407
330
25F
100
AcDbEntity
  8
0
  6
CONTINUOUS
 62
     7
100
AcDbVertex
100
AcDb2dVertex
 10
7.7192506595
 20
6.1640934595
 30
0.0
  0
VERTEX
  5
408
330
25F
100
AcDbEntity
  8
0
  6
CONTINUOUS
 62
     7
100
AcDbVertex
100
AcDb2dVertex
 10
7.7250246289
 20
6.1291339004
 30
0.0
  0
VERTEX
  5
409
330
25F
100
AcDbEntity
  8
0
  6
CONTINUOUS
 62
     7
100
AcDbVertex
100
AcDb2dVertex
 10
7.7323340273
 20
6.0954121122
 30
0.0
  0
VERTEX
  5
40A
330
25F
100
AcDbEntity
  8
0
  6
CONTINUOUS
 62
     7
100
AcDbVertex
100
AcDb2dVertex
 10
7.7411630474
 20
6.0630010205
 30
0.0
  0
VERTEX
  5
40B
330
25F
100
AcDbEntity
  8
0
  6
CONTINUOUS
 62
     7
100
AcDbVertex
100
AcDb2dVertex
 10
7.751492596
 20
6.0319707167
 30
0.0
  0
VERTEX
  5
40C
330
25F
100
AcDbEntity
  8
0
  6
CONTINUOUS
 62
     7
100
AcDbVertex
100
AcDb2dVertex
 10
7.7633003347
 20
6.002388306
 30
0.0
  0
VERTEX
  5
40D
330
25F
100
AcDbEntity
  8
0
  6
CONTINUOUS
 62
     7
100
AcDbVertex
100
AcDb2dVertex
 10
7.7765607283
 20
5.9743177626
 30
0.0
  0
VERTEX
  5
40E
330
25F
100
AcDbEntity
  8
0
  6
CONTINUOUS
 62
     7
100
AcDbVertex
100
AcDb2dVertex
 10
7.7912451004
 20
5.9478197909
 30
0.0
  0
VERTEX
  5
40F
330
25F
100
AcDbEntity
  8
0
  6
CONTINUOUS
 62
     7
100
AcDbVertex
100
AcDb2dVertex
 10
7.8073216948
 20
5.9229516948
 30
0.0
  0
VERTEX
  5
410
330
25F
100
AcDbEntity
  8
0
  6
CONTINUOUS
 62
     7
100
AcDbVertex
100
AcDb2dVertex
 10
7.8247557449
 20
5.8997672532
 30
0.0
  0
VERTEX
  5
411
330
25F
100
AcDbEntity
  8
0
  6
CONTINUOUS
 62
     7
100
AcDbVertex
100
AcDb2dVertex
 10
7.8435095482
 20
5.8783166042
 30
0.0
  0
VERTEX
  5
412
330
25F
100
AcDbEntity
  8
0
  6
CONTINUOUS
 62
     7
100
AcDbVertex
100
AcDb2dVertex
 10
7.8635425484
 20
5.8586461363
 30
0.0
  0
VERTEX
  5
413
330
25F
100
AcDbEntity
  8
0
  6
CONTINUOUS
 62
     7
100
AcDbVertex
100
AcDb2dVertex
 10
7.8848114225
 20
5.8407983884
 30
0.0
  0
VERTEX
  5
414
330
25F
100
AcDbEntity
  8
0
  6
CONTINUOUS
 62
     7
100
AcDbVertex
100
AcDb2dVertex
 10
7.9072701752
 20
5.8248119575
 30
0.0
  0
VERTEX
  5
415
330
25F
100
AcDbEntity
  8
0
  6
CONTINUOUS
 62
     7
100
AcDbVertex
100
AcDb2dVertex
 10
7.9232566339
 20
5.8149878028
 30
0.0
  0
SEQEND
  5
416
330
25F
100
AcDbEntity
  8
0
  6
CONTINUOUS
 62
     7
  0
LINE
  5
260
330
1F
100
AcDbEntity
  8
0
  6
CONTINUOUS
 62
     7
100
AcDbLine
 10
7.931640327
 20
6.148401384
 30
0.0
 11
7.7112494339
 21
6.2756303384
 31
0.0
  0
LINE
  5
261
330
1F
100
AcDbEntity
  8
0
  6
CONTINUOUS
 62
     7
100
AcDbLine
 10
7.931640327
 20
6.164475022
 30
0.0
 11
7.7112494339
 21
6.2917039765
 31
0.0
  0
POLYLINE
  5
262
330
1F
100
AcDbEntity
  8
0
  6
CONTINUOUS
 62
     7
100
AcDb2dPolyline
 66
     1
 10
0.0
 20
0.0
 30
0.0
  0
VERTEX
  5
417
330
262
100
AcDbEntity
  8
0
  6
CONTINUOUS
 62
     7
100
AcDbVertex
100
AcDb2dVertex
 10
8.772572116
 20
7.6357321301
 30
0.0
  0
VERTEX
  5
418
330
262
100
AcDbEntity
  8
0
  6
CONTINUOUS
 62
     7
100
AcDbVertex
100
AcDb2dVertex
 10
8.7424397584
 20
7.6356590963
 30
0.0
  0
VERTEX
  5
419
330
262
100
AcDbEntity
  8
0
  6
CONTINUOUS
 62
     7
100
AcDbVertex
100
AcDb2dVertex
 10
8.7116425966
 20
7.6335658647
 30
0.0
  0
VERTEX
  5
41A
330
262
100
AcDbEntity
  8
0
  6
CONTINUOUS
 62
     7
100
AcDbVertex
100
AcDb2dVertex
 10
8.6802472318
 20
7.6294569621
 30
0.0
  0
VERTEX
  5
41B
330
262
100
AcDbEntity
  8
0
  6
CONTINUOUS
 62
     7
100
AcDbVertex
100
AcDb2dVertex
 10
8.6483215587
 20
7.6233412743
 30
0.0
  0
VERTEX
  5
41C
330
262
100
AcDbEntity
  8
0
  6
CONTINUOUS
 62
     7
100
AcDbVertex
100
AcDb2dVertex
 10
8.6159346188
 20
7.6152320269
 30
0.0
  0
VERTEX
  5
41D
330
262
100
AcDbEntity
  8
0
  6
CONTINUOUS
 62
     7
100
AcDbVertex
100
AcDb2dVertex
 10
8.5831564512
 20
7.6051467567
 30
0.0
  0
VERTEX
  5
41E
330
262
100
AcDbEntity
  8
0
  6
CONTINUOUS
 62
     7
100
AcDbVertex
100
AcDb2dVertex
 10
8.550057941
 20
7.5931072738
 30
0.0
  0
VERTEX
  5
41F
330
262
100
AcDbEntity
  8
0
  6
CONTINUOUS
 62
     7
100
AcDbVertex
100
AcDb2dVertex
 10
8.5167106661
 20
7.5791396146
 30
0.0
  0
VERTEX
  5
420
330
262
100
AcDbEntity
  8
0
  6
CONTINUOUS
 62
     7
100
AcDbVertex
100
AcDb2dVertex
 10
8.4831867425
 20
7.5632739849
 30
0.0
  0
VERTEX
  5
421
330
262
100
AcDbEntity
  8
0
  6
CONTINUOUS
 62
     7
100
AcDbVertex
100
AcDb2dVertex
 10
8.4495586679
 20
7.5455446955
 30
0.0
  0
VERTEX
  5
422
330
262
100
AcDbEntity
  8
0
  6
CONTINUOUS
 62
     7
100
AcDbVertex
100
AcDb2dVertex
 10
8.4158991656
 20
7.5259900871
 30
0.0
  0
VERTEX
  5
423
330
262
100
AcDbEntity
  8
0
  6
CONTINUOUS
 62
     7
100
AcDbVertex
100
AcDb2dVertex
 10
8.3822810265
 20
7.5046524481
 30
0.0
  0
VERTEX
  5
424
330
262
100
AcDbEntity
  8
0
  6
CONTINUOUS
 62
     7
100
AcDbVertex
100
AcDb2dVertex
 10
8.3487769523
 20
7.4815779225
 30
0.0
  0
VERTEX
  5
425
330
262
100
AcDbEntity
  8
0
  6
CONTINUOUS
 62
     7
100
AcDbVertex
100
AcDb2dVertex
 10
8.3154593981
 20
7.4568164107
 30
0.0
  0
VERTEX
  5
426
330
262
100
AcDbEntity
  8
0
  6
CONTINUOUS
 62
     7
100
AcDbVertex
100
AcDb2dVertex
 10
8.2824004153
 20
7.4304214612
 30
0.0
  0
VERTEX
  5
427
330
262
100
AcDbEntity
  8
0
  6
CONTINUOUS
 62
     7
100
AcDbVertex
100
AcDb2dVertex
 10
8.2496714964
 20
7.402450155
 30
0.0
  0
VERTEX
  5
428
330
262
100
AcDbEntity
  8
0
  6
CONTINUOUS
 62
     7
100
AcDbVertex
100
AcDb2dVertex
 10
8.21734342
 20
7.3729629821
 30
0.0
  0
VERTEX
  5
429
330
262
100
AcDbEntity
  8
0
  6
CONTINUOUS
 62
     7
100
AcDbVertex
100
AcDb2dVertex
 10
8.1854860979
 20
7.3420237105
 30
0.0
  0
VERTEX
  5
42A
330
262
100
AcDbEntity
  8
0
  6
CONTINUOUS
 62
     7
100
AcDbVertex
100
AcDb2dVertex
 10
8.1541684238
 20
7.3096992487
 30
0.0
  0
VERTEX
  5
42B
330
262
100
AcDbEntity
  8
0
  6
CONTINUOUS
 62
     7
100
AcDbVertex
100
AcDb2dVertex
 10
8.1234581245
 20
7.2760595007
 30
0.0
  0
VERTEX
  5
42C
330
262
100
AcDbEntity
  8
0
  6
CONTINUOUS
 62
     7
100
AcDbVertex
100
AcDb2dVertex
 10
8.0934216132
 20
7.2411772147
 30
0.0
  0
VERTEX
  5
42D
330
262
100
AcDbEntity
  8
0
  6
CONTINUOUS
 62
     7
100
AcDbVertex
100
AcDb2dVertex
 10
8.064123846
 20
7.2051278262
 30
0.0
  0
VERTEX
  5
42E
330
262
100
AcDbEntity
  8
0
  6
CONTINUOUS
 62
     7
100
AcDbVertex
100
AcDb2dVertex
 10
8.0356281813
 20
7.1679892946
 30
0.0
  0
VERTEX
  5
42F
330
262
100
AcDbEntity
  8
0
  6
CONTINUOUS
 62
     7
100
AcDbVertex
100
AcDb2dVertex
 10
8.0079962432
 20
7.1298419347
 30
0.0
  0
VERTEX
  5
430
330
262
100
AcDbEntity
  8
0
  6
CONTINUOUS
 62
     7
100
AcDbVertex
100
AcDb2dVertex
 10
7.9812877876
 20
7.0907682429
 30
0.0
  0
VERTEX
  5
431
330
262
100
AcDbEntity
  8
0
  6
CONTINUOUS
 62
     7
100
AcDbVertex
100
AcDb2dVertex
 10
7.9555605735
 20
7.0508527187
 30
0.0
  0
VERTEX
  5
432
330
262
100
AcDbEntity
  8
0
  6
CONTINUOUS
 62
     7
100
AcDbVertex
100
AcDb2dVertex
 10
7.9308702378
 20
7.0101816824
 30
0.0
  0
VERTEX
  5
433
330
262
100
AcDbEntity
  8
0
  6
CONTINUOUS
 62
     7
100
AcDbVertex
100
AcDb2dVertex
 10
7.9072701752
 20
6.9688430879
 30
0.0
  0
VERTEX
  5
434
330
262
100
AcDbEntity
  8
0
  6
CONTINUOUS
 62
     7
100
AcDbVertex
100
AcDb2dVertex
 10
7.8848114225
 20
6.9269263331
 30
0.0
  0
VERTEX
  5
435
330
262
100
AcDbEntity
  8
0
  6
CONTINUOUS
 62
     7
100
AcDbVertex
100
AcDb2dVertex
 10
7.8635425484
 20
6.8845220658
 30
0.0
  0
VERTEX
  5
436
330
262
100
AcDbEntity
  8
0
  6
CONTINUOUS
 62
     7
100
AcDbVertex
100
AcDb2dVertex
 10
7.8435095482
 20
6.8417219883
 30
0.0
  0
VERTEX
  5
437
330
262
100
AcDbEntity
  8
0
  6
CONTINUOUS
 62
     7
100
AcDbVertex
100
AcDb2dVertex
 10
7.8247557449
 20
6.7986186589
 30
0.0
  0
VERTEX
  5
438
330
262
100
AcDbEntity
  8
0
  6
CONTINUOUS
 62
     7
100
AcDbVertex
100
AcDb2dVertex
 10
7.8073216948
 20
6.7553052915
 30
0.0
  0
VERTEX
  5
439
330
262
100
AcDbEntity
  8
0
  6
CONTINUOUS
 62
     7
100
AcDbVertex
100
AcDb2dVertex
 10
7.7912451004
 20
6.7118755545
 30
0.0
  0
VERTEX
  5
43A
330
262
100
AcDbEntity
  8
0
  6
CONTINUOUS
 62
     7
100
AcDbVertex
100
AcDb2dVertex
 10
7.7765607283
 20
6.6684233677
 30
0.0
  0
VERTEX
  5
43B
330
262
100
AcDbEntity
  8
0
  6
CONTINUOUS
 62
     7
100
AcDbVertex
100
AcDb2dVertex
 10
7.7633003347
 20
6.6250426997
 30
0.0
  0
VERTEX
  5
43C
330
262
100
AcDbEntity
  8
0
  6
CONTINUOUS
 62
     7
100
AcDbVertex
100
AcDb2dVertex
 10
7.751492596
 20
6.5818273642
 30
0.0
  0
VERTEX
  5
43D
330
262
100
AcDbEntity
  8
0
  6
CONTINUOUS
 62
     7
100
AcDbVertex
100
AcDb2dVertex
 10
7.7411630474
 20
6.5388708174
 30
0.0
  0
VERTEX
  5
43E
330
262
100
AcDbEntity
  8
0
  6
CONTINUOUS
 62
     7
100
AcDbVertex
100
AcDb2dVertex
 10
7.7323340273
 20
6.496265956
 30
0.0
  0
VERTEX
  5
43F
330
262
100
AcDbEntity
  8
0
  6
CONTINUOUS
 62
     7
100
AcDbVertex
100
AcDb2dVertex
 10
7.7250246289
 20
6.4541049161
 30
0.0
  0
VERTEX
  5
440
330
262
100
AcDbEntity
  8
0
  6
CONTINUOUS
 62
     7
100
AcDbVertex
100
AcDb2dVertex
 10
7.7192506595
 20
6.4124788739
 30
0.0
  0
VERTEX
  5
441
330
262
100
AcDbEntity
  8
0
  6
CONTINUOUS
 62
     7
100
AcDbVertex
100
AcDb2dVertex
 10
7.7150246057
 20
6.3714778487
 30
0.0
  0
VERTEX
  5
442
330
262
100
AcDbEntity
  8
0
  6
CONTINUOUS
 62
     7
100
AcDbVertex
100
AcDb2dVertex
 10
7.7123556065
 20
6.3311905081
 30
0.0
  0
VERTEX
  5
443
330
262
100
AcDbEntity
  8
0
  6
CONTINUOUS
 62
     7
100
AcDbVertex
100
AcDb2dVertex
 10
7.7112494339
 20
6.2917039765
 30
0.0
  0
SEQEND
  5
444
330
262
100
AcDbEntity
  8
0
  6
CONTINUOUS
 62
     7
  0
LINE
  5
263
330
1F
100
AcDbEntity
  8
0
  6
CONTINUOUS
 62
     7
100
AcDbLine
 10
8.7540128829
 20
7.6464461473
 30
0.0
 11
8.772572116
 21
7.6357321301
 31
0.0
  0
POLYLINE
  5
264
330
1F
100
AcDbEntity
  8
0
  6
CONTINUOUS
 62
     7
100
AcDb2dPolyline
 66
     1
 10
0.0
 20
0.0
 30
0.0
  0
VERTEX
  5
445
330
264
100
AcDbEntity
  8
0
  6
CONTINUOUS
 62
     7
100
AcDbVertex
100
AcDb2dVertex
 10
7.9140611278
 20
5.8204905108
 30
0.0
  0
VERTEX
  5
446
330
264
100
AcDbEntity
  8
0
  6
CONTINUOUS
 62
     7
100
AcDbVertex
100
AcDb2dVertex
 10
7.9092553848
 20
5.8231170023
 30
0.0
  0
VERTEX
  5
447
330
264
100
AcDbEntity
  8
0
  6
CONTINUOUS
 62
     7
100
AcDbVertex
100
AcDb2dVertex
 10
7.8856897872
 20
5.8375216901
 30
0.0
  0
VERTEX
  5
448
330
264
100
AcDbEntity
  8
0
  6
CONTINUOUS
 62
     7
100
AcDbVertex
100
AcDb2dVertex
 10
7.8632828436
 20
5.853835766
 30
0.0
  0
VERTEX
  5
449
330
264
100
AcDbEntity
  8
0
  6
CONTINUOUS
 62
     7
100
AcDbVertex
100
AcDb2dVertex
 10
7.8420834668
 20
5.8720236173
 30
0.0
  0
VERTEX
  5
44A
330
264
100
AcDbEntity
  8
0
  6
CONTINUOUS
 62
     7
100
AcDbVertex
100
AcDb2dVertex
 10
7.822137934
 20
5.8920455411
 30
0.0
  0
VERTEX
  5
44B
330
264
100
AcDbEntity
  8
0
  6
CONTINUOUS
 62
     7
100
AcDbVertex
100
AcDb2dVertex
 10
7.8034897849
 20
5.9138578306
 30
0.0
  0
VERTEX
  5
44C
330
264
100
AcDbEntity
  8
0
  6
CONTINUOUS
 62
     7
100
AcDbVertex
100
AcDb2dVertex
 10
7.7861797273
 20
5.9374128711
 30
0.0
  0
VERTEX
  5
44D
330
264
100
AcDbEntity
  8
0
  6
CONTINUOUS
 62
     7
100
AcDbVertex
100
AcDb2dVertex
 10
7.7702455481
 20
5.9626592432
 30
0.0
  0
VERTEX
  5
44E
330
264
100
AcDbEntity
  8
0
  6
CONTINUOUS
 62
     7
100
AcDbVertex
100
AcDb2dVertex
 10
7.7557220305
 20
5.9895418358
 30
0.0
  0
VERTEX
  5
44F
330
264
100
AcDbEntity
  8
0
  6
CONTINUOUS
 62
     7
100
AcDbVertex
100
AcDb2dVertex
 10
7.7426408785
 20
6.0180019656
 30
0.0
  0
VERTEX
  5
450
330
264
100
AcDbEntity
  8
0
  6
CONTINUOUS
 62
     7
100
AcDbVertex
100
AcDb2dVertex
 10
7.7310306476
 20
6.0479775061
 30
0.0
  0
VERTEX
  5
451
330
264
100
AcDbEntity
  8
0
  6
CONTINUOUS
 62
     7
100
AcDbVertex
100
AcDb2dVertex
 10
7.720916682
 20
6.0794030225
 30
0.0
  0
VERTEX
  5
452
330
264
100
AcDbEntity
  8
0
  6
CONTINUOUS
 62
     7
100
AcDbVertex
100
AcDb2dVertex
 10
7.71232106
 20
6.1122099147
 30
0.0
  0
VERTEX
  5
453
330
264
100
AcDbEntity
  8
0
  6
CONTINUOUS
 62
     7
100
AcDbVertex
100
AcDb2dVertex
 10
7.7052625453
 20
6.1463265672
 30
0.0
  0
VERTEX
  5
454
330
264
100
AcDbEntity
  8
0
  6
CONTINUOUS
 62
     7
100
AcDbVertex
100
AcDb2dVertex
 10
7.6997565462
 20
6.1816785057
 30
0.0
  0
VERTEX
  5
455
330
264
100
AcDbEntity
  8
0
  6
CONTINUOUS
 62
     7
100
AcDbVertex
100
AcDb2dVertex
 10
7.695815082
 20
6.2181885588
 30
0.0
  0
VERTEX
  5
456
330
264
100
AcDbEntity
  8
0
  6
CONTINUOUS
 62
     7
100
AcDbVertex
100
AcDb2dVertex
 10
7.6934467566
 20
6.2557770274
 30
0.0
  0
VERTEX
  5
457
330
264
100
AcDbEntity
  8
0
  6
CONTINUOUS
 62
     7
100
AcDbVertex
100
AcDb2dVertex
 10
7.6926567399
 20
6.2943618581
 30
0.0
  0
VERTEX
  5
458
330
264
100
AcDbEntity
  8
0
  6
CONTINUOUS
 62
     7
100
AcDbVertex
100
AcDb2dVertex
 10
7.6934467566
 20
6.3338588226
 30
0.0
  0
VERTEX
  5
459
330
264
100
AcDbEntity
  8
0
  6
CONTINUOUS
 62
     7
100
AcDbVertex
100
AcDb2dVertex
 10
7.695815082
 20
6.3741817015
 30
0.0
  0
VERTEX
  5
45A
330
264
100
AcDbEntity
  8
0
  6
CONTINUOUS
 62
     7
100
AcDbVertex
100
AcDb2dVertex
 10
7.6997565462
 20
6.4152424724
 30
0.0
  0
VERTEX
  5
45B
330
264
100
AcDbEntity
  8
0
  6
CONTINUOUS
 62
     7
100
AcDbVertex
100
AcDb2dVertex
 10
7.7052625453
 20
6.4569515021
 30
0.0
  0
VERTEX
  5
45C
330
264
100
AcDbEntity
  8
0
  6
CONTINUOUS
 62
     7
100
AcDbVertex
100
AcDb2dVertex
 10
7.71232106
 20
6.4992177422
 30
0.0
  0
VERTEX
  5
45D
330
264
100
AcDbEntity
  8
0
  6
CONTINUOUS
 62
     7
100
AcDbVertex
100
AcDb2dVertex
 10
7.720916682
 20
6.5419489283
 30
0.0
  0
VERTEX
  5
45E
330
264
100
AcDbEntity
  8
0
  6
CONTINUOUS
 62
     7
100
AcDbVertex
100
AcDb2dVertex
 10
7.7310306476
 20
6.5850517808
 30
0.0
  0
VERTEX
  5
45F
330
264
100
AcDbEntity
  8
0
  6
CONTINUOUS
 62
     7
100
AcDbVertex
100
AcDb2dVertex
 10
7.7426408785
 20
6.6284322086
 30
0.0
  0
VERTEX
  5
460
330
264
100
AcDbEntity
  8
0
  6
CONTINUOUS
 62
     7
100
AcDbVertex
100
AcDb2dVertex
 10
7.7557220305
 20
6.6719955151
 30
0.0
  0
VERTEX
  5
461
330
264
100
AcDbEntity
  8
0
  6
CONTINUOUS
 62
     7
100
AcDbVertex
100
AcDb2dVertex
 10
7.7702455481
 20
6.7156466041
 30
0.0
  0
VERTEX
  5
462
330
264
100
AcDbEntity
  8
0
  6
CONTINUOUS
 62
     7
100
AcDbVertex
100
AcDb2dVertex
 10
7.7861797273
 20
6.759290188
 30
0.0
  0
VERTEX
  5
463
330
264
100
AcDbEntity
  8
0
  6
CONTINUOUS
 62
     7
100
AcDbVertex
100
AcDb2dVertex
 10
7.8034897849
 20
6.8028309955
 30
0.0
  0
VERTEX
  5
464
330
264
100
AcDbEntity
  8
0
  6
CONTINUOUS
 62
     7
100
AcDbVertex
100
AcDb2dVertex
 10
7.822137934
 20
6.8461739797
 30
0.0
  0
VERTEX
  5
465
330
264
100
AcDbEntity
  8
0
  6
CONTINUOUS
 62
     7
100
AcDbVertex
100
AcDb2dVertex
 10
7.8420834668
 20
6.8892245255
 30
0.0
  0
VERTEX
  5
466
330
264
100
AcDbEntity
  8
0
  6
CONTINUOUS
 62
     7
100
AcDbVertex
100
AcDb2dVertex
 10
7.8632828436
 20
6.9318886562
 30
0.0
  0
VERTEX
  5
467
330
264
100
AcDbEntity
  8
0
  6
CONTINUOUS
 62
     7
100
AcDbVertex
100
AcDb2dVertex
 10
7.8856897872
 20
6.9740732385
 30
0.0
  0
VERTEX
  5
468
330
264
100
AcDbEntity
  8
0
  6
CONTINUOUS
 62
     7
100
AcDbVertex
100
AcDb2dVertex
 10
7.9092553848
 20
7.0156861861
 30
0.0
  0
VERTEX
  5
469
330
264
100
AcDbEntity
  8
0
  6
CONTINUOUS
 62
     7
100
AcDbVertex
100
AcDb2dVertex
 10
7.933928194
 20
7.0566366606
 30
0.0
  0
VERTEX
  5
46A
330
264
100
AcDbEntity
  8
0
  6
CONTINUOUS
 62
     7
100
AcDbVertex
100
AcDb2dVertex
 10
7.9596543557
 20
7.0968352693
 30
0.0
  0
VERTEX
  5
46B
330
264
100
AcDbEntity
  8
0
  6
CONTINUOUS
 62
     7
100
AcDbVertex
100
AcDb2dVertex
 10
7.9863777111
 20
7.1361942614
 30
0.0
  0
VERTEX
  5
46C
330
264
100
AcDbEntity
  8
0
  6
CONTINUOUS
 62
     7
100
AcDbVertex
100
AcDb2dVertex
 10
8.0140399249
 20
7.1746277185
 30
0.0
  0
VERTEX
  5
46D
330
264
100
AcDbEntity
  8
0
  6
CONTINUOUS
 62
     7
100
AcDbVertex
100
AcDb2dVertex
 10
8.0425806121
 20
7.2120517426
 30
0.0
  0
VERTEX
  5
46E
330
264
100
AcDbEntity
  8
0
  6
CONTINUOUS
 62
     7
100
AcDbVertex
100
AcDb2dVertex
 10
8.0719374701
 20
7.2483846395
 30
0.0
  0
VERTEX
  5
46F
330
264
100
AcDbEntity
  8
0
  6
CONTINUOUS
 62
     7
100
AcDbVertex
100
AcDb2dVertex
 10
8.1020464147
 20
7.2835470967
 30
0.0
  0
VERTEX
  5
470
330
264
100
AcDbEntity
  8
0
  6
CONTINUOUS
 62
     7
100
AcDbVertex
100
AcDb2dVertex
 10
8.13284172
 20
7.3174623565
 30
0.0
  0
VERTEX
  5
471
330
264
100
AcDbEntity
  8
0
  6
CONTINUOUS
 62
     7
100
AcDbVertex
100
AcDb2dVertex
 10
8.1642561615
 20
7.3500563842
 30
0.0
  0
VERTEX
  5
472
330
264
100
AcDbEntity
  8
0
  6
CONTINUOUS
 62
     7
100
AcDbVertex
100
AcDb2dVertex
 10
8.1962211635
 20
7.3812580289
 30
0.0
  0
VERTEX
  5
473
330
264
100
AcDbEntity
  8
0
  6
CONTINUOUS
 62
     7
100
AcDbVertex
100
AcDb2dVertex
 10
8.2286669485
 20
7.4109991793
 30
0.0
  0
VERTEX
  5
474
330
264
100
AcDbEntity
  8
0
  6
CONTINUOUS
 62
     7
100
AcDbVertex
100
AcDb2dVertex
 10
8.2615226891
 20
7.4392149123
 30
0.0
  0
VERTEX
  5
475
330
264
100
AcDbEntity
  8
0
  6
CONTINUOUS
 62
     7
100
AcDbVertex
100
AcDb2dVertex
 10
8.2947166633
 20
7.4658436347
 30
0.0
  0
VERTEX
  5
476
330
264
100
AcDbEntity
  8
0
  6
CONTINUOUS
 62
     7
100
AcDbVertex
100
AcDb2dVertex
 10
8.3281764107
 20
7.4908272176
 30
0.0
  0
VERTEX
  5
477
330
264
100
AcDbEntity
  8
0
  6
CONTINUOUS
 62
     7
100
AcDbVertex
100
AcDb2dVertex
 10
8.3618288908
 20
7.5141111234
 30
0.0
  0
VERTEX
  5
478
330
264
100
AcDbEntity
  8
0
  6
CONTINUOUS
 62
     7
100
AcDbVertex
100
AcDb2dVertex
 10
8.3956006421
 20
7.5356445247
 30
0.0
  0
VERTEX
  5
479
330
264
100
AcDbEntity
  8
0
  6
CONTINUOUS
 62
     7
100
AcDbVertex
100
AcDb2dVertex
 10
8.429417943
 20
7.5553804154
 30
0.0
  0
VERTEX
  5
47A
330
264
100
AcDbEntity
  8
0
  6
CONTINUOUS
 62
     7
100
AcDbVertex
100
AcDb2dVertex
 10
8.4632069725
 20
7.5732757132
 30
0.0
  0
VERTEX
  5
47B
330
264
100
AcDbEntity
  8
0
  6
CONTINUOUS
 62
     7
100
AcDbVertex
100
AcDb2dVertex
 10
8.4968939711
 20
7.5892913539
 30
0.0
  0
VERTEX
  5
47C
330
264
100
AcDbEntity
  8
0
  6
CONTINUOUS
 62
     7
100
AcDbVertex
100
AcDb2dVertex
 10
8.5304054021
 20
7.6033923763
 30
0.0
  0
VERTEX
  5
47D
330
264
100
AcDbEntity
  8
0
  6
CONTINUOUS
 62
     7
100
AcDbVertex
100
AcDb2dVertex
 10
8.5636681122
 20
7.6155479987
 30
0.0
  0
VERTEX
  5
47E
330
264
100
AcDbEntity
  8
0
  6
CONTINUOUS
 62
     7
100
AcDbVertex
100
AcDb2dVertex
 10
8.5966094908
 20
7.625731686
 30
0.0
  0
VERTEX
  5
47F
330
264
100
AcDbEntity
  8
0
  6
CONTINUOUS
 62
     7
100
AcDbVertex
100
AcDb2dVertex
 10
8.629157629
 20
7.633921208
 30
0.0
  0
VERTEX
  5
480
330
264
100
AcDbEntity
  8
0
  6
CONTINUOUS
 62
     7
100
AcDbVertex
100
AcDb2dVertex
 10
8.6612414762
 20
7.6400986874
 30
0.0
  0
VERTEX
  5
481
330
264
100
AcDbEntity
  8
0
  6
CONTINUOUS
 62
     7
100
AcDbVertex
100
AcDb2dVertex
 10
8.6927909952
 20
7.6442506392
 30
0.0
  0
VERTEX
  5
482
330
264
100
AcDbEntity
  8
0
  6
CONTINUOUS
 62
     7
100
AcDbVertex
100
AcDb2dVertex
 10
8.7237373154
 20
7.6463679998
 30
0.0
  0
VERTEX
  5
483
330
264
100
AcDbEntity
  8
0
  6
CONTINUOUS
 62
     7
100
AcDbVertex
100
AcDb2dVertex
 10
8.7540128829
 20
7.6464461473
 30
0.0
  0
SEQEND
  5
484
330
264
100
AcDbEntity
  8
0
  6
CONTINUOUS
 62
     7
  0
LINE
  5
265
330
1F
100
AcDbEntity
  8
0
  6
CONTINUOUS
 62
     7
100
AcDbLine
 10
8.8864710278
 20
6.7095639919
 30
0.0
 11
8.8864710278
 21
6.6934903538
 31
0.0
  0
LINE
  5
266
330
1F
100
AcDbEntity
  8
0
  6
CONTINUOUS
 62
     7
100
AcDbLine
 10
8.8864710278
 20
6.7095639919
 30
0.0
 11
8.8747017794
 21
6.7027697494
 31
0.0
  0
POLYLINE
  5
267
330
1F
100
AcDbEntity
  8
0
  6
CONTINUOUS
 62
     7
100
AcDb2dPolyline
 66
     1
 10
0.0
 20
0.0
 30
0.0
  0
VERTEX
  5
485
330
267
100
AcDbEntity
  8
0
  6
CONTINUOUS
 62
     7
100
AcDbVertex
100
AcDb2dVertex
 10
8.4467387365
 20
6.4557119435
 30
0.0
  0
VERTEX
  5
486
330
267
100
AcDbEntity
  8
0
  6
CONTINUOUS
 62
     7
100
AcDbVertex
100
AcDb2dVertex
 10
8.448113716
 20
6.4775677094
 30
0.0
  0
VERTEX
  5
487
330
267
100
AcDbEntity
  8
0
  6
CONTINUOUS
 62
     7
100
AcDbVertex
100
AcDb2dVertex
 10
8.4510405098
 20
6.5001069263
 30
0.0
  0
VERTEX
  5
488
330
267
100
AcDbEntity
  8
0
  6
CONTINUOUS
 62
     7
100
AcDbVertex
100
AcDb2dVertex
 10
8.4554977552
 20
6.5231650808
 30
0.0
  0
VERTEX
  5
489
330
267
100
AcDbEntity
  8
0
  6
CONTINUOUS
 62
     7
100
AcDbVertex
100
AcDb2dVertex
 10
8.4614529188
 20
6.5465738712
 30
0.0
  0
VERTEX
  5
48A
330
267
100
AcDbEntity
  8
0
  6
CONTINUOUS
 62
     7
100
AcDbVertex
100
AcDb2dVertex
 10
8.4688625338
 20
6.5701624371
 30
0.0
  0
VERTEX
  5
48B
330
267
100
AcDbEntity
  8
0
  6
CONTINUOUS
 62
     7
100
AcDbVertex
100
AcDb2dVertex
 10
8.4776725176
 20
6.5937586056
 30
0.0
  0
VERTEX
  5
48C
330
267
100
AcDbEntity
  8
0
  6
CONTINUOUS
 62
     7
100
AcDbVertex
100
AcDb2dVertex
 10
8.487818566
 20
6.6171901482
 30
0.0
  0
VERTEX
  5
48D
330
267
100
AcDbEntity
  8
0
  6
CONTINUOUS
 62
     7
100
AcDbVertex
100
AcDb2dVertex
 10
8.4992266232
 20
6.6402860384
 30
0.0
  0
VERTEX
  5
48E
330
267
100
AcDbEntity
  8
0
  6
CONTINUOUS
 62
     7
100
AcDbVertex
100
AcDb2dVertex
 10
8.5118134217
 20
6.6628776993
 30
0.0
  0
VERTEX
  5
48F
330
267
100
AcDbEntity
  8
0
  6
CONTINUOUS
 62
     7
100
AcDbVertex
100
AcDb2dVertex
 10
8.5254870906
 20
6.6848002344
 30
0.0
  0
VERTEX
  5
490
330
267
100
AcDbEntity
  8
0
  6
CONTINUOUS
 62
     7
100
AcDbVertex
100
AcDb2dVertex
 10
8.5401478257
 20
6.7058936313
 30
0.0
  0
VERTEX
  5
491
330
267
100
AcDbEntity
  8
0
  6
CONTINUOUS
 62
     7
100
AcDbVertex
100
AcDb2dVertex
 10
8.5556886186
 20
6.7260039293
 30
0.0
  0
VERTEX
  5
492
330
267
100
AcDbEntity
  8
0
  6
CONTINUOUS
 62
     7
100
AcDbVertex
100
AcDb2dVertex
 10
8.571996037
 20
6.7449843435
 30
0.0
  0
VERTEX
  5
493
330
267
100
AcDbEntity
  8
0
  6
CONTINUOUS
 62
     7
100
AcDbVertex
100
AcDb2dVertex
 10
8.588951053
 20
6.762696336
 30
0.0
  0
VERTEX
  5
494
330
267
100
AcDbEntity
  8
0
  6
CONTINUOUS
 62
     7
100
AcDbVertex
100
AcDb2dVertex
 10
8.6064299122
 20
6.7790106268
 30
0.0
  0
VERTEX
  5
495
330
267
100
AcDbEntity
  8
0
  6
CONTINUOUS
 62
     7
100
AcDbVertex
100
AcDb2dVertex
 10
8.6243050364
 20
6.7938081382
 30
0.0
  0
VERTEX
  5
496
330
267
100
AcDbEntity
  8
0
  6
CONTINUOUS
 62
     7
100
AcDbVertex
100
AcDb2dVertex
 10
8.6424459551
 20
6.8069808632
 30
0.0
  0
VERTEX
  5
497
330
267
100
AcDbEntity
  8
0
  6
CONTINUOUS
 62
     7
100
AcDbVertex
100
AcDb2dVertex
 10
8.6607202579
 20
6.818432654
 30
0.0
  0
VERTEX
  5
498
330
267
100
AcDbEntity
  8
0
  6
CONTINUOUS
 62
     7
100
AcDbVertex
100
AcDb2dVertex
 10
8.6789945607
 20
6.8280799241
 30
0.0
  0
VERTEX
  5
499
330
267
100
AcDbEntity
  8
0
  6
CONTINUOUS
 62
     7
100
AcDbVertex
100
AcDb2dVertex
 10
8.6971354795
 20
6.8358522581
 30
0.0
  0
VERTEX
  5
49A
330
267
100
AcDbEntity
  8
0
  6
CONTINUOUS
 62
     7
100
AcDbVertex
100
AcDb2dVertex
 10
8.7150106037
 20
6.8416929258
 30
0.0
  0
VERTEX
  5
49B
330
267
100
AcDbEntity
  8
0
  6
CONTINUOUS
 62
     7
100
AcDbVertex
100
AcDb2dVertex
 10
8.7324894628
 20
6.8455592962
 30
0.0
  0
VERTEX
  5
49C
330
267
100
AcDbEntity
  8
0
  6
CONTINUOUS
 62
     7
100
AcDbVertex
100
AcDb2dVertex
 10
8.7494444789
 20
6.8474231486
 30
0.0
  0
VERTEX
  5
49D
330
267
100
AcDbEntity
  8
0
  6
CONTINUOUS
 62
     7
100
AcDbVertex
100
AcDb2dVertex
 10
8.7657518973
 20
6.8472708789
 30
0.0
  0
VERTEX
  5
49E
330
267
100
AcDbEntity
  8
0
  6
CONTINUOUS
 62
     7
100
AcDbVertex
100
AcDb2dVertex
 10
8.7812926901
 20
6.8451035983
 30
0.0
  0
VERTEX
  5
49F
330
267
100
AcDbEntity
  8
0
  6
CONTINUOUS
 62
     7
100
AcDbVertex
100
AcDb2dVertex
 10
8.7959534253
 20
6.840937126
 30
0.0
  0
VERTEX
  5
4A0
330
267
100
AcDbEntity
  8
0
  6
CONTINUOUS
 62
     7
100
AcDbVertex
100
AcDb2dVertex
 10
8.8096270942
 20
6.8348018729
 30
0.0
  0
VERTEX
  5
4A1
330
267
100
AcDbEntity
  8
0
  6
CONTINUOUS
 62
     7
100
AcDbVertex
100
AcDb2dVertex
 10
8.8222138927
 20
6.8267426202
 30
0.0
  0
VERTEX
  5
4A2
330
267
100
AcDbEntity
  8
0
  6
CONTINUOUS
 62
     7
100
AcDbVertex
100
AcDb2dVertex
 10
8.8336219498
 20
6.8168181925
 30
0.0
  0
VERTEX
  5
4A3
330
267
100
AcDbEntity
  8
0
  6
CONTINUOUS
 62
     7
100
AcDbVertex
100
AcDb2dVertex
 10
8.8437679983
 20
6.805101028
 30
0.0
  0
VERTEX
  5
4A4
330
267
100
AcDbEntity
  8
0
  6
CONTINUOUS
 62
     7
100
AcDbVertex
100
AcDb2dVertex
 10
8.852577982
 20
6.7916766503
 30
0.0
  0
VERTEX
  5
4A5
330
267
100
AcDbEntity
  8
0
  6
CONTINUOUS
 62
     7
100
AcDbVertex
100
AcDb2dVertex
 10
8.8599875971
 20
6.7766430438
 30
0.0
  0
VERTEX
  5
4A6
330
267
100
AcDbEntity
  8
0
  6
CONTINUOUS
 62
     7
100
AcDbVertex
100
AcDb2dVertex
 10
8.8659427606
 20
6.7601099389
 30
0.0
  0
VERTEX
  5
4A7
330
267
100
AcDbEntity
  8
0
  6
CONTINUOUS
 62
     7
100
AcDbVertex
100
AcDb2dVertex
 10
8.870400006
 20
6.7421980104
 30
0.0
  0
VERTEX
  5
4A8
330
267
100
AcDbEntity
  8
0
  6
CONTINUOUS
 62
     7
100
AcDbVertex
100
AcDb2dVertex
 10
8.8733267998
 20
6.7230379977
 30
0.0
  0
VERTEX
  5
4A9
330
267
100
AcDbEntity
  8
0
  6
CONTINUOUS
 62
     7
100
AcDbVertex
100
AcDb2dVertex
 10
8.8747017794
 20
6.7027697494
 30
0.0
  0
SEQEND
  5
4AA
330
267
100
AcDbEntity
  8
0
  6
CONTINUOUS
 62
     7
  0
LINE
  5
268
330
1F
100
AcDbEntity
  8
0
  6
CONTINUOUS
 62
     7
100
AcDbLine
 10
7.9422471757
 20
6.1644751646
 30
0.0
 11
8.4467387365
 21
6.4557119435
 31
0.0
  0
LINE
  5
269
330
1F
100
AcDbEntity
  8
0
  6
CONTINUOUS
 62
     7
100
AcDbLine
 10
7.9422471757
 20
6.1484015266
 30
0.0
 11
8.4467387365
 21
6.4396383055
 31
0.0
  0
POLYLINE
  5
26A
330
1F
100
AcDbEntity
  8
0
  6
CONTINUOUS
 62
     7
100
AcDb2dPolyline
 66
     1
 10
0.0
 20
0.0
 30
0.0
  0
VERTEX
  5
4AB
330
26A
100
AcDbEntity
  8
0
  6
CONTINUOUS
 62
     7
100
AcDbVertex
100
AcDb2dVertex
 10
8.8747017794
 20
6.6866961114
 30
0.0
  0
VERTEX
  5
4AC
330
26A
100
AcDbEntity
  8
0
  6
CONTINUOUS
 62
     7
100
AcDbVertex
100
AcDb2dVertex
 10
8.8733267998
 20
6.6648403455
 30
0.0
  0
VERTEX
  5
4AD
330
26A
100
AcDbEntity
  8
0
  6
CONTINUOUS
 62
     7
100
AcDbVertex
100
AcDb2dVertex
 10
8.870400006
 20
6.6423011285
 30
0.0
  0
VERTEX
  5
4AE
330
26A
100
AcDbEntity
  8
0
  6
CONTINUOUS
 62
     7
100
AcDbVertex
100
AcDb2dVertex
 10
8.8659427606
 20
6.6192429741
 30
0.0
  0
VERTEX
  5
4AF
330
26A
100
AcDbEntity
  8
0
  6
CONTINUOUS
 62
     7
100
AcDbVertex
100
AcDb2dVertex
 10
8.8599875971
 20
6.5958341836
 30
0.0
  0
VERTEX
  5
4B0
330
26A
100
AcDbEntity
  8
0
  6
CONTINUOUS
 62
     7
100
AcDbVertex
100
AcDb2dVertex
 10
8.852577982
 20
6.5722456178
 30
0.0
  0
VERTEX
  5
4B1
330
26A
100
AcDbEntity
  8
0
  6
CONTINUOUS
 62
     7
100
AcDbVertex
100
AcDb2dVertex
 10
8.8437679983
 20
6.5486494493
 30
0.0
  0
VERTEX
  5
4B2
330
26A
100
AcDbEntity
  8
0
  6
CONTINUOUS
 62
     7
100
AcDbVertex
100
AcDb2dVertex
 10
8.8336219498
 20
6.5252179066
 30
0.0
  0
VERTEX
  5
4B3
330
26A
100
AcDbEntity
  8
0
  6
CONTINUOUS
 62
     7
100
AcDbVertex
100
AcDb2dVertex
 10
8.8222138927
 20
6.5021220165
 30
0.0
  0
VERTEX
  5
4B4
330
26A
100
AcDbEntity
  8
0
  6
CONTINUOUS
 62
     7
100
AcDbVertex
100
AcDb2dVertex
 10
8.8096270942
 20
6.4795303556
 30
0.0
  0
VERTEX
  5
4B5
330
26A
100
AcDbEntity
  8
0
  6
CONTINUOUS
 62
     7
100
AcDbVertex
100
AcDb2dVertex
 10
8.7959534253
 20
6.4576078205
 30
0.0
  0
VERTEX
  5
4B6
330
26A
100
AcDbEntity
  8
0
  6
CONTINUOUS
 62
     7
100
AcDbVertex
100
AcDb2dVertex
 10
8.7812926901
 20
6.4365144236
 30
0.0
  0
VERTEX
  5
4B7
330
26A
100
AcDbEntity
  8
0
  6
CONTINUOUS
 62
     7
100
AcDbVertex
100
AcDb2dVertex
 10
8.7657518973
 20
6.4164041255
 30
0.0
  0
VERTEX
  5
4B8
330
26A
100
AcDbEntity
  8
0
  6
CONTINUOUS
 62
     7
100
AcDbVertex
100
AcDb2dVertex
 10
8.7494444789
 20
6.3974237113
 30
0.0
  0
VERTEX
  5
4B9
330
26A
100
AcDbEntity
  8
0
  6
CONTINUOUS
 62
     7
100
AcDbVertex
100
AcDb2dVertex
 10
8.7324894628
 20
6.3797117189
 30
0.0
  0
VERTEX
  5
4BA
330
26A
100
AcDbEntity
  8
0
  6
CONTINUOUS
 62
     7
100
AcDbVertex
100
AcDb2dVertex
 10
8.7150106037
 20
6.363397428
 30
0.0
  0
VERTEX
  5
4BB
330
26A
100
AcDbEntity
  8
0
  6
CONTINUOUS
 62
     7
100
AcDbVertex
100
AcDb2dVertex
 10
8.6971354795
 20
6.3485999166
 30
0.0
  0
VERTEX
  5
4BC
330
26A
100
AcDbEntity
  8
0
  6
CONTINUOUS
 62
     7
100
AcDbVertex
100
AcDb2dVertex
 10
8.6789945607
 20
6.3354271917
 30
0.0
  0
VERTEX
  5
4BD
330
26A
100
AcDbEntity
  8
0
  6
CONTINUOUS
 62
     7
100
AcDbVertex
100
AcDb2dVertex
 10
8.6607202579
 20
6.3239754009
 30
0.0
  0
VERTEX
  5
4BE
330
26A
100
AcDbEntity
  8
0
  6
CONTINUOUS
 62
     7
100
AcDbVertex
100
AcDb2dVertex
 10
8.6424459551
 20
6.3143281308
 30
0.0
  0
VERTEX
  5
4BF
330
26A
100
AcDbEntity
  8
0
  6
CONTINUOUS
 62
     7
100
AcDbVertex
100
AcDb2dVertex
 10
8.6243050364
 20
6.3065557968
 30
0.0
  0
VERTEX
  5
4C0
330
26A
100
AcDbEntity
  8
0
  6
CONTINUOUS
 62
     7
100
AcDbVertex
100
AcDb2dVertex
 10
8.6064299122
 20
6.3007151291
 30
0.0
  0
VERTEX
  5
4C1
330
26A
100
AcDbEntity
  8
0
  6
CONTINUOUS
 62
     7
100
AcDbVertex
100
AcDb2dVertex
 10
8.588951053
 20
6.2968487587
 30
0.0
  0
VERTEX
  5
4C2
330
26A
100
AcDbEntity
  8
0
  6
CONTINUOUS
 62
     7
100
AcDbVertex
100
AcDb2dVertex
 10
8.571996037
 20
6.2949849063
 30
0.0
  0
VERTEX
  5
4C3
330
26A
100
AcDbEntity
  8
0
  6
CONTINUOUS
 62
     7
100
AcDbVertex
100
AcDb2dVertex
 10
8.5556886186
 20
6.295137176
 30
0.0
  0
VERTEX
  5
4C4
330
26A
100
AcDbEntity
  8
0
  6
CONTINUOUS
 62
     7
100
AcDbVertex
100
AcDb2dVertex
 10
8.5401478257
 20
6.2973044565
 30
0.0
  0
VERTEX
  5
4C5
330
26A
100
AcDbEntity
  8
0
  6
CONTINUOUS
 62
     7
100
AcDbVertex
100
AcDb2dVertex
 10
8.5254870906
 20
6.3014709289
 30
0.0
  0
VERTEX
  5
4C6
330
26A
100
AcDbEntity
  8
0
  6
CONTINUOUS
 62
     7
100
AcDbVertex
100
AcDb2dVertex
 10
8.5118134217
 20
6.307606182
 30
0.0
  0
VERTEX
  5
4C7
330
26A
100
AcDbEntity
  8
0
  6
CONTINUOUS
 62
     7
100
AcDbVertex
100
AcDb2dVertex
 10
8.4992266232
 20
6.3156654346
 30
0.0
  0
VERTEX
  5
4C8
330
26A
100
AcDbEntity
  8
0
  6
CONTINUOUS
 62
     7
100
AcDbVertex
100
AcDb2dVertex
 10
8.487818566
 20
6.3255898624
 30
0.0
  0
VERTEX
  5
4C9
330
26A
100
AcDbEntity
  8
0
  6
CONTINUOUS
 62
     7
100
AcDbVertex
100
AcDb2dVertex
 10
8.4776725176
 20
6.3373070269
 30
0.0
  0
VERTEX
  5
4CA
330
26A
100
AcDbEntity
  8
0
  6
CONTINUOUS
 62
     7
100
AcDbVertex
100
AcDb2dVertex
 10
8.4688625338
 20
6.3507314046
 30
0.0
  0
VERTEX
  5
4CB
330
26A
100
AcDbEntity
  8
0
  6
CONTINUOUS
 62
     7
100
AcDbVertex
100
AcDb2dVertex
 10
8.4614529188
 20
6.365765011
 30
0.0
  0
VERTEX
  5
4CC
330
26A
100
AcDbEntity
  8
0
  6
CONTINUOUS
 62
     7
100
AcDbVertex
100
AcDb2dVertex
 10
8.4554977552
 20
6.382298116
 30
0.0
  0
VERTEX
  5
4CD
330
26A
100
AcDbEntity
  8
0
  6
CONTINUOUS
 62
     7
100
AcDbVertex
100
AcDb2dVertex
 10
8.4510405098
 20
6.4002100444
 30
0.0
  0
VERTEX
  5
4CE
330
26A
100
AcDbEntity
  8
0
  6
CONTINUOUS
 62
     7
100
AcDbVertex
100
AcDb2dVertex
 10
8.448113716
 20
6.4193700572
 30
0.0
  0
VERTEX
  5
4CF
330
26A
100
AcDbEntity
  8
0
  6
CONTINUOUS
 62
     7
100
AcDbVertex
100
AcDb2dVertex
 10
8.4467387365
 20
6.4396383055
 30
0.0
  0
SEQEND
  5
4D0
330
26A
100
AcDbEntity
  8
0
  6
CONTINUOUS
 62
     7
  0
LINE
  5
26B
330
1F
100
AcDbEntity
  8
0
  6
CONTINUOUS
 62
     7
100
AcDbLine
 10
8.8747017794
 20
6.6866961114
 30
0.0
 11
8.8864710278
 21
6.6934903538
 31
0.0
  0
LINE
  5
26C
330
1F
100
AcDbEntity
  8
0
  6
CONTINUOUS
 62
     7
100
AcDbLine
 10
8.7540128829
 20
7.6359253587
 30
0.0
 11
8.7540128829
 21
7.6464461473
 31
0.0
  0
ARC
  5
26D
330
1F
100
AcDbEntity
  8
0
  6
CONTINUOUS
 62
     7
100
AcDbCircle
 10
8.1549649038
 20
6.8631703787
 30
0.0
 40
0.4729006506329341
100
AcDbArc
 50
308.6081261567
 51
351.397250376
  0
LINE
  5
26E
330
1F
100
AcDbEntity
  8
0
  6
CONTINUOUS
 62
     7
100
AcDbLine
 10
8.4467387365
 20
6.4396383055
 30
0.0
 11
8.4467416121
 21
6.4457630264
 31
0.0
  0
LINE
  5
26F
330
1F
100
AcDbEntity
  8
0
  6
CONTINUOUS
 62
     7
100
AcDbLine
 10
8.4381232257
 20
6.450738315
 30
0.0
 11
8.4467416121
 21
6.4457630264
 31
0.0
  0
LINE
  5
270
330
1F
100
AcDbEntity
  8
0
  6
CONTINUOUS
 62
     7
100
AcDbLine
 10
7.7251711212
 20
6.2836671575
 30
0.0
 11
7.7112494339
 21
6.2756303384
 31
0.0
  0
LINE
  5
271
330
1F
100
AcDbEntity
  8
0
  6
CONTINUOUS
 62
     7
100
AcDbLine
 10
8.864092302
 20
6.7027680893
 30
0.0
 11
8.8747017794
 21
6.7027697494
 31
0.0
  0
POLYLINE
  5
272
330
1F
100
AcDbEntity
  8
0
  6
CONTINUOUS
 62
     7
100
AcDb2dPolyline
 66
     1
 10
0.0
 20
0.0
 30
0.0
  0
VERTEX
  5
4D1
330
272
100
AcDbEntity
  8
0
  6
CONTINUOUS
 62
     7
100
AcDbVertex
100
AcDb2dVertex
 10
8.864092302
 20
6.7027680893
 30
0.0
  0
VERTEX
  5
4D2
330
272
100
AcDbEntity
  8
0
  6
CONTINUOUS
 62
     7
100
AcDbVertex
100
AcDb2dVertex
 10
8.8626768384
 20
6.723063133
 30
0.0
  0
VERTEX
  5
4D3
330
272
100
AcDbEntity
  8
0
  6
CONTINUOUS
 62
     7
100
AcDbVertex
100
AcDb2dVertex
 10
8.8596626796
 20
6.7422104295
 30
0.0
  0
VERTEX
  5
4D4
330
272
100
AcDbEntity
  8
0
  6
CONTINUOUS
 62
     7
100
AcDbVertex
100
AcDb2dVertex
 10
8.8550730755
 20
6.7600622864
 30
0.0
  0
VERTEX
  5
4D5
330
272
100
AcDbEntity
  8
0
  6
CONTINUOUS
 62
     7
100
AcDbVertex
100
AcDb2dVertex
 10
8.8489434277
 20
6.7764810038
 30
0.0
  0
VERTEX
  5
4D6
330
272
100
AcDbEntity
  8
0
  6
CONTINUOUS
 62
     7
100
AcDbVertex
100
AcDb2dVertex
 10
8.8413210172
 20
6.7913399363
 30
0.0
  0
VERTEX
  5
4D7
330
272
100
AcDbEntity
  8
0
  6
CONTINUOUS
 62
     7
100
AcDbVertex
100
AcDb2dVertex
 10
8.8322646393
 20
6.8045244698
 30
0.0
  0
VERTEX
  5
4D8
330
272
100
AcDbEntity
  8
0
  6
CONTINUOUS
 62
     7
100
AcDbVertex
100
AcDb2dVertex
 10
8.8218441502
 20
6.8159329056
 30
0.0
  0
VERTEX
  5
4D9
330
272
100
AcDbEntity
  8
0
  6
CONTINUOUS
 62
     7
100
AcDbVertex
100
AcDb2dVertex
 10
8.8101399282
 20
6.8254772449
 30
0.0
  0
VERTEX
  5
4DA
330
272
100
AcDbEntity
  8
0
  6
CONTINUOUS
 62
     7
100
AcDbVertex
100
AcDb2dVertex
 10
8.7972422536
 20
6.8330838678
 30
0.0
  0
VERTEX
  5
4DB
330
272
100
AcDbEntity
  8
0
  6
CONTINUOUS
 62
     7
100
AcDbVertex
100
AcDb2dVertex
 10
8.7832506122
 20
6.8386941006
 30
0.0
  0
VERTEX
  5
4DC
330
272
100
AcDbEntity
  8
0
  6
CONTINUOUS
 62
     7
100
AcDbVertex
100
AcDb2dVertex
 10
8.7682729284
 20
6.842264669
 30
0.0
  0
VERTEX
  5
4DD
330
272
100
AcDbEntity
  8
0
  6
CONTINUOUS
 62
     7
100
AcDbVertex
100
AcDb2dVertex
 10
8.7524247323
 20
6.8437680313
 30
0.0
  0
VERTEX
  5
4DE
330
272
100
AcDbEntity
  8
0
  6
CONTINUOUS
 62
     7
100
AcDbVertex
100
AcDb2dVertex
 10
8.7358282685
 20
6.8431925916
 30
0.0
  0
VERTEX
  5
4DF
330
272
100
AcDbEntity
  8
0
  6
CONTINUOUS
 62
     7
100
AcDbVertex
100
AcDb2dVertex
 10
8.7186115537
 20
6.8405427883
 30
0.0
  0
VERTEX
  5
4E0
330
272
100
AcDbEntity
  8
0
  6
CONTINUOUS
 62
     7
100
AcDbVertex
100
AcDb2dVertex
 10
8.7009073885
 20
6.8358390608
 30
0.0
  0
VERTEX
  5
4E1
330
272
100
AcDbEntity
  8
0
  6
CONTINUOUS
 62
     7
100
AcDbVertex
100
AcDb2dVertex
 10
8.6828523338
 20
6.8291176911
 30
0.0
  0
VERTEX
  5
4E2
330
272
100
AcDbEntity
  8
0
  6
CONTINUOUS
 62
     7
100
AcDbVertex
100
AcDb2dVertex
 10
8.6645856568
 20
6.8204305244
 30
0.0
  0
VERTEX
  5
4E3
330
272
100
AcDbEntity
  8
0
  6
CONTINUOUS
 62
     7
100
AcDbVertex
100
AcDb2dVertex
 10
8.6580176193
 20
6.8168527546
 30
0.0
  0
SEQEND
  5
4E4
330
272
100
AcDbEntity
  8
0
  6
CONTINUOUS
 62
     7
  0
LINE
  5
273
330
1F
100
AcDbEntity
  8
0
  6
CONTINUOUS
 62
     7
100
AcDbLine
 10
8.864092302
 20
6.7027680893
 30
0.0
 11
8.7832789472
 21
6.749420646
 31
0.0
  0
SPLINE
  5
274
330
1F
100
AcDbEntity
  8
0
  6
CONTINUOUS
 62
     7
100
AcDbSpline
210
0.0
220
0.0
230
1.0
 70
     8
 71
     3
 72
     8
 73
     4
 74
     0
 42
0.00000001
 43
0.00000001
 40
0.0
 40
0.0
 40
0.0
 40
0.0
 40
1.0
 40
1.0
 40
1.0
 40
1.0
 10
8.78327894721886
 20
6.749420646020501
 30
0.0
 10
8.78380856843126
 20
6.743935689099642
 30
0.0
 10
8.78380856843126
 20
6.738577809756559
 30
0.0
 10
8.78327894721886
 20
6.733347007991254
 30
0.0
  0
LINE
  5
275
330
1F
100
AcDbEntity
  8
0
  6
CONTINUOUS
 62
     7
100
AcDbLine
 10
8.864092302
 20
6.6866944513
 30
0.0
 11
8.7832789472
 21
6.733347008
 31
0.0
  0
POLYLINE
  5
276
330
1F
100
AcDbEntity
  8
0
  6
CONTINUOUS
 62
     7
100
AcDb2dPolyline
 66
     1
 10
0.0
 20
0.0
 30
0.0
  0
VERTEX
  5
4E5
330
276
100
AcDbEntity
  8
0
  6
CONTINUOUS
 62
     7
100
AcDbVertex
100
AcDb2dVertex
 10
8.4467416121
 20
6.4457630264
 30
0.0
  0
VERTEX
  5
4E6
330
276
100
AcDbEntity
  8
0
  6
CONTINUOUS
 62
     7
100
AcDbVertex
100
AcDb2dVertex
 10
8.4481570758
 20
6.4254679827
 30
0.0
  0
VERTEX
  5
4E7
330
276
100
AcDbEntity
  8
0
  6
CONTINUOUS
 62
     7
100
AcDbVertex
100
AcDb2dVertex
 10
8.4511712345
 20
6.4063206863
 30
0.0
  0
VERTEX
  5
4E8
330
276
100
AcDbEntity
  8
0
  6
CONTINUOUS
 62
     7
100
AcDbVertex
100
AcDb2dVertex
 10
8.4557608387
 20
6.3884688293
 30
0.0
  0
VERTEX
  5
4E9
330
276
100
AcDbEntity
  8
0
  6
CONTINUOUS
 62
     7
100
AcDbVertex
100
AcDb2dVertex
 10
8.4618904865
 20
6.3720501119
 30
0.0
  0
VERTEX
  5
4EA
330
276
100
AcDbEntity
  8
0
  6
CONTINUOUS
 62
     7
100
AcDbVertex
100
AcDb2dVertex
 10
8.469512897
 20
6.3571911794
 30
0.0
  0
VERTEX
  5
4EB
330
276
100
AcDbEntity
  8
0
  6
CONTINUOUS
 62
     7
100
AcDbVertex
100
AcDb2dVertex
 10
8.4785692748
 20
6.3440066459
 30
0.0
  0
VERTEX
  5
4EC
330
276
100
AcDbEntity
  8
0
  6
CONTINUOUS
 62
     7
100
AcDbVertex
100
AcDb2dVertex
 10
8.4889897639
 20
6.3325982101
 30
0.0
  0
VERTEX
  5
4ED
330
276
100
AcDbEntity
  8
0
  6
CONTINUOUS
 62
     7
100
AcDbVertex
100
AcDb2dVertex
 10
8.5006939859
 20
6.3230538708
 30
0.0
  0
VERTEX
  5
4EE
330
276
100
AcDbEntity
  8
0
  6
CONTINUOUS
 62
     7
100
AcDbVertex
100
AcDb2dVertex
 10
8.5135916606
 20
6.3154472479
 30
0.0
  0
VERTEX
  5
4EF
330
276
100
AcDbEntity
  8
0
  6
CONTINUOUS
 62
     7
100
AcDbVertex
100
AcDb2dVertex
 10
8.5275833019
 20
6.3098370151
 30
0.0
  0
VERTEX
  5
4F0
330
276
100
AcDbEntity
  8
0
  6
CONTINUOUS
 62
     7
100
AcDbVertex
100
AcDb2dVertex
 10
8.5425609857
 20
6.3062664467
 30
0.0
  0
VERTEX
  5
4F1
330
276
100
AcDbEntity
  8
0
  6
CONTINUOUS
 62
     7
100
AcDbVertex
100
AcDb2dVertex
 10
8.5584091819
 20
6.3047630844
 30
0.0
  0
VERTEX
  5
4F2
330
276
100
AcDbEntity
  8
0
  6
CONTINUOUS
 62
     7
100
AcDbVertex
100
AcDb2dVertex
 10
8.5750056456
 20
6.3053385241
 30
0.0
  0
VERTEX
  5
4F3
330
276
100
AcDbEntity
  8
0
  6
CONTINUOUS
 62
     7
100
AcDbVertex
100
AcDb2dVertex
 10
8.5922223605
 20
6.3079883274
 30
0.0
  0
VERTEX
  5
4F4
330
276
100
AcDbEntity
  8
0
  6
CONTINUOUS
 62
     7
100
AcDbVertex
100
AcDb2dVertex
 10
8.6099265256
 20
6.3126920549
 30
0.0
  0
VERTEX
  5
4F5
330
276
100
AcDbEntity
  8
0
  6
CONTINUOUS
 62
     7
100
AcDbVertex
100
AcDb2dVertex
 10
8.6279815803
 20
6.3194134246
 30
0.0
  0
VERTEX
  5
4F6
330
276
100
AcDbEntity
  8
0
  6
CONTINUOUS
 62
     7
100
AcDbVertex
100
AcDb2dVertex
 10
8.6462482573
 20
6.3281005913
 30
0.0
  0
VERTEX
  5
4F7
330
276
100
AcDbEntity
  8
0
  6
CONTINUOUS
 62
     7
100
AcDbVertex
100
AcDb2dVertex
 10
8.6645856568
 20
6.3386865467
 30
0.0
  0
VERTEX
  5
4F8
330
276
100
AcDbEntity
  8
0
  6
CONTINUOUS
 62
     7
100
AcDbVertex
100
AcDb2dVertex
 10
8.6828523338
 20
6.3510896363
 30
0.0
  0
VERTEX
  5
4F9
330
276
100
AcDbEntity
  8
0
  6
CONTINUOUS
 62
     7
100
AcDbVertex
100
AcDb2dVertex
 10
8.7009073885
 20
6.3652141891
 30
0.0
  0
VERTEX
  5
4FA
330
276
100
AcDbEntity
  8
0
  6
CONTINUOUS
 62
     7
100
AcDbVertex
100
AcDb2dVertex
 10
8.7186115537
 20
6.3809512556
 30
0.0
  0
VERTEX
  5
4FB
330
276
100
AcDbEntity
  8
0
  6
CONTINUOUS
 62
     7
100
AcDbVertex
100
AcDb2dVertex
 10
8.7358282685
 20
6.3981794482
 30
0.0
  0
VERTEX
  5
4FC
330
276
100
AcDbEntity
  8
0
  6
CONTINUOUS
 62
     7
100
AcDbVertex
100
AcDb2dVertex
 10
8.7524247323
 20
6.4167658776
 30
0.0
  0
VERTEX
  5
4FD
330
276
100
AcDbEntity
  8
0
  6
CONTINUOUS
 62
     7
100
AcDbVertex
100
AcDb2dVertex
 10
8.7682729284
 20
6.4365671777
 30
0.0
  0
VERTEX
  5
4FE
330
276
100
AcDbEntity
  8
0
  6
CONTINUOUS
 62
     7
100
AcDbVertex
100
AcDb2dVertex
 10
8.7832506122
 20
6.4574306117
 30
0.0
  0
VERTEX
  5
4FF
330
276
100
AcDbEntity
  8
0
  6
CONTINUOUS
 62
     7
100
AcDbVertex
100
AcDb2dVertex
 10
8.7972422536
 20
6.4791952498
 30
0.0
  0
VERTEX
  5
500
330
276
100
AcDbEntity
  8
0
  6
CONTINUOUS
 62
     7
100
AcDbVertex
100
AcDb2dVertex
 10
8.8101399282
 20
6.5016932108
 30
0.0
  0
VERTEX
  5
501
330
276
100
AcDbEntity
  8
0
  6
CONTINUOUS
 62
     7
100
AcDbVertex
100
AcDb2dVertex
 10
8.8218441502
 20
6.5247509573
 30
0.0
  0
VERTEX
  5
502
330
276
100
AcDbEntity
  8
0
  6
CONTINUOUS
 62
     7
100
AcDbVertex
100
AcDb2dVertex
 10
8.8322646393
 20
6.5481906337
 30
0.0
  0
VERTEX
  5
503
330
276
100
AcDbEntity
  8
0
  6
CONTINUOUS
 62
     7
100
AcDbVertex
100
AcDb2dVertex
 10
8.8413210172
 20
6.5718314384
 30
0.0
  0
VERTEX
  5
504
330
276
100
AcDbEntity
  8
0
  6
CONTINUOUS
 62
     7
100
AcDbVertex
100
AcDb2dVertex
 10
8.8489434277
 20
6.5954910188
 30
0.0
  0
VERTEX
  5
505
330
276
100
AcDbEntity
  8
0
  6
CONTINUOUS
 62
     7
100
AcDbVertex
100
AcDb2dVertex
 10
8.8550730755
 20
6.6189868769
 30
0.0
  0
VERTEX
  5
506
330
276
100
AcDbEntity
  8
0
  6
CONTINUOUS
 62
     7
100
AcDbVertex
100
AcDb2dVertex
 10
8.8596626796
 20
6.642137778
 30
0.0
  0
VERTEX
  5
507
330
276
100
AcDbEntity
  8
0
  6
CONTINUOUS
 62
     7
100
AcDbVertex
100
AcDb2dVertex
 10
8.8626768384
 20
6.6647651481
 30
0.0
  0
VERTEX
  5
508
330
276
100
AcDbEntity
  8
0
  6
CONTINUOUS
 62
     7
100
AcDbVertex
100
AcDb2dVertex
 10
8.864092302
 20
6.6866944513
 30
0.0
  0
SEQEND
  5
509
330
276
100
AcDbEntity
  8
0
  6
CONTINUOUS
 62
     7
  0
ARC
  5
277
330
1F
100
AcDbEntity
  8
0
  6
CONTINUOUS
 62
     7
100
AcDbCircle
 10
8.1860897286
 20
6.8452023998
 30
0.0
 40
0.4589055206991725
100
AcDbArc
 50
304.6976701731
 51
355.3077063596
  0
LINE
  5
278
330
1F
100
AcDbEntity
  8
0
  6
CONTINUOUS
 62
     7
100
AcDbLine
 10
8.864092302
 20
6.6866944513
 30
0.0
 11
8.8747017794
 21
6.6866961114
 31
0.0
  0
POLYLINE
  5
279
330
1F
100
AcDbEntity
  8
0
  6
CONTINUOUS
 62
     7
100
AcDb2dPolyline
 66
     1
 10
0.0
 20
0.0
 30
0.0
  0
VERTEX
  5
50A
330
279
100
AcDbEntity
  8
0
  6
CONTINUOUS
 62
     7
100
AcDbVertex
100
AcDb2dVertex
 10
8.8864710278
 20
6.6934903538
 30
0.0
  0
VERTEX
  5
50B
330
279
100
AcDbEntity
  8
0
  6
CONTINUOUS
 62
     7
100
AcDbVertex
100
AcDb2dVertex
 10
8.8751607055
 20
6.6997077168
 30
0.0
  0
VERTEX
  5
50C
330
279
100
AcDbEntity
  8
0
  6
CONTINUOUS
 62
     7
100
AcDbVertex
100
AcDb2dVertex
 10
8.8681947658
 20
6.7032484162
 30
0.0
  0
SEQEND
  5
50D
330
279
100
AcDbEntity
  8
0
  6
CONTINUOUS
 62
     7
  0
ARC
  5
27A
330
1F
100
AcDbEntity
  8
0
  6
CONTINUOUS
 62
     7
100
AcDbCircle
 10
8.6848230565
 20
6.3179503268
 30
0.0
 40
0.4269051009087236
100
AcDbArc
 50
67.8588390465
 51
76.6660047193
  0
LINE
  5
27B
330
1F
100
AcDbEntity
  8
0
  6
CONTINUOUS
 62
     7
100
AcDbLine
 10
8.0954846944
 20
6.8819007746
 30
0.0
 11
8.1144844254
 21
6.8928690859
 31
0.0
  0
LINE
  5
27C
330
1F
100
AcDbEntity
  8
0
  6
CONTINUOUS
 62
     7
100
AcDbLine
 10
8.139637622
 20
6.9184953233
 30
0.0
 11
8.126053873
 21
6.9477610633
 31
0.0
  0
LINE
  5
27D
330
1F
100
AcDbEntity
  8
0
  6
CONTINUOUS
 62
     7
100
AcDbLine
 10
8.126053873
 20
6.9477610633
 30
0.0
 11
8.0601864475
 21
6.9579496854
 31
0.0
  0
LINE
  5
27E
330
1F
100
AcDbEntity
  8
0
  6
CONTINUOUS
 62
     7
100
AcDbLine
 10
8.0601864475
 20
6.9579496854
 30
0.0
 11
8.0119681455
 21
6.9301138521
 31
0.0
  0
LINE
  5
27F
330
1F
100
AcDbEntity
  8
0
  6
CONTINUOUS
 62
     7
100
AcDbLine
 10
8.0119681455
 20
6.9301138521
 30
0.0
 11
8.0296172689
 21
6.8920893968
 31
0.0
  0
LINE
  5
280
330
1F
100
AcDbEntity
  8
0
  6
CONTINUOUS
 62
     7
100
AcDbLine
 10
8.0296172689
 20
6.8920893968
 30
0.0
 11
8.0954846944
 21
6.8819007746
 31
0.0
  0
LINE
  5
281
330
1F
100
AcDbEntity
  8
0
  6
CONTINUOUS
 62
     7
100
AcDbLine
 10
8.126053873
 20
6.9043923818
 30
0.0
 11
8.126053873
 21
6.9477610633
 31
0.0
  0
LINE
  5
282
330
1F
100
AcDbEntity
  8
0
  6
CONTINUOUS
 62
     7
100
AcDbLine
 10
8.0601864475
 20
6.8873608408
 30
0.0
 11
8.0601864475
 21
6.9579496854
 31
0.0
  0
ARC
  5
283
330
1F
100
AcDbEntity
  8
0
  6
CONTINUOUS
 62
     7
100
AcDbCircle
 10
8.2596337895
 20
7.5053308197
 30
0.0
 40
0.1350703696329293
100
AcDbArc
 50
106.8609870836
 51
140.4369736963
  0
LINE
  5
284
330
1F
100
AcDbEntity
  8
0
  6
CONTINUOUS
 62
     7
100
AcDbLine
 10
8.1144490538
 20
7.5656858955
 30
0.0
 11
8.1089322572
 21
7.5561305236
 31
0.0
  0
LINE
  5
285
330
1F
100
AcDbEntity
  8
0
  6
CONTINUOUS
 62
     7
100
AcDbLine
 10
7.5318780688
 20
6.5566433535
 30
0.0
 11
7.5263533549
 21
6.5470742683
 31
0.0
  0
POLYLINE
  5
286
330
1F
100
AcDbEntity
  8
0
  6
CONTINUOUS
 62
     7
100
AcDb2dPolyline
 66
     1
 10
0.0
 20
0.0
 30
0.0
  0
VERTEX
  5
50E
330
286
100
AcDbEntity
  8
0
  6
CONTINUOUS
 62
     7
100
AcDbVertex
100
AcDb2dVertex
 10
8.2671517783
 20
7.6615015856
 30
0.0
  0
VERTEX
  5
50F
330
286
100
AcDbEntity
  8
0
  6
CONTINUOUS
 62
     7
100
AcDbVertex
100
AcDb2dVertex
 10
8.2641675486
 20
7.6625744244
 30
0.0
  0
VERTEX
  5
510
330
286
100
AcDbEntity
  8
0
  6
CONTINUOUS
 62
     7
100
AcDbVertex
100
AcDb2dVertex
 10
8.2529280154
 20
7.6650447356
 30
0.0
  0
VERTEX
  5
511
330
286
100
AcDbEntity
  8
0
  6
CONTINUOUS
 62
     7
100
AcDbVertex
100
AcDb2dVertex
 10
8.2408352966
 20
7.6653927484
 30
0.0
  0
VERTEX
  5
512
330
286
100
AcDbEntity
  8
0
  6
CONTINUOUS
 62
     7
100
AcDbVertex
100
AcDb2dVertex
 10
8.2280657313
 20
7.6636133882
 30
0.0
  0
VERTEX
  5
513
330
286
100
AcDbEntity
  8
0
  6
CONTINUOUS
 62
     7
100
AcDbVertex
100
AcDb2dVertex
 10
8.2148055286
 20
7.6597326019
 30
0.0
  0
VERTEX
  5
514
330
286
100
AcDbEntity
  8
0
  6
CONTINUOUS
 62
     7
100
AcDbVertex
100
AcDb2dVertex
 10
8.2012480521
 20
7.6538069803
 30
0.0
  0
VERTEX
  5
515
330
286
100
AcDbEntity
  8
0
  6
CONTINUOUS
 62
     7
100
AcDbVertex
100
AcDb2dVertex
 10
8.1875910003
 20
7.6459229321
 30
0.0
  0
VERTEX
  5
516
330
286
100
AcDbEntity
  8
0
  6
CONTINUOUS
 62
     7
100
AcDbVertex
100
AcDb2dVertex
 10
8.1740335238
 20
7.6361954246
 30
0.0
  0
VERTEX
  5
517
330
286
100
AcDbEntity
  8
0
  6
CONTINUOUS
 62
     7
100
AcDbVertex
100
AcDb2dVertex
 10
8.1607733212
 20
7.6247663067
 30
0.0
  0
VERTEX
  5
518
330
286
100
AcDbEntity
  8
0
  6
CONTINUOUS
 62
     7
100
AcDbVertex
100
AcDb2dVertex
 10
8.1480037559
 20
7.6118022407
 30
0.0
  0
VERTEX
  5
519
330
286
100
AcDbEntity
  8
0
  6
CONTINUOUS
 62
     7
100
AcDbVertex
100
AcDb2dVertex
 10
8.1359110371
 20
7.5974922719
 30
0.0
  0
VERTEX
  5
51A
330
286
100
AcDbEntity
  8
0
  6
CONTINUOUS
 62
     7
100
AcDbVertex
100
AcDb2dVertex
 10
8.1246715038
 20
7.5820450719
 30
0.0
  0
VERTEX
  5
51B
330
286
100
AcDbEntity
  8
0
  6
CONTINUOUS
 62
     7
100
AcDbVertex
100
AcDb2dVertex
 10
8.1144490538
 20
7.5656858955
 30
0.0
  0
SEQEND
  5
51C
330
286
100
AcDbEntity
  8
0
  6
CONTINUOUS
 62
     7
  0
POLYLINE
  5
287
330
1F
100
AcDbEntity
  8
0
  6
CONTINUOUS
 62
     7
100
AcDb2dPolyline
 66
     1
 10
0.0
 20
0.0
 30
0.0
  0
VERTEX
  5
51D
330
287
100
AcDbEntity
  8
0
  6
CONTINUOUS
 62
     7
100
AcDbVertex
100
AcDb2dVertex
 10
7.5263533549
 20
6.5470742683
 30
0.0
  0
VERTEX
  5
51E
330
287
100
AcDbEntity
  8
0
  6
CONTINUOUS
 62
     7
100
AcDbVertex
100
AcDb2dVertex
 10
7.5172970544
 20
6.5300416693
 30
0.0
  0
VERTEX
  5
51F
330
287
100
AcDbEntity
  8
0
  6
CONTINUOUS
 62
     7
100
AcDbVertex
100
AcDb2dVertex
 10
7.5095389647
 20
6.5125840213
 30
0.0
  0
VERTEX
  5
520
330
287
100
AcDbEntity
  8
0
  6
CONTINUOUS
 62
     7
100
AcDbVertex
100
AcDb2dVertex
 10
7.5031922163
 20
6.4949558961
 30
0.0
  0
VERTEX
  5
521
330
287
100
AcDbEntity
  8
0
  6
CONTINUOUS
 62
     7
100
AcDbVertex
100
AcDb2dVertex
 10
7.498349359
 20
6.4774143514
 30
0.0
  0
VERTEX
  5
522
330
287
100
AcDbEntity
  8
0
  6
CONTINUOUS
 62
     7
100
AcDbVertex
100
AcDb2dVertex
 10
7.4950810126
 20
6.4602151826
 30
0.0
  0
VERTEX
  5
523
330
287
100
AcDbEntity
  8
0
  6
CONTINUOUS
 62
     7
100
AcDbVertex
100
AcDb2dVertex
 10
7.4934348369
 20
6.4436091921
 30
0.0
  0
VERTEX
  5
524
330
287
100
AcDbEntity
  8
0
  6
CONTINUOUS
 62
     7
100
AcDbVertex
100
AcDb2dVertex
 10
7.4934348369
 20
6.4278385328
 30
0.0
  0
VERTEX
  5
525
330
287
100
AcDbEntity
  8
0
  6
CONTINUOUS
 62
     7
100
AcDbVertex
100
AcDb2dVertex
 10
7.4950810126
 20
6.4131331763
 30
0.0
  0
VERTEX
  5
526
330
287
100
AcDbEntity
  8
0
  6
CONTINUOUS
 62
     7
100
AcDbVertex
100
AcDb2dVertex
 10
7.498349359
 20
6.3997075599
 30
0.0
  0
VERTEX
  5
527
330
287
100
AcDbEntity
  8
0
  6
CONTINUOUS
 62
     7
100
AcDbVertex
100
AcDb2dVertex
 10
7.5031922163
 20
6.3877574593
 30
0.0
  0
VERTEX
  5
528
330
287
100
AcDbEntity
  8
0
  6
CONTINUOUS
 62
     7
100
AcDbVertex
100
AcDb2dVertex
 10
7.5095389647
 20
6.3774571339
 30
0.0
  0
VERTEX
  5
529
330
287
100
AcDbEntity
  8
0
  6
CONTINUOUS
 62
     7
100
AcDbVertex
100
AcDb2dVertex
 10
7.5172970544
 20
6.3689567855
 30
0.0
  0
VERTEX
  5
52A
330
287
100
AcDbEntity
  8
0
  6
CONTINUOUS
 62
     7
100
AcDbVertex
100
AcDb2dVertex
 10
7.5197264991
 20
6.366901486
 30
0.0
  0
SEQEND
  5
52B
330
287
100
AcDbEntity
  8
0
  6
CONTINUOUS
 62
     7
  0
ARC
  5
288
330
1F
100
AcDbEntity
  8
0
  6
CONTINUOUS
 62
     7
100
AcDbCircle
 10
7.6433334967
 20
6.4520140081
 30
0.0
 40
0.1275347497437564
100
AcDbArc
 50
158.5240114263
 51
194.1750183658
  0
ARC
  5
289
330
1F
100
AcDbEntity
  8
0
  6
CONTINUOUS
 62
     7
100
AcDbCircle
 10
7.4860145947
 20
6.4930435189
 30
0.0
 40
0.0611492234928591
100
AcDbArc
 50
172.6245467561
 51
236.0632728505
  0
ARC
  5
28A
330
1F
100
AcDbEntity
  8
0
  6
CONTINUOUS
 62
     7
100
AcDbCircle
 10
7.6089275677
 20
6.4975364405
 30
0.0
 40
0.1835869553261232
100
AcDbArc
 50
111.913289523
 51
178.9523003229
  0
POLYLINE
  5
28B
330
1F
100
AcDbEntity
  8
0
  6
CONTINUOUS
 62
     7
100
AcDb2dPolyline
 66
     1
 10
0.0
 20
0.0
 30
0.0
  0
VERTEX
  5
52C
330
28B
100
AcDbEntity
  8
0
  6
CONTINUOUS
 62
     7
100
AcDbVertex
100
AcDb2dVertex
 10
8.6805569214
 20
7.7307205365
 30
0.0
  0
VERTEX
  5
52D
330
28B
100
AcDbEntity
  8
0
  6
CONTINUOUS
 62
     7
100
AcDbVertex
100
AcDb2dVertex
 10
8.6743134001
 20
7.7364800389
 30
0.0
  0
VERTEX
  5
52E
330
28B
100
AcDbEntity
  8
0
  6
CONTINUOUS
 62
     7
100
AcDbVertex
100
AcDb2dVertex
 10
8.6529630506
 20
7.7542410455
 30
0.0
  0
VERTEX
  5
52F
330
28B
100
AcDbEntity
  8
0
  6
CONTINUOUS
 62
     7
100
AcDbVertex
100
AcDb2dVertex
 10
8.6304236466
 20
7.7701359827
 30
0.0
  0
VERTEX
  5
530
330
28B
100
AcDbEntity
  8
0
  6
CONTINUOUS
 62
     7
100
AcDbVertex
100
AcDb2dVertex
 10
8.6067440032
 20
7.7841304254
 30
0.0
  0
VERTEX
  5
531
330
28B
100
AcDbEntity
  8
0
  6
CONTINUOUS
 62
     7
100
AcDbVertex
100
AcDb2dVertex
 10
8.5819754054
 20
7.796194065
 30
0.0
  0
VERTEX
  5
532
330
28B
100
AcDbEntity
  8
0
  6
CONTINUOUS
 62
     7
100
AcDbVertex
100
AcDb2dVertex
 10
8.5561714964
 20
7.8063007742
 30
0.0
  0
VERTEX
  5
533
330
28B
100
AcDbEntity
  8
0
  6
CONTINUOUS
 62
     7
100
AcDbVertex
100
AcDb2dVertex
 10
8.5293881618
 20
7.8144286641
 30
0.0
  0
VERTEX
  5
534
330
28B
100
AcDbEntity
  8
0
  6
CONTINUOUS
 62
     7
100
AcDbVertex
100
AcDb2dVertex
 10
8.5016834083
 20
7.8205601315
 30
0.0
  0
VERTEX
  5
535
330
28B
100
AcDbEntity
  8
0
  6
CONTINUOUS
 62
     7
100
AcDbVertex
100
AcDb2dVertex
 10
8.4731172382
 20
7.8246818971
 30
0.0
  0
VERTEX
  5
536
330
28B
100
AcDbEntity
  8
0
  6
CONTINUOUS
 62
     7
100
AcDbVertex
100
AcDb2dVertex
 10
8.4437515194
 20
7.8267850341
 30
0.0
  0
VERTEX
  5
537
330
28B
100
AcDbEntity
  8
0
  6
CONTINUOUS
 62
     7
100
AcDbVertex
100
AcDb2dVertex
 10
8.4136498517
 20
7.8268649874
 30
0.0
  0
VERTEX
  5
538
330
28B
100
AcDbEntity
  8
0
  6
CONTINUOUS
 62
     7
100
AcDbVertex
100
AcDb2dVertex
 10
8.3828774285
 20
7.8249215839
 30
0.0
  0
VERTEX
  5
539
330
28B
100
AcDbEntity
  8
0
  6
CONTINUOUS
 62
     7
100
AcDbVertex
100
AcDb2dVertex
 10
8.3515008959
 20
7.8209590327
 30
0.0
  0
VERTEX
  5
53A
330
28B
100
AcDbEntity
  8
0
  6
CONTINUOUS
 62
     7
100
AcDbVertex
100
AcDb2dVertex
 10
8.3195882087
 20
7.8149859157
 30
0.0
  0
VERTEX
  5
53B
330
28B
100
AcDbEntity
  8
0
  6
CONTINUOUS
 62
     7
100
AcDbVertex
100
AcDb2dVertex
 10
8.2872084825
 20
7.8070151693
 30
0.0
  0
VERTEX
  5
53C
330
28B
100
AcDbEntity
  8
0
  6
CONTINUOUS
 62
     7
100
AcDbVertex
100
AcDb2dVertex
 10
8.2544318447
 20
7.7970640565
 30
0.0
  0
VERTEX
  5
53D
330
28B
100
AcDbEntity
  8
0
  6
CONTINUOUS
 62
     7
100
AcDbVertex
100
AcDb2dVertex
 10
8.2213292821
 20
7.785154129
 30
0.0
  0
VERTEX
  5
53E
330
28B
100
AcDbEntity
  8
0
  6
CONTINUOUS
 62
     7
100
AcDbVertex
100
AcDb2dVertex
 10
8.1879724876
 20
7.7713111813
 30
0.0
  0
VERTEX
  5
53F
330
28B
100
AcDbEntity
  8
0
  6
CONTINUOUS
 62
     7
100
AcDbVertex
100
AcDb2dVertex
 10
8.1544337045
 20
7.7555651939
 30
0.0
  0
VERTEX
  5
540
330
28B
100
AcDbEntity
  8
0
  6
CONTINUOUS
 62
     7
100
AcDbVertex
100
AcDb2dVertex
 10
8.1207855703
 20
7.7379502693
 30
0.0
  0
VERTEX
  5
541
330
28B
100
AcDbEntity
  8
0
  6
CONTINUOUS
 62
     7
100
AcDbVertex
100
AcDb2dVertex
 10
8.0871009594
 20
7.7185045573
 30
0.0
  0
VERTEX
  5
542
330
28B
100
AcDbEntity
  8
0
  6
CONTINUOUS
 62
     7
100
AcDbVertex
100
AcDb2dVertex
 10
8.0534528253
 20
7.6972701732
 30
0.0
  0
VERTEX
  5
543
330
28B
100
AcDbEntity
  8
0
  6
CONTINUOUS
 62
     7
100
AcDbVertex
100
AcDb2dVertex
 10
8.0199140421
 20
7.6742931058
 30
0.0
  0
VERTEX
  5
544
330
28B
100
AcDbEntity
  8
0
  6
CONTINUOUS
 62
     7
100
AcDbVertex
100
AcDb2dVertex
 10
7.9865572476
 20
7.6496231183
 30
0.0
  0
VERTEX
  5
545
330
28B
100
AcDbEntity
  8
0
  6
CONTINUOUS
 62
     7
100
AcDbVertex
100
AcDb2dVertex
 10
7.953454685
 20
7.6233136406
 30
0.0
  0
VERTEX
  5
546
330
28B
100
AcDbEntity
  8
0
  6
CONTINUOUS
 62
     7
100
AcDbVertex
100
AcDb2dVertex
 10
7.9206780472
 20
7.5954216529
 30
0.0
  0
VERTEX
  5
547
330
28B
100
AcDbEntity
  8
0
  6
CONTINUOUS
 62
     7
100
AcDbVertex
100
AcDb2dVertex
 10
7.888298321
 20
7.5660075632
 30
0.0
  0
VERTEX
  5
548
330
28B
100
AcDbEntity
  8
0
  6
CONTINUOUS
 62
     7
100
AcDbVertex
100
AcDb2dVertex
 10
7.8563856338
 20
7.5351350758
 30
0.0
  0
VERTEX
  5
549
330
28B
100
AcDbEntity
  8
0
  6
CONTINUOUS
 62
     7
100
AcDbVertex
100
AcDb2dVertex
 10
7.8250091013
 20
7.5028710537
 30
0.0
  0
VERTEX
  5
54A
330
28B
100
AcDbEntity
  8
0
  6
CONTINUOUS
 62
     7
100
AcDbVertex
100
AcDb2dVertex
 10
7.794236678
 20
7.4692853735
 30
0.0
  0
VERTEX
  5
54B
330
28B
100
AcDbEntity
  8
0
  6
CONTINUOUS
 62
     7
100
AcDbVertex
100
AcDb2dVertex
 10
7.7641350103
 20
7.4344507744
 30
0.0
  0
VERTEX
  5
54C
330
28B
100
AcDbEntity
  8
0
  6
CONTINUOUS
 62
     7
100
AcDbVertex
100
AcDb2dVertex
 10
7.7347692916
 20
7.3984427003
 30
0.0
  0
VERTEX
  5
54D
330
28B
100
AcDbEntity
  8
0
  6
CONTINUOUS
 62
     7
100
AcDbVertex
100
AcDb2dVertex
 10
7.7062031215
 20
7.3613391367
 30
0.0
  0
VERTEX
  5
54E
330
28B
100
AcDbEntity
  8
0
  6
CONTINUOUS
 62
     7
100
AcDbVertex
100
AcDb2dVertex
 10
7.6784983679
 20
7.3232204417
 30
0.0
  0
VERTEX
  5
54F
330
28B
100
AcDbEntity
  8
0
  6
CONTINUOUS
 62
     7
100
AcDbVertex
100
AcDb2dVertex
 10
7.6517150333
 20
7.2841691719
 30
0.0
  0
VERTEX
  5
550
330
28B
100
AcDbEntity
  8
0
  6
CONTINUOUS
 62
     7
100
AcDbVertex
100
AcDb2dVertex
 10
7.6259111243
 20
7.2442699036
 30
0.0
  0
VERTEX
  5
551
330
28B
100
AcDbEntity
  8
0
  6
CONTINUOUS
 62
     7
100
AcDbVertex
100
AcDb2dVertex
 10
7.6011425265
 20
7.2036090497
 30
0.0
  0
VERTEX
  5
552
330
28B
100
AcDbEntity
  8
0
  6
CONTINUOUS
 62
     7
100
AcDbVertex
100
AcDb2dVertex
 10
7.5774628832
 20
7.1622746727
 30
0.0
  0
VERTEX
  5
553
330
28B
100
AcDbEntity
  8
0
  6
CONTINUOUS
 62
     7
100
AcDbVertex
100
AcDb2dVertex
 10
7.5549234791
 20
7.1203562935
 30
0.0
  0
VERTEX
  5
554
330
28B
100
AcDbEntity
  8
0
  6
CONTINUOUS
 62
     7
100
AcDbVertex
100
AcDb2dVertex
 10
7.5335731296
 20
7.077944698
 30
0.0
  0
VERTEX
  5
555
330
28B
100
AcDbEntity
  8
0
  6
CONTINUOUS
 62
     7
100
AcDbVertex
100
AcDb2dVertex
 10
7.5134580748
 20
7.0351317404
 30
0.0
  0
VERTEX
  5
556
330
28B
100
AcDbEntity
  8
0
  6
CONTINUOUS
 62
     7
100
AcDbVertex
100
AcDb2dVertex
 10
7.4946218795
 20
6.9920101439
 30
0.0
  0
VERTEX
  5
557
330
28B
100
AcDbEntity
  8
0
  6
CONTINUOUS
 62
     7
100
AcDbVertex
100
AcDb2dVertex
 10
7.4771053386
 20
6.9486733003
 30
0.0
  0
VERTEX
  5
558
330
28B
100
AcDbEntity
  8
0
  6
CONTINUOUS
 62
     7
100
AcDbVertex
100
AcDb2dVertex
 10
7.460946389
 20
6.9052150676
 30
0.0
  0
VERTEX
  5
559
330
28B
100
AcDbEntity
  8
0
  6
CONTINUOUS
 62
     7
100
AcDbVertex
100
AcDb2dVertex
 10
7.4461800275
 20
6.8617295667
 30
0.0
  0
VERTEX
  5
55A
330
28B
100
AcDbEntity
  8
0
  6
CONTINUOUS
 62
     7
100
AcDbVertex
100
AcDb2dVertex
 10
7.4328382347
 20
6.8183109774
 30
0.0
  0
VERTEX
  5
55B
330
28B
100
AcDbEntity
  8
0
  6
CONTINUOUS
 62
     7
100
AcDbVertex
100
AcDb2dVertex
 10
7.420949906
 20
6.7750533347
 30
0.0
  0
VERTEX
  5
55C
330
28B
100
AcDbEntity
  8
0
  6
CONTINUOUS
 62
     7
100
AcDbVertex
100
AcDb2dVertex
 10
7.4105407888
 20
6.732050325
 30
0.0
  0
VERTEX
  5
55D
330
28B
100
AcDbEntity
  8
0
  6
CONTINUOUS
 62
     7
100
AcDbVertex
100
AcDb2dVertex
 10
7.401633427
 20
6.6893950834
 30
0.0
  0
VERTEX
  5
55E
330
28B
100
AcDbEntity
  8
0
  6
CONTINUOUS
 62
     7
100
AcDbVertex
100
AcDb2dVertex
 10
7.3942471118
 20
6.6471799915
 30
0.0
  0
VERTEX
  5
55F
330
28B
100
AcDbEntity
  8
0
  6
CONTINUOUS
 62
     7
100
AcDbVertex
100
AcDb2dVertex
 10
7.3883978405
 20
6.6054964779
 30
0.0
  0
VERTEX
  5
560
330
28B
100
AcDbEntity
  8
0
  6
CONTINUOUS
 62
     7
100
AcDbVertex
100
AcDb2dVertex
 10
7.3840982813
 20
6.5644348198
 30
0.0
  0
VERTEX
  5
561
330
28B
100
AcDbEntity
  8
0
  6
CONTINUOUS
 62
     7
100
AcDbVertex
100
AcDb2dVertex
 10
7.381357746
 20
6.5240839475
 30
0.0
  0
VERTEX
  5
562
330
28B
100
AcDbEntity
  8
0
  6
CONTINUOUS
 62
     7
100
AcDbVertex
100
AcDb2dVertex
 10
7.38018217
 20
6.484531252
 30
0.0
  0
VERTEX
  5
563
330
28B
100
AcDbEntity
  8
0
  6
CONTINUOUS
 62
     7
100
AcDbVertex
100
AcDb2dVertex
 10
7.3805740994
 20
6.4458623958
 30
0.0
  0
VERTEX
  5
564
330
28B
100
AcDbEntity
  8
0
  6
CONTINUOUS
 62
     7
100
AcDbVertex
100
AcDb2dVertex
 10
7.3825326854
 20
6.4081611269
 30
0.0
  0
VERTEX
  5
565
330
28B
100
AcDbEntity
  8
0
  6
CONTINUOUS
 62
     7
100
AcDbVertex
100
AcDb2dVertex
 10
7.386053686
 20
6.3715090978
 30
0.0
  0
VERTEX
  5
566
330
28B
100
AcDbEntity
  8
0
  6
CONTINUOUS
 62
     7
100
AcDbVertex
100
AcDb2dVertex
 10
7.3911294756
 20
6.3359856888
 30
0.0
  0
VERTEX
  5
567
330
28B
100
AcDbEntity
  8
0
  6
CONTINUOUS
 62
     7
100
AcDbVertex
100
AcDb2dVertex
 10
7.3977490611
 20
6.3016678356
 30
0.0
  0
VERTEX
  5
568
330
28B
100
AcDbEntity
  8
0
  6
CONTINUOUS
 62
     7
100
AcDbVertex
100
AcDb2dVertex
 10
7.405898106
 20
6.268629863
 30
0.0
  0
VERTEX
  5
569
330
28B
100
AcDbEntity
  8
0
  6
CONTINUOUS
 62
     7
100
AcDbVertex
100
AcDb2dVertex
 10
7.4155589613
 20
6.236943324
 30
0.0
  0
VERTEX
  5
56A
330
28B
100
AcDbEntity
  8
0
  6
CONTINUOUS
 62
     7
100
AcDbVertex
100
AcDb2dVertex
 10
7.4267107037
 20
6.2066768445
 30
0.0
  0
VERTEX
  5
56B
330
28B
100
AcDbEntity
  8
0
  6
CONTINUOUS
 62
     7
100
AcDbVertex
100
AcDb2dVertex
 10
7.439329181
 20
6.1778959749
 30
0.0
  0
VERTEX
  5
56C
330
28B
100
AcDbEntity
  8
0
  6
CONTINUOUS
 62
     7
100
AcDbVertex
100
AcDb2dVertex
 10
7.4533870644
 20
6.1506630483
 30
0.0
  0
VERTEX
  5
56D
330
28B
100
AcDbEntity
  8
0
  6
CONTINUOUS
 62
     7
100
AcDbVertex
100
AcDb2dVertex
 10
7.4688539077
 20
6.1250370451
 30
0.0
  0
VERTEX
  5
56E
330
28B
100
AcDbEntity
  8
0
  6
CONTINUOUS
 62
     7
100
AcDbVertex
100
AcDb2dVertex
 10
7.4856962132
 20
6.1010734654
 30
0.0
  0
VERTEX
  5
56F
330
28B
100
AcDbEntity
  8
0
  6
CONTINUOUS
 62
     7
100
AcDbVertex
100
AcDb2dVertex
 10
7.5038775041
 20
6.0788242092
 30
0.0
  0
VERTEX
  5
570
330
28B
100
AcDbEntity
  8
0
  6
CONTINUOUS
 62
     7
100
AcDbVertex
100
AcDb2dVertex
 10
7.5233584037
 20
6.0583374632
 30
0.0
  0
VERTEX
  5
571
330
28B
100
AcDbEntity
  8
0
  6
CONTINUOUS
 62
     7
100
AcDbVertex
100
AcDb2dVertex
 10
7.544096721
 20
6.0396575973
 30
0.0
  0
VERTEX
  5
572
330
28B
100
AcDbEntity
  8
0
  6
CONTINUOUS
 62
     7
100
AcDbVertex
100
AcDb2dVertex
 10
7.5660475411
 20
6.0228250678
 30
0.0
  0
VERTEX
  5
573
330
28B
100
AcDbEntity
  8
0
  6
CONTINUOUS
 62
     7
100
AcDbVertex
100
AcDb2dVertex
 10
7.5891633237
 20
6.0078763304
 30
0.0
  0
VERTEX
  5
574
330
28B
100
AcDbEntity
  8
0
  6
CONTINUOUS
 62
     7
100
AcDbVertex
100
AcDb2dVertex
 10
7.6133940049
 20
5.9948437605
 30
0.0
  0
VERTEX
  5
575
330
28B
100
AcDbEntity
  8
0
  6
CONTINUOUS
 62
     7
100
AcDbVertex
100
AcDb2dVertex
 10
7.6386871066
 20
5.9837555839
 30
0.0
  0
VERTEX
  5
576
330
28B
100
AcDbEntity
  8
0
  6
CONTINUOUS
 62
     7
100
AcDbVertex
100
AcDb2dVertex
 10
7.6649878496
 20
5.9746358151
 30
0.0
  0
VERTEX
  5
577
330
28B
100
AcDbEntity
  8
0
  6
CONTINUOUS
 62
     7
100
AcDbVertex
100
AcDb2dVertex
 10
7.6665238566
 20
5.9741734222
 30
0.0
  0
SEQEND
  5
578
330
28B
100
AcDbEntity
  8
0
  6
CONTINUOUS
 62
     7
  0
ARC
  5
28C
330
1F
100
AcDbEntity
  8
0
  6
CONTINUOUS
 62
     7
100
AcDbCircle
 10
8.1071769274
 20
7.5181454481
 30
0.0
 40
0.0937197843949125
100
AcDbArc
 50
179.1688569615
 51
195.4997356657
  0
POLYLINE
  5
28D
330
1F
100
AcDbEntity
  8
0
  6
CONTINUOUS
 62
     7
100
AcDb2dPolyline
 66
     1
 10
0.0
 20
0.0
 30
0.0
  0
VERTEX
  5
579
330
28D
100
AcDbEntity
  8
0
  6
CONTINUOUS
 62
     7
100
AcDbVertex
100
AcDb2dVertex
 10
8.1679144436
 20
7.6825490893
 30
0.0
  0
VERTEX
  5
57A
330
28D
100
AcDbEntity
  8
0
  6
CONTINUOUS
 62
     7
100
AcDbVertex
100
AcDb2dVertex
 10
8.159021723
 20
7.6864203515
 30
0.0
  0
VERTEX
  5
57B
330
28D
100
AcDbEntity
  8
0
  6
CONTINUOUS
 62
     7
100
AcDbVertex
100
AcDb2dVertex
 10
8.1491813956
 20
7.6883323302
 30
0.0
  0
VERTEX
  5
57C
330
28D
100
AcDbEntity
  8
0
  6
CONTINUOUS
 62
     7
100
AcDbVertex
100
AcDb2dVertex
 10
8.1385670311
 20
7.6882493092
 30
0.0
  0
VERTEX
  5
57D
330
28D
100
AcDbEntity
  8
0
  6
CONTINUOUS
 62
     7
100
AcDbVertex
100
AcDb2dVertex
 10
8.1273602444
 20
7.6861727088
 30
0.0
  0
VERTEX
  5
57E
330
28D
100
AcDbEntity
  8
0
  6
CONTINUOUS
 62
     7
100
AcDbVertex
100
AcDb2dVertex
 10
8.1157527868
 20
7.6821380604
 30
0.0
  0
VERTEX
  5
57F
330
28D
100
AcDbEntity
  8
0
  6
CONTINUOUS
 62
     7
100
AcDbVertex
100
AcDb2dVertex
 10
8.1039432649
 20
7.6762143978
 30
0.0
  0
VERTEX
  5
580
330
28D
100
AcDbEntity
  8
0
  6
CONTINUOUS
 62
     7
100
AcDbVertex
100
AcDb2dVertex
 10
8.092133743
 20
7.6685030766
 30
0.0
  0
VERTEX
  5
581
330
28D
100
AcDbEntity
  8
0
  6
CONTINUOUS
 62
     7
100
AcDbVertex
100
AcDb2dVertex
 10
8.0805262853
 20
7.6591360397
 30
0.0
  0
VERTEX
  5
582
330
28D
100
AcDbEntity
  8
0
  6
CONTINUOUS
 62
     7
100
AcDbVertex
100
AcDb2dVertex
 10
8.0693194986
 20
7.6482735596
 30
0.0
  0
VERTEX
  5
583
330
28D
100
AcDbEntity
  8
0
  6
CONTINUOUS
 62
     7
100
AcDbVertex
100
AcDb2dVertex
 10
8.0587051342
 20
7.6361014963
 30
0.0
  0
VERTEX
  5
584
330
28D
100
AcDbEntity
  8
0
  6
CONTINUOUS
 62
     7
100
AcDbVertex
100
AcDb2dVertex
 10
8.0488648067
 20
7.6228281173
 30
0.0
  0
VERTEX
  5
585
330
28D
100
AcDbEntity
  8
0
  6
CONTINUOUS
 62
     7
100
AcDbVertex
100
AcDb2dVertex
 10
8.0399668869
 20
7.6086805337
 30
0.0
  0
VERTEX
  5
586
330
28D
100
AcDbEntity
  8
0
  6
CONTINUOUS
 62
     7
100
AcDbVertex
100
AcDb2dVertex
 10
8.0321636207
 20
7.5939008146
 30
0.0
  0
VERTEX
  5
587
330
28D
100
AcDbEntity
  8
0
  6
CONTINUOUS
 62
     7
100
AcDbVertex
100
AcDb2dVertex
 10
8.0255885241
 20
7.5787418452
 30
0.0
  0
VERTEX
  5
588
330
28D
100
AcDbEntity
  8
0
  6
CONTINUOUS
 62
     7
100
AcDbVertex
100
AcDb2dVertex
 10
8.0203540988
 20
7.5634629995
 30
0.0
  0
VERTEX
  5
589
330
28D
100
AcDbEntity
  8
0
  6
CONTINUOUS
 62
     7
100
AcDbVertex
100
AcDb2dVertex
 10
8.0165499073
 20
7.5483257029
 30
0.0
  0
VERTEX
  5
58A
330
28D
100
AcDbEntity
  8
0
  6
CONTINUOUS
 62
     7
100
AcDbVertex
100
AcDb2dVertex
 10
8.0142410405
 20
7.5335889587
 30
0.0
  0
VERTEX
  5
58B
330
28D
100
AcDbEntity
  8
0
  6
CONTINUOUS
 62
     7
100
AcDbVertex
100
AcDb2dVertex
 10
8.0134670035
 20
7.5195049167
 30
0.0
  0
SEQEND
  5
58C
330
28D
100
AcDbEntity
  8
0
  6
CONTINUOUS
 62
     7
  0
SPLINE
  5
28E
330
1F
100
AcDbEntity
  8
0
  6
CONTINUOUS
 62
     7
100
AcDbSpline
210
0.0
220
0.0
230
1.0
 70
     8
 71
     3
 72
    23
 73
    19
 74
     0
 42
0.00000001
 43
0.00000001
 40
0.0
 40
0.0
 40
0.0
 40
0.0
 40
0.1113522492482662
 40
0.1807999982281144
 40
0.2516988785989853
 40
0.3032378882995009
 40
0.3560234659614995
 40
0.3981526154213811
 40
0.4414485230161667
 40
0.4836102674251588
 40
0.5270822415788247
 40
0.5682393025990937
 40
0.6102586823351005
 40
0.6754246015642749
 40
0.7424161576015935
 40
0.8370315390409717
 40
0.9342967450999944
 40
1.0
 40
1.0
 40
1.0
 40
1.0
 10
8.392907556656848
 20
7.907751616919283
 30
0.0
 10
8.383372477511802
 20
7.913127467131583
 30
0.0
 10
8.36789059632694
 20
7.921856107239175
 30
0.0
 10
8.343918430863901
 20
7.934516925114626
 30
0.0
 10
8.324954001288763
 20
7.944389845390718
 30
0.0
 10
8.307370389151616
 20
7.953537057590315
 30
0.0
 10
8.292824874474757
 20
7.961202215353469
 30
0.0
 10
8.279702868241234
 20
7.968289405618444
 30
0.0
 10
8.26847454446242
 20
7.974555885420671
 30
0.0
 10
8.258442168228278
 20
7.980404946111894
 30
0.0
 10
8.250154806851071
 20
7.985507070589099
 30
0.0
 10
8.243545692968901
 20
7.989845572232311
 30
0.0
 10
8.237661587679566
 20
7.994012231663469
 30
0.0
 10
8.233323548875733
 20
7.997530254430288
 30
0.0
 10
8.231078272066602
 20
8.000064518407484
 30
0.0
 10
8.232508854397318
 20
8.000212204618595
 30
0.0
 10
8.237106100731495
 20
7.997903077450981
 30
0.0
 10
8.242463969921767
 20
7.994215504026601
 30
0.0
 10
8.24462407773071
 20
7.992728801782261
 30
0.0
  0
SPLINE
  5
28F
330
1F
100
AcDbEntity
  8
0
  6
CONTINUOUS
 62
     7
100
AcDbSpline
210
0.0
220
0.0
230
1.0
 70
     8
 71
     3
 72
    74
 73
    70
 74
     0
 42
0.00000001
 43
0.00000001
 40
-0.0156250000000002
 40
-0.0156250000000002
 40
0.0
 40
0.0
 40
0.03125
 40
0.03125
 40
0.0468749999999999
 40
0.0468749999999999
 40
0.0624999999999998
 40
0.0624999999999998
 40
0.0937499999999997
 40
0.0937499999999997
 40
0.1249999999999995
 40
0.1249999999999995
 40
0.187499999999999
 40
0.187499999999999
 40
0.2187499999999988
 40
0.2187499999999988
 40
0.2499999999999986
 40
0.2499999999999986
 40
0.2812499999999984
 40
0.2812499999999984
 40
0.3124999999999982
 40
0.3124999999999982
 40
0.343749999999998
 40
0.343749999999998
 40
0.3749999999999978
 40
0.3749999999999978
 40
0.4062499999999976
 40
0.4062499999999976
 40
0.4374999999999973
 40
0.4374999999999973
 40
0.4531249999999972
 40
0.4531249999999972
 40
0.4687499999999971
 40
0.4687499999999971
 40
0.484374999999997
 40
0.484374999999997
 40
0.4999999999999969
 40
0.4999999999999969
 40
0.531249999999997
 40
0.531249999999997
 40
0.5624999999999971
 40
0.5624999999999971
 40
0.5781249999999971
 40
0.5781249999999971
 40
0.5937499999999971
 40
0.5937499999999971
 40
0.6249999999999971
 40
0.6249999999999971
 40
0.6874999999999976
 40
0.6874999999999976
 40
0.7187499999999978
 40
0.7187499999999978
 40
0.749999999999998
 40
0.749999999999998
 40
0.8124999999999984
 40
0.8124999999999984
 40
0.8437499999999987
 40
0.8437499999999987
 40
0.8749999999999989
 40
0.8749999999999989
 40
0.9062499999999991
 40
0.9062499999999991
 40
0.9374999999999993
 40
0.9374999999999993
 40
0.9687499999999996
 40
0.9687499999999996
 40
0.9843749999999998
 40
0.9843749999999998
 40
1.0
 40
1.0
 40
1.03125
 40
1.03125
 10
7.303648232950817
 20
7.378262913543921
 30
0.0
 10
7.297215312571605
 20
7.381976559431665
 30
0.0
 10
7.292552128495953
 20
7.383516361050654
 30
0.0
 10
7.285062449626892
 20
7.384571760760249
 30
0.0
 10
7.282481365489759
 20
7.384707799044049
 30
0.0
 10
7.277331325699739
 20
7.38457983470912
 30
0.0
 10
7.274740886530876
 20
7.384319826104586
 30
0.0
 10
7.26693176110627
 20
7.383010322635161
 30
0.0
 10
7.261683555676001
 20
7.38142133436709
 30
0.0
 10
7.251577640135888
 20
7.377236474197525
 30
0.0
 10
7.246652382503973
 20
7.374628400097481
 30
0.0
 10
7.232232760731378
 20
7.3654617059429
 30
0.0
 10
7.223560393202563
 20
7.357911901959803
 30
0.0
 10
7.211784386805446
 20
7.344866217428578
 30
0.0
 10
7.208075281675575
 20
7.340217090263082
 30
0.0
 10
7.201275423117716
 20
7.33058220116436
 30
0.0
 10
7.19815600714063
 20
7.325566384043678
 30
0.0
 10
7.192489571798961
 20
7.315130248544408
 30
0.0
 10
7.189926069797284
 20
7.309663820329511
 30
0.0
 10
7.185535558085834
 20
7.298562626309253
 30
0.0
 10
7.183700689526924
 20
7.292928945084189
 30
0.0
 10
7.1807830356536
 20
7.281489195849369
 30
0.0
 10
7.179699201749486
 20
7.275683355551865
 30
0.0
 10
7.178386947808419
 20
7.263877215111559
 30
0.0
 10
7.178173562866032
 20
7.257919543027457
 30
0.0
 10
7.178729301607061
 20
7.246307003455829
 30
0.0
 10
7.179496900178912
 20
7.240561173222873
 30
0.0
 10
7.182127451478152
 20
7.229453861043994
 30
0.0
 10
7.183953819815763
 20
7.224217305038993
 30
0.0
 10
7.187524045053007
 20
7.216893603271827
 30
0.0
 10
7.188865876292637
 20
7.214525171945021
 30
0.0
 10
7.191779880571445
 20
7.210097906793555
 30
0.0
 10
7.19335187108163
 20
7.208032528054697
 30
0.0
 10
7.196725821978323
 20
7.204201285352293
 30
0.0
 10
7.198527733060988
 20
7.202435354818155
 30
0.0
 10
7.202371539499908
 20
7.199218077194828
 30
0.0
 10
7.204426848873572
 20
7.197762186824535
 30
0.0
 10
7.210762632929847
 20
7.194022606033177
 30
0.0
 10
7.215263846299207
 20
7.192303639034495
 30
0.0
 10
7.22481624490985
 20
7.190416741918347
 30
0.0
 10
7.229655916740003
 20
7.190289391029909
 30
0.0
 10
7.237013725459959
 20
7.191196170166737
 30
0.0
 10
7.239490315987991
 20
7.191687592161739
 30
0.0
 10
7.244361489432212
 20
7.193000573828739
 30
0.0
 10
7.246770510301078
 20
7.193822812543412
 30
0.0
 10
7.253927537966156
 20
7.19675194016307
 30
0.0
 10
7.258639271876673
 20
7.199348257870123
 30
0.0
 10
7.272067275044419
 20
7.208507751831235
 30
0.0
 10
7.280315324261346
 20
7.216568759836292
 30
0.0
 10
7.291167844014703
 20
7.230186943364618
 30
0.0
 10
7.294576251430369
 20
7.235034272576056
 30
0.0
 10
7.30088398389583
 20
7.245117335363744
 30
0.0
 10
7.303766363158648
 20
7.250318023002696
 30
0.0
 10
7.31166524286188
 20
7.266359888749401
 30
0.0
 10
7.315966661750953
 20
7.277748579376275
 30
0.0
 10
7.320570904595996
 20
7.294847812952667
 30
0.0
 10
7.321811035707905
 20
7.300581138421515
 30
0.0
 10
7.323635043057288
 20
7.312126693837024
 30
0.0
 10
7.324216113890631
 20
7.317970555300621
 30
0.0
 10
7.324561831770048
 20
7.329373216125845
 30
0.0
 10
7.324338933734138
 20
7.334973036138176
 30
0.0
 10
7.322904171365457
 20
7.345936850427611
 30
0.0
 10
7.321684857399521
 20
7.351263612555718
 30
0.0
 10
7.318084040069095
 20
7.361119202449502
 30
0.0
 10
7.315644836090261
 20
7.365759815455223
 30
0.0
 10
7.311060585199058
 20
7.371692552367462
 30
0.0
 10
7.309377868391756
 20
7.373510023021813
 30
0.0
 10
7.305673729230081
 20
7.376796826099932
 30
0.0
 10
7.303648232950817
 20
7.378262913543921
 30
0.0
 10
7.297215312571605
 20
7.381976559431665
 30
0.0
  0
POLYLINE
  5
290
330
1F
100
AcDbEntity
  8
0
  6
CONTINUOUS
 62
     7
100
AcDb2dPolyline
 66
     1
 10
0.0
 20
0.0
 30
0.0
  0
VERTEX
  5
58D
330
290
100
AcDbEntity
  8
0
  6
CONTINUOUS
 62
     7
100
AcDbVertex
100
AcDb2dVertex
 10
7.2903298613
 20
6.233271572
 30
0.0
  0
VERTEX
  5
58E
330
290
100
AcDbEntity
  8
0
  6
CONTINUOUS
 62
     7
100
AcDbVertex
100
AcDb2dVertex
 10
7.2752622117
 20
6.2595343109
 30
0.0
  0
VERTEX
  5
58F
330
290
100
AcDbEntity
  8
0
  6
CONTINUOUS
 62
     7
100
AcDbVertex
100
AcDb2dVertex
 10
7.261625155
 20
6.287397474
 30
0.0
  0
VERTEX
  5
590
330
290
100
AcDbEntity
  8
0
  6
CONTINUOUS
 62
     7
100
AcDbVertex
100
AcDb2dVertex
 10
7.24944846
 20
6.3168002377
 30
0.0
  0
VERTEX
  5
591
330
290
100
AcDbEntity
  8
0
  6
CONTINUOUS
 62
     7
100
AcDbVertex
100
AcDb2dVertex
 10
7.2387587078
 20
6.3476784176
 30
0.0
  0
VERTEX
  5
592
330
290
100
AcDbEntity
  8
0
  6
CONTINUOUS
 62
     7
100
AcDbVertex
100
AcDb2dVertex
 10
7.2295792334
 20
6.3799646085
 30
0.0
  0
VERTEX
  5
593
330
290
100
AcDbEntity
  8
0
  6
CONTINUOUS
 62
     7
100
AcDbVertex
100
AcDb2dVertex
 10
7.221930075
 20
6.4135883316
 30
0.0
  0
VERTEX
  5
594
330
290
100
AcDbEntity
  8
0
  6
CONTINUOUS
 62
     7
100
AcDbVertex
100
AcDb2dVertex
 10
7.2158279303
 20
6.4484761883
 30
0.0
  0
VERTEX
  5
595
330
290
100
AcDbEntity
  8
0
  6
CONTINUOUS
 62
     7
100
AcDbVertex
100
AcDb2dVertex
 10
7.21128612
 20
6.4845520206
 30
0.0
  0
VERTEX
  5
596
330
290
100
AcDbEntity
  8
0
  6
CONTINUOUS
 62
     7
100
AcDbVertex
100
AcDb2dVertex
 10
7.2083145584
 20
6.5217370772
 30
0.0
  0
VERTEX
  5
597
330
290
100
AcDbEntity
  8
0
  6
CONTINUOUS
 62
     7
100
AcDbVertex
100
AcDb2dVertex
 10
7.2069197323
 20
6.5599501854
 30
0.0
  0
VERTEX
  5
598
330
290
100
AcDbEntity
  8
0
  6
CONTINUOUS
 62
     7
100
AcDbVertex
100
AcDb2dVertex
 10
7.2071046867
 20
6.5991079282
 30
0.0
  0
VERTEX
  5
599
330
290
100
AcDbEntity
  8
0
  6
CONTINUOUS
 62
     7
100
AcDbVertex
100
AcDb2dVertex
 10
7.2088690176
 20
6.6391248267
 30
0.0
  0
VERTEX
  5
59A
330
290
100
AcDbEntity
  8
0
  6
CONTINUOUS
 62
     7
100
AcDbVertex
100
AcDb2dVertex
 10
7.2122088737
 20
6.6799135264
 30
0.0
  0
VERTEX
  5
59B
330
290
100
AcDbEntity
  8
0
  6
CONTINUOUS
 62
     7
100
AcDbVertex
100
AcDb2dVertex
 10
7.2171169643
 20
6.7213849881
 30
0.0
  0
VERTEX
  5
59C
330
290
100
AcDbEntity
  8
0
  6
CONTINUOUS
 62
     7
100
AcDbVertex
100
AcDb2dVertex
 10
7.2235825753
 20
6.7634486822
 30
0.0
  0
VERTEX
  5
59D
330
290
100
AcDbEntity
  8
0
  6
CONTINUOUS
 62
     7
100
AcDbVertex
100
AcDb2dVertex
 10
7.2315915927
 20
6.8060127861
 30
0.0
  0
VERTEX
  5
59E
330
290
100
AcDbEntity
  8
0
  6
CONTINUOUS
 62
     7
100
AcDbVertex
100
AcDb2dVertex
 10
7.2411265333
 20
6.848984385
 30
0.0
  0
VERTEX
  5
59F
330
290
100
AcDbEntity
  8
0
  6
CONTINUOUS
 62
     7
100
AcDbVertex
100
AcDb2dVertex
 10
7.2521665829
 20
6.8922696745
 30
0.0
  0
VERTEX
  5
5A0
330
290
100
AcDbEntity
  8
0
  6
CONTINUOUS
 62
     7
100
AcDbVertex
100
AcDb2dVertex
 10
7.2646876417
 20
6.9357741655
 30
0.0
  0
VERTEX
  5
5A1
330
290
100
AcDbEntity
  8
0
  6
CONTINUOUS
 62
     7
100
AcDbVertex
100
AcDb2dVertex
 10
7.278662377
 20
6.9794028903
 30
0.0
  0
VERTEX
  5
5A2
330
290
100
AcDbEntity
  8
0
  6
CONTINUOUS
 62
     7
100
AcDbVertex
100
AcDb2dVertex
 10
7.2940602829
 20
7.0230606101
 30
0.0
  0
VERTEX
  5
5A3
330
290
100
AcDbEntity
  8
0
  6
CONTINUOUS
 62
     7
100
AcDbVertex
100
AcDb2dVertex
 10
7.3108477467
 20
7.0666520227
 30
0.0
  0
VERTEX
  5
5A4
330
290
100
AcDbEntity
  8
0
  6
CONTINUOUS
 62
     7
100
AcDbVertex
100
AcDb2dVertex
 10
7.3289881222
 20
7.1100819708
 30
0.0
  0
VERTEX
  5
5A5
330
290
100
AcDbEntity
  8
0
  6
CONTINUOUS
 62
     7
100
AcDbVertex
100
AcDb2dVertex
 10
7.3484418103
 20
7.1532556493
 30
0.0
  0
VERTEX
  5
5A6
330
290
100
AcDbEntity
  8
0
  6
CONTINUOUS
 62
     7
100
AcDbVertex
100
AcDb2dVertex
 10
7.3691663447
 20
7.1960788129
 30
0.0
  0
VERTEX
  5
5A7
330
290
100
AcDbEntity
  8
0
  6
CONTINUOUS
 62
     7
100
AcDbVertex
100
AcDb2dVertex
 10
7.3911164849
 20
7.2384579811
 30
0.0
  0
VERTEX
  5
5A8
330
290
100
AcDbEntity
  8
0
  6
CONTINUOUS
 62
     7
100
AcDbVertex
100
AcDb2dVertex
 10
7.4142443152
 20
7.2803006428
 30
0.0
  0
VERTEX
  5
5A9
330
290
100
AcDbEntity
  8
0
  6
CONTINUOUS
 62
     7
100
AcDbVertex
100
AcDb2dVertex
 10
7.438499349
 20
7.321515458
 30
0.0
  0
VERTEX
  5
5AA
330
290
100
AcDbEntity
  8
0
  6
CONTINUOUS
 62
     7
100
AcDbVertex
100
AcDb2dVertex
 10
7.4638286389
 20
7.3620124573
 30
0.0
  0
VERTEX
  5
5AB
330
290
100
AcDbEntity
  8
0
  6
CONTINUOUS
 62
     7
100
AcDbVertex
100
AcDb2dVertex
 10
7.4901768927
 20
7.4017032382
 30
0.0
  0
VERTEX
  5
5AC
330
290
100
AcDbEntity
  8
0
  6
CONTINUOUS
 62
     7
100
AcDbVertex
100
AcDb2dVertex
 10
7.5174865937
 20
7.4405011582
 30
0.0
  0
VERTEX
  5
5AD
330
290
100
AcDbEntity
  8
0
  6
CONTINUOUS
 62
     7
100
AcDbVertex
100
AcDb2dVertex
 10
7.5456981266
 20
7.4783215238
 30
0.0
  0
VERTEX
  5
5AE
330
290
100
AcDbEntity
  8
0
  6
CONTINUOUS
 62
     7
100
AcDbVertex
100
AcDb2dVertex
 10
7.5747499072
 20
7.5150817753
 30
0.0
  0
VERTEX
  5
5AF
330
290
100
AcDbEntity
  8
0
  6
CONTINUOUS
 62
     7
100
AcDbVertex
100
AcDb2dVertex
 10
7.6045785174
 20
7.5507016675
 30
0.0
  0
VERTEX
  5
5B0
330
290
100
AcDbEntity
  8
0
  6
CONTINUOUS
 62
     7
100
AcDbVertex
100
AcDb2dVertex
 10
7.635118843
 20
7.5851034442
 30
0.0
  0
VERTEX
  5
5B1
330
290
100
AcDbEntity
  8
0
  6
CONTINUOUS
 62
     7
100
AcDbVertex
100
AcDb2dVertex
 10
7.6663042164
 20
7.6182120085
 30
0.0
  0
VERTEX
  5
5B2
330
290
100
AcDbEntity
  8
0
  6
CONTINUOUS
 62
     7
100
AcDbVertex
100
AcDb2dVertex
 10
7.6980665618
 20
7.6499550865
 30
0.0
  0
VERTEX
  5
5B3
330
290
100
AcDbEntity
  8
0
  6
CONTINUOUS
 62
     7
100
AcDbVertex
100
AcDb2dVertex
 10
7.730336544
 20
7.6802633848
 30
0.0
  0
VERTEX
  5
5B4
330
290
100
AcDbEntity
  8
0
  6
CONTINUOUS
 62
     7
100
AcDbVertex
100
AcDb2dVertex
 10
7.7630437196
 20
7.7090707424
 30
0.0
  0
VERTEX
  5
5B5
330
290
100
AcDbEntity
  8
0
  6
CONTINUOUS
 62
     7
100
AcDbVertex
100
AcDb2dVertex
 10
7.7961166908
 20
7.7363142745
 30
0.0
  0
VERTEX
  5
5B6
330
290
100
AcDbEntity
  8
0
  6
CONTINUOUS
 62
     7
100
AcDbVertex
100
AcDb2dVertex
 10
7.8294832612
 20
7.7619345102
 30
0.0
  0
VERTEX
  5
5B7
330
290
100
AcDbEntity
  8
0
  6
CONTINUOUS
 62
     7
100
AcDbVertex
100
AcDb2dVertex
 10
7.8630705938
 20
7.785875522
 30
0.0
  0
VERTEX
  5
5B8
330
290
100
AcDbEntity
  8
0
  6
CONTINUOUS
 62
     7
100
AcDbVertex
100
AcDb2dVertex
 10
7.8968053694
 20
7.8080850482
 30
0.0
  0
VERTEX
  5
5B9
330
290
100
AcDbEntity
  8
0
  6
CONTINUOUS
 62
     7
100
AcDbVertex
100
AcDb2dVertex
 10
7.9306139471
 20
7.8285146067
 30
0.0
  0
VERTEX
  5
5BA
330
290
100
AcDbEntity
  8
0
  6
CONTINUOUS
 62
     7
100
AcDbVertex
100
AcDb2dVertex
 10
7.9644225248
 20
7.8471196011
 30
0.0
  0
VERTEX
  5
5BB
330
290
100
AcDbEntity
  8
0
  6
CONTINUOUS
 62
     7
100
AcDbVertex
100
AcDb2dVertex
 10
7.9981573004
 20
7.8638594178
 30
0.0
  0
VERTEX
  5
5BC
330
290
100
AcDbEntity
  8
0
  6
CONTINUOUS
 62
     7
100
AcDbVertex
100
AcDb2dVertex
 10
8.031744633
 20
7.8786975147
 30
0.0
  0
VERTEX
  5
5BD
330
290
100
AcDbEntity
  8
0
  6
CONTINUOUS
 62
     7
100
AcDbVertex
100
AcDb2dVertex
 10
8.0651112035
 20
7.8916015013
 30
0.0
  0
VERTEX
  5
5BE
330
290
100
AcDbEntity
  8
0
  6
CONTINUOUS
 62
     7
100
AcDbVertex
100
AcDb2dVertex
 10
8.0981841746
 20
7.9025432089
 30
0.0
  0
VERTEX
  5
5BF
330
290
100
AcDbEntity
  8
0
  6
CONTINUOUS
 62
     7
100
AcDbVertex
100
AcDb2dVertex
 10
8.1308913502
 20
7.9114987524
 30
0.0
  0
VERTEX
  5
5C0
330
290
100
AcDbEntity
  8
0
  6
CONTINUOUS
 62
     7
100
AcDbVertex
100
AcDb2dVertex
 10
8.1631613324
 20
7.9184485825
 30
0.0
  0
VERTEX
  5
5C1
330
290
100
AcDbEntity
  8
0
  6
CONTINUOUS
 62
     7
100
AcDbVertex
100
AcDb2dVertex
 10
8.1949236779
 20
7.923377528
 30
0.0
  0
VERTEX
  5
5C2
330
290
100
AcDbEntity
  8
0
  6
CONTINUOUS
 62
     7
100
AcDbVertex
100
AcDb2dVertex
 10
8.2261090513
 20
7.9262748294
 30
0.0
  0
VERTEX
  5
5C3
330
290
100
AcDbEntity
  8
0
  6
CONTINUOUS
 62
     7
100
AcDbVertex
100
AcDb2dVertex
 10
8.2566493769
 20
7.9271341621
 30
0.0
  0
VERTEX
  5
5C4
330
290
100
AcDbEntity
  8
0
  6
CONTINUOUS
 62
     7
100
AcDbVertex
100
AcDb2dVertex
 10
8.286477987
 20
7.9259536501
 30
0.0
  0
VERTEX
  5
5C5
330
290
100
AcDbEntity
  8
0
  6
CONTINUOUS
 62
     7
100
AcDbVertex
100
AcDb2dVertex
 10
8.3155297677
 20
7.9227358705
 30
0.0
  0
VERTEX
  5
5C6
330
290
100
AcDbEntity
  8
0
  6
CONTINUOUS
 62
     7
100
AcDbVertex
100
AcDb2dVertex
 10
8.3437413005
 20
7.9174878475
 30
0.0
  0
VERTEX
  5
5C7
330
290
100
AcDbEntity
  8
0
  6
CONTINUOUS
 62
     7
100
AcDbVertex
100
AcDb2dVertex
 10
8.3710510015
 20
7.9102210372
 30
0.0
  0
VERTEX
  5
5C8
330
290
100
AcDbEntity
  8
0
  6
CONTINUOUS
 62
     7
100
AcDbVertex
100
AcDb2dVertex
 10
8.3973992553
 20
7.9009513026
 30
0.0
  0
VERTEX
  5
5C9
330
290
100
AcDbEntity
  8
0
  6
CONTINUOUS
 62
     7
100
AcDbVertex
100
AcDb2dVertex
 10
8.4227285453
 20
7.8896988789
 30
0.0
  0
VERTEX
  5
5CA
330
290
100
AcDbEntity
  8
0
  6
CONTINUOUS
 62
     7
100
AcDbVertex
100
AcDb2dVertex
 10
8.4423833772
 20
7.8791921387
 30
0.0
  0
SEQEND
  5
5CB
330
290
100
AcDbEntity
  8
0
  6
CONTINUOUS
 62
     7
  0
POLYLINE
  5
291
330
1F
100
AcDbEntity
  8
0
  6
CONTINUOUS
 62
     7
100
AcDb2dPolyline
 66
     1
 10
0.0
 20
0.0
 30
0.0
  0
VERTEX
  5
5CC
330
291
100
AcDbEntity
  8
0
  6
CONTINUOUS
 62
     7
100
AcDbVertex
100
AcDb2dVertex
 10
8.4330196502
 20
7.8844034478
 30
0.0
  0
VERTEX
  5
5CD
330
291
100
AcDbEntity
  8
0
  6
CONTINUOUS
 62
     7
100
AcDbVertex
100
AcDb2dVertex
 10
8.4314081108
 20
7.8853963204
 30
0.0
  0
VERTEX
  5
5CE
330
291
100
AcDbEntity
  8
0
  6
CONTINUOUS
 62
     7
100
AcDbVertex
100
AcDb2dVertex
 10
8.4074078908
 20
7.8987937695
 30
0.0
  0
VERTEX
  5
5CF
330
291
100
AcDbEntity
  8
0
  6
CONTINUOUS
 62
     7
100
AcDbVertex
100
AcDb2dVertex
 10
8.382336434
 20
7.9102548643
 30
0.0
  0
VERTEX
  5
5D0
330
291
100
AcDbEntity
  8
0
  6
CONTINUOUS
 62
     7
100
AcDbVertex
100
AcDb2dVertex
 10
8.3562479594
 20
7.9197548193
 30
0.0
  0
VERTEX
  5
5D1
330
291
100
AcDbEntity
  8
0
  6
CONTINUOUS
 62
     7
100
AcDbVertex
100
AcDb2dVertex
 10
8.329198885
 20
7.9272730902
 30
0.0
  0
VERTEX
  5
5D2
330
291
100
AcDbEntity
  8
0
  6
CONTINUOUS
 62
     7
100
AcDbVertex
100
AcDb2dVertex
 10
8.3012477066
 20
7.9327934183
 30
0.0
  0
VERTEX
  5
5D3
330
291
100
AcDbEntity
  8
0
  6
CONTINUOUS
 62
     7
100
AcDbVertex
100
AcDb2dVertex
 10
8.2724548704
 20
7.9363038653
 30
0.0
  0
VERTEX
  5
5D4
330
291
100
AcDbEntity
  8
0
  6
CONTINUOUS
 62
     7
100
AcDbVertex
100
AcDb2dVertex
 10
8.2428826431
 20
7.9377968398
 30
0.0
  0
VERTEX
  5
5D5
330
291
100
AcDbEntity
  8
0
  6
CONTINUOUS
 62
     7
100
AcDbVertex
100
AcDb2dVertex
 10
8.2125949767
 20
7.937269113
 30
0.0
  0
VERTEX
  5
5D6
330
291
100
AcDbEntity
  8
0
  6
CONTINUOUS
 62
     7
100
AcDbVertex
100
AcDb2dVertex
 10
8.1816573705
 20
7.9347218262
 30
0.0
  0
VERTEX
  5
5D7
330
291
100
AcDbEntity
  8
0
  6
CONTINUOUS
 62
     7
100
AcDbVertex
100
AcDb2dVertex
 10
8.1501367293
 20
7.9301604881
 30
0.0
  0
VERTEX
  5
5D8
330
291
100
AcDbEntity
  8
0
  6
CONTINUOUS
 62
     7
100
AcDbVertex
100
AcDb2dVertex
 10
8.1181012187
 20
7.9235949629
 30
0.0
  0
VERTEX
  5
5D9
330
291
100
AcDbEntity
  8
0
  6
CONTINUOUS
 62
     7
100
AcDbVertex
100
AcDb2dVertex
 10
8.0856201177
 20
7.9150394491
 30
0.0
  0
VERTEX
  5
5DA
330
291
100
AcDbEntity
  8
0
  6
CONTINUOUS
 62
     7
100
AcDbVertex
100
AcDb2dVertex
 10
8.0527636691
 20
7.9045124485
 30
0.0
  0
VERTEX
  5
5DB
330
291
100
AcDbEntity
  8
0
  6
CONTINUOUS
 62
     7
100
AcDbVertex
100
AcDb2dVertex
 10
8.0196029274
 20
7.8920367265
 30
0.0
  0
VERTEX
  5
5DC
330
291
100
AcDbEntity
  8
0
  6
CONTINUOUS
 62
     7
100
AcDbVertex
100
AcDb2dVertex
 10
7.9862096049
 20
7.8776392628
 30
0.0
  0
VERTEX
  5
5DD
330
291
100
AcDbEntity
  8
0
  6
CONTINUOUS
 62
     7
100
AcDbVertex
100
AcDb2dVertex
 10
7.9526559172
 20
7.8613511929
 30
0.0
  0
VERTEX
  5
5DE
330
291
100
AcDbEntity
  8
0
  6
CONTINUOUS
 62
     7
100
AcDbVertex
100
AcDb2dVertex
 10
7.9190144264
 20
7.8432077409
 30
0.0
  0
SEQEND
  5
5DF
330
291
100
AcDbEntity
  8
0
  6
CONTINUOUS
 62
     7
  0
LINE
  5
292
330
1F
100
AcDbEntity
  8
0
  6
CONTINUOUS
 62
     7
100
AcDbLine
 10
7.6986235333
 20
7.9704366954
 30
0.0
 11
7.9190144264
 21
7.8432077409
 31
0.0
  0
POLYLINE
  5
293
330
1F
100
AcDbEntity
  8
0
  6
CONTINUOUS
 62
     7
100
AcDb2dPolyline
 66
     1
 10
0.0
 20
0.0
 30
0.0
  0
VERTEX
  5
5E0
330
293
100
AcDbEntity
  8
0
  6
CONTINUOUS
 62
     7
100
AcDbVertex
100
AcDb2dVertex
 10
7.6986235333
 20
7.9704366954
 30
0.0
  0
VERTEX
  5
5E1
330
293
100
AcDbEntity
  8
0
  6
CONTINUOUS
 62
     7
100
AcDbVertex
100
AcDb2dVertex
 10
7.7321869841
 20
7.9885401539
 30
0.0
  0
VERTEX
  5
5E2
330
293
100
AcDbEntity
  8
0
  6
CONTINUOUS
 62
     7
100
AcDbVertex
100
AcDb2dVertex
 10
7.7656632071
 20
8.0047969211
 30
0.0
  0
VERTEX
  5
5E3
330
293
100
AcDbEntity
  8
0
  6
CONTINUOUS
 62
     7
100
AcDbVertex
100
AcDb2dVertex
 10
7.7989801432
 20
8.0191720036
 30
0.0
  0
VERTEX
  5
5E4
330
293
100
AcDbEntity
  8
0
  6
CONTINUOUS
 62
     7
100
AcDbVertex
100
AcDb2dVertex
 10
7.8320660764
 20
8.0316344584
 30
0.0
  0
VERTEX
  5
5E5
330
293
100
AcDbEntity
  8
0
  6
CONTINUOUS
 62
     7
100
AcDbVertex
100
AcDb2dVertex
 10
7.8648497878
 20
8.0421574595
 30
0.0
  0
VERTEX
  5
5E6
330
293
100
AcDbEntity
  8
0
  6
CONTINUOUS
 62
     7
100
AcDbVertex
100
AcDb2dVertex
 10
7.8972607091
 20
8.0507183558
 30
0.0
  0
VERTEX
  5
5E7
330
293
100
AcDbEntity
  8
0
  6
CONTINUOUS
 62
     7
100
AcDbVertex
100
AcDb2dVertex
 10
7.9292290744
 20
8.0572987195
 30
0.0
  0
VERTEX
  5
5E8
330
293
100
AcDbEntity
  8
0
  6
CONTINUOUS
 62
     7
100
AcDbVertex
100
AcDb2dVertex
 10
7.9606860705
 20
8.0618843861
 30
0.0
  0
VERTEX
  5
5E9
330
293
100
AcDbEntity
  8
0
  6
CONTINUOUS
 62
     7
100
AcDbVertex
100
AcDb2dVertex
 10
7.9915639847
 20
8.0644654848
 30
0.0
  0
VERTEX
  5
5EA
330
293
100
AcDbEntity
  8
0
  6
CONTINUOUS
 62
     7
100
AcDbVertex
100
AcDb2dVertex
 10
8.0217963512
 20
8.0650364597
 30
0.0
  0
VERTEX
  5
5EB
330
293
100
AcDbEntity
  8
0
  6
CONTINUOUS
 62
     7
100
AcDbVertex
100
AcDb2dVertex
 10
8.0513180934
 20
8.0635960816
 30
0.0
  0
VERTEX
  5
5EC
330
293
100
AcDbEntity
  8
0
  6
CONTINUOUS
 62
     7
100
AcDbVertex
100
AcDb2dVertex
 10
8.0800656646
 20
8.0601474512
 30
0.0
  0
VERTEX
  5
5ED
330
293
100
AcDbEntity
  8
0
  6
CONTINUOUS
 62
     7
100
AcDbVertex
100
AcDb2dVertex
 10
8.1079771844
 20
8.0546979917
 30
0.0
  0
VERTEX
  5
5EE
330
293
100
AcDbEntity
  8
0
  6
CONTINUOUS
 62
     7
100
AcDbVertex
100
AcDb2dVertex
 10
8.134992572
 20
8.0472594333
 30
0.0
  0
VERTEX
  5
5EF
330
293
100
AcDbEntity
  8
0
  6
CONTINUOUS
 62
     7
100
AcDbVertex
100
AcDb2dVertex
 10
8.1610536758
 20
8.0378477878
 30
0.0
  0
VERTEX
  5
5F0
330
293
100
AcDbEntity
  8
0
  6
CONTINUOUS
 62
     7
100
AcDbVertex
100
AcDb2dVertex
 10
8.186104398
 20
8.0264833142
 30
0.0
  0
VERTEX
  5
5F1
330
293
100
AcDbEntity
  8
0
  6
CONTINUOUS
 62
     7
100
AcDbVertex
100
AcDb2dVertex
 10
8.203433251
 20
8.0171351103
 30
0.0
  0
SEQEND
  5
5F2
330
293
100
AcDbEntity
  8
0
  6
CONTINUOUS
 62
     7
  0
POLYLINE
  5
294
330
1F
100
AcDbEntity
  8
0
  6
CONTINUOUS
 62
     7
100
AcDb2dPolyline
 66
     1
 10
0.0
 20
0.0
 30
0.0
  0
VERTEX
  5
5F3
330
294
100
AcDbEntity
  8
0
  6
CONTINUOUS
 62
     7
100
AcDbVertex
100
AcDb2dVertex
 10
7.1798943908
 20
6.2441216913
 30
0.0
  0
VERTEX
  5
5F4
330
294
100
AcDbEntity
  8
0
  6
CONTINUOUS
 62
     7
100
AcDbVertex
100
AcDb2dVertex
 10
7.1664233267
 20
6.2523189243
 30
0.0
  0
VERTEX
  5
5F5
330
294
100
AcDbEntity
  8
0
  6
CONTINUOUS
 62
     7
100
AcDbVertex
100
AcDb2dVertex
 10
7.1438889804
 20
6.2680616929
 30
0.0
  0
VERTEX
  5
5F6
330
294
100
AcDbEntity
  8
0
  6
CONTINUOUS
 62
     7
100
AcDbVertex
100
AcDb2dVertex
 10
7.1225337426
 20
6.2856611728
 30
0.0
  0
VERTEX
  5
5F7
330
294
100
AcDbEntity
  8
0
  6
CONTINUOUS
 62
     7
100
AcDbVertex
100
AcDb2dVertex
 10
7.1024035813
 20
6.3050794804
 30
0.0
  0
VERTEX
  5
5F8
330
294
100
AcDbEntity
  8
0
  6
CONTINUOUS
 62
     7
100
AcDbVertex
100
AcDb2dVertex
 10
7.0835418277
 20
6.3262748171
 30
0.0
  0
VERTEX
  5
5F9
330
294
100
AcDbEntity
  8
0
  6
CONTINUOUS
 62
     7
100
AcDbVertex
100
AcDb2dVertex
 10
7.0659890824
 20
6.3492015588
 30
0.0
  0
VERTEX
  5
5FA
330
294
100
AcDbEntity
  8
0
  6
CONTINUOUS
 62
     7
100
AcDbVertex
100
AcDb2dVertex
 10
7.0497831284
 20
6.3738103549
 30
0.0
  0
VERTEX
  5
5FB
330
294
100
AcDbEntity
  8
0
  6
CONTINUOUS
 62
     7
100
AcDbVertex
100
AcDb2dVertex
 10
7.0349588498
 20
6.4000482338
 30
0.0
  0
VERTEX
  5
5FC
330
294
100
AcDbEntity
  8
0
  6
CONTINUOUS
 62
     7
100
AcDbVertex
100
AcDb2dVertex
 10
7.0215481564
 20
6.4278587175
 30
0.0
  0
VERTEX
  5
5FD
330
294
100
AcDbEntity
  8
0
  6
CONTINUOUS
 62
     7
100
AcDbVertex
100
AcDb2dVertex
 10
7.0095799154
 20
6.4571819427
 30
0.0
  0
VERTEX
  5
5FE
330
294
100
AcDbEntity
  8
0
  6
CONTINUOUS
 62
     7
100
AcDbVertex
100
AcDb2dVertex
 10
6.9990798888
 20
6.4879547898
 30
0.0
  0
VERTEX
  5
5FF
330
294
100
AcDbEntity
  8
0
  6
CONTINUOUS
 62
     7
100
AcDbVertex
100
AcDb2dVertex
 10
6.9900706784
 20
6.5201110191
 30
0.0
  0
VERTEX
  5
600
330
294
100
AcDbEntity
  8
0
  6
CONTINUOUS
 62
     7
100
AcDbVertex
100
AcDb2dVertex
 10
6.982571677
 20
6.5535814129
 30
0.0
  0
VERTEX
  5
601
330
294
100
AcDbEntity
  8
0
  6
CONTINUOUS
 62
     7
100
AcDbVertex
100
AcDb2dVertex
 10
6.9765990264
 20
6.5882939248
 30
0.0
  0
VERTEX
  5
602
330
294
100
AcDbEntity
  8
0
  6
CONTINUOUS
 62
     7
100
AcDbVertex
100
AcDb2dVertex
 10
6.972165583
 20
6.6241738346
 30
0.0
  0
VERTEX
  5
603
330
294
100
AcDbEntity
  8
0
  6
CONTINUOUS
 62
     7
100
AcDbVertex
100
AcDb2dVertex
 10
6.9692808901
 20
6.6611439092
 30
0.0
  0
VERTEX
  5
604
330
294
100
AcDbEntity
  8
0
  6
CONTINUOUS
 62
     7
100
AcDbVertex
100
AcDb2dVertex
 10
6.967951157
 20
6.6991245691
 30
0.0
  0
VERTEX
  5
605
330
294
100
AcDbEntity
  8
0
  6
CONTINUOUS
 62
     7
100
AcDbVertex
100
AcDb2dVertex
 10
6.968179246
 20
6.7380340592
 30
0.0
  0
VERTEX
  5
606
330
294
100
AcDbEntity
  8
0
  6
CONTINUOUS
 62
     7
100
AcDbVertex
100
AcDb2dVertex
 10
6.9699646661
 20
6.7777886253
 30
0.0
  0
VERTEX
  5
607
330
294
100
AcDbEntity
  8
0
  6
CONTINUOUS
 62
     7
100
AcDbVertex
100
AcDb2dVertex
 10
6.9733035742
 20
6.8183026939
 30
0.0
  0
VERTEX
  5
608
330
294
100
AcDbEntity
  8
0
  6
CONTINUOUS
 62
     7
100
AcDbVertex
100
AcDb2dVertex
 10
6.9781887832
 20
6.8594890568
 30
0.0
  0
VERTEX
  5
609
330
294
100
AcDbEntity
  8
0
  6
CONTINUOUS
 62
     7
100
AcDbVertex
100
AcDb2dVertex
 10
6.9846097774
 20
6.9012590587
 30
0.0
  0
VERTEX
  5
60A
330
294
100
AcDbEntity
  8
0
  6
CONTINUOUS
 62
     7
100
AcDbVertex
100
AcDb2dVertex
 10
6.9925527353
 20
6.9435227877
 30
0.0
  0
VERTEX
  5
60B
330
294
100
AcDbEntity
  8
0
  6
CONTINUOUS
 62
     7
100
AcDbVertex
100
AcDb2dVertex
 10
7.0020005594
 20
6.9861892695
 30
0.0
  0
VERTEX
  5
60C
330
294
100
AcDbEntity
  8
0
  6
CONTINUOUS
 62
     7
100
AcDbVertex
100
AcDb2dVertex
 10
7.0129329129
 20
7.0291666627
 30
0.0
  0
VERTEX
  5
60D
330
294
100
AcDbEntity
  8
0
  6
CONTINUOUS
 62
     7
100
AcDbVertex
100
AcDb2dVertex
 10
7.0253262633
 20
7.0723624565
 30
0.0
  0
VERTEX
  5
60E
330
294
100
AcDbEntity
  8
0
  6
CONTINUOUS
 62
     7
100
AcDbVertex
100
AcDb2dVertex
 10
7.0391539336
 20
7.1156836702
 30
0.0
  0
VERTEX
  5
60F
330
294
100
AcDbEntity
  8
0
  6
CONTINUOUS
 62
     7
100
AcDbVertex
100
AcDb2dVertex
 10
7.054386159
 20
7.1590370531
 30
0.0
  0
VERTEX
  5
610
330
294
100
AcDbEntity
  8
0
  6
CONTINUOUS
 62
     7
100
AcDbVertex
100
AcDb2dVertex
 10
7.0709901515
 20
7.2023292852
 30
0.0
  0
VERTEX
  5
611
330
294
100
AcDbEntity
  8
0
  6
CONTINUOUS
 62
     7
100
AcDbVertex
100
AcDb2dVertex
 10
7.0889301704
 20
7.2454671781
 30
0.0
  0
VERTEX
  5
612
330
294
100
AcDbEntity
  8
0
  6
CONTINUOUS
 62
     7
100
AcDbVertex
100
AcDb2dVertex
 10
7.1081675989
 20
7.2883578756
 30
0.0
  0
VERTEX
  5
613
330
294
100
AcDbEntity
  8
0
  6
CONTINUOUS
 62
     7
100
AcDbVertex
100
AcDb2dVertex
 10
7.1286610278
 20
7.3309090538
 30
0.0
  0
VERTEX
  5
614
330
294
100
AcDbEntity
  8
0
  6
CONTINUOUS
 62
     7
100
AcDbVertex
100
AcDb2dVertex
 10
7.150366344
 20
7.3730291194
 30
0.0
  0
VERTEX
  5
615
330
294
100
AcDbEntity
  8
0
  6
CONTINUOUS
 62
     7
100
AcDbVertex
100
AcDb2dVertex
 10
7.1732368259
 20
7.4146274072
 30
0.0
  0
VERTEX
  5
616
330
294
100
AcDbEntity
  8
0
  6
CONTINUOUS
 62
     7
100
AcDbVertex
100
AcDb2dVertex
 10
7.1972232439
 20
7.4556143751
 30
0.0
  0
VERTEX
  5
617
330
294
100
AcDbEntity
  8
0
  6
CONTINUOUS
 62
     7
100
AcDbVertex
100
AcDb2dVertex
 10
7.2222739661
 20
7.495901797
 30
0.0
  0
VERTEX
  5
618
330
294
100
AcDbEntity
  8
0
  6
CONTINUOUS
 62
     7
100
AcDbVertex
100
AcDb2dVertex
 10
7.2483350698
 20
7.5354029524
 30
0.0
  0
VERTEX
  5
619
330
294
100
AcDbEntity
  8
0
  6
CONTINUOUS
 62
     7
100
AcDbVertex
100
AcDb2dVertex
 10
7.2753504575
 20
7.5740328135
 30
0.0
  0
VERTEX
  5
61A
330
294
100
AcDbEntity
  8
0
  6
CONTINUOUS
 62
     7
100
AcDbVertex
100
AcDb2dVertex
 10
7.3032619773
 20
7.6117082278
 30
0.0
  0
VERTEX
  5
61B
330
294
100
AcDbEntity
  8
0
  6
CONTINUOUS
 62
     7
100
AcDbVertex
100
AcDb2dVertex
 10
7.3320095485
 20
7.6483480974
 30
0.0
  0
VERTEX
  5
61C
330
294
100
AcDbEntity
  8
0
  6
CONTINUOUS
 62
     7
100
AcDbVertex
100
AcDb2dVertex
 10
7.3615312907
 20
7.6838735535
 30
0.0
  0
VERTEX
  5
61D
330
294
100
AcDbEntity
  8
0
  6
CONTINUOUS
 62
     7
100
AcDbVertex
100
AcDb2dVertex
 10
7.3917636571
 20
7.718208126
 30
0.0
  0
VERTEX
  5
61E
330
294
100
AcDbEntity
  8
0
  6
CONTINUOUS
 62
     7
100
AcDbVertex
100
AcDb2dVertex
 10
7.4226415714
 20
7.7512779082
 30
0.0
  0
VERTEX
  5
61F
330
294
100
AcDbEntity
  8
0
  6
CONTINUOUS
 62
     7
100
AcDbVertex
100
AcDb2dVertex
 10
7.4540985674
 20
7.7830117162
 30
0.0
  0
VERTEX
  5
620
330
294
100
AcDbEntity
  8
0
  6
CONTINUOUS
 62
     7
100
AcDbVertex
100
AcDb2dVertex
 10
7.4860669327
 20
7.8133412414
 30
0.0
  0
VERTEX
  5
621
330
294
100
AcDbEntity
  8
0
  6
CONTINUOUS
 62
     7
100
AcDbVertex
100
AcDb2dVertex
 10
7.518477854
 20
7.8422011983
 30
0.0
  0
VERTEX
  5
622
330
294
100
AcDbEntity
  8
0
  6
CONTINUOUS
 62
     7
100
AcDbVertex
100
AcDb2dVertex
 10
7.5512615654
 20
7.8695294647
 30
0.0
  0
VERTEX
  5
623
330
294
100
AcDbEntity
  8
0
  6
CONTINUOUS
 62
     7
100
AcDbVertex
100
AcDb2dVertex
 10
7.5843474987
 20
7.8952672153
 30
0.0
  0
VERTEX
  5
624
330
294
100
AcDbEntity
  8
0
  6
CONTINUOUS
 62
     7
100
AcDbVertex
100
AcDb2dVertex
 10
7.6176644348
 20
7.9193590485
 30
0.0
  0
VERTEX
  5
625
330
294
100
AcDbEntity
  8
0
  6
CONTINUOUS
 62
     7
100
AcDbVertex
100
AcDb2dVertex
 10
7.6511406577
 20
7.9417531056
 30
0.0
  0
VERTEX
  5
626
330
294
100
AcDbEntity
  8
0
  6
CONTINUOUS
 62
     7
100
AcDbVertex
100
AcDb2dVertex
 10
7.6847041085
 20
7.9624011824
 30
0.0
  0
SEQEND
  5
627
330
294
100
AcDbEntity
  8
0
  6
CONTINUOUS
 62
     7
  0
LINE
  5
295
330
1F
100
AcDbEntity
  8
0
  6
CONTINUOUS
 62
     7
100
AcDbLine
 10
7.6847041085
 20
7.9624011824
 30
0.0
 11
7.9050950016
 21
7.835172228
 31
0.0
  0
POLYLINE
  5
296
330
1F
100
AcDbEntity
  8
0
  6
CONTINUOUS
 62
     7
100
AcDb2dPolyline
 66
     1
 10
0.0
 20
0.0
 30
0.0
  0
VERTEX
  5
628
330
296
100
AcDbEntity
  8
0
  6
CONTINUOUS
 62
     7
100
AcDbVertex
100
AcDb2dVertex
 10
7.9050950016
 20
7.835172228
 30
0.0
  0
VERTEX
  5
629
330
296
100
AcDbEntity
  8
0
  6
CONTINUOUS
 62
     7
100
AcDbVertex
100
AcDb2dVertex
 10
7.8714535109
 20
7.8144740415
 30
0.0
  0
VERTEX
  5
62A
330
296
100
AcDbEntity
  8
0
  6
CONTINUOUS
 62
     7
100
AcDbVertex
100
AcDb2dVertex
 10
7.8378998231
 20
7.7920218482
 30
0.0
  0
VERTEX
  5
62B
330
296
100
AcDbEntity
  8
0
  6
CONTINUOUS
 62
     7
100
AcDbVertex
100
AcDb2dVertex
 10
7.8045065007
 20
7.7678642024
 30
0.0
  0
VERTEX
  5
62C
330
296
100
AcDbEntity
  8
0
  6
CONTINUOUS
 62
     7
100
AcDbVertex
100
AcDb2dVertex
 10
7.7713457589
 20
7.7420533469
 30
0.0
  0
VERTEX
  5
62D
330
296
100
AcDbEntity
  8
0
  6
CONTINUOUS
 62
     7
100
AcDbVertex
100
AcDb2dVertex
 10
7.7384893103
 20
7.7146450995
 30
0.0
  0
VERTEX
  5
62E
330
296
100
AcDbEntity
  8
0
  6
CONTINUOUS
 62
     7
100
AcDbVertex
100
AcDb2dVertex
 10
7.7060082094
 20
7.6856987324
 30
0.0
  0
VERTEX
  5
62F
330
296
100
AcDbEntity
  8
0
  6
CONTINUOUS
 62
     7
100
AcDbVertex
100
AcDb2dVertex
 10
7.6739726987
 20
7.6552768443
 30
0.0
  0
VERTEX
  5
630
330
296
100
AcDbEntity
  8
0
  6
CONTINUOUS
 62
     7
100
AcDbVertex
100
AcDb2dVertex
 10
7.6424520575
 20
7.6234452247
 30
0.0
  0
VERTEX
  5
631
330
296
100
AcDbEntity
  8
0
  6
CONTINUOUS
 62
     7
100
AcDbVertex
100
AcDb2dVertex
 10
7.6115144513
 20
7.5902727117
 30
0.0
  0
VERTEX
  5
632
330
296
100
AcDbEntity
  8
0
  6
CONTINUOUS
 62
     7
100
AcDbVertex
100
AcDb2dVertex
 10
7.5812267849
 20
7.5558310432
 30
0.0
  0
VERTEX
  5
633
330
296
100
AcDbEntity
  8
0
  6
CONTINUOUS
 62
     7
100
AcDbVertex
100
AcDb2dVertex
 10
7.5516545576
 20
7.5201947019
 30
0.0
  0
VERTEX
  5
634
330
296
100
AcDbEntity
  8
0
  6
CONTINUOUS
 62
     7
100
AcDbVertex
100
AcDb2dVertex
 10
7.5228617215
 20
7.4834407538
 30
0.0
  0
VERTEX
  5
635
330
296
100
AcDbEntity
  8
0
  6
CONTINUOUS
 62
     7
100
AcDbVertex
100
AcDb2dVertex
 10
7.494910543
 20
7.445648682
 30
0.0
  0
VERTEX
  5
636
330
296
100
AcDbEntity
  8
0
  6
CONTINUOUS
 62
     7
100
AcDbVertex
100
AcDb2dVertex
 10
7.4678614687
 20
7.4069002146
 30
0.0
  0
VERTEX
  5
637
330
296
100
AcDbEntity
  8
0
  6
CONTINUOUS
 62
     7
100
AcDbVertex
100
AcDb2dVertex
 10
7.441772994
 20
7.367279148
 30
0.0
  0
VERTEX
  5
638
330
296
100
AcDbEntity
  8
0
  6
CONTINUOUS
 62
     7
100
AcDbVertex
100
AcDb2dVertex
 10
7.4167015373
 20
7.3268711654
 30
0.0
  0
VERTEX
  5
639
330
296
100
AcDbEntity
  8
0
  6
CONTINUOUS
 62
     7
100
AcDbVertex
100
AcDb2dVertex
 10
7.3927013172
 20
7.285763652
 30
0.0
  0
VERTEX
  5
63A
330
296
100
AcDbEntity
  8
0
  6
CONTINUOUS
 62
     7
100
AcDbVertex
100
AcDb2dVertex
 10
7.3698242361
 20
7.2440455059
 30
0.0
  0
VERTEX
  5
63B
330
296
100
AcDbEntity
  8
0
  6
CONTINUOUS
 62
     7
100
AcDbVertex
100
AcDb2dVertex
 10
7.3481197671
 20
7.2018069454
 30
0.0
  0
VERTEX
  5
63C
330
296
100
AcDbEntity
  8
0
  6
CONTINUOUS
 62
     7
100
AcDbVertex
100
AcDb2dVertex
 10
7.3276348479
 20
7.1591393146
 30
0.0
  0
VERTEX
  5
63D
330
296
100
AcDbEntity
  8
0
  6
CONTINUOUS
 62
     7
100
AcDbVertex
100
AcDb2dVertex
 10
7.3084137784
 20
7.1161348851
 30
0.0
  0
VERTEX
  5
63E
330
296
100
AcDbEntity
  8
0
  6
CONTINUOUS
 62
     7
100
AcDbVertex
100
AcDb2dVertex
 10
7.2904981257
 20
7.0728866571
 30
0.0
  0
VERTEX
  5
63F
330
296
100
AcDbEntity
  8
0
  6
CONTINUOUS
 62
     7
100
AcDbVertex
100
AcDb2dVertex
 10
7.2739266336
 20
7.0294881581
 30
0.0
  0
VERTEX
  5
640
330
296
100
AcDbEntity
  8
0
  6
CONTINUOUS
 62
     7
100
AcDbVertex
100
AcDb2dVertex
 10
7.2587351391
 20
6.9860332404
 30
0.0
  0
VERTEX
  5
641
330
296
100
AcDbEntity
  8
0
  6
CONTINUOUS
 62
     7
100
AcDbVertex
100
AcDb2dVertex
 10
7.244956495
 20
6.9426158783
 30
0.0
  0
VERTEX
  5
642
330
296
100
AcDbEntity
  8
0
  6
CONTINUOUS
 62
     7
100
AcDbVertex
100
AcDb2dVertex
 10
7.2326204986
 20
6.8993299651
 30
0.0
  0
VERTEX
  5
643
330
296
100
AcDbEntity
  8
0
  6
CONTINUOUS
 62
     7
100
AcDbVertex
100
AcDb2dVertex
 10
7.2217538272
 20
6.8562691095
 30
0.0
  0
VERTEX
  5
644
330
296
100
AcDbEntity
  8
0
  6
CONTINUOUS
 62
     7
100
AcDbVertex
100
AcDb2dVertex
 10
7.212379981
 20
6.8135264339
 30
0.0
  0
VERTEX
  5
645
330
296
100
AcDbEntity
  8
0
  6
CONTINUOUS
 62
     7
100
AcDbVertex
100
AcDb2dVertex
 10
7.2045192314
 20
6.7711943722
 30
0.0
  0
VERTEX
  5
646
330
296
100
AcDbEntity
  8
0
  6
CONTINUOUS
 62
     7
100
AcDbVertex
100
AcDb2dVertex
 10
7.198188578
 20
6.7293644706
 30
0.0
  0
VERTEX
  5
647
330
296
100
AcDbEntity
  8
0
  6
CONTINUOUS
 62
     7
100
AcDbVertex
100
AcDb2dVertex
 10
7.1934017111
 20
6.6881271893
 30
0.0
  0
VERTEX
  5
648
330
296
100
AcDbEntity
  8
0
  6
CONTINUOUS
 62
     7
100
AcDbVertex
100
AcDb2dVertex
 10
7.1901689829
 20
6.6475717068
 30
0.0
  0
VERTEX
  5
649
330
296
100
AcDbEntity
  8
0
  6
CONTINUOUS
 62
     7
100
AcDbVertex
100
AcDb2dVertex
 10
7.1884973842
 20
6.6077857272
 30
0.0
  0
VERTEX
  5
64A
330
296
100
AcDbEntity
  8
0
  6
CONTINUOUS
 62
     7
100
AcDbVertex
100
AcDb2dVertex
 10
7.18839053
 20
6.5688552906
 30
0.0
  0
VERTEX
  5
64B
330
296
100
AcDbEntity
  8
0
  6
CONTINUOUS
 62
     7
100
AcDbVertex
100
AcDb2dVertex
 10
7.1898486514
 20
6.5308645869
 30
0.0
  0
VERTEX
  5
64C
330
296
100
AcDbEntity
  8
0
  6
CONTINUOUS
 62
     7
100
AcDbVertex
100
AcDb2dVertex
 10
7.1928685951
 20
6.4938957737
 30
0.0
  0
VERTEX
  5
64D
330
296
100
AcDbEntity
  8
0
  6
CONTINUOUS
 62
     7
100
AcDbVertex
100
AcDb2dVertex
 10
7.1974438303
 20
6.4580287985
 30
0.0
  0
VERTEX
  5
64E
330
296
100
AcDbEntity
  8
0
  6
CONTINUOUS
 62
     7
100
AcDbVertex
100
AcDb2dVertex
 10
7.2035644627
 20
6.4233412265
 30
0.0
  0
VERTEX
  5
64F
330
296
100
AcDbEntity
  8
0
  6
CONTINUOUS
 62
     7
100
AcDbVertex
100
AcDb2dVertex
 10
7.211217256
 20
6.3899080719
 30
0.0
  0
VERTEX
  5
650
330
296
100
AcDbEntity
  8
0
  6
CONTINUOUS
 62
     7
100
AcDbVertex
100
AcDb2dVertex
 10
7.2203856604
 20
6.3578016363
 30
0.0
  0
VERTEX
  5
651
330
296
100
AcDbEntity
  8
0
  6
CONTINUOUS
 62
     7
100
AcDbVertex
100
AcDb2dVertex
 10
7.2310498487
 20
6.3270913521
 30
0.0
  0
VERTEX
  5
652
330
296
100
AcDbEntity
  8
0
  6
CONTINUOUS
 62
     7
100
AcDbVertex
100
AcDb2dVertex
 10
7.2431867587
 20
6.2978436327
 30
0.0
  0
VERTEX
  5
653
330
296
100
AcDbEntity
  8
0
  6
CONTINUOUS
 62
     7
100
AcDbVertex
100
AcDb2dVertex
 10
7.2567701435
 20
6.2701217282
 30
0.0
  0
VERTEX
  5
654
330
296
100
AcDbEntity
  8
0
  6
CONTINUOUS
 62
     7
100
AcDbVertex
100
AcDb2dVertex
 10
7.2717706282
 20
6.2439855892
 30
0.0
  0
SEQEND
  5
655
330
296
100
AcDbEntity
  8
0
  6
CONTINUOUS
 62
     7
  0
LINE
  5
297
330
1F
100
AcDbEntity
  8
0
  6
CONTINUOUS
 62
     7
100
AcDbLine
 10
7.2717706282
 20
6.2439855892
 30
0.0
 11
7.2903298613
 21
6.233271572
 31
0.0
  0
LINE
  5
298
330
1F
100
AcDbEntity
  8
0
  6
CONTINUOUS
 62
     7
100
AcDbLine
 10
8.1144490538
 20
7.5656858955
 30
0.0
 11
8.0726907793
 21
7.5897924343
 31
0.0
  0
LINE
  5
299
330
1F
100
AcDbEntity
  8
0
  6
CONTINUOUS
 62
     7
100
AcDbLine
 10
7.5263533549
 20
6.5470742683
 30
0.0
 11
7.4845950804
 21
6.571180807
 31
0.0
  0
LINE
  5
29A
330
1F
100
AcDbEntity
  8
0
  6
CONTINUOUS
 62
     7
100
AcDbLine
 10
8.0726907793
 20
7.5897924343
 30
0.0
 11
7.9935971025
 21
7.4527981679
 31
0.0
  0
LINE
  5
29B
330
1F
100
AcDbEntity
  8
0
  6
CONTINUOUS
 62
     7
100
AcDbLine
 10
7.5637034609
 20
6.708200541
 30
0.0
 11
7.4845950804
 21
6.571180807
 31
0.0
  0
LINE
  5
29C
330
1F
100
AcDbEntity
  8
0
  6
CONTINUOUS
 62
     7
100
AcDbLine
 10
7.9050950016
 20
7.8132631976
 30
0.0
 11
7.9050950016
 21
7.835172228
 31
0.0
  0
LINE
  5
29D
330
1F
100
AcDbEntity
  8
0
  6
CONTINUOUS
 62
     7
100
AcDbLine
 10
7.9190144264
 20
7.8217110097
 30
0.0
 11
7.9190144264
 21
7.8432077409
 31
0.0
  0
LINE
  5
29E
330
1F
100
AcDbEntity
  8
0
  6
CONTINUOUS
 62
     7
100
AcDbLine
 10
7.2717706282
 20
6.2439855892
 30
0.0
 11
7.2808859018
 21
6.2492477246
 31
0.0
  0
LINE
  5
29F
330
1F
100
AcDbEntity
  8
0
  6
CONTINUOUS
 62
     7
100
AcDbLine
 10
7.6986235333
 20
7.9704366954
 30
0.0
 11
7.6933202325
 21
7.9673738845
 31
0.0
  0
POLYLINE
  5
2A0
330
1F
100
AcDbEntity
  8
0
  6
CONTINUOUS
 62
     7
100
AcDb2dPolyline
 66
     1
 10
0.0
 20
0.0
 30
0.0
  0
VERTEX
  5
656
330
2A0
100
AcDbEntity
  8
0
  6
CONTINUOUS
 62
     7
100
AcDbVertex
100
AcDb2dVertex
 10
7.6794008077
 20
7.9593383716
 30
0.0
  0
VERTEX
  5
657
330
2A0
100
AcDbEntity
  8
0
  6
CONTINUOUS
 62
     7
100
AcDbVertex
100
AcDb2dVertex
 10
7.6458357104
 20
7.9386798305
 30
0.0
  0
VERTEX
  5
658
330
2A0
100
AcDbEntity
  8
0
  6
CONTINUOUS
 62
     7
100
AcDbVertex
100
AcDb2dVertex
 10
7.6123591471
 20
7.9162626403
 30
0.0
  0
VERTEX
  5
659
330
2A0
100
AcDbEntity
  8
0
  6
CONTINUOUS
 62
     7
100
AcDbVertex
100
AcDb2dVertex
 10
7.5790442534
 20
7.8921357754
 30
0.0
  0
VERTEX
  5
65A
330
2A0
100
AcDbEntity
  8
0
  6
CONTINUOUS
 62
     7
100
AcDbVertex
100
AcDb2dVertex
 10
7.545963812
 20
7.8663519453
 30
0.0
  0
VERTEX
  5
65B
330
2A0
100
AcDbEntity
  8
0
  6
CONTINUOUS
 62
     7
100
AcDbVertex
100
AcDb2dVertex
 10
7.5131900931
 20
7.8389674797
 30
0.0
  0
VERTEX
  5
65C
330
2A0
100
AcDbEntity
  8
0
  6
CONTINUOUS
 62
     7
100
AcDbVertex
100
AcDb2dVertex
 10
7.4807946971
 20
7.8100422049
 30
0.0
  0
VERTEX
  5
65D
330
2A0
100
AcDbEntity
  8
0
  6
CONTINUOUS
 62
     7
100
AcDbVertex
100
AcDb2dVertex
 10
7.4488483975
 20
7.7796393135
 30
0.0
  0
VERTEX
  5
65E
330
2A0
100
AcDbEntity
  8
0
  6
CONTINUOUS
 62
     7
100
AcDbVertex
100
AcDb2dVertex
 10
7.4174209871
 20
7.7478252264
 30
0.0
  0
VERTEX
  5
65F
330
2A0
100
AcDbEntity
  8
0
  6
CONTINUOUS
 62
     7
100
AcDbVertex
100
AcDb2dVertex
 10
7.3865811248
 20
7.7146694472
 30
0.0
  0
VERTEX
  5
660
330
2A0
100
AcDbEntity
  8
0
  6
CONTINUOUS
 62
     7
100
AcDbVertex
100
AcDb2dVertex
 10
7.356396186
 20
7.6802444109
 30
0.0
  0
VERTEX
  5
661
330
2A0
100
AcDbEntity
  8
0
  6
CONTINUOUS
 62
     7
100
AcDbVertex
100
AcDb2dVertex
 10
7.3269321153
 20
7.6446253253
 30
0.0
  0
VERTEX
  5
662
330
2A0
100
AcDbEntity
  8
0
  6
CONTINUOUS
 62
     7
100
AcDbVertex
100
AcDb2dVertex
 10
7.2982532824
 20
7.6078900068
 30
0.0
  0
VERTEX
  5
663
330
2A0
100
AcDbEntity
  8
0
  6
CONTINUOUS
 62
     7
100
AcDbVertex
100
AcDb2dVertex
 10
7.2704223414
 20
7.5701187107
 30
0.0
  0
VERTEX
  5
664
330
2A0
100
AcDbEntity
  8
0
  6
CONTINUOUS
 62
     7
100
AcDbVertex
100
AcDb2dVertex
 10
7.2435000943
 20
7.5313939553
 30
0.0
  0
VERTEX
  5
665
330
2A0
100
AcDbEntity
  8
0
  6
CONTINUOUS
 62
     7
100
AcDbVertex
100
AcDb2dVertex
 10
7.2175453576
 20
7.4918003419
 30
0.0
  0
VERTEX
  5
666
330
2A0
100
AcDbEntity
  8
0
  6
CONTINUOUS
 62
     7
100
AcDbVertex
100
AcDb2dVertex
 10
7.1926148343
 20
7.4514243702
 30
0.0
  0
VERTEX
  5
667
330
2A0
100
AcDbEntity
  8
0
  6
CONTINUOUS
 62
     7
100
AcDbVertex
100
AcDb2dVertex
 10
7.1687629896
 20
7.4103542488
 30
0.0
  0
VERTEX
  5
668
330
2A0
100
AcDbEntity
  8
0
  6
CONTINUOUS
 62
     7
100
AcDbVertex
100
AcDb2dVertex
 10
7.1460419325
 20
7.3686797031
 30
0.0
  0
VERTEX
  5
669
330
2A0
100
AcDbEntity
  8
0
  6
CONTINUOUS
 62
     7
100
AcDbVertex
100
AcDb2dVertex
 10
7.1245013012
 20
7.3264917788
 30
0.0
  0
VERTEX
  5
66A
330
2A0
100
AcDbEntity
  8
0
  6
CONTINUOUS
 62
     7
100
AcDbVertex
100
AcDb2dVertex
 10
7.1041881551
 20
7.2838826433
 30
0.0
  0
VERTEX
  5
66B
330
2A0
100
AcDbEntity
  8
0
  6
CONTINUOUS
 62
     7
100
AcDbVertex
100
AcDb2dVertex
 10
7.0851468722
 20
7.240945384
 30
0.0
  0
VERTEX
  5
66C
330
2A0
100
AcDbEntity
  8
0
  6
CONTINUOUS
 62
     7
100
AcDbVertex
100
AcDb2dVertex
 10
7.0674190516
 20
7.1977738053
 30
0.0
  0
VERTEX
  5
66D
330
2A0
100
AcDbEntity
  8
0
  6
CONTINUOUS
 62
     7
100
AcDbVertex
100
AcDb2dVertex
 10
7.0510434231
 20
7.1544622236
 30
0.0
  0
VERTEX
  5
66E
330
2A0
100
AcDbEntity
  8
0
  6
CONTINUOUS
 62
     7
100
AcDbVertex
100
AcDb2dVertex
 10
7.0360557622
 20
7.111105261
 30
0.0
  0
VERTEX
  5
66F
330
2A0
100
AcDbEntity
  8
0
  6
CONTINUOUS
 62
     7
100
AcDbVertex
100
AcDb2dVertex
 10
7.0224888122
 20
7.0677976388
 30
0.0
  0
VERTEX
  5
670
330
2A0
100
AcDbEntity
  8
0
  6
CONTINUOUS
 62
     7
100
AcDbVertex
100
AcDb2dVertex
 10
7.0103722126
 20
7.0246339704
 30
0.0
  0
VERTEX
  5
671
330
2A0
100
AcDbEntity
  8
0
  6
CONTINUOUS
 62
     7
100
AcDbVertex
100
AcDb2dVertex
 10
6.9997324345
 20
6.981708555
 30
0.0
  0
VERTEX
  5
672
330
2A0
100
AcDbEntity
  8
0
  6
CONTINUOUS
 62
     7
100
AcDbVertex
100
AcDb2dVertex
 10
6.9905927222
 20
6.9391151709
 30
0.0
  0
VERTEX
  5
673
330
2A0
100
AcDbEntity
  8
0
  6
CONTINUOUS
 62
     7
100
AcDbVertex
100
AcDb2dVertex
 10
6.9829730434
 20
6.8969468714
 30
0.0
  0
VERTEX
  5
674
330
2A0
100
AcDbEntity
  8
0
  6
CONTINUOUS
 62
     7
100
AcDbVertex
100
AcDb2dVertex
 10
6.9768900445
 20
6.8552957808
 30
0.0
  0
VERTEX
  5
675
330
2A0
100
AcDbEntity
  8
0
  6
CONTINUOUS
 62
     7
100
AcDbVertex
100
AcDb2dVertex
 10
6.9723570149
 20
6.8142528938
 30
0.0
  0
VERTEX
  5
676
330
2A0
100
AcDbEntity
  8
0
  6
CONTINUOUS
 62
     7
100
AcDbVertex
100
AcDb2dVertex
 10
6.969383858
 20
6.7739078759
 30
0.0
  0
VERTEX
  5
677
330
2A0
100
AcDbEntity
  8
0
  6
CONTINUOUS
 62
     7
100
AcDbVertex
100
AcDb2dVertex
 10
6.9679770691
 20
6.7343488685
 30
0.0
  0
VERTEX
  5
678
330
2A0
100
AcDbEntity
  8
0
  6
CONTINUOUS
 62
     7
100
AcDbVertex
100
AcDb2dVertex
 10
6.96785373
 20
6.7189047903
 30
0.0
  0
SEQEND
  5
679
330
2A0
100
AcDbEntity
  8
0
  6
CONTINUOUS
 62
     7
  0
LINE
  5
2A1
330
1F
100
AcDbEntity
  8
0
  6
CONTINUOUS
 62
     7
100
AcDbLine
 10
7.6847041085
 20
7.9624011824
 30
0.0
 11
7.6794008077
 21
7.9593383716
 31
0.0
  0
POLYLINE
  5
2A2
330
1F
100
AcDbEntity
  8
0
  6
CONTINUOUS
 62
     7
100
AcDb2dPolyline
 66
     1
 10
0.0
 20
0.0
 30
0.0
  0
VERTEX
  5
67A
330
2A2
100
AcDbEntity
  8
0
  6
CONTINUOUS
 62
     7
100
AcDbVertex
100
AcDb2dVertex
 10
7.4845950804
 20
6.571180807
 30
0.0
  0
VERTEX
  5
67B
330
2A2
100
AcDbEntity
  8
0
  6
CONTINUOUS
 62
     7
100
AcDbVertex
100
AcDb2dVertex
 10
7.4755387799
 20
6.554148208
 30
0.0
  0
VERTEX
  5
67C
330
2A2
100
AcDbEntity
  8
0
  6
CONTINUOUS
 62
     7
100
AcDbVertex
100
AcDb2dVertex
 10
7.4677806903
 20
6.53669056
 30
0.0
  0
VERTEX
  5
67D
330
2A2
100
AcDbEntity
  8
0
  6
CONTINUOUS
 62
     7
100
AcDbVertex
100
AcDb2dVertex
 10
7.4614339418
 20
6.5190624348
 30
0.0
  0
VERTEX
  5
67E
330
2A2
100
AcDbEntity
  8
0
  6
CONTINUOUS
 62
     7
100
AcDbVertex
100
AcDb2dVertex
 10
7.4565910845
 20
6.5015208902
 30
0.0
  0
VERTEX
  5
67F
330
2A2
100
AcDbEntity
  8
0
  6
CONTINUOUS
 62
     7
100
AcDbVertex
100
AcDb2dVertex
 10
7.4533227381
 20
6.4843217213
 30
0.0
  0
VERTEX
  5
680
330
2A2
100
AcDbEntity
  8
0
  6
CONTINUOUS
 62
     7
100
AcDbVertex
100
AcDb2dVertex
 10
7.4516765624
 20
6.4677157308
 30
0.0
  0
VERTEX
  5
681
330
2A2
100
AcDbEntity
  8
0
  6
CONTINUOUS
 62
     7
100
AcDbVertex
100
AcDb2dVertex
 10
7.4516765624
 20
6.4519450715
 30
0.0
  0
VERTEX
  5
682
330
2A2
100
AcDbEntity
  8
0
  6
CONTINUOUS
 62
     7
100
AcDbVertex
100
AcDb2dVertex
 10
7.4533227381
 20
6.4372397151
 30
0.0
  0
VERTEX
  5
683
330
2A2
100
AcDbEntity
  8
0
  6
CONTINUOUS
 62
     7
100
AcDbVertex
100
AcDb2dVertex
 10
7.4565910845
 20
6.4238140987
 30
0.0
  0
VERTEX
  5
684
330
2A2
100
AcDbEntity
  8
0
  6
CONTINUOUS
 62
     7
100
AcDbVertex
100
AcDb2dVertex
 10
7.4614339418
 20
6.411863998
 30
0.0
  0
VERTEX
  5
685
330
2A2
100
AcDbEntity
  8
0
  6
CONTINUOUS
 62
     7
100
AcDbVertex
100
AcDb2dVertex
 10
7.4677806903
 20
6.4015636726
 30
0.0
  0
VERTEX
  5
686
330
2A2
100
AcDbEntity
  8
0
  6
CONTINUOUS
 62
     7
100
AcDbVertex
100
AcDb2dVertex
 10
7.4755387799
 20
6.3930633242
 30
0.0
  0
VERTEX
  5
687
330
2A2
100
AcDbEntity
  8
0
  6
CONTINUOUS
 62
     7
100
AcDbVertex
100
AcDb2dVertex
 10
7.4845950804
 20
6.3864869072
 30
0.0
  0
SEQEND
  5
688
330
2A2
100
AcDbEntity
  8
0
  6
CONTINUOUS
 62
     7
  0
LINE
  5
2A3
330
1F
100
AcDbEntity
  8
0
  6
CONTINUOUS
 62
     7
100
AcDbLine
 10
8.2677744905
 20
7.6618368893
 30
0.0
 11
8.2326317242
 21
7.6821243764
 31
0.0
  0
POLYLINE
  5
2A4
330
1F
100
AcDbEntity
  8
0
  6
CONTINUOUS
 62
     7
100
AcDb2dPolyline
 66
     1
 10
0.0
 20
0.0
 30
0.0
  0
VERTEX
  5
689
330
2A4
100
AcDbEntity
  8
0
  6
CONTINUOUS
 62
     7
100
AcDbVertex
100
AcDb2dVertex
 10
8.2326317242
 20
7.6821243764
 30
0.0
  0
VERTEX
  5
68A
330
2A4
100
AcDbEntity
  8
0
  6
CONTINUOUS
 62
     7
100
AcDbVertex
100
AcDb2dVertex
 10
8.2224092742
 20
7.6866809631
 30
0.0
  0
VERTEX
  5
68B
330
2A4
100
AcDbEntity
  8
0
  6
CONTINUOUS
 62
     7
100
AcDbVertex
100
AcDb2dVertex
 10
8.2111697409
 20
7.6891512743
 30
0.0
  0
VERTEX
  5
68C
330
2A4
100
AcDbEntity
  8
0
  6
CONTINUOUS
 62
     7
100
AcDbVertex
100
AcDb2dVertex
 10
8.1990770221
 20
7.6894992871
 30
0.0
  0
VERTEX
  5
68D
330
2A4
100
AcDbEntity
  8
0
  6
CONTINUOUS
 62
     7
100
AcDbVertex
100
AcDb2dVertex
 10
8.1863074568
 20
7.6877199269
 30
0.0
  0
VERTEX
  5
68E
330
2A4
100
AcDbEntity
  8
0
  6
CONTINUOUS
 62
     7
100
AcDbVertex
100
AcDb2dVertex
 10
8.1730472542
 20
7.6838391407
 30
0.0
  0
VERTEX
  5
68F
330
2A4
100
AcDbEntity
  8
0
  6
CONTINUOUS
 62
     7
100
AcDbVertex
100
AcDb2dVertex
 10
8.1594897777
 20
7.677913519
 30
0.0
  0
VERTEX
  5
690
330
2A4
100
AcDbEntity
  8
0
  6
CONTINUOUS
 62
     7
100
AcDbVertex
100
AcDb2dVertex
 10
8.1458327259
 20
7.6700294708
 30
0.0
  0
VERTEX
  5
691
330
2A4
100
AcDbEntity
  8
0
  6
CONTINUOUS
 62
     7
100
AcDbVertex
100
AcDb2dVertex
 10
8.1322752494
 20
7.6603019633
 30
0.0
  0
VERTEX
  5
692
330
2A4
100
AcDbEntity
  8
0
  6
CONTINUOUS
 62
     7
100
AcDbVertex
100
AcDb2dVertex
 10
8.1190150467
 20
7.6488728454
 30
0.0
  0
VERTEX
  5
693
330
2A4
100
AcDbEntity
  8
0
  6
CONTINUOUS
 62
     7
100
AcDbVertex
100
AcDb2dVertex
 10
8.1062454814
 20
7.6359087794
 30
0.0
  0
VERTEX
  5
694
330
2A4
100
AcDbEntity
  8
0
  6
CONTINUOUS
 62
     7
100
AcDbVertex
100
AcDb2dVertex
 10
8.0941527626
 20
7.6215988106
 30
0.0
  0
VERTEX
  5
695
330
2A4
100
AcDbEntity
  8
0
  6
CONTINUOUS
 62
     7
100
AcDbVertex
100
AcDb2dVertex
 10
8.0829132294
 20
7.6061516106
 30
0.0
  0
VERTEX
  5
696
330
2A4
100
AcDbEntity
  8
0
  6
CONTINUOUS
 62
     7
100
AcDbVertex
100
AcDb2dVertex
 10
8.0726907793
 20
7.5897924343
 30
0.0
  0
SEQEND
  5
697
330
2A4
100
AcDbEntity
  8
0
  6
CONTINUOUS
 62
     7
  0
LINE
  5
2A5
330
1F
100
AcDbEntity
  8
0
  6
CONTINUOUS
 62
     7
100
AcDbLine
 10
7.4845950804
 20
6.3864869072
 30
0.0
 11
7.5197476751
 21
6.3661871493
 31
0.0
  0
LINE
  5
2A6
330
1F
100
AcDbEntity
  8
0
  6
CONTINUOUS
 62
     7
100
AcDbLine
 10
7.6933202325
 20
7.9673738845
 30
0.0
 11
7.6933202325
 21
7.9574272
 31
0.0
  0
ARC
  5
2A7
330
1F
100
AcDbEntity
  8
0
  6
CONTINUOUS
 62
     8
100
AcDbCircle
 10
8.0714296618
 20
7.0141717087
 30
0.0
 40
0.1619900487974909
100
AcDbArc
 50
241.5741620653
 51
264.5012123762
  0
POLYLINE
  5
2A8
330
1F
100
AcDbEntity
  8
0
  6
CONTINUOUS
 62
     8
100
AcDb2dPolyline
 66
     1
 10
0.0
 20
0.0
 30
0.0
  0
VERTEX
  5
698
330
2A8
100
AcDbEntity
  8
0
  6
CONTINUOUS
 62
     8
100
AcDbVertex
100
AcDb2dVertex
 10
8.1710802087
 20
6.9617754654
 30
0.0
  0
VERTEX
  5
699
330
2A8
100
AcDbEntity
  8
0
  6
CONTINUOUS
 62
     8
100
AcDbVertex
100
AcDb2dVertex
 10
8.1613521199
 20
6.9681383075
 30
0.0
  0
VERTEX
  5
69A
330
2A8
100
AcDbEntity
  8
0
  6
CONTINUOUS
 62
     8
100
AcDbVertex
100
AcDb2dVertex
 10
8.1492020737
 20
6.9742542615
 30
0.0
  0
VERTEX
  5
69B
330
2A8
100
AcDbEntity
  8
0
  6
CONTINUOUS
 62
     8
100
AcDbVertex
100
AcDb2dVertex
 10
8.1357226045
 20
6.9793581684
 30
0.0
  0
VERTEX
  5
69C
330
2A8
100
AcDbEntity
  8
0
  6
CONTINUOUS
 62
     8
100
AcDbVertex
100
AcDb2dVertex
 10
8.1211648094
 20
6.9833549522
 30
0.0
  0
VERTEX
  5
69D
330
2A8
100
AcDbEntity
  8
0
  6
CONTINUOUS
 62
     8
100
AcDbVertex
100
AcDb2dVertex
 10
8.1057998726
 20
6.9861701602
 30
0.0
  0
VERTEX
  5
69E
330
2A8
100
AcDbEntity
  8
0
  6
CONTINUOUS
 62
     8
100
AcDbVertex
100
AcDb2dVertex
 10
8.0899140137
 20
6.9877513505
 30
0.0
  0
VERTEX
  5
69F
330
2A8
100
AcDbEntity
  8
0
  6
CONTINUOUS
 62
     8
100
AcDbVertex
100
AcDb2dVertex
 10
8.0738031564
 20
6.9880690685
 30
0.0
  0
VERTEX
  5
6A0
330
2A8
100
AcDbEntity
  8
0
  6
CONTINUOUS
 62
     8
100
AcDbVertex
100
AcDb2dVertex
 10
8.0577674152
 20
6.9871173958
 30
0.0
  0
VERTEX
  5
6A1
330
2A8
100
AcDbEntity
  8
0
  6
CONTINUOUS
 62
     8
100
AcDbVertex
100
AcDb2dVertex
 10
8.0421055059
 20
6.9849140601
 30
0.0
  0
VERTEX
  5
6A2
330
2A8
100
AcDbEntity
  8
0
  6
CONTINUOUS
 62
     8
100
AcDbVertex
100
AcDb2dVertex
 10
8.02710918
 20
6.9815001055
 30
0.0
  0
VERTEX
  5
6A3
330
2A8
100
AcDbEntity
  8
0
  6
CONTINUOUS
 62
     8
100
AcDbVertex
100
AcDb2dVertex
 10
8.0130577909
 20
6.9769391275
 30
0.0
  0
VERTEX
  5
6A4
330
2A8
100
AcDbEntity
  8
0
  6
CONTINUOUS
 62
     8
100
AcDbVertex
100
AcDb2dVertex
 10
8.0002130892
 20
6.9713160884
 30
0.0
  0
VERTEX
  5
6A5
330
2A8
100
AcDbEntity
  8
0
  6
CONTINUOUS
 62
     8
100
AcDbVertex
100
AcDb2dVertex
 10
7.9888143475
 20
6.9647357349
 30
0.0
  0
VERTEX
  5
6A6
330
2A8
100
AcDbEntity
  8
0
  6
CONTINUOUS
 62
     8
100
AcDbVertex
100
AcDb2dVertex
 10
7.9790739027
 20
6.9573206465
 30
0.0
  0
VERTEX
  5
6A7
330
2A8
100
AcDbEntity
  8
0
  6
CONTINUOUS
 62
     8
100
AcDbVertex
100
AcDb2dVertex
 10
7.971173201
 20
6.9492089522
 30
0.0
  0
VERTEX
  5
6A8
330
2A8
100
AcDbEntity
  8
0
  6
CONTINUOUS
 62
     8
100
AcDbVertex
100
AcDb2dVertex
 10
7.9652594174
 20
6.9405517575
 30
0.0
  0
VERTEX
  5
6A9
330
2A8
100
AcDbEntity
  8
0
  6
CONTINUOUS
 62
     8
100
AcDbVertex
100
AcDb2dVertex
 10
7.9614427145
 20
6.9315103297
 30
0.0
  0
VERTEX
  5
6AA
330
2A8
100
AcDbEntity
  8
0
  6
CONTINUOUS
 62
     8
100
AcDbVertex
100
AcDb2dVertex
 10
7.9597941904
 20
6.9222530934
 30
0.0
  0
VERTEX
  5
6AB
330
2A8
100
AcDbEntity
  8
0
  6
CONTINUOUS
 62
     8
100
AcDbVertex
100
AcDb2dVertex
 10
7.9603445538
 20
6.9129524934
 30
0.0
  0
VERTEX
  5
6AC
330
2A8
100
AcDbEntity
  8
0
  6
CONTINUOUS
 62
     8
100
AcDbVertex
100
AcDb2dVertex
 10
7.9630835525
 20
6.9037817823
 30
0.0
  0
VERTEX
  5
6AD
330
2A8
100
AcDbEntity
  8
0
  6
CONTINUOUS
 62
     8
100
AcDbVertex
100
AcDb2dVertex
 10
7.9679601643
 20
6.8949117931
 30
0.0
  0
VERTEX
  5
6AE
330
2A8
100
AcDbEntity
  8
0
  6
CONTINUOUS
 62
     8
100
AcDbVertex
100
AcDb2dVertex
 10
7.9748835469
 20
6.8865077569
 30
0.0
  0
VERTEX
  5
6AF
330
2A8
100
AcDbEntity
  8
0
  6
CONTINUOUS
 62
     8
100
AcDbVertex
100
AcDb2dVertex
 10
7.983724731
 20
6.8787262249
 30
0.0
  0
VERTEX
  5
6B0
330
2A8
100
AcDbEntity
  8
0
  6
CONTINUOUS
 62
     8
100
AcDbVertex
100
AcDb2dVertex
 10
7.994319022
 20
6.8717121525
 30
0.0
  0
SEQEND
  5
6B1
330
2A8
100
AcDbEntity
  8
0
  6
CONTINUOUS
 62
     8
  0
ARC
  5
2A9
330
1F
100
AcDbEntity
  8
0
  6
CONTINUOUS
 62
     8
100
AcDbCircle
 10
8.0267391555
 20
6.9331452861
 30
0.0
 40
0.0833739506200315
100
AcDbArc
 50
215.0105314692
 51
241.8144857902
  0
ARC
  5
2AA
330
1F
100
AcDbEntity
  8
0
  6
CONTINUOUS
 62
     8
100
AcDbCircle
 10
8.0632528006
 20
6.994784325
 30
0.0
 40
0.1549808374517936
100
AcDbArc
 50
240.6793996942
 51
256.4551022848
  0
ARC
  5
2AB
330
1F
100
AcDbEntity
  8
0
  6
CONTINUOUS
 62
     8
100
AcDbCircle
 10
7.3819319814
 20
7.3614428464
 30
0.0
 40
0.0927813785710118
100
AcDbArc
 50
166.5583108779
 51
228.0272259672
  0
ARC
  5
2AC
330
1F
100
AcDbEntity
  8
0
  6
CONTINUOUS
 62
     8
100
AcDbCircle
 10
8.1769421539
 20
7.8259999956
 30
0.0
 40
0.1817379696531246
100
AcDbArc
 50
31.0820490453
 51
58.1666913359
  0
ARC
  5
2AD
330
1F
100
AcDbEntity
  8
0
  6
CONTINUOUS
 62
     8
100
AcDbCircle
 10
8.2268323079
 20
7.9043597795
 30
0.0
 40
0.0888562918615177
100
AcDbArc
 50
58.8470733209
 51
81.3179017851
  0
LINE
  5
2AE
330
1F
100
AcDbEntity
  8
0
  6
CONTINUOUS
 62
     8
100
AcDbLine
 10
7.5197474735
 20
6.3661938626
 30
0.0
 11
7.4845950804
 21
6.3864869072
 31
0.0
  0
ENDSEC
  0
SECTION
  2
OBJECTS
  0
DICTIONARY
  5
C
330
0
100
AcDbDictionary
  3
ACAD_GROUP
350
D
  3
ACAD_LAYOUT
350
1A
  3
ACAD_MLEADERSTYLE
350
2B1
  3
ACAD_MLINESTYLE
350
17
  3
ACAD_PLOTSETTINGS
350
19
  3
ACAD_SCALELIST
350
6F
  3
ACAD_VISUALSTYLE
350
2A
  3
ACDBVARIABLEDICTIONARY
350
2AF
1001
ACAD
1000
TREAT_AS_HARD
1070
     0
  0
DICTIONARY
  5
D
102
{ACAD_REACTORS
330
C
102
}
330
C
100
AcDbDictionary
1001
ACAD
1000
TREAT_AS_HARD
1070
     0
  0
DICTIONARY
  5
1A
102
{ACAD_REACTORS
330
C
102
}
330
C
100
AcDbDictionary
1001
ACAD
1000
TREAT_AS_HARD
1070
     0
  0
DICTIONARY
  5
2B1
102
{ACAD_REACTORS
330
C
102
}
330
C
100
AcDbDictionary
1001
ACAD
1000
TREAT_AS_HARD
1070
     0
  0
DICTIONARY
  5
17
102
{ACAD_REACTORS
330
C
102
}
330
C
100
AcDbDictionary
  3
STANDARD
350
18
1001
ACAD
1000
TREAT_AS_HARD
1070
     0
  0
DICTIONARY
  5
19
102
{ACAD_REACTORS
330
C
102
}
330
C
100
AcDbDictionary
1001
ACAD
1000
TREAT_AS_HARD
1070
     0
  0
DICTIONARY
  5
6F
102
{ACAD_REACTORS
330
C
102
}
330
C
100
AcDbDictionary
  3
A0
350
70
  3
A1
350
71
  3
A2
350
72
  3
A3
350
73
  3
A4
350
74
  3
A5
350
75
  3
A6
350
76
  3
A7
350
77
  3
A8
350
78
  3
A9
350
79
  3
B0
350
7A
  3
B1
350
7B
  3
B2
350
7C
  3
B3
350
7D
  3
B4
350
7E
  3
B5
350
7F
  3
B6
350
80
  3
B7
350
81
  3
B8
350
82
  3
B9
350
83
  3
C0
350
84
  3
C1
350
85
  3
C2
350
86
  3
C3
350
87
  3
C4
350
88
  3
C5
350
89
  3
C6
350
8A
  3
C7
350
8B
  3
C8
350
8C
  3
C9
350
8D
  3
D0
350
8E
  3
D1
350
8F
  3
D2
350
90
1001
ACAD
1000
TREAT_AS_HARD
1070
     0
  0
DICTIONARY
  5
2A
102
{ACAD_REACTORS
330
C
102
}
330
C
100
AcDbDictionary
  3
2DWIREFRAME
350
2F
  3
3D_HIDDEN
350
31
  3
3DWIREFRAME
350
30
  3
BASIC
350
32
  3
BRIGHTEN
350
36
  3
COLORCHANGE
350
3A
  3
CONCEPTUAL
350
34
  3
DIM
350
35
  3
FACEPATTERN
350
39
  3
FLAT
350
2B
  3
FLATWITHEDGES
350
2C
  3
GOURAUD
350
2D
  3
GOURAUDWITHEDGES
350
2E
  3
LINEPATTERN
350
38
  3
REALISTIC
350
33
  3
THICKEN
350
37
1001
ACAD
1000
TREAT_AS_HARD
1070
     0
  0
DICTIONARY
  5
2AF
102
{ACAD_REACTORS
330
C
102
}
330
C
100
AcDbDictionary
  3
CANNOSCALE
350
2B2
  3
DIMASSOC
350
2B3
  3
HIDETEXT
350
2B4
1001
ACAD
1000
TREAT_AS_HARD
1070
     0
  0
MLINESTYLE
  5
18
102
{ACAD_REACTORS
330
17
102
}
330
17
100
AcDbMlineStyle
  2
Standard
 70
     0
  3

 62
   256
 51
90.0
 52
90.0
 71
     2
 49
0.5
 62
   256
  6
BYLAYER
 49
-0.5
 62
   256
  6
BYLAYER
  0
ACAD_PROXY_OBJECT
  5
70
102
{ACAD_REACTORS
330
6F
102
}
330
6F
100
AcDbZombieObject
 90
      499
 91
      502
 93
       41
310
903313A31580
  0
ACAD_PROXY_OBJECT
  5
71
102
{ACAD_REACTORS
330
6F
102
}
330
6F
100
AcDbZombieObject
 90
      499
 91
      502
 93
      105
310
903313A324000000000000004000
  0
ACAD_PROXY_OBJECT
  5
72
102
{ACAD_REACTORS
330
6F
102
}
330
6F
100
AcDbZombieObject
 90
      499
 91
      502
 93
      105
310
903313A344000000000000104000
  0
ACAD_PROXY_OBJECT
  5
73
102
{ACAD_REACTORS
330
6F
102
}
330
6F
100
AcDbZombieObject
 90
      499
 91
      502
 93
      105
310
903313A354000000000000144000
  0
ACAD_PROXY_OBJECT
  5
74
102
{ACAD_REACTORS
330
6F
102
}
330
6F
100
AcDbZombieObject
 90
      499
 91
      502
 93
      105
310
903313A384000000000000204000
  0
ACAD_PROXY_OBJECT
  5
75
102
{ACAD_REACTORS
330
6F
102
}
330
6F
100
AcDbZombieObject
 90
      499
 91
      502
 93
      113
310
904313A31304000000000000244000
  0
ACAD_PROXY_OBJECT
  5
76
102
{ACAD_REACTORS
330
6F
102
}
330
6F
100
AcDbZombieObject
 90
      499
 91
      502
 93
      113
310
904313A31364000000000000304000
  0
ACAD_PROXY_OBJECT
  5
77
102
{ACAD_REACTORS
330
6F
102
}
330
6F
100
AcDbZombieObject
 90
      499
 91
      502
 93
      113
310
904313A32304000000000000344000
  0
ACAD_PROXY_OBJECT
  5
78
102
{ACAD_REACTORS
330
6F
102
}
330
6F
100
AcDbZombieObject
 90
      499
 91
      502
 93
      113
310
904313A333040000000000003E4000
  0
ACAD_PROXY_OBJECT
  5
79
102
{ACAD_REACTORS
330
6F
102
}
330
6F
100
AcDbZombieObject
 90
      499
 91
      502
 93
      113
310
904313A34304000000000000444000
  0
ACAD_PROXY_OBJECT
  5
7A
102
{ACAD_REACTORS
330
6F
102
}
330
6F
100
AcDbZombieObject
 90
      499
 91
      502
 93
      113
310
904313A35304000000000000494000
  0
ACAD_PROXY_OBJECT
  5
7B
102
{ACAD_REACTORS
330
6F
102
}
330
6F
100
AcDbZombieObject
 90
      499
 91
      502
 93
      121
310
905313A3130304000000000000594000
  0
ACAD_PROXY_OBJECT
  5
7C
102
{ACAD_REACTORS
330
6F
102
}
330
6F
100
AcDbZombieObject
 90
      499
 91
      502
 93
      105
310
903323A310000000000000010100
  0
ACAD_PROXY_OBJECT
  5
7D
102
{ACAD_REACTORS
330
6F
102
}
330
6F
100
AcDbZombieObject
 90
      499
 91
      502
 93
      105
310
903343A310000000000000410100
  0
ACAD_PROXY_OBJECT
  5
7E
102
{ACAD_REACTORS
330
6F
102
}
330
6F
100
AcDbZombieObject
 90
      499
 91
      502
 93
      105
310
903383A310000000000000810100
  0
ACAD_PROXY_OBJECT
  5
7F
102
{ACAD_REACTORS
330
6F
102
}
330
6F
100
AcDbZombieObject
 90
      499
 91
      502
 93
      113
310
90431303A310000000000000910100
  0
ACAD_PROXY_OBJECT
  5
80
102
{ACAD_REACTORS
330
6F
102
}
330
6F
100
AcDbZombieObject
 90
      499
 91
      502
 93
      121
310
9053130303A310000000000001650100
  0
ACAD_PROXY_OBJECT
  5
81
102
{ACAD_REACTORS
330
6F
102
}
330
6F
100
AcDbZombieObject
 90
      499
 91
      502
 93
      257
310
90E312F31323822203D2031272D3022000000000000200FC000000000000284000
  0
ACAD_PROXY_OBJECT
  5
82
102
{ACAD_REACTORS
330
6F
102
}
330
6F
100
AcDbZombieObject
 90
      499
 91
      502
 93
      249
310
90D312F363422203D2031272D3022000000000000240FC000000000000284000
  0
ACAD_PROXY_OBJECT
  5
83
102
{ACAD_REACTORS
330
6F
102
}
330
6F
100
AcDbZombieObject
 90
      499
 91
      502
 93
      249
310
90D312F333222203D2031272D3022000000000000280FC000000000000284000
  0
ACAD_PROXY_OBJECT
  5
84
102
{ACAD_REACTORS
330
6F
102
}
330
6F
100
AcDbZombieObject
 90
      499
 91
      502
 93
      249
310
90D312F313622203D2031272D30220000000000002C0FC000000000000284000
  0
ACAD_PROXY_OBJECT
  5
85
102
{ACAD_REACTORS
330
6F
102
}
330
6F
100
AcDbZombieObject
 90
      499
 91
      502
 93
      249
310
90D332F333222203D2031272D30220000000000002E0FC000000000000284000
  0
ACAD_PROXY_OBJECT
  5
86
102
{ACAD_REACTORS
330
6F
102
}
330
6F
100
AcDbZombieObject
 90
      499
 91
      502
 93
      241
310
90C312F3822203D2031272D3022000000000000300FC000000000000284000
  0
ACAD_PROXY_OBJECT
  5
87
102
{ACAD_REACTORS
330
6F
102
}
330
6F
100
AcDbZombieObject
 90
      499
 91
      502
 93
      249
310
90D332F313622203D2031272D3022000000000000320FC000000000000284000
  0
ACAD_PROXY_OBJECT
  5
88
102
{ACAD_REACTORS
330
6F
102
}
330
6F
100
AcDbZombieObject
 90
      499
 91
      502
 93
      241
310
90C312F3422203D2031272D3022000000000000340FC000000000000284000
  0
ACAD_PROXY_OBJECT
  5
89
102
{ACAD_REACTORS
330
6F
102
}
330
6F
100
AcDbZombieObject
 90
      499
 91
      502
 93
      241
310
90C332F3822203D2031272D3022000000000000360FC000000000000284000
  0
ACAD_PROXY_OBJECT
  5
8A
102
{ACAD_REACTORS
330
6F
102
}
330
6F
100
AcDbZombieObject
 90
      499
 91
      502
 93
      241
310
90C312F3222203D2031272D3022000000000000380FC000000000000284000
  0
ACAD_PROXY_OBJECT
  5
8B
102
{ACAD_REACTORS
330
6F
102
}
330
6F
100
AcDbZombieObject
 90
      499
 91
      502
 93
      241
310
90C332F3422203D2031272D30220000000000003A0FC000000000000284000
  0
ACAD_PROXY_OBJECT
  5
8C
102
{ACAD_REACTORS
330
6F
102
}
330
6F
100
AcDbZombieObject
 90
      499
 91
      502
 93
      161
310
90A3122203D2031272D30224000000000000284000
  0
ACAD_PROXY_OBJECT
  5
8D
102
{ACAD_REACTORS
330
6F
102
}
330
6F
100
AcDbZombieObject
 90
      499
 91
      502
 93
      257
310
90E312D312F3222203D2031272D30220000000000003E0FC000000000000284000
  0
ACAD_PROXY_OBJECT
  5
8E
102
{ACAD_REACTORS
330
6F
102
}
330
6F
100
AcDbZombieObject
 90
      499
 91
      502
 93
      225
310
90A3322203D2031272D302200000000000002100000000000000284000
  0
ACAD_PROXY_OBJECT
  5
8F
102
{ACAD_REACTORS
330
6F
102
}
330
6F
100
AcDbZombieObject
 90
      499
 91
      502
 93
      225
310
90A3622203D2031272D302200000000000006100000000000000284000
  0
ACAD_PROXY_OBJECT
  5
90
102
{ACAD_REACTORS
330
6F
102
}
330
6F
100
AcDbZombieObject
 90
      499
 91
      502
 93
      249
310
90D31272D3022203D2031272D30220000000000000A100000000000000284000
  0
ACAD_PROXY_OBJECT
  5
2F
102
{ACAD_REACTORS
330
2A
102
}
330
2A
100
AcDbZombieObject
 90
      499
 91
      501
 93
      436
310
42CC9915DA5C99599C985B595049028333333333333E3BF0000000000000FB0107901411070040501600405405064090741402480A0340
1001
ACAD
1000
AcDbSavedByObjectVersion
1070
     0
  0
ACAD_PROXY_OBJECT
  5
31
102
{ACAD_REACTORS
330
2A
102
}
330
2A
100
AcDbZombieObject
 90
      499
 91
      501
 93
      500
310
424CD108121A5919195B90640502408333333333333E3BF0000000000000FB01079024090700405020000000000001110200405405064090740C02480A0340
1001
ACAD
1000
AcDbSavedByObjectVersion
1070
     0
  0
ACAD_PROXY_OBJECT
  5
30
102
{ACAD_REACTORS
330
2A
102
}
330
2A
100
AcDbZombieObject
 90
      499
 91
      501
 93
      436
310
42CCD915DA5C99599C985B595059028333333333333E3BF0000000000000FB0107901411070040501600405405064090741402480A0340
1001
ACAD
1000
AcDbSavedByObjectVersion
1070
     0
  0
ACAD_PROXY_OBJECT
  5
32
102
{ACAD_REACTORS
330
2A
102
}
330
2A
100
AcDbZombieObject
 90
      499
 91
      501
 93
      388
310
4150985CDA58D07406404333333333333E3BF0000000000000FB0107A41107004050150841D405064090741402480A0350
1001
ACAD
1000
AcDbSavedByObjectVersion
1070
     0
  0
ACAD_PROXY_OBJECT
  5
36
102
{ACAD_REACTORS
330
2A
102
}
330
2A
100
AcDbZombieObject
 90
      499
 91
      501
 93
      428
310
42109C9A59DA1D195B90C409028333333333333E3BF0000000000000FB010790141107004050150841D405064090741402480A029950
1001
ACAD
1000
AcDbSavedByObjectVersion
1070
     0
  0
ACAD_PROXY_OBJECT
  5
3A
102
{ACAD_REACTORS
330
2A
102
}
330
2A
100
AcDbZombieObject
 90
      499
 91
      501
 93
      452
310
42D0DBDB1BDC90DA185B99D95104090240C333333333333E3BF0000000000000FB0108901411070040501508421405064090741402480A0350
1001
ACAD
1000
AcDbSavedByObjectVersion
1070
     0
  0
ACAD_PROXY_OBJECT
  5
34
102
{ACAD_REACTORS
330
2A
102
}
330
2A
100
AcDbZombieObject
 90
      499
 91
      501
 93
      500
310
4290DBDB98D95C1D1D585B10940D028333333333333E3BF0000000000000FB0107902409070040501000000000000111010841D405064090740C02480A0340
1001
ACAD
1000
AcDbSavedByObjectVersion
1070
     0
  0
ACAD_PROXY_OBJECT
  5
35
102
{ACAD_REACTORS
330
2A
102
}
330
2A
100
AcDbZombieObject
 90
      499
 91
      501
 93
      412
310
40D11A5B50B409028333333333333E3BF0000000000000FB010790141107004050150841D405064090741402480A02677FFFFFD0
1001
ACAD
1000
AcDbSavedByObjectVersion
1070
     0
  0
ACAD_PROXY_OBJECT
  5
39
102
{ACAD_REACTORS
330
2A
102
}
330
2A
100
AcDbZombieObject
 90
      499
 91
      501
 93
      444
310
42D19858D95C185D1D195C9B90F409028333333333333E3BF0000000000000FB010790141107004050150841D405064090741402480A0350
1001
ACAD
1000
AcDbSavedByObjectVersion
1070
     0
  0
ACAD_PROXY_OBJECT
  5
2B
102
{ACAD_REACTORS
330
2A
102
}
330
2A
100
AcDbZombieObject
 90
      499
 91
      501
 93
      388
310
41119B185D240901404333333333333E3BF0000000000000F9010740A41107004050150841D405064090741402480A1B50
1001
ACAD
1000
AcDbSavedByObjectVersion
1070
     0
  0
ACAD_PROXY_OBJECT
  5
2C
102
{ACAD_REACTORS
330
2A
102
}
330
2A
100
AcDbZombieObject
 90
      499
 91
      501
 93
      476
310
43519B185D15DA5D1A115919D95CD0140901404333333333333E3BF0000000000000F9010740901411070040501600405405064090741402480A1B50
1001
ACAD
1000
AcDbSavedByObjectVersion
1070
     0
  0
ACAD_PROXY_OBJECT
  5
2D
102
{ACAD_REACTORS
330
2A
102
}
330
2A
100
AcDbZombieObject
 90
      499
 91
      501
 93
      412
310
41D1DBDD5C985D5910240902404333333333333E3BF0000000000000F9010740A411070040501641D405064090741402480A1B50
1001
ACAD
1000
AcDbSavedByObjectVersion
1070
     0
  0
ACAD_PROXY_OBJECT
  5
2E
102
{ACAD_REACTORS
330
2A
102
}
330
2A
100
AcDbZombieObject
 90
      499
 91
      501
 93
      500
310
4411DBDD5C985D5915DA5D1A115919D95CD0340902404333333333333E3BF0000000000000F9010740901411070040501600405405064090741402480A1B50
1001
ACAD
1000
AcDbSavedByObjectVersion
1070
     0
  0
ACAD_PROXY_OBJECT
  5
38
102
{ACAD_REACTORS
330
2A
102
}
330
2A
100
AcDbZombieObject
 90
      499
 91
      501
 93
      444
310
42D31A5B995C185D1D195C9B90E409028333333333333E3BF0000000000000FB010790141107004050750841D405064090741402483A0350
1001
ACAD
1000
AcDbSavedByObjectVersion
1070
     0
  0
ACAD_PROXY_OBJECT
  5
33
102
{ACAD_REACTORS
330
2A
102
}
330
2A
100
AcDbZombieObject
 90
      499
 91
      501
 93
      420
310
425499585B1A5CDD1A58D08409028333333333333E3BF0000000000000FB01079019070040501508421405064090741402480A1B40
1001
ACAD
1000
AcDbSavedByObjectVersion
1070
     0
  0
ACAD_PROXY_OBJECT
  5
37
102
{ACAD_REACTORS
330
2A
102
}
330
2A
100
AcDbZombieObject
 90
      499
 91
      501
 93
      412
310
41D51A1A58DAD95B90D409028333333333333E3BF0000000000000FB010790141107004050150C41D405064090741402480A0350
1001
ACAD
1000
AcDbSavedByObjectVersion
1070
     0
  0
DICTIONARYVAR
  5
2B2
102
{ACAD_REACTORS
330
2AF
102
}
330
2AF
100
DictionaryVariables
280
     0
  1
1:1
  0
DICTIONARYVAR
  5
2B3
102
{ACAD_REACTORS
330
2AF
102
}
330
2AF
100
DictionaryVariables
280
     0
  1
2
  0
DICTIONARYVAR
  5
2B4
102
{ACAD_REACTORS
330
2AF
102
}
330
2AF
100
DictionaryVariables
280
     0
  1
1
  0
ENDSEC
  0
EOF
