  0
SECTION
  2
HEADER
  9
$ACADVER
  1
AC1012
  9
$DWGCODEPAGE
  3
ansi_1252
  9
$INSBASE
 10
0.0
 20
0.0
 30
0.0
  9
$EXTMIN
 10
0.0
 20
0.0
 30
0.0
  9
$EXTMAX
 10
11.0
 20
8.5
 30
0.0
  9
$LIMMIN
 10
0.0
 20
0.0
  9
$LIMMAX
 10
11.0
 20
8.5
  9
$ORTHOMODE
 70
     0
  9
$REGENMODE
 70
     1
  9
$FILLMODE
 70
     1
  9
$QTEXTMODE
 70
     0
  9
$MIRRTEXT
 70
     1
  9
$DRAGMODE
 70
     2
  9
$LTSCALE
 40
1.0
  9
$OSMODE
 70
    37
  9
$ATTMODE
 70
     1
  9
$TEXTSIZE
 40
0.125
  9
$TRACEWID
 40
0.05
  9
$TEXTSTYLE
  7
STANDARD
  9
$CLAYER
  8
0
  9
$CELTYPE
  6
BYLAYER
  9
$CECOLOR
 62
   256
  9
$CELTSCALE
 40
1.0
  9
$DELOBJ
 70
     1
  9
$DISPSILH
 70
     0
  9
$DIMSCALE
 40
1.0
  9
$DIMASZ
 40
0.13
  9
$DIMEXO
 40
0.05
  9
$DIMDLI
 40
0.38
  9
$DIMRND
 40
0.0
  9
$DIMDLE
 40
0.0
  9
$DIMEXE
 40
0.125
  9
$DIMTP
 40
0.0
  9
$DIMTM
 40
0.0
  9
$DIMTXT
 40
0.125
  9
$DIMCEN
 40
0.09
  9
$DIMTSZ
 40
0.0
  9
$DIMTOL
 70
     0
  9
$DIMLIM
 70
     0
  9
$DIMTIH
 70
     1
  9
$DIMTOH
 70
     1
  9
$DIMSE1
 70
     0
  9
$DIMSE2
 70
     0
  9
$DIMTAD
 70
     0
  9
$DIMZIN
 70
     0
  9
$DIMBLK
  1

  9
$DIMASO
 70
     1
  9
$DIMSHO
 70
     1
  9
$DIMPOST
  1

  9
$DIMAPOST
  1

  9
$DIMALT
 70
     0
  9
$DIMALTD
 70
     2
  9
$DIMALTF
 40
25.4
  9
$DIMLFAC
 40
0.5
  9
$DIMTOFL
 70
     0
  9
$DIMTVP
 40
0.0
  9
$DIMTIX
 70
     0
  9
$DIMSOXD
 70
     0
  9
$DIMSAH
 70
     0
  9
$DIMBLK1
  1

  9
$DIMBLK2
  1

  9
$DIMSTYLE
  2
STANDARD
  9
$DIMCLRD
 70
     0
  9
$DIMCLRE
 70
     0
  9
$DIMCLRT
 70
     0
  9
$DIMTFAC
 40
1.0
  9
$DIMGAP
 40
0.06
  9
$DIMJUST
 70
     0
  9
$DIMSD1
 70
     0
  9
$DIMSD2
 70
     0
  9
$DIMTOLJ
 70
     1
  9
$DIMTZIN
 70
     0
  9
$DIMALTZ
 70
     0
  9
$DIMALTTZ
 70
     0
  9
$DIMFIT
 70
     3
  9
$DIMUPT
 70
     0
  9
$DIMUNIT
 70
     2
  9
$DIMDEC
 70
     3
  9
$DIMTDEC
 70
     3
  9
$DIMALTU
 70
     2
  9
$DIMALTTD
 70
     2
  9
$DIMTXSTY
  7
STANDARD
  9
$DIMAUNIT
 70
     0
  9
$LUNITS
 70
     2
  9
$LUPREC
 70
     2
  9
$SKETCHINC
 40
0.1
  9
$FILLETRAD
 40
0.5
  9
$AUNITS
 70
     0
  9
$AUPREC
 70
     2
  9
$MENU
  1
.
  9
$ELEVATION
 40
0.0
  9
$PELEVATION
 40
0.0
  9
$THICKNESS
 40
0.0
  9
$LIMCHECK
 70
     0
  9
$CHAMFERA
 40
0.5
  9
$CHAMFERB
 40
0.5
  9
$CHAMFERC
 40
1.0
  9
$CHAMFERD
 40
0.0
  9
$SKPOLY
 70
     0
  9
$TDCREATE
 40
2455783.999493877
  9
$TDUPDATE
 40
2455783.999493889
  9
$TDINDWG
 40
0.0000000116
  9
$TDUSRTIMER
 40
0.0000000116
  9
$USRTIMER
 70
     1
  9
$ANGBASE
 50
0.0
  9
$ANGDIR
 70
     0
  9
$PDMODE
 70
     0
  9
$PDSIZE
 40
-1.0
  9
$PLINEWID
 40
0.0
  9
$COORDS
 70
     1
  9
$SPLFRAME
 70
     0
  9
$SPLINETYPE
 70
     6
  9
$SPLINESEGS
 70
     8
  9
$ATTDIA
 70
     0
  9
$ATTREQ
 70
     1
  9
$HANDLING
 70
     1
  9
$HANDSEED
  5
432
  9
$SURFTAB1
 70
     6
  9
$SURFTAB2
 70
     6
  9
$SURFTYPE
 70
     6
  9
$SURFU
 70
     6
  9
$SURFV
 70
     6
  9
$UCSNAME
  2

  9
$UCSORG
 10
0.0
 20
0.0
 30
0.0
  9
$UCSXDIR
 10
1.0
 20
0.0
 30
0.0
  9
$UCSYDIR
 10
0.0
 20
1.0
 30
0.0
  9
$PUCSNAME
  2

  9
$PUCSORG
 10
0.0
 20
0.0
 30
0.0
  9
$PUCSXDIR
 10
1.0
 20
0.0
 30
0.0
  9
$PUCSYDIR
 10
0.0
 20
1.0
 30
0.0
  9
$USERI1
 70
     0
  9
$USERI2
 70
     0
  9
$USERI3
 70
     0
  9
$USERI4
 70
     0
  9
$USERI5
 70
     0
  9
$USERR1
 40
0.0
  9
$USERR2
 40
0.0
  9
$USERR3
 40
0.0
  9
$USERR4
 40
0.0
  9
$USERR5
 40
0.0
  9
$WORLDVIEW
 70
     1
  9
$SHADEDGE
 70
     3
  9
$SHADEDIF
 70
    70
  9
$TILEMODE
 70
     1
  9
$MAXACTVP
 70
    64
  9
$PINSBASE
 10
0.0
 20
0.0
 30
0.0
  9
$PLIMCHECK
 70
     0
  9
$PEXTMIN
 10
1.0000000000E+20
 20
1.0000000000E+20
 30
1.0000000000E+20
  9
$PEXTMAX
 10
-1.0000000000E+20
 20
-1.0000000000E+20
 30
-1.0000000000E+20
  9
$PLIMMIN
 10
0.0
 20
0.0
  9
$PLIMMAX
 10
12.0
 20
9.0
  9
$UNITMODE
 70
     0
  9
$VISRETAIN
 70
     1
  9
$PLINEGEN
 70
     0
  9
$PSLTSCALE
 70
     1
  9
$TREEDEPTH
 70
  3020
  9
$PICKSTYLE
 70
     1
  9
$CMLSTYLE
  2
STANDARD
  9
$CMLJUST
 70
     0
  9
$CMLSCALE
 40
1.0
  9
$SAVEIMAGES
 70
     1
  0
ENDSEC
  0
SECTION
  2
CLASSES
  0
CLASS
  1
ACDBDICTIONARYWDFLT
  2
AcDbDictionaryWithDefault
  3
ObjectDBX Classes
 90
    32768
280
     0
281
     0
  0
CLASS
  1
VISUALSTYLE
  2
AcDbVisualStyle
  3
ObjectDBX Classes
 90
     4095
280
     0
281
     0
  0
CLASS
  1
SCALE
  2
AcDbScale
  3
ObjectDBX Classes
 90
     1153
280
     0
281
     0
  0
CLASS
  1
DICTIONARYVAR
  2
AcDbDictionaryVar
  3
ObjectDBX Classes
 90
        0
280
     0
281
     0
  0
CLASS
  1
XRECORD
  2
AcDbXrecord
  3
AutoCAD 2000
 90
    32768
280
     0
281
     0
  0
CLASS
  1
LWPOLYLINE
  2
AcDbPolyline
  3
AutoCAD 2000
 90
    32768
280
     0
281
     1
  0
CLASS
  1
HATCH
  2
AcDbHatch
  3
AutoCAD 2000
 90
    32768
280
     0
281
     1
  0
CLASS
  1
ACDBPLACEHOLDER
  2
AcDbPlaceHolder
  3
ObjectDBX Classes
 90
        0
280
     0
281
     0
  0
CLASS
  1
LAYOUT
  2
AcDbLayout
  3
ObjectDBX Classes
 90
        0
280
     0
281
     0
  0
ENDSEC
  0
SECTION
  2
TABLES
  0
TABLE
  2
VPORT
  5
8
330
0
100
AcDbSymbolTable
 70
     1
  0
VPORT
  5
29
330
8
100
AcDbSymbolTableRecord
100
AcDbViewportTableRecord
  2
*ACTIVE
 70
     0
 10
0.0
 20
0.0
 11
1.0
 21
1.0
 12
5.5
 22
4.25
 13
0.0
 23
0.0
 14
0.5
 24
0.5
 15
0.5
 25
0.5
 16
0.0
 26
0.0
 36
1.0
 17
0.0
 27
0.0
 37
0.0
 40
8.5
 41
1.2941176471
 42
50.0
 43
0.0
 44
0.0
 50
0.0
 51
0.0
 71
     0
 72
  2000
 73
     1
 74
     3
 75
     0
 76
     0
 77
     0
 78
     0
  0
ENDTAB
  0
TABLE
  2
LTYPE
  5
5
330
0
100
AcDbSymbolTable
 70
     6
  0
LTYPE
  5
14
330
5
100
AcDbSymbolTableRecord
100
AcDbLinetypeTableRecord
  2
BYBLOCK
 70
     0
  3

 72
    65
 73
     0
 40
0.0
  0
LTYPE
  5
15
330
5
100
AcDbSymbolTableRecord
100
AcDbLinetypeTableRecord
  2
BYLAYER
 70
     0
  3

 72
    65
 73
     0
 40
0.0
  0
LTYPE
  5
16
330
5
100
AcDbSymbolTableRecord
100
AcDbLinetypeTableRecord
  2
CONTINUOUS
 70
     0
  3
Solid line
 72
    65
 73
     0
 40
0.0
  0
LTYPE
  5
3B
330
5
100
AcDbSymbolTableRecord
100
AcDbLinetypeTableRecord
  2
HIDDEN
 70
     0
  3
Hidden __ __ __ __ __ __ __ __ __ __ __ __ __ __
 72
    65
 73
     2
 40
0.075
 49
0.05
 74
     0
 49
-0.025
 74
     0
  0
LTYPE
  5
3C
330
5
100
AcDbSymbolTableRecord
100
AcDbLinetypeTableRecord
  2
PHANTOM
 70
     0
  3
Phantom ______  __  __  ______  __  __  ______
 72
    65
 73
     6
 40
0.5
 49
0.25
 74
     0
 49
-0.05
 74
     0
 49
0.05
 74
     0
 49
-0.05
 74
     0
 49
0.05
 74
     0
 49
-0.05
 74
     0
  0
LTYPE
  5
3D
330
5
100
AcDbSymbolTableRecord
100
AcDbLinetypeTableRecord
  2
CENTER
 70
     0
  3
Center ____ _ ____ _ ____ _ ____ _ ____ _ ____
 72
    65
 73
     4
 40
0.4
 49
0.25
 74
     0
 49
-0.05
 74
     0
 49
0.05
 74
     0
 49
-0.05
 74
     0
  0
LTYPE
  5
3E
330
5
100
AcDbSymbolTableRecord
100
AcDbLinetypeTableRecord
  2
CENTERX2
 70
     0
  3
Center (2x) ________  __  ________  __  _____
 72
    65
 73
     4
 40
0.8
 49
0.5
 74
     0
 49
-0.1
 74
     0
 49
0.1
 74
     0
 49
-0.1
 74
     0
  0
LTYPE
  5
3F
330
5
100
AcDbSymbolTableRecord
100
AcDbLinetypeTableRecord
  2
DOT2
 70
     0
  3
Dot (.5x) ........................................
 72
    65
 73
     2
 40
0.025
 49
0.0
 74
     0
 49
-0.025
 74
     0
  0
ENDTAB
  0
TABLE
  2
LAYER
  5
2
330
0
100
AcDbSymbolTable
 70
     2
  0
LAYER
  5
10
330
2
100
AcDbSymbolTableRecord
100
AcDbLayerTableRecord
  2
0
 70
     0
 62
     7
  6
CONTINUOUS
  0
LAYER
  5
40
330
2
100
AcDbSymbolTableRecord
100
AcDbLayerTableRecord
  2
FORMAT
 70
     0
 62
     7
  6
CONTINUOUS
  0
ENDTAB
  0
TABLE
  2
STYLE
  5
3
330
0
100
AcDbSymbolTable
 70
     4
  0
STYLE
  5
11
330
3
100
AcDbSymbolTableRecord
100
AcDbTextStyleTableRecord
  2
STANDARD
 70
     0
 40
0.0
 41
1.0
 50
0.0
 71
     0
 42
0.2
  3
txt
  4

  0
STYLE
  5
6E
330
3
100
AcDbSymbolTableRecord
100
AcDbTextStyleTableRecord
  2
SLDTEXTSTYLE0
 70
     0
 40
0.0
 41
0.75
 50
0.0
 71
     0
 42
0.2
  3
TXT
  4

  0
STYLE
  5
93
330
3
100
AcDbSymbolTableRecord
100
AcDbTextStyleTableRecord
  2
SLDTEXTSTYLE1
 70
     0
 40
0.0
 41
0.6875
 50
0.0
 71
     0
 42
0.2
  3
TXT
  4

  0
STYLE
  5
99
330
3
100
AcDbSymbolTableRecord
100
AcDbTextStyleTableRecord
  2
SLDTEXTSTYLE2
 70
     0
 40
0.0
 41
0.6944444444
 50
0.0
 71
     0
 42
0.2
  3
TXT
  4

  0
ENDTAB
  0
TABLE
  2
VIEW
  5
6
330
0
100
AcDbSymbolTable
 70
     0
  0
ENDTAB
  0
TABLE
  2
UCS
  5
7
330
0
100
AcDbSymbolTable
 70
     0
  0
ENDTAB
  0
TABLE
  2
APPID
  5
9
330
0
100
AcDbSymbolTable
 70
     1
  0
APPID
  5
12
330
9
100
AcDbSymbolTableRecord
100
AcDbRegAppTableRecord
  2
ACAD
 70
     0
  0
ENDTAB
  0
TABLE
  2
DIMSTYLE
  5
A
330
0
100
AcDbSymbolTable
 70
     1
  0
DIMSTYLE
105
27
330
A
100
AcDbSymbolTableRecord
100
AcDbDimStyleTableRecord
  2
STANDARD
 70
     0
  3

  4

  5

  6

  7

 40
1.0
 41
0.18
 42
0.0625
 43
0.38
 44
0.18
 45
0.0
 46
0.0
 47
0.0
 48
0.0
140
0.18
141
0.09
142
0.0
143
25.4
144
1.0
145
0.0
146
1.0
147
0.09
 71
     0
 72
     0
 73
     1
 74
     1
 75
     0
 76
     0
 77
     0
 78
     0
170
     0
171
     2
172
     0
173
     0
174
     0
175
     0
176
     0
177
     0
178
     0
270
     2
271
     4
272
     4
273
     2
274
     2
340
11
275
     0
280
     0
281
     0
282
     0
283
     1
284
     0
285
     0
286
     0
287
     3
288
     0
  0
ENDTAB
  0
TABLE
  2
BLOCK_RECORD
  5
1
330
0
100
AcDbSymbolTable
 70
     4
  0
BLOCK_RECORD
  5
1F
330
1
100
AcDbSymbolTableRecord
100
AcDbBlockTableRecord
  2
*MODEL_SPACE
  0
BLOCK_RECORD
  5
1B
330
1
100
AcDbSymbolTableRecord
100
AcDbBlockTableRecord
  2
*PAPER_SPACE
  0
BLOCK_RECORD
  5
A8
330
1
100
AcDbSymbolTableRecord
100
AcDbBlockTableRecord
  2
SW_NOTE_0
  0
BLOCK_RECORD
  5
AE
330
1
100
AcDbSymbolTableRecord
100
AcDbBlockTableRecord
  2
SW_NOTE_1
  0
BLOCK_RECORD
  5
C2
330
1
100
AcDbSymbolTableRecord
100
AcDbBlockTableRecord
  2
SW_NOTE_2
  0
ENDTAB
  0
ENDSEC
  0
SECTION
  2
BLOCKS
  0
BLOCK
  5
20
330
1F
100
AcDbEntity
  8
0
100
AcDbBlockBegin
  2
*MODEL_SPACE
 70
     0
 10
0.0
 20
0.0
 30
0.0
  3
*MODEL_SPACE
  1

  0
ENDBLK
  5
21
330
1F
100
AcDbEntity
  8
0
100
AcDbBlockEnd
  0
BLOCK
  5
1C
330
1B
100
AcDbEntity
 67
     1
  8
0
100
AcDbBlockBegin
  2
*PAPER_SPACE
 70
     0
 10
0.0
 20
0.0
 30
0.0
  3
*PAPER_SPACE
  1

  0
ENDBLK
  5
1D
330
1B
100
AcDbEntity
 67
     1
  8
0
100
AcDbBlockEnd
  0
BLOCK
  5
A9
330
A8
100
AcDbEntity
  8
0
100
AcDbBlockBegin
  2
SW_NOTE_0
 70
     0
 10
0.0
 20
0.0
 30
0.0
  3
SW_NOTE_0
  1

  0
MTEXT
  5
AB
330
A8
100
AcDbEntity
  8
0
  6
CONTINUOUS
 62
     0
100
AcDbMText
 10
0.0
 20
0.0773440644
 30
0.0
 40
0.06
 41
0.0
 71
     1
 72
     1
  1
INTERPRET GEOMETRIC
  7
SLDTEXTSTYLE0
  0
MTEXT
  5
AC
330
A8
100
AcDbEntity
  8
0
  6
CONTINUOUS
 62
     0
100
AcDbMText
 10
0.0
 20
-0.0220260102
 30
0.0
 40
0.06
 41
0.0
 71
     1
 72
     1
  1
TOLERANCING PER:
  7
SLDTEXTSTYLE0
  0
ENDBLK
  5
AA
330
A8
100
AcDbEntity
  8
0
100
AcDbBlockEnd
  0
BLOCK
  5
AF
330
AE
100
AcDbEntity
  8
0
100
AcDbBlockBegin
  2
SW_NOTE_1
 70
     0
 10
0.0
 20
0.0
 30
0.0
  3
SW_NOTE_1
  1

  0
MTEXT
  5
B1
330
AE
100
AcDbEntity
  8
0
  6
CONTINUOUS
 62
     0
100
AcDbMText
 10
0.0
 20
0.0837894031
 30
0.0
 40
0.065
 41
0.0
 71
     1
 72
     1
  1
DIMENSIONS ARE IN INCHES
  7
SLDTEXTSTYLE0
  0
MTEXT
  5
B2
330
AE
100
AcDbEntity
  8
0
  6
CONTINUOUS
 62
     0
100
AcDbMText
 10
0.0
 20
-0.0205806729
 30
0.0
 40
0.065
 41
0.0
 71
     1
 72
     1
  1
TOLERANCES:
  7
SLDTEXTSTYLE0
  0
MTEXT
  5
B3
330
AE
100
AcDbEntity
  8
0
  6
CONTINUOUS
 62
     0
100
AcDbMText
 10
0.0
 20
-0.1249507489
 30
0.0
 40
0.065
 41
0.0
 71
     1
 72
     1
  1
FRACTIONAL
  7
SLDTEXTSTYLE0
  0
MTEXT
  5
B4
330
AE
100
AcDbEntity
  8
0
  6
CONTINUOUS
 62
     0
100
AcDbMText
 10
0.5175850875
 20
-0.1249507489
 30
0.0
 40
0.065
 41
0.0
 71
     1
 72
     1
  1
%%p
  7
SLDTEXTSTYLE0
  0
MTEXT
  5
B5
330
AE
100
AcDbEntity
  8
0
  6
CONTINUOUS
 62
     0
100
AcDbMText
 10
0.0
 20
-0.2293208248
 30
0.0
 40
0.065
 41
0.0
 71
     1
 72
     1
  1
ANGULAR: MACH
  7
SLDTEXTSTYLE0
  0
MTEXT
  5
B6
330
AE
100
AcDbEntity
  8
0
  6
CONTINUOUS
 62
     0
100
AcDbMText
 10
0.7233732769
 20
-0.2293208248
 30
0.0
 40
0.065
 41
0.0
 71
     1
 72
     1
  1
%%p
  7
SLDTEXTSTYLE0
  0
MTEXT
  5
B7
330
AE
100
AcDbEntity
  8
0
  6
CONTINUOUS
 62
     0
100
AcDbMText
 10
0.7852857683
 20
-0.2293208248
 30
0.0
 40
0.065
 41
0.0
 71
     1
 72
     1
  1
     BEND 
  7
SLDTEXTSTYLE0
  0
MTEXT
  5
B8
330
AE
100
AcDbEntity
  8
0
  6
CONTINUOUS
 62
     0
100
AcDbMText
 10
1.14784136
 20
-0.2293208248
 30
0.0
 40
0.065
 41
0.0
 71
     1
 72
     1
  1
%%p
  7
SLDTEXTSTYLE0
  0
MTEXT
  5
B9
330
AE
100
AcDbEntity
  8
0
  6
CONTINUOUS
 62
     0
100
AcDbMText
 10
0.0
 20
-0.3336909008
 30
0.0
 40
0.065
 41
0.0
 71
     1
 72
     1
  1
TWO PLACE DECIMAL    
  7
SLDTEXTSTYLE0
  0
MTEXT
  5
BA
330
AE
100
AcDbEntity
  8
0
  6
CONTINUOUS
 62
     0
100
AcDbMText
 10
0.9794349188
 20
-0.3336909008
 30
0.0
 40
0.065
 41
0.0
 71
     1
 72
     1
  1
%%p
  7
SLDTEXTSTYLE0
  0
MTEXT
  5
BB
330
AE
100
AcDbEntity
  8
0
  6
CONTINUOUS
 62
     0
100
AcDbMText
 10
0.0
 20
-0.4380609768
 30
0.0
 40
0.065
 41
0.0
 71
     1
 72
     1
  1
THREE PLACE DECIMAL  
  7
SLDTEXTSTYLE0
  0
MTEXT
  5
BC
330
AE
100
AcDbEntity
  8
0
  6
CONTINUOUS
 62
     0
100
AcDbMText
 10
0.9738038639
 20
-0.4380609768
 30
0.0
 40
0.065
 41
0.0
 71
     1
 72
     1
  1
%%p
  7
SLDTEXTSTYLE0
  0
ENDBLK
  5
B0
330
AE
100
AcDbEntity
  8
0
100
AcDbBlockEnd
  0
BLOCK
  5
C3
330
C2
100
AcDbEntity
  8
0
100
AcDbBlockBegin
  2
SW_NOTE_2
 70
     0
 10
0.0
 20
0.0
 30
0.0
  3
SW_NOTE_2
  1

  0
MTEXT
  5
C5
330
C2
100
AcDbEntity
  8
0
  6
CONTINUOUS
 62
     0
100
AcDbMText
 10
0.0
 20
0.0773440644
 30
0.0
 40
0.06
 41
0.0
 71
     1
 72
     1
  1
THE INFORMATION CONTAINED IN THIS
  7
SLDTEXTSTYLE0
  0
MTEXT
  5
C6
330
C2
100
AcDbEntity
  8
0
  6
CONTINUOUS
 62
     0
100
AcDbMText
 10
0.0
 20
-0.0220260102
 30
0.0
 40
0.06
 41
0.0
 71
     1
 72
     1
  1
DRAWING IS THE SOLE PROPERTY OF
  7
SLDTEXTSTYLE0
  0
MTEXT
  5
C7
330
C2
100
AcDbEntity
  8
0
  6
CONTINUOUS
 62
     0
100
AcDbMText
 10
0.0
 20
-0.1213960848
 30
0.0
 40
0.06
 41
0.0
 71
     1
 72
     1
  1
Candy Controls.  ANY 
  7
SLDTEXTSTYLE0
  0
MTEXT
  5
C8
330
C2
100
AcDbEntity
  8
0
  6
CONTINUOUS
 62
     0
100
AcDbMText
 10
0.0
 20
-0.2207661593
 30
0.0
 40
0.06
 41
0.0
 71
     1
 72
     1
  1
REPRODUCTION IN PART OR AS A WHOLE
  7
SLDTEXTSTYLE0
  0
MTEXT
  5
C9
330
C2
100
AcDbEntity
  8
0
  6
CONTINUOUS
 62
     0
100
AcDbMText
 10
0.0
 20
-0.3201362339
 30
0.0
 40
0.06
 41
0.0
 71
     1
 72
     1
  1
WITHOUT THE WRITTEN PERMISSION OF
  7
SLDTEXTSTYLE0
  0
MTEXT
  5
CA
330
C2
100
AcDbEntity
  8
0
  6
CONTINUOUS
 62
     0
100
AcDbMText
 10
0.0
 20
-0.4195063085
 30
0.0
 40
0.06
 41
0.0
 71
     1
 72
     1
  1
Candy Controls IS 
  7
SLDTEXTSTYLE0
  0
MTEXT
  5
CB
330
C2
100
AcDbEntity
  8
0
  6
CONTINUOUS
 62
     0
100
AcDbMText
 10
0.0
 20
-0.518876383
 30
0.0
 40
0.06
 41
0.0
 71
     1
 72
     1
  1
PROHIBITED.
  7
SLDTEXTSTYLE0
  0
ENDBLK
  5
C4
330
C2
100
AcDbEntity
  8
0
100
AcDbBlockEnd
  0
ENDSEC
  0
SECTION
  2
ENTITIES
  0
LINE
  5
41
330
1F
100
AcDbEntity
  8
0
  6
CONTINUOUS
 62
     7
100
AcDbLine
 10
0.329927
 20
8.1920731707
 30
0.0
 11
10.629927
 21
8.1920731707
 31
0.0
  0
LINE
  5
42
330
1F
100
AcDbEntity
  8
0
  6
CONTINUOUS
 62
     7
100
AcDbLine
 10
0.329927
 20
8.1920731707
 30
0.0
 11
0.329927
 21
0.3920731707
 31
0.0
  0
LINE
  5
43
330
1F
100
AcDbEntity
  8
0
  6
CONTINUOUS
 62
     7
100
AcDbLine
 10
10.629927
 20
0.3920731707
 30
0.0
 11
0.329927
 21
0.3920731707
 31
0.0
  0
LINE
  5
44
330
1F
100
AcDbEntity
  8
0
  6
CONTINUOUS
 62
     7
100
AcDbLine
 10
10.629927
 20
0.3920731707
 30
0.0
 11
10.629927
 21
8.1920731707
 31
0.0
  0
LINE
  5
45
330
1F
100
AcDbEntity
  8
0
  6
CONTINUOUS
 62
     7
100
AcDbLine
 10
4.7981841288
 20
0.3920731707
 30
0.0
 11
4.7981841288
 21
2.3564211366
 31
0.0
  0
LINE
  5
46
330
1F
100
AcDbEntity
  8
0
  6
CONTINUOUS
 62
     7
100
AcDbLine
 10
2.8210345579
 20
2.3564211366
 30
0.0
 11
10.629927
 21
2.3564211366
 31
0.0
  0
LINE
  5
47
330
1F
100
AcDbEntity
  8
0
  6
CONTINUOUS
 62
     7
100
AcDbLine
 10
6.1796352514
 20
2.3564211366
 30
0.0
 11
6.1796352514
 21
0.3920731707
 31
0.0
  0
LINE
  5
48
330
1F
100
AcDbEntity
  8
0
  6
CONTINUOUS
 62
     7
100
AcDbLine
 10
7.8712070044
 20
2.3564211366
 30
0.0
 11
7.8712070044
 21
0.3920731707
 31
0.0
  0
LINE
  5
49
330
1F
100
AcDbEntity
  8
0
  6
CONTINUOUS
 62
     7
100
AcDbLine
 10
7.8712070044
 20
0.6049590101
 30
0.0
 11
10.629927
 21
0.6049590101
 31
0.0
  0
LINE
  5
4A
330
1F
100
AcDbEntity
  8
0
  6
CONTINUOUS
 62
     7
100
AcDbLine
 10
7.8712070044
 20
1.1119362457
 30
0.0
 11
10.629927
 21
1.1119362457
 31
0.0
  0
LINE
  5
4B
330
1F
100
AcDbEntity
  8
0
  6
CONTINUOUS
 62
     7
100
AcDbLine
 10
7.8712070044
 20
1.9892703708
 30
0.0
 11
10.629927
 21
1.9892703708
 31
0.0
  0
LINE
  5
4C
330
1F
100
AcDbEntity
  8
0
  6
CONTINUOUS
 62
     7
100
AcDbLine
 10
8.266751752
 20
1.1119362457
 30
0.0
 11
8.266751752
 21
0.6049590101
 31
0.0
  0
LINE
  5
4D
330
1F
100
AcDbEntity
  8
0
  6
CONTINUOUS
 62
     7
100
AcDbLine
 10
8.6943435176
 20
0.6049590101
 30
0.0
 11
8.6943435176
 21
0.3920731707
 31
0.0
  0
LINE
  5
4E
330
1F
100
AcDbEntity
  8
0
  6
CONTINUOUS
 62
     7
100
AcDbLine
 10
10.0579917045
 20
1.1119362457
 30
0.0
 11
10.0579917045
 21
0.6049590101
 31
0.0
  0
LINE
  5
4F
330
1F
100
AcDbEntity
  8
0
  6
CONTINUOUS
 62
     7
100
AcDbLine
 10
9.6662556631
 20
0.6049590101
 30
0.0
 11
9.6662556631
 21
0.3920731707
 31
0.0
  0
LINE
  5
50
330
1F
100
AcDbEntity
  8
0
  6
CONTINUOUS
 62
     7
100
AcDbLine
 10
2.8210345579
 20
0.5883479999
 30
0.0
 11
6.1796352514
 21
0.5883479999
 31
0.0
  0
LINE
  5
51
330
1F
100
AcDbEntity
  8
0
  6
CONTINUOUS
 62
     7
100
AcDbLine
 10
6.1796352514
 20
1.7939211366
 30
0.0
 11
7.8712070044
 21
1.7939211366
 31
0.0
  0
LINE
  5
52
330
1F
100
AcDbEntity
  8
0
  6
CONTINUOUS
 62
     7
100
AcDbLine
 10
6.1796352514
 20
1.9814211366
 30
0.0
 11
7.8712070044
 21
1.9814211366
 31
0.0
  0
LINE
  5
53
330
1F
100
AcDbEntity
  8
0
  6
CONTINUOUS
 62
     7
100
AcDbLine
 10
6.1796352514
 20
2.1689211366
 30
0.0
 11
7.8712070044
 21
2.1689211366
 31
0.0
  0
LINE
  5
54
330
1F
100
AcDbEntity
  8
0
  6
CONTINUOUS
 62
     7
100
AcDbLine
 10
7.8712070044
 20
1.2314211366
 30
0.0
 11
6.1796352514
 21
1.2314211366
 31
0.0
  0
LINE
  5
55
330
1F
100
AcDbEntity
  8
0
  6
CONTINUOUS
 62
     7
100
AcDbLine
 10
7.3921580388
 20
2.3564211366
 30
0.0
 11
7.3921580388
 21
1.2314211366
 31
0.0
  0
LINE
  5
56
330
1F
100
AcDbEntity
  8
0
  6
CONTINUOUS
 62
     7
100
AcDbLine
 10
6.9236308342
 20
2.3564211366
 30
0.0
 11
6.9236308342
 21
1.2314211366
 31
0.0
  0
LINE
  5
57
330
1F
100
AcDbEntity
  8
0
  6
CONTINUOUS
 62
     7
100
AcDbLine
 10
4.7981841288
 20
0.8557965305
 30
0.0
 11
6.1796352514
 21
0.8557965305
 31
0.0
  0
LINE
  5
58
330
1F
100
AcDbEntity
  8
0
  6
CONTINUOUS
 62
     7
100
AcDbLine
 10
4.7981841288
 20
1.1257965305
 30
0.0
 11
6.1796352514
 21
1.1257965305
 31
0.0
  0
LINE
  5
59
330
1F
100
AcDbEntity
  8
0
  6
CONTINUOUS
 62
     7
100
AcDbLine
 10
2.8210345579
 20
0.3920731707
 30
0.0
 11
2.8210345579
 21
2.3564211366
 31
0.0
  0
LINE
  5
5A
330
1F
100
AcDbEntity
  8
0
  6
CONTINUOUS
 62
     7
100
AcDbLine
 10
2.8210345579
 20
1.1064211366
 30
0.0
 11
4.7981841288
 21
1.1064211366
 31
0.0
  0
LINE
  5
5B
330
1F
100
AcDbEntity
  8
0
  6
CONTINUOUS
 62
     7
100
AcDbLine
 10
2.8210345579
 20
1.3564211366
 30
0.0
 11
4.7981841288
 21
1.3564211366
 31
0.0
  0
LINE
  5
5C
330
1F
100
AcDbEntity
  8
0
  6
CONTINUOUS
 62
     7
100
AcDbLine
 10
2.8210345579
 20
1.6064211366
 30
0.0
 11
4.7981841288
 21
1.6064211366
 31
0.0
  0
LINE
  5
5D
330
1F
100
AcDbEntity
  8
0
  6
CONTINUOUS
 62
     7
100
AcDbLine
 10
2.8210345579
 20
1.8564211366
 30
0.0
 11
4.7981841288
 21
1.8564211366
 31
0.0
  0
LINE
  5
5E
330
1F
100
AcDbEntity
  8
0
  6
CONTINUOUS
 62
     7
100
AcDbLine
 10
3.8190146875
 20
2.3564211366
 30
0.0
 11
3.8190146875
 21
0.5883479999
 31
0.0
  0
LINE
  5
5F
330
1F
100
AcDbEntity
  8
0
  6
CONTINUOUS
 62
     7
100
AcDbLine
 10
6.1796352514
 20
2.2020813496
 30
0.0
 11
4.7981841288
 21
2.2020813496
 31
0.0
  0
LINE
  5
60
330
1F
100
AcDbEntity
  8
0
  6
CONTINUOUS
 62
     7
100
AcDbLine
 10
7.8712070044
 20
1.6064211366
 30
0.0
 11
6.1796352514
 21
1.6064211366
 31
0.0
  0
LINE
  5
61
330
1F
100
AcDbEntity
  8
0
  6
CONTINUOUS
 62
     7
100
AcDbLine
 10
7.8712070044
 20
1.4189211366
 30
0.0
 11
6.1796352514
 21
1.4189211366
 31
0.0
  0
LINE
  5
62
330
1F
100
AcDbEntity
  8
0
  6
CONTINUOUS
 62
     7
100
AcDbLine
 10
2.8210345579
 20
2.1064211366
 30
0.0
 11
4.7981841288
 21
2.1064211366
 31
0.0
  0
LINE
  5
63
330
1F
100
AcDbEntity
  8
0
  6
CONTINUOUS
 62
     7
100
AcDbLine
 10
4.7981841288
 20
1.3957965305
 30
0.0
 11
6.1796352514
 21
1.3957965305
 31
0.0
  0
LINE
  5
64
330
1F
100
AcDbEntity
  8
0
  6
CONTINUOUS
 62
     7
100
AcDbLine
 10
2.8210345579
 20
0.8564211366
 30
0.0
 11
4.7981841288
 21
0.8564211366
 31
0.0
  0
LINE
  5
65
330
1F
100
AcDbEntity
  8
0
  6
CONTINUOUS
 62
     7
100
AcDbLine
 10
1.1838252943
 20
0.3920731707
 30
0.0
 11
1.1838252943
 21
1.3064211366
 31
0.0
  0
LINE
  5
66
330
1F
100
AcDbEntity
  8
0
  6
CONTINUOUS
 62
     7
100
AcDbLine
 10
2.8210345579
 20
1.3064211366
 30
0.0
 11
1.1838252943
 21
1.3064211366
 31
0.0
  0
LINE
  5
67
330
1F
100
AcDbEntity
  8
0
  6
CONTINUOUS
 62
     7
100
AcDbLine
 10
8.660927
 20
0.3920731707
 30
0.0
 11
8.660927
 21
0.3072739649
 31
0.0
  0
LINE
  5
68
330
1F
100
AcDbEntity
  8
0
  6
CONTINUOUS
 62
     7
100
AcDbLine
 10
6.692177
 20
0.3920731707
 30
0.0
 11
6.692177
 21
0.3072739649
 31
0.0
  0
LINE
  5
69
330
1F
100
AcDbEntity
  8
0
  6
CONTINUOUS
 62
     7
100
AcDbLine
 10
4.723427
 20
0.3920731707
 30
0.0
 11
4.723427
 21
0.3072739649
 31
0.0
  0
LINE
  5
6A
330
1F
100
AcDbEntity
  8
0
  6
CONTINUOUS
 62
     7
100
AcDbLine
 10
2.754677
 20
0.3920731707
 30
0.0
 11
2.754677
 21
0.3072739649
 31
0.0
  0
LINE
  5
6B
330
1F
100
AcDbEntity
  8
0
  6
CONTINUOUS
 62
     7
100
AcDbLine
 10
2.754677
 20
0.3920731707
 30
0.0
 11
2.7672319738
 21
0.3575
 31
0.0
  0
LINE
  5
6C
330
1F
100
AcDbEntity
  8
0
  6
CONTINUOUS
 62
     7
100
AcDbLine
 10
2.7672319738
 20
0.3575
 30
0.0
 11
2.7414258825
 21
0.3575
 31
0.0
  0
LINE
  5
6D
330
1F
100
AcDbEntity
  8
0
  6
CONTINUOUS
 62
     7
100
AcDbLine
 10
2.7414258825
 20
0.3575
 30
0.0
 11
2.754677
 21
0.3920731707
 31
0.0
  0
MTEXT
  5
91
330
1F
100
AcDbEntity
  8
0
  6
CONTINUOUS
 62
     7
100
AcDbMText
 10
4.9775846961
 20
0.5178452352
 30
0.0
 40
0.0625
 41
0.0
 71
     1
 72
     1
  1
DO NOT SCALE DRAWING
  7
SLDTEXTSTYLE0
  0
MTEXT
  5
92
330
1F
100
AcDbEntity
  8
0
  6
CONTINUOUS
 62
     7
100
AcDbMText
 10
8.529930254
 20
0.9417064595
 30
0.0
 40
0.125
 41
0.0
 71
     1
 72
     1
  1
CL13-20_CLAMP
  7
SLDTEXTSTYLE0
  0
MTEXT
  5
94
330
1F
100
AcDbEntity
  8
0
  6
CONTINUOUS
 62
     7
100
AcDbMText
 10
9.7571278483
 20
0.5524239532
 30
0.0
 40
0.1
 41
0.0
 71
     1
 72
     1
  1
SHEET 1 OF 1
  7
SLDTEXTSTYLE1
  0
MTEXT
  5
95
330
1F
100
AcDbEntity
  8
0
  6
CONTINUOUS
 62
     7
100
AcDbMText
 10
4.8448077858
 20
2.3132954224
 30
0.0
 40
0.07
 41
0.0
 71
     1
 72
     1
  1
UNLESS OTHERWISE SPECIFIED:
  7
SLDTEXTSTYLE0
  0
MTEXT
  5
96
330
1F
100
AcDbEntity
  8
0
  6
CONTINUOUS
 62
     7
100
AcDbMText
 10
7.9586139647
 20
0.5520987879
 30
0.0
 40
0.1
 41
0.0
 71
     1
 72
     1
  1
SCALE: 2:1
  7
SLDTEXTSTYLE0
  0
MTEXT
  5
97
330
1F
100
AcDbEntity
  8
0
  6
CONTINUOUS
 62
     7
100
AcDbMText
 10
8.7023691647
 20
0.5486763345
 30
0.0
 40
0.1
 41
0.0
 71
     1
 72
     1
  1
WEIGHT: 
  7
SLDTEXTSTYLE0
  0
MTEXT
  5
98
330
1F
100
AcDbEntity
  8
0
  6
CONTINUOUS
 62
     7
100
AcDbMText
 10
10.2277580983
 20
1.081966299
 30
0.0
 40
0.1
 41
0.0
 71
     1
 72
     1
  1
REV
  7
SLDTEXTSTYLE0
  0
MTEXT
  5
9A
330
1F
100
AcDbEntity
  8
0
  6
CONTINUOUS
 62
     7
100
AcDbMText
 10
8.2984570898
 20
1.0858725293
 30
0.0
 40
0.1
 41
0.0
 71
     1
 72
     1
  1
DWG.  NO.
  7
SLDTEXTSTYLE2
  0
MTEXT
  5
9B
330
1F
100
AcDbEntity
  8
0
  6
CONTINUOUS
 62
     7
100
AcDbMText
 10
7.9598482632
 20
0.9442140768
 30
0.0
 40
0.25
 41
0.0
 71
     1
 72
     1
  1
A
  7
SLDTEXTSTYLE0
  0
MTEXT
  5
9C
330
1F
100
AcDbEntity
  8
0
  6
CONTINUOUS
 62
     7
100
AcDbMText
 10
7.9519581822
 20
1.0872713483
 30
0.0
 40
0.1
 41
0.0
 71
     1
 72
     1
  1
SIZE
  7
SLDTEXTSTYLE0
  0
MTEXT
  5
9D
330
1F
100
AcDbEntity
  8
0
  6
CONTINUOUS
 62
     7
100
AcDbMText
 10
7.9170704177
 20
1.9547881128
 30
0.0
 40
0.1
 41
0.0
 71
     1
 72
     1
  1
TITLE:
  7
SLDTEXTSTYLE0
  0
MTEXT
  5
9E
330
1F
100
AcDbEntity
  8
0
  6
CONTINUOUS
 62
     7
100
AcDbMText
 10
7.0363774929
 20
2.2906161274
 30
0.0
 40
0.065
 41
0.0
 71
     1
 72
     1
  1
NAME
  7
SLDTEXTSTYLE0
  0
MTEXT
  5
9F
330
1F
100
AcDbEntity
  8
0
  6
CONTINUOUS
 62
     7
100
AcDbMText
 10
7.5281510634
 20
2.2888799118
 30
0.0
 40
0.065
 41
0.0
 71
     1
 72
     1
  1
DATE
  7
SLDTEXTSTYLE0
  0
MTEXT
  5
A0
330
1F
100
AcDbEntity
  8
0
  6
CONTINUOUS
 62
     7
100
AcDbMText
 10
6.2277147029
 20
1.1876913145
 30
0.0
 40
0.065
 41
0.0
 71
     1
 72
     1
  1
COMMENTS:
  7
SLDTEXTSTYLE0
  0
MTEXT
  5
A1
330
1F
100
AcDbEntity
  8
0
  6
CONTINUOUS
 62
     7
100
AcDbMText
 10
6.2268411461
 20
1.3536101679
 30
0.0
 40
0.065
 41
0.0
 71
     1
 72
     1
  1
Q.A.
  7
SLDTEXTSTYLE0
  0
MTEXT
  5
A2
330
1F
100
AcDbEntity
  8
0
  6
CONTINUOUS
 62
     7
100
AcDbMText
 10
6.2284654509
 20
1.5395328424
 30
0.0
 40
0.065
 41
0.0
 71
     1
 72
     1
  1
MFG APPR.
  7
SLDTEXTSTYLE0
  0
MTEXT
  5
A3
330
1F
100
AcDbEntity
  8
0
  6
CONTINUOUS
 62
     7
100
AcDbMText
 10
6.2235171344
 20
1.7267501785
 30
0.0
 40
0.065
 41
0.0
 71
     1
 72
     1
  1
ENG APPR.
  7
SLDTEXTSTYLE0
  0
MTEXT
  5
A4
330
1F
100
AcDbEntity
  8
0
  6
CONTINUOUS
 62
     7
100
AcDbMText
 10
6.2264103951
 20
1.9092699088
 30
0.0
 40
0.065
 41
0.0
 71
     1
 72
     1
  1
CHECKED
  7
SLDTEXTSTYLE0
  0
MTEXT
  5
A5
330
1F
100
AcDbEntity
  8
0
  6
CONTINUOUS
 62
     7
100
AcDbMText
 10
6.2242794356
 20
2.1016301232
 30
0.0
 40
0.065
 41
0.0
 71
     1
 72
     1
  1
DRAWN
  7
SLDTEXTSTYLE0
  0
MTEXT
  5
A6
330
1F
100
AcDbEntity
  8
0
  6
CONTINUOUS
 62
     7
100
AcDbMText
 10
4.8208600979
 20
0.834523235
 30
0.0
 40
0.06
 41
0.0
 71
     1
 72
     1
  1
FINISH
  7
SLDTEXTSTYLE0
  0
MTEXT
  5
A7
330
1F
100
AcDbEntity
  8
0
  6
CONTINUOUS
 62
     7
100
AcDbMText
 10
4.8181240648
 20
1.1028217587
 30
0.0
 40
0.06
 41
0.0
 71
     1
 72
     1
  1
MATERIAL
  7
SLDTEXTSTYLE0
  0
INSERT
  5
AD
330
1F
100
AcDbEntity
  8
0
  6
CONTINUOUS
 62
     7
100
AcDbBlockReference
  2
SW_NOTE_0
 10
4.8231926633
 20
1.2646542947
 30
0.0
  0
INSERT
  5
BD
330
1F
100
AcDbEntity
  8
0
  6
CONTINUOUS
 62
     7
100
AcDbBlockReference
  2
SW_NOTE_1
 10
4.8353339353
 20
2.0049168724
 30
0.0
  0
MTEXT
  5
BE
330
1F
100
AcDbEntity
  8
0
  6
CONTINUOUS
 62
     7
100
AcDbMText
 10
3.5531400086
 20
0.5200091997
 30
0.0
 40
0.0625
 41
0.0
 71
     1
 72
     1
  1
APPLICATION
  7
SLDTEXTSTYLE0
  0
MTEXT
  5
BF
330
1F
100
AcDbEntity
  8
0
  6
CONTINUOUS
 62
     7
100
AcDbMText
 10
4.1005607758
 20
0.7502454275
 30
0.0
 40
0.0625
 41
0.0
 71
     1
 72
     1
  1
USED ON
  7
SLDTEXTSTYLE0
  0
MTEXT
  5
C0
330
1F
100
AcDbEntity
  8
0
  6
CONTINUOUS
 62
     7
100
AcDbMText
 10
3.1040019536
 20
0.7492094783
 30
0.0
 40
0.0625
 41
0.0
 71
     1
 72
     1
  1
NEXT ASSY
  7
SLDTEXTSTYLE0
  0
MTEXT
  5
C1
330
1F
100
AcDbEntity
  8
0
  6
CONTINUOUS
 62
     7
100
AcDbMText
 10
1.3712489489
 20
1.2496672684
 30
0.0
 40
0.06
 41
0.0
 71
     1
 72
     1
  1
PROPRIETARY AND CONFIDENTIAL
  7
SLDTEXTSTYLE0
  0
INSERT
  5
CC
330
1F
100
AcDbEntity
  8
0
  6
CONTINUOUS
 62
     7
100
AcDbBlockReference
  2
SW_NOTE_2
 10
1.2226209074
 20
1.0313492921
 30
0.0
  0
MTEXT
  5
CD
330
1F
100
AcDbEntity
  8
0
  6
CONTINUOUS
 62
     7
100
AcDbMText
 10
1.7387909509
 20
0.3105864247
 30
0.0
 40
0.09375
 41
0.0
 71
     1
 72
     1
  1
5
  7
SLDTEXTSTYLE0
  0
MTEXT
  5
CE
330
1F
100
AcDbEntity
  8
0
  6
CONTINUOUS
 62
     7
100
AcDbMText
 10
3.723800327
 20
0.3137237518
 30
0.0
 40
0.09375
 41
0.0
 71
     1
 72
     1
  1
4
  7
SLDTEXTSTYLE0
  0
MTEXT
  5
CF
330
1F
100
AcDbEntity
  8
0
  6
CONTINUOUS
 62
     7
100
AcDbMText
 10
5.6324457277
 20
0.3116191842
 30
0.0
 40
0.09375
 41
0.0
 71
     1
 72
     1
  1
3
  7
SLDTEXTSTYLE0
  0
MTEXT
  5
D0
330
1F
100
AcDbEntity
  8
0
  6
CONTINUOUS
 62
     7
100
AcDbMText
 10
7.6059721724
 20
0.3124391351
 30
0.0
 40
0.09375
 41
0.0
 71
     1
 72
     1
  1
2
  7
SLDTEXTSTYLE0
  0
MTEXT
  5
D1
330
1F
100
AcDbEntity
  8
0
  6
CONTINUOUS
 62
     7
100
AcDbMText
 10
9.6619921328
 20
0.301372012
 30
0.0
 40
0.09375
 41
0.0
 71
     1
 72
     1
  1
1
  7
SLDTEXTSTYLE0
  0
LINE
  5
D2
330
1F
100
AcDbEntity
  8
0
  6
CONTINUOUS
 62
     7
100
AcDbLine
 10
4.0746675994
 20
2.9712767116
 30
0.0
 11
4.1140376782
 21
3.0106467903
 31
0.0
  0
LINE
  5
D3
330
1F
100
AcDbEntity
  8
0
  6
CONTINUOUS
 62
     7
100
AcDbLine
 10
4.1140376782
 20
4.5067097825
 30
0.0
 11
4.0746675994
 21
4.5460798612
 31
0.0
  0
LINE
  5
D4
330
1F
100
AcDbEntity
  8
0
  6
CONTINUOUS
 62
     7
100
AcDbLine
 10
2.5786046073
 20
2.9712767116
 30
0.0
 11
4.0746675994
 21
2.9712767116
 31
0.0
  0
LINE
  5
D5
330
1F
100
AcDbEntity
  8
0
  6
CONTINUOUS
 62
     7
100
AcDbLine
 10
3.2872660246
 20
4.5460798612
 30
0.0
 11
2.5786046073
 21
4.5460798612
 31
0.0
  0
LINE
  5
D6
330
1F
100
AcDbEntity
  8
0
  6
CONTINUOUS
 62
     7
100
AcDbLine
 10
4.0746675994
 20
4.5460798612
 30
0.0
 11
3.3660061821
 21
4.5460798612
 31
0.0
  0
LINE
  5
D7
330
1F
100
AcDbEntity
  8
0
  6
CONTINUOUS
 62
     7
100
AcDbLine
 10
2.5786046073
 20
4.5460798612
 30
0.0
 11
2.5392345286
 21
4.5067097825
 31
0.0
  0
LINE
  5
D8
330
1F
100
AcDbEntity
  8
0
  6
CONTINUOUS
 62
     7
100
AcDbLine
 10
2.5392345286
 20
3.0106467903
 30
0.0
 11
2.5786046073
 21
2.9712767116
 31
0.0
  0
ARC
  5
D9
330
1F
100
AcDbEntity
  8
0
  6
CONTINUOUS
 62
     7
100
AcDbCircle
 10
3.5825416152
 20
4.3295444281
 30
0.0
 40
0.019685039370079
100
AcDbArc
 50
90.0
 51
157.2736342563
  0
ARC
  5
DA
330
1F
100
AcDbEntity
  8
0
  6
CONTINUOUS
 62
     7
100
AcDbCircle
 10
3.8975022451
 20
4.3295444281
 30
0.0
 40
0.019685039370079
100
AcDbArc
 50
24.5512708881
 51
90.0
  0
LINE
  5
DB
330
1F
100
AcDbEntity
  8
0
  6
CONTINUOUS
 62
     7
100
AcDbLine
 10
3.6415967333
 20
3.7882058454
 30
0.0
 11
3.6415967333
 21
3.7291507273
 31
0.0
  0
LINE
  5
DC
330
1F
100
AcDbEntity
  8
0
  6
CONTINUOUS
 62
     7
100
AcDbLine
 10
3.838447127
 20
3.7291507273
 30
0.0
 11
3.838447127
 21
3.7882058454
 31
0.0
  0
ARC
  5
DD
330
1F
100
AcDbEntity
  8
0
  6
CONTINUOUS
 62
     7
100
AcDbCircle
 10
2.7557699617
 20
4.3295444281
 30
0.0
 40
0.0196850393700788
100
AcDbArc
 50
90.0
 51
156.1196978221
  0
ARC
  5
DE
330
1F
100
AcDbEntity
  8
0
  6
CONTINUOUS
 62
     7
100
AcDbCircle
 10
3.0707305916
 20
4.3295444281
 30
0.0
 40
0.0196850393700787
100
AcDbArc
 50
22.4775413318
 51
90.0
  0
LINE
  5
DF
330
1F
100
AcDbEntity
  8
0
  6
CONTINUOUS
 62
     7
100
AcDbLine
 10
2.8148250798
 20
3.7882058454
 30
0.0
 11
2.8148250798
 21
3.7291507273
 31
0.0
  0
LINE
  5
E0
330
1F
100
AcDbEntity
  8
0
  6
CONTINUOUS
 62
     7
100
AcDbLine
 10
3.0116754735
 20
3.7291507273
 30
0.0
 11
3.0116754735
 21
3.7882058454
 31
0.0
  0
LINE
  5
E1
330
1F
100
AcDbEntity
  8
0
  6
CONTINUOUS
 62
     7
100
AcDbLine
 10
4.1140376782
 20
3.7291507273
 30
0.0
 11
4.1140376782
 21
3.0106467903
 31
0.0
  0
LINE
  5
E2
330
1F
100
AcDbEntity
  8
0
  6
CONTINUOUS
 62
     7
100
AcDbLine
 10
4.1140376782
 20
4.5067097825
 30
0.0
 11
4.1140376782
 21
3.7882058454
 31
0.0
  0
LINE
  5
E3
330
1F
100
AcDbEntity
  8
0
  6
CONTINUOUS
 62
     7
100
AcDbLine
 10
4.1140376782
 20
3.7882058454
 30
0.0
 11
4.0746675994
 21
3.7882058454
 31
0.0
  0
LINE
  5
E4
330
1F
100
AcDbEntity
  8
0
  6
CONTINUOUS
 62
     7
100
AcDbLine
 10
4.0746675994
 20
3.7882058454
 30
0.0
 11
4.0746675994
 21
4.5460798612
 31
0.0
  0
LINE
  5
E5
330
1F
100
AcDbEntity
  8
0
  6
CONTINUOUS
 62
     7
100
AcDbLine
 10
4.0746675994
 20
2.9712767116
 30
0.0
 11
4.0746675994
 21
3.7291507273
 31
0.0
  0
LINE
  5
E6
330
1F
100
AcDbEntity
  8
0
  6
CONTINUOUS
 62
     7
100
AcDbLine
 10
4.0746675994
 20
3.7291507273
 30
0.0
 11
4.1140376782
 21
3.7291507273
 31
0.0
  0
SPLINE
  5
E7
330
1F
100
AcDbEntity
  8
0
  6
CONTINUOUS
 62
     7
100
AcDbSpline
210
0.0
220
0.0
230
1.0
 70
     8
 71
     3
 72
    42
 73
    38
 74
     0
 42
0.00000001
 43
0.00000001
 40
-0.0624999999999996
 40
-0.0624999999999996
 40
0.0
 40
0.0
 40
0.0625
 40
0.0625
 40
0.1250000000000001
 40
0.1250000000000001
 40
0.1875000000000001
 40
0.1875000000000001
 40
0.2500000000000001
 40
0.2500000000000001
 40
0.3125000000000001
 40
0.3125000000000001
 40
0.3750000000000002
 40
0.3750000000000002
 40
0.4062500000000002
 40
0.4062500000000002
 40
0.4375000000000002
 40
0.4375000000000002
 40
0.5000000000000002
 40
0.5000000000000002
 40
0.5625000000000002
 40
0.5625000000000002
 40
0.6250000000000002
 40
0.6250000000000002
 40
0.6875000000000003
 40
0.6875000000000003
 40
0.7500000000000003
 40
0.7500000000000003
 40
0.8125000000000003
 40
0.8125000000000003
 40
0.8750000000000004
 40
0.8750000000000004
 40
0.9062500000000004
 40
0.9062500000000004
 40
0.9375000000000004
 40
0.9375000000000004
 40
1.0
 40
1.0
 40
1.0625
 40
1.0625
 10
2.928551125701003
 20
3.259599007743863
 30
0.0
 10
2.897949427524795
 20
3.259599007743863
 30
0.0
 10
2.883415412575301
 20
3.255087692812502
 30
0.0
 10
2.858942474188659
 20
3.241494204208437
 30
0.0
 10
2.84904561396219
 20
3.232755225884246
 30
0.0
 10
2.832910508672644
 20
3.213930144419447
 30
0.0
 10
2.826897212922608
 20
3.204097954703865
 30
0.0
 10
2.818190511828283
 20
3.18400697392536
 30
0.0
 10
2.815622268470802
 20
3.173871760593794
 30
0.0
 10
2.814342655290277
 20
3.154252830479812
 30
0.0
 10
2.815658024914451
 20
3.144574292948005
 30
0.0
 10
2.822782135286105
 20
3.126771830560772
 30
0.0
 10
2.828712606343255
 20
3.118410272757532
 30
0.0
 10
2.841296722423641
 20
3.107770416493803
 30
0.0
 10
2.846196828915399
 20
3.104469010590494
 30
0.0
 10
2.857035602019499
 20
3.098720867889305
 30
0.0
 10
2.862961356737879
 20
3.096255727376275
 30
0.0
 10
2.882415462170965
 20
3.090108637192074
 30
0.0
 10
2.897437820478378
 20
3.087842753804192
 30
0.0
 10
2.92772856079814
 20
3.087716620298082
 30
0.0
 10
2.942770690998312
 20
3.089840989929453
 30
0.0
 10
2.969048632808486
 20
3.09786129444587
 30
0.0
 10
2.980280354970108
 20
3.103759677388953
 30
0.0
 10
2.997389349236137
 20
3.117930959644819
 30
0.0
 10
3.003412604761767
 20
3.12625044650164
 30
0.0
 10
3.010746081376158
 20
3.14410357063483
 30
0.0
 10
3.012130160323489
 20
3.153774558210845
 30
0.0
 10
3.010960771684312
 20
3.173471214306704
 30
0.0
 10
3.008399181748318
 20
3.183706564291559
 30
0.0
 10
2.999800480798594
 20
3.203734674202694
 30
0.0
 10
2.993678819308703
 20
3.213787640951326
 30
0.0
 10
2.981682085753238
 20
3.227842239476147
 30
0.0
 10
2.977228877182285
 20
3.232341648195253
 30
0.0
 10
2.967192423388865
 20
3.240818307415374
 30
0.0
 10
2.961602423579627
 20
3.244783856067913
 30
0.0
 10
2.943350682092604
 20
3.254976149903275
 30
0.0
 10
2.928551125701003
 20
3.259599007743863
 30
0.0
 10
2.897949427524795
 20
3.259599007743863
 30
0.0
  0
SPLINE
  5
E8
330
1F
100
AcDbEntity
  8
0
  6
CONTINUOUS
 62
     7
100
AcDbSpline
210
0.0
220
0.0
230
1.0
 70
     8
 71
     3
 72
    58
 73
    54
 74
     0
 42
0.00000001
 43
0.00000001
 40
0.0
 40
0.0
 40
0.0
 40
0.0
 40
0.0312499999999999
 40
0.0312499999999999
 40
0.0624999999999998
 40
0.0624999999999998
 40
0.1249999999999997
 40
0.1249999999999997
 40
0.1874999999999996
 40
0.1874999999999996
 40
0.2499999999999994
 40
0.2499999999999994
 40
0.2812499999999993
 40
0.2812499999999993
 40
0.3124999999999993
 40
0.3124999999999993
 40
0.3437499999999994
 40
0.3437499999999994
 40
0.3749999999999994
 40
0.3749999999999994
 40
0.4062499999999994
 40
0.4062499999999994
 40
0.4374999999999995
 40
0.4374999999999995
 40
0.4687499999999995
 40
0.4687499999999995
 40
0.4999999999999996
 40
0.4999999999999996
 40
0.5312499999999996
 40
0.5312499999999996
 40
0.5624999999999997
 40
0.5624999999999997
 40
0.6249999999999996
 40
0.6249999999999996
 40
0.6562499999999997
 40
0.6562499999999997
 40
0.6874999999999997
 40
0.6874999999999997
 40
0.7499999999999997
 40
0.7499999999999997
 40
0.8124999999999998
 40
0.8124999999999998
 40
0.8437499999999998
 40
0.8437499999999998
 40
0.8749999999999999
 40
0.8749999999999999
 40
0.9062499999999999
 40
0.9062499999999999
 40
0.9374999999999999
 40
0.9374999999999999
 40
0.96875
 40
0.96875
 40
1.0
 40
1.0
 40
1.0
 40
1.0
 10
3.785223447007833
 20
4.152379073793622
 30
0.0
 10
3.796819288198879
 20
4.157678799397815
 30
0.0
 10
3.807079321008395
 20
4.164323321218793
 30
0.0
 10
3.826029918676366
 20
4.179056850330525
 30
0.0
 10
3.834759746765998
 20
4.187245714023017
 30
0.0
 10
3.858588998505889
 20
4.212645051328177
 30
0.0
 10
3.871499425594729
 20
4.230610822418418
 30
0.0
 10
3.893141806339463
 20
4.267283294132231
 30
0.0
 10
3.901607045386228
 20
4.285739800096063
 30
0.0
 10
3.913490496644003
 20
4.321747472364209
 30
0.0
 10
3.916946959652212
 20
4.339608649787659
 30
0.0
 10
3.917289185873132
 20
4.364650693936023
 30
0.0
 10
3.916610292500282
 20
4.37274933364762
 30
0.0
 10
3.913411790895228
 20
4.388448671876049
 30
0.0
 10
3.910866563249937
 20
4.396055017960847
 30
0.0
 10
3.903823240189917
 20
4.410261573106568
 30
0.0
 10
3.89932040955349
 20
4.416931072437428
 30
0.0
 10
3.888041251452778
 20
4.429424890939794
 30
0.0
 10
3.881279787740121
 20
4.435188439234826
 30
0.0
 10
3.865870414619105
 20
4.445412488379295
 30
0.0
 10
3.857168679610766
 20
4.449943395799254
 30
0.0
 10
3.837510480460467
 20
4.457900562657559
 30
0.0
 10
3.826765075077149
 20
4.461223697872966
 30
0.0
 10
3.8040505234967
 20
4.466528818643351
 30
0.0
 10
3.791812110256654
 20
4.468565267269058
 30
0.0
 10
3.766706567082086
 20
4.47127364476529
 30
0.0
 10
3.753948244101886
 20
4.471958626016523
 30
0.0
 10
3.728015005123641
 20
4.472024295146597
 30
0.0
 10
3.715020078851692
 20
4.471387314219488
 30
0.0
 10
3.68997065493737
 20
4.468812036476292
 30
0.0
 10
3.677621550465973
 20
4.466833600218841
 30
0.0
 10
3.64313906868796
 20
4.458992662575572
 30
0.0
 10
3.622983705718188
 20
4.45107613367344
 30
0.0
 10
3.59943064932953
 20
4.43571475472465
 30
0.0
 10
3.592566341918747
 20
4.429942730718757
 30
0.0
 10
3.581185514634654
 20
4.4175402568958
 30
0.0
 10
3.576585145320285
 20
4.410867504894235
 30
0.0
 10
3.56573364938857
 20
4.389353744796077
 30
0.0
 10
3.562686787467031
 20
4.373580234763103
 30
0.0
 10
3.563040674497489
 20
4.339857305741935
 30
0.0
 10
3.566396945162747
 20
4.322378470644356
 30
0.0
 10
3.575264973707774
 20
4.295275810295376
 30
0.0
 10
3.578901357487912
 20
4.286045974202338
 30
0.0
 10
3.587316811311864
 20
4.267678780726358
 30
0.0
 10
3.592097210334121
 20
4.258515378711901
 30
0.0
 10
3.602818290917915
 20
4.240280178899808
 30
0.0
 10
3.60875677613165
 20
4.231207257721203
 30
0.0
 10
3.621957402355679
 20
4.213257175644592
 30
0.0
 10
3.62923450122097
 20
4.204370148317211
 30
0.0
 10
3.645083681480707
 20
4.187442416537708
 30
0.0
 10
3.653679321351544
 20
4.179339963468858
 30
0.0
 10
3.67284708846774
 20
4.164392215054376
 30
0.0
 10
3.683268339105013
 20
4.157658796274149
 30
0.0
 10
3.694820413304579
 20
4.152379073793623
 30
0.0
  0
SPLINE
  5
E9
330
1F
100
AcDbEntity
  8
0
  6
CONTINUOUS
 62
     7
100
AcDbSpline
210
0.0
220
0.0
230
1.0
 70
     8
 71
     3
 72
    42
 73
    38
 74
     0
 42
0.00000001
 43
0.00000001
 40
-0.0624999999999996
 40
-0.0624999999999996
 40
0.0
 40
0.0
 40
0.0625
 40
0.0625
 40
0.1250000000000001
 40
0.1250000000000001
 40
0.1875000000000001
 40
0.1875000000000001
 40
0.2500000000000001
 40
0.2500000000000001
 40
0.3125000000000001
 40
0.3125000000000001
 40
0.3750000000000002
 40
0.3750000000000002
 40
0.4062500000000002
 40
0.4062500000000002
 40
0.4375000000000002
 40
0.4375000000000002
 40
0.5000000000000002
 40
0.5000000000000002
 40
0.5625000000000002
 40
0.5625000000000002
 40
0.6250000000000002
 40
0.6250000000000002
 40
0.6875000000000003
 40
0.6875000000000003
 40
0.7500000000000003
 40
0.7500000000000003
 40
0.8125000000000003
 40
0.8125000000000003
 40
0.8750000000000004
 40
0.8750000000000004
 40
0.9062500000000004
 40
0.9062500000000004
 40
0.9375000000000004
 40
0.9375000000000004
 40
1.0
 40
1.0
 40
1.0625
 40
1.0625
 10
3.724721081068102
 20
3.259599007743863
 30
0.0
 10
3.75532277924431
 20
3.259599007743863
 30
0.0
 10
3.769856794193803
 20
3.255087692812502
 30
0.0
 10
3.794329732580446
 20
3.241494204208437
 30
0.0
 10
3.804226592806915
 20
3.232755225884246
 30
0.0
 10
3.820361698096461
 20
3.213930144419447
 30
0.0
 10
3.826374993846497
 20
3.204097954703865
 30
0.0
 10
3.835081694940822
 20
3.18400697392536
 30
0.0
 10
3.837649938298303
 20
3.173871760593794
 30
0.0
 10
3.838929551478828
 20
3.154252830479812
 30
0.0
 10
3.837614181854654
 20
3.144574292948005
 30
0.0
 10
3.830490071483
 20
3.126771830560772
 30
0.0
 10
3.82455960042585
 20
3.118410272757532
 30
0.0
 10
3.811975484345464
 20
3.107770416493803
 30
0.0
 10
3.807075377853706
 20
3.104469010590494
 30
0.0
 10
3.796236604749606
 20
3.098720867889305
 30
0.0
 10
3.790310850031226
 20
3.096255727376275
 30
0.0
 10
3.770856744598139
 20
3.090108637192074
 30
0.0
 10
3.755834386290728
 20
3.087842753804192
 30
0.0
 10
3.725543645970965
 20
3.087716620298082
 30
0.0
 10
3.710501515770793
 20
3.089840989929453
 30
0.0
 10
3.684223573960619
 20
3.09786129444587
 30
0.0
 10
3.672991851798996
 20
3.103759677388953
 30
0.0
 10
3.655882857532968
 20
3.117930959644819
 30
0.0
 10
3.649859602007338
 20
3.12625044650164
 30
0.0
 10
3.642526125392947
 20
3.14410357063483
 30
0.0
 10
3.641142046445616
 20
3.153774558210845
 30
0.0
 10
3.642311435084792
 20
3.173471214306704
 30
0.0
 10
3.644873025020787
 20
3.183706564291559
 30
0.0
 10
3.653471725970511
 20
3.203734674202694
 30
0.0
 10
3.659593387460402
 20
3.213787640951326
 30
0.0
 10
3.671590121015866
 20
3.227842239476147
 30
0.0
 10
3.67604332958682
 20
3.232341648195253
 30
0.0
 10
3.68607978338024
 20
3.240818307415374
 30
0.0
 10
3.691669783189478
 20
3.244783856067913
 30
0.0
 10
3.7099215246765
 20
3.254976149903275
 30
0.0
 10
3.724721081068102
 20
3.259599007743863
 30
0.0
 10
3.75532277924431
 20
3.259599007743863
 30
0.0
  0
LINE
  5
EA
330
1F
100
AcDbEntity
  8
0
  6
CONTINUOUS
 62
     7
100
AcDbLine
 10
3.3660061821
 20
3.7882058454
 30
0.0
 11
4.0746675994
 21
3.7882058454
 31
0.0
  0
LINE
  5
EB
330
1F
100
AcDbEntity
  8
0
  6
CONTINUOUS
 62
     7
100
AcDbLine
 10
3.3660061821
 20
3.7882058454
 30
0.0
 11
3.3660061821
 21
4.5460798612
 31
0.0
  0
LINE
  5
EC
330
1F
100
AcDbEntity
  8
0
  6
CONTINUOUS
 62
     7
100
AcDbLine
 10
3.2872660246
 20
4.4405880532
 30
0.0
 11
3.3660061821
 21
4.4405880532
 31
0.0
  0
LINE
  5
ED
330
1F
100
AcDbEntity
  8
0
  6
CONTINUOUS
 62
     7
100
AcDbLine
 10
3.2872660246
 20
4.5460798612
 30
0.0
 11
3.2872660246
 21
3.7882058454
 31
0.0
  0
LINE
  5
EE
330
1F
100
AcDbEntity
  8
0
  6
CONTINUOUS
 62
     7
100
AcDbLine
 10
2.5786046073
 20
3.7882058454
 30
0.0
 11
3.2872660246
 21
3.7882058454
 31
0.0
  0
LINE
  5
EF
330
1F
100
AcDbEntity
  8
0
  6
CONTINUOUS
 62
     7
100
AcDbLine
 10
2.5786046073
 20
3.7291507273
 30
0.0
 11
2.5786046073
 21
2.9712767116
 31
0.0
  0
LINE
  5
F0
330
1F
100
AcDbEntity
  8
0
  6
CONTINUOUS
 62
     7
100
AcDbLine
 10
2.5786046073
 20
4.5460798612
 30
0.0
 11
2.5786046073
 21
3.7882058454
 31
0.0
  0
LINE
  5
F1
330
1F
100
AcDbEntity
  8
0
  6
CONTINUOUS
 62
     7
100
AcDbLine
 10
2.5786046073
 20
3.7291507273
 30
0.0
 11
4.0746675994
 21
3.7291507273
 31
0.0
  0
SPLINE
  5
F2
330
1F
100
AcDbEntity
  8
0
  6
CONTINUOUS
 62
     7
100
AcDbSpline
210
0.0
220
0.0
230
1.0
 70
     8
 71
     3
 72
    58
 73
    54
 74
     0
 42
0.00000001
 43
0.00000001
 40
0.0
 40
0.0
 40
0.0
 40
0.0
 40
0.0312499999999999
 40
0.0312499999999999
 40
0.0624999999999998
 40
0.0624999999999998
 40
0.1249999999999997
 40
0.1249999999999997
 40
0.1874999999999996
 40
0.1874999999999996
 40
0.2499999999999994
 40
0.2499999999999994
 40
0.2812499999999993
 40
0.2812499999999993
 40
0.3124999999999993
 40
0.3124999999999993
 40
0.3437499999999994
 40
0.3437499999999994
 40
0.3749999999999994
 40
0.3749999999999994
 40
0.4062499999999994
 40
0.4062499999999994
 40
0.4374999999999995
 40
0.4374999999999995
 40
0.4687499999999995
 40
0.4687499999999995
 40
0.4999999999999996
 40
0.4999999999999996
 40
0.5312499999999996
 40
0.5312499999999996
 40
0.5624999999999997
 40
0.5624999999999997
 40
0.6249999999999996
 40
0.6249999999999996
 40
0.6562499999999997
 40
0.6562499999999997
 40
0.6874999999999997
 40
0.6874999999999997
 40
0.7499999999999997
 40
0.7499999999999997
 40
0.8124999999999998
 40
0.8124999999999998
 40
0.8437499999999998
 40
0.8437499999999998
 40
0.8749999999999999
 40
0.8749999999999999
 40
0.9062499999999999
 40
0.9062499999999999
 40
0.9374999999999999
 40
0.9374999999999999
 40
0.96875
 40
0.96875
 40
1.0
 40
1.0
 40
1.0
 40
1.0
 10
2.868048759761272
 20
4.152379073793622
 30
0.0
 10
2.856452918570226
 20
4.157678799397815
 30
0.0
 10
2.84619288576071
 20
4.164323321218793
 30
0.0
 10
2.827242288092739
 20
4.179056850330525
 30
0.0
 10
2.818512460003107
 20
4.187245714023017
 30
0.0
 10
2.794683208263216
 20
4.212645051328177
 30
0.0
 10
2.781772781174376
 20
4.230610822418418
 30
0.0
 10
2.760130400429642
 20
4.267283294132231
 30
0.0
 10
2.751665161382876
 20
4.285739800096063
 30
0.0
 10
2.739781710125102
 20
4.321747472364209
 30
0.0
 10
2.736325247116893
 20
4.339608649787659
 30
0.0
 10
2.735983020895973
 20
4.364650693936023
 30
0.0
 10
2.736661914268824
 20
4.37274933364762
 30
0.0
 10
2.739860415873876
 20
4.388448671876049
 30
0.0
 10
2.742405643519167
 20
4.396055017960847
 30
0.0
 10
2.749448966579187
 20
4.410261573106568
 30
0.0
 10
2.753951797215616
 20
4.416931072437428
 30
0.0
 10
2.765230955316327
 20
4.429424890939794
 30
0.0
 10
2.771992419028984
 20
4.435188439234826
 30
0.0
 10
2.787401792149999
 20
4.445412488379295
 30
0.0
 10
2.796103527158339
 20
4.449943395799254
 30
0.0
 10
2.815761726308638
 20
4.457900562657559
 30
0.0
 10
2.826507131691955
 20
4.461223697872966
 30
0.0
 10
2.849221683272404
 20
4.466528818643351
 30
0.0
 10
2.861460096512451
 20
4.468565267269058
 30
0.0
 10
2.886565639687019
 20
4.47127364476529
 30
0.0
 10
2.899323962667219
 20
4.471958626016523
 30
0.0
 10
2.925257201645464
 20
4.472024295146597
 30
0.0
 10
2.938252127917413
 20
4.471387314219488
 30
0.0
 10
2.963301551831734
 20
4.468812036476292
 30
0.0
 10
2.975650656303132
 20
4.466833600218841
 30
0.0
 10
3.010133138081145
 20
4.458992662575572
 30
0.0
 10
3.030288501050917
 20
4.45107613367344
 30
0.0
 10
3.053841557439575
 20
4.43571475472465
 30
0.0
 10
3.060705864850358
 20
4.429942730718757
 30
0.0
 10
3.072086692134452
 20
4.4175402568958
 30
0.0
 10
3.07668706144882
 20
4.410867504894235
 30
0.0
 10
3.087538557380535
 20
4.389353744796077
 30
0.0
 10
3.090585419302074
 20
4.373580234763103
 30
0.0
 10
3.090231532271616
 20
4.339857305741935
 30
0.0
 10
3.086875261606358
 20
4.322378470644356
 30
0.0
 10
3.078007233061332
 20
4.295275810295376
 30
0.0
 10
3.074370849281193
 20
4.286045974202338
 30
0.0
 10
3.06595539545724
 20
4.267678780726358
 30
0.0
 10
3.061174996434984
 20
4.258515378711901
 30
0.0
 10
3.05045391585119
 20
4.240280178899808
 30
0.0
 10
3.044515430637456
 20
4.231207257721203
 30
0.0
 10
3.031314804413426
 20
4.213257175644592
 30
0.0
 10
3.024037705548135
 20
4.204370148317211
 30
0.0
 10
3.008188525288398
 20
4.187442416537708
 30
0.0
 10
2.999592885417561
 20
4.179339963468858
 30
0.0
 10
2.980425118301365
 20
4.164392215054376
 30
0.0
 10
2.970003867664092
 20
4.157658796274149
 30
0.0
 10
2.958451793464526
 20
4.152379073793623
 30
0.0
  0
LINE
  5
F3
330
1F
100
AcDbEntity
  8
0
  6
CONTINUOUS
 62
     7
100
AcDbLine
 10
2.5392345286
 20
3.7882058454
 30
0.0
 11
2.5392345286
 21
4.5067097825
 31
0.0
  0
LINE
  5
F4
330
1F
100
AcDbEntity
  8
0
  6
CONTINUOUS
 62
     7
100
AcDbLine
 10
2.5392345286
 20
3.0106467903
 30
0.0
 11
2.5392345286
 21
3.7291507273
 31
0.0
  0
LINE
  5
F5
330
1F
100
AcDbEntity
  8
0
  6
CONTINUOUS
 62
     7
100
AcDbLine
 10
2.5392345286
 20
3.7291507273
 30
0.0
 11
2.5786046073
 21
3.7291507273
 31
0.0
  0
LINE
  5
F6
330
1F
100
AcDbEntity
  8
0
  6
CONTINUOUS
 62
     7
100
AcDbLine
 10
2.5786046073
 20
3.7882058454
 30
0.0
 11
2.5392345286
 21
3.7882058454
 31
0.0
  0
LINE
  5
F7
330
1F
100
AcDbEntity
  8
0
  6
CONTINUOUS
 62
     7
100
AcDbLine
 10
2.5392345286
 20
3.7291507273
 30
0.0
 11
2.5392345286
 21
3.7882058454
 31
0.0
  0
LINE
  5
F8
330
1F
100
AcDbEntity
  8
0
  6
CONTINUOUS
 62
     7
100
AcDbLine
 10
4.1140376782
 20
3.7291507273
 30
0.0
 11
4.1140376782
 21
3.7882058454
 31
0.0
  0
LINE
  5
F9
330
1F
100
AcDbEntity
  8
0
  6
CONTINUOUS
 62
     7
100
AcDbLine
 10
3.7400219302
 20
4.1523790738
 30
0.0
 11
3.785223447
 21
4.1523790738
 31
0.0
  0
LINE
  5
FA
330
1F
100
AcDbEntity
  8
0
  6
CONTINUOUS
 62
     7
100
AcDbLine
 10
3.6946122498
 20
4.1523790738
 30
0.0
 11
3.7400219302
 21
4.1523790738
 31
0.0
  0
LINE
  5
FB
330
1F
100
AcDbEntity
  8
0
  6
CONTINUOUS
 62
     7
100
AcDbLine
 10
3.7400219302
 20
4.3492294675
 30
0.0
 11
3.8975022451
 21
4.3492294675
 31
0.0
  0
LINE
  5
FC
330
1F
100
AcDbEntity
  8
0
  6
CONTINUOUS
 62
     7
100
AcDbLine
 10
3.5825416152
 20
4.3492294675
 30
0.0
 11
3.7400219302
 21
4.3492294675
 31
0.0
  0
LINE
  5
FD
330
1F
100
AcDbEntity
  8
0
  6
CONTINUOUS
 62
     7
100
AcDbLine
 10
2.9132502766
 20
4.3492294675
 30
0.0
 11
2.7557699617
 21
4.3492294675
 31
0.0
  0
LINE
  5
FE
330
1F
100
AcDbEntity
  8
0
  6
CONTINUOUS
 62
     7
100
AcDbLine
 10
3.0707305916
 20
4.3492294675
 30
0.0
 11
2.9132502766
 21
4.3492294675
 31
0.0
  0
LINE
  5
FF
330
1F
100
AcDbEntity
  8
0
  6
CONTINUOUS
 62
     7
100
AcDbLine
 10
2.9132502766
 20
4.1523790738
 30
0.0
 11
2.8678409818
 21
4.1523790738
 31
0.0
  0
LINE
  5
100
330
1F
100
AcDbEntity
  8
0
  6
CONTINUOUS
 62
     7
100
AcDbLine
 10
2.9586599569
 20
4.1523790738
 30
0.0
 11
2.9132502766
 21
4.1523790738
 31
0.0
  0
LINE
  5
101
330
1F
100
AcDbEntity
  8
0
  6
CONTINUOUS
 62
     8
100
AcDbLine
 10
3.7400219302
 20
4.3295444281
 30
0.0
 11
3.565531893
 21
4.3295444281
 31
0.0
  0
LINE
  5
102
330
1F
100
AcDbEntity
  8
0
  6
CONTINUOUS
 62
     8
100
AcDbLine
 10
3.9149248396
 20
4.3295444281
 30
0.0
 11
3.7400219302
 21
4.3295444281
 31
0.0
  0
LINE
  5
103
330
1F
100
AcDbEntity
  8
0
  6
CONTINUOUS
 62
     8
100
AcDbLine
 10
2.9132502766
 20
4.3295444281
 30
0.0
 11
3.0877403138
 21
4.3295444281
 31
0.0
  0
LINE
  5
104
330
1F
100
AcDbEntity
  8
0
  6
CONTINUOUS
 62
     8
100
AcDbLine
 10
2.7383473671
 20
4.3295444281
 30
0.0
 11
2.9132502766
 21
4.3295444281
 31
0.0
  0
LINE
  5
105
330
1F
100
AcDbEntity
  8
0
  6
HIDDEN
 62
     7
100
AcDbLine
 10
4.0746675994
 20
3.7882058454
 30
0.0
 11
4.0746675994
 21
3.7291507273
 31
0.0
  0
LINE
  5
106
330
1F
100
AcDbEntity
  8
0
  6
HIDDEN
 62
     7
100
AcDbLine
 10
2.5786046073
 20
3.7291507273
 30
0.0
 11
2.5786046073
 21
3.7882058454
 31
0.0
  0
LINE
  5
107
330
1F
100
AcDbEntity
  8
0
  6
HIDDEN
 62
     7
100
AcDbLine
 10
3.785223447
 20
4.1523790738
 30
0.0
 11
3.9171872845
 21
4.1523790738
 31
0.0
  0
LINE
  5
108
330
1F
100
AcDbEntity
  8
0
  6
HIDDEN
 62
     7
100
AcDbLine
 10
3.5628565758
 20
4.1523790738
 30
0.0
 11
3.6948204133
 21
4.1523790738
 31
0.0
  0
LINE
  5
109
330
1F
100
AcDbEntity
  8
0
  6
HIDDEN
 62
     7
100
AcDbLine
 10
2.8680487598
 20
4.1523790738
 30
0.0
 11
2.7360849223
 21
4.1523790738
 31
0.0
  0
LINE
  5
10A
330
1F
100
AcDbEntity
  8
0
  6
HIDDEN
 62
     7
100
AcDbLine
 10
3.0904156309
 20
4.1523790738
 30
0.0
 11
2.9584517935
 21
4.1523790738
 31
0.0
  0
LINE
  5
10B
330
1F
100
AcDbEntity
  8
0
  6
HIDDEN
 62
     7
100
AcDbLine
 10
3.5628565758
 20
4.1523790738
 30
0.0
 11
3.6946122498
 21
4.1523790738
 31
0.0
  0
LINE
  5
10C
330
1F
100
AcDbEntity
  8
0
  6
HIDDEN
 62
     7
100
AcDbLine
 10
3.838387169
 20
3.3846625384
 30
0.0
 11
3.6416566913
 21
3.3846625384
 31
0.0
  0
LINE
  5
10D
330
1F
100
AcDbEntity
  8
0
  6
HIDDEN
 62
     7
100
AcDbLine
 10
3.8187620876
 20
3.364977499
 30
0.0
 11
3.6612817727
 21
3.364977499
 31
0.0
  0
LINE
  5
10E
330
1F
100
AcDbEntity
  8
0
  6
HIDDEN
 62
     7
100
AcDbLine
 10
3.6612817727
 20
4.1917491525
 30
0.0
 11
3.7400219302
 21
4.1917491525
 31
0.0
  0
LINE
  5
10F
330
1F
100
AcDbEntity
  8
0
  6
HIDDEN
 62
     7
100
AcDbLine
 10
3.7400219302
 20
4.1917491525
 30
0.0
 11
3.8187620876
 21
4.1917491525
 31
0.0
  0
LINE
  5
110
330
1F
100
AcDbEntity
  8
0
  6
HIDDEN
 62
     7
100
AcDbLine
 10
3.7400219302
 20
4.1917491525
 30
0.0
 11
3.7400219302
 21
4.3492294675
 31
0.0
  0
LINE
  5
111
330
1F
100
AcDbEntity
  8
0
  6
HIDDEN
 62
     7
100
AcDbLine
 10
3.6612817727
 20
4.1917491525
 30
0.0
 11
3.6612817727
 21
4.3492294675
 31
0.0
  0
LINE
  5
112
330
1F
100
AcDbEntity
  8
0
  6
HIDDEN
 62
     7
100
AcDbLine
 10
3.8187620876
 20
4.1917491525
 30
0.0
 11
3.8187620876
 21
4.3492294675
 31
0.0
  0
LINE
  5
113
330
1F
100
AcDbEntity
  8
0
  6
HIDDEN
 62
     7
100
AcDbLine
 10
2.8678409818
 20
4.1523790738
 30
0.0
 11
2.7360849223
 21
4.1523790738
 31
0.0
  0
LINE
  5
114
330
1F
100
AcDbEntity
  8
0
  6
HIDDEN
 62
     7
100
AcDbLine
 10
3.0904156309
 20
4.1523790738
 30
0.0
 11
2.9586599569
 21
4.1523790738
 31
0.0
  0
LINE
  5
115
330
1F
100
AcDbEntity
  8
0
  6
HIDDEN
 62
     7
100
AcDbLine
 10
2.8148850377
 20
3.3846625384
 30
0.0
 11
3.0116155155
 21
3.3846625384
 31
0.0
  0
LINE
  5
116
330
1F
100
AcDbEntity
  8
0
  6
HIDDEN
 62
     7
100
AcDbLine
 10
2.8345101191
 20
3.364977499
 30
0.0
 11
2.9919904341
 21
3.364977499
 31
0.0
  0
LINE
  5
117
330
1F
100
AcDbEntity
  8
0
  6
HIDDEN
 62
     7
100
AcDbLine
 10
2.9919904341
 20
4.1917491525
 30
0.0
 11
2.9132502766
 21
4.1917491525
 31
0.0
  0
LINE
  5
118
330
1F
100
AcDbEntity
  8
0
  6
HIDDEN
 62
     7
100
AcDbLine
 10
2.9132502766
 20
4.1917491525
 30
0.0
 11
2.8345101191
 21
4.1917491525
 31
0.0
  0
LINE
  5
119
330
1F
100
AcDbEntity
  8
0
  6
HIDDEN
 62
     7
100
AcDbLine
 10
2.9132502766
 20
4.1917491525
 30
0.0
 11
2.9132502766
 21
4.3492294675
 31
0.0
  0
LINE
  5
11A
330
1F
100
AcDbEntity
  8
0
  6
HIDDEN
 62
     7
100
AcDbLine
 10
2.8345101191
 20
4.1917491525
 30
0.0
 11
2.8345101191
 21
4.3492294675
 31
0.0
  0
LINE
  5
11B
330
1F
100
AcDbEntity
  8
0
  6
HIDDEN
 62
     7
100
AcDbLine
 10
2.9919904341
 20
4.1917491525
 30
0.0
 11
2.9919904341
 21
4.3492294675
 31
0.0
  0
LINE
  5
11C
330
1F
100
AcDbEntity
  8
0
  6
HIDDEN
 62
     7
100
AcDbLine
 10
3.9171872845
 20
4.1523790738
 30
0.0
 11
3.9171872845
 21
4.3578824211
 31
0.0
  0
LINE
  5
11D
330
1F
100
AcDbEntity
  8
0
  6
HIDDEN
 62
     7
100
AcDbLine
 10
3.5628565758
 20
4.3579766487
 30
0.0
 11
3.5628565758
 21
4.1523790738
 31
0.0
  0
LINE
  5
11E
330
1F
100
AcDbEntity
  8
0
  6
HIDDEN
 62
     7
100
AcDbLine
 10
3.0904156309
 20
4.1523790738
 30
0.0
 11
3.0904156309
 21
4.3579766487
 31
0.0
  0
LINE
  5
11F
330
1F
100
AcDbEntity
  8
0
  6
HIDDEN
 62
     7
100
AcDbLine
 10
2.7360849223
 20
4.3578824211
 30
0.0
 11
2.7360849223
 21
4.1523790738
 31
0.0
  0
LINE
  5
120
330
1F
100
AcDbEntity
  8
0
  6
HIDDEN
 62
     7
100
AcDbLine
 10
3.6415967333
 20
4.1523790738
 30
0.0
 11
3.6415967333
 21
3.7882058454
 31
0.0
  0
LINE
  5
121
330
1F
100
AcDbEntity
  8
0
  6
HIDDEN
 62
     7
100
AcDbLine
 10
3.838447127
 20
3.7882058454
 30
0.0
 11
3.838447127
 21
4.1523790738
 31
0.0
  0
LINE
  5
122
330
1F
100
AcDbEntity
  8
0
  6
HIDDEN
 62
     7
100
AcDbLine
 10
2.8148250798
 20
4.1523790738
 30
0.0
 11
2.8148250798
 21
3.7882058454
 31
0.0
  0
LINE
  5
123
330
1F
100
AcDbEntity
  8
0
  6
HIDDEN
 62
     7
100
AcDbLine
 10
3.0116754735
 20
3.7882058454
 30
0.0
 11
3.0116754735
 21
4.1523790738
 31
0.0
  0
LINE
  5
124
330
1F
100
AcDbEntity
  8
0
  6
HIDDEN
 62
     7
100
AcDbLine
 10
2.8148250798
 20
3.7291507273
 30
0.0
 11
2.8148250798
 21
3.1594383656
 31
0.0
  0
LINE
  5
125
330
1F
100
AcDbEntity
  8
0
  6
HIDDEN
 62
     7
100
AcDbLine
 10
3.0116754735
 20
3.1593643795
 30
0.0
 11
3.0116754735
 21
3.7291507273
 31
0.0
  0
LINE
  5
126
330
1F
100
AcDbEntity
  8
0
  6
HIDDEN
 62
     7
100
AcDbLine
 10
3.6415967333
 20
3.7291507273
 30
0.0
 11
3.6415967333
 21
3.1593643795
 31
0.0
  0
LINE
  5
127
330
1F
100
AcDbEntity
  8
0
  6
HIDDEN
 62
     7
100
AcDbLine
 10
3.838447127
 20
3.1594383656
 30
0.0
 11
3.838447127
 21
3.7291507273
 31
0.0
  0
LINE
  5
128
330
1F
100
AcDbEntity
  8
0
  6
HIDDEN
 62
     7
100
AcDbLine
 10
4.0746675994
 20
3.522457814
 30
0.0
 11
4.1140376782
 21
3.4830877352
 31
0.0
  0
LINE
  5
129
330
1F
100
AcDbEntity
  8
0
  6
HIDDEN
 62
     7
100
AcDbLine
 10
4.1140376782
 20
4.0342688376
 30
0.0
 11
4.0746675994
 21
3.9948987588
 31
0.0
  0
LINE
  5
12A
330
1F
100
AcDbEntity
  8
0
  6
HIDDEN
 62
     7
100
AcDbLine
 10
2.5786046073
 20
3.9948987588
 30
0.0
 11
2.5392345286
 21
4.0342688376
 31
0.0
  0
LINE
  5
12B
330
1F
100
AcDbEntity
  8
0
  6
HIDDEN
 62
     7
100
AcDbLine
 10
2.5392345286
 20
3.4830877352
 30
0.0
 11
2.5786046073
 21
3.522457814
 31
0.0
  0
LINE
  5
12C
330
1F
100
AcDbEntity
  8
0
  6
HIDDEN
 62
     7
100
AcDbLine
 10
3.2872660246
 20
3.9948987588
 30
0.0
 11
2.5786046073
 21
3.9948987588
 31
0.0
  0
LINE
  5
12D
330
1F
100
AcDbEntity
  8
0
  6
HIDDEN
 62
     7
100
AcDbLine
 10
4.0746675994
 20
3.9948987588
 30
0.0
 11
3.3660061821
 21
3.9948987588
 31
0.0
  0
LINE
  5
12E
330
1F
100
AcDbEntity
  8
0
  6
HIDDEN
 62
     7
100
AcDbLine
 10
2.5786046073
 20
3.522457814
 30
0.0
 11
4.0746675994
 21
3.522457814
 31
0.0
  0
LINE
  5
12F
330
1F
100
AcDbEntity
  8
0
  6
HIDDEN
 62
     7
100
AcDbLine
 10
3.9171872845
 20
4.1523790738
 30
0.0
 11
3.9171872845
 21
4.3295444281
 31
0.0
  0
LINE
  5
130
330
1F
100
AcDbEntity
  8
0
  6
HIDDEN
 62
     7
100
AcDbLine
 10
3.5628565758
 20
4.3295444281
 30
0.0
 11
3.5628565758
 21
4.1523790738
 31
0.0
  0
ARC
  5
131
330
1F
100
AcDbEntity
  8
0
  6
HIDDEN
 62
     7
100
AcDbCircle
 10
3.5825416152
 20
4.3295444281
 30
0.0
 40
0.019685039370079
100
AcDbArc
 50
157.2736342563
 51
180.0
  0
ARC
  5
132
330
1F
100
AcDbEntity
  8
0
  6
HIDDEN
 62
     7
100
AcDbCircle
 10
3.8975022451
 20
4.3295444281
 30
0.0
 40
0.019685039370079
100
AcDbArc
 50
0.0
 51
24.5512708881
  0
ARC
  5
133
330
1F
100
AcDbEntity
  8
0
  6
HIDDEN
 62
     7
100
AcDbCircle
 10
3.8187620876
 20
3.3846625384
 30
0.0
 40
0.0196850393700791
100
AcDbArc
 50
270.0
 51
0.0
  0
ARC
  5
134
330
1F
100
AcDbEntity
  8
0
  6
HIDDEN
 62
     7
100
AcDbCircle
 10
3.6612817727
 20
3.3846625384
 30
0.0
 40
0.0196850393700787
100
AcDbArc
 50
180.0
 51
270.0
  0
LINE
  5
135
330
1F
100
AcDbEntity
  8
0
  6
HIDDEN
 62
     7
100
AcDbLine
 10
3.6415967333
 20
4.1523790738
 30
0.0
 11
3.6415967333
 21
3.7882058454
 31
0.0
  0
LINE
  5
136
330
1F
100
AcDbEntity
  8
0
  6
HIDDEN
 62
     7
100
AcDbLine
 10
3.6415967333
 20
3.7291507273
 30
0.0
 11
3.6415967333
 21
3.3846625384
 31
0.0
  0
LINE
  5
137
330
1F
100
AcDbEntity
  8
0
  6
HIDDEN
 62
     7
100
AcDbLine
 10
3.838447127
 20
3.3846625384
 30
0.0
 11
3.838447127
 21
3.7291507273
 31
0.0
  0
LINE
  5
138
330
1F
100
AcDbEntity
  8
0
  6
HIDDEN
 62
     7
100
AcDbLine
 10
3.838447127
 20
3.7882058454
 30
0.0
 11
3.838447127
 21
4.1523790738
 31
0.0
  0
ARC
  5
139
330
1F
100
AcDbEntity
  8
0
  6
HIDDEN
 62
     7
100
AcDbCircle
 10
2.7557699617
 20
4.3295444281
 30
0.0
 40
0.0196850393700788
100
AcDbArc
 50
156.1196978221
 51
180.0
  0
POLYLINE
  5
13A
330
1F
100
AcDbEntity
  8
0
  6
HIDDEN
 62
     7
100
AcDb2dPolyline
 66
     1
 10
0.0
 20
0.0
 30
0.0
  0
VERTEX
  5
207
330
13A
100
AcDbEntity
  8
0
  6
HIDDEN
 62
     7
100
AcDbVertex
100
AcDb2dVertex
 10
3.0904156309
 20
4.3295444281
 30
0.0
  0
VERTEX
  5
208
330
13A
100
AcDbEntity
  8
0
  6
HIDDEN
 62
     7
100
AcDbVertex
100
AcDb2dVertex
 10
3.0900373884
 20
4.3333847888
 30
0.0
  0
VERTEX
  5
209
330
13A
100
AcDbEntity
  8
0
  6
HIDDEN
 62
     7
100
AcDbVertex
100
AcDb2dVertex
 10
3.088920148
 20
4.3370704372
 30
0.0
  0
SEQEND
  5
20A
330
13A
100
AcDbEntity
  8
0
  6
HIDDEN
 62
     7
  0
LINE
  5
13B
330
1F
100
AcDbEntity
  8
0
  6
HIDDEN
 62
     7
100
AcDbLine
 10
3.0904156309
 20
4.1523790738
 30
0.0
 11
3.0904156309
 21
4.3295444281
 31
0.0
  0
LINE
  5
13C
330
1F
100
AcDbEntity
  8
0
  6
HIDDEN
 62
     7
100
AcDbLine
 10
2.7360849223
 20
4.3295444281
 30
0.0
 11
2.7360849223
 21
4.1523790738
 31
0.0
  0
ARC
  5
13D
330
1F
100
AcDbEntity
  8
0
  6
HIDDEN
 62
     7
100
AcDbCircle
 10
2.9919904341
 20
3.3846625384
 30
0.0
 40
0.0196850393700787
100
AcDbArc
 50
270.0
 51
0.0
  0
ARC
  5
13E
330
1F
100
AcDbEntity
  8
0
  6
HIDDEN
 62
     7
100
AcDbCircle
 10
2.8345101191
 20
3.3846625384
 30
0.0
 40
0.0196850393700787
100
AcDbArc
 50
180.0
 51
270.0
  0
LINE
  5
13F
330
1F
100
AcDbEntity
  8
0
  6
HIDDEN
 62
     7
100
AcDbLine
 10
2.8148250798
 20
4.1523790738
 30
0.0
 11
2.8148250798
 21
3.7882058454
 31
0.0
  0
LINE
  5
140
330
1F
100
AcDbEntity
  8
0
  6
HIDDEN
 62
     7
100
AcDbLine
 10
2.8148250798
 20
3.7291507273
 30
0.0
 11
2.8148250798
 21
3.3846625384
 31
0.0
  0
LINE
  5
141
330
1F
100
AcDbEntity
  8
0
  6
HIDDEN
 62
     7
100
AcDbLine
 10
3.0116754735
 20
3.3846625384
 30
0.0
 11
3.0116754735
 21
3.7291507273
 31
0.0
  0
LINE
  5
142
330
1F
100
AcDbEntity
  8
0
  6
HIDDEN
 62
     7
100
AcDbLine
 10
3.0116754735
 20
3.7882058454
 30
0.0
 11
3.0116754735
 21
4.1523790738
 31
0.0
  0
LINE
  5
143
330
1F
100
AcDbEntity
  8
0
  6
HIDDEN
 62
     7
100
AcDbLine
 10
3.9171285484
 20
4.3295444281
 30
0.0
 11
3.5629153119
 21
4.3295444281
 31
0.0
  0
LINE
  5
144
330
1F
100
AcDbEntity
  8
0
  6
HIDDEN
 62
     7
100
AcDbLine
 10
2.7361436584
 20
4.3295444281
 30
0.0
 11
3.0903568949
 21
4.3295444281
 31
0.0
  0
LINE
  5
145
330
1F
100
AcDbEntity
  8
0
  6
CONTINUOUS
 62
     7
100
AcDbLine
 10
7.5628345975
 20
4.3295444281
 30
0.0
 11
7.5628345975
 21
4.1523790738
 31
0.0
  0
ARC
  5
146
330
1F
100
AcDbEntity
  8
0
  6
CONTINUOUS
 62
     7
100
AcDbCircle
 10
7.5825196368
 20
4.3295444281
 30
0.0
 40
0.0196850393700787
100
AcDbArc
 50
90.0
 51
180.0
  0
LINE
  5
147
330
1F
100
AcDbEntity
  8
0
  6
CONTINUOUS
 62
     7
100
AcDbLine
 10
7.6415747549
 20
3.7882058454
 30
0.0
 11
7.6415747549
 21
3.7291507273
 31
0.0
  0
LINE
  5
148
330
1F
100
AcDbEntity
  8
0
  6
CONTINUOUS
 62
     7
100
AcDbLine
 10
7.8384251486
 20
3.7291507273
 30
0.0
 11
7.8384251486
 21
3.7882058454
 31
0.0
  0
ARC
  5
149
330
1F
100
AcDbEntity
  8
0
  6
CONTINUOUS
 62
     7
100
AcDbCircle
 10
8.2506076881
 20
3.7586782864
 30
0.0
 40
0.7480314960629934
100
AcDbArc
 50
182.2622632658
 51
177.7377367342
  0
LINE
  5
14A
330
1F
100
AcDbEntity
  8
0
  6
CONTINUOUS
 62
     7
100
AcDbLine
 10
7.5031592
 20
3.7882058454
 30
0.0
 11
7.4637599498
 21
3.7882058454
 31
0.0
  0
ARC
  5
14B
330
1F
100
AcDbEntity
  8
0
  6
CONTINUOUS
 62
     7
100
AcDbCircle
 10
8.2506076881
 20
3.7586782864
 30
0.0
 40
0.7874015748031508
100
AcDbArc
 50
182.1490956269
 51
177.8509043731
  0
LINE
  5
14C
330
1F
100
AcDbEntity
  8
0
  6
CONTINUOUS
 62
     7
100
AcDbLine
 10
7.4637599498
 20
3.7291507273
 30
0.0
 11
7.5031592
 21
3.7291507273
 31
0.0
  0
LINE
  5
14D
330
1F
100
AcDbEntity
  8
0
  6
CONTINUOUS
 62
     7
100
AcDbLine
 10
8.6443084755
 20
3.7291507273
 30
0.0
 11
8.6443084755
 21
3.7882058454
 31
0.0
  0
LINE
  5
14E
330
1F
100
AcDbEntity
  8
0
  6
CONTINUOUS
 62
     7
100
AcDbLine
 10
8.6443084755
 20
3.7882058454
 30
0.0
 11
8.5246118398
 21
3.7882058454
 31
0.0
  0
ARC
  5
14F
330
1F
100
AcDbEntity
  8
0
  6
CONTINUOUS
 62
     7
100
AcDbCircle
 10
8.2506076881
 20
3.7586782864
 30
0.0
 40
0.2755905511811056
100
AcDbArc
 50
6.1506398279
 51
173.8493601721
  0
LINE
  5
150
330
1F
100
AcDbEntity
  8
0
  6
CONTINUOUS
 62
     7
100
AcDbLine
 10
7.9766035364
 20
3.7882058454
 30
0.0
 11
7.5031592
 21
3.7882058454
 31
0.0
  0
LINE
  5
151
330
1F
100
AcDbEntity
  8
0
  6
CONTINUOUS
 62
     7
100
AcDbLine
 10
7.5031592
 20
3.7291507273
 30
0.0
 11
7.9766035364
 21
3.7291507273
 31
0.0
  0
ARC
  5
152
330
1F
100
AcDbEntity
  8
0
  6
CONTINUOUS
 62
     7
100
AcDbCircle
 10
8.2506076881
 20
3.7586782864
 30
0.0
 40
0.2755905511811056
100
AcDbArc
 50
186.1506398279
 51
353.8493601721
  0
LINE
  5
153
330
1F
100
AcDbEntity
  8
0
  6
CONTINUOUS
 62
     7
100
AcDbLine
 10
8.5246118398
 20
3.7291507273
 30
0.0
 11
8.6443084755
 21
3.7291507273
 31
0.0
  0
ARC
  5
154
330
1F
100
AcDbEntity
  8
0
  6
CONTINUOUS
 62
     7
100
AcDbCircle
 10
8.2506076881
 20
3.7586782864
 30
0.0
 40
0.2362204724409462
100
AcDbArc
 50
7.1807557815
 51
172.8192442185
  0
SPLINE
  5
155
330
1F
100
AcDbEntity
  8
0
  6
CONTINUOUS
 62
     7
100
AcDbSpline
210
0.0
220
0.0
230
1.0
 70
    24
 71
     3
 72
     8
 73
     4
 74
     0
 42
0.00000001
 43
0.00000001
 40
0.0
 40
0.0
 40
0.0
 40
0.0
 40
0.0007095026026307
 40
0.0007095026026307
 40
0.0007095026026307
 40
0.0007095026026307
 10
8.016239953821676
 20
3.788205845447165
 30
0.0
 10
8.00302038945649
 20
3.788205845447165
 30
0.0
 10
7.989809314319486
 20
3.788205845447165
 30
0.0
 10
7.976603536355446
 20
3.788205845447165
 30
0.0
  0
SPLINE
  5
156
330
1F
100
AcDbEntity
  8
0
  6
CONTINUOUS
 62
     7
100
AcDbSpline
210
0.0
220
0.0
230
1.0
 70
    24
 71
     3
 72
     8
 73
     4
 74
     0
 42
0.00000001
 43
0.00000001
 40
0.0
 40
0.0
 40
0.0
 40
0.0
 40
0.0007095026026307
 40
0.0007095026026307
 40
0.0007095026026307
 40
0.0007095026026307
 10
8.524611839783601
 20
3.788205845447165
 30
0.0
 10
8.511406061819562
 20
3.788205845447165
 30
0.0
 10
8.498194986682558
 20
3.788205845447165
 30
0.0
 10
8.484975422317373
 20
3.788205845447165
 30
0.0
  0
ARC
  5
157
330
1F
100
AcDbEntity
  8
0
  6
CONTINUOUS
 62
     7
100
AcDbCircle
 10
8.2506076881
 20
3.7586782864
 30
0.0
 40
0.2362204724409462
100
AcDbArc
 50
187.1807557815
 51
352.8192442185
  0
SPLINE
  5
158
330
1F
100
AcDbEntity
  8
0
  6
CONTINUOUS
 62
     7
100
AcDbSpline
210
0.0
220
0.0
230
1.0
 70
    24
 71
     3
 72
     8
 73
     4
 74
     0
 42
0.00000001
 43
0.00000001
 40
0.0
 40
0.0
 40
0.0
 40
0.0
 40
0.0007095026026307
 40
0.0007095026026307
 40
0.0007095026026307
 40
0.0007095026026307
 10
7.976603536355446
 20
3.729150727336929
 30
0.0
 10
7.989809314319486
 20
3.729150727336929
 30
0.0
 10
8.00302038945649
 20
3.729150727336929
 30
0.0
 10
8.016239953821676
 20
3.729150727336929
 30
0.0
  0
SPLINE
  5
159
330
1F
100
AcDbEntity
  8
0
  6
CONTINUOUS
 62
     7
100
AcDbSpline
210
0.0
220
0.0
230
1.0
 70
    24
 71
     3
 72
     8
 73
     4
 74
     0
 42
0.00000001
 43
0.00000001
 40
0.0
 40
0.0
 40
0.0
 40
0.0
 40
0.0007095026026307
 40
0.0007095026026307
 40
0.0007095026026307
 40
0.0007095026026307
 10
8.484975422317373
 20
3.729150727336929
 30
0.0
 10
8.498194986682558
 20
3.729150727336929
 30
0.0
 10
8.511406061819562
 20
3.729150727336929
 30
0.0
 10
8.524611839783601
 20
3.729150727336929
 30
0.0
  0
LINE
  5
15A
330
1F
100
AcDbEntity
  8
0
  6
CONTINUOUS
 62
     7
100
AcDbLine
 10
7.5628345975
 20
4.1523790738
 30
0.0
 11
7.5686979213
 21
4.1523790738
 31
0.0
  0
LINE
  5
15B
330
1F
100
AcDbEntity
  8
0
  6
CONTINUOUS
 62
     7
100
AcDbLine
 10
7.5825196368
 20
4.3492294675
 30
0.0
 11
7.7297905009
 21
4.3492294675
 31
0.0
  0
LINE
  5
15C
330
1F
100
AcDbEntity
  8
0
  6
CONTINUOUS
 62
     8
100
AcDbLine
 10
7.7082857466
 20
4.3295444281
 30
0.0
 11
7.5628345975
 21
4.3295444281
 31
0.0
  0
LINE
  5
15D
330
1F
100
AcDbEntity
  8
0
  6
HIDDEN
 62
     7
100
AcDbLine
 10
7.5686979213
 20
4.1523790738
 30
0.0
 11
7.9171653061
 21
4.1523790738
 31
0.0
  0
LINE
  5
15E
330
1F
100
AcDbEntity
  8
0
  6
HIDDEN
 62
     7
100
AcDbLine
 10
8.6443084755
 20
3.7882058454
 30
0.0
 11
8.6443084755
 21
4.4405880532
 31
0.0
  0
LINE
  5
15F
330
1F
100
AcDbEntity
  8
0
  6
HIDDEN
 62
     7
100
AcDbLine
 10
7.7297905009
 20
4.3492294675
 30
0.0
 11
7.8974802667
 21
4.3492294675
 31
0.0
  0
LINE
  5
160
330
1F
100
AcDbEntity
  8
0
  6
HIDDEN
 62
     7
100
AcDbLine
 10
7.8384251486
 20
3.3846625384
 30
0.0
 11
7.6418145138
 21
3.3846625384
 31
0.0
  0
LINE
  5
161
330
1F
100
AcDbEntity
  8
0
  6
HIDDEN
 62
     7
100
AcDbLine
 10
7.8187401093
 20
3.364977499
 30
0.0
 11
7.6612597965
 21
3.364977499
 31
0.0
  0
LINE
  5
162
330
1F
100
AcDbEntity
  8
0
  6
HIDDEN
 62
     7
100
AcDbLine
 10
7.7854606029
 20
4.1917491525
 30
0.0
 11
7.830921254
 21
4.1917491525
 31
0.0
  0
LINE
  5
163
330
1F
100
AcDbEntity
  8
0
  6
HIDDEN
 62
     7
100
AcDbLine
 10
7.6945393007
 20
4.1917491525
 30
0.0
 11
7.7854606029
 21
4.1917491525
 31
0.0
  0
LINE
  5
164
330
1F
100
AcDbEntity
  8
0
  6
HIDDEN
 62
     7
100
AcDbLine
 10
7.7854606029
 20
4.1917491525
 30
0.0
 11
7.7854606029
 21
4.3492294675
 31
0.0
  0
LINE
  5
165
330
1F
100
AcDbEntity
  8
0
  6
HIDDEN
 62
     7
100
AcDbLine
 10
7.6945393007
 20
4.1917491525
 30
0.0
 11
7.6945393007
 21
4.3492294675
 31
0.0
  0
LINE
  5
166
330
1F
100
AcDbEntity
  8
0
  6
HIDDEN
 62
     7
100
AcDbLine
 10
7.6490786496
 20
4.1917491525
 30
0.0
 11
7.6945393007
 21
4.1917491525
 31
0.0
  0
LINE
  5
167
330
1F
100
AcDbEntity
  8
0
  6
HIDDEN
 62
     7
100
AcDbLine
 10
7.830921254
 20
4.1917491525
 30
0.0
 11
7.830921254
 21
4.3492294675
 31
0.0
  0
LINE
  5
168
330
1F
100
AcDbEntity
  8
0
  6
HIDDEN
 62
     7
100
AcDbLine
 10
7.6490786496
 20
4.1917491525
 30
0.0
 11
7.6490786496
 21
4.3492294675
 31
0.0
  0
LINE
  5
169
330
1F
100
AcDbEntity
  8
0
  6
HIDDEN
 62
     7
100
AcDbLine
 10
7.5628345975
 20
4.3295444281
 30
0.0
 11
7.9169304008
 21
4.3295444281
 31
0.0
  0
LINE
  5
16A
330
1F
100
AcDbEntity
  8
0
  6
HIDDEN
 62
     7
100
AcDbLine
 10
7.8384251486
 20
3.3846625384
 30
0.0
 11
7.6418145138
 21
3.3846625384
 31
0.0
  0
LINE
  5
16B
330
1F
100
AcDbEntity
  8
0
  6
HIDDEN
 62
     7
100
AcDbLine
 10
7.9171653061
 20
4.1523790738
 30
0.0
 11
7.9171653061
 21
4.4718024253
 31
0.0
  0
LINE
  5
16C
330
1F
100
AcDbEntity
  8
0
  6
HIDDEN
 62
     7
100
AcDbLine
 10
7.6415747549
 20
4.1523790738
 30
0.0
 11
7.6415747549
 21
3.7882058454
 31
0.0
  0
LINE
  5
16D
330
1F
100
AcDbEntity
  8
0
  6
HIDDEN
 62
     7
100
AcDbLine
 10
7.8384251486
 20
3.7882058454
 30
0.0
 11
7.8384251486
 21
4.1523790738
 31
0.0
  0
LINE
  5
16E
330
1F
100
AcDbEntity
  8
0
  6
HIDDEN
 62
     7
100
AcDbLine
 10
7.6415747549
 20
3.7291507273
 30
0.0
 11
7.6415747549
 21
3.2595990077
 31
0.0
  0
LINE
  5
16F
330
1F
100
AcDbEntity
  8
0
  6
HIDDEN
 62
     7
100
AcDbLine
 10
7.8384251486
 20
3.0879362632
 30
0.0
 11
7.8384251486
 21
3.7291507273
 31
0.0
  0
LINE
  5
170
330
1F
100
AcDbEntity
  8
0
  6
HIDDEN
 62
     7
100
AcDbLine
 10
7.9171653061
 20
4.1523790738
 30
0.0
 11
7.9171653061
 21
4.3295444281
 31
0.0
  0
ARC
  5
171
330
1F
100
AcDbEntity
  8
0
  6
HIDDEN
 62
     7
100
AcDbCircle
 10
7.8974802668
 20
4.3295444281
 30
0.0
 40
0.0196850393700787
100
AcDbArc
 50
0.0
 51
90.0
  0
LINE
  5
172
330
1F
100
AcDbEntity
  8
0
  6
HIDDEN
 62
     7
100
AcDbLine
 10
7.6415747549
 20
4.1523790738
 30
0.0
 11
7.6415747549
 21
3.7882058454
 31
0.0
  0
LINE
  5
173
330
1F
100
AcDbEntity
  8
0
  6
HIDDEN
 62
     7
100
AcDbLine
 10
7.6415747549
 20
3.7291507273
 30
0.0
 11
7.6415747549
 21
3.3846625384
 31
0.0
  0
LINE
  5
174
330
1F
100
AcDbEntity
  8
0
  6
HIDDEN
 62
     7
100
AcDbLine
 10
7.8384251486
 20
3.3846625384
 30
0.0
 11
7.8384251486
 21
3.7291507273
 31
0.0
  0
LINE
  5
175
330
1F
100
AcDbEntity
  8
0
  6
HIDDEN
 62
     7
100
AcDbLine
 10
7.8384251486
 20
3.7882058454
 30
0.0
 11
7.8384251486
 21
4.1523790738
 31
0.0
  0
ARC
  5
176
330
1F
100
AcDbEntity
  8
0
  6
HIDDEN
 62
     7
100
AcDbCircle
 10
7.8187401093
 20
3.3846625384
 30
0.0
 40
0.0196850393700787
100
AcDbArc
 50
270.0
 51
0.0
  0
ARC
  5
177
330
1F
100
AcDbEntity
  8
0
  6
HIDDEN
 62
     7
100
AcDbCircle
 10
7.6612597943
 20
3.3846625384
 30
0.0
 40
0.0196850393700787
100
AcDbArc
 50
180.0
 51
270.0
  0
LINE
  5
178
330
1F
100
AcDbEntity
  8
0
  6
HIDDEN
 62
     7
100
AcDbLine
 10
7.5628345975
 20
4.3295444281
 30
0.0
 11
7.9169304008
 21
4.3295444281
 31
0.0
  0
LINE
  5
179
330
1F
100
AcDbEntity
  8
0
  6
CONTINUOUS
 62
     7
100
AcDbLine
 10
4.1140376782
 20
7.4197317167
 30
0.0
 11
4.0746675994
 21
7.4591017955
 31
0.0
  0
LINE
  5
17A
330
1F
100
AcDbEntity
  8
0
  6
CONTINUOUS
 62
     7
100
AcDbLine
 10
4.0746675994
 20
7.4591017955
 30
0.0
 11
2.5786046073
 21
7.4591017955
 31
0.0
  0
LINE
  5
17B
330
1F
100
AcDbEntity
  8
0
  6
CONTINUOUS
 62
     7
100
AcDbLine
 10
2.5786046073
 20
7.4591017955
 30
0.0
 11
2.5392345286
 21
7.4197317167
 31
0.0
  0
LINE
  5
17C
330
1F
100
AcDbEntity
  8
0
  6
CONTINUOUS
 62
     7
100
AcDbLine
 10
4.1140376782
 20
7.4197317167
 30
0.0
 11
4.1140376782
 21
5.9242517326
 31
0.0
  0
LINE
  5
17D
330
1F
100
AcDbEntity
  8
0
  6
CONTINUOUS
 62
     7
100
AcDbLine
 10
4.1140376782
 20
5.9242517326
 30
0.0
 11
4.0746675994
 21
5.8848524824
 31
0.0
  0
LINE
  5
17E
330
1F
100
AcDbEntity
  8
0
  6
CONTINUOUS
 62
     7
100
AcDbLine
 10
4.0746675994
 20
5.8848524824
 30
0.0
 11
4.0746675994
 21
7.4591017955
 31
0.0
  0
SPLINE
  5
17F
330
1F
100
AcDbEntity
  8
0
  6
CONTINUOUS
 62
     7
100
AcDbSpline
210
0.0
220
0.0
230
1.0
 70
     8
 71
     3
 72
    58
 73
    54
 74
     0
 42
0.00000001
 43
0.00000001
 40
0.0
 40
0.0
 40
0.0
 40
0.0
 40
0.0312499999999999
 40
0.0312499999999999
 40
0.0624999999999998
 40
0.0624999999999998
 40
0.1249999999999997
 40
0.1249999999999997
 40
0.1874999999999996
 40
0.1874999999999996
 40
0.2499999999999994
 40
0.2499999999999994
 40
0.2812499999999993
 40
0.2812499999999993
 40
0.3124999999999993
 40
0.3124999999999993
 40
0.3437499999999994
 40
0.3437499999999994
 40
0.3749999999999994
 40
0.3749999999999994
 40
0.4062499999999994
 40
0.4062499999999994
 40
0.4374999999999995
 40
0.4374999999999995
 40
0.4687499999999995
 40
0.4687499999999995
 40
0.4999999999999996
 40
0.4999999999999996
 40
0.5312499999999996
 40
0.5312499999999996
 40
0.5624999999999997
 40
0.5624999999999997
 40
0.6249999999999996
 40
0.6249999999999996
 40
0.6562499999999997
 40
0.6562499999999997
 40
0.6874999999999997
 40
0.6874999999999997
 40
0.7499999999999997
 40
0.7499999999999997
 40
0.8124999999999998
 40
0.8124999999999998
 40
0.8437499999999998
 40
0.8437499999999998
 40
0.8749999999999999
 40
0.8749999999999999
 40
0.9062499999999999
 40
0.9062499999999999
 40
0.9374999999999999
 40
0.9374999999999999
 40
0.96875
 40
0.96875
 40
1.0
 40
1.0
 40
1.0
 40
1.0
 10
3.785223447007833
 20
5.98979045390256
 30
0.0
 10
3.796819288198879
 20
5.992850251906773
 30
0.0
 10
3.807079321008395
 20
5.996771918633976
 30
0.0
 10
3.826029918676366
 20
6.005848908326397
 30
0.0
 10
3.834759746765998
 20
6.011068103642159
 30
0.0
 10
3.858588998505889
 20
6.028015676352288
 30
0.0
 10
3.871499425594729
 20
6.040962548234637
 30
0.0
 10
3.893141806339463
 20
6.070142845110029
 30
0.0
 10
3.901607045386228
 20
6.086183551660867
 30
0.0
 10
3.913490496644003
 20
6.120722271271287
 30
0.0
 10
3.916946959652212
 20
6.139554956561446
 30
0.0
 10
3.917289185873132
 20
6.168745910011273
 30
0.0
 10
3.916610292500282
 20
6.178666958392891
 30
0.0
 10
3.913411790895228
 20
6.198884918087511
 30
0.0
 10
3.910866563249937
 20
6.209201565451192
 30
0.0
 10
3.903823240189917
 20
6.22944087989978
 30
0.0
 10
3.89932040955349
 20
6.239450177785618
 30
0.0
 10
3.888041251452778
 20
6.259103780552775
 30
0.0
 10
3.881279787740121
 20
6.268662355819682
 30
0.0
 10
3.865870414619105
 20
6.286341111236844
 30
0.0
 10
3.857168679610766
 20
6.294572106885781
 30
0.0
 10
3.837510480460467
 20
6.309538276142366
 30
0.0
 10
3.826765075077149
 20
6.316078597514915
 30
0.0
 10
3.8040505234967
 20
6.326759040119278
 30
0.0
 10
3.791812110256654
 20
6.331007285810591
 30
0.0
 10
3.766706567082086
 20
6.336709091374591
 30
0.0
 10
3.753948244101886
 20
6.338184998941118
 30
0.0
 10
3.728015005123641
 20
6.338325479854768
 30
0.0
 10
3.715020078851692
 20
6.336952392622885
 30
0.0
 10
3.68997065493737
 20
6.331523320042736
 30
0.0
 10
3.677621550465973
 20
6.327386487348327
 30
0.0
 10
3.64313906868796
 20
6.311561863497345
 30
0.0
 10
3.622983705718188
 20
6.296191390859518
 30
0.0
 10
3.59943064932953
 20
6.269546064156707
 30
0.0
 10
3.592566341918747
 20
6.259948519194389
 30
0.0
 10
3.581185514634654
 20
6.240380940194927
 30
0.0
 10
3.576585145320285
 20
6.23033099097123
 30
0.0
 10
3.56573364938857
 20
6.199603789037484
 30
0.0
 10
3.562686787467031
 20
6.179187547784328
 30
0.0
 10
3.563040674497489
 20
6.139812933238119
 30
0.0
 10
3.566396945162747
 20
6.121362699414354
 30
0.0
 10
3.575264973707774
 20
6.095313762981492
 30
0.0
 10
3.578901357487912
 20
6.086864064239108
 30
0.0
 10
3.587316811311864
 20
6.070810459746319
 30
0.0
 10
3.592097210334121
 20
6.063177383525758
 30
0.0
 10
3.602818290917915
 20
6.048645825518165
 30
0.0
 10
3.60875677613165
 20
6.041747136314379
 30
0.0
 10
3.621957402355679
 20
6.028674132022982
 30
0.0
 10
3.62923450122097
 20
6.022497959323614
 30
0.0
 10
3.645083681480707
 20
6.011195767525136
 30
0.0
 10
3.653679321351544
 20
6.006026067311407
 30
0.0
 10
3.67284708846774
 20
5.99681168683624
 30
0.0
 10
3.683268339105013
 20
5.992838703097938
 30
0.0
 10
3.694820413304579
 20
5.98979045390256
 30
0.0
  0
LINE
  5
180
330
1F
100
AcDbEntity
  8
0
  6
CONTINUOUS
 62
     7
100
AcDbLine
 10
3.3660061821
 20
5.8848524824
 30
0.0
 11
4.0746675994
 21
5.8848524824
 31
0.0
  0
LINE
  5
181
330
1F
100
AcDbEntity
  8
0
  6
CONTINUOUS
 62
     7
100
AcDbLine
 10
3.3660061821
 20
5.8848524824
 30
0.0
 11
3.3660061821
 21
7.0654010081
 31
0.0
  0
LINE
  5
182
330
1F
100
AcDbEntity
  8
0
  6
CONTINUOUS
 62
     7
100
AcDbLine
 10
3.2872660246
 20
7.0654010081
 30
0.0
 11
3.3660061821
 21
7.0654010081
 31
0.0
  0
LINE
  5
183
330
1F
100
AcDbEntity
  8
0
  6
CONTINUOUS
 62
     7
100
AcDbLine
 10
3.2872660246
 20
7.0654010081
 30
0.0
 11
3.2872660246
 21
5.8848524824
 31
0.0
  0
LINE
  5
184
330
1F
100
AcDbEntity
  8
0
  6
CONTINUOUS
 62
     7
100
AcDbLine
 10
2.5786046073
 20
5.8848524824
 30
0.0
 11
3.2872660246
 21
5.8848524824
 31
0.0
  0
LINE
  5
185
330
1F
100
AcDbEntity
  8
0
  6
CONTINUOUS
 62
     7
100
AcDbLine
 10
2.5786046073
 20
7.4591017955
 30
0.0
 11
2.5786046073
 21
5.8848524824
 31
0.0
  0
LINE
  5
186
330
1F
100
AcDbEntity
  8
0
  6
CONTINUOUS
 62
     7
100
AcDbLine
 10
3.2872660246
 20
5.8848524824
 30
0.0
 11
3.3660061821
 21
5.8848524824
 31
0.0
  0
SPLINE
  5
187
330
1F
100
AcDbEntity
  8
0
  6
CONTINUOUS
 62
     7
100
AcDbSpline
210
0.0
220
0.0
230
1.0
 70
     8
 71
     3
 72
    58
 73
    54
 74
     0
 42
0.00000001
 43
0.00000001
 40
0.0
 40
0.0
 40
0.0
 40
0.0
 40
0.0312499999999999
 40
0.0312499999999999
 40
0.0624999999999998
 40
0.0624999999999998
 40
0.1249999999999997
 40
0.1249999999999997
 40
0.1874999999999996
 40
0.1874999999999996
 40
0.2499999999999994
 40
0.2499999999999994
 40
0.2812499999999993
 40
0.2812499999999993
 40
0.3124999999999993
 40
0.3124999999999993
 40
0.3437499999999994
 40
0.3437499999999994
 40
0.3749999999999994
 40
0.3749999999999994
 40
0.4062499999999994
 40
0.4062499999999994
 40
0.4374999999999995
 40
0.4374999999999995
 40
0.4687499999999995
 40
0.4687499999999995
 40
0.4999999999999996
 40
0.4999999999999996
 40
0.5312499999999996
 40
0.5312499999999996
 40
0.5624999999999997
 40
0.5624999999999997
 40
0.6249999999999996
 40
0.6249999999999996
 40
0.6562499999999997
 40
0.6562499999999997
 40
0.6874999999999997
 40
0.6874999999999997
 40
0.7499999999999997
 40
0.7499999999999997
 40
0.8124999999999998
 40
0.8124999999999998
 40
0.8437499999999998
 40
0.8437499999999998
 40
0.8749999999999999
 40
0.8749999999999999
 40
0.9062499999999999
 40
0.9062499999999999
 40
0.9374999999999999
 40
0.9374999999999999
 40
0.96875
 40
0.96875
 40
1.0
 40
1.0
 40
1.0
 40
1.0
 10
2.868048759761272
 20
5.98979045390256
 30
0.0
 10
2.856452918570226
 20
5.992850251906773
 30
0.0
 10
2.84619288576071
 20
5.996771918633976
 30
0.0
 10
2.827242288092739
 20
6.005848908326397
 30
0.0
 10
2.818512460003107
 20
6.011068103642159
 30
0.0
 10
2.794683208263216
 20
6.028015676352288
 30
0.0
 10
2.781772781174376
 20
6.040962548234637
 30
0.0
 10
2.760130400429642
 20
6.070142845110029
 30
0.0
 10
2.751665161382876
 20
6.086183551660867
 30
0.0
 10
2.739781710125102
 20
6.120722271271287
 30
0.0
 10
2.736325247116893
 20
6.139554956561446
 30
0.0
 10
2.735983020895973
 20
6.168745910011273
 30
0.0
 10
2.736661914268824
 20
6.178666958392891
 30
0.0
 10
2.739860415873876
 20
6.198884918087511
 30
0.0
 10
2.742405643519167
 20
6.209201565451192
 30
0.0
 10
2.749448966579187
 20
6.22944087989978
 30
0.0
 10
2.753951797215616
 20
6.239450177785618
 30
0.0
 10
2.765230955316327
 20
6.259103780552775
 30
0.0
 10
2.771992419028984
 20
6.268662355819682
 30
0.0
 10
2.787401792149999
 20
6.286341111236844
 30
0.0
 10
2.796103527158339
 20
6.294572106885781
 30
0.0
 10
2.815761726308638
 20
6.309538276142366
 30
0.0
 10
2.826507131691955
 20
6.316078597514915
 30
0.0
 10
2.849221683272404
 20
6.326759040119278
 30
0.0
 10
2.861460096512451
 20
6.331007285810591
 30
0.0
 10
2.886565639687019
 20
6.336709091374591
 30
0.0
 10
2.899323962667219
 20
6.338184998941118
 30
0.0
 10
2.925257201645464
 20
6.338325479854768
 30
0.0
 10
2.938252127917413
 20
6.336952392622885
 30
0.0
 10
2.963301551831734
 20
6.331523320042736
 30
0.0
 10
2.975650656303132
 20
6.327386487348327
 30
0.0
 10
3.010133138081145
 20
6.311561863497345
 30
0.0
 10
3.030288501050917
 20
6.296191390859518
 30
0.0
 10
3.053841557439575
 20
6.269546064156707
 30
0.0
 10
3.060705864850358
 20
6.259948519194389
 30
0.0
 10
3.072086692134452
 20
6.240380940194927
 30
0.0
 10
3.07668706144882
 20
6.23033099097123
 30
0.0
 10
3.087538557380535
 20
6.199603789037484
 30
0.0
 10
3.090585419302074
 20
6.179187547784328
 30
0.0
 10
3.090231532271616
 20
6.139812933238119
 30
0.0
 10
3.086875261606358
 20
6.121362699414354
 30
0.0
 10
3.078007233061332
 20
6.095313762981492
 30
0.0
 10
3.074370849281193
 20
6.086864064239108
 30
0.0
 10
3.06595539545724
 20
6.070810459746319
 30
0.0
 10
3.061174996434984
 20
6.063177383525758
 30
0.0
 10
3.05045391585119
 20
6.048645825518165
 30
0.0
 10
3.044515430637456
 20
6.041747136314379
 30
0.0
 10
3.031314804413426
 20
6.028674132022982
 30
0.0
 10
3.024037705548135
 20
6.022497959323614
 30
0.0
 10
3.008188525288398
 20
6.011195767525136
 30
0.0
 10
2.999592885417561
 20
6.006026067311407
 30
0.0
 10
2.980425118301365
 20
5.99681168683624
 30
0.0
 10
2.970003867664092
 20
5.992838703097938
 30
0.0
 10
2.958451793464526
 20
5.98979045390256
 30
0.0
  0
LINE
  5
188
330
1F
100
AcDbEntity
  8
0
  6
CONTINUOUS
 62
     7
100
AcDbLine
 10
2.5786046073
 20
5.8848524824
 30
0.0
 11
2.5392345286
 21
5.9242517326
 31
0.0
  0
LINE
  5
189
330
1F
100
AcDbEntity
  8
0
  6
CONTINUOUS
 62
     7
100
AcDbLine
 10
2.5392345286
 20
5.9242517326
 30
0.0
 11
2.5392345286
 21
7.4197317167
 31
0.0
  0
LINE
  5
18A
330
1F
100
AcDbEntity
  8
0
  6
CONTINUOUS
 62
     7
100
AcDbLine
 10
3.3660061821
 20
6.9060679549
 30
0.0
 11
3.2872660246
 21
6.9060679549
 31
0.0
  0
LINE
  5
18B
330
1F
100
AcDbEntity
  8
0
  6
CONTINUOUS
 62
     7
100
AcDbLine
 10
3.2872660246
 20
6.4373324864
 30
0.0
 11
3.3660061821
 21
6.4373324864
 31
0.0
  0
CIRCLE
  5
18C
330
1F
100
AcDbEntity
  8
0
  6
CONTINUOUS
 62
     7
100
AcDbCircle
 10
3.7400219302
 20
6.1610924844
 30
0.0
 40
0.1574803149606296
  0
CIRCLE
  5
18D
330
1F
100
AcDbEntity
  8
0
  6
CONTINUOUS
 62
     7
100
AcDbCircle
 10
3.7400219302
 20
6.1610924844
 30
0.0
 40
0.1771653543307083
  0
LINE
  5
18E
330
1F
100
AcDbEntity
  8
0
  6
CONTINUOUS
 62
     7
100
AcDbLine
 10
3.7400219302
 20
6.2520137866
 30
0.0
 11
3.6612817727
 21
6.2065531355
 31
0.0
  0
LINE
  5
18F
330
1F
100
AcDbEntity
  8
0
  6
CONTINUOUS
 62
     7
100
AcDbLine
 10
3.6612817727
 20
6.2065531355
 30
0.0
 11
3.6612817727
 21
6.1156318333
 31
0.0
  0
LINE
  5
190
330
1F
100
AcDbEntity
  8
0
  6
CONTINUOUS
 62
     7
100
AcDbLine
 10
3.6612817727
 20
6.1156318333
 30
0.0
 11
3.7400219302
 21
6.0701711822
 31
0.0
  0
LINE
  5
191
330
1F
100
AcDbEntity
  8
0
  6
CONTINUOUS
 62
     7
100
AcDbLine
 10
3.7400219302
 20
6.0701711822
 30
0.0
 11
3.8187620876
 21
6.1156318333
 31
0.0
  0
LINE
  5
192
330
1F
100
AcDbEntity
  8
0
  6
CONTINUOUS
 62
     7
100
AcDbLine
 10
3.8187620876
 20
6.1156318333
 30
0.0
 11
3.8187620876
 21
6.2065531355
 31
0.0
  0
LINE
  5
193
330
1F
100
AcDbEntity
  8
0
  6
CONTINUOUS
 62
     7
100
AcDbLine
 10
3.8187620876
 20
6.2065531355
 30
0.0
 11
3.7400219302
 21
6.2520137866
 31
0.0
  0
CIRCLE
  5
194
330
1F
100
AcDbEntity
  8
0
  6
CONTINUOUS
 62
     7
100
AcDbCircle
 10
2.9132502766
 20
6.1610924844
 30
0.0
 40
0.1574803149606296
  0
ARC
  5
195
330
1F
100
AcDbEntity
  8
0
  6
CONTINUOUS
 62
     7
100
AcDbCircle
 10
2.9132502766
 20
6.1610924844
 30
0.0
 40
0.1771653543307083
100
AcDbArc
 50
270.0
 51
349.6879537667
  0
ARC
  5
196
330
1F
100
AcDbEntity
  8
0
  6
CONTINUOUS
 62
     7
100
AcDbCircle
 10
2.9132502766
 20
6.1610924844
 30
0.0
 40
0.1771653543307087
100
AcDbArc
 50
190.3120462333
 51
270.0
  0
LINE
  5
197
330
1F
100
AcDbEntity
  8
0
  6
CONTINUOUS
 62
     7
100
AcDbLine
 10
2.8345101191
 20
6.1156318333
 30
0.0
 11
2.8345101191
 21
6.2065531355
 31
0.0
  0
LINE
  5
198
330
1F
100
AcDbEntity
  8
0
  6
CONTINUOUS
 62
     7
100
AcDbLine
 10
2.9132502766
 20
6.0701711822
 30
0.0
 11
2.8345101191
 21
6.1156318333
 31
0.0
  0
LINE
  5
199
330
1F
100
AcDbEntity
  8
0
  6
CONTINUOUS
 62
     7
100
AcDbLine
 10
2.9919904341
 20
6.1156318333
 30
0.0
 11
2.9132502766
 21
6.0701711822
 31
0.0
  0
LINE
  5
19A
330
1F
100
AcDbEntity
  8
0
  6
CONTINUOUS
 62
     7
100
AcDbLine
 10
2.9919904341
 20
6.2065531355
 30
0.0
 11
2.9919904341
 21
6.1156318333
 31
0.0
  0
LINE
  5
19B
330
1F
100
AcDbEntity
  8
0
  6
CONTINUOUS
 62
     7
100
AcDbLine
 10
2.9132502766
 20
6.2520137866
 30
0.0
 11
2.9919904341
 21
6.2065531355
 31
0.0
  0
LINE
  5
19C
330
1F
100
AcDbEntity
  8
0
  6
CONTINUOUS
 62
     7
100
AcDbLine
 10
2.8345101191
 20
6.2065531355
 30
0.0
 11
2.9132502766
 21
6.2520137866
 31
0.0
  0
LINE
  5
19D
330
1F
100
AcDbEntity
  8
0
  6
HIDDEN
 62
     7
100
AcDbLine
 10
3.6948204133
 20
5.9897904539
 30
0.0
 11
3.785223447
 21
5.9897904539
 31
0.0
  0
LINE
  5
19E
330
1F
100
AcDbEntity
  8
0
  6
HIDDEN
 62
     7
100
AcDbLine
 10
2.8680487598
 20
5.9897904539
 30
0.0
 11
2.9584517935
 21
5.9897904539
 31
0.0
  0
CIRCLE
  5
19F
330
1F
100
AcDbEntity
  8
0
  6
HIDDEN
 62
     7
100
AcDbCircle
 10
3.7400219302
 20
6.1610924844
 30
0.0
 40
0.0984251968503935
  0
CIRCLE
  5
1A0
330
1F
100
AcDbEntity
  8
0
  6
HIDDEN
 62
     7
100
AcDbCircle
 10
2.9132502766
 20
6.1610924844
 30
0.0
 40
0.0984251968503935
  0
LINE
  5
1A1
330
1F
100
AcDbEntity
  8
0
  6
HIDDEN
 62
     7
100
AcDbLine
 10
3.3660061821
 20
6.9060679549
 30
0.0
 11
4.0746675994
 21
6.9060679549
 31
0.0
  0
SPLINE
  5
1A2
330
1F
100
AcDbEntity
  8
0
  6
HIDDEN
 62
     7
100
AcDbSpline
210
0.0
220
0.0
230
1.0
 70
     8
 71
     3
 72
     8
 73
     4
 74
     0
 42
0.00000001
 43
0.00000001
 40
0.0
 40
0.0
 40
0.0
 40
0.0
 40
0.0007095026026307
 40
0.0007095026026307
 40
0.0007095026026307
 40
0.0007095026026307
 10
4.114037678187702
 20
6.945704372376038
 30
0.0
 10
4.100907917485626
 20
6.932498594411999
 30
0.0
 10
4.087783479354129
 20
6.919287519274994
 30
0.0
 10
4.074667599447543
 20
6.906067954909808
 30
0.0
  0
LINE
  5
1A3
330
1F
100
AcDbEntity
  8
0
  6
HIDDEN
 62
     7
100
AcDbLine
 10
3.3660061821
 20
7.0654010081
 30
0.0
 11
4.1140376782
 21
7.0654010081
 31
0.0
  0
LINE
  5
1A4
330
1F
100
AcDbEntity
  8
0
  6
HIDDEN
 62
     7
100
AcDbLine
 10
2.5786046073
 20
6.9060679549
 30
0.0
 11
3.2872660246
 21
6.9060679549
 31
0.0
  0
SPLINE
  5
1A5
330
1F
100
AcDbEntity
  8
0
  6
HIDDEN
 62
     7
100
AcDbSpline
210
0.0
220
0.0
230
1.0
 70
     8
 71
     3
 72
     8
 73
     4
 74
     0
 42
0.00000001
 43
0.00000001
 40
0.0
 40
0.0
 40
0.0
 40
0.0
 40
0.0007095026026307
 40
0.0007095026026307
 40
0.0007095026026307
 40
0.0007095026026307
 10
2.57860460732156
 20
6.906067954909808
 30
0.0
 10
2.565488727414976
 20
6.919287519274994
 30
0.0
 10
2.552364289283478
 20
6.932498594411998
 30
0.0
 10
2.539234528581403
 20
6.945704372376037
 30
0.0
  0
LINE
  5
1A6
330
1F
100
AcDbEntity
  8
0
  6
HIDDEN
 62
     7
100
AcDbLine
 10
2.5392345286
 20
7.0654010081
 30
0.0
 11
3.2872660246
 21
7.0654010081
 31
0.0
  0
LINE
  5
1A7
330
1F
100
AcDbEntity
  8
0
  6
HIDDEN
 62
     7
100
AcDbLine
 10
3.2872660246
 20
6.4373324864
 30
0.0
 11
2.5786046073
 21
6.4373324864
 31
0.0
  0
SPLINE
  5
1A8
330
1F
100
AcDbEntity
  8
0
  6
HIDDEN
 62
     7
100
AcDbSpline
210
0.0
220
0.0
230
1.0
 70
     8
 71
     3
 72
     8
 73
     4
 74
     0
 42
0.00000001
 43
0.00000001
 40
0.0
 40
0.0
 40
0.0
 40
0.0
 40
0.0007095026026307
 40
0.0007095026026307
 40
0.0007095026026307
 40
0.0007095026026307
 10
2.539234528581403
 20
6.397696068947884
 30
0.0
 10
2.552364289283478
 20
6.410901846911923
 30
0.0
 10
2.565488727414976
 20
6.424112922048926
 30
0.0
 10
2.57860460732156
 20
6.437332486414113
 30
0.0
  0
LINE
  5
1A9
330
1F
100
AcDbEntity
  8
0
  6
HIDDEN
 62
     7
100
AcDbLine
 10
4.0746675994
 20
6.4373324864
 30
0.0
 11
3.3660061821
 21
6.4373324864
 31
0.0
  0
SPLINE
  5
1AA
330
1F
100
AcDbEntity
  8
0
  6
HIDDEN
 62
     7
100
AcDbSpline
210
0.0
220
0.0
230
1.0
 70
     8
 71
     3
 72
     8
 73
     4
 74
     0
 42
0.00000001
 43
0.00000001
 40
0.0
 40
0.0
 40
0.0
 40
0.0
 40
0.0007095026026307
 40
0.0007095026026307
 40
0.0007095026026307
 40
0.0007095026026307
 10
4.074667599447543
 20
6.437332486414113
 30
0.0
 10
4.087783479354129
 20
6.424112922048926
 30
0.0
 10
4.100907917485626
 20
6.410901846911923
 30
0.0
 10
4.114037678187702
 20
6.397696068947883
 30
0.0
  0
CIRCLE
  5
1AB
330
1F
100
AcDbEntity
  8
0
  6
HIDDEN
 62
     7
100
AcDbCircle
 10
3.7400219302
 20
6.1610924844
 30
0.0
 40
0.0787401574803157
  0
ARC
  5
1AC
330
1F
100
AcDbEntity
  8
0
  6
HIDDEN
 62
     7
100
AcDbCircle
 10
2.9132502766
 20
6.1610924844
 30
0.0
 40
0.1771653543307087
100
AcDbArc
 50
349.6879537667
 51
190.3120462333
  0
CIRCLE
  5
1AD
330
1F
100
AcDbEntity
  8
0
  6
HIDDEN
 62
     7
100
AcDbCircle
 10
2.9132502766
 20
6.1610924844
 30
0.0
 40
0.0787401574803157
  0
LINE
  5
1AE
330
1F
100
AcDbEntity
  8
0
  6
CONTINUOUS
 62
     7
100
AcDbLine
 10
8.7023732136
 20
5.9040911767
 30
0.0
 11
8.7302075386
 21
5.9201648146
 31
0.0
  0
LINE
  5
1AF
330
1F
100
AcDbEntity
  8
0
  6
CONTINUOUS
 62
     7
100
AcDbLine
 10
9.2590597147
 20
6.8362629144
 30
0.0
 11
9.2590597147
 21
6.868404966
 31
0.0
  0
LINE
  5
1B0
330
1F
100
AcDbEntity
  8
0
  6
CONTINUOUS
 62
     7
100
AcDbLine
 10
8.1331457423
 20
5.9663518396
 30
0.0
 11
8.3086139293
 21
5.8650562114
 31
0.0
  0
LINE
  5
1B1
330
1F
100
AcDbEntity
  8
0
  6
CONTINUOUS
 62
     7
100
AcDbLine
 10
7.548483177
 20
6.3038703543
 30
0.0
 11
8.0108683947
 21
6.0369410498
 31
0.0
  0
LINE
  5
1B2
330
1F
100
AcDbEntity
  8
0
  6
CONTINUOUS
 62
     7
100
AcDbLine
 10
7.2507376424
 20
6.4757551927
 30
0.0
 11
7.4262058294
 21
6.3744595645
 31
0.0
  0
LINE
  5
1B3
330
1F
100
AcDbEntity
  8
0
  6
CONTINUOUS
 62
     7
100
AcDbLine
 10
9.095951514
 20
7.2289126876
 30
0.0
 11
8.0380752272
 21
7.8396116689
 31
0.0
  0
LINE
  5
1B4
330
1F
100
AcDbEntity
  8
0
  6
CONTINUOUS
 62
     7
100
AcDbLine
 10
7.6443159429
 20
7.8005767036
 30
0.0
 11
7.6164816178
 21
7.7845030658
 31
0.0
  0
SPLINE
  5
1B5
330
1F
100
AcDbEntity
  8
0
  6
CONTINUOUS
 62
     7
100
AcDbSpline
210
0.0
220
0.0
230
1.0
 70
     8
 71
     3
 72
    36
 73
    32
 74
     0
 42
0.00000001
 43
0.00000001
 40
0.0
 40
0.0
 40
0.0
 40
0.0
 40
0.0171183455307653
 40
0.0509430474407447
 40
0.0854571181213266
 40
0.1205610282821941
 40
0.1560757942620673
 40
0.1918129174573077
 40
0.2276167911325402
 40
0.2633837408209869
 40
0.2990811124978769
 40
0.3347030985473752
 40
0.3702591156489655
 40
0.4057665185190359
 40
0.4412465661177788
 40
0.4767223964720018
 40
0.5122147264733147
 40
0.5477434607269216
 40
0.5833333408668916
 40
0.6190084625945077
 40
0.6547904859662879
 40
0.69069491435977
 40
0.7267240175221552
 40
0.7628546560540151
 40
0.7989970431384789
 40
0.834986448930416
 40
0.87060506313524
 40
0.9056183809020033
 40
0.9398656601244284
 40
0.9733402018463395
 40
1.0
 40
1.0
 40
1.0
 40
1.0
 10
8.2714944376114
 20
6.978701139169916
 30
0.0
 10
8.270551453861342
 20
6.980461484407769
 30
0.0
 10
8.267745197507379
 20
6.985700153694055
 30
0.0
 10
8.261429472519284
 20
6.99385668240112
 30
0.0
 10
8.252689365787607
 20
7.003165655824641
 30
0.0
 10
8.242401164572279
 20
7.011866583497459
 30
0.0
 10
8.230763807500182
 20
7.019896999706539
 30
0.0
 10
8.217881613729583
 20
7.027154590275971
 30
0.0
 10
8.203915521106348
 20
7.033566662924294
 30
0.0
 10
8.189022253262625
 20
7.039076912230304
 30
0.0
 10
8.173358347298741
 20
7.043646168790527
 30
0.0
 10
8.1570747212757
 20
7.04724630552116
 30
0.0
 10
8.140322362936466
 20
7.049856487068235
 30
0.0
 10
8.123252925174665
 20
7.051462009906012
 30
0.0
 10
8.106018941579643
 20
7.052053984245969
 30
0.0
 10
8.088773885923482
 20
7.051629274367309
 30
0.0
 10
8.07167148733575
 20
7.050190617623416
 30
0.0
 10
8.054863780125487
 20
7.047746517519968
 30
0.0
 10
8.038499437442605
 20
7.044310608675468
 30
0.0
 10
8.022722859963995
 20
7.039900732647184
 30
0.0
 10
8.00767475694205
 20
7.034538259373094
 30
0.0
 10
7.99349284875355
 20
7.028247597415945
 30
0.0
 10
7.980313819056539
 20
7.021056610914087
 30
0.0
 10
7.968278802564147
 20
7.01300079305453
 30
0.0
 10
7.9575368237808
 20
7.004131087124866
 30
0.0
 10
7.948238509198793
 20
6.994523806029648
 30
0.0
 10
7.940532165440122
 20
6.984288360166944
 30
0.0
 10
7.934514138930548
 20
6.97356899517909
 30
0.0
 10
7.930322681994149
 20
6.962532936236211
 30
0.0
 10
7.927884576792628
 20
6.952046006475656
 30
0.0
 10
7.927666945077686
 20
6.945255915033703
 30
0.0
 10
7.927570460812552
 20
6.942245613970083
 30
0.0
  0
LINE
  5
1B6
330
1F
100
AcDbEntity
  8
0
  6
CONTINUOUS
 62
     7
100
AcDbLine
 10
7.9274329524
 20
6.941291523
 30
0.0
 11
7.9274329524
 21
6.8471390094
 31
0.0
  0
SPLINE
  5
1B7
330
1F
100
AcDbEntity
  8
0
  6
CONTINUOUS
 62
     7
100
AcDbSpline
210
0.0
220
0.0
230
1.0
 70
     8
 71
     3
 72
    36
 73
    32
 74
     0
 42
0.00000001
 43
0.00000001
 40
0.0
 40
0.0
 40
0.0
 40
0.0
 40
0.018113723692788
 40
0.051779495688358
 40
0.0861313973625782
 40
0.1210703670768959
 40
0.1564182621488584
 40
0.1919874696608861
 40
0.2276231140167884
 40
0.2632220078782295
 40
0.2987516506497644
 40
0.3342062620034251
 40
0.3695952143731576
 40
0.4049357809318802
 40
0.4402491207516974
 40
0.4755582631422869
 40
0.510883827654153
 40
0.5462456253680329
 40
0.5816682816661014
 40
0.6171757790327441
 40
0.6527896757517889
 40
0.6885254023560637
 40
0.7243852179280629
 40
0.7603460917919362
 40
0.7963186590062593
 40
0.8321389637312444
 40
0.8675902190832971
 40
0.9024390220640679
 40
0.9365253858357054
 40
0.9698426429179766
 40
1.0
 40
1.0
 40
1.0
 40
1.0
 10
7.687064056330192
 20
7.315861908720915
 30
0.0
 10
7.686063025466692
 20
7.317733992884167
 30
0.0
 10
7.683201500461692
 20
7.323085491863806
 30
0.0
 10
7.676816261761393
 20
7.33134925794231
 30
0.0
 10
7.668072798595332
 20
7.340656913697811
 30
0.0
 10
7.657785519876668
 20
7.349358203524097
 30
0.0
 10
7.646147911099088
 20
7.357388520918713
 30
0.0
 10
7.633265785470385
 20
7.36464613823927
 30
0.0
 10
7.61929967452122
 20
7.371058203693205
 30
0.0
 10
7.604406411584173
 20
7.376568454925475
 30
0.0
 10
7.588742504309029
 20
7.381137710970927
 30
0.0
 10
7.572458878636263
 20
7.384737847839069
 30
0.0
 10
7.555706520203428
 20
7.3873480293494
 30
0.0
 10
7.538637082466676
 20
7.388953552197
 30
0.0
 10
7.521403098864866
 20
7.389545526534335
 30
0.0
 10
7.504158043210844
 20
7.389120816656352
 30
0.0
 10
7.487055644621341
 20
7.387682159912375
 30
0.0
 10
7.470247937416033
 20
7.385238059808585
 30
0.0
 10
7.453883594715057
 20
7.381802150965538
 30
0.0
 10
7.43810701730411
 20
7.377392274931764
 30
0.0
 10
7.423058914028529
 20
7.372029801678263
 30
0.0
 10
7.408877006791398
 20
7.365739139643877
 30
0.0
 10
7.39569797352612
 20
7.358548153431709
 30
0.0
 10
7.383662970397658
 20
7.350492334487205
 30
0.0
 10
7.372920941766555
 20
7.341622632604414
 30
0.0
 10
7.363622811829655
 20
7.332015336518848
 30
0.0
 10
7.355915790286053
 20
7.321779945681874
 30
0.0
 10
7.349900228440815
 20
7.311060380601115
 30
0.0
 10
7.345699866379577
 20
7.300025044617659
 30
0.0
 10
7.343199080587871
 20
7.28913113046181
 30
0.0
 10
7.342982263957085
 20
7.281928899750606
 30
0.0
 10
7.342879252435991
 20
7.278507055503036
 30
0.0
  0
LINE
  5
1B8
330
1F
100
AcDbEntity
  8
0
  6
CONTINUOUS
 62
     7
100
AcDbLine
 10
7.3428171097
 20
7.2787830653
 30
0.0
 11
7.3428171097
 21
7.1825140362
 31
0.0
  0
POLYLINE
  5
1B9
330
1F
100
AcDbEntity
  8
0
  6
CONTINUOUS
 62
     7
100
AcDb2dPolyline
 66
     1
 10
0.0
 20
0.0
 30
0.0
  0
VERTEX
  5
20B
330
1B9
100
AcDbEntity
  8
0
  6
CONTINUOUS
 62
     7
100
AcDbVertex
100
AcDb2dVertex
 10
8.2015956768
 20
6.2016914622
 30
0.0
  0
VERTEX
  5
20C
330
1B9
100
AcDbEntity
  8
0
  6
CONTINUOUS
 62
     7
100
AcDbVertex
100
AcDb2dVertex
 10
8.2033013264
 20
6.1721821573
 30
0.0
  0
VERTEX
  5
20D
330
1B9
100
AcDbEntity
  8
0
  6
CONTINUOUS
 62
     7
100
AcDbVertex
100
AcDb2dVertex
 10
8.206325544
 20
6.1435707137
 30
0.0
  0
VERTEX
  5
20E
330
1B9
100
AcDbEntity
  8
0
  6
CONTINUOUS
 62
     7
100
AcDbVertex
100
AcDb2dVertex
 10
8.2106607602
 20
6.1159287425
 30
0.0
  0
VERTEX
  5
20F
330
1B9
100
AcDbEntity
  8
0
  6
CONTINUOUS
 62
     7
100
AcDbVertex
100
AcDb2dVertex
 10
8.2162961245
 20
6.0893254282
 30
0.0
  0
VERTEX
  5
210
330
1B9
100
AcDbEntity
  8
0
  6
CONTINUOUS
 62
     7
100
AcDbVertex
100
AcDb2dVertex
 10
8.2232175323
 20
6.0638273557
 30
0.0
  0
VERTEX
  5
211
330
1B9
100
AcDbEntity
  8
0
  6
CONTINUOUS
 62
     7
100
AcDbVertex
100
AcDb2dVertex
 10
8.2314076601
 20
6.0394983436
 30
0.0
  0
VERTEX
  5
212
330
1B9
100
AcDbEntity
  8
0
  6
CONTINUOUS
 62
     7
100
AcDbVertex
100
AcDb2dVertex
 10
8.2408460091
 20
6.0163992845
 30
0.0
  0
VERTEX
  5
213
330
1B9
100
AcDbEntity
  8
0
  6
CONTINUOUS
 62
     7
100
AcDbVertex
100
AcDb2dVertex
 10
8.2515089561
 20
5.9945879926
 30
0.0
  0
VERTEX
  5
214
330
1B9
100
AcDbEntity
  8
0
  6
CONTINUOUS
 62
     7
100
AcDbVertex
100
AcDb2dVertex
 10
8.2633698131
 20
5.974119059
 30
0.0
  0
VERTEX
  5
215
330
1B9
100
AcDbEntity
  8
0
  6
CONTINUOUS
 62
     7
100
AcDbVertex
100
AcDb2dVertex
 10
8.2763988938
 20
5.9550437149
 30
0.0
  0
VERTEX
  5
216
330
1B9
100
AcDbEntity
  8
0
  6
CONTINUOUS
 62
     7
100
AcDbVertex
100
AcDb2dVertex
 10
8.290563588
 20
5.9374097036
 30
0.0
  0
VERTEX
  5
217
330
1B9
100
AcDbEntity
  8
0
  6
CONTINUOUS
 62
     7
100
AcDbVertex
100
AcDb2dVertex
 10
8.3058284431
 20
5.921261161
 30
0.0
  0
VERTEX
  5
218
330
1B9
100
AcDbEntity
  8
0
  6
CONTINUOUS
 62
     7
100
AcDbVertex
100
AcDb2dVertex
 10
8.322155253
 20
5.9066385049
 30
0.0
  0
VERTEX
  5
219
330
1B9
100
AcDbEntity
  8
0
  6
CONTINUOUS
 62
     7
100
AcDbVertex
100
AcDb2dVertex
 10
8.3395031537
 20
5.893578334
 30
0.0
  0
VERTEX
  5
21A
330
1B9
100
AcDbEntity
  8
0
  6
CONTINUOUS
 62
     7
100
AcDbVertex
100
AcDb2dVertex
 10
8.3578287254
 20
5.8821133365
 30
0.0
  0
VERTEX
  5
21B
330
1B9
100
AcDbEntity
  8
0
  6
CONTINUOUS
 62
     7
100
AcDbVertex
100
AcDb2dVertex
 10
8.3770861015
 20
5.8722722078
 30
0.0
  0
VERTEX
  5
21C
330
1B9
100
AcDbEntity
  8
0
  6
CONTINUOUS
 62
     7
100
AcDbVertex
100
AcDb2dVertex
 10
8.3972270831
 20
5.8640795791
 30
0.0
  0
VERTEX
  5
21D
330
1B9
100
AcDbEntity
  8
0
  6
CONTINUOUS
 62
     7
100
AcDbVertex
100
AcDb2dVertex
 10
8.4182012596
 20
5.8575559555
 30
0.0
  0
VERTEX
  5
21E
330
1B9
100
AcDbEntity
  8
0
  6
CONTINUOUS
 62
     7
100
AcDbVertex
100
AcDb2dVertex
 10
8.4399561353
 20
5.852717665
 30
0.0
  0
VERTEX
  5
21F
330
1B9
100
AcDbEntity
  8
0
  6
CONTINUOUS
 62
     7
100
AcDbVertex
100
AcDb2dVertex
 10
8.4624372603
 20
5.8495768171
 30
0.0
  0
VERTEX
  5
220
330
1B9
100
AcDbEntity
  8
0
  6
CONTINUOUS
 62
     7
100
AcDbVertex
100
AcDb2dVertex
 10
8.485588367
 20
5.848141273
 30
0.0
  0
VERTEX
  5
221
330
1B9
100
AcDbEntity
  8
0
  6
CONTINUOUS
 62
     7
100
AcDbVertex
100
AcDb2dVertex
 10
8.509351511
 20
5.8484146258
 30
0.0
  0
VERTEX
  5
222
330
1B9
100
AcDbEntity
  8
0
  6
CONTINUOUS
 62
     7
100
AcDbVertex
100
AcDb2dVertex
 10
8.533667216
 20
5.8503961912
 30
0.0
  0
VERTEX
  5
223
330
1B9
100
AcDbEntity
  8
0
  6
CONTINUOUS
 62
     7
100
AcDbVertex
100
AcDb2dVertex
 10
8.5584746227
 20
5.8540810097
 30
0.0
  0
VERTEX
  5
224
330
1B9
100
AcDbEntity
  8
0
  6
CONTINUOUS
 62
     7
100
AcDbVertex
100
AcDb2dVertex
 10
8.5837116411
 20
5.8594598585
 30
0.0
  0
VERTEX
  5
225
330
1B9
100
AcDbEntity
  8
0
  6
CONTINUOUS
 62
     7
100
AcDbVertex
100
AcDb2dVertex
 10
8.609315106
 20
5.8665192751
 30
0.0
  0
VERTEX
  5
226
330
1B9
100
AcDbEntity
  8
0
  6
CONTINUOUS
 62
     7
100
AcDbVertex
100
AcDb2dVertex
 10
8.635220935
 20
5.8752415906
 30
0.0
  0
VERTEX
  5
227
330
1B9
100
AcDbEntity
  8
0
  6
CONTINUOUS
 62
     7
100
AcDbVertex
100
AcDb2dVertex
 10
8.6613642889
 20
5.8856049741
 30
0.0
  0
VERTEX
  5
228
330
1B9
100
AcDbEntity
  8
0
  6
CONTINUOUS
 62
     7
100
AcDbVertex
100
AcDb2dVertex
 10
8.6876797341
 20
5.8975834872
 30
0.0
  0
VERTEX
  5
229
330
1B9
100
AcDbEntity
  8
0
  6
CONTINUOUS
 62
     7
100
AcDbVertex
100
AcDb2dVertex
 10
8.7141014061
 20
5.9111471492
 30
0.0
  0
VERTEX
  5
22A
330
1B9
100
AcDbEntity
  8
0
  6
CONTINUOUS
 62
     7
100
AcDbVertex
100
AcDb2dVertex
 10
8.7405631746
 20
5.926262012
 30
0.0
  0
VERTEX
  5
22B
330
1B9
100
AcDbEntity
  8
0
  6
CONTINUOUS
 62
     7
100
AcDbVertex
100
AcDb2dVertex
 10
8.7669988091
 20
5.9428902446
 30
0.0
  0
VERTEX
  5
22C
330
1B9
100
AcDbEntity
  8
0
  6
CONTINUOUS
 62
     7
100
AcDbVertex
100
AcDb2dVertex
 10
8.7933421442
 20
5.9609902288
 30
0.0
  0
VERTEX
  5
22D
330
1B9
100
AcDbEntity
  8
0
  6
CONTINUOUS
 62
     7
100
AcDbVertex
100
AcDb2dVertex
 10
8.8195272459
 20
5.9805166625
 30
0.0
  0
VERTEX
  5
22E
330
1B9
100
AcDbEntity
  8
0
  6
CONTINUOUS
 62
     7
100
AcDbVertex
100
AcDb2dVertex
 10
8.8454885758
 20
6.0014206732
 30
0.0
  0
VERTEX
  5
22F
330
1B9
100
AcDbEntity
  8
0
  6
CONTINUOUS
 62
     7
100
AcDbVertex
100
AcDb2dVertex
 10
8.871161156
 20
6.0236499408
 30
0.0
  0
VERTEX
  5
230
330
1B9
100
AcDbEntity
  8
0
  6
CONTINUOUS
 62
     7
100
AcDbVertex
100
AcDb2dVertex
 10
8.896480731
 20
6.047148828
 30
0.0
  0
VERTEX
  5
231
330
1B9
100
AcDbEntity
  8
0
  6
CONTINUOUS
 62
     7
100
AcDbVertex
100
AcDb2dVertex
 10
8.921383929
 20
6.0718585201
 30
0.0
  0
VERTEX
  5
232
330
1B9
100
AcDbEntity
  8
0
  6
CONTINUOUS
 62
     7
100
AcDbVertex
100
AcDb2dVertex
 10
8.9458084202
 20
6.0977171715
 30
0.0
  0
VERTEX
  5
233
330
1B9
100
AcDbEntity
  8
0
  6
CONTINUOUS
 62
     7
100
AcDbVertex
100
AcDb2dVertex
 10
8.9696930732
 20
6.1246600612
 30
0.0
  0
VERTEX
  5
234
330
1B9
100
AcDbEntity
  8
0
  6
CONTINUOUS
 62
     7
100
AcDbVertex
100
AcDb2dVertex
 10
8.9929781073
 20
6.1526197543
 30
0.0
  0
VERTEX
  5
235
330
1B9
100
AcDbEntity
  8
0
  6
CONTINUOUS
 62
     7
100
AcDbVertex
100
AcDb2dVertex
 10
9.0156052431
 20
6.1815262712
 30
0.0
  0
VERTEX
  5
236
330
1B9
100
AcDbEntity
  8
0
  6
CONTINUOUS
 62
     7
100
AcDbVertex
100
AcDb2dVertex
 10
9.0375178475
 20
6.2113072622
 30
0.0
  0
VERTEX
  5
237
330
1B9
100
AcDbEntity
  8
0
  6
CONTINUOUS
 62
     7
100
AcDbVertex
100
AcDb2dVertex
 10
9.0586610758
 20
6.2418881891
 30
0.0
  0
VERTEX
  5
238
330
1B9
100
AcDbEntity
  8
0
  6
CONTINUOUS
 62
     7
100
AcDbVertex
100
AcDb2dVertex
 10
9.0789820092
 20
6.2731925115
 30
0.0
  0
VERTEX
  5
239
330
1B9
100
AcDbEntity
  8
0
  6
CONTINUOUS
 62
     7
100
AcDbVertex
100
AcDb2dVertex
 10
9.0984297867
 20
6.3051418784
 30
0.0
  0
VERTEX
  5
23A
330
1B9
100
AcDbEntity
  8
0
  6
CONTINUOUS
 62
     7
100
AcDbVertex
100
AcDb2dVertex
 10
9.1169557329
 20
6.3376563245
 30
0.0
  0
VERTEX
  5
23B
330
1B9
100
AcDbEntity
  8
0
  6
CONTINUOUS
 62
     7
100
AcDbVertex
100
AcDb2dVertex
 10
9.1345134796
 20
6.3706544699
 30
0.0
  0
VERTEX
  5
23C
330
1B9
100
AcDbEntity
  8
0
  6
CONTINUOUS
 62
     7
100
AcDbVertex
100
AcDb2dVertex
 10
9.1510590819
 20
6.4040537242
 30
0.0
  0
VERTEX
  5
23D
330
1B9
100
AcDbEntity
  8
0
  6
CONTINUOUS
 62
     7
100
AcDbVertex
100
AcDb2dVertex
 10
9.166551128
 20
6.4377704932
 30
0.0
  0
VERTEX
  5
23E
330
1B9
100
AcDbEntity
  8
0
  6
CONTINUOUS
 62
     7
100
AcDbVertex
100
AcDb2dVertex
 10
9.1809508433
 20
6.4717203877
 30
0.0
  0
VERTEX
  5
23F
330
1B9
100
AcDbEntity
  8
0
  6
CONTINUOUS
 62
     7
100
AcDbVertex
100
AcDb2dVertex
 10
9.1942221869
 20
6.5058184353
 30
0.0
  0
VERTEX
  5
240
330
1B9
100
AcDbEntity
  8
0
  6
CONTINUOUS
 62
     7
100
AcDbVertex
100
AcDb2dVertex
 10
9.2063319424
 20
6.5399792927
 30
0.0
  0
VERTEX
  5
241
330
1B9
100
AcDbEntity
  8
0
  6
CONTINUOUS
 62
     7
100
AcDbVertex
100
AcDb2dVertex
 10
9.2172498004
 20
6.5741174593
 30
0.0
  0
VERTEX
  5
242
330
1B9
100
AcDbEntity
  8
0
  6
CONTINUOUS
 62
     7
100
AcDbVertex
100
AcDb2dVertex
 10
9.2269484349
 20
6.6081474913
 30
0.0
  0
VERTEX
  5
243
330
1B9
100
AcDbEntity
  8
0
  6
CONTINUOUS
 62
     7
100
AcDbVertex
100
AcDb2dVertex
 10
9.2354035713
 20
6.6419842158
 30
0.0
  0
VERTEX
  5
244
330
1B9
100
AcDbEntity
  8
0
  6
CONTINUOUS
 62
     7
100
AcDbVertex
100
AcDb2dVertex
 10
9.2425940474
 20
6.6755429434
 30
0.0
  0
VERTEX
  5
245
330
1B9
100
AcDbEntity
  8
0
  6
CONTINUOUS
 62
     7
100
AcDbVertex
100
AcDb2dVertex
 10
9.2485018664
 20
6.7087396806
 30
0.0
  0
VERTEX
  5
246
330
1B9
100
AcDbEntity
  8
0
  6
CONTINUOUS
 62
     7
100
AcDbVertex
100
AcDb2dVertex
 10
9.2531122416
 20
6.74149134
 30
0.0
  0
VERTEX
  5
247
330
1B9
100
AcDbEntity
  8
0
  6
CONTINUOUS
 62
     7
100
AcDbVertex
100
AcDb2dVertex
 10
9.2564136339
 20
6.7737159482
 30
0.0
  0
VERTEX
  5
248
330
1B9
100
AcDbEntity
  8
0
  6
CONTINUOUS
 62
     7
100
AcDbVertex
100
AcDb2dVertex
 10
9.2583977803
 20
6.8053328507
 30
0.0
  0
VERTEX
  5
249
330
1B9
100
AcDbEntity
  8
0
  6
CONTINUOUS
 62
     7
100
AcDbVertex
100
AcDb2dVertex
 10
9.2590597147
 20
6.8362629144
 30
0.0
  0
VERTEX
  5
24A
330
1B9
100
AcDbEntity
  8
0
  6
CONTINUOUS
 62
     7
100
AcDbVertex
100
AcDb2dVertex
 10
9.2583977803
 20
6.8664287248
 30
0.0
  0
VERTEX
  5
24B
330
1B9
100
AcDbEntity
  8
0
  6
CONTINUOUS
 62
     7
100
AcDbVertex
100
AcDb2dVertex
 10
9.2564136339
 20
6.8957547807
 30
0.0
  0
VERTEX
  5
24C
330
1B9
100
AcDbEntity
  8
0
  6
CONTINUOUS
 62
     7
100
AcDbVertex
100
AcDb2dVertex
 10
9.2531122416
 20
6.9241676825
 30
0.0
  0
VERTEX
  5
24D
330
1B9
100
AcDbEntity
  8
0
  6
CONTINUOUS
 62
     7
100
AcDbVertex
100
AcDb2dVertex
 10
9.2485018664
 20
6.9515963159
 30
0.0
  0
VERTEX
  5
24E
330
1B9
100
AcDbEntity
  8
0
  6
CONTINUOUS
 62
     7
100
AcDbVertex
100
AcDb2dVertex
 10
9.2425940474
 20
6.9779720306
 30
0.0
  0
VERTEX
  5
24F
330
1B9
100
AcDbEntity
  8
0
  6
CONTINUOUS
 62
     7
100
AcDbVertex
100
AcDb2dVertex
 10
9.2354035713
 20
7.0032288111
 30
0.0
  0
VERTEX
  5
250
330
1B9
100
AcDbEntity
  8
0
  6
CONTINUOUS
 62
     7
100
AcDbVertex
100
AcDb2dVertex
 10
9.2269484349
 20
7.0273034429
 30
0.0
  0
VERTEX
  5
251
330
1B9
100
AcDbEntity
  8
0
  6
CONTINUOUS
 62
     7
100
AcDbVertex
100
AcDb2dVertex
 10
9.2172498004
 20
7.0501356699
 30
0.0
  0
VERTEX
  5
252
330
1B9
100
AcDbEntity
  8
0
  6
CONTINUOUS
 62
     7
100
AcDbVertex
100
AcDb2dVertex
 10
9.2063319424
 20
7.071668346
 30
0.0
  0
VERTEX
  5
253
330
1B9
100
AcDbEntity
  8
0
  6
CONTINUOUS
 62
     7
100
AcDbVertex
100
AcDb2dVertex
 10
9.1942221869
 20
7.0918475773
 30
0.0
  0
VERTEX
  5
254
330
1B9
100
AcDbEntity
  8
0
  6
CONTINUOUS
 62
     7
100
AcDbVertex
100
AcDb2dVertex
 10
9.1809508433
 20
7.1106228577
 30
0.0
  0
VERTEX
  5
255
330
1B9
100
AcDbEntity
  8
0
  6
CONTINUOUS
 62
     7
100
AcDbVertex
100
AcDb2dVertex
 10
9.166551128
 20
7.1279471948
 30
0.0
  0
VERTEX
  5
256
330
1B9
100
AcDbEntity
  8
0
  6
CONTINUOUS
 62
     7
100
AcDbVertex
100
AcDb2dVertex
 10
9.1510590819
 20
7.1437772281
 30
0.0
  0
VERTEX
  5
257
330
1B9
100
AcDbEntity
  8
0
  6
CONTINUOUS
 62
     7
100
AcDbVertex
100
AcDb2dVertex
 10
9.1345134796
 20
7.1580733367
 30
0.0
  0
VERTEX
  5
258
330
1B9
100
AcDbEntity
  8
0
  6
CONTINUOUS
 62
     7
100
AcDbVertex
100
AcDb2dVertex
 10
9.1169557329
 20
7.1707997392
 30
0.0
  0
VERTEX
  5
259
330
1B9
100
AcDbEntity
  8
0
  6
CONTINUOUS
 62
     7
100
AcDbVertex
100
AcDb2dVertex
 10
9.0984297867
 20
7.1819245831
 30
0.0
  0
VERTEX
  5
25A
330
1B9
100
AcDbEntity
  8
0
  6
CONTINUOUS
 62
     7
100
AcDbVertex
100
AcDb2dVertex
 10
9.0789820092
 20
7.191420024
 30
0.0
  0
VERTEX
  5
25B
330
1B9
100
AcDbEntity
  8
0
  6
CONTINUOUS
 62
     7
100
AcDbVertex
100
AcDb2dVertex
 10
9.0586610758
 20
7.1992622962
 30
0.0
  0
VERTEX
  5
25C
330
1B9
100
AcDbEntity
  8
0
  6
CONTINUOUS
 62
     7
100
AcDbVertex
100
AcDb2dVertex
 10
9.0375178475
 20
7.2054317712
 30
0.0
  0
VERTEX
  5
25D
330
1B9
100
AcDbEntity
  8
0
  6
CONTINUOUS
 62
     7
100
AcDbVertex
100
AcDb2dVertex
 10
9.0156052431
 20
7.2099130077
 30
0.0
  0
VERTEX
  5
25E
330
1B9
100
AcDbEntity
  8
0
  6
CONTINUOUS
 62
     7
100
AcDbVertex
100
AcDb2dVertex
 10
8.9929781073
 20
7.2126947897
 30
0.0
  0
VERTEX
  5
25F
330
1B9
100
AcDbEntity
  8
0
  6
CONTINUOUS
 62
     7
100
AcDbVertex
100
AcDb2dVertex
 10
8.9696930732
 20
7.2137701546
 30
0.0
  0
VERTEX
  5
260
330
1B9
100
AcDbEntity
  8
0
  6
CONTINUOUS
 62
     7
100
AcDbVertex
100
AcDb2dVertex
 10
8.9458084202
 20
7.2131364111
 30
0.0
  0
VERTEX
  5
261
330
1B9
100
AcDbEntity
  8
0
  6
CONTINUOUS
 62
     7
100
AcDbVertex
100
AcDb2dVertex
 10
8.921383929
 20
7.2107951452
 30
0.0
  0
VERTEX
  5
262
330
1B9
100
AcDbEntity
  8
0
  6
CONTINUOUS
 62
     7
100
AcDbVertex
100
AcDb2dVertex
 10
8.896480731
 20
7.2067522168
 30
0.0
  0
VERTEX
  5
263
330
1B9
100
AcDbEntity
  8
0
  6
CONTINUOUS
 62
     7
100
AcDbVertex
100
AcDb2dVertex
 10
8.871161156
 20
7.201017745
 30
0.0
  0
VERTEX
  5
264
330
1B9
100
AcDbEntity
  8
0
  6
CONTINUOUS
 62
     7
100
AcDbVertex
100
AcDb2dVertex
 10
8.8454885758
 20
7.1936060825
 30
0.0
  0
VERTEX
  5
265
330
1B9
100
AcDbEntity
  8
0
  6
CONTINUOUS
 62
     7
100
AcDbVertex
100
AcDb2dVertex
 10
8.8195272459
 20
7.1845357796
 30
0.0
  0
VERTEX
  5
266
330
1B9
100
AcDbEntity
  8
0
  6
CONTINUOUS
 62
     7
100
AcDbVertex
100
AcDb2dVertex
 10
8.7933421442
 20
7.1738295384
 30
0.0
  0
VERTEX
  5
267
330
1B9
100
AcDbEntity
  8
0
  6
CONTINUOUS
 62
     7
100
AcDbVertex
100
AcDb2dVertex
 10
8.7669988091
 20
7.1615141553
 30
0.0
  0
VERTEX
  5
268
330
1B9
100
AcDbEntity
  8
0
  6
CONTINUOUS
 62
     7
100
AcDbVertex
100
AcDb2dVertex
 10
8.7405631746
 20
7.1476204541
 30
0.0
  0
VERTEX
  5
269
330
1B9
100
AcDbEntity
  8
0
  6
CONTINUOUS
 62
     7
100
AcDbVertex
100
AcDb2dVertex
 10
8.7141014061
 20
7.1321832092
 30
0.0
  0
VERTEX
  5
26A
330
1B9
100
AcDbEntity
  8
0
  6
CONTINUOUS
 62
     7
100
AcDbVertex
100
AcDb2dVertex
 10
8.6876797341
 20
7.115241058
 30
0.0
  0
VERTEX
  5
26B
330
1B9
100
AcDbEntity
  8
0
  6
CONTINUOUS
 62
     7
100
AcDbVertex
100
AcDb2dVertex
 10
8.6613642889
 20
7.0968364049
 30
0.0
  0
VERTEX
  5
26C
330
1B9
100
AcDbEntity
  8
0
  6
CONTINUOUS
 62
     7
100
AcDbVertex
100
AcDb2dVertex
 10
8.635220935
 20
7.0770153145
 30
0.0
  0
VERTEX
  5
26D
330
1B9
100
AcDbEntity
  8
0
  6
CONTINUOUS
 62
     7
100
AcDbVertex
100
AcDb2dVertex
 10
8.609315106
 20
7.0558273964
 30
0.0
  0
VERTEX
  5
26E
330
1B9
100
AcDbEntity
  8
0
  6
CONTINUOUS
 62
     7
100
AcDbVertex
100
AcDb2dVertex
 10
8.5837116411
 20
7.0333256817
 30
0.0
  0
VERTEX
  5
26F
330
1B9
100
AcDbEntity
  8
0
  6
CONTINUOUS
 62
     7
100
AcDbVertex
100
AcDb2dVertex
 10
8.5584746227
 20
7.0095664893
 30
0.0
  0
VERTEX
  5
270
330
1B9
100
AcDbEntity
  8
0
  6
CONTINUOUS
 62
     7
100
AcDbVertex
100
AcDb2dVertex
 10
8.533667216
 20
6.9846092856
 30
0.0
  0
VERTEX
  5
271
330
1B9
100
AcDbEntity
  8
0
  6
CONTINUOUS
 62
     7
100
AcDbVertex
100
AcDb2dVertex
 10
8.509351511
 20
6.9585165356
 30
0.0
  0
VERTEX
  5
272
330
1B9
100
AcDbEntity
  8
0
  6
CONTINUOUS
 62
     7
100
AcDbVertex
100
AcDb2dVertex
 10
8.485588367
 20
6.9313535463
 30
0.0
  0
VERTEX
  5
273
330
1B9
100
AcDbEntity
  8
0
  6
CONTINUOUS
 62
     7
100
AcDbVertex
100
AcDb2dVertex
 10
8.4624372603
 20
6.9031883034
 30
0.0
  0
VERTEX
  5
274
330
1B9
100
AcDbEntity
  8
0
  6
CONTINUOUS
 62
     7
100
AcDbVertex
100
AcDb2dVertex
 10
8.4399561353
 20
6.8740913011
 30
0.0
  0
VERTEX
  5
275
330
1B9
100
AcDbEntity
  8
0
  6
CONTINUOUS
 62
     7
100
AcDbVertex
100
AcDb2dVertex
 10
8.4182012596
 20
6.8441353658
 30
0.0
  0
VERTEX
  5
276
330
1B9
100
AcDbEntity
  8
0
  6
CONTINUOUS
 62
     7
100
AcDbVertex
100
AcDb2dVertex
 10
8.3972270831
 20
6.8133954734
 30
0.0
  0
VERTEX
  5
277
330
1B9
100
AcDbEntity
  8
0
  6
CONTINUOUS
 62
     7
100
AcDbVertex
100
AcDb2dVertex
 10
8.3770861015
 20
6.7819485624
 30
0.0
  0
VERTEX
  5
278
330
1B9
100
AcDbEntity
  8
0
  6
CONTINUOUS
 62
     7
100
AcDbVertex
100
AcDb2dVertex
 10
8.3578287254
 20
6.7498733405
 30
0.0
  0
VERTEX
  5
279
330
1B9
100
AcDbEntity
  8
0
  6
CONTINUOUS
 62
     7
100
AcDbVertex
100
AcDb2dVertex
 10
8.3395031537
 20
6.7172500882
 30
0.0
  0
VERTEX
  5
27A
330
1B9
100
AcDbEntity
  8
0
  6
CONTINUOUS
 62
     7
100
AcDbVertex
100
AcDb2dVertex
 10
8.322155253
 20
6.6841604576
 30
0.0
  0
VERTEX
  5
27B
330
1B9
100
AcDbEntity
  8
0
  6
CONTINUOUS
 62
     7
100
AcDbVertex
100
AcDb2dVertex
 10
8.3058284431
 20
6.650687268
 30
0.0
  0
VERTEX
  5
27C
330
1B9
100
AcDbEntity
  8
0
  6
CONTINUOUS
 62
     7
100
AcDbVertex
100
AcDb2dVertex
 10
8.290563588
 20
6.6169142988
 30
0.0
  0
VERTEX
  5
27D
330
1B9
100
AcDbEntity
  8
0
  6
CONTINUOUS
 62
     7
100
AcDbVertex
100
AcDb2dVertex
 10
8.2763988938
 20
6.5829260798
 30
0.0
  0
VERTEX
  5
27E
330
1B9
100
AcDbEntity
  8
0
  6
CONTINUOUS
 62
     7
100
AcDbVertex
100
AcDb2dVertex
 10
8.2633698131
 20
6.5488076793
 30
0.0
  0
VERTEX
  5
27F
330
1B9
100
AcDbEntity
  8
0
  6
CONTINUOUS
 62
     7
100
AcDbVertex
100
AcDb2dVertex
 10
8.2515089561
 20
6.5146444917
 30
0.0
  0
VERTEX
  5
280
330
1B9
100
AcDbEntity
  8
0
  6
CONTINUOUS
 62
     7
100
AcDbVertex
100
AcDb2dVertex
 10
8.2408460091
 20
6.4805220232
 30
0.0
  0
VERTEX
  5
281
330
1B9
100
AcDbEntity
  8
0
  6
CONTINUOUS
 62
     7
100
AcDbVertex
100
AcDb2dVertex
 10
8.2314076601
 20
6.4465256784
 30
0.0
  0
VERTEX
  5
282
330
1B9
100
AcDbEntity
  8
0
  6
CONTINUOUS
 62
     7
100
AcDbVertex
100
AcDb2dVertex
 10
8.2232175323
 20
6.412740546
 30
0.0
  0
VERTEX
  5
283
330
1B9
100
AcDbEntity
  8
0
  6
CONTINUOUS
 62
     7
100
AcDbVertex
100
AcDb2dVertex
 10
8.2162961245
 20
6.3792511861
 30
0.0
  0
VERTEX
  5
284
330
1B9
100
AcDbEntity
  8
0
  6
CONTINUOUS
 62
     7
100
AcDbVertex
100
AcDb2dVertex
 10
8.2106607602
 20
6.3461414186
 30
0.0
  0
VERTEX
  5
285
330
1B9
100
AcDbEntity
  8
0
  6
CONTINUOUS
 62
     7
100
AcDbVertex
100
AcDb2dVertex
 10
8.206325544
 20
6.3134941133
 30
0.0
  0
VERTEX
  5
286
330
1B9
100
AcDbEntity
  8
0
  6
CONTINUOUS
 62
     7
100
AcDbVertex
100
AcDb2dVertex
 10
8.2033013264
 20
6.2813909824
 30
0.0
  0
VERTEX
  5
287
330
1B9
100
AcDbEntity
  8
0
  6
CONTINUOUS
 62
     7
100
AcDbVertex
100
AcDb2dVertex
 10
8.2015956768
 20
6.2499123763
 30
0.0
  0
SEQEND
  5
288
330
1B9
100
AcDbEntity
  8
0
  6
CONTINUOUS
 62
     7
  0
LINE
  5
1BA
330
1F
100
AcDbEntity
  8
0
  6
CONTINUOUS
 62
     7
100
AcDbLine
 10
8.2015956768
 20
6.2499123763
 30
0.0
 11
8.1458973501
 21
6.2499004684
 31
0.0
  0
POLYLINE
  5
1BB
330
1F
100
AcDbEntity
  8
0
  6
CONTINUOUS
 62
     7
100
AcDb2dPolyline
 66
     1
 10
0.0
 20
0.0
 30
0.0
  0
VERTEX
  5
289
330
1BB
100
AcDbEntity
  8
0
  6
CONTINUOUS
 62
     7
100
AcDbVertex
100
AcDb2dVertex
 10
8.1458973501
 20
6.2499004684
 30
0.0
  0
VERTEX
  5
28A
330
1BB
100
AcDbEntity
  8
0
  6
CONTINUOUS
 62
     7
100
AcDbVertex
100
AcDb2dVertex
 10
8.147582211
 20
6.2822389448
 30
0.0
  0
VERTEX
  5
28B
330
1BB
100
AcDbEntity
  8
0
  6
CONTINUOUS
 62
     7
100
AcDbVertex
100
AcDb2dVertex
 10
8.1505923027
 20
6.3152099227
 30
0.0
  0
VERTEX
  5
28C
330
1BB
100
AcDbEntity
  8
0
  6
CONTINUOUS
 62
     7
100
AcDbVertex
100
AcDb2dVertex
 10
8.1549204338
 20
6.3487346313
 30
0.0
  0
VERTEX
  5
28D
330
1BB
100
AcDbEntity
  8
0
  6
CONTINUOUS
 62
     7
100
AcDbVertex
100
AcDb2dVertex
 10
8.160556264
 20
6.3827329771
 30
0.0
  0
VERTEX
  5
28E
330
1BB
100
AcDbEntity
  8
0
  6
CONTINUOUS
 62
     7
100
AcDbVertex
100
AcDb2dVertex
 10
8.1674863288
 20
6.4171237349
 30
0.0
  0
VERTEX
  5
28F
330
1BB
100
AcDbEntity
  8
0
  6
CONTINUOUS
 62
     7
100
AcDbVertex
100
AcDb2dVertex
 10
8.1756940716
 20
6.4518247419
 30
0.0
  0
VERTEX
  5
290
330
1BB
100
AcDbEntity
  8
0
  6
CONTINUOUS
 62
     7
100
AcDbVertex
100
AcDb2dVertex
 10
8.1851598834
 20
6.4867530942
 30
0.0
  0
VERTEX
  5
291
330
1BB
100
AcDbEntity
  8
0
  6
CONTINUOUS
 62
     7
100
AcDbVertex
100
AcDb2dVertex
 10
8.1958611495
 20
6.5218253448
 30
0.0
  0
VERTEX
  5
292
330
1BB
100
AcDbEntity
  8
0
  6
CONTINUOUS
 62
     7
100
AcDbVertex
100
AcDb2dVertex
 10
8.2077723036
 20
6.5569577029
 30
0.0
  0
VERTEX
  5
293
330
1BB
100
AcDbEntity
  8
0
  6
CONTINUOUS
 62
     7
100
AcDbVertex
100
AcDb2dVertex
 10
8.2208648887
 20
6.5920662339
 30
0.0
  0
VERTEX
  5
294
330
1BB
100
AcDbEntity
  8
0
  6
CONTINUOUS
 62
     7
100
AcDbVertex
100
AcDb2dVertex
 10
8.2351076256
 20
6.6270670603
 30
0.0
  0
VERTEX
  5
295
330
1BB
100
AcDbEntity
  8
0
  6
CONTINUOUS
 62
     7
100
AcDbVertex
100
AcDb2dVertex
 10
8.2504664869
 20
6.661876562
 30
0.0
  0
VERTEX
  5
296
330
1BB
100
AcDbEntity
  8
0
  6
CONTINUOUS
 62
     7
100
AcDbVertex
100
AcDb2dVertex
 10
8.2669047791
 20
6.6964115759
 30
0.0
  0
VERTEX
  5
297
330
1BB
100
AcDbEntity
  8
0
  6
CONTINUOUS
 62
     7
100
AcDbVertex
100
AcDb2dVertex
 10
8.2843832293
 20
6.7305895945
 30
0.0
  0
VERTEX
  5
298
330
1BB
100
AcDbEntity
  8
0
  6
CONTINUOUS
 62
     7
100
AcDbVertex
100
AcDb2dVertex
 10
8.3028600801
 20
6.7643289634
 30
0.0
  0
VERTEX
  5
299
330
1BB
100
AcDbEntity
  8
0
  6
CONTINUOUS
 62
     7
100
AcDbVertex
100
AcDb2dVertex
 10
8.3222911886
 20
6.7975490762
 30
0.0
  0
VERTEX
  5
29A
330
1BB
100
AcDbEntity
  8
0
  6
CONTINUOUS
 62
     7
100
AcDbVertex
100
AcDb2dVertex
 10
8.3426301319
 20
6.830170567
 30
0.0
  0
VERTEX
  5
29B
330
1BB
100
AcDbEntity
  8
0
  6
CONTINUOUS
 62
     7
100
AcDbVertex
100
AcDb2dVertex
 10
8.3638283185
 20
6.8621154999
 30
0.0
  0
VERTEX
  5
29C
330
1BB
100
AcDbEntity
  8
0
  6
CONTINUOUS
 62
     7
100
AcDbVertex
100
AcDb2dVertex
 10
8.385835104
 20
6.8933075556
 30
0.0
  0
VERTEX
  5
29D
330
1BB
100
AcDbEntity
  8
0
  6
CONTINUOUS
 62
     7
100
AcDbVertex
100
AcDb2dVertex
 10
8.4085979121
 20
6.9236722134
 30
0.0
  0
VERTEX
  5
29E
330
1BB
100
AcDbEntity
  8
0
  6
CONTINUOUS
 62
     7
100
AcDbVertex
100
AcDb2dVertex
 10
8.4320623604
 20
6.9531369293
 30
0.0
  0
VERTEX
  5
29F
330
1BB
100
AcDbEntity
  8
0
  6
CONTINUOUS
 62
     7
100
AcDbVertex
100
AcDb2dVertex
 10
8.4561723901
 20
6.9816313093
 30
0.0
  0
VERTEX
  5
2A0
330
1BB
100
AcDbEntity
  8
0
  6
CONTINUOUS
 62
     7
100
AcDbVertex
100
AcDb2dVertex
 10
8.4808704001
 20
7.0090872778
 30
0.0
  0
VERTEX
  5
2A1
330
1BB
100
AcDbEntity
  8
0
  6
CONTINUOUS
 62
     7
100
AcDbVertex
100
AcDb2dVertex
 10
8.5060973846
 20
7.03543924
 30
0.0
  0
VERTEX
  5
2A2
330
1BB
100
AcDbEntity
  8
0
  6
CONTINUOUS
 62
     7
100
AcDbVertex
100
AcDb2dVertex
 10
8.5317930741
 20
7.0606242385
 30
0.0
  0
VERTEX
  5
2A3
330
1BB
100
AcDbEntity
  8
0
  6
CONTINUOUS
 62
     7
100
AcDbVertex
100
AcDb2dVertex
 10
8.5578960791
 20
7.084582104
 30
0.0
  0
VERTEX
  5
2A4
330
1BB
100
AcDbEntity
  8
0
  6
CONTINUOUS
 62
     7
100
AcDbVertex
100
AcDb2dVertex
 10
8.5843440371
 20
7.1072555991
 30
0.0
  0
VERTEX
  5
2A5
330
1BB
100
AcDbEntity
  8
0
  6
CONTINUOUS
 62
     7
100
AcDbVertex
100
AcDb2dVertex
 10
8.6110737615
 20
7.1285905545
 30
0.0
  0
VERTEX
  5
2A6
330
1BB
100
AcDbEntity
  8
0
  6
CONTINUOUS
 62
     7
100
AcDbVertex
100
AcDb2dVertex
 10
8.6380213926
 20
7.1485359992
 30
0.0
  0
VERTEX
  5
2A7
330
1BB
100
AcDbEntity
  8
0
  6
CONTINUOUS
 62
     7
100
AcDbVertex
100
AcDb2dVertex
 10
8.6651225499
 20
7.1670442817
 30
0.0
  0
VERTEX
  5
2A8
330
1BB
100
AcDbEntity
  8
0
  6
CONTINUOUS
 62
     7
100
AcDbVertex
100
AcDb2dVertex
 10
8.6923124863
 20
7.1840711838
 30
0.0
  0
VERTEX
  5
2A9
330
1BB
100
AcDbEntity
  8
0
  6
CONTINUOUS
 62
     7
100
AcDbVertex
100
AcDb2dVertex
 10
8.7195262426
 20
7.1995760269
 30
0.0
  0
VERTEX
  5
2AA
330
1BB
100
AcDbEntity
  8
0
  6
CONTINUOUS
 62
     7
100
AcDbVertex
100
AcDb2dVertex
 10
8.7466988024
 20
7.2135217683
 30
0.0
  0
VERTEX
  5
2AB
330
1BB
100
AcDbEntity
  8
0
  6
CONTINUOUS
 62
     7
100
AcDbVertex
100
AcDb2dVertex
 10
8.7737652482
 20
7.2258750905
 30
0.0
  0
VERTEX
  5
2AC
330
1BB
100
AcDbEntity
  8
0
  6
CONTINUOUS
 62
     7
100
AcDbVertex
100
AcDb2dVertex
 10
8.8006609156
 20
7.2366064801
 30
0.0
  0
VERTEX
  5
2AD
330
1BB
100
AcDbEntity
  8
0
  6
CONTINUOUS
 62
     7
100
AcDbVertex
100
AcDb2dVertex
 10
8.8273215483
 20
7.245690299
 30
0.0
  0
VERTEX
  5
2AE
330
1BB
100
AcDbEntity
  8
0
  6
CONTINUOUS
 62
     7
100
AcDbVertex
100
AcDb2dVertex
 10
8.8536834518
 20
7.253104845
 30
0.0
  0
VERTEX
  5
2AF
330
1BB
100
AcDbEntity
  8
0
  6
CONTINUOUS
 62
     7
100
AcDbVertex
100
AcDb2dVertex
 10
8.8796836449
 20
7.258832404
 30
0.0
  0
VERTEX
  5
2B0
330
1BB
100
AcDbEntity
  8
0
  6
CONTINUOUS
 62
     7
100
AcDbVertex
100
AcDb2dVertex
 10
8.9052600108
 20
7.2628592925
 30
0.0
  0
VERTEX
  5
2B1
330
1BB
100
AcDbEntity
  8
0
  6
CONTINUOUS
 62
     7
100
AcDbVertex
100
AcDb2dVertex
 10
8.9303514452
 20
7.2651758898
 30
0.0
  0
VERTEX
  5
2B2
330
1BB
100
AcDbEntity
  8
0
  6
CONTINUOUS
 62
     7
100
AcDbVertex
100
AcDb2dVertex
 10
8.9548980023
 20
7.2657766614
 30
0.0
  0
VERTEX
  5
2B3
330
1BB
100
AcDbEntity
  8
0
  6
CONTINUOUS
 62
     7
100
AcDbVertex
100
AcDb2dVertex
 10
8.9788410382
 20
7.2646601719
 30
0.0
  0
VERTEX
  5
2B4
330
1BB
100
AcDbEntity
  8
0
  6
CONTINUOUS
 62
     7
100
AcDbVertex
100
AcDb2dVertex
 10
9.0021233507
 20
7.2618290887
 30
0.0
  0
VERTEX
  5
2B5
330
1BB
100
AcDbEntity
  8
0
  6
CONTINUOUS
 62
     7
100
AcDbVertex
100
AcDb2dVertex
 10
9.0246893162
 20
7.2572901756
 30
0.0
  0
VERTEX
  5
2B6
330
1BB
100
AcDbEntity
  8
0
  6
CONTINUOUS
 62
     7
100
AcDbVertex
100
AcDb2dVertex
 10
9.0464850225
 20
7.2510542765
 30
0.0
  0
VERTEX
  5
2B7
330
1BB
100
AcDbEntity
  8
0
  6
CONTINUOUS
 62
     7
100
AcDbVertex
100
AcDb2dVertex
 10
9.0674583977
 20
7.2431362894
 30
0.0
  0
VERTEX
  5
2B8
330
1BB
100
AcDbEntity
  8
0
  6
CONTINUOUS
 62
     7
100
AcDbVertex
100
AcDb2dVertex
 10
9.0875593345
 20
7.2335551312
 30
0.0
  0
VERTEX
  5
2B9
330
1BB
100
AcDbEntity
  8
0
  6
CONTINUOUS
 62
     7
100
AcDbVertex
100
AcDb2dVertex
 10
9.1067398098
 20
7.2223336922
 30
0.0
  0
VERTEX
  5
2BA
330
1BB
100
AcDbEntity
  8
0
  6
CONTINUOUS
 62
     7
100
AcDbVertex
100
AcDb2dVertex
 10
9.1249539997
 20
7.2094987814
 30
0.0
  0
VERTEX
  5
2BB
330
1BB
100
AcDbEntity
  8
0
  6
CONTINUOUS
 62
     7
100
AcDbVertex
100
AcDb2dVertex
 10
9.1421583889
 20
7.1950810626
 30
0.0
  0
VERTEX
  5
2BC
330
1BB
100
AcDbEntity
  8
0
  6
CONTINUOUS
 62
     7
100
AcDbVertex
100
AcDb2dVertex
 10
9.1583118744
 20
7.1791149811
 30
0.0
  0
VERTEX
  5
2BD
330
1BB
100
AcDbEntity
  8
0
  6
CONTINUOUS
 62
     7
100
AcDbVertex
100
AcDb2dVertex
 10
9.1733758641
 20
7.1616386813
 30
0.0
  0
VERTEX
  5
2BE
330
1BB
100
AcDbEntity
  8
0
  6
CONTINUOUS
 62
     7
100
AcDbVertex
100
AcDb2dVertex
 10
9.1873143688
 20
7.1426939157
 30
0.0
  0
VERTEX
  5
2BF
330
1BB
100
AcDbEntity
  8
0
  6
CONTINUOUS
 62
     7
100
AcDbVertex
100
AcDb2dVertex
 10
9.2000940879
 20
7.1223259451
 30
0.0
  0
VERTEX
  5
2C0
330
1BB
100
AcDbEntity
  8
0
  6
CONTINUOUS
 62
     7
100
AcDbVertex
100
AcDb2dVertex
 10
9.2116844898
 20
7.1005834305
 30
0.0
  0
VERTEX
  5
2C1
330
1BB
100
AcDbEntity
  8
0
  6
CONTINUOUS
 62
     7
100
AcDbVertex
100
AcDb2dVertex
 10
9.2220578836
 20
7.0775183167
 30
0.0
  0
VERTEX
  5
2C2
330
1BB
100
AcDbEntity
  8
0
  6
CONTINUOUS
 62
     7
100
AcDbVertex
100
AcDb2dVertex
 10
9.2311894866
 20
7.0531857085
 30
0.0
  0
VERTEX
  5
2C3
330
1BB
100
AcDbEntity
  8
0
  6
CONTINUOUS
 62
     7
100
AcDbVertex
100
AcDb2dVertex
 10
9.2390574824
 20
7.0276437386
 30
0.0
  0
VERTEX
  5
2C4
330
1BB
100
AcDbEntity
  8
0
  6
CONTINUOUS
 62
     7
100
AcDbVertex
100
AcDb2dVertex
 10
9.2456430737
 20
7.0009534293
 30
0.0
  0
VERTEX
  5
2C5
330
1BB
100
AcDbEntity
  8
0
  6
CONTINUOUS
 62
     7
100
AcDbVertex
100
AcDb2dVertex
 10
9.2509305268
 20
6.9731785461
 30
0.0
  0
VERTEX
  5
2C6
330
1BB
100
AcDbEntity
  8
0
  6
CONTINUOUS
 62
     7
100
AcDbVertex
100
AcDb2dVertex
 10
9.2549072097
 20
6.9443854459
 30
0.0
  0
VERTEX
  5
2C7
330
1BB
100
AcDbEntity
  8
0
  6
CONTINUOUS
 62
     7
100
AcDbVertex
100
AcDb2dVertex
 10
9.2575636215
 20
6.9146429178
 30
0.0
  0
VERTEX
  5
2C8
330
1BB
100
AcDbEntity
  8
0
  6
CONTINUOUS
 62
     7
100
AcDbVertex
100
AcDb2dVertex
 10
9.2588934159
 20
6.8840220198
 30
0.0
  0
VERTEX
  5
2C9
330
1BB
100
AcDbEntity
  8
0
  6
CONTINUOUS
 62
     7
100
AcDbVertex
100
AcDb2dVertex
 10
9.2590597147
 20
6.868404966
 30
0.0
  0
SEQEND
  5
2CA
330
1BB
100
AcDbEntity
  8
0
  6
CONTINUOUS
 62
     7
  0
POLYLINE
  5
1BC
330
1F
100
AcDbEntity
  8
0
  6
CONTINUOUS
 62
     7
100
AcDb2dPolyline
 66
     1
 10
0.0
 20
0.0
 30
0.0
  0
VERTEX
  5
2CB
330
1BC
100
AcDbEntity
  8
0
  6
CONTINUOUS
 62
     7
100
AcDbVertex
100
AcDb2dVertex
 10
8.7023732136
 20
5.9040911767
 30
0.0
  0
VERTEX
  5
2CC
330
1BC
100
AcDbEntity
  8
0
  6
CONTINUOUS
 62
     7
100
AcDbVertex
100
AcDb2dVertex
 10
8.6923124863
 20
5.8983863266
 30
0.0
  0
VERTEX
  5
2CD
330
1BC
100
AcDbEntity
  8
0
  6
CONTINUOUS
 62
     7
100
AcDbVertex
100
AcDb2dVertex
 10
8.6651225499
 20
5.8840203964
 30
0.0
  0
VERTEX
  5
2CE
330
1BC
100
AcDbEntity
  8
0
  6
CONTINUOUS
 62
     7
100
AcDbVertex
100
AcDb2dVertex
 10
8.6380213926
 20
5.8712383486
 30
0.0
  0
VERTEX
  5
2CF
330
1BC
100
AcDbEntity
  8
0
  6
CONTINUOUS
 62
     7
100
AcDbVertex
100
AcDb2dVertex
 10
8.6110737615
 20
5.8600707207
 30
0.0
  0
VERTEX
  5
2D0
330
1BC
100
AcDbEntity
  8
0
  6
CONTINUOUS
 62
     7
100
AcDbVertex
100
AcDb2dVertex
 10
8.5843440371
 20
5.8505441933
 30
0.0
  0
VERTEX
  5
2D1
330
1BC
100
AcDbEntity
  8
0
  6
CONTINUOUS
 62
     7
100
AcDbVertex
100
AcDb2dVertex
 10
8.5578960791
 20
5.842681526
 30
0.0
  0
VERTEX
  5
2D2
330
1BC
100
AcDbEntity
  8
0
  6
CONTINUOUS
 62
     7
100
AcDbVertex
100
AcDb2dVertex
 10
8.5317930741
 20
5.8365015035
 30
0.0
  0
VERTEX
  5
2D3
330
1BC
100
AcDbEntity
  8
0
  6
CONTINUOUS
 62
     7
100
AcDbVertex
100
AcDb2dVertex
 10
8.5060973846
 20
5.8320188904
 30
0.0
  0
VERTEX
  5
2D4
330
1BC
100
AcDbEntity
  8
0
  6
CONTINUOUS
 62
     7
100
AcDbVertex
100
AcDb2dVertex
 10
8.4808704001
 20
5.8292443962
 30
0.0
  0
VERTEX
  5
2D5
330
1BC
100
AcDbEntity
  8
0
  6
CONTINUOUS
 62
     7
100
AcDbVertex
100
AcDb2dVertex
 10
8.4561723901
 20
5.8281846493
 30
0.0
  0
VERTEX
  5
2D6
330
1BC
100
AcDbEntity
  8
0
  6
CONTINUOUS
 62
     7
100
AcDbVertex
100
AcDb2dVertex
 10
8.4320623604
 20
5.8288421816
 30
0.0
  0
VERTEX
  5
2D7
330
1BC
100
AcDbEntity
  8
0
  6
CONTINUOUS
 62
     7
100
AcDbVertex
100
AcDb2dVertex
 10
8.4085979121
 20
5.8312154222
 30
0.0
  0
VERTEX
  5
2D8
330
1BC
100
AcDbEntity
  8
0
  6
CONTINUOUS
 62
     7
100
AcDbVertex
100
AcDb2dVertex
 10
8.385835104
 20
5.8352987012
 30
0.0
  0
VERTEX
  5
2D9
330
1BC
100
AcDbEntity
  8
0
  6
CONTINUOUS
 62
     7
100
AcDbVertex
100
AcDb2dVertex
 10
8.3638283185
 20
5.8410822632
 30
0.0
  0
VERTEX
  5
2DA
330
1BC
100
AcDbEntity
  8
0
  6
CONTINUOUS
 62
     7
100
AcDbVertex
100
AcDb2dVertex
 10
8.3426301319
 20
5.8485522908
 30
0.0
  0
VERTEX
  5
2DB
330
1BC
100
AcDbEntity
  8
0
  6
CONTINUOUS
 62
     7
100
AcDbVertex
100
AcDb2dVertex
 10
8.3222911886
 20
5.8576909374
 30
0.0
  0
VERTEX
  5
2DC
330
1BC
100
AcDbEntity
  8
0
  6
CONTINUOUS
 62
     7
100
AcDbVertex
100
AcDb2dVertex
 10
8.3028600801
 20
5.86847637
 30
0.0
  0
VERTEX
  5
2DD
330
1BC
100
AcDbEntity
  8
0
  6
CONTINUOUS
 62
     7
100
AcDbVertex
100
AcDb2dVertex
 10
8.2843832293
 20
5.880882821
 30
0.0
  0
VERTEX
  5
2DE
330
1BC
100
AcDbEntity
  8
0
  6
CONTINUOUS
 62
     7
100
AcDbVertex
100
AcDb2dVertex
 10
8.2669047791
 20
5.8948806505
 30
0.0
  0
VERTEX
  5
2DF
330
1BC
100
AcDbEntity
  8
0
  6
CONTINUOUS
 62
     7
100
AcDbVertex
100
AcDb2dVertex
 10
8.2504664869
 20
5.9104364162
 30
0.0
  0
VERTEX
  5
2E0
330
1BC
100
AcDbEntity
  8
0
  6
CONTINUOUS
 62
     7
100
AcDbVertex
100
AcDb2dVertex
 10
8.2351076256
 20
5.9275129541
 30
0.0
  0
VERTEX
  5
2E1
330
1BC
100
AcDbEntity
  8
0
  6
CONTINUOUS
 62
     7
100
AcDbVertex
100
AcDb2dVertex
 10
8.2208648887
 20
5.9460694666
 30
0.0
  0
VERTEX
  5
2E2
330
1BC
100
AcDbEntity
  8
0
  6
CONTINUOUS
 62
     7
100
AcDbVertex
100
AcDb2dVertex
 10
8.2077723036
 20
5.9660616205
 30
0.0
  0
VERTEX
  5
2E3
330
1BC
100
AcDbEntity
  8
0
  6
CONTINUOUS
 62
     7
100
AcDbVertex
100
AcDb2dVertex
 10
8.1958611495
 20
5.9874416528
 30
0.0
  0
VERTEX
  5
2E4
330
1BC
100
AcDbEntity
  8
0
  6
CONTINUOUS
 62
     7
100
AcDbVertex
100
AcDb2dVertex
 10
8.1851598834
 20
6.0101584846
 30
0.0
  0
VERTEX
  5
2E5
330
1BC
100
AcDbEntity
  8
0
  6
CONTINUOUS
 62
     7
100
AcDbVertex
100
AcDb2dVertex
 10
8.1756940716
 20
6.0341578433
 30
0.0
  0
VERTEX
  5
2E6
330
1BC
100
AcDbEntity
  8
0
  6
CONTINUOUS
 62
     7
100
AcDbVertex
100
AcDb2dVertex
 10
8.1674863288
 20
6.0593823921
 30
0.0
  0
VERTEX
  5
2E7
330
1BC
100
AcDbEntity
  8
0
  6
CONTINUOUS
 62
     7
100
AcDbVertex
100
AcDb2dVertex
 10
8.160556264
 20
6.0857718673
 30
0.0
  0
VERTEX
  5
2E8
330
1BC
100
AcDbEntity
  8
0
  6
CONTINUOUS
 62
     7
100
AcDbVertex
100
AcDb2dVertex
 10
8.1549204338
 20
6.1132632221
 30
0.0
  0
VERTEX
  5
2E9
330
1BC
100
AcDbEntity
  8
0
  6
CONTINUOUS
 62
     7
100
AcDbVertex
100
AcDb2dVertex
 10
8.1505923027
 20
6.1417907769
 30
0.0
  0
VERTEX
  5
2EA
330
1BC
100
AcDbEntity
  8
0
  6
CONTINUOUS
 62
     7
100
AcDbVertex
100
AcDb2dVertex
 10
8.147582211
 20
6.1712863769
 30
0.0
  0
VERTEX
  5
2EB
330
1BC
100
AcDbEntity
  8
0
  6
CONTINUOUS
 62
     7
100
AcDbVertex
100
AcDb2dVertex
 10
8.1458973501
 20
6.2016795543
 30
0.0
  0
SEQEND
  5
2EC
330
1BC
100
AcDbEntity
  8
0
  6
CONTINUOUS
 62
     7
  0
LINE
  5
1BD
330
1F
100
AcDbEntity
  8
0
  6
CONTINUOUS
 62
     7
100
AcDbLine
 10
8.1458973501
 20
6.2016795543
 30
0.0
 11
8.2015956768
 21
6.2016914622
 31
0.0
  0
SPLINE
  5
1BE
330
1F
100
AcDbEntity
  8
0
  6
CONTINUOUS
 62
     7
100
AcDbSpline
210
0.0
220
0.0
230
1.0
 70
     8
 71
     3
 72
    18
 73
    14
 74
     0
 42
0.00000001
 43
0.00000001
 40
0.0
 40
0.0
 40
0.0
 40
0.0
 40
0.0612582106999969
 40
0.1249096509978494
 40
0.1860720118805312
 40
0.2486791387123468
 40
0.3438889546654845
 40
0.4417353874429851
 40
0.5763033180686075
 40
0.714700336565882
 40
0.8518948820413806
 40
0.9927519198192772
 40
1.0
 40
1.0
 40
1.0
 40
1.0
 10
7.450385339892027
 20
6.364951398461621
 30
0.0
 10
7.447574110737067
 20
6.366546740494184
 30
0.0
 10
7.441841823610027
 20
6.369799751220952
 30
0.0
 10
7.435036398329651
 20
6.373303328397045
 30
0.0
 10
7.429629090332335
 20
6.375832690765895
 30
0.0
 10
7.42503151893543
 20
6.37767584316862
 30
0.0
 10
7.42195571966926
 20
6.378479291087574
 30
0.0
 10
7.421095181220587
 20
6.377938756169036
 30
0.0
 10
7.423769135159143
 20
6.375747007479058
 30
0.0
 10
7.430752237576941
 20
6.37191277473997
 30
0.0
 10
7.442084702848141
 20
6.366780950527436
 30
0.0
 10
7.451607119835146
 20
6.362811539564455
 30
0.0
 10
7.45811687179213
 20
6.360311621620591
 30
0.0
 10
7.458435450952603
 20
6.36018927874715
 30
0.0
  0
SPLINE
  5
1BF
330
1F
100
AcDbEntity
  8
0
  6
CONTINUOUS
 62
     7
100
AcDbSpline
210
0.0
220
0.0
230
1.0
 70
     8
 71
     3
 72
    15
 73
    11
 74
     0
 42
0.00000001
 43
0.00000001
 40
0.0
 40
0.0
 40
0.0
 40
0.0
 40
0.1620387517956576
 40
0.3303192410311914
 40
0.5023426699503408
 40
0.6184524229514659
 40
0.7371824250272453
 40
0.8282977817545503
 40
0.9217989162344148
 40
0.9999999999999999
 40
0.9999999999999999
 40
0.9999999999999999
 40
0.9999999999999999
 10
7.548529226020779
 20
6.303949404133309
 30
0.0
 10
7.543728325067706
 20
6.306728185216016
 30
0.0
 10
7.53394159231698
 20
6.312392786109691
 30
0.0
 10
7.517694100997375
 20
6.322574135837137
 30
0.0
 10
7.502364845601377
 20
6.332380245558155
 30
0.0
 10
7.488316465196227
 20
6.341442554249303
 30
0.0
 10
7.476958345138393
 20
6.348718998821586
 30
0.0
 10
7.46658116462988
 20
6.355239449614488
 30
0.0
 10
7.457882267246472
 20
6.360569671574406
 30
0.0
 10
7.452731318673867
 20
6.36358024494509
 30
0.0
 10
7.450385339892027
 20
6.364951398461621
 30
0.0
  0
SPLINE
  5
1C0
330
1F
100
AcDbEntity
  8
0
  6
CONTINUOUS
 62
     7
100
AcDbSpline
210
0.0
220
0.0
230
1.0
 70
     8
 71
     3
 72
    40
 73
    36
 74
     0
 42
0.00000001
 43
0.00000001
 40
0.0
 40
0.0
 40
0.0
 40
0.0
 40
0.0226505167589742
 40
0.0454462372206794
 40
0.0681953199246287
 40
0.1028450858900883
 40
0.1376232021152371
 40
0.1723299174379095
 40
0.2089785684286741
 40
0.2457132881466896
 40
0.2823428016789822
 40
0.3138351480700284
 40
0.3454023910761581
 40
0.3768586232775399
 40
0.41467511443366
 40
0.4524564778639013
 40
0.4778495764829049
 40
0.5033429134073306
 40
0.5287108376155824
 40
0.5612677709847556
 40
0.5938135810952843
 40
0.6231535738604779
 40
0.6524917555249927
 40
0.6808062130594628
 40
0.7091231740313202
 40
0.7374987857575678
 40
0.7658814613201773
 40
0.7952885014871653
 40
0.8247083191210872
 40
0.8565947764749623
 40
0.8885000665339278
 40
0.9250815832631415
 40
0.9616875114805626
 40
0.9983533315257853
 40
1.0
 40
1.0
 40
1.0
 40
1.0
 10
8.015431778434202
 20
6.70825115455521
 30
0.0
 10
8.02115806320057
 20
6.709080311367724
 30
0.0
 10
8.032647341730268
 20
6.710743940396394
 30
0.0
 10
8.04958330075087
 20
6.717184656079227
 30
0.0
 10
8.06905825316694
 20
6.727016165197436
 30
0.0
 10
8.090936732952873
 20
6.741144493185659
 30
0.0
 10
8.114886417308528
 20
6.75995203917666
 30
0.0
 10
8.138582301432539
 20
6.781394938837995
 30
0.0
 10
8.162051485214118
 20
6.805095680210479
 30
0.0
 10
8.184999156537064
 20
6.830999005147565
 30
0.0
 10
8.205764643579137
 20
6.857167139791744
 30
0.0
 10
8.22424589832007
 20
6.883166977744412
 30
0.0
 10
8.240322115225316
 20
6.908688562787238
 30
0.0
 10
8.255518726108647
 20
6.9366614498886
 30
0.0
 10
8.26872030456638
 20
6.966938524213338
 30
0.0
 10
8.277381863961223
 20
6.995627266336889
 30
0.0
 10
8.281375537797382
 20
7.020330321624089
 30
0.0
 10
8.2821301594129
 20
7.040994700274068
 30
0.0
 10
8.27978476792065
 20
7.062626914375909
 30
0.0
 10
8.272884343387187
 20
7.08435568750397
 30
0.0
 10
8.260818536449726
 20
7.104426538342131
 30
0.0
 10
8.244673151249785
 20
7.120668985190005
 30
0.0
 10
8.225810245889324
 20
7.133018841786704
 30
0.0
 10
8.204193601072193
 20
7.141672899034063
 30
0.0
 10
8.180694161647224
 20
7.146668354428648
 30
0.0
 10
8.155681468589291
 20
7.147784685199871
 30
0.0
 10
8.1296652351283
 20
7.145099022148155
 30
0.0
 10
8.103382125219452
 20
7.138376445631379
 30
0.0
 10
8.076850313644837
 20
7.127569410574745
 30
0.0
 10
8.051143585966306
 20
7.112619456054781
 30
0.0
 10
8.02575129308869
 20
7.092941514043675
 30
0.0
 10
8.00207817490984
 20
7.068912753271765
 30
0.0
 10
7.981246557135139
 20
7.040690067701022
 30
0.0
 10
7.968496945344969
 20
7.020312163726022
 30
0.0
 10
7.963627545766537
 20
7.009148361191456
 30
0.0
 10
7.963418259262736
 20
7.00866854162357
 30
0.0
  0
SPLINE
  5
1C1
330
1F
100
AcDbEntity
  8
0
  6
CONTINUOUS
 62
     7
100
AcDbSpline
210
0.0
220
0.0
230
1.0
 70
     8
 71
     3
 72
    12
 73
     8
 74
     0
 42
0.00000001
 43
0.00000001
 40
0.0
 40
0.0
 40
0.0
 40
0.0
 40
0.1268216327004277
 40
0.4154457059216318
 40
0.7035791420224741
 40
0.8518593251780677
 40
1.0
 40
1.0
 40
1.0
 40
1.0
 10
7.92787731487371
 20
6.854478377622067
 30
0.0
 10
7.927769727714049
 20
6.849579342129881
 30
0.0
 10
7.927417290810802
 20
6.833530950266058
 30
0.0
 10
7.930512554502654
 20
6.806629071640653
 30
0.0
 10
7.936559900612314
 20
6.77981436376507
 30
0.0
 10
7.943951793875401
 20
6.759328329970865
 30
0.0
 10
7.948989508454979
 20
6.749877320360221
 30
0.0
 10
7.951507180262796
 20
6.74515403957957
 30
0.0
  0
SPLINE
  5
1C2
330
1F
100
AcDbEntity
  8
0
  6
CONTINUOUS
 62
     7
100
AcDbSpline
210
0.0
220
0.0
230
1.0
 70
     8
 71
     3
 72
    15
 73
    11
 74
     0
 42
0.00000001
 43
0.00000001
 40
0.0
 40
0.0
 40
0.0
 40
0.0
 40
0.1000066952185757
 40
0.203920441920469
 40
0.3037706581404345
 40
0.4059795176554972
 40
0.5614136861863549
 40
0.7211522464411819
 40
0.9408402502285947
 40
1.0
 40
1.0
 40
1.0
 40
1.0
 10
8.035001182605313
 20
6.027459856172705
 30
0.0
 10
8.038026935769492
 20
6.025685573700494
 30
0.0
 10
8.044196651917325
 20
6.022067691267381
 30
0.0
 10
8.054429482758728
 20
6.015735391037042
 30
0.0
 10
8.064991123978945
 20
6.009045709372432
 30
0.0
 10
8.077425882664862
 20
6.001057935773272
 30
0.0
 10
8.091782870053908
 20
5.991788231773879
 30
0.0
 10
8.109433189567323
 20
5.980605209990268
 30
0.0
 10
8.123486869373389
 20
5.971858566486158
 30
0.0
 10
8.131490436834904
 20
5.967377353040528
 30
0.0
 10
8.133188456783994
 20
5.966426628271431
 30
0.0
  0
SPLINE
  5
1C3
330
1F
100
AcDbEntity
  8
0
  6
CONTINUOUS
 62
     7
100
AcDbSpline
210
0.0
220
0.0
230
1.0
 70
     8
 71
     3
 72
    18
 73
    14
 74
     0
 42
0.00000001
 43
0.00000001
 40
0.0
 40
0.0
 40
0.0
 40
0.0
 40
0.0876478196301215
 40
0.2065591487435963
 40
0.3443107160167978
 40
0.4856612622848597
 40
0.5889514497499299
 40
0.6945390452113007
 40
0.7658069516007526
 40
0.8386831610047473
 40
0.8946095629308644
 40
0.9520003498990699
 40
1.0
 40
1.0
 40
1.0
 40
1.0
 10
8.042923600933777
 20
6.022768291262875
 30
0.0
 10
8.039425712642
 20
6.024145614108716
 30
0.0
 10
8.031182257973091
 20
6.027391543508698
 30
0.0
 10
8.020761406114413
 20
6.031907045672249
 30
0.0
 10
8.011733551526717
 20
6.036298421260718
 30
0.0
 10
8.006879551354444
 20
6.039326351962771
 30
0.0
 10
8.005723679398418
 20
6.040825311441623
 30
0.0
 10
8.007366222589004
 20
6.040851836252847
 30
0.0
 10
8.011109837660763
 20
6.039639747363732
 30
0.0
 10
8.01578891818993
 20
6.037658854303503
 30
0.0
 10
8.02168826379943
 20
6.034782911968199
 30
0.0
 10
8.02792506891621
 20
6.031490973043566
 30
0.0
 10
8.032786887096277
 20
6.028721294919412
 30
0.0
 10
8.035001182605313
 20
6.027459856172705
 30
0.0
  0
LINE
  5
1C4
330
1F
100
AcDbEntity
  8
0
  6
CONTINUOUS
 62
     7
100
AcDbLine
 10
7.6447980564
 20
6.5391789332
 30
0.0
 11
8.1458973501
 21
6.2499004684
 31
0.0
  0
POLYLINE
  5
1C5
330
1F
100
AcDbEntity
  8
0
  6
CONTINUOUS
 62
     7
100
AcDb2dPolyline
 66
     1
 10
0.0
 20
0.0
 30
0.0
  0
VERTEX
  5
2ED
330
1C5
100
AcDbEntity
  8
0
  6
CONTINUOUS
 62
     7
100
AcDbVertex
100
AcDb2dVertex
 10
7.6447980564
 20
6.5391789332
 30
0.0
  0
VERTEX
  5
2EE
330
1C5
100
AcDbEntity
  8
0
  6
CONTINUOUS
 62
     7
100
AcDbVertex
100
AcDb2dVertex
 10
7.6464872563
 20
6.5715777386
 30
0.0
  0
VERTEX
  5
2EF
330
1C5
100
AcDbEntity
  8
0
  6
CONTINUOUS
 62
     7
100
AcDbVertex
100
AcDb2dVertex
 10
7.6495065749
 20
6.6046112385
 30
0.0
  0
VERTEX
  5
2F0
330
1C5
100
AcDbEntity
  8
0
  6
CONTINUOUS
 62
     7
100
AcDbVertex
100
AcDb2dVertex
 10
7.6538487719
 20
6.6382002212
 30
0.0
  0
VERTEX
  5
2F1
330
1C5
100
AcDbEntity
  8
0
  6
CONTINUOUS
 62
     7
100
AcDbVertex
100
AcDb2dVertex
 10
7.6595034352
 20
6.672264143
 30
0.0
  0
VERTEX
  5
2F2
330
1C5
100
AcDbEntity
  8
0
  6
CONTINUOUS
 62
     7
100
AcDbVertex
100
AcDb2dVertex
 10
7.6664570052
 20
6.7067213212
 30
0.0
  0
VERTEX
  5
2F3
330
1C5
100
AcDbEntity
  8
0
  6
CONTINUOUS
 62
     7
100
AcDbVertex
100
AcDb2dVertex
 10
7.6746928079
 20
6.7414891301
 30
0.0
  0
VERTEX
  5
2F4
330
1C5
100
AcDbEntity
  8
0
  6
CONTINUOUS
 62
     7
100
AcDbVertex
100
AcDb2dVertex
 10
7.6841910945
 20
6.7764841992
 30
0.0
  0
VERTEX
  5
2F5
330
1C5
100
AcDbEntity
  8
0
  6
CONTINUOUS
 62
     7
100
AcDbVertex
100
AcDb2dVertex
 10
7.6949290887
 20
6.8116226131
 30
0.0
  0
VERTEX
  5
2F6
330
1C5
100
AcDbEntity
  8
0
  6
CONTINUOUS
 62
     7
100
AcDbVertex
100
AcDb2dVertex
 10
7.7068810418
 20
6.8468201125
 30
0.0
  0
VERTEX
  5
2F7
330
1C5
100
AcDbEntity
  8
0
  6
CONTINUOUS
 62
     7
100
AcDbVertex
100
AcDb2dVertex
 10
7.7200182938
 20
6.8819922966
 30
0.0
  0
VERTEX
  5
2F8
330
1C5
100
AcDbEntity
  8
0
  6
CONTINUOUS
 62
     7
100
AcDbVertex
100
AcDb2dVertex
 10
7.7343093426
 20
6.9170548251
 30
0.0
  0
VERTEX
  5
2F9
330
1C5
100
AcDbEntity
  8
0
  6
CONTINUOUS
 62
     7
100
AcDbVertex
100
AcDb2dVertex
 10
7.7497199194
 20
6.9519236209
 30
0.0
  0
VERTEX
  5
2FA
330
1C5
100
AcDbEntity
  8
0
  6
CONTINUOUS
 62
     7
100
AcDbVertex
100
AcDb2dVertex
 10
7.7662130708
 20
6.9865150712
 30
0.0
  0
VERTEX
  5
2FB
330
1C5
100
AcDbEntity
  8
0
  6
CONTINUOUS
 62
     7
100
AcDbVertex
100
AcDb2dVertex
 10
7.7837492476
 20
7.0207462285
 30
0.0
  0
VERTEX
  5
2FC
330
1C5
100
AcDbEntity
  8
0
  6
CONTINUOUS
 62
     7
100
AcDbVertex
100
AcDb2dVertex
 10
7.8022863993
 20
7.054535009
 30
0.0
  0
VERTEX
  5
2FD
330
1C5
100
AcDbEntity
  8
0
  6
CONTINUOUS
 62
     7
100
AcDbVertex
100
AcDb2dVertex
 10
7.8217800752
 20
7.0878003899
 30
0.0
  0
VERTEX
  5
2FE
330
1C5
100
AcDbEntity
  8
0
  6
CONTINUOUS
 62
     7
100
AcDbVertex
100
AcDb2dVertex
 10
7.8421835311
 20
7.1204626034
 30
0.0
  0
VERTEX
  5
2FF
330
1C5
100
AcDbEntity
  8
0
  6
CONTINUOUS
 62
     7
100
AcDbVertex
100
AcDb2dVertex
 10
7.863447841
 20
7.1524433279
 30
0.0
  0
VERTEX
  5
300
330
1C5
100
AcDbEntity
  8
0
  6
CONTINUOUS
 62
     7
100
AcDbVertex
100
AcDb2dVertex
 10
7.8855220148
 20
7.1836658763
 30
0.0
  0
VERTEX
  5
301
330
1C5
100
AcDbEntity
  8
0
  6
CONTINUOUS
 62
     7
100
AcDbVertex
100
AcDb2dVertex
 10
7.9083531203
 20
7.2140553792
 30
0.0
  0
VERTEX
  5
302
330
1C5
100
AcDbEntity
  8
0
  6
CONTINUOUS
 62
     7
100
AcDbVertex
100
AcDb2dVertex
 10
7.9318864102
 20
7.2435389649
 30
0.0
  0
VERTEX
  5
303
330
1C5
100
AcDbEntity
  8
0
  6
CONTINUOUS
 62
     7
100
AcDbVertex
100
AcDb2dVertex
 10
7.9560654535
 20
7.2720459341
 30
0.0
  0
VERTEX
  5
304
330
1C5
100
AcDbEntity
  8
0
  6
CONTINUOUS
 62
     7
100
AcDbVertex
100
AcDb2dVertex
 10
7.9808322709
 20
7.2995079293
 30
0.0
  0
VERTEX
  5
305
330
1C5
100
AcDbEntity
  8
0
  6
CONTINUOUS
 62
     7
100
AcDbVertex
100
AcDb2dVertex
 10
8.0061274733
 20
7.3258590987
 30
0.0
  0
VERTEX
  5
306
330
1C5
100
AcDbEntity
  8
0
  6
CONTINUOUS
 62
     7
100
AcDbVertex
100
AcDb2dVertex
 10
8.0318904048
 20
7.3510362543
 30
0.0
  0
VERTEX
  5
307
330
1C5
100
AcDbEntity
  8
0
  6
CONTINUOUS
 62
     7
100
AcDbVertex
100
AcDb2dVertex
 10
8.0580592879
 20
7.3749790232
 30
0.0
  0
VERTEX
  5
308
330
1C5
100
AcDbEntity
  8
0
  6
CONTINUOUS
 62
     7
100
AcDbVertex
100
AcDb2dVertex
 10
8.0845713716
 20
7.3976299924
 30
0.0
  0
VERTEX
  5
309
330
1C5
100
AcDbEntity
  8
0
  6
CONTINUOUS
 62
     7
100
AcDbVertex
100
AcDb2dVertex
 10
8.111363082
 20
7.4189348468
 30
0.0
  0
VERTEX
  5
30A
330
1C5
100
AcDbEntity
  8
0
  6
CONTINUOUS
 62
     7
100
AcDbVertex
100
AcDb2dVertex
 10
8.1383701747
 20
7.4388424988
 30
0.0
  0
VERTEX
  5
30B
330
1C5
100
AcDbEntity
  8
0
  6
CONTINUOUS
 62
     7
100
AcDbVertex
100
AcDb2dVertex
 10
8.1655278888
 20
7.4573052116
 30
0.0
  0
VERTEX
  5
30C
330
1C5
100
AcDbEntity
  8
0
  6
CONTINUOUS
 62
     7
100
AcDbVertex
100
AcDb2dVertex
 10
8.192771102
 20
7.4742787129
 30
0.0
  0
VERTEX
  5
30D
330
1C5
100
AcDbEntity
  8
0
  6
CONTINUOUS
 62
     7
100
AcDbVertex
100
AcDb2dVertex
 10
8.2200344874
 20
7.4897223016
 30
0.0
  0
VERTEX
  5
30E
330
1C5
100
AcDbEntity
  8
0
  6
CONTINUOUS
 62
     7
100
AcDbVertex
100
AcDb2dVertex
 10
8.2472526693
 20
7.5035989451
 30
0.0
  0
VERTEX
  5
30F
330
1C5
100
AcDbEntity
  8
0
  6
CONTINUOUS
 62
     7
100
AcDbVertex
100
AcDb2dVertex
 10
8.2743603808
 20
7.5158753684
 30
0.0
  0
VERTEX
  5
310
330
1C5
100
AcDbEntity
  8
0
  6
CONTINUOUS
 62
     7
100
AcDbVertex
100
AcDb2dVertex
 10
8.3012926196
 20
7.5265221335
 30
0.0
  0
VERTEX
  5
311
330
1C5
100
AcDbEntity
  8
0
  6
CONTINUOUS
 62
     7
100
AcDbVertex
100
AcDb2dVertex
 10
8.3279848043
 20
7.5355137103
 30
0.0
  0
VERTEX
  5
312
330
1C5
100
AcDbEntity
  8
0
  6
CONTINUOUS
 62
     7
100
AcDbVertex
100
AcDb2dVertex
 10
8.3543729291
 20
7.5428285378
 30
0.0
  0
VERTEX
  5
313
330
1C5
100
AcDbEntity
  8
0
  6
CONTINUOUS
 62
     7
100
AcDbVertex
100
AcDb2dVertex
 10
8.3803937173
 20
7.5484490754
 30
0.0
  0
VERTEX
  5
314
330
1C5
100
AcDbEntity
  8
0
  6
CONTINUOUS
 62
     7
100
AcDbVertex
100
AcDb2dVertex
 10
8.4059847731
 20
7.5523618456
 30
0.0
  0
VERTEX
  5
315
330
1C5
100
AcDbEntity
  8
0
  6
CONTINUOUS
 62
     7
100
AcDbVertex
100
AcDb2dVertex
 10
8.431084731
 20
7.5545574659
 30
0.0
  0
VERTEX
  5
316
330
1C5
100
AcDbEntity
  8
0
  6
CONTINUOUS
 62
     7
100
AcDbVertex
100
AcDb2dVertex
 10
8.4556334034
 20
7.5550306713
 30
0.0
  0
VERTEX
  5
317
330
1C5
100
AcDbEntity
  8
0
  6
CONTINUOUS
 62
     7
100
AcDbVertex
100
AcDb2dVertex
 10
8.4795719244
 20
7.5537803272
 30
0.0
  0
SEQEND
  5
318
330
1C5
100
AcDbEntity
  8
0
  6
CONTINUOUS
 62
     7
  0
LINE
  5
1C6
330
1F
100
AcDbEntity
  8
0
  6
CONTINUOUS
 62
     7
100
AcDbLine
 10
8.4238942251
 20
7.5859223788
 30
0.0
 11
8.4795719244
 21
7.5537803272
 31
0.0
  0
POLYLINE
  5
1C7
330
1F
100
AcDbEntity
  8
0
  6
CONTINUOUS
 62
     7
100
AcDb2dPolyline
 66
     1
 10
0.0
 20
0.0
 30
0.0
  0
VERTEX
  5
319
330
1C7
100
AcDbEntity
  8
0
  6
CONTINUOUS
 62
     7
100
AcDbVertex
100
AcDb2dVertex
 10
8.4238942251
 20
7.5859223788
 30
0.0
  0
VERTEX
  5
31A
330
1C7
100
AcDbEntity
  8
0
  6
CONTINUOUS
 62
     7
100
AcDbVertex
100
AcDb2dVertex
 10
8.3999557041
 20
7.587172723
 30
0.0
  0
VERTEX
  5
31B
330
1C7
100
AcDbEntity
  8
0
  6
CONTINUOUS
 62
     7
100
AcDbVertex
100
AcDb2dVertex
 10
8.3754070317
 20
7.5866995175
 30
0.0
  0
VERTEX
  5
31C
330
1C7
100
AcDbEntity
  8
0
  6
CONTINUOUS
 62
     7
100
AcDbVertex
100
AcDb2dVertex
 10
8.3503070738
 20
7.5845038972
 30
0.0
  0
VERTEX
  5
31D
330
1C7
100
AcDbEntity
  8
0
  6
CONTINUOUS
 62
     7
100
AcDbVertex
100
AcDb2dVertex
 10
8.324716018
 20
7.580591127
 30
0.0
  0
VERTEX
  5
31E
330
1C7
100
AcDbEntity
  8
0
  6
CONTINUOUS
 62
     7
100
AcDbVertex
100
AcDb2dVertex
 10
8.2986952298
 20
7.5749705894
 30
0.0
  0
VERTEX
  5
31F
330
1C7
100
AcDbEntity
  8
0
  6
CONTINUOUS
 62
     7
100
AcDbVertex
100
AcDb2dVertex
 10
8.272307105
 20
7.567655762
 30
0.0
  0
VERTEX
  5
320
330
1C7
100
AcDbEntity
  8
0
  6
CONTINUOUS
 62
     7
100
AcDbVertex
100
AcDb2dVertex
 10
8.2456149203
 20
7.5586641852
 30
0.0
  0
VERTEX
  5
321
330
1C7
100
AcDbEntity
  8
0
  6
CONTINUOUS
 62
     7
100
AcDbVertex
100
AcDb2dVertex
 10
8.2186826815
 20
7.5480174201
 30
0.0
  0
VERTEX
  5
322
330
1C7
100
AcDbEntity
  8
0
  6
CONTINUOUS
 62
     7
100
AcDbVertex
100
AcDb2dVertex
 10
8.19157497
 20
7.5357409968
 30
0.0
  0
VERTEX
  5
323
330
1C7
100
AcDbEntity
  8
0
  6
CONTINUOUS
 62
     7
100
AcDbVertex
100
AcDb2dVertex
 10
8.164356788
 20
7.5218643532
 30
0.0
  0
VERTEX
  5
324
330
1C7
100
AcDbEntity
  8
0
  6
CONTINUOUS
 62
     7
100
AcDbVertex
100
AcDb2dVertex
 10
8.1370934027
 20
7.5064207645
 30
0.0
  0
VERTEX
  5
325
330
1C7
100
AcDbEntity
  8
0
  6
CONTINUOUS
 62
     7
100
AcDbVertex
100
AcDb2dVertex
 10
8.1098501894
 20
7.4894472632
 30
0.0
  0
VERTEX
  5
326
330
1C7
100
AcDbEntity
  8
0
  6
CONTINUOUS
 62
     7
100
AcDbVertex
100
AcDb2dVertex
 10
8.0826924754
 20
7.4709845505
 30
0.0
  0
VERTEX
  5
327
330
1C7
100
AcDbEntity
  8
0
  6
CONTINUOUS
 62
     7
100
AcDbVertex
100
AcDb2dVertex
 10
8.0556853827
 20
7.4510768984
 30
0.0
  0
VERTEX
  5
328
330
1C7
100
AcDbEntity
  8
0
  6
CONTINUOUS
 62
     7
100
AcDbVertex
100
AcDb2dVertex
 10
8.0288936723
 20
7.4297720441
 30
0.0
  0
VERTEX
  5
329
330
1C7
100
AcDbEntity
  8
0
  6
CONTINUOUS
 62
     7
100
AcDbVertex
100
AcDb2dVertex
 10
8.0023815886
 20
7.4071210748
 30
0.0
  0
VERTEX
  5
32A
330
1C7
100
AcDbEntity
  8
0
  6
CONTINUOUS
 62
     7
100
AcDbVertex
100
AcDb2dVertex
 10
7.9762127055
 20
7.3831783059
 30
0.0
  0
VERTEX
  5
32B
330
1C7
100
AcDbEntity
  8
0
  6
CONTINUOUS
 62
     7
100
AcDbVertex
100
AcDb2dVertex
 10
7.950449774
 20
7.3580011503
 30
0.0
  0
VERTEX
  5
32C
330
1C7
100
AcDbEntity
  8
0
  6
CONTINUOUS
 62
     7
100
AcDbVertex
100
AcDb2dVertex
 10
7.9251545716
 20
7.3316499809
 30
0.0
  0
VERTEX
  5
32D
330
1C7
100
AcDbEntity
  8
0
  6
CONTINUOUS
 62
     7
100
AcDbVertex
100
AcDb2dVertex
 10
7.9003877542
 20
7.3041879857
 30
0.0
  0
VERTEX
  5
32E
330
1C7
100
AcDbEntity
  8
0
  6
CONTINUOUS
 62
     7
100
AcDbVertex
100
AcDb2dVertex
 10
7.8762087109
 20
7.2756810165
 30
0.0
  0
VERTEX
  5
32F
330
1C7
100
AcDbEntity
  8
0
  6
CONTINUOUS
 62
     7
100
AcDbVertex
100
AcDb2dVertex
 10
7.852675421
 20
7.2461974308
 30
0.0
  0
VERTEX
  5
330
330
1C7
100
AcDbEntity
  8
0
  6
CONTINUOUS
 62
     7
100
AcDbVertex
100
AcDb2dVertex
 10
7.8298443155
 20
7.2158079279
 30
0.0
  0
VERTEX
  5
331
330
1C7
100
AcDbEntity
  8
0
  6
CONTINUOUS
 62
     7
100
AcDbVertex
100
AcDb2dVertex
 10
7.8077701417
 20
7.1845853796
 30
0.0
  0
VERTEX
  5
332
330
1C7
100
AcDbEntity
  8
0
  6
CONTINUOUS
 62
     7
100
AcDbVertex
100
AcDb2dVertex
 10
7.7865058318
 20
7.152604655
 30
0.0
  0
VERTEX
  5
333
330
1C7
100
AcDbEntity
  8
0
  6
CONTINUOUS
 62
     7
100
AcDbVertex
100
AcDb2dVertex
 10
7.7661023759
 20
7.1199424416
 30
0.0
  0
VERTEX
  5
334
330
1C7
100
AcDbEntity
  8
0
  6
CONTINUOUS
 62
     7
100
AcDbVertex
100
AcDb2dVertex
 10
7.7466087
 20
7.0866770607
 30
0.0
  0
VERTEX
  5
335
330
1C7
100
AcDbEntity
  8
0
  6
CONTINUOUS
 62
     7
100
AcDbVertex
100
AcDb2dVertex
 10
7.7280715483
 20
7.0528882801
 30
0.0
  0
VERTEX
  5
336
330
1C7
100
AcDbEntity
  8
0
  6
CONTINUOUS
 62
     7
100
AcDbVertex
100
AcDb2dVertex
 10
7.7105353715
 20
7.0186571229
 30
0.0
  0
VERTEX
  5
337
330
1C7
100
AcDbEntity
  8
0
  6
CONTINUOUS
 62
     7
100
AcDbVertex
100
AcDb2dVertex
 10
7.6940422201
 20
6.9840656725
 30
0.0
  0
VERTEX
  5
338
330
1C7
100
AcDbEntity
  8
0
  6
CONTINUOUS
 62
     7
100
AcDbVertex
100
AcDb2dVertex
 10
7.6786316433
 20
6.9491968768
 30
0.0
  0
VERTEX
  5
339
330
1C7
100
AcDbEntity
  8
0
  6
CONTINUOUS
 62
     7
100
AcDbVertex
100
AcDb2dVertex
 10
7.6643405945
 20
6.9141343482
 30
0.0
  0
VERTEX
  5
33A
330
1C7
100
AcDbEntity
  8
0
  6
CONTINUOUS
 62
     7
100
AcDbVertex
100
AcDb2dVertex
 10
7.6512033425
 20
6.8789621642
 30
0.0
  0
VERTEX
  5
33B
330
1C7
100
AcDbEntity
  8
0
  6
CONTINUOUS
 62
     7
100
AcDbVertex
100
AcDb2dVertex
 10
7.6392513894
 20
6.8437646648
 30
0.0
  0
VERTEX
  5
33C
330
1C7
100
AcDbEntity
  8
0
  6
CONTINUOUS
 62
     7
100
AcDbVertex
100
AcDb2dVertex
 10
7.6285133952
 20
6.8086262509
 30
0.0
  0
VERTEX
  5
33D
330
1C7
100
AcDbEntity
  8
0
  6
CONTINUOUS
 62
     7
100
AcDbVertex
100
AcDb2dVertex
 10
7.6190151086
 20
6.7736311818
 30
0.0
  0
VERTEX
  5
33E
330
1C7
100
AcDbEntity
  8
0
  6
CONTINUOUS
 62
     7
100
AcDbVertex
100
AcDb2dVertex
 10
7.6107793059
 20
6.7388633728
 30
0.0
  0
VERTEX
  5
33F
330
1C7
100
AcDbEntity
  8
0
  6
CONTINUOUS
 62
     7
100
AcDbVertex
100
AcDb2dVertex
 10
7.6038257359
 20
6.7044061947
 30
0.0
  0
VERTEX
  5
340
330
1C7
100
AcDbEntity
  8
0
  6
CONTINUOUS
 62
     7
100
AcDbVertex
100
AcDb2dVertex
 10
7.5981710726
 20
6.6703422729
 30
0.0
  0
VERTEX
  5
341
330
1C7
100
AcDbEntity
  8
0
  6
CONTINUOUS
 62
     7
100
AcDbVertex
100
AcDb2dVertex
 10
7.5938288756
 20
6.6367532901
 30
0.0
  0
VERTEX
  5
342
330
1C7
100
AcDbEntity
  8
0
  6
CONTINUOUS
 62
     7
100
AcDbVertex
100
AcDb2dVertex
 10
7.590809557
 20
6.6037197902
 30
0.0
  0
VERTEX
  5
343
330
1C7
100
AcDbEntity
  8
0
  6
CONTINUOUS
 62
     7
100
AcDbVertex
100
AcDb2dVertex
 10
7.5891203571
 20
6.5713209849
 30
0.0
  0
SEQEND
  5
344
330
1C7
100
AcDbEntity
  8
0
  6
CONTINUOUS
 62
     7
  0
LINE
  5
1C8
330
1F
100
AcDbEntity
  8
0
  6
CONTINUOUS
 62
     7
100
AcDbLine
 10
7.0880210633
 20
6.8605994497
 30
0.0
 11
7.5891203571
 21
6.5713209849
 31
0.0
  0
ARC
  5
1C9
330
1F
100
AcDbEntity
  8
0
  6
CONTINUOUS
 62
     7
100
AcDbCircle
 10
7.4690646257
 20
6.7889283643
 30
0.0
 40
0.3817644653225099
100
AcDbArc
 50
176.4783463784
 51
235.1179276665
  0
POLYLINE
  5
1CA
330
1F
100
AcDbEntity
  8
0
  6
CONTINUOUS
 62
     7
100
AcDb2dPolyline
 66
     1
 10
0.0
 20
0.0
 30
0.0
  0
VERTEX
  5
345
330
1CA
100
AcDbEntity
  8
0
  6
CONTINUOUS
 62
     7
100
AcDbVertex
100
AcDb2dVertex
 10
8.0380752272
 20
7.8396116689
 30
0.0
  0
VERTEX
  5
346
330
1CA
100
AcDbEntity
  8
0
  6
CONTINUOUS
 62
     7
100
AcDbVertex
100
AcDb2dVertex
 10
8.0296830477
 20
7.8442541125
 30
0.0
  0
VERTEX
  5
347
330
1CA
100
AcDbEntity
  8
0
  6
CONTINUOUS
 62
     7
100
AcDbVertex
100
AcDb2dVertex
 10
8.0095821109
 20
7.8538352707
 30
0.0
  0
VERTEX
  5
348
330
1CA
100
AcDbEntity
  8
0
  6
CONTINUOUS
 62
     7
100
AcDbVertex
100
AcDb2dVertex
 10
7.9886087357
 20
7.8617532577
 30
0.0
  0
VERTEX
  5
349
330
1CA
100
AcDbEntity
  8
0
  6
CONTINUOUS
 62
     7
100
AcDbVertex
100
AcDb2dVertex
 10
7.9668130294
 20
7.8679891569
 30
0.0
  0
VERTEX
  5
34A
330
1CA
100
AcDbEntity
  8
0
  6
CONTINUOUS
 62
     7
100
AcDbVertex
100
AcDb2dVertex
 10
7.9442470639
 20
7.87252807
 30
0.0
  0
VERTEX
  5
34B
330
1CA
100
AcDbEntity
  8
0
  6
CONTINUOUS
 62
     7
100
AcDbVertex
100
AcDb2dVertex
 10
7.9209647514
 20
7.8753591531
 30
0.0
  0
VERTEX
  5
34C
330
1CA
100
AcDbEntity
  8
0
  6
CONTINUOUS
 62
     7
100
AcDbVertex
100
AcDb2dVertex
 10
7.8970217155
 20
7.8764756427
 30
0.0
  0
VERTEX
  5
34D
330
1CA
100
AcDbEntity
  8
0
  6
CONTINUOUS
 62
     7
100
AcDbVertex
100
AcDb2dVertex
 10
7.8724751584
 20
7.8758748711
 30
0.0
  0
VERTEX
  5
34E
330
1CA
100
AcDbEntity
  8
0
  6
CONTINUOUS
 62
     7
100
AcDbVertex
100
AcDb2dVertex
 10
7.847383724
 20
7.8735582738
 30
0.0
  0
VERTEX
  5
34F
330
1CA
100
AcDbEntity
  8
0
  6
CONTINUOUS
 62
     7
100
AcDbVertex
100
AcDb2dVertex
 10
7.8218073581
 20
7.8695313853
 30
0.0
  0
VERTEX
  5
350
330
1CA
100
AcDbEntity
  8
0
  6
CONTINUOUS
 62
     7
100
AcDbVertex
100
AcDb2dVertex
 10
7.795807165
 20
7.8638038263
 30
0.0
  0
VERTEX
  5
351
330
1CA
100
AcDbEntity
  8
0
  6
CONTINUOUS
 62
     7
100
AcDbVertex
100
AcDb2dVertex
 10
7.7694452615
 20
7.8563892803
 30
0.0
  0
VERTEX
  5
352
330
1CA
100
AcDbEntity
  8
0
  6
CONTINUOUS
 62
     7
100
AcDbVertex
100
AcDb2dVertex
 10
7.7427846287
 20
7.8473054614
 30
0.0
  0
VERTEX
  5
353
330
1CA
100
AcDbEntity
  8
0
  6
CONTINUOUS
 62
     7
100
AcDbVertex
100
AcDb2dVertex
 10
7.7158889614
 20
7.8365740718
 30
0.0
  0
VERTEX
  5
354
330
1CA
100
AcDbEntity
  8
0
  6
CONTINUOUS
 62
     7
100
AcDbVertex
100
AcDb2dVertex
 10
7.6888225156
 20
7.8242207496
 30
0.0
  0
VERTEX
  5
355
330
1CA
100
AcDbEntity
  8
0
  6
CONTINUOUS
 62
     7
100
AcDbVertex
100
AcDb2dVertex
 10
7.6616499558
 20
7.8102750082
 30
0.0
  0
VERTEX
  5
356
330
1CA
100
AcDbEntity
  8
0
  6
CONTINUOUS
 62
     7
100
AcDbVertex
100
AcDb2dVertex
 10
7.6344361995
 20
7.7947701651
 30
0.0
  0
VERTEX
  5
357
330
1CA
100
AcDbEntity
  8
0
  6
CONTINUOUS
 62
     7
100
AcDbVertex
100
AcDb2dVertex
 10
7.6072462631
 20
7.777743263
 30
0.0
  0
VERTEX
  5
358
330
1CA
100
AcDbEntity
  8
0
  6
CONTINUOUS
 62
     7
100
AcDbVertex
100
AcDb2dVertex
 10
7.5801451058
 20
7.7592349805
 30
0.0
  0
VERTEX
  5
359
330
1CA
100
AcDbEntity
  8
0
  6
CONTINUOUS
 62
     7
100
AcDbVertex
100
AcDb2dVertex
 10
7.5531974747
 20
7.7392895358
 30
0.0
  0
VERTEX
  5
35A
330
1CA
100
AcDbEntity
  8
0
  6
CONTINUOUS
 62
     7
100
AcDbVertex
100
AcDb2dVertex
 10
7.5264677503
 20
7.7179545804
 30
0.0
  0
VERTEX
  5
35B
330
1CA
100
AcDbEntity
  8
0
  6
CONTINUOUS
 62
     7
100
AcDbVertex
100
AcDb2dVertex
 10
7.5000197922
 20
7.6952810853
 30
0.0
  0
VERTEX
  5
35C
330
1CA
100
AcDbEntity
  8
0
  6
CONTINUOUS
 62
     7
100
AcDbVertex
100
AcDb2dVertex
 10
7.4739167873
 20
7.6713232198
 30
0.0
  0
VERTEX
  5
35D
330
1CA
100
AcDbEntity
  8
0
  6
CONTINUOUS
 62
     7
100
AcDbVertex
100
AcDb2dVertex
 10
7.4482210978
 20
7.6461382213
 30
0.0
  0
VERTEX
  5
35E
330
1CA
100
AcDbEntity
  8
0
  6
CONTINUOUS
 62
     7
100
AcDbVertex
100
AcDb2dVertex
 10
7.4229941133
 20
7.6197862591
 30
0.0
  0
VERTEX
  5
35F
330
1CA
100
AcDbEntity
  8
0
  6
CONTINUOUS
 62
     7
100
AcDbVertex
100
AcDb2dVertex
 10
7.3982961033
 20
7.5923302906
 30
0.0
  0
VERTEX
  5
360
330
1CA
100
AcDbEntity
  8
0
  6
CONTINUOUS
 62
     7
100
AcDbVertex
100
AcDb2dVertex
 10
7.3741860736
 20
7.5638359105
 30
0.0
  0
VERTEX
  5
361
330
1CA
100
AcDbEntity
  8
0
  6
CONTINUOUS
 62
     7
100
AcDbVertex
100
AcDb2dVertex
 10
7.3507216253
 20
7.5343711947
 30
0.0
  0
VERTEX
  5
362
330
1CA
100
AcDbEntity
  8
0
  6
CONTINUOUS
 62
     7
100
AcDbVertex
100
AcDb2dVertex
 10
7.3279588172
 20
7.5040065369
 30
0.0
  0
VERTEX
  5
363
330
1CA
100
AcDbEntity
  8
0
  6
CONTINUOUS
 62
     7
100
AcDbVertex
100
AcDb2dVertex
 10
7.3059520317
 20
7.4728144812
 30
0.0
  0
VERTEX
  5
364
330
1CA
100
AcDbEntity
  8
0
  6
CONTINUOUS
 62
     7
100
AcDbVertex
100
AcDb2dVertex
 10
7.2847538451
 20
7.4408695482
 30
0.0
  0
VERTEX
  5
365
330
1CA
100
AcDbEntity
  8
0
  6
CONTINUOUS
 62
     7
100
AcDbVertex
100
AcDb2dVertex
 10
7.2644149018
 20
7.4082480575
 30
0.0
  0
VERTEX
  5
366
330
1CA
100
AcDbEntity
  8
0
  6
CONTINUOUS
 62
     7
100
AcDbVertex
100
AcDb2dVertex
 10
7.2449837933
 20
7.3750279447
 30
0.0
  0
VERTEX
  5
367
330
1CA
100
AcDbEntity
  8
0
  6
CONTINUOUS
 62
     7
100
AcDbVertex
100
AcDb2dVertex
 10
7.2265069425
 20
7.3412885758
 30
0.0
  0
VERTEX
  5
368
330
1CA
100
AcDbEntity
  8
0
  6
CONTINUOUS
 62
     7
100
AcDbVertex
100
AcDb2dVertex
 10
7.2090284922
 20
7.3071105572
 30
0.0
  0
VERTEX
  5
369
330
1CA
100
AcDbEntity
  8
0
  6
CONTINUOUS
 62
     7
100
AcDbVertex
100
AcDb2dVertex
 10
7.1925902001
 20
7.2725755433
 30
0.0
  0
VERTEX
  5
36A
330
1CA
100
AcDbEntity
  8
0
  6
CONTINUOUS
 62
     7
100
AcDbVertex
100
AcDb2dVertex
 10
7.1772313388
 20
7.2377660416
 30
0.0
  0
VERTEX
  5
36B
330
1CA
100
AcDbEntity
  8
0
  6
CONTINUOUS
 62
     7
100
AcDbVertex
100
AcDb2dVertex
 10
7.1629886019
 20
7.2027652152
 30
0.0
  0
VERTEX
  5
36C
330
1CA
100
AcDbEntity
  8
0
  6
CONTINUOUS
 62
     7
100
AcDbVertex
100
AcDb2dVertex
 10
7.1498960167
 20
7.1676566841
 30
0.0
  0
VERTEX
  5
36D
330
1CA
100
AcDbEntity
  8
0
  6
CONTINUOUS
 62
     7
100
AcDbVertex
100
AcDb2dVertex
 10
7.1379848627
 20
7.1325243261
 30
0.0
  0
VERTEX
  5
36E
330
1CA
100
AcDbEntity
  8
0
  6
CONTINUOUS
 62
     7
100
AcDbVertex
100
AcDb2dVertex
 10
7.1272835966
 20
7.0974520755
 30
0.0
  0
VERTEX
  5
36F
330
1CA
100
AcDbEntity
  8
0
  6
CONTINUOUS
 62
     7
100
AcDbVertex
100
AcDb2dVertex
 10
7.1178177848
 20
7.0625237231
 30
0.0
  0
VERTEX
  5
370
330
1CA
100
AcDbEntity
  8
0
  6
CONTINUOUS
 62
     7
100
AcDbVertex
100
AcDb2dVertex
 10
7.109610042
 20
7.0278227161
 30
0.0
  0
VERTEX
  5
371
330
1CA
100
AcDbEntity
  8
0
  6
CONTINUOUS
 62
     7
100
AcDbVertex
100
AcDb2dVertex
 10
7.1026799772
 20
6.9934319584
 30
0.0
  0
VERTEX
  5
372
330
1CA
100
AcDbEntity
  8
0
  6
CONTINUOUS
 62
     7
100
AcDbVertex
100
AcDb2dVertex
 10
7.097044147
 20
6.9594336126
 30
0.0
  0
VERTEX
  5
373
330
1CA
100
AcDbEntity
  8
0
  6
CONTINUOUS
 62
     7
100
AcDbVertex
100
AcDb2dVertex
 10
7.0927160159
 20
6.925908904
 30
0.0
  0
VERTEX
  5
374
330
1CA
100
AcDbEntity
  8
0
  6
CONTINUOUS
 62
     7
100
AcDbVertex
100
AcDb2dVertex
 10
7.0897059242
 20
6.8929379261
 30
0.0
  0
VERTEX
  5
375
330
1CA
100
AcDbEntity
  8
0
  6
CONTINUOUS
 62
     7
100
AcDbVertex
100
AcDb2dVertex
 10
7.0880210633
 20
6.8605994497
 30
0.0
  0
SEQEND
  5
376
330
1CA
100
AcDbEntity
  8
0
  6
CONTINUOUS
 62
     7
  0
LINE
  5
1CB
330
1F
100
AcDbEntity
  8
0
  6
CONTINUOUS
 62
     7
100
AcDbLine
 10
7.0880210633
 20
6.8123785356
 30
0.0
 11
8.1458973501
 21
6.2016795543
 31
0.0
  0
SPLINE
  5
1CC
330
1F
100
AcDbEntity
  8
0
  6
CONTINUOUS
 62
     7
100
AcDbSpline
210
0.0
220
0.0
230
1.0
 70
     8
 71
     3
 72
    12
 73
     8
 74
     0
 42
0.00000001
 43
0.00000001
 40
0.0
 40
0.0
 40
0.0
 40
0.0
 40
0.1843448186906201
 40
0.3698714007175029
 40
0.5550184139650438
 40
0.8370210231127723
 40
1.0
 40
1.0
 40
1.0
 40
1.0
 10
7.366891337549509
 20
7.082645581868486
 30
0.0
 10
7.363803249019386
 20
7.088563856857722
 30
0.0
 10
7.357607275417909
 20
7.100438346608225
 30
0.0
 10
7.351280044454143
 20
7.120298207322686
 30
0.0
 10
7.346033443370602
 20
7.144447580458779
 30
0.0
 10
7.342980719445523
 20
7.168462698492181
 30
0.0
 10
7.343134379551034
 20
7.185647609884554
 30
0.0
 10
7.343190659108595
 20
7.191941756349317
 30
0.0
  0
SPLINE
  5
1CD
330
1F
100
AcDbEntity
  8
0
  6
CONTINUOUS
 62
     7
100
AcDbSpline
210
0.0
220
0.0
230
1.0
 70
     8
 71
     3
 72
    39
 73
    35
 74
     0
 42
0.00000001
 43
0.00000001
 40
0.0
 40
0.0
 40
0.0
 40
0.0
 40
0.0222251436836184
 40
0.0538091398974483
 40
0.085282066391437
 40
0.1231186273246583
 40
0.1609200418891917
 40
0.1863266170051841
 40
0.2118334836245656
 40
0.2372148709693699
 40
0.269789082789712
 40
0.3023521654481298
 40
0.33170772938603
 40
0.3610614812620733
 40
0.3893909657023742
 40
0.4177229549086742
 40
0.4461136259961963
 40
0.474511364668964
 40
0.5039340115917168
 40
0.5333694427625963
 40
0.5652728227359973
 40
0.5971950454092868
 40
0.6337959764962141
 40
0.6704213320268906
 40
0.7071066111708568
 40
0.7439247135715844
 40
0.7806497980834558
 40
0.8179573442439021
 40
0.85535539672121
 40
0.8926444980946115
 40
0.9281302400724696
 40
0.9635556592156326
 40
0.9817864057405636
 40
1.0
 40
1.0
 40
1.0
 40
1.0
 10
7.379210859849241
 20
7.346497729456038
 30
0.0
 10
7.382399041668434
 20
7.352811708443122
 30
0.0
 10
7.390117926368107
 20
7.368098438799603
 30
0.0
 10
7.405380109775948
 20
7.390695488411463
 30
0.0
 10
7.425864896520748
 20
7.415608713240142
 30
0.0
 10
7.45103125557548
 20
7.438980860213342
 30
0.0
 10
7.477725707049085
 20
7.457258854305839
 30
0.0
 10
7.50295544058192
 20
7.469702697614855
 30
0.0
 10
7.525508576016732
 20
7.477783038030512
 30
0.0
 10
7.550682102879904
 20
7.483528925530534
 30
0.0
 10
7.577957777184806
 20
7.485528254448398
 30
0.0
 10
7.60531814570516
 20
7.482838859308164
 30
0.0
 10
7.629606666963605
 20
7.475739308664797
 30
0.0
 10
7.650206312750496
 20
7.465307919376253
 30
0.0
 10
7.667297546220351
 20
7.451616394336986
 30
0.0
 10
7.680743958779129
 20
7.435283462556573
 30
0.0
 10
7.690283017252256
 20
7.416453494786265
 30
0.0
 10
7.696045926112283
 20
7.395422111847778
 30
0.0
 10
7.697765176814849
 20
7.372534161165485
 30
0.0
 10
7.695642756764265
 20
7.347635712188807
 30
0.0
 10
7.689566379597559
 20
7.321354092470781
 30
0.0
 10
7.679427644362494
 20
7.292867692944834
 30
0.0
 10
7.665404182633615
 20
7.26328010791439
 30
0.0
 10
7.647861481550668
 20
7.233113474353231
 30
0.0
 10
7.628088959037423
 20
7.203944365462996
 30
0.0
 10
7.606642759875647
 20
7.176059994400894
 30
0.0
 10
7.583801741477949
 20
7.149537564454705
 30
0.0
 10
7.559914264432044
 20
7.124553655554512
 30
0.0
 10
7.535050128932794
 20
7.101475421152285
 30
0.0
 10
7.509793379146051
 20
7.081229067942042
 30
0.0
 10
7.48431057589381
 20
7.06413321487827
 30
0.0
 10
7.462546404662402
 20
7.053467050777722
 30
0.0
 10
7.444621260002926
 20
7.047583825459301
 30
0.0
 10
7.435416266393689
 20
7.046356213793667
 30
0.0
 10
7.430815935720917
 20
7.045742696844126
 30
0.0
  0
LINE
  5
1CE
330
1F
100
AcDbEntity
  8
0
  6
CONTINUOUS
 62
     7
100
AcDbLine
 10
9.0085100678
 20
6.6675132249
 30
0.0
 11
9.0085100678
 21
6.715734139
 31
0.0
  0
LINE
  5
1CF
330
1F
100
AcDbEntity
  8
0
  6
CONTINUOUS
 62
     7
100
AcDbLine
 10
9.0085100678
 20
6.715734139
 30
0.0
 11
8.923871765
 21
6.6668734868
 31
0.0
  0
POLYLINE
  5
1D0
330
1F
100
AcDbEntity
  8
0
  6
CONTINUOUS
 62
     7
100
AcDb2dPolyline
 66
     1
 10
0.0
 20
0.0
 30
0.0
  0
VERTEX
  5
377
330
1D0
100
AcDbEntity
  8
0
  6
CONTINUOUS
 62
     7
100
AcDbVertex
100
AcDb2dVertex
 10
8.5363713775
 20
6.4431742747
 30
0.0
  0
VERTEX
  5
378
330
1D0
100
AcDbEntity
  8
0
  6
CONTINUOUS
 62
     7
100
AcDbVertex
100
AcDb2dVertex
 10
8.5387924485
 20
6.4631758876
 30
0.0
  0
VERTEX
  5
379
330
1D0
100
AcDbEntity
  8
0
  6
CONTINUOUS
 62
     7
100
AcDbVertex
100
AcDb2dVertex
 10
8.5425507495
 20
6.483650929
 30
0.0
  0
VERTEX
  5
37A
330
1D0
100
AcDbEntity
  8
0
  6
CONTINUOUS
 62
     7
100
AcDbVertex
100
AcDb2dVertex
 10
8.5476200131
 20
6.5044562957
 30
0.0
  0
VERTEX
  5
37B
330
1D0
100
AcDbEntity
  8
0
  6
CONTINUOUS
 62
     7
100
AcDbVertex
100
AcDb2dVertex
 10
8.5539648094
 20
6.5254465754
 30
0.0
  0
VERTEX
  5
37C
330
1D0
100
AcDbEntity
  8
0
  6
CONTINUOUS
 62
     7
100
AcDbVertex
100
AcDb2dVertex
 10
8.5615407937
 20
6.5464750638
 30
0.0
  0
VERTEX
  5
37D
330
1D0
100
AcDbEntity
  8
0
  6
CONTINUOUS
 62
     7
100
AcDbVertex
100
AcDb2dVertex
 10
8.5702950162
 20
6.5673947895
 30
0.0
  0
VERTEX
  5
37E
330
1D0
100
AcDbEntity
  8
0
  6
CONTINUOUS
 62
     7
100
AcDbVertex
100
AcDb2dVertex
 10
8.5801662922
 20
6.5880595409
 30
0.0
  0
VERTEX
  5
37F
330
1D0
100
AcDbEntity
  8
0
  6
CONTINUOUS
 62
     7
100
AcDbVertex
100
AcDb2dVertex
 10
8.5910856297
 20
6.608324889
 30
0.0
  0
VERTEX
  5
380
330
1D0
100
AcDbEntity
  8
0
  6
CONTINUOUS
 62
     7
100
AcDbVertex
100
AcDb2dVertex
 10
8.6029767118
 20
6.6280491959
 30
0.0
  0
VERTEX
  5
381
330
1D0
100
AcDbEntity
  8
0
  6
CONTINUOUS
 62
     7
100
AcDbVertex
100
AcDb2dVertex
 10
8.6157564298
 20
6.6470946053
 30
0.0
  0
VERTEX
  5
382
330
1D0
100
AcDbEntity
  8
0
  6
CONTINUOUS
 62
     7
100
AcDbVertex
100
AcDb2dVertex
 10
8.6293354641
 20
6.6653280057
 30
0.0
  0
VERTEX
  5
383
330
1D0
100
AcDbEntity
  8
0
  6
CONTINUOUS
 62
     7
100
AcDbVertex
100
AcDb2dVertex
 10
8.6436189088
 20
6.682621961
 30
0.0
  0
VERTEX
  5
384
330
1D0
100
AcDbEntity
  8
0
  6
CONTINUOUS
 62
     7
100
AcDbVertex
100
AcDb2dVertex
 10
8.6585069345
 20
6.6988556008
 30
0.0
  0
VERTEX
  5
385
330
1D0
100
AcDbEntity
  8
0
  6
CONTINUOUS
 62
     7
100
AcDbVertex
100
AcDb2dVertex
 10
8.6738954864
 20
6.7139154659
 30
0.0
  0
VERTEX
  5
386
330
1D0
100
AcDbEntity
  8
0
  6
CONTINUOUS
 62
     7
100
AcDbVertex
100
AcDb2dVertex
 10
8.6896770114
 20
6.7276963002
 30
0.0
  0
VERTEX
  5
387
330
1D0
100
AcDbEntity
  8
0
  6
CONTINUOUS
 62
     7
100
AcDbVertex
100
AcDb2dVertex
 10
8.70574121
 20
6.7401017873
 30
0.0
  0
VERTEX
  5
388
330
1D0
100
AcDbEntity
  8
0
  6
CONTINUOUS
 62
     7
100
AcDbVertex
100
AcDb2dVertex
 10
8.7219758068
 20
6.7510452233
 30
0.0
  0
VERTEX
  5
389
330
1D0
100
AcDbEntity
  8
0
  6
CONTINUOUS
 62
     7
100
AcDbVertex
100
AcDb2dVertex
 10
8.7382673357
 20
6.7604501227
 30
0.0
  0
VERTEX
  5
38A
330
1D0
100
AcDbEntity
  8
0
  6
CONTINUOUS
 62
     7
100
AcDbVertex
100
AcDb2dVertex
 10
8.7545019326
 20
6.7682507533
 30
0.0
  0
VERTEX
  5
38B
330
1D0
100
AcDbEntity
  8
0
  6
CONTINUOUS
 62
     7
100
AcDbVertex
100
AcDb2dVertex
 10
8.7705661312
 20
6.774392595
 30
0.0
  0
VERTEX
  5
38C
330
1D0
100
AcDbEntity
  8
0
  6
CONTINUOUS
 62
     7
100
AcDbVertex
100
AcDb2dVertex
 10
8.7863476562
 20
6.7788327217
 30
0.0
  0
VERTEX
  5
38D
330
1D0
100
AcDbEntity
  8
0
  6
CONTINUOUS
 62
     7
100
AcDbVertex
100
AcDb2dVertex
 10
8.8017362081
 20
6.7815401005
 30
0.0
  0
VERTEX
  5
38E
330
1D0
100
AcDbEntity
  8
0
  6
CONTINUOUS
 62
     7
100
AcDbVertex
100
AcDb2dVertex
 10
8.8166242338
 20
6.7824958092
 30
0.0
  0
VERTEX
  5
38F
330
1D0
100
AcDbEntity
  8
0
  6
CONTINUOUS
 62
     7
100
AcDbVertex
100
AcDb2dVertex
 10
8.8309076784
 20
6.7816931681
 30
0.0
  0
VERTEX
  5
390
330
1D0
100
AcDbEntity
  8
0
  6
CONTINUOUS
 62
     7
100
AcDbVertex
100
AcDb2dVertex
 10
8.8444867128
 20
6.779137787
 30
0.0
  0
VERTEX
  5
391
330
1D0
100
AcDbEntity
  8
0
  6
CONTINUOUS
 62
     7
100
AcDbVertex
100
AcDb2dVertex
 10
8.8572664307
 20
6.774847526
 30
0.0
  0
VERTEX
  5
392
330
1D0
100
AcDbEntity
  8
0
  6
CONTINUOUS
 62
     7
100
AcDbVertex
100
AcDb2dVertex
 10
8.8691575128
 20
6.7688523702
 30
0.0
  0
VERTEX
  5
393
330
1D0
100
AcDbEntity
  8
0
  6
CONTINUOUS
 62
     7
100
AcDbVertex
100
AcDb2dVertex
 10
8.8800768504
 20
6.7611942209
 30
0.0
  0
VERTEX
  5
394
330
1D0
100
AcDbEntity
  8
0
  6
CONTINUOUS
 62
     7
100
AcDbVertex
100
AcDb2dVertex
 10
8.8899481264
 20
6.7519266021
 30
0.0
  0
VERTEX
  5
395
330
1D0
100
AcDbEntity
  8
0
  6
CONTINUOUS
 62
     7
100
AcDbVertex
100
AcDb2dVertex
 10
8.8987023488
 20
6.7411142866
 30
0.0
  0
VERTEX
  5
396
330
1D0
100
AcDbEntity
  8
0
  6
CONTINUOUS
 62
     7
100
AcDbVertex
100
AcDb2dVertex
 10
8.9062783331
 20
6.7288328434
 30
0.0
  0
VERTEX
  5
397
330
1D0
100
AcDbEntity
  8
0
  6
CONTINUOUS
 62
     7
100
AcDbVertex
100
AcDb2dVertex
 10
8.9126231295
 20
6.7151681097
 30
0.0
  0
VERTEX
  5
398
330
1D0
100
AcDbEntity
  8
0
  6
CONTINUOUS
 62
     7
100
AcDbVertex
100
AcDb2dVertex
 10
8.9176923931
 20
6.7002155902
 30
0.0
  0
VERTEX
  5
399
330
1D0
100
AcDbEntity
  8
0
  6
CONTINUOUS
 62
     7
100
AcDbVertex
100
AcDb2dVertex
 10
8.9214506941
 20
6.6840797907
 30
0.0
  0
VERTEX
  5
39A
330
1D0
100
AcDbEntity
  8
0
  6
CONTINUOUS
 62
     7
100
AcDbVertex
100
AcDb2dVertex
 10
8.923871765
 20
6.6668734868
 30
0.0
  0
SEQEND
  5
39B
330
1D0
100
AcDbEntity
  8
0
  6
CONTINUOUS
 62
     7
  0
LINE
  5
1D1
330
1F
100
AcDbEntity
  8
0
  6
CONTINUOUS
 62
     7
100
AcDbLine
 10
8.5363713775
 20
6.4431742747
 30
0.0
 11
8.2015956768
 21
6.2499123763
 31
0.0
  0
LINE
  5
1D2
330
1F
100
AcDbEntity
  8
0
  6
CONTINUOUS
 62
     7
100
AcDbLine
 10
8.2015956768
 20
6.2016914622
 30
0.0
 11
8.5363713775
 21
6.3949533606
 31
0.0
  0
POLYLINE
  5
1D3
330
1F
100
AcDbEntity
  8
0
  6
CONTINUOUS
 62
     7
100
AcDb2dPolyline
 66
     1
 10
0.0
 20
0.0
 30
0.0
  0
VERTEX
  5
39C
330
1D3
100
AcDbEntity
  8
0
  6
CONTINUOUS
 62
     7
100
AcDbVertex
100
AcDb2dVertex
 10
8.923871765
 20
6.6186525727
 30
0.0
  0
VERTEX
  5
39D
330
1D3
100
AcDbEntity
  8
0
  6
CONTINUOUS
 62
     7
100
AcDbVertex
100
AcDb2dVertex
 10
8.9214506941
 20
6.5986509598
 30
0.0
  0
VERTEX
  5
39E
330
1D3
100
AcDbEntity
  8
0
  6
CONTINUOUS
 62
     7
100
AcDbVertex
100
AcDb2dVertex
 10
8.9176923931
 20
6.5781759184
 30
0.0
  0
VERTEX
  5
39F
330
1D3
100
AcDbEntity
  8
0
  6
CONTINUOUS
 62
     7
100
AcDbVertex
100
AcDb2dVertex
 10
8.9126231295
 20
6.5573705518
 30
0.0
  0
VERTEX
  5
3A0
330
1D3
100
AcDbEntity
  8
0
  6
CONTINUOUS
 62
     7
100
AcDbVertex
100
AcDb2dVertex
 10
8.9062783331
 20
6.536380272
 30
0.0
  0
VERTEX
  5
3A1
330
1D3
100
AcDbEntity
  8
0
  6
CONTINUOUS
 62
     7
100
AcDbVertex
100
AcDb2dVertex
 10
8.8987023488
 20
6.5153517836
 30
0.0
  0
VERTEX
  5
3A2
330
1D3
100
AcDbEntity
  8
0
  6
CONTINUOUS
 62
     7
100
AcDbVertex
100
AcDb2dVertex
 10
8.8899481264
 20
6.494432058
 30
0.0
  0
VERTEX
  5
3A3
330
1D3
100
AcDbEntity
  8
0
  6
CONTINUOUS
 62
     7
100
AcDbVertex
100
AcDb2dVertex
 10
8.8800768504
 20
6.4737673065
 30
0.0
  0
VERTEX
  5
3A4
330
1D3
100
AcDbEntity
  8
0
  6
CONTINUOUS
 62
     7
100
AcDbVertex
100
AcDb2dVertex
 10
8.8691575128
 20
6.4535019584
 30
0.0
  0
VERTEX
  5
3A5
330
1D3
100
AcDbEntity
  8
0
  6
CONTINUOUS
 62
     7
100
AcDbVertex
100
AcDb2dVertex
 10
8.8572664307
 20
6.4337776515
 30
0.0
  0
VERTEX
  5
3A6
330
1D3
100
AcDbEntity
  8
0
  6
CONTINUOUS
 62
     7
100
AcDbVertex
100
AcDb2dVertex
 10
8.8444867128
 20
6.4147322421
 30
0.0
  0
VERTEX
  5
3A7
330
1D3
100
AcDbEntity
  8
0
  6
CONTINUOUS
 62
     7
100
AcDbVertex
100
AcDb2dVertex
 10
8.8309076784
 20
6.3964988417
 30
0.0
  0
VERTEX
  5
3A8
330
1D3
100
AcDbEntity
  8
0
  6
CONTINUOUS
 62
     7
100
AcDbVertex
100
AcDb2dVertex
 10
8.8166242338
 20
6.3792048865
 30
0.0
  0
VERTEX
  5
3A9
330
1D3
100
AcDbEntity
  8
0
  6
CONTINUOUS
 62
     7
100
AcDbVertex
100
AcDb2dVertex
 10
8.8017362081
 20
6.3629712466
 30
0.0
  0
VERTEX
  5
3AA
330
1D3
100
AcDbEntity
  8
0
  6
CONTINUOUS
 62
     7
100
AcDbVertex
100
AcDb2dVertex
 10
8.7863476562
 20
6.3479113816
 30
0.0
  0
VERTEX
  5
3AB
330
1D3
100
AcDbEntity
  8
0
  6
CONTINUOUS
 62
     7
100
AcDbVertex
100
AcDb2dVertex
 10
8.7705661312
 20
6.3341305473
 30
0.0
  0
VERTEX
  5
3AC
330
1D3
100
AcDbEntity
  8
0
  6
CONTINUOUS
 62
     7
100
AcDbVertex
100
AcDb2dVertex
 10
8.7545019326
 20
6.3217250602
 30
0.0
  0
VERTEX
  5
3AD
330
1D3
100
AcDbEntity
  8
0
  6
CONTINUOUS
 62
     7
100
AcDbVertex
100
AcDb2dVertex
 10
8.7382673357
 20
6.3107816242
 30
0.0
  0
VERTEX
  5
3AE
330
1D3
100
AcDbEntity
  8
0
  6
CONTINUOUS
 62
     7
100
AcDbVertex
100
AcDb2dVertex
 10
8.7219758068
 20
6.3013767247
 30
0.0
  0
VERTEX
  5
3AF
330
1D3
100
AcDbEntity
  8
0
  6
CONTINUOUS
 62
     7
100
AcDbVertex
100
AcDb2dVertex
 10
8.70574121
 20
6.2935760942
 30
0.0
  0
VERTEX
  5
3B0
330
1D3
100
AcDbEntity
  8
0
  6
CONTINUOUS
 62
     7
100
AcDbVertex
100
AcDb2dVertex
 10
8.6896770114
 20
6.2874342524
 30
0.0
  0
VERTEX
  5
3B1
330
1D3
100
AcDbEntity
  8
0
  6
CONTINUOUS
 62
     7
100
AcDbVertex
100
AcDb2dVertex
 10
8.6738954864
 20
6.2829941257
 30
0.0
  0
VERTEX
  5
3B2
330
1D3
100
AcDbEntity
  8
0
  6
CONTINUOUS
 62
     7
100
AcDbVertex
100
AcDb2dVertex
 10
8.6585069345
 20
6.2802867469
 30
0.0
  0
VERTEX
  5
3B3
330
1D3
100
AcDbEntity
  8
0
  6
CONTINUOUS
 62
     7
100
AcDbVertex
100
AcDb2dVertex
 10
8.6436189088
 20
6.2793310382
 30
0.0
  0
VERTEX
  5
3B4
330
1D3
100
AcDbEntity
  8
0
  6
CONTINUOUS
 62
     7
100
AcDbVertex
100
AcDb2dVertex
 10
8.6293354641
 20
6.2801336793
 30
0.0
  0
VERTEX
  5
3B5
330
1D3
100
AcDbEntity
  8
0
  6
CONTINUOUS
 62
     7
100
AcDbVertex
100
AcDb2dVertex
 10
8.6157564298
 20
6.2826890604
 30
0.0
  0
VERTEX
  5
3B6
330
1D3
100
AcDbEntity
  8
0
  6
CONTINUOUS
 62
     7
100
AcDbVertex
100
AcDb2dVertex
 10
8.6029767118
 20
6.2869793215
 30
0.0
  0
VERTEX
  5
3B7
330
1D3
100
AcDbEntity
  8
0
  6
CONTINUOUS
 62
     7
100
AcDbVertex
100
AcDb2dVertex
 10
8.5910856297
 20
6.2929744772
 30
0.0
  0
VERTEX
  5
3B8
330
1D3
100
AcDbEntity
  8
0
  6
CONTINUOUS
 62
     7
100
AcDbVertex
100
AcDb2dVertex
 10
8.5801662922
 20
6.3006326265
 30
0.0
  0
VERTEX
  5
3B9
330
1D3
100
AcDbEntity
  8
0
  6
CONTINUOUS
 62
     7
100
AcDbVertex
100
AcDb2dVertex
 10
8.5702950162
 20
6.3099002454
 30
0.0
  0
VERTEX
  5
3BA
330
1D3
100
AcDbEntity
  8
0
  6
CONTINUOUS
 62
     7
100
AcDbVertex
100
AcDb2dVertex
 10
8.5615407937
 20
6.3207125609
 30
0.0
  0
VERTEX
  5
3BB
330
1D3
100
AcDbEntity
  8
0
  6
CONTINUOUS
 62
     7
100
AcDbVertex
100
AcDb2dVertex
 10
8.5539648094
 20
6.332994004
 30
0.0
  0
VERTEX
  5
3BC
330
1D3
100
AcDbEntity
  8
0
  6
CONTINUOUS
 62
     7
100
AcDbVertex
100
AcDb2dVertex
 10
8.5476200131
 20
6.3466587378
 30
0.0
  0
VERTEX
  5
3BD
330
1D3
100
AcDbEntity
  8
0
  6
CONTINUOUS
 62
     7
100
AcDbVertex
100
AcDb2dVertex
 10
8.5425507495
 20
6.3616112572
 30
0.0
  0
VERTEX
  5
3BE
330
1D3
100
AcDbEntity
  8
0
  6
CONTINUOUS
 62
     7
100
AcDbVertex
100
AcDb2dVertex
 10
8.5387924485
 20
6.3777470567
 30
0.0
  0
VERTEX
  5
3BF
330
1D3
100
AcDbEntity
  8
0
  6
CONTINUOUS
 62
     7
100
AcDbVertex
100
AcDb2dVertex
 10
8.5363713775
 20
6.3949533606
 30
0.0
  0
SEQEND
  5
3C0
330
1D3
100
AcDbEntity
  8
0
  6
CONTINUOUS
 62
     7
  0
LINE
  5
1D4
330
1F
100
AcDbEntity
  8
0
  6
CONTINUOUS
 62
     7
100
AcDbLine
 10
8.923871765
 20
6.6186525727
 30
0.0
 11
9.0085100678
 21
6.6675132249
 31
0.0
  0
SPLINE
  5
1D5
330
1F
100
AcDbEntity
  8
0
  6
CONTINUOUS
 62
     7
100
AcDbSpline
210
0.0
220
0.0
230
1.0
 70
     8
 71
     3
 72
     8
 73
     4
 74
     0
 42
0.00000001
 43
0.00000001
 40
0.0
 40
0.0
 40
0.0
 40
0.0
 40
0.0007095026026307
 40
0.0007095026026307
 40
0.0007095026026307
 40
0.0007095026026307
 10
8.536371377534746
 20
6.394953360607919
 30
0.0
 10
8.536425129856168
 20
6.405703634306037
 30
0.0
 10
8.536486391470264
 20
6.416453897636747
 30
0.0
 10
8.536559707454042
 20
6.427204132802712
 30
0.0
  0
LINE
  5
1D6
330
1F
100
AcDbEntity
  8
0
  6
CONTINUOUS
 62
     7
100
AcDbLine
 10
7.0880416906
 20
6.8445324952
 30
0.0
 11
7.0880210633
 21
6.8123785356
 31
0.0
  0
LINE
  5
1D7
330
1F
100
AcDbEntity
  8
0
  6
CONTINUOUS
 62
     7
100
AcDbLine
 10
7.0880416906
 20
6.8445324952
 30
0.0
 11
7.1019472756
 21
6.8525600185
 31
0.0
  0
LINE
  5
1D8
330
1F
100
AcDbEntity
  8
0
  6
CONTINUOUS
 62
     7
100
AcDbLine
 10
8.5226334952
 20
6.435243564
 30
0.0
 11
8.5365597075
 21
6.4272041328
 31
0.0
  0
LINE
  5
1D9
330
1F
100
AcDbEntity
  8
0
  6
CONTINUOUS
 62
     7
100
AcDbLine
 10
7.5891203571
 20
6.5713209849
 30
0.0
 11
7.6496935765
 21
6.6062891602
 31
0.0
  0
LINE
  5
1DA
330
1F
100
AcDbEntity
  8
0
  6
CONTINUOUS
 62
     7
100
AcDbLine
 10
8.4238942251
 20
7.5859223788
 30
0.0
 11
8.4238942251
 21
7.5541004246
 31
0.0
  0
ARC
  5
1DB
330
1F
100
AcDbEntity
  8
0
  6
CONTINUOUS
 62
     7
100
AcDbCircle
 10
8.7698668768
 20
6.6651495666
 30
0.0
 40
0.0981521498505088
100
AcDbArc
 50
0.9429065277
 51
123.5399946283
  0
SPLINE
  5
1DC
330
1F
100
AcDbEntity
  8
0
  6
CONTINUOUS
 62
     7
100
AcDbSpline
210
0.0
220
0.0
230
1.0
 70
     8
 71
     3
 72
     8
 73
     4
 74
     0
 42
0.00000001
 43
0.00000001
 40
0.0
 40
0.0
 40
0.0
 40
0.0
 40
0.0007095026026307
 40
0.0007095026026307
 40
0.0007095026026307
 40
0.0007095026026307
 10
8.92387176503533
 20
6.666873486828132
 30
0.0
 10
8.905249727058319
 20
6.666842456273479
 30
0.0
 10
8.886627707040134
 20
6.66680709069644
 30
0.0
 10
8.868005735810003
 20
6.666764766279904
 30
0.0
  0
LINE
  5
1DD
330
1F
100
AcDbEntity
  8
0
  6
CONTINUOUS
 62
     7
100
AcDbLine
 10
8.7231349239
 20
6.7503969058
 30
0.0
 11
8.8680057358
 21
6.6667647663
 31
0.0
  0
LINE
  5
1DE
330
1F
100
AcDbEntity
  8
0
  6
CONTINUOUS
 62
     7
100
AcDbLine
 10
8.9667450059
 20
6.691623682
 30
0.0
 11
9.0085100678
 21
6.6675132249
 31
0.0
  0
POLYLINE
  5
1DF
330
1F
100
AcDbEntity
  8
0
  6
CONTINUOUS
 62
     7
100
AcDb2dPolyline
 66
     1
 10
0.0
 20
0.0
 30
0.0
  0
VERTEX
  5
3C1
330
1DF
100
AcDbEntity
  8
0
  6
CONTINUOUS
 62
     7
100
AcDbVertex
100
AcDb2dVertex
 10
8.5365597075
 20
6.4272041328
 30
0.0
  0
VERTEX
  5
3C2
330
1DF
100
AcDbEntity
  8
0
  6
CONTINUOUS
 62
     7
100
AcDbVertex
100
AcDb2dVertex
 10
8.5391192269
 20
6.4115147626
 30
0.0
  0
VERTEX
  5
3C3
330
1DF
100
AcDbEntity
  8
0
  6
CONTINUOUS
 62
     7
100
AcDbVertex
100
AcDb2dVertex
 10
8.543009522
 20
6.396930295
 30
0.0
  0
VERTEX
  5
3C4
330
1DF
100
AcDbEntity
  8
0
  6
CONTINUOUS
 62
     7
100
AcDbVertex
100
AcDb2dVertex
 10
8.5481988635
 20
6.3835696823
 30
0.0
  0
VERTEX
  5
3C5
330
1DF
100
AcDbEntity
  8
0
  6
CONTINUOUS
 62
     7
100
AcDbVertex
100
AcDb2dVertex
 10
8.5546449264
 20
6.3715418948
 30
0.0
  0
VERTEX
  5
3C6
330
1DF
100
AcDbEntity
  8
0
  6
CONTINUOUS
 62
     7
100
AcDbVertex
100
AcDb2dVertex
 10
8.5622951361
 20
6.3609450322
 30
0.0
  0
VERTEX
  5
3C7
330
1DF
100
AcDbEntity
  8
0
  6
CONTINUOUS
 62
     7
100
AcDbVertex
100
AcDb2dVertex
 10
8.5710870969
 20
6.3518655234
 30
0.0
  0
VERTEX
  5
3C8
330
1DF
100
AcDbEntity
  8
0
  6
CONTINUOUS
 62
     7
100
AcDbVertex
100
AcDb2dVertex
 10
8.5809491007
 20
6.3443774218
 30
0.0
  0
VERTEX
  5
3C9
330
1DF
100
AcDbEntity
  8
0
  6
CONTINUOUS
 62
     7
100
AcDbVertex
100
AcDb2dVertex
 10
8.5918007122
 20
6.3385418008
 30
0.0
  0
VERTEX
  5
3CA
330
1DF
100
AcDbEntity
  8
0
  6
CONTINUOUS
 62
     7
100
AcDbVertex
100
AcDb2dVertex
 10
8.6035534247
 20
6.3344062564
 30
0.0
  0
VERTEX
  5
3CB
330
1DF
100
AcDbEntity
  8
0
  6
CONTINUOUS
 62
     7
100
AcDbVertex
100
AcDb2dVertex
 10
8.6161113819
 20
6.3320045185
 30
0.0
  0
VERTEX
  5
3CC
330
1DF
100
AcDbEntity
  8
0
  6
CONTINUOUS
 62
     7
100
AcDbVertex
100
AcDb2dVertex
 10
8.6293721603
 20
6.3313561757
 30
0.0
  0
VERTEX
  5
3CD
330
1DF
100
AcDbEntity
  8
0
  6
CONTINUOUS
 62
     7
100
AcDbVertex
100
AcDb2dVertex
 10
8.6432276035
 20
6.3324665161
 30
0.0
  0
VERTEX
  5
3CE
330
1DF
100
AcDbEntity
  8
0
  6
CONTINUOUS
 62
     7
100
AcDbVertex
100
AcDb2dVertex
 10
8.6575647055
 20
6.3353264836
 30
0.0
  0
VERTEX
  5
3CF
330
1DF
100
AcDbEntity
  8
0
  6
CONTINUOUS
 62
     7
100
AcDbVertex
100
AcDb2dVertex
 10
8.6722665316
 20
6.3399127521
 30
0.0
  0
VERTEX
  5
3D0
330
1DF
100
AcDbEntity
  8
0
  6
CONTINUOUS
 62
     7
100
AcDbVertex
100
AcDb2dVertex
 10
8.6872131723
 20
6.3461879156
 30
0.0
  0
VERTEX
  5
3D1
330
1DF
100
AcDbEntity
  8
0
  6
CONTINUOUS
 62
     7
100
AcDbVertex
100
AcDb2dVertex
 10
8.7022827216
 20
6.3541007932
 30
0.0
  0
VERTEX
  5
3D2
330
1DF
100
AcDbEntity
  8
0
  6
CONTINUOUS
 62
     7
100
AcDbVertex
100
AcDb2dVertex
 10
8.7173522709
 20
6.3635868469
 30
0.0
  0
VERTEX
  5
3D3
330
1DF
100
AcDbEntity
  8
0
  6
CONTINUOUS
 62
     7
100
AcDbVertex
100
AcDb2dVertex
 10
8.7322989117
 20
6.3745687075
 30
0.0
  0
VERTEX
  5
3D4
330
1DF
100
AcDbEntity
  8
0
  6
CONTINUOUS
 62
     7
100
AcDbVertex
100
AcDb2dVertex
 10
8.7470007378
 20
6.3869568061
 30
0.0
  0
VERTEX
  5
3D5
330
1DF
100
AcDbEntity
  8
0
  6
CONTINUOUS
 62
     7
100
AcDbVertex
100
AcDb2dVertex
 10
8.7613378397
 20
6.4006501042
 30
0.0
  0
VERTEX
  5
3D6
330
1DF
100
AcDbEntity
  8
0
  6
CONTINUOUS
 62
     7
100
AcDbVertex
100
AcDb2dVertex
 10
8.775193283
 20
6.415536918
 30
0.0
  0
VERTEX
  5
3D7
330
1DF
100
AcDbEntity
  8
0
  6
CONTINUOUS
 62
     7
100
AcDbVertex
100
AcDb2dVertex
 10
8.7884540613
 20
6.4314958295
 30
0.0
  0
VERTEX
  5
3D8
330
1DF
100
AcDbEntity
  8
0
  6
CONTINUOUS
 62
     7
100
AcDbVertex
100
AcDb2dVertex
 10
8.8010120186
 20
6.4483966764
 30
0.0
  0
VERTEX
  5
3D9
330
1DF
100
AcDbEntity
  8
0
  6
CONTINUOUS
 62
     7
100
AcDbVertex
100
AcDb2dVertex
 10
8.8127647311
 20
6.4661016137
 30
0.0
  0
VERTEX
  5
3DA
330
1DF
100
AcDbEntity
  8
0
  6
CONTINUOUS
 62
     7
100
AcDbVertex
100
AcDb2dVertex
 10
8.8236163426
 20
6.4844662386
 30
0.0
  0
VERTEX
  5
3DB
330
1DF
100
AcDbEntity
  8
0
  6
CONTINUOUS
 62
     7
100
AcDbVertex
100
AcDb2dVertex
 10
8.8334783464
 20
6.5033407675
 30
0.0
  0
VERTEX
  5
3DC
330
1DF
100
AcDbEntity
  8
0
  6
CONTINUOUS
 62
     7
100
AcDbVertex
100
AcDb2dVertex
 10
8.8422703072
 20
6.5225712581
 30
0.0
  0
VERTEX
  5
3DD
330
1DF
100
AcDbEntity
  8
0
  6
CONTINUOUS
 62
     7
100
AcDbVertex
100
AcDb2dVertex
 10
8.8499205169
 20
6.5420008649
 30
0.0
  0
VERTEX
  5
3DE
330
1DF
100
AcDbEntity
  8
0
  6
CONTINUOUS
 62
     7
100
AcDbVertex
100
AcDb2dVertex
 10
8.8563665798
 20
6.5614711182
 30
0.0
  0
VERTEX
  5
3DF
330
1DF
100
AcDbEntity
  8
0
  6
CONTINUOUS
 62
     7
100
AcDbVertex
100
AcDb2dVertex
 10
8.8615559212
 20
6.580823217
 30
0.0
  0
VERTEX
  5
3E0
330
1DF
100
AcDbEntity
  8
0
  6
CONTINUOUS
 62
     7
100
AcDbVertex
100
AcDb2dVertex
 10
8.8654462164
 20
6.5998993238
 30
0.0
  0
VERTEX
  5
3E1
330
1DF
100
AcDbEntity
  8
0
  6
CONTINUOUS
 62
     7
100
AcDbVertex
100
AcDb2dVertex
 10
8.8680057358
 20
6.6185438522
 30
0.0
  0
SEQEND
  5
3E2
330
1DF
100
AcDbEntity
  8
0
  6
CONTINUOUS
 62
     7
  0
SPLINE
  5
1E0
330
1F
100
AcDbEntity
  8
0
  6
CONTINUOUS
 62
     7
100
AcDbSpline
210
0.0
220
0.0
230
1.0
 70
     8
 71
     3
 72
     8
 73
     4
 74
     0
 42
0.00000001
 43
0.00000001
 40
0.0
 40
0.0
 40
0.0
 40
0.0
 40
0.0007095026026307
 40
0.0007095026026307
 40
0.0007095026026307
 40
0.0007095026026307
 10
8.868005735810003
 20
6.618543852192164
 30
0.0
 10
8.886627707040134
 20
6.618586176608698
 30
0.0
 10
8.905249727058319
 20
6.618621542185739
 30
0.0
 10
8.92387176503533
 20
6.618652572740391
 30
0.0
  0
LINE
  5
1E1
330
1F
100
AcDbEntity
  8
0
  6
CONTINUOUS
 62
     7
100
AcDbLine
 10
8.8680057358
 20
6.6185438522
 30
0.0
 11
8.6852869928
 21
6.7240251373
 31
0.0
  0
LINE
  5
1E2
330
1F
100
AcDbEntity
  8
0
  6
CONTINUOUS
 62
     7
100
AcDbLine
 10
7.0880210633
 20
6.8605994497
 30
0.0
 11
7.0880416906
 21
6.8927534093
 31
0.0
  0
ARC
  5
1E3
330
1F
100
AcDbEntity
  8
0
  6
CONTINUOUS
 62
     7
100
AcDbCircle
 10
8.2388293225
 20
6.8132590932
 30
0.0
 40
1.153530025568358
100
AcDbArc
 50
122.6506851102
 51
176.0483892306
  0
LINE
  5
1E4
330
1F
100
AcDbEntity
  8
0
  6
CONTINUOUS
 62
     7
100
AcDbLine
 10
7.9274329524
 20
6.941291523
 30
0.0
 11
7.9274381471
 21
6.9420747276
 31
0.0
  0
ARC
  5
1E5
330
1F
100
AcDbEntity
  8
0
  6
CONTINUOUS
 62
     7
100
AcDbCircle
 10
8.0789228428
 20
6.8996440129
 30
0.0
 40
0.2016490552135414
100
AcDbArc
 50
240.4011604728
 51
251.6476847155
  0
ARC
  5
1E6
330
1F
100
AcDbEntity
  8
0
  6
CONTINUOUS
 62
     7
100
AcDbCircle
 10
8.0443738011
 20
6.8399842366
 30
0.0
 40
0.1327112133555195
100
AcDbArc
 50
224.6344905328
 51
240.6486095824
  0
LINE
  5
1E7
330
1F
100
AcDbEntity
  8
0
  6
CONTINUOUS
 62
     7
100
AcDbLine
 10
8.1688893761
 20
6.9944796053
 30
0.0
 11
8.0810661421
 21
7.0080644348
 31
0.0
  0
LINE
  5
1E8
330
1F
100
AcDbEntity
  8
0
  6
CONTINUOUS
 62
     7
100
AcDbLine
 10
8.0810661421
 20
7.0080644348
 30
0.0
 11
8.0167750727
 21
6.9709499905
 31
0.0
  0
LINE
  5
1E9
330
1F
100
AcDbEntity
  8
0
  6
CONTINUOUS
 62
     7
100
AcDbLine
 10
8.0167750727
 20
6.9709499905
 30
0.0
 11
8.0403072374
 21
6.9202507167
 31
0.0
  0
LINE
  5
1EA
330
1F
100
AcDbEntity
  8
0
  6
CONTINUOUS
 62
     7
100
AcDbLine
 10
8.0403072374
 20
6.9202507167
 30
0.0
 11
8.1281304714
 21
6.9066658872
 31
0.0
  0
LINE
  5
1EB
330
1F
100
AcDbEntity
  8
0
  6
CONTINUOUS
 62
     7
100
AcDbLine
 10
8.1281304714
 20
6.9066658872
 30
0.0
 11
8.1924215407
 21
6.9437803315
 31
0.0
  0
LINE
  5
1EC
330
1F
100
AcDbEntity
  8
0
  6
CONTINUOUS
 62
     7
100
AcDbLine
 10
8.1924215407
 20
6.9437803315
 30
0.0
 11
8.1688893761
 21
6.9944796053
 31
0.0
  0
LINE
  5
1ED
330
1F
100
AcDbEntity
  8
0
  6
CONTINUOUS
 62
     7
100
AcDbLine
 10
8.1688893761
 20
6.930195502
 30
0.0
 11
8.1688893761
 21
6.9944796053
 31
0.0
  0
LINE
  5
1EE
330
1F
100
AcDbEntity
  8
0
  6
CONTINUOUS
 62
     7
100
AcDbLine
 10
8.0810661421
 20
6.9139459753
 30
0.0
 11
8.0810661421
 21
7.0080644348
 31
0.0
  0
ARC
  5
1EF
330
1F
100
AcDbEntity
  8
0
  6
CONTINUOUS
 62
     7
100
AcDbCircle
 10
7.4596979823
 20
7.1773867703
 30
0.0
 40
0.1326042329341724
100
AcDbArc
 50
224.5487826171
 51
240.6523462542
  0
ARC
  5
1F0
330
1F
100
AcDbEntity
  8
0
  6
CONTINUOUS
 62
     7
100
AcDbCircle
 10
7.4944719446
 20
7.237469066
 30
0.0
 40
0.2020205157820062
100
AcDbArc
 50
240.4072040043
 51
251.8417573958
  0
LINE
  5
1F1
330
1F
100
AcDbEntity
  8
0
  6
CONTINUOUS
 62
     7
100
AcDbLine
 10
7.43215923
 20
7.3084415328
 30
0.0
 11
7.4964502994
 21
7.3455559771
 31
0.0
  0
LINE
  5
1F2
330
1F
100
AcDbEntity
  8
0
  6
CONTINUOUS
 62
     7
100
AcDbLine
 10
7.4556913947
 20
7.2577422589
 30
0.0
 11
7.43215923
 21
7.3084415328
 31
0.0
  0
LINE
  5
1F3
330
1F
100
AcDbEntity
  8
0
  6
CONTINUOUS
 62
     7
100
AcDbLine
 10
7.5435146286
 20
7.2441574295
 30
0.0
 11
7.4556913947
 21
7.2577422589
 31
0.0
  0
LINE
  5
1F4
330
1F
100
AcDbEntity
  8
0
  6
CONTINUOUS
 62
     7
100
AcDbLine
 10
7.607805698
 20
7.2812718738
 30
0.0
 11
7.5435146286
 21
7.2441574295
 31
0.0
  0
LINE
  5
1F5
330
1F
100
AcDbEntity
  8
0
  6
CONTINUOUS
 62
     7
100
AcDbLine
 10
7.5842735334
 20
7.3319711476
 30
0.0
 11
7.607805698
 21
7.2812718738
 31
0.0
  0
LINE
  5
1F6
330
1F
100
AcDbEntity
  8
0
  6
CONTINUOUS
 62
     7
100
AcDbLine
 10
7.4964502994
 20
7.3455559771
 30
0.0
 11
7.5842735334
 21
7.3319711476
 31
0.0
  0
LINE
  5
1F7
330
1F
100
AcDbEntity
  8
0
  6
CONTINUOUS
 62
     7
100
AcDbLine
 10
7.5842735334
 20
7.2676870443
 30
0.0
 11
7.5842735334
 21
7.3319711476
 31
0.0
  0
LINE
  5
1F8
330
1F
100
AcDbEntity
  8
0
  6
CONTINUOUS
 62
     7
100
AcDbLine
 10
7.4964502994
 20
7.2514375176
 30
0.0
 11
7.4964502994
 21
7.3455559771
 31
0.0
  0
ARC
  5
1F9
330
1F
100
AcDbEntity
  8
0
  6
CONTINUOUS
 62
     8
100
AcDbCircle
 10
8.1025343508
 20
7.0860041864
 30
0.0
 40
0.2217294591339009
100
AcDbArc
 50
240.4683362567
 51
309.8770415829
  0
POLYLINE
  5
1FA
330
1F
100
AcDbEntity
  8
0
  6
CONTINUOUS
 62
     8
100
AcDb2dPolyline
 66
     1
 10
0.0
 20
0.0
 30
0.0
  0
VERTEX
  5
3E3
330
1FA
100
AcDbEntity
  8
0
  6
CONTINUOUS
 62
     8
100
AcDbVertex
100
AcDb2dVertex
 10
8.2615385767
 20
6.9498426507
 30
0.0
  0
VERTEX
  5
3E4
330
1FA
100
AcDbEntity
  8
0
  6
CONTINUOUS
 62
     8
100
AcDbVertex
100
AcDb2dVertex
 10
8.2619440955
 20
6.9536082476
 30
0.0
  0
VERTEX
  5
3E5
330
1FA
100
AcDbEntity
  8
0
  6
CONTINUOUS
 62
     8
100
AcDbVertex
100
AcDb2dVertex
 10
8.2617050323
 20
6.9636235132
 30
0.0
  0
VERTEX
  5
3E6
330
1FA
100
AcDbEntity
  8
0
  6
CONTINUOUS
 62
     8
100
AcDbVertex
100
AcDb2dVertex
 10
8.2595589063
 20
6.9735628109
 30
0.0
  0
VERTEX
  5
3E7
330
1FA
100
AcDbEntity
  8
0
  6
CONTINUOUS
 62
     8
100
AcDbVertex
100
AcDb2dVertex
 10
8.2555317685
 20
6.9833054911
 30
0.0
  0
VERTEX
  5
3E8
330
1FA
100
AcDbEntity
  8
0
  6
CONTINUOUS
 62
     8
100
AcDbVertex
100
AcDb2dVertex
 10
8.249672503
 20
6.9927332908
 30
0.0
  0
VERTEX
  5
3E9
330
1FA
100
AcDbEntity
  8
0
  6
CONTINUOUS
 62
     8
100
AcDbVertex
100
AcDb2dVertex
 10
8.2420522333
 20
7.0017317693
 30
0.0
  0
VERTEX
  5
3EA
330
1FA
100
AcDbEntity
  8
0
  6
CONTINUOUS
 62
     8
100
AcDbVertex
100
AcDb2dVertex
 10
8.2327634591
 20
7.0101916973
 30
0.0
  0
VERTEX
  5
3EB
330
1FA
100
AcDbEntity
  8
0
  6
CONTINUOUS
 62
     8
100
AcDbVertex
100
AcDb2dVertex
 10
8.2219189335
 20
7.0180103827
 30
0.0
  0
VERTEX
  5
3EC
330
1FA
100
AcDbEntity
  8
0
  6
CONTINUOUS
 62
     8
100
AcDbVertex
100
AcDb2dVertex
 10
8.2096502945
 20
7.0250929172
 30
0.0
  0
VERTEX
  5
3ED
330
1FA
100
AcDbEntity
  8
0
  6
CONTINUOUS
 62
     8
100
AcDbVertex
100
AcDb2dVertex
 10
8.1961064666
 20
7.0313533285
 30
0.0
  0
VERTEX
  5
3EE
330
1FA
100
AcDbEntity
  8
0
  6
CONTINUOUS
 62
     8
100
AcDbVertex
100
AcDb2dVertex
 10
8.1814518537
 20
7.0367156238
 30
0.0
  0
VERTEX
  5
3EF
330
1FA
100
AcDbEntity
  8
0
  6
CONTINUOUS
 62
     8
100
AcDbVertex
100
AcDb2dVertex
 10
8.1658643428
 20
7.0411147118
 30
0.0
  0
VERTEX
  5
3F0
330
1FA
100
AcDbEntity
  8
0
  6
CONTINUOUS
 62
     8
100
AcDbVertex
100
AcDb2dVertex
 10
8.1495331452
 20
7.0444971938
 30
0.0
  0
VERTEX
  5
3F1
330
1FA
100
AcDbEntity
  8
0
  6
CONTINUOUS
 62
     8
100
AcDbVertex
100
AcDb2dVertex
 10
8.1326564995
 20
7.046822011
 30
0.0
  0
VERTEX
  5
3F2
330
1FA
100
AcDbEntity
  8
0
  6
CONTINUOUS
 62
     8
100
AcDbVertex
100
AcDb2dVertex
 10
8.1154392654
 20
7.0480609431
 30
0.0
  0
VERTEX
  5
3F3
330
1FA
100
AcDbEntity
  8
0
  6
CONTINUOUS
 62
     8
100
AcDbVertex
100
AcDb2dVertex
 10
8.0980904368
 20
7.0481989514
 30
0.0
  0
VERTEX
  5
3F4
330
1FA
100
AcDbEntity
  8
0
  6
CONTINUOUS
 62
     8
100
AcDbVertex
100
AcDb2dVertex
 10
8.0808206048
 20
7.0472343604
 30
0.0
  0
VERTEX
  5
3F5
330
1FA
100
AcDbEntity
  8
0
  6
CONTINUOUS
 62
     8
100
AcDbVertex
100
AcDb2dVertex
 10
8.063839402
 20
7.0451788791
 30
0.0
  0
VERTEX
  5
3F6
330
1FA
100
AcDbEntity
  8
0
  6
CONTINUOUS
 62
     8
100
AcDbVertex
100
AcDb2dVertex
 10
8.047352957
 20
7.0420574583
 30
0.0
  0
VERTEX
  5
3F7
330
1FA
100
AcDbEntity
  8
0
  6
CONTINUOUS
 62
     8
100
AcDbVertex
100
AcDb2dVertex
 10
8.0315613931
 20
7.0379079877
 30
0.0
  0
VERTEX
  5
3F8
330
1FA
100
AcDbEntity
  8
0
  6
CONTINUOUS
 62
     8
100
AcDbVertex
100
AcDb2dVertex
 10
8.0166563983
 20
7.0327808362
 30
0.0
  0
VERTEX
  5
3F9
330
1FA
100
AcDbEntity
  8
0
  6
CONTINUOUS
 62
     8
100
AcDbVertex
100
AcDb2dVertex
 10
8.0028188992
 20
7.0267382407
 30
0.0
  0
VERTEX
  5
3FA
330
1FA
100
AcDbEntity
  8
0
  6
CONTINUOUS
 62
     8
100
AcDbVertex
100
AcDb2dVertex
 10
7.9902168642
 20
7.0198535499
 30
0.0
  0
VERTEX
  5
3FB
330
1FA
100
AcDbEntity
  8
0
  6
CONTINUOUS
 62
     8
100
AcDbVertex
100
AcDb2dVertex
 10
7.979003265
 20
7.0122103347
 30
0.0
  0
VERTEX
  5
3FC
330
1FA
100
AcDbEntity
  8
0
  6
CONTINUOUS
 62
     8
100
AcDbVertex
100
AcDb2dVertex
 10
7.9693142194
 20
7.0039013734
 30
0.0
  0
VERTEX
  5
3FD
330
1FA
100
AcDbEntity
  8
0
  6
CONTINUOUS
 62
     8
100
AcDbVertex
100
AcDb2dVertex
 10
7.9612673394
 20
6.9950275255
 30
0.0
  0
VERTEX
  5
3FE
330
1FA
100
AcDbEntity
  8
0
  6
CONTINUOUS
 62
     8
100
AcDbVertex
100
AcDb2dVertex
 10
7.9549603032
 20
6.9856965076
 30
0.0
  0
VERTEX
  5
3FF
330
1FA
100
AcDbEntity
  8
0
  6
CONTINUOUS
 62
     8
100
AcDbVertex
100
AcDb2dVertex
 10
7.9504696697
 20
6.9760215855
 30
0.0
  0
VERTEX
  5
400
330
1FA
100
AcDbEntity
  8
0
  6
CONTINUOUS
 62
     8
100
AcDbVertex
100
AcDb2dVertex
 10
7.947849949
 20
6.9661201996
 30
0.0
  0
VERTEX
  5
401
330
1FA
100
AcDbEntity
  8
0
  6
CONTINUOUS
 62
     8
100
AcDbVertex
100
AcDb2dVertex
 10
7.947132941
 20
6.9561125395
 30
0.0
  0
VERTEX
  5
402
330
1FA
100
AcDbEntity
  8
0
  6
CONTINUOUS
 62
     8
100
AcDbVertex
100
AcDb2dVertex
 10
7.9483273493
 20
6.9461200844
 30
0.0
  0
VERTEX
  5
403
330
1FA
100
AcDbEntity
  8
0
  6
CONTINUOUS
 62
     8
100
AcDbVertex
100
AcDb2dVertex
 10
7.9514186753
 20
6.9362641294
 30
0.0
  0
VERTEX
  5
404
330
1FA
100
AcDbEntity
  8
0
  6
CONTINUOUS
 62
     8
100
AcDbVertex
100
AcDb2dVertex
 10
7.9563693945
 20
6.9266643123
 30
0.0
  0
VERTEX
  5
405
330
1FA
100
AcDbEntity
  8
0
  6
CONTINUOUS
 62
     8
100
AcDbVertex
100
AcDb2dVertex
 10
7.963119412
 20
6.9174371619
 30
0.0
  0
VERTEX
  5
406
330
1FA
100
AcDbEntity
  8
0
  6
CONTINUOUS
 62
     8
100
AcDbVertex
100
AcDb2dVertex
 10
7.9715867915
 20
6.9086946834
 30
0.0
  0
VERTEX
  5
407
330
1FA
100
AcDbEntity
  8
0
  6
CONTINUOUS
 62
     8
100
AcDbVertex
100
AcDb2dVertex
 10
7.9816687507
 20
6.9005429985
 30
0.0
  0
VERTEX
  5
408
330
1FA
100
AcDbEntity
  8
0
  6
CONTINUOUS
 62
     8
100
AcDbVertex
100
AcDb2dVertex
 10
7.9932429081
 20
6.8930810577
 30
0.0
  0
VERTEX
  5
409
330
1FA
100
AcDbEntity
  8
0
  6
CONTINUOUS
 62
     8
100
AcDbVertex
100
AcDb2dVertex
 10
7.9932429081
 20
6.8930810577
 30
0.0
  0
SEQEND
  5
40A
330
1FA
100
AcDbEntity
  8
0
  6
CONTINUOUS
 62
     8
  0
ARC
  5
1FB
330
1F
100
AcDbEntity
  8
0
  6
CONTINUOUS
 62
     8
100
AcDbCircle
 10
8.0154187117
 20
6.949646804
 30
0.0
 40
0.0883815849051779
100
AcDbArc
 50
185.4246401015
 51
245.8955008561
  0
ARC
  5
1FC
330
1F
100
AcDbEntity
  8
0
  6
CONTINUOUS
 62
     8
100
AcDbCircle
 10
8.105462494
 20
7.114512829
 30
0.0
 40
0.2760460006774386
100
AcDbArc
 50
242.8095778317
 51
291.3750679329
  0
POLYLINE
  5
1FD
330
1F
100
AcDbEntity
  8
0
  6
CONTINUOUS
 62
     8
100
AcDb2dPolyline
 66
     1
 10
0.0
 20
0.0
 30
0.0
  0
VERTEX
  5
40B
330
1FD
100
AcDbEntity
  8
0
  6
CONTINUOUS
 62
     8
100
AcDbVertex
100
AcDb2dVertex
 10
7.4086270654
 20
7.2305726
 30
0.0
  0
VERTEX
  5
40C
330
1FD
100
AcDbEntity
  8
0
  6
CONTINUOUS
 62
     8
100
AcDbVertex
100
AcDb2dVertex
 10
7.397052908
 20
7.2380345408
 30
0.0
  0
VERTEX
  5
40D
330
1FD
100
AcDbEntity
  8
0
  6
CONTINUOUS
 62
     8
100
AcDbVertex
100
AcDb2dVertex
 10
7.3869709488
 20
7.2461862257
 30
0.0
  0
VERTEX
  5
40E
330
1FD
100
AcDbEntity
  8
0
  6
CONTINUOUS
 62
     8
100
AcDbVertex
100
AcDb2dVertex
 10
7.3785035692
 20
7.2549287042
 30
0.0
  0
VERTEX
  5
40F
330
1FD
100
AcDbEntity
  8
0
  6
CONTINUOUS
 62
     8
100
AcDbVertex
100
AcDb2dVertex
 10
7.3717535518
 20
7.2641558546
 30
0.0
  0
VERTEX
  5
410
330
1FD
100
AcDbEntity
  8
0
  6
CONTINUOUS
 62
     8
100
AcDbVertex
100
AcDb2dVertex
 10
7.3668028326
 20
7.2737556717
 30
0.0
  0
VERTEX
  5
411
330
1FD
100
AcDbEntity
  8
0
  6
CONTINUOUS
 62
     8
100
AcDbVertex
100
AcDb2dVertex
 10
7.3637115066
 20
7.2836116267
 30
0.0
  0
VERTEX
  5
412
330
1FD
100
AcDbEntity
  8
0
  6
CONTINUOUS
 62
     8
100
AcDbVertex
100
AcDb2dVertex
 10
7.3625170983
 20
7.2936040818
 30
0.0
  0
VERTEX
  5
413
330
1FD
100
AcDbEntity
  8
0
  6
CONTINUOUS
 62
     8
100
AcDbVertex
100
AcDb2dVertex
 10
7.3632341063
 20
7.3036117419
 30
0.0
  0
VERTEX
  5
414
330
1FD
100
AcDbEntity
  8
0
  6
CONTINUOUS
 62
     8
100
AcDbVertex
100
AcDb2dVertex
 10
7.365853827
 20
7.3135131277
 30
0.0
  0
VERTEX
  5
415
330
1FD
100
AcDbEntity
  8
0
  6
CONTINUOUS
 62
     8
100
AcDbVertex
100
AcDb2dVertex
 10
7.3703444605
 20
7.3231880499
 30
0.0
  0
VERTEX
  5
416
330
1FD
100
AcDbEntity
  8
0
  6
CONTINUOUS
 62
     8
100
AcDbVertex
100
AcDb2dVertex
 10
7.3766514967
 20
7.3325190678
 30
0.0
  0
VERTEX
  5
417
330
1FD
100
AcDbEntity
  8
0
  6
CONTINUOUS
 62
     8
100
AcDbVertex
100
AcDb2dVertex
 10
7.3846983767
 20
7.3413929157
 30
0.0
  0
VERTEX
  5
418
330
1FD
100
AcDbEntity
  8
0
  6
CONTINUOUS
 62
     8
100
AcDbVertex
100
AcDb2dVertex
 10
7.3943874223
 20
7.349701877
 30
0.0
  0
VERTEX
  5
419
330
1FD
100
AcDbEntity
  8
0
  6
CONTINUOUS
 62
     8
100
AcDbVertex
100
AcDb2dVertex
 10
7.4056010215
 20
7.3573450922
 30
0.0
  0
VERTEX
  5
41A
330
1FD
100
AcDbEntity
  8
0
  6
CONTINUOUS
 62
     8
100
AcDbVertex
100
AcDb2dVertex
 10
7.4182030565
 20
7.3642297829
 30
0.0
  0
VERTEX
  5
41B
330
1FD
100
AcDbEntity
  8
0
  6
CONTINUOUS
 62
     8
100
AcDbVertex
100
AcDb2dVertex
 10
7.4320405556
 20
7.3702723785
 30
0.0
  0
VERTEX
  5
41C
330
1FD
100
AcDbEntity
  8
0
  6
CONTINUOUS
 62
     8
100
AcDbVertex
100
AcDb2dVertex
 10
7.4469455504
 20
7.3753995299
 30
0.0
  0
VERTEX
  5
41D
330
1FD
100
AcDbEntity
  8
0
  6
CONTINUOUS
 62
     8
100
AcDbVertex
100
AcDb2dVertex
 10
7.4627371143
 20
7.3795490006
 30
0.0
  0
VERTEX
  5
41E
330
1FD
100
AcDbEntity
  8
0
  6
CONTINUOUS
 62
     8
100
AcDbVertex
100
AcDb2dVertex
 10
7.4792235593
 20
7.3826704214
 30
0.0
  0
VERTEX
  5
41F
330
1FD
100
AcDbEntity
  8
0
  6
CONTINUOUS
 62
     8
100
AcDbVertex
100
AcDb2dVertex
 10
7.4962047621
 20
7.3847259027
 30
0.0
  0
VERTEX
  5
420
330
1FD
100
AcDbEntity
  8
0
  6
CONTINUOUS
 62
     8
100
AcDbVertex
100
AcDb2dVertex
 10
7.5134745941
 20
7.3856904937
 30
0.0
  0
VERTEX
  5
421
330
1FD
100
AcDbEntity
  8
0
  6
CONTINUOUS
 62
     8
100
AcDbVertex
100
AcDb2dVertex
 10
7.5308234227
 20
7.3855524854
 30
0.0
  0
VERTEX
  5
422
330
1FD
100
AcDbEntity
  8
0
  6
CONTINUOUS
 62
     8
100
AcDbVertex
100
AcDb2dVertex
 10
7.5480406568
 20
7.3843135533
 30
0.0
  0
VERTEX
  5
423
330
1FD
100
AcDbEntity
  8
0
  6
CONTINUOUS
 62
     8
100
AcDbVertex
100
AcDb2dVertex
 10
7.5649173025
 20
7.3819887361
 30
0.0
  0
VERTEX
  5
424
330
1FD
100
AcDbEntity
  8
0
  6
CONTINUOUS
 62
     8
100
AcDbVertex
100
AcDb2dVertex
 10
7.5812485001
 20
7.3786062541
 30
0.0
  0
VERTEX
  5
425
330
1FD
100
AcDbEntity
  8
0
  6
CONTINUOUS
 62
     8
100
AcDbVertex
100
AcDb2dVertex
 10
7.596836011
 20
7.374207166
 30
0.0
  0
VERTEX
  5
426
330
1FD
100
AcDbEntity
  8
0
  6
CONTINUOUS
 62
     8
100
AcDbVertex
100
AcDb2dVertex
 10
7.6114906239
 20
7.3688448708
 30
0.0
  0
VERTEX
  5
427
330
1FD
100
AcDbEntity
  8
0
  6
CONTINUOUS
 62
     8
100
AcDbVertex
100
AcDb2dVertex
 10
7.6250344518
 20
7.3625844595
 30
0.0
  0
VERTEX
  5
428
330
1FD
100
AcDbEntity
  8
0
  6
CONTINUOUS
 62
     8
100
AcDbVertex
100
AcDb2dVertex
 10
7.6373030908
 20
7.3555019249
 30
0.0
  0
VERTEX
  5
429
330
1FD
100
AcDbEntity
  8
0
  6
CONTINUOUS
 62
     8
100
AcDbVertex
100
AcDb2dVertex
 10
7.6481476164
 20
7.3476832395
 30
0.0
  0
VERTEX
  5
42A
330
1FD
100
AcDbEntity
  8
0
  6
CONTINUOUS
 62
     8
100
AcDbVertex
100
AcDb2dVertex
 10
7.6574363906
 20
7.3392233116
 30
0.0
  0
VERTEX
  5
42B
330
1FD
100
AcDbEntity
  8
0
  6
CONTINUOUS
 62
     8
100
AcDbVertex
100
AcDb2dVertex
 10
7.6650566603
 20
7.3302248331
 30
0.0
  0
VERTEX
  5
42C
330
1FD
100
AcDbEntity
  8
0
  6
CONTINUOUS
 62
     8
100
AcDbVertex
100
AcDb2dVertex
 10
7.6709159258
 20
7.3207970334
 30
0.0
  0
VERTEX
  5
42D
330
1FD
100
AcDbEntity
  8
0
  6
CONTINUOUS
 62
     8
100
AcDbVertex
100
AcDb2dVertex
 10
7.6749430636
 20
7.3110543532
 30
0.0
  0
VERTEX
  5
42E
330
1FD
100
AcDbEntity
  8
0
  6
CONTINUOUS
 62
     8
100
AcDbVertex
100
AcDb2dVertex
 10
7.6770891896
 20
7.3011150555
 30
0.0
  0
VERTEX
  5
42F
330
1FD
100
AcDbEntity
  8
0
  6
CONTINUOUS
 62
     8
100
AcDbVertex
100
AcDb2dVertex
 10
7.6773282527
 20
7.2910997899
 30
0.0
  0
VERTEX
  5
430
330
1FD
100
AcDbEntity
  8
0
  6
CONTINUOUS
 62
     8
100
AcDbVertex
100
AcDb2dVertex
 10
7.6768298747
 20
7.2867142989
 30
0.0
  0
SEQEND
  5
431
330
1FD
100
AcDbEntity
  8
0
  6
CONTINUOUS
 62
     8
  0
ARC
  5
1FE
330
1F
100
AcDbEntity
  8
0
  6
CONTINUOUS
 62
     8
100
AcDbCircle
 10
7.5176859275
 20
7.4274884804
 30
0.0
 40
0.2250993100093828
100
AcDbArc
 50
241.0207912706
 51
309.0363329697
  0
ARC
  5
1FF
330
1F
100
AcDbEntity
  8
0
  6
CONTINUOUS
 62
     8
100
AcDbCircle
 10
7.5208514547
 20
7.4520341999
 30
0.0
 40
0.2760747281250484
100
AcDbArc
 50
242.8115198706
 51
291.3172494442
  0
ARC
  5
200
330
1F
100
AcDbEntity
  8
0
  6
CONTINUOUS
 62
     8
100
AcDbCircle
 10
7.4308629438
 20
7.287208055
 30
0.0
 40
0.0884697538519498
100
AcDbArc
 50
185.6141625568
 51
245.8784246213
  0
ENDSEC
  0
SECTION
  2
OBJECTS
  0
DICTIONARY
  5
C
330
0
100
AcDbDictionary
  3
ACAD_GROUP
350
D
  3
ACAD_LAYOUT
350
1A
  3
ACAD_MLEADERSTYLE
350
203
  3
ACAD_MLINESTYLE
350
17
  3
ACAD_PLOTSETTINGS
350
19
  3
ACAD_SCALELIST
350
6F
  3
ACAD_VISUALSTYLE
350
2A
  3
ACDBVARIABLEDICTIONARY
350
201
1001
ACAD
1000
TREAT_AS_HARD
1070
     0
  0
DICTIONARY
  5
D
102
{ACAD_REACTORS
330
C
102
}
330
C
100
AcDbDictionary
1001
ACAD
1000
TREAT_AS_HARD
1070
     0
  0
DICTIONARY
  5
1A
102
{ACAD_REACTORS
330
C
102
}
330
C
100
AcDbDictionary
1001
ACAD
1000
TREAT_AS_HARD
1070
     0
  0
DICTIONARY
  5
203
102
{ACAD_REACTORS
330
C
102
}
330
C
100
AcDbDictionary
1001
ACAD
1000
TREAT_AS_HARD
1070
     0
  0
DICTIONARY
  5
17
102
{ACAD_REACTORS
330
C
102
}
330
C
100
AcDbDictionary
  3
STANDARD
350
18
1001
ACAD
1000
TREAT_AS_HARD
1070
     0
  0
DICTIONARY
  5
19
102
{ACAD_REACTORS
330
C
102
}
330
C
100
AcDbDictionary
1001
ACAD
1000
TREAT_AS_HARD
1070
     0
  0
DICTIONARY
  5
6F
102
{ACAD_REACTORS
330
C
102
}
330
C
100
AcDbDictionary
  3
A0
350
70
  3
A1
350
71
  3
A2
350
72
  3
A3
350
73
  3
A4
350
74
  3
A5
350
75
  3
A6
350
76
  3
A7
350
77
  3
A8
350
78
  3
A9
350
79
  3
B0
350
7A
  3
B1
350
7B
  3
B2
350
7C
  3
B3
350
7D
  3
B4
350
7E
  3
B5
350
7F
  3
B6
350
80
  3
B7
350
81
  3
B8
350
82
  3
B9
350
83
  3
C0
350
84
  3
C1
350
85
  3
C2
350
86
  3
C3
350
87
  3
C4
350
88
  3
C5
350
89
  3
C6
350
8A
  3
C7
350
8B
  3
C8
350
8C
  3
C9
350
8D
  3
D0
350
8E
  3
D1
350
8F
  3
D2
350
90
1001
ACAD
1000
TREAT_AS_HARD
1070
     0
  0
DICTIONARY
  5
2A
102
{ACAD_REACTORS
330
C
102
}
330
C
100
AcDbDictionary
  3
2DWIREFRAME
350
2F
  3
3D_HIDDEN
350
31
  3
3DWIREFRAME
350
30
  3
BASIC
350
32
  3
BRIGHTEN
350
36
  3
COLORCHANGE
350
3A
  3
CONCEPTUAL
350
34
  3
DIM
350
35
  3
FACEPATTERN
350
39
  3
FLAT
350
2B
  3
FLATWITHEDGES
350
2C
  3
GOURAUD
350
2D
  3
GOURAUDWITHEDGES
350
2E
  3
LINEPATTERN
350
38
  3
REALISTIC
350
33
  3
THICKEN
350
37
1001
ACAD
1000
TREAT_AS_HARD
1070
     0
  0
DICTIONARY
  5
201
102
{ACAD_REACTORS
330
C
102
}
330
C
100
AcDbDictionary
  3
CANNOSCALE
350
204
  3
DIMASSOC
350
205
  3
HIDETEXT
350
206
1001
ACAD
1000
TREAT_AS_HARD
1070
     0
  0
MLINESTYLE
  5
18
102
{ACAD_REACTORS
330
17
102
}
330
17
100
AcDbMlineStyle
  2
Standard
 70
     0
  3

 62
   256
 51
90.0
 52
90.0
 71
     2
 49
0.5
 62
   256
  6
BYLAYER
 49
-0.5
 62
   256
  6
BYLAYER
  0
ACAD_PROXY_OBJECT
  5
70
102
{ACAD_REACTORS
330
6F
102
}
330
6F
100
AcDbZombieObject
 90
      499
 91
      502
 93
       41
310
903313A31580
  0
ACAD_PROXY_OBJECT
  5
71
102
{ACAD_REACTORS
330
6F
102
}
330
6F
100
AcDbZombieObject
 90
      499
 91
      502
 93
      105
310
903313A324000000000000004000
  0
ACAD_PROXY_OBJECT
  5
72
102
{ACAD_REACTORS
330
6F
102
}
330
6F
100
AcDbZombieObject
 90
      499
 91
      502
 93
      105
310
903313A344000000000000104000
  0
ACAD_PROXY_OBJECT
  5
73
102
{ACAD_REACTORS
330
6F
102
}
330
6F
100
AcDbZombieObject
 90
      499
 91
      502
 93
      105
310
903313A354000000000000144000
  0
ACAD_PROXY_OBJECT
  5
74
102
{ACAD_REACTORS
330
6F
102
}
330
6F
100
AcDbZombieObject
 90
      499
 91
      502
 93
      105
310
903313A384000000000000204000
  0
ACAD_PROXY_OBJECT
  5
75
102
{ACAD_REACTORS
330
6F
102
}
330
6F
100
AcDbZombieObject
 90
      499
 91
      502
 93
      113
310
904313A31304000000000000244000
  0
ACAD_PROXY_OBJECT
  5
76
102
{ACAD_REACTORS
330
6F
102
}
330
6F
100
AcDbZombieObject
 90
      499
 91
      502
 93
      113
310
904313A31364000000000000304000
  0
ACAD_PROXY_OBJECT
  5
77
102
{ACAD_REACTORS
330
6F
102
}
330
6F
100
AcDbZombieObject
 90
      499
 91
      502
 93
      113
310
904313A32304000000000000344000
  0
ACAD_PROXY_OBJECT
  5
78
102
{ACAD_REACTORS
330
6F
102
}
330
6F
100
AcDbZombieObject
 90
      499
 91
      502
 93
      113
310
904313A333040000000000003E4000
  0
ACAD_PROXY_OBJECT
  5
79
102
{ACAD_REACTORS
330
6F
102
}
330
6F
100
AcDbZombieObject
 90
      499
 91
      502
 93
      113
310
904313A34304000000000000444000
  0
ACAD_PROXY_OBJECT
  5
7A
102
{ACAD_REACTORS
330
6F
102
}
330
6F
100
AcDbZombieObject
 90
      499
 91
      502
 93
      113
310
904313A35304000000000000494000
  0
ACAD_PROXY_OBJECT
  5
7B
102
{ACAD_REACTORS
330
6F
102
}
330
6F
100
AcDbZombieObject
 90
      499
 91
      502
 93
      121
310
905313A3130304000000000000594000
  0
ACAD_PROXY_OBJECT
  5
7C
102
{ACAD_REACTORS
330
6F
102
}
330
6F
100
AcDbZombieObject
 90
      499
 91
      502
 93
      105
310
903323A310000000000000010100
  0
ACAD_PROXY_OBJECT
  5
7D
102
{ACAD_REACTORS
330
6F
102
}
330
6F
100
AcDbZombieObject
 90
      499
 91
      502
 93
      105
310
903343A310000000000000410100
  0
ACAD_PROXY_OBJECT
  5
7E
102
{ACAD_REACTORS
330
6F
102
}
330
6F
100
AcDbZombieObject
 90
      499
 91
      502
 93
      105
310
903383A310000000000000810100
  0
ACAD_PROXY_OBJECT
  5
7F
102
{ACAD_REACTORS
330
6F
102
}
330
6F
100
AcDbZombieObject
 90
      499
 91
      502
 93
      113
310
90431303A310000000000000910100
  0
ACAD_PROXY_OBJECT
  5
80
102
{ACAD_REACTORS
330
6F
102
}
330
6F
100
AcDbZombieObject
 90
      499
 91
      502
 93
      121
310
9053130303A310000000000001650100
  0
ACAD_PROXY_OBJECT
  5
81
102
{ACAD_REACTORS
330
6F
102
}
330
6F
100
AcDbZombieObject
 90
      499
 91
      502
 93
      257
310
90E312F31323822203D2031272D3022000000000000200FC000000000000284000
  0
ACAD_PROXY_OBJECT
  5
82
102
{ACAD_REACTORS
330
6F
102
}
330
6F
100
AcDbZombieObject
 90
      499
 91
      502
 93
      249
310
90D312F363422203D2031272D3022000000000000240FC000000000000284000
  0
ACAD_PROXY_OBJECT
  5
83
102
{ACAD_REACTORS
330
6F
102
}
330
6F
100
AcDbZombieObject
 90
      499
 91
      502
 93
      249
310
90D312F333222203D2031272D3022000000000000280FC000000000000284000
  0
ACAD_PROXY_OBJECT
  5
84
102
{ACAD_REACTORS
330
6F
102
}
330
6F
100
AcDbZombieObject
 90
      499
 91
      502
 93
      249
310
90D312F313622203D2031272D30220000000000002C0FC000000000000284000
  0
ACAD_PROXY_OBJECT
  5
85
102
{ACAD_REACTORS
330
6F
102
}
330
6F
100
AcDbZombieObject
 90
      499
 91
      502
 93
      249
310
90D332F333222203D2031272D30220000000000002E0FC000000000000284000
  0
ACAD_PROXY_OBJECT
  5
86
102
{ACAD_REACTORS
330
6F
102
}
330
6F
100
AcDbZombieObject
 90
      499
 91
      502
 93
      241
310
90C312F3822203D2031272D3022000000000000300FC000000000000284000
  0
ACAD_PROXY_OBJECT
  5
87
102
{ACAD_REACTORS
330
6F
102
}
330
6F
100
AcDbZombieObject
 90
      499
 91
      502
 93
      249
310
90D332F313622203D2031272D3022000000000000320FC000000000000284000
  0
ACAD_PROXY_OBJECT
  5
88
102
{ACAD_REACTORS
330
6F
102
}
330
6F
100
AcDbZombieObject
 90
      499
 91
      502
 93
      241
310
90C312F3422203D2031272D3022000000000000340FC000000000000284000
  0
ACAD_PROXY_OBJECT
  5
89
102
{ACAD_REACTORS
330
6F
102
}
330
6F
100
AcDbZombieObject
 90
      499
 91
      502
 93
      241
310
90C332F3822203D2031272D3022000000000000360FC000000000000284000
  0
ACAD_PROXY_OBJECT
  5
8A
102
{ACAD_REACTORS
330
6F
102
}
330
6F
100
AcDbZombieObject
 90
      499
 91
      502
 93
      241
310
90C312F3222203D2031272D3022000000000000380FC000000000000284000
  0
ACAD_PROXY_OBJECT
  5
8B
102
{ACAD_REACTORS
330
6F
102
}
330
6F
100
AcDbZombieObject
 90
      499
 91
      502
 93
      241
310
90C332F3422203D2031272D30220000000000003A0FC000000000000284000
  0
ACAD_PROXY_OBJECT
  5
8C
102
{ACAD_REACTORS
330
6F
102
}
330
6F
100
AcDbZombieObject
 90
      499
 91
      502
 93
      161
310
90A3122203D2031272D30224000000000000284000
  0
ACAD_PROXY_OBJECT
  5
8D
102
{ACAD_REACTORS
330
6F
102
}
330
6F
100
AcDbZombieObject
 90
      499
 91
      502
 93
      257
310
90E312D312F3222203D2031272D30220000000000003E0FC000000000000284000
  0
ACAD_PROXY_OBJECT
  5
8E
102
{ACAD_REACTORS
330
6F
102
}
330
6F
100
AcDbZombieObject
 90
      499
 91
      502
 93
      225
310
90A3322203D2031272D302200000000000002100000000000000284000
  0
ACAD_PROXY_OBJECT
  5
8F
102
{ACAD_REACTORS
330
6F
102
}
330
6F
100
AcDbZombieObject
 90
      499
 91
      502
 93
      225
310
90A3622203D2031272D302200000000000006100000000000000284000
  0
ACAD_PROXY_OBJECT
  5
90
102
{ACAD_REACTORS
330
6F
102
}
330
6F
100
AcDbZombieObject
 90
      499
 91
      502
 93
      249
310
90D31272D3022203D2031272D30220000000000000A100000000000000284000
  0
ACAD_PROXY_OBJECT
  5
2F
102
{ACAD_REACTORS
330
2A
102
}
330
2A
100
AcDbZombieObject
 90
      499
 91
      501
 93
      436
310
42CC9915DA5C99599C985B595049028333333333333E3BF0000000000000FB0107901411070040501600405405064090741402480A0340
1001
ACAD
1000
AcDbSavedByObjectVersion
1070
     0
  0
ACAD_PROXY_OBJECT
  5
31
102
{ACAD_REACTORS
330
2A
102
}
330
2A
100
AcDbZombieObject
 90
      499
 91
      501
 93
      500
310
424CD108121A5919195B90640502408333333333333E3BF0000000000000FB01079024090700405020000000000001110200405405064090740C02480A0340
1001
ACAD
1000
AcDbSavedByObjectVersion
1070
     0
  0
ACAD_PROXY_OBJECT
  5
30
102
{ACAD_REACTORS
330
2A
102
}
330
2A
100
AcDbZombieObject
 90
      499
 91
      501
 93
      436
310
42CCD915DA5C99599C985B595059028333333333333E3BF0000000000000FB0107901411070040501600405405064090741402480A0340
1001
ACAD
1000
AcDbSavedByObjectVersion
1070
     0
  0
ACAD_PROXY_OBJECT
  5
32
102
{ACAD_REACTORS
330
2A
102
}
330
2A
100
AcDbZombieObject
 90
      499
 91
      501
 93
      388
310
4150985CDA58D07406404333333333333E3BF0000000000000FB0107A41107004050150841D405064090741402480A0350
1001
ACAD
1000
AcDbSavedByObjectVersion
1070
     0
  0
ACAD_PROXY_OBJECT
  5
36
102
{ACAD_REACTORS
330
2A
102
}
330
2A
100
AcDbZombieObject
 90
      499
 91
      501
 93
      428
310
42109C9A59DA1D195B90C409028333333333333E3BF0000000000000FB010790141107004050150841D405064090741402480A029950
1001
ACAD
1000
AcDbSavedByObjectVersion
1070
     0
  0
ACAD_PROXY_OBJECT
  5
3A
102
{ACAD_REACTORS
330
2A
102
}
330
2A
100
AcDbZombieObject
 90
      499
 91
      501
 93
      452
310
42D0DBDB1BDC90DA185B99D95104090240C333333333333E3BF0000000000000FB0108901411070040501508421405064090741402480A0350
1001
ACAD
1000
AcDbSavedByObjectVersion
1070
     0
  0
ACAD_PROXY_OBJECT
  5
34
102
{ACAD_REACTORS
330
2A
102
}
330
2A
100
AcDbZombieObject
 90
      499
 91
      501
 93
      500
310
4290DBDB98D95C1D1D585B10940D028333333333333E3BF0000000000000FB0107902409070040501000000000000111010841D405064090740C02480A0340
1001
ACAD
1000
AcDbSavedByObjectVersion
1070
     0
  0
ACAD_PROXY_OBJECT
  5
35
102
{ACAD_REACTORS
330
2A
102
}
330
2A
100
AcDbZombieObject
 90
      499
 91
      501
 93
      412
310
40D11A5B50B409028333333333333E3BF0000000000000FB010790141107004050150841D405064090741402480A02677FFFFFD0
1001
ACAD
1000
AcDbSavedByObjectVersion
1070
     0
  0
ACAD_PROXY_OBJECT
  5
39
102
{ACAD_REACTORS
330
2A
102
}
330
2A
100
AcDbZombieObject
 90
      499
 91
      501
 93
      444
310
42D19858D95C185D1D195C9B90F409028333333333333E3BF0000000000000FB010790141107004050150841D405064090741402480A0350
1001
ACAD
1000
AcDbSavedByObjectVersion
1070
     0
  0
ACAD_PROXY_OBJECT
  5
2B
102
{ACAD_REACTORS
330
2A
102
}
330
2A
100
AcDbZombieObject
 90
      499
 91
      501
 93
      388
310
41119B185D240901404333333333333E3BF0000000000000F9010740A41107004050150841D405064090741402480A1B50
1001
ACAD
1000
AcDbSavedByObjectVersion
1070
     0
  0
ACAD_PROXY_OBJECT
  5
2C
102
{ACAD_REACTORS
330
2A
102
}
330
2A
100
AcDbZombieObject
 90
      499
 91
      501
 93
      476
310
43519B185D15DA5D1A115919D95CD0140901404333333333333E3BF0000000000000F9010740901411070040501600405405064090741402480A1B50
1001
ACAD
1000
AcDbSavedByObjectVersion
1070
     0
  0
ACAD_PROXY_OBJECT
  5
2D
102
{ACAD_REACTORS
330
2A
102
}
330
2A
100
AcDbZombieObject
 90
      499
 91
      501
 93
      412
310
41D1DBDD5C985D5910240902404333333333333E3BF0000000000000F9010740A411070040501641D405064090741402480A1B50
1001
ACAD
1000
AcDbSavedByObjectVersion
1070
     0
  0
ACAD_PROXY_OBJECT
  5
2E
102
{ACAD_REACTORS
330
2A
102
}
330
2A
100
AcDbZombieObject
 90
      499
 91
      501
 93
      500
310
4411DBDD5C985D5915DA5D1A115919D95CD0340902404333333333333E3BF0000000000000F9010740901411070040501600405405064090741402480A1B50
1001
ACAD
1000
AcDbSavedByObjectVersion
1070
     0
  0
ACAD_PROXY_OBJECT
  5
38
102
{ACAD_REACTORS
330
2A
102
}
330
2A
100
AcDbZombieObject
 90
      499
 91
      501
 93
      444
310
42D31A5B995C185D1D195C9B90E409028333333333333E3BF0000000000000FB010790141107004050750841D405064090741402483A0350
1001
ACAD
1000
AcDbSavedByObjectVersion
1070
     0
  0
ACAD_PROXY_OBJECT
  5
33
102
{ACAD_REACTORS
330
2A
102
}
330
2A
100
AcDbZombieObject
 90
      499
 91
      501
 93
      420
310
425499585B1A5CDD1A58D08409028333333333333E3BF0000000000000FB01079019070040501508421405064090741402480A1B40
1001
ACAD
1000
AcDbSavedByObjectVersion
1070
     0
  0
ACAD_PROXY_OBJECT
  5
37
102
{ACAD_REACTORS
330
2A
102
}
330
2A
100
AcDbZombieObject
 90
      499
 91
      501
 93
      412
310
41D51A1A58DAD95B90D409028333333333333E3BF0000000000000FB010790141107004050150C41D405064090741402480A0350
1001
ACAD
1000
AcDbSavedByObjectVersion
1070
     0
  0
DICTIONARYVAR
  5
204
102
{ACAD_REACTORS
330
201
102
}
330
201
100
DictionaryVariables
280
     0
  1
1:1
  0
DICTIONARYVAR
  5
205
102
{ACAD_REACTORS
330
201
102
}
330
201
100
DictionaryVariables
280
     0
  1
2
  0
DICTIONARYVAR
  5
206
102
{ACAD_REACTORS
330
201
102
}
330
201
100
DictionaryVariables
280
     0
  1
1
  0
ENDSEC
  0
EOF
