  0
SECTION
  2
HEADER
  9
$ACADVER
  1
AC1012
  9
$DWGCODEPAGE
  3
ansi_1252
  9
$INSBASE
 10
0.0
 20
0.0
 30
0.0
  9
$EXTMIN
 10
0.0
 20
0.0
 30
0.0
  9
$EXTMAX
 10
11.0
 20
8.5
 30
0.0
  9
$LIMMIN
 10
0.0
 20
0.0
  9
$LIMMAX
 10
11.0
 20
8.5
  9
$ORTHOMODE
 70
     0
  9
$REGENMODE
 70
     1
  9
$FILLMODE
 70
     1
  9
$QTEXTMODE
 70
     0
  9
$MIRRTEXT
 70
     1
  9
$DRAGMODE
 70
     2
  9
$LTSCALE
 40
1.0
  9
$OSMODE
 70
    37
  9
$ATTMODE
 70
     1
  9
$TEXTSIZE
 40
0.125
  9
$TRACEWID
 40
0.05
  9
$TEXTSTYLE
  7
STANDARD
  9
$CLAYER
  8
0
  9
$CELTYPE
  6
BYLAYER
  9
$CECOLOR
 62
   256
  9
$CELTSCALE
 40
1.0
  9
$DELOBJ
 70
     1
  9
$DISPSILH
 70
     0
  9
$DIMSCALE
 40
1.0
  9
$DIMASZ
 40
0.13
  9
$DIMEXO
 40
0.05
  9
$DIMDLI
 40
0.38
  9
$DIMRND
 40
0.0
  9
$DIMDLE
 40
0.0
  9
$DIMEXE
 40
0.125
  9
$DIMTP
 40
0.0
  9
$DIMTM
 40
0.0
  9
$DIMTXT
 40
0.125
  9
$DIMCEN
 40
0.09
  9
$DIMTSZ
 40
0.0
  9
$DIMTOL
 70
     0
  9
$DIMLIM
 70
     0
  9
$DIMTIH
 70
     1
  9
$DIMTOH
 70
     1
  9
$DIMSE1
 70
     0
  9
$DIMSE2
 70
     0
  9
$DIMTAD
 70
     0
  9
$DIMZIN
 70
     0
  9
$DIMBLK
  1

  9
$DIMASO
 70
     1
  9
$DIMSHO
 70
     1
  9
$DIMPOST
  1

  9
$DIMAPOST
  1

  9
$DIMALT
 70
     0
  9
$DIMALTD
 70
     2
  9
$DIMALTF
 40
25.4
  9
$DIMLFAC
 40
0.5
  9
$DIMTOFL
 70
     0
  9
$DIMTVP
 40
0.0
  9
$DIMTIX
 70
     0
  9
$DIMSOXD
 70
     0
  9
$DIMSAH
 70
     0
  9
$DIMBLK1
  1

  9
$DIMBLK2
  1

  9
$DIMSTYLE
  2
STANDARD
  9
$DIMCLRD
 70
     0
  9
$DIMCLRE
 70
     0
  9
$DIMCLRT
 70
     0
  9
$DIMTFAC
 40
1.0
  9
$DIMGAP
 40
0.06
  9
$DIMJUST
 70
     0
  9
$DIMSD1
 70
     0
  9
$DIMSD2
 70
     0
  9
$DIMTOLJ
 70
     1
  9
$DIMTZIN
 70
     0
  9
$DIMALTZ
 70
     0
  9
$DIMALTTZ
 70
     0
  9
$DIMFIT
 70
     3
  9
$DIMUPT
 70
     0
  9
$DIMUNIT
 70
     2
  9
$DIMDEC
 70
     3
  9
$DIMTDEC
 70
     3
  9
$DIMALTU
 70
     2
  9
$DIMALTTD
 70
     2
  9
$DIMTXSTY
  7
STANDARD
  9
$DIMAUNIT
 70
     0
  9
$LUNITS
 70
     2
  9
$LUPREC
 70
     2
  9
$SKETCHINC
 40
0.1
  9
$FILLETRAD
 40
0.5
  9
$AUNITS
 70
     0
  9
$AUPREC
 70
     2
  9
$MENU
  1
.
  9
$ELEVATION
 40
0.0
  9
$PELEVATION
 40
0.0
  9
$THICKNESS
 40
0.0
  9
$LIMCHECK
 70
     0
  9
$CHAMFERA
 40
0.5
  9
$CHAMFERB
 40
0.5
  9
$CHAMFERC
 40
1.0
  9
$CHAMFERD
 40
0.0
  9
$SKPOLY
 70
     0
  9
$TDCREATE
 40
2455783.999066319
  9
$TDUPDATE
 40
2455783.999066331
  9
$TDINDWG
 40
0.0000000116
  9
$TDUSRTIMER
 40
0.0000000116
  9
$USRTIMER
 70
     1
  9
$ANGBASE
 50
0.0
  9
$ANGDIR
 70
     0
  9
$PDMODE
 70
     0
  9
$PDSIZE
 40
-1.0
  9
$PLINEWID
 40
0.0
  9
$COORDS
 70
     1
  9
$SPLFRAME
 70
     0
  9
$SPLINETYPE
 70
     6
  9
$SPLINESEGS
 70
     8
  9
$ATTDIA
 70
     0
  9
$ATTREQ
 70
     1
  9
$HANDLING
 70
     1
  9
$HANDSEED
  5
43F
  9
$SURFTAB1
 70
     6
  9
$SURFTAB2
 70
     6
  9
$SURFTYPE
 70
     6
  9
$SURFU
 70
     6
  9
$SURFV
 70
     6
  9
$UCSNAME
  2

  9
$UCSORG
 10
0.0
 20
0.0
 30
0.0
  9
$UCSXDIR
 10
1.0
 20
0.0
 30
0.0
  9
$UCSYDIR
 10
0.0
 20
1.0
 30
0.0
  9
$PUCSNAME
  2

  9
$PUCSORG
 10
0.0
 20
0.0
 30
0.0
  9
$PUCSXDIR
 10
1.0
 20
0.0
 30
0.0
  9
$PUCSYDIR
 10
0.0
 20
1.0
 30
0.0
  9
$USERI1
 70
     0
  9
$USERI2
 70
     0
  9
$USERI3
 70
     0
  9
$USERI4
 70
     0
  9
$USERI5
 70
     0
  9
$USERR1
 40
0.0
  9
$USERR2
 40
0.0
  9
$USERR3
 40
0.0
  9
$USERR4
 40
0.0
  9
$USERR5
 40
0.0
  9
$WORLDVIEW
 70
     1
  9
$SHADEDGE
 70
     3
  9
$SHADEDIF
 70
    70
  9
$TILEMODE
 70
     1
  9
$MAXACTVP
 70
    64
  9
$PINSBASE
 10
0.0
 20
0.0
 30
0.0
  9
$PLIMCHECK
 70
     0
  9
$PEXTMIN
 10
1.0000000000E+20
 20
1.0000000000E+20
 30
1.0000000000E+20
  9
$PEXTMAX
 10
-1.0000000000E+20
 20
-1.0000000000E+20
 30
-1.0000000000E+20
  9
$PLIMMIN
 10
0.0
 20
0.0
  9
$PLIMMAX
 10
12.0
 20
9.0
  9
$UNITMODE
 70
     0
  9
$VISRETAIN
 70
     1
  9
$PLINEGEN
 70
     0
  9
$PSLTSCALE
 70
     1
  9
$TREEDEPTH
 70
  3020
  9
$PICKSTYLE
 70
     1
  9
$CMLSTYLE
  2
STANDARD
  9
$CMLJUST
 70
     0
  9
$CMLSCALE
 40
1.0
  9
$SAVEIMAGES
 70
     1
  0
ENDSEC
  0
SECTION
  2
CLASSES
  0
CLASS
  1
ACDBDICTIONARYWDFLT
  2
AcDbDictionaryWithDefault
  3
ObjectDBX Classes
 90
    32768
280
     0
281
     0
  0
CLASS
  1
VISUALSTYLE
  2
AcDbVisualStyle
  3
ObjectDBX Classes
 90
     4095
280
     0
281
     0
  0
CLASS
  1
SCALE
  2
AcDbScale
  3
ObjectDBX Classes
 90
     1153
280
     0
281
     0
  0
CLASS
  1
DICTIONARYVAR
  2
AcDbDictionaryVar
  3
ObjectDBX Classes
 90
        0
280
     0
281
     0
  0
CLASS
  1
XRECORD
  2
AcDbXrecord
  3
AutoCAD 2000
 90
    32768
280
     0
281
     0
  0
CLASS
  1
LWPOLYLINE
  2
AcDbPolyline
  3
AutoCAD 2000
 90
    32768
280
     0
281
     1
  0
CLASS
  1
HATCH
  2
AcDbHatch
  3
AutoCAD 2000
 90
    32768
280
     0
281
     1
  0
CLASS
  1
ACDBPLACEHOLDER
  2
AcDbPlaceHolder
  3
ObjectDBX Classes
 90
        0
280
     0
281
     0
  0
CLASS
  1
LAYOUT
  2
AcDbLayout
  3
ObjectDBX Classes
 90
        0
280
     0
281
     0
  0
ENDSEC
  0
SECTION
  2
TABLES
  0
TABLE
  2
VPORT
  5
8
330
0
100
AcDbSymbolTable
 70
     1
  0
VPORT
  5
29
330
8
100
AcDbSymbolTableRecord
100
AcDbViewportTableRecord
  2
*ACTIVE
 70
     0
 10
0.0
 20
0.0
 11
1.0
 21
1.0
 12
5.5
 22
4.25
 13
0.0
 23
0.0
 14
0.5
 24
0.5
 15
0.5
 25
0.5
 16
0.0
 26
0.0
 36
1.0
 17
0.0
 27
0.0
 37
0.0
 40
8.5
 41
1.2941176471
 42
50.0
 43
0.0
 44
0.0
 50
0.0
 51
0.0
 71
     0
 72
  2000
 73
     1
 74
     3
 75
     0
 76
     0
 77
     0
 78
     0
  0
ENDTAB
  0
TABLE
  2
LTYPE
  5
5
330
0
100
AcDbSymbolTable
 70
     6
  0
LTYPE
  5
14
330
5
100
AcDbSymbolTableRecord
100
AcDbLinetypeTableRecord
  2
BYBLOCK
 70
     0
  3

 72
    65
 73
     0
 40
0.0
  0
LTYPE
  5
15
330
5
100
AcDbSymbolTableRecord
100
AcDbLinetypeTableRecord
  2
BYLAYER
 70
     0
  3

 72
    65
 73
     0
 40
0.0
  0
LTYPE
  5
16
330
5
100
AcDbSymbolTableRecord
100
AcDbLinetypeTableRecord
  2
CONTINUOUS
 70
     0
  3
Solid line
 72
    65
 73
     0
 40
0.0
  0
LTYPE
  5
3B
330
5
100
AcDbSymbolTableRecord
100
AcDbLinetypeTableRecord
  2
HIDDEN
 70
     0
  3
Hidden __ __ __ __ __ __ __ __ __ __ __ __ __ __
 72
    65
 73
     2
 40
0.075
 49
0.05
 74
     0
 49
-0.025
 74
     0
  0
LTYPE
  5
3C
330
5
100
AcDbSymbolTableRecord
100
AcDbLinetypeTableRecord
  2
PHANTOM
 70
     0
  3
Phantom ______  __  __  ______  __  __  ______
 72
    65
 73
     6
 40
0.5
 49
0.25
 74
     0
 49
-0.05
 74
     0
 49
0.05
 74
     0
 49
-0.05
 74
     0
 49
0.05
 74
     0
 49
-0.05
 74
     0
  0
LTYPE
  5
3D
330
5
100
AcDbSymbolTableRecord
100
AcDbLinetypeTableRecord
  2
CENTER
 70
     0
  3
Center ____ _ ____ _ ____ _ ____ _ ____ _ ____
 72
    65
 73
     4
 40
0.4
 49
0.25
 74
     0
 49
-0.05
 74
     0
 49
0.05
 74
     0
 49
-0.05
 74
     0
  0
LTYPE
  5
3E
330
5
100
AcDbSymbolTableRecord
100
AcDbLinetypeTableRecord
  2
CENTERX2
 70
     0
  3
Center (2x) ________  __  ________  __  _____
 72
    65
 73
     4
 40
0.8
 49
0.5
 74
     0
 49
-0.1
 74
     0
 49
0.1
 74
     0
 49
-0.1
 74
     0
  0
LTYPE
  5
3F
330
5
100
AcDbSymbolTableRecord
100
AcDbLinetypeTableRecord
  2
DOT2
 70
     0
  3
Dot (.5x) ........................................
 72
    65
 73
     2
 40
0.025
 49
0.0
 74
     0
 49
-0.025
 74
     0
  0
ENDTAB
  0
TABLE
  2
LAYER
  5
2
330
0
100
AcDbSymbolTable
 70
     2
  0
LAYER
  5
10
330
2
100
AcDbSymbolTableRecord
100
AcDbLayerTableRecord
  2
0
 70
     0
 62
     7
  6
CONTINUOUS
  0
LAYER
  5
40
330
2
100
AcDbSymbolTableRecord
100
AcDbLayerTableRecord
  2
FORMAT
 70
     0
 62
     7
  6
CONTINUOUS
  0
ENDTAB
  0
TABLE
  2
STYLE
  5
3
330
0
100
AcDbSymbolTable
 70
     4
  0
STYLE
  5
11
330
3
100
AcDbSymbolTableRecord
100
AcDbTextStyleTableRecord
  2
STANDARD
 70
     0
 40
0.0
 41
1.0
 50
0.0
 71
     0
 42
0.2
  3
txt
  4

  0
STYLE
  5
6E
330
3
100
AcDbSymbolTableRecord
100
AcDbTextStyleTableRecord
  2
SLDTEXTSTYLE0
 70
     0
 40
0.0
 41
0.75
 50
0.0
 71
     0
 42
0.2
  3
TXT
  4

  0
STYLE
  5
93
330
3
100
AcDbSymbolTableRecord
100
AcDbTextStyleTableRecord
  2
SLDTEXTSTYLE1
 70
     0
 40
0.0
 41
0.6875
 50
0.0
 71
     0
 42
0.2
  3
TXT
  4

  0
STYLE
  5
99
330
3
100
AcDbSymbolTableRecord
100
AcDbTextStyleTableRecord
  2
SLDTEXTSTYLE2
 70
     0
 40
0.0
 41
0.6944444444
 50
0.0
 71
     0
 42
0.2
  3
TXT
  4

  0
ENDTAB
  0
TABLE
  2
VIEW
  5
6
330
0
100
AcDbSymbolTable
 70
     0
  0
ENDTAB
  0
TABLE
  2
UCS
  5
7
330
0
100
AcDbSymbolTable
 70
     0
  0
ENDTAB
  0
TABLE
  2
APPID
  5
9
330
0
100
AcDbSymbolTable
 70
     1
  0
APPID
  5
12
330
9
100
AcDbSymbolTableRecord
100
AcDbRegAppTableRecord
  2
ACAD
 70
     0
  0
ENDTAB
  0
TABLE
  2
DIMSTYLE
  5
A
330
0
100
AcDbSymbolTable
 70
     1
  0
DIMSTYLE
105
27
330
A
100
AcDbSymbolTableRecord
100
AcDbDimStyleTableRecord
  2
STANDARD
 70
     0
  3

  4

  5

  6

  7

 40
1.0
 41
0.18
 42
0.0625
 43
0.38
 44
0.18
 45
0.0
 46
0.0
 47
0.0
 48
0.0
140
0.18
141
0.09
142
0.0
143
25.4
144
1.0
145
0.0
146
1.0
147
0.09
 71
     0
 72
     0
 73
     1
 74
     1
 75
     0
 76
     0
 77
     0
 78
     0
170
     0
171
     2
172
     0
173
     0
174
     0
175
     0
176
     0
177
     0
178
     0
270
     2
271
     4
272
     4
273
     2
274
     2
340
11
275
     0
280
     0
281
     0
282
     0
283
     1
284
     0
285
     0
286
     0
287
     3
288
     0
  0
ENDTAB
  0
TABLE
  2
BLOCK_RECORD
  5
1
330
0
100
AcDbSymbolTable
 70
     4
  0
BLOCK_RECORD
  5
1F
330
1
100
AcDbSymbolTableRecord
100
AcDbBlockTableRecord
  2
*MODEL_SPACE
  0
BLOCK_RECORD
  5
1B
330
1
100
AcDbSymbolTableRecord
100
AcDbBlockTableRecord
  2
*PAPER_SPACE
  0
BLOCK_RECORD
  5
A8
330
1
100
AcDbSymbolTableRecord
100
AcDbBlockTableRecord
  2
SW_NOTE_0
  0
BLOCK_RECORD
  5
AE
330
1
100
AcDbSymbolTableRecord
100
AcDbBlockTableRecord
  2
SW_NOTE_1
  0
BLOCK_RECORD
  5
C2
330
1
100
AcDbSymbolTableRecord
100
AcDbBlockTableRecord
  2
SW_NOTE_2
  0
ENDTAB
  0
ENDSEC
  0
SECTION
  2
BLOCKS
  0
BLOCK
  5
20
330
1F
100
AcDbEntity
  8
0
100
AcDbBlockBegin
  2
*MODEL_SPACE
 70
     0
 10
0.0
 20
0.0
 30
0.0
  3
*MODEL_SPACE
  1

  0
ENDBLK
  5
21
330
1F
100
AcDbEntity
  8
0
100
AcDbBlockEnd
  0
BLOCK
  5
1C
330
1B
100
AcDbEntity
 67
     1
  8
0
100
AcDbBlockBegin
  2
*PAPER_SPACE
 70
     0
 10
0.0
 20
0.0
 30
0.0
  3
*PAPER_SPACE
  1

  0
ENDBLK
  5
1D
330
1B
100
AcDbEntity
 67
     1
  8
0
100
AcDbBlockEnd
  0
BLOCK
  5
A9
330
A8
100
AcDbEntity
  8
0
100
AcDbBlockBegin
  2
SW_NOTE_0
 70
     0
 10
0.0
 20
0.0
 30
0.0
  3
SW_NOTE_0
  1

  0
MTEXT
  5
AB
330
A8
100
AcDbEntity
  8
0
  6
CONTINUOUS
 62
     0
100
AcDbMText
 10
0.0
 20
0.0773440644
 30
0.0
 40
0.06
 41
0.0
 71
     1
 72
     1
  1
INTERPRET GEOMETRIC
  7
SLDTEXTSTYLE0
  0
MTEXT
  5
AC
330
A8
100
AcDbEntity
  8
0
  6
CONTINUOUS
 62
     0
100
AcDbMText
 10
0.0
 20
-0.0220260102
 30
0.0
 40
0.06
 41
0.0
 71
     1
 72
     1
  1
TOLERANCING PER:
  7
SLDTEXTSTYLE0
  0
ENDBLK
  5
AA
330
A8
100
AcDbEntity
  8
0
100
AcDbBlockEnd
  0
BLOCK
  5
AF
330
AE
100
AcDbEntity
  8
0
100
AcDbBlockBegin
  2
SW_NOTE_1
 70
     0
 10
0.0
 20
0.0
 30
0.0
  3
SW_NOTE_1
  1

  0
MTEXT
  5
B1
330
AE
100
AcDbEntity
  8
0
  6
CONTINUOUS
 62
     0
100
AcDbMText
 10
0.0
 20
0.0837894031
 30
0.0
 40
0.065
 41
0.0
 71
     1
 72
     1
  1
DIMENSIONS ARE IN INCHES
  7
SLDTEXTSTYLE0
  0
MTEXT
  5
B2
330
AE
100
AcDbEntity
  8
0
  6
CONTINUOUS
 62
     0
100
AcDbMText
 10
0.0
 20
-0.0205806729
 30
0.0
 40
0.065
 41
0.0
 71
     1
 72
     1
  1
TOLERANCES:
  7
SLDTEXTSTYLE0
  0
MTEXT
  5
B3
330
AE
100
AcDbEntity
  8
0
  6
CONTINUOUS
 62
     0
100
AcDbMText
 10
0.0
 20
-0.1249507489
 30
0.0
 40
0.065
 41
0.0
 71
     1
 72
     1
  1
FRACTIONAL
  7
SLDTEXTSTYLE0
  0
MTEXT
  5
B4
330
AE
100
AcDbEntity
  8
0
  6
CONTINUOUS
 62
     0
100
AcDbMText
 10
0.5175850875
 20
-0.1249507489
 30
0.0
 40
0.065
 41
0.0
 71
     1
 72
     1
  1
%%p
  7
SLDTEXTSTYLE0
  0
MTEXT
  5
B5
330
AE
100
AcDbEntity
  8
0
  6
CONTINUOUS
 62
     0
100
AcDbMText
 10
0.0
 20
-0.2293208248
 30
0.0
 40
0.065
 41
0.0
 71
     1
 72
     1
  1
ANGULAR: MACH
  7
SLDTEXTSTYLE0
  0
MTEXT
  5
B6
330
AE
100
AcDbEntity
  8
0
  6
CONTINUOUS
 62
     0
100
AcDbMText
 10
0.7233732769
 20
-0.2293208248
 30
0.0
 40
0.065
 41
0.0
 71
     1
 72
     1
  1
%%p
  7
SLDTEXTSTYLE0
  0
MTEXT
  5
B7
330
AE
100
AcDbEntity
  8
0
  6
CONTINUOUS
 62
     0
100
AcDbMText
 10
0.7852857683
 20
-0.2293208248
 30
0.0
 40
0.065
 41
0.0
 71
     1
 72
     1
  1
     BEND 
  7
SLDTEXTSTYLE0
  0
MTEXT
  5
B8
330
AE
100
AcDbEntity
  8
0
  6
CONTINUOUS
 62
     0
100
AcDbMText
 10
1.14784136
 20
-0.2293208248
 30
0.0
 40
0.065
 41
0.0
 71
     1
 72
     1
  1
%%p
  7
SLDTEXTSTYLE0
  0
MTEXT
  5
B9
330
AE
100
AcDbEntity
  8
0
  6
CONTINUOUS
 62
     0
100
AcDbMText
 10
0.0
 20
-0.3336909008
 30
0.0
 40
0.065
 41
0.0
 71
     1
 72
     1
  1
TWO PLACE DECIMAL    
  7
SLDTEXTSTYLE0
  0
MTEXT
  5
BA
330
AE
100
AcDbEntity
  8
0
  6
CONTINUOUS
 62
     0
100
AcDbMText
 10
0.9794349188
 20
-0.3336909008
 30
0.0
 40
0.065
 41
0.0
 71
     1
 72
     1
  1
%%p
  7
SLDTEXTSTYLE0
  0
MTEXT
  5
BB
330
AE
100
AcDbEntity
  8
0
  6
CONTINUOUS
 62
     0
100
AcDbMText
 10
0.0
 20
-0.4380609768
 30
0.0
 40
0.065
 41
0.0
 71
     1
 72
     1
  1
THREE PLACE DECIMAL  
  7
SLDTEXTSTYLE0
  0
MTEXT
  5
BC
330
AE
100
AcDbEntity
  8
0
  6
CONTINUOUS
 62
     0
100
AcDbMText
 10
0.9738038639
 20
-0.4380609768
 30
0.0
 40
0.065
 41
0.0
 71
     1
 72
     1
  1
%%p
  7
SLDTEXTSTYLE0
  0
ENDBLK
  5
B0
330
AE
100
AcDbEntity
  8
0
100
AcDbBlockEnd
  0
BLOCK
  5
C3
330
C2
100
AcDbEntity
  8
0
100
AcDbBlockBegin
  2
SW_NOTE_2
 70
     0
 10
0.0
 20
0.0
 30
0.0
  3
SW_NOTE_2
  1

  0
MTEXT
  5
C5
330
C2
100
AcDbEntity
  8
0
  6
CONTINUOUS
 62
     0
100
AcDbMText
 10
0.0
 20
0.0773440644
 30
0.0
 40
0.06
 41
0.0
 71
     1
 72
     1
  1
THE INFORMATION CONTAINED IN THIS
  7
SLDTEXTSTYLE0
  0
MTEXT
  5
C6
330
C2
100
AcDbEntity
  8
0
  6
CONTINUOUS
 62
     0
100
AcDbMText
 10
0.0
 20
-0.0220260102
 30
0.0
 40
0.06
 41
0.0
 71
     1
 72
     1
  1
DRAWING IS THE SOLE PROPERTY OF
  7
SLDTEXTSTYLE0
  0
MTEXT
  5
C7
330
C2
100
AcDbEntity
  8
0
  6
CONTINUOUS
 62
     0
100
AcDbMText
 10
0.0
 20
-0.1213960848
 30
0.0
 40
0.06
 41
0.0
 71
     1
 72
     1
  1
Candy Controls.  ANY 
  7
SLDTEXTSTYLE0
  0
MTEXT
  5
C8
330
C2
100
AcDbEntity
  8
0
  6
CONTINUOUS
 62
     0
100
AcDbMText
 10
0.0
 20
-0.2207661593
 30
0.0
 40
0.06
 41
0.0
 71
     1
 72
     1
  1
REPRODUCTION IN PART OR AS A WHOLE
  7
SLDTEXTSTYLE0
  0
MTEXT
  5
C9
330
C2
100
AcDbEntity
  8
0
  6
CONTINUOUS
 62
     0
100
AcDbMText
 10
0.0
 20
-0.3201362339
 30
0.0
 40
0.06
 41
0.0
 71
     1
 72
     1
  1
WITHOUT THE WRITTEN PERMISSION OF
  7
SLDTEXTSTYLE0
  0
MTEXT
  5
CA
330
C2
100
AcDbEntity
  8
0
  6
CONTINUOUS
 62
     0
100
AcDbMText
 10
0.0
 20
-0.4195063085
 30
0.0
 40
0.06
 41
0.0
 71
     1
 72
     1
  1
Candy Controls IS 
  7
SLDTEXTSTYLE0
  0
MTEXT
  5
CB
330
C2
100
AcDbEntity
  8
0
  6
CONTINUOUS
 62
     0
100
AcDbMText
 10
0.0
 20
-0.518876383
 30
0.0
 40
0.06
 41
0.0
 71
     1
 72
     1
  1
PROHIBITED.
  7
SLDTEXTSTYLE0
  0
ENDBLK
  5
C4
330
C2
100
AcDbEntity
  8
0
100
AcDbBlockEnd
  0
ENDSEC
  0
SECTION
  2
ENTITIES
  0
LINE
  5
41
330
1F
100
AcDbEntity
  8
0
  6
CONTINUOUS
 62
     7
100
AcDbLine
 10
0.329927
 20
8.1920731707
 30
0.0
 11
10.629927
 21
8.1920731707
 31
0.0
  0
LINE
  5
42
330
1F
100
AcDbEntity
  8
0
  6
CONTINUOUS
 62
     7
100
AcDbLine
 10
0.329927
 20
8.1920731707
 30
0.0
 11
0.329927
 21
0.3920731707
 31
0.0
  0
LINE
  5
43
330
1F
100
AcDbEntity
  8
0
  6
CONTINUOUS
 62
     7
100
AcDbLine
 10
10.629927
 20
0.3920731707
 30
0.0
 11
0.329927
 21
0.3920731707
 31
0.0
  0
LINE
  5
44
330
1F
100
AcDbEntity
  8
0
  6
CONTINUOUS
 62
     7
100
AcDbLine
 10
10.629927
 20
0.3920731707
 30
0.0
 11
10.629927
 21
8.1920731707
 31
0.0
  0
LINE
  5
45
330
1F
100
AcDbEntity
  8
0
  6
CONTINUOUS
 62
     7
100
AcDbLine
 10
4.7981841288
 20
0.3920731707
 30
0.0
 11
4.7981841288
 21
2.3564211366
 31
0.0
  0
LINE
  5
46
330
1F
100
AcDbEntity
  8
0
  6
CONTINUOUS
 62
     7
100
AcDbLine
 10
2.8210345579
 20
2.3564211366
 30
0.0
 11
10.629927
 21
2.3564211366
 31
0.0
  0
LINE
  5
47
330
1F
100
AcDbEntity
  8
0
  6
CONTINUOUS
 62
     7
100
AcDbLine
 10
6.1796352514
 20
2.3564211366
 30
0.0
 11
6.1796352514
 21
0.3920731707
 31
0.0
  0
LINE
  5
48
330
1F
100
AcDbEntity
  8
0
  6
CONTINUOUS
 62
     7
100
AcDbLine
 10
7.8712070044
 20
2.3564211366
 30
0.0
 11
7.8712070044
 21
0.3920731707
 31
0.0
  0
LINE
  5
49
330
1F
100
AcDbEntity
  8
0
  6
CONTINUOUS
 62
     7
100
AcDbLine
 10
7.8712070044
 20
0.6049590101
 30
0.0
 11
10.629927
 21
0.6049590101
 31
0.0
  0
LINE
  5
4A
330
1F
100
AcDbEntity
  8
0
  6
CONTINUOUS
 62
     7
100
AcDbLine
 10
7.8712070044
 20
1.1119362457
 30
0.0
 11
10.629927
 21
1.1119362457
 31
0.0
  0
LINE
  5
4B
330
1F
100
AcDbEntity
  8
0
  6
CONTINUOUS
 62
     7
100
AcDbLine
 10
7.8712070044
 20
1.9892703708
 30
0.0
 11
10.629927
 21
1.9892703708
 31
0.0
  0
LINE
  5
4C
330
1F
100
AcDbEntity
  8
0
  6
CONTINUOUS
 62
     7
100
AcDbLine
 10
8.266751752
 20
1.1119362457
 30
0.0
 11
8.266751752
 21
0.6049590101
 31
0.0
  0
LINE
  5
4D
330
1F
100
AcDbEntity
  8
0
  6
CONTINUOUS
 62
     7
100
AcDbLine
 10
8.6943435176
 20
0.6049590101
 30
0.0
 11
8.6943435176
 21
0.3920731707
 31
0.0
  0
LINE
  5
4E
330
1F
100
AcDbEntity
  8
0
  6
CONTINUOUS
 62
     7
100
AcDbLine
 10
10.0579917045
 20
1.1119362457
 30
0.0
 11
10.0579917045
 21
0.6049590101
 31
0.0
  0
LINE
  5
4F
330
1F
100
AcDbEntity
  8
0
  6
CONTINUOUS
 62
     7
100
AcDbLine
 10
9.6662556631
 20
0.6049590101
 30
0.0
 11
9.6662556631
 21
0.3920731707
 31
0.0
  0
LINE
  5
50
330
1F
100
AcDbEntity
  8
0
  6
CONTINUOUS
 62
     7
100
AcDbLine
 10
2.8210345579
 20
0.5883479999
 30
0.0
 11
6.1796352514
 21
0.5883479999
 31
0.0
  0
LINE
  5
51
330
1F
100
AcDbEntity
  8
0
  6
CONTINUOUS
 62
     7
100
AcDbLine
 10
6.1796352514
 20
1.7939211366
 30
0.0
 11
7.8712070044
 21
1.7939211366
 31
0.0
  0
LINE
  5
52
330
1F
100
AcDbEntity
  8
0
  6
CONTINUOUS
 62
     7
100
AcDbLine
 10
6.1796352514
 20
1.9814211366
 30
0.0
 11
7.8712070044
 21
1.9814211366
 31
0.0
  0
LINE
  5
53
330
1F
100
AcDbEntity
  8
0
  6
CONTINUOUS
 62
     7
100
AcDbLine
 10
6.1796352514
 20
2.1689211366
 30
0.0
 11
7.8712070044
 21
2.1689211366
 31
0.0
  0
LINE
  5
54
330
1F
100
AcDbEntity
  8
0
  6
CONTINUOUS
 62
     7
100
AcDbLine
 10
7.8712070044
 20
1.2314211366
 30
0.0
 11
6.1796352514
 21
1.2314211366
 31
0.0
  0
LINE
  5
55
330
1F
100
AcDbEntity
  8
0
  6
CONTINUOUS
 62
     7
100
AcDbLine
 10
7.3921580388
 20
2.3564211366
 30
0.0
 11
7.3921580388
 21
1.2314211366
 31
0.0
  0
LINE
  5
56
330
1F
100
AcDbEntity
  8
0
  6
CONTINUOUS
 62
     7
100
AcDbLine
 10
6.9236308342
 20
2.3564211366
 30
0.0
 11
6.9236308342
 21
1.2314211366
 31
0.0
  0
LINE
  5
57
330
1F
100
AcDbEntity
  8
0
  6
CONTINUOUS
 62
     7
100
AcDbLine
 10
4.7981841288
 20
0.8557965305
 30
0.0
 11
6.1796352514
 21
0.8557965305
 31
0.0
  0
LINE
  5
58
330
1F
100
AcDbEntity
  8
0
  6
CONTINUOUS
 62
     7
100
AcDbLine
 10
4.7981841288
 20
1.1257965305
 30
0.0
 11
6.1796352514
 21
1.1257965305
 31
0.0
  0
LINE
  5
59
330
1F
100
AcDbEntity
  8
0
  6
CONTINUOUS
 62
     7
100
AcDbLine
 10
2.8210345579
 20
0.3920731707
 30
0.0
 11
2.8210345579
 21
2.3564211366
 31
0.0
  0
LINE
  5
5A
330
1F
100
AcDbEntity
  8
0
  6
CONTINUOUS
 62
     7
100
AcDbLine
 10
2.8210345579
 20
1.1064211366
 30
0.0
 11
4.7981841288
 21
1.1064211366
 31
0.0
  0
LINE
  5
5B
330
1F
100
AcDbEntity
  8
0
  6
CONTINUOUS
 62
     7
100
AcDbLine
 10
2.8210345579
 20
1.3564211366
 30
0.0
 11
4.7981841288
 21
1.3564211366
 31
0.0
  0
LINE
  5
5C
330
1F
100
AcDbEntity
  8
0
  6
CONTINUOUS
 62
     7
100
AcDbLine
 10
2.8210345579
 20
1.6064211366
 30
0.0
 11
4.7981841288
 21
1.6064211366
 31
0.0
  0
LINE
  5
5D
330
1F
100
AcDbEntity
  8
0
  6
CONTINUOUS
 62
     7
100
AcDbLine
 10
2.8210345579
 20
1.8564211366
 30
0.0
 11
4.7981841288
 21
1.8564211366
 31
0.0
  0
LINE
  5
5E
330
1F
100
AcDbEntity
  8
0
  6
CONTINUOUS
 62
     7
100
AcDbLine
 10
3.8190146875
 20
2.3564211366
 30
0.0
 11
3.8190146875
 21
0.5883479999
 31
0.0
  0
LINE
  5
5F
330
1F
100
AcDbEntity
  8
0
  6
CONTINUOUS
 62
     7
100
AcDbLine
 10
6.1796352514
 20
2.2020813496
 30
0.0
 11
4.7981841288
 21
2.2020813496
 31
0.0
  0
LINE
  5
60
330
1F
100
AcDbEntity
  8
0
  6
CONTINUOUS
 62
     7
100
AcDbLine
 10
7.8712070044
 20
1.6064211366
 30
0.0
 11
6.1796352514
 21
1.6064211366
 31
0.0
  0
LINE
  5
61
330
1F
100
AcDbEntity
  8
0
  6
CONTINUOUS
 62
     7
100
AcDbLine
 10
7.8712070044
 20
1.4189211366
 30
0.0
 11
6.1796352514
 21
1.4189211366
 31
0.0
  0
LINE
  5
62
330
1F
100
AcDbEntity
  8
0
  6
CONTINUOUS
 62
     7
100
AcDbLine
 10
2.8210345579
 20
2.1064211366
 30
0.0
 11
4.7981841288
 21
2.1064211366
 31
0.0
  0
LINE
  5
63
330
1F
100
AcDbEntity
  8
0
  6
CONTINUOUS
 62
     7
100
AcDbLine
 10
4.7981841288
 20
1.3957965305
 30
0.0
 11
6.1796352514
 21
1.3957965305
 31
0.0
  0
LINE
  5
64
330
1F
100
AcDbEntity
  8
0
  6
CONTINUOUS
 62
     7
100
AcDbLine
 10
2.8210345579
 20
0.8564211366
 30
0.0
 11
4.7981841288
 21
0.8564211366
 31
0.0
  0
LINE
  5
65
330
1F
100
AcDbEntity
  8
0
  6
CONTINUOUS
 62
     7
100
AcDbLine
 10
1.1838252943
 20
0.3920731707
 30
0.0
 11
1.1838252943
 21
1.3064211366
 31
0.0
  0
LINE
  5
66
330
1F
100
AcDbEntity
  8
0
  6
CONTINUOUS
 62
     7
100
AcDbLine
 10
2.8210345579
 20
1.3064211366
 30
0.0
 11
1.1838252943
 21
1.3064211366
 31
0.0
  0
LINE
  5
67
330
1F
100
AcDbEntity
  8
0
  6
CONTINUOUS
 62
     7
100
AcDbLine
 10
8.660927
 20
0.3920731707
 30
0.0
 11
8.660927
 21
0.3072739649
 31
0.0
  0
LINE
  5
68
330
1F
100
AcDbEntity
  8
0
  6
CONTINUOUS
 62
     7
100
AcDbLine
 10
6.692177
 20
0.3920731707
 30
0.0
 11
6.692177
 21
0.3072739649
 31
0.0
  0
LINE
  5
69
330
1F
100
AcDbEntity
  8
0
  6
CONTINUOUS
 62
     7
100
AcDbLine
 10
4.723427
 20
0.3920731707
 30
0.0
 11
4.723427
 21
0.3072739649
 31
0.0
  0
LINE
  5
6A
330
1F
100
AcDbEntity
  8
0
  6
CONTINUOUS
 62
     7
100
AcDbLine
 10
2.754677
 20
0.3920731707
 30
0.0
 11
2.754677
 21
0.3072739649
 31
0.0
  0
LINE
  5
6B
330
1F
100
AcDbEntity
  8
0
  6
CONTINUOUS
 62
     7
100
AcDbLine
 10
2.754677
 20
0.3920731707
 30
0.0
 11
2.7672319738
 21
0.3575
 31
0.0
  0
LINE
  5
6C
330
1F
100
AcDbEntity
  8
0
  6
CONTINUOUS
 62
     7
100
AcDbLine
 10
2.7672319738
 20
0.3575
 30
0.0
 11
2.7414258825
 21
0.3575
 31
0.0
  0
LINE
  5
6D
330
1F
100
AcDbEntity
  8
0
  6
CONTINUOUS
 62
     7
100
AcDbLine
 10
2.7414258825
 20
0.3575
 30
0.0
 11
2.754677
 21
0.3920731707
 31
0.0
  0
MTEXT
  5
91
330
1F
100
AcDbEntity
  8
0
  6
CONTINUOUS
 62
     7
100
AcDbMText
 10
4.9775846961
 20
0.5178452352
 30
0.0
 40
0.0625
 41
0.0
 71
     1
 72
     1
  1
DO NOT SCALE DRAWING
  7
SLDTEXTSTYLE0
  0
MTEXT
  5
92
330
1F
100
AcDbEntity
  8
0
  6
CONTINUOUS
 62
     7
100
AcDbMText
 10
8.8637120848
 20
0.9417064595
 30
0.0
 40
0.125
 41
0.0
 71
     1
 72
     1
  1
CL13-16
  7
SLDTEXTSTYLE0
  0
MTEXT
  5
94
330
1F
100
AcDbEntity
  8
0
  6
CONTINUOUS
 62
     7
100
AcDbMText
 10
9.7571278483
 20
0.5524239532
 30
0.0
 40
0.1
 41
0.0
 71
     1
 72
     1
  1
SHEET 1 OF 1
  7
SLDTEXTSTYLE1
  0
MTEXT
  5
95
330
1F
100
AcDbEntity
  8
0
  6
CONTINUOUS
 62
     7
100
AcDbMText
 10
4.8448077858
 20
2.3132954224
 30
0.0
 40
0.07
 41
0.0
 71
     1
 72
     1
  1
UNLESS OTHERWISE SPECIFIED:
  7
SLDTEXTSTYLE0
  0
MTEXT
  5
96
330
1F
100
AcDbEntity
  8
0
  6
CONTINUOUS
 62
     7
100
AcDbMText
 10
7.9586139647
 20
0.5520987879
 30
0.0
 40
0.1
 41
0.0
 71
     1
 72
     1
  1
SCALE: 2:1
  7
SLDTEXTSTYLE0
  0
MTEXT
  5
97
330
1F
100
AcDbEntity
  8
0
  6
CONTINUOUS
 62
     7
100
AcDbMText
 10
8.7023691647
 20
0.5486763345
 30
0.0
 40
0.1
 41
0.0
 71
     1
 72
     1
  1
WEIGHT: 
  7
SLDTEXTSTYLE0
  0
MTEXT
  5
98
330
1F
100
AcDbEntity
  8
0
  6
CONTINUOUS
 62
     7
100
AcDbMText
 10
10.2277580983
 20
1.081966299
 30
0.0
 40
0.1
 41
0.0
 71
     1
 72
     1
  1
REV
  7
SLDTEXTSTYLE0
  0
MTEXT
  5
9A
330
1F
100
AcDbEntity
  8
0
  6
CONTINUOUS
 62
     7
100
AcDbMText
 10
8.2984570898
 20
1.0858725293
 30
0.0
 40
0.1
 41
0.0
 71
     1
 72
     1
  1
DWG.  NO.
  7
SLDTEXTSTYLE2
  0
MTEXT
  5
9B
330
1F
100
AcDbEntity
  8
0
  6
CONTINUOUS
 62
     7
100
AcDbMText
 10
7.9598482632
 20
0.9442140768
 30
0.0
 40
0.25
 41
0.0
 71
     1
 72
     1
  1
A
  7
SLDTEXTSTYLE0
  0
MTEXT
  5
9C
330
1F
100
AcDbEntity
  8
0
  6
CONTINUOUS
 62
     7
100
AcDbMText
 10
7.9519581822
 20
1.0872713483
 30
0.0
 40
0.1
 41
0.0
 71
     1
 72
     1
  1
SIZE
  7
SLDTEXTSTYLE0
  0
MTEXT
  5
9D
330
1F
100
AcDbEntity
  8
0
  6
CONTINUOUS
 62
     7
100
AcDbMText
 10
7.9170704177
 20
1.9547881128
 30
0.0
 40
0.1
 41
0.0
 71
     1
 72
     1
  1
TITLE:
  7
SLDTEXTSTYLE0
  0
MTEXT
  5
9E
330
1F
100
AcDbEntity
  8
0
  6
CONTINUOUS
 62
     7
100
AcDbMText
 10
7.0363774929
 20
2.2906161274
 30
0.0
 40
0.065
 41
0.0
 71
     1
 72
     1
  1
NAME
  7
SLDTEXTSTYLE0
  0
MTEXT
  5
9F
330
1F
100
AcDbEntity
  8
0
  6
CONTINUOUS
 62
     7
100
AcDbMText
 10
7.5281510634
 20
2.2888799118
 30
0.0
 40
0.065
 41
0.0
 71
     1
 72
     1
  1
DATE
  7
SLDTEXTSTYLE0
  0
MTEXT
  5
A0
330
1F
100
AcDbEntity
  8
0
  6
CONTINUOUS
 62
     7
100
AcDbMText
 10
6.2277147029
 20
1.1876913145
 30
0.0
 40
0.065
 41
0.0
 71
     1
 72
     1
  1
COMMENTS:
  7
SLDTEXTSTYLE0
  0
MTEXT
  5
A1
330
1F
100
AcDbEntity
  8
0
  6
CONTINUOUS
 62
     7
100
AcDbMText
 10
6.2268411461
 20
1.3536101679
 30
0.0
 40
0.065
 41
0.0
 71
     1
 72
     1
  1
Q.A.
  7
SLDTEXTSTYLE0
  0
MTEXT
  5
A2
330
1F
100
AcDbEntity
  8
0
  6
CONTINUOUS
 62
     7
100
AcDbMText
 10
6.2284654509
 20
1.5395328424
 30
0.0
 40
0.065
 41
0.0
 71
     1
 72
     1
  1
MFG APPR.
  7
SLDTEXTSTYLE0
  0
MTEXT
  5
A3
330
1F
100
AcDbEntity
  8
0
  6
CONTINUOUS
 62
     7
100
AcDbMText
 10
6.2235171344
 20
1.7267501785
 30
0.0
 40
0.065
 41
0.0
 71
     1
 72
     1
  1
ENG APPR.
  7
SLDTEXTSTYLE0
  0
MTEXT
  5
A4
330
1F
100
AcDbEntity
  8
0
  6
CONTINUOUS
 62
     7
100
AcDbMText
 10
6.2264103951
 20
1.9092699088
 30
0.0
 40
0.065
 41
0.0
 71
     1
 72
     1
  1
CHECKED
  7
SLDTEXTSTYLE0
  0
MTEXT
  5
A5
330
1F
100
AcDbEntity
  8
0
  6
CONTINUOUS
 62
     7
100
AcDbMText
 10
6.2242794356
 20
2.1016301232
 30
0.0
 40
0.065
 41
0.0
 71
     1
 72
     1
  1
DRAWN
  7
SLDTEXTSTYLE0
  0
MTEXT
  5
A6
330
1F
100
AcDbEntity
  8
0
  6
CONTINUOUS
 62
     7
100
AcDbMText
 10
4.8208600979
 20
0.834523235
 30
0.0
 40
0.06
 41
0.0
 71
     1
 72
     1
  1
FINISH
  7
SLDTEXTSTYLE0
  0
MTEXT
  5
A7
330
1F
100
AcDbEntity
  8
0
  6
CONTINUOUS
 62
     7
100
AcDbMText
 10
4.8181240648
 20
1.1028217587
 30
0.0
 40
0.06
 41
0.0
 71
     1
 72
     1
  1
MATERIAL
  7
SLDTEXTSTYLE0
  0
INSERT
  5
AD
330
1F
100
AcDbEntity
  8
0
  6
CONTINUOUS
 62
     7
100
AcDbBlockReference
  2
SW_NOTE_0
 10
4.8231926633
 20
1.2646542947
 30
0.0
  0
INSERT
  5
BD
330
1F
100
AcDbEntity
  8
0
  6
CONTINUOUS
 62
     7
100
AcDbBlockReference
  2
SW_NOTE_1
 10
4.8353339353
 20
2.0049168724
 30
0.0
  0
MTEXT
  5
BE
330
1F
100
AcDbEntity
  8
0
  6
CONTINUOUS
 62
     7
100
AcDbMText
 10
3.5531400086
 20
0.5200091997
 30
0.0
 40
0.0625
 41
0.0
 71
     1
 72
     1
  1
APPLICATION
  7
SLDTEXTSTYLE0
  0
MTEXT
  5
BF
330
1F
100
AcDbEntity
  8
0
  6
CONTINUOUS
 62
     7
100
AcDbMText
 10
4.1005607758
 20
0.7502454275
 30
0.0
 40
0.0625
 41
0.0
 71
     1
 72
     1
  1
USED ON
  7
SLDTEXTSTYLE0
  0
MTEXT
  5
C0
330
1F
100
AcDbEntity
  8
0
  6
CONTINUOUS
 62
     7
100
AcDbMText
 10
3.1040019536
 20
0.7492094783
 30
0.0
 40
0.0625
 41
0.0
 71
     1
 72
     1
  1
NEXT ASSY
  7
SLDTEXTSTYLE0
  0
MTEXT
  5
C1
330
1F
100
AcDbEntity
  8
0
  6
CONTINUOUS
 62
     7
100
AcDbMText
 10
1.3712489489
 20
1.2496672684
 30
0.0
 40
0.06
 41
0.0
 71
     1
 72
     1
  1
PROPRIETARY AND CONFIDENTIAL
  7
SLDTEXTSTYLE0
  0
INSERT
  5
CC
330
1F
100
AcDbEntity
  8
0
  6
CONTINUOUS
 62
     7
100
AcDbBlockReference
  2
SW_NOTE_2
 10
1.2226209074
 20
1.0313492921
 30
0.0
  0
MTEXT
  5
CD
330
1F
100
AcDbEntity
  8
0
  6
CONTINUOUS
 62
     7
100
AcDbMText
 10
1.7387909509
 20
0.3105864247
 30
0.0
 40
0.09375
 41
0.0
 71
     1
 72
     1
  1
5
  7
SLDTEXTSTYLE0
  0
MTEXT
  5
CE
330
1F
100
AcDbEntity
  8
0
  6
CONTINUOUS
 62
     7
100
AcDbMText
 10
3.723800327
 20
0.3137237518
 30
0.0
 40
0.09375
 41
0.0
 71
     1
 72
     1
  1
4
  7
SLDTEXTSTYLE0
  0
MTEXT
  5
CF
330
1F
100
AcDbEntity
  8
0
  6
CONTINUOUS
 62
     7
100
AcDbMText
 10
5.6324457277
 20
0.3116191842
 30
0.0
 40
0.09375
 41
0.0
 71
     1
 72
     1
  1
3
  7
SLDTEXTSTYLE0
  0
MTEXT
  5
D0
330
1F
100
AcDbEntity
  8
0
  6
CONTINUOUS
 62
     7
100
AcDbMText
 10
7.6059721724
 20
0.3124391351
 30
0.0
 40
0.09375
 41
0.0
 71
     1
 72
     1
  1
2
  7
SLDTEXTSTYLE0
  0
MTEXT
  5
D1
330
1F
100
AcDbEntity
  8
0
  6
CONTINUOUS
 62
     7
100
AcDbMText
 10
9.6619921328
 20
0.301372012
 30
0.0
 40
0.09375
 41
0.0
 71
     1
 72
     1
  1
1
  7
SLDTEXTSTYLE0
  0
LINE
  5
D2
330
1F
100
AcDbEntity
  8
0
  6
CONTINUOUS
 62
     7
100
AcDbLine
 10
2.4117542136
 20
3.1248200187
 30
0.0
 11
4.2415179931
 21
3.1248200187
 31
0.0
  0
LINE
  5
D3
330
1F
100
AcDbEntity
  8
0
  6
CONTINUOUS
 62
     7
100
AcDbLine
 10
2.712082724
 20
4.3846625384
 30
0.0
 11
2.4117542136
 21
4.3846625384
 31
0.0
  0
LINE
  5
D4
330
1F
100
AcDbEntity
  8
0
  6
CONTINUOUS
 62
     7
100
AcDbLine
 10
3.6569646137
 20
4.3846625384
 30
0.0
 11
2.9963072991
 21
4.3846625384
 31
0.0
  0
LINE
  5
D5
330
1F
100
AcDbEntity
  8
0
  6
CONTINUOUS
 62
     7
100
AcDbLine
 10
4.2415179931
 20
4.3846625384
 30
0.0
 11
3.9411891888
 21
4.3846625384
 31
0.0
  0
LINE
  5
D6
330
1F
100
AcDbEntity
  8
0
  6
CONTINUOUS
 62
     7
100
AcDbLine
 10
4.2415179931
 20
3.1248200187
 30
0.0
 11
4.2715179931
 21
3.1548200187
 31
0.0
  0
LINE
  5
D7
330
1F
100
AcDbEntity
  8
0
  6
CONTINUOUS
 62
     7
100
AcDbLine
 10
4.2715179931
 20
4.3546625384
 30
0.0
 11
4.2415179931
 21
4.3846625384
 31
0.0
  0
LINE
  5
D8
330
1F
100
AcDbEntity
  8
0
  6
CONTINUOUS
 62
     7
100
AcDbLine
 10
2.4117542136
 20
4.3846625384
 30
0.0
 11
2.3817542136
 21
4.3546625384
 31
0.0
  0
LINE
  5
D9
330
1F
100
AcDbEntity
  8
0
  6
CONTINUOUS
 62
     7
100
AcDbLine
 10
2.3817542136
 20
3.1548200187
 30
0.0
 11
2.4117542136
 21
3.1248200187
 31
0.0
  0
LINE
  5
DA
330
1F
100
AcDbEntity
  8
0
  6
CONTINUOUS
 62
     7
100
AcDbLine
 10
3.9048259709
 20
4.3770238519
 30
0.0
 11
3.8971872845
 21
4.3846625384
 31
0.0
  0
LINE
  5
DB
330
1F
100
AcDbEntity
  8
0
  6
CONTINUOUS
 62
     7
100
AcDbLine
 10
3.700966812
 20
4.3846625384
 30
0.0
 11
3.6933282227
 21
4.3770239491
 31
0.0
  0
LINE
  5
DC
330
1F
100
AcDbEntity
  8
0
  6
CONTINUOUS
 62
     7
100
AcDbLine
 10
2.9599440812
 20
4.3770238519
 30
0.0
 11
2.9523053947
 21
4.3846625384
 31
0.0
  0
LINE
  5
DD
330
1F
100
AcDbEntity
  8
0
  6
CONTINUOUS
 62
     7
100
AcDbLine
 10
2.7560849223
 20
4.3846625384
 30
0.0
 11
2.748446333
 21
4.3770239491
 31
0.0
  0
LINE
  5
DE
330
1F
100
AcDbEntity
  8
0
  6
CONTINUOUS
 62
     7
100
AcDbLine
 10
4.2415179931
 20
3.1248200187
 30
0.0
 11
4.2415179931
 21
4.3846625384
 31
0.0
  0
LINE
  5
DF
330
1F
100
AcDbEntity
  8
0
  6
CONTINUOUS
 62
     7
100
AcDbLine
 10
2.4117542136
 20
4.3846625384
 30
0.0
 11
2.4117542136
 21
3.1248200187
 31
0.0
  0
ARC
  5
E0
330
1F
100
AcDbEntity
  8
0
  6
CONTINUOUS
 62
     7
100
AcDbCircle
 10
3.7990770573
 20
4.9623820712
 30
0.0
 40
0.5949418502630708
100
AcDbArc
 50
256.1802740802
 51
283.8196949681
  0
ARC
  5
E1
330
1F
100
AcDbEntity
  8
0
  6
CONTINUOUS
 62
     7
100
AcDbCircle
 10
2.8541951676
 20
4.9623820712
 30
0.0
 40
0.594941850263169
100
AcDbArc
 50
256.1802740802
 51
283.8196949681
  0
LINE
  5
E2
330
1F
100
AcDbEntity
  8
0
  6
CONTINUOUS
 62
     7
100
AcDbLine
 10
4.2715179931
 20
4.3546625384
 30
0.0
 11
4.2715179931
 21
3.1548200187
 31
0.0
  0
LINE
  5
E3
330
1F
100
AcDbEntity
  8
0
  6
CONTINUOUS
 62
     7
100
AcDbLine
 10
2.3817542136
 20
3.1548200187
 30
0.0
 11
2.3817542136
 21
4.3546625384
 31
0.0
  0
LINE
  5
E4
330
1F
100
AcDbEntity
  8
0
  6
CONTINUOUS
 62
     7
100
AcDbLine
 10
3.700966812
 20
4.3846625384
 30
0.0
 11
3.8971872845
 21
4.3846625384
 31
0.0
  0
LINE
  5
E5
330
1F
100
AcDbEntity
  8
0
  6
CONTINUOUS
 62
     7
100
AcDbLine
 10
2.9523053947
 20
4.3846625384
 30
0.0
 11
2.7560849223
 21
4.3846625384
 31
0.0
  0
SPLINE
  5
E6
330
1F
100
AcDbEntity
  8
0
  6
HIDDEN
 62
     7
100
AcDbSpline
210
0.0
220
0.0
230
1.0
 70
     8
 71
     3
 72
    31
 73
    27
 74
     0
 42
0.00000001
 43
0.00000001
 40
-0.1262822077473547
 40
-0.0837719966702973
 40
-0.0426383416433
 40
0.0
 40
0.04264840438177
 40
0.0837852448700663
 40
0.1262888131127066
 40
0.1685335019857936
 40
0.2086717111676373
 40
0.2499050824191132
 40
0.2911801660324257
 40
0.3313825397251981
 40
0.3737169448243372
 40
0.4161803640659231
 40
0.4573105482351129
 40
0.4999944736388605
 40
0.54266768550204
 40
0.5838187550662298
 40
0.6263339854901568
 40
0.6685658974391415
 40
0.70873788221779
 40
0.7500440777962747
 40
0.7912554265740234
 40
0.8314086632371165
 40
0.8737177922526452
 40
0.9162280033297026
 40
0.9573616583566998
 40
0.9999999999999999
 40
1.04264840438177
 40
1.083785244870066
 40
1.126288813112706
 10
3.659798673406864
 20
3.793216063704039
 30
0.0
 10
3.655519377127053
 20
3.754737942441422
 30
0.0
 10
3.659809278403739
 20
3.716260472605352
 30
0.0
 10
3.67418846347028
 20
3.680361892229413
 30
0.0
 10
3.697497811533136
 20
3.649974134154728
 30
0.0
 10
3.726822303564764
 20
3.625830004098566
 30
0.0
 10
3.761654974344476
 20
3.610909588795615
 30
0.0
 10
3.799001692781246
 20
3.606473211853634
 30
0.0
 10
3.836372154297448
 20
3.610889036826813
 30
0.0
 10
3.871265526721426
 20
3.625817976666703
 30
0.0
 10
3.900640760973753
 20
3.649954636353526
 30
0.0
 10
3.923983047391252
 20
3.680336554119052
 30
0.0
 10
3.938353176084472
 20
3.716237302893391
 30
0.0
 10
3.942633939205043
 20
3.754734504505756
 30
0.0
 10
3.938352067291941
 20
3.793239290569824
 30
0.0
 10
3.923962088291257
 20
3.829151679849149
 30
0.0
 10
3.900636160344654
 20
3.859533156855687
 30
0.0
 10
3.871281957856259
 20
3.883659381803481
 30
0.0
 10
3.836411584596337
 20
3.898559703740768
 30
0.0
 10
3.799055952984578
 20
3.903008342480825
 30
0.0
 10
3.76169378260589
 20
3.898611580765614
 30
0.0
 10
3.726845044130383
 20
3.883677477214954
 30
0.0
 10
3.697504034517769
 20
3.859514026739983
 30
0.0
 10
3.674177289331068
 20
3.829113864220014
 30
0.0
 10
3.659798673406864
 20
3.793216063704039
 30
0.0
 10
3.655519377127053
 20
3.754737942441422
 30
0.0
 10
3.659809278403739
 20
3.716260472605352
 30
0.0
  0
SPLINE
  5
E7
330
1F
100
AcDbEntity
  8
0
  6
HIDDEN
 62
     7
100
AcDbSpline
210
0.0
220
0.0
230
1.0
 70
     8
 71
     3
 72
    31
 73
    27
 74
     0
 42
0.00000001
 43
0.00000001
 40
-0.1262822077473489
 40
-0.0837719966702681
 40
-0.042638341643271
 40
0.0
 40
0.04264840438177
 40
0.0837852448700659
 40
0.1262888131127064
 40
0.1685335019857931
 40
0.2086717111676367
 40
0.2499050824191126
 40
0.2911801660323972
 40
0.3313825397251696
 40
0.3737169448243302
 40
0.4161803640659325
 40
0.4573105482351223
 40
0.4999944736388668
 40
0.5426676855019917
 40
0.5838187550661814
 40
0.6263339854901385
 40
0.6685658974390585
 40
0.7087378822177067
 40
0.7500440777962742
 40
0.7912554265740505
 40
0.8314086632371437
 40
0.8737177922526511
 40
0.9162280033297319
 40
0.957361658356729
 40
1.0
 40
1.04264840438177
 40
1.083785244870066
 40
1.126288813112706
 10
2.714916783643087
 20
3.793216063704021
 30
0.0
 10
2.710637487363273
 20
3.754737942441413
 30
0.0
 10
2.71492738863996
 20
3.716260472605352
 30
0.0
 10
2.729306573706501
 20
3.680361892229413
 30
0.0
 10
2.752615921769356
 20
3.649974134154728
 30
0.0
 10
2.781940413800985
 20
3.625830004098566
 30
0.0
 10
2.816773084580697
 20
3.610909588795616
 30
0.0
 10
2.854119803017458
 20
3.606473211853633
 30
0.0
 10
2.891490264533652
 20
3.610889036826815
 30
0.0
 10
2.926383636957625
 20
3.625817976666708
 30
0.0
 10
2.95575887120997
 20
3.649954636353524
 30
0.0
 10
2.979101157627499
 20
3.680336554119045
 30
0.0
 10
2.993471286320721
 20
3.716237302893389
 30
0.0
 10
2.997752049441265
 20
3.754734504505743
 30
0.0
 10
2.993470177528127
 20
3.793239290569787
 30
0.0
 10
2.97908019852744
 20
3.829151679849097
 30
0.0
 10
2.955754270580897
 20
3.859533156855663
 30
0.0
 10
2.926400068092545
 20
3.8836593818035
 30
0.0
 10
2.891529694832608
 20
3.898559703740777
 30
0.0
 10
2.854174063220816
 20
3.903008342480823
 30
0.0
 10
2.816811892842094
 20
3.898611580765619
 30
0.0
 10
2.781963154366582
 20
3.88367747721496
 30
0.0
 10
2.752622144753979
 20
3.859514026739973
 30
0.0
 10
2.729295399567295
 20
3.829113864219992
 30
0.0
 10
2.714916783643087
 20
3.793216063704021
 30
0.0
 10
2.710637487363273
 20
3.754737942441413
 30
0.0
 10
2.71492738863996
 20
3.716260472605352
 30
0.0
  0
SPLINE
  5
E8
330
1F
100
AcDbEntity
  8
0
  6
HIDDEN
 62
     7
100
AcDbSpline
210
0.0
220
0.0
230
1.0
 70
     8
 71
     3
 72
    24
 73
    20
 74
     0
 42
0.00000001
 43
0.00000001
 40
0.0
 40
0.0
 40
0.0
 40
0.0
 40
0.0510636897056664
 40
0.1097041912069113
 40
0.1760013991220203
 40
0.2500069475353272
 40
0.3248641063534399
 40
0.3914219133397946
 40
0.4497287217484731
 40
0.4998631997249349
 40
0.5500259240256455
 40
0.6083630589672007
 40
0.6749531941333604
 40
0.749844631777688
 40
0.8239860147034775
 40
0.8903472723529428
 40
0.9489796711499525
 40
0.9999629845900271
 40
1.0
 40
1.0
 40
1.0
 40
1.0
 10
2.73608492228219
 20
4.364632510667017
 30
0.0
 10
2.736383886951828
 20
4.364516341697406
 30
0.0
 10
2.737026176560573
 20
4.364266766648522
 30
0.0
 10
2.742731914571354
 20
4.362561487836808
 30
0.0
 10
2.753419735939996
 20
4.359966780421151
 30
0.0
 10
2.770007735256214
 20
4.356281246166585
 30
0.0
 10
2.790973000189149
 20
4.352589387353205
 30
0.0
 10
2.813359673740916
 20
4.349929134559552
 30
0.0
 10
2.834457253104637
 20
4.348280599123469
 30
0.0
 10
2.854155261765948
 20
4.347643017607794
 30
0.0
 10
2.87385802394328
 20
4.348279698770124
 30
0.0
 10
2.894970859911088
 20
4.349927146248001
 30
0.0
 10
2.917370470129518
 20
4.35258463004384
 30
0.0
 10
2.93837804152072
 20
4.356281759758995
 30
0.0
 10
2.954930261254585
 20
4.359948435335242
 30
0.0
 10
2.96580773596783
 20
4.362611621135201
 30
0.0
 10
2.970937120356929
 20
4.364113878222343
 30
0.0
 10
2.972812599014921
 20
4.36480586445727
 30
0.0
 10
2.972304658394797
 20
4.364632259016875
 30
0.0
 10
2.97230428988227
 20
4.364632133065578
 30
0.0
  0
SPLINE
  5
E9
330
1F
100
AcDbEntity
  8
0
  6
HIDDEN
 62
     7
100
AcDbSpline
210
0.0
220
0.0
230
1.0
 70
     8
 71
     3
 72
    24
 73
    20
 74
     0
 42
0.00000001
 43
0.00000001
 40
0.0
 40
0.0
 40
0.0
 40
0.0
 40
0.0510636897054172
 40
0.1097041912065795
 40
0.1760013991217714
 40
0.2500069475353255
 40
0.3248641063539139
 40
0.3914219133404278
 40
0.4497287217489479
 40
0.4998631997249331
 40
0.5500259240258671
 40
0.6083630589674971
 40
0.6749531941335827
 40
0.7498446317776869
 40
0.8239860147034762
 40
0.8903472723529415
 40
0.9489796711499519
 40
0.9999629845900279
 40
1.0
 40
1.0
 40
1.0
 40
1.0
 10
3.68096681204597
 20
4.364632510667017
 30
0.0
 10
3.681265776715605
 20
4.364516341697406
 30
0.0
 10
3.681908066324345
 20
4.36426676664852
 30
0.0
 10
3.687613804335097
 20
4.362561487836804
 30
0.0
 10
3.698301625703732
 20
4.359966780421147
 30
0.0
 10
3.714889625020005
 20
4.356281246166581
 30
0.0
 10
3.735854889953044
 20
4.352589387353199
 30
0.0
 10
3.758241563504884
 20
4.349929134559541
 30
0.0
 10
3.779339142868555
 20
4.348280599123457
 30
0.0
 10
3.799037151529815
 20
4.347643017607794
 30
0.0
 10
3.818739913707125
 20
4.348279698770138
 30
0.0
 10
3.839852749674955
 20
4.349927146248016
 30
0.0
 10
3.862252359893351
 20
4.352584630043852
 30
0.0
 10
3.883259931284516
 20
4.356281759758995
 30
0.0
 10
3.899812151018367
 20
4.359948435335252
 30
0.0
 10
3.910689625731599
 20
4.362611621135168
 30
0.0
 10
3.915819010120742
 20
4.364113878222446
 30
0.0
 10
3.917694488778638
 20
4.36480586445708
 30
0.0
 10
3.917186548158577
 20
4.364632259016875
 30
0.0
 10
3.91718617964605
 20
4.364632133065578
 30
0.0
  0
LINE
  5
EA
330
1F
100
AcDbEntity
  8
0
  6
HIDDEN
 62
     7
100
AcDbLine
 10
3.4266361034
 20
3.9028515147
 30
0.0
 11
3.4266361034
 21
3.6066310423
 31
0.0
  0
LINE
  5
EB
330
1F
100
AcDbEntity
  8
0
  6
HIDDEN
 62
     7
100
AcDbLine
 10
3.2266361034
 20
3.9028515147
 30
0.0
 11
3.2266361034
 21
3.6066310423
 31
0.0
  0
LINE
  5
EC
330
1F
100
AcDbEntity
  8
0
  6
HIDDEN
 62
     7
100
AcDbLine
 10
2.9723053947
 20
3.8728515147
 30
0.0
 11
2.8541951585
 21
3.7547412785
 31
0.0
  0
ARC
  5
ED
330
1F
100
AcDbEntity
  8
0
  6
HIDDEN
 62
     7
100
AcDbCircle
 10
2.8541951585
 20
3.7547412785
 30
0.0
 40
0.1181102362204727
100
AcDbArc
 50
45.0
 51
135.0
  0
LINE
  5
EE
330
1F
100
AcDbEntity
  8
0
  6
HIDDEN
 62
     7
100
AcDbLine
 10
2.8541951585
 20
3.7547412785
 30
0.0
 11
2.7360849223
 21
3.8728515147
 31
0.0
  0
LINE
  5
EF
330
1F
100
AcDbEntity
  8
0
  6
HIDDEN
 62
     7
100
AcDbLine
 10
3.9171872845
 20
3.8728515147
 30
0.0
 11
3.7990770483
 21
3.7547412785
 31
0.0
  0
ARC
  5
F0
330
1F
100
AcDbEntity
  8
0
  6
HIDDEN
 62
     7
100
AcDbCircle
 10
3.7990770483
 20
3.7547412785
 30
0.0
 40
0.1181102362204727
100
AcDbArc
 50
45.0
 51
135.0
  0
LINE
  5
F1
330
1F
100
AcDbEntity
  8
0
  6
HIDDEN
 62
     7
100
AcDbLine
 10
3.7990770483
 20
3.7547412785
 30
0.0
 11
3.680966812
 21
3.8728515147
 31
0.0
  0
ARC
  5
F2
330
1F
100
AcDbEntity
  8
0
  6
HIDDEN
 62
     7
100
AcDbCircle
 10
2.8541951585
 20
3.7547412785
 30
0.0
 40
0.1181102362204727
100
AcDbArc
 50
135.0
 51
270.0
  0
ARC
  5
F3
330
1F
100
AcDbEntity
  8
0
  6
HIDDEN
 62
     7
100
AcDbCircle
 10
2.8541951585
 20
3.7547412785
 30
0.0
 40
0.1181102362204727
100
AcDbArc
 50
270.0
 51
45.0
  0
ARC
  5
F4
330
1F
100
AcDbEntity
  8
0
  6
HIDDEN
 62
     7
100
AcDbCircle
 10
3.7990770483
 20
3.7547412785
 30
0.0
 40
0.1181102362204727
100
AcDbArc
 50
135.0
 51
270.0
  0
ARC
  5
F5
330
1F
100
AcDbEntity
  8
0
  6
HIDDEN
 62
     7
100
AcDbCircle
 10
3.7990770483
 20
3.7547412785
 30
0.0
 40
0.1181102362204727
100
AcDbArc
 50
270.0
 51
45.0
  0
CIRCLE
  5
F6
330
1F
100
AcDbEntity
  8
0
  6
HIDDEN
 62
     7
100
AcDbCircle
 10
3.7990770483
 20
3.7547412785
 30
0.0
 40
0.0981102362204731
  0
ARC
  5
F7
330
1F
100
AcDbEntity
  8
0
  6
HIDDEN
 62
     7
100
AcDbCircle
 10
3.7990770483
 20
3.7547412785
 30
0.0
 40
0.1181102362204727
100
AcDbArc
 50
270.0
 51
0.0
  0
ARC
  5
F8
330
1F
100
AcDbEntity
  8
0
  6
HIDDEN
 62
     7
100
AcDbCircle
 10
3.7990770483
 20
3.7547412785
 30
0.0
 40
0.1181102362204727
100
AcDbArc
 50
0.0
 51
45.0
  0
LINE
  5
F9
330
1F
100
AcDbEntity
  8
0
  6
HIDDEN
 62
     7
100
AcDbLine
 10
3.7400219302
 20
3.7888367669
 30
0.0
 11
3.7990770483
 21
3.8229322552
 31
0.0
  0
LINE
  5
FA
330
1F
100
AcDbEntity
  8
0
  6
HIDDEN
 62
     7
100
AcDbLine
 10
3.7990770483
 20
3.8229322552
 30
0.0
 11
3.8581321664
 21
3.7888367669
 31
0.0
  0
LINE
  5
FB
330
1F
100
AcDbEntity
  8
0
  6
HIDDEN
 62
     7
100
AcDbLine
 10
3.7990770483
 20
3.6865503018
 30
0.0
 11
3.7400219302
 21
3.7206457902
 31
0.0
  0
LINE
  5
FC
330
1F
100
AcDbEntity
  8
0
  6
HIDDEN
 62
     7
100
AcDbLine
 10
3.8581321664
 20
3.7888367669
 30
0.0
 11
3.8581321664
 21
3.7206457902
 31
0.0
  0
LINE
  5
FD
330
1F
100
AcDbEntity
  8
0
  6
HIDDEN
 62
     7
100
AcDbLine
 10
3.7400219302
 20
3.7206457902
 30
0.0
 11
3.7400219302
 21
3.7888367669
 31
0.0
  0
LINE
  5
FE
330
1F
100
AcDbEntity
  8
0
  6
HIDDEN
 62
     7
100
AcDbLine
 10
3.8581321664
 20
3.7206457902
 30
0.0
 11
3.7990770483
 21
3.6865503018
 31
0.0
  0
CIRCLE
  5
FF
330
1F
100
AcDbEntity
  8
0
  6
HIDDEN
 62
     7
100
AcDbCircle
 10
2.8541951585
 20
3.7547412785
 30
0.0
 40
0.0981102362204727
  0
ARC
  5
100
330
1F
100
AcDbEntity
  8
0
  6
HIDDEN
 62
     7
100
AcDbCircle
 10
2.8541951585
 20
3.7547412785
 30
0.0
 40
0.1181102362204727
100
AcDbArc
 50
180.0
 51
270.0
  0
ARC
  5
101
330
1F
100
AcDbEntity
  8
0
  6
HIDDEN
 62
     7
100
AcDbCircle
 10
2.8541951585
 20
3.7547412785
 30
0.0
 40
0.1181102362204727
100
AcDbArc
 50
135.0
 51
180.0
  0
LINE
  5
102
330
1F
100
AcDbEntity
  8
0
  6
HIDDEN
 62
     7
100
AcDbLine
 10
2.7951400404
 20
3.7206457902
 30
0.0
 11
2.8541951585
 21
3.6865503018
 31
0.0
  0
LINE
  5
103
330
1F
100
AcDbEntity
  8
0
  6
HIDDEN
 62
     7
100
AcDbLine
 10
2.8541951585
 20
3.6865503018
 30
0.0
 11
2.9132502766
 21
3.7206457902
 31
0.0
  0
LINE
  5
104
330
1F
100
AcDbEntity
  8
0
  6
HIDDEN
 62
     7
100
AcDbLine
 10
2.9132502766
 20
3.7206457902
 30
0.0
 11
2.9132502766
 21
3.7888367669
 31
0.0
  0
LINE
  5
105
330
1F
100
AcDbEntity
  8
0
  6
HIDDEN
 62
     7
100
AcDbLine
 10
2.9132502766
 20
3.7888367669
 30
0.0
 11
2.8541951585
 21
3.8229322552
 31
0.0
  0
LINE
  5
106
330
1F
100
AcDbEntity
  8
0
  6
HIDDEN
 62
     7
100
AcDbLine
 10
2.7951400404
 20
3.7888367669
 30
0.0
 11
2.7951400404
 21
3.7206457902
 31
0.0
  0
LINE
  5
107
330
1F
100
AcDbEntity
  8
0
  6
HIDDEN
 62
     7
100
AcDbLine
 10
2.8541951585
 20
3.8229322552
 30
0.0
 11
2.7951400404
 21
3.7888367669
 31
0.0
  0
LINE
  5
108
330
1F
100
AcDbEntity
  8
0
  6
HIDDEN
 62
     7
100
AcDbLine
 10
3.9171872845
 20
4.3646625384
 30
0.0
 11
3.680966812
 21
4.3646625384
 31
0.0
  0
LINE
  5
109
330
1F
100
AcDbEntity
  8
0
  6
HIDDEN
 62
     7
100
AcDbLine
 10
3.680966812
 20
3.8928515147
 30
0.0
 11
3.9171872845
 21
3.8928515147
 31
0.0
  0
LINE
  5
10A
330
1F
100
AcDbEntity
  8
0
  6
HIDDEN
 62
     7
100
AcDbLine
 10
3.8971872845
 20
3.8728515147
 30
0.0
 11
3.700966812
 21
3.8728515147
 31
0.0
  0
LINE
  5
10B
330
1F
100
AcDbEntity
  8
0
  6
HIDDEN
 62
     7
100
AcDbLine
 10
3.7990770483
 20
4.2665523021
 30
0.0
 11
3.7990770483
 21
4.3846625384
 31
0.0
  0
LINE
  5
10C
330
1F
100
AcDbEntity
  8
0
  6
HIDDEN
 62
     7
100
AcDbLine
 10
3.7400219302
 20
4.2665523021
 30
0.0
 11
3.7990770483
 21
4.2665523021
 31
0.0
  0
LINE
  5
10D
330
1F
100
AcDbEntity
  8
0
  6
HIDDEN
 62
     7
100
AcDbLine
 10
3.7990770483
 20
4.2665523021
 30
0.0
 11
3.8581321664
 21
4.2665523021
 31
0.0
  0
LINE
  5
10E
330
1F
100
AcDbEntity
  8
0
  6
HIDDEN
 62
     7
100
AcDbLine
 10
3.8581321664
 20
4.2665523021
 30
0.0
 11
3.8581321664
 21
4.3846625384
 31
0.0
  0
LINE
  5
10F
330
1F
100
AcDbEntity
  8
0
  6
HIDDEN
 62
     7
100
AcDbLine
 10
3.7400219302
 20
4.2665523021
 30
0.0
 11
3.7400219302
 21
4.3846625384
 31
0.0
  0
LINE
  5
110
330
1F
100
AcDbEntity
  8
0
  6
HIDDEN
 62
     7
100
AcDbLine
 10
2.7360849223
 20
4.3646625384
 30
0.0
 11
2.9723053947
 21
4.3646625384
 31
0.0
  0
LINE
  5
111
330
1F
100
AcDbEntity
  8
0
  6
HIDDEN
 62
     7
100
AcDbLine
 10
2.9723053947
 20
3.8928515147
 30
0.0
 11
2.7360849223
 21
3.8928515147
 31
0.0
  0
LINE
  5
112
330
1F
100
AcDbEntity
  8
0
  6
HIDDEN
 62
     7
100
AcDbLine
 10
2.7560849223
 20
3.8728515147
 30
0.0
 11
2.9523053947
 21
3.8728515147
 31
0.0
  0
LINE
  5
113
330
1F
100
AcDbEntity
  8
0
  6
HIDDEN
 62
     7
100
AcDbLine
 10
2.8541951585
 20
4.2665523021
 30
0.0
 11
2.8541951585
 21
4.3846625384
 31
0.0
  0
LINE
  5
114
330
1F
100
AcDbEntity
  8
0
  6
HIDDEN
 62
     7
100
AcDbLine
 10
2.9132502766
 20
4.2665523021
 30
0.0
 11
2.8541951585
 21
4.2665523021
 31
0.0
  0
LINE
  5
115
330
1F
100
AcDbEntity
  8
0
  6
HIDDEN
 62
     7
100
AcDbLine
 10
2.8541951585
 20
4.2665523021
 30
0.0
 11
2.7951400404
 21
4.2665523021
 31
0.0
  0
LINE
  5
116
330
1F
100
AcDbEntity
  8
0
  6
HIDDEN
 62
     7
100
AcDbLine
 10
2.7951400404
 20
4.2665523021
 30
0.0
 11
2.7951400404
 21
4.3846625384
 31
0.0
  0
LINE
  5
117
330
1F
100
AcDbEntity
  8
0
  6
HIDDEN
 62
     7
100
AcDbLine
 10
2.9132502766
 20
4.2665523021
 30
0.0
 11
2.9132502766
 21
4.3846625384
 31
0.0
  0
LINE
  5
118
330
1F
100
AcDbEntity
  8
0
  6
HIDDEN
 62
     7
100
AcDbLine
 10
2.9723053969
 20
4.3646325106
 30
0.0
 11
2.9963075957
 21
4.3846625383
 31
0.0
  0
LINE
  5
119
330
1F
100
AcDbEntity
  8
0
  6
HIDDEN
 62
     7
100
AcDbLine
 10
2.7120827155
 20
4.3846625394
 30
0.0
 11
2.7360849153
 21
4.3646325117
 31
0.0
  0
LINE
  5
11A
330
1F
100
AcDbEntity
  8
0
  6
HIDDEN
 62
     7
100
AcDbLine
 10
3.9171872867
 20
4.3646325106
 30
0.0
 11
3.9411894855
 21
4.3846625383
 31
0.0
  0
LINE
  5
11B
330
1F
100
AcDbEntity
  8
0
  6
HIDDEN
 62
     7
100
AcDbLine
 10
3.6569646053
 20
4.3846625394
 30
0.0
 11
3.6809668051
 21
4.3646325117
 31
0.0
  0
LINE
  5
11C
330
1F
100
AcDbEntity
  8
0
  6
HIDDEN
 62
     7
100
AcDbLine
 10
4.2715179931
 20
3.9028515147
 30
0.0
 11
4.2415179931
 21
3.8728515147
 31
0.0
  0
LINE
  5
11D
330
1F
100
AcDbEntity
  8
0
  6
HIDDEN
 62
     7
100
AcDbLine
 10
4.2415179931
 20
3.6366310423
 30
0.0
 11
4.2715179931
 21
3.6066310423
 31
0.0
  0
LINE
  5
11E
330
1F
100
AcDbEntity
  8
0
  6
HIDDEN
 62
     7
100
AcDbLine
 10
3.4266361034
 20
3.9028515147
 30
0.0
 11
3.2266361034
 21
3.9028515147
 31
0.0
  0
LINE
  5
11F
330
1F
100
AcDbEntity
  8
0
  6
HIDDEN
 62
     7
100
AcDbLine
 10
3.2266361034
 20
3.6066310423
 30
0.0
 11
3.4266361034
 21
3.6066310423
 31
0.0
  0
LINE
  5
120
330
1F
100
AcDbEntity
  8
0
  6
HIDDEN
 62
     7
100
AcDbLine
 10
2.3817542136
 20
3.6066310423
 30
0.0
 11
2.4117542136
 21
3.6366310423
 31
0.0
  0
LINE
  5
121
330
1F
100
AcDbEntity
  8
0
  6
HIDDEN
 62
     7
100
AcDbLine
 10
2.4117542136
 20
3.8728515147
 30
0.0
 11
2.3817542136
 21
3.9028515147
 31
0.0
  0
LINE
  5
122
330
1F
100
AcDbEntity
  8
0
  6
HIDDEN
 62
     7
100
AcDbLine
 10
2.9723053947
 20
3.8728515147
 30
0.0
 11
2.9723053947
 21
4.3646324375
 31
0.0
  0
LINE
  5
123
330
1F
100
AcDbEntity
  8
0
  6
HIDDEN
 62
     7
100
AcDbLine
 10
2.7360849223
 20
4.3646325107
 30
0.0
 11
2.7360849223
 21
3.8728515147
 31
0.0
  0
LINE
  5
124
330
1F
100
AcDbEntity
  8
0
  6
HIDDEN
 62
     7
100
AcDbLine
 10
3.9171872845
 20
3.8728515147
 30
0.0
 11
3.9171872845
 21
4.3646324375
 31
0.0
  0
LINE
  5
125
330
1F
100
AcDbEntity
  8
0
  6
HIDDEN
 62
     7
100
AcDbLine
 10
3.680966812
 20
4.3646325107
 30
0.0
 11
3.680966812
 21
3.8728515147
 31
0.0
  0
LINE
  5
126
330
1F
100
AcDbEntity
  8
0
  6
HIDDEN
 62
     7
100
AcDbLine
 10
2.7360849223
 20
3.8728515147
 30
0.0
 11
2.4117542136
 21
3.8728515147
 31
0.0
  0
LINE
  5
127
330
1F
100
AcDbEntity
  8
0
  6
HIDDEN
 62
     7
100
AcDbLine
 10
3.2266361034
 20
3.8728515147
 30
0.0
 11
2.9723053947
 21
3.8728515147
 31
0.0
  0
LINE
  5
128
330
1F
100
AcDbEntity
  8
0
  6
HIDDEN
 62
     7
100
AcDbLine
 10
2.8541951585
 20
3.6366310423
 30
0.0
 11
3.2266361034
 21
3.6366310423
 31
0.0
  0
LINE
  5
129
330
1F
100
AcDbEntity
  8
0
  6
HIDDEN
 62
     7
100
AcDbLine
 10
2.4117542136
 20
3.6366310423
 30
0.0
 11
2.8541951585
 21
3.6366310423
 31
0.0
  0
LINE
  5
12A
330
1F
100
AcDbEntity
  8
0
  6
HIDDEN
 62
     7
100
AcDbLine
 10
3.680966812
 20
3.8728515147
 30
0.0
 11
3.4266361034
 21
3.8728515147
 31
0.0
  0
LINE
  5
12B
330
1F
100
AcDbEntity
  8
0
  6
HIDDEN
 62
     7
100
AcDbLine
 10
4.2415179931
 20
3.8728515147
 30
0.0
 11
3.9171872845
 21
3.8728515147
 31
0.0
  0
LINE
  5
12C
330
1F
100
AcDbEntity
  8
0
  6
HIDDEN
 62
     7
100
AcDbLine
 10
3.7990770483
 20
3.6366310423
 30
0.0
 11
4.2415179931
 21
3.6366310423
 31
0.0
  0
LINE
  5
12D
330
1F
100
AcDbEntity
  8
0
  6
HIDDEN
 62
     7
100
AcDbLine
 10
3.4266361034
 20
3.6366310423
 30
0.0
 11
3.7990770483
 21
3.6366310423
 31
0.0
  0
LINE
  5
12E
330
1F
100
AcDbEntity
  8
0
  6
HIDDEN
 62
     7
100
AcDbLine
 10
3.9171872845
 20
3.8928515147
 30
0.0
 11
3.9171872845
 21
4.3646625384
 31
0.0
  0
LINE
  5
12F
330
1F
100
AcDbEntity
  8
0
  6
HIDDEN
 62
     7
100
AcDbLine
 10
3.680966812
 20
4.3646625384
 30
0.0
 11
3.680966812
 21
3.8928515147
 31
0.0
  0
LINE
  5
130
330
1F
100
AcDbEntity
  8
0
  6
HIDDEN
 62
     7
100
AcDbLine
 10
3.9171872845
 20
4.3646625384
 30
0.0
 11
3.9048259709
 21
4.3770238519
 31
0.0
  0
LINE
  5
131
330
1F
100
AcDbEntity
  8
0
  6
HIDDEN
 62
     7
100
AcDbLine
 10
3.6933282227
 20
4.3770239491
 30
0.0
 11
3.680966812
 21
4.3646625384
 31
0.0
  0
LINE
  5
132
330
1F
100
AcDbEntity
  8
0
  6
HIDDEN
 62
     7
100
AcDbLine
 10
3.680966812
 20
3.8928515147
 30
0.0
 11
3.700966812
 21
3.8728515147
 31
0.0
  0
LINE
  5
133
330
1F
100
AcDbEntity
  8
0
  6
HIDDEN
 62
     7
100
AcDbLine
 10
3.8971872845
 20
3.8728515147
 30
0.0
 11
3.9171872845
 21
3.8928515147
 31
0.0
  0
LINE
  5
134
330
1F
100
AcDbEntity
  8
0
  6
HIDDEN
 62
     7
100
AcDbLine
 10
2.9723053947
 20
4.3646625384
 30
0.0
 11
2.9599440812
 21
4.3770238519
 31
0.0
  0
LINE
  5
135
330
1F
100
AcDbEntity
  8
0
  6
HIDDEN
 62
     7
100
AcDbLine
 10
2.748446333
 20
4.3770239491
 30
0.0
 11
2.7360849223
 21
4.3646625384
 31
0.0
  0
LINE
  5
136
330
1F
100
AcDbEntity
  8
0
  6
HIDDEN
 62
     7
100
AcDbLine
 10
2.9723053947
 20
3.8928515147
 30
0.0
 11
2.9723053947
 21
4.3646625384
 31
0.0
  0
LINE
  5
137
330
1F
100
AcDbEntity
  8
0
  6
HIDDEN
 62
     7
100
AcDbLine
 10
2.7360849223
 20
4.3646625384
 30
0.0
 11
2.7360849223
 21
3.8928515147
 31
0.0
  0
LINE
  5
138
330
1F
100
AcDbEntity
  8
0
  6
HIDDEN
 62
     7
100
AcDbLine
 10
2.7360849223
 20
3.8928515147
 30
0.0
 11
2.7560849223
 21
3.8728515147
 31
0.0
  0
LINE
  5
139
330
1F
100
AcDbEntity
  8
0
  6
HIDDEN
 62
     7
100
AcDbLine
 10
2.9523053947
 20
3.8728515147
 30
0.0
 11
2.9723053947
 21
3.8928515147
 31
0.0
  0
LINE
  5
13A
330
1F
100
AcDbEntity
  8
0
  6
CONTINUOUS
 62
     7
100
AcDbLine
 10
8.8676595326
 20
3.6474217166
 30
0.0
 11
8.8768688583
 21
3.6566310423
 31
0.0
  0
LINE
  5
13B
330
1F
100
AcDbEntity
  8
0
  6
CONTINUOUS
 62
     7
100
AcDbLine
 10
8.8768688583
 20
3.8528515147
 30
0.0
 11
8.8676595326
 21
3.8620608404
 31
0.0
  0
LINE
  5
13C
330
1F
100
AcDbEntity
  8
0
  6
CONTINUOUS
 62
     7
100
AcDbLine
 10
8.3542671603
 20
4.3754532127
 30
0.0
 11
8.3450578347
 21
4.3846625384
 31
0.0
  0
LINE
  5
13D
330
1F
100
AcDbEntity
  8
0
  6
CONTINUOUS
 62
     7
100
AcDbLine
 10
8.1488373622
 20
4.3846625384
 30
0.0
 11
8.1396280366
 21
4.3754532127
 31
0.0
  0
CIRCLE
  5
13E
330
1F
100
AcDbEntity
  8
0
  6
CONTINUOUS
 62
     7
100
AcDbCircle
 10
8.2469475984
 20
3.7547412785
 30
0.0
 40
0.5999212598425192
  0
CIRCLE
  5
13F
330
1F
100
AcDbEntity
  8
0
  6
CONTINUOUS
 62
     7
100
AcDbCircle
 10
8.2469475984
 20
3.7547412785
 30
0.0
 40
0.6299212598425186
  0
CIRCLE
  5
140
330
1F
100
AcDbEntity
  8
0
  6
CONTINUOUS
 62
     7
100
AcDbCircle
 10
8.2469475984
 20
3.7547412785
 30
0.0
 40
0.1481102362204716
  0
CIRCLE
  5
141
330
1F
100
AcDbEntity
  8
0
  6
CONTINUOUS
 62
     7
100
AcDbCircle
 10
8.2469475984
 20
3.7547412785
 30
0.0
 40
0.1181102362204722
  0
LINE
  5
142
330
1F
100
AcDbEntity
  8
0
  6
CONTINUOUS
 62
     7
100
AcDbLine
 10
8.8768688583
 20
3.8528515147
 30
0.0
 11
8.8768688583
 21
3.6566310423
 31
0.0
  0
LINE
  5
143
330
1F
100
AcDbEntity
  8
0
  6
CONTINUOUS
 62
     7
100
AcDbLine
 10
8.1488373622
 20
4.3846625384
 30
0.0
 11
8.3450578347
 21
4.3846625384
 31
0.0
  0
LINE
  5
144
330
1F
100
AcDbEntity
  8
0
  6
HIDDEN
 62
     7
100
AcDbLine
 10
8.8568388306
 20
3.7547412785
 30
0.0
 11
8.8567882685
 21
3.7565661911
 31
0.0
  0
SPLINE
  5
145
330
1F
100
AcDbEntity
  8
0
  6
HIDDEN
 62
     7
100
AcDbSpline
210
0.0
220
0.0
230
1.0
 70
     8
 71
     3
 72
    25
 73
    21
 74
     0
 42
0.00000001
 43
0.00000001
 40
0.0
 40
0.0
 40
0.0
 40
0.0
 40
0.0000603626621256
 40
0.0502085147454336
 40
0.1085287028120949
 40
0.1750994936156811
 40
0.2499691753780021
 40
0.3240890203121014
 40
0.3904310000877411
 40
0.449046366235949
 40
0.500014869078132
 40
0.5509098106270006
 40
0.6094807199385401
 40
0.6758075753253011
 40
0.7499426480452394
 40
0.8248377298855237
 40
0.8914300689659225
 40
0.9497678253382671
 40
0.9999292713757787
 40
1.0
 40
1.0
 40
1.0
 40
1.0
 10
8.840051407814808
 20
3.872849724462766
 30
0.0
 10
8.840051195417765
 20
3.872850319226044
 30
0.0
 10
8.83987452759489
 20
3.873345032013315
 30
0.0
 10
8.840580966605453
 20
3.871524477166806
 30
0.0
 10
8.842102137877625
 20
3.866489308673065
 30
0.0
 10
8.844801646517977
 20
3.855655821429239
 30
0.0
 10
8.848482546334244
 20
3.839125431442191
 30
0.0
 10
8.852165001773011
 20
3.818177134724234
 30
0.0
 10
8.854787721286819
 20
3.795890455075489
 30
0.0
 10
8.856413003271298
 20
3.774685741123775
 30
0.0
 10
8.857035862740052
 20
3.754747752577352
 30
0.0
 10
8.856417246306446
 20
3.734815318123887
 30
0.0
 10
8.854793386795366
 20
3.713625356255442
 30
0.0
 10
8.852171243622607
 20
3.691339961589055
 30
0.0
 10
8.848487519730122
 20
3.670383361934114
 30
0.0
 10
8.844806599638362
 20
3.653841975671542
 30
0.0
 10
8.842105781197365
 20
3.643000263203504
 30
0.0
 10
8.840583281955935
 20
3.637960246933355
 30
0.0
 10
8.839875017653407
 20
3.636137942952341
 30
0.0
 10
8.840051273168276
 20
3.636632436933791
 30
0.0
 10
8.840051521342085
 20
3.636633133198271
 30
0.0
  0
LINE
  5
146
330
1F
100
AcDbEntity
  8
0
  6
HIDDEN
 62
     7
100
AcDbLine
 10
8.2469475984
 20
4.3646325107
 30
0.0
 11
8.2451226858
 21
4.3645819486
 31
0.0
  0
SPLINE
  5
147
330
1F
100
AcDbEntity
  8
0
  6
HIDDEN
 62
     7
100
AcDbSpline
210
0.0
220
0.0
230
1.0
 70
     8
 71
     3
 72
    25
 73
    21
 74
     0
 42
0.00000001
 43
0.00000001
 40
0.0
 40
0.0
 40
0.0
 40
0.0
 40
0.0000603626621247
 40
0.0502085147456543
 40
0.1085287028123891
 40
0.1750994936158994
 40
0.2499691753779958
 40
0.3240890203118653
 40
0.3904310000874276
 40
0.4490463662357108
 40
0.5000148690781209
 40
0.550909810627304
 40
0.6094807199389473
 40
0.6758075753256043
 40
0.7499426480452339
 40
0.8248377298849722
 40
0.8914300689651876
 40
0.9497678253377148
 40
0.9999292713757784
 40
1.0
 40
1.0
 40
1.0
 40
1.0
 10
8.128839152505238
 20
4.347845087882865
 30
0.0
 10
8.12883855774196
 20
4.347844875485821
 30
0.0
 10
8.128343844954687
 20
4.347668207663001
 30
0.0
 10
8.130164399801204
 20
4.348374646673494
 30
0.0
 10
8.135199568294972
 20
4.349895817945703
 30
0.0
 10
8.146033055538803
 20
4.35259532658604
 30
0.0
 10
8.162563445525818
 20
4.3562762264023
 30
0.0
 10
8.183511742243716
 20
4.359958681841057
 30
0.0
 10
8.205798421892425
 20
4.36258140135486
 30
0.0
 10
8.227003135844162
 20
4.364206683339342
 30
0.0
 10
8.246941124390661
 20
4.364829542808108
 30
0.0
 10
8.266873558844209
 20
4.364210926374519
 30
0.0
 10
8.288063520712686
 20
4.362587066863443
 30
0.0
 10
8.310348915379025
 20
4.359964923690681
 30
0.0
 10
8.33130551503386
 20
4.356281199798182
 30
0.0
 10
8.347846901296366
 20
4.352600279706413
 30
0.0
 10
8.358688613764421
 20
4.34989946126541
 30
0.0
 10
8.363728630034625
 20
4.348376962024009
 30
0.0
 10
8.365550934015676
 20
4.347668697721423
 30
0.0
 10
8.365056440034213
 20
4.347844953236334
 30
0.0
 10
8.365055743769732
 20
4.347845201410141
 30
0.0
  0
LINE
  5
148
330
1F
100
AcDbEntity
  8
0
  6
HIDDEN
 62
     7
100
AcDbLine
 10
8.3650578347
 20
3.8728515147
 30
0.0
 11
8.3304641474
 21
3.8382578275
 31
0.0
  0
LINE
  5
149
330
1F
100
AcDbEntity
  8
0
  6
HIDDEN
 62
     7
100
AcDbLine
 10
8.8568688583
 20
3.6366310423
 30
0.0
 11
8.8568688583
 21
3.8728515147
 31
0.0
  0
LINE
  5
14A
330
1F
100
AcDbEntity
  8
0
  6
HIDDEN
 62
     7
100
AcDbLine
 10
8.3850578347
 20
3.7547412785
 30
0.0
 11
8.3850578347
 21
3.6366310423
 31
0.0
  0
LINE
  5
14B
330
1F
100
AcDbEntity
  8
0
  6
HIDDEN
 62
     7
100
AcDbLine
 10
8.3850578347
 20
3.8728515147
 30
0.0
 11
8.3850578347
 21
3.7547412785
 31
0.0
  0
LINE
  5
14C
330
1F
100
AcDbEntity
  8
0
  6
HIDDEN
 62
     7
100
AcDbLine
 10
8.3650578347
 20
3.7547412785
 30
0.0
 11
8.3650578347
 21
3.8528515147
 31
0.0
  0
LINE
  5
14D
330
1F
100
AcDbEntity
  8
0
  6
HIDDEN
 62
     7
100
AcDbLine
 10
8.3650578347
 20
3.6566310423
 30
0.0
 11
8.3650578347
 21
3.7547412785
 31
0.0
  0
LINE
  5
14E
330
1F
100
AcDbEntity
  8
0
  6
HIDDEN
 62
     7
100
AcDbLine
 10
8.7587586221
 20
3.7206457902
 30
0.0
 11
8.8768688583
 21
3.7206457902
 31
0.0
  0
LINE
  5
14F
330
1F
100
AcDbEntity
  8
0
  6
HIDDEN
 62
     7
100
AcDbLine
 10
8.7587586221
 20
3.7888367669
 30
0.0
 11
8.8768688583
 21
3.7888367669
 31
0.0
  0
LINE
  5
150
330
1F
100
AcDbEntity
  8
0
  6
HIDDEN
 62
     7
100
AcDbLine
 10
8.7587586221
 20
3.8229322552
 30
0.0
 11
8.7587586221
 21
3.7888367669
 31
0.0
  0
LINE
  5
151
330
1F
100
AcDbEntity
  8
0
  6
HIDDEN
 62
     7
100
AcDbLine
 10
8.7587586221
 20
3.7888367669
 30
0.0
 11
8.7587586221
 21
3.7206457902
 31
0.0
  0
LINE
  5
152
330
1F
100
AcDbEntity
  8
0
  6
HIDDEN
 62
     7
100
AcDbLine
 10
8.7587586221
 20
3.7206457902
 30
0.0
 11
8.7587586221
 21
3.6865503018
 31
0.0
  0
LINE
  5
153
330
1F
100
AcDbEntity
  8
0
  6
HIDDEN
 62
     7
100
AcDbLine
 10
8.7587586221
 20
3.6865503018
 30
0.0
 11
8.8768688583
 21
3.6865503018
 31
0.0
  0
LINE
  5
154
330
1F
100
AcDbEntity
  8
0
  6
HIDDEN
 62
     7
100
AcDbLine
 10
8.7587586221
 20
3.8229322552
 30
0.0
 11
8.8768688583
 21
3.8229322552
 31
0.0
  0
LINE
  5
155
330
1F
100
AcDbEntity
  8
0
  6
HIDDEN
 62
     7
100
AcDbLine
 10
8.3650578347
 20
4.3646625384
 30
0.0
 11
8.1288373622
 21
4.3646625384
 31
0.0
  0
LINE
  5
156
330
1F
100
AcDbEntity
  8
0
  6
HIDDEN
 62
     7
100
AcDbLine
 10
8.2469475984
 20
3.8928515147
 30
0.0
 11
8.3650578347
 21
3.8928515147
 31
0.0
  0
LINE
  5
157
330
1F
100
AcDbEntity
  8
0
  6
HIDDEN
 62
     7
100
AcDbLine
 10
8.1288373622
 20
3.8928515147
 30
0.0
 11
8.2469475984
 21
3.8928515147
 31
0.0
  0
LINE
  5
158
330
1F
100
AcDbEntity
  8
0
  6
HIDDEN
 62
     7
100
AcDbLine
 10
8.2469475984
 20
3.8728515147
 30
0.0
 11
8.1488373622
 21
3.8728515147
 31
0.0
  0
LINE
  5
159
330
1F
100
AcDbEntity
  8
0
  6
HIDDEN
 62
     7
100
AcDbLine
 10
8.3450578347
 20
3.8728515147
 30
0.0
 11
8.2469475984
 21
3.8728515147
 31
0.0
  0
LINE
  5
15A
330
1F
100
AcDbEntity
  8
0
  6
HIDDEN
 62
     7
100
AcDbLine
 10
8.2810430868
 20
4.2665523021
 30
0.0
 11
8.3151385751
 21
4.2665523021
 31
0.0
  0
LINE
  5
15B
330
1F
100
AcDbEntity
  8
0
  6
HIDDEN
 62
     7
100
AcDbLine
 10
8.2810430868
 20
4.2665523021
 30
0.0
 11
8.2810430868
 21
4.3846625384
 31
0.0
  0
LINE
  5
15C
330
1F
100
AcDbEntity
  8
0
  6
HIDDEN
 62
     7
100
AcDbLine
 10
8.2128521101
 20
4.2665523021
 30
0.0
 11
8.2810430868
 21
4.2665523021
 31
0.0
  0
LINE
  5
15D
330
1F
100
AcDbEntity
  8
0
  6
HIDDEN
 62
     7
100
AcDbLine
 10
8.2128521101
 20
4.2665523021
 30
0.0
 11
8.2128521101
 21
4.3846625384
 31
0.0
  0
LINE
  5
15E
330
1F
100
AcDbEntity
  8
0
  6
HIDDEN
 62
     7
100
AcDbLine
 10
8.1787566218
 20
4.2665523021
 30
0.0
 11
8.2128521101
 21
4.2665523021
 31
0.0
  0
LINE
  5
15F
330
1F
100
AcDbEntity
  8
0
  6
HIDDEN
 62
     7
100
AcDbLine
 10
8.3151385751
 20
4.2665523021
 30
0.0
 11
8.3151385751
 21
4.3846625384
 31
0.0
  0
LINE
  5
160
330
1F
100
AcDbEntity
  8
0
  6
HIDDEN
 62
     7
100
AcDbLine
 10
8.1787566218
 20
4.2665523021
 30
0.0
 11
8.1787566218
 21
4.3846625384
 31
0.0
  0
LINE
  5
161
330
1F
100
AcDbEntity
  8
0
  6
HIDDEN
 62
     7
100
AcDbLine
 10
8.8400507758
 20
3.6366310632
 30
0.0
 11
8.8595294508
 21
3.6079616181
 31
0.0
  0
LINE
  5
162
330
1F
100
AcDbEntity
  8
0
  6
HIDDEN
 62
     7
100
AcDbLine
 10
8.8595294454
 20
3.9015209663
 30
0.0
 11
8.8400507706
 21
3.8728515158
 31
0.0
  0
LINE
  5
163
330
1F
100
AcDbEntity
  8
0
  6
HIDDEN
 62
     7
100
AcDbLine
 10
8.3650578137
 20
4.3478444559
 30
0.0
 11
8.3937272589
 21
4.3673231308
 31
0.0
  0
LINE
  5
164
330
1F
100
AcDbEntity
  8
0
  6
HIDDEN
 62
     7
100
AcDbLine
 10
8.1001679107
 20
4.3673231254
 30
0.0
 11
8.1288373612
 21
4.3478444506
 31
0.0
  0
LINE
  5
165
330
1F
100
AcDbEntity
  8
0
  6
HIDDEN
 62
     7
100
AcDbLine
 10
8.2469475984
 20
3.6366310423
 30
0.0
 11
8.8400517259
 21
3.6366310423
 31
0.0
  0
LINE
  5
166
330
1F
100
AcDbEntity
  8
0
  6
HIDDEN
 62
     7
100
AcDbLine
 10
8.84005199
 20
3.8728515147
 30
0.0
 11
8.3650578347
 21
3.8728515147
 31
0.0
  0
LINE
  5
167
330
1F
100
AcDbEntity
  8
0
  6
HIDDEN
 62
     7
100
AcDbLine
 10
8.3650578347
 20
3.8728515147
 30
0.0
 11
8.3650578347
 21
4.3478454059
 31
0.0
  0
LINE
  5
168
330
1F
100
AcDbEntity
  8
0
  6
HIDDEN
 62
     7
100
AcDbLine
 10
8.1288373622
 20
4.3478456701
 30
0.0
 11
8.1288373622
 21
3.7547412785
 31
0.0
  0
LINE
  5
169
330
1F
100
AcDbEntity
  8
0
  6
HIDDEN
 62
     7
100
AcDbLine
 10
8.8568688583
 20
3.6366310423
 30
0.0
 11
8.8676595326
 21
3.6474217166
 31
0.0
  0
LINE
  5
16A
330
1F
100
AcDbEntity
  8
0
  6
HIDDEN
 62
     7
100
AcDbLine
 10
8.8676595326
 20
3.8620608404
 30
0.0
 11
8.8568688583
 21
3.8728515147
 31
0.0
  0
LINE
  5
16B
330
1F
100
AcDbEntity
  8
0
  6
HIDDEN
 62
     7
100
AcDbLine
 10
8.3850578347
 20
3.6366310423
 30
0.0
 11
8.8568688583
 21
3.6366310423
 31
0.0
  0
LINE
  5
16C
330
1F
100
AcDbEntity
  8
0
  6
HIDDEN
 62
     7
100
AcDbLine
 10
8.8568688583
 20
3.8728515147
 30
0.0
 11
8.3850578347
 21
3.8728515147
 31
0.0
  0
LINE
  5
16D
330
1F
100
AcDbEntity
  8
0
  6
HIDDEN
 62
     7
100
AcDbLine
 10
8.3850578347
 20
3.8728515147
 30
0.0
 11
8.3650578347
 21
3.8528515147
 31
0.0
  0
LINE
  5
16E
330
1F
100
AcDbEntity
  8
0
  6
HIDDEN
 62
     7
100
AcDbLine
 10
8.3650578347
 20
3.6566310423
 30
0.0
 11
8.3850578347
 21
3.6366310423
 31
0.0
  0
LINE
  5
16F
330
1F
100
AcDbEntity
  8
0
  6
HIDDEN
 62
     7
100
AcDbLine
 10
8.3650578347
 20
3.8928515147
 30
0.0
 11
8.3650578347
 21
4.3646625384
 31
0.0
  0
LINE
  5
170
330
1F
100
AcDbEntity
  8
0
  6
HIDDEN
 62
     7
100
AcDbLine
 10
8.1288373622
 20
4.3646625384
 30
0.0
 11
8.1288373622
 21
3.8928515147
 31
0.0
  0
LINE
  5
171
330
1F
100
AcDbEntity
  8
0
  6
HIDDEN
 62
     7
100
AcDbLine
 10
8.1288373622
 20
3.8928515147
 30
0.0
 11
8.1488373622
 21
3.8728515147
 31
0.0
  0
LINE
  5
172
330
1F
100
AcDbEntity
  8
0
  6
HIDDEN
 62
     7
100
AcDbLine
 10
8.3450578347
 20
3.8728515147
 30
0.0
 11
8.3650578347
 21
3.8928515147
 31
0.0
  0
LINE
  5
173
330
1F
100
AcDbEntity
  8
0
  6
HIDDEN
 62
     7
100
AcDbLine
 10
8.3650578347
 20
4.3646625384
 30
0.0
 11
8.3542671603
 21
4.3754532127
 31
0.0
  0
LINE
  5
174
330
1F
100
AcDbEntity
  8
0
  6
HIDDEN
 62
     7
100
AcDbLine
 10
8.1396280366
 20
4.3754532127
 30
0.0
 11
8.1288373622
 21
4.3646625384
 31
0.0
  0
LINE
  5
175
330
1F
100
AcDbEntity
  8
0
  6
CONTINUOUS
 62
     7
100
AcDbLine
 10
2.4117542136
 20
6.0381188712
 30
0.0
 11
4.2415179931
 21
6.0381188712
 31
0.0
  0
LINE
  5
176
330
1F
100
AcDbEntity
  8
0
  6
CONTINUOUS
 62
     7
100
AcDbLine
 10
2.712082724
 20
7.2979613909
 30
0.0
 11
2.4117542136
 21
7.2979613909
 31
0.0
  0
LINE
  5
177
330
1F
100
AcDbEntity
  8
0
  6
CONTINUOUS
 62
     7
100
AcDbLine
 10
3.6569646137
 20
7.2979613909
 30
0.0
 11
2.9963072991
 21
7.2979613909
 31
0.0
  0
LINE
  5
178
330
1F
100
AcDbEntity
  8
0
  6
CONTINUOUS
 62
     7
100
AcDbLine
 10
4.2415179931
 20
7.2979613909
 30
0.0
 11
3.9411891888
 21
7.2979613909
 31
0.0
  0
LINE
  5
179
330
1F
100
AcDbEntity
  8
0
  6
CONTINUOUS
 62
     7
100
AcDbLine
 10
2.4117542136
 20
7.2979613909
 30
0.0
 11
2.3817542136
 21
7.2679613909
 31
0.0
  0
LINE
  5
17A
330
1F
100
AcDbEntity
  8
0
  6
CONTINUOUS
 62
     7
100
AcDbLine
 10
2.3817542136
 20
6.0681188712
 30
0.0
 11
2.4117542136
 21
6.0381188712
 31
0.0
  0
LINE
  5
17B
330
1F
100
AcDbEntity
  8
0
  6
CONTINUOUS
 62
     7
100
AcDbLine
 10
4.2415179931
 20
6.0381188712
 30
0.0
 11
4.2715179931
 21
6.0681188712
 31
0.0
  0
LINE
  5
17C
330
1F
100
AcDbEntity
  8
0
  6
CONTINUOUS
 62
     7
100
AcDbLine
 10
4.2715179931
 20
7.2679613909
 30
0.0
 11
4.2415179931
 21
7.2979613909
 31
0.0
  0
LINE
  5
17D
330
1F
100
AcDbEntity
  8
0
  6
CONTINUOUS
 62
     7
100
AcDbLine
 10
3.9048259709
 20
7.2903227044
 30
0.0
 11
3.8971872845
 21
7.2979613909
 31
0.0
  0
LINE
  5
17E
330
1F
100
AcDbEntity
  8
0
  6
CONTINUOUS
 62
     7
100
AcDbLine
 10
3.700966812
 20
7.2979613909
 30
0.0
 11
3.6933282227
 21
7.2903228016
 31
0.0
  0
LINE
  5
17F
330
1F
100
AcDbEntity
  8
0
  6
CONTINUOUS
 62
     7
100
AcDbLine
 10
2.9599440812
 20
7.2903227044
 30
0.0
 11
2.9523053947
 21
7.2979613909
 31
0.0
  0
LINE
  5
180
330
1F
100
AcDbEntity
  8
0
  6
CONTINUOUS
 62
     7
100
AcDbLine
 10
2.7560849223
 20
7.2979613909
 30
0.0
 11
2.748446333
 21
7.2903228016
 31
0.0
  0
LINE
  5
181
330
1F
100
AcDbEntity
  8
0
  6
CONTINUOUS
 62
     7
100
AcDbLine
 10
4.2415179931
 20
6.0381188712
 30
0.0
 11
4.2415179931
 21
7.2979613909
 31
0.0
  0
LINE
  5
182
330
1F
100
AcDbEntity
  8
0
  6
CONTINUOUS
 62
     7
100
AcDbLine
 10
2.4117542136
 20
7.2979613909
 30
0.0
 11
2.4117542136
 21
6.0381188712
 31
0.0
  0
SPLINE
  5
183
330
1F
100
AcDbEntity
  8
0
  6
CONTINUOUS
 62
     7
100
AcDbSpline
210
0.0
220
0.0
230
1.0
 70
     8
 71
     3
 72
    31
 73
    27
 74
     0
 42
0.00000001
 43
0.00000001
 40
-0.1262822077473545
 40
-0.0837719966702971
 40
-0.0426383416433002
 40
0.0
 40
0.042648404381657
 40
0.083785244869953
 40
0.1262888131126841
 40
0.168533501985648
 40
0.2086717111674916
 40
0.2499050824191056
 40
0.2911801660324153
 40
0.3313825397251874
 40
0.3737169448243431
 40
0.4161803640659916
 40
0.4573105482351817
 40
0.4999944736388686
 40
0.5426676855020514
 40
0.583818755066241
 40
0.6263339854901514
 40
0.6685658974391143
 40
0.7087378822177626
 40
0.7500440777962744
 40
0.7912554265740233
 40
0.8314086632371166
 40
0.8737177922526455
 40
0.9162280033297029
 40
0.9573616583566998
 40
1.0
 40
1.042648404381657
 40
1.083785244869953
 40
1.126288813112684
 10
3.659798673406865
 20
6.629565345856401
 30
0.0
 10
3.65551937712705
 20
6.668043467118983
 30
0.0
 10
3.659809278403749
 20
6.70652093695502
 30
0.0
 10
3.674188463470306
 20
6.74241951733094
 30
0.0
 10
3.697497811533086
 20
6.772807275405662
 30
0.0
 10
3.726822303564663
 20
6.79695140546188
 30
0.0
 10
3.761654974344396
 20
6.811871820764809
 30
0.0
 10
3.799001692781201
 20
6.816308197706805
 30
0.0
 10
3.83637215429745
 20
6.811892372733659
 30
0.0
 10
3.871265526721436
 20
6.796963432893763
 30
0.0
 10
3.900640760973761
 20
6.772826773206903
 30
0.0
 10
3.923983047391265
 20
6.742444855441352
 30
0.0
 10
3.938353176084497
 20
6.706544106667017
 30
0.0
 10
3.942633939205045
 20
6.668046905054664
 30
0.0
 10
3.938352067291912
 20
6.629542118990618
 30
0.0
 10
3.923962088291232
 20
6.593629729711299
 30
0.0
 10
3.900636160344658
 20
6.563248252704755
 30
0.0
 10
3.87128195785628
 20
6.539122027756952
 30
0.0
 10
3.836411584596355
 20
6.524221705819668
 30
0.0
 10
3.799055952984586
 20
6.519773067079615
 30
0.0
 10
3.76169378260589
 20
6.524169828794824
 30
0.0
 10
3.726845044130383
 20
6.539103932345486
 30
0.0
 10
3.697504034517768
 20
6.563267382820456
 30
0.0
 10
3.674177289331067
 20
6.593667545340426
 30
0.0
 10
3.659798673406865
 20
6.629565345856401
 30
0.0
 10
3.65551937712705
 20
6.668043467118983
 30
0.0
 10
3.659809278403749
 20
6.70652093695502
 30
0.0
  0
SPLINE
  5
184
330
1F
100
AcDbEntity
  8
0
  6
CONTINUOUS
 62
     7
100
AcDbSpline
210
0.0
220
0.0
230
1.0
 70
     8
 71
     3
 72
    31
 73
    27
 74
     0
 42
0.00000001
 43
0.00000001
 40
-0.1262822077473487
 40
-0.0837719966702684
 40
-0.0426383416432713
 40
0.0
 40
0.0426484043816566
 40
0.0837852448699528
 40
0.1262888131126845
 40
0.1685335019856481
 40
0.208671711167492
 40
0.2499050824191062
 40
0.2911801660323603
 40
0.3313825397251322
 40
0.3737169448243314
 40
0.4161803640659332
 40
0.4573105482351233
 40
0.4999944736388681
 40
0.5426676855019926
 40
0.5838187550661822
 40
0.6263339854901396
 40
0.6685658974390589
 40
0.7087378822177074
 40
0.7500440777962745
 40
0.7912554265740508
 40
0.8314086632371438
 40
0.8737177922526512
 40
0.9162280033297315
 40
0.9573616583567286
 40
0.9999999999999999
 40
1.042648404381656
 40
1.083785244869953
 40
1.126288813112684
 10
2.714916783643088
 20
6.629565345856419
 30
0.0
 10
2.710637487363271
 20
6.668043467118992
 30
0.0
 10
2.714927388639968
 20
6.70652093695502
 30
0.0
 10
2.729306573706527
 20
6.74241951733094
 30
0.0
 10
2.752615921769307
 20
6.772807275405662
 30
0.0
 10
2.781940413800884
 20
6.796951405461881
 30
0.0
 10
2.816773084580617
 20
6.811871820764807
 30
0.0
 10
2.854119803017405
 20
6.816308197706806
 30
0.0
 10
2.891490264533638
 20
6.811892372733655
 30
0.0
 10
2.926383636957612
 20
6.79696343289375
 30
0.0
 10
2.955758871209962
 20
6.772826773206925
 30
0.0
 10
2.979101157627499
 20
6.742444855441396
 30
0.0
 10
2.993471286320722
 20
6.70654410666705
 30
0.0
 10
2.997752049441266
 20
6.668046905054697
 30
0.0
 10
2.993470177528128
 20
6.629542118990652
 30
0.0
 10
2.97908019852744
 20
6.593629729711343
 30
0.0
 10
2.955754270580898
 20
6.563248252704775
 30
0.0
 10
2.926400068092545
 20
6.53912202775694
 30
0.0
 10
2.891529694832609
 20
6.524221705819661
 30
0.0
 10
2.854174063220815
 20
6.519773067079616
 30
0.0
 10
2.816811892842094
 20
6.52416982879482
 30
0.0
 10
2.781963154366581
 20
6.53910393234548
 30
0.0
 10
2.752622144753978
 20
6.563267382820467
 30
0.0
 10
2.729295399567294
 20
6.593667545340447
 30
0.0
 10
2.714916783643088
 20
6.629565345856419
 30
0.0
 10
2.710637487363271
 20
6.668043467118992
 30
0.0
 10
2.714927388639968
 20
6.70652093695502
 30
0.0
  0
ARC
  5
185
330
1F
100
AcDbEntity
  8
0
  6
CONTINUOUS
 62
     7
100
AcDbCircle
 10
3.7990770573
 20
7.8756809237
 30
0.0
 40
0.5949418502631141
100
AcDbArc
 50
256.1802740802
 51
283.8196949681
  0
ARC
  5
186
330
1F
100
AcDbEntity
  8
0
  6
CONTINUOUS
 62
     7
100
AcDbCircle
 10
2.8541951676
 20
7.8756809237
 30
0.0
 40
0.594941850263234
100
AcDbArc
 50
256.1802740802
 51
283.8196949681
  0
SPLINE
  5
187
330
1F
100
AcDbEntity
  8
0
  6
CONTINUOUS
 62
     7
100
AcDbSpline
210
0.0
220
0.0
230
1.0
 70
     8
 71
     3
 72
    33
 73
    29
 74
     0
 42
0.00000001
 43
0.00000001
 40
-0.0881325753264925
 40
-0.0548842670584943
 40
-0.025520167781602
 40
0.0
 40
0.0255821761527503
 40
0.0549602263434558
 40
0.0881741766299746
 40
0.125249894947987
 40
0.1627522578645543
 40
0.1960967645481189
 40
0.2253076392854607
 40
0.250424293689143
 40
0.3045709913768521
 40
0.3750176114280636
 40
0.4121613808884761
 40
0.4454074191732217
 40
0.4747814100253614
 40
0.5003233188219862
 40
0.5549492700312046
 40
0.6248908894178629
 40
0.6624186119633244
 40
0.6957875671690669
 40
0.7250218584820162
 40
0.7501607120215513
 40
0.8042769605549048
 40
0.8747090596308954
 40
0.9118674246735075
 40
0.9451157329415057
 40
0.974479832218398
 40
1.0
 40
1.02558217615275
 40
1.054960226343456
 40
1.088174176629975
 10
3.682063833696098
 20
6.687974362706612
 30
0.0
 10
3.680455573051177
 20
6.668024698432244
 30
0.0
 10
3.682067610987957
 20
6.648071949013541
 30
0.0
 10
3.687562175984223
 20
6.626866242618156
 30
0.0
 10
3.698318071916733
 20
6.604601216044375
 30
0.0
 10
3.714884856102833
 20
6.583684475340855
 30
0.0
 10
3.735856311680504
 20
6.56712620597672
 30
0.0
 10
3.758240356721266
 20
6.556401787244062
 30
0.0
 10
3.77934212117799
 20
6.551006115574841
 30
0.0
 10
3.806216533159374
 20
6.548858617291632
 30
0.0
 10
3.843484616798592
 20
6.555235449039983
 30
0.0
 10
3.878244620009192
 20
6.577294785986836
 30
0.0
 10
3.899830672250783
 20
6.60459924380077
 30
0.0
 10
3.91060431043849
 20
6.626891140902042
 30
0.0
 10
3.916088192648909
 20
6.648098523001043
 30
0.0
 10
3.918284303959644
 20
6.67523878159438
 30
0.0
 10
3.911813626090362
 20
6.712613070876772
 30
0.0
 10
3.889650533095533
 20
6.74739112619108
 30
0.0
 10
3.86230993127249
 20
6.768941013141859
 30
0.0
 10
3.839904693881583
 20
6.779684802630588
 30
0.0
 10
3.818786045671237
 20
6.785079096673032
 30
0.0
 10
3.791906919700537
 20
6.787219611667648
 30
0.0
 10
3.754646949872245
 20
6.780833386322953
 30
0.0
 10
3.719897444726024
 20
6.758774496054006
 30
0.0
 10
3.69831433020544
 20
6.731467877632672
 30
0.0
 10
3.687544124327561
 20
6.709171408280289
 30
0.0
 10
3.682063833696098
 20
6.687974362706612
 30
0.0
 10
3.680455573051177
 20
6.668024698432244
 30
0.0
 10
3.682067610987957
 20
6.648071949013541
 30
0.0
  0
LINE
  5
188
330
1F
100
AcDbEntity
  8
0
  6
CONTINUOUS
 62
     7
100
AcDbLine
 10
2.7360849223
 20
6.668040131
 30
0.0
 11
2.7368468878
 21
6.6585977097
 31
0.0
  0
SPLINE
  5
189
330
1F
100
AcDbEntity
  8
0
  6
CONTINUOUS
 62
     7
100
AcDbSpline
210
0.0
220
0.0
230
1.0
 70
     8
 71
     3
 72
    10
 73
     6
 74
     0
 42
0.00000001
 43
0.00000001
 40
0.0
 40
0.0
 40
0.0
 40
0.0
 40
0.4146010341385526
 40
0.8553318074588863
 40
1.0
 40
1.0
 40
1.0
 40
1.0
 10
2.97087471113993
 20
6.650280379461349
 30
0.0
 10
2.971505852421968
 20
6.656182751459012
 30
0.0
 10
2.972807911917909
 20
6.668359485459555
 30
0.0
 10
2.972027636578447
 20
6.682870903301438
 30
0.0
 10
2.969787659422592
 20
6.690938324841261
 30
0.0
 10
2.969234099431255
 20
6.692932006690214
 30
0.0
  0
SPLINE
  5
18A
330
1F
100
AcDbEntity
  8
0
  6
CONTINUOUS
 62
     7
100
AcDbSpline
210
0.0
220
0.0
230
1.0
 70
     8
 71
     3
 72
     9
 73
     5
 74
     0
 42
0.00000001
 43
0.00000001
 40
0.0
 40
0.0
 40
0.0
 40
0.0
 40
0.1126027079267212
 40
1.0
 40
1.0
 40
1.0
 40
1.0
 10
2.738205206256459
 20
6.689251439691649
 30
0.0
 10
2.73799750422721
 20
6.688478508023737
 30
0.0
 10
2.736152947972094
 20
6.681614271078242
 30
0.0
 10
2.736116905910261
 20
6.674422282357669
 30
0.0
 10
2.73608492228219
 20
6.668040131042411
 30
0.0
  0
LINE
  5
18B
330
1F
100
AcDbEntity
  8
0
  6
CONTINUOUS
 62
     7
100
AcDbLine
 10
2.3817542136
 20
6.0681188712
 30
0.0
 11
2.3817542136
 21
7.2679613909
 31
0.0
  0
LINE
  5
18C
330
1F
100
AcDbEntity
  8
0
  6
CONTINUOUS
 62
     7
100
AcDbLine
 10
4.2715179931
 20
7.2679613909
 30
0.0
 11
4.2715179931
 21
6.0681188712
 31
0.0
  0
LINE
  5
18D
330
1F
100
AcDbEntity
  8
0
  6
CONTINUOUS
 62
     7
100
AcDbLine
 10
3.700966812
 20
7.2979613909
 30
0.0
 11
3.8971872845
 21
7.2979613909
 31
0.0
  0
LINE
  5
18E
330
1F
100
AcDbEntity
  8
0
  6
CONTINUOUS
 62
     7
100
AcDbLine
 10
2.9523053947
 20
7.2979613909
 30
0.0
 11
2.7560849223
 21
7.2979613909
 31
0.0
  0
CIRCLE
  5
18F
330
1F
100
AcDbEntity
  8
0
  6
CONTINUOUS
 62
     7
100
AcDbCircle
 10
3.7990770483
 20
6.668040131
 30
0.0
 40
0.0981102362204727
  0
LINE
  5
190
330
1F
100
AcDbEntity
  8
0
  6
CONTINUOUS
 62
     7
100
AcDbLine
 10
3.7990770483
 20
6.7362311077
 30
0.0
 11
3.7400219302
 21
6.7021356194
 31
0.0
  0
LINE
  5
191
330
1F
100
AcDbEntity
  8
0
  6
CONTINUOUS
 62
     7
100
AcDbLine
 10
3.7400219302
 20
6.7021356194
 30
0.0
 11
3.7400219302
 21
6.6339446427
 31
0.0
  0
LINE
  5
192
330
1F
100
AcDbEntity
  8
0
  6
CONTINUOUS
 62
     7
100
AcDbLine
 10
3.7400219302
 20
6.6339446427
 30
0.0
 11
3.7990770483
 21
6.5998491544
 31
0.0
  0
LINE
  5
193
330
1F
100
AcDbEntity
  8
0
  6
CONTINUOUS
 62
     7
100
AcDbLine
 10
3.7990770483
 20
6.5998491544
 30
0.0
 11
3.8581321664
 21
6.6339446427
 31
0.0
  0
LINE
  5
194
330
1F
100
AcDbEntity
  8
0
  6
CONTINUOUS
 62
     7
100
AcDbLine
 10
3.8581321664
 20
6.6339446427
 30
0.0
 11
3.8581321664
 21
6.7021356194
 31
0.0
  0
LINE
  5
195
330
1F
100
AcDbEntity
  8
0
  6
CONTINUOUS
 62
     7
100
AcDbLine
 10
3.8581321664
 20
6.7021356194
 30
0.0
 11
3.7990770483
 21
6.7362311077
 31
0.0
  0
CIRCLE
  5
196
330
1F
100
AcDbEntity
  8
0
  6
CONTINUOUS
 62
     7
100
AcDbCircle
 10
3.7990770483
 20
6.668040131
 30
0.0
 40
0.1181102362204722
  0
CIRCLE
  5
197
330
1F
100
AcDbEntity
  8
0
  6
CONTINUOUS
 62
     7
100
AcDbCircle
 10
2.8541951585
 20
6.668040131
 30
0.0
 40
0.0981102362204727
  0
LINE
  5
198
330
1F
100
AcDbEntity
  8
0
  6
CONTINUOUS
 62
     7
100
AcDbLine
 10
2.7951400404
 20
6.6339446427
 30
0.0
 11
2.7951400404
 21
6.7021356194
 31
0.0
  0
LINE
  5
199
330
1F
100
AcDbEntity
  8
0
  6
CONTINUOUS
 62
     7
100
AcDbLine
 10
2.8541951585
 20
6.5998491544
 30
0.0
 11
2.7951400404
 21
6.6339446427
 31
0.0
  0
LINE
  5
19A
330
1F
100
AcDbEntity
  8
0
  6
CONTINUOUS
 62
     7
100
AcDbLine
 10
2.9132502766
 20
6.6339446427
 30
0.0
 11
2.8541951585
 21
6.5998491544
 31
0.0
  0
LINE
  5
19B
330
1F
100
AcDbEntity
  8
0
  6
CONTINUOUS
 62
     7
100
AcDbLine
 10
2.9132502766
 20
6.7021356194
 30
0.0
 11
2.9132502766
 21
6.6339446427
 31
0.0
  0
LINE
  5
19C
330
1F
100
AcDbEntity
  8
0
  6
CONTINUOUS
 62
     7
100
AcDbLine
 10
2.8541951585
 20
6.7362311077
 30
0.0
 11
2.9132502766
 21
6.7021356194
 31
0.0
  0
LINE
  5
19D
330
1F
100
AcDbEntity
  8
0
  6
CONTINUOUS
 62
     7
100
AcDbLine
 10
2.7951400404
 20
6.7021356194
 30
0.0
 11
2.8541951585
 21
6.7362311077
 31
0.0
  0
CIRCLE
  5
19E
330
1F
100
AcDbEntity
  8
0
  6
CONTINUOUS
 62
     7
100
AcDbCircle
 10
2.8541951585
 20
6.668040131
 30
0.0
 40
0.1181102362204727
  0
SPLINE
  5
19F
330
1F
100
AcDbEntity
  8
0
  6
HIDDEN
 62
     7
100
AcDbSpline
210
0.0
220
0.0
230
1.0
 70
     8
 71
     3
 72
    23
 73
    19
 74
     0
 42
0.00000001
 43
0.00000001
 40
0.0
 40
0.0
 40
0.0
 40
0.0
 40
0.0276323515629941
 40
0.0909171782296636
 40
0.1624651221247675
 40
0.2423319067498705
 40
0.3231177492867569
 40
0.3949469316882014
 40
0.4578716367839039
 40
0.5119767632330186
 40
0.5661123731140325
 40
0.6290698066026947
 40
0.7009338775743773
 40
0.7817567138190221
 40
0.8617700910440815
 40
0.9333871574097137
 40
0.9966632396383256
 40
1.0
 40
1.0
 40
1.0
 40
1.0
 10
2.73684688784405
 20
6.658597709745709
 30
0.0
 10
2.737031884177898
 20
6.655422414267773
 30
0.0
 10
2.737640567250636
 20
6.644974917454437
 30
0.0
 10
2.74281634062087
 20
6.626878070713227
 30
0.0
 10
2.753392873293032
 20
6.604597446904462
 30
0.0
 10
2.770015392326961
 20
6.583685573778844
 30
0.0
 10
2.790971184833053
 20
6.567125859081789
 30
0.0
 10
2.813360065535466
 20
6.556402129449458
 30
0.0
 10
2.834457196495122
 20
6.551005233189062
 30
0.0
 10
2.85415519109064
 20
6.549435815123428
 30
0.0
 10
2.873858386567926
 20
6.550991969360427
 30
0.0
 10
2.894969131653376
 20
6.556379294145266
 30
0.0
 10
2.917378309637018
 20
6.567096862804871
 30
0.0
 10
2.938345005995062
 20
6.583666658751588
 30
0.0
 10
2.955046282192672
 20
6.604592405918637
 30
0.0
 10
2.965443620711618
 20
6.626922795725704
 30
0.0
 10
2.970259707506075
 20
6.642262921263696
 30
0.0
 10
2.970845374022047
 20
6.649897927873544
 30
0.0
 10
2.97087471113993
 20
6.650280379461349
 30
0.0
  0
SPLINE
  5
1A0
330
1F
100
AcDbEntity
  8
0
  6
HIDDEN
 62
     7
100
AcDbSpline
210
0.0
220
0.0
230
1.0
 70
     8
 71
     3
 72
    21
 73
    17
 74
     0
 42
0.00000001
 43
0.00000001
 40
0.0
 40
0.0
 40
0.0
 40
0.0
 40
0.0478627040964317
 40
0.123692032821305
 40
0.2084482415479331
 40
0.294073343893148
 40
0.370206191458876
 40
0.4369018440603355
 40
0.4942497879468642
 40
0.5515461918580834
 40
0.618189758248883
 40
0.6942706170305942
 40
0.7798430698146037
 40
0.8645869299922093
 40
0.9404148544106301
 40
1.0
 40
1.0
 40
1.0
 40
1.0
 10
2.969234099431255
 20
6.692932006690214
 30
0.0
 10
2.968095824884445
 20
6.698002447501215
 30
0.0
 10
2.965154171351455
 20
6.711106035003275
 30
0.0
 10
2.95486338693861
 20
6.731414742566316
 30
0.0
 10
2.938430415420253
 20
6.752398354487656
 30
0.0
 10
2.917390066153893
 20
6.768965549516163
 30
0.0
 10
2.894992739046831
 20
6.779694538715974
 30
0.0
 10
2.873872838480516
 20
6.78508596172254
 30
0.0
 10
2.854167127967064
 20
6.786644594285773
 30
0.0
 10
2.834467721370301
 20
6.785076659777435
 30
0.0
 10
2.813366971854924
 20
6.779681806675316
 30
0.0
 10
2.790984942962449
 20
6.768956592561238
 30
0.0
 10
2.769968325595928
 20
6.752392769001836
 30
0.0
 10
2.753496104414077
 20
6.731430002998213
 30
0.0
 10
2.742760581280836
 20
6.709936492464654
 30
0.0
 10
2.739597181476388
 20
6.695572122561638
 30
0.0
 10
2.738205206256459
 20
6.689251439691649
 30
0.0
  0
SPLINE
  5
1A1
330
1F
100
AcDbEntity
  8
0
  6
HIDDEN
 62
     7
100
AcDbSpline
210
0.0
220
0.0
230
1.0
 70
     8
 71
     3
 72
    24
 73
    20
 74
     0
 42
0.00000001
 43
0.00000001
 40
0.0
 40
0.0
 40
0.0
 40
0.0
 40
0.0510636897057078
 40
0.1097041912069661
 40
0.1760013991220611
 40
0.2500069475353277
 40
0.3248641063536217
 40
0.3914219133400363
 40
0.4497287217486537
 40
0.4998631997249342
 40
0.550025924025869
 40
0.6083630589674988
 40
0.6749531941335837
 40
0.7498446317776867
 40
0.8239860147037047
 40
0.8903472723532458
 40
0.9489796711501792
 40
0.9999629845900263
 40
1.0
 40
1.0
 40
1.0
 40
1.0
 10
2.73608492228219
 20
7.277931363191396
 30
0.0
 10
2.736383886951829
 20
7.277815194221786
 30
0.0
 10
2.737026176560575
 20
7.277565619172901
 30
0.0
 10
2.742731914571361
 20
7.275860340361188
 30
0.0
 10
2.753419735940003
 20
7.273265632945531
 30
0.0
 10
2.770007735256232
 20
7.269580098690961
 30
0.0
 10
2.790973000189193
 20
7.265888239877574
 30
0.0
 10
2.813359673740987
 20
7.263227987083917
 30
0.0
 10
2.834457253104688
 20
7.261579451647835
 30
0.0
 10
2.854155261765998
 20
7.260941870132174
 30
0.0
 10
2.873858023943346
 20
7.261578551294518
 30
0.0
 10
2.894970859911175
 20
7.263225998772395
 30
0.0
 10
2.917370470129572
 20
7.26588348256823
 30
0.0
 10
2.938378041520759
 20
7.269580612283382
 30
0.0
 10
2.954930261254626
 20
7.273247287859635
 30
0.0
 10
2.965807735967855
 20
7.275910473659584
 30
0.0
 10
2.970937120356962
 20
7.277412730746772
 30
0.0
 10
2.972812599014873
 20
7.278104716981587
 30
0.0
 10
2.972304658394797
 20
7.277931111541255
 30
0.0
 10
2.97230428988227
 20
7.277930985589959
 30
0.0
  0
SPLINE
  5
1A2
330
1F
100
AcDbEntity
  8
0
  6
HIDDEN
 62
     7
100
AcDbSpline
210
0.0
220
0.0
230
1.0
 70
     8
 71
     3
 72
    24
 73
    20
 74
     0
 42
0.00000001
 43
0.00000001
 40
0.0
 40
0.0
 40
0.0
 40
0.0
 40
0.0510636897057919
 40
0.1097041912070783
 40
0.1760013991221452
 40
0.2500069475353283
 40
0.3248641063533139
 40
0.3914219133396253
 40
0.4497287217483453
 40
0.4998631997249341
 40
0.5500259240256452
 40
0.6083630589672001
 40
0.6749531941333597
 40
0.7498446317776867
 40
0.8239860147037039
 40
0.8903472723532448
 40
0.9489796711501784
 40
0.9999629845900259
 40
1.0
 40
1.0
 40
1.0
 40
1.0
 10
3.68096681204597
 20
7.277931363191396
 30
0.0
 10
3.681265776715609
 20
7.277815194221786
 30
0.0
 10
3.681908066324357
 20
7.277565619172903
 30
0.0
 10
3.687613804335153
 20
7.275860340361189
 30
0.0
 10
3.698301625703797
 20
7.273265632945534
 30
0.0
 10
3.714889625019996
 20
7.269580098690965
 30
0.0
 10
3.735854889952899
 20
7.265888239877583
 30
0.0
 10
3.758241563504645
 20
7.26322798708393
 30
0.0
 10
3.779339142868379
 20
7.261579451647848
 30
0.0
 10
3.799037151529711
 20
7.260941870132174
 30
0.0
 10
3.818739913707061
 20
7.261578551294504
 30
0.0
 10
3.839852749674868
 20
7.263225998772382
 30
0.0
 10
3.862252359893297
 20
7.265883482568221
 30
0.0
 10
3.883259931284522
 20
7.269580612283378
 30
0.0
 10
3.899812151018401
 20
7.273247287859635
 30
0.0
 10
3.91068962573165
 20
7.275910473659584
 30
0.0
 10
3.915819010120694
 20
7.277412730746774
 30
0.0
 10
3.917694488778741
 20
7.278104716981582
 30
0.0
 10
3.917186548158577
 20
7.277931111541255
 30
0.0
 10
3.91718617964605
 20
7.277930985589959
 30
0.0
  0
LINE
  5
1A3
330
1F
100
AcDbEntity
  8
0
  6
HIDDEN
 62
     7
100
AcDbLine
 10
3.4266361034
 20
6.8161503673
 30
0.0
 11
3.4266361034
 21
6.5199298948
 31
0.0
  0
LINE
  5
1A4
330
1F
100
AcDbEntity
  8
0
  6
HIDDEN
 62
     7
100
AcDbLine
 10
3.2266361034
 20
6.8161503673
 30
0.0
 11
3.2266361034
 21
6.5199298948
 31
0.0
  0
LINE
  5
1A5
330
1F
100
AcDbEntity
  8
0
  6
HIDDEN
 62
     7
100
AcDbLine
 10
2.7706786095
 20
6.75155668
 30
0.0
 11
2.7360849223
 21
6.7861503673
 31
0.0
  0
LINE
  5
1A6
330
1F
100
AcDbEntity
  8
0
  6
HIDDEN
 62
     7
100
AcDbLine
 10
2.7702405436
 20
6.751994746
 30
0.0
 11
2.8541951585
 21
6.668040131
 31
0.0
  0
LINE
  5
1A7
330
1F
100
AcDbEntity
  8
0
  6
HIDDEN
 62
     7
100
AcDbLine
 10
2.8541951585
 20
6.668040131
 30
0.0
 11
2.9377117075
 21
6.75155668
 31
0.0
  0
LINE
  5
1A8
330
1F
100
AcDbEntity
  8
0
  6
HIDDEN
 62
     7
100
AcDbLine
 10
2.9723053947
 20
6.7861503673
 30
0.0
 11
2.9377117075
 21
6.75155668
 31
0.0
  0
LINE
  5
1A9
330
1F
100
AcDbEntity
  8
0
  6
HIDDEN
 62
     7
100
AcDbLine
 10
3.7155604993
 20
6.75155668
 30
0.0
 11
3.680966812
 21
6.7861503673
 31
0.0
  0
LINE
  5
1AA
330
1F
100
AcDbEntity
  8
0
  6
HIDDEN
 62
     7
100
AcDbLine
 10
3.7151224333
 20
6.751994746
 30
0.0
 11
3.7990770483
 21
6.668040131
 31
0.0
  0
LINE
  5
1AB
330
1F
100
AcDbEntity
  8
0
  6
HIDDEN
 62
     7
100
AcDbLine
 10
3.7990770483
 20
6.668040131
 30
0.0
 11
3.8825935972
 21
6.75155668
 31
0.0
  0
LINE
  5
1AC
330
1F
100
AcDbEntity
  8
0
  6
HIDDEN
 62
     7
100
AcDbLine
 10
3.9171872845
 20
6.7861503673
 30
0.0
 11
3.8825935972
 21
6.75155668
 31
0.0
  0
LINE
  5
1AD
330
1F
100
AcDbEntity
  8
0
  6
HIDDEN
 62
     7
100
AcDbLine
 10
3.9171872845
 20
7.2779613909
 30
0.0
 11
3.680966812
 21
7.2779613909
 31
0.0
  0
LINE
  5
1AE
330
1F
100
AcDbEntity
  8
0
  6
HIDDEN
 62
     7
100
AcDbLine
 10
3.680966812
 20
6.8061503673
 30
0.0
 11
3.9171872845
 21
6.8061503673
 31
0.0
  0
LINE
  5
1AF
330
1F
100
AcDbEntity
  8
0
  6
HIDDEN
 62
     7
100
AcDbLine
 10
3.8971872845
 20
6.7861503673
 30
0.0
 11
3.700966812
 21
6.7861503673
 31
0.0
  0
LINE
  5
1B0
330
1F
100
AcDbEntity
  8
0
  6
HIDDEN
 62
     7
100
AcDbLine
 10
3.7990770483
 20
7.1798511547
 30
0.0
 11
3.7990770483
 21
7.2979613909
 31
0.0
  0
LINE
  5
1B1
330
1F
100
AcDbEntity
  8
0
  6
HIDDEN
 62
     7
100
AcDbLine
 10
3.7990770483
 20
7.1798511547
 30
0.0
 11
3.8581321664
 21
7.1798511547
 31
0.0
  0
LINE
  5
1B2
330
1F
100
AcDbEntity
  8
0
  6
HIDDEN
 62
     7
100
AcDbLine
 10
3.7400219302
 20
7.1798511547
 30
0.0
 11
3.7990770483
 21
7.1798511547
 31
0.0
  0
LINE
  5
1B3
330
1F
100
AcDbEntity
  8
0
  6
HIDDEN
 62
     7
100
AcDbLine
 10
3.8581321664
 20
7.1798511547
 30
0.0
 11
3.8581321664
 21
7.2979613909
 31
0.0
  0
LINE
  5
1B4
330
1F
100
AcDbEntity
  8
0
  6
HIDDEN
 62
     7
100
AcDbLine
 10
3.7400219302
 20
7.1798511547
 30
0.0
 11
3.7400219302
 21
7.2979613909
 31
0.0
  0
LINE
  5
1B5
330
1F
100
AcDbEntity
  8
0
  6
HIDDEN
 62
     7
100
AcDbLine
 10
2.7360849223
 20
7.2779613909
 30
0.0
 11
2.9723053947
 21
7.2779613909
 31
0.0
  0
LINE
  5
1B6
330
1F
100
AcDbEntity
  8
0
  6
HIDDEN
 62
     7
100
AcDbLine
 10
2.9723053947
 20
6.8061503673
 30
0.0
 11
2.7360849223
 21
6.8061503673
 31
0.0
  0
LINE
  5
1B7
330
1F
100
AcDbEntity
  8
0
  6
HIDDEN
 62
     7
100
AcDbLine
 10
2.7560849223
 20
6.7861503673
 30
0.0
 11
2.9523053947
 21
6.7861503673
 31
0.0
  0
LINE
  5
1B8
330
1F
100
AcDbEntity
  8
0
  6
HIDDEN
 62
     7
100
AcDbLine
 10
2.8541951585
 20
7.1798511547
 30
0.0
 11
2.8541951585
 21
7.2979613909
 31
0.0
  0
LINE
  5
1B9
330
1F
100
AcDbEntity
  8
0
  6
HIDDEN
 62
     7
100
AcDbLine
 10
2.8541951585
 20
7.1798511547
 30
0.0
 11
2.7951400404
 21
7.1798511547
 31
0.0
  0
LINE
  5
1BA
330
1F
100
AcDbEntity
  8
0
  6
HIDDEN
 62
     7
100
AcDbLine
 10
2.9132502766
 20
7.1798511547
 30
0.0
 11
2.8541951585
 21
7.1798511547
 31
0.0
  0
LINE
  5
1BB
330
1F
100
AcDbEntity
  8
0
  6
HIDDEN
 62
     7
100
AcDbLine
 10
2.7951400404
 20
7.1798511547
 30
0.0
 11
2.7951400404
 21
7.2979613909
 31
0.0
  0
LINE
  5
1BC
330
1F
100
AcDbEntity
  8
0
  6
HIDDEN
 62
     7
100
AcDbLine
 10
2.9132502766
 20
7.1798511547
 30
0.0
 11
2.9132502766
 21
7.2979613909
 31
0.0
  0
LINE
  5
1BD
330
1F
100
AcDbEntity
  8
0
  6
HIDDEN
 62
     7
100
AcDbLine
 10
2.9723053969
 20
7.2779313631
 30
0.0
 11
2.9963075957
 21
7.2979613908
 31
0.0
  0
LINE
  5
1BE
330
1F
100
AcDbEntity
  8
0
  6
HIDDEN
 62
     7
100
AcDbLine
 10
2.7120827155
 20
7.2979613919
 30
0.0
 11
2.7360849153
 21
7.2779313642
 31
0.0
  0
LINE
  5
1BF
330
1F
100
AcDbEntity
  8
0
  6
HIDDEN
 62
     7
100
AcDbLine
 10
3.9171872867
 20
7.2779313631
 30
0.0
 11
3.9411894855
 21
7.2979613908
 31
0.0
  0
LINE
  5
1C0
330
1F
100
AcDbEntity
  8
0
  6
HIDDEN
 62
     7
100
AcDbLine
 10
3.6569646053
 20
7.2979613919
 30
0.0
 11
3.6809668051
 21
7.2779313642
 31
0.0
  0
LINE
  5
1C1
330
1F
100
AcDbEntity
  8
0
  6
HIDDEN
 62
     7
100
AcDbLine
 10
4.2715179931
 20
6.8161503673
 30
0.0
 11
4.2415179931
 21
6.7861503673
 31
0.0
  0
LINE
  5
1C2
330
1F
100
AcDbEntity
  8
0
  6
HIDDEN
 62
     7
100
AcDbLine
 10
4.2415179931
 20
6.5499298948
 30
0.0
 11
4.2715179931
 21
6.5199298948
 31
0.0
  0
LINE
  5
1C3
330
1F
100
AcDbEntity
  8
0
  6
HIDDEN
 62
     7
100
AcDbLine
 10
3.4266361034
 20
6.8161503673
 30
0.0
 11
3.2266361034
 21
6.8161503673
 31
0.0
  0
LINE
  5
1C4
330
1F
100
AcDbEntity
  8
0
  6
HIDDEN
 62
     7
100
AcDbLine
 10
3.2266361034
 20
6.5199298948
 30
0.0
 11
3.4266361034
 21
6.5199298948
 31
0.0
  0
LINE
  5
1C5
330
1F
100
AcDbEntity
  8
0
  6
HIDDEN
 62
     7
100
AcDbLine
 10
2.3817542136
 20
6.5199298948
 30
0.0
 11
2.4117542136
 21
6.5499298948
 31
0.0
  0
LINE
  5
1C6
330
1F
100
AcDbEntity
  8
0
  6
HIDDEN
 62
     7
100
AcDbLine
 10
2.4117542136
 20
6.7861503673
 30
0.0
 11
2.3817542136
 21
6.8161503673
 31
0.0
  0
LINE
  5
1C7
330
1F
100
AcDbEntity
  8
0
  6
HIDDEN
 62
     7
100
AcDbLine
 10
2.9723053947
 20
6.7861503673
 30
0.0
 11
2.9723053947
 21
7.2779312901
 31
0.0
  0
LINE
  5
1C8
330
1F
100
AcDbEntity
  8
0
  6
HIDDEN
 62
     7
100
AcDbLine
 10
2.7360849223
 20
7.2779313632
 30
0.0
 11
2.7360849223
 21
6.7861503673
 31
0.0
  0
LINE
  5
1C9
330
1F
100
AcDbEntity
  8
0
  6
HIDDEN
 62
     7
100
AcDbLine
 10
3.9171872845
 20
6.7861503673
 30
0.0
 11
3.9171872845
 21
7.2779312901
 31
0.0
  0
LINE
  5
1CA
330
1F
100
AcDbEntity
  8
0
  6
HIDDEN
 62
     7
100
AcDbLine
 10
3.680966812
 20
7.2779313632
 30
0.0
 11
3.680966812
 21
6.7861503673
 31
0.0
  0
LINE
  5
1CB
330
1F
100
AcDbEntity
  8
0
  6
HIDDEN
 62
     7
100
AcDbLine
 10
3.680966812
 20
6.7861503673
 30
0.0
 11
3.4266361034
 21
6.7861503673
 31
0.0
  0
LINE
  5
1CC
330
1F
100
AcDbEntity
  8
0
  6
HIDDEN
 62
     7
100
AcDbLine
 10
4.2415179931
 20
6.7861503673
 30
0.0
 11
3.9171872845
 21
6.7861503673
 31
0.0
  0
LINE
  5
1CD
330
1F
100
AcDbEntity
  8
0
  6
HIDDEN
 62
     7
100
AcDbLine
 10
3.7990770483
 20
6.5499298948
 30
0.0
 11
4.2415179931
 21
6.5499298948
 31
0.0
  0
LINE
  5
1CE
330
1F
100
AcDbEntity
  8
0
  6
HIDDEN
 62
     7
100
AcDbLine
 10
3.4266361034
 20
6.5499298948
 30
0.0
 11
3.7990770483
 21
6.5499298948
 31
0.0
  0
LINE
  5
1CF
330
1F
100
AcDbEntity
  8
0
  6
HIDDEN
 62
     7
100
AcDbLine
 10
2.7360849223
 20
6.7861503673
 30
0.0
 11
2.4117542136
 21
6.7861503673
 31
0.0
  0
LINE
  5
1D0
330
1F
100
AcDbEntity
  8
0
  6
HIDDEN
 62
     7
100
AcDbLine
 10
3.2266361034
 20
6.7861503673
 30
0.0
 11
2.9723053947
 21
6.7861503673
 31
0.0
  0
LINE
  5
1D1
330
1F
100
AcDbEntity
  8
0
  6
HIDDEN
 62
     7
100
AcDbLine
 10
2.8541951585
 20
6.5499298948
 30
0.0
 11
3.2266361034
 21
6.5499298948
 31
0.0
  0
LINE
  5
1D2
330
1F
100
AcDbEntity
  8
0
  6
HIDDEN
 62
     7
100
AcDbLine
 10
2.4117542136
 20
6.5499298948
 30
0.0
 11
2.8541951585
 21
6.5499298948
 31
0.0
  0
LINE
  5
1D3
330
1F
100
AcDbEntity
  8
0
  6
HIDDEN
 62
     7
100
AcDbLine
 10
3.9171872845
 20
7.2779613909
 30
0.0
 11
3.9048259709
 21
7.2903227044
 31
0.0
  0
LINE
  5
1D4
330
1F
100
AcDbEntity
  8
0
  6
HIDDEN
 62
     7
100
AcDbLine
 10
3.6933282227
 20
7.2903228016
 30
0.0
 11
3.680966812
 21
7.2779613909
 31
0.0
  0
LINE
  5
1D5
330
1F
100
AcDbEntity
  8
0
  6
HIDDEN
 62
     7
100
AcDbLine
 10
3.9171872845
 20
6.8061503673
 30
0.0
 11
3.9171872845
 21
7.2779613909
 31
0.0
  0
LINE
  5
1D6
330
1F
100
AcDbEntity
  8
0
  6
HIDDEN
 62
     7
100
AcDbLine
 10
3.680966812
 20
7.2779613909
 30
0.0
 11
3.680966812
 21
6.8061503673
 31
0.0
  0
LINE
  5
1D7
330
1F
100
AcDbEntity
  8
0
  6
HIDDEN
 62
     7
100
AcDbLine
 10
3.680966812
 20
6.8061503673
 30
0.0
 11
3.700966812
 21
6.7861503673
 31
0.0
  0
LINE
  5
1D8
330
1F
100
AcDbEntity
  8
0
  6
HIDDEN
 62
     7
100
AcDbLine
 10
3.8971872845
 20
6.7861503673
 30
0.0
 11
3.9171872845
 21
6.8061503673
 31
0.0
  0
LINE
  5
1D9
330
1F
100
AcDbEntity
  8
0
  6
HIDDEN
 62
     7
100
AcDbLine
 10
2.9723053947
 20
7.2779613909
 30
0.0
 11
2.9599440812
 21
7.2903227044
 31
0.0
  0
LINE
  5
1DA
330
1F
100
AcDbEntity
  8
0
  6
HIDDEN
 62
     7
100
AcDbLine
 10
2.748446333
 20
7.2903228016
 30
0.0
 11
2.7360849223
 21
7.2779613909
 31
0.0
  0
LINE
  5
1DB
330
1F
100
AcDbEntity
  8
0
  6
HIDDEN
 62
     7
100
AcDbLine
 10
2.9723053947
 20
6.8061503673
 30
0.0
 11
2.9723053947
 21
7.2779613909
 31
0.0
  0
LINE
  5
1DC
330
1F
100
AcDbEntity
  8
0
  6
HIDDEN
 62
     7
100
AcDbLine
 10
2.7360849223
 20
7.2779613909
 30
0.0
 11
2.7360849223
 21
6.8061503673
 31
0.0
  0
LINE
  5
1DD
330
1F
100
AcDbEntity
  8
0
  6
HIDDEN
 62
     7
100
AcDbLine
 10
2.7360849223
 20
6.8061503673
 30
0.0
 11
2.7560849223
 21
6.7861503673
 31
0.0
  0
LINE
  5
1DE
330
1F
100
AcDbEntity
  8
0
  6
HIDDEN
 62
     7
100
AcDbLine
 10
2.9523053947
 20
6.7861503673
 30
0.0
 11
2.9723053947
 21
6.8061503673
 31
0.0
  0
LINE
  5
1DF
330
1F
100
AcDbEntity
  8
0
  6
CONTINUOUS
 62
     7
100
AcDbLine
 10
8.8177480858
 20
5.9598520328
 30
0.0
 11
8.8389578415
 21
5.9721001448
 31
0.0
  0
LINE
  5
1E0
330
1F
100
AcDbEntity
  8
0
  6
CONTINUOUS
 62
     7
100
AcDbLine
 10
9.2630972867
 20
6.7068108209
 30
0.0
 11
9.2630972867
 21
6.7313030642
 31
0.0
  0
LINE
  5
1E1
330
1F
100
AcDbEntity
  8
0
  6
CONTINUOUS
 62
     7
100
AcDbLine
 10
7.2089022819
 20
6.6755410568
 30
0.0
 11
8.5027406584
 21
5.9286240606
 31
0.0
  0
LINE
  5
1E2
330
1F
100
AcDbEntity
  8
0
  6
CONTINUOUS
 62
     7
100
AcDbLine
 10
9.1326107262
 20
7.0197092415
 30
0.0
 11
7.8387723497
 21
7.7666262377
 31
0.0
  0
LINE
  5
1E3
330
1F
100
AcDbEntity
  8
0
  6
CONTINUOUS
 62
     7
100
AcDbLine
 10
7.5237649223
 20
7.7353982655
 30
0.0
 11
7.5025551666
 21
7.7231501535
 31
0.0
  0
LINE
  5
1E4
330
1F
100
AcDbEntity
  8
0
  6
CONTINUOUS
 62
     7
100
AcDbLine
 10
7.0784157214
 20
6.9884394774
 30
0.0
 11
7.0784157214
 21
6.9639472341
 31
0.0
  0
LINE
  5
1E5
330
1F
100
AcDbEntity
  8
0
  6
CONTINUOUS
 62
     7
100
AcDbLine
 10
8.5883528193
 20
7.2010036821
 30
0.0
 11
8.5742083858
 21
7.209171744
 31
0.0
  0
LINE
  5
1E6
330
1F
100
AcDbEntity
  8
0
  6
CONTINUOUS
 62
     7
100
AcDbLine
 10
8.435437014
 20
7.209171744
 30
0.0
 11
8.4212925804
 21
7.2010036821
 31
0.0
  0
LINE
  5
1E7
330
1F
100
AcDbEntity
  8
0
  6
CONTINUOUS
 62
     7
100
AcDbLine
 10
8.6229329361
 20
7.1427116665
 30
0.0
 11
8.6229329361
 21
7.15279844
 31
0.0
  0
LINE
  5
1E8
330
1F
100
AcDbEntity
  8
0
  6
CONTINUOUS
 62
     7
100
AcDbLine
 10
8.3867124637
 20
7.15279844
 30
0.0
 11
8.3867124637
 21
7.1459639079
 31
0.0
  0
LINE
  5
1E9
330
1F
100
AcDbEntity
  8
0
  6
CONTINUOUS
 62
     7
100
AcDbLine
 10
7.9202204276
 20
7.5867083019
 30
0.0
 11
7.9060759941
 21
7.5948763638
 31
0.0
  0
LINE
  5
1EA
330
1F
100
AcDbEntity
  8
0
  6
CONTINUOUS
 62
     7
100
AcDbLine
 10
7.7673046223
 20
7.5948763638
 30
0.0
 11
7.7531601888
 21
7.5867083019
 31
0.0
  0
LINE
  5
1EB
330
1F
100
AcDbEntity
  8
0
  6
CONTINUOUS
 62
     7
100
AcDbLine
 10
7.9548005444
 20
7.5284162862
 30
0.0
 11
7.9548005444
 21
7.5385030597
 31
0.0
  0
LINE
  5
1EC
330
1F
100
AcDbEntity
  8
0
  6
CONTINUOUS
 62
     7
100
AcDbLine
 10
7.718580072
 20
7.5385030597
 30
0.0
 11
7.718580072
 21
7.5316685277
 31
0.0
  0
POLYLINE
  5
1ED
330
1F
100
AcDbEntity
  8
0
  6
CONTINUOUS
 62
     7
100
AcDb2dPolyline
 66
     1
 10
0.0
 20
0.0
 30
0.0
  0
VERTEX
  5
217
330
1ED
100
AcDbEntity
  8
0
  6
CONTINUOUS
 62
     7
100
AcDbVertex
100
AcDb2dVertex
 10
9.2630972867
 20
6.7068108209
 30
0.0
  0
VERTEX
  5
218
330
1ED
100
AcDbEntity
  8
0
  6
CONTINUOUS
 62
     7
100
AcDbVertex
100
AcDb2dVertex
 10
9.2624642844
 20
6.7331962771
 30
0.0
  0
VERTEX
  5
219
330
1ED
100
AcDbEntity
  8
0
  6
CONTINUOUS
 62
     7
100
AcDbVertex
100
AcDb2dVertex
 10
9.2605671667
 20
6.7587721399
 30
0.0
  0
VERTEX
  5
21A
330
1ED
100
AcDbEntity
  8
0
  6
CONTINUOUS
 62
     7
100
AcDbVertex
100
AcDb2dVertex
 10
9.2574115953
 20
6.7834620808
 30
0.0
  0
VERTEX
  5
21B
330
1ED
100
AcDbEntity
  8
0
  6
CONTINUOUS
 62
     7
100
AcDbVertex
100
AcDb2dVertex
 10
9.2530069876
 20
6.8071924153
 30
0.0
  0
VERTEX
  5
21C
330
1ED
100
AcDbEntity
  8
0
  6
CONTINUOUS
 62
     7
100
AcDbVertex
100
AcDb2dVertex
 10
9.2473664889
 20
6.8298923229
 30
0.0
  0
VERTEX
  5
21D
330
1ED
100
AcDbEntity
  8
0
  6
CONTINUOUS
 62
     7
100
AcDbVertex
100
AcDb2dVertex
 10
9.2405069324
 20
6.8514940579
 30
0.0
  0
VERTEX
  5
21E
330
1ED
100
AcDbEntity
  8
0
  6
CONTINUOUS
 62
     7
100
AcDbVertex
100
AcDb2dVertex
 10
9.2324487898
 20
6.8719331525
 30
0.0
  0
VERTEX
  5
21F
330
1ED
100
AcDbEntity
  8
0
  6
CONTINUOUS
 62
     7
100
AcDbVertex
100
AcDb2dVertex
 10
9.2232161099
 20
6.8911486082
 30
0.0
  0
VERTEX
  5
220
330
1ED
100
AcDbEntity
  8
0
  6
CONTINUOUS
 62
     7
100
AcDbVertex
100
AcDb2dVertex
 10
9.2128364464
 20
6.9090830786
 30
0.0
  0
VERTEX
  5
221
330
1ED
100
AcDbEntity
  8
0
  6
CONTINUOUS
 62
     7
100
AcDbVertex
100
AcDb2dVertex
 10
9.2013407766
 20
6.9256830403
 30
0.0
  0
VERTEX
  5
222
330
1ED
100
AcDbEntity
  8
0
  6
CONTINUOUS
 62
     7
100
AcDbVertex
100
AcDb2dVertex
 10
9.1887634078
 20
6.9408989523
 30
0.0
  0
VERTEX
  5
223
330
1ED
100
AcDbEntity
  8
0
  6
CONTINUOUS
 62
     7
100
AcDbVertex
100
AcDb2dVertex
 10
9.175141876
 20
6.9546854044
 30
0.0
  0
VERTEX
  5
224
330
1ED
100
AcDbEntity
  8
0
  6
CONTINUOUS
 62
     7
100
AcDbVertex
100
AcDb2dVertex
 10
9.1605168331
 20
6.9670012526
 30
0.0
  0
VERTEX
  5
225
330
1ED
100
AcDbEntity
  8
0
  6
CONTINUOUS
 62
     7
100
AcDbVertex
100
AcDb2dVertex
 10
9.1449319261
 20
6.9778097413
 30
0.0
  0
VERTEX
  5
226
330
1ED
100
AcDbEntity
  8
0
  6
CONTINUOUS
 62
     7
100
AcDbVertex
100
AcDb2dVertex
 10
9.1284336664
 20
6.9870786138
 30
0.0
  0
VERTEX
  5
227
330
1ED
100
AcDbEntity
  8
0
  6
CONTINUOUS
 62
     7
100
AcDbVertex
100
AcDb2dVertex
 10
9.1110712913
 20
6.9947802082
 30
0.0
  0
VERTEX
  5
228
330
1ED
100
AcDbEntity
  8
0
  6
CONTINUOUS
 62
     7
100
AcDbVertex
100
AcDb2dVertex
 10
9.0928966169
 20
7.0008915399
 30
0.0
  0
VERTEX
  5
229
330
1ED
100
AcDbEntity
  8
0
  6
CONTINUOUS
 62
     7
100
AcDbVertex
100
AcDb2dVertex
 10
9.0739638836
 20
7.0053943703
 30
0.0
  0
VERTEX
  5
22A
330
1ED
100
AcDbEntity
  8
0
  6
CONTINUOUS
 62
     7
100
AcDbVertex
100
AcDb2dVertex
 10
9.0543295942
 20
7.0082752611
 30
0.0
  0
VERTEX
  5
22B
330
1ED
100
AcDbEntity
  8
0
  6
CONTINUOUS
 62
     7
100
AcDbVertex
100
AcDb2dVertex
 10
9.0340523451
 20
7.0095256147
 30
0.0
  0
VERTEX
  5
22C
330
1ED
100
AcDbEntity
  8
0
  6
CONTINUOUS
 62
     7
100
AcDbVertex
100
AcDb2dVertex
 10
9.0131926516
 20
7.0091416994
 30
0.0
  0
VERTEX
  5
22D
330
1ED
100
AcDbEntity
  8
0
  6
CONTINUOUS
 62
     7
100
AcDbVertex
100
AcDb2dVertex
 10
8.9918127671
 20
7.0071246611
 30
0.0
  0
VERTEX
  5
22E
330
1ED
100
AcDbEntity
  8
0
  6
CONTINUOUS
 62
     7
100
AcDbVertex
100
AcDb2dVertex
 10
8.9699764977
 20
7.0034805194
 30
0.0
  0
VERTEX
  5
22F
330
1ED
100
AcDbEntity
  8
0
  6
CONTINUOUS
 62
     7
100
AcDbVertex
100
AcDb2dVertex
 10
8.9477490114
 20
6.9982201499
 30
0.0
  0
VERTEX
  5
230
330
1ED
100
AcDbEntity
  8
0
  6
CONTINUOUS
 62
     7
100
AcDbVertex
100
AcDb2dVertex
 10
8.9251966436
 20
6.9913592515
 30
0.0
  0
VERTEX
  5
231
330
1ED
100
AcDbEntity
  8
0
  6
CONTINUOUS
 62
     7
100
AcDbVertex
100
AcDb2dVertex
 10
8.9023866997
 20
6.9829182998
 30
0.0
  0
VERTEX
  5
232
330
1ED
100
AcDbEntity
  8
0
  6
CONTINUOUS
 62
     7
100
AcDbVertex
100
AcDb2dVertex
 10
8.8793872533
 20
6.9729224861
 30
0.0
  0
VERTEX
  5
233
330
1ED
100
AcDbEntity
  8
0
  6
CONTINUOUS
 62
     7
100
AcDbVertex
100
AcDb2dVertex
 10
8.856266944
 20
6.9614016416
 30
0.0
  0
VERTEX
  5
234
330
1ED
100
AcDbEntity
  8
0
  6
CONTINUOUS
 62
     7
100
AcDbVertex
100
AcDb2dVertex
 10
8.8330947717
 20
6.9483901492
 30
0.0
  0
VERTEX
  5
235
330
1ED
100
AcDbEntity
  8
0
  6
CONTINUOUS
 62
     7
100
AcDbVertex
100
AcDb2dVertex
 10
8.8099398913
 20
6.9339268403
 30
0.0
  0
VERTEX
  5
236
330
1ED
100
AcDbEntity
  8
0
  6
CONTINUOUS
 62
     7
100
AcDbVertex
100
AcDb2dVertex
 10
8.7868714062
 20
6.918054879
 30
0.0
  0
VERTEX
  5
237
330
1ED
100
AcDbEntity
  8
0
  6
CONTINUOUS
 62
     7
100
AcDbVertex
100
AcDb2dVertex
 10
8.7639581617
 20
6.9008216335
 30
0.0
  0
VERTEX
  5
238
330
1ED
100
AcDbEntity
  8
0
  6
CONTINUOUS
 62
     7
100
AcDbVertex
100
AcDb2dVertex
 10
8.7412685399
 20
6.8822785347
 30
0.0
  0
VERTEX
  5
239
330
1ED
100
AcDbEntity
  8
0
  6
CONTINUOUS
 62
     7
100
AcDbVertex
100
AcDb2dVertex
 10
8.7188702557
 20
6.8624809223
 30
0.0
  0
VERTEX
  5
23A
330
1ED
100
AcDbEntity
  8
0
  6
CONTINUOUS
 62
     7
100
AcDbVertex
100
AcDb2dVertex
 10
8.6968301542
 20
6.8414878803
 30
0.0
  0
VERTEX
  5
23B
330
1ED
100
AcDbEntity
  8
0
  6
CONTINUOUS
 62
     7
100
AcDbVertex
100
AcDb2dVertex
 10
8.6752140119
 20
6.8193620602
 30
0.0
  0
VERTEX
  5
23C
330
1ED
100
AcDbEntity
  8
0
  6
CONTINUOUS
 62
     7
100
AcDbVertex
100
AcDb2dVertex
 10
8.6540863398
 20
6.796169494
 30
0.0
  0
VERTEX
  5
23D
330
1ED
100
AcDbEntity
  8
0
  6
CONTINUOUS
 62
     7
100
AcDbVertex
100
AcDb2dVertex
 10
8.6335101911
 20
6.7719793975
 30
0.0
  0
VERTEX
  5
23E
330
1ED
100
AcDbEntity
  8
0
  6
CONTINUOUS
 62
     7
100
AcDbVertex
100
AcDb2dVertex
 10
8.6135469732
 20
6.7468639635
 30
0.0
  0
VERTEX
  5
23F
330
1ED
100
AcDbEntity
  8
0
  6
CONTINUOUS
 62
     7
100
AcDbVertex
100
AcDb2dVertex
 10
8.5942562641
 20
6.7208981463
 30
0.0
  0
VERTEX
  5
240
330
1ED
100
AcDbEntity
  8
0
  6
CONTINUOUS
 62
     7
100
AcDbVertex
100
AcDb2dVertex
 10
8.575695635
 20
6.6941594381
 30
0.0
  0
VERTEX
  5
241
330
1ED
100
AcDbEntity
  8
0
  6
CONTINUOUS
 62
     7
100
AcDbVertex
100
AcDb2dVertex
 10
8.557920478
 20
6.6667276378
 30
0.0
  0
VERTEX
  5
242
330
1ED
100
AcDbEntity
  8
0
  6
CONTINUOUS
 62
     7
100
AcDbVertex
100
AcDb2dVertex
 10
8.5409838412
 20
6.6386846125
 30
0.0
  0
VERTEX
  5
243
330
1ED
100
AcDbEntity
  8
0
  6
CONTINUOUS
 62
     7
100
AcDbVertex
100
AcDb2dVertex
 10
8.5249362702
 20
6.6101140537
 30
0.0
  0
VERTEX
  5
244
330
1ED
100
AcDbEntity
  8
0
  6
CONTINUOUS
 62
     7
100
AcDbVertex
100
AcDb2dVertex
 10
8.5098256572
 20
6.5811012272
 30
0.0
  0
VERTEX
  5
245
330
1ED
100
AcDbEntity
  8
0
  6
CONTINUOUS
 62
     7
100
AcDbVertex
100
AcDb2dVertex
 10
8.4956970982
 20
6.5517327187
 30
0.0
  0
VERTEX
  5
246
330
1ED
100
AcDbEntity
  8
0
  6
CONTINUOUS
 62
     7
100
AcDbVertex
100
AcDb2dVertex
 10
8.4825927585
 20
6.5220961753
 30
0.0
  0
VERTEX
  5
247
330
1ED
100
AcDbEntity
  8
0
  6
CONTINUOUS
 62
     7
100
AcDbVertex
100
AcDb2dVertex
 10
8.4705517464
 20
6.4922800441
 30
0.0
  0
VERTEX
  5
248
330
1ED
100
AcDbEntity
  8
0
  6
CONTINUOUS
 62
     7
100
AcDbVertex
100
AcDb2dVertex
 10
8.4596099972
 20
6.4623733082
 30
0.0
  0
VERTEX
  5
249
330
1ED
100
AcDbEntity
  8
0
  6
CONTINUOUS
 62
     7
100
AcDbVertex
100
AcDb2dVertex
 10
8.4498001653
 20
6.432465221
 30
0.0
  0
VERTEX
  5
24A
330
1ED
100
AcDbEntity
  8
0
  6
CONTINUOUS
 62
     7
100
AcDbVertex
100
AcDb2dVertex
 10
8.4411515271
 20
6.40264504
 30
0.0
  0
VERTEX
  5
24B
330
1ED
100
AcDbEntity
  8
0
  6
CONTINUOUS
 62
     7
100
AcDbVertex
100
AcDb2dVertex
 10
8.4336898935
 20
6.3730017604
 30
0.0
  0
VERTEX
  5
24C
330
1ED
100
AcDbEntity
  8
0
  6
CONTINUOUS
 62
     7
100
AcDbVertex
100
AcDb2dVertex
 10
8.427437533
 20
6.3436238494
 30
0.0
  0
VERTEX
  5
24D
330
1ED
100
AcDbEntity
  8
0
  6
CONTINUOUS
 62
     7
100
AcDbVertex
100
AcDb2dVertex
 10
8.422413105
 20
6.3145989821
 30
0.0
  0
VERTEX
  5
24E
330
1ED
100
AcDbEntity
  8
0
  6
CONTINUOUS
 62
     7
100
AcDbVertex
100
AcDb2dVertex
 10
8.4186316045
 20
6.2860137802
 30
0.0
  0
VERTEX
  5
24F
330
1ED
100
AcDbEntity
  8
0
  6
CONTINUOUS
 62
     7
100
AcDbVertex
100
AcDb2dVertex
 10
8.416104317
 20
6.2579535532
 30
0.0
  0
VERTEX
  5
250
330
1ED
100
AcDbEntity
  8
0
  6
CONTINUOUS
 62
     7
100
AcDbVertex
100
AcDb2dVertex
 10
8.4148387848
 20
6.2305020439
 30
0.0
  0
VERTEX
  5
251
330
1ED
100
AcDbEntity
  8
0
  6
CONTINUOUS
 62
     7
100
AcDbVertex
100
AcDb2dVertex
 10
8.4148387848
 20
6.2037411782
 30
0.0
  0
VERTEX
  5
252
330
1ED
100
AcDbEntity
  8
0
  6
CONTINUOUS
 62
     7
100
AcDbVertex
100
AcDb2dVertex
 10
8.416104317
 20
6.1777508212
 30
0.0
  0
VERTEX
  5
253
330
1ED
100
AcDbEntity
  8
0
  6
CONTINUOUS
 62
     7
100
AcDbVertex
100
AcDb2dVertex
 10
8.4186316045
 20
6.1526085383
 30
0.0
  0
VERTEX
  5
254
330
1ED
100
AcDbEntity
  8
0
  6
CONTINUOUS
 62
     7
100
AcDbVertex
100
AcDb2dVertex
 10
8.422413105
 20
6.128389364
 30
0.0
  0
VERTEX
  5
255
330
1ED
100
AcDbEntity
  8
0
  6
CONTINUOUS
 62
     7
100
AcDbVertex
100
AcDb2dVertex
 10
8.427437533
 20
6.1051655777
 30
0.0
  0
VERTEX
  5
256
330
1ED
100
AcDbEntity
  8
0
  6
CONTINUOUS
 62
     7
100
AcDbVertex
100
AcDb2dVertex
 10
8.4336898935
 20
6.0830064885
 30
0.0
  0
VERTEX
  5
257
330
1ED
100
AcDbEntity
  8
0
  6
CONTINUOUS
 62
     7
100
AcDbVertex
100
AcDb2dVertex
 10
8.4411515271
 20
6.0619782276
 30
0.0
  0
VERTEX
  5
258
330
1ED
100
AcDbEntity
  8
0
  6
CONTINUOUS
 62
     7
100
AcDbVertex
100
AcDb2dVertex
 10
8.4498001653
 20
6.0421435518
 30
0.0
  0
VERTEX
  5
259
330
1ED
100
AcDbEntity
  8
0
  6
CONTINUOUS
 62
     7
100
AcDbVertex
100
AcDb2dVertex
 10
8.4596099972
 20
6.0235616555
 30
0.0
  0
VERTEX
  5
25A
330
1ED
100
AcDbEntity
  8
0
  6
CONTINUOUS
 62
     7
100
AcDbVertex
100
AcDb2dVertex
 10
8.4705517464
 20
6.0062879943
 30
0.0
  0
VERTEX
  5
25B
330
1ED
100
AcDbEntity
  8
0
  6
CONTINUOUS
 62
     7
100
AcDbVertex
100
AcDb2dVertex
 10
8.4825927585
 20
5.9903741197
 30
0.0
  0
VERTEX
  5
25C
330
1ED
100
AcDbEntity
  8
0
  6
CONTINUOUS
 62
     7
100
AcDbVertex
100
AcDb2dVertex
 10
8.4956970982
 20
5.9758675249
 30
0.0
  0
VERTEX
  5
25D
330
1ED
100
AcDbEntity
  8
0
  6
CONTINUOUS
 62
     7
100
AcDbVertex
100
AcDb2dVertex
 10
8.5098256572
 20
5.9628115034
 30
0.0
  0
VERTEX
  5
25E
330
1ED
100
AcDbEntity
  8
0
  6
CONTINUOUS
 62
     7
100
AcDbVertex
100
AcDb2dVertex
 10
8.5249362702
 20
5.9512450193
 30
0.0
  0
VERTEX
  5
25F
330
1ED
100
AcDbEntity
  8
0
  6
CONTINUOUS
 62
     7
100
AcDbVertex
100
AcDb2dVertex
 10
8.5409838412
 20
5.9412025916
 30
0.0
  0
VERTEX
  5
260
330
1ED
100
AcDbEntity
  8
0
  6
CONTINUOUS
 62
     7
100
AcDbVertex
100
AcDb2dVertex
 10
8.557920478
 20
5.932714191
 30
0.0
  0
VERTEX
  5
261
330
1ED
100
AcDbEntity
  8
0
  6
CONTINUOUS
 62
     7
100
AcDbVertex
100
AcDb2dVertex
 10
8.575695635
 20
5.92580515
 30
0.0
  0
VERTEX
  5
262
330
1ED
100
AcDbEntity
  8
0
  6
CONTINUOUS
 62
     7
100
AcDbVertex
100
AcDb2dVertex
 10
8.5942562641
 20
5.9204960881
 30
0.0
  0
VERTEX
  5
263
330
1ED
100
AcDbEntity
  8
0
  6
CONTINUOUS
 62
     7
100
AcDbVertex
100
AcDb2dVertex
 10
8.6135469732
 20
5.9168028495
 30
0.0
  0
VERTEX
  5
264
330
1ED
100
AcDbEntity
  8
0
  6
CONTINUOUS
 62
     7
100
AcDbVertex
100
AcDb2dVertex
 10
8.6335101911
 20
5.9147364563
 30
0.0
  0
VERTEX
  5
265
330
1ED
100
AcDbEntity
  8
0
  6
CONTINUOUS
 62
     7
100
AcDbVertex
100
AcDb2dVertex
 10
8.6540863398
 20
5.9143030754
 30
0.0
  0
VERTEX
  5
266
330
1ED
100
AcDbEntity
  8
0
  6
CONTINUOUS
 62
     7
100
AcDbVertex
100
AcDb2dVertex
 10
8.6752140119
 20
5.9155040003
 30
0.0
  0
VERTEX
  5
267
330
1ED
100
AcDbEntity
  8
0
  6
CONTINUOUS
 62
     7
100
AcDbVertex
100
AcDb2dVertex
 10
8.6968301542
 20
5.9183356468
 30
0.0
  0
VERTEX
  5
268
330
1ED
100
AcDbEntity
  8
0
  6
CONTINUOUS
 62
     7
100
AcDbVertex
100
AcDb2dVertex
 10
8.7188702557
 20
5.9227895642
 30
0.0
  0
VERTEX
  5
269
330
1ED
100
AcDbEntity
  8
0
  6
CONTINUOUS
 62
     7
100
AcDbVertex
100
AcDb2dVertex
 10
8.7412685399
 20
5.9288524604
 30
0.0
  0
VERTEX
  5
26A
330
1ED
100
AcDbEntity
  8
0
  6
CONTINUOUS
 62
     7
100
AcDbVertex
100
AcDb2dVertex
 10
8.7639581617
 20
5.9365062412
 30
0.0
  0
VERTEX
  5
26B
330
1ED
100
AcDbEntity
  8
0
  6
CONTINUOUS
 62
     7
100
AcDbVertex
100
AcDb2dVertex
 10
8.7868714062
 20
5.9457280647
 30
0.0
  0
VERTEX
  5
26C
330
1ED
100
AcDbEntity
  8
0
  6
CONTINUOUS
 62
     7
100
AcDbVertex
100
AcDb2dVertex
 10
8.8099398913
 20
5.9564904095
 30
0.0
  0
VERTEX
  5
26D
330
1ED
100
AcDbEntity
  8
0
  6
CONTINUOUS
 62
     7
100
AcDbVertex
100
AcDb2dVertex
 10
8.8330947717
 20
5.9687611563
 30
0.0
  0
VERTEX
  5
26E
330
1ED
100
AcDbEntity
  8
0
  6
CONTINUOUS
 62
     7
100
AcDbVertex
100
AcDb2dVertex
 10
8.856266944
 20
5.9825036846
 30
0.0
  0
VERTEX
  5
26F
330
1ED
100
AcDbEntity
  8
0
  6
CONTINUOUS
 62
     7
100
AcDbVertex
100
AcDb2dVertex
 10
8.8793872533
 20
5.9976769812
 30
0.0
  0
VERTEX
  5
270
330
1ED
100
AcDbEntity
  8
0
  6
CONTINUOUS
 62
     7
100
AcDbVertex
100
AcDb2dVertex
 10
8.9023866997
 20
6.0142357629
 30
0.0
  0
VERTEX
  5
271
330
1ED
100
AcDbEntity
  8
0
  6
CONTINUOUS
 62
     7
100
AcDbVertex
100
AcDb2dVertex
 10
8.9251966436
 20
6.032130612
 30
0.0
  0
VERTEX
  5
272
330
1ED
100
AcDbEntity
  8
0
  6
CONTINUOUS
 62
     7
100
AcDbVertex
100
AcDb2dVertex
 10
8.9477490114
 20
6.0513081231
 30
0.0
  0
VERTEX
  5
273
330
1ED
100
AcDbEntity
  8
0
  6
CONTINUOUS
 62
     7
100
AcDbVertex
100
AcDb2dVertex
 10
8.9699764977
 20
6.071711063
 30
0.0
  0
VERTEX
  5
274
330
1ED
100
AcDbEntity
  8
0
  6
CONTINUOUS
 62
     7
100
AcDbVertex
100
AcDb2dVertex
 10
8.9918127671
 20
6.0932785413
 30
0.0
  0
VERTEX
  5
275
330
1ED
100
AcDbEntity
  8
0
  6
CONTINUOUS
 62
     7
100
AcDbVertex
100
AcDb2dVertex
 10
9.0131926516
 20
6.1159461922
 30
0.0
  0
VERTEX
  5
276
330
1ED
100
AcDbEntity
  8
0
  6
CONTINUOUS
 62
     7
100
AcDbVertex
100
AcDb2dVertex
 10
9.0340523451
 20
6.1396463665
 30
0.0
  0
VERTEX
  5
277
330
1ED
100
AcDbEntity
  8
0
  6
CONTINUOUS
 62
     7
100
AcDbVertex
100
AcDb2dVertex
 10
9.0543295942
 20
6.1643083336
 30
0.0
  0
VERTEX
  5
278
330
1ED
100
AcDbEntity
  8
0
  6
CONTINUOUS
 62
     7
100
AcDbVertex
100
AcDb2dVertex
 10
9.0739638836
 20
6.1898584924
 30
0.0
  0
VERTEX
  5
279
330
1ED
100
AcDbEntity
  8
0
  6
CONTINUOUS
 62
     7
100
AcDbVertex
100
AcDb2dVertex
 10
9.0928966169
 20
6.2162205913
 30
0.0
  0
VERTEX
  5
27A
330
1ED
100
AcDbEntity
  8
0
  6
CONTINUOUS
 62
     7
100
AcDbVertex
100
AcDb2dVertex
 10
9.1110712913
 20
6.2433159554
 30
0.0
  0
VERTEX
  5
27B
330
1ED
100
AcDbEntity
  8
0
  6
CONTINUOUS
 62
     7
100
AcDbVertex
100
AcDb2dVertex
 10
9.1284336664
 20
6.2710637214
 30
0.0
  0
VERTEX
  5
27C
330
1ED
100
AcDbEntity
  8
0
  6
CONTINUOUS
 62
     7
100
AcDbVertex
100
AcDb2dVertex
 10
9.1449319261
 20
6.2993810792
 30
0.0
  0
VERTEX
  5
27D
330
1ED
100
AcDbEntity
  8
0
  6
CONTINUOUS
 62
     7
100
AcDbVertex
100
AcDb2dVertex
 10
9.1605168331
 20
6.3281835185
 30
0.0
  0
VERTEX
  5
27E
330
1ED
100
AcDbEntity
  8
0
  6
CONTINUOUS
 62
     7
100
AcDbVertex
100
AcDb2dVertex
 10
9.175141876
 20
6.3573850817
 30
0.0
  0
VERTEX
  5
27F
330
1ED
100
AcDbEntity
  8
0
  6
CONTINUOUS
 62
     7
100
AcDbVertex
100
AcDb2dVertex
 10
9.1887634078
 20
6.3868986197
 30
0.0
  0
VERTEX
  5
280
330
1ED
100
AcDbEntity
  8
0
  6
CONTINUOUS
 62
     7
100
AcDbVertex
100
AcDb2dVertex
 10
9.2013407766
 20
6.4166360526
 30
0.0
  0
VERTEX
  5
281
330
1ED
100
AcDbEntity
  8
0
  6
CONTINUOUS
 62
     7
100
AcDbVertex
100
AcDb2dVertex
 10
9.2128364464
 20
6.4465086322
 30
0.0
  0
VERTEX
  5
282
330
1ED
100
AcDbEntity
  8
0
  6
CONTINUOUS
 62
     7
100
AcDbVertex
100
AcDb2dVertex
 10
9.2232161099
 20
6.4764272069
 30
0.0
  0
VERTEX
  5
283
330
1ED
100
AcDbEntity
  8
0
  6
CONTINUOUS
 62
     7
100
AcDbVertex
100
AcDb2dVertex
 10
9.2324487898
 20
6.506302488
 30
0.0
  0
VERTEX
  5
284
330
1ED
100
AcDbEntity
  8
0
  6
CONTINUOUS
 62
     7
100
AcDbVertex
100
AcDb2dVertex
 10
9.2405069324
 20
6.5360453159
 30
0.0
  0
VERTEX
  5
285
330
1ED
100
AcDbEntity
  8
0
  6
CONTINUOUS
 62
     7
100
AcDbVertex
100
AcDb2dVertex
 10
9.2473664889
 20
6.5655669263
 30
0.0
  0
VERTEX
  5
286
330
1ED
100
AcDbEntity
  8
0
  6
CONTINUOUS
 62
     7
100
AcDbVertex
100
AcDb2dVertex
 10
9.2530069876
 20
6.5947792151
 30
0.0
  0
VERTEX
  5
287
330
1ED
100
AcDbEntity
  8
0
  6
CONTINUOUS
 62
     7
100
AcDbVertex
100
AcDb2dVertex
 10
9.2574115953
 20
6.6235950014
 30
0.0
  0
VERTEX
  5
288
330
1ED
100
AcDbEntity
  8
0
  6
CONTINUOUS
 62
     7
100
AcDbVertex
100
AcDb2dVertex
 10
9.2605671667
 20
6.6519282875
 30
0.0
  0
VERTEX
  5
289
330
1ED
100
AcDbEntity
  8
0
  6
CONTINUOUS
 62
     7
100
AcDbVertex
100
AcDb2dVertex
 10
9.2624642844
 20
6.6796945158
 30
0.0
  0
VERTEX
  5
28A
330
1ED
100
AcDbEntity
  8
0
  6
CONTINUOUS
 62
     7
100
AcDbVertex
100
AcDb2dVertex
 10
9.2630972867
 20
6.7068108209
 30
0.0
  0
SEQEND
  5
28B
330
1ED
100
AcDbEntity
  8
0
  6
CONTINUOUS
 62
     7
  0
POLYLINE
  5
1EE
330
1F
100
AcDbEntity
  8
0
  6
CONTINUOUS
 62
     7
100
AcDb2dPolyline
 66
     1
 10
0.0
 20
0.0
 30
0.0
  0
VERTEX
  5
28C
330
1EE
100
AcDbEntity
  8
0
  6
CONTINUOUS
 62
     7
100
AcDbVertex
100
AcDb2dVertex
 10
8.8177480858
 20
5.9598520328
 30
0.0
  0
VERTEX
  5
28D
330
1EE
100
AcDbEntity
  8
0
  6
CONTINUOUS
 62
     7
100
AcDbVertex
100
AcDb2dVertex
 10
8.8058183372
 20
5.9531474109
 30
0.0
  0
VERTEX
  5
28E
330
1EE
100
AcDbEntity
  8
0
  6
CONTINUOUS
 62
     7
100
AcDbVertex
100
AcDb2dVertex
 10
8.7821372379
 20
5.9409340858
 30
0.0
  0
VERTEX
  5
28F
330
1EE
100
AcDbEntity
  8
0
  6
CONTINUOUS
 62
     7
100
AcDbVertex
100
AcDb2dVertex
 10
8.7585568763
 20
5.9302322663
 30
0.0
  0
VERTEX
  5
290
330
1EE
100
AcDbEntity
  8
0
  6
CONTINUOUS
 62
     7
100
AcDbVertex
100
AcDb2dVertex
 10
8.7351440934
 20
5.9210722879
 30
0.0
  0
VERTEX
  5
291
330
1EE
100
AcDbEntity
  8
0
  6
CONTINUOUS
 62
     7
100
AcDbVertex
100
AcDb2dVertex
 10
8.7119652552
 20
5.9134801155
 30
0.0
  0
VERTEX
  5
292
330
1EE
100
AcDbEntity
  8
0
  6
CONTINUOUS
 62
     7
100
AcDbVertex
100
AcDb2dVertex
 10
8.6890860648
 20
5.9074772701
 30
0.0
  0
VERTEX
  5
293
330
1EE
100
AcDbEntity
  8
0
  6
CONTINUOUS
 62
     7
100
AcDbVertex
100
AcDb2dVertex
 10
8.6665713756
 20
5.9030807673
 30
0.0
  0
VERTEX
  5
294
330
1EE
100
AcDbEntity
  8
0
  6
CONTINUOUS
 62
     7
100
AcDbVertex
100
AcDb2dVertex
 10
8.6444850081
 20
5.9003030694
 30
0.0
  0
VERTEX
  5
295
330
1EE
100
AcDbEntity
  8
0
  6
CONTINUOUS
 62
     7
100
AcDbVertex
100
AcDb2dVertex
 10
8.6228895683
 20
5.8991520502
 30
0.0
  0
VERTEX
  5
296
330
1EE
100
AcDbEntity
  8
0
  6
CONTINUOUS
 62
     7
100
AcDbVertex
100
AcDb2dVertex
 10
8.601846271
 20
5.8996309724
 30
0.0
  0
VERTEX
  5
297
330
1EE
100
AcDbEntity
  8
0
  6
CONTINUOUS
 62
     7
100
AcDbVertex
100
AcDb2dVertex
 10
8.5814147656
 20
5.9017384784
 30
0.0
  0
VERTEX
  5
298
330
1EE
100
AcDbEntity
  8
0
  6
CONTINUOUS
 62
     7
100
AcDbVertex
100
AcDb2dVertex
 10
8.5616529675
 20
5.9054685943
 30
0.0
  0
VERTEX
  5
299
330
1EE
100
AcDbEntity
  8
0
  6
CONTINUOUS
 62
     7
100
AcDbVertex
100
AcDb2dVertex
 10
8.5426168937
 20
5.9108107466
 30
0.0
  0
VERTEX
  5
29A
330
1EE
100
AcDbEntity
  8
0
  6
CONTINUOUS
 62
     7
100
AcDbVertex
100
AcDb2dVertex
 10
8.5243605038
 20
5.9177497923
 30
0.0
  0
VERTEX
  5
29B
330
1EE
100
AcDbEntity
  8
0
  6
CONTINUOUS
 62
     7
100
AcDbVertex
100
AcDb2dVertex
 10
8.5069355478
 20
5.9262660622
 30
0.0
  0
VERTEX
  5
29C
330
1EE
100
AcDbEntity
  8
0
  6
CONTINUOUS
 62
     7
100
AcDbVertex
100
AcDb2dVertex
 10
8.4903914184
 20
5.9363354158
 30
0.0
  0
VERTEX
  5
29D
330
1EE
100
AcDbEntity
  8
0
  6
CONTINUOUS
 62
     7
100
AcDbVertex
100
AcDb2dVertex
 10
8.4747750119
 20
5.9479293104
 30
0.0
  0
VERTEX
  5
29E
330
1EE
100
AcDbEntity
  8
0
  6
CONTINUOUS
 62
     7
100
AcDbVertex
100
AcDb2dVertex
 10
8.4601305946
 20
5.961014882
 30
0.0
  0
VERTEX
  5
29F
330
1EE
100
AcDbEntity
  8
0
  6
CONTINUOUS
 62
     7
100
AcDbVertex
100
AcDb2dVertex
 10
8.4464996778
 20
5.975555038
 30
0.0
  0
VERTEX
  5
2A0
330
1EE
100
AcDbEntity
  8
0
  6
CONTINUOUS
 62
     7
100
AcDbVertex
100
AcDb2dVertex
 10
8.4339208996
 20
5.9915085628
 30
0.0
  0
VERTEX
  5
2A1
330
1EE
100
AcDbEntity
  8
0
  6
CONTINUOUS
 62
     7
100
AcDbVertex
100
AcDb2dVertex
 10
8.4224299162
 20
6.0088302343
 30
0.0
  0
VERTEX
  5
2A2
330
1EE
100
AcDbEntity
  8
0
  6
CONTINUOUS
 62
     7
100
AcDbVertex
100
AcDb2dVertex
 10
8.4120592998
 20
6.0274709526
 30
0.0
  0
VERTEX
  5
2A3
330
1EE
100
AcDbEntity
  8
0
  6
CONTINUOUS
 62
     7
100
AcDbVertex
100
AcDb2dVertex
 10
8.4028384471
 20
6.0473778783
 30
0.0
  0
VERTEX
  5
2A4
330
1EE
100
AcDbEntity
  8
0
  6
CONTINUOUS
 62
     7
100
AcDbVertex
100
AcDb2dVertex
 10
8.3947934957
 20
6.0684945831
 30
0.0
  0
VERTEX
  5
2A5
330
1EE
100
AcDbEntity
  8
0
  6
CONTINUOUS
 62
     7
100
AcDbVertex
100
AcDb2dVertex
 10
8.3879472499
 20
6.0907612095
 30
0.0
  0
VERTEX
  5
2A6
330
1EE
100
AcDbEntity
  8
0
  6
CONTINUOUS
 62
     7
100
AcDbVertex
100
AcDb2dVertex
 10
8.382319116
 20
6.1141146403
 30
0.0
  0
VERTEX
  5
2A7
330
1EE
100
AcDbEntity
  8
0
  6
CONTINUOUS
 62
     7
100
AcDbVertex
100
AcDb2dVertex
 10
8.3779250476
 20
6.1384886776
 30
0.0
  0
VERTEX
  5
2A8
330
1EE
100
AcDbEntity
  8
0
  6
CONTINUOUS
 62
     7
100
AcDbVertex
100
AcDb2dVertex
 10
8.3747775001
 20
6.1638142306
 30
0.0
  0
VERTEX
  5
2A9
330
1EE
100
AcDbEntity
  8
0
  6
CONTINUOUS
 62
     7
100
AcDbVertex
100
AcDb2dVertex
 10
8.3728853958
 20
6.1900195113
 30
0.0
  0
VERTEX
  5
2AA
330
1EE
100
AcDbEntity
  8
0
  6
CONTINUOUS
 62
     7
100
AcDbVertex
100
AcDb2dVertex
 10
8.3722540978
 20
6.2170302379
 30
0.0
  0
VERTEX
  5
2AB
330
1EE
100
AcDbEntity
  8
0
  6
CONTINUOUS
 62
     7
100
AcDbVertex
100
AcDb2dVertex
 10
8.3728853958
 20
6.2447698456
 30
0.0
  0
VERTEX
  5
2AC
330
1EE
100
AcDbEntity
  8
0
  6
CONTINUOUS
 62
     7
100
AcDbVertex
100
AcDb2dVertex
 10
8.3747775001
 20
6.2731597035
 30
0.0
  0
VERTEX
  5
2AD
330
1EE
100
AcDbEntity
  8
0
  6
CONTINUOUS
 62
     7
100
AcDbVertex
100
AcDb2dVertex
 10
8.3779250476
 20
6.3021193374
 30
0.0
  0
VERTEX
  5
2AE
330
1EE
100
AcDbEntity
  8
0
  6
CONTINUOUS
 62
     7
100
AcDbVertex
100
AcDb2dVertex
 10
8.382319116
 20
6.3315666581
 30
0.0
  0
VERTEX
  5
2AF
330
1EE
100
AcDbEntity
  8
0
  6
CONTINUOUS
 62
     7
100
AcDbVertex
100
AcDb2dVertex
 10
8.3879472499
 20
6.361418194
 30
0.0
  0
VERTEX
  5
2B0
330
1EE
100
AcDbEntity
  8
0
  6
CONTINUOUS
 62
     7
100
AcDbVertex
100
AcDb2dVertex
 10
8.3947934957
 20
6.3915893276
 30
0.0
  0
VERTEX
  5
2B1
330
1EE
100
AcDbEntity
  8
0
  6
CONTINUOUS
 62
     7
100
AcDbVertex
100
AcDb2dVertex
 10
8.4028384471
 20
6.4219945356
 30
0.0
  0
VERTEX
  5
2B2
330
1EE
100
AcDbEntity
  8
0
  6
CONTINUOUS
 62
     7
100
AcDbVertex
100
AcDb2dVertex
 10
8.4120592998
 20
6.4525476312
 30
0.0
  0
VERTEX
  5
2B3
330
1EE
100
AcDbEntity
  8
0
  6
CONTINUOUS
 62
     7
100
AcDbVertex
100
AcDb2dVertex
 10
8.4224299162
 20
6.4831620082
 30
0.0
  0
VERTEX
  5
2B4
330
1EE
100
AcDbEntity
  8
0
  6
CONTINUOUS
 62
     7
100
AcDbVertex
100
AcDb2dVertex
 10
8.4339208996
 20
6.5137508869
 30
0.0
  0
VERTEX
  5
2B5
330
1EE
100
AcDbEntity
  8
0
  6
CONTINUOUS
 62
     7
100
AcDbVertex
100
AcDb2dVertex
 10
8.4464996778
 20
6.5442275598
 30
0.0
  0
VERTEX
  5
2B6
330
1EE
100
AcDbEntity
  8
0
  6
CONTINUOUS
 62
     7
100
AcDbVertex
100
AcDb2dVertex
 10
8.4601305946
 20
6.5745056374
 30
0.0
  0
VERTEX
  5
2B7
330
1EE
100
AcDbEntity
  8
0
  6
CONTINUOUS
 62
     7
100
AcDbVertex
100
AcDb2dVertex
 10
8.4747750119
 20
6.6044992933
 30
0.0
  0
VERTEX
  5
2B8
330
1EE
100
AcDbEntity
  8
0
  6
CONTINUOUS
 62
     7
100
AcDbVertex
100
AcDb2dVertex
 10
8.4903914184
 20
6.6341235071
 30
0.0
  0
VERTEX
  5
2B9
330
1EE
100
AcDbEntity
  8
0
  6
CONTINUOUS
 62
     7
100
AcDbVertex
100
AcDb2dVertex
 10
8.5069355478
 20
6.6632943058
 30
0.0
  0
VERTEX
  5
2BA
330
1EE
100
AcDbEntity
  8
0
  6
CONTINUOUS
 62
     7
100
AcDbVertex
100
AcDb2dVertex
 10
8.5243605038
 20
6.6919290017
 30
0.0
  0
VERTEX
  5
2BB
330
1EE
100
AcDbEntity
  8
0
  6
CONTINUOUS
 62
     7
100
AcDbVertex
100
AcDb2dVertex
 10
8.5426168937
 20
6.7199464265
 30
0.0
  0
VERTEX
  5
2BC
330
1EE
100
AcDbEntity
  8
0
  6
CONTINUOUS
 62
     7
100
AcDbVertex
100
AcDb2dVertex
 10
8.5616529675
 20
6.7472671619
 30
0.0
  0
VERTEX
  5
2BD
330
1EE
100
AcDbEntity
  8
0
  6
CONTINUOUS
 62
     7
100
AcDbVertex
100
AcDb2dVertex
 10
8.5814147656
 20
6.7738137641
 30
0.0
  0
VERTEX
  5
2BE
330
1EE
100
AcDbEntity
  8
0
  6
CONTINUOUS
 62
     7
100
AcDbVertex
100
AcDb2dVertex
 10
8.601846271
 20
6.7995109841
 30
0.0
  0
VERTEX
  5
2BF
330
1EE
100
AcDbEntity
  8
0
  6
CONTINUOUS
 62
     7
100
AcDbVertex
100
AcDb2dVertex
 10
8.6228895683
 20
6.8242859802
 30
0.0
  0
VERTEX
  5
2C0
330
1EE
100
AcDbEntity
  8
0
  6
CONTINUOUS
 62
     7
100
AcDbVertex
100
AcDb2dVertex
 10
8.6444850081
 20
6.8480685251
 30
0.0
  0
VERTEX
  5
2C1
330
1EE
100
AcDbEntity
  8
0
  6
CONTINUOUS
 62
     7
100
AcDbVertex
100
AcDb2dVertex
 10
8.6665713756
 20
6.8707912044
 30
0.0
  0
VERTEX
  5
2C2
330
1EE
100
AcDbEntity
  8
0
  6
CONTINUOUS
 62
     7
100
AcDbVertex
100
AcDb2dVertex
 10
8.6890860648
 20
6.8923896084
 30
0.0
  0
VERTEX
  5
2C3
330
1EE
100
AcDbEntity
  8
0
  6
CONTINUOUS
 62
     7
100
AcDbVertex
100
AcDb2dVertex
 10
8.7119652552
 20
6.9128025139
 30
0.0
  0
VERTEX
  5
2C4
330
1EE
100
AcDbEntity
  8
0
  6
CONTINUOUS
 62
     7
100
AcDbVertex
100
AcDb2dVertex
 10
8.7351440934
 20
6.9319720585
 30
0.0
  0
VERTEX
  5
2C5
330
1EE
100
AcDbEntity
  8
0
  6
CONTINUOUS
 62
     7
100
AcDbVertex
100
AcDb2dVertex
 10
8.7585568763
 20
6.9498439038
 30
0.0
  0
VERTEX
  5
2C6
330
1EE
100
AcDbEntity
  8
0
  6
CONTINUOUS
 62
     7
100
AcDbVertex
100
AcDb2dVertex
 10
8.7821372379
 20
6.9663673904
 30
0.0
  0
VERTEX
  5
2C7
330
1EE
100
AcDbEntity
  8
0
  6
CONTINUOUS
 62
     7
100
AcDbVertex
100
AcDb2dVertex
 10
8.8058183372
 20
6.9814956804
 30
0.0
  0
VERTEX
  5
2C8
330
1EE
100
AcDbEntity
  8
0
  6
CONTINUOUS
 62
     7
100
AcDbVertex
100
AcDb2dVertex
 10
8.8295330474
 20
6.9951858912
 30
0.0
  0
VERTEX
  5
2C9
330
1EE
100
AcDbEntity
  8
0
  6
CONTINUOUS
 62
     7
100
AcDbVertex
100
AcDb2dVertex
 10
8.8532141466
 20
7.0073992164
 30
0.0
  0
VERTEX
  5
2CA
330
1EE
100
AcDbEntity
  8
0
  6
CONTINUOUS
 62
     7
100
AcDbVertex
100
AcDb2dVertex
 10
8.8767945083
 20
7.0181010359
 30
0.0
  0
VERTEX
  5
2CB
330
1EE
100
AcDbEntity
  8
0
  6
CONTINUOUS
 62
     7
100
AcDbVertex
100
AcDb2dVertex
 10
8.9002072912
 20
7.0272610143
 30
0.0
  0
VERTEX
  5
2CC
330
1EE
100
AcDbEntity
  8
0
  6
CONTINUOUS
 62
     7
100
AcDbVertex
100
AcDb2dVertex
 10
8.9233861293
 20
7.0348531866
 30
0.0
  0
VERTEX
  5
2CD
330
1EE
100
AcDbEntity
  8
0
  6
CONTINUOUS
 62
     7
100
AcDbVertex
100
AcDb2dVertex
 10
8.9462653198
 20
7.0408560321
 30
0.0
  0
VERTEX
  5
2CE
330
1EE
100
AcDbEntity
  8
0
  6
CONTINUOUS
 62
     7
100
AcDbVertex
100
AcDb2dVertex
 10
8.9687800089
 20
7.0452525349
 30
0.0
  0
VERTEX
  5
2CF
330
1EE
100
AcDbEntity
  8
0
  6
CONTINUOUS
 62
     7
100
AcDbVertex
100
AcDb2dVertex
 10
8.9908663765
 20
7.0480302327
 30
0.0
  0
VERTEX
  5
2D0
330
1EE
100
AcDbEntity
  8
0
  6
CONTINUOUS
 62
     7
100
AcDbVertex
100
AcDb2dVertex
 10
9.0124618162
 20
7.0491812519
 30
0.0
  0
VERTEX
  5
2D1
330
1EE
100
AcDbEntity
  8
0
  6
CONTINUOUS
 62
     7
100
AcDbVertex
100
AcDb2dVertex
 10
9.0335051135
 20
7.0487023297
 30
0.0
  0
VERTEX
  5
2D2
330
1EE
100
AcDbEntity
  8
0
  6
CONTINUOUS
 62
     7
100
AcDbVertex
100
AcDb2dVertex
 10
9.0539366189
 20
7.0465948237
 30
0.0
  0
VERTEX
  5
2D3
330
1EE
100
AcDbEntity
  8
0
  6
CONTINUOUS
 62
     7
100
AcDbVertex
100
AcDb2dVertex
 10
9.073698417
 20
7.0428647079
 30
0.0
  0
VERTEX
  5
2D4
330
1EE
100
AcDbEntity
  8
0
  6
CONTINUOUS
 62
     7
100
AcDbVertex
100
AcDb2dVertex
 10
9.0927344909
 20
7.0375225556
 30
0.0
  0
VERTEX
  5
2D5
330
1EE
100
AcDbEntity
  8
0
  6
CONTINUOUS
 62
     7
100
AcDbVertex
100
AcDb2dVertex
 10
9.1109908807
 20
7.0305835098
 30
0.0
  0
VERTEX
  5
2D6
330
1EE
100
AcDbEntity
  8
0
  6
CONTINUOUS
 62
     7
100
AcDbVertex
100
AcDb2dVertex
 10
9.1284158368
 20
7.02206724
 30
0.0
  0
VERTEX
  5
2D7
330
1EE
100
AcDbEntity
  8
0
  6
CONTINUOUS
 62
     7
100
AcDbVertex
100
AcDb2dVertex
 10
9.1449599661
 20
7.0119978864
 30
0.0
  0
VERTEX
  5
2D8
330
1EE
100
AcDbEntity
  8
0
  6
CONTINUOUS
 62
     7
100
AcDbVertex
100
AcDb2dVertex
 10
9.1605763726
 20
7.0004039917
 30
0.0
  0
VERTEX
  5
2D9
330
1EE
100
AcDbEntity
  8
0
  6
CONTINUOUS
 62
     7
100
AcDbVertex
100
AcDb2dVertex
 10
9.1752207899
 20
6.9873184202
 30
0.0
  0
VERTEX
  5
2DA
330
1EE
100
AcDbEntity
  8
0
  6
CONTINUOUS
 62
     7
100
AcDbVertex
100
AcDb2dVertex
 10
9.1888517068
 20
6.9727782642
 30
0.0
  0
VERTEX
  5
2DB
330
1EE
100
AcDbEntity
  8
0
  6
CONTINUOUS
 62
     7
100
AcDbVertex
100
AcDb2dVertex
 10
9.2014304849
 20
6.9568247394
 30
0.0
  0
VERTEX
  5
2DC
330
1EE
100
AcDbEntity
  8
0
  6
CONTINUOUS
 62
     7
100
AcDbVertex
100
AcDb2dVertex
 10
9.2129214684
 20
6.9395030678
 30
0.0
  0
VERTEX
  5
2DD
330
1EE
100
AcDbEntity
  8
0
  6
CONTINUOUS
 62
     7
100
AcDbVertex
100
AcDb2dVertex
 10
9.2232920848
 20
6.9208623496
 30
0.0
  0
VERTEX
  5
2DE
330
1EE
100
AcDbEntity
  8
0
  6
CONTINUOUS
 62
     7
100
AcDbVertex
100
AcDb2dVertex
 10
9.2325129374
 20
6.9009554239
 30
0.0
  0
VERTEX
  5
2DF
330
1EE
100
AcDbEntity
  8
0
  6
CONTINUOUS
 62
     7
100
AcDbVertex
100
AcDb2dVertex
 10
9.2405578888
 20
6.879838719
 30
0.0
  0
VERTEX
  5
2E0
330
1EE
100
AcDbEntity
  8
0
  6
CONTINUOUS
 62
     7
100
AcDbVertex
100
AcDb2dVertex
 10
9.2474041347
 20
6.8575720926
 30
0.0
  0
VERTEX
  5
2E1
330
1EE
100
AcDbEntity
  8
0
  6
CONTINUOUS
 62
     7
100
AcDbVertex
100
AcDb2dVertex
 10
9.2530322686
 20
6.8342186618
 30
0.0
  0
VERTEX
  5
2E2
330
1EE
100
AcDbEntity
  8
0
  6
CONTINUOUS
 62
     7
100
AcDbVertex
100
AcDb2dVertex
 10
9.257426337
 20
6.8098446245
 30
0.0
  0
VERTEX
  5
2E3
330
1EE
100
AcDbEntity
  8
0
  6
CONTINUOUS
 62
     7
100
AcDbVertex
100
AcDb2dVertex
 10
9.2605738844
 20
6.7845190715
 30
0.0
  0
VERTEX
  5
2E4
330
1EE
100
AcDbEntity
  8
0
  6
CONTINUOUS
 62
     7
100
AcDbVertex
100
AcDb2dVertex
 10
9.2624659888
 20
6.7583137908
 30
0.0
  0
VERTEX
  5
2E5
330
1EE
100
AcDbEntity
  8
0
  6
CONTINUOUS
 62
     7
100
AcDbVertex
100
AcDb2dVertex
 10
9.2630972867
 20
6.7313030642
 30
0.0
  0
VERTEX
  5
2E6
330
1EE
100
AcDbEntity
  8
0
  6
CONTINUOUS
 62
     7
100
AcDbVertex
100
AcDb2dVertex
 10
9.2630972867
 20
6.7313030642
 30
0.0
  0
SEQEND
  5
2E7
330
1EE
100
AcDbEntity
  8
0
  6
CONTINUOUS
 62
     7
  0
POLYLINE
  5
1EF
330
1F
100
AcDbEntity
  8
0
  6
CONTINUOUS
 62
     7
100
AcDb2dPolyline
 66
     1
 10
0.0
 20
0.0
 30
0.0
  0
VERTEX
  5
2E8
330
1EF
100
AcDbEntity
  8
0
  6
CONTINUOUS
 62
     7
100
AcDbVertex
100
AcDb2dVertex
 10
7.8387723497
 20
7.7666262377
 30
0.0
  0
VERTEX
  5
2E9
330
1EF
100
AcDbEntity
  8
0
  6
CONTINUOUS
 62
     7
100
AcDbVertex
100
AcDb2dVertex
 10
7.8345774603
 20
7.7689842361
 30
0.0
  0
VERTEX
  5
2EA
330
1EF
100
AcDbEntity
  8
0
  6
CONTINUOUS
 62
     7
100
AcDbVertex
100
AcDb2dVertex
 10
7.8171525042
 20
7.777500506
 30
0.0
  0
VERTEX
  5
2EB
330
1EF
100
AcDbEntity
  8
0
  6
CONTINUOUS
 62
     7
100
AcDbVertex
100
AcDb2dVertex
 10
7.7988961144
 20
7.7844395517
 30
0.0
  0
VERTEX
  5
2EC
330
1EF
100
AcDbEntity
  8
0
  6
CONTINUOUS
 62
     7
100
AcDbVertex
100
AcDb2dVertex
 10
7.7798600405
 20
7.789781704
 30
0.0
  0
VERTEX
  5
2ED
330
1EF
100
AcDbEntity
  8
0
  6
CONTINUOUS
 62
     7
100
AcDbVertex
100
AcDb2dVertex
 10
7.7600982424
 20
7.7935118199
 30
0.0
  0
VERTEX
  5
2EE
330
1EF
100
AcDbEntity
  8
0
  6
CONTINUOUS
 62
     7
100
AcDbVertex
100
AcDb2dVertex
 10
7.7396667371
 20
7.7956193259
 30
0.0
  0
VERTEX
  5
2EF
330
1EF
100
AcDbEntity
  8
0
  6
CONTINUOUS
 62
     7
100
AcDbVertex
100
AcDb2dVertex
 10
7.7186234397
 20
7.7960982481
 30
0.0
  0
VERTEX
  5
2F0
330
1EF
100
AcDbEntity
  8
0
  6
CONTINUOUS
 62
     7
100
AcDbVertex
100
AcDb2dVertex
 10
7.697028
 20
7.7949472289
 30
0.0
  0
VERTEX
  5
2F1
330
1EF
100
AcDbEntity
  8
0
  6
CONTINUOUS
 62
     7
100
AcDbVertex
100
AcDb2dVertex
 10
7.6749416324
 20
7.792169531
 30
0.0
  0
VERTEX
  5
2F2
330
1EF
100
AcDbEntity
  8
0
  6
CONTINUOUS
 62
     7
100
AcDbVertex
100
AcDb2dVertex
 10
7.6524269433
 20
7.7877730282
 30
0.0
  0
VERTEX
  5
2F3
330
1EF
100
AcDbEntity
  8
0
  6
CONTINUOUS
 62
     7
100
AcDbVertex
100
AcDb2dVertex
 10
7.6295477529
 20
7.7817701828
 30
0.0
  0
VERTEX
  5
2F4
330
1EF
100
AcDbEntity
  8
0
  6
CONTINUOUS
 62
     7
100
AcDbVertex
100
AcDb2dVertex
 10
7.6063689147
 20
7.7741780104
 30
0.0
  0
VERTEX
  5
2F5
330
1EF
100
AcDbEntity
  8
0
  6
CONTINUOUS
 62
     7
100
AcDbVertex
100
AcDb2dVertex
 10
7.5829561318
 20
7.765018032
 30
0.0
  0
VERTEX
  5
2F6
330
1EF
100
AcDbEntity
  8
0
  6
CONTINUOUS
 62
     7
100
AcDbVertex
100
AcDb2dVertex
 10
7.5593757701
 20
7.7543162125
 30
0.0
  0
VERTEX
  5
2F7
330
1EF
100
AcDbEntity
  8
0
  6
CONTINUOUS
 62
     7
100
AcDbVertex
100
AcDb2dVertex
 10
7.5356946709
 20
7.7421028874
 30
0.0
  0
VERTEX
  5
2F8
330
1EF
100
AcDbEntity
  8
0
  6
CONTINUOUS
 62
     7
100
AcDbVertex
100
AcDb2dVertex
 10
7.5119799607
 20
7.7284126766
 30
0.0
  0
VERTEX
  5
2F9
330
1EF
100
AcDbEntity
  8
0
  6
CONTINUOUS
 62
     7
100
AcDbVertex
100
AcDb2dVertex
 10
7.4882988614
 20
7.7132843865
 30
0.0
  0
VERTEX
  5
2FA
330
1EF
100
AcDbEntity
  8
0
  6
CONTINUOUS
 62
     7
100
AcDbVertex
100
AcDb2dVertex
 10
7.4647184998
 20
7.6967609
 30
0.0
  0
VERTEX
  5
2FB
330
1EF
100
AcDbEntity
  8
0
  6
CONTINUOUS
 62
     7
100
AcDbVertex
100
AcDb2dVertex
 10
7.4413057169
 20
7.6788890546
 30
0.0
  0
VERTEX
  5
2FC
330
1EF
100
AcDbEntity
  8
0
  6
CONTINUOUS
 62
     7
100
AcDbVertex
100
AcDb2dVertex
 10
7.4181268787
 20
7.6597195101
 30
0.0
  0
VERTEX
  5
2FD
330
1EF
100
AcDbEntity
  8
0
  6
CONTINUOUS
 62
     7
100
AcDbVertex
100
AcDb2dVertex
 10
7.3952476883
 20
7.6393066045
 30
0.0
  0
VERTEX
  5
2FE
330
1EF
100
AcDbEntity
  8
0
  6
CONTINUOUS
 62
     7
100
AcDbVertex
100
AcDb2dVertex
 10
7.3727329992
 20
7.6177082006
 30
0.0
  0
VERTEX
  5
2FF
330
1EF
100
AcDbEntity
  8
0
  6
CONTINUOUS
 62
     7
100
AcDbVertex
100
AcDb2dVertex
 10
7.3506466316
 20
7.5949855212
 30
0.0
  0
VERTEX
  5
300
330
1EF
100
AcDbEntity
  8
0
  6
CONTINUOUS
 62
     7
100
AcDbVertex
100
AcDb2dVertex
 10
7.3290511919
 20
7.5712029764
 30
0.0
  0
VERTEX
  5
301
330
1EF
100
AcDbEntity
  8
0
  6
CONTINUOUS
 62
     7
100
AcDbVertex
100
AcDb2dVertex
 10
7.3080078945
 20
7.5464279803
 30
0.0
  0
VERTEX
  5
302
330
1EF
100
AcDbEntity
  8
0
  6
CONTINUOUS
 62
     7
100
AcDbVertex
100
AcDb2dVertex
 10
7.2875763892
 20
7.5207307603
 30
0.0
  0
VERTEX
  5
303
330
1EF
100
AcDbEntity
  8
0
  6
CONTINUOUS
 62
     7
100
AcDbVertex
100
AcDb2dVertex
 10
7.2678145911
 20
7.494184158
 30
0.0
  0
VERTEX
  5
304
330
1EF
100
AcDbEntity
  8
0
  6
CONTINUOUS
 62
     7
100
AcDbVertex
100
AcDb2dVertex
 10
7.2487785172
 20
7.4668634227
 30
0.0
  0
VERTEX
  5
305
330
1EF
100
AcDbEntity
  8
0
  6
CONTINUOUS
 62
     7
100
AcDbVertex
100
AcDb2dVertex
 10
7.2305221274
 20
7.4388459979
 30
0.0
  0
VERTEX
  5
306
330
1EF
100
AcDbEntity
  8
0
  6
CONTINUOUS
 62
     7
100
AcDbVertex
100
AcDb2dVertex
 10
7.2130971713
 20
7.410211302
 30
0.0
  0
VERTEX
  5
307
330
1EF
100
AcDbEntity
  8
0
  6
CONTINUOUS
 62
     7
100
AcDbVertex
100
AcDb2dVertex
 10
7.196553042
 20
7.3810405033
 30
0.0
  0
VERTEX
  5
308
330
1EF
100
AcDbEntity
  8
0
  6
CONTINUOUS
 62
     7
100
AcDbVertex
100
AcDb2dVertex
 10
7.1809366354
 20
7.3514162894
 30
0.0
  0
VERTEX
  5
309
330
1EF
100
AcDbEntity
  8
0
  6
CONTINUOUS
 62
     7
100
AcDbVertex
100
AcDb2dVertex
 10
7.1662922181
 20
7.3214226336
 30
0.0
  0
VERTEX
  5
30A
330
1EF
100
AcDbEntity
  8
0
  6
CONTINUOUS
 62
     7
100
AcDbVertex
100
AcDb2dVertex
 10
7.1526613013
 20
7.2911445559
 30
0.0
  0
VERTEX
  5
30B
330
1EF
100
AcDbEntity
  8
0
  6
CONTINUOUS
 62
     7
100
AcDbVertex
100
AcDb2dVertex
 10
7.1400825232
 20
7.2606678831
 30
0.0
  0
VERTEX
  5
30C
330
1EF
100
AcDbEntity
  8
0
  6
CONTINUOUS
 62
     7
100
AcDbVertex
100
AcDb2dVertex
 10
7.1285915397
 20
7.2300790044
 30
0.0
  0
VERTEX
  5
30D
330
1EF
100
AcDbEntity
  8
0
  6
CONTINUOUS
 62
     7
100
AcDbVertex
100
AcDb2dVertex
 10
7.1182209233
 20
7.1994646273
 30
0.0
  0
VERTEX
  5
30E
330
1EF
100
AcDbEntity
  8
0
  6
CONTINUOUS
 62
     7
100
AcDbVertex
100
AcDb2dVertex
 10
7.1090000707
 20
7.1689115318
 30
0.0
  0
VERTEX
  5
30F
330
1EF
100
AcDbEntity
  8
0
  6
CONTINUOUS
 62
     7
100
AcDbVertex
100
AcDb2dVertex
 10
7.1009551193
 20
7.1385063238
 30
0.0
  0
VERTEX
  5
310
330
1EF
100
AcDbEntity
  8
0
  6
CONTINUOUS
 62
     7
100
AcDbVertex
100
AcDb2dVertex
 10
7.0941088734
 20
7.1083351901
 30
0.0
  0
VERTEX
  5
311
330
1EF
100
AcDbEntity
  8
0
  6
CONTINUOUS
 62
     7
100
AcDbVertex
100
AcDb2dVertex
 10
7.0884807395
 20
7.0784836542
 30
0.0
  0
VERTEX
  5
312
330
1EF
100
AcDbEntity
  8
0
  6
CONTINUOUS
 62
     7
100
AcDbVertex
100
AcDb2dVertex
 10
7.0840866711
 20
7.0490363335
 30
0.0
  0
VERTEX
  5
313
330
1EF
100
AcDbEntity
  8
0
  6
CONTINUOUS
 62
     7
100
AcDbVertex
100
AcDb2dVertex
 10
7.0809391237
 20
7.0200766996
 30
0.0
  0
VERTEX
  5
314
330
1EF
100
AcDbEntity
  8
0
  6
CONTINUOUS
 62
     7
100
AcDbVertex
100
AcDb2dVertex
 10
7.0790470193
 20
6.9916868418
 30
0.0
  0
VERTEX
  5
315
330
1EF
100
AcDbEntity
  8
0
  6
CONTINUOUS
 62
     7
100
AcDbVertex
100
AcDb2dVertex
 10
7.0784157214
 20
6.9639472341
 30
0.0
  0
VERTEX
  5
316
330
1EF
100
AcDbEntity
  8
0
  6
CONTINUOUS
 62
     7
100
AcDbVertex
100
AcDb2dVertex
 10
7.0790470193
 20
6.9369365075
 30
0.0
  0
VERTEX
  5
317
330
1EF
100
AcDbEntity
  8
0
  6
CONTINUOUS
 62
     7
100
AcDbVertex
100
AcDb2dVertex
 10
7.0809391237
 20
6.9107312268
 30
0.0
  0
VERTEX
  5
318
330
1EF
100
AcDbEntity
  8
0
  6
CONTINUOUS
 62
     7
100
AcDbVertex
100
AcDb2dVertex
 10
7.0840866711
 20
6.8854056738
 30
0.0
  0
VERTEX
  5
319
330
1EF
100
AcDbEntity
  8
0
  6
CONTINUOUS
 62
     7
100
AcDbVertex
100
AcDb2dVertex
 10
7.0884807395
 20
6.8610316365
 30
0.0
  0
VERTEX
  5
31A
330
1EF
100
AcDbEntity
  8
0
  6
CONTINUOUS
 62
     7
100
AcDbVertex
100
AcDb2dVertex
 10
7.0941088734
 20
6.8376782057
 30
0.0
  0
VERTEX
  5
31B
330
1EF
100
AcDbEntity
  8
0
  6
CONTINUOUS
 62
     7
100
AcDbVertex
100
AcDb2dVertex
 10
7.1009551193
 20
6.8154115793
 30
0.0
  0
VERTEX
  5
31C
330
1EF
100
AcDbEntity
  8
0
  6
CONTINUOUS
 62
     7
100
AcDbVertex
100
AcDb2dVertex
 10
7.1090000707
 20
6.7942948744
 30
0.0
  0
VERTEX
  5
31D
330
1EF
100
AcDbEntity
  8
0
  6
CONTINUOUS
 62
     7
100
AcDbVertex
100
AcDb2dVertex
 10
7.1182209233
 20
6.7743879487
 30
0.0
  0
VERTEX
  5
31E
330
1EF
100
AcDbEntity
  8
0
  6
CONTINUOUS
 62
     7
100
AcDbVertex
100
AcDb2dVertex
 10
7.1285915397
 20
6.7557472305
 30
0.0
  0
VERTEX
  5
31F
330
1EF
100
AcDbEntity
  8
0
  6
CONTINUOUS
 62
     7
100
AcDbVertex
100
AcDb2dVertex
 10
7.1400825232
 20
6.7384255589
 30
0.0
  0
VERTEX
  5
320
330
1EF
100
AcDbEntity
  8
0
  6
CONTINUOUS
 62
     7
100
AcDbVertex
100
AcDb2dVertex
 10
7.1526613013
 20
6.7224720341
 30
0.0
  0
VERTEX
  5
321
330
1EF
100
AcDbEntity
  8
0
  6
CONTINUOUS
 62
     7
100
AcDbVertex
100
AcDb2dVertex
 10
7.1662922181
 20
6.7079318781
 30
0.0
  0
VERTEX
  5
322
330
1EF
100
AcDbEntity
  8
0
  6
CONTINUOUS
 62
     7
100
AcDbVertex
100
AcDb2dVertex
 10
7.1809366354
 20
6.6948463066
 30
0.0
  0
VERTEX
  5
323
330
1EF
100
AcDbEntity
  8
0
  6
CONTINUOUS
 62
     7
100
AcDbVertex
100
AcDb2dVertex
 10
7.196553042
 20
6.6832524119
 30
0.0
  0
VERTEX
  5
324
330
1EF
100
AcDbEntity
  8
0
  6
CONTINUOUS
 62
     7
100
AcDbVertex
100
AcDb2dVertex
 10
7.2089022819
 20
6.6755410568
 30
0.0
  0
SEQEND
  5
325
330
1EF
100
AcDbEntity
  8
0
  6
CONTINUOUS
 62
     7
  0
SPLINE
  5
1F0
330
1F
100
AcDbEntity
  8
0
  6
CONTINUOUS
 62
     7
100
AcDbSpline
210
0.0
220
0.0
230
1.0
 70
     8
 71
     3
 72
    31
 73
    27
 74
     0
 42
0.00000001
 43
0.00000001
 40
-0.1262822077473545
 40
-0.0837719966702971
 40
-0.0426383416433002
 40
0.0
 40
0.042648404381657
 40
0.083785244869953
 40
0.1262888131126841
 40
0.168533501985648
 40
0.2086717111674916
 40
0.2499050824191056
 40
0.2911801660324153
 40
0.3313825397251874
 40
0.3737169448243431
 40
0.4161803640659916
 40
0.4573105482351817
 40
0.4999944736388686
 40
0.5426676855020514
 40
0.583818755066241
 40
0.6263339854901514
 40
0.6685658974391143
 40
0.7087378822177626
 40
0.7500440777962744
 40
0.7912554265740233
 40
0.8314086632371166
 40
0.8737177922526455
 40
0.9162280033297029
 40
0.9573616583566998
 40
1.0
 40
1.042648404381657
 40
1.083785244869953
 40
1.126288813112684
 10
8.379132235025624
 20
7.209621806912252
 30
0.0
 10
8.403314456079551
 20
7.22806534954394
 30
0.0
 10
8.433555554206887
 20
7.241030815479193
 30
0.0
 10
8.46910730309417
 20
7.24711669730102
 30
0.0
 10
8.50707689097409
 20
7.24637063600816
 30
0.0
 10
8.544884916233071
 20
7.240447481433634
 30
0.0
 10
8.58006566078708
 20
7.229548332164305
 30
0.0
 10
8.609610770868395
 20
7.215227946145542
 30
0.0
 10
8.63291321783956
 20
7.1990529061005
 30
0.0
 10
8.647030203502311
 20
7.181488129183647
 30
0.0
 10
8.650734435101302
 20
7.163452050713842
 30
0.0
 10
8.645756664038046
 20
7.145157085276415
 30
0.0
 10
8.630532216575546
 20
7.127336654642052
 30
0.0
 10
8.606337540889937
 20
7.110865961807529
 30
0.0
 10
8.576082804889966
 20
7.095904905683439
 30
0.0
 10
8.540513659169436
 20
7.084418581609036
 30
0.0
 10
8.502536788927154
 20
7.077902256424443
 30
0.0
 10
8.464720416026276
 20
7.076230074993248
 30
0.0
 10
8.42952721994796
 20
7.081614983592273
 30
0.0
 10
8.399967136899631
 20
7.094159158990716
 30
0.0
 10
8.376657072889094
 20
7.112083886701461
 30
0.0
 10
8.362575299488881
 20
7.135179786377619
 30
0.0
 10
8.358914212312659
 20
7.160832583708011
 30
0.0
 10
8.363915873675175
 20
7.186400749687166
 30
0.0
 10
8.379132235025624
 20
7.209621806912252
 30
0.0
 10
8.403314456079551
 20
7.22806534954394
 30
0.0
 10
8.433555554206887
 20
7.241030815479193
 30
0.0
  0
SPLINE
  5
1F1
330
1F
100
AcDbEntity
  8
0
  6
CONTINUOUS
 62
     7
100
AcDbSpline
210
0.0
220
0.0
230
1.0
 70
     8
 71
     3
 72
    31
 73
    27
 74
     0
 42
0.00000001
 43
0.00000001
 40
-0.1262822077473487
 40
-0.0837719966702684
 40
-0.0426383416432713
 40
0.0
 40
0.0426484043816566
 40
0.0837852448699528
 40
0.1262888131126845
 40
0.1685335019856481
 40
0.208671711167492
 40
0.2499050824191062
 40
0.2911801660323603
 40
0.3313825397251322
 40
0.3737169448243314
 40
0.4161803640659332
 40
0.4573105482351233
 40
0.4999944736388681
 40
0.5426676855019926
 40
0.5838187550661822
 40
0.6263339854901396
 40
0.6685658974390589
 40
0.7087378822177074
 40
0.7500440777962745
 40
0.7912554265740508
 40
0.8314086632371438
 40
0.8737177922526512
 40
0.9162280033297315
 40
0.9573616583567286
 40
0.9999999999999999
 40
1.042648404381656
 40
1.083785244869953
 40
1.126288813112684
 10
7.710999843353309
 20
7.595326426671019
 30
0.0
 10
7.73518206440723
 20
7.613769969302705
 30
0.0
 10
7.765423162534559
 20
7.626735435237953
 30
0.0
 10
7.800974911421842
 20
7.63282131705978
 30
0.0
 10
7.838944499301763
 20
7.632075255766922
 30
0.0
 10
7.876752524560745
 20
7.626152101192393
 30
0.0
 10
7.911933269114751
 20
7.615252951923066
 30
0.0
 10
7.941478379196056
 20
7.600932565904309
 30
0.0
 10
7.964780826167207
 20
7.584757525859272
 30
0.0
 10
7.978897811829945
 20
7.567192748942422
 30
0.0
 10
7.982602043428977
 20
7.549156670472615
 30
0.0
 10
7.97762427236576
 20
7.530861705035182
 30
0.0
 10
7.962399824903247
 20
7.513041274400824
 30
0.0
 10
7.938205149217635
 20
7.496570581566305
 30
0.0
 10
7.90795041321766
 20
7.481609525442217
 30
0.0
 10
7.87238126749713
 20
7.470123201367825
 30
0.0
 10
7.834404397254856
 20
7.463606876183207
 30
0.0
 10
7.79658802435397
 20
7.461934694751983
 30
0.0
 10
7.761394828275652
 20
7.467319603351016
 30
0.0
 10
7.731834745227311
 20
7.479863778749474
 30
0.0
 10
7.708524681216752
 20
7.497788506460227
 30
0.0
 10
7.694442907816534
 20
7.520884406136385
 30
0.0
 10
7.690781820640331
 20
7.546537203466781
 30
0.0
 10
7.695783482002868
 20
7.572105369445937
 30
0.0
 10
7.710999843353309
 20
7.595326426671019
 30
0.0
 10
7.73518206440723
 20
7.613769969302705
 30
0.0
 10
7.765423162534559
 20
7.626735435237953
 30
0.0
  0
POLYLINE
  5
1F2
330
1F
100
AcDbEntity
  8
0
  6
CONTINUOUS
 62
     7
100
AcDb2dPolyline
 66
     1
 10
0.0
 20
0.0
 30
0.0
  0
VERTEX
  5
326
330
1F2
100
AcDbEntity
  8
0
  6
CONTINUOUS
 62
     7
100
AcDbVertex
100
AcDb2dVertex
 10
8.9436186481
 20
6.5223797285
 30
0.0
  0
VERTEX
  5
327
330
1F2
100
AcDbEntity
  8
0
  6
CONTINUOUS
 62
     7
100
AcDbVertex
100
AcDb2dVertex
 10
8.9429830094
 20
6.5087086021
 30
0.0
  0
VERTEX
  5
328
330
1F2
100
AcDbEntity
  8
0
  6
CONTINUOUS
 62
     7
100
AcDbVertex
100
AcDb2dVertex
 10
8.9410838092
 20
6.4944695319
 30
0.0
  0
VERTEX
  5
329
330
1F2
100
AcDbEntity
  8
0
  6
CONTINUOUS
 62
     7
100
AcDbVertex
100
AcDb2dVertex
 10
8.9379441012
 20
6.4798353609
 30
0.0
  0
VERTEX
  5
32A
330
1F2
100
AcDbEntity
  8
0
  6
CONTINUOUS
 62
     7
100
AcDbVertex
100
AcDb2dVertex
 10
8.9336019972
 20
6.4649837281
 30
0.0
  0
VERTEX
  5
32B
330
1F2
100
AcDbEntity
  8
0
  6
CONTINUOUS
 62
     7
100
AcDbVertex
100
AcDb2dVertex
 10
8.9281102045
 20
6.4500949122
 30
0.0
  0
VERTEX
  5
32C
330
1F2
100
AcDbEntity
  8
0
  6
CONTINUOUS
 62
     7
100
AcDbVertex
100
AcDb2dVertex
 10
8.9215353859
 20
6.4353496433
 30
0.0
  0
VERTEX
  5
32D
330
1F2
100
AcDbEntity
  8
0
  6
CONTINUOUS
 62
     7
100
AcDbVertex
100
AcDb2dVertex
 10
8.9139573508
 20
6.4209269089
 30
0.0
  0
VERTEX
  5
32E
330
1F2
100
AcDbEntity
  8
0
  6
CONTINUOUS
 62
     7
100
AcDbVertex
100
AcDb2dVertex
 10
8.9054680864
 20
6.4070017816
 30
0.0
  0
VERTEX
  5
32F
330
1F2
100
AcDbEntity
  8
0
  6
CONTINUOUS
 62
     7
100
AcDbVertex
100
AcDb2dVertex
 10
8.8961706409
 20
6.3937432935
 30
0.0
  0
VERTEX
  5
330
330
1F2
100
AcDbEntity
  8
0
  6
CONTINUOUS
 62
     7
100
AcDbVertex
100
AcDb2dVertex
 10
8.8861778725
 20
6.3813123846
 30
0.0
  0
VERTEX
  5
331
330
1F2
100
AcDbEntity
  8
0
  6
CONTINUOUS
 62
     7
100
AcDbVertex
100
AcDb2dVertex
 10
8.87561108
 20
6.3698599495
 30
0.0
  0
VERTEX
  5
332
330
1F2
100
AcDbEntity
  8
0
  6
CONTINUOUS
 62
     7
100
AcDbVertex
100
AcDb2dVertex
 10
8.86459853
 20
6.3595250051
 30
0.0
  0
VERTEX
  5
333
330
1F2
100
AcDbEntity
  8
0
  6
CONTINUOUS
 62
     7
100
AcDbVertex
100
AcDb2dVertex
 10
8.8532738998
 20
6.3504330036
 30
0.0
  0
VERTEX
  5
334
330
1F2
100
AcDbEntity
  8
0
  6
CONTINUOUS
 62
     7
100
AcDbVertex
100
AcDb2dVertex
 10
8.8417746552
 20
6.3426943097
 30
0.0
  0
VERTEX
  5
335
330
1F2
100
AcDbEntity
  8
0
  6
CONTINUOUS
 62
     7
100
AcDbVertex
100
AcDb2dVertex
 10
8.8302403813
 20
6.3364028605
 30
0.0
  0
VERTEX
  5
336
330
1F2
100
AcDbEntity
  8
0
  6
CONTINUOUS
 62
     7
100
AcDbVertex
100
AcDb2dVertex
 10
8.8188110887
 20
6.3316350259
 30
0.0
  0
VERTEX
  5
337
330
1F2
100
AcDbEntity
  8
0
  6
CONTINUOUS
 62
     7
100
AcDbVertex
100
AcDb2dVertex
 10
8.8076255135
 20
6.3284486807
 30
0.0
  0
VERTEX
  5
338
330
1F2
100
AcDbEntity
  8
0
  6
CONTINUOUS
 62
     7
100
AcDbVertex
100
AcDb2dVertex
 10
8.7968194333
 20
6.326882503
 30
0.0
  0
VERTEX
  5
339
330
1F2
100
AcDbEntity
  8
0
  6
CONTINUOUS
 62
     7
100
AcDbVertex
100
AcDb2dVertex
 10
8.7865240195
 20
6.326955504
 30
0.0
  0
VERTEX
  5
33A
330
1F2
100
AcDbEntity
  8
0
  6
CONTINUOUS
 62
     7
100
AcDbVertex
100
AcDb2dVertex
 10
8.7768642443
 20
6.3286667976
 30
0.0
  0
VERTEX
  5
33B
330
1F2
100
AcDbEntity
  8
0
  6
CONTINUOUS
 62
     7
100
AcDbVertex
100
AcDb2dVertex
 10
8.7679573644
 20
6.331995611
 30
0.0
  0
VERTEX
  5
33C
330
1F2
100
AcDbEntity
  8
0
  6
CONTINUOUS
 62
     7
100
AcDbVertex
100
AcDb2dVertex
 10
8.7599114972
 20
6.3369015369
 30
0.0
  0
VERTEX
  5
33D
330
1F2
100
AcDbEntity
  8
0
  6
CONTINUOUS
 62
     7
100
AcDbVertex
100
AcDb2dVertex
 10
8.7528243086
 20
6.343325024
 30
0.0
  0
VERTEX
  5
33E
330
1F2
100
AcDbEntity
  8
0
  6
CONTINUOUS
 62
     7
100
AcDbVertex
100
AcDb2dVertex
 10
8.7467818275
 20
6.3511880999
 30
0.0
  0
VERTEX
  5
33F
330
1F2
100
AcDbEntity
  8
0
  6
CONTINUOUS
 62
     7
100
AcDbVertex
100
AcDb2dVertex
 10
8.7418574015
 20
6.3603953175
 30
0.0
  0
VERTEX
  5
340
330
1F2
100
AcDbEntity
  8
0
  6
CONTINUOUS
 62
     7
100
AcDbVertex
100
AcDb2dVertex
 10
8.7381108063
 20
6.3708349136
 30
0.0
  0
VERTEX
  5
341
330
1F2
100
AcDbEntity
  8
0
  6
CONTINUOUS
 62
     7
100
AcDbVertex
100
AcDb2dVertex
 10
8.7355875206
 20
6.3823801657
 30
0.0
  0
VERTEX
  5
342
330
1F2
100
AcDbEntity
  8
0
  6
CONTINUOUS
 62
     7
100
AcDbVertex
100
AcDb2dVertex
 10
8.7343181737
 20
6.3948909301
 30
0.0
  0
VERTEX
  5
343
330
1F2
100
AcDbEntity
  8
0
  6
CONTINUOUS
 62
     7
100
AcDbVertex
100
AcDb2dVertex
 10
8.7343181737
 20
6.408215343
 30
0.0
  0
VERTEX
  5
344
330
1F2
100
AcDbEntity
  8
0
  6
CONTINUOUS
 62
     7
100
AcDbVertex
100
AcDb2dVertex
 10
8.7355875206
 20
6.4221916641
 30
0.0
  0
VERTEX
  5
345
330
1F2
100
AcDbEntity
  8
0
  6
CONTINUOUS
 62
     7
100
AcDbVertex
100
AcDb2dVertex
 10
8.7381108063
 20
6.4366502399
 30
0.0
  0
VERTEX
  5
346
330
1F2
100
AcDbEntity
  8
0
  6
CONTINUOUS
 62
     7
100
AcDbVertex
100
AcDb2dVertex
 10
8.7418574015
 20
6.4514155627
 30
0.0
  0
VERTEX
  5
347
330
1F2
100
AcDbEntity
  8
0
  6
CONTINUOUS
 62
     7
100
AcDbVertex
100
AcDb2dVertex
 10
8.7467818275
 20
6.4663084015
 30
0.0
  0
VERTEX
  5
348
330
1F2
100
AcDbEntity
  8
0
  6
CONTINUOUS
 62
     7
100
AcDbVertex
100
AcDb2dVertex
 10
8.7528243086
 20
6.4811479776
 30
0.0
  0
VERTEX
  5
349
330
1F2
100
AcDbEntity
  8
0
  6
CONTINUOUS
 62
     7
100
AcDbVertex
100
AcDb2dVertex
 10
8.7599114972
 20
6.4957541585
 30
0.0
  0
VERTEX
  5
34A
330
1F2
100
AcDbEntity
  8
0
  6
CONTINUOUS
 62
     7
100
AcDbVertex
100
AcDb2dVertex
 10
8.7679573644
 20
6.5099496449
 30
0.0
  0
VERTEX
  5
34B
330
1F2
100
AcDbEntity
  8
0
  6
CONTINUOUS
 62
     7
100
AcDbVertex
100
AcDb2dVertex
 10
8.7768642443
 20
6.523562123
 30
0.0
  0
VERTEX
  5
34C
330
1F2
100
AcDbEntity
  8
0
  6
CONTINUOUS
 62
     7
100
AcDbVertex
100
AcDb2dVertex
 10
8.7865240195
 20
6.5364263556
 30
0.0
  0
VERTEX
  5
34D
330
1F2
100
AcDbEntity
  8
0
  6
CONTINUOUS
 62
     7
100
AcDbVertex
100
AcDb2dVertex
 10
8.7968194333
 20
6.5483861884
 30
0.0
  0
VERTEX
  5
34E
330
1F2
100
AcDbEntity
  8
0
  6
CONTINUOUS
 62
     7
100
AcDbVertex
100
AcDb2dVertex
 10
8.8076255135
 20
6.5592964452
 30
0.0
  0
VERTEX
  5
34F
330
1F2
100
AcDbEntity
  8
0
  6
CONTINUOUS
 62
     7
100
AcDbVertex
100
AcDb2dVertex
 10
8.8188110887
 20
6.5690246904
 30
0.0
  0
VERTEX
  5
350
330
1F2
100
AcDbEntity
  8
0
  6
CONTINUOUS
 62
     7
100
AcDbVertex
100
AcDb2dVertex
 10
8.8302403813
 20
6.5774528361
 30
0.0
  0
VERTEX
  5
351
330
1F2
100
AcDbEntity
  8
0
  6
CONTINUOUS
 62
     7
100
AcDbVertex
100
AcDb2dVertex
 10
8.8417746552
 20
6.5844785761
 30
0.0
  0
VERTEX
  5
352
330
1F2
100
AcDbEntity
  8
0
  6
CONTINUOUS
 62
     7
100
AcDbVertex
100
AcDb2dVertex
 10
8.8532738998
 20
6.5900166274
 30
0.0
  0
VERTEX
  5
353
330
1F2
100
AcDbEntity
  8
0
  6
CONTINUOUS
 62
     7
100
AcDbVertex
100
AcDb2dVertex
 10
8.86459853
 20
6.5939997656
 30
0.0
  0
VERTEX
  5
354
330
1F2
100
AcDbEntity
  8
0
  6
CONTINUOUS
 62
     7
100
AcDbVertex
100
AcDb2dVertex
 10
8.87561108
 20
6.5963796409
 30
0.0
  0
VERTEX
  5
355
330
1F2
100
AcDbEntity
  8
0
  6
CONTINUOUS
 62
     7
100
AcDbVertex
100
AcDb2dVertex
 10
8.8861778725
 20
6.5971273646
 30
0.0
  0
VERTEX
  5
356
330
1F2
100
AcDbEntity
  8
0
  6
CONTINUOUS
 62
     7
100
AcDbVertex
100
AcDb2dVertex
 10
8.8961706409
 20
6.5962338605
 30
0.0
  0
VERTEX
  5
357
330
1F2
100
AcDbEntity
  8
0
  6
CONTINUOUS
 62
     7
100
AcDbVertex
100
AcDb2dVertex
 10
8.9054680864
 20
6.5937099746
 30
0.0
  0
VERTEX
  5
358
330
1F2
100
AcDbEntity
  8
0
  6
CONTINUOUS
 62
     7
100
AcDbVertex
100
AcDb2dVertex
 10
8.9139573508
 20
6.5895863433
 30
0.0
  0
VERTEX
  5
359
330
1F2
100
AcDbEntity
  8
0
  6
CONTINUOUS
 62
     7
100
AcDbVertex
100
AcDb2dVertex
 10
8.9215353859
 20
6.5839130219
 30
0.0
  0
VERTEX
  5
35A
330
1F2
100
AcDbEntity
  8
0
  6
CONTINUOUS
 62
     7
100
AcDbVertex
100
AcDb2dVertex
 10
8.9281102045
 20
6.576758877
 30
0.0
  0
VERTEX
  5
35B
330
1F2
100
AcDbEntity
  8
0
  6
CONTINUOUS
 62
     7
100
AcDbVertex
100
AcDb2dVertex
 10
8.9336019972
 20
6.56821075
 30
0.0
  0
VERTEX
  5
35C
330
1F2
100
AcDbEntity
  8
0
  6
CONTINUOUS
 62
     7
100
AcDbVertex
100
AcDb2dVertex
 10
8.9379441012
 20
6.5583724038
 30
0.0
  0
VERTEX
  5
35D
330
1F2
100
AcDbEntity
  8
0
  6
CONTINUOUS
 62
     7
100
AcDbVertex
100
AcDb2dVertex
 10
8.9410838092
 20
6.5473632625
 30
0.0
  0
VERTEX
  5
35E
330
1F2
100
AcDbEntity
  8
0
  6
CONTINUOUS
 62
     7
100
AcDbVertex
100
AcDb2dVertex
 10
8.9429830094
 20
6.5353169622
 30
0.0
  0
VERTEX
  5
35F
330
1F2
100
AcDbEntity
  8
0
  6
CONTINUOUS
 62
     7
100
AcDbVertex
100
AcDb2dVertex
 10
8.9436186481
 20
6.5223797285
 30
0.0
  0
SEQEND
  5
360
330
1F2
100
AcDbEntity
  8
0
  6
CONTINUOUS
 62
     7
  0
SPLINE
  5
1F3
330
1F
100
AcDbEntity
  8
0
  6
CONTINUOUS
 62
     7
100
AcDbSpline
210
0.0
220
0.0
230
1.0
 70
     8
 71
     3
 72
    15
 73
    11
 74
     0
 42
0.00000001
 43
0.00000001
 40
0.0
 40
0.0
 40
0.0
 40
0.0
 40
0.0000740385045123
 40
0.1911228084697529
 40
0.3609901579262463
 40
0.5097994929698388
 40
0.6377515886855394
 40
0.7657757740413318
 40
0.9146625077858552
 40
1.0
 40
1.0
 40
1.0
 40
1.0
 10
8.38671370041386
 20
7.14596750790442
 30
0.0
 10
8.386713288176026
 20
7.145965073256079
 30
0.0
 10
8.385649138470216
 20
7.139680278182309
 30
0.0
 10
8.389201307124202
 20
7.12751802973124
 30
0.0
 10
8.39690950879212
 20
7.111872200618891
 30
0.0
 10
8.408133457154326
 20
7.099709417848248
 30
0.0
 10
8.420913907617738
 20
7.090483427530095
 30
0.0
 10
8.436000613099813
 20
7.083694643527293
 30
0.0
 10
8.45101369866808
 20
7.079214734122731
 30
0.0
 10
8.461824047085626
 20
7.078265024568497
 30
0.0
 10
8.465762700400154
 20
7.077919006425589
 30
0.0
  0
SPLINE
  5
1F4
330
1F
100
AcDbEntity
  8
0
  6
CONTINUOUS
 62
     7
100
AcDbSpline
210
0.0
220
0.0
230
1.0
 70
     8
 71
     3
 72
    10
 73
     6
 74
     0
 42
0.00000001
 43
0.00000001
 40
0.0
 40
0.0
 40
0.0
 40
0.0
 40
0.0417688726992011
 40
0.6560911729835774
 40
1.0
 40
1.0
 40
1.0
 40
1.0
 10
8.553743923160406
 20
7.088972969169479
 30
0.0
 10
8.554209201066922
 20
7.089108053467579
 30
0.0
 10
8.561517627359569
 20
7.091229911441364
 30
0.0
 10
8.571653730359182
 20
7.095734257888654
 30
0.0
 10
8.580146801797945
 20
7.100258210257787
 30
0.0
 10
8.583194962260544
 20
7.101881855230717
 30
0.0
  0
SPLINE
  5
1F5
330
1F
100
AcDbEntity
  8
0
  6
CONTINUOUS
 62
     7
100
AcDbSpline
210
0.0
220
0.0
230
1.0
 70
     8
 71
     3
 72
    12
 73
     8
 74
     0
 42
0.00000001
 43
0.00000001
 40
0.0
 40
0.0
 40
0.0
 40
0.0
 40
0.048963620031751
 40
0.242654474975064
 40
0.4655577567956413
 40
0.7179778389196824
 40
1.0
 40
1.0
 40
1.0
 40
1.0
 10
8.584694116021621
 20
7.102662600020703
 30
0.0
 10
8.5859252064799
 20
7.10329274354945
 30
0.0
 10
8.592026258824605
 20
7.106415616143997
 30
0.0
 10
8.601552061837435
 20
7.112826502253015
 30
0.0
 10
8.612744317571257
 20
7.122348440668178
 30
0.0
 10
8.621161967869988
 20
7.133704130076933
 30
0.0
 10
8.622320375037813
 20
7.141731607417819
 30
0.0
 10
8.62293165997465
 20
7.14596766198964
 30
0.0
  0
POLYLINE
  5
1F6
330
1F
100
AcDbEntity
  8
0
  6
CONTINUOUS
 62
     7
100
AcDb2dPolyline
 66
     1
 10
0.0
 20
0.0
 30
0.0
  0
VERTEX
  5
361
330
1F6
100
AcDbEntity
  8
0
  6
CONTINUOUS
 62
     7
100
AcDbVertex
100
AcDb2dVertex
 10
8.9011922412
 20
6.5223797285
 30
0.0
  0
VERTEX
  5
362
330
1F6
100
AcDbEntity
  8
0
  6
CONTINUOUS
 62
     7
100
AcDbVertex
100
AcDb2dVertex
 10
8.9005592284
 20
6.5338658694
 30
0.0
  0
VERTEX
  5
363
330
1F6
100
AcDbEntity
  8
0
  6
CONTINUOUS
 62
     7
100
AcDbVertex
100
AcDb2dVertex
 10
8.8986697856
 20
6.544447031
 30
0.0
  0
VERTEX
  5
364
330
1F6
100
AcDbEntity
  8
0
  6
CONTINUOUS
 62
     7
100
AcDbVertex
100
AcDb2dVertex
 10
8.8955525549
 20
6.5539628136
 30
0.0
  0
VERTEX
  5
365
330
1F6
100
AcDbEntity
  8
0
  6
CONTINUOUS
 62
     7
100
AcDbVertex
100
AcDb2dVertex
 10
8.8912547903
 20
6.5622689678
 30
0.0
  0
VERTEX
  5
366
330
1F6
100
AcDbEntity
  8
0
  6
CONTINUOUS
 62
     7
100
AcDbVertex
100
AcDb2dVertex
 10
8.8858416417
 20
6.5692395806
 30
0.0
  0
VERTEX
  5
367
330
1F6
100
AcDbEntity
  8
0
  6
CONTINUOUS
 62
     7
100
AcDbVertex
100
AcDb2dVertex
 10
8.8793951667
 20
6.5747689848
 30
0.0
  0
VERTEX
  5
368
330
1F6
100
AcDbEntity
  8
0
  6
CONTINUOUS
 62
     7
100
AcDbVertex
100
AcDb2dVertex
 10
8.8720130874
 20
6.5787733601
 30
0.0
  0
VERTEX
  5
369
330
1F6
100
AcDbEntity
  8
0
  6
CONTINUOUS
 62
     7
100
AcDbVertex
100
AcDb2dVertex
 10
8.8638073086
 20
6.5811920043
 30
0.0
  0
VERTEX
  5
36A
330
1F6
100
AcDbEntity
  8
0
  6
CONTINUOUS
 62
     7
100
AcDbVertex
100
AcDb2dVertex
 10
8.8549022215
 20
6.5819882533
 30
0.0
  0
VERTEX
  5
36B
330
1F6
100
AcDbEntity
  8
0
  6
CONTINUOUS
 62
     7
100
AcDbVertex
100
AcDb2dVertex
 10
8.8454328182
 20
6.5811500367
 30
0.0
  0
VERTEX
  5
36C
330
1F6
100
AcDbEntity
  8
0
  6
CONTINUOUS
 62
     7
100
AcDbVertex
100
AcDb2dVertex
 10
8.8355426451
 20
6.578690061
 30
0.0
  0
VERTEX
  5
36D
330
1F6
100
AcDbEntity
  8
0
  6
CONTINUOUS
 62
     7
100
AcDbVertex
100
AcDb2dVertex
 10
8.8276657277
 20
6.5756831573
 30
0.0
  0
SEQEND
  5
36E
330
1F6
100
AcDbEntity
  8
0
  6
CONTINUOUS
 62
     7
  0
POLYLINE
  5
1F7
330
1F
100
AcDbEntity
  8
0
  6
CONTINUOUS
 62
     7
100
AcDb2dPolyline
 66
     1
 10
0.0
 20
0.0
 30
0.0
  0
VERTEX
  5
36F
330
1F7
100
AcDbEntity
  8
0
  6
CONTINUOUS
 62
     7
100
AcDbVertex
100
AcDb2dVertex
 10
8.734760412
 20
6.4147489927
 30
0.0
  0
VERTEX
  5
370
330
1F7
100
AcDbEntity
  8
0
  6
CONTINUOUS
 62
     7
100
AcDbVertex
100
AcDb2dVertex
 10
8.7355811713
 20
6.4090533534
 30
0.0
  0
VERTEX
  5
371
330
1F7
100
AcDbEntity
  8
0
  6
CONTINUOUS
 62
     7
100
AcDbVertex
100
AcDb2dVertex
 10
8.738089265
 20
6.3989857865
 30
0.0
  0
VERTEX
  5
372
330
1F7
100
AcDbEntity
  8
0
  6
CONTINUOUS
 62
     7
100
AcDbVertex
100
AcDb2dVertex
 10
8.7418038079
 20
6.3900578848
 30
0.0
  0
VERTEX
  5
373
330
1F7
100
AcDbEntity
  8
0
  6
CONTINUOUS
 62
     7
100
AcDbVertex
100
AcDb2dVertex
 10
8.7466684912
 20
6.3824049862
 30
0.0
  0
VERTEX
  5
374
330
1F7
100
AcDbEntity
  8
0
  6
CONTINUOUS
 62
     7
100
AcDbVertex
100
AcDb2dVertex
 10
8.7526095713
 20
6.376143101
 30
0.0
  0
VERTEX
  5
375
330
1F7
100
AcDbEntity
  8
0
  6
CONTINUOUS
 62
     7
100
AcDbVertex
100
AcDb2dVertex
 10
8.7595369875
 20
6.3713671529
 30
0.0
  0
VERTEX
  5
376
330
1F7
100
AcDbEntity
  8
0
  6
CONTINUOUS
 62
     7
100
AcDbVertex
100
AcDb2dVertex
 10
8.7673457272
 20
6.3681495403
 30
0.0
  0
VERTEX
  5
377
330
1F7
100
AcDbEntity
  8
0
  6
CONTINUOUS
 62
     7
100
AcDbVertex
100
AcDb2dVertex
 10
8.7759174178
 20
6.3665390391
 30
0.0
  0
VERTEX
  5
378
330
1F7
100
AcDbEntity
  8
0
  6
CONTINUOUS
 62
     7
100
AcDbVertex
100
AcDb2dVertex
 10
8.7851221213
 20
6.3665600628
 30
0.0
  0
VERTEX
  5
379
330
1F7
100
AcDbEntity
  8
0
  6
CONTINUOUS
 62
     7
100
AcDbVertex
100
AcDb2dVertex
 10
8.7948203038
 20
6.3682122927
 30
0.0
  0
VERTEX
  5
37A
330
1F7
100
AcDbEntity
  8
0
  6
CONTINUOUS
 62
     7
100
AcDbVertex
100
AcDb2dVertex
 10
8.8048649506
 20
6.3714706827
 30
0.0
  0
VERTEX
  5
37B
330
1F7
100
AcDbEntity
  8
0
  6
CONTINUOUS
 62
     7
100
AcDbVertex
100
AcDb2dVertex
 10
8.8151037953
 20
6.3762858388
 30
0.0
  0
VERTEX
  5
37C
330
1F7
100
AcDbEntity
  8
0
  6
CONTINUOUS
 62
     7
100
AcDbVertex
100
AcDb2dVertex
 10
8.8253816272
 20
6.3825847683
 30
0.0
  0
VERTEX
  5
37D
330
1F7
100
AcDbEntity
  8
0
  6
CONTINUOUS
 62
     7
100
AcDbVertex
100
AcDb2dVertex
 10
8.8355426451
 20
6.3902719858
 30
0.0
  0
VERTEX
  5
37E
330
1F7
100
AcDbEntity
  8
0
  6
CONTINUOUS
 62
     7
100
AcDbVertex
100
AcDb2dVertex
 10
8.8454328182
 20
6.3992309609
 30
0.0
  0
VERTEX
  5
37F
330
1F7
100
AcDbEntity
  8
0
  6
CONTINUOUS
 62
     7
100
AcDbVertex
100
AcDb2dVertex
 10
8.8549022215
 20
6.4093258846
 30
0.0
  0
VERTEX
  5
380
330
1F7
100
AcDbEntity
  8
0
  6
CONTINUOUS
 62
     7
100
AcDbVertex
100
AcDb2dVertex
 10
8.8638073086
 20
6.4204037283
 30
0.0
  0
VERTEX
  5
381
330
1F7
100
AcDbEntity
  8
0
  6
CONTINUOUS
 62
     7
100
AcDbVertex
100
AcDb2dVertex
 10
8.8720130874
 20
6.4322965631
 30
0.0
  0
VERTEX
  5
382
330
1F7
100
AcDbEntity
  8
0
  6
CONTINUOUS
 62
     7
100
AcDbVertex
100
AcDb2dVertex
 10
8.8793951667
 20
6.4448241057
 30
0.0
  0
VERTEX
  5
383
330
1F7
100
AcDbEntity
  8
0
  6
CONTINUOUS
 62
     7
100
AcDbVertex
100
AcDb2dVertex
 10
8.8858416417
 20
6.4577964515
 30
0.0
  0
VERTEX
  5
384
330
1F7
100
AcDbEntity
  8
0
  6
CONTINUOUS
 62
     7
100
AcDbVertex
100
AcDb2dVertex
 10
8.8912547903
 20
6.4710169527
 30
0.0
  0
VERTEX
  5
385
330
1F7
100
AcDbEntity
  8
0
  6
CONTINUOUS
 62
     7
100
AcDbVertex
100
AcDb2dVertex
 10
8.8955525549
 20
6.4842852002
 30
0.0
  0
VERTEX
  5
386
330
1F7
100
AcDbEntity
  8
0
  6
CONTINUOUS
 62
     7
100
AcDbVertex
100
AcDb2dVertex
 10
8.8986697856
 20
6.4974000608
 30
0.0
  0
VERTEX
  5
387
330
1F7
100
AcDbEntity
  8
0
  6
CONTINUOUS
 62
     7
100
AcDbVertex
100
AcDb2dVertex
 10
8.9005592284
 20
6.5101627266
 30
0.0
  0
VERTEX
  5
388
330
1F7
100
AcDbEntity
  8
0
  6
CONTINUOUS
 62
     7
100
AcDbVertex
100
AcDb2dVertex
 10
8.9011922412
 20
6.5223797285
 30
0.0
  0
SEQEND
  5
389
330
1F7
100
AcDbEntity
  8
0
  6
CONTINUOUS
 62
     7
  0
SPLINE
  5
1F8
330
1F
100
AcDbEntity
  8
0
  6
CONTINUOUS
 62
     7
100
AcDbSpline
210
0.0
220
0.0
230
1.0
 70
     8
 71
     3
 72
     9
 73
     5
 74
     0
 42
0.00000001
 43
0.00000001
 40
0.0
 40
0.0
 40
0.0
 40
0.0
 40
0.8595557390315536
 40
1.0
 40
1.0
 40
1.0
 40
1.0
 10
7.753173759239827
 20
7.586691618360269
 30
0.0
 10
7.748684255583733
 20
7.584016152351179
 30
0.0
 10
7.743461204358281
 20
7.580903537441405
 30
0.0
 10
7.739804766157409
 20
7.576766642994152
 30
0.0
 10
7.73929124039651
 20
7.576185639910804
 30
0.0
  0
SPLINE
  5
1F9
330
1F
100
AcDbEntity
  8
0
  6
CONTINUOUS
 62
     7
100
AcDbSpline
210
0.0
220
0.0
230
1.0
 70
     8
 71
     3
 72
    15
 73
    11
 74
     0
 42
0.00000001
 43
0.00000001
 40
0.0
 40
0.0
 40
0.0
 40
0.0
 40
0.0000740385045116
 40
0.1911228084685344
 40
0.3609901579246182
 40
0.5097994929686118
 40
0.6377515886855262
 40
0.7657757740407459
 40
0.9146625077850752
 40
0.9999999999999999
 40
0.9999999999999999
 40
0.9999999999999999
 40
0.9999999999999999
 10
7.718581308741533
 20
7.531672127663181
 30
0.0
 10
7.718580896503699
 20
7.53166969301484
 30
0.0
 10
7.717516746797975
 20
7.525384897941004
 30
0.0
 10
7.721068915451816
 20
7.513222649490128
 30
0.0
 10
7.728777117119716
 20
7.497576820377756
 30
0.0
 10
7.740001065481911
 20
7.485414037607084
 30
0.0
 10
7.752781515945348
 20
7.47618804728889
 30
0.0
 10
7.767868221427434
 20
7.469399263286065
 30
0.0
 10
7.782881306995695
 20
7.4649193538815
 30
0.0
 10
7.793691655413268
 20
7.463969644327259
 30
0.0
 10
7.79763030872783
 20
7.463623626184347
 30
0.0
  0
ARC
  5
1FA
330
1F
100
AcDbEntity
  8
0
  6
CONTINUOUS
 62
     7
100
AcDbCircle
 10
7.9958592118
 20
6.9485912068
 30
0.0
 40
0.9183084682601186
100
AcDbArc
 50
122.4924001453
 51
177.5129763874
  0
POLYLINE
  5
1FB
330
1F
100
AcDbEntity
  8
0
  6
CONTINUOUS
 62
     7
100
AcDb2dPolyline
 66
     1
 10
0.0
 20
0.0
 30
0.0
  0
VERTEX
  5
38A
330
1FB
100
AcDbEntity
  8
0
  6
CONTINUOUS
 62
     7
100
AcDbVertex
100
AcDb2dVertex
 10
8.5883528193
 20
7.2010036821
 30
0.0
  0
VERTEX
  5
38B
330
1FB
100
AcDbEntity
  8
0
  6
CONTINUOUS
 62
     7
100
AcDbVertex
100
AcDb2dVertex
 10
8.5908715356
 20
7.1995039264
 30
0.0
  0
VERTEX
  5
38C
330
1FB
100
AcDbEntity
  8
0
  6
CONTINUOUS
 62
     7
100
AcDbVertex
100
AcDb2dVertex
 10
8.6001616116
 20
7.1930454547
 30
0.0
  0
VERTEX
  5
38D
330
1FB
100
AcDbEntity
  8
0
  6
CONTINUOUS
 62
     7
100
AcDbVertex
100
AcDb2dVertex
 10
8.6080064468
 20
7.1859768793
 30
0.0
  0
VERTEX
  5
38E
330
1FB
100
AcDbEntity
  8
0
  6
CONTINUOUS
 62
     7
100
AcDbVertex
100
AcDb2dVertex
 10
8.6142871216
 20
7.1784053525
 30
0.0
  0
VERTEX
  5
38F
330
1FB
100
AcDbEntity
  8
0
  6
CONTINUOUS
 62
     7
100
AcDbVertex
100
AcDb2dVertex
 10
8.6189084274
 20
7.1704456511
 30
0.0
  0
VERTEX
  5
390
330
1FB
100
AcDbEntity
  8
0
  6
CONTINUOUS
 62
     7
100
AcDbVertex
100
AcDb2dVertex
 10
8.6218003098
 20
7.162218436
 30
0.0
  0
VERTEX
  5
391
330
1FB
100
AcDbEntity
  8
0
  6
CONTINUOUS
 62
     7
100
AcDbVertex
100
AcDb2dVertex
 10
8.6229189309
 20
7.1538484233
 30
0.0
  0
VERTEX
  5
392
330
1FB
100
AcDbEntity
  8
0
  6
CONTINUOUS
 62
     7
100
AcDbVertex
100
AcDb2dVertex
 10
8.6222473335
 20
7.1454624939
 30
0.0
  0
VERTEX
  5
393
330
1FB
100
AcDbEntity
  8
0
  6
CONTINUOUS
 62
     7
100
AcDbVertex
100
AcDb2dVertex
 10
8.6197956984
 20
7.13718777
 30
0.0
  0
VERTEX
  5
394
330
1FB
100
AcDbEntity
  8
0
  6
CONTINUOUS
 62
     7
100
AcDbVertex
100
AcDb2dVertex
 10
8.6156011898
 20
7.1291496879
 30
0.0
  0
VERTEX
  5
395
330
1FB
100
AcDbEntity
  8
0
  6
CONTINUOUS
 62
     7
100
AcDbVertex
100
AcDb2dVertex
 10
8.6097273923
 20
7.1214700968
 30
0.0
  0
VERTEX
  5
396
330
1FB
100
AcDbEntity
  8
0
  6
CONTINUOUS
 62
     7
100
AcDbVertex
100
AcDb2dVertex
 10
8.6022633465
 20
7.1142654115
 30
0.0
  0
VERTEX
  5
397
330
1FB
100
AcDbEntity
  8
0
  6
CONTINUOUS
 62
     7
100
AcDbVertex
100
AcDb2dVertex
 10
8.5933221998
 20
7.1076448476
 30
0.0
  0
VERTEX
  5
398
330
1FB
100
AcDbEntity
  8
0
  6
CONTINUOUS
 62
     7
100
AcDbVertex
100
AcDb2dVertex
 10
8.5832686101
 20
7.1018259713
 30
0.0
  0
SEQEND
  5
399
330
1FB
100
AcDbEntity
  8
0
  6
CONTINUOUS
 62
     7
  0
POLYLINE
  5
1FC
330
1F
100
AcDbEntity
  8
0
  6
CONTINUOUS
 62
     7
100
AcDb2dPolyline
 66
     1
 10
0.0
 20
0.0
 30
0.0
  0
VERTEX
  5
39A
330
1FC
100
AcDbEntity
  8
0
  6
CONTINUOUS
 62
     7
100
AcDbVertex
100
AcDb2dVertex
 10
8.5618271912
 20
7.0930818952
 30
0.0
  0
VERTEX
  5
39B
330
1FC
100
AcDbEntity
  8
0
  6
CONTINUOUS
 62
     7
100
AcDbVertex
100
AcDb2dVertex
 10
8.559090862
 20
7.0922382501
 30
0.0
  0
VERTEX
  5
39C
330
1FC
100
AcDbEntity
  8
0
  6
CONTINUOUS
 62
     7
100
AcDbVertex
100
AcDb2dVertex
 10
8.5457879786
 20
7.088847379
 30
0.0
  0
VERTEX
  5
39D
330
1FC
100
AcDbEntity
  8
0
  6
CONTINUOUS
 62
     7
100
AcDbVertex
100
AcDb2dVertex
 10
8.5318641034
 20
7.0864259407
 30
0.0
  0
VERTEX
  5
39E
330
1FC
100
AcDbEntity
  8
0
  6
CONTINUOUS
 62
     7
100
AcDbVertex
100
AcDb2dVertex
 10
8.5175303081
 20
7.0850106419
 30
0.0
  0
VERTEX
  5
39F
330
1FC
100
AcDbEntity
  8
0
  6
CONTINUOUS
 62
     7
100
AcDbVertex
100
AcDb2dVertex
 10
8.5030038784
 20
7.0846229369
 30
0.0
  0
VERTEX
  5
3A0
330
1FC
100
AcDbEntity
  8
0
  6
CONTINUOUS
 62
     7
100
AcDbVertex
100
AcDb2dVertex
 10
8.4885050202
 20
7.0852687032
 30
0.0
  0
VERTEX
  5
3A1
330
1FC
100
AcDbEntity
  8
0
  6
CONTINUOUS
 62
     7
100
AcDbVertex
100
AcDb2dVertex
 10
8.4742535213
 20
7.0869381514
 30
0.0
  0
VERTEX
  5
3A2
330
1FC
100
AcDbEntity
  8
0
  6
CONTINUOUS
 62
     7
100
AcDbVertex
100
AcDb2dVertex
 10
8.4604654201
 20
7.0896059744
 30
0.0
  0
VERTEX
  5
3A3
330
1FC
100
AcDbEntity
  8
0
  6
CONTINUOUS
 62
     7
100
AcDbVertex
100
AcDb2dVertex
 10
8.44734973
 20
7.0932317308
 30
0.0
  0
VERTEX
  5
3A4
330
1FC
100
AcDbEntity
  8
0
  6
CONTINUOUS
 62
     7
100
AcDbVertex
100
AcDb2dVertex
 10
8.4351052715
 20
7.0977604578
 30
0.0
  0
VERTEX
  5
3A5
330
1FC
100
AcDbEntity
  8
0
  6
CONTINUOUS
 62
     7
100
AcDbVertex
100
AcDb2dVertex
 10
8.4239176582
 20
7.1031235045
 30
0.0
  0
VERTEX
  5
3A6
330
1FC
100
AcDbEntity
  8
0
  6
CONTINUOUS
 62
     7
100
AcDbVertex
100
AcDb2dVertex
 10
8.4139564828
 20
7.1092395726
 30
0.0
  0
VERTEX
  5
3A7
330
1FC
100
AcDbEntity
  8
0
  6
CONTINUOUS
 62
     7
100
AcDbVertex
100
AcDb2dVertex
 10
8.4053727467
 20
7.1160159487
 30
0.0
  0
VERTEX
  5
3A8
330
1FC
100
AcDbEntity
  8
0
  6
CONTINUOUS
 62
     7
100
AcDbVertex
100
AcDb2dVertex
 10
8.3982965705
 20
7.1233499098
 30
0.0
  0
VERTEX
  5
3A9
330
1FC
100
AcDbEntity
  8
0
  6
CONTINUOUS
 62
     7
100
AcDbVertex
100
AcDb2dVertex
 10
8.3928352218
 20
7.1311302807
 30
0.0
  0
VERTEX
  5
3AA
330
1FC
100
AcDbEntity
  8
0
  6
CONTINUOUS
 62
     7
100
AcDbVertex
100
AcDb2dVertex
 10
8.3890714891
 20
7.1392391188
 30
0.0
  0
VERTEX
  5
3AB
330
1FC
100
AcDbEntity
  8
0
  6
CONTINUOUS
 62
     7
100
AcDbVertex
100
AcDb2dVertex
 10
8.3870624268
 20
7.1475535024
 30
0.0
  0
VERTEX
  5
3AC
330
1FC
100
AcDbEntity
  8
0
  6
CONTINUOUS
 62
     7
100
AcDbVertex
100
AcDb2dVertex
 10
8.3868384902
 20
7.1559473939
 30
0.0
  0
VERTEX
  5
3AD
330
1FC
100
AcDbEntity
  8
0
  6
CONTINUOUS
 62
     7
100
AcDbVertex
100
AcDb2dVertex
 10
8.388403074
 20
7.1642935504
 30
0.0
  0
VERTEX
  5
3AE
330
1FC
100
AcDbEntity
  8
0
  6
CONTINUOUS
 62
     7
100
AcDbVertex
100
AcDb2dVertex
 10
8.3917324606
 20
7.1724654528
 30
0.0
  0
VERTEX
  5
3AF
330
1FC
100
AcDbEntity
  8
0
  6
CONTINUOUS
 62
     7
100
AcDbVertex
100
AcDb2dVertex
 10
8.39677618
 20
7.1803392234
 30
0.0
  0
VERTEX
  5
3B0
330
1FC
100
AcDbEntity
  8
0
  6
CONTINUOUS
 62
     7
100
AcDbVertex
100
AcDb2dVertex
 10
8.4034577744
 20
7.1877955037
 30
0.0
  0
VERTEX
  5
3B1
330
1FC
100
AcDbEntity
  8
0
  6
CONTINUOUS
 62
     7
100
AcDbVertex
100
AcDb2dVertex
 10
8.4116759578
 20
7.1947212642
 30
0.0
  0
VERTEX
  5
3B2
330
1FC
100
AcDbEntity
  8
0
  6
CONTINUOUS
 62
     7
100
AcDbVertex
100
AcDb2dVertex
 10
8.4213061509
 20
7.2010115174
 30
0.0
  0
SEQEND
  5
3B3
330
1FC
100
AcDbEntity
  8
0
  6
CONTINUOUS
 62
     7
  0
POLYLINE
  5
1FD
330
1F
100
AcDbEntity
  8
0
  6
CONTINUOUS
 62
     7
100
AcDb2dPolyline
 66
     1
 10
0.0
 20
0.0
 30
0.0
  0
VERTEX
  5
3B4
330
1FD
100
AcDbEntity
  8
0
  6
CONTINUOUS
 62
     7
100
AcDbVertex
100
AcDb2dVertex
 10
8.4354482865
 20
7.2091782526
 30
0.0
  0
VERTEX
  5
3B5
330
1FD
100
AcDbEntity
  8
0
  6
CONTINUOUS
 62
     7
100
AcDbVertex
100
AcDb2dVertex
 10
8.4266479622
 20
7.2033518964
 30
0.0
  0
VERTEX
  5
3B6
330
1FD
100
AcDbEntity
  8
0
  6
CONTINUOUS
 62
     7
100
AcDbVertex
100
AcDb2dVertex
 10
8.4193038853
 20
7.1968880372
 30
0.0
  0
VERTEX
  5
3B7
330
1FD
100
AcDbEntity
  8
0
  6
CONTINUOUS
 62
     7
100
AcDbVertex
100
AcDb2dVertex
 10
8.413552862
 20
7.1899070845
 30
0.0
  0
VERTEX
  5
3B8
330
1FD
100
AcDbEntity
  8
0
  6
CONTINUOUS
 62
     7
100
AcDbVertex
100
AcDb2dVertex
 10
8.4095020232
 20
7.1825390801
 30
0.0
  0
VERTEX
  5
3B9
330
1FD
100
AcDbEntity
  8
0
  6
CONTINUOUS
 62
     7
100
AcDbVertex
100
AcDb2dVertex
 10
8.4072268283
 20
7.1749212761
 30
0.0
  0
VERTEX
  5
3BA
330
1FD
100
AcDbEntity
  8
0
  6
CONTINUOUS
 62
     7
100
AcDbVertex
100
AcDb2dVertex
 10
8.4067696597
 20
7.1671955777
 30
0.0
  0
VERTEX
  5
3BB
330
1FD
100
AcDbEntity
  8
0
  6
CONTINUOUS
 62
     7
100
AcDbVertex
100
AcDb2dVertex
 10
8.4081390338
 20
7.1595059001
 30
0.0
  0
VERTEX
  5
3BC
330
1FD
100
AcDbEntity
  8
0
  6
CONTINUOUS
 62
     7
100
AcDbVertex
100
AcDb2dVertex
 10
8.4113094416
 20
7.1519954874
 30
0.0
  0
VERTEX
  5
3BD
330
1FD
100
AcDbEntity
  8
0
  6
CONTINUOUS
 62
     7
100
AcDbVertex
100
AcDb2dVertex
 10
8.4162218246
 20
7.1448042443
 30
0.0
  0
VERTEX
  5
3BE
330
1FD
100
AcDbEntity
  8
0
  6
CONTINUOUS
 62
     7
100
AcDbVertex
100
AcDb2dVertex
 10
8.4227846741
 20
7.1380661303
 30
0.0
  0
VERTEX
  5
3BF
330
1FD
100
AcDbEntity
  8
0
  6
CONTINUOUS
 62
     7
100
AcDbVertex
100
AcDb2dVertex
 10
8.4308757369
 20
7.1319066635
 30
0.0
  0
VERTEX
  5
3C0
330
1FD
100
AcDbEntity
  8
0
  6
CONTINUOUS
 62
     7
100
AcDbVertex
100
AcDb2dVertex
 10
8.4403442917
 20
7.1264405831
 30
0.0
  0
VERTEX
  5
3C1
330
1FD
100
AcDbEntity
  8
0
  6
CONTINUOUS
 62
     7
100
AcDbVertex
100
AcDb2dVertex
 10
8.4510139572
 20
7.121769712
 30
0.0
  0
VERTEX
  5
3C2
330
1FD
100
AcDbEntity
  8
0
  6
CONTINUOUS
 62
     7
100
AcDbVertex
100
AcDb2dVertex
 10
8.4626859778
 20
7.1179810596
 30
0.0
  0
VERTEX
  5
3C3
330
1FD
100
AcDbEntity
  8
0
  6
CONTINUOUS
 62
     7
100
AcDbVertex
100
AcDb2dVertex
 10
8.4751429258
 20
7.1151452013
 30
0.0
  0
VERTEX
  5
3C4
330
1FD
100
AcDbEntity
  8
0
  6
CONTINUOUS
 62
     7
100
AcDbVertex
100
AcDb2dVertex
 10
8.4881527519
 20
7.1133149638
 30
0.0
  0
VERTEX
  5
3C5
330
1FD
100
AcDbEntity
  8
0
  6
CONTINUOUS
 62
     7
100
AcDbVertex
100
AcDb2dVertex
 10
8.5014731075
 20
7.112524441
 30
0.0
  0
VERTEX
  5
3C6
330
1FD
100
AcDbEntity
  8
0
  6
CONTINUOUS
 62
     7
100
AcDbVertex
100
AcDb2dVertex
 10
8.5148558597
 20
7.1127883588
 30
0.0
  0
VERTEX
  5
3C7
330
1FD
100
AcDbEntity
  8
0
  6
CONTINUOUS
 62
     7
100
AcDbVertex
100
AcDb2dVertex
 10
8.5280517131
 20
7.1141018009
 30
0.0
  0
VERTEX
  5
3C8
330
1FD
100
AcDbEntity
  8
0
  6
CONTINUOUS
 62
     7
100
AcDbVertex
100
AcDb2dVertex
 10
8.5408148539
 20
7.1164403003
 30
0.0
  0
VERTEX
  5
3C9
330
1FD
100
AcDbEntity
  8
0
  6
CONTINUOUS
 62
     7
100
AcDbVertex
100
AcDb2dVertex
 10
8.5529075291
 20
7.1197602954
 30
0.0
  0
VERTEX
  5
3CA
330
1FD
100
AcDbEntity
  8
0
  6
CONTINUOUS
 62
     7
100
AcDbVertex
100
AcDb2dVertex
 10
8.5641044748
 20
7.1239999407
 30
0.0
  0
VERTEX
  5
3CB
330
1FD
100
AcDbEntity
  8
0
  6
CONTINUOUS
 62
     7
100
AcDbVertex
100
AcDb2dVertex
 10
8.5741971132
 20
7.1290802599
 30
0.0
  0
VERTEX
  5
3CC
330
1FD
100
AcDbEntity
  8
0
  6
CONTINUOUS
 62
     7
100
AcDbVertex
100
AcDb2dVertex
 10
8.5829974376
 20
7.134906616
 30
0.0
  0
VERTEX
  5
3CD
330
1FD
100
AcDbEntity
  8
0
  6
CONTINUOUS
 62
     7
100
AcDbVertex
100
AcDb2dVertex
 10
8.5903415145
 20
7.1413704752
 30
0.0
  0
VERTEX
  5
3CE
330
1FD
100
AcDbEntity
  8
0
  6
CONTINUOUS
 62
     7
100
AcDbVertex
100
AcDb2dVertex
 10
8.5960925377
 20
7.1483514279
 30
0.0
  0
VERTEX
  5
3CF
330
1FD
100
AcDbEntity
  8
0
  6
CONTINUOUS
 62
     7
100
AcDbVertex
100
AcDb2dVertex
 10
8.6001433765
 20
7.1557194323
 30
0.0
  0
VERTEX
  5
3D0
330
1FD
100
AcDbEntity
  8
0
  6
CONTINUOUS
 62
     7
100
AcDbVertex
100
AcDb2dVertex
 10
8.6024185715
 20
7.1633372363
 30
0.0
  0
VERTEX
  5
3D1
330
1FD
100
AcDbEntity
  8
0
  6
CONTINUOUS
 62
     7
100
AcDbVertex
100
AcDb2dVertex
 10
8.60287574
 20
7.1710629347
 30
0.0
  0
VERTEX
  5
3D2
330
1FD
100
AcDbEntity
  8
0
  6
CONTINUOUS
 62
     7
100
AcDbVertex
100
AcDb2dVertex
 10
8.6015063659
 20
7.1787526124
 30
0.0
  0
VERTEX
  5
3D3
330
1FD
100
AcDbEntity
  8
0
  6
CONTINUOUS
 62
     7
100
AcDbVertex
100
AcDb2dVertex
 10
8.5983359581
 20
7.1862630251
 30
0.0
  0
VERTEX
  5
3D4
330
1FD
100
AcDbEntity
  8
0
  6
CONTINUOUS
 62
     7
100
AcDbVertex
100
AcDb2dVertex
 10
8.5934235752
 20
7.1934542681
 30
0.0
  0
VERTEX
  5
3D5
330
1FD
100
AcDbEntity
  8
0
  6
CONTINUOUS
 62
     7
100
AcDbVertex
100
AcDb2dVertex
 10
8.5868607256
 20
7.2001923821
 30
0.0
  0
VERTEX
  5
3D6
330
1FD
100
AcDbEntity
  8
0
  6
CONTINUOUS
 62
     7
100
AcDbVertex
100
AcDb2dVertex
 10
8.5787696628
 20
7.2063518489
 30
0.0
  0
VERTEX
  5
3D7
330
1FD
100
AcDbEntity
  8
0
  6
CONTINUOUS
 62
     7
100
AcDbVertex
100
AcDb2dVertex
 10
8.569301108
 20
7.2118179293
 30
0.0
  0
VERTEX
  5
3D8
330
1FD
100
AcDbEntity
  8
0
  6
CONTINUOUS
 62
     7
100
AcDbVertex
100
AcDb2dVertex
 10
8.5586314425
 20
7.2164888004
 30
0.0
  0
VERTEX
  5
3D9
330
1FD
100
AcDbEntity
  8
0
  6
CONTINUOUS
 62
     7
100
AcDbVertex
100
AcDb2dVertex
 10
8.5469594219
 20
7.2202774528
 30
0.0
  0
VERTEX
  5
3DA
330
1FD
100
AcDbEntity
  8
0
  6
CONTINUOUS
 62
     7
100
AcDbVertex
100
AcDb2dVertex
 10
8.5345024739
 20
7.2231133111
 30
0.0
  0
VERTEX
  5
3DB
330
1FD
100
AcDbEntity
  8
0
  6
CONTINUOUS
 62
     7
100
AcDbVertex
100
AcDb2dVertex
 10
8.5214926479
 20
7.2249435486
 30
0.0
  0
VERTEX
  5
3DC
330
1FD
100
AcDbEntity
  8
0
  6
CONTINUOUS
 62
     7
100
AcDbVertex
100
AcDb2dVertex
 10
8.5081722923
 20
7.2257340714
 30
0.0
  0
VERTEX
  5
3DD
330
1FD
100
AcDbEntity
  8
0
  6
CONTINUOUS
 62
     7
100
AcDbVertex
100
AcDb2dVertex
 10
8.4947895401
 20
7.2254701536
 30
0.0
  0
VERTEX
  5
3DE
330
1FD
100
AcDbEntity
  8
0
  6
CONTINUOUS
 62
     7
100
AcDbVertex
100
AcDb2dVertex
 10
8.4815936867
 20
7.2241567115
 30
0.0
  0
VERTEX
  5
3DF
330
1FD
100
AcDbEntity
  8
0
  6
CONTINUOUS
 62
     7
100
AcDbVertex
100
AcDb2dVertex
 10
8.4688305458
 20
7.2218182121
 30
0.0
  0
VERTEX
  5
3E0
330
1FD
100
AcDbEntity
  8
0
  6
CONTINUOUS
 62
     7
100
AcDbVertex
100
AcDb2dVertex
 10
8.4567378707
 20
7.218498217
 30
0.0
  0
VERTEX
  5
3E1
330
1FD
100
AcDbEntity
  8
0
  6
CONTINUOUS
 62
     7
100
AcDbVertex
100
AcDb2dVertex
 10
8.445540925
 20
7.2142585717
 30
0.0
  0
VERTEX
  5
3E2
330
1FD
100
AcDbEntity
  8
0
  6
CONTINUOUS
 62
     7
100
AcDbVertex
100
AcDb2dVertex
 10
8.4354482865
 20
7.2091782526
 30
0.0
  0
SEQEND
  5
3E3
330
1FD
100
AcDbEntity
  8
0
  6
CONTINUOUS
 62
     7
  0
LINE
  5
1FE
330
1F
100
AcDbEntity
  8
0
  6
CONTINUOUS
 62
     7
100
AcDbLine
 10
8.5530410019
 20
7.1969650895
 30
0.0
 11
8.4871735764
 21
7.2071537116
 31
0.0
  0
LINE
  5
1FF
330
1F
100
AcDbEntity
  8
0
  6
CONTINUOUS
 62
     7
100
AcDbLine
 10
8.4871735764
 20
7.2071537116
 30
0.0
 11
8.4389552744
 21
7.1793178783
 31
0.0
  0
LINE
  5
200
330
1F
100
AcDbEntity
  8
0
  6
CONTINUOUS
 62
     7
100
AcDbLine
 10
8.4389552744
 20
7.1793178783
 30
0.0
 11
8.4566043978
 21
7.141293423
 31
0.0
  0
LINE
  5
201
330
1F
100
AcDbEntity
  8
0
  6
CONTINUOUS
 62
     7
100
AcDbLine
 10
8.4566043978
 20
7.141293423
 30
0.0
 11
8.5224718233
 21
7.1311048008
 31
0.0
  0
LINE
  5
202
330
1F
100
AcDbEntity
  8
0
  6
CONTINUOUS
 62
     7
100
AcDbLine
 10
8.5224718233
 20
7.1311048008
 30
0.0
 11
8.5706901254
 21
7.1589406341
 31
0.0
  0
LINE
  5
203
330
1F
100
AcDbEntity
  8
0
  6
CONTINUOUS
 62
     7
100
AcDbLine
 10
8.5706901254
 20
7.1589406341
 30
0.0
 11
8.5530410019
 21
7.1969650895
 31
0.0
  0
LINE
  5
204
330
1F
100
AcDbEntity
  8
0
  6
CONTINUOUS
 62
     7
100
AcDbLine
 10
8.5530410019
 20
7.148752012
 30
0.0
 11
8.5530410019
 21
7.1969650895
 31
0.0
  0
LINE
  5
205
330
1F
100
AcDbEntity
  8
0
  6
CONTINUOUS
 62
     7
100
AcDbLine
 10
8.4871735764
 20
7.136564867
 30
0.0
 11
8.4871735764
 21
7.2071537116
 31
0.0
  0
POLYLINE
  5
206
330
1F
100
AcDbEntity
  8
0
  6
CONTINUOUS
 62
     7
100
AcDb2dPolyline
 66
     1
 10
0.0
 20
0.0
 30
0.0
  0
VERTEX
  5
3E4
330
206
100
AcDbEntity
  8
0
  6
CONTINUOUS
 62
     7
100
AcDbVertex
100
AcDb2dVertex
 10
7.9202068572
 20
7.4902899823
 30
0.0
  0
VERTEX
  5
3E5
330
206
100
AcDbEntity
  8
0
  6
CONTINUOUS
 62
     7
100
AcDbVertex
100
AcDb2dVertex
 10
7.9298370502
 20
7.4965802355
 30
0.0
  0
VERTEX
  5
3E6
330
206
100
AcDbEntity
  8
0
  6
CONTINUOUS
 62
     7
100
AcDbVertex
100
AcDb2dVertex
 10
7.9380552336
 20
7.503505996
 30
0.0
  0
VERTEX
  5
3E7
330
206
100
AcDbEntity
  8
0
  6
CONTINUOUS
 62
     7
100
AcDbVertex
100
AcDb2dVertex
 10
7.9447368281
 20
7.5109622763
 30
0.0
  0
VERTEX
  5
3E8
330
206
100
AcDbEntity
  8
0
  6
CONTINUOUS
 62
     7
100
AcDbVertex
100
AcDb2dVertex
 10
7.9497805475
 20
7.5188360469
 30
0.0
  0
VERTEX
  5
3E9
330
206
100
AcDbEntity
  8
0
  6
CONTINUOUS
 62
     7
100
AcDbVertex
100
AcDb2dVertex
 10
7.9531099341
 20
7.5270079493
 30
0.0
  0
VERTEX
  5
3EA
330
206
100
AcDbEntity
  8
0
  6
CONTINUOUS
 62
     7
100
AcDbVertex
100
AcDb2dVertex
 10
7.9546745178
 20
7.5353541058
 30
0.0
  0
VERTEX
  5
3EB
330
206
100
AcDbEntity
  8
0
  6
CONTINUOUS
 62
     7
100
AcDbVertex
100
AcDb2dVertex
 10
7.9544505812
 20
7.5437479973
 30
0.0
  0
VERTEX
  5
3EC
330
206
100
AcDbEntity
  8
0
  6
CONTINUOUS
 62
     7
100
AcDbVertex
100
AcDb2dVertex
 10
7.9524415189
 20
7.5520623809
 30
0.0
  0
VERTEX
  5
3ED
330
206
100
AcDbEntity
  8
0
  6
CONTINUOUS
 62
     7
100
AcDbVertex
100
AcDb2dVertex
 10
7.9486777863
 20
7.560171219
 30
0.0
  0
VERTEX
  5
3EE
330
206
100
AcDbEntity
  8
0
  6
CONTINUOUS
 62
     7
100
AcDbVertex
100
AcDb2dVertex
 10
7.9432164376
 20
7.5679515898
 30
0.0
  0
VERTEX
  5
3EF
330
206
100
AcDbEntity
  8
0
  6
CONTINUOUS
 62
     7
100
AcDbVertex
100
AcDb2dVertex
 10
7.9361402614
 20
7.575285551
 30
0.0
  0
VERTEX
  5
3F0
330
206
100
AcDbEntity
  8
0
  6
CONTINUOUS
 62
     7
100
AcDbVertex
100
AcDb2dVertex
 10
7.9275565252
 20
7.5820619271
 30
0.0
  0
VERTEX
  5
3F1
330
206
100
AcDbEntity
  8
0
  6
CONTINUOUS
 62
     7
100
AcDbVertex
100
AcDb2dVertex
 10
7.9202204276
 20
7.5867083019
 30
0.0
  0
SEQEND
  5
3F2
330
206
100
AcDbEntity
  8
0
  6
CONTINUOUS
 62
     7
  0
POLYLINE
  5
207
330
1F
100
AcDbEntity
  8
0
  6
CONTINUOUS
 62
     7
100
AcDb2dPolyline
 66
     1
 10
0.0
 20
0.0
 30
0.0
  0
VERTEX
  5
3F3
330
207
100
AcDbEntity
  8
0
  6
CONTINUOUS
 62
     7
100
AcDbVertex
100
AcDb2dVertex
 10
7.7531601888
 20
7.5867083019
 30
0.0
  0
VERTEX
  5
3F4
330
207
100
AcDbEntity
  8
0
  6
CONTINUOUS
 62
     7
100
AcDbVertex
100
AcDb2dVertex
 10
7.7481908082
 20
7.5836566521
 30
0.0
  0
VERTEX
  5
3F5
330
207
100
AcDbEntity
  8
0
  6
CONTINUOUS
 62
     7
100
AcDbVertex
100
AcDb2dVertex
 10
7.7392496616
 20
7.5770360882
 30
0.0
  0
VERTEX
  5
3F6
330
207
100
AcDbEntity
  8
0
  6
CONTINUOUS
 62
     7
100
AcDbVertex
100
AcDb2dVertex
 10
7.7317856158
 20
7.5698314029
 30
0.0
  0
VERTEX
  5
3F7
330
207
100
AcDbEntity
  8
0
  6
CONTINUOUS
 62
     7
100
AcDbVertex
100
AcDb2dVertex
 10
7.7259118182
 20
7.5621518118
 30
0.0
  0
VERTEX
  5
3F8
330
207
100
AcDbEntity
  8
0
  6
CONTINUOUS
 62
     7
100
AcDbVertex
100
AcDb2dVertex
 10
7.7217173097
 20
7.5541137297
 30
0.0
  0
VERTEX
  5
3F9
330
207
100
AcDbEntity
  8
0
  6
CONTINUOUS
 62
     7
100
AcDbVertex
100
AcDb2dVertex
 10
7.7192656745
 20
7.5458390058
 30
0.0
  0
VERTEX
  5
3FA
330
207
100
AcDbEntity
  8
0
  6
CONTINUOUS
 62
     7
100
AcDbVertex
100
AcDb2dVertex
 10
7.7185940771
 20
7.5374530764
 30
0.0
  0
VERTEX
  5
3FB
330
207
100
AcDbEntity
  8
0
  6
CONTINUOUS
 62
     7
100
AcDbVertex
100
AcDb2dVertex
 10
7.7197126983
 20
7.5290830637
 30
0.0
  0
VERTEX
  5
3FC
330
207
100
AcDbEntity
  8
0
  6
CONTINUOUS
 62
     7
100
AcDbVertex
100
AcDb2dVertex
 10
7.7226045807
 20
7.5208558486
 30
0.0
  0
VERTEX
  5
3FD
330
207
100
AcDbEntity
  8
0
  6
CONTINUOUS
 62
     7
100
AcDbVertex
100
AcDb2dVertex
 10
7.7272258865
 20
7.5128961472
 30
0.0
  0
VERTEX
  5
3FE
330
207
100
AcDbEntity
  8
0
  6
CONTINUOUS
 62
     7
100
AcDbVertex
100
AcDb2dVertex
 10
7.7335065613
 20
7.5053246204
 30
0.0
  0
VERTEX
  5
3FF
330
207
100
AcDbEntity
  8
0
  6
CONTINUOUS
 62
     7
100
AcDbVertex
100
AcDb2dVertex
 10
7.7413513965
 20
7.498256045
 30
0.0
  0
VERTEX
  5
400
330
207
100
AcDbEntity
  8
0
  6
CONTINUOUS
 62
     7
100
AcDbVertex
100
AcDb2dVertex
 10
7.7506414725
 20
7.4917975733
 30
0.0
  0
VERTEX
  5
401
330
207
100
AcDbEntity
  8
0
  6
CONTINUOUS
 62
     7
100
AcDbVertex
100
AcDb2dVertex
 10
7.7612359611
 20
7.4860471092
 30
0.0
  0
VERTEX
  5
402
330
207
100
AcDbEntity
  8
0
  6
CONTINUOUS
 62
     7
100
AcDbVertex
100
AcDb2dVertex
 10
7.7729742607
 20
7.4810918238
 30
0.0
  0
VERTEX
  5
403
330
207
100
AcDbEntity
  8
0
  6
CONTINUOUS
 62
     7
100
AcDbVertex
100
AcDb2dVertex
 10
7.7856784306
 20
7.4770068342
 30
0.0
  0
VERTEX
  5
404
330
207
100
AcDbEntity
  8
0
  6
CONTINUOUS
 62
     7
100
AcDbVertex
100
AcDb2dVertex
 10
7.7991558886
 20
7.4738540647
 30
0.0
  0
VERTEX
  5
405
330
207
100
AcDbEntity
  8
0
  6
CONTINUOUS
 62
     7
100
AcDbVertex
100
AcDb2dVertex
 10
7.8132023301
 20
7.4716813081
 30
0.0
  0
VERTEX
  5
406
330
207
100
AcDbEntity
  8
0
  6
CONTINUOUS
 62
     7
100
AcDbVertex
100
AcDb2dVertex
 10
7.8276048254
 20
7.4705215011
 30
0.0
  0
VERTEX
  5
407
330
207
100
AcDbEntity
  8
0
  6
CONTINUOUS
 62
     7
100
AcDbVertex
100
AcDb2dVertex
 10
7.8421450474
 20
7.4703922253
 30
0.0
  0
VERTEX
  5
408
330
207
100
AcDbEntity
  8
0
  6
CONTINUOUS
 62
     7
100
AcDbVertex
100
AcDb2dVertex
 10
7.8566025811
 20
7.4712954403
 30
0.0
  0
VERTEX
  5
409
330
207
100
AcDbEntity
  8
0
  6
CONTINUOUS
 62
     7
100
AcDbVertex
100
AcDb2dVertex
 10
7.8707582651
 20
7.4732174542
 30
0.0
  0
VERTEX
  5
40A
330
207
100
AcDbEntity
  8
0
  6
CONTINUOUS
 62
     7
100
AcDbVertex
100
AcDb2dVertex
 10
7.8843975135
 20
7.4761291315
 30
0.0
  0
VERTEX
  5
40B
330
207
100
AcDbEntity
  8
0
  6
CONTINUOUS
 62
     7
100
AcDbVertex
100
AcDb2dVertex
 10
7.8973135693
 20
7.4799863338
 30
0.0
  0
VERTEX
  5
40C
330
207
100
AcDbEntity
  8
0
  6
CONTINUOUS
 62
     7
100
AcDbVertex
100
AcDb2dVertex
 10
7.9093106383
 20
7.4847305901
 30
0.0
  0
VERTEX
  5
40D
330
207
100
AcDbEntity
  8
0
  6
CONTINUOUS
 62
     7
100
AcDbVertex
100
AcDb2dVertex
 10
7.9202068572
 20
7.4902899823
 30
0.0
  0
SEQEND
  5
40E
330
207
100
AcDbEntity
  8
0
  6
CONTINUOUS
 62
     7
  0
POLYLINE
  5
208
330
1F
100
AcDbEntity
  8
0
  6
CONTINUOUS
 62
     7
100
AcDb2dPolyline
 66
     1
 10
0.0
 20
0.0
 30
0.0
  0
VERTEX
  5
40F
330
208
100
AcDbEntity
  8
0
  6
CONTINUOUS
 62
     7
100
AcDbVertex
100
AcDb2dVertex
 10
7.9060647215
 20
7.5147848796
 30
0.0
  0
VERTEX
  5
410
330
208
100
AcDbEntity
  8
0
  6
CONTINUOUS
 62
     7
100
AcDbVertex
100
AcDb2dVertex
 10
7.8959720831
 20
7.5097045605
 30
0.0
  0
VERTEX
  5
411
330
208
100
AcDbEntity
  8
0
  6
CONTINUOUS
 62
     7
100
AcDbVertex
100
AcDb2dVertex
 10
7.8847751374
 20
7.5054649151
 30
0.0
  0
VERTEX
  5
412
330
208
100
AcDbEntity
  8
0
  6
CONTINUOUS
 62
     7
100
AcDbVertex
100
AcDb2dVertex
 10
7.8726824623
 20
7.5021449201
 30
0.0
  0
VERTEX
  5
413
330
208
100
AcDbEntity
  8
0
  6
CONTINUOUS
 62
     7
100
AcDbVertex
100
AcDb2dVertex
 10
7.8599193214
 20
7.4998064206
 30
0.0
  0
VERTEX
  5
414
330
208
100
AcDbEntity
  8
0
  6
CONTINUOUS
 62
     7
100
AcDbVertex
100
AcDb2dVertex
 10
7.846723468
 20
7.4984929785
 30
0.0
  0
VERTEX
  5
415
330
208
100
AcDbEntity
  8
0
  6
CONTINUOUS
 62
     7
100
AcDbVertex
100
AcDb2dVertex
 10
7.8333407158
 20
7.4982290608
 30
0.0
  0
VERTEX
  5
416
330
208
100
AcDbEntity
  8
0
  6
CONTINUOUS
 62
     7
100
AcDbVertex
100
AcDb2dVertex
 10
7.8200203602
 20
7.4990195836
 30
0.0
  0
VERTEX
  5
417
330
208
100
AcDbEntity
  8
0
  6
CONTINUOUS
 62
     7
100
AcDbVertex
100
AcDb2dVertex
 10
7.8070105342
 20
7.5008498211
 30
0.0
  0
VERTEX
  5
418
330
208
100
AcDbEntity
  8
0
  6
CONTINUOUS
 62
     7
100
AcDbVertex
100
AcDb2dVertex
 10
7.7945535862
 20
7.5036856794
 30
0.0
  0
VERTEX
  5
419
330
208
100
AcDbEntity
  8
0
  6
CONTINUOUS
 62
     7
100
AcDbVertex
100
AcDb2dVertex
 10
7.7828815656
 20
7.5074743318
 30
0.0
  0
VERTEX
  5
41A
330
208
100
AcDbEntity
  8
0
  6
CONTINUOUS
 62
     7
100
AcDbVertex
100
AcDb2dVertex
 10
7.7722119
 20
7.5121452029
 30
0.0
  0
VERTEX
  5
41B
330
208
100
AcDbEntity
  8
0
  6
CONTINUOUS
 62
     7
100
AcDbVertex
100
AcDb2dVertex
 10
7.7627433452
 20
7.5176112832
 30
0.0
  0
VERTEX
  5
41C
330
208
100
AcDbEntity
  8
0
  6
CONTINUOUS
 62
     7
100
AcDbVertex
100
AcDb2dVertex
 10
7.7546522825
 20
7.52377075
 30
0.0
  0
VERTEX
  5
41D
330
208
100
AcDbEntity
  8
0
  6
CONTINUOUS
 62
     7
100
AcDbVertex
100
AcDb2dVertex
 10
7.7480894329
 20
7.5305088641
 30
0.0
  0
VERTEX
  5
41E
330
208
100
AcDbEntity
  8
0
  6
CONTINUOUS
 62
     7
100
AcDbVertex
100
AcDb2dVertex
 10
7.74317705
 20
7.5377001071
 30
0.0
  0
VERTEX
  5
41F
330
208
100
AcDbEntity
  8
0
  6
CONTINUOUS
 62
     7
100
AcDbVertex
100
AcDb2dVertex
 10
7.7400066421
 20
7.5452105198
 30
0.0
  0
VERTEX
  5
420
330
208
100
AcDbEntity
  8
0
  6
CONTINUOUS
 62
     7
100
AcDbVertex
100
AcDb2dVertex
 10
7.7386372681
 20
7.5529001974
 30
0.0
  0
VERTEX
  5
421
330
208
100
AcDbEntity
  8
0
  6
CONTINUOUS
 62
     7
100
AcDbVertex
100
AcDb2dVertex
 10
7.7390944366
 20
7.5606258958
 30
0.0
  0
VERTEX
  5
422
330
208
100
AcDbEntity
  8
0
  6
CONTINUOUS
 62
     7
100
AcDbVertex
100
AcDb2dVertex
 10
7.7413696316
 20
7.5682436999
 30
0.0
  0
VERTEX
  5
423
330
208
100
AcDbEntity
  8
0
  6
CONTINUOUS
 62
     7
100
AcDbVertex
100
AcDb2dVertex
 10
7.7454204704
 20
7.5756117042
 30
0.0
  0
VERTEX
  5
424
330
208
100
AcDbEntity
  8
0
  6
CONTINUOUS
 62
     7
100
AcDbVertex
100
AcDb2dVertex
 10
7.7511714936
 20
7.582592657
 30
0.0
  0
VERTEX
  5
425
330
208
100
AcDbEntity
  8
0
  6
CONTINUOUS
 62
     7
100
AcDbVertex
100
AcDb2dVertex
 10
7.7585155705
 20
7.5890565162
 30
0.0
  0
VERTEX
  5
426
330
208
100
AcDbEntity
  8
0
  6
CONTINUOUS
 62
     7
100
AcDbVertex
100
AcDb2dVertex
 10
7.7673158949
 20
7.5948828723
 30
0.0
  0
VERTEX
  5
427
330
208
100
AcDbEntity
  8
0
  6
CONTINUOUS
 62
     7
100
AcDbVertex
100
AcDb2dVertex
 10
7.7774085333
 20
7.5999631914
 30
0.0
  0
VERTEX
  5
428
330
208
100
AcDbEntity
  8
0
  6
CONTINUOUS
 62
     7
100
AcDbVertex
100
AcDb2dVertex
 10
7.788605479
 20
7.6042028368
 30
0.0
  0
VERTEX
  5
429
330
208
100
AcDbEntity
  8
0
  6
CONTINUOUS
 62
     7
100
AcDbVertex
100
AcDb2dVertex
 10
7.8006981541
 20
7.6075228318
 30
0.0
  0
VERTEX
  5
42A
330
208
100
AcDbEntity
  8
0
  6
CONTINUOUS
 62
     7
100
AcDbVertex
100
AcDb2dVertex
 10
7.813461295
 20
7.6098613313
 30
0.0
  0
VERTEX
  5
42B
330
208
100
AcDbEntity
  8
0
  6
CONTINUOUS
 62
     7
100
AcDbVertex
100
AcDb2dVertex
 10
7.8266571484
 20
7.6111747734
 30
0.0
  0
VERTEX
  5
42C
330
208
100
AcDbEntity
  8
0
  6
CONTINUOUS
 62
     7
100
AcDbVertex
100
AcDb2dVertex
 10
7.8400399006
 20
7.6114386912
 30
0.0
  0
VERTEX
  5
42D
330
208
100
AcDbEntity
  8
0
  6
CONTINUOUS
 62
     7
100
AcDbVertex
100
AcDb2dVertex
 10
7.8533602562
 20
7.6106481683
 30
0.0
  0
VERTEX
  5
42E
330
208
100
AcDbEntity
  8
0
  6
CONTINUOUS
 62
     7
100
AcDbVertex
100
AcDb2dVertex
 10
7.8663700822
 20
7.6088179309
 30
0.0
  0
VERTEX
  5
42F
330
208
100
AcDbEntity
  8
0
  6
CONTINUOUS
 62
     7
100
AcDbVertex
100
AcDb2dVertex
 10
7.8788270302
 20
7.6059820726
 30
0.0
  0
VERTEX
  5
430
330
208
100
AcDbEntity
  8
0
  6
CONTINUOUS
 62
     7
100
AcDbVertex
100
AcDb2dVertex
 10
7.8904990508
 20
7.6021934201
 30
0.0
  0
VERTEX
  5
431
330
208
100
AcDbEntity
  8
0
  6
CONTINUOUS
 62
     7
100
AcDbVertex
100
AcDb2dVertex
 10
7.9011687164
 20
7.597522549
 30
0.0
  0
VERTEX
  5
432
330
208
100
AcDbEntity
  8
0
  6
CONTINUOUS
 62
     7
100
AcDbVertex
100
AcDb2dVertex
 10
7.9106372712
 20
7.5920564687
 30
0.0
  0
VERTEX
  5
433
330
208
100
AcDbEntity
  8
0
  6
CONTINUOUS
 62
     7
100
AcDbVertex
100
AcDb2dVertex
 10
7.9187283339
 20
7.5858970019
 30
0.0
  0
VERTEX
  5
434
330
208
100
AcDbEntity
  8
0
  6
CONTINUOUS
 62
     7
100
AcDbVertex
100
AcDb2dVertex
 10
7.9252911835
 20
7.5791588878
 30
0.0
  0
VERTEX
  5
435
330
208
100
AcDbEntity
  8
0
  6
CONTINUOUS
 62
     7
100
AcDbVertex
100
AcDb2dVertex
 10
7.9302035664
 20
7.5719676448
 30
0.0
  0
VERTEX
  5
436
330
208
100
AcDbEntity
  8
0
  6
CONTINUOUS
 62
     7
100
AcDbVertex
100
AcDb2dVertex
 10
7.9333739743
 20
7.5644572321
 30
0.0
  0
VERTEX
  5
437
330
208
100
AcDbEntity
  8
0
  6
CONTINUOUS
 62
     7
100
AcDbVertex
100
AcDb2dVertex
 10
7.9347433483
 20
7.5567675545
 30
0.0
  0
VERTEX
  5
438
330
208
100
AcDbEntity
  8
0
  6
CONTINUOUS
 62
     7
100
AcDbVertex
100
AcDb2dVertex
 10
7.9342861798
 20
7.5490418561
 30
0.0
  0
VERTEX
  5
439
330
208
100
AcDbEntity
  8
0
  6
CONTINUOUS
 62
     7
100
AcDbVertex
100
AcDb2dVertex
 10
7.9320109848
 20
7.5414240521
 30
0.0
  0
VERTEX
  5
43A
330
208
100
AcDbEntity
  8
0
  6
CONTINUOUS
 62
     7
100
AcDbVertex
100
AcDb2dVertex
 10
7.927960146
 20
7.5340560477
 30
0.0
  0
VERTEX
  5
43B
330
208
100
AcDbEntity
  8
0
  6
CONTINUOUS
 62
     7
100
AcDbVertex
100
AcDb2dVertex
 10
7.9222091228
 20
7.5270750949
 30
0.0
  0
VERTEX
  5
43C
330
208
100
AcDbEntity
  8
0
  6
CONTINUOUS
 62
     7
100
AcDbVertex
100
AcDb2dVertex
 10
7.9148650459
 20
7.5206112358
 30
0.0
  0
VERTEX
  5
43D
330
208
100
AcDbEntity
  8
0
  6
CONTINUOUS
 62
     7
100
AcDbVertex
100
AcDb2dVertex
 10
7.9060647215
 20
7.5147848796
 30
0.0
  0
SEQEND
  5
43E
330
208
100
AcDbEntity
  8
0
  6
CONTINUOUS
 62
     7
  0
LINE
  5
209
330
1F
100
AcDbEntity
  8
0
  6
CONTINUOUS
 62
     7
100
AcDbLine
 10
7.7708228827
 20
7.5650224981
 30
0.0
 11
7.8190411847
 21
7.5928583313
 31
0.0
  0
LINE
  5
20A
330
1F
100
AcDbEntity
  8
0
  6
CONTINUOUS
 62
     7
100
AcDbLine
 10
7.7884720062
 20
7.5269980427
 30
0.0
 11
7.7708228827
 21
7.5650224981
 31
0.0
  0
LINE
  5
20B
330
1F
100
AcDbEntity
  8
0
  6
CONTINUOUS
 62
     7
100
AcDbLine
 10
7.8543394317
 20
7.5168094206
 30
0.0
 11
7.7884720062
 21
7.5269980427
 31
0.0
  0
LINE
  5
20C
330
1F
100
AcDbEntity
  8
0
  6
CONTINUOUS
 62
     7
100
AcDbLine
 10
7.9025577337
 20
7.5446452539
 30
0.0
 11
7.8543394317
 21
7.5168094206
 31
0.0
  0
LINE
  5
20D
330
1F
100
AcDbEntity
  8
0
  6
CONTINUOUS
 62
     7
100
AcDbLine
 10
7.8849086102
 20
7.5826697092
 30
0.0
 11
7.9025577337
 21
7.5446452539
 31
0.0
  0
LINE
  5
20E
330
1F
100
AcDbEntity
  8
0
  6
CONTINUOUS
 62
     7
100
AcDbLine
 10
7.8190411847
 20
7.5928583313
 30
0.0
 11
7.8849086102
 21
7.5826697092
 31
0.0
  0
LINE
  5
20F
330
1F
100
AcDbEntity
  8
0
  6
CONTINUOUS
 62
     7
100
AcDbLine
 10
7.8849086102
 20
7.5344566318
 30
0.0
 11
7.8849086102
 21
7.5826697092
 31
0.0
  0
LINE
  5
210
330
1F
100
AcDbEntity
  8
0
  6
CONTINUOUS
 62
     7
100
AcDbLine
 10
7.8190411847
 20
7.5222694867
 30
0.0
 11
7.8190411847
 21
7.5928583313
 31
0.0
  0
ENDSEC
  0
SECTION
  2
OBJECTS
  0
DICTIONARY
  5
C
330
0
100
AcDbDictionary
  3
ACAD_GROUP
350
D
  3
ACAD_LAYOUT
350
1A
  3
ACAD_MLEADERSTYLE
350
213
  3
ACAD_MLINESTYLE
350
17
  3
ACAD_PLOTSETTINGS
350
19
  3
ACAD_SCALELIST
350
6F
  3
ACAD_VISUALSTYLE
350
2A
  3
ACDBVARIABLEDICTIONARY
350
211
1001
ACAD
1000
TREAT_AS_HARD
1070
     0
  0
DICTIONARY
  5
D
102
{ACAD_REACTORS
330
C
102
}
330
C
100
AcDbDictionary
1001
ACAD
1000
TREAT_AS_HARD
1070
     0
  0
DICTIONARY
  5
1A
102
{ACAD_REACTORS
330
C
102
}
330
C
100
AcDbDictionary
1001
ACAD
1000
TREAT_AS_HARD
1070
     0
  0
DICTIONARY
  5
213
102
{ACAD_REACTORS
330
C
102
}
330
C
100
AcDbDictionary
1001
ACAD
1000
TREAT_AS_HARD
1070
     0
  0
DICTIONARY
  5
17
102
{ACAD_REACTORS
330
C
102
}
330
C
100
AcDbDictionary
  3
STANDARD
350
18
1001
ACAD
1000
TREAT_AS_HARD
1070
     0
  0
DICTIONARY
  5
19
102
{ACAD_REACTORS
330
C
102
}
330
C
100
AcDbDictionary
1001
ACAD
1000
TREAT_AS_HARD
1070
     0
  0
DICTIONARY
  5
6F
102
{ACAD_REACTORS
330
C
102
}
330
C
100
AcDbDictionary
  3
A0
350
70
  3
A1
350
71
  3
A2
350
72
  3
A3
350
73
  3
A4
350
74
  3
A5
350
75
  3
A6
350
76
  3
A7
350
77
  3
A8
350
78
  3
A9
350
79
  3
B0
350
7A
  3
B1
350
7B
  3
B2
350
7C
  3
B3
350
7D
  3
B4
350
7E
  3
B5
350
7F
  3
B6
350
80
  3
B7
350
81
  3
B8
350
82
  3
B9
350
83
  3
C0
350
84
  3
C1
350
85
  3
C2
350
86
  3
C3
350
87
  3
C4
350
88
  3
C5
350
89
  3
C6
350
8A
  3
C7
350
8B
  3
C8
350
8C
  3
C9
350
8D
  3
D0
350
8E
  3
D1
350
8F
  3
D2
350
90
1001
ACAD
1000
TREAT_AS_HARD
1070
     0
  0
DICTIONARY
  5
2A
102
{ACAD_REACTORS
330
C
102
}
330
C
100
AcDbDictionary
  3
2DWIREFRAME
350
2F
  3
3D_HIDDEN
350
31
  3
3DWIREFRAME
350
30
  3
BASIC
350
32
  3
BRIGHTEN
350
36
  3
COLORCHANGE
350
3A
  3
CONCEPTUAL
350
34
  3
DIM
350
35
  3
FACEPATTERN
350
39
  3
FLAT
350
2B
  3
FLATWITHEDGES
350
2C
  3
GOURAUD
350
2D
  3
GOURAUDWITHEDGES
350
2E
  3
LINEPATTERN
350
38
  3
REALISTIC
350
33
  3
THICKEN
350
37
1001
ACAD
1000
TREAT_AS_HARD
1070
     0
  0
DICTIONARY
  5
211
102
{ACAD_REACTORS
330
C
102
}
330
C
100
AcDbDictionary
  3
CANNOSCALE
350
214
  3
DIMASSOC
350
215
  3
HIDETEXT
350
216
1001
ACAD
1000
TREAT_AS_HARD
1070
     0
  0
MLINESTYLE
  5
18
102
{ACAD_REACTORS
330
17
102
}
330
17
100
AcDbMlineStyle
  2
Standard
 70
     0
  3

 62
   256
 51
90.0
 52
90.0
 71
     2
 49
0.5
 62
   256
  6
BYLAYER
 49
-0.5
 62
   256
  6
BYLAYER
  0
ACAD_PROXY_OBJECT
  5
70
102
{ACAD_REACTORS
330
6F
102
}
330
6F
100
AcDbZombieObject
 90
      499
 91
      502
 93
       41
310
903313A31580
  0
ACAD_PROXY_OBJECT
  5
71
102
{ACAD_REACTORS
330
6F
102
}
330
6F
100
AcDbZombieObject
 90
      499
 91
      502
 93
      105
310
903313A324000000000000004000
  0
ACAD_PROXY_OBJECT
  5
72
102
{ACAD_REACTORS
330
6F
102
}
330
6F
100
AcDbZombieObject
 90
      499
 91
      502
 93
      105
310
903313A344000000000000104000
  0
ACAD_PROXY_OBJECT
  5
73
102
{ACAD_REACTORS
330
6F
102
}
330
6F
100
AcDbZombieObject
 90
      499
 91
      502
 93
      105
310
903313A354000000000000144000
  0
ACAD_PROXY_OBJECT
  5
74
102
{ACAD_REACTORS
330
6F
102
}
330
6F
100
AcDbZombieObject
 90
      499
 91
      502
 93
      105
310
903313A384000000000000204000
  0
ACAD_PROXY_OBJECT
  5
75
102
{ACAD_REACTORS
330
6F
102
}
330
6F
100
AcDbZombieObject
 90
      499
 91
      502
 93
      113
310
904313A31304000000000000244000
  0
ACAD_PROXY_OBJECT
  5
76
102
{ACAD_REACTORS
330
6F
102
}
330
6F
100
AcDbZombieObject
 90
      499
 91
      502
 93
      113
310
904313A31364000000000000304000
  0
ACAD_PROXY_OBJECT
  5
77
102
{ACAD_REACTORS
330
6F
102
}
330
6F
100
AcDbZombieObject
 90
      499
 91
      502
 93
      113
310
904313A32304000000000000344000
  0
ACAD_PROXY_OBJECT
  5
78
102
{ACAD_REACTORS
330
6F
102
}
330
6F
100
AcDbZombieObject
 90
      499
 91
      502
 93
      113
310
904313A333040000000000003E4000
  0
ACAD_PROXY_OBJECT
  5
79
102
{ACAD_REACTORS
330
6F
102
}
330
6F
100
AcDbZombieObject
 90
      499
 91
      502
 93
      113
310
904313A34304000000000000444000
  0
ACAD_PROXY_OBJECT
  5
7A
102
{ACAD_REACTORS
330
6F
102
}
330
6F
100
AcDbZombieObject
 90
      499
 91
      502
 93
      113
310
904313A35304000000000000494000
  0
ACAD_PROXY_OBJECT
  5
7B
102
{ACAD_REACTORS
330
6F
102
}
330
6F
100
AcDbZombieObject
 90
      499
 91
      502
 93
      121
310
905313A3130304000000000000594000
  0
ACAD_PROXY_OBJECT
  5
7C
102
{ACAD_REACTORS
330
6F
102
}
330
6F
100
AcDbZombieObject
 90
      499
 91
      502
 93
      105
310
903323A310000000000000010100
  0
ACAD_PROXY_OBJECT
  5
7D
102
{ACAD_REACTORS
330
6F
102
}
330
6F
100
AcDbZombieObject
 90
      499
 91
      502
 93
      105
310
903343A310000000000000410100
  0
ACAD_PROXY_OBJECT
  5
7E
102
{ACAD_REACTORS
330
6F
102
}
330
6F
100
AcDbZombieObject
 90
      499
 91
      502
 93
      105
310
903383A310000000000000810100
  0
ACAD_PROXY_OBJECT
  5
7F
102
{ACAD_REACTORS
330
6F
102
}
330
6F
100
AcDbZombieObject
 90
      499
 91
      502
 93
      113
310
90431303A310000000000000910100
  0
ACAD_PROXY_OBJECT
  5
80
102
{ACAD_REACTORS
330
6F
102
}
330
6F
100
AcDbZombieObject
 90
      499
 91
      502
 93
      121
310
9053130303A310000000000001650100
  0
ACAD_PROXY_OBJECT
  5
81
102
{ACAD_REACTORS
330
6F
102
}
330
6F
100
AcDbZombieObject
 90
      499
 91
      502
 93
      257
310
90E312F31323822203D2031272D3022000000000000200FC000000000000284000
  0
ACAD_PROXY_OBJECT
  5
82
102
{ACAD_REACTORS
330
6F
102
}
330
6F
100
AcDbZombieObject
 90
      499
 91
      502
 93
      249
310
90D312F363422203D2031272D3022000000000000240FC000000000000284000
  0
ACAD_PROXY_OBJECT
  5
83
102
{ACAD_REACTORS
330
6F
102
}
330
6F
100
AcDbZombieObject
 90
      499
 91
      502
 93
      249
310
90D312F333222203D2031272D3022000000000000280FC000000000000284000
  0
ACAD_PROXY_OBJECT
  5
84
102
{ACAD_REACTORS
330
6F
102
}
330
6F
100
AcDbZombieObject
 90
      499
 91
      502
 93
      249
310
90D312F313622203D2031272D30220000000000002C0FC000000000000284000
  0
ACAD_PROXY_OBJECT
  5
85
102
{ACAD_REACTORS
330
6F
102
}
330
6F
100
AcDbZombieObject
 90
      499
 91
      502
 93
      249
310
90D332F333222203D2031272D30220000000000002E0FC000000000000284000
  0
ACAD_PROXY_OBJECT
  5
86
102
{ACAD_REACTORS
330
6F
102
}
330
6F
100
AcDbZombieObject
 90
      499
 91
      502
 93
      241
310
90C312F3822203D2031272D3022000000000000300FC000000000000284000
  0
ACAD_PROXY_OBJECT
  5
87
102
{ACAD_REACTORS
330
6F
102
}
330
6F
100
AcDbZombieObject
 90
      499
 91
      502
 93
      249
310
90D332F313622203D2031272D3022000000000000320FC000000000000284000
  0
ACAD_PROXY_OBJECT
  5
88
102
{ACAD_REACTORS
330
6F
102
}
330
6F
100
AcDbZombieObject
 90
      499
 91
      502
 93
      241
310
90C312F3422203D2031272D3022000000000000340FC000000000000284000
  0
ACAD_PROXY_OBJECT
  5
89
102
{ACAD_REACTORS
330
6F
102
}
330
6F
100
AcDbZombieObject
 90
      499
 91
      502
 93
      241
310
90C332F3822203D2031272D3022000000000000360FC000000000000284000
  0
ACAD_PROXY_OBJECT
  5
8A
102
{ACAD_REACTORS
330
6F
102
}
330
6F
100
AcDbZombieObject
 90
      499
 91
      502
 93
      241
310
90C312F3222203D2031272D3022000000000000380FC000000000000284000
  0
ACAD_PROXY_OBJECT
  5
8B
102
{ACAD_REACTORS
330
6F
102
}
330
6F
100
AcDbZombieObject
 90
      499
 91
      502
 93
      241
310
90C332F3422203D2031272D30220000000000003A0FC000000000000284000
  0
ACAD_PROXY_OBJECT
  5
8C
102
{ACAD_REACTORS
330
6F
102
}
330
6F
100
AcDbZombieObject
 90
      499
 91
      502
 93
      161
310
90A3122203D2031272D30224000000000000284000
  0
ACAD_PROXY_OBJECT
  5
8D
102
{ACAD_REACTORS
330
6F
102
}
330
6F
100
AcDbZombieObject
 90
      499
 91
      502
 93
      257
310
90E312D312F3222203D2031272D30220000000000003E0FC000000000000284000
  0
ACAD_PROXY_OBJECT
  5
8E
102
{ACAD_REACTORS
330
6F
102
}
330
6F
100
AcDbZombieObject
 90
      499
 91
      502
 93
      225
310
90A3322203D2031272D302200000000000002100000000000000284000
  0
ACAD_PROXY_OBJECT
  5
8F
102
{ACAD_REACTORS
330
6F
102
}
330
6F
100
AcDbZombieObject
 90
      499
 91
      502
 93
      225
310
90A3622203D2031272D302200000000000006100000000000000284000
  0
ACAD_PROXY_OBJECT
  5
90
102
{ACAD_REACTORS
330
6F
102
}
330
6F
100
AcDbZombieObject
 90
      499
 91
      502
 93
      249
310
90D31272D3022203D2031272D30220000000000000A100000000000000284000
  0
ACAD_PROXY_OBJECT
  5
2F
102
{ACAD_REACTORS
330
2A
102
}
330
2A
100
AcDbZombieObject
 90
      499
 91
      501
 93
      436
310
42CC9915DA5C99599C985B595049028333333333333E3BF0000000000000FB0107901411070040501600405405064090741402480A0340
1001
ACAD
1000
AcDbSavedByObjectVersion
1070
     0
  0
ACAD_PROXY_OBJECT
  5
31
102
{ACAD_REACTORS
330
2A
102
}
330
2A
100
AcDbZombieObject
 90
      499
 91
      501
 93
      500
310
424CD108121A5919195B90640502408333333333333E3BF0000000000000FB01079024090700405020000000000001110200405405064090740C02480A0340
1001
ACAD
1000
AcDbSavedByObjectVersion
1070
     0
  0
ACAD_PROXY_OBJECT
  5
30
102
{ACAD_REACTORS
330
2A
102
}
330
2A
100
AcDbZombieObject
 90
      499
 91
      501
 93
      436
310
42CCD915DA5C99599C985B595059028333333333333E3BF0000000000000FB0107901411070040501600405405064090741402480A0340
1001
ACAD
1000
AcDbSavedByObjectVersion
1070
     0
  0
ACAD_PROXY_OBJECT
  5
32
102
{ACAD_REACTORS
330
2A
102
}
330
2A
100
AcDbZombieObject
 90
      499
 91
      501
 93
      388
310
4150985CDA58D07406404333333333333E3BF0000000000000FB0107A41107004050150841D405064090741402480A0350
1001
ACAD
1000
AcDbSavedByObjectVersion
1070
     0
  0
ACAD_PROXY_OBJECT
  5
36
102
{ACAD_REACTORS
330
2A
102
}
330
2A
100
AcDbZombieObject
 90
      499
 91
      501
 93
      428
310
42109C9A59DA1D195B90C409028333333333333E3BF0000000000000FB010790141107004050150841D405064090741402480A029950
1001
ACAD
1000
AcDbSavedByObjectVersion
1070
     0
  0
ACAD_PROXY_OBJECT
  5
3A
102
{ACAD_REACTORS
330
2A
102
}
330
2A
100
AcDbZombieObject
 90
      499
 91
      501
 93
      452
310
42D0DBDB1BDC90DA185B99D95104090240C333333333333E3BF0000000000000FB0108901411070040501508421405064090741402480A0350
1001
ACAD
1000
AcDbSavedByObjectVersion
1070
     0
  0
ACAD_PROXY_OBJECT
  5
34
102
{ACAD_REACTORS
330
2A
102
}
330
2A
100
AcDbZombieObject
 90
      499
 91
      501
 93
      500
310
4290DBDB98D95C1D1D585B10940D028333333333333E3BF0000000000000FB0107902409070040501000000000000111010841D405064090740C02480A0340
1001
ACAD
1000
AcDbSavedByObjectVersion
1070
     0
  0
ACAD_PROXY_OBJECT
  5
35
102
{ACAD_REACTORS
330
2A
102
}
330
2A
100
AcDbZombieObject
 90
      499
 91
      501
 93
      412
310
40D11A5B50B409028333333333333E3BF0000000000000FB010790141107004050150841D405064090741402480A02677FFFFFD0
1001
ACAD
1000
AcDbSavedByObjectVersion
1070
     0
  0
ACAD_PROXY_OBJECT
  5
39
102
{ACAD_REACTORS
330
2A
102
}
330
2A
100
AcDbZombieObject
 90
      499
 91
      501
 93
      444
310
42D19858D95C185D1D195C9B90F409028333333333333E3BF0000000000000FB010790141107004050150841D405064090741402480A0350
1001
ACAD
1000
AcDbSavedByObjectVersion
1070
     0
  0
ACAD_PROXY_OBJECT
  5
2B
102
{ACAD_REACTORS
330
2A
102
}
330
2A
100
AcDbZombieObject
 90
      499
 91
      501
 93
      388
310
41119B185D240901404333333333333E3BF0000000000000F9010740A41107004050150841D405064090741402480A1B50
1001
ACAD
1000
AcDbSavedByObjectVersion
1070
     0
  0
ACAD_PROXY_OBJECT
  5
2C
102
{ACAD_REACTORS
330
2A
102
}
330
2A
100
AcDbZombieObject
 90
      499
 91
      501
 93
      476
310
43519B185D15DA5D1A115919D95CD0140901404333333333333E3BF0000000000000F9010740901411070040501600405405064090741402480A1B50
1001
ACAD
1000
AcDbSavedByObjectVersion
1070
     0
  0
ACAD_PROXY_OBJECT
  5
2D
102
{ACAD_REACTORS
330
2A
102
}
330
2A
100
AcDbZombieObject
 90
      499
 91
      501
 93
      412
310
41D1DBDD5C985D5910240902404333333333333E3BF0000000000000F9010740A411070040501641D405064090741402480A1B50
1001
ACAD
1000
AcDbSavedByObjectVersion
1070
     0
  0
ACAD_PROXY_OBJECT
  5
2E
102
{ACAD_REACTORS
330
2A
102
}
330
2A
100
AcDbZombieObject
 90
      499
 91
      501
 93
      500
310
4411DBDD5C985D5915DA5D1A115919D95CD0340902404333333333333E3BF0000000000000F9010740901411070040501600405405064090741402480A1B50
1001
ACAD
1000
AcDbSavedByObjectVersion
1070
     0
  0
ACAD_PROXY_OBJECT
  5
38
102
{ACAD_REACTORS
330
2A
102
}
330
2A
100
AcDbZombieObject
 90
      499
 91
      501
 93
      444
310
42D31A5B995C185D1D195C9B90E409028333333333333E3BF0000000000000FB010790141107004050750841D405064090741402483A0350
1001
ACAD
1000
AcDbSavedByObjectVersion
1070
     0
  0
ACAD_PROXY_OBJECT
  5
33
102
{ACAD_REACTORS
330
2A
102
}
330
2A
100
AcDbZombieObject
 90
      499
 91
      501
 93
      420
310
425499585B1A5CDD1A58D08409028333333333333E3BF0000000000000FB01079019070040501508421405064090741402480A1B40
1001
ACAD
1000
AcDbSavedByObjectVersion
1070
     0
  0
ACAD_PROXY_OBJECT
  5
37
102
{ACAD_REACTORS
330
2A
102
}
330
2A
100
AcDbZombieObject
 90
      499
 91
      501
 93
      412
310
41D51A1A58DAD95B90D409028333333333333E3BF0000000000000FB010790141107004050150C41D405064090741402480A0350
1001
ACAD
1000
AcDbSavedByObjectVersion
1070
     0
  0
DICTIONARYVAR
  5
214
102
{ACAD_REACTORS
330
211
102
}
330
211
100
DictionaryVariables
280
     0
  1
1:1
  0
DICTIONARYVAR
  5
215
102
{ACAD_REACTORS
330
211
102
}
330
211
100
DictionaryVariables
280
     0
  1
2
  0
DICTIONARYVAR
  5
216
102
{ACAD_REACTORS
330
211
102
}
330
211
100
DictionaryVariables
280
     0
  1
1
  0
ENDSEC
  0
EOF
