  0
SECTION
  2
HEADER
  9
$ACADVER
  1
AC1012
  9
$DWGCODEPAGE
  3
ansi_1252
  9
$INSBASE
 10
0.0
 20
0.0
 30
0.0
  9
$EXTMIN
 10
0.0
 20
0.0
 30
0.0
  9
$EXTMAX
 10
11.0
 20
8.5
 30
0.0
  9
$LIMMIN
 10
0.0
 20
0.0
  9
$LIMMAX
 10
11.0
 20
8.5
  9
$ORTHOMODE
 70
     0
  9
$REGENMODE
 70
     1
  9
$FILLMODE
 70
     1
  9
$QTEXTMODE
 70
     0
  9
$MIRRTEXT
 70
     1
  9
$DRAGMODE
 70
     2
  9
$LTSCALE
 40
1.0
  9
$OSMODE
 70
    37
  9
$ATTMODE
 70
     1
  9
$TEXTSIZE
 40
0.125
  9
$TRACEWID
 40
0.05
  9
$TEXTSTYLE
  7
STANDARD
  9
$CLAYER
  8
0
  9
$CELTYPE
  6
BYLAYER
  9
$CECOLOR
 62
   256
  9
$CELTSCALE
 40
1.0
  9
$DELOBJ
 70
     1
  9
$DISPSILH
 70
     0
  9
$DIMSCALE
 40
1.0
  9
$DIMASZ
 40
0.13
  9
$DIMEXO
 40
0.05
  9
$DIMDLI
 40
0.38
  9
$DIMRND
 40
0.0
  9
$DIMDLE
 40
0.0
  9
$DIMEXE
 40
0.125
  9
$DIMTP
 40
0.0
  9
$DIMTM
 40
0.0
  9
$DIMTXT
 40
0.125
  9
$DIMCEN
 40
0.09
  9
$DIMTSZ
 40
0.0
  9
$DIMTOL
 70
     0
  9
$DIMLIM
 70
     0
  9
$DIMTIH
 70
     1
  9
$DIMTOH
 70
     1
  9
$DIMSE1
 70
     0
  9
$DIMSE2
 70
     0
  9
$DIMTAD
 70
     0
  9
$DIMZIN
 70
     0
  9
$DIMBLK
  1

  9
$DIMASO
 70
     1
  9
$DIMSHO
 70
     1
  9
$DIMPOST
  1

  9
$DIMAPOST
  1

  9
$DIMALT
 70
     0
  9
$DIMALTD
 70
     2
  9
$DIMALTF
 40
25.4
  9
$DIMLFAC
 40
1.0
  9
$DIMTOFL
 70
     0
  9
$DIMTVP
 40
0.0
  9
$DIMTIX
 70
     0
  9
$DIMSOXD
 70
     0
  9
$DIMSAH
 70
     0
  9
$DIMBLK1
  1

  9
$DIMBLK2
  1

  9
$DIMSTYLE
  2
STANDARD
  9
$DIMCLRD
 70
     0
  9
$DIMCLRE
 70
     0
  9
$DIMCLRT
 70
     0
  9
$DIMTFAC
 40
1.0
  9
$DIMGAP
 40
0.06
  9
$DIMJUST
 70
     0
  9
$DIMSD1
 70
     0
  9
$DIMSD2
 70
     0
  9
$DIMTOLJ
 70
     1
  9
$DIMTZIN
 70
     0
  9
$DIMALTZ
 70
     0
  9
$DIMALTTZ
 70
     0
  9
$DIMFIT
 70
     3
  9
$DIMUPT
 70
     0
  9
$DIMUNIT
 70
     2
  9
$DIMDEC
 70
     3
  9
$DIMTDEC
 70
     3
  9
$DIMALTU
 70
     2
  9
$DIMALTTD
 70
     2
  9
$DIMTXSTY
  7
STANDARD
  9
$DIMAUNIT
 70
     0
  9
$LUNITS
 70
     2
  9
$LUPREC
 70
     2
  9
$SKETCHINC
 40
0.1
  9
$FILLETRAD
 40
0.5
  9
$AUNITS
 70
     0
  9
$AUPREC
 70
     2
  9
$MENU
  1
.
  9
$ELEVATION
 40
0.0
  9
$PELEVATION
 40
0.0
  9
$THICKNESS
 40
0.0
  9
$LIMCHECK
 70
     0
  9
$CHAMFERA
 40
0.5
  9
$CHAMFERB
 40
0.5
  9
$CHAMFERC
 40
1.0
  9
$CHAMFERD
 40
0.0
  9
$SKPOLY
 70
     0
  9
$TDCREATE
 40
2455783.998918808
  9
$TDUPDATE
 40
2455783.998918819
  9
$TDINDWG
 40
0.0000000116
  9
$TDUSRTIMER
 40
0.0000000116
  9
$USRTIMER
 70
     1
  9
$ANGBASE
 50
0.0
  9
$ANGDIR
 70
     0
  9
$PDMODE
 70
     0
  9
$PDSIZE
 40
-1.0
  9
$PLINEWID
 40
0.0
  9
$COORDS
 70
     1
  9
$SPLFRAME
 70
     0
  9
$SPLINETYPE
 70
     6
  9
$SPLINESEGS
 70
     8
  9
$ATTDIA
 70
     0
  9
$ATTREQ
 70
     1
  9
$HANDLING
 70
     1
  9
$HANDSEED
  5
6AF
  9
$SURFTAB1
 70
     6
  9
$SURFTAB2
 70
     6
  9
$SURFTYPE
 70
     6
  9
$SURFU
 70
     6
  9
$SURFV
 70
     6
  9
$UCSNAME
  2

  9
$UCSORG
 10
0.0
 20
0.0
 30
0.0
  9
$UCSXDIR
 10
1.0
 20
0.0
 30
0.0
  9
$UCSYDIR
 10
0.0
 20
1.0
 30
0.0
  9
$PUCSNAME
  2

  9
$PUCSORG
 10
0.0
 20
0.0
 30
0.0
  9
$PUCSXDIR
 10
1.0
 20
0.0
 30
0.0
  9
$PUCSYDIR
 10
0.0
 20
1.0
 30
0.0
  9
$USERI1
 70
     0
  9
$USERI2
 70
     0
  9
$USERI3
 70
     0
  9
$USERI4
 70
     0
  9
$USERI5
 70
     0
  9
$USERR1
 40
0.0
  9
$USERR2
 40
0.0
  9
$USERR3
 40
0.0
  9
$USERR4
 40
0.0
  9
$USERR5
 40
0.0
  9
$WORLDVIEW
 70
     1
  9
$SHADEDGE
 70
     3
  9
$SHADEDIF
 70
    70
  9
$TILEMODE
 70
     1
  9
$MAXACTVP
 70
    64
  9
$PINSBASE
 10
0.0
 20
0.0
 30
0.0
  9
$PLIMCHECK
 70
     0
  9
$PEXTMIN
 10
1.0000000000E+20
 20
1.0000000000E+20
 30
1.0000000000E+20
  9
$PEXTMAX
 10
-1.0000000000E+20
 20
-1.0000000000E+20
 30
-1.0000000000E+20
  9
$PLIMMIN
 10
0.0
 20
0.0
  9
$PLIMMAX
 10
12.0
 20
9.0
  9
$UNITMODE
 70
     0
  9
$VISRETAIN
 70
     1
  9
$PLINEGEN
 70
     0
  9
$PSLTSCALE
 70
     1
  9
$TREEDEPTH
 70
  3020
  9
$PICKSTYLE
 70
     1
  9
$CMLSTYLE
  2
STANDARD
  9
$CMLJUST
 70
     0
  9
$CMLSCALE
 40
1.0
  9
$SAVEIMAGES
 70
     1
  0
ENDSEC
  0
SECTION
  2
CLASSES
  0
CLASS
  1
ACDBDICTIONARYWDFLT
  2
AcDbDictionaryWithDefault
  3
ObjectDBX Classes
 90
    32768
280
     0
281
     0
  0
CLASS
  1
VISUALSTYLE
  2
AcDbVisualStyle
  3
ObjectDBX Classes
 90
     4095
280
     0
281
     0
  0
CLASS
  1
SCALE
  2
AcDbScale
  3
ObjectDBX Classes
 90
     1153
280
     0
281
     0
  0
CLASS
  1
DICTIONARYVAR
  2
AcDbDictionaryVar
  3
ObjectDBX Classes
 90
        0
280
     0
281
     0
  0
CLASS
  1
XRECORD
  2
AcDbXrecord
  3
AutoCAD 2000
 90
    32768
280
     0
281
     0
  0
CLASS
  1
LWPOLYLINE
  2
AcDbPolyline
  3
AutoCAD 2000
 90
    32768
280
     0
281
     1
  0
CLASS
  1
HATCH
  2
AcDbHatch
  3
AutoCAD 2000
 90
    32768
280
     0
281
     1
  0
CLASS
  1
ACDBPLACEHOLDER
  2
AcDbPlaceHolder
  3
ObjectDBX Classes
 90
        0
280
     0
281
     0
  0
CLASS
  1
LAYOUT
  2
AcDbLayout
  3
ObjectDBX Classes
 90
        0
280
     0
281
     0
  0
ENDSEC
  0
SECTION
  2
TABLES
  0
TABLE
  2
VPORT
  5
8
330
0
100
AcDbSymbolTable
 70
     1
  0
VPORT
  5
29
330
8
100
AcDbSymbolTableRecord
100
AcDbViewportTableRecord
  2
*ACTIVE
 70
     0
 10
0.0
 20
0.0
 11
1.0
 21
1.0
 12
5.5
 22
4.25
 13
0.0
 23
0.0
 14
0.5
 24
0.5
 15
0.5
 25
0.5
 16
0.0
 26
0.0
 36
1.0
 17
0.0
 27
0.0
 37
0.0
 40
8.5
 41
1.2941176471
 42
50.0
 43
0.0
 44
0.0
 50
0.0
 51
0.0
 71
     0
 72
  2000
 73
     1
 74
     3
 75
     0
 76
     0
 77
     0
 78
     0
  0
ENDTAB
  0
TABLE
  2
LTYPE
  5
5
330
0
100
AcDbSymbolTable
 70
     6
  0
LTYPE
  5
14
330
5
100
AcDbSymbolTableRecord
100
AcDbLinetypeTableRecord
  2
BYBLOCK
 70
     0
  3

 72
    65
 73
     0
 40
0.0
  0
LTYPE
  5
15
330
5
100
AcDbSymbolTableRecord
100
AcDbLinetypeTableRecord
  2
BYLAYER
 70
     0
  3

 72
    65
 73
     0
 40
0.0
  0
LTYPE
  5
16
330
5
100
AcDbSymbolTableRecord
100
AcDbLinetypeTableRecord
  2
CONTINUOUS
 70
     0
  3
Solid line
 72
    65
 73
     0
 40
0.0
  0
LTYPE
  5
3B
330
5
100
AcDbSymbolTableRecord
100
AcDbLinetypeTableRecord
  2
HIDDEN
 70
     0
  3
Hidden __ __ __ __ __ __ __ __ __ __ __ __ __ __
 72
    65
 73
     2
 40
0.075
 49
0.05
 74
     0
 49
-0.025
 74
     0
  0
LTYPE
  5
3C
330
5
100
AcDbSymbolTableRecord
100
AcDbLinetypeTableRecord
  2
PHANTOM
 70
     0
  3
Phantom ______  __  __  ______  __  __  ______
 72
    65
 73
     6
 40
0.5
 49
0.25
 74
     0
 49
-0.05
 74
     0
 49
0.05
 74
     0
 49
-0.05
 74
     0
 49
0.05
 74
     0
 49
-0.05
 74
     0
  0
LTYPE
  5
3D
330
5
100
AcDbSymbolTableRecord
100
AcDbLinetypeTableRecord
  2
CENTER
 70
     0
  3
Center ____ _ ____ _ ____ _ ____ _ ____ _ ____
 72
    65
 73
     4
 40
0.4
 49
0.25
 74
     0
 49
-0.05
 74
     0
 49
0.05
 74
     0
 49
-0.05
 74
     0
  0
LTYPE
  5
3E
330
5
100
AcDbSymbolTableRecord
100
AcDbLinetypeTableRecord
  2
CENTERX2
 70
     0
  3
Center (2x) ________  __  ________  __  _____
 72
    65
 73
     4
 40
0.8
 49
0.5
 74
     0
 49
-0.1
 74
     0
 49
0.1
 74
     0
 49
-0.1
 74
     0
  0
LTYPE
  5
3F
330
5
100
AcDbSymbolTableRecord
100
AcDbLinetypeTableRecord
  2
DOT2
 70
     0
  3
Dot (.5x) ........................................
 72
    65
 73
     2
 40
0.025
 49
0.0
 74
     0
 49
-0.025
 74
     0
  0
ENDTAB
  0
TABLE
  2
LAYER
  5
2
330
0
100
AcDbSymbolTable
 70
     2
  0
LAYER
  5
10
330
2
100
AcDbSymbolTableRecord
100
AcDbLayerTableRecord
  2
0
 70
     0
 62
     7
  6
CONTINUOUS
  0
LAYER
  5
40
330
2
100
AcDbSymbolTableRecord
100
AcDbLayerTableRecord
  2
FORMAT
 70
     0
 62
     7
  6
CONTINUOUS
  0
ENDTAB
  0
TABLE
  2
STYLE
  5
3
330
0
100
AcDbSymbolTable
 70
     4
  0
STYLE
  5
11
330
3
100
AcDbSymbolTableRecord
100
AcDbTextStyleTableRecord
  2
STANDARD
 70
     0
 40
0.0
 41
1.0
 50
0.0
 71
     0
 42
0.2
  3
txt
  4

  0
STYLE
  5
6E
330
3
100
AcDbSymbolTableRecord
100
AcDbTextStyleTableRecord
  2
SLDTEXTSTYLE0
 70
     0
 40
0.0
 41
0.75
 50
0.0
 71
     0
 42
0.2
  3
TXT
  4

  0
STYLE
  5
93
330
3
100
AcDbSymbolTableRecord
100
AcDbTextStyleTableRecord
  2
SLDTEXTSTYLE1
 70
     0
 40
0.0
 41
0.6875
 50
0.0
 71
     0
 42
0.2
  3
TXT
  4

  0
STYLE
  5
99
330
3
100
AcDbSymbolTableRecord
100
AcDbTextStyleTableRecord
  2
SLDTEXTSTYLE2
 70
     0
 40
0.0
 41
0.6944444444
 50
0.0
 71
     0
 42
0.2
  3
TXT
  4

  0
ENDTAB
  0
TABLE
  2
VIEW
  5
6
330
0
100
AcDbSymbolTable
 70
     0
  0
ENDTAB
  0
TABLE
  2
UCS
  5
7
330
0
100
AcDbSymbolTable
 70
     0
  0
ENDTAB
  0
TABLE
  2
APPID
  5
9
330
0
100
AcDbSymbolTable
 70
     1
  0
APPID
  5
12
330
9
100
AcDbSymbolTableRecord
100
AcDbRegAppTableRecord
  2
ACAD
 70
     0
  0
ENDTAB
  0
TABLE
  2
DIMSTYLE
  5
A
330
0
100
AcDbSymbolTable
 70
     1
  0
DIMSTYLE
105
27
330
A
100
AcDbSymbolTableRecord
100
AcDbDimStyleTableRecord
  2
STANDARD
 70
     0
  3

  4

  5

  6

  7

 40
1.0
 41
0.18
 42
0.0625
 43
0.38
 44
0.18
 45
0.0
 46
0.0
 47
0.0
 48
0.0
140
0.18
141
0.09
142
0.0
143
25.4
144
1.0
145
0.0
146
1.0
147
0.09
 71
     0
 72
     0
 73
     1
 74
     1
 75
     0
 76
     0
 77
     0
 78
     0
170
     0
171
     2
172
     0
173
     0
174
     0
175
     0
176
     0
177
     0
178
     0
270
     2
271
     4
272
     4
273
     2
274
     2
340
11
275
     0
280
     0
281
     0
282
     0
283
     1
284
     0
285
     0
286
     0
287
     3
288
     0
  0
ENDTAB
  0
TABLE
  2
BLOCK_RECORD
  5
1
330
0
100
AcDbSymbolTable
 70
     4
  0
BLOCK_RECORD
  5
1F
330
1
100
AcDbSymbolTableRecord
100
AcDbBlockTableRecord
  2
*MODEL_SPACE
  0
BLOCK_RECORD
  5
1B
330
1
100
AcDbSymbolTableRecord
100
AcDbBlockTableRecord
  2
*PAPER_SPACE
  0
BLOCK_RECORD
  5
A8
330
1
100
AcDbSymbolTableRecord
100
AcDbBlockTableRecord
  2
SW_NOTE_0
  0
BLOCK_RECORD
  5
AE
330
1
100
AcDbSymbolTableRecord
100
AcDbBlockTableRecord
  2
SW_NOTE_1
  0
BLOCK_RECORD
  5
C2
330
1
100
AcDbSymbolTableRecord
100
AcDbBlockTableRecord
  2
SW_NOTE_2
  0
ENDTAB
  0
ENDSEC
  0
SECTION
  2
BLOCKS
  0
BLOCK
  5
20
330
1F
100
AcDbEntity
  8
0
100
AcDbBlockBegin
  2
*MODEL_SPACE
 70
     0
 10
0.0
 20
0.0
 30
0.0
  3
*MODEL_SPACE
  1

  0
ENDBLK
  5
21
330
1F
100
AcDbEntity
  8
0
100
AcDbBlockEnd
  0
BLOCK
  5
1C
330
1B
100
AcDbEntity
 67
     1
  8
0
100
AcDbBlockBegin
  2
*PAPER_SPACE
 70
     0
 10
0.0
 20
0.0
 30
0.0
  3
*PAPER_SPACE
  1

  0
ENDBLK
  5
1D
330
1B
100
AcDbEntity
 67
     1
  8
0
100
AcDbBlockEnd
  0
BLOCK
  5
A9
330
A8
100
AcDbEntity
  8
0
100
AcDbBlockBegin
  2
SW_NOTE_0
 70
     0
 10
0.0
 20
0.0
 30
0.0
  3
SW_NOTE_0
  1

  0
MTEXT
  5
AB
330
A8
100
AcDbEntity
  8
0
  6
CONTINUOUS
 62
     0
100
AcDbMText
 10
0.0
 20
0.0773440644
 30
0.0
 40
0.06
 41
0.0
 71
     1
 72
     1
  1
INTERPRET GEOMETRIC
  7
SLDTEXTSTYLE0
  0
MTEXT
  5
AC
330
A8
100
AcDbEntity
  8
0
  6
CONTINUOUS
 62
     0
100
AcDbMText
 10
0.0
 20
-0.0220260102
 30
0.0
 40
0.06
 41
0.0
 71
     1
 72
     1
  1
TOLERANCING PER:
  7
SLDTEXTSTYLE0
  0
ENDBLK
  5
AA
330
A8
100
AcDbEntity
  8
0
100
AcDbBlockEnd
  0
BLOCK
  5
AF
330
AE
100
AcDbEntity
  8
0
100
AcDbBlockBegin
  2
SW_NOTE_1
 70
     0
 10
0.0
 20
0.0
 30
0.0
  3
SW_NOTE_1
  1

  0
MTEXT
  5
B1
330
AE
100
AcDbEntity
  8
0
  6
CONTINUOUS
 62
     0
100
AcDbMText
 10
0.0
 20
0.0837894031
 30
0.0
 40
0.065
 41
0.0
 71
     1
 72
     1
  1
DIMENSIONS ARE IN INCHES
  7
SLDTEXTSTYLE0
  0
MTEXT
  5
B2
330
AE
100
AcDbEntity
  8
0
  6
CONTINUOUS
 62
     0
100
AcDbMText
 10
0.0
 20
-0.0205806729
 30
0.0
 40
0.065
 41
0.0
 71
     1
 72
     1
  1
TOLERANCES:
  7
SLDTEXTSTYLE0
  0
MTEXT
  5
B3
330
AE
100
AcDbEntity
  8
0
  6
CONTINUOUS
 62
     0
100
AcDbMText
 10
0.0
 20
-0.1249507489
 30
0.0
 40
0.065
 41
0.0
 71
     1
 72
     1
  1
FRACTIONAL
  7
SLDTEXTSTYLE0
  0
MTEXT
  5
B4
330
AE
100
AcDbEntity
  8
0
  6
CONTINUOUS
 62
     0
100
AcDbMText
 10
0.5175850875
 20
-0.1249507489
 30
0.0
 40
0.065
 41
0.0
 71
     1
 72
     1
  1
%%p
  7
SLDTEXTSTYLE0
  0
MTEXT
  5
B5
330
AE
100
AcDbEntity
  8
0
  6
CONTINUOUS
 62
     0
100
AcDbMText
 10
0.0
 20
-0.2293208248
 30
0.0
 40
0.065
 41
0.0
 71
     1
 72
     1
  1
ANGULAR: MACH
  7
SLDTEXTSTYLE0
  0
MTEXT
  5
B6
330
AE
100
AcDbEntity
  8
0
  6
CONTINUOUS
 62
     0
100
AcDbMText
 10
0.7233732769
 20
-0.2293208248
 30
0.0
 40
0.065
 41
0.0
 71
     1
 72
     1
  1
%%p
  7
SLDTEXTSTYLE0
  0
MTEXT
  5
B7
330
AE
100
AcDbEntity
  8
0
  6
CONTINUOUS
 62
     0
100
AcDbMText
 10
0.7852857683
 20
-0.2293208248
 30
0.0
 40
0.065
 41
0.0
 71
     1
 72
     1
  1
     BEND 
  7
SLDTEXTSTYLE0
  0
MTEXT
  5
B8
330
AE
100
AcDbEntity
  8
0
  6
CONTINUOUS
 62
     0
100
AcDbMText
 10
1.14784136
 20
-0.2293208248
 30
0.0
 40
0.065
 41
0.0
 71
     1
 72
     1
  1
%%p
  7
SLDTEXTSTYLE0
  0
MTEXT
  5
B9
330
AE
100
AcDbEntity
  8
0
  6
CONTINUOUS
 62
     0
100
AcDbMText
 10
0.0
 20
-0.3336909008
 30
0.0
 40
0.065
 41
0.0
 71
     1
 72
     1
  1
TWO PLACE DECIMAL    
  7
SLDTEXTSTYLE0
  0
MTEXT
  5
BA
330
AE
100
AcDbEntity
  8
0
  6
CONTINUOUS
 62
     0
100
AcDbMText
 10
0.9794349188
 20
-0.3336909008
 30
0.0
 40
0.065
 41
0.0
 71
     1
 72
     1
  1
%%p
  7
SLDTEXTSTYLE0
  0
MTEXT
  5
BB
330
AE
100
AcDbEntity
  8
0
  6
CONTINUOUS
 62
     0
100
AcDbMText
 10
0.0
 20
-0.4380609768
 30
0.0
 40
0.065
 41
0.0
 71
     1
 72
     1
  1
THREE PLACE DECIMAL  
  7
SLDTEXTSTYLE0
  0
MTEXT
  5
BC
330
AE
100
AcDbEntity
  8
0
  6
CONTINUOUS
 62
     0
100
AcDbMText
 10
0.9738038639
 20
-0.4380609768
 30
0.0
 40
0.065
 41
0.0
 71
     1
 72
     1
  1
%%p
  7
SLDTEXTSTYLE0
  0
ENDBLK
  5
B0
330
AE
100
AcDbEntity
  8
0
100
AcDbBlockEnd
  0
BLOCK
  5
C3
330
C2
100
AcDbEntity
  8
0
100
AcDbBlockBegin
  2
SW_NOTE_2
 70
     0
 10
0.0
 20
0.0
 30
0.0
  3
SW_NOTE_2
  1

  0
MTEXT
  5
C5
330
C2
100
AcDbEntity
  8
0
  6
CONTINUOUS
 62
     0
100
AcDbMText
 10
0.0
 20
0.0773440644
 30
0.0
 40
0.06
 41
0.0
 71
     1
 72
     1
  1
THE INFORMATION CONTAINED IN THIS
  7
SLDTEXTSTYLE0
  0
MTEXT
  5
C6
330
C2
100
AcDbEntity
  8
0
  6
CONTINUOUS
 62
     0
100
AcDbMText
 10
0.0
 20
-0.0220260102
 30
0.0
 40
0.06
 41
0.0
 71
     1
 72
     1
  1
DRAWING IS THE SOLE PROPERTY OF
  7
SLDTEXTSTYLE0
  0
MTEXT
  5
C7
330
C2
100
AcDbEntity
  8
0
  6
CONTINUOUS
 62
     0
100
AcDbMText
 10
0.0
 20
-0.1213960848
 30
0.0
 40
0.06
 41
0.0
 71
     1
 72
     1
  1
Candy Controls.  ANY 
  7
SLDTEXTSTYLE0
  0
MTEXT
  5
C8
330
C2
100
AcDbEntity
  8
0
  6
CONTINUOUS
 62
     0
100
AcDbMText
 10
0.0
 20
-0.2207661593
 30
0.0
 40
0.06
 41
0.0
 71
     1
 72
     1
  1
REPRODUCTION IN PART OR AS A WHOLE
  7
SLDTEXTSTYLE0
  0
MTEXT
  5
C9
330
C2
100
AcDbEntity
  8
0
  6
CONTINUOUS
 62
     0
100
AcDbMText
 10
0.0
 20
-0.3201362339
 30
0.0
 40
0.06
 41
0.0
 71
     1
 72
     1
  1
WITHOUT THE WRITTEN PERMISSION OF
  7
SLDTEXTSTYLE0
  0
MTEXT
  5
CA
330
C2
100
AcDbEntity
  8
0
  6
CONTINUOUS
 62
     0
100
AcDbMText
 10
0.0
 20
-0.4195063085
 30
0.0
 40
0.06
 41
0.0
 71
     1
 72
     1
  1
Candy Controls IS 
  7
SLDTEXTSTYLE0
  0
MTEXT
  5
CB
330
C2
100
AcDbEntity
  8
0
  6
CONTINUOUS
 62
     0
100
AcDbMText
 10
0.0
 20
-0.518876383
 30
0.0
 40
0.06
 41
0.0
 71
     1
 72
     1
  1
PROHIBITED.
  7
SLDTEXTSTYLE0
  0
ENDBLK
  5
C4
330
C2
100
AcDbEntity
  8
0
100
AcDbBlockEnd
  0
ENDSEC
  0
SECTION
  2
ENTITIES
  0
LINE
  5
41
330
1F
100
AcDbEntity
  8
0
  6
CONTINUOUS
 62
     7
100
AcDbLine
 10
0.329927
 20
8.1920731707
 30
0.0
 11
10.629927
 21
8.1920731707
 31
0.0
  0
LINE
  5
42
330
1F
100
AcDbEntity
  8
0
  6
CONTINUOUS
 62
     7
100
AcDbLine
 10
0.329927
 20
8.1920731707
 30
0.0
 11
0.329927
 21
0.3920731707
 31
0.0
  0
LINE
  5
43
330
1F
100
AcDbEntity
  8
0
  6
CONTINUOUS
 62
     7
100
AcDbLine
 10
10.629927
 20
0.3920731707
 30
0.0
 11
0.329927
 21
0.3920731707
 31
0.0
  0
LINE
  5
44
330
1F
100
AcDbEntity
  8
0
  6
CONTINUOUS
 62
     7
100
AcDbLine
 10
10.629927
 20
0.3920731707
 30
0.0
 11
10.629927
 21
8.1920731707
 31
0.0
  0
LINE
  5
45
330
1F
100
AcDbEntity
  8
0
  6
CONTINUOUS
 62
     7
100
AcDbLine
 10
4.7981841288
 20
0.3920731707
 30
0.0
 11
4.7981841288
 21
2.3564211366
 31
0.0
  0
LINE
  5
46
330
1F
100
AcDbEntity
  8
0
  6
CONTINUOUS
 62
     7
100
AcDbLine
 10
2.8210345579
 20
2.3564211366
 30
0.0
 11
10.629927
 21
2.3564211366
 31
0.0
  0
LINE
  5
47
330
1F
100
AcDbEntity
  8
0
  6
CONTINUOUS
 62
     7
100
AcDbLine
 10
6.1796352514
 20
2.3564211366
 30
0.0
 11
6.1796352514
 21
0.3920731707
 31
0.0
  0
LINE
  5
48
330
1F
100
AcDbEntity
  8
0
  6
CONTINUOUS
 62
     7
100
AcDbLine
 10
7.8712070044
 20
2.3564211366
 30
0.0
 11
7.8712070044
 21
0.3920731707
 31
0.0
  0
LINE
  5
49
330
1F
100
AcDbEntity
  8
0
  6
CONTINUOUS
 62
     7
100
AcDbLine
 10
7.8712070044
 20
0.6049590101
 30
0.0
 11
10.629927
 21
0.6049590101
 31
0.0
  0
LINE
  5
4A
330
1F
100
AcDbEntity
  8
0
  6
CONTINUOUS
 62
     7
100
AcDbLine
 10
7.8712070044
 20
1.1119362457
 30
0.0
 11
10.629927
 21
1.1119362457
 31
0.0
  0
LINE
  5
4B
330
1F
100
AcDbEntity
  8
0
  6
CONTINUOUS
 62
     7
100
AcDbLine
 10
7.8712070044
 20
1.9892703708
 30
0.0
 11
10.629927
 21
1.9892703708
 31
0.0
  0
LINE
  5
4C
330
1F
100
AcDbEntity
  8
0
  6
CONTINUOUS
 62
     7
100
AcDbLine
 10
8.266751752
 20
1.1119362457
 30
0.0
 11
8.266751752
 21
0.6049590101
 31
0.0
  0
LINE
  5
4D
330
1F
100
AcDbEntity
  8
0
  6
CONTINUOUS
 62
     7
100
AcDbLine
 10
8.6943435176
 20
0.6049590101
 30
0.0
 11
8.6943435176
 21
0.3920731707
 31
0.0
  0
LINE
  5
4E
330
1F
100
AcDbEntity
  8
0
  6
CONTINUOUS
 62
     7
100
AcDbLine
 10
10.0579917045
 20
1.1119362457
 30
0.0
 11
10.0579917045
 21
0.6049590101
 31
0.0
  0
LINE
  5
4F
330
1F
100
AcDbEntity
  8
0
  6
CONTINUOUS
 62
     7
100
AcDbLine
 10
9.6662556631
 20
0.6049590101
 30
0.0
 11
9.6662556631
 21
0.3920731707
 31
0.0
  0
LINE
  5
50
330
1F
100
AcDbEntity
  8
0
  6
CONTINUOUS
 62
     7
100
AcDbLine
 10
2.8210345579
 20
0.5883479999
 30
0.0
 11
6.1796352514
 21
0.5883479999
 31
0.0
  0
LINE
  5
51
330
1F
100
AcDbEntity
  8
0
  6
CONTINUOUS
 62
     7
100
AcDbLine
 10
6.1796352514
 20
1.7939211366
 30
0.0
 11
7.8712070044
 21
1.7939211366
 31
0.0
  0
LINE
  5
52
330
1F
100
AcDbEntity
  8
0
  6
CONTINUOUS
 62
     7
100
AcDbLine
 10
6.1796352514
 20
1.9814211366
 30
0.0
 11
7.8712070044
 21
1.9814211366
 31
0.0
  0
LINE
  5
53
330
1F
100
AcDbEntity
  8
0
  6
CONTINUOUS
 62
     7
100
AcDbLine
 10
6.1796352514
 20
2.1689211366
 30
0.0
 11
7.8712070044
 21
2.1689211366
 31
0.0
  0
LINE
  5
54
330
1F
100
AcDbEntity
  8
0
  6
CONTINUOUS
 62
     7
100
AcDbLine
 10
7.8712070044
 20
1.2314211366
 30
0.0
 11
6.1796352514
 21
1.2314211366
 31
0.0
  0
LINE
  5
55
330
1F
100
AcDbEntity
  8
0
  6
CONTINUOUS
 62
     7
100
AcDbLine
 10
7.3921580388
 20
2.3564211366
 30
0.0
 11
7.3921580388
 21
1.2314211366
 31
0.0
  0
LINE
  5
56
330
1F
100
AcDbEntity
  8
0
  6
CONTINUOUS
 62
     7
100
AcDbLine
 10
6.9236308342
 20
2.3564211366
 30
0.0
 11
6.9236308342
 21
1.2314211366
 31
0.0
  0
LINE
  5
57
330
1F
100
AcDbEntity
  8
0
  6
CONTINUOUS
 62
     7
100
AcDbLine
 10
4.7981841288
 20
0.8557965305
 30
0.0
 11
6.1796352514
 21
0.8557965305
 31
0.0
  0
LINE
  5
58
330
1F
100
AcDbEntity
  8
0
  6
CONTINUOUS
 62
     7
100
AcDbLine
 10
4.7981841288
 20
1.1257965305
 30
0.0
 11
6.1796352514
 21
1.1257965305
 31
0.0
  0
LINE
  5
59
330
1F
100
AcDbEntity
  8
0
  6
CONTINUOUS
 62
     7
100
AcDbLine
 10
2.8210345579
 20
0.3920731707
 30
0.0
 11
2.8210345579
 21
2.3564211366
 31
0.0
  0
LINE
  5
5A
330
1F
100
AcDbEntity
  8
0
  6
CONTINUOUS
 62
     7
100
AcDbLine
 10
2.8210345579
 20
1.1064211366
 30
0.0
 11
4.7981841288
 21
1.1064211366
 31
0.0
  0
LINE
  5
5B
330
1F
100
AcDbEntity
  8
0
  6
CONTINUOUS
 62
     7
100
AcDbLine
 10
2.8210345579
 20
1.3564211366
 30
0.0
 11
4.7981841288
 21
1.3564211366
 31
0.0
  0
LINE
  5
5C
330
1F
100
AcDbEntity
  8
0
  6
CONTINUOUS
 62
     7
100
AcDbLine
 10
2.8210345579
 20
1.6064211366
 30
0.0
 11
4.7981841288
 21
1.6064211366
 31
0.0
  0
LINE
  5
5D
330
1F
100
AcDbEntity
  8
0
  6
CONTINUOUS
 62
     7
100
AcDbLine
 10
2.8210345579
 20
1.8564211366
 30
0.0
 11
4.7981841288
 21
1.8564211366
 31
0.0
  0
LINE
  5
5E
330
1F
100
AcDbEntity
  8
0
  6
CONTINUOUS
 62
     7
100
AcDbLine
 10
3.8190146875
 20
2.3564211366
 30
0.0
 11
3.8190146875
 21
0.5883479999
 31
0.0
  0
LINE
  5
5F
330
1F
100
AcDbEntity
  8
0
  6
CONTINUOUS
 62
     7
100
AcDbLine
 10
6.1796352514
 20
2.2020813496
 30
0.0
 11
4.7981841288
 21
2.2020813496
 31
0.0
  0
LINE
  5
60
330
1F
100
AcDbEntity
  8
0
  6
CONTINUOUS
 62
     7
100
AcDbLine
 10
7.8712070044
 20
1.6064211366
 30
0.0
 11
6.1796352514
 21
1.6064211366
 31
0.0
  0
LINE
  5
61
330
1F
100
AcDbEntity
  8
0
  6
CONTINUOUS
 62
     7
100
AcDbLine
 10
7.8712070044
 20
1.4189211366
 30
0.0
 11
6.1796352514
 21
1.4189211366
 31
0.0
  0
LINE
  5
62
330
1F
100
AcDbEntity
  8
0
  6
CONTINUOUS
 62
     7
100
AcDbLine
 10
2.8210345579
 20
2.1064211366
 30
0.0
 11
4.7981841288
 21
2.1064211366
 31
0.0
  0
LINE
  5
63
330
1F
100
AcDbEntity
  8
0
  6
CONTINUOUS
 62
     7
100
AcDbLine
 10
4.7981841288
 20
1.3957965305
 30
0.0
 11
6.1796352514
 21
1.3957965305
 31
0.0
  0
LINE
  5
64
330
1F
100
AcDbEntity
  8
0
  6
CONTINUOUS
 62
     7
100
AcDbLine
 10
2.8210345579
 20
0.8564211366
 30
0.0
 11
4.7981841288
 21
0.8564211366
 31
0.0
  0
LINE
  5
65
330
1F
100
AcDbEntity
  8
0
  6
CONTINUOUS
 62
     7
100
AcDbLine
 10
1.1838252943
 20
0.3920731707
 30
0.0
 11
1.1838252943
 21
1.3064211366
 31
0.0
  0
LINE
  5
66
330
1F
100
AcDbEntity
  8
0
  6
CONTINUOUS
 62
     7
100
AcDbLine
 10
2.8210345579
 20
1.3064211366
 30
0.0
 11
1.1838252943
 21
1.3064211366
 31
0.0
  0
LINE
  5
67
330
1F
100
AcDbEntity
  8
0
  6
CONTINUOUS
 62
     7
100
AcDbLine
 10
8.660927
 20
0.3920731707
 30
0.0
 11
8.660927
 21
0.3072739649
 31
0.0
  0
LINE
  5
68
330
1F
100
AcDbEntity
  8
0
  6
CONTINUOUS
 62
     7
100
AcDbLine
 10
6.692177
 20
0.3920731707
 30
0.0
 11
6.692177
 21
0.3072739649
 31
0.0
  0
LINE
  5
69
330
1F
100
AcDbEntity
  8
0
  6
CONTINUOUS
 62
     7
100
AcDbLine
 10
4.723427
 20
0.3920731707
 30
0.0
 11
4.723427
 21
0.3072739649
 31
0.0
  0
LINE
  5
6A
330
1F
100
AcDbEntity
  8
0
  6
CONTINUOUS
 62
     7
100
AcDbLine
 10
2.754677
 20
0.3920731707
 30
0.0
 11
2.754677
 21
0.3072739649
 31
0.0
  0
LINE
  5
6B
330
1F
100
AcDbEntity
  8
0
  6
CONTINUOUS
 62
     7
100
AcDbLine
 10
2.754677
 20
0.3920731707
 30
0.0
 11
2.7672319738
 21
0.3575
 31
0.0
  0
LINE
  5
6C
330
1F
100
AcDbEntity
  8
0
  6
CONTINUOUS
 62
     7
100
AcDbLine
 10
2.7672319738
 20
0.3575
 30
0.0
 11
2.7414258825
 21
0.3575
 31
0.0
  0
LINE
  5
6D
330
1F
100
AcDbEntity
  8
0
  6
CONTINUOUS
 62
     7
100
AcDbLine
 10
2.7414258825
 20
0.3575
 30
0.0
 11
2.754677
 21
0.3920731707
 31
0.0
  0
MTEXT
  5
91
330
1F
100
AcDbEntity
  8
0
  6
CONTINUOUS
 62
     7
100
AcDbMText
 10
4.9775846961
 20
0.5178452352
 30
0.0
 40
0.0625
 41
0.0
 71
     1
 72
     1
  1
DO NOT SCALE DRAWING
  7
SLDTEXTSTYLE0
  0
MTEXT
  5
92
330
1F
100
AcDbEntity
  8
0
  6
CONTINUOUS
 62
     7
100
AcDbMText
 10
8.8598636693
 20
0.9417064595
 30
0.0
 40
0.125
 41
0.0
 71
     1
 72
     1
  1
CL12-42
  7
SLDTEXTSTYLE0
  0
MTEXT
  5
94
330
1F
100
AcDbEntity
  8
0
  6
CONTINUOUS
 62
     7
100
AcDbMText
 10
9.7571278483
 20
0.5524239532
 30
0.0
 40
0.1
 41
0.0
 71
     1
 72
     1
  1
SHEET 1 OF 1
  7
SLDTEXTSTYLE1
  0
MTEXT
  5
95
330
1F
100
AcDbEntity
  8
0
  6
CONTINUOUS
 62
     7
100
AcDbMText
 10
4.8448077858
 20
2.3132954224
 30
0.0
 40
0.07
 41
0.0
 71
     1
 72
     1
  1
UNLESS OTHERWISE SPECIFIED:
  7
SLDTEXTSTYLE0
  0
MTEXT
  5
96
330
1F
100
AcDbEntity
  8
0
  6
CONTINUOUS
 62
     7
100
AcDbMText
 10
7.9586139647
 20
0.5520987879
 30
0.0
 40
0.1
 41
0.0
 71
     1
 72
     1
  1
SCALE: 1:1
  7
SLDTEXTSTYLE0
  0
MTEXT
  5
97
330
1F
100
AcDbEntity
  8
0
  6
CONTINUOUS
 62
     7
100
AcDbMText
 10
8.7023691647
 20
0.5486763345
 30
0.0
 40
0.1
 41
0.0
 71
     1
 72
     1
  1
WEIGHT: 
  7
SLDTEXTSTYLE0
  0
MTEXT
  5
98
330
1F
100
AcDbEntity
  8
0
  6
CONTINUOUS
 62
     7
100
AcDbMText
 10
10.2277580983
 20
1.081966299
 30
0.0
 40
0.1
 41
0.0
 71
     1
 72
     1
  1
REV
  7
SLDTEXTSTYLE0
  0
MTEXT
  5
9A
330
1F
100
AcDbEntity
  8
0
  6
CONTINUOUS
 62
     7
100
AcDbMText
 10
8.2984570898
 20
1.0858725293
 30
0.0
 40
0.1
 41
0.0
 71
     1
 72
     1
  1
DWG.  NO.
  7
SLDTEXTSTYLE2
  0
MTEXT
  5
9B
330
1F
100
AcDbEntity
  8
0
  6
CONTINUOUS
 62
     7
100
AcDbMText
 10
7.9598482632
 20
0.9442140768
 30
0.0
 40
0.25
 41
0.0
 71
     1
 72
     1
  1
A
  7
SLDTEXTSTYLE0
  0
MTEXT
  5
9C
330
1F
100
AcDbEntity
  8
0
  6
CONTINUOUS
 62
     7
100
AcDbMText
 10
7.9519581822
 20
1.0872713483
 30
0.0
 40
0.1
 41
0.0
 71
     1
 72
     1
  1
SIZE
  7
SLDTEXTSTYLE0
  0
MTEXT
  5
9D
330
1F
100
AcDbEntity
  8
0
  6
CONTINUOUS
 62
     7
100
AcDbMText
 10
7.9170704177
 20
1.9547881128
 30
0.0
 40
0.1
 41
0.0
 71
     1
 72
     1
  1
TITLE:
  7
SLDTEXTSTYLE0
  0
MTEXT
  5
9E
330
1F
100
AcDbEntity
  8
0
  6
CONTINUOUS
 62
     7
100
AcDbMText
 10
7.0363774929
 20
2.2906161274
 30
0.0
 40
0.065
 41
0.0
 71
     1
 72
     1
  1
NAME
  7
SLDTEXTSTYLE0
  0
MTEXT
  5
9F
330
1F
100
AcDbEntity
  8
0
  6
CONTINUOUS
 62
     7
100
AcDbMText
 10
7.5281510634
 20
2.2888799118
 30
0.0
 40
0.065
 41
0.0
 71
     1
 72
     1
  1
DATE
  7
SLDTEXTSTYLE0
  0
MTEXT
  5
A0
330
1F
100
AcDbEntity
  8
0
  6
CONTINUOUS
 62
     7
100
AcDbMText
 10
6.2277147029
 20
1.1876913145
 30
0.0
 40
0.065
 41
0.0
 71
     1
 72
     1
  1
COMMENTS:
  7
SLDTEXTSTYLE0
  0
MTEXT
  5
A1
330
1F
100
AcDbEntity
  8
0
  6
CONTINUOUS
 62
     7
100
AcDbMText
 10
6.2268411461
 20
1.3536101679
 30
0.0
 40
0.065
 41
0.0
 71
     1
 72
     1
  1
Q.A.
  7
SLDTEXTSTYLE0
  0
MTEXT
  5
A2
330
1F
100
AcDbEntity
  8
0
  6
CONTINUOUS
 62
     7
100
AcDbMText
 10
6.2284654509
 20
1.5395328424
 30
0.0
 40
0.065
 41
0.0
 71
     1
 72
     1
  1
MFG APPR.
  7
SLDTEXTSTYLE0
  0
MTEXT
  5
A3
330
1F
100
AcDbEntity
  8
0
  6
CONTINUOUS
 62
     7
100
AcDbMText
 10
6.2235171344
 20
1.7267501785
 30
0.0
 40
0.065
 41
0.0
 71
     1
 72
     1
  1
ENG APPR.
  7
SLDTEXTSTYLE0
  0
MTEXT
  5
A4
330
1F
100
AcDbEntity
  8
0
  6
CONTINUOUS
 62
     7
100
AcDbMText
 10
6.2264103951
 20
1.9092699088
 30
0.0
 40
0.065
 41
0.0
 71
     1
 72
     1
  1
CHECKED
  7
SLDTEXTSTYLE0
  0
MTEXT
  5
A5
330
1F
100
AcDbEntity
  8
0
  6
CONTINUOUS
 62
     7
100
AcDbMText
 10
6.2242794356
 20
2.1016301232
 30
0.0
 40
0.065
 41
0.0
 71
     1
 72
     1
  1
DRAWN
  7
SLDTEXTSTYLE0
  0
MTEXT
  5
A6
330
1F
100
AcDbEntity
  8
0
  6
CONTINUOUS
 62
     7
100
AcDbMText
 10
4.8208600979
 20
0.834523235
 30
0.0
 40
0.06
 41
0.0
 71
     1
 72
     1
  1
FINISH
  7
SLDTEXTSTYLE0
  0
MTEXT
  5
A7
330
1F
100
AcDbEntity
  8
0
  6
CONTINUOUS
 62
     7
100
AcDbMText
 10
4.8181240648
 20
1.1028217587
 30
0.0
 40
0.06
 41
0.0
 71
     1
 72
     1
  1
MATERIAL
  7
SLDTEXTSTYLE0
  0
INSERT
  5
AD
330
1F
100
AcDbEntity
  8
0
  6
CONTINUOUS
 62
     7
100
AcDbBlockReference
  2
SW_NOTE_0
 10
4.8231926633
 20
1.2646542947
 30
0.0
  0
INSERT
  5
BD
330
1F
100
AcDbEntity
  8
0
  6
CONTINUOUS
 62
     7
100
AcDbBlockReference
  2
SW_NOTE_1
 10
4.8353339353
 20
2.0049168724
 30
0.0
  0
MTEXT
  5
BE
330
1F
100
AcDbEntity
  8
0
  6
CONTINUOUS
 62
     7
100
AcDbMText
 10
3.5531400086
 20
0.5200091997
 30
0.0
 40
0.0625
 41
0.0
 71
     1
 72
     1
  1
APPLICATION
  7
SLDTEXTSTYLE0
  0
MTEXT
  5
BF
330
1F
100
AcDbEntity
  8
0
  6
CONTINUOUS
 62
     7
100
AcDbMText
 10
4.1005607758
 20
0.7502454275
 30
0.0
 40
0.0625
 41
0.0
 71
     1
 72
     1
  1
USED ON
  7
SLDTEXTSTYLE0
  0
MTEXT
  5
C0
330
1F
100
AcDbEntity
  8
0
  6
CONTINUOUS
 62
     7
100
AcDbMText
 10
3.1040019536
 20
0.7492094783
 30
0.0
 40
0.0625
 41
0.0
 71
     1
 72
     1
  1
NEXT ASSY
  7
SLDTEXTSTYLE0
  0
MTEXT
  5
C1
330
1F
100
AcDbEntity
  8
0
  6
CONTINUOUS
 62
     7
100
AcDbMText
 10
1.3712489489
 20
1.2496672684
 30
0.0
 40
0.06
 41
0.0
 71
     1
 72
     1
  1
PROPRIETARY AND CONFIDENTIAL
  7
SLDTEXTSTYLE0
  0
INSERT
  5
CC
330
1F
100
AcDbEntity
  8
0
  6
CONTINUOUS
 62
     7
100
AcDbBlockReference
  2
SW_NOTE_2
 10
1.2226209074
 20
1.0313492921
 30
0.0
  0
MTEXT
  5
CD
330
1F
100
AcDbEntity
  8
0
  6
CONTINUOUS
 62
     7
100
AcDbMText
 10
1.7387909509
 20
0.3105864247
 30
0.0
 40
0.09375
 41
0.0
 71
     1
 72
     1
  1
5
  7
SLDTEXTSTYLE0
  0
MTEXT
  5
CE
330
1F
100
AcDbEntity
  8
0
  6
CONTINUOUS
 62
     7
100
AcDbMText
 10
3.723800327
 20
0.3137237518
 30
0.0
 40
0.09375
 41
0.0
 71
     1
 72
     1
  1
4
  7
SLDTEXTSTYLE0
  0
MTEXT
  5
CF
330
1F
100
AcDbEntity
  8
0
  6
CONTINUOUS
 62
     7
100
AcDbMText
 10
5.6324457277
 20
0.3116191842
 30
0.0
 40
0.09375
 41
0.0
 71
     1
 72
     1
  1
3
  7
SLDTEXTSTYLE0
  0
MTEXT
  5
D0
330
1F
100
AcDbEntity
  8
0
  6
CONTINUOUS
 62
     7
100
AcDbMText
 10
7.6059721724
 20
0.3124391351
 30
0.0
 40
0.09375
 41
0.0
 71
     1
 72
     1
  1
2
  7
SLDTEXTSTYLE0
  0
MTEXT
  5
D1
330
1F
100
AcDbEntity
  8
0
  6
CONTINUOUS
 62
     7
100
AcDbMText
 10
9.6619921328
 20
0.301372012
 30
0.0
 40
0.09375
 41
0.0
 71
     1
 72
     1
  1
1
  7
SLDTEXTSTYLE0
  0
LINE
  5
D2
330
1F
100
AcDbEntity
  8
0
  6
CONTINUOUS
 62
     7
100
AcDbLine
 10
4.0384510732
 20
4.2474932378
 30
0.0
 11
4.0351400404
 21
4.2508042706
 31
0.0
  0
LINE
  5
D3
330
1F
100
AcDbEntity
  8
0
  6
CONTINUOUS
 62
     7
100
AcDbLine
 10
3.8976597254
 20
4.2508042706
 30
0.0
 11
3.8943500766
 21
4.2474946218
 31
0.0
  0
LINE
  5
D4
330
1F
100
AcDbEntity
  8
0
  6
CONTINUOUS
 62
     7
100
AcDbLine
 10
2.7589235141
 20
4.2474932378
 30
0.0
 11
2.7556124813
 21
4.2508042706
 31
0.0
  0
LINE
  5
D5
330
1F
100
AcDbEntity
  8
0
  6
CONTINUOUS
 62
     7
100
AcDbLine
 10
2.6181321664
 20
4.2508042706
 30
0.0
 11
2.6148225175
 21
4.2474946218
 31
0.0
  0
LINE
  5
D6
330
1F
100
AcDbEntity
  8
0
  6
CONTINUOUS
 62
     7
100
AcDbLine
 10
2.3967542136
 20
4.2508042706
 30
0.0
 11
2.3817542136
 21
4.2358042706
 31
0.0
  0
LINE
  5
D7
330
1F
100
AcDbEntity
  8
0
  6
CONTINUOUS
 62
     7
100
AcDbLine
 10
2.3817542136
 20
3.2815523021
 30
0.0
 11
2.3967542136
 21
3.2665523021
 31
0.0
  0
LINE
  5
D8
330
1F
100
AcDbEntity
  8
0
  6
CONTINUOUS
 62
     7
100
AcDbLine
 10
3.8035519367
 20
3.2665523021
 30
0.0
 11
4.2565179931
 21
3.2665523021
 31
0.0
  0
LINE
  5
D9
330
1F
100
AcDbEntity
  8
0
  6
CONTINUOUS
 62
     7
100
AcDbLine
 10
3.8751333901
 20
4.2508042706
 30
0.0
 11
3.8035519367
 21
4.2508042706
 31
0.0
  0
LINE
  5
DA
330
1F
100
AcDbEntity
  8
0
  6
CONTINUOUS
 62
     7
100
AcDbLine
 10
4.2565179931
 20
4.2508042706
 30
0.0
 11
4.0576662592
 21
4.2508042706
 31
0.0
  0
LINE
  5
DB
330
1F
100
AcDbEntity
  8
0
  6
CONTINUOUS
 62
     7
100
AcDbLine
 10
3.8035519367
 20
4.2508042706
 30
0.0
 11
3.7838668974
 21
4.2311192313
 31
0.0
  0
LINE
  5
DC
330
1F
100
AcDbEntity
  8
0
  6
CONTINUOUS
 62
     7
100
AcDbLine
 10
3.7838668974
 20
3.2862373415
 30
0.0
 11
3.8035519367
 21
3.2665523021
 31
0.0
  0
LINE
  5
DD
330
1F
100
AcDbEntity
  8
0
  6
CONTINUOUS
 62
     7
100
AcDbLine
 10
2.5492100796
 20
3.2665523021
 30
0.0
 11
2.84972027
 21
3.2665523021
 31
0.0
  0
LINE
  5
DE
330
1F
100
AcDbEntity
  8
0
  6
CONTINUOUS
 62
     7
100
AcDbLine
 10
2.3967542136
 20
3.2665523021
 30
0.0
 11
2.4507462203
 21
3.2665523021
 31
0.0
  0
LINE
  5
DF
330
1F
100
AcDbEntity
  8
0
  6
CONTINUOUS
 62
     7
100
AcDbLine
 10
2.4507542058
 20
4.2508042706
 30
0.0
 11
2.3967542136
 21
4.2508042706
 31
0.0
  0
LINE
  5
E0
330
1F
100
AcDbEntity
  8
0
  6
CONTINUOUS
 62
     7
100
AcDbLine
 10
2.5956058311
 20
4.2508042706
 30
0.0
 11
2.5492100796
 21
4.2508042706
 31
0.0
  0
LINE
  5
E1
330
1F
100
AcDbEntity
  8
0
  6
CONTINUOUS
 62
     7
100
AcDbLine
 10
2.84972027
 20
4.2508042706
 30
0.0
 11
2.7781387001
 21
4.2508042706
 31
0.0
  0
LINE
  5
E2
330
1F
100
AcDbEntity
  8
0
  6
CONTINUOUS
 62
     7
100
AcDbLine
 10
2.84972027
 20
3.2665523021
 30
0.0
 11
2.8694053094
 21
3.2862373415
 31
0.0
  0
LINE
  5
E3
330
1F
100
AcDbEntity
  8
0
  6
CONTINUOUS
 62
     7
100
AcDbLine
 10
2.8694053094
 20
4.2311192313
 30
0.0
 11
2.84972027
 21
4.2508042706
 31
0.0
  0
LINE
  5
E4
330
1F
100
AcDbEntity
  8
0
  6
CONTINUOUS
 62
     7
100
AcDbLine
 10
4.2565179931
 20
3.2665523021
 30
0.0
 11
4.2715179931
 21
3.2815523021
 31
0.0
  0
LINE
  5
E5
330
1F
100
AcDbEntity
  8
0
  6
CONTINUOUS
 62
     7
100
AcDbLine
 10
4.2715179931
 20
4.2358042706
 30
0.0
 11
4.2565179931
 21
4.2508042706
 31
0.0
  0
LINE
  5
E6
330
1F
100
AcDbEntity
  8
0
  6
CONTINUOUS
 62
     7
100
AcDbLine
 10
3.8976597254
 20
4.2508042706
 30
0.0
 11
4.0351400404
 21
4.2508042706
 31
0.0
  0
LINE
  5
E7
330
1F
100
AcDbEntity
  8
0
  6
CONTINUOUS
 62
     7
100
AcDbLine
 10
2.7556124813
 20
4.2508042706
 30
0.0
 11
2.6181321664
 21
4.2508042706
 31
0.0
  0
LINE
  5
E8
330
1F
100
AcDbEntity
  8
0
  6
CONTINUOUS
 62
     7
100
AcDbLine
 10
4.2026203554
 20
3.660746452
 30
0.0
 11
4.2026203554
 21
3.4634026958
 31
0.0
  0
LINE
  5
E9
330
1F
100
AcDbEntity
  8
0
  6
CONTINUOUS
 62
     7
100
AcDbLine
 10
3.2775282245
 20
3.4634026958
 30
0.0
 11
4.2026203554
 21
3.4634026958
 31
0.0
  0
SPLINE
  5
EA
330
1F
100
AcDbEntity
  8
0
  6
CONTINUOUS
 62
     7
100
AcDbSpline
210
0.0
220
0.0
230
1.0
 70
     8
 71
     3
 72
     8
 73
     4
 74
     0
 42
0.00000001
 43
0.00000001
 40
0.0
 40
0.0
 40
0.0
 40
0.0
 40
0.0002500923556257
 40
0.0002500923556257
 40
0.0002500923556257
 40
0.0002500923556257
 10
3.277423504959355
 20
3.463156478866832
 30
0.0
 10
3.277423504959355
 20
3.463320581462387
 30
0.0
 10
3.277458393576657
 20
3.463402695840866
 30
0.0
 10
3.277528224468382
 20
3.463402695840866
 30
0.0
  0
LINE
  5
EB
330
1F
100
AcDbEntity
  8
0
  6
CONTINUOUS
 62
     7
100
AcDbLine
 10
3.277423505
 20
4.0542000939
 30
0.0
 11
3.277423505
 21
3.4631564789
 31
0.0
  0
SPLINE
  5
EC
330
1F
100
AcDbEntity
  8
0
  6
CONTINUOUS
 62
     7
100
AcDbSpline
210
0.0
220
0.0
230
1.0
 70
     8
 71
     3
 72
     8
 73
     4
 74
     0
 42
0.00000001
 43
0.00000001
 40
0.0
 40
0.0
 40
0.0
 40
0.0
 40
0.0002500923556256
 40
0.0002500923556256
 40
0.0002500923556256
 40
0.0002500923556256
 10
3.277528224468382
 20
4.053953876943228
 30
0.0
 10
3.277458393576656
 20
4.053953876943228
 30
0.0
 10
3.277423504959355
 20
4.054035991321707
 30
0.0
 10
3.277423504959355
 20
4.054200093917262
 30
0.0
  0
LINE
  5
ED
330
1F
100
AcDbEntity
  8
0
  6
CONTINUOUS
 62
     7
100
AcDbLine
 10
3.2775282245
 20
4.0539538769
 30
0.0
 11
4.2026203554
 21
4.0539538769
 31
0.0
  0
LINE
  5
EE
330
1F
100
AcDbEntity
  8
0
  6
CONTINUOUS
 62
     7
100
AcDbLine
 10
4.2026203554
 20
4.0539538769
 30
0.0
 11
4.2026203554
 21
3.8566101208
 31
0.0
  0
SPLINE
  5
EF
330
1F
100
AcDbEntity
  8
0
  6
CONTINUOUS
 62
     7
100
AcDbSpline
210
0.0
220
0.0
230
1.0
 70
     8
 71
     3
 72
    12
 73
     8
 74
     0
 42
0.00000001
 43
0.00000001
 40
0.0
 40
0.0
 40
0.0
 40
0.0
 40
0.5
 40
0.5
 40
0.75
 40
0.75
 40
1.0
 40
1.0
 40
1.0
 40
1.0
 10
4.202620355353057
 20
3.856610120752935
 30
0.0
 10
4.202620355353057
 20
3.824142193644954
 30
0.0
 10
4.20251593848843
 20
3.791567984114254
 30
0.0
 10
4.202515485999949
 20
3.742553661337071
 30
0.0
 10
4.202534811617228
 20
3.726189857233684
 30
0.0
 10
4.20258722330049
 20
3.69340959080076
 30
0.0
 10
4.202620355353056
 20
3.676980443933715
 30
0.0
 10
4.202620355353057
 20
3.660746452031159
 30
0.0
  0
LINE
  5
F0
330
1F
100
AcDbEntity
  8
0
  6
CONTINUOUS
 62
     7
100
AcDbLine
 10
3.277423505
 20
3.2763948218
 30
0.0
 11
3.277423505
 21
3.4631564789
 31
0.0
  0
LINE
  5
F1
330
1F
100
AcDbEntity
  8
0
  6
CONTINUOUS
 62
     7
100
AcDbLine
 10
3.3758487018
 20
3.4631564789
 30
0.0
 11
3.3758487018
 21
3.2763948218
 31
0.0
  0
SPLINE
  5
F2
330
1F
100
AcDbEntity
  8
0
  6
CONTINUOUS
 62
     7
100
AcDbSpline
210
0.0
220
0.0
230
1.0
 70
     8
 71
     3
 72
     8
 73
     4
 74
     0
 42
0.00000001
 43
0.00000001
 40
0.0
 40
0.0
 40
0.0
 40
0.0
 40
0.0002500923556257
 40
0.0002500923556257
 40
0.0002500923556257
 40
0.0002500923556257
 10
3.375848701809749
 20
3.276394821825118
 30
0.0
 10
3.375848701809749
 20
3.273116875046223
 30
0.0
 10
3.375813813192448
 20
3.269833611085256
 30
0.0
 10
3.375743982300723
 20
3.266552302140078
 30
0.0
  0
LINE
  5
F3
330
1F
100
AcDbEntity
  8
0
  6
CONTINUOUS
 62
     7
100
AcDbLine
 10
3.3757439823
 20
3.2665523021
 30
0.0
 11
3.2772904736
 21
3.2665523021
 31
0.0
  0
SPLINE
  5
F4
330
1F
100
AcDbEntity
  8
0
  6
CONTINUOUS
 62
     7
100
AcDbSpline
210
0.0
220
0.0
230
1.0
 70
     8
 71
     3
 72
     8
 73
     4
 74
     0
 42
0.00000001
 43
0.00000001
 40
0.0
 40
0.0
 40
0.0
 40
0.0
 40
0.0002501010376138
 40
0.0002501010376138
 40
0.0002501010376138
 40
0.0002501010376138
 10
3.277290473638626
 20
3.266552302140078
 30
0.0
 10
3.277379180823706
 20
3.269833269023295
 30
0.0
 10
3.277423504959355
 20
3.273116761251882
 30
0.0
 10
3.277423504959355
 20
3.276394821825118
 30
0.0
  0
LINE
  5
F5
330
1F
100
AcDbEntity
  8
0
  6
CONTINUOUS
 62
     7
100
AcDbLine
 10
2.3967542136
 20
4.2508042706
 30
0.0
 11
2.3967542136
 21
3.2665523021
 31
0.0
  0
LINE
  5
F6
330
1F
100
AcDbEntity
  8
0
  6
CONTINUOUS
 62
     7
100
AcDbLine
 10
2.3817542136
 20
3.2815523021
 30
0.0
 11
2.3817542136
 21
4.2358042706
 31
0.0
  0
LINE
  5
F7
330
1F
100
AcDbEntity
  8
0
  6
CONTINUOUS
 62
     7
100
AcDbLine
 10
4.2565179931
 20
3.2665523021
 30
0.0
 11
4.2565179931
 21
4.2508042706
 31
0.0
  0
POLYLINE
  5
F8
330
1F
100
AcDbEntity
  8
0
  6
CONTINUOUS
 62
     7
100
AcDb2dPolyline
 66
     1
 10
0.0
 20
0.0
 30
0.0
  0
VERTEX
  5
2E8
330
F8
100
AcDbEntity
  8
0
  6
CONTINUOUS
 62
     7
100
AcDbVertex
100
AcDb2dVertex
 10
4.0576662592
 20
4.2508042484
 30
0.0
  0
VERTEX
  5
2E9
330
F8
100
AcDbEntity
  8
0
  6
CONTINUOUS
 62
     7
100
AcDbVertex
100
AcDb2dVertex
 10
4.0576663757
 20
4.2508042706
 30
0.0
  0
VERTEX
  5
2EA
330
F8
100
AcDbEntity
  8
0
  6
CONTINUOUS
 62
     7
100
AcDbVertex
100
AcDb2dVertex
 10
4.0559043544
 20
4.2504694216
 30
0.0
  0
VERTEX
  5
2EB
330
F8
100
AcDbEntity
  8
0
  6
CONTINUOUS
 62
     7
100
AcDbVertex
100
AcDb2dVertex
 10
4.050616954
 20
4.2495023881
 30
0.0
  0
VERTEX
  5
2EC
330
F8
100
AcDbEntity
  8
0
  6
CONTINUOUS
 62
     7
100
AcDbVertex
100
AcDb2dVertex
 10
4.0421867636
 20
4.2480548795
 30
0.0
  0
VERTEX
  5
2ED
330
F8
100
AcDbEntity
  8
0
  6
CONTINUOUS
 62
     7
100
AcDbVertex
100
AcDb2dVertex
 10
4.0309045664
 20
4.2463586598
 30
0.0
  0
VERTEX
  5
2EE
330
F8
100
AcDbEntity
  8
0
  6
CONTINUOUS
 62
     7
100
AcDbVertex
100
AcDb2dVertex
 10
4.0171635549
 20
4.2446633101
 30
0.0
  0
VERTEX
  5
2EF
330
F8
100
AcDbEntity
  8
0
  6
CONTINUOUS
 62
     7
100
AcDbVertex
100
AcDb2dVertex
 10
4.0012907384
 20
4.2432121273
 30
0.0
  0
VERTEX
  5
2F0
330
F8
100
AcDbEntity
  8
0
  6
CONTINUOUS
 62
     7
100
AcDbVertex
100
AcDb2dVertex
 10
3.9840750982
 20
4.2422246814
 30
0.0
  0
VERTEX
  5
2F1
330
F8
100
AcDbEntity
  8
0
  6
CONTINUOUS
 62
     7
100
AcDbVertex
100
AcDb2dVertex
 10
3.9663583709
 20
4.2418806539
 30
0.0
  0
VERTEX
  5
2F2
330
F8
100
AcDbEntity
  8
0
  6
CONTINUOUS
 62
     7
100
AcDbVertex
100
AcDb2dVertex
 10
3.9486792624
 20
4.2422228627
 30
0.0
  0
VERTEX
  5
2F3
330
F8
100
AcDbEntity
  8
0
  6
CONTINUOUS
 62
     7
100
AcDbVertex
100
AcDb2dVertex
 10
3.9314394935
 20
4.2432140499
 30
0.0
  0
VERTEX
  5
2F4
330
F8
100
AcDbEntity
  8
0
  6
CONTINUOUS
 62
     7
100
AcDbVertex
100
AcDb2dVertex
 10
3.9156047861
 20
4.2446647994
 30
0.0
  0
VERTEX
  5
2F5
330
F8
100
AcDbEntity
  8
0
  6
CONTINUOUS
 62
     7
100
AcDbVertex
100
AcDb2dVertex
 10
3.901868769
 20
4.2463623134
 30
0.0
  0
VERTEX
  5
2F6
330
F8
100
AcDbEntity
  8
0
  6
CONTINUOUS
 62
     7
100
AcDbVertex
100
AcDb2dVertex
 10
3.8906211472
 20
4.2480561952
 30
0.0
  0
VERTEX
  5
2F7
330
F8
100
AcDbEntity
  8
0
  6
CONTINUOUS
 62
     7
100
AcDbVertex
100
AcDb2dVertex
 10
3.8821848577
 20
4.2495060533
 30
0.0
  0
VERTEX
  5
2F8
330
F8
100
AcDbEntity
  8
0
  6
CONTINUOUS
 62
     7
100
AcDbVertex
100
AcDb2dVertex
 10
3.8768945173
 20
4.2504710318
 30
0.0
  0
VERTEX
  5
2F9
330
F8
100
AcDbEntity
  8
0
  6
CONTINUOUS
 62
     7
100
AcDbVertex
100
AcDb2dVertex
 10
3.8751333901
 20
4.2508042706
 30
0.0
  0
VERTEX
  5
2FA
330
F8
100
AcDbEntity
  8
0
  6
CONTINUOUS
 62
     7
100
AcDbVertex
100
AcDb2dVertex
 10
3.8751333901
 20
4.2508042706
 30
0.0
  0
SEQEND
  5
2FB
330
F8
100
AcDbEntity
  8
0
  6
CONTINUOUS
 62
     7
  0
LINE
  5
F9
330
1F
100
AcDbEntity
  8
0
  6
CONTINUOUS
 62
     7
100
AcDbLine
 10
3.8035519367
 20
4.2508042706
 30
0.0
 11
3.8035519367
 21
4.0539538769
 31
0.0
  0
LINE
  5
FA
330
1F
100
AcDbEntity
  8
0
  6
CONTINUOUS
 62
     7
100
AcDbLine
 10
3.8035519367
 20
3.4634026958
 30
0.0
 11
3.8035519367
 21
3.2665523021
 31
0.0
  0
LINE
  5
FB
330
1F
100
AcDbEntity
  8
0
  6
CONTINUOUS
 62
     7
100
AcDbLine
 10
3.7838668974
 20
3.2862373415
 30
0.0
 11
3.7838668974
 21
3.4634026958
 31
0.0
  0
LINE
  5
FC
330
1F
100
AcDbEntity
  8
0
  6
CONTINUOUS
 62
     7
100
AcDbLine
 10
3.7838668974
 20
4.0539538769
 30
0.0
 11
3.7838668974
 21
4.2311192313
 31
0.0
  0
LINE
  5
FD
330
1F
100
AcDbEntity
  8
0
  6
CONTINUOUS
 62
     7
100
AcDbLine
 10
2.4506518514
 20
4.1523790738
 30
0.0
 11
2.5490770483
 21
4.1523790738
 31
0.0
  0
POLYLINE
  5
FE
330
1F
100
AcDbEntity
  8
0
  6
CONTINUOUS
 62
     7
100
AcDb2dPolyline
 66
     1
 10
0.0
 20
0.0
 30
0.0
  0
VERTEX
  5
2FC
330
FE
100
AcDbEntity
  8
0
  6
CONTINUOUS
 62
     7
100
AcDbVertex
100
AcDb2dVertex
 10
2.7781387001
 20
4.2508042484
 30
0.0
  0
VERTEX
  5
2FD
330
FE
100
AcDbEntity
  8
0
  6
CONTINUOUS
 62
     7
100
AcDbVertex
100
AcDb2dVertex
 10
2.7781388166
 20
4.2508042706
 30
0.0
  0
VERTEX
  5
2FE
330
FE
100
AcDbEntity
  8
0
  6
CONTINUOUS
 62
     7
100
AcDbVertex
100
AcDb2dVertex
 10
2.7763767953
 20
4.2504694216
 30
0.0
  0
VERTEX
  5
2FF
330
FE
100
AcDbEntity
  8
0
  6
CONTINUOUS
 62
     7
100
AcDbVertex
100
AcDb2dVertex
 10
2.7710893949
 20
4.2495023881
 30
0.0
  0
VERTEX
  5
300
330
FE
100
AcDbEntity
  8
0
  6
CONTINUOUS
 62
     7
100
AcDbVertex
100
AcDb2dVertex
 10
2.7626592045
 20
4.2480548795
 30
0.0
  0
VERTEX
  5
301
330
FE
100
AcDbEntity
  8
0
  6
CONTINUOUS
 62
     7
100
AcDbVertex
100
AcDb2dVertex
 10
2.7513770073
 20
4.2463586598
 30
0.0
  0
VERTEX
  5
302
330
FE
100
AcDbEntity
  8
0
  6
CONTINUOUS
 62
     7
100
AcDbVertex
100
AcDb2dVertex
 10
2.7376359959
 20
4.2446633101
 30
0.0
  0
VERTEX
  5
303
330
FE
100
AcDbEntity
  8
0
  6
CONTINUOUS
 62
     7
100
AcDbVertex
100
AcDb2dVertex
 10
2.7217631793
 20
4.2432121273
 30
0.0
  0
VERTEX
  5
304
330
FE
100
AcDbEntity
  8
0
  6
CONTINUOUS
 62
     7
100
AcDbVertex
100
AcDb2dVertex
 10
2.7045475391
 20
4.2422246814
 30
0.0
  0
VERTEX
  5
305
330
FE
100
AcDbEntity
  8
0
  6
CONTINUOUS
 62
     7
100
AcDbVertex
100
AcDb2dVertex
 10
2.6868308118
 20
4.2418806539
 30
0.0
  0
VERTEX
  5
306
330
FE
100
AcDbEntity
  8
0
  6
CONTINUOUS
 62
     7
100
AcDbVertex
100
AcDb2dVertex
 10
2.6691517033
 20
4.2422228627
 30
0.0
  0
VERTEX
  5
307
330
FE
100
AcDbEntity
  8
0
  6
CONTINUOUS
 62
     7
100
AcDbVertex
100
AcDb2dVertex
 10
2.6519119344
 20
4.2432140499
 30
0.0
  0
VERTEX
  5
308
330
FE
100
AcDbEntity
  8
0
  6
CONTINUOUS
 62
     7
100
AcDbVertex
100
AcDb2dVertex
 10
2.6360772271
 20
4.2446647994
 30
0.0
  0
VERTEX
  5
309
330
FE
100
AcDbEntity
  8
0
  6
CONTINUOUS
 62
     7
100
AcDbVertex
100
AcDb2dVertex
 10
2.6223412099
 20
4.2463623134
 30
0.0
  0
VERTEX
  5
30A
330
FE
100
AcDbEntity
  8
0
  6
CONTINUOUS
 62
     7
100
AcDbVertex
100
AcDb2dVertex
 10
2.6110935882
 20
4.2480561952
 30
0.0
  0
VERTEX
  5
30B
330
FE
100
AcDbEntity
  8
0
  6
CONTINUOUS
 62
     7
100
AcDbVertex
100
AcDb2dVertex
 10
2.6026572987
 20
4.2495060533
 30
0.0
  0
VERTEX
  5
30C
330
FE
100
AcDbEntity
  8
0
  6
CONTINUOUS
 62
     7
100
AcDbVertex
100
AcDb2dVertex
 10
2.5973669582
 20
4.2504710318
 30
0.0
  0
VERTEX
  5
30D
330
FE
100
AcDbEntity
  8
0
  6
CONTINUOUS
 62
     7
100
AcDbVertex
100
AcDb2dVertex
 10
2.5956058311
 20
4.2508042706
 30
0.0
  0
VERTEX
  5
30E
330
FE
100
AcDbEntity
  8
0
  6
CONTINUOUS
 62
     7
100
AcDbVertex
100
AcDb2dVertex
 10
2.5956058311
 20
4.2508042706
 30
0.0
  0
SEQEND
  5
30F
330
FE
100
AcDbEntity
  8
0
  6
CONTINUOUS
 62
     7
  0
LINE
  5
FF
330
1F
100
AcDbEntity
  8
0
  6
CONTINUOUS
 62
     7
100
AcDbLine
 10
2.5490770483
 20
3.364977499
 30
0.0
 11
2.4506518514
 21
3.364977499
 31
0.0
  0
LINE
  5
100
330
1F
100
AcDbEntity
  8
0
  6
CONTINUOUS
 62
     7
100
AcDbLine
 10
2.84972027
 20
3.7586782864
 30
0.0
 11
2.84972027
 21
4.2508042706
 31
0.0
  0
LINE
  5
101
330
1F
100
AcDbEntity
  8
0
  6
CONTINUOUS
 62
     7
100
AcDbLine
 10
2.84972027
 20
3.2665523021
 30
0.0
 11
2.84972027
 21
3.7586782864
 31
0.0
  0
LINE
  5
102
330
1F
100
AcDbEntity
  8
0
  6
CONTINUOUS
 62
     7
100
AcDbLine
 10
2.8694053094
 20
3.7586782864
 30
0.0
 11
2.8694053094
 21
3.2862373415
 31
0.0
  0
LINE
  5
103
330
1F
100
AcDbEntity
  8
0
  6
CONTINUOUS
 62
     7
100
AcDbLine
 10
2.8694053094
 20
4.2311192313
 30
0.0
 11
2.8694053094
 21
3.7586782864
 31
0.0
  0
LINE
  5
104
330
1F
100
AcDbEntity
  8
0
  6
CONTINUOUS
 62
     7
100
AcDbLine
 10
4.2715179931
 20
4.2358042706
 30
0.0
 11
4.2715179931
 21
3.2815523021
 31
0.0
  0
LINE
  5
105
330
1F
100
AcDbEntity
  8
0
  6
CONTINUOUS
 62
     7
100
AcDbLine
 10
3.277423505
 20
4.0542000939
 30
0.0
 11
3.277423505
 21
4.240961751
 31
0.0
  0
SPLINE
  5
106
330
1F
100
AcDbEntity
  8
0
  6
CONTINUOUS
 62
     7
100
AcDbSpline
210
0.0
220
0.0
230
1.0
 70
     8
 71
     3
 72
     8
 73
     4
 74
     0
 42
0.00000001
 43
0.00000001
 40
0.0
 40
0.0
 40
0.0
 40
0.0
 40
0.0002501010376137
 40
0.0002501010376137
 40
0.0002501010376137
 40
0.0002501010376137
 10
3.277423504959355
 20
4.240961750958977
 30
0.0
 10
3.277423504959355
 20
4.244239811532213
 30
0.0
 10
3.277379180823706
 20
4.2475233037608
 30
0.0
 10
3.277290473638626
 20
4.250804270644015
 30
0.0
  0
LINE
  5
107
330
1F
100
AcDbEntity
  8
0
  6
CONTINUOUS
 62
     7
100
AcDbLine
 10
3.2772904736
 20
4.2508042706
 30
0.0
 11
3.3757439823
 21
4.2508042706
 31
0.0
  0
SPLINE
  5
108
330
1F
100
AcDbEntity
  8
0
  6
CONTINUOUS
 62
     7
100
AcDbSpline
210
0.0
220
0.0
230
1.0
 70
     8
 71
     3
 72
     8
 73
     4
 74
     0
 42
0.00000001
 43
0.00000001
 40
0.0
 40
0.0
 40
0.0
 40
0.0
 40
0.0002500923556256
 40
0.0002500923556256
 40
0.0002500923556256
 40
0.0002500923556256
 10
3.375743982300723
 20
4.250804270644015
 30
0.0
 10
3.375813813192448
 20
4.247522961698838
 30
0.0
 10
3.375848701809749
 20
4.244239697737872
 30
0.0
 10
3.375848701809749
 20
4.240961750958977
 30
0.0
  0
LINE
  5
109
330
1F
100
AcDbEntity
  8
0
  6
CONTINUOUS
 62
     7
100
AcDbLine
 10
3.3758487018
 20
4.240961751
 30
0.0
 11
3.3758487018
 21
4.0542000939
 31
0.0
  0
LINE
  5
10A
330
1F
100
AcDbEntity
  8
0
  6
CONTINUOUS
 62
     7
100
AcDbLine
 10
2.4506518514
 20
3.364977499
 30
0.0
 11
2.4506518514
 21
3.2763948218
 31
0.0
  0
LINE
  5
10B
330
1F
100
AcDbEntity
  8
0
  6
CONTINUOUS
 62
     7
100
AcDbLine
 10
2.5490770483
 20
3.364977499
 30
0.0
 11
2.5490770483
 21
3.2763948218
 31
0.0
  0
ARC
  5
10C
330
1F
100
AcDbEntity
  8
0
  6
CONTINUOUS
 62
     7
100
AcDbCircle
 10
2.9132502766
 20
3.2763948218
 30
0.0
 40
0.4625984251968508
100
AcDbArc
 50
180.0
 51
358.780848866
  0
ARC
  5
10D
330
1F
100
AcDbEntity
  8
0
  6
CONTINUOUS
 62
     7
100
AcDbCircle
 10
2.9132502766
 20
3.2763948218
 30
0.0
 40
0.3641732283464569
100
AcDbArc
 50
180.0
 51
358.4512768328
  0
LINE
  5
10E
330
1F
100
AcDbEntity
  8
0
  6
CONTINUOUS
 62
     7
100
AcDbLine
 10
2.4506518514
 20
4.240961751
 30
0.0
 11
2.4506518514
 21
4.1523790738
 31
0.0
  0
LINE
  5
10F
330
1F
100
AcDbEntity
  8
0
  6
CONTINUOUS
 62
     7
100
AcDbLine
 10
2.5490770483
 20
4.240961751
 30
0.0
 11
2.5490770483
 21
4.1523790738
 31
0.0
  0
ARC
  5
110
330
1F
100
AcDbEntity
  8
0
  6
CONTINUOUS
 62
     7
100
AcDbCircle
 10
2.9132502766
 20
4.240961751
 30
0.0
 40
0.4625984251968503
100
AcDbArc
 50
1.219151134
 51
180.0
  0
ARC
  5
111
330
1F
100
AcDbEntity
  8
0
  6
CONTINUOUS
 62
     7
100
AcDbCircle
 10
2.9132502766
 20
4.240961751
 30
0.0
 40
0.3641732283464569
100
AcDbArc
 50
1.5487231672
 51
180.0
  0
CIRCLE
  5
112
330
1F
100
AcDbEntity
  8
0
  6
HIDDEN
 62
     7
100
AcDbCircle
 10
3.9663998829
 20
3.7586782864
 30
0.0
 40
0.068740157480315
  0
LINE
  5
113
330
1F
100
AcDbEntity
  8
0
  6
HIDDEN
 62
     7
100
AcDbLine
 10
4.0451400404
 20
3.7586782864
 30
0.0
 11
4.0449230475
 21
3.7528366243
 31
0.0
  0
POLYLINE
  5
114
330
1F
100
AcDbEntity
  8
0
  6
HIDDEN
 62
     7
100
AcDb2dPolyline
 66
     1
 10
0.0
 20
0.0
 30
0.0
  0
VERTEX
  5
310
330
114
100
AcDbEntity
  8
0
  6
HIDDEN
 62
     7
100
AcDbVertex
100
AcDb2dVertex
 10
3.8877888321
 20
3.7541710595
 30
0.0
  0
VERTEX
  5
311
330
114
100
AcDbEntity
  8
0
  6
HIDDEN
 62
     7
100
AcDbVertex
100
AcDb2dVertex
 10
3.8879433878
 20
3.7653559182
 30
0.0
  0
VERTEX
  5
312
330
114
100
AcDbEntity
  8
0
  6
HIDDEN
 62
     7
100
AcDbVertex
100
AcDb2dVertex
 10
3.8884572119
 20
3.769856499
 30
0.0
  0
SEQEND
  5
313
330
114
100
AcDbEntity
  8
0
  6
HIDDEN
 62
     7
  0
LINE
  5
115
330
1F
100
AcDbEntity
  8
0
  6
HIDDEN
 62
     7
100
AcDbLine
 10
4.0440403002
 20
3.771792325
 30
0.0
 11
4.0451400404
 21
3.7586782864
 31
0.0
  0
LINE
  5
116
330
1F
100
AcDbEntity
  8
0
  6
HIDDEN
 62
     7
100
AcDbLine
 10
4.0057699617
 20
3.781408612
 30
0.0
 11
4.0057699617
 21
3.7359479608
 31
0.0
  0
LINE
  5
117
330
1F
100
AcDbEntity
  8
0
  6
HIDDEN
 62
     7
100
AcDbLine
 10
4.0057699617
 20
3.7359479608
 30
0.0
 11
3.9663998829
 21
3.7132176353
 31
0.0
  0
LINE
  5
118
330
1F
100
AcDbEntity
  8
0
  6
HIDDEN
 62
     7
100
AcDbLine
 10
3.9270298042
 20
3.7359479608
 30
0.0
 11
3.9270298042
 21
3.781408612
 31
0.0
  0
LINE
  5
119
330
1F
100
AcDbEntity
  8
0
  6
HIDDEN
 62
     7
100
AcDbLine
 10
3.9663998829
 20
3.7132176353
 30
0.0
 11
3.9270298042
 21
3.7359479608
 31
0.0
  0
LINE
  5
11A
330
1F
100
AcDbEntity
  8
0
  6
HIDDEN
 62
     7
100
AcDbLine
 10
3.9270298042
 20
3.781408612
 30
0.0
 11
3.9663998829
 21
3.8041389375
 31
0.0
  0
LINE
  5
11B
330
1F
100
AcDbEntity
  8
0
  6
HIDDEN
 62
     7
100
AcDbLine
 10
3.9663998829
 20
3.8041389375
 30
0.0
 11
4.0057699617
 21
3.781408612
 31
0.0
  0
CIRCLE
  5
11C
330
1F
100
AcDbEntity
  8
0
  6
HIDDEN
 62
     7
100
AcDbCircle
 10
2.6868723239
 20
3.7586782864
 30
0.0
 40
0.068740157480315
  0
LINE
  5
11D
330
1F
100
AcDbEntity
  8
0
  6
HIDDEN
 62
     7
100
AcDbLine
 10
2.6475022451
 20
3.781408612
 30
0.0
 11
2.6475022451
 21
3.7359479608
 31
0.0
  0
LINE
  5
11E
330
1F
100
AcDbEntity
  8
0
  6
HIDDEN
 62
     7
100
AcDbLine
 10
2.7262424026
 20
3.7359479608
 30
0.0
 11
2.7262424026
 21
3.781408612
 31
0.0
  0
LINE
  5
11F
330
1F
100
AcDbEntity
  8
0
  6
HIDDEN
 62
     7
100
AcDbLine
 10
2.7262424026
 20
3.781408612
 30
0.0
 11
2.6868723239
 21
3.8041389375
 31
0.0
  0
LINE
  5
120
330
1F
100
AcDbEntity
  8
0
  6
HIDDEN
 62
     7
100
AcDbLine
 10
2.6475022451
 20
3.7359479608
 30
0.0
 11
2.6868723239
 21
3.7132176353
 31
0.0
  0
LINE
  5
121
330
1F
100
AcDbEntity
  8
0
  6
HIDDEN
 62
     7
100
AcDbLine
 10
2.6868723239
 20
3.8041389375
 30
0.0
 11
2.6475022451
 21
3.781408612
 31
0.0
  0
LINE
  5
122
330
1F
100
AcDbEntity
  8
0
  6
HIDDEN
 62
     7
100
AcDbLine
 10
2.6868723239
 20
3.7132176353
 30
0.0
 11
2.7262424026
 21
3.7359479608
 31
0.0
  0
LINE
  5
123
330
1F
100
AcDbEntity
  8
0
  6
HIDDEN
 62
     7
100
AcDbLine
 10
4.0451400404
 20
4.2408042706
 30
0.0
 11
3.8876597254
 21
4.2408042706
 31
0.0
  0
LINE
  5
124
330
1F
100
AcDbEntity
  8
0
  6
HIDDEN
 62
     7
100
AcDbLine
 10
3.8876597254
 20
3.8867885226
 30
0.0
 11
4.0451400404
 21
3.8867885226
 31
0.0
  0
LINE
  5
125
330
1F
100
AcDbEntity
  8
0
  6
HIDDEN
 62
     7
100
AcDbLine
 10
4.0351400404
 20
3.8767885226
 30
0.0
 11
3.8976597254
 21
3.8767885226
 31
0.0
  0
LINE
  5
126
330
1F
100
AcDbEntity
  8
0
  6
HIDDEN
 62
     7
100
AcDbLine
 10
3.9663998829
 20
4.1523790738
 30
0.0
 11
3.9663998829
 21
4.2508042706
 31
0.0
  0
LINE
  5
127
330
1F
100
AcDbEntity
  8
0
  6
HIDDEN
 62
     7
100
AcDbLine
 10
3.9663998829
 20
4.1523790738
 30
0.0
 11
4.0057699617
 21
4.1523790738
 31
0.0
  0
LINE
  5
128
330
1F
100
AcDbEntity
  8
0
  6
HIDDEN
 62
     7
100
AcDbLine
 10
3.9270298042
 20
4.1523790738
 30
0.0
 11
3.9663998829
 21
4.1523790738
 31
0.0
  0
LINE
  5
129
330
1F
100
AcDbEntity
  8
0
  6
HIDDEN
 62
     7
100
AcDbLine
 10
3.9270298042
 20
4.1523790738
 30
0.0
 11
3.9270298042
 21
4.2508042706
 31
0.0
  0
LINE
  5
12A
330
1F
100
AcDbEntity
  8
0
  6
HIDDEN
 62
     7
100
AcDbLine
 10
4.0057699617
 20
4.1523790738
 30
0.0
 11
4.0057699617
 21
4.2508042706
 31
0.0
  0
LINE
  5
12B
330
1F
100
AcDbEntity
  8
0
  6
HIDDEN
 62
     7
100
AcDbLine
 10
2.6081321664
 20
4.2408042706
 30
0.0
 11
2.7656124813
 21
4.2408042706
 31
0.0
  0
LINE
  5
12C
330
1F
100
AcDbEntity
  8
0
  6
HIDDEN
 62
     7
100
AcDbLine
 10
2.7656124813
 20
3.8867885226
 30
0.0
 11
2.6081321664
 21
3.8867885226
 31
0.0
  0
LINE
  5
12D
330
1F
100
AcDbEntity
  8
0
  6
HIDDEN
 62
     7
100
AcDbLine
 10
2.6181321664
 20
3.8767885226
 30
0.0
 11
2.7556124813
 21
3.8767885226
 31
0.0
  0
LINE
  5
12E
330
1F
100
AcDbEntity
  8
0
  6
HIDDEN
 62
     7
100
AcDbLine
 10
2.6868723239
 20
4.1523790738
 30
0.0
 11
2.6868723239
 21
4.2508042706
 31
0.0
  0
LINE
  5
12F
330
1F
100
AcDbEntity
  8
0
  6
HIDDEN
 62
     7
100
AcDbLine
 10
2.6868723239
 20
4.1523790738
 30
0.0
 11
2.6475022451
 21
4.1523790738
 31
0.0
  0
LINE
  5
130
330
1F
100
AcDbEntity
  8
0
  6
HIDDEN
 62
     7
100
AcDbLine
 10
2.7262424026
 20
4.1523790738
 30
0.0
 11
2.6868723239
 21
4.1523790738
 31
0.0
  0
LINE
  5
131
330
1F
100
AcDbEntity
  8
0
  6
HIDDEN
 62
     7
100
AcDbLine
 10
2.7262424026
 20
4.1523790738
 30
0.0
 11
2.7262424026
 21
4.2508042706
 31
0.0
  0
LINE
  5
132
330
1F
100
AcDbEntity
  8
0
  6
HIDDEN
 62
     7
100
AcDbLine
 10
2.6475022451
 20
4.1523790738
 30
0.0
 11
2.6475022451
 21
4.2508042706
 31
0.0
  0
LINE
  5
133
330
1F
100
AcDbEntity
  8
0
  6
HIDDEN
 62
     7
100
AcDbLine
 10
3.3758487018
 20
4.0542000939
 30
0.0
 11
3.3758487018
 21
3.4631564789
 31
0.0
  0
LINE
  5
134
330
1F
100
AcDbEntity
  8
0
  6
HIDDEN
 62
     7
100
AcDbLine
 10
4.1041951585
 20
3.660746452
 30
0.0
 11
4.1041951585
 21
3.4634026958
 31
0.0
  0
SPLINE
  5
135
330
1F
100
AcDbEntity
  8
0
  6
HIDDEN
 62
     7
100
AcDbSpline
210
0.0
220
0.0
230
1.0
 70
     8
 71
     3
 72
    12
 73
     8
 74
     0
 42
0.00000001
 43
0.00000001
 40
0.0
 40
0.0
 40
0.0
 40
0.0
 40
0.5
 40
0.5
 40
0.75
 40
0.75
 40
1.0
 40
1.0
 40
1.0
 40
1.0
 10
4.104195158502663
 20
3.856610120752935
 30
0.0
 10
4.104195158502663
 20
3.824142195749662
 30
0.0
 10
4.104062511707781
 20
3.79156799978068
 30
0.0
 10
4.104061936797194
 20
3.74255368028683
 30
0.0
 10
4.104086489218091
 20
3.72618987514051
 30
0.0
 10
4.104153071462384
 20
3.693409605092545
 30
0.0
 10
4.104195158502663
 20
3.676980460278353
 30
0.0
 10
4.104195158502663
 20
3.660746452031159
 30
0.0
  0
LINE
  5
136
330
1F
100
AcDbEntity
  8
0
  6
HIDDEN
 62
     7
100
AcDbLine
 10
4.1041951585
 20
4.0539538769
 30
0.0
 11
4.1041951585
 21
3.8566101208
 31
0.0
  0
SPLINE
  5
137
330
1F
100
AcDbEntity
  8
0
  6
HIDDEN
 62
     7
100
AcDbSpline
210
0.0
220
0.0
230
1.0
 70
     8
 71
     3
 72
    12
 73
     8
 74
     0
 42
0.00000001
 43
0.00000001
 40
0.0
 40
0.0
 40
0.0
 40
0.0
 40
0.0001601014040683
 40
0.2476661003809292
 40
0.4982844601222501
 40
0.750128996253625
 40
0.9999999999999999
 40
0.9999999999999999
 40
0.9999999999999999
 40
0.9999999999999999
 10
4.030915520422761
 20
4.246360306676626
 30
0.0
 10
4.030918496407704
 20
4.246360673762949
 30
0.0
 10
4.035522144889087
 20
4.246928531606445
 30
0.0
 10
4.042566102651232
 20
4.248115817569575
 30
0.0
 10
4.051167696461813
 20
4.249579082144296
 30
0.0
 10
4.056638883032739
 20
4.250605200056358
 30
0.0
 10
4.057324699708443
 20
4.250738073203924
 30
0.0
 10
4.057666259192898
 20
4.250804248444901
 30
0.0
  0
SPLINE
  5
138
330
1F
100
AcDbEntity
  8
0
  6
HIDDEN
 62
     7
100
AcDbSpline
210
0.0
220
0.0
230
1.0
 70
     8
 71
     3
 72
    39
 73
    35
 74
     0
 42
0.00000001
 43
0.00000001
 40
-0.0947295368806231
 40
-0.0631220562492711
 40
-0.0313700572331257
 40
0.0
 40
0.0313857668472635
 40
0.0631300926508279
 40
0.0947107913187706
 40
0.1258915232101526
 40
0.1569025400535614
 40
0.1880875961666461
 40
0.2192248879165349
 40
0.2499114061504757
 40
0.280581482774015
 40
0.3117983423887365
 40
0.3430159418757653
 40
0.3740900329697699
 40
0.4052589495815493
 40
0.4368198118972478
 40
0.4685350890143775
 40
0.5000039184998271
 40
0.5314470500522962
 40
0.5632087383002649
 40
0.5947532424807448
 40
0.6259576707116051
 40
0.6569904382090348
 40
0.6882209229808259
 40
0.7193642321976382
 40
0.7500710465313414
 40
0.7807116163385711
 40
0.8119054237466128
 40
0.8430770819441158
 40
0.8741231018598044
 40
0.9052704631193769
 40
0.9368779437507289
 40
0.9686299427668743
 40
1.0
 40
1.031385766847263
 40
1.063130092650828
 40
1.094710791318771
 10
3.876313622560714
 20
3.776981577164028
 30
0.0
 10
3.874545738886201
 20
3.758675058171874
 30
0.0
 10
3.876317632633718
 20
3.74037114164874
 30
0.0
 10
3.881653524231166
 20
3.722763119925458
 30
0.0
 10
3.890065197542116
 20
3.706484654902949
 30
0.0
 10
3.901430063266791
 20
3.692313875961941
 30
0.0
 10
3.915275264298239
 20
3.680669974842766
 30
0.0
 10
3.931198355063786
 20
3.6720627304148
 30
0.0
 10
3.948425340146556
 20
3.666596934678787
 30
0.0
 10
3.966344196272556
 20
3.664785561623471
 30
0.0
 10
3.98427797034357
 20
3.66659619323597
 30
0.0
 10
4.001525792359249
 20
3.672056048774986
 30
0.0
 10
4.01749022262498
 20
3.680658353813898
 30
0.0
 10
4.031358026657703
 20
3.692301818677151
 30
0.0
 10
4.042740146121919
 20
3.706466084491167
 30
0.0
 10
4.051160130448166
 20
3.722727984959942
 30
0.0
 10
4.056493001153754
 20
3.740344945620567
 30
0.0
 10
4.058251726914478
 20
3.758674646434636
 30
0.0
 10
4.056487834388854
 20
3.777012525715388
 30
0.0
 10
4.051152303385334
 20
3.794629709325277
 30
0.0
 10
4.042727652741191
 20
3.810902983800896
 30
0.0
 10
4.0313484679179
 20
3.825064655468941
 30
0.0
 10
4.01747986813097
 20
3.836708461288778
 30
0.0
 10
4.001532940498802
 20
3.845302990356862
 30
0.0
 10
3.984288531329791
 20
3.850756293569429
 30
0.0
 10
3.966371525501526
 20
3.852570550238603
 30
0.0
 10
3.948442799011897
 20
3.850765752548898
 30
0.0
 10
3.931215932070172
 20
3.845299847822609
 30
0.0
 10
3.915276985616837
 20
3.836690751661453
 30
0.0
 10
3.901433818774573
 20
3.825046877836534
 30
0.0
 10
3.8900676507511
 20
3.810870359226256
 30
0.0
 10
3.881658730421224
 20
3.794590644980316
 30
0.0
 10
3.876313622560714
 20
3.776981577164028
 30
0.0
 10
3.874545738886201
 20
3.758675058171874
 30
0.0
 10
3.876317632633718
 20
3.74037114164874
 30
0.0
  0
LINE
  5
139
330
1F
100
AcDbEntity
  8
0
  6
HIDDEN
 62
     7
100
AcDbLine
 10
3.8035519367
 20
4.0539538769
 30
0.0
 11
3.8035519367
 21
3.4634026958
 31
0.0
  0
LINE
  5
13A
330
1F
100
AcDbEntity
  8
0
  6
HIDDEN
 62
     7
100
AcDbLine
 10
3.7838668974
 20
3.4634026958
 30
0.0
 11
3.7838668974
 21
4.0539538769
 31
0.0
  0
SPLINE
  5
13B
330
1F
100
AcDbEntity
  8
0
  6
HIDDEN
 62
     7
100
AcDbSpline
210
0.0
220
0.0
230
1.0
 70
     8
 71
     3
 72
    12
 73
     8
 74
     0
 42
0.00000001
 43
0.00000001
 40
0.0
 40
0.0
 40
0.0
 40
0.0
 40
0.0001601014039909
 40
0.2476661003796836
 40
0.4982844601221477
 40
0.7501289962536383
 40
1.0
 40
1.0
 40
1.0
 40
1.0
 10
2.751387961367647
 20
4.246360306676626
 30
0.0
 10
2.751390937352589
 20
4.246360673762949
 30
0.0
 10
2.755994585833855
 20
4.246928531606451
 30
0.0
 10
2.763038543596119
 20
4.24811581756957
 30
0.0
 10
2.771640137406669
 20
4.249579082144296
 30
0.0
 10
2.777111323977675
 20
4.250605200056357
 30
0.0
 10
2.777797140653342
 20
4.250738073203924
 30
0.0
 10
2.77813870013778
 20
4.250804248444902
 30
0.0
  0
SPLINE
  5
13C
330
1F
100
AcDbEntity
  8
0
  6
HIDDEN
 62
     7
100
AcDbSpline
210
0.0
220
0.0
230
1.0
 70
     8
 71
     3
 72
    39
 73
    35
 74
     0
 42
0.00000001
 43
0.00000001
 40
-0.0947295368802905
 40
-0.0631220562492545
 40
-0.0313700572326805
 40
0.0
 40
0.0313857668474861
 40
0.0631300926508364
 40
0.0947107913188805
 40
0.1258915232101487
 40
0.1569025400536368
 40
0.1880875961666538
 40
0.2192248879167151
 40
0.2499114061504756
 40
0.2805814827741352
 40
0.3117983423887414
 40
0.3430159418757787
 40
0.3740900329697661
 40
0.4052589495812894
 40
0.4368198118972424
 40
0.46853508901454
 40
0.5000039184998386
 40
0.5314470500523101
 40
0.5632087383002535
 40
0.5947532424805622
 40
0.6259576707116088
 40
0.6569904382087917
 40
0.6882209229808114
 40
0.7193642321972941
 40
0.7500710465313415
 40
0.7807116163387211
 40
0.811905423746619
 40
0.8430770819441601
 40
0.8741231018598006
 40
0.9052704631197095
 40
0.9368779437507455
 40
0.9686299427673195
 40
1.0
 40
1.031385766847486
 40
1.063130092650836
 40
1.09471079131888
 10
2.596786063505653
 20
3.776981577163929
 30
0.0
 10
2.595018179831076
 20
3.758675058171748
 30
0.0
 10
2.596790073578575
 20
3.74037114164869
 30
0.0
 10
2.602125965176068
 20
3.722763119925397
 30
0.0
 10
2.610537638487058
 20
3.706484654902961
 30
0.0
 10
2.621902504211695
 20
3.692313875961916
 30
0.0
 10
2.635747705243104
 20
3.680669974842715
 30
0.0
 10
2.651670796008713
 20
3.672062730414783
 30
0.0
 10
2.668897781091479
 20
3.666596934678811
 30
0.0
 10
2.686816637217494
 20
3.664785561623469
 30
0.0
 10
2.704750411288478
 20
3.666596193235956
 30
0.0
 10
2.721998233304157
 20
3.672056048774993
 30
0.0
 10
2.737962663569839
 20
3.680658353813935
 30
0.0
 10
2.751830467602557
 20
3.692301818677112
 30
0.0
 10
2.76321258706677
 20
3.706466084491129
 30
0.0
 10
2.771632571393031
 20
3.722727984959928
 30
0.0
 10
2.77696544209872
 20
3.740344945620581
 30
0.0
 10
2.778724167859364
 20
3.758674646434673
 30
0.0
 10
2.776960275333631
 20
3.77701252571537
 30
0.0
 10
2.771624744330235
 20
3.794629709325249
 30
0.0
 10
2.763200093686147
 20
3.810902983800902
 30
0.0
 10
2.751820908862839
 20
3.825064655468887
 30
0.0
 10
2.737952309075845
 20
3.836708461288686
 30
0.0
 10
2.722005381443789
 20
3.84530299035682
 30
0.0
 10
2.70476097227475
 20
3.850756293569479
 30
0.0
 10
2.686843966446445
 20
3.85257055023859
 30
0.0
 10
2.668915239956745
 20
3.850765752548924
 30
0.0
 10
2.651688373015018
 20
3.845299847822595
 30
0.0
 10
2.635749426561734
 20
3.836690751661413
 30
0.0
 10
2.621906259719412
 20
3.825046877836479
 30
0.0
 10
2.610540091695864
 20
3.810870359226255
 30
0.0
 10
2.602131171366053
 20
3.794590644980176
 30
0.0
 10
2.596786063505653
 20
3.776981577163929
 30
0.0
 10
2.595018179831076
 20
3.758675058171748
 30
0.0
 10
2.596790073578575
 20
3.74037114164869
 30
0.0
  0
SPLINE
  5
13D
330
1F
100
AcDbEntity
  8
0
  6
HIDDEN
 62
     7
100
AcDbSpline
210
0.0
220
0.0
230
1.0
 70
     8
 71
     3
 72
    60
 73
    56
 74
     0
 42
0.00000001
 43
0.00000001
 40
-0.0312500000000001
 40
-0.0312500000000001
 40
0.0
 40
0.0
 40
0.0312499999999999
 40
0.0312499999999999
 40
0.0624999999999998
 40
0.0624999999999998
 40
0.1249999999999996
 40
0.1249999999999996
 40
0.1562499999999995
 40
0.1562499999999995
 40
0.1874999999999994
 40
0.1874999999999994
 40
0.2187499999999993
 40
0.2187499999999993
 40
0.2499999999999992
 40
0.2499999999999992
 40
0.3124999999999991
 40
0.3124999999999991
 40
0.3749999999999989
 40
0.3749999999999989
 40
0.4062499999999989
 40
0.4062499999999989
 40
0.437499999999999
 40
0.437499999999999
 40
0.4687499999999991
 40
0.4687499999999991
 40
0.4999999999999991
 40
0.4999999999999991
 40
0.5312499999999991
 40
0.5312499999999991
 40
0.5624999999999991
 40
0.5624999999999991
 40
0.6249999999999992
 40
0.6249999999999992
 40
0.6562499999999994
 40
0.6562499999999994
 40
0.6874999999999996
 40
0.6874999999999996
 40
0.7187499999999997
 40
0.7187499999999997
 40
0.7499999999999999
 40
0.7499999999999999
 40
0.7812500000000001
 40
0.7812500000000001
 40
0.8125000000000002
 40
0.8125000000000002
 40
0.8749999999999998
 40
0.8749999999999998
 40
0.9062499999999998
 40
0.9062499999999998
 40
0.9374999999999998
 40
0.9374999999999998
 40
0.9687499999999999
 40
0.9687499999999999
 40
1.0
 40
1.0
 40
1.03125
 40
1.03125
 10
2.608132166376679
 20
3.764062394366029
 30
0.0
 10
2.608132166376679
 20
3.753294178418065
 30
0.0
 10
2.608678349229807
 20
3.748028889652576
 30
0.0
 10
2.610790987955486
 20
3.737717903610386
 30
0.0
 10
2.612385122201695
 20
3.732634093752535
 30
0.0
 10
2.618439628462792
 20
3.718385585766077
 30
0.0
 10
2.624262947259099
 20
3.709902418086556
 30
0.0
 10
2.63483930570002
 20
3.699371211238844
 30
0.0
 10
2.638733610643744
 20
3.696168285764881
 30
0.0
 10
2.646996695446175
 20
3.690599140193831
 30
0.0
 10
2.651377215595077
 20
3.688208746716569
 30
0.0
 10
2.660734008237176
 20
3.684229329454037
 30
0.0
 10
2.665755848762377
 20
3.682641885795324
 30
0.0
 10
2.676011868870407
 20
3.680515058121899
 30
0.0
 10
2.681379973838154
 20
3.67994866146505
 30
0.0
 10
2.697397625921772
 20
3.679917510520606
 30
0.0
 10
2.707948171034904
 20
3.682124367255423
 30
0.0
 10
2.72681260857674
 20
3.690052726095981
 30
0.0
 10
2.735203484946292
 20
3.695714893123653
 30
0.0
 10
2.745869592215902
 20
3.706291225659128
 30
0.0
 10
2.749059208403219
 20
3.710118211374257
 30
0.0
 10
2.754730236211044
 20
3.718421694059248
 30
0.0
 10
2.757234788129812
 20
3.722957313145453
 30
0.0
 10
2.761309258083678
 20
3.732486548550512
 30
0.0
 10
2.762884263608883
 20
3.737456256021315
 30
0.0
 10
2.765044880800538
 20
3.747850502740282
 30
0.0
 10
2.765600961061967
 20
3.753205062125826
 30
0.0
 10
2.765623641785369
 20
3.763814863517393
 30
0.0
 10
2.765085516710327
 20
3.769202888045647
 30
0.0
 10
2.762971148077654
 20
3.779583781567067
 30
0.0
 10
2.76141531646054
 20
3.784573683542019
 30
0.0
 10
2.755313257964699
 20
3.798986085857893
 30
0.0
 10
2.749488160050834
 20
3.807450774146573
 30
0.0
 10
2.738883950442586
 20
3.818005132136147
 30
0.0
 10
2.735053331385667
 20
3.821158393041058
 30
0.0
 10
2.726735577633509
 20
3.82676715634668
 30
0.0
 10
2.722262902361871
 20
3.829200658566945
 30
0.0
 10
2.712892905405582
 20
3.833168737860393
 30
0.0
 10
2.707900104704973
 20
3.834742232936305
 30
0.0
 10
2.697556287095258
 20
3.836868723536252
 30
0.0
 10
2.692285166228419
 20
3.837416276999463
 30
0.0
 10
2.681522708750913
 20
3.837420598052603
 30
0.0
 10
2.676205507689045
 20
3.836869723384325
 30
0.0
 10
2.665899682181976
 20
3.834756076102642
 30
0.0
 10
2.660872970985353
 20
3.833176184255831
 30
0.0
 10
2.646814929021803
 20
3.82722739625068
 30
0.0
 10
2.638406353974287
 20
3.821529693640985
 30
0.0
 10
2.627812101094864
 20
3.810991877310345
 30
0.0
 10
2.62455955300274
 20
3.807079110702698
 30
0.0
 10
2.618886501297308
 20
3.798721377386226
 30
0.0
 10
2.616451069252348
 20
3.794278398045948
 30
0.0
 10
2.612414875224434
 20
3.784805080933136
 30
0.0
 10
2.610807982787638
 20
3.779704718384959
 30
0.0
 10
2.608681591571891
 20
3.769360243581023
 30
0.0
 10
2.608132166376679
 20
3.764062394366029
 30
0.0
 10
2.608132166376679
 20
3.753294178418065
 30
0.0
  0
LINE
  5
13E
330
1F
100
AcDbEntity
  8
0
  6
HIDDEN
 62
     7
100
AcDbLine
 10
2.6868723239
 20
3.8467124587
 30
0.0
 11
2.6902172057
 21
3.846925665
 31
0.0
  0
SPLINE
  5
13F
330
1F
100
AcDbEntity
  8
0
  6
HIDDEN
 62
     7
100
AcDbSpline
210
0.0
220
0.0
230
1.0
 70
     8
 71
     3
 72
    22
 73
    18
 74
     0
 42
0.00000001
 43
0.00000001
 40
0.0
 40
0.0
 40
0.0
 40
0.0
 40
0.0058378966338978
 40
0.0945339105770796
 40
0.1829646446770399
 40
0.2831126823163499
 40
0.3402260297362946
 40
0.3991085406163585
 40
0.4816045476325446
 40
0.5643766109508689
 40
0.6432677606975974
 40
0.7380071481414696
 40
0.7950146990270113
 40
0.8537347571723486
 40
0.9468317518683189
 40
0.9929476712212616
 40
1.0
 40
1.0
 40
1.0
 40
1.0
 10
2.765497308630295
 20
3.876711969676657
 30
0.0
 10
2.7655340291444
 20
3.876736382423263
 30
0.0
 10
2.766128649778259
 20
3.877131701585157
 30
0.0
 10
2.762676257927598
 20
3.874814989195809
 30
0.0
 10
2.752986904299788
 20
3.86863312336478
 30
0.0
 10
2.739532047050011
 20
3.860980384290391
 30
0.0
 10
2.725229604126775
 20
3.85449099841818
 30
0.0
 10
2.71044064783891
 20
3.849342905520804
 30
0.0
 10
2.69165430336805
 20
3.845954031452101
 30
0.0
 10
2.670518615022486
 20
3.847475520670693
 30
0.0
 10
2.650448537995758
 20
3.853405482257042
 30
0.0
 10
2.635168765281829
 20
3.860570918266461
 30
0.0
 10
2.623849137069932
 20
3.866872248654816
 30
0.0
 10
2.614735781693774
 20
3.872427157950389
 30
0.0
 10
2.609625983317933
 20
3.875793020093962
 30
0.0
 10
2.607926605315233
 20
3.876925229046083
 30
0.0
 10
2.608212739322874
 20
3.876734912660397
 30
0.0
 10
2.608250692634627
 20
3.876709668764445
 30
0.0
  0
LINE
  5
140
330
1F
100
AcDbEntity
  8
0
  6
HIDDEN
 62
     7
100
AcDbLine
 10
2.6766434892
 20
3.8478153176
 30
0.0
 11
2.6868723239
 21
3.8467124587
 31
0.0
  0
LINE
  5
141
330
1F
100
AcDbEntity
  8
0
  6
HIDDEN
 62
     7
100
AcDbLine
 10
3.9663998829
 20
3.8467124587
 30
0.0
 11
3.9697447648
 21
3.846925665
 31
0.0
  0
SPLINE
  5
142
330
1F
100
AcDbEntity
  8
0
  6
HIDDEN
 62
     7
100
AcDbSpline
210
0.0
220
0.0
230
1.0
 70
     8
 71
     3
 72
    22
 73
    18
 74
     0
 42
0.00000001
 43
0.00000001
 40
0.0
 40
0.0
 40
0.0
 40
0.0
 40
0.0058378966338971
 40
0.094533910577079
 40
0.1829646446770392
 40
0.2831126823163496
 40
0.3402260297362941
 40
0.3991085406163583
 40
0.4816045476325441
 40
0.5643766109508683
 40
0.6432677606975968
 40
0.7380071481414686
 40
0.7950146990270105
 40
0.8537347571723478
 40
0.9468317518683185
 40
0.9929476712212614
 40
1.0
 40
1.0
 40
1.0
 40
1.0
 10
4.045024867685413
 20
3.876711969676657
 30
0.0
 10
4.045061588199519
 20
3.876736382423263
 30
0.0
 10
4.045656208833378
 20
3.877131701585157
 30
0.0
 10
4.042203816982716
 20
3.874814989195809
 30
0.0
 10
4.032514463354907
 20
3.86863312336478
 30
0.0
 10
4.019059606105129
 20
3.860980384290391
 30
0.0
 10
4.004757163181892
 20
3.85449099841818
 30
0.0
 10
3.989968206894028
 20
3.849342905520804
 30
0.0
 10
3.971181862423168
 20
3.845954031452101
 30
0.0
 10
3.950046174077605
 20
3.847475520670693
 30
0.0
 10
3.929976097050876
 20
3.853405482257042
 30
0.0
 10
3.914696324336947
 20
3.860570918266461
 30
0.0
 10
3.903376696125051
 20
3.866872248654816
 30
0.0
 10
3.894263340748892
 20
3.872427157950389
 30
0.0
 10
3.889153542373051
 20
3.875793020093962
 30
0.0
 10
3.887454164370351
 20
3.876925229046083
 30
0.0
 10
3.887740298377993
 20
3.876734912660397
 30
0.0
 10
3.887778251689745
 20
3.876709668764445
 30
0.0
  0
LINE
  5
143
330
1F
100
AcDbEntity
  8
0
  6
HIDDEN
 62
     7
100
AcDbLine
 10
3.9561710483
 20
3.8478153176
 30
0.0
 11
3.9663998829
 21
3.8467124587
 31
0.0
  0
SPLINE
  5
144
330
1F
100
AcDbEntity
  8
0
  6
HIDDEN
 62
     7
100
AcDbSpline
210
0.0
220
0.0
230
1.0
 70
     8
 71
     3
 72
    60
 73
    56
 74
     0
 42
0.00000001
 43
0.00000001
 40
-0.0312500000000001
 40
-0.0312500000000001
 40
0.0
 40
0.0
 40
0.03125
 40
0.03125
 40
0.0625
 40
0.0625
 40
0.1249999999999999
 40
0.1249999999999999
 40
0.15625
 40
0.15625
 40
0.1875000000000002
 40
0.1875000000000002
 40
0.2187500000000003
 40
0.2187500000000003
 40
0.2500000000000004
 40
0.2500000000000004
 40
0.3125000000000007
 40
0.3125000000000007
 40
0.3750000000000009
 40
0.3750000000000009
 40
0.4062500000000008
 40
0.4062500000000008
 40
0.4375000000000007
 40
0.4375000000000007
 40
0.4687500000000006
 40
0.4687500000000006
 40
0.5000000000000004
 40
0.5000000000000004
 40
0.5312500000000003
 40
0.5312500000000003
 40
0.5625000000000002
 40
0.5625000000000002
 40
0.6249999999999999
 40
0.6249999999999999
 40
0.6562499999999998
 40
0.6562499999999998
 40
0.6874999999999997
 40
0.6874999999999997
 40
0.7187499999999996
 40
0.7187499999999996
 40
0.7499999999999994
 40
0.7499999999999994
 40
0.7812499999999993
 40
0.7812499999999993
 40
0.8124999999999992
 40
0.8124999999999992
 40
0.8749999999999993
 40
0.8749999999999993
 40
0.9062499999999994
 40
0.9062499999999994
 40
0.9374999999999997
 40
0.9374999999999997
 40
0.9687499999999999
 40
0.9687499999999999
 40
1.0
 40
1.0
 40
1.03125
 40
1.03125
 10
3.887659725431797
 20
3.764062394366029
 30
0.0
 10
3.887659725431797
 20
3.753294178418065
 30
0.0
 10
3.888205908284925
 20
3.748028889652576
 30
0.0
 10
3.890318547010604
 20
3.737717903610386
 30
0.0
 10
3.891912681256814
 20
3.732634093752535
 30
0.0
 10
3.89796718751791
 20
3.718385585766077
 30
0.0
 10
3.903790506314217
 20
3.709902418086556
 30
0.0
 10
3.914366864755138
 20
3.699371211238844
 30
0.0
 10
3.918261169698862
 20
3.696168285764881
 30
0.0
 10
3.926524254501293
 20
3.690599140193831
 30
0.0
 10
3.930904774650196
 20
3.688208746716568
 30
0.0
 10
3.940261567292294
 20
3.684229329454036
 30
0.0
 10
3.945283407817495
 20
3.682641885795323
 30
0.0
 10
3.955539427925524
 20
3.680515058121899
 30
0.0
 10
3.960907532893272
 20
3.679948661465049
 30
0.0
 10
3.976925184976889
 20
3.679917510520605
 30
0.0
 10
3.987475730090022
 20
3.682124367255422
 30
0.0
 10
4.006340167631858
 20
3.69005272609598
 30
0.0
 10
4.01473104400141
 20
3.695714893123652
 30
0.0
 10
4.02539715127102
 20
3.706291225659127
 30
0.0
 10
4.028586767458338
 20
3.710118211374256
 30
0.0
 10
4.034257795266162
 20
3.718421694059248
 30
0.0
 10
4.03676234718493
 20
3.722957313145453
 30
0.0
 10
4.040836817138797
 20
3.732486548550511
 30
0.0
 10
4.042411822664001
 20
3.737456256021315
 30
0.0
 10
4.044572439855656
 20
3.747850502740282
 30
0.0
 10
4.045128520117085
 20
3.753205062125825
 30
0.0
 10
4.045151200840488
 20
3.763814863517392
 30
0.0
 10
4.044613075765445
 20
3.769202888045647
 30
0.0
 10
4.042498707132773
 20
3.779583781567066
 30
0.0
 10
4.040942875515658
 20
3.784573683542019
 30
0.0
 10
4.034840817019818
 20
3.798986085857893
 30
0.0
 10
4.029015719105954
 20
3.807450774146572
 30
0.0
 10
4.018411509497705
 20
3.818005132136147
 30
0.0
 10
4.014580890440786
 20
3.821158393041057
 30
0.0
 10
4.006263136688628
 20
3.82676715634668
 30
0.0
 10
4.001790461416991
 20
3.829200658566945
 30
0.0
 10
3.992420464460701
 20
3.833168737860393
 30
0.0
 10
3.987427663760091
 20
3.834742232936305
 30
0.0
 10
3.977083846150377
 20
3.836868723536252
 30
0.0
 10
3.971812725283538
 20
3.837416276999463
 30
0.0
 10
3.961050267806032
 20
3.837420598052603
 30
0.0
 10
3.955733066744163
 20
3.836869723384325
 30
0.0
 10
3.945427241237095
 20
3.834756076102642
 30
0.0
 10
3.940400530040472
 20
3.833176184255831
 30
0.0
 10
3.926342488076921
 20
3.82722739625068
 30
0.0
 10
3.917933913029406
 20
3.821529693640985
 30
0.0
 10
3.907339660149982
 20
3.810991877310345
 30
0.0
 10
3.904087112057858
 20
3.807079110702698
 30
0.0
 10
3.898414060352426
 20
3.798721377386226
 30
0.0
 10
3.895978628307466
 20
3.794278398045948
 30
0.0
 10
3.891942434279552
 20
3.784805080933136
 30
0.0
 10
3.890335541842757
 20
3.779704718384959
 30
0.0
 10
3.888209150627008
 20
3.769360243581023
 30
0.0
 10
3.887659725431797
 20
3.764062394366029
 30
0.0
 10
3.887659725431797
 20
3.753294178418065
 30
0.0
  0
SPLINE
  5
145
330
1F
100
AcDbEntity
  8
0
  6
HIDDEN
 62
     7
100
AcDbSpline
210
0.0
220
0.0
230
1.0
 70
     8
 71
     3
 72
    24
 73
    20
 74
     0
 42
0.00000001
 43
0.00000001
 40
0.0
 40
0.0
 40
0.0
 40
0.0
 40
0.0510099405538289
 40
0.1096541374470341
 40
0.1759781410001356
 40
0.2500097149373713
 40
0.3245916281810771
 40
0.391070874371999
 40
0.4494734574645877
 40
0.4998440778610853
 40
0.5502562924319387
 40
0.6086988887547646
 40
0.675216542092995
 40
0.7498352510314766
 40
0.8240035916278189
 40
0.8903942955713381
 40
0.9490348042742507
 40
0.9999704905750864
 40
1.0
 40
1.0
 40
1.0
 40
1.0
 10
3.887659725431797
 20
4.240117802030379
 30
0.0
 10
3.887857783321568
 20
4.240057395333786
 30
0.0
 10
3.888283540866698
 20
4.239927541345742
 30
0.0
 10
3.892073978120122
 20
4.239038859140317
 30
0.0
 10
3.899192850774041
 20
4.237686646005901
 30
0.0
 10
3.910255334022425
 20
4.235767201677883
 30
0.0
 10
3.924234221128453
 20
4.233847450460423
 30
0.0
 10
3.939140361725841
 20
4.232468049625397
 30
0.0
 10
3.953212311495874
 20
4.231613399776461
 30
0.0
 10
3.966367369808813
 20
4.231283726440218
 30
0.0
 10
3.979526594639947
 20
4.231612682982835
 30
0.0
 10
3.993611488586354
 20
4.232466552459541
 30
0.0
 10
4.008528291687347
 20
4.233844351850763
 30
0.0
 10
4.022536782067155
 20
4.235766739058773
 30
0.0
 10
4.033576960925295
 20
4.237676302672083
 30
0.0
 10
4.040823240653355
 20
4.239064378068075
 30
0.0
 10
4.044232088377437
 20
4.239847260546022
 30
0.0
 10
4.045476382777943
 20
4.240208204471752
 30
0.0
 10
4.045139650749435
 20
4.240117697306205
 30
0.0
 10
4.045139455777782
 20
4.240117644901532
 30
0.0
  0
SPLINE
  5
146
330
1F
100
AcDbEntity
  8
0
  6
HIDDEN
 62
     7
100
AcDbSpline
210
0.0
220
0.0
230
1.0
 70
     8
 71
     3
 72
    24
 73
    20
 74
     0
 42
0.00000001
 43
0.00000001
 40
0.0
 40
0.0
 40
0.0
 40
0.0
 40
0.0510099405534927
 40
0.1096541374465856
 40
0.1759781409997972
 40
0.250009714937365
 40
0.3245916281819783
 40
0.3910708743732031
 40
0.4494734574654881
 40
0.4998440778610749
 40
0.5502562924333626
 40
0.6086988887566662
 40
0.6752165420944192
 40
0.7498352510314727
 40
0.824003591626966
 40
0.8903942955702011
 40
0.9490348042733974
 40
0.9999704905750878
 40
1.0
 40
1.0
 40
1.0
 40
1.0
 10
2.608132166376679
 20
4.240117802030379
 30
0.0
 10
2.608330224266447
 20
4.240057395333787
 30
0.0
 10
2.608755981811574
 20
4.239927541345742
 30
0.0
 10
2.612546419064971
 20
4.239038859140315
 30
0.0
 10
2.619665291718885
 20
4.2376866460059
 30
0.0
 10
2.630727774967331
 20
4.235767201677879
 30
0.0
 10
2.64470666207348
 20
4.233847450460411
 30
0.0
 10
2.65961280267096
 20
4.232468049625381
 30
0.0
 10
2.673684752440932
 20
4.231613399776444
 30
0.0
 10
2.686839810753888
 20
4.231283726440219
 30
0.0
 10
2.699999035585106
 20
4.231612682982851
 30
0.0
 10
2.71408392953161
 20
4.232466552459555
 30
0.0
 10
2.72900073263246
 20
4.233844351850771
 30
0.0
 10
2.743009223012051
 20
4.235766739058776
 30
0.0
 10
2.754049401870089
 20
4.237676302672098
 30
0.0
 10
2.761295681598122
 20
4.239064378068054
 30
0.0
 10
2.764704529322395
 20
4.239847260546106
 30
0.0
 10
2.765948823722649
 20
4.240208204471606
 30
0.0
 10
2.765612091694317
 20
4.240117697306205
 30
0.0
 10
2.765611896722663
 20
4.240117644901532
 30
0.0
  0
LINE
  5
147
330
1F
100
AcDbEntity
  8
0
  6
HIDDEN
 62
     7
100
AcDbLine
 10
3.2772904736
 20
3.2665523021
 30
0.0
 11
3.3757439823
 21
3.2665523021
 31
0.0
  0
LINE
  5
148
330
1F
100
AcDbEntity
  8
0
  6
HIDDEN
 62
     7
100
AcDbLine
 10
3.3757439823
 20
4.2508042706
 30
0.0
 11
3.2772904736
 21
4.2508042706
 31
0.0
  0
LINE
  5
149
330
1F
100
AcDbEntity
  8
0
  6
HIDDEN
 62
     7
100
AcDbLine
 10
4.0451400404
 20
4.2408042706
 30
0.0
 11
4.0384510732
 21
4.2474932378
 31
0.0
  0
LINE
  5
14A
330
1F
100
AcDbEntity
  8
0
  6
HIDDEN
 62
     7
100
AcDbLine
 10
3.8943500766
 20
4.2474946218
 30
0.0
 11
3.8876597254
 21
4.2408042706
 31
0.0
  0
LINE
  5
14B
330
1F
100
AcDbEntity
  8
0
  6
HIDDEN
 62
     7
100
AcDbLine
 10
4.0451400404
 20
3.8867885226
 30
0.0
 11
4.0451400404
 21
4.2408042706
 31
0.0
  0
LINE
  5
14C
330
1F
100
AcDbEntity
  8
0
  6
HIDDEN
 62
     7
100
AcDbLine
 10
3.8876597254
 20
4.2408042706
 30
0.0
 11
3.8876597254
 21
3.8867885226
 31
0.0
  0
LINE
  5
14D
330
1F
100
AcDbEntity
  8
0
  6
HIDDEN
 62
     7
100
AcDbLine
 10
3.8876597254
 20
3.8867885226
 30
0.0
 11
3.8976597254
 21
3.8767885226
 31
0.0
  0
LINE
  5
14E
330
1F
100
AcDbEntity
  8
0
  6
HIDDEN
 62
     7
100
AcDbLine
 10
4.0351400404
 20
3.8767885226
 30
0.0
 11
4.0451400404
 21
3.8867885226
 31
0.0
  0
LINE
  5
14F
330
1F
100
AcDbEntity
  8
0
  6
HIDDEN
 62
     7
100
AcDbLine
 10
2.7656124813
 20
4.2408042706
 30
0.0
 11
2.7589235141
 21
4.2474932378
 31
0.0
  0
LINE
  5
150
330
1F
100
AcDbEntity
  8
0
  6
HIDDEN
 62
     7
100
AcDbLine
 10
2.6148225175
 20
4.2474946218
 30
0.0
 11
2.6081321664
 21
4.2408042706
 31
0.0
  0
LINE
  5
151
330
1F
100
AcDbEntity
  8
0
  6
HIDDEN
 62
     7
100
AcDbLine
 10
2.7656124813
 20
3.8867885226
 30
0.0
 11
2.7656124813
 21
4.2408042706
 31
0.0
  0
LINE
  5
152
330
1F
100
AcDbEntity
  8
0
  6
HIDDEN
 62
     7
100
AcDbLine
 10
2.6081321664
 20
4.2408042706
 30
0.0
 11
2.6081321664
 21
3.8867885226
 31
0.0
  0
LINE
  5
153
330
1F
100
AcDbEntity
  8
0
  6
HIDDEN
 62
     7
100
AcDbLine
 10
2.6081321664
 20
3.8867885226
 30
0.0
 11
2.6181321664
 21
3.8767885226
 31
0.0
  0
LINE
  5
154
330
1F
100
AcDbEntity
  8
0
  6
HIDDEN
 62
     7
100
AcDbLine
 10
2.7556124813
 20
3.8767885226
 30
0.0
 11
2.7656124813
 21
3.8867885226
 31
0.0
  0
LINE
  5
155
330
1F
100
AcDbEntity
  8
0
  6
HIDDEN
 62
     7
100
AcDbLine
 10
2.5491982283
 20
3.2665523021
 30
0.0
 11
2.5492100796
 21
3.2665523021
 31
0.0
  0
LINE
  5
156
330
1F
100
AcDbEntity
  8
0
  6
HIDDEN
 62
     7
100
AcDbLine
 10
2.5492100796
 20
4.2508042706
 30
0.0
 11
2.5491969298
 21
4.2508042706
 31
0.0
  0
LINE
  5
157
330
1F
100
AcDbEntity
  8
0
  6
HIDDEN
 62
     7
100
AcDbLine
 10
2.3817542136
 20
3.6255680502
 30
0.0
 11
2.3967542136
 21
3.6405680502
 31
0.0
  0
LINE
  5
158
330
1F
100
AcDbEntity
  8
0
  6
HIDDEN
 62
     7
100
AcDbLine
 10
2.3967542136
 20
3.8767885226
 30
0.0
 11
2.3817542136
 21
3.8917885226
 31
0.0
  0
LINE
  5
159
330
1F
100
AcDbEntity
  8
0
  6
HIDDEN
 62
     7
100
AcDbLine
 10
4.2715179931
 20
3.8917885226
 30
0.0
 11
4.2565179931
 21
3.8767885226
 31
0.0
  0
LINE
  5
15A
330
1F
100
AcDbEntity
  8
0
  6
HIDDEN
 62
     7
100
AcDbLine
 10
4.2565179931
 20
3.6405680502
 30
0.0
 11
4.2715179931
 21
3.6255680502
 31
0.0
  0
LINE
  5
15B
330
1F
100
AcDbEntity
  8
0
  6
HIDDEN
 62
     7
100
AcDbLine
 10
2.6082506926
 20
3.8767885226
 30
0.0
 11
2.3967542136
 21
3.8767885226
 31
0.0
  0
LINE
  5
15C
330
1F
100
AcDbEntity
  8
0
  6
HIDDEN
 62
     7
100
AcDbLine
 10
2.8694053094
 20
3.8767885226
 30
0.0
 11
2.7654973086
 21
3.8767885226
 31
0.0
  0
LINE
  5
15D
330
1F
100
AcDbEntity
  8
0
  6
HIDDEN
 62
     7
100
AcDbLine
 10
2.3967542136
 20
3.6405680502
 30
0.0
 11
2.8694053094
 21
3.6405680502
 31
0.0
  0
LINE
  5
15E
330
1F
100
AcDbEntity
  8
0
  6
HIDDEN
 62
     7
100
AcDbLine
 10
3.8877782517
 20
3.8767885226
 30
0.0
 11
3.7838668974
 21
3.8767885226
 31
0.0
  0
LINE
  5
15F
330
1F
100
AcDbEntity
  8
0
  6
HIDDEN
 62
     7
100
AcDbLine
 10
4.2565179931
 20
3.8767885226
 30
0.0
 11
4.0450248677
 21
3.8767885226
 31
0.0
  0
LINE
  5
160
330
1F
100
AcDbEntity
  8
0
  6
HIDDEN
 62
     7
100
AcDbLine
 10
3.7838668974
 20
3.6405680502
 30
0.0
 11
4.2565179931
 21
3.6405680502
 31
0.0
  0
LINE
  5
161
330
1F
100
AcDbEntity
  8
0
  6
HIDDEN
 62
     7
100
AcDbLine
 10
4.0451400414
 20
4.2401178021
 30
0.0
 11
4.0576663769
 21
4.2508042707
 31
0.0
  0
LINE
  5
162
330
1F
100
AcDbEntity
  8
0
  6
HIDDEN
 62
     7
100
AcDbLine
 10
3.8751333881
 20
4.2508042708
 30
0.0
 11
3.8876597236
 21
4.2401178022
 31
0.0
  0
LINE
  5
163
330
1F
100
AcDbEntity
  8
0
  6
HIDDEN
 62
     7
100
AcDbLine
 10
2.7656124824
 20
4.2401178021
 30
0.0
 11
2.7781388178
 21
4.2508042707
 31
0.0
  0
LINE
  5
164
330
1F
100
AcDbEntity
  8
0
  6
HIDDEN
 62
     7
100
AcDbLine
 10
2.595605829
 20
4.2508042708
 30
0.0
 11
2.6081321646
 21
4.2401178022
 31
0.0
  0
LINE
  5
165
330
1F
100
AcDbEntity
  8
0
  6
HIDDEN
 62
     7
100
AcDbLine
 10
2.7656124813
 20
3.8767121666
 30
0.0
 11
2.7656124813
 21
4.2401177803
 31
0.0
  0
LINE
  5
166
330
1F
100
AcDbEntity
  8
0
  6
HIDDEN
 62
     7
100
AcDbLine
 10
2.6081321664
 20
4.240117802
 30
0.0
 11
2.6081321664
 21
3.876709799
 31
0.0
  0
LINE
  5
167
330
1F
100
AcDbEntity
  8
0
  6
HIDDEN
 62
     7
100
AcDbLine
 10
4.0451400404
 20
3.8767121666
 30
0.0
 11
4.0451400404
 21
4.2401177803
 31
0.0
  0
LINE
  5
168
330
1F
100
AcDbEntity
  8
0
  6
HIDDEN
 62
     7
100
AcDbLine
 10
3.8876597254
 20
4.240117802
 30
0.0
 11
3.8876597254
 21
3.876709799
 31
0.0
  0
LINE
  5
169
330
1F
100
AcDbEntity
  8
0
  6
CONTINUOUS
 62
     7
100
AcDbLine
 10
8.3252805811
 20
4.2451484533
 30
0.0
 11
8.3196247638
 21
4.2508042706
 31
0.0
  0
LINE
  5
16A
330
1F
100
AcDbEntity
  8
0
  6
CONTINUOUS
 62
     7
100
AcDbLine
 10
8.1821444488
 20
4.2508042706
 30
0.0
 11
8.1764886315
 21
4.2451484533
 31
0.0
  0
LINE
  5
16B
330
1F
100
AcDbEntity
  8
0
  6
CONTINUOUS
 62
     7
100
AcDbLine
 10
9.1957664961
 20
3.4634026958
 30
0.0
 11
9.1957664961
 21
4.0539538769
 31
0.0
  0
LINE
  5
16C
330
1F
100
AcDbEntity
  8
0
  6
CONTINUOUS
 62
     7
100
AcDbLine
 10
7.3060027166
 20
4.0539538769
 30
0.0
 11
7.3060027166
 21
3.4634026958
 31
0.0
  0
LINE
  5
16D
330
1F
100
AcDbEntity
  8
0
  6
CONTINUOUS
 62
     7
100
AcDbLine
 10
7.9556090158
 20
2.8137963966
 30
0.0
 11
8.5461601969
 21
2.8137963966
 31
0.0
  0
LINE
  5
16E
330
1F
100
AcDbEntity
  8
0
  6
CONTINUOUS
 62
     7
100
AcDbLine
 10
8.5461601969
 20
4.7035601762
 30
0.0
 11
7.9556090158
 21
4.7035601762
 31
0.0
  0
LINE
  5
16F
330
1F
100
AcDbEntity
  8
0
  6
CONTINUOUS
 62
     7
100
AcDbLine
 10
8.1821444488
 20
4.2508042706
 30
0.0
 11
8.3196247638
 21
4.2508042706
 31
0.0
  0
CIRCLE
  5
170
330
1F
100
AcDbEntity
  8
0
  6
CONTINUOUS
 62
     7
100
AcDbCircle
 10
8.2508846063
 20
3.7586782864
 30
0.0
 40
0.4771259842519697
  0
CIRCLE
  5
171
330
1F
100
AcDbEntity
  8
0
  6
CONTINUOUS
 62
     7
100
AcDbCircle
 10
8.2508846063
 20
3.7586782864
 30
0.0
 40
0.4921259842519703
  0
CIRCLE
  5
172
330
1F
100
AcDbEntity
  8
0
  6
CONTINUOUS
 62
     7
100
AcDbCircle
 10
8.2508846063
 20
3.7586782864
 30
0.0
 40
0.1331102362204728
  0
CIRCLE
  5
173
330
1F
100
AcDbEntity
  8
0
  6
CONTINUOUS
 62
     7
100
AcDbCircle
 10
8.2508846063
 20
3.7586782864
 30
0.0
 40
0.118110236220474
  0
LINE
  5
174
330
1F
100
AcDbEntity
  8
0
  6
CONTINUOUS
 62
     7
100
AcDbLine
 10
8.7331680709
 20
4.0539538769
 30
0.0
 11
8.7331680709
 21
3.8566101208
 31
0.0
  0
LINE
  5
175
330
1F
100
AcDbEntity
  8
0
  6
CONTINUOUS
 62
     7
100
AcDbLine
 10
8.7331680709
 20
4.0539538769
 30
0.0
 11
9.1957664961
 21
4.0539538769
 31
0.0
  0
LINE
  5
176
330
1F
100
AcDbEntity
  8
0
  6
CONTINUOUS
 62
     7
100
AcDbLine
 10
8.7331680709
 20
3.4634026958
 30
0.0
 11
9.1957664961
 21
3.4634026958
 31
0.0
  0
LINE
  5
177
330
1F
100
AcDbEntity
  8
0
  6
CONTINUOUS
 62
     7
100
AcDbLine
 10
8.7331680709
 20
3.660746452
 30
0.0
 11
8.7331680709
 21
3.4634026958
 31
0.0
  0
LINE
  5
178
330
1F
100
AcDbEntity
  8
0
  6
CONTINUOUS
 62
     7
100
AcDbLine
 10
8.6445853937
 20
4.0539538769
 30
0.0
 11
8.7331680709
 21
4.0539538769
 31
0.0
  0
LINE
  5
179
330
1F
100
AcDbEntity
  8
0
  6
CONTINUOUS
 62
     7
100
AcDbLine
 10
8.6445853937
 20
3.4634026958
 30
0.0
 11
8.7331680709
 21
3.4634026958
 31
0.0
  0
LINE
  5
17A
330
1F
100
AcDbEntity
  8
0
  6
CONTINUOUS
 62
     7
100
AcDbLine
 10
7.7686011418
 20
4.0539538769
 30
0.0
 11
7.7686011418
 21
3.8566101208
 31
0.0
  0
LINE
  5
17B
330
1F
100
AcDbEntity
  8
0
  6
CONTINUOUS
 62
     7
100
AcDbLine
 10
7.7686011418
 20
4.0539538769
 30
0.0
 11
7.8571838189
 21
4.0539538769
 31
0.0
  0
LINE
  5
17C
330
1F
100
AcDbEntity
  8
0
  6
CONTINUOUS
 62
     7
100
AcDbLine
 10
7.7686011418
 20
3.660746452
 30
0.0
 11
7.7686011418
 21
3.4634026958
 31
0.0
  0
LINE
  5
17D
330
1F
100
AcDbEntity
  8
0
  6
CONTINUOUS
 62
     7
100
AcDbLine
 10
7.7686011418
 20
3.4634026958
 30
0.0
 11
7.8571838189
 21
3.4634026958
 31
0.0
  0
LINE
  5
17E
330
1F
100
AcDbEntity
  8
0
  6
CONTINUOUS
 62
     7
100
AcDbLine
 10
7.3060027166
 20
4.0539538769
 30
0.0
 11
7.7686011418
 21
4.0539538769
 31
0.0
  0
LINE
  5
17F
330
1F
100
AcDbEntity
  8
0
  6
CONTINUOUS
 62
     7
100
AcDbLine
 10
7.3060027166
 20
3.4634026958
 30
0.0
 11
7.7686011418
 21
3.4634026958
 31
0.0
  0
ARC
  5
180
330
1F
100
AcDbEntity
  8
0
  6
CONTINUOUS
 62
     7
100
AcDbCircle
 10
7.7587586221
 20
4.2508042706
 30
0.0
 40
0.1968503937007875
100
AcDbArc
 50
272.8659839826
 51
357.1340160174
  0
ARC
  5
181
330
1F
100
AcDbEntity
  8
0
  6
CONTINUOUS
 62
     7
100
AcDbCircle
 10
7.7587586221
 20
3.2665523021
 30
0.0
 40
0.1968503937007872
100
AcDbArc
 50
2.8659839826
 51
87.1340160174
  0
ARC
  5
182
330
1F
100
AcDbEntity
  8
0
  6
CONTINUOUS
 62
     7
100
AcDbCircle
 10
8.7430105906
 20
3.2665523021
 30
0.0
 40
0.196850393700787
100
AcDbArc
 50
92.8659839826
 51
177.1340160174
  0
ARC
  5
183
330
1F
100
AcDbEntity
  8
0
  6
CONTINUOUS
 62
     7
100
AcDbCircle
 10
8.7430105906
 20
4.2508042706
 30
0.0
 40
0.1968503937007867
100
AcDbArc
 50
182.8659839826
 51
267.1340160174
  0
LINE
  5
184
330
1F
100
AcDbEntity
  8
0
  6
CONTINUOUS
 62
     7
100
AcDbLine
 10
7.9556090158
 20
2.8137963966
 30
0.0
 11
7.9556090158
 21
3.2665523021
 31
0.0
  0
LINE
  5
185
330
1F
100
AcDbEntity
  8
0
  6
CONTINUOUS
 62
     7
100
AcDbLine
 10
8.5461601969
 20
2.8137963966
 30
0.0
 11
8.5461601969
 21
3.2665523021
 31
0.0
  0
SPLINE
  5
186
330
1F
100
AcDbEntity
  8
0
  6
CONTINUOUS
 62
     7
100
AcDbSpline
210
0.0
220
0.0
230
1.0
 70
     8
 71
     3
 72
     8
 73
     4
 74
     0
 42
0.00000001
 43
0.00000001
 40
0.0
 40
0.0
 40
0.0
 40
0.0
 40
0.0002500923556257
 40
0.0002500923556257
 40
0.0002500923556257
 40
0.0002500923556257
 10
7.955362798798774
 20
3.276394821825118
 30
0.0
 10
7.955526901394328
 20
3.273116875046223
 30
0.0
 10
7.955609015772808
 20
3.269833611085256
 30
0.0
 10
7.955609015772808
 20
3.266552302140078
 30
0.0
  0
SPLINE
  5
187
330
1F
100
AcDbEntity
  8
0
  6
CONTINUOUS
 62
     7
100
AcDbSpline
210
0.0
220
0.0
230
1.0
 70
     8
 71
     3
 72
     8
 73
     4
 74
     0
 42
0.00000001
 43
0.00000001
 40
0.0
 40
0.0
 40
0.0
 40
0.0
 40
0.0002500923556256
 40
0.0002500923556256
 40
0.0002500923556256
 40
0.0002500923556256
 10
8.546160196875169
 20
3.266552302140079
 30
0.0
 10
8.546160196875169
 20
3.269833611085256
 30
0.0
 10
8.546242311253648
 20
3.273116875046222
 30
0.0
 10
8.546406413849203
 20
3.276394821825117
 30
0.0
  0
LINE
  5
188
330
1F
100
AcDbEntity
  8
0
  6
CONTINUOUS
 62
     7
100
AcDbLine
 10
8.5461601969
 20
4.2508042706
 30
0.0
 11
8.5461601969
 21
4.7035601762
 31
0.0
  0
LINE
  5
189
330
1F
100
AcDbEntity
  8
0
  6
CONTINUOUS
 62
     7
100
AcDbLine
 10
7.9556090158
 20
4.2508042706
 30
0.0
 11
7.9556090158
 21
4.7035601762
 31
0.0
  0
SPLINE
  5
18A
330
1F
100
AcDbEntity
  8
0
  6
CONTINUOUS
 62
     7
100
AcDbSpline
210
0.0
220
0.0
230
1.0
 70
     8
 71
     3
 72
     8
 73
     4
 74
     0
 42
0.00000001
 43
0.00000001
 40
0.0
 40
0.0
 40
0.0
 40
0.0
 40
0.0002500923556256
 40
0.0002500923556256
 40
0.0002500923556256
 40
0.0002500923556256
 10
7.955609015772811
 20
4.250804270644015
 30
0.0
 10
7.955609015772811
 20
4.247522961698838
 30
0.0
 10
7.955526901394331
 20
4.244239697737872
 30
0.0
 10
7.955362798798777
 20
4.240961750958977
 30
0.0
  0
SPLINE
  5
18B
330
1F
100
AcDbEntity
  8
0
  6
CONTINUOUS
 62
     7
100
AcDbSpline
210
0.0
220
0.0
230
1.0
 70
     8
 71
     3
 72
     8
 73
     4
 74
     0
 42
0.00000001
 43
0.00000001
 40
0.0
 40
0.0
 40
0.0
 40
0.0
 40
0.0002500923556257
 40
0.0002500923556257
 40
0.0002500923556257
 40
0.0002500923556257
 10
8.546406413849207
 20
4.240961750958975
 30
0.0
 10
8.546242311253652
 20
4.244239697737871
 30
0.0
 10
8.546160196875173
 20
4.247522961698838
 30
0.0
 10
8.546160196875173
 20
4.250804270644017
 30
0.0
  0
LINE
  5
18C
330
1F
100
AcDbEntity
  8
0
  6
CONTINUOUS
 62
     8
100
AcDbLine
 10
8.7331680709
 20
4.0542000939
 30
0.0
 11
8.7331680709
 21
4.0539538769
 31
0.0
  0
LINE
  5
18D
330
1F
100
AcDbEntity
  8
0
  6
CONTINUOUS
 62
     8
100
AcDbLine
 10
8.7331680709
 20
3.4634026958
 30
0.0
 11
8.7331680709
 21
3.4631564789
 31
0.0
  0
LINE
  5
18E
330
1F
100
AcDbEntity
  8
0
  6
CONTINUOUS
 62
     8
100
AcDbLine
 10
7.7686011418
 20
4.0542000939
 30
0.0
 11
7.7686011418
 21
4.0539538769
 31
0.0
  0
LINE
  5
18F
330
1F
100
AcDbEntity
  8
0
  6
CONTINUOUS
 62
     8
100
AcDbLine
 10
7.7686011418
 20
3.4634026958
 30
0.0
 11
7.7686011418
 21
3.4631564789
 31
0.0
  0
LINE
  5
190
330
1F
100
AcDbEntity
  8
0
  6
CONTINUOUS
 62
     8
100
AcDbLine
 10
8.5464064138
 20
3.2763948218
 30
0.0
 11
8.3488164407
 21
3.2763948218
 31
0.0
  0
LINE
  5
191
330
1F
100
AcDbEntity
  8
0
  6
CONTINUOUS
 62
     8
100
AcDbLine
 10
8.152952772
 20
3.2763948218
 30
0.0
 11
7.9553627988
 21
3.2763948218
 31
0.0
  0
LINE
  5
192
330
1F
100
AcDbEntity
  8
0
  6
CONTINUOUS
 62
     8
100
AcDbLine
 10
8.5464064138
 20
4.240961751
 30
0.0
 11
8.3488164407
 21
4.240961751
 31
0.0
  0
LINE
  5
193
330
1F
100
AcDbEntity
  8
0
  6
CONTINUOUS
 62
     8
100
AcDbLine
 10
8.152952772
 20
4.240961751
 30
0.0
 11
7.9553627988
 21
4.240961751
 31
0.0
  0
LINE
  5
194
330
1F
100
AcDbEntity
  8
0
  6
HIDDEN
 62
     7
100
AcDbLine
 10
8.7330105906
 20
3.6799381289
 30
0.0
 11
8.7330105906
 21
3.8374184439
 31
0.0
  0
LINE
  5
195
330
1F
100
AcDbEntity
  8
0
  6
HIDDEN
 62
     7
100
AcDbLine
 10
8.7430105906
 20
3.8274184439
 30
0.0
 11
8.7430105906
 21
3.6899381289
 31
0.0
  0
LINE
  5
196
330
1F
100
AcDbEntity
  8
0
  6
HIDDEN
 62
     7
100
AcDbLine
 10
8.3789948425
 20
3.7586782864
 30
0.0
 11
8.3789948425
 21
3.6799381289
 31
0.0
  0
LINE
  5
197
330
1F
100
AcDbEntity
  8
0
  6
HIDDEN
 62
     7
100
AcDbLine
 10
8.3789948425
 20
3.8374184439
 30
0.0
 11
8.3789948425
 21
3.7586782864
 31
0.0
  0
LINE
  5
198
330
1F
100
AcDbEntity
  8
0
  6
HIDDEN
 62
     7
100
AcDbLine
 10
8.3689948425
 20
3.7586782864
 30
0.0
 11
8.3689948425
 21
3.8274184439
 31
0.0
  0
LINE
  5
199
330
1F
100
AcDbEntity
  8
0
  6
HIDDEN
 62
     7
100
AcDbLine
 10
8.3689948425
 20
3.6899381289
 30
0.0
 11
8.3689948425
 21
3.7586782864
 31
0.0
  0
LINE
  5
19A
330
1F
100
AcDbEntity
  8
0
  6
HIDDEN
 62
     7
100
AcDbLine
 10
8.6445853937
 20
3.781408612
 30
0.0
 11
8.7430105906
 21
3.781408612
 31
0.0
  0
LINE
  5
19B
330
1F
100
AcDbEntity
  8
0
  6
HIDDEN
 62
     7
100
AcDbLine
 10
8.6445853937
 20
3.7359479608
 30
0.0
 11
8.7430105906
 21
3.7359479608
 31
0.0
  0
LINE
  5
19C
330
1F
100
AcDbEntity
  8
0
  6
HIDDEN
 62
     7
100
AcDbLine
 10
8.6445853937
 20
3.7359479608
 30
0.0
 11
8.6445853937
 21
3.7132176353
 31
0.0
  0
LINE
  5
19D
330
1F
100
AcDbEntity
  8
0
  6
HIDDEN
 62
     7
100
AcDbLine
 10
8.6445853937
 20
3.8041389375
 30
0.0
 11
8.6445853937
 21
3.781408612
 31
0.0
  0
LINE
  5
19E
330
1F
100
AcDbEntity
  8
0
  6
HIDDEN
 62
     7
100
AcDbLine
 10
8.6445853937
 20
3.781408612
 30
0.0
 11
8.6445853937
 21
3.7359479608
 31
0.0
  0
LINE
  5
19F
330
1F
100
AcDbEntity
  8
0
  6
HIDDEN
 62
     7
100
AcDbLine
 10
8.6445853937
 20
3.7132176353
 30
0.0
 11
8.7430105906
 21
3.7132176353
 31
0.0
  0
LINE
  5
1A0
330
1F
100
AcDbEntity
  8
0
  6
HIDDEN
 62
     7
100
AcDbLine
 10
8.6445853937
 20
3.8041389375
 30
0.0
 11
8.7430105906
 21
3.8041389375
 31
0.0
  0
LINE
  5
1A1
330
1F
100
AcDbEntity
  8
0
  6
HIDDEN
 62
     7
100
AcDbLine
 10
8.3296247638
 20
4.2408042706
 30
0.0
 11
8.1721444488
 21
4.2408042706
 31
0.0
  0
LINE
  5
1A2
330
1F
100
AcDbEntity
  8
0
  6
HIDDEN
 62
     7
100
AcDbLine
 10
8.2508846063
 20
3.8767885226
 30
0.0
 11
8.1821444488
 21
3.8767885226
 31
0.0
  0
LINE
  5
1A3
330
1F
100
AcDbEntity
  8
0
  6
HIDDEN
 62
     7
100
AcDbLine
 10
8.3196247638
 20
3.8767885226
 30
0.0
 11
8.2508846063
 21
3.8767885226
 31
0.0
  0
LINE
  5
1A4
330
1F
100
AcDbEntity
  8
0
  6
HIDDEN
 62
     7
100
AcDbLine
 10
8.2508846063
 20
3.8867885226
 30
0.0
 11
8.3296247638
 21
3.8867885226
 31
0.0
  0
LINE
  5
1A5
330
1F
100
AcDbEntity
  8
0
  6
HIDDEN
 62
     7
100
AcDbLine
 10
8.1721444488
 20
3.8867885226
 30
0.0
 11
8.2508846063
 21
3.8867885226
 31
0.0
  0
LINE
  5
1A6
330
1F
100
AcDbEntity
  8
0
  6
HIDDEN
 62
     7
100
AcDbLine
 10
8.2736149319
 20
4.1523790738
 30
0.0
 11
8.2963452574
 21
4.1523790738
 31
0.0
  0
LINE
  5
1A7
330
1F
100
AcDbEntity
  8
0
  6
HIDDEN
 62
     7
100
AcDbLine
 10
8.2281542808
 20
4.1523790738
 30
0.0
 11
8.2736149319
 21
4.1523790738
 31
0.0
  0
LINE
  5
1A8
330
1F
100
AcDbEntity
  8
0
  6
HIDDEN
 62
     7
100
AcDbLine
 10
8.2736149319
 20
4.1523790738
 30
0.0
 11
8.2736149319
 21
4.2508042706
 31
0.0
  0
LINE
  5
1A9
330
1F
100
AcDbEntity
  8
0
  6
HIDDEN
 62
     7
100
AcDbLine
 10
8.2281542808
 20
4.1523790738
 30
0.0
 11
8.2281542808
 21
4.2508042706
 31
0.0
  0
LINE
  5
1AA
330
1F
100
AcDbEntity
  8
0
  6
HIDDEN
 62
     7
100
AcDbLine
 10
8.2054239552
 20
4.1523790738
 30
0.0
 11
8.2281542808
 21
4.1523790738
 31
0.0
  0
LINE
  5
1AB
330
1F
100
AcDbEntity
  8
0
  6
HIDDEN
 62
     7
100
AcDbLine
 10
8.2963452574
 20
4.1523790738
 30
0.0
 11
8.2963452574
 21
4.2508042706
 31
0.0
  0
LINE
  5
1AC
330
1F
100
AcDbEntity
  8
0
  6
HIDDEN
 62
     7
100
AcDbLine
 10
8.2054239552
 20
4.1523790738
 30
0.0
 11
8.2054239552
 21
4.2508042706
 31
0.0
  0
LINE
  5
1AD
330
1F
100
AcDbEntity
  8
0
  6
HIDDEN
 62
     7
100
AcDbLine
 10
8.7331680709
 20
4.0542000939
 30
0.0
 11
8.7331680709
 21
3.4631564789
 31
0.0
  0
LINE
  5
1AE
330
1F
100
AcDbEntity
  8
0
  6
HIDDEN
 62
     7
100
AcDbLine
 10
7.7686011418
 20
4.0542000939
 30
0.0
 11
7.7686011418
 21
3.4631564789
 31
0.0
  0
LINE
  5
1AF
330
1F
100
AcDbEntity
  8
0
  6
HIDDEN
 62
     7
100
AcDbLine
 10
8.7331680709
 20
4.0539538769
 30
0.0
 11
8.7331680709
 21
3.8566101208
 31
0.0
  0
LINE
  5
1B0
330
1F
100
AcDbEntity
  8
0
  6
HIDDEN
 62
     7
100
AcDbLine
 10
8.7331680709
 20
3.660746452
 30
0.0
 11
8.7331680709
 21
3.4634026958
 31
0.0
  0
LINE
  5
1B1
330
1F
100
AcDbEntity
  8
0
  6
HIDDEN
 62
     7
100
AcDbLine
 10
7.7686011418
 20
4.0539538769
 30
0.0
 11
7.7686011418
 21
3.8566101208
 31
0.0
  0
LINE
  5
1B2
330
1F
100
AcDbEntity
  8
0
  6
HIDDEN
 62
     7
100
AcDbLine
 10
7.7686011418
 20
3.660746452
 30
0.0
 11
7.7686011418
 21
3.4634026958
 31
0.0
  0
SPLINE
  5
1B3
330
1F
100
AcDbEntity
  8
0
  6
HIDDEN
 62
     7
100
AcDbSpline
210
0.0
220
0.0
230
1.0
 70
     8
 71
     3
 72
    25
 73
    21
 74
     0
 42
0.00000001
 43
0.00000001
 40
0.0
 40
0.0
 40
0.0
 40
0.0
 40
0.0000391455508606
 40
0.0504354454793924
 40
0.1088595920468547
 40
0.1753562464131381
 40
0.2499513989555908
 40
0.3240963253327798
 40
0.3904660703810325
 40
0.4490880668495815
 40
0.5000076732531962
 40
0.5508787033440281
 40
0.6094720188566712
 40
0.6758330852776627
 40
0.7499899478394161
 40
0.8245999445039298
 40
0.8911063780566272
 40
0.9495351440070672
 40
0.9999306826466311
 40
1.0
 40
1.0
 40
1.0
 40
1.0
 10
8.723594493888346
 20
3.837417663343925
 30
0.0
 10
8.723594422769308
 20
3.837417920985083
 30
0.0
 10
8.723502792424753
 20
3.837749867943337
 30
0.0
 10
8.723868142702008
 20
3.836531411287341
 30
0.0
 10
8.724656727845094
 20
3.833166648638142
 30
0.0
 10
8.726056166086442
 20
3.825945373812083
 30
0.0
 10
8.727970195560959
 20
3.814920443502272
 30
0.0
 10
8.729887971583336
 20
3.800940088320994
 30
0.0
 10
8.731254912867275
 20
3.786069607955962
 30
0.0
 10
8.73210202262397
 20
3.771944715898738
 30
0.0
 10
8.732426938721517
 20
3.758683322154843
 30
0.0
 10
8.732103792281078
 20
3.745424270125707
 30
0.0
 10
8.731257295050575
 20
3.73130551025496
 30
0.0
 10
8.729890597653705
 20
3.716434930204624
 30
0.0
 10
8.727972270139782
 20
3.702450316049865
 30
0.0
 10
8.726058399296381
 20
3.691420125522718
 30
0.0
 10
8.724658475905724
 20
3.68419493568036
 30
0.0
 10
8.723869237092089
 20
3.68082724301626
 30
0.0
 10
8.723503081653542
 20
3.679607395988187
 30
0.0
 10
8.72359453385185
 20
3.679939041502199
 30
0.0
 10
8.723594659468464
 20
3.67993949704277
 30
0.0
  0
SPLINE
  5
1B4
330
1F
100
AcDbEntity
  8
0
  6
HIDDEN
 62
     7
100
AcDbSpline
210
0.0
220
0.0
230
1.0
 70
     8
 71
     3
 72
    12
 73
     8
 74
     0
 42
0.00000001
 43
0.00000001
 40
0.0
 40
0.0
 40
0.0
 40
0.0
 40
0.0001273058415874
 40
0.2966223835229144
 40
0.5620137999426867
 40
0.7964121160187467
 40
0.9999999999999999
 40
0.9999999999999999
 40
0.9999999999999999
 40
0.9999999999999999
 10
8.72797752911377
 20
3.702990447848478
 30
0.0
 10
8.727977802014408
 20
3.702992067597082
 30
0.0
 10
8.728613660012718
 20
3.706766078953162
 30
0.0
 10
8.729905928693032
 20
3.716658883060508
 30
0.0
 10
8.731245880835756
 20
3.731251801476209
 30
0.0
 10
8.732137253618143
 20
3.74542982194422
 30
0.0
 10
8.732264823852063
 20
3.754474209403843
 30
0.0
 10
8.732324121962321
 20
3.758678286392045
 30
0.0
  0
SPLINE
  5
1B5
330
1F
100
AcDbEntity
  8
0
  6
HIDDEN
 62
     7
100
AcDbSpline
210
0.0
220
0.0
230
1.0
 70
     8
 71
     3
 72
    25
 73
    21
 74
     0
 42
0.00000001
 43
0.00000001
 40
0.0
 40
0.0
 40
0.0
 40
0.0
 40
0.0000391455508623
 40
0.0504354454791695
 40
0.1088595920465567
 40
0.1753562464129129
 40
0.2499513989555861
 40
0.3240963253329959
 40
0.3904660703813218
 40
0.4490880668497952
 40
0.500007673253185
 40
0.550878703344978
 40
0.6094720188579401
 40
0.6758330852786113
 40
0.7499899478394091
 40
0.8245999445029552
 40
0.8911063780553289
 40
0.9495351440060936
 40
0.999930682646631
 40
1.0
 40
1.0
 40
1.0
 40
1.0
 10
8.17214522937211
 20
4.231388173956402
 30
0.0
 10
8.172144971730953
 20
4.231388102837365
 30
0.0
 10
8.171813024772703
 20
4.231296472492859
 30
0.0
 10
8.173031481428687
 20
4.231661822770041
 30
0.0
 10
8.176396244077873
 20
4.232450407913161
 30
0.0
 10
8.183617518903926
 20
4.233849846154499
 30
0.0
 10
8.19464244921376
 20
4.235763875629016
 30
0.0
 10
8.208622804395079
 20
4.237681651651391
 30
0.0
 10
8.223493284760131
 20
4.239048592935331
 30
0.0
 10
8.23761817681734
 20
4.239895702692027
 30
0.0
 10
8.25087957056129
 20
4.240220618789571
 30
0.0
 10
8.264138622590515
 20
4.23989747234914
 30
0.0
 10
8.278257382461328
 20
4.239050975118639
 30
0.0
 10
8.293127962511566
 20
4.23768427772177
 30
0.0
 10
8.307112576666157
 20
4.235765950207839
 30
0.0
 10
8.318142767193205
 20
4.233852079364429
 30
0.0
 10
8.32536795703558
 20
4.232452155973783
 30
0.0
 10
8.328735649699754
 20
4.23166291716012
 30
0.0
 10
8.329955496727854
 20
4.231296761721636
 30
0.0
 10
8.329623851213835
 20
4.231388213919908
 30
0.0
 10
8.329623395673266
 20
4.231388339536522
 30
0.0
  0
SPLINE
  5
1B6
330
1F
100
AcDbEntity
  8
0
  6
HIDDEN
 62
     7
100
AcDbSpline
210
0.0
220
0.0
230
1.0
 70
     8
 71
     3
 72
    12
 73
     8
 74
     0
 42
0.00000001
 43
0.00000001
 40
0.0
 40
0.0
 40
0.0
 40
0.0
 40
0.0001273058407723
 40
0.2966223835223324
 40
0.5620137999423183
 40
0.7964121160185721
 40
1.0
 40
1.0
 40
1.0
 40
1.0
 10
8.306572444867527
 20
4.235771209181833
 30
0.0
 10
8.306570825118932
 20
4.23577148208247
 30
0.0
 10
8.302796813762848
 20
4.236407340080608
 30
0.0
 10
8.292904009655532
 20
4.23769960876116
 30
0.0
 10
8.278311091239827
 20
4.239039560903798
 30
0.0
 10
8.264133070771816
 20
4.239930933686203
 30
0.0
 10
8.255088683312193
 20
4.240058503920121
 30
0.0
 10
8.25088460632399
 20
4.240117802030379
 30
0.0
  0
CIRCLE
  5
1B7
330
1F
100
AcDbEntity
  8
0
  6
HIDDEN
 62
     7
100
AcDbCircle
 10
8.2508846063
 20
3.7586782864
 30
0.0
 40
0.4724409448818889
  0
LINE
  5
1B8
330
1F
100
AcDbEntity
  8
0
  6
HIDDEN
 62
     7
100
AcDbLine
 10
8.5461601969
 20
3.2763948218
 30
0.0
 11
8.3488164407
 21
3.2763948218
 31
0.0
  0
LINE
  5
1B9
330
1F
100
AcDbEntity
  8
0
  6
HIDDEN
 62
     7
100
AcDbLine
 10
8.152952772
 20
3.2763948218
 30
0.0
 11
7.9556090158
 21
3.2763948218
 31
0.0
  0
LINE
  5
1BA
330
1F
100
AcDbEntity
  8
0
  6
HIDDEN
 62
     7
100
AcDbLine
 10
8.152952772
 20
4.240961751
 30
0.0
 11
7.9556090158
 21
4.240961751
 31
0.0
  0
LINE
  5
1BB
330
1F
100
AcDbEntity
  8
0
  6
HIDDEN
 62
     7
100
AcDbLine
 10
8.5461601969
 20
4.240961751
 30
0.0
 11
8.3488164407
 21
4.240961751
 31
0.0
  0
LINE
  5
1BC
330
1F
100
AcDbEntity
  8
0
  6
HIDDEN
 62
     7
100
AcDbLine
 10
8.5464064138
 20
4.240961751
 30
0.0
 11
7.9553627988
 21
4.240961751
 31
0.0
  0
LINE
  5
1BD
330
1F
100
AcDbEntity
  8
0
  6
HIDDEN
 62
     7
100
AcDbLine
 10
7.9556090158
 20
4.2508042706
 30
0.0
 11
7.9556090158
 21
4.240961751
 31
0.0
  0
LINE
  5
1BE
330
1F
100
AcDbEntity
  8
0
  6
HIDDEN
 62
     7
100
AcDbLine
 10
8.5461601969
 20
4.2508042706
 30
0.0
 11
8.5461601969
 21
4.240961751
 31
0.0
  0
LINE
  5
1BF
330
1F
100
AcDbEntity
  8
0
  6
HIDDEN
 62
     7
100
AcDbLine
 10
8.5464064138
 20
3.2763948218
 30
0.0
 11
7.9553627988
 21
3.2763948218
 31
0.0
  0
LINE
  5
1C0
330
1F
100
AcDbEntity
  8
0
  6
HIDDEN
 62
     7
100
AcDbLine
 10
7.9556090158
 20
3.2763948218
 30
0.0
 11
7.9556090158
 21
3.2665523021
 31
0.0
  0
LINE
  5
1C1
330
1F
100
AcDbEntity
  8
0
  6
HIDDEN
 62
     7
100
AcDbLine
 10
8.5461601969
 20
3.2763948218
 30
0.0
 11
8.5461601969
 21
3.2665523021
 31
0.0
  0
LINE
  5
1C2
330
1F
100
AcDbEntity
  8
0
  6
HIDDEN
 62
     7
100
AcDbLine
 10
8.5461601969
 20
3.364977499
 30
0.0
 11
8.5461601969
 21
3.2763948218
 31
0.0
  0
LINE
  5
1C3
330
1F
100
AcDbEntity
  8
0
  6
HIDDEN
 62
     7
100
AcDbLine
 10
8.5461601969
 20
4.240961751
 30
0.0
 11
8.5461601969
 21
4.1523790738
 31
0.0
  0
LINE
  5
1C4
330
1F
100
AcDbEntity
  8
0
  6
HIDDEN
 62
     7
100
AcDbLine
 10
7.9556090158
 20
4.240961751
 30
0.0
 11
7.9556090158
 21
4.1523790738
 31
0.0
  0
LINE
  5
1C5
330
1F
100
AcDbEntity
  8
0
  6
HIDDEN
 62
     7
100
AcDbLine
 10
7.9556090158
 20
3.364977499
 30
0.0
 11
7.9556090158
 21
3.2763948218
 31
0.0
  0
LINE
  5
1C6
330
1F
100
AcDbEntity
  8
0
  6
HIDDEN
 62
     7
100
AcDbLine
 10
8.7330105906
 20
3.6799381289
 30
0.0
 11
8.7430105906
 21
3.6899381289
 31
0.0
  0
LINE
  5
1C7
330
1F
100
AcDbEntity
  8
0
  6
HIDDEN
 62
     7
100
AcDbLine
 10
8.7430105906
 20
3.8274184439
 30
0.0
 11
8.7330105906
 21
3.8374184439
 31
0.0
  0
LINE
  5
1C8
330
1F
100
AcDbEntity
  8
0
  6
HIDDEN
 62
     7
100
AcDbLine
 10
8.3789948425
 20
3.6799381289
 30
0.0
 11
8.7330105906
 21
3.6799381289
 31
0.0
  0
LINE
  5
1C9
330
1F
100
AcDbEntity
  8
0
  6
HIDDEN
 62
     7
100
AcDbLine
 10
8.7330105906
 20
3.8374184439
 30
0.0
 11
8.3789948425
 21
3.8374184439
 31
0.0
  0
LINE
  5
1CA
330
1F
100
AcDbEntity
  8
0
  6
HIDDEN
 62
     7
100
AcDbLine
 10
8.3789948425
 20
3.8374184439
 30
0.0
 11
8.3689948425
 21
3.8274184439
 31
0.0
  0
LINE
  5
1CB
330
1F
100
AcDbEntity
  8
0
  6
HIDDEN
 62
     7
100
AcDbLine
 10
8.3689948425
 20
3.6899381289
 30
0.0
 11
8.3789948425
 21
3.6799381289
 31
0.0
  0
LINE
  5
1CC
330
1F
100
AcDbEntity
  8
0
  6
HIDDEN
 62
     7
100
AcDbLine
 10
8.3296247638
 20
4.2408042706
 30
0.0
 11
8.3252805811
 21
4.2451484533
 31
0.0
  0
LINE
  5
1CD
330
1F
100
AcDbEntity
  8
0
  6
HIDDEN
 62
     7
100
AcDbLine
 10
8.1764886315
 20
4.2451484533
 30
0.0
 11
8.1721444488
 21
4.2408042706
 31
0.0
  0
LINE
  5
1CE
330
1F
100
AcDbEntity
  8
0
  6
HIDDEN
 62
     7
100
AcDbLine
 10
8.1721444488
 20
3.8867885226
 30
0.0
 11
8.1821444488
 21
3.8767885226
 31
0.0
  0
LINE
  5
1CF
330
1F
100
AcDbEntity
  8
0
  6
HIDDEN
 62
     7
100
AcDbLine
 10
8.3196247638
 20
3.8767885226
 30
0.0
 11
8.3296247638
 21
3.8867885226
 31
0.0
  0
LINE
  5
1D0
330
1F
100
AcDbEntity
  8
0
  6
HIDDEN
 62
     7
100
AcDbLine
 10
8.3296247638
 20
3.8867885226
 30
0.0
 11
8.3296247638
 21
4.2408042706
 31
0.0
  0
LINE
  5
1D1
330
1F
100
AcDbEntity
  8
0
  6
HIDDEN
 62
     7
100
AcDbLine
 10
8.1721444488
 20
4.2408042706
 30
0.0
 11
8.1721444488
 21
3.8867885226
 31
0.0
  0
LINE
  5
1D2
330
1F
100
AcDbEntity
  8
0
  6
HIDDEN
 62
     7
100
AcDbLine
 10
9.0973412992
 20
3.4634026958
 30
0.0
 11
9.0973412992
 21
4.0539538769
 31
0.0
  0
LINE
  5
1D3
330
1F
100
AcDbEntity
  8
0
  6
HIDDEN
 62
     7
100
AcDbLine
 10
7.4044279134
 20
4.0539538769
 30
0.0
 11
7.4044279134
 21
3.4634026958
 31
0.0
  0
LINE
  5
1D4
330
1F
100
AcDbEntity
  8
0
  6
HIDDEN
 62
     7
100
AcDbLine
 10
8.7235942819
 20
3.6799381408
 30
0.0
 11
8.7340869751
 21
3.6653859738
 31
0.0
  0
LINE
  5
1D5
330
1F
100
AcDbEntity
  8
0
  6
HIDDEN
 62
     7
100
AcDbLine
 10
8.7340869738
 20
3.8519706066
 30
0.0
 11
8.7235942807
 21
3.8374184384
 31
0.0
  0
LINE
  5
1D6
330
1F
100
AcDbEntity
  8
0
  6
HIDDEN
 62
     7
100
AcDbLine
 10
8.3296247519
 20
4.231387962
 30
0.0
 11
8.3441769189
 21
4.2418806552
 31
0.0
  0
LINE
  5
1D7
330
1F
100
AcDbEntity
  8
0
  6
HIDDEN
 62
     7
100
AcDbLine
 10
8.1575922861
 20
4.2418806539
 30
0.0
 11
8.1721444543
 21
4.2313879607
 31
0.0
  0
LINE
  5
1D8
330
1F
100
AcDbEntity
  8
0
  6
HIDDEN
 62
     7
100
AcDbLine
 10
8.339316102
 20
3.6799381289
 30
0.0
 11
8.7235947754
 21
3.6799381289
 31
0.0
  0
LINE
  5
1D9
330
1F
100
AcDbEntity
  8
0
  6
HIDDEN
 62
     7
100
AcDbLine
 10
8.7235950631
 20
3.8374184439
 30
0.0
 11
8.3390584893
 21
3.8374184439
 31
0.0
  0
LINE
  5
1DA
330
1F
100
AcDbEntity
  8
0
  6
HIDDEN
 62
     7
100
AcDbLine
 10
8.3296247638
 20
3.8467124587
 30
0.0
 11
8.3296247638
 21
4.2313884554
 31
0.0
  0
LINE
  5
1DB
330
1F
100
AcDbEntity
  8
0
  6
HIDDEN
 62
     7
100
AcDbLine
 10
8.1721444488
 20
4.2313887432
 30
0.0
 11
8.1721444488
 21
3.8471425012
 31
0.0
  0
LINE
  5
1DC
330
1F
100
AcDbEntity
  8
0
  6
HIDDEN
 62
     7
100
AcDbLine
 10
8.5461601969
 20
4.6051349793
 30
0.0
 11
7.9556090158
 21
4.6051349793
 31
0.0
  0
LINE
  5
1DD
330
1F
100
AcDbEntity
  8
0
  6
HIDDEN
 62
     7
100
AcDbLine
 10
7.9556090158
 20
2.9122215935
 30
0.0
 11
8.5461601969
 21
2.9122215935
 31
0.0
  0
LINE
  5
1DE
330
1F
100
AcDbEntity
  8
0
  6
HIDDEN
 62
     7
100
AcDbLine
 10
8.7331680709
 20
4.0539538769
 30
0.0
 11
8.7331680709
 21
3.4634026958
 31
0.0
  0
LINE
  5
1DF
330
1F
100
AcDbEntity
  8
0
  6
HIDDEN
 62
     7
100
AcDbLine
 10
7.7686011418
 20
4.0539538769
 30
0.0
 11
7.7686011418
 21
3.4634026958
 31
0.0
  0
LINE
  5
1E0
330
1F
100
AcDbEntity
  8
0
  6
HIDDEN
 62
     7
100
AcDbLine
 10
8.3488164407
 20
3.2763948218
 30
0.0
 11
8.152952772
 21
3.2763948218
 31
0.0
  0
LINE
  5
1E1
330
1F
100
AcDbEntity
  8
0
  6
HIDDEN
 62
     7
100
AcDbLine
 10
8.3488164407
 20
4.240961751
 30
0.0
 11
8.152952772
 21
4.240961751
 31
0.0
  0
LINE
  5
1E2
330
1F
100
AcDbEntity
  8
0
  6
CONTINUOUS
 62
     7
100
AcDbLine
 10
4.0384510732
 20
7.1607920904
 30
0.0
 11
4.0351400404
 21
7.1641031232
 31
0.0
  0
LINE
  5
1E3
330
1F
100
AcDbEntity
  8
0
  6
CONTINUOUS
 62
     7
100
AcDbLine
 10
3.8976597254
 20
7.1641031232
 30
0.0
 11
3.8943500766
 21
7.1607934743
 31
0.0
  0
LINE
  5
1E4
330
1F
100
AcDbEntity
  8
0
  6
CONTINUOUS
 62
     7
100
AcDbLine
 10
2.7589235141
 20
7.1607920904
 30
0.0
 11
2.7556124813
 21
7.1641031232
 31
0.0
  0
LINE
  5
1E5
330
1F
100
AcDbEntity
  8
0
  6
CONTINUOUS
 62
     7
100
AcDbLine
 10
2.6181321664
 20
7.1641031232
 30
0.0
 11
2.6148225175
 21
7.1607934743
 31
0.0
  0
LINE
  5
1E6
330
1F
100
AcDbEntity
  8
0
  6
CONTINUOUS
 62
     7
100
AcDbLine
 10
4.2025245302
 20
6.1798511547
 30
0.0
 11
4.2565179931
 21
6.1798511547
 31
0.0
  0
LINE
  5
1E7
330
1F
100
AcDbEntity
  8
0
  6
CONTINUOUS
 62
     7
100
AcDbLine
 10
3.8035519367
 20
6.1798511547
 30
0.0
 11
4.1040621272
 21
6.1798511547
 31
0.0
  0
LINE
  5
1E8
330
1F
100
AcDbEntity
  8
0
  6
CONTINUOUS
 62
     7
100
AcDbLine
 10
3.8751333901
 20
7.1641031232
 30
0.0
 11
3.8035519367
 21
7.1641031232
 31
0.0
  0
LINE
  5
1E9
330
1F
100
AcDbEntity
  8
0
  6
CONTINUOUS
 62
     7
100
AcDbLine
 10
4.1040621272
 20
7.1641031232
 30
0.0
 11
4.0576662592
 21
7.1641031232
 31
0.0
  0
LINE
  5
1EA
330
1F
100
AcDbEntity
  8
0
  6
CONTINUOUS
 62
     7
100
AcDbLine
 10
4.2565179931
 20
7.1641031232
 30
0.0
 11
4.2025245302
 21
7.1641031232
 31
0.0
  0
LINE
  5
1EB
330
1F
100
AcDbEntity
  8
0
  6
CONTINUOUS
 62
     7
100
AcDbLine
 10
2.3967542136
 20
6.1798511547
 30
0.0
 11
2.84972027
 21
6.1798511547
 31
0.0
  0
LINE
  5
1EC
330
1F
100
AcDbEntity
  8
0
  6
CONTINUOUS
 62
     7
100
AcDbLine
 10
2.5956058311
 20
7.1641031232
 30
0.0
 11
2.3967542136
 21
7.1641031232
 31
0.0
  0
LINE
  5
1ED
330
1F
100
AcDbEntity
  8
0
  6
CONTINUOUS
 62
     7
100
AcDbLine
 10
2.84972027
 20
7.1641031232
 30
0.0
 11
2.7781387001
 21
7.1641031232
 31
0.0
  0
LINE
  5
1EE
330
1F
100
AcDbEntity
  8
0
  6
CONTINUOUS
 62
     7
100
AcDbLine
 10
2.3967542136
 20
7.1641031232
 30
0.0
 11
2.3817542136
 21
7.1491031232
 31
0.0
  0
LINE
  5
1EF
330
1F
100
AcDbEntity
  8
0
  6
CONTINUOUS
 62
     7
100
AcDbLine
 10
2.3817542136
 20
6.1948511547
 30
0.0
 11
2.3967542136
 21
6.1798511547
 31
0.0
  0
LINE
  5
1F0
330
1F
100
AcDbEntity
  8
0
  6
CONTINUOUS
 62
     7
100
AcDbLine
 10
2.84972027
 20
6.1798511547
 30
0.0
 11
2.8694053094
 21
6.199536194
 31
0.0
  0
LINE
  5
1F1
330
1F
100
AcDbEntity
  8
0
  6
CONTINUOUS
 62
     7
100
AcDbLine
 10
2.8694053094
 20
7.1444180838
 30
0.0
 11
2.84972027
 21
7.1641031232
 31
0.0
  0
LINE
  5
1F2
330
1F
100
AcDbEntity
  8
0
  6
CONTINUOUS
 62
     7
100
AcDbLine
 10
3.8035519367
 20
7.1641031232
 30
0.0
 11
3.7838668974
 21
7.1444180838
 31
0.0
  0
LINE
  5
1F3
330
1F
100
AcDbEntity
  8
0
  6
CONTINUOUS
 62
     7
100
AcDbLine
 10
3.7838668974
 20
6.199536194
 30
0.0
 11
3.8035519367
 21
6.1798511547
 31
0.0
  0
LINE
  5
1F4
330
1F
100
AcDbEntity
  8
0
  6
CONTINUOUS
 62
     7
100
AcDbLine
 10
4.2565179931
 20
6.1798511547
 30
0.0
 11
4.2715179931
 21
6.1948511547
 31
0.0
  0
LINE
  5
1F5
330
1F
100
AcDbEntity
  8
0
  6
CONTINUOUS
 62
     7
100
AcDbLine
 10
4.2715179931
 20
7.1491031232
 30
0.0
 11
4.2565179931
 21
7.1641031232
 31
0.0
  0
LINE
  5
1F6
330
1F
100
AcDbEntity
  8
0
  6
CONTINUOUS
 62
     7
100
AcDbLine
 10
3.8976597254
 20
7.1641031232
 30
0.0
 11
4.0351400404
 21
7.1641031232
 31
0.0
  0
LINE
  5
1F7
330
1F
100
AcDbEntity
  8
0
  6
CONTINUOUS
 62
     7
100
AcDbLine
 10
2.7556124813
 20
7.1641031232
 30
0.0
 11
2.6181321664
 21
7.1641031232
 31
0.0
  0
CIRCLE
  5
1F8
330
1F
100
AcDbEntity
  8
0
  6
CONTINUOUS
 62
     7
100
AcDbCircle
 10
3.9663998829
 20
6.6719771389
 30
0.0
 40
0.0687401574803146
  0
LINE
  5
1F9
330
1F
100
AcDbEntity
  8
0
  6
CONTINUOUS
 62
     7
100
AcDbLine
 10
3.9663998829
 20
6.71743779
 30
0.0
 11
3.9270298042
 21
6.6947074645
 31
0.0
  0
LINE
  5
1FA
330
1F
100
AcDbEntity
  8
0
  6
CONTINUOUS
 62
     7
100
AcDbLine
 10
3.9270298042
 20
6.6947074645
 30
0.0
 11
3.9270298042
 21
6.6492468134
 31
0.0
  0
LINE
  5
1FB
330
1F
100
AcDbEntity
  8
0
  6
CONTINUOUS
 62
     7
100
AcDbLine
 10
3.9270298042
 20
6.6492468134
 30
0.0
 11
3.9663998829
 21
6.6265164878
 31
0.0
  0
LINE
  5
1FC
330
1F
100
AcDbEntity
  8
0
  6
CONTINUOUS
 62
     7
100
AcDbLine
 10
3.9663998829
 20
6.6265164878
 30
0.0
 11
4.0057699617
 21
6.6492468134
 31
0.0
  0
LINE
  5
1FD
330
1F
100
AcDbEntity
  8
0
  6
CONTINUOUS
 62
     7
100
AcDbLine
 10
4.0057699617
 20
6.6492468134
 30
0.0
 11
4.0057699617
 21
6.6947074645
 31
0.0
  0
LINE
  5
1FE
330
1F
100
AcDbEntity
  8
0
  6
CONTINUOUS
 62
     7
100
AcDbLine
 10
4.0057699617
 20
6.6947074645
 30
0.0
 11
3.9663998829
 21
6.71743779
 31
0.0
  0
CIRCLE
  5
1FF
330
1F
100
AcDbEntity
  8
0
  6
CONTINUOUS
 62
     7
100
AcDbCircle
 10
3.9663998829
 20
6.6719771389
 30
0.0
 40
0.0787401574803148
  0
LINE
  5
200
330
1F
100
AcDbEntity
  8
0
  6
CONTINUOUS
 62
     7
100
AcDbLine
 10
3.3757439823
 20
6.9672527295
 30
0.0
 11
2.4506518514
 21
6.9672527295
 31
0.0
  0
SPLINE
  5
201
330
1F
100
AcDbEntity
  8
0
  6
CONTINUOUS
 62
     7
100
AcDbSpline
210
0.0
220
0.0
230
1.0
 70
     8
 71
     3
 72
     8
 73
     4
 74
     0
 42
0.00000001
 43
0.00000001
 40
0.0
 40
0.0
 40
0.0
 40
0.0
 40
0.0002500923556257
 40
0.0002500923556257
 40
0.0002500923556257
 40
0.0002500923556257
 10
3.375848701809749
 20
6.967498946441642
 30
0.0
 10
3.375848701809749
 20
6.967334843846088
 30
0.0
 10
3.375813813192448
 20
6.967252729467608
 30
0.0
 10
3.375743982300723
 20
6.967252729467608
 30
0.0
  0
LINE
  5
202
330
1F
100
AcDbEntity
  8
0
  6
CONTINUOUS
 62
     7
100
AcDbLine
 10
3.3758487018
 20
6.9674989464
 30
0.0
 11
3.3758487018
 21
6.3764553314
 31
0.0
  0
SPLINE
  5
203
330
1F
100
AcDbEntity
  8
0
  6
CONTINUOUS
 62
     7
100
AcDbSpline
210
0.0
220
0.0
230
1.0
 70
     8
 71
     3
 72
     8
 73
     4
 74
     0
 42
0.00000001
 43
0.00000001
 40
0.0
 40
0.0
 40
0.0
 40
0.0
 40
0.0002500923556256
 40
0.0002500923556256
 40
0.0002500923556256
 40
0.0002500923556256
 10
3.375743982300723
 20
6.376701548365247
 30
0.0
 10
3.375813813192448
 20
6.376701548365247
 30
0.0
 10
3.375848701809749
 20
6.376619433986768
 30
0.0
 10
3.375848701809749
 20
6.376455331391213
 30
0.0
  0
LINE
  5
204
330
1F
100
AcDbEntity
  8
0
  6
CONTINUOUS
 62
     7
100
AcDbLine
 10
3.3757439823
 20
6.3767015484
 30
0.0
 11
2.4506518514
 21
6.3767015484
 31
0.0
  0
LINE
  5
205
330
1F
100
AcDbEntity
  8
0
  6
CONTINUOUS
 62
     7
100
AcDbLine
 10
2.4506518514
 20
6.5740453046
 30
0.0
 11
2.4506518514
 21
6.3767015484
 31
0.0
  0
SPLINE
  5
206
330
1F
100
AcDbEntity
  8
0
  6
CONTINUOUS
 62
     7
100
AcDbSpline
210
0.0
220
0.0
230
1.0
 70
     8
 71
     3
 72
    10
 73
     6
 74
     0
 42
0.00000001
 43
0.00000001
 40
0.0
 40
0.0
 40
0.0
 40
0.0
 40
0.5
 40
0.5
 40
1.0
 40
1.0
 40
1.0
 40
1.0
 10
2.450651851416048
 20
6.769908973277315
 30
0.0
 10
2.450651851416048
 20
6.73778508030072
 30
0.0
 10
2.450756671584574
 20
6.705066997620208
 30
0.0
 10
2.450756470052038
 20
6.638746738578404
 30
0.0
 10
2.450651851416048
 20
6.606132926982501
 30
0.0
 10
2.450651851416048
 20
6.574045304555541
 30
0.0
  0
LINE
  5
207
330
1F
100
AcDbEntity
  8
0
  6
CONTINUOUS
 62
     7
100
AcDbLine
 10
2.4506518514
 20
6.9672527295
 30
0.0
 11
2.4506518514
 21
6.7699089733
 31
0.0
  0
LINE
  5
208
330
1F
100
AcDbEntity
  8
0
  6
CONTINUOUS
 62
     7
100
AcDbLine
 10
4.2026203554
 20
6.2782763515
 30
0.0
 11
4.1041951585
 21
6.2782763515
 31
0.0
  0
LINE
  5
209
330
1F
100
AcDbEntity
  8
0
  6
CONTINUOUS
 62
     7
100
AcDbLine
 10
4.2565179931
 20
6.1798511547
 30
0.0
 11
4.2565179931
 21
7.1641031232
 31
0.0
  0
SPLINE
  5
20A
330
1F
100
AcDbEntity
  8
0
  6
CONTINUOUS
 62
     7
100
AcDbSpline
210
0.0
220
0.0
230
1.0
 70
     8
 71
     3
 72
    39
 73
    35
 74
     0
 42
0.00000001
 43
0.00000001
 40
-0.0947295368805271
 40
-0.0631220562492681
 40
-0.0313700572330301
 40
0.0
 40
0.0313857668473379
 40
0.0631300926508308
 40
0.0947107913188451
 40
0.1258915232101529
 40
0.1569025400536846
 40
0.1880875961666514
 40
0.2192248879165963
 40
0.2499114061504733
 40
0.280581482773904
 40
0.3117983423887341
 40
0.3430159418754327
 40
0.3740900329697587
 40
0.4052589495812623
 40
0.4368198118972473
 40
0.4685350890145324
 40
0.500003918499833
 40
0.5314470500524037
 40
0.5632087383002634
 40
0.59475324248061
 40
0.6259576707116021
 40
0.6569904382089498
 40
0.6882209229808262
 40
0.7193642321976382
 40
0.7500710465313412
 40
0.780711616338571
 40
0.8119054237466125
 40
0.843077081944115
 40
0.8741231018598038
 40
0.9052704631194729
 40
0.9368779437507319
 40
0.9686299427669699
 40
1.0
 40
1.031385766847338
 40
1.063130092650831
 40
1.094710791318845
 10
3.876313622560727
 20
6.653673848144465
 30
0.0
 10
3.874545738886201
 20
6.671980367136629
 30
0.0
 10
3.876317632633709
 20
6.690284283659748
 30
0.0
 10
3.881653524231177
 20
6.707892305383041
 30
0.0
 10
3.890065197542134
 20
6.72417077040553
 30
0.0
 10
3.901430063266818
 20
6.738341549346556
 30
0.0
 10
3.915275264298247
 20
6.749985450465736
 30
0.0
 10
3.931198355063818
 20
6.758592694893689
 30
0.0
 10
3.948425340146575
 20
6.764058490629652
 30
0.0
 10
3.966344196272547
 20
6.765869863685007
 30
0.0
 10
3.984277970343547
 20
6.764059232072501
 30
0.0
 10
4.001525792359176
 20
6.758599376533524
 30
0.0
 10
4.017490222624904
 20
6.749997071494576
 30
0.0
 10
4.031358026657618
 20
6.738353606631404
 30
0.0
 10
4.042740146121933
 20
6.724189340817379
 30
0.0
 10
4.051160130448144
 20
6.707927440348548
 30
0.0
 10
4.056493001153789
 20
6.690310479687883
 30
0.0
 10
4.058251726914479
 20
6.671980778873784
 30
0.0
 10
4.056487834388812
 20
6.653642899593071
 30
0.0
 10
4.051152303385343
 20
6.636025715983196
 30
0.0
 10
4.042727652741197
 20
6.619752441507601
 30
0.0
 10
4.031348467917929
 20
6.605590769839561
 30
0.0
 10
4.017479868130992
 20
6.59394696401969
 30
0.0
 10
4.001532940498816
 20
6.585352434951619
 30
0.0
 10
3.984288531329791
 20
6.579899131739043
 30
0.0
 10
3.966371525501526
 20
6.578084875069869
 30
0.0
 10
3.948442799011897
 20
6.579889672759574
 30
0.0
 10
3.931215932070172
 20
6.585355577485863
 30
0.0
 10
3.915276985616836
 20
6.593964673647017
 30
0.0
 10
3.901433818774562
 20
6.605608547471951
 30
0.0
 10
3.890067650751076
 20
6.619785066082223
 30
0.0
 10
3.881658730421211
 20
6.636064780328191
 30
0.0
 10
3.876313622560727
 20
6.653673848144465
 30
0.0
 10
3.874545738886201
 20
6.671980367136629
 30
0.0
 10
3.876317632633709
 20
6.690284283659748
 30
0.0
  0
POLYLINE
  5
20B
330
1F
100
AcDbEntity
  8
0
  6
CONTINUOUS
 62
     7
100
AcDb2dPolyline
 66
     1
 10
0.0
 20
0.0
 30
0.0
  0
VERTEX
  5
314
330
20B
100
AcDbEntity
  8
0
  6
CONTINUOUS
 62
     7
100
AcDbVertex
100
AcDb2dVertex
 10
4.0576662592
 20
7.164103101
 30
0.0
  0
VERTEX
  5
315
330
20B
100
AcDbEntity
  8
0
  6
CONTINUOUS
 62
     7
100
AcDbVertex
100
AcDb2dVertex
 10
4.0576663757
 20
7.1641031232
 30
0.0
  0
VERTEX
  5
316
330
20B
100
AcDbEntity
  8
0
  6
CONTINUOUS
 62
     7
100
AcDbVertex
100
AcDb2dVertex
 10
4.0559043544
 20
7.1637682741
 30
0.0
  0
VERTEX
  5
317
330
20B
100
AcDbEntity
  8
0
  6
CONTINUOUS
 62
     7
100
AcDbVertex
100
AcDb2dVertex
 10
4.050616954
 20
7.1628012406
 30
0.0
  0
VERTEX
  5
318
330
20B
100
AcDbEntity
  8
0
  6
CONTINUOUS
 62
     7
100
AcDbVertex
100
AcDb2dVertex
 10
4.0421867636
 20
7.161353732
 30
0.0
  0
VERTEX
  5
319
330
20B
100
AcDbEntity
  8
0
  6
CONTINUOUS
 62
     7
100
AcDbVertex
100
AcDb2dVertex
 10
4.0309045664
 20
7.1596575123
 30
0.0
  0
VERTEX
  5
31A
330
20B
100
AcDbEntity
  8
0
  6
CONTINUOUS
 62
     7
100
AcDbVertex
100
AcDb2dVertex
 10
4.0171635549
 20
7.1579621627
 30
0.0
  0
VERTEX
  5
31B
330
20B
100
AcDbEntity
  8
0
  6
CONTINUOUS
 62
     7
100
AcDbVertex
100
AcDb2dVertex
 10
4.0012907384
 20
7.1565109799
 30
0.0
  0
VERTEX
  5
31C
330
20B
100
AcDbEntity
  8
0
  6
CONTINUOUS
 62
     7
100
AcDbVertex
100
AcDb2dVertex
 10
3.9840750982
 20
7.1555235339
 30
0.0
  0
VERTEX
  5
31D
330
20B
100
AcDbEntity
  8
0
  6
CONTINUOUS
 62
     7
100
AcDbVertex
100
AcDb2dVertex
 10
3.9663583709
 20
7.1551795064
 30
0.0
  0
VERTEX
  5
31E
330
20B
100
AcDbEntity
  8
0
  6
CONTINUOUS
 62
     7
100
AcDbVertex
100
AcDb2dVertex
 10
3.9486792624
 20
7.1555217152
 30
0.0
  0
VERTEX
  5
31F
330
20B
100
AcDbEntity
  8
0
  6
CONTINUOUS
 62
     7
100
AcDbVertex
100
AcDb2dVertex
 10
3.9314394935
 20
7.1565129024
 30
0.0
  0
VERTEX
  5
320
330
20B
100
AcDbEntity
  8
0
  6
CONTINUOUS
 62
     7
100
AcDbVertex
100
AcDb2dVertex
 10
3.9156047861
 20
7.157963652
 30
0.0
  0
VERTEX
  5
321
330
20B
100
AcDbEntity
  8
0
  6
CONTINUOUS
 62
     7
100
AcDbVertex
100
AcDb2dVertex
 10
3.901868769
 20
7.1596611659
 30
0.0
  0
VERTEX
  5
322
330
20B
100
AcDbEntity
  8
0
  6
CONTINUOUS
 62
     7
100
AcDbVertex
100
AcDb2dVertex
 10
3.8906211472
 20
7.1613550477
 30
0.0
  0
VERTEX
  5
323
330
20B
100
AcDbEntity
  8
0
  6
CONTINUOUS
 62
     7
100
AcDbVertex
100
AcDb2dVertex
 10
3.8821848577
 20
7.1628049058
 30
0.0
  0
VERTEX
  5
324
330
20B
100
AcDbEntity
  8
0
  6
CONTINUOUS
 62
     7
100
AcDbVertex
100
AcDb2dVertex
 10
3.8768945173
 20
7.1637698843
 30
0.0
  0
VERTEX
  5
325
330
20B
100
AcDbEntity
  8
0
  6
CONTINUOUS
 62
     7
100
AcDbVertex
100
AcDb2dVertex
 10
3.8751333901
 20
7.1641031232
 30
0.0
  0
VERTEX
  5
326
330
20B
100
AcDbEntity
  8
0
  6
CONTINUOUS
 62
     7
100
AcDbVertex
100
AcDb2dVertex
 10
3.8751333901
 20
7.1641031232
 30
0.0
  0
SEQEND
  5
327
330
20B
100
AcDbEntity
  8
0
  6
CONTINUOUS
 62
     7
  0
LINE
  5
20C
330
1F
100
AcDbEntity
  8
0
  6
CONTINUOUS
 62
     7
100
AcDbLine
 10
4.1041951585
 20
7.0656779263
 30
0.0
 11
4.2026203554
 21
7.0656779263
 31
0.0
  0
LINE
  5
20D
330
1F
100
AcDbEntity
  8
0
  6
CONTINUOUS
 62
     7
100
AcDbLine
 10
3.8035519367
 20
7.1641031232
 30
0.0
 11
3.8035519367
 21
6.1798511547
 31
0.0
  0
LINE
  5
20E
330
1F
100
AcDbEntity
  8
0
  6
CONTINUOUS
 62
     7
100
AcDbLine
 10
2.3967542136
 20
7.1641031232
 30
0.0
 11
2.3967542136
 21
6.1798511547
 31
0.0
  0
POLYLINE
  5
20F
330
1F
100
AcDbEntity
  8
0
  6
CONTINUOUS
 62
     7
100
AcDb2dPolyline
 66
     1
 10
0.0
 20
0.0
 30
0.0
  0
VERTEX
  5
328
330
20F
100
AcDbEntity
  8
0
  6
CONTINUOUS
 62
     7
100
AcDbVertex
100
AcDb2dVertex
 10
2.7781387001
 20
7.164103101
 30
0.0
  0
VERTEX
  5
329
330
20F
100
AcDbEntity
  8
0
  6
CONTINUOUS
 62
     7
100
AcDbVertex
100
AcDb2dVertex
 10
2.7781388166
 20
7.1641031232
 30
0.0
  0
VERTEX
  5
32A
330
20F
100
AcDbEntity
  8
0
  6
CONTINUOUS
 62
     7
100
AcDbVertex
100
AcDb2dVertex
 10
2.7763767953
 20
7.1637682741
 30
0.0
  0
VERTEX
  5
32B
330
20F
100
AcDbEntity
  8
0
  6
CONTINUOUS
 62
     7
100
AcDbVertex
100
AcDb2dVertex
 10
2.7710893949
 20
7.1628012406
 30
0.0
  0
VERTEX
  5
32C
330
20F
100
AcDbEntity
  8
0
  6
CONTINUOUS
 62
     7
100
AcDbVertex
100
AcDb2dVertex
 10
2.7626592045
 20
7.161353732
 30
0.0
  0
VERTEX
  5
32D
330
20F
100
AcDbEntity
  8
0
  6
CONTINUOUS
 62
     7
100
AcDbVertex
100
AcDb2dVertex
 10
2.7513770073
 20
7.1596575123
 30
0.0
  0
VERTEX
  5
32E
330
20F
100
AcDbEntity
  8
0
  6
CONTINUOUS
 62
     7
100
AcDbVertex
100
AcDb2dVertex
 10
2.7376359959
 20
7.1579621627
 30
0.0
  0
VERTEX
  5
32F
330
20F
100
AcDbEntity
  8
0
  6
CONTINUOUS
 62
     7
100
AcDbVertex
100
AcDb2dVertex
 10
2.7217631793
 20
7.1565109799
 30
0.0
  0
VERTEX
  5
330
330
20F
100
AcDbEntity
  8
0
  6
CONTINUOUS
 62
     7
100
AcDbVertex
100
AcDb2dVertex
 10
2.7045475391
 20
7.1555235339
 30
0.0
  0
VERTEX
  5
331
330
20F
100
AcDbEntity
  8
0
  6
CONTINUOUS
 62
     7
100
AcDbVertex
100
AcDb2dVertex
 10
2.6868308118
 20
7.1551795064
 30
0.0
  0
VERTEX
  5
332
330
20F
100
AcDbEntity
  8
0
  6
CONTINUOUS
 62
     7
100
AcDbVertex
100
AcDb2dVertex
 10
2.6691517033
 20
7.1555217152
 30
0.0
  0
VERTEX
  5
333
330
20F
100
AcDbEntity
  8
0
  6
CONTINUOUS
 62
     7
100
AcDbVertex
100
AcDb2dVertex
 10
2.6519119344
 20
7.1565129024
 30
0.0
  0
VERTEX
  5
334
330
20F
100
AcDbEntity
  8
0
  6
CONTINUOUS
 62
     7
100
AcDbVertex
100
AcDb2dVertex
 10
2.6360772271
 20
7.157963652
 30
0.0
  0
VERTEX
  5
335
330
20F
100
AcDbEntity
  8
0
  6
CONTINUOUS
 62
     7
100
AcDbVertex
100
AcDb2dVertex
 10
2.6223412099
 20
7.1596611659
 30
0.0
  0
VERTEX
  5
336
330
20F
100
AcDbEntity
  8
0
  6
CONTINUOUS
 62
     7
100
AcDbVertex
100
AcDb2dVertex
 10
2.6110935882
 20
7.1613550477
 30
0.0
  0
VERTEX
  5
337
330
20F
100
AcDbEntity
  8
0
  6
CONTINUOUS
 62
     7
100
AcDbVertex
100
AcDb2dVertex
 10
2.6026572987
 20
7.1628049058
 30
0.0
  0
VERTEX
  5
338
330
20F
100
AcDbEntity
  8
0
  6
CONTINUOUS
 62
     7
100
AcDbVertex
100
AcDb2dVertex
 10
2.5973669582
 20
7.1637698843
 30
0.0
  0
VERTEX
  5
339
330
20F
100
AcDbEntity
  8
0
  6
CONTINUOUS
 62
     7
100
AcDbVertex
100
AcDb2dVertex
 10
2.5956058311
 20
7.1641031232
 30
0.0
  0
VERTEX
  5
33A
330
20F
100
AcDbEntity
  8
0
  6
CONTINUOUS
 62
     7
100
AcDbVertex
100
AcDb2dVertex
 10
2.5956058311
 20
7.1641031232
 30
0.0
  0
SEQEND
  5
33B
330
20F
100
AcDbEntity
  8
0
  6
CONTINUOUS
 62
     7
  0
LINE
  5
210
330
1F
100
AcDbEntity
  8
0
  6
CONTINUOUS
 62
     7
100
AcDbLine
 10
2.84972027
 20
6.1798511547
 30
0.0
 11
2.84972027
 21
6.3767015484
 31
0.0
  0
LINE
  5
211
330
1F
100
AcDbEntity
  8
0
  6
CONTINUOUS
 62
     7
100
AcDbLine
 10
2.84972027
 20
6.9672527295
 30
0.0
 11
2.84972027
 21
7.1641031232
 31
0.0
  0
SPLINE
  5
212
330
1F
100
AcDbEntity
  8
0
  6
CONTINUOUS
 62
     7
100
AcDbSpline
210
0.0
220
0.0
230
1.0
 70
     8
 71
     3
 72
    33
 73
    29
 74
     0
 42
0.00000001
 43
0.00000001
 40
-0.0881364761920038
 40
-0.0548809402294534
 40
-0.0255097459299842
 40
0.0
 40
0.0255543765621051
 40
0.0549332755437607
 40
0.0881595162235321
 40
0.1252470073544238
 40
0.1626102011762376
 40
0.1959142135370241
 40
0.2251720716004486
 40
0.2504061688627385
 40
0.3047324089637567
 40
0.3750058053978814
 40
0.4121618123253022
 40
0.4454214678037396
 40
0.4747985191180084
 40
0.5003156966337761
 40
0.5549459184244763
 40
0.6249139740480473
 40
0.6622984183119165
 40
0.6956239091923798
 40
0.7249034066935638
 40
0.7501591986637699
 40
0.8044511424398502
 40
0.8747097927964027
 40
0.9118635238079962
 40
0.9451190597705466
 40
0.9744902540700158
 40
1.0
 40
1.025554376562105
 40
1.054933275543761
 40
1.088159516223532
 10
3.888387653462748
 20
6.685239338669712
 30
0.0
 10
3.88732083963105
 20
6.671969751914302
 30
0.0
 10
3.888389357363606
 20
6.658699046803355
 30
0.0
 10
3.892039707984159
 20
6.644574349498664
 30
0.0
 10
3.899203770249827
 20
6.629718396973439
 30
0.0
 10
3.910252179430618
 20
6.61575857502637
 30
0.0
 10
3.92423517108094
 20
6.60471441836534
 30
0.0
 10
3.939139530720638
 20
6.597564992227608
 30
0.0
 10
3.953214388065551
 20
6.593958080153768
 30
0.0
 10
3.97115334924493
 20
6.592519968503114
 30
0.0
 10
3.995978027844761
 20
6.596765446845859
 30
0.0
 10
4.019190992463948
 20
6.611488497303347
 30
0.0
 10
4.033589393796353
 20
6.629712206682871
 30
0.0
 10
4.040766466573158
 20
6.644585879092994
 30
0.0
 10
4.044411009555514
 20
6.658712662817519
 30
0.0
 10
4.04586740943694
 20
6.676768994129534
 30
0.0
 10
4.041576714180289
 20
6.701641758938939
 30
0.0
 10
4.026804849365775
 20
6.724858502831355
 30
0.0
 10
4.00856403029666
 20
6.739236413194098
 30
0.0
 10
3.993646403015942
 20
6.746396275620559
 30
0.0
 10
3.979560712482884
 20
6.750000722195865
 30
0.0
 10
3.961619453848715
 20
6.751432459429648
 30
0.0
 10
3.936801473570584
 20
6.747179008951035
 30
0.0
 10
3.913599234963982
 20
6.732456585867771
 30
0.0
 10
3.899205442168229
 20
6.714234300163559
 30
0.0
 10
3.892031117128912
 20
6.699360844880935
 30
0.0
 10
3.888387653462748
 20
6.685239338669712
 30
0.0
 10
3.88732083963105
 20
6.671969751914302
 30
0.0
 10
3.888389357363606
 20
6.658699046803355
 30
0.0
  0
LINE
  5
213
330
1F
100
AcDbEntity
  8
0
  6
CONTINUOUS
 62
     7
100
AcDbLine
 10
3.277423505
 20
6.9674989464
 30
0.0
 11
3.277423505
 21
7.1542606035
 31
0.0
  0
SPLINE
  5
214
330
1F
100
AcDbEntity
  8
0
  6
CONTINUOUS
 62
     7
100
AcDbSpline
210
0.0
220
0.0
230
1.0
 70
     8
 71
     3
 72
     8
 73
     4
 74
     0
 42
0.00000001
 43
0.00000001
 40
0.0
 40
0.0
 40
0.0
 40
0.0
 40
0.0002500923556257
 40
0.0002500923556257
 40
0.0002500923556257
 40
0.0002500923556257
 10
3.277423504959355
 20
7.154260603483356
 30
0.0
 10
3.277423504959355
 20
7.157538550262251
 30
0.0
 10
3.277458393576656
 20
7.160821814223218
 30
0.0
 10
3.277528224468382
 20
7.164103123168396
 30
0.0
  0
LINE
  5
215
330
1F
100
AcDbEntity
  8
0
  6
CONTINUOUS
 62
     7
100
AcDbLine
 10
3.2775282245
 20
7.1641031232
 30
0.0
 11
3.3759817331
 21
7.1641031232
 31
0.0
  0
SPLINE
  5
216
330
1F
100
AcDbEntity
  8
0
  6
CONTINUOUS
 62
     7
100
AcDbSpline
210
0.0
220
0.0
230
1.0
 70
     8
 71
     3
 72
     8
 73
     4
 74
     0
 42
0.00000001
 43
0.00000001
 40
0.0
 40
0.0
 40
0.0
 40
0.0
 40
0.0002501010376138
 40
0.0002501010376138
 40
0.0002501010376138
 40
0.0002501010376138
 10
3.375981733130479
 20
7.164103123168396
 30
0.0
 10
3.3758930259454
 20
7.16082215628518
 30
0.0
 10
3.375848701809749
 20
7.157538664056593
 30
0.0
 10
3.375848701809749
 20
7.154260603483356
 30
0.0
  0
LINE
  5
217
330
1F
100
AcDbEntity
  8
0
  6
CONTINUOUS
 62
     7
100
AcDbLine
 10
3.3758487018
 20
7.1542606035
 30
0.0
 11
3.3758487018
 21
6.9674989464
 31
0.0
  0
LINE
  5
218
330
1F
100
AcDbEntity
  8
0
  6
CONTINUOUS
 62
     7
100
AcDbLine
 10
2.3817542136
 20
6.1948511547
 30
0.0
 11
2.3817542136
 21
7.1491031232
 31
0.0
  0
LINE
  5
219
330
1F
100
AcDbEntity
  8
0
  6
CONTINUOUS
 62
     7
100
AcDbLine
 10
2.8694053094
 20
7.1444180838
 30
0.0
 11
2.8694053094
 21
6.9672527295
 31
0.0
  0
LINE
  5
21A
330
1F
100
AcDbEntity
  8
0
  6
CONTINUOUS
 62
     7
100
AcDbLine
 10
2.8694053094
 20
6.3767015484
 30
0.0
 11
2.8694053094
 21
6.199536194
 31
0.0
  0
LINE
  5
21B
330
1F
100
AcDbEntity
  8
0
  6
CONTINUOUS
 62
     7
100
AcDbLine
 10
3.7838668974
 20
6.199536194
 30
0.0
 11
3.7838668974
 21
7.1444180838
 31
0.0
  0
LINE
  5
21C
330
1F
100
AcDbEntity
  8
0
  6
CONTINUOUS
 62
     7
100
AcDbLine
 10
4.2715179931
 20
7.1491031232
 30
0.0
 11
4.2715179931
 21
6.1948511547
 31
0.0
  0
LINE
  5
21D
330
1F
100
AcDbEntity
  8
0
  6
CONTINUOUS
 62
     7
100
AcDbLine
 10
3.277423505
 20
6.1896936743
 30
0.0
 11
3.277423505
 21
6.3764553314
 31
0.0
  0
LINE
  5
21E
330
1F
100
AcDbEntity
  8
0
  6
CONTINUOUS
 62
     7
100
AcDbLine
 10
3.3758487018
 20
6.3764553314
 30
0.0
 11
3.3758487018
 21
6.1896936743
 31
0.0
  0
SPLINE
  5
21F
330
1F
100
AcDbEntity
  8
0
  6
CONTINUOUS
 62
     7
100
AcDbSpline
210
0.0
220
0.0
230
1.0
 70
     8
 71
     3
 72
     8
 73
     4
 74
     0
 42
0.00000001
 43
0.00000001
 40
0.0
 40
0.0
 40
0.0
 40
0.0
 40
0.0002501010376137
 40
0.0002501010376137
 40
0.0002501010376137
 40
0.0002501010376137
 10
3.375848701809749
 20
6.189693674349496
 30
0.0
 10
3.375848701809749
 20
6.186415613776261
 30
0.0
 10
3.3758930259454
 20
6.183132121547675
 30
0.0
 10
3.375981733130479
 20
6.179851154664459
 30
0.0
  0
LINE
  5
220
330
1F
100
AcDbEntity
  8
0
  6
CONTINUOUS
 62
     7
100
AcDbLine
 10
3.3759817331
 20
6.1798511547
 30
0.0
 11
3.2775282245
 21
6.1798511547
 31
0.0
  0
SPLINE
  5
221
330
1F
100
AcDbEntity
  8
0
  6
CONTINUOUS
 62
     7
100
AcDbSpline
210
0.0
220
0.0
230
1.0
 70
     8
 71
     3
 72
     8
 73
     4
 74
     0
 42
0.00000001
 43
0.00000001
 40
0.0
 40
0.0
 40
0.0
 40
0.0
 40
0.0002500923556256
 40
0.0002500923556256
 40
0.0002500923556256
 40
0.0002500923556256
 10
3.277528224468382
 20
6.179851154664459
 30
0.0
 10
3.277458393576656
 20
6.183132463609637
 30
0.0
 10
3.277423504959355
 20
6.186415727570602
 30
0.0
 10
3.277423504959355
 20
6.189693674349496
 30
0.0
  0
LINE
  5
222
330
1F
100
AcDbEntity
  8
0
  6
CONTINUOUS
 62
     7
100
AcDbLine
 10
4.2026203554
 20
7.0656779263
 30
0.0
 11
4.2026203554
 21
7.1542606035
 31
0.0
  0
LINE
  5
223
330
1F
100
AcDbEntity
  8
0
  6
CONTINUOUS
 62
     7
100
AcDbLine
 10
4.1041951585
 20
7.0656779263
 30
0.0
 11
4.1041951585
 21
7.1542606035
 31
0.0
  0
ARC
  5
224
330
1F
100
AcDbEntity
  8
0
  6
CONTINUOUS
 62
     7
100
AcDbCircle
 10
3.7400219302
 20
7.1542606035
 30
0.0
 40
0.4625984251968509
100
AcDbArc
 50
0.0
 51
178.780848866
  0
ARC
  5
225
330
1F
100
AcDbEntity
  8
0
  6
CONTINUOUS
 62
     7
100
AcDbCircle
 10
3.7400219302
 20
7.1542606035
 30
0.0
 40
0.3641732283464574
100
AcDbArc
 50
0.0
 51
178.4512768328
  0
LINE
  5
226
330
1F
100
AcDbEntity
  8
0
  6
CONTINUOUS
 62
     7
100
AcDbLine
 10
4.2026203554
 20
6.1896936743
 30
0.0
 11
4.2026203554
 21
6.2782763515
 31
0.0
  0
LINE
  5
227
330
1F
100
AcDbEntity
  8
0
  6
CONTINUOUS
 62
     7
100
AcDbLine
 10
4.1041951585
 20
6.1896936743
 30
0.0
 11
4.1041951585
 21
6.2782763515
 31
0.0
  0
ARC
  5
228
330
1F
100
AcDbEntity
  8
0
  6
CONTINUOUS
 62
     7
100
AcDbCircle
 10
3.7400219302
 20
6.1896936743
 30
0.0
 40
0.46259842519685
100
AcDbArc
 50
181.219151134
 51
0.0
  0
ARC
  5
229
330
1F
100
AcDbEntity
  8
0
  6
CONTINUOUS
 62
     7
100
AcDbCircle
 10
3.7400219302
 20
6.1896936743
 30
0.0
 40
0.3641732283464574
100
AcDbArc
 50
181.5487231672
 51
0.0
  0
LINE
  5
22A
330
1F
100
AcDbEntity
  8
0
  6
HIDDEN
 62
     7
100
AcDbLine
 10
4.0451400404
 20
7.1541031232
 30
0.0
 11
3.8876597254
 21
7.1541031232
 31
0.0
  0
LINE
  5
22B
330
1F
100
AcDbEntity
  8
0
  6
HIDDEN
 62
     7
100
AcDbLine
 10
3.8876597254
 20
6.8000873751
 30
0.0
 11
4.0451400404
 21
6.8000873751
 31
0.0
  0
LINE
  5
22C
330
1F
100
AcDbEntity
  8
0
  6
HIDDEN
 62
     7
100
AcDbLine
 10
4.0351400404
 20
6.7900873751
 30
0.0
 11
3.8976597254
 21
6.7900873751
 31
0.0
  0
LINE
  5
22D
330
1F
100
AcDbEntity
  8
0
  6
HIDDEN
 62
     7
100
AcDbLine
 10
3.9663998829
 20
7.0656779263
 30
0.0
 11
3.9663998829
 21
7.1641031232
 31
0.0
  0
LINE
  5
22E
330
1F
100
AcDbEntity
  8
0
  6
HIDDEN
 62
     7
100
AcDbLine
 10
3.9270298042
 20
7.0656779263
 30
0.0
 11
3.9663998829
 21
7.0656779263
 31
0.0
  0
LINE
  5
22F
330
1F
100
AcDbEntity
  8
0
  6
HIDDEN
 62
     7
100
AcDbLine
 10
3.9663998829
 20
7.0656779263
 30
0.0
 11
4.0057699617
 21
7.0656779263
 31
0.0
  0
LINE
  5
230
330
1F
100
AcDbEntity
  8
0
  6
HIDDEN
 62
     7
100
AcDbLine
 10
3.9270298042
 20
7.0656779263
 30
0.0
 11
3.9270298042
 21
7.1641031232
 31
0.0
  0
LINE
  5
231
330
1F
100
AcDbEntity
  8
0
  6
HIDDEN
 62
     7
100
AcDbLine
 10
4.0057699617
 20
7.0656779263
 30
0.0
 11
4.0057699617
 21
7.1641031232
 31
0.0
  0
LINE
  5
232
330
1F
100
AcDbEntity
  8
0
  6
HIDDEN
 62
     7
100
AcDbLine
 10
2.6081321664
 20
7.1541031232
 30
0.0
 11
2.7656124813
 21
7.1541031232
 31
0.0
  0
LINE
  5
233
330
1F
100
AcDbEntity
  8
0
  6
HIDDEN
 62
     7
100
AcDbLine
 10
2.7656124813
 20
6.8000873751
 30
0.0
 11
2.6081321664
 21
6.8000873751
 31
0.0
  0
LINE
  5
234
330
1F
100
AcDbEntity
  8
0
  6
HIDDEN
 62
     7
100
AcDbLine
 10
2.6181321664
 20
6.7900873751
 30
0.0
 11
2.7556124813
 21
6.7900873751
 31
0.0
  0
LINE
  5
235
330
1F
100
AcDbEntity
  8
0
  6
HIDDEN
 62
     7
100
AcDbLine
 10
2.6868723239
 20
7.0656779263
 30
0.0
 11
2.6868723239
 21
7.1641031232
 31
0.0
  0
LINE
  5
236
330
1F
100
AcDbEntity
  8
0
  6
HIDDEN
 62
     7
100
AcDbLine
 10
2.7262424026
 20
7.0656779263
 30
0.0
 11
2.6868723239
 21
7.0656779263
 31
0.0
  0
LINE
  5
237
330
1F
100
AcDbEntity
  8
0
  6
HIDDEN
 62
     7
100
AcDbLine
 10
2.6868723239
 20
7.0656779263
 30
0.0
 11
2.6475022451
 21
7.0656779263
 31
0.0
  0
LINE
  5
238
330
1F
100
AcDbEntity
  8
0
  6
HIDDEN
 62
     7
100
AcDbLine
 10
2.7262424026
 20
7.0656779263
 30
0.0
 11
2.7262424026
 21
7.1641031232
 31
0.0
  0
LINE
  5
239
330
1F
100
AcDbEntity
  8
0
  6
HIDDEN
 62
     7
100
AcDbLine
 10
2.6475022451
 20
7.0656779263
 30
0.0
 11
2.6475022451
 21
7.1641031232
 31
0.0
  0
CIRCLE
  5
23A
330
1F
100
AcDbEntity
  8
0
  6
HIDDEN
 62
     7
100
AcDbCircle
 10
2.6868723239
 20
6.6719771389
 30
0.0
 40
0.068740157480315
  0
LINE
  5
23B
330
1F
100
AcDbEntity
  8
0
  6
HIDDEN
 62
     7
100
AcDbLine
 10
2.6475022451
 20
6.6492468134
 30
0.0
 11
2.6475022451
 21
6.6947074645
 31
0.0
  0
LINE
  5
23C
330
1F
100
AcDbEntity
  8
0
  6
HIDDEN
 62
     7
100
AcDbLine
 10
2.6868723239
 20
6.6265164878
 30
0.0
 11
2.6475022451
 21
6.6492468134
 31
0.0
  0
LINE
  5
23D
330
1F
100
AcDbEntity
  8
0
  6
HIDDEN
 62
     7
100
AcDbLine
 10
2.7262424026
 20
6.6492468134
 30
0.0
 11
2.6868723239
 21
6.6265164878
 31
0.0
  0
LINE
  5
23E
330
1F
100
AcDbEntity
  8
0
  6
HIDDEN
 62
     7
100
AcDbLine
 10
2.7262424026
 20
6.6947074645
 30
0.0
 11
2.7262424026
 21
6.6492468134
 31
0.0
  0
LINE
  5
23F
330
1F
100
AcDbEntity
  8
0
  6
HIDDEN
 62
     7
100
AcDbLine
 10
2.6868723239
 20
6.71743779
 30
0.0
 11
2.7262424026
 21
6.6947074645
 31
0.0
  0
LINE
  5
240
330
1F
100
AcDbEntity
  8
0
  6
HIDDEN
 62
     7
100
AcDbLine
 10
2.6475022451
 20
6.6947074645
 30
0.0
 11
2.6868723239
 21
6.71743779
 31
0.0
  0
CIRCLE
  5
241
330
1F
100
AcDbEntity
  8
0
  6
HIDDEN
 62
     7
100
AcDbCircle
 10
2.6868723239
 20
6.6719771389
 30
0.0
 40
0.0787401574803153
  0
LINE
  5
242
330
1F
100
AcDbEntity
  8
0
  6
HIDDEN
 62
     7
100
AcDbLine
 10
2.5490770483
 20
6.5740453046
 30
0.0
 11
2.5490770483
 21
6.3767015484
 31
0.0
  0
LINE
  5
243
330
1F
100
AcDbEntity
  8
0
  6
HIDDEN
 62
     7
100
AcDbLine
 10
3.277423505
 20
6.9674989464
 30
0.0
 11
3.277423505
 21
6.3764553314
 31
0.0
  0
LINE
  5
244
330
1F
100
AcDbEntity
  8
0
  6
HIDDEN
 62
     7
100
AcDbLine
 10
2.5490770483
 20
6.9672527295
 30
0.0
 11
2.5490770483
 21
6.7699089733
 31
0.0
  0
SPLINE
  5
245
330
1F
100
AcDbEntity
  8
0
  6
HIDDEN
 62
     7
100
AcDbSpline
210
0.0
220
0.0
230
1.0
 70
     8
 71
     3
 72
    12
 73
     8
 74
     0
 42
0.00000001
 43
0.00000001
 40
0.0
 40
0.0
 40
0.0
 40
0.0
 40
0.5
 40
0.5
 40
0.75
 40
0.75
 40
1.0
 40
1.0
 40
1.0
 40
1.0
 10
2.549077048266442
 20
6.769908973277315
 30
0.0
 10
2.549077048266442
 20
6.737441048274043
 30
0.0
 10
2.549209695061324
 20
6.70486685230506
 30
0.0
 10
2.549210269971911
 20
6.655852532811211
 30
0.0
 10
2.549185717551014
 20
6.639488727664891
 30
0.0
 10
2.549119135306722
 20
6.606708457616926
 30
0.0
 10
2.549077048266442
 20
6.590279312802734
 30
0.0
 10
2.549077048266442
 20
6.574045304555541
 30
0.0
  0
SPLINE
  5
246
330
1F
100
AcDbEntity
  8
0
  6
HIDDEN
 62
     7
100
AcDbSpline
210
0.0
220
0.0
230
1.0
 70
     8
 71
     3
 72
    12
 73
     8
 74
     0
 42
0.00000001
 43
0.00000001
 40
0.0
 40
0.0
 40
0.0
 40
0.0
 40
0.0001601014040227
 40
0.2476661003831182
 40
0.4982844601222088
 40
0.7501289962523942
 40
1.0
 40
1.0
 40
1.0
 40
1.0
 10
4.030915520422764
 20
7.159659159201005
 30
0.0
 10
4.030918496407706
 20
7.159659526287328
 30
0.0
 10
4.035522144889006
 20
7.160227384130766
 30
0.0
 10
4.042566102651271
 20
7.161414670093992
 30
0.0
 10
4.051167696461821
 20
7.162877934668668
 30
0.0
 10
4.056638883032706
 20
7.163904052580738
 30
0.0
 10
4.057324699708431
 20
7.164036925728303
 30
0.0
 10
4.057666259192898
 20
7.16410310096928
 30
0.0
  0
SPLINE
  5
247
330
1F
100
AcDbEntity
  8
0
  6
HIDDEN
 62
     7
100
AcDbSpline
210
0.0
220
0.0
230
1.0
 70
     8
 71
     3
 72
    39
 73
    35
 74
     0
 42
0.00000001
 43
0.00000001
 40
-0.0947295368805395
 40
-0.0631220562492641
 40
-0.0313700572329296
 40
0.0
 40
0.0313857668471899
 40
0.0631300926508253
 40
0.0947107913188095
 40
0.125891523210157
 40
0.1569025400537319
 40
0.1880875961666491
 40
0.2192248879165363
 40
0.2499114061504734
 40
0.2805814827738438
 40
0.3117983423887317
 40
0.3430159418753708
 40
0.3740900329697586
 40
0.4052589495811139
 40
0.4368198118972416
 40
0.4685350890145401
 40
0.5000039184998385
 40
0.5314470500522618
 40
0.5632087383002518
 40
0.5947532424802013
 40
0.6259576707115971
 40
0.6569904382087164
 40
0.6882209229808209
 40
0.7193642321975181
 40
0.7500710465313414
 40
0.7807116163387212
 40
0.8119054237466189
 40
0.8430770819441595
 40
0.8741231018598001
 40
0.9052704631194604
 40
0.9368779437507357
 40
0.9686299427670703
 40
0.9999999999999999
 40
1.03138576684719
 40
1.063130092650825
 40
1.094710791318809
 10
2.596786063505624
 20
6.653673848144487
 30
0.0
 10
2.595018179831077
 20
6.67198036713662
 30
0.0
 10
2.596790073578612
 20
6.690284283659716
 30
0.0
 10
2.602125965176048
 20
6.707892305383005
 30
0.0
 10
2.610537638486974
 20
6.724170770405548
 30
0.0
 10
2.621902504211704
 20
6.738341549346557
 30
0.0
 10
2.635747705243153
 20
6.749985450465716
 30
0.0
 10
2.651670796008696
 20
6.758592694893689
 30
0.0
 10
2.668897781091444
 20
6.764058490629658
 30
0.0
 10
2.686816637217406
 20
6.765869863685006
 30
0.0
 10
2.704750411288416
 20
6.764059232072493
 30
0.0
 10
2.721998233304036
 20
6.758599376533533
 30
0.0
 10
2.737962663569781
 20
6.74999707149459
 30
0.0
 10
2.751830467602474
 20
6.738353606631433
 30
0.0
 10
2.763212587066779
 20
6.724189340817389
 30
0.0
 10
2.771632571393013
 20
6.707927440348571
 30
0.0
 10
2.776965442098721
 20
6.690310479687891
 30
0.0
 10
2.778724167859365
 20
6.671980778873807
 30
0.0
 10
2.77696027533362
 20
6.653642899593113
 30
0.0
 10
2.771624744330271
 20
6.636025715983291
 30
0.0
 10
2.763200093686147
 20
6.61975244150765
 30
0.0
 10
2.751820908862891
 20
6.605590769839651
 30
0.0
 10
2.737952309075912
 20
6.593946964019715
 30
0.0
 10
2.722005381443757
 20
6.58535243495165
 30
0.0
 10
2.704760972274701
 20
6.579899131739023
 30
0.0
 10
2.686843966446402
 20
6.578084875069877
 30
0.0
 10
2.668915239956745
 20
6.579889672759552
 30
0.0
 10
2.651688373015018
 20
6.585355577485876
 30
0.0
 10
2.635749426561737
 20
6.593964673647061
 30
0.0
 10
2.62190625971944
 20
6.605608547471955
 30
0.0
 10
2.610540091695929
 20
6.619785066082201
 30
0.0
 10
2.602131171366088
 20
6.636064780328208
 30
0.0
 10
2.596786063505624
 20
6.653673848144487
 30
0.0
 10
2.595018179831077
 20
6.67198036713662
 30
0.0
 10
2.596790073578612
 20
6.690284283659716
 30
0.0
  0
SPLINE
  5
248
330
1F
100
AcDbEntity
  8
0
  6
HIDDEN
 62
     7
100
AcDbSpline
210
0.0
220
0.0
230
1.0
 70
     8
 71
     3
 72
    12
 73
     8
 74
     0
 42
0.00000001
 43
0.00000001
 40
0.0
 40
0.0
 40
0.0
 40
0.0
 40
0.0001601014039977
 40
0.2476661003810366
 40
0.4982844601221257
 40
0.7501289962536216
 40
0.9999999999999999
 40
0.9999999999999999
 40
0.9999999999999999
 40
0.9999999999999999
 10
2.751387961367648
 20
7.159659159201006
 30
0.0
 10
2.751390937352589
 20
7.159659526287328
 30
0.0
 10
2.755994585833842
 20
7.160227384130859
 30
0.0
 10
2.763038543596128
 20
7.161414670093942
 30
0.0
 10
2.771640137406683
 20
7.162877934668679
 30
0.0
 10
2.777111323977675
 20
7.163904052580736
 30
0.0
 10
2.777797140653343
 20
7.164036925728302
 30
0.0
 10
2.778138700137781
 20
7.16410310096928
 30
0.0
  0
LINE
  5
249
330
1F
100
AcDbEntity
  8
0
  6
HIDDEN
 62
     7
100
AcDbLine
 10
2.84972027
 20
6.3767015484
 30
0.0
 11
2.84972027
 21
6.9672527295
 31
0.0
  0
SPLINE
  5
24A
330
1F
100
AcDbEntity
  8
0
  6
HIDDEN
 62
     7
100
AcDbSpline
210
0.0
220
0.0
230
1.0
 70
     8
 71
     3
 72
    33
 73
    29
 74
     0
 42
0.00000001
 43
0.00000001
 40
-0.088136476191949
 40
-0.0548809402293804
 40
-0.0255097459299295
 40
0.0
 40
0.0255543765619369
 40
0.0549332755435365
 40
0.0881595162233633
 40
0.1252470073544217
 40
0.1626102011766904
 40
0.1959142135376291
 40
0.2251720716009015
 40
0.2504061688627354
 40
0.3047324089647014
 40
0.3750058053978889
 40
0.4121618123248847
 40
0.4454214678031801
 40
0.4747985191175912
 40
0.5003156966337873
 40
0.554945918424138
 40
0.6249139740480539
 40
0.6622984183119021
 40
0.6956239091923586
 40
0.7249034066935492
 40
0.7501591986637745
 40
0.8044511424394013
 40
0.8747097927964032
 40
0.911863523808051
 40
0.9451190597706196
 40
0.9744902540700705
 40
1.0
 40
1.025554376561937
 40
1.054933275543537
 40
1.088159516223363
 10
2.608860094407627
 20
6.685239338669691
 30
0.0
 10
2.607793280575935
 20
6.671969751914321
 30
0.0
 10
2.60886179830848
 20
6.658699046803419
 30
0.0
 10
2.612512148929008
 20
6.644574349498752
 30
0.0
 10
2.61967621119467
 20
6.629718396973493
 30
0.0
 10
2.630724620375525
 20
6.615758575026329
 30
0.0
 10
2.644707612025967
 20
6.604714418365235
 30
0.0
 10
2.659611971665757
 20
6.597564992227521
 30
0.0
 10
2.673686829010609
 20
6.593958080153747
 30
0.0
 10
2.691625790190042
 20
6.592519968503114
 30
0.0
 10
2.71645046878981
 20
6.596765446845926
 30
0.0
 10
2.739663433408865
 20
6.611488497303431
 30
0.0
 10
2.754061834741135
 20
6.629712206682735
 30
0.0
 10
2.761238907517958
 20
6.64458587909277
 30
0.0
 10
2.764883450500376
 20
6.658712662817353
 30
0.0
 10
2.766339850381828
 20
6.676768994129406
 30
0.0
 10
2.762049155125196
 20
6.701641758938875
 30
0.0
 10
2.747277290310704
 20
6.724858502831316
 30
0.0
 10
2.729036471241548
 20
6.739236413194094
 30
0.0
 10
2.714118843960832
 20
6.746396275620556
 30
0.0
 10
2.700033153427773
 20
6.750000722195864
 30
0.0
 10
2.682091894793674
 20
6.751432459429643
 30
0.0
 10
2.657273914515545
 20
6.747179008951067
 30
0.0
 10
2.634071675908902
 20
6.732456585867824
 30
0.0
 10
2.619677883113098
 20
6.714234300163541
 30
0.0
 10
2.612503558073784
 20
6.699360844880907
 30
0.0
 10
2.608860094407627
 20
6.685239338669691
 30
0.0
 10
2.607793280575935
 20
6.671969751914321
 30
0.0
 10
2.60886179830848
 20
6.658699046803419
 30
0.0
  0
LINE
  5
24B
330
1F
100
AcDbEntity
  8
0
  6
HIDDEN
 62
     7
100
AcDbLine
 10
2.8694053094
 20
6.9672527295
 30
0.0
 11
2.8694053094
 21
6.3767015484
 31
0.0
  0
SPLINE
  5
24C
330
1F
100
AcDbEntity
  8
0
  6
HIDDEN
 62
     7
100
AcDbSpline
210
0.0
220
0.0
230
1.0
 70
     8
 71
     3
 72
    21
 73
    17
 74
     0
 42
0.00000001
 43
0.00000001
 40
0.0
 40
0.0
 40
0.0
 40
0.0
 40
0.0421793541930238
 40
0.1288565793120948
 40
0.2208678404751139
 40
0.3274697443155612
 40
0.375752065844011
 40
0.4252813694409798
 40
0.505100454201099
 40
0.5849867111577612
 40
0.6350978648371853
 40
0.68664636764852
 40
0.7899632755828935
 40
0.8480796798762535
 40
0.9083557889731537
 40
1.0
 40
1.0
 40
1.0
 40
1.0
 10
4.044245504497417
 20
6.789492977837931
 30
0.0
 10
4.044446462636471
 20
6.789626170500006
 30
0.0
 10
4.045060383330111
 20
6.790033069826769
 30
0.0
 10
4.038933399633536
 20
6.785971098408189
 30
0.0
 10
4.026799961349879
 20
6.77850913488797
 30
0.0
 10
4.011619509533093
 20
6.7705612526572
 30
0.0
 10
3.996916665056977
 20
6.76495856832243
 30
0.0
 10
3.982980401098025
 20
6.761105499214756
 30
0.0
 10
3.965025848601241
 20
6.759186596930523
 30
0.0
 10
3.947181988808858
 20
6.76165016821657
 30
0.0
 10
3.933186352091461
 20
6.765873891308146
 30
0.0
 10
3.918803127540596
 20
6.771711500171691
 30
0.0
 10
3.906184922371648
 20
6.778495848565892
 30
0.0
 10
3.896408882866056
 20
6.784398965907333
 30
0.0
 10
3.889446326150567
 20
6.788881344289425
 30
0.0
 10
3.888331956370013
 20
6.78963359089759
 30
0.0
 10
3.887659725431797
 20
6.790087375136899
 30
0.0
  0
SPLINE
  5
24D
330
1F
100
AcDbEntity
  8
0
  6
HIDDEN
 62
     7
100
AcDbSpline
210
0.0
220
0.0
230
1.0
 70
     8
 71
     3
 72
    21
 73
    17
 74
     0
 42
0.00000001
 43
0.00000001
 40
0.0
 40
0.0
 40
0.0
 40
0.0
 40
0.042179354193026
 40
0.1288565793120968
 40
0.2208678404751163
 40
0.3274697443155635
 40
0.3757520658440134
 40
0.4252813694409809
 40
0.5051004542011001
 40
0.5849867111577625
 40
0.6350978648371861
 40
0.6866463676485212
 40
0.789963275582895
 40
0.848079679876255
 40
0.9083557889731555
 40
1.0
 40
1.0
 40
1.0
 40
1.0
 10
2.764717945442299
 20
6.789492977837931
 30
0.0
 10
2.764918903581353
 20
6.789626170500006
 30
0.0
 10
2.765532824274993
 20
6.790033069826769
 30
0.0
 10
2.759405840578418
 20
6.785971098408189
 30
0.0
 10
2.74727240229476
 20
6.77850913488797
 30
0.0
 10
2.732091950477974
 20
6.7705612526572
 30
0.0
 10
2.717389106001859
 20
6.764958568322429
 30
0.0
 10
2.703452842042906
 20
6.761105499214756
 30
0.0
 10
2.685498289546123
 20
6.759186596930523
 30
0.0
 10
2.66765442975374
 20
6.76165016821657
 30
0.0
 10
2.653658793036342
 20
6.765873891308146
 30
0.0
 10
2.639275568485478
 20
6.771711500171691
 30
0.0
 10
2.62665736331653
 20
6.778495848565893
 30
0.0
 10
2.616881323810938
 20
6.784398965907333
 30
0.0
 10
2.609918767095449
 20
6.788881344289425
 30
0.0
 10
2.608804397314895
 20
6.78963359089759
 30
0.0
 10
2.608132166376679
 20
6.790087375136899
 30
0.0
  0
SPLINE
  5
24E
330
1F
100
AcDbEntity
  8
0
  6
HIDDEN
 62
     7
100
AcDbSpline
210
0.0
220
0.0
230
1.0
 70
     8
 71
     3
 72
    24
 73
    20
 74
     0
 42
0.00000001
 43
0.00000001
 40
0.0
 40
0.0
 40
0.0
 40
0.0
 40
0.0510099405537728
 40
0.1096541374469587
 40
0.1759781410000772
 40
0.250009714937367
 40
0.3245916281811291
 40
0.3910708743720701
 40
0.4494734574646391
 40
0.4998440778610782
 40
0.5502562924327326
 40
0.6086988887558243
 40
0.6752165420937883
 40
0.7498352510314746
 40
0.8240035916276071
 40
0.890394295571055
 40
0.9490348042740374
 40
0.9999704905750878
 40
1.0
 40
1.0
 40
1.0
 40
1.0
 10
2.608132166376679
 20
7.153416654554756
 30
0.0
 10
2.608330224266449
 20
7.153356247858165
 30
0.0
 10
2.608755981811579
 20
7.153226393870121
 30
0.0
 10
2.612546419064998
 20
7.152337711664694
 30
0.0
 10
2.619665291718917
 20
7.15098549853028
 30
0.0
 10
2.630727774967306
 20
7.149066054202262
 30
0.0
 10
2.644706662073343
 20
7.147146302984801
 30
0.0
 10
2.659612802670738
 20
7.145766902149776
 30
0.0
 10
2.673684752440767
 20
7.144912252300839
 30
0.0
 10
2.686839810753766
 20
7.144582578964596
 30
0.0
 10
2.699999035584983
 20
7.14491153550721
 30
0.0
 10
2.714083929531445
 20
7.145765404983914
 30
0.0
 10
2.729000732632359
 20
7.147143204375136
 30
0.0
 10
2.743009223012061
 20
7.149065591583153
 30
0.0
 10
2.75404940187016
 20
7.15097515519649
 30
0.0
 10
2.761295681598187
 20
7.152363230592448
 30
0.0
 10
2.7647045293224
 20
7.153146113070516
 30
0.0
 10
2.765948823722665
 20
7.153507056995958
 30
0.0
 10
2.765612091694317
 20
7.153416549830583
 30
0.0
 10
2.765611896722663
 20
7.15341649742591
 30
0.0
  0
SPLINE
  5
24F
330
1F
100
AcDbEntity
  8
0
  6
HIDDEN
 62
     7
100
AcDbSpline
210
0.0
220
0.0
230
1.0
 70
     8
 71
     3
 72
    24
 73
    20
 74
     0
 42
0.00000001
 43
0.00000001
 40
0.0
 40
0.0
 40
0.0
 40
0.0
 40
0.0510099405538855
 40
0.1096541374471093
 40
0.175978141000191
 40
0.2500097149373699
 40
0.3245916281810206
 40
0.3910708743719239
 40
0.4494734574645311
 40
0.4998440778610841
 40
0.5502562924321611
 40
0.6086988887550608
 40
0.675216542093217
 40
0.7498352510314766
 40
0.8240035916275964
 40
0.8903942955710409
 40
0.949034804274028
 40
0.9999704905750876
 40
0.9999999999999999
 40
0.9999999999999999
 40
0.9999999999999999
 40
0.9999999999999999
 10
3.887659725431797
 20
7.153416654554758
 30
0.0
 10
3.887857783321569
 20
7.153356247858166
 30
0.0
 10
3.8882835408667
 20
7.153226393870121
 30
0.0
 10
3.892073978120127
 20
7.152337711664695
 30
0.0
 10
3.899192850774048
 20
7.150985498530281
 30
0.0
 10
3.910255334022426
 20
7.149066054202263
 30
0.0
 10
3.924234221128444
 20
7.1471463029848
 30
0.0
 10
3.939140361725827
 20
7.145766902149776
 30
0.0
 10
3.953212311495863
 20
7.14491225230084
 30
0.0
 10
3.966367369808827
 20
7.144582578964597
 30
0.0
 10
3.97952659463999
 20
7.144911535507213
 30
0.0
 10
3.993611488586412
 20
7.145765404983918
 30
0.0
 10
4.008528291687384
 20
7.147143204375141
 30
0.0
 10
4.022536782067151
 20
7.149065591583149
 30
0.0
 10
4.033576960925273
 20
7.150975155196474
 30
0.0
 10
4.040823240653322
 20
7.152363230592424
 30
0.0
 10
4.044232088377466
 20
7.153146113070501
 30
0.0
 10
4.045476382777879
 20
7.153507056995948
 30
0.0
 10
4.045139650749435
 20
7.153416549830585
 30
0.0
 10
4.045139455777782
 20
7.153416497425911
 30
0.0
  0
LINE
  5
250
330
1F
100
AcDbEntity
  8
0
  6
HIDDEN
 62
     7
100
AcDbLine
 10
3.3759817331
 20
7.1641031232
 30
0.0
 11
3.2775282245
 21
7.1641031232
 31
0.0
  0
LINE
  5
251
330
1F
100
AcDbEntity
  8
0
  6
HIDDEN
 62
     7
100
AcDbLine
 10
3.2775282245
 20
6.1798511547
 30
0.0
 11
3.3759817331
 21
6.1798511547
 31
0.0
  0
LINE
  5
252
330
1F
100
AcDbEntity
  8
0
  6
HIDDEN
 62
     7
100
AcDbLine
 10
4.0451400404
 20
7.1541031232
 30
0.0
 11
4.0384510732
 21
7.1607920904
 31
0.0
  0
LINE
  5
253
330
1F
100
AcDbEntity
  8
0
  6
HIDDEN
 62
     7
100
AcDbLine
 10
3.8943500766
 20
7.1607934743
 30
0.0
 11
3.8876597254
 21
7.1541031232
 31
0.0
  0
LINE
  5
254
330
1F
100
AcDbEntity
  8
0
  6
HIDDEN
 62
     7
100
AcDbLine
 10
4.0451400404
 20
6.8000873751
 30
0.0
 11
4.0451400404
 21
7.1541031232
 31
0.0
  0
LINE
  5
255
330
1F
100
AcDbEntity
  8
0
  6
HIDDEN
 62
     7
100
AcDbLine
 10
3.8876597254
 20
7.1541031232
 30
0.0
 11
3.8876597254
 21
6.8000873751
 31
0.0
  0
LINE
  5
256
330
1F
100
AcDbEntity
  8
0
  6
HIDDEN
 62
     7
100
AcDbLine
 10
3.8876597254
 20
6.8000873751
 30
0.0
 11
3.8976597254
 21
6.7900873751
 31
0.0
  0
LINE
  5
257
330
1F
100
AcDbEntity
  8
0
  6
HIDDEN
 62
     7
100
AcDbLine
 10
4.0351400404
 20
6.7900873751
 30
0.0
 11
4.0451400404
 21
6.8000873751
 31
0.0
  0
LINE
  5
258
330
1F
100
AcDbEntity
  8
0
  6
HIDDEN
 62
     7
100
AcDbLine
 10
2.7656124813
 20
7.1541031232
 30
0.0
 11
2.7589235141
 21
7.1607920904
 31
0.0
  0
LINE
  5
259
330
1F
100
AcDbEntity
  8
0
  6
HIDDEN
 62
     7
100
AcDbLine
 10
2.6148225175
 20
7.1607934743
 30
0.0
 11
2.6081321664
 21
7.1541031232
 31
0.0
  0
LINE
  5
25A
330
1F
100
AcDbEntity
  8
0
  6
HIDDEN
 62
     7
100
AcDbLine
 10
2.7656124813
 20
6.8000873751
 30
0.0
 11
2.7656124813
 21
7.1541031232
 31
0.0
  0
LINE
  5
25B
330
1F
100
AcDbEntity
  8
0
  6
HIDDEN
 62
     7
100
AcDbLine
 10
2.6081321664
 20
7.1541031232
 30
0.0
 11
2.6081321664
 21
6.8000873751
 31
0.0
  0
LINE
  5
25C
330
1F
100
AcDbEntity
  8
0
  6
HIDDEN
 62
     7
100
AcDbLine
 10
2.6081321664
 20
6.8000873751
 30
0.0
 11
2.6181321664
 21
6.7900873751
 31
0.0
  0
LINE
  5
25D
330
1F
100
AcDbEntity
  8
0
  6
HIDDEN
 62
     7
100
AcDbLine
 10
2.7556124813
 20
6.7900873751
 30
0.0
 11
2.7656124813
 21
6.8000873751
 31
0.0
  0
LINE
  5
25E
330
1F
100
AcDbEntity
  8
0
  6
HIDDEN
 62
     7
100
AcDbLine
 10
4.1040621272
 20
6.1798511547
 30
0.0
 11
4.1040734269
 21
6.1798511547
 31
0.0
  0
LINE
  5
25F
330
1F
100
AcDbEntity
  8
0
  6
HIDDEN
 62
     7
100
AcDbLine
 10
4.1040734269
 20
7.1641031232
 30
0.0
 11
4.1040621272
 21
7.1641031232
 31
0.0
  0
LINE
  5
260
330
1F
100
AcDbEntity
  8
0
  6
HIDDEN
 62
     7
100
AcDbLine
 10
2.3817542136
 20
6.5388669027
 30
0.0
 11
2.3967542136
 21
6.5538669027
 31
0.0
  0
LINE
  5
261
330
1F
100
AcDbEntity
  8
0
  6
HIDDEN
 62
     7
100
AcDbLine
 10
2.3967542136
 20
6.7900873751
 30
0.0
 11
2.3817542136
 21
6.8050873751
 31
0.0
  0
LINE
  5
262
330
1F
100
AcDbEntity
  8
0
  6
HIDDEN
 62
     7
100
AcDbLine
 10
4.2715179931
 20
6.8050873751
 30
0.0
 11
4.2565179931
 21
6.7900873751
 31
0.0
  0
LINE
  5
263
330
1F
100
AcDbEntity
  8
0
  6
HIDDEN
 62
     7
100
AcDbLine
 10
4.2565179931
 20
6.5538669027
 30
0.0
 11
4.2715179931
 21
6.5388669027
 31
0.0
  0
LINE
  5
264
330
1F
100
AcDbEntity
  8
0
  6
HIDDEN
 62
     7
100
AcDbLine
 10
3.8876597254
 20
6.7900873751
 30
0.0
 11
3.7838668974
 21
6.7900873751
 31
0.0
  0
LINE
  5
265
330
1F
100
AcDbEntity
  8
0
  6
HIDDEN
 62
     7
100
AcDbLine
 10
4.2565179931
 20
6.7900873751
 30
0.0
 11
4.0442455045
 21
6.7900873751
 31
0.0
  0
LINE
  5
266
330
1F
100
AcDbEntity
  8
0
  6
HIDDEN
 62
     7
100
AcDbLine
 10
3.7838668974
 20
6.5538669027
 30
0.0
 11
4.2565179931
 21
6.5538669027
 31
0.0
  0
LINE
  5
267
330
1F
100
AcDbEntity
  8
0
  6
HIDDEN
 62
     7
100
AcDbLine
 10
2.6081321664
 20
6.7900873751
 30
0.0
 11
2.3967542136
 21
6.7900873751
 31
0.0
  0
LINE
  5
268
330
1F
100
AcDbEntity
  8
0
  6
HIDDEN
 62
     7
100
AcDbLine
 10
2.8694053094
 20
6.7900873751
 30
0.0
 11
2.7647179454
 21
6.7900873751
 31
0.0
  0
LINE
  5
269
330
1F
100
AcDbEntity
  8
0
  6
HIDDEN
 62
     7
100
AcDbLine
 10
2.3967542136
 20
6.5538669027
 30
0.0
 11
2.8694053094
 21
6.5538669027
 31
0.0
  0
LINE
  5
26A
330
1F
100
AcDbEntity
  8
0
  6
HIDDEN
 62
     7
100
AcDbLine
 10
2.7656124824
 20
7.1534166546
 30
0.0
 11
2.7781388178
 21
7.1641031232
 31
0.0
  0
LINE
  5
26B
330
1F
100
AcDbEntity
  8
0
  6
HIDDEN
 62
     7
100
AcDbLine
 10
2.595605829
 20
7.1641031234
 30
0.0
 11
2.6081321646
 21
7.1534166548
 31
0.0
  0
LINE
  5
26C
330
1F
100
AcDbEntity
  8
0
  6
HIDDEN
 62
     7
100
AcDbLine
 10
4.0451400414
 20
7.1534166546
 30
0.0
 11
4.0576663769
 21
7.1641031232
 31
0.0
  0
LINE
  5
26D
330
1F
100
AcDbEntity
  8
0
  6
HIDDEN
 62
     7
100
AcDbLine
 10
3.8751333881
 20
7.1641031234
 30
0.0
 11
3.8876597236
 21
7.1534166548
 31
0.0
  0
LINE
  5
26E
330
1F
100
AcDbEntity
  8
0
  6
HIDDEN
 62
     7
100
AcDbLine
 10
2.7656124813
 20
6.7894930458
 30
0.0
 11
2.7656124813
 21
7.1534166328
 31
0.0
  0
LINE
  5
26F
330
1F
100
AcDbEntity
  8
0
  6
HIDDEN
 62
     7
100
AcDbLine
 10
2.6081321664
 20
7.1534166546
 30
0.0
 11
2.6081321664
 21
6.7900873751
 31
0.0
  0
LINE
  5
270
330
1F
100
AcDbEntity
  8
0
  6
HIDDEN
 62
     7
100
AcDbLine
 10
4.0451400404
 20
6.7894930458
 30
0.0
 11
4.0451400404
 21
7.1534166328
 31
0.0
  0
LINE
  5
271
330
1F
100
AcDbEntity
  8
0
  6
HIDDEN
 62
     7
100
AcDbLine
 10
3.8876597254
 20
7.1534166546
 30
0.0
 11
3.8876597254
 21
6.7900873751
 31
0.0
  0
LINE
  5
272
330
1F
100
AcDbEntity
  8
0
  6
CONTINUOUS
 62
     7
100
AcDbLine
 10
7.8112540326
 20
7.1018862167
 30
0.0
 11
7.8117376497
 21
7.1016069397
 31
0.0
  0
LINE
  5
273
330
1F
100
AcDbEntity
  8
0
  6
CONTINUOUS
 62
     7
100
AcDbLine
 10
8.6816084422
 20
7.0171051804
 30
0.0
 11
8.6745362254
 21
7.0211892114
 31
0.0
  0
LINE
  5
274
330
1F
100
AcDbEntity
  8
0
  6
CONTINUOUS
 62
     7
100
AcDbLine
 10
8.5773071663
 20
7.0211892114
 30
0.0
 11
8.5702349496
 21
7.0171051804
 31
0.0
  0
LINE
  5
275
330
1F
100
AcDbEntity
  8
0
  6
CONTINUOUS
 62
     7
100
AcDbLine
 10
8.7046618533
 20
6.9784429794
 30
0.0
 11
8.7046618533
 21
6.9849683523
 31
0.0
  0
LINE
  5
276
330
1F
100
AcDbEntity
  8
0
  6
CONTINUOUS
 62
     7
100
AcDbLine
 10
8.5471815384
 20
6.9849683523
 30
0.0
 11
8.5471815384
 21
6.9808583346
 31
0.0
  0
LINE
  5
277
330
1F
100
AcDbEntity
  8
0
  6
CONTINUOUS
 62
     7
100
AcDbLine
 10
7.6725445526
 20
7.5434975506
 30
0.0
 11
7.6654723358
 21
7.5394135197
 31
0.0
  0
LINE
  5
278
330
1F
100
AcDbEntity
  8
0
  6
CONTINUOUS
 62
     7
100
AcDbLine
 10
7.6424189247
 20
7.5072766916
 30
0.0
 11
7.6424189247
 21
7.5031666739
 31
0.0
  0
LINE
  5
279
330
1F
100
AcDbEntity
  8
0
  6
CONTINUOUS
 62
     7
100
AcDbLine
 10
7.6622239769
 20
6.7279357123
 30
0.0
 11
7.6622239769
 21
6.2457265714
 31
0.0
  0
LINE
  5
27A
330
1F
100
AcDbEntity
  8
0
  6
CONTINUOUS
 62
     7
100
AcDbLine
 10
8.8311227364
 20
6.0710571249
 30
0.0
 11
8.8417276143
 21
6.0771811809
 31
0.0
  0
LINE
  5
27B
330
1F
100
AcDbEntity
  8
0
  6
CONTINUOUS
 62
     7
100
AcDbLine
 10
9.1790517996
 20
6.6615071215
 30
0.0
 11
9.1790517996
 21
6.6737532432
 31
0.0
  0
LINE
  5
27C
330
1F
100
AcDbEntity
  8
0
  6
CONTINUOUS
 62
     7
100
AcDbLine
 10
8.5096141221
 20
6.0901929962
 30
0.0
 11
8.5850231837
 21
6.0466602716
 31
0.0
  0
LINE
  5
27D
330
1F
100
AcDbEntity
  8
0
  6
CONTINUOUS
 62
     7
100
AcDbLine
 10
9.0771091742
 20
6.8990705692
 30
0.0
 11
8.756813804
 21
7.0839731506
 31
0.0
  0
LINE
  5
27E
330
1F
100
AcDbEntity
  8
0
  6
CONTINUOUS
 62
     7
100
AcDbLine
 10
8.5107142514
 20
7.0595762973
 30
0.0
 11
8.4967970888
 21
7.0515394784
 31
0.0
  0
LINE
  5
27F
330
1F
100
AcDbEntity
  8
0
  6
CONTINUOUS
 62
     7
100
AcDbLine
 10
7.8587434245
 20
7.9361624158
 30
0.0
 11
7.4411606797
 21
7.6950970284
 31
0.0
  0
LINE
  5
280
330
1F
100
AcDbEntity
  8
0
  6
CONTINUOUS
 62
     7
100
AcDbLine
 10
9.2694726438
 20
6.6394667041
 30
0.0
 11
9.2694726438
 21
7.121675845
 31
0.0
  0
LINE
  5
281
330
1F
100
AcDbEntity
  8
0
  6
CONTINUOUS
 62
     7
100
AcDbLine
 10
7.2699716038
 20
6.8058233894
 30
0.0
 11
7.590266974
 21
6.620920808
 31
0.0
  0
LINE
  5
282
330
1F
100
AcDbEntity
  8
0
  6
CONTINUOUS
 62
     7
100
AcDbLine
 10
7.1680289784
 20
7.0433868371
 30
0.0
 11
7.1680289784
 21
7.0311407155
 31
0.0
  0
POLYLINE
  5
283
330
1F
100
AcDbEntity
  8
0
  6
CONTINUOUS
 62
     7
100
AcDb2dPolyline
 66
     1
 10
0.0
 20
0.0
 30
0.0
  0
VERTEX
  5
33C
330
283
100
AcDbEntity
  8
0
  6
CONTINUOUS
 62
     7
100
AcDbVertex
100
AcDb2dVertex
 10
7.8531941608
 20
7.1371830089
 30
0.0
  0
VERTEX
  5
33D
330
283
100
AcDbEntity
  8
0
  6
CONTINUOUS
 62
     7
100
AcDbVertex
100
AcDb2dVertex
 10
7.8532822626
 20
7.1337542153
 30
0.0
  0
VERTEX
  5
33E
330
283
100
AcDbEntity
  8
0
  6
CONTINUOUS
 62
     7
100
AcDbVertex
100
AcDb2dVertex
 10
7.8524546423
 20
7.1239182872
 30
0.0
  0
VERTEX
  5
33F
330
283
100
AcDbEntity
  8
0
  6
CONTINUOUS
 62
     7
100
AcDbVertex
100
AcDb2dVertex
 10
7.8499999651
 20
7.1153728598
 30
0.0
  0
VERTEX
  5
340
330
283
100
AcDbEntity
  8
0
  6
CONTINUOUS
 62
     7
100
AcDbVertex
100
AcDb2dVertex
 10
7.8460018221
 20
7.1084089375
 30
0.0
  0
VERTEX
  5
341
330
283
100
AcDbEntity
  8
0
  6
CONTINUOUS
 62
     7
100
AcDbVertex
100
AcDb2dVertex
 10
7.8405963652
 20
7.1032636682
 30
0.0
  0
VERTEX
  5
342
330
283
100
AcDbEntity
  8
0
  6
CONTINUOUS
 62
     7
100
AcDbVertex
100
AcDb2dVertex
 10
7.8339676708
 20
7.100112268
 30
0.0
  0
VERTEX
  5
343
330
283
100
AcDbEntity
  8
0
  6
CONTINUOUS
 62
     7
100
AcDbVertex
100
AcDb2dVertex
 10
7.8263414711
 20
7.0990620539
 30
0.0
  0
VERTEX
  5
344
330
283
100
AcDbEntity
  8
0
  6
CONTINUOUS
 62
     7
100
AcDbVertex
100
AcDb2dVertex
 10
7.8179774672
 20
7.1001487899
 30
0.0
  0
VERTEX
  5
345
330
283
100
AcDbEntity
  8
0
  6
CONTINUOUS
 62
     7
100
AcDbVertex
100
AcDb2dVertex
 10
7.8115777797
 20
7.1022693338
 30
0.0
  0
SEQEND
  5
346
330
283
100
AcDbEntity
  8
0
  6
CONTINUOUS
 62
     7
  0
ARC
  5
284
330
1F
100
AcDbEntity
  8
0
  6
CONTINUOUS
 62
     7
100
AcDbCircle
 10
7.8357126007
 20
7.1362201826
 30
0.0
 40
0.042105520526538
100
AcDbArc
 50
235.2914916273
 51
283.2192156606
  0
POLYLINE
  5
285
330
1F
100
AcDbEntity
  8
0
  6
CONTINUOUS
 62
     7
100
AcDb2dPolyline
 66
     1
 10
0.0
 20
0.0
 30
0.0
  0
VERTEX
  5
347
330
285
100
AcDbEntity
  8
0
  6
CONTINUOUS
 62
     7
100
AcDbVertex
100
AcDb2dVertex
 10
8.6816084422
 20
7.0171051804
 30
0.0
  0
VERTEX
  5
348
330
285
100
AcDbEntity
  8
0
  6
CONTINUOUS
 62
     7
100
AcDbVertex
100
AcDb2dVertex
 10
8.68822049
 20
7.012767454
 30
0.0
  0
VERTEX
  5
349
330
285
100
AcDbEntity
  8
0
  6
CONTINUOUS
 62
     7
100
AcDbVertex
100
AcDb2dVertex
 10
8.695462558
 20
7.0062895883
 30
0.0
  0
VERTEX
  5
34A
330
285
100
AcDbEntity
  8
0
  6
CONTINUOUS
 62
     7
100
AcDbVertex
100
AcDb2dVertex
 10
8.700704062
 20
6.9991983494
 30
0.0
  0
VERTEX
  5
34B
330
285
100
AcDbEntity
  8
0
  6
CONTINUOUS
 62
     7
100
AcDbVertex
100
AcDb2dVertex
 10
8.7037942135
 20
6.9916977393
 30
0.0
  0
VERTEX
  5
34C
330
285
100
AcDbEntity
  8
0
  6
CONTINUOUS
 62
     7
100
AcDbVertex
100
AcDb2dVertex
 10
8.7046441145
 20
6.9840035371
 30
0.0
  0
VERTEX
  5
34D
330
285
100
AcDbEntity
  8
0
  6
CONTINUOUS
 62
     7
100
AcDbVertex
100
AcDb2dVertex
 10
8.7032293147
 20
6.9763370909
 30
0.0
  0
VERTEX
  5
34E
330
285
100
AcDbEntity
  8
0
  6
CONTINUOUS
 62
     7
100
AcDbVertex
100
AcDb2dVertex
 10
8.6995905156
 20
6.9689189503
 30
0.0
  0
VERTEX
  5
34F
330
285
100
AcDbEntity
  8
0
  6
CONTINUOUS
 62
     7
100
AcDbVertex
100
AcDb2dVertex
 10
8.6938323986
 20
6.9619625218
 30
0.0
  0
VERTEX
  5
350
330
285
100
AcDbEntity
  8
0
  6
CONTINUOUS
 62
     7
100
AcDbVertex
100
AcDb2dVertex
 10
8.6861206144
 20
6.9556679292
 30
0.0
  0
VERTEX
  5
351
330
285
100
AcDbEntity
  8
0
  6
CONTINUOUS
 62
     7
100
AcDbVertex
100
AcDb2dVertex
 10
8.6766770169
 20
6.9502162564
 30
0.0
  0
VERTEX
  5
352
330
285
100
AcDbEntity
  8
0
  6
CONTINUOUS
 62
     7
100
AcDbVertex
100
AcDb2dVertex
 10
8.6657732812
 20
6.9457643381
 30
0.0
  0
VERTEX
  5
353
330
285
100
AcDbEntity
  8
0
  6
CONTINUOUS
 62
     7
100
AcDbVertex
100
AcDb2dVertex
 10
8.6537230879
 20
6.9424402479
 30
0.0
  0
VERTEX
  5
354
330
285
100
AcDbEntity
  8
0
  6
CONTINUOUS
 62
     7
100
AcDbVertex
100
AcDb2dVertex
 10
8.6408730992
 20
6.9403396139
 30
0.0
  0
VERTEX
  5
355
330
285
100
AcDbEntity
  8
0
  6
CONTINUOUS
 62
     7
100
AcDbVertex
100
AcDb2dVertex
 10
8.6275929859
 20
6.9395228674
 30
0.0
  0
VERTEX
  5
356
330
285
100
AcDbEntity
  8
0
  6
CONTINUOUS
 62
     7
100
AcDbVertex
100
AcDb2dVertex
 10
8.6142647926
 20
6.9400135048
 30
0.0
  0
VERTEX
  5
357
330
285
100
AcDbEntity
  8
0
  6
CONTINUOUS
 62
     7
100
AcDbVertex
100
AcDb2dVertex
 10
8.6012719472
 20
6.9417974113
 30
0.0
  0
VERTEX
  5
358
330
285
100
AcDbEntity
  8
0
  6
CONTINUOUS
 62
     7
100
AcDbVertex
100
AcDb2dVertex
 10
8.5889882301
 20
6.9448232671
 30
0.0
  0
VERTEX
  5
359
330
285
100
AcDbEntity
  8
0
  6
CONTINUOUS
 62
     7
100
AcDbVertex
100
AcDb2dVertex
 10
8.5777670217
 20
6.949004024
 30
0.0
  0
VERTEX
  5
35A
330
285
100
AcDbEntity
  8
0
  6
CONTINUOUS
 62
     7
100
AcDbVertex
100
AcDb2dVertex
 10
8.5679311355
 20
6.9542194091
 30
0.0
  0
VERTEX
  5
35B
330
285
100
AcDbEntity
  8
0
  6
CONTINUOUS
 62
     7
100
AcDbVertex
100
AcDb2dVertex
 10
8.5597635322
 20
6.9603193853
 30
0.0
  0
VERTEX
  5
35C
330
285
100
AcDbEntity
  8
0
  6
CONTINUOUS
 62
     7
100
AcDbVertex
100
AcDb2dVertex
 10
8.5534991788
 20
6.9671284675
 30
0.0
  0
VERTEX
  5
35D
330
285
100
AcDbEntity
  8
0
  6
CONTINUOUS
 62
     7
100
AcDbVertex
100
AcDb2dVertex
 10
8.5493182893
 20
6.9744507706
 30
0.0
  0
VERTEX
  5
35E
330
285
100
AcDbEntity
  8
0
  6
CONTINUOUS
 62
     7
100
AcDbVertex
100
AcDb2dVertex
 10
8.5473411404
 20
6.9820756454
 30
0.0
  0
VERTEX
  5
35F
330
285
100
AcDbEntity
  8
0
  6
CONTINUOUS
 62
     7
100
AcDbVertex
100
AcDb2dVertex
 10
8.547624611
 20
6.9897837381
 30
0.0
  0
VERTEX
  5
360
330
285
100
AcDbEntity
  8
0
  6
CONTINUOUS
 62
     7
100
AcDbVertex
100
AcDb2dVertex
 10
8.5501605461
 20
6.997353301
 30
0.0
  0
VERTEX
  5
361
330
285
100
AcDbEntity
  8
0
  6
CONTINUOUS
 62
     7
100
AcDbVertex
100
AcDb2dVertex
 10
8.5548759917
 20
7.0045665714
 30
0.0
  0
VERTEX
  5
362
330
285
100
AcDbEntity
  8
0
  6
CONTINUOUS
 62
     7
100
AcDbVertex
100
AcDb2dVertex
 10
8.5616352927
 20
7.0112160367
 30
0.0
  0
VERTEX
  5
363
330
285
100
AcDbEntity
  8
0
  6
CONTINUOUS
 62
     7
100
AcDbVertex
100
AcDb2dVertex
 10
8.5702439966
 20
7.017110404
 30
0.0
  0
VERTEX
  5
364
330
285
100
AcDbEntity
  8
0
  6
CONTINUOUS
 62
     7
100
AcDbVertex
100
AcDb2dVertex
 10
8.5702439966
 20
7.017110404
 30
0.0
  0
SEQEND
  5
365
330
285
100
AcDbEntity
  8
0
  6
CONTINUOUS
 62
     7
  0
POLYLINE
  5
286
330
1F
100
AcDbEntity
  8
0
  6
CONTINUOUS
 62
     7
100
AcDb2dPolyline
 66
     1
 10
0.0
 20
0.0
 30
0.0
  0
VERTEX
  5
366
330
286
100
AcDbEntity
  8
0
  6
CONTINUOUS
 62
     7
100
AcDbVertex
100
AcDb2dVertex
 10
8.5773150644
 20
7.0211937715
 30
0.0
  0
VERTEX
  5
367
330
286
100
AcDbEntity
  8
0
  6
CONTINUOUS
 62
     7
100
AcDbVertex
100
AcDb2dVertex
 10
8.5692112395
 20
7.015559983
 30
0.0
  0
VERTEX
  5
368
330
286
100
AcDbEntity
  8
0
  6
CONTINUOUS
 62
     7
100
AcDbVertex
100
AcDb2dVertex
 10
8.5630386213
 20
7.0091624964
 30
0.0
  0
VERTEX
  5
369
330
286
100
AcDbEntity
  8
0
  6
CONTINUOUS
 62
     7
100
AcDbVertex
100
AcDb2dVertex
 10
8.5590074107
 20
7.0022191704
 30
0.0
  0
VERTEX
  5
36A
330
286
100
AcDbEntity
  8
0
  6
CONTINUOUS
 62
     7
100
AcDbVertex
100
AcDb2dVertex
 10
8.5572548859
 20
6.9949664516
 30
0.0
  0
VERTEX
  5
36B
330
286
100
AcDbEntity
  8
0
  6
CONTINUOUS
 62
     7
100
AcDbVertex
100
AcDb2dVertex
 10
8.5578407269
 20
6.9876513228
 30
0.0
  0
VERTEX
  5
36C
330
286
100
AcDbEntity
  8
0
  6
CONTINUOUS
 62
     7
100
AcDbVertex
100
AcDb2dVertex
 10
8.5607449836
 20
6.9805228918
 30
0.0
  0
VERTEX
  5
36D
330
286
100
AcDbEntity
  8
0
  6
CONTINUOUS
 62
     7
100
AcDbVertex
100
AcDb2dVertex
 10
8.5658687552
 20
6.9738239088
 30
0.0
  0
VERTEX
  5
36E
330
286
100
AcDbEntity
  8
0
  6
CONTINUOUS
 62
     7
100
AcDbVertex
100
AcDb2dVertex
 10
8.5730375575
 20
6.9677824996
 30
0.0
  0
VERTEX
  5
36F
330
286
100
AcDbEntity
  8
0
  6
CONTINUOUS
 62
     7
100
AcDbVertex
100
AcDb2dVertex
 10
8.5820072658
 20
6.9626043972
 30
0.0
  0
VERTEX
  5
370
330
286
100
AcDbEntity
  8
0
  6
CONTINUOUS
 62
     7
100
AcDbVertex
100
AcDb2dVertex
 10
8.5924724274
 20
6.9584659357
 30
0.0
  0
VERTEX
  5
371
330
286
100
AcDbEntity
  8
0
  6
CONTINUOUS
 62
     7
100
AcDbVertex
100
AcDb2dVertex
 10
8.6040766636
 20
6.9555080454
 30
0.0
  0
VERTEX
  5
372
330
286
100
AcDbEntity
  8
0
  6
CONTINUOUS
 62
     7
100
AcDbVertex
100
AcDb2dVertex
 10
8.6164248063
 20
6.9538314536
 30
0.0
  0
VERTEX
  5
373
330
286
100
AcDbEntity
  8
0
  6
CONTINUOUS
 62
     7
100
AcDbVertex
100
AcDb2dVertex
 10
8.6290963541
 20
6.9534932548
 30
0.0
  0
VERTEX
  5
374
330
286
100
AcDbEntity
  8
0
  6
CONTINUOUS
 62
     7
100
AcDbVertex
100
AcDb2dVertex
 10
8.6416597927
 20
6.9545049659
 30
0.0
  0
VERTEX
  5
375
330
286
100
AcDbEntity
  8
0
  6
CONTINUOUS
 62
     7
100
AcDbVertex
100
AcDb2dVertex
 10
8.6536872893
 20
6.9568321342
 30
0.0
  0
VERTEX
  5
376
330
286
100
AcDbEntity
  8
0
  6
CONTINUOUS
 62
     7
100
AcDbVertex
100
AcDb2dVertex
 10
8.664769262
 20
6.9603955109
 30
0.0
  0
VERTEX
  5
377
330
286
100
AcDbEntity
  8
0
  6
CONTINUOUS
 62
     7
100
AcDbVertex
100
AcDb2dVertex
 10
8.6745283274
 20
6.9650737494
 30
0.0
  0
VERTEX
  5
378
330
286
100
AcDbEntity
  8
0
  6
CONTINUOUS
 62
     7
100
AcDbVertex
100
AcDb2dVertex
 10
8.6826321522
 20
6.9707075379
 30
0.0
  0
VERTEX
  5
379
330
286
100
AcDbEntity
  8
0
  6
CONTINUOUS
 62
     7
100
AcDbVertex
100
AcDb2dVertex
 10
8.6888047704
 20
6.9771050245
 30
0.0
  0
VERTEX
  5
37A
330
286
100
AcDbEntity
  8
0
  6
CONTINUOUS
 62
     7
100
AcDbVertex
100
AcDb2dVertex
 10
8.692835981
 20
6.9840483505
 30
0.0
  0
VERTEX
  5
37B
330
286
100
AcDbEntity
  8
0
  6
CONTINUOUS
 62
     7
100
AcDbVertex
100
AcDb2dVertex
 10
8.6945885059
 20
6.9913010693
 30
0.0
  0
VERTEX
  5
37C
330
286
100
AcDbEntity
  8
0
  6
CONTINUOUS
 62
     7
100
AcDbVertex
100
AcDb2dVertex
 10
8.6940026649
 20
6.9986161981
 30
0.0
  0
VERTEX
  5
37D
330
286
100
AcDbEntity
  8
0
  6
CONTINUOUS
 62
     7
100
AcDbVertex
100
AcDb2dVertex
 10
8.6910984081
 20
7.0057446291
 30
0.0
  0
VERTEX
  5
37E
330
286
100
AcDbEntity
  8
0
  6
CONTINUOUS
 62
     7
100
AcDbVertex
100
AcDb2dVertex
 10
8.6859746366
 20
7.0124436121
 30
0.0
  0
VERTEX
  5
37F
330
286
100
AcDbEntity
  8
0
  6
CONTINUOUS
 62
     7
100
AcDbVertex
100
AcDb2dVertex
 10
8.6788058342
 20
7.0184850213
 30
0.0
  0
VERTEX
  5
380
330
286
100
AcDbEntity
  8
0
  6
CONTINUOUS
 62
     7
100
AcDbVertex
100
AcDb2dVertex
 10
8.6698361259
 20
7.0236631237
 30
0.0
  0
VERTEX
  5
381
330
286
100
AcDbEntity
  8
0
  6
CONTINUOUS
 62
     7
100
AcDbVertex
100
AcDb2dVertex
 10
8.6593709643
 20
7.0278015852
 30
0.0
  0
VERTEX
  5
382
330
286
100
AcDbEntity
  8
0
  6
CONTINUOUS
 62
     7
100
AcDbVertex
100
AcDb2dVertex
 10
8.6477667281
 20
7.0307594755
 30
0.0
  0
VERTEX
  5
383
330
286
100
AcDbEntity
  8
0
  6
CONTINUOUS
 62
     7
100
AcDbVertex
100
AcDb2dVertex
 10
8.6354185855
 20
7.0324360673
 30
0.0
  0
VERTEX
  5
384
330
286
100
AcDbEntity
  8
0
  6
CONTINUOUS
 62
     7
100
AcDbVertex
100
AcDb2dVertex
 10
8.6227470376
 20
7.0327742661
 30
0.0
  0
VERTEX
  5
385
330
286
100
AcDbEntity
  8
0
  6
CONTINUOUS
 62
     7
100
AcDbVertex
100
AcDb2dVertex
 10
8.610183599
 20
7.031762555
 30
0.0
  0
VERTEX
  5
386
330
286
100
AcDbEntity
  8
0
  6
CONTINUOUS
 62
     7
100
AcDbVertex
100
AcDb2dVertex
 10
8.5981561024
 20
7.0294353867
 30
0.0
  0
VERTEX
  5
387
330
286
100
AcDbEntity
  8
0
  6
CONTINUOUS
 62
     7
100
AcDbVertex
100
AcDb2dVertex
 10
8.5870741297
 20
7.02587201
 30
0.0
  0
VERTEX
  5
388
330
286
100
AcDbEntity
  8
0
  6
CONTINUOUS
 62
     7
100
AcDbVertex
100
AcDb2dVertex
 10
8.5773150644
 20
7.0211937715
 30
0.0
  0
SEQEND
  5
389
330
286
100
AcDbEntity
  8
0
  6
CONTINUOUS
 62
     7
  0
LINE
  5
287
330
1F
100
AcDbEntity
  8
0
  6
CONTINUOUS
 62
     7
100
AcDbLine
 10
8.6580672305
 20
7.0116909826
 30
0.0
 11
8.6141556135
 21
7.0184833973
 31
0.0
  0
LINE
  5
288
330
1F
100
AcDbEntity
  8
0
  6
CONTINUOUS
 62
     7
100
AcDbLine
 10
8.6141556135
 20
7.0184833973
 30
0.0
 11
8.5820100789
 21
6.9999261752
 31
0.0
  0
LINE
  5
289
330
1F
100
AcDbEntity
  8
0
  6
CONTINUOUS
 62
     7
100
AcDbLine
 10
8.5820100789
 20
6.9999261752
 30
0.0
 11
8.5937761612
 21
6.9745765383
 31
0.0
  0
LINE
  5
28A
330
1F
100
AcDbEntity
  8
0
  6
CONTINUOUS
 62
     7
100
AcDbLine
 10
8.5937761612
 20
6.9745765383
 30
0.0
 11
8.6376877782
 21
6.9677841235
 31
0.0
  0
LINE
  5
28B
330
1F
100
AcDbEntity
  8
0
  6
CONTINUOUS
 62
     7
100
AcDbLine
 10
8.6376877782
 20
6.9677841235
 30
0.0
 11
8.6698333129
 21
6.9863413457
 31
0.0
  0
LINE
  5
28C
330
1F
100
AcDbEntity
  8
0
  6
CONTINUOUS
 62
     7
100
AcDbLine
 10
8.6698333129
 20
6.9863413457
 30
0.0
 11
8.6580672305
 21
7.0116909826
 31
0.0
  0
LINE
  5
28D
330
1F
100
AcDbEntity
  8
0
  6
CONTINUOUS
 62
     7
100
AcDbLine
 10
8.6580672305
 20
6.979548931
 30
0.0
 11
8.6580672305
 21
7.0116909826
 31
0.0
  0
LINE
  5
28E
330
1F
100
AcDbEntity
  8
0
  6
CONTINUOUS
 62
     7
100
AcDbLine
 10
8.6141556135
 20
6.9714241676
 30
0.0
 11
8.6141556135
 21
7.0184833973
 31
0.0
  0
ARC
  5
28F
330
1F
100
AcDbEntity
  8
0
  6
CONTINUOUS
 62
     7
100
AcDbCircle
 10
7.7512811431
 20
7.5221062319
 30
0.0
 40
0.0534735551660118
100
AcDbArc
 50
298.5491013192
 51
320.5544858645
  0
POLYLINE
  5
290
330
1F
100
AcDbEntity
  8
0
  6
CONTINUOUS
 62
     7
100
AcDb2dPolyline
 66
     1
 10
0.0
 20
0.0
 30
0.0
  0
VERTEX
  5
38A
330
290
100
AcDbEntity
  8
0
  6
CONTINUOUS
 62
     7
100
AcDbVertex
100
AcDb2dVertex
 10
7.6654723358
 20
7.5394135197
 30
0.0
  0
VERTEX
  5
38B
330
290
100
AcDbEntity
  8
0
  6
CONTINUOUS
 62
     7
100
AcDbVertex
100
AcDb2dVertex
 10
7.6609601636
 20
7.5365771147
 30
0.0
  0
VERTEX
  5
38C
330
290
100
AcDbEntity
  8
0
  6
CONTINUOUS
 62
     7
100
AcDbVertex
100
AcDb2dVertex
 10
7.6532483794
 20
7.5302825221
 30
0.0
  0
VERTEX
  5
38D
330
290
100
AcDbEntity
  8
0
  6
CONTINUOUS
 62
     7
100
AcDbVertex
100
AcDb2dVertex
 10
7.6474902624
 20
7.5233260936
 30
0.0
  0
VERTEX
  5
38E
330
290
100
AcDbEntity
  8
0
  6
CONTINUOUS
 62
     7
100
AcDbVertex
100
AcDb2dVertex
 10
7.6438514633
 20
7.515907953
 30
0.0
  0
VERTEX
  5
38F
330
290
100
AcDbEntity
  8
0
  6
CONTINUOUS
 62
     7
100
AcDbVertex
100
AcDb2dVertex
 10
7.6424366635
 20
7.5082415068
 30
0.0
  0
VERTEX
  5
390
330
290
100
AcDbEntity
  8
0
  6
CONTINUOUS
 62
     7
100
AcDbVertex
100
AcDb2dVertex
 10
7.6432865645
 20
7.5005473046
 30
0.0
  0
VERTEX
  5
391
330
290
100
AcDbEntity
  8
0
  6
CONTINUOUS
 62
     7
100
AcDbVertex
100
AcDb2dVertex
 10
7.646376716
 20
7.4930466945
 30
0.0
  0
VERTEX
  5
392
330
290
100
AcDbEntity
  8
0
  6
CONTINUOUS
 62
     7
100
AcDbVertex
100
AcDb2dVertex
 10
7.65161822
 20
7.4859554556
 30
0.0
  0
VERTEX
  5
393
330
290
100
AcDbEntity
  8
0
  6
CONTINUOUS
 62
     7
100
AcDbVertex
100
AcDb2dVertex
 10
7.658860288
 20
7.4794775899
 30
0.0
  0
VERTEX
  5
394
330
290
100
AcDbEntity
  8
0
  6
CONTINUOUS
 62
     7
100
AcDbVertex
100
AcDb2dVertex
 10
7.6678945789
 20
7.4737994537
 30
0.0
  0
VERTEX
  5
395
330
290
100
AcDbEntity
  8
0
  6
CONTINUOUS
 62
     7
100
AcDbVertex
100
AcDb2dVertex
 10
7.6784611925
 20
7.4690843966
 30
0.0
  0
VERTEX
  5
396
330
290
100
AcDbEntity
  8
0
  6
CONTINUOUS
 62
     7
100
AcDbVertex
100
AcDb2dVertex
 10
7.6902561467
 20
7.4654680624
 30
0.0
  0
VERTEX
  5
397
330
290
100
AcDbEntity
  8
0
  6
CONTINUOUS
 62
     7
100
AcDbVertex
100
AcDb2dVertex
 10
7.7029401221
 20
7.4630544863
 30
0.0
  0
VERTEX
  5
398
330
290
100
AcDbEntity
  8
0
  6
CONTINUOUS
 62
     7
100
AcDbVertex
100
AcDb2dVertex
 10
7.7161482238
 20
7.4619131025
 30
0.0
  0
VERTEX
  5
399
330
290
100
AcDbEntity
  8
0
  6
CONTINUOUS
 62
     7
100
AcDbVertex
100
AcDb2dVertex
 10
7.7295004788
 20
7.4620767466
 30
0.0
  0
VERTEX
  5
39A
330
290
100
AcDbEntity
  8
0
  6
CONTINUOUS
 62
     7
100
AcDbVertex
100
AcDb2dVertex
 10
7.742612767
 20
7.4635407108
 30
0.0
  0
VERTEX
  5
39B
330
290
100
AcDbEntity
  8
0
  6
CONTINUOUS
 62
     7
100
AcDbVertex
100
AcDb2dVertex
 10
7.7551078717
 20
7.4662628795
 30
0.0
  0
VERTEX
  5
39C
330
290
100
AcDbEntity
  8
0
  6
CONTINUOUS
 62
     7
100
AcDbVertex
100
AcDb2dVertex
 10
7.7666263316
 20
7.470164941
 30
0.0
  0
VERTEX
  5
39D
330
290
100
AcDbEntity
  8
0
  6
CONTINUOUS
 62
     7
100
AcDbVertex
100
AcDb2dVertex
 10
7.7768367814
 20
7.4751346399
 30
0.0
  0
SEQEND
  5
39E
330
290
100
AcDbEntity
  8
0
  6
CONTINUOUS
 62
     7
  0
POLYLINE
  5
291
330
1F
100
AcDbEntity
  8
0
  6
CONTINUOUS
 62
     7
100
AcDb2dPolyline
 66
     1
 10
0.0
 20
0.0
 30
0.0
  0
VERTEX
  5
39F
330
291
100
AcDbEntity
  8
0
  6
CONTINUOUS
 62
     7
100
AcDbVertex
100
AcDb2dVertex
 10
7.7697657136
 20
7.4873820886
 30
0.0
  0
VERTEX
  5
3A0
330
291
100
AcDbEntity
  8
0
  6
CONTINUOUS
 62
     7
100
AcDbVertex
100
AcDb2dVertex
 10
7.7600066483
 20
7.4827038501
 30
0.0
  0
VERTEX
  5
3A1
330
291
100
AcDbEntity
  8
0
  6
CONTINUOUS
 62
     7
100
AcDbVertex
100
AcDb2dVertex
 10
7.7489246756
 20
7.4791404734
 30
0.0
  0
VERTEX
  5
3A2
330
291
100
AcDbEntity
  8
0
  6
CONTINUOUS
 62
     7
100
AcDbVertex
100
AcDb2dVertex
 10
7.736897179
 20
7.4768133051
 30
0.0
  0
VERTEX
  5
3A3
330
291
100
AcDbEntity
  8
0
  6
CONTINUOUS
 62
     7
100
AcDbVertex
100
AcDb2dVertex
 10
7.7243337404
 20
7.4758015941
 30
0.0
  0
VERTEX
  5
3A4
330
291
100
AcDbEntity
  8
0
  6
CONTINUOUS
 62
     7
100
AcDbVertex
100
AcDb2dVertex
 10
7.7116621925
 20
7.4761397929
 30
0.0
  0
VERTEX
  5
3A5
330
291
100
AcDbEntity
  8
0
  6
CONTINUOUS
 62
     7
100
AcDbVertex
100
AcDb2dVertex
 10
7.6993140499
 20
7.4778163846
 30
0.0
  0
VERTEX
  5
3A6
330
291
100
AcDbEntity
  8
0
  6
CONTINUOUS
 62
     7
100
AcDbVertex
100
AcDb2dVertex
 10
7.6877098137
 20
7.480774275
 30
0.0
  0
VERTEX
  5
3A7
330
291
100
AcDbEntity
  8
0
  6
CONTINUOUS
 62
     7
100
AcDbVertex
100
AcDb2dVertex
 10
7.6772446521
 20
7.4849127365
 30
0.0
  0
VERTEX
  5
3A8
330
291
100
AcDbEntity
  8
0
  6
CONTINUOUS
 62
     7
100
AcDbVertex
100
AcDb2dVertex
 10
7.6682749438
 20
7.4900908389
 30
0.0
  0
VERTEX
  5
3A9
330
291
100
AcDbEntity
  8
0
  6
CONTINUOUS
 62
     7
100
AcDbVertex
100
AcDb2dVertex
 10
7.6611061414
 20
7.496132248
 30
0.0
  0
VERTEX
  5
3AA
330
291
100
AcDbEntity
  8
0
  6
CONTINUOUS
 62
     7
100
AcDbVertex
100
AcDb2dVertex
 10
7.6559823699
 20
7.502831231
 30
0.0
  0
VERTEX
  5
3AB
330
291
100
AcDbEntity
  8
0
  6
CONTINUOUS
 62
     7
100
AcDbVertex
100
AcDb2dVertex
 10
7.6530781132
 20
7.509959662
 30
0.0
  0
VERTEX
  5
3AC
330
291
100
AcDbEntity
  8
0
  6
CONTINUOUS
 62
     7
100
AcDbVertex
100
AcDb2dVertex
 10
7.6524922721
 20
7.5172747909
 30
0.0
  0
VERTEX
  5
3AD
330
291
100
AcDbEntity
  8
0
  6
CONTINUOUS
 62
     7
100
AcDbVertex
100
AcDb2dVertex
 10
7.654244797
 20
7.5245275096
 30
0.0
  0
VERTEX
  5
3AE
330
291
100
AcDbEntity
  8
0
  6
CONTINUOUS
 62
     7
100
AcDbVertex
100
AcDb2dVertex
 10
7.6582760076
 20
7.5314708356
 30
0.0
  0
VERTEX
  5
3AF
330
291
100
AcDbEntity
  8
0
  6
CONTINUOUS
 62
     7
100
AcDbVertex
100
AcDb2dVertex
 10
7.6644486258
 20
7.5378683223
 30
0.0
  0
VERTEX
  5
3B0
330
291
100
AcDbEntity
  8
0
  6
CONTINUOUS
 62
     7
100
AcDbVertex
100
AcDb2dVertex
 10
7.6725524506
 20
7.5435021108
 30
0.0
  0
VERTEX
  5
3B1
330
291
100
AcDbEntity
  8
0
  6
CONTINUOUS
 62
     7
100
AcDbVertex
100
AcDb2dVertex
 10
7.682311516
 20
7.5481803493
 30
0.0
  0
VERTEX
  5
3B2
330
291
100
AcDbEntity
  8
0
  6
CONTINUOUS
 62
     7
100
AcDbVertex
100
AcDb2dVertex
 10
7.6933934887
 20
7.551743726
 30
0.0
  0
VERTEX
  5
3B3
330
291
100
AcDbEntity
  8
0
  6
CONTINUOUS
 62
     7
100
AcDbVertex
100
AcDb2dVertex
 10
7.7054209853
 20
7.5540708943
 30
0.0
  0
VERTEX
  5
3B4
330
291
100
AcDbEntity
  8
0
  6
CONTINUOUS
 62
     7
100
AcDbVertex
100
AcDb2dVertex
 10
7.7179844239
 20
7.5550826053
 30
0.0
  0
VERTEX
  5
3B5
330
291
100
AcDbEntity
  8
0
  6
CONTINUOUS
 62
     7
100
AcDbVertex
100
AcDb2dVertex
 10
7.7252064865
 20
7.5550561014
 30
0.0
  0
SEQEND
  5
3B6
330
291
100
AcDbEntity
  8
0
  6
CONTINUOUS
 62
     7
  0
POLYLINE
  5
292
330
1F
100
AcDbEntity
  8
0
  6
CONTINUOUS
 62
     7
100
AcDb2dPolyline
 66
     1
 10
0.0
 20
0.0
 30
0.0
  0
VERTEX
  5
3B7
330
292
100
AcDbEntity
  8
0
  6
CONTINUOUS
 62
     7
100
AcDbVertex
100
AcDb2dVertex
 10
7.78346383
 20
7.4986776045
 30
0.0
  0
VERTEX
  5
3B8
330
292
100
AcDbEntity
  8
0
  6
CONTINUOUS
 62
     7
100
AcDbVertex
100
AcDb2dVertex
 10
7.7778695385
 20
7.4930158771
 30
0.0
  0
VERTEX
  5
3B9
330
292
100
AcDbEntity
  8
0
  6
CONTINUOUS
 62
     7
100
AcDbVertex
100
AcDb2dVertex
 10
7.7697657136
 20
7.4873820886
 30
0.0
  0
SEQEND
  5
3BA
330
292
100
AcDbEntity
  8
0
  6
CONTINUOUS
 62
     7
  0
LINE
  5
293
330
1F
100
AcDbEntity
  8
0
  6
CONTINUOUS
 62
     7
100
AcDbLine
 10
7.6772474651
 20
7.5222345144
 30
0.0
 11
7.7093929998
 21
7.5407917366
 31
0.0
  0
LINE
  5
294
330
1F
100
AcDbEntity
  8
0
  6
CONTINUOUS
 62
     7
100
AcDbLine
 10
7.6890135475
 20
7.4968848775
 30
0.0
 11
7.6772474651
 21
7.5222345144
 31
0.0
  0
LINE
  5
295
330
1F
100
AcDbEntity
  8
0
  6
CONTINUOUS
 62
     7
100
AcDbLine
 10
7.7329251645
 20
7.4900924628
 30
0.0
 11
7.6890135475
 21
7.4968848775
 31
0.0
  0
LINE
  5
296
330
1F
100
AcDbEntity
  8
0
  6
CONTINUOUS
 62
     7
100
AcDbLine
 10
7.7650706991
 20
7.508649685
 30
0.0
 11
7.7329251645
 21
7.4900924628
 31
0.0
  0
LINE
  5
297
330
1F
100
AcDbEntity
  8
0
  6
CONTINUOUS
 62
     7
100
AcDbLine
 10
7.7565881054
 20
7.5269251538
 30
0.0
 11
7.7650706991
 21
7.508649685
 31
0.0
  0
LINE
  5
298
330
1F
100
AcDbEntity
  8
0
  6
CONTINUOUS
 62
     7
100
AcDbLine
 10
7.7093929998
 20
7.5407917366
 30
0.0
 11
7.7483835566
 21
7.53476053
 31
0.0
  0
LINE
  5
299
330
1F
100
AcDbEntity
  8
0
  6
CONTINUOUS
 62
     7
100
AcDbLine
 10
7.7533046168
 20
7.5018572702
 30
0.0
 11
7.7533046168
 21
7.5301031441
 31
0.0
  0
LINE
  5
29A
330
1F
100
AcDbEntity
  8
0
  6
CONTINUOUS
 62
     7
100
AcDbLine
 10
7.7093929998
 20
7.4937325069
 30
0.0
 11
7.7093929998
 21
7.5407917366
 31
0.0
  0
LINE
  5
29B
330
1F
100
AcDbEntity
  8
0
  6
CONTINUOUS
 62
     7
100
AcDbLine
 10
8.4519288855
 20
6.2180312489
 30
0.0
 11
8.4519288855
 21
6.056892018
 31
0.0
  0
POLYLINE
  5
29C
330
1F
100
AcDbEntity
  8
0
  6
CONTINUOUS
 62
     7
100
AcDb2dPolyline
 66
     1
 10
0.0
 20
0.0
 30
0.0
  0
VERTEX
  5
3BB
330
29C
100
AcDbEntity
  8
0
  6
CONTINUOUS
 62
     7
100
AcDbVertex
100
AcDb2dVertex
 10
7.6622239769
 20
6.2457265714
 30
0.0
  0
VERTEX
  5
3BC
330
29C
100
AcDbEntity
  8
0
  6
CONTINUOUS
 62
     7
100
AcDbVertex
100
AcDb2dVertex
 10
7.6622828826
 20
6.2414649565
 30
0.0
  0
VERTEX
  5
3BD
330
29C
100
AcDbEntity
  8
0
  6
CONTINUOUS
 62
     7
100
AcDbVertex
100
AcDb2dVertex
 10
7.6639685514
 20
6.222555597
 30
0.0
  0
VERTEX
  5
3BE
330
29C
100
AcDbEntity
  8
0
  6
CONTINUOUS
 62
     7
100
AcDbVertex
100
AcDb2dVertex
 10
7.667970935
 20
6.2037627181
 30
0.0
  0
VERTEX
  5
3BF
330
29C
100
AcDbEntity
  8
0
  6
CONTINUOUS
 62
     7
100
AcDbVertex
100
AcDb2dVertex
 10
7.6742699134
 20
6.1851807917
 30
0.0
  0
VERTEX
  5
3C0
330
29C
100
AcDbEntity
  8
0
  6
CONTINUOUS
 62
     7
100
AcDbVertex
100
AcDb2dVertex
 10
7.6828338216
 20
6.1669032293
 30
0.0
  0
VERTEX
  5
3C1
330
29C
100
AcDbEntity
  8
0
  6
CONTINUOUS
 62
     7
100
AcDbVertex
100
AcDb2dVertex
 10
7.6936196088
 20
6.1490219122
 30
0.0
  0
VERTEX
  5
3C2
330
29C
100
AcDbEntity
  8
0
  6
CONTINUOUS
 62
     7
100
AcDbVertex
100
AcDb2dVertex
 10
7.7065730548
 20
6.13162673
 30
0.0
  0
VERTEX
  5
3C3
330
29C
100
AcDbEntity
  8
0
  6
CONTINUOUS
 62
     7
100
AcDbVertex
100
AcDb2dVertex
 10
7.7216290425
 20
6.1148051283
 30
0.0
  0
VERTEX
  5
3C4
330
29C
100
AcDbEntity
  8
0
  6
CONTINUOUS
 62
     7
100
AcDbVertex
100
AcDb2dVertex
 10
7.7387118855
 20
6.0986416695
 30
0.0
  0
VERTEX
  5
3C5
330
29C
100
AcDbEntity
  8
0
  6
CONTINUOUS
 62
     7
100
AcDbVertex
100
AcDb2dVertex
 10
7.7577357081
 20
6.0832176072
 30
0.0
  0
VERTEX
  5
3C6
330
29C
100
AcDbEntity
  8
0
  6
CONTINUOUS
 62
     7
100
AcDbVertex
100
AcDb2dVertex
 10
7.7786048775
 20
6.0686104784
 30
0.0
  0
VERTEX
  5
3C7
330
29C
100
AcDbEntity
  8
0
  6
CONTINUOUS
 62
     7
100
AcDbVertex
100
AcDb2dVertex
 10
7.8012144843
 20
6.0548937131
 30
0.0
  0
VERTEX
  5
3C8
330
29C
100
AcDbEntity
  8
0
  6
CONTINUOUS
 62
     7
100
AcDbVertex
100
AcDb2dVertex
 10
7.8254508699
 20
6.0421362657
 30
0.0
  0
VERTEX
  5
3C9
330
29C
100
AcDbEntity
  8
0
  6
CONTINUOUS
 62
     7
100
AcDbVertex
100
AcDb2dVertex
 10
7.8511921978
 20
6.0304022678
 30
0.0
  0
VERTEX
  5
3CA
330
29C
100
AcDbEntity
  8
0
  6
CONTINUOUS
 62
     7
100
AcDbVertex
100
AcDb2dVertex
 10
7.8783090662
 20
6.0197507064
 30
0.0
  0
VERTEX
  5
3CB
330
29C
100
AcDbEntity
  8
0
  6
CONTINUOUS
 62
     7
100
AcDbVertex
100
AcDb2dVertex
 10
7.9066651585
 20
6.0102351268
 30
0.0
  0
VERTEX
  5
3CC
330
29C
100
AcDbEntity
  8
0
  6
CONTINUOUS
 62
     7
100
AcDbVertex
100
AcDb2dVertex
 10
7.9361179284
 20
6.0019033641
 30
0.0
  0
VERTEX
  5
3CD
330
29C
100
AcDbEntity
  8
0
  6
CONTINUOUS
 62
     7
100
AcDbVertex
100
AcDb2dVertex
 10
7.9665193168
 20
5.9947973019
 30
0.0
  0
VERTEX
  5
3CE
330
29C
100
AcDbEntity
  8
0
  6
CONTINUOUS
 62
     7
100
AcDbVertex
100
AcDb2dVertex
 10
7.9977164956
 20
5.9889526626
 30
0.0
  0
VERTEX
  5
3CF
330
29C
100
AcDbEntity
  8
0
  6
CONTINUOUS
 62
     7
100
AcDbVertex
100
AcDb2dVertex
 10
8.0295526365
 20
5.984398827
 30
0.0
  0
VERTEX
  5
3D0
330
29C
100
AcDbEntity
  8
0
  6
CONTINUOUS
 62
     7
100
AcDbVertex
100
AcDb2dVertex
 10
8.061867699
 20
5.9811586875
 30
0.0
  0
VERTEX
  5
3D1
330
29C
100
AcDbEntity
  8
0
  6
CONTINUOUS
 62
     7
100
AcDbVertex
100
AcDb2dVertex
 10
8.0944992352
 20
5.9792485322
 30
0.0
  0
VERTEX
  5
3D2
330
29C
100
AcDbEntity
  8
0
  6
CONTINUOUS
 62
     7
100
AcDbVertex
100
AcDb2dVertex
 10
8.1272832061
 20
5.9786779634
 30
0.0
  0
VERTEX
  5
3D3
330
29C
100
AcDbEntity
  8
0
  6
CONTINUOUS
 62
     7
100
AcDbVertex
100
AcDb2dVertex
 10
8.1600548065
 20
5.9794498494
 30
0.0
  0
VERTEX
  5
3D4
330
29C
100
AcDbEntity
  8
0
  6
CONTINUOUS
 62
     7
100
AcDbVertex
100
AcDb2dVertex
 10
8.1926492935
 20
5.9815603099
 30
0.0
  0
VERTEX
  5
3D5
330
29C
100
AcDbEntity
  8
0
  6
CONTINUOUS
 62
     7
100
AcDbVertex
100
AcDb2dVertex
 10
8.2249028142
 20
5.9849987357
 30
0.0
  0
VERTEX
  5
3D6
330
29C
100
AcDbEntity
  8
0
  6
CONTINUOUS
 62
     7
100
AcDbVertex
100
AcDb2dVertex
 10
8.2566532303
 20
5.9897478418
 30
0.0
  0
VERTEX
  5
3D7
330
29C
100
AcDbEntity
  8
0
  6
CONTINUOUS
 62
     7
100
AcDbVertex
100
AcDb2dVertex
 10
8.287740932
 20
5.9957837542
 30
0.0
  0
VERTEX
  5
3D8
330
29C
100
AcDbEntity
  8
0
  6
CONTINUOUS
 62
     7
100
AcDbVertex
100
AcDb2dVertex
 10
8.3180096413
 20
6.0030761306
 30
0.0
  0
VERTEX
  5
3D9
330
29C
100
AcDbEntity
  8
0
  6
CONTINUOUS
 62
     7
100
AcDbVertex
100
AcDb2dVertex
 10
8.3473071974
 20
6.0115883121
 30
0.0
  0
VERTEX
  5
3DA
330
29C
100
AcDbEntity
  8
0
  6
CONTINUOUS
 62
     7
100
AcDbVertex
100
AcDb2dVertex
 10
8.3754863212
 20
6.0212775079
 30
0.0
  0
VERTEX
  5
3DB
330
29C
100
AcDbEntity
  8
0
  6
CONTINUOUS
 62
     7
100
AcDbVertex
100
AcDb2dVertex
 10
8.4024053561
 20
6.0320950103
 30
0.0
  0
VERTEX
  5
3DC
330
29C
100
AcDbEntity
  8
0
  6
CONTINUOUS
 62
     7
100
AcDbVertex
100
AcDb2dVertex
 10
8.42792898
 20
6.0439864398
 30
0.0
  0
VERTEX
  5
3DD
330
29C
100
AcDbEntity
  8
0
  6
CONTINUOUS
 62
     7
100
AcDbVertex
100
AcDb2dVertex
 10
8.4519288855
 20
6.056892018
 30
0.0
  0
SEQEND
  5
3DE
330
29C
100
AcDbEntity
  8
0
  6
CONTINUOUS
 62
     7
  0
SPLINE
  5
29D
330
1F
100
AcDbEntity
  8
0
  6
CONTINUOUS
 62
     7
100
AcDbSpline
210
0.0
220
0.0
230
1.0
 70
     8
 71
     3
 72
     8
 73
     4
 74
     0
 42
0.00000001
 43
0.00000001
 40
0.0
 40
0.0
 40
0.0
 40
0.0
 40
0.0002500923556256
 40
0.0002500923556256
 40
0.0002500923556256
 40
0.0002500923556256
 10
7.790830254146351
 20
6.912709762336759
 30
0.0
 10
7.793101112055577
 20
6.914077711210108
 30
0.0
 10
7.795398060288922
 20
6.915499244291961
 30
0.0
 10
7.797715918684648
 20
6.916971311928773
 30
0.0
  0
POLYLINE
  5
29E
330
1F
100
AcDbEntity
  8
0
  6
CONTINUOUS
 62
     7
100
AcDb2dPolyline
 66
     1
 10
0.0
 20
0.0
 30
0.0
  0
VERTEX
  5
3DF
330
29E
100
AcDbEntity
  8
0
  6
CONTINUOUS
 62
     7
100
AcDbVertex
100
AcDb2dVertex
 10
7.7908302541
 20
6.9127097623
 30
0.0
  0
VERTEX
  5
3E0
330
29E
100
AcDbEntity
  8
0
  6
CONTINUOUS
 62
     7
100
AcDbVertex
100
AcDb2dVertex
 10
7.7689904117
 20
6.8985834614
 30
0.0
  0
VERTEX
  5
3E1
330
29E
100
AcDbEntity
  8
0
  6
CONTINUOUS
 62
     7
100
AcDbVertex
100
AcDb2dVertex
 10
7.7489393386
 20
6.8835993133
 30
0.0
  0
VERTEX
  5
3E2
330
29E
100
AcDbEntity
  8
0
  6
CONTINUOUS
 62
     7
100
AcDbVertex
100
AcDb2dVertex
 10
7.7307778317
 20
6.8678326434
 30
0.0
  0
VERTEX
  5
3E3
330
29E
100
AcDbEntity
  8
0
  6
CONTINUOUS
 62
     7
100
AcDbVertex
100
AcDb2dVertex
 10
7.714597189
 20
6.8513627109
 30
0.0
  0
VERTEX
  5
3E4
330
29E
100
AcDbEntity
  8
0
  6
CONTINUOUS
 62
     7
100
AcDbVertex
100
AcDb2dVertex
 10
7.7004787507
 20
6.8342723102
 30
0.0
  0
VERTEX
  5
3E5
330
29E
100
AcDbEntity
  8
0
  6
CONTINUOUS
 62
     7
100
AcDbVertex
100
AcDb2dVertex
 10
7.6884934902
 20
6.8166473549
 30
0.0
  0
VERTEX
  5
3E6
330
29E
100
AcDbEntity
  8
0
  6
CONTINUOUS
 62
     7
100
AcDbVertex
100
AcDb2dVertex
 10
7.6787016575
 20
6.7985764456
 30
0.0
  0
VERTEX
  5
3E7
330
29E
100
AcDbEntity
  8
0
  6
CONTINUOUS
 62
     7
100
AcDbVertex
100
AcDb2dVertex
 10
7.6711524763
 20
6.780150425
 30
0.0
  0
VERTEX
  5
3E8
330
29E
100
AcDbEntity
  8
0
  6
CONTINUOUS
 62
     7
100
AcDbVertex
100
AcDb2dVertex
 10
7.6658838962
 20
6.7614619207
 30
0.0
  0
VERTEX
  5
3E9
330
29E
100
AcDbEntity
  8
0
  6
CONTINUOUS
 62
     7
100
AcDbVertex
100
AcDb2dVertex
 10
7.6629224025
 20
6.74260488
 30
0.0
  0
VERTEX
  5
3EA
330
29E
100
AcDbEntity
  8
0
  6
CONTINUOUS
 62
     7
100
AcDbVertex
100
AcDb2dVertex
 10
7.6622828826
 20
6.7236740974
 30
0.0
  0
VERTEX
  5
3EB
330
29E
100
AcDbEntity
  8
0
  6
CONTINUOUS
 62
     7
100
AcDbVertex
100
AcDb2dVertex
 10
7.6639685514
 20
6.7047647378
 30
0.0
  0
VERTEX
  5
3EC
330
29E
100
AcDbEntity
  8
0
  6
CONTINUOUS
 62
     7
100
AcDbVertex
100
AcDb2dVertex
 10
7.667970935
 20
6.6859718589
 30
0.0
  0
VERTEX
  5
3ED
330
29E
100
AcDbEntity
  8
0
  6
CONTINUOUS
 62
     7
100
AcDbVertex
100
AcDb2dVertex
 10
7.6742699134
 20
6.6673899326
 30
0.0
  0
VERTEX
  5
3EE
330
29E
100
AcDbEntity
  8
0
  6
CONTINUOUS
 62
     7
100
AcDbVertex
100
AcDb2dVertex
 10
7.6828338216
 20
6.6491123701
 30
0.0
  0
VERTEX
  5
3EF
330
29E
100
AcDbEntity
  8
0
  6
CONTINUOUS
 62
     7
100
AcDbVertex
100
AcDb2dVertex
 10
7.6936196088
 20
6.6312310531
 30
0.0
  0
VERTEX
  5
3F0
330
29E
100
AcDbEntity
  8
0
  6
CONTINUOUS
 62
     7
100
AcDbVertex
100
AcDb2dVertex
 10
7.7065730548
 20
6.6138358709
 30
0.0
  0
VERTEX
  5
3F1
330
29E
100
AcDbEntity
  8
0
  6
CONTINUOUS
 62
     7
100
AcDbVertex
100
AcDb2dVertex
 10
7.7216290425
 20
6.5970142692
 30
0.0
  0
VERTEX
  5
3F2
330
29E
100
AcDbEntity
  8
0
  6
CONTINUOUS
 62
     7
100
AcDbVertex
100
AcDb2dVertex
 10
7.7387118855
 20
6.5808508103
 30
0.0
  0
VERTEX
  5
3F3
330
29E
100
AcDbEntity
  8
0
  6
CONTINUOUS
 62
     7
100
AcDbVertex
100
AcDb2dVertex
 10
7.7577357081
 20
6.5654267481
 30
0.0
  0
VERTEX
  5
3F4
330
29E
100
AcDbEntity
  8
0
  6
CONTINUOUS
 62
     7
100
AcDbVertex
100
AcDb2dVertex
 10
7.7786048775
 20
6.5508196192
 30
0.0
  0
VERTEX
  5
3F5
330
29E
100
AcDbEntity
  8
0
  6
CONTINUOUS
 62
     7
100
AcDbVertex
100
AcDb2dVertex
 10
7.8012144843
 20
6.537102854
 30
0.0
  0
VERTEX
  5
3F6
330
29E
100
AcDbEntity
  8
0
  6
CONTINUOUS
 62
     7
100
AcDbVertex
100
AcDb2dVertex
 10
7.8254508699
 20
6.5243454065
 30
0.0
  0
VERTEX
  5
3F7
330
29E
100
AcDbEntity
  8
0
  6
CONTINUOUS
 62
     7
100
AcDbVertex
100
AcDb2dVertex
 10
7.8511921978
 20
6.5126114087
 30
0.0
  0
VERTEX
  5
3F8
330
29E
100
AcDbEntity
  8
0
  6
CONTINUOUS
 62
     7
100
AcDbVertex
100
AcDb2dVertex
 10
7.8783090662
 20
6.5019598472
 30
0.0
  0
VERTEX
  5
3F9
330
29E
100
AcDbEntity
  8
0
  6
CONTINUOUS
 62
     7
100
AcDbVertex
100
AcDb2dVertex
 10
7.9066651585
 20
6.4924442677
 30
0.0
  0
VERTEX
  5
3FA
330
29E
100
AcDbEntity
  8
0
  6
CONTINUOUS
 62
     7
100
AcDbVertex
100
AcDb2dVertex
 10
7.9361179284
 20
6.484112505
 30
0.0
  0
VERTEX
  5
3FB
330
29E
100
AcDbEntity
  8
0
  6
CONTINUOUS
 62
     7
100
AcDbVertex
100
AcDb2dVertex
 10
7.9665193168
 20
6.4770064428
 30
0.0
  0
VERTEX
  5
3FC
330
29E
100
AcDbEntity
  8
0
  6
CONTINUOUS
 62
     7
100
AcDbVertex
100
AcDb2dVertex
 10
7.9977164956
 20
6.4711618034
 30
0.0
  0
VERTEX
  5
3FD
330
29E
100
AcDbEntity
  8
0
  6
CONTINUOUS
 62
     7
100
AcDbVertex
100
AcDb2dVertex
 10
8.0295526365
 20
6.4666079679
 30
0.0
  0
VERTEX
  5
3FE
330
29E
100
AcDbEntity
  8
0
  6
CONTINUOUS
 62
     7
100
AcDbVertex
100
AcDb2dVertex
 10
8.061867699
 20
6.4633678284
 30
0.0
  0
VERTEX
  5
3FF
330
29E
100
AcDbEntity
  8
0
  6
CONTINUOUS
 62
     7
100
AcDbVertex
100
AcDb2dVertex
 10
8.0944992352
 20
6.4614576731
 30
0.0
  0
VERTEX
  5
400
330
29E
100
AcDbEntity
  8
0
  6
CONTINUOUS
 62
     7
100
AcDbVertex
100
AcDb2dVertex
 10
8.1272832061
 20
6.4608871043
 30
0.0
  0
VERTEX
  5
401
330
29E
100
AcDbEntity
  8
0
  6
CONTINUOUS
 62
     7
100
AcDbVertex
100
AcDb2dVertex
 10
8.1600548065
 20
6.4616589903
 30
0.0
  0
VERTEX
  5
402
330
29E
100
AcDbEntity
  8
0
  6
CONTINUOUS
 62
     7
100
AcDbVertex
100
AcDb2dVertex
 10
8.1926492935
 20
6.4637694508
 30
0.0
  0
VERTEX
  5
403
330
29E
100
AcDbEntity
  8
0
  6
CONTINUOUS
 62
     7
100
AcDbVertex
100
AcDb2dVertex
 10
8.2249028142
 20
6.4672078766
 30
0.0
  0
VERTEX
  5
404
330
29E
100
AcDbEntity
  8
0
  6
CONTINUOUS
 62
     7
100
AcDbVertex
100
AcDb2dVertex
 10
8.2566532303
 20
6.4719569826
 30
0.0
  0
VERTEX
  5
405
330
29E
100
AcDbEntity
  8
0
  6
CONTINUOUS
 62
     7
100
AcDbVertex
100
AcDb2dVertex
 10
8.287740932
 20
6.4779928951
 30
0.0
  0
VERTEX
  5
406
330
29E
100
AcDbEntity
  8
0
  6
CONTINUOUS
 62
     7
100
AcDbVertex
100
AcDb2dVertex
 10
8.3180096413
 20
6.4852852715
 30
0.0
  0
VERTEX
  5
407
330
29E
100
AcDbEntity
  8
0
  6
CONTINUOUS
 62
     7
100
AcDbVertex
100
AcDb2dVertex
 10
8.3473071974
 20
6.493797453
 30
0.0
  0
VERTEX
  5
408
330
29E
100
AcDbEntity
  8
0
  6
CONTINUOUS
 62
     7
100
AcDbVertex
100
AcDb2dVertex
 10
8.3754863212
 20
6.5034866488
 30
0.0
  0
VERTEX
  5
409
330
29E
100
AcDbEntity
  8
0
  6
CONTINUOUS
 62
     7
100
AcDbVertex
100
AcDb2dVertex
 10
8.4024053561
 20
6.5143041512
 30
0.0
  0
VERTEX
  5
40A
330
29E
100
AcDbEntity
  8
0
  6
CONTINUOUS
 62
     7
100
AcDbVertex
100
AcDb2dVertex
 10
8.42792898
 20
6.5261955807
 30
0.0
  0
VERTEX
  5
40B
330
29E
100
AcDbEntity
  8
0
  6
CONTINUOUS
 62
     7
100
AcDbVertex
100
AcDb2dVertex
 10
8.4519288855
 20
6.5391011589
 30
0.0
  0
SEQEND
  5
40C
330
29E
100
AcDbEntity
  8
0
  6
CONTINUOUS
 62
     7
  0
LINE
  5
29F
330
1F
100
AcDbEntity
  8
0
  6
CONTINUOUS
 62
     7
100
AcDbLine
 10
8.4519288855
 20
6.5391011589
 30
0.0
 11
8.4519288855
 21
6.377961928
 31
0.0
  0
SPLINE
  5
2A0
330
1F
100
AcDbEntity
  8
0
  6
CONTINUOUS
 62
     7
100
AcDbSpline
210
0.0
220
0.0
230
1.0
 70
     8
 71
     3
 72
    12
 73
     8
 74
     0
 42
0.00000001
 43
0.00000001
 40
0.0
 40
0.0
 40
0.0
 40
0.0
 40
0.5
 40
0.5
 40
0.75
 40
0.75
 40
1.0
 40
1.0
 40
1.0
 40
1.0
 10
8.451928885530467
 20
6.37796192797357
 30
0.0
 10
8.447267005622425
 20
6.34875929442644
 30
0.0
 10
8.444905395104193
 20
6.320883040972092
 30
0.0
 10
8.44489004046928
 20
6.280852351430788
 30
0.0
 10
8.445472516013872
 20
6.26781111592644
 30
0.0
 10
8.447823198315083
 20
6.242358921243605
 30
0.0
 10
8.449597941506042
 20
6.22994134048197
 30
0.0
 10
8.451928885530467
 20
6.218031248896571
 30
0.0
  0
LINE
  5
2A1
330
1F
100
AcDbEntity
  8
0
  6
CONTINUOUS
 62
     7
100
AcDbLine
 10
8.3823317614
 20
6.5792787234
 30
0.0
 11
8.4449691731
 21
6.6154385315
 31
0.0
  0
LINE
  5
2A2
330
1F
100
AcDbEntity
  8
0
  6
CONTINUOUS
 62
     7
100
AcDbLine
 10
8.5145662972
 20
6.575260967
 30
0.0
 11
8.4449691731
 21
6.6154385315
 31
0.0
  0
LINE
  5
2A3
330
1F
100
AcDbEntity
  8
0
  6
CONTINUOUS
 62
     7
100
AcDbLine
 10
8.4519288855
 20
6.5391011589
 30
0.0
 11
8.5145662972
 21
6.575260967
 31
0.0
  0
LINE
  5
2A4
330
1F
100
AcDbEntity
  8
0
  6
CONTINUOUS
 62
     7
100
AcDbLine
 10
7.8604473978
 20
6.8725206408
 30
0.0
 11
7.7908302541
 21
6.9127097623
 31
0.0
  0
POLYLINE
  5
2A5
330
1F
100
AcDbEntity
  8
0
  6
CONTINUOUS
 62
     7
100
AcDb2dPolyline
 66
     1
 10
0.0
 20
0.0
 30
0.0
  0
VERTEX
  5
40D
330
2A5
100
AcDbEntity
  8
0
  6
CONTINUOUS
 62
     7
100
AcDbVertex
100
AcDb2dVertex
 10
7.8604473978
 20
6.8725206408
 30
0.0
  0
VERTEX
  5
40E
330
2A5
100
AcDbEntity
  8
0
  6
CONTINUOUS
 62
     7
100
AcDbVertex
100
AcDb2dVertex
 10
7.8413097313
 20
6.859884421
 30
0.0
  0
VERTEX
  5
40F
330
2A5
100
AcDbEntity
  8
0
  6
CONTINUOUS
 62
     7
100
AcDbVertex
100
AcDb2dVertex
 10
7.823979266
 20
6.8464071176
 30
0.0
  0
VERTEX
  5
410
330
2A5
100
AcDbEntity
  8
0
  6
CONTINUOUS
 62
     7
100
AcDbVertex
100
AcDb2dVertex
 10
7.8085664718
 20
6.8321746393
 30
0.0
  0
VERTEX
  5
411
330
2A5
100
AcDbEntity
  8
0
  6
CONTINUOUS
 62
     7
100
AcDbVertex
100
AcDb2dVertex
 10
7.7951695948
 20
6.8172777085
 30
0.0
  0
VERTEX
  5
412
330
2A5
100
AcDbEntity
  8
0
  6
CONTINUOUS
 62
     7
100
AcDbVertex
100
AcDb2dVertex
 10
7.783874031
 20
6.801811283
 30
0.0
  0
VERTEX
  5
413
330
2A5
100
AcDbEntity
  8
0
  6
CONTINUOUS
 62
     7
100
AcDbVertex
100
AcDb2dVertex
 10
7.7747517819
 20
6.7858739508
 30
0.0
  0
VERTEX
  5
414
330
2A5
100
AcDbEntity
  8
0
  6
CONTINUOUS
 62
     7
100
AcDbVertex
100
AcDb2dVertex
 10
7.7678609958
 20
6.7695673017
 30
0.0
  0
VERTEX
  5
415
330
2A5
100
AcDbEntity
  8
0
  6
CONTINUOUS
 62
     7
100
AcDbVertex
100
AcDb2dVertex
 10
7.7632455967
 20
6.7529952794
 30
0.0
  0
VERTEX
  5
416
330
2A5
100
AcDbEntity
  8
0
  6
CONTINUOUS
 62
     7
100
AcDbVertex
100
AcDb2dVertex
 10
7.7609350046
 20
6.7362635193
 30
0.0
  0
VERTEX
  5
417
330
2A5
100
AcDbEntity
  8
0
  6
CONTINUOUS
 62
     7
100
AcDbVertex
100
AcDb2dVertex
 10
7.7609439481
 20
6.7194786751
 30
0.0
  0
VERTEX
  5
418
330
2A5
100
AcDbEntity
  8
0
  6
CONTINUOUS
 62
     7
100
AcDbVertex
100
AcDb2dVertex
 10
7.76327237
 20
6.7027477387
 30
0.0
  0
VERTEX
  5
419
330
2A5
100
AcDbEntity
  8
0
  6
CONTINUOUS
 62
     7
100
AcDbVertex
100
AcDb2dVertex
 10
7.7679054284
 20
6.6861773587
 30
0.0
  0
VERTEX
  5
41A
330
2A5
100
AcDbEntity
  8
0
  6
CONTINUOUS
 62
     7
100
AcDbVertex
100
AcDb2dVertex
 10
7.7748135905
 20
6.6698731598
 30
0.0
  0
VERTEX
  5
41B
330
2A5
100
AcDbEntity
  8
0
  6
CONTINUOUS
 62
     7
100
AcDbVertex
100
AcDb2dVertex
 10
7.7839528216
 20
6.6539390704
 30
0.0
  0
VERTEX
  5
41C
330
2A5
100
AcDbEntity
  8
0
  6
CONTINUOUS
 62
     7
100
AcDbVertex
100
AcDb2dVertex
 10
7.7952648652
 20
6.6384766593
 30
0.0
  0
VERTEX
  5
41D
330
2A5
100
AcDbEntity
  8
0
  6
CONTINUOUS
 62
     7
100
AcDbVertex
100
AcDb2dVertex
 10
7.8086776147
 20
6.6235844892
 30
0.0
  0
VERTEX
  5
41E
330
2A5
100
AcDbEntity
  8
0
  6
CONTINUOUS
 62
     7
100
AcDbVertex
100
AcDb2dVertex
 10
7.824105573
 20
6.6093574873
 30
0.0
  0
VERTEX
  5
41F
330
2A5
100
AcDbEntity
  8
0
  6
CONTINUOUS
 62
     7
100
AcDbVertex
100
AcDb2dVertex
 10
7.8414503972
 20
6.5958863412
 30
0.0
  0
VERTEX
  5
420
330
2A5
100
AcDbEntity
  8
0
  6
CONTINUOUS
 62
     7
100
AcDbVertex
100
AcDb2dVertex
 10
7.8606015259
 20
6.5832569204
 30
0.0
  0
VERTEX
  5
421
330
2A5
100
AcDbEntity
  8
0
  6
CONTINUOUS
 62
     7
100
AcDbVertex
100
AcDb2dVertex
 10
7.8814368835
 20
6.5715497288
 30
0.0
  0
VERTEX
  5
422
330
2A5
100
AcDbEntity
  8
0
  6
CONTINUOUS
 62
     7
100
AcDbVertex
100
AcDb2dVertex
 10
7.9038236589
 20
6.5608393919
 30
0.0
  0
VERTEX
  5
423
330
2A5
100
AcDbEntity
  8
0
  6
CONTINUOUS
 62
     7
100
AcDbVertex
100
AcDb2dVertex
 10
7.9276191515
 20
6.5511941807
 30
0.0
  0
VERTEX
  5
424
330
2A5
100
AcDbEntity
  8
0
  6
CONTINUOUS
 62
     7
100
AcDbVertex
100
AcDb2dVertex
 10
7.9526716811
 20
6.542675577
 30
0.0
  0
VERTEX
  5
425
330
2A5
100
AcDbEntity
  8
0
  6
CONTINUOUS
 62
     7
100
AcDbVertex
100
AcDb2dVertex
 10
7.9788215549
 20
6.5353378811
 30
0.0
  0
VERTEX
  5
426
330
2A5
100
AcDbEntity
  8
0
  6
CONTINUOUS
 62
     7
100
AcDbVertex
100
AcDb2dVertex
 10
8.0059020852
 20
6.5292278658
 30
0.0
  0
VERTEX
  5
427
330
2A5
100
AcDbEntity
  8
0
  6
CONTINUOUS
 62
     7
100
AcDbVertex
100
AcDb2dVertex
 10
8.0337406518
 20
6.5243844784
 30
0.0
  0
VERTEX
  5
428
330
2A5
100
AcDbEntity
  8
0
  6
CONTINUOUS
 62
     7
100
AcDbVertex
100
AcDb2dVertex
 10
8.0621598029
 20
6.5208385921
 30
0.0
  0
VERTEX
  5
429
330
2A5
100
AcDbEntity
  8
0
  6
CONTINUOUS
 62
     7
100
AcDbVertex
100
AcDb2dVertex
 10
8.0909783856
 20
6.5186128096
 30
0.0
  0
VERTEX
  5
42A
330
2A5
100
AcDbEntity
  8
0
  6
CONTINUOUS
 62
     7
100
AcDbVertex
100
AcDb2dVertex
 10
8.1200127009
 20
6.5177213187
 30
0.0
  0
VERTEX
  5
42B
330
2A5
100
AcDbEntity
  8
0
  6
CONTINUOUS
 62
     7
100
AcDbVertex
100
AcDb2dVertex
 10
8.1490776748
 20
6.5181698021
 30
0.0
  0
VERTEX
  5
42C
330
2A5
100
AcDbEntity
  8
0
  6
CONTINUOUS
 62
     7
100
AcDbVertex
100
AcDb2dVertex
 10
8.1779880378
 20
6.519955401
 30
0.0
  0
VERTEX
  5
42D
330
2A5
100
AcDbEntity
  8
0
  6
CONTINUOUS
 62
     7
100
AcDbVertex
100
AcDb2dVertex
 10
8.2065595059
 20
6.5230667333
 30
0.0
  0
VERTEX
  5
42E
330
2A5
100
AcDbEntity
  8
0
  6
CONTINUOUS
 62
     7
100
AcDbVertex
100
AcDb2dVertex
 10
8.2346099554
 20
6.5274839666
 30
0.0
  0
VERTEX
  5
42F
330
2A5
100
AcDbEntity
  8
0
  6
CONTINUOUS
 62
     7
100
AcDbVertex
100
AcDb2dVertex
 10
8.2619605836
 20
6.5331789439
 30
0.0
  0
VERTEX
  5
430
330
2A5
100
AcDbEntity
  8
0
  6
CONTINUOUS
 62
     7
100
AcDbVertex
100
AcDb2dVertex
 10
8.2884370489
 20
6.5401153636
 30
0.0
  0
VERTEX
  5
431
330
2A5
100
AcDbEntity
  8
0
  6
CONTINUOUS
 62
     7
100
AcDbVertex
100
AcDb2dVertex
 10
8.3138705817
 20
6.5482490107
 30
0.0
  0
VERTEX
  5
432
330
2A5
100
AcDbEntity
  8
0
  6
CONTINUOUS
 62
     7
100
AcDbVertex
100
AcDb2dVertex
 10
8.3380990605
 20
6.5575280387
 30
0.0
  0
VERTEX
  5
433
330
2A5
100
AcDbEntity
  8
0
  6
CONTINUOUS
 62
     7
100
AcDbVertex
100
AcDb2dVertex
 10
8.3609680451
 20
6.5678933001
 30
0.0
  0
VERTEX
  5
434
330
2A5
100
AcDbEntity
  8
0
  6
CONTINUOUS
 62
     7
100
AcDbVertex
100
AcDb2dVertex
 10
8.3823317614
 20
6.5792787234
 30
0.0
  0
SEQEND
  5
435
330
2A5
100
AcDbEntity
  8
0
  6
CONTINUOUS
 62
     7
  0
POLYLINE
  5
2A6
330
1F
100
AcDbEntity
  8
0
  6
CONTINUOUS
 62
     7
100
AcDb2dPolyline
 66
     1
 10
0.0
 20
0.0
 30
0.0
  0
VERTEX
  5
436
330
2A6
100
AcDbEntity
  8
0
  6
CONTINUOUS
 62
     7
100
AcDbVertex
100
AcDb2dVertex
 10
9.1790517996
 20
6.6615071215
 30
0.0
  0
VERTEX
  5
437
330
2A6
100
AcDbEntity
  8
0
  6
CONTINUOUS
 62
     7
100
AcDbVertex
100
AcDb2dVertex
 10
9.1782479173
 20
6.6879215059
 30
0.0
  0
VERTEX
  5
438
330
2A6
100
AcDbEntity
  8
0
  6
CONTINUOUS
 62
     7
100
AcDbVertex
100
AcDb2dVertex
 10
9.1758401011
 20
6.713281871
 30
0.0
  0
VERTEX
  5
439
330
2A6
100
AcDbEntity
  8
0
  6
CONTINUOUS
 62
     7
100
AcDbVertex
100
AcDb2dVertex
 10
9.1718398256
 20
6.7374673629
 30
0.0
  0
VERTEX
  5
43A
330
2A6
100
AcDbEntity
  8
0
  6
CONTINUOUS
 62
     7
100
AcDbVertex
100
AcDb2dVertex
 10
9.1662661536
 20
6.760362727
 30
0.0
  0
VERTEX
  5
43B
330
2A6
100
AcDbEntity
  8
0
  6
CONTINUOUS
 62
     7
100
AcDbVertex
100
AcDb2dVertex
 10
9.1591456465
 20
6.7818588563
 30
0.0
  0
VERTEX
  5
43C
330
2A6
100
AcDbEntity
  8
0
  6
CONTINUOUS
 62
     7
100
AcDbVertex
100
AcDb2dVertex
 10
9.1505122365
 20
6.801853312
 30
0.0
  0
VERTEX
  5
43D
330
2A6
100
AcDbEntity
  8
0
  6
CONTINUOUS
 62
     7
100
AcDbVertex
100
AcDb2dVertex
 10
9.1404070659
 20
6.8202508114
 30
0.0
  0
VERTEX
  5
43E
330
2A6
100
AcDbEntity
  8
0
  6
CONTINUOUS
 62
     7
100
AcDbVertex
100
AcDb2dVertex
 10
9.1288782904
 20
6.836963682
 30
0.0
  0
VERTEX
  5
43F
330
2A6
100
AcDbEntity
  8
0
  6
CONTINUOUS
 62
     7
100
AcDbVertex
100
AcDb2dVertex
 10
9.1159808499
 20
6.8519122794
 30
0.0
  0
VERTEX
  5
440
330
2A6
100
AcDbEntity
  8
0
  6
CONTINUOUS
 62
     7
100
AcDbVertex
100
AcDb2dVertex
 10
9.1017762064
 20
6.8650253668
 30
0.0
  0
VERTEX
  5
441
330
2A6
100
AcDbEntity
  8
0
  6
CONTINUOUS
 62
     7
100
AcDbVertex
100
AcDb2dVertex
 10
9.0863320517
 20
6.8762404542
 30
0.0
  0
VERTEX
  5
442
330
2A6
100
AcDbEntity
  8
0
  6
CONTINUOUS
 62
     7
100
AcDbVertex
100
AcDb2dVertex
 10
9.0697219842
 20
6.8855040968
 30
0.0
  0
VERTEX
  5
443
330
2A6
100
AcDbEntity
  8
0
  6
CONTINUOUS
 62
     7
100
AcDbVertex
100
AcDb2dVertex
 10
9.0520251583
 20
6.8927721489
 30
0.0
  0
VERTEX
  5
444
330
2A6
100
AcDbEntity
  8
0
  6
CONTINUOUS
 62
     7
100
AcDbVertex
100
AcDb2dVertex
 10
9.0333259076
 20
6.8980099751
 30
0.0
  0
VERTEX
  5
445
330
2A6
100
AcDbEntity
  8
0
  6
CONTINUOUS
 62
     7
100
AcDbVertex
100
AcDb2dVertex
 10
9.0137133425
 20
6.9011926148
 30
0.0
  0
VERTEX
  5
446
330
2A6
100
AcDbEntity
  8
0
  6
CONTINUOUS
 62
     7
100
AcDbVertex
100
AcDb2dVertex
 10
8.9932809257
 20
6.9023049011
 30
0.0
  0
VERTEX
  5
447
330
2A6
100
AcDbEntity
  8
0
  6
CONTINUOUS
 62
     7
100
AcDbVertex
100
AcDb2dVertex
 10
8.9721260271
 20
6.9013415335
 30
0.0
  0
VERTEX
  5
448
330
2A6
100
AcDbEntity
  8
0
  6
CONTINUOUS
 62
     7
100
AcDbVertex
100
AcDb2dVertex
 10
8.9503494593
 20
6.898307103
 30
0.0
  0
VERTEX
  5
449
330
2A6
100
AcDbEntity
  8
0
  6
CONTINUOUS
 62
     7
100
AcDbVertex
100
AcDb2dVertex
 10
8.9280549977
 20
6.8932160699
 30
0.0
  0
VERTEX
  5
44A
330
2A6
100
AcDbEntity
  8
0
  6
CONTINUOUS
 62
     7
100
AcDbVertex
100
AcDb2dVertex
 10
8.9053488855
 20
6.8860926954
 30
0.0
  0
VERTEX
  5
44B
330
2A6
100
AcDbEntity
  8
0
  6
CONTINUOUS
 62
     7
100
AcDbVertex
100
AcDb2dVertex
 10
8.8823393276
 20
6.8769709255
 30
0.0
  0
VERTEX
  5
44C
330
2A6
100
AcDbEntity
  8
0
  6
CONTINUOUS
 62
     7
100
AcDbVertex
100
AcDb2dVertex
 10
8.8591359751
 20
6.8658942298
 30
0.0
  0
VERTEX
  5
44D
330
2A6
100
AcDbEntity
  8
0
  6
CONTINUOUS
 62
     7
100
AcDbVertex
100
AcDb2dVertex
 10
8.8358494026
 20
6.8529153935
 30
0.0
  0
VERTEX
  5
44E
330
2A6
100
AcDbEntity
  8
0
  6
CONTINUOUS
 62
     7
100
AcDbVertex
100
AcDb2dVertex
 10
8.8125905811
 20
6.838096267
 30
0.0
  0
VERTEX
  5
44F
330
2A6
100
AcDbEntity
  8
0
  6
CONTINUOUS
 62
     7
100
AcDbVertex
100
AcDb2dVertex
 10
8.7894703495
 20
6.8215074699
 30
0.0
  0
VERTEX
  5
450
330
2A6
100
AcDbEntity
  8
0
  6
CONTINUOUS
 62
     7
100
AcDbVertex
100
AcDb2dVertex
 10
8.7665988863
 20
6.8032280555
 30
0.0
  0
VERTEX
  5
451
330
2A6
100
AcDbEntity
  8
0
  6
CONTINUOUS
 62
     7
100
AcDbVertex
100
AcDb2dVertex
 10
8.7440851844
 20
6.7833451336
 30
0.0
  0
VERTEX
  5
452
330
2A6
100
AcDbEntity
  8
0
  6
CONTINUOUS
 62
     7
100
AcDbVertex
100
AcDb2dVertex
 10
8.7220365318
 20
6.7619534552
 30
0.0
  0
VERTEX
  5
453
330
2A6
100
AcDbEntity
  8
0
  6
CONTINUOUS
 62
     7
100
AcDbVertex
100
AcDb2dVertex
 10
8.7005580004
 20
6.7391549616
 30
0.0
  0
VERTEX
  5
454
330
2A6
100
AcDbEntity
  8
0
  6
CONTINUOUS
 62
     7
100
AcDbVertex
100
AcDb2dVertex
 10
8.6797519452
 20
6.7150582978
 30
0.0
  0
VERTEX
  5
455
330
2A6
100
AcDbEntity
  8
0
  6
CONTINUOUS
 62
     7
100
AcDbVertex
100
AcDb2dVertex
 10
8.6597175165
 20
6.6897782955
 30
0.0
  0
VERTEX
  5
456
330
2A6
100
AcDbEntity
  8
0
  6
CONTINUOUS
 62
     7
100
AcDbVertex
100
AcDb2dVertex
 10
8.6405501876
 20
6.6634354255
 30
0.0
  0
VERTEX
  5
457
330
2A6
100
AcDbEntity
  8
0
  6
CONTINUOUS
 62
     7
100
AcDbVertex
100
AcDb2dVertex
 10
8.6223412993
 20
6.6361552233
 30
0.0
  0
VERTEX
  5
458
330
2A6
100
AcDbEntity
  8
0
  6
CONTINUOUS
 62
     7
100
AcDbVertex
100
AcDb2dVertex
 10
8.6051776255
 20
6.6080676918
 30
0.0
  0
VERTEX
  5
459
330
2A6
100
AcDbEntity
  8
0
  6
CONTINUOUS
 62
     7
100
AcDbVertex
100
AcDb2dVertex
 10
8.5891409588
 20
6.5793066806
 30
0.0
  0
VERTEX
  5
45A
330
2A6
100
AcDbEntity
  8
0
  6
CONTINUOUS
 62
     7
100
AcDbVertex
100
AcDb2dVertex
 10
8.5743077212
 20
6.5500092492
 30
0.0
  0
VERTEX
  5
45B
330
2A6
100
AcDbEntity
  8
0
  6
CONTINUOUS
 62
     7
100
AcDbVertex
100
AcDb2dVertex
 10
8.5607485999
 20
6.5203150132
 30
0.0
  0
VERTEX
  5
45C
330
2A6
100
AcDbEntity
  8
0
  6
CONTINUOUS
 62
     7
100
AcDbVertex
100
AcDb2dVertex
 10
8.5485282102
 20
6.4903654791
 30
0.0
  0
VERTEX
  5
45D
330
2A6
100
AcDbEntity
  8
0
  6
CONTINUOUS
 62
     7
100
AcDbVertex
100
AcDb2dVertex
 10
8.5377047879
 20
6.46030337
 30
0.0
  0
VERTEX
  5
45E
330
2A6
100
AcDbEntity
  8
0
  6
CONTINUOUS
 62
     7
100
AcDbVertex
100
AcDb2dVertex
 10
8.5283299115
 20
6.4302719457
 30
0.0
  0
VERTEX
  5
45F
330
2A6
100
AcDbEntity
  8
0
  6
CONTINUOUS
 62
     7
100
AcDbVertex
100
AcDb2dVertex
 10
8.5204482566
 20
6.4004143195
 30
0.0
  0
VERTEX
  5
460
330
2A6
100
AcDbEntity
  8
0
  6
CONTINUOUS
 62
     7
100
AcDbVertex
100
AcDb2dVertex
 10
8.5140973829
 20
6.3708727766
 30
0.0
  0
VERTEX
  5
461
330
2A6
100
AcDbEntity
  8
0
  6
CONTINUOUS
 62
     7
100
AcDbVertex
100
AcDb2dVertex
 10
8.509307555
 20
6.3417880959
 30
0.0
  0
VERTEX
  5
462
330
2A6
100
AcDbEntity
  8
0
  6
CONTINUOUS
 62
     7
100
AcDbVertex
100
AcDb2dVertex
 10
8.5061015989
 20
6.3132988792
 30
0.0
  0
VERTEX
  5
463
330
2A6
100
AcDbEntity
  8
0
  6
CONTINUOUS
 62
     7
100
AcDbVertex
100
AcDb2dVertex
 10
8.5044947922
 20
6.2855408906
 30
0.0
  0
VERTEX
  5
464
330
2A6
100
AcDbEntity
  8
0
  6
CONTINUOUS
 62
     7
100
AcDbVertex
100
AcDb2dVertex
 10
8.5044947922
 20
6.2586464095
 30
0.0
  0
VERTEX
  5
465
330
2A6
100
AcDbEntity
  8
0
  6
CONTINUOUS
 62
     7
100
AcDbVertex
100
AcDb2dVertex
 10
8.5061015989
 20
6.2327436003
 30
0.0
  0
VERTEX
  5
466
330
2A6
100
AcDbEntity
  8
0
  6
CONTINUOUS
 62
     7
100
AcDbVertex
100
AcDb2dVertex
 10
8.509307555
 20
6.2079559019
 30
0.0
  0
VERTEX
  5
467
330
2A6
100
AcDbEntity
  8
0
  6
CONTINUOUS
 62
     7
100
AcDbVertex
100
AcDb2dVertex
 10
8.5140973829
 20
6.1844014387
 30
0.0
  0
VERTEX
  5
468
330
2A6
100
AcDbEntity
  8
0
  6
CONTINUOUS
 62
     7
100
AcDbVertex
100
AcDb2dVertex
 10
8.5204482566
 20
6.1621924586
 30
0.0
  0
VERTEX
  5
469
330
2A6
100
AcDbEntity
  8
0
  6
CONTINUOUS
 62
     7
100
AcDbVertex
100
AcDb2dVertex
 10
8.5283299115
 20
6.1414347974
 30
0.0
  0
VERTEX
  5
46A
330
2A6
100
AcDbEntity
  8
0
  6
CONTINUOUS
 62
     7
100
AcDbVertex
100
AcDb2dVertex
 10
8.5377047879
 20
6.122227375
 30
0.0
  0
VERTEX
  5
46B
330
2A6
100
AcDbEntity
  8
0
  6
CONTINUOUS
 62
     7
100
AcDbVertex
100
AcDb2dVertex
 10
8.5485282102
 20
6.1046617233
 30
0.0
  0
VERTEX
  5
46C
330
2A6
100
AcDbEntity
  8
0
  6
CONTINUOUS
 62
     7
100
AcDbVertex
100
AcDb2dVertex
 10
8.5607485999
 20
6.0888215508
 30
0.0
  0
VERTEX
  5
46D
330
2A6
100
AcDbEntity
  8
0
  6
CONTINUOUS
 62
     7
100
AcDbVertex
100
AcDb2dVertex
 10
8.5743077212
 20
6.074782343
 30
0.0
  0
VERTEX
  5
46E
330
2A6
100
AcDbEntity
  8
0
  6
CONTINUOUS
 62
     7
100
AcDbVertex
100
AcDb2dVertex
 10
8.5891409588
 20
6.0626110032
 30
0.0
  0
VERTEX
  5
46F
330
2A6
100
AcDbEntity
  8
0
  6
CONTINUOUS
 62
     7
100
AcDbVertex
100
AcDb2dVertex
 10
8.6051776255
 20
6.0523655333
 30
0.0
  0
VERTEX
  5
470
330
2A6
100
AcDbEntity
  8
0
  6
CONTINUOUS
 62
     7
100
AcDbVertex
100
AcDb2dVertex
 10
8.6223412993
 20
6.0440947577
 30
0.0
  0
VERTEX
  5
471
330
2A6
100
AcDbEntity
  8
0
  6
CONTINUOUS
 62
     7
100
AcDbVertex
100
AcDb2dVertex
 10
8.6405501876
 20
6.0378380905
 30
0.0
  0
VERTEX
  5
472
330
2A6
100
AcDbEntity
  8
0
  6
CONTINUOUS
 62
     7
100
AcDbVertex
100
AcDb2dVertex
 10
8.6597175165
 20
6.0336253473
 30
0.0
  0
VERTEX
  5
473
330
2A6
100
AcDbEntity
  8
0
  6
CONTINUOUS
 62
     7
100
AcDbVertex
100
AcDb2dVertex
 10
8.6797519452
 20
6.031476604
 30
0.0
  0
VERTEX
  5
474
330
2A6
100
AcDbEntity
  8
0
  6
CONTINUOUS
 62
     7
100
AcDbVertex
100
AcDb2dVertex
 10
8.7005580004
 20
6.0314021003
 30
0.0
  0
VERTEX
  5
475
330
2A6
100
AcDbEntity
  8
0
  6
CONTINUOUS
 62
     7
100
AcDbVertex
100
AcDb2dVertex
 10
8.7220365318
 20
6.0334021911
 30
0.0
  0
VERTEX
  5
476
330
2A6
100
AcDbEntity
  8
0
  6
CONTINUOUS
 62
     7
100
AcDbVertex
100
AcDb2dVertex
 10
8.7440851844
 20
6.0374673452
 30
0.0
  0
VERTEX
  5
477
330
2A6
100
AcDbEntity
  8
0
  6
CONTINUOUS
 62
     7
100
AcDbVertex
100
AcDb2dVertex
 10
8.7665988863
 20
6.0435781902
 30
0.0
  0
VERTEX
  5
478
330
2A6
100
AcDbEntity
  8
0
  6
CONTINUOUS
 62
     7
100
AcDbVertex
100
AcDb2dVertex
 10
8.7894703495
 20
6.0517056051
 30
0.0
  0
VERTEX
  5
479
330
2A6
100
AcDbEntity
  8
0
  6
CONTINUOUS
 62
     7
100
AcDbVertex
100
AcDb2dVertex
 10
8.8125905811
 20
6.0618108593
 30
0.0
  0
VERTEX
  5
47A
330
2A6
100
AcDbEntity
  8
0
  6
CONTINUOUS
 62
     7
100
AcDbVertex
100
AcDb2dVertex
 10
8.8358494026
 20
6.0738457964
 30
0.0
  0
VERTEX
  5
47B
330
2A6
100
AcDbEntity
  8
0
  6
CONTINUOUS
 62
     7
100
AcDbVertex
100
AcDb2dVertex
 10
8.8591359751
 20
6.0877530645
 30
0.0
  0
VERTEX
  5
47C
330
2A6
100
AcDbEntity
  8
0
  6
CONTINUOUS
 62
     7
100
AcDbVertex
100
AcDb2dVertex
 10
8.8823393276
 20
6.1034663893
 30
0.0
  0
VERTEX
  5
47D
330
2A6
100
AcDbEntity
  8
0
  6
CONTINUOUS
 62
     7
100
AcDbVertex
100
AcDb2dVertex
 10
8.9053488855
 20
6.1209108895
 30
0.0
  0
VERTEX
  5
47E
330
2A6
100
AcDbEntity
  8
0
  6
CONTINUOUS
 62
     7
100
AcDbVertex
100
AcDb2dVertex
 10
8.9280549977
 20
6.1400034341
 30
0.0
  0
VERTEX
  5
47F
330
2A6
100
AcDbEntity
  8
0
  6
CONTINUOUS
 62
     7
100
AcDbVertex
100
AcDb2dVertex
 10
8.9503494593
 20
6.1606530385
 30
0.0
  0
VERTEX
  5
480
330
2A6
100
AcDbEntity
  8
0
  6
CONTINUOUS
 62
     7
100
AcDbVertex
100
AcDb2dVertex
 10
8.9721260271
 20
6.1827612979
 30
0.0
  0
VERTEX
  5
481
330
2A6
100
AcDbEntity
  8
0
  6
CONTINUOUS
 62
     7
100
AcDbVertex
100
AcDb2dVertex
 10
8.9932809257
 20
6.2062228564
 30
0.0
  0
VERTEX
  5
482
330
2A6
100
AcDbEntity
  8
0
  6
CONTINUOUS
 62
     7
100
AcDbVertex
100
AcDb2dVertex
 10
9.0137133425
 20
6.230925909
 30
0.0
  0
VERTEX
  5
483
330
2A6
100
AcDbEntity
  8
0
  6
CONTINUOUS
 62
     7
100
AcDbVertex
100
AcDb2dVertex
 10
9.0333259076
 20
6.2567527344
 30
0.0
  0
VERTEX
  5
484
330
2A6
100
AcDbEntity
  8
0
  6
CONTINUOUS
 62
     7
100
AcDbVertex
100
AcDb2dVertex
 10
9.0520251583
 20
6.2835802559
 30
0.0
  0
VERTEX
  5
485
330
2A6
100
AcDbEntity
  8
0
  6
CONTINUOUS
 62
     7
100
AcDbVertex
100
AcDb2dVertex
 10
9.0697219842
 20
6.3112806283
 30
0.0
  0
VERTEX
  5
486
330
2A6
100
AcDbEntity
  8
0
  6
CONTINUOUS
 62
     7
100
AcDbVertex
100
AcDb2dVertex
 10
9.0863320517
 20
6.3397218466
 30
0.0
  0
VERTEX
  5
487
330
2A6
100
AcDbEntity
  8
0
  6
CONTINUOUS
 62
     7
100
AcDbVertex
100
AcDb2dVertex
 10
9.1017762064
 20
6.3687683755
 30
0.0
  0
VERTEX
  5
488
330
2A6
100
AcDbEntity
  8
0
  6
CONTINUOUS
 62
     7
100
AcDbVertex
100
AcDb2dVertex
 10
9.1159808499
 20
6.3982817951
 30
0.0
  0
VERTEX
  5
489
330
2A6
100
AcDbEntity
  8
0
  6
CONTINUOUS
 62
     7
100
AcDbVertex
100
AcDb2dVertex
 10
9.1288782904
 20
6.4281214604
 30
0.0
  0
VERTEX
  5
48A
330
2A6
100
AcDbEntity
  8
0
  6
CONTINUOUS
 62
     7
100
AcDbVertex
100
AcDb2dVertex
 10
9.1404070659
 20
6.4581451719
 30
0.0
  0
VERTEX
  5
48B
330
2A6
100
AcDbEntity
  8
0
  6
CONTINUOUS
 62
     7
100
AcDbVertex
100
AcDb2dVertex
 10
9.1505122365
 20
6.4882098529
 30
0.0
  0
VERTEX
  5
48C
330
2A6
100
AcDbEntity
  8
0
  6
CONTINUOUS
 62
     7
100
AcDbVertex
100
AcDb2dVertex
 10
9.1591456465
 20
6.5181722315
 30
0.0
  0
VERTEX
  5
48D
330
2A6
100
AcDbEntity
  8
0
  6
CONTINUOUS
 62
     7
100
AcDbVertex
100
AcDb2dVertex
 10
9.1662661536
 20
6.5478895234
 30
0.0
  0
VERTEX
  5
48E
330
2A6
100
AcDbEntity
  8
0
  6
CONTINUOUS
 62
     7
100
AcDbVertex
100
AcDb2dVertex
 10
9.1718398256
 20
6.5772201121
 30
0.0
  0
VERTEX
  5
48F
330
2A6
100
AcDbEntity
  8
0
  6
CONTINUOUS
 62
     7
100
AcDbVertex
100
AcDb2dVertex
 10
9.1758401011
 20
6.606024224
 30
0.0
  0
VERTEX
  5
490
330
2A6
100
AcDbEntity
  8
0
  6
CONTINUOUS
 62
     7
100
AcDbVertex
100
AcDb2dVertex
 10
9.1782479173
 20
6.6341645944
 30
0.0
  0
VERTEX
  5
491
330
2A6
100
AcDbEntity
  8
0
  6
CONTINUOUS
 62
     7
100
AcDbVertex
100
AcDb2dVertex
 10
9.1790517996
 20
6.6615071215
 30
0.0
  0
SEQEND
  5
492
330
2A6
100
AcDbEntity
  8
0
  6
CONTINUOUS
 62
     7
  0
POLYLINE
  5
2A7
330
1F
100
AcDbEntity
  8
0
  6
CONTINUOUS
 62
     7
100
AcDb2dPolyline
 66
     1
 10
0.0
 20
0.0
 30
0.0
  0
VERTEX
  5
493
330
2A7
100
AcDbEntity
  8
0
  6
CONTINUOUS
 62
     7
100
AcDbVertex
100
AcDb2dVertex
 10
8.8311227364
 20
6.0710571249
 30
0.0
  0
VERTEX
  5
494
330
2A7
100
AcDbEntity
  8
0
  6
CONTINUOUS
 62
     7
100
AcDbVertex
100
AcDb2dVertex
 10
8.8134409965
 20
6.0613654284
 30
0.0
  0
VERTEX
  5
495
330
2A7
100
AcDbEntity
  8
0
  6
CONTINUOUS
 62
     7
100
AcDbVertex
100
AcDb2dVertex
 10
8.7900189375
 20
6.0501337588
 30
0.0
  0
VERTEX
  5
496
330
2A7
100
AcDbEntity
  8
0
  6
CONTINUOUS
 62
     7
100
AcDbVertex
100
AcDb2dVertex
 10
8.7667841677
 20
6.0408309168
 30
0.0
  0
VERTEX
  5
497
330
2A7
100
AcDbEntity
  8
0
  6
CONTINUOUS
 62
     7
100
AcDbVertex
100
AcDb2dVertex
 10
8.7438427019
 20
6.0334993491
 30
0.0
  0
VERTEX
  5
498
330
2A7
100
AcDbEntity
  8
0
  6
CONTINUOUS
 62
     7
100
AcDbVertex
100
AcDb2dVertex
 10
8.7212992169
 20
6.0281725081
 30
0.0
  0
VERTEX
  5
499
330
2A7
100
AcDbEntity
  8
0
  6
CONTINUOUS
 62
     7
100
AcDbVertex
100
AcDb2dVertex
 10
8.6992565734
 20
6.0248746988
 30
0.0
  0
VERTEX
  5
49A
330
2A7
100
AcDbEntity
  8
0
  6
CONTINUOUS
 62
     7
100
AcDbVertex
100
AcDb2dVertex
 10
8.6778153468
 20
6.0236209684
 30
0.0
  0
VERTEX
  5
49B
330
2A7
100
AcDbEntity
  8
0
  6
CONTINUOUS
 62
     7
100
AcDbVertex
100
AcDb2dVertex
 10
8.6570733686
 20
6.0244170374
 30
0.0
  0
VERTEX
  5
49C
330
2A7
100
AcDbEntity
  8
0
  6
CONTINUOUS
 62
     7
100
AcDbVertex
100
AcDb2dVertex
 10
8.6371252797
 20
6.0272592735
 30
0.0
  0
VERTEX
  5
49D
330
2A7
100
AcDbEntity
  8
0
  6
CONTINUOUS
 62
     7
100
AcDbVertex
100
AcDb2dVertex
 10
8.6180620987
 20
6.0321347083
 30
0.0
  0
VERTEX
  5
49E
330
2A7
100
AcDbEntity
  8
0
  6
CONTINUOUS
 62
     7
100
AcDbVertex
100
AcDb2dVertex
 10
8.5999708064
 20
6.0390210963
 30
0.0
  0
VERTEX
  5
49F
330
2A7
100
AcDbEntity
  8
0
  6
CONTINUOUS
 62
     7
100
AcDbVertex
100
AcDb2dVertex
 10
8.5829339493
 20
6.0478870163
 30
0.0
  0
VERTEX
  5
4A0
330
2A7
100
AcDbEntity
  8
0
  6
CONTINUOUS
 62
     7
100
AcDbVertex
100
AcDb2dVertex
 10
8.5670292627
 20
6.0586920154
 30
0.0
  0
VERTEX
  5
4A1
330
2A7
100
AcDbEntity
  8
0
  6
CONTINUOUS
 62
     7
100
AcDbVertex
100
AcDb2dVertex
 10
8.5523293159
 20
6.0713867927
 30
0.0
  0
VERTEX
  5
4A2
330
2A7
100
AcDbEntity
  8
0
  6
CONTINUOUS
 62
     7
100
AcDbVertex
100
AcDb2dVertex
 10
8.5389011816
 20
6.0859134249
 30
0.0
  0
VERTEX
  5
4A3
330
2A7
100
AcDbEntity
  8
0
  6
CONTINUOUS
 62
     7
100
AcDbVertex
100
AcDb2dVertex
 10
8.5268061291
 20
6.1022056303
 30
0.0
  0
VERTEX
  5
4A4
330
2A7
100
AcDbEntity
  8
0
  6
CONTINUOUS
 62
     7
100
AcDbVertex
100
AcDb2dVertex
 10
8.5160993454
 20
6.1201890713
 30
0.0
  0
VERTEX
  5
4A5
330
2A7
100
AcDbEntity
  8
0
  6
CONTINUOUS
 62
     7
100
AcDbVertex
100
AcDb2dVertex
 10
8.5068296831
 20
6.1397816937
 30
0.0
  0
VERTEX
  5
4A6
330
2A7
100
AcDbEntity
  8
0
  6
CONTINUOUS
 62
     7
100
AcDbVertex
100
AcDb2dVertex
 10
8.4990394376
 20
6.1608941006
 30
0.0
  0
VERTEX
  5
4A7
330
2A7
100
AcDbEntity
  8
0
  6
CONTINUOUS
 62
     7
100
AcDbVertex
100
AcDb2dVertex
 10
8.492764154
 20
6.1834299611
 30
0.0
  0
VERTEX
  5
4A8
330
2A7
100
AcDbEntity
  8
0
  6
CONTINUOUS
 62
     7
100
AcDbVertex
100
AcDb2dVertex
 10
8.4880324649
 20
6.2072864493
 30
0.0
  0
VERTEX
  5
4A9
330
2A7
100
AcDbEntity
  8
0
  6
CONTINUOUS
 62
     7
100
AcDbVertex
100
AcDb2dVertex
 10
8.48486596
 20
6.2323547134
 30
0.0
  0
VERTEX
  5
4AA
330
2A7
100
AcDbEntity
  8
0
  6
CONTINUOUS
 62
     7
100
AcDbVertex
100
AcDb2dVertex
 10
8.4832790872
 20
6.2585203727
 30
0.0
  0
VERTEX
  5
4AB
330
2A7
100
AcDbEntity
  8
0
  6
CONTINUOUS
 62
     7
100
AcDbVertex
100
AcDb2dVertex
 10
8.4832790872
 20
6.2856640392
 30
0.0
  0
VERTEX
  5
4AC
330
2A7
100
AcDbEntity
  8
0
  6
CONTINUOUS
 62
     7
100
AcDbVertex
100
AcDb2dVertex
 10
8.48486596
 20
6.3136618628
 30
0.0
  0
VERTEX
  5
4AD
330
2A7
100
AcDbEntity
  8
0
  6
CONTINUOUS
 62
     7
100
AcDbVertex
100
AcDb2dVertex
 10
8.4880324649
 20
6.3423860956
 30
0.0
  0
VERTEX
  5
4AE
330
2A7
100
AcDbEntity
  8
0
  6
CONTINUOUS
 62
     7
100
AcDbVertex
100
AcDb2dVertex
 10
8.492764154
 20
6.3717056757
 30
0.0
  0
VERTEX
  5
4AF
330
2A7
100
AcDbEntity
  8
0
  6
CONTINUOUS
 62
     7
100
AcDbVertex
100
AcDb2dVertex
 10
8.4990394376
 20
6.4014868245
 30
0.0
  0
VERTEX
  5
4B0
330
2A7
100
AcDbEntity
  8
0
  6
CONTINUOUS
 62
     7
100
AcDbVertex
100
AcDb2dVertex
 10
8.5068296831
 20
6.4315936575
 30
0.0
  0
VERTEX
  5
4B1
330
2A7
100
AcDbEntity
  8
0
  6
CONTINUOUS
 62
     7
100
AcDbVertex
100
AcDb2dVertex
 10
8.5160993454
 20
6.461888804
 30
0.0
  0
VERTEX
  5
4B2
330
2A7
100
AcDbEntity
  8
0
  6
CONTINUOUS
 62
     7
100
AcDbVertex
100
AcDb2dVertex
 10
8.5268061291
 20
6.4922340344
 30
0.0
  0
VERTEX
  5
4B3
330
2A7
100
AcDbEntity
  8
0
  6
CONTINUOUS
 62
     7
100
AcDbVertex
100
AcDb2dVertex
 10
8.5389011816
 20
6.5224908901
 30
0.0
  0
VERTEX
  5
4B4
330
2A7
100
AcDbEntity
  8
0
  6
CONTINUOUS
 62
     7
100
AcDbVertex
100
AcDb2dVertex
 10
8.5523293159
 20
6.5525213163
 30
0.0
  0
VERTEX
  5
4B5
330
2A7
100
AcDbEntity
  8
0
  6
CONTINUOUS
 62
     7
100
AcDbVertex
100
AcDb2dVertex
 10
8.5670292627
 20
6.5821882909
 30
0.0
  0
VERTEX
  5
4B6
330
2A7
100
AcDbEntity
  8
0
  6
CONTINUOUS
 62
     7
100
AcDbVertex
100
AcDb2dVertex
 10
8.5829339493
 20
6.6113564502
 30
0.0
  0
VERTEX
  5
4B7
330
2A7
100
AcDbEntity
  8
0
  6
CONTINUOUS
 62
     7
100
AcDbVertex
100
AcDb2dVertex
 10
8.5999708064
 20
6.6398927068
 30
0.0
  0
VERTEX
  5
4B8
330
2A7
100
AcDbEntity
  8
0
  6
CONTINUOUS
 62
     7
100
AcDbVertex
100
AcDb2dVertex
 10
8.6180620987
 20
6.6676668562
 30
0.0
  0
VERTEX
  5
4B9
330
2A7
100
AcDbEntity
  8
0
  6
CONTINUOUS
 62
     7
100
AcDbVertex
100
AcDb2dVertex
 10
8.6371252797
 20
6.6945521713
 30
0.0
  0
VERTEX
  5
4BA
330
2A7
100
AcDbEntity
  8
0
  6
CONTINUOUS
 62
     7
100
AcDbVertex
100
AcDb2dVertex
 10
8.6570733686
 20
6.7204259806
 30
0.0
  0
VERTEX
  5
4BB
330
2A7
100
AcDbEntity
  8
0
  6
CONTINUOUS
 62
     7
100
AcDbVertex
100
AcDb2dVertex
 10
8.6778153468
 20
6.7451702279
 30
0.0
  0
VERTEX
  5
4BC
330
2A7
100
AcDbEntity
  8
0
  6
CONTINUOUS
 62
     7
100
AcDbVertex
100
AcDb2dVertex
 10
8.6992565734
 20
6.7686720108
 30
0.0
  0
VERTEX
  5
4BD
330
2A7
100
AcDbEntity
  8
0
  6
CONTINUOUS
 62
     7
100
AcDbVertex
100
AcDb2dVertex
 10
8.7212992169
 20
6.790824096
 30
0.0
  0
VERTEX
  5
4BE
330
2A7
100
AcDbEntity
  8
0
  6
CONTINUOUS
 62
     7
100
AcDbVertex
100
AcDb2dVertex
 10
8.7438427019
 20
6.8115254088
 30
0.0
  0
VERTEX
  5
4BF
330
2A7
100
AcDbEntity
  8
0
  6
CONTINUOUS
 62
     7
100
AcDbVertex
100
AcDb2dVertex
 10
8.7667841677
 20
6.8306814937
 30
0.0
  0
VERTEX
  5
4C0
330
2A7
100
AcDbEntity
  8
0
  6
CONTINUOUS
 62
     7
100
AcDbVertex
100
AcDb2dVertex
 10
8.7900189375
 20
6.8482049459
 30
0.0
  0
VERTEX
  5
4C1
330
2A7
100
AcDbEntity
  8
0
  6
CONTINUOUS
 62
     7
100
AcDbVertex
100
AcDb2dVertex
 10
8.8134409965
 20
6.8640158099
 30
0.0
  0
VERTEX
  5
4C2
330
2A7
100
AcDbEntity
  8
0
  6
CONTINUOUS
 62
     7
100
AcDbVertex
100
AcDb2dVertex
 10
8.8369434751
 20
6.8780419445
 30
0.0
  0
VERTEX
  5
4C3
330
2A7
100
AcDbEntity
  8
0
  6
CONTINUOUS
 62
     7
100
AcDbVertex
100
AcDb2dVertex
 10
8.860419137
 20
6.8902193514
 30
0.0
  0
VERTEX
  5
4C4
330
2A7
100
AcDbEntity
  8
0
  6
CONTINUOUS
 62
     7
100
AcDbVertex
100
AcDb2dVertex
 10
8.8837608681
 20
6.9004924682
 30
0.0
  0
VERTEX
  5
4C5
330
2A7
100
AcDbEntity
  8
0
  6
CONTINUOUS
 62
     7
100
AcDbVertex
100
AcDb2dVertex
 10
8.9068621654
 20
6.9088144208
 30
0.0
  0
VERTEX
  5
4C6
330
2A7
100
AcDbEntity
  8
0
  6
CONTINUOUS
 62
     7
100
AcDbVertex
100
AcDb2dVertex
 10
8.929617623
 20
6.915147238
 30
0.0
  0
VERTEX
  5
4C7
330
2A7
100
AcDbEntity
  8
0
  6
CONTINUOUS
 62
     7
100
AcDbVertex
100
AcDb2dVertex
 10
8.9519234129
 20
6.9194620248
 30
0.0
  0
VERTEX
  5
4C8
330
2A7
100
AcDbEntity
  8
0
  6
CONTINUOUS
 62
     7
100
AcDbVertex
100
AcDb2dVertex
 10
8.973677759
 20
6.9217390938
 30
0.0
  0
VERTEX
  5
4C9
330
2A7
100
AcDbEntity
  8
0
  6
CONTINUOUS
 62
     7
100
AcDbVertex
100
AcDb2dVertex
 10
8.9947814012
 20
6.9219680551
 30
0.0
  0
VERTEX
  5
4CA
330
2A7
100
AcDbEntity
  8
0
  6
CONTINUOUS
 62
     7
100
AcDbVertex
100
AcDb2dVertex
 10
9.0151380484
 20
6.9201478641
 30
0.0
  0
VERTEX
  5
4CB
330
2A7
100
AcDbEntity
  8
0
  6
CONTINUOUS
 62
     7
100
AcDbVertex
100
AcDb2dVertex
 10
9.0346548178
 20
6.9162868258
 30
0.0
  0
VERTEX
  5
4CC
330
2A7
100
AcDbEntity
  8
0
  6
CONTINUOUS
 62
     7
100
AcDbVertex
100
AcDb2dVertex
 10
9.053242659
 20
6.9104025575
 30
0.0
  0
VERTEX
  5
4CD
330
2A7
100
AcDbEntity
  8
0
  6
CONTINUOUS
 62
     7
100
AcDbVertex
100
AcDb2dVertex
 10
9.0708167599
 20
6.9025219075
 30
0.0
  0
VERTEX
  5
4CE
330
2A7
100
AcDbEntity
  8
0
  6
CONTINUOUS
 62
     7
100
AcDbVertex
100
AcDb2dVertex
 10
9.0872969339
 20
6.8926808335
 30
0.0
  0
VERTEX
  5
4CF
330
2A7
100
AcDbEntity
  8
0
  6
CONTINUOUS
 62
     7
100
AcDbVertex
100
AcDb2dVertex
 10
9.1026079857
 20
6.880924238
 30
0.0
  0
VERTEX
  5
4D0
330
2A7
100
AcDbEntity
  8
0
  6
CONTINUOUS
 62
     7
100
AcDbVertex
100
AcDb2dVertex
 10
9.1166800545
 20
6.8673057638
 30
0.0
  0
VERTEX
  5
4D1
330
2A7
100
AcDbEntity
  8
0
  6
CONTINUOUS
 62
     7
100
AcDbVertex
100
AcDb2dVertex
 10
9.1294489327
 20
6.8518875488
 30
0.0
  0
VERTEX
  5
4D2
330
2A7
100
AcDbEntity
  8
0
  6
CONTINUOUS
 62
     7
100
AcDbVertex
100
AcDb2dVertex
 10
9.1408563588
 20
6.8347399427
 30
0.0
  0
VERTEX
  5
4D3
330
2A7
100
AcDbEntity
  8
0
  6
CONTINUOUS
 62
     7
100
AcDbVertex
100
AcDb2dVertex
 10
9.1508502834
 20
6.8159411862
 30
0.0
  0
VERTEX
  5
4D4
330
2A7
100
AcDbEntity
  8
0
  6
CONTINUOUS
 62
     7
100
AcDbVertex
100
AcDb2dVertex
 10
9.1593851065
 20
6.7955770536
 30
0.0
  0
VERTEX
  5
4D5
330
2A7
100
AcDbEntity
  8
0
  6
CONTINUOUS
 62
     7
100
AcDbVertex
100
AcDb2dVertex
 10
9.1664218856
 20
6.7737404619
 30
0.0
  0
VERTEX
  5
4D6
330
2A7
100
AcDbEntity
  8
0
  6
CONTINUOUS
 62
     7
100
AcDbVertex
100
AcDb2dVertex
 10
9.1719285135
 20
6.7505310464
 30
0.0
  0
VERTEX
  5
4D7
330
2A7
100
AcDbEntity
  8
0
  6
CONTINUOUS
 62
     7
100
AcDbVertex
100
AcDb2dVertex
 10
9.1758798648
 20
6.7260547063
 30
0.0
  0
VERTEX
  5
4D8
330
2A7
100
AcDbEntity
  8
0
  6
CONTINUOUS
 62
     7
100
AcDbVertex
100
AcDb2dVertex
 10
9.1782579103
 20
6.7004231215
 30
0.0
  0
VERTEX
  5
4D9
330
2A7
100
AcDbEntity
  8
0
  6
CONTINUOUS
 62
     7
100
AcDbVertex
100
AcDb2dVertex
 10
9.1790517996
 20
6.6737532432
 30
0.0
  0
VERTEX
  5
4DA
330
2A7
100
AcDbEntity
  8
0
  6
CONTINUOUS
 62
     7
100
AcDbVertex
100
AcDb2dVertex
 10
9.1790517996
 20
6.6737532432
 30
0.0
  0
SEQEND
  5
4DB
330
2A7
100
AcDbEntity
  8
0
  6
CONTINUOUS
 62
     7
  0
SPLINE
  5
2A8
330
1F
100
AcDbEntity
  8
0
  6
CONTINUOUS
 62
     7
100
AcDbSpline
210
0.0
220
0.0
230
1.0
 70
     8
 71
     3
 72
     8
 73
     4
 74
     0
 42
0.00000001
 43
0.00000001
 40
0.0
 40
0.0
 40
0.0
 40
0.0
 40
0.0002501010376137
 40
0.0002501010376137
 40
0.0002501010376137
 40
0.0002501010376137
 10
7.867313042817181
 20
6.876793747370569
 30
0.0
 10
7.864995103956706
 20
6.87532162863074
 30
0.0
 10
7.862704666232788
 20
6.873896155403965
 30
0.0
 10
7.860447397752927
 20
6.872520640782186
 30
0.0
  0
ARC
  5
2A9
330
1F
100
AcDbEntity
  8
0
  6
CONTINUOUS
 62
     7
100
AcDbCircle
 10
9.1817236526
 20
6.2548631164
 30
0.0
 40
0.7401038571649321
100
AcDbArc
 50
154.3476655067
 51
170.4257034835
  0
ARC
  5
2AA
330
1F
100
AcDbEntity
  8
0
  6
CONTINUOUS
 62
     7
100
AcDbCircle
 10
8.6814056086
 20
6.2548547287
 30
0.0
 40
0.2324124245678134
100
AcDbArc
 50
189.1163736236
 51
224.1220166869
  0
SPLINE
  5
2AB
330
1F
100
AcDbEntity
  8
0
  6
CONTINUOUS
 62
     7
100
AcDbSpline
210
0.0
220
0.0
230
1.0
 70
     8
 71
     3
 72
    39
 73
    35
 74
     0
 42
0.00000001
 43
0.00000001
 40
-0.0947295368805271
 40
-0.0631220562492681
 40
-0.0313700572330301
 40
0.0
 40
0.0313857668473379
 40
0.0631300926508308
 40
0.0947107913188451
 40
0.1258915232101529
 40
0.1569025400536846
 40
0.1880875961666514
 40
0.2192248879165963
 40
0.2499114061504733
 40
0.280581482773904
 40
0.3117983423887341
 40
0.3430159418754327
 40
0.3740900329697587
 40
0.4052589495812623
 40
0.4368198118972473
 40
0.4685350890145324
 40
0.500003918499833
 40
0.5314470500524037
 40
0.5632087383002634
 40
0.59475324248061
 40
0.6259576707116021
 40
0.6569904382089498
 40
0.6882209229808262
 40
0.7193642321976382
 40
0.7500710465313412
 40
0.780711616338571
 40
0.8119054237466125
 40
0.843077081944115
 40
0.8741231018598038
 40
0.9052704631194729
 40
0.9368779437507319
 40
0.9686299427669699
 40
1.0
 40
1.031385766847338
 40
1.063130092650831
 40
1.094710791318845
 10
8.549278709252722
 20
7.022248325207766
 30
0.0
 10
8.560973290437394
 20
7.030723551732863
 30
0.0
 10
8.57516903201757
 20
7.037191127753859
 30
0.0
 10
8.591392828713635
 20
7.04139831473539
 30
0.0
 10
8.608851392957648
 20
7.043398979597836
 30
0.0
 10
8.626907820462742
 20
7.043121793093373
 30
0.0
 10
8.644931337439795
 20
7.040795220228206
 30
0.0
 10
8.662276903799913
 20
7.03660119512495
 30
0.0
 10
8.678323123000812
 20
7.030965565385749
 30
0.0
 10
8.692274501849292
 20
7.024101676261246
 30
0.0
 10
8.70367528521573
 20
7.016330555224699
 30
0.0
 10
8.71201063624777
 20
7.007894981756063
 30
0.0
 10
8.717216444919572
 20
6.999073866080482
 30
0.0
 10
8.718789290230013
 20
6.990088270467416
 30
0.0
 10
8.71682201567988
 20
6.981082253845686
 30
0.0
 10
8.711276943597937
 20
6.972217140445107
 30
0.0
 10
8.702590780290036
 20
6.963652888543194
 30
0.0
 10
8.6908733314589
 20
6.955734642961578
 30
0.0
 10
8.676659232300741
 20
6.948687171450486
 30
0.0
 10
8.660429212151008
 20
6.942869758282878
 30
0.0
 10
8.642965141817601
 20
6.938454757501211
 30
0.0
 10
8.624905028995284
 20
6.935896717238216
 30
0.0
 10
8.60686503398633
 20
6.935376455905339
 30
0.0
 10
8.589511603533387
 20
6.937171550494892
 30
0.0
 10
8.573461897190935
 20
6.941151982298258
 30
0.0
 10
8.559509787677625
 20
6.94743600025882
 30
0.0
 10
8.54810844828383
 20
6.955779017143727
 30
0.0
 10
8.539792192148017
 20
6.965877066493769
 30
0.0
 10
8.534609205301333
 20
6.977105653362392
 30
0.0
 10
8.533054070294956
 20
6.988937678492375
 30
0.0
 10
8.535041288252382
 20
7.000787435646687
 30
0.0
 10
8.540606780003781
 20
7.0120761499831
 30
0.0
 10
8.549278709252722
 20
7.022248325207766
 30
0.0
 10
8.560973290437394
 20
7.030723551732863
 30
0.0
 10
8.57516903201757
 20
7.037191127753859
 30
0.0
  0
POLYLINE
  5
2AC
330
1F
100
AcDbEntity
  8
0
  6
CONTINUOUS
 62
     7
100
AcDb2dPolyline
 66
     1
 10
0.0
 20
0.0
 30
0.0
  0
VERTEX
  5
4DC
330
2AC
100
AcDbEntity
  8
0
  6
CONTINUOUS
 62
     7
100
AcDbVertex
100
AcDb2dVertex
 10
8.756813804
 20
7.0839731506
 30
0.0
  0
VERTEX
  5
4DD
330
2AC
100
AcDbEntity
  8
0
  6
CONTINUOUS
 62
     7
100
AcDbVertex
100
AcDb2dVertex
 10
8.7505213898
 20
7.0874244889
 30
0.0
  0
VERTEX
  5
4DE
330
2AC
100
AcDbEntity
  8
0
  6
CONTINUOUS
 62
     7
100
AcDbVertex
100
AcDb2dVertex
 10
8.7329472889
 20
7.0953051389
 30
0.0
  0
VERTEX
  5
4DF
330
2AC
100
AcDbEntity
  8
0
  6
CONTINUOUS
 62
     7
100
AcDbVertex
100
AcDb2dVertex
 10
8.7143594477
 20
7.1011894073
 30
0.0
  0
VERTEX
  5
4E0
330
2AC
100
AcDbEntity
  8
0
  6
CONTINUOUS
 62
     7
100
AcDbVertex
100
AcDb2dVertex
 10
8.6948426783
 20
7.1050504455
 30
0.0
  0
VERTEX
  5
4E1
330
2AC
100
AcDbEntity
  8
0
  6
CONTINUOUS
 62
     7
100
AcDbVertex
100
AcDb2dVertex
 10
8.6744860311
 20
7.1068706365
 30
0.0
  0
VERTEX
  5
4E2
330
2AC
100
AcDbEntity
  8
0
  6
CONTINUOUS
 62
     7
100
AcDbVertex
100
AcDb2dVertex
 10
8.6533823889
 20
7.1066416752
 30
0.0
  0
VERTEX
  5
4E3
330
2AC
100
AcDbEntity
  8
0
  6
CONTINUOUS
 62
     7
100
AcDbVertex
100
AcDb2dVertex
 10
8.6316280428
 20
7.1043646063
 30
0.0
  0
VERTEX
  5
4E4
330
2AC
100
AcDbEntity
  8
0
  6
CONTINUOUS
 62
     7
100
AcDbVertex
100
AcDb2dVertex
 10
8.6093222528
 20
7.1000498195
 30
0.0
  0
VERTEX
  5
4E5
330
2AC
100
AcDbEntity
  8
0
  6
CONTINUOUS
 62
     7
100
AcDbVertex
100
AcDb2dVertex
 10
8.5865667952
 20
7.0937170022
 30
0.0
  0
VERTEX
  5
4E6
330
2AC
100
AcDbEntity
  8
0
  6
CONTINUOUS
 62
     7
100
AcDbVertex
100
AcDb2dVertex
 10
8.563465498
 20
7.0853950496
 30
0.0
  0
VERTEX
  5
4E7
330
2AC
100
AcDbEntity
  8
0
  6
CONTINUOUS
 62
     7
100
AcDbVertex
100
AcDb2dVertex
 10
8.5401237669
 20
7.0751219329
 30
0.0
  0
VERTEX
  5
4E8
330
2AC
100
AcDbEntity
  8
0
  6
CONTINUOUS
 62
     7
100
AcDbVertex
100
AcDb2dVertex
 10
8.516648105
 20
7.0629445259
 30
0.0
  0
VERTEX
  5
4E9
330
2AC
100
AcDbEntity
  8
0
  6
CONTINUOUS
 62
     7
100
AcDbVertex
100
AcDb2dVertex
 10
8.4931456264
 20
7.0489183913
 30
0.0
  0
VERTEX
  5
4EA
330
2AC
100
AcDbEntity
  8
0
  6
CONTINUOUS
 62
     7
100
AcDbVertex
100
AcDb2dVertex
 10
8.4697235674
 20
7.0331075273
 30
0.0
  0
VERTEX
  5
4EB
330
2AC
100
AcDbEntity
  8
0
  6
CONTINUOUS
 62
     7
100
AcDbVertex
100
AcDb2dVertex
 10
8.4464887976
 20
7.0155840751
 30
0.0
  0
VERTEX
  5
4EC
330
2AC
100
AcDbEntity
  8
0
  6
CONTINUOUS
 62
     7
100
AcDbVertex
100
AcDb2dVertex
 10
8.4235473318
 20
6.9964279902
 30
0.0
  0
VERTEX
  5
4ED
330
2AC
100
AcDbEntity
  8
0
  6
CONTINUOUS
 62
     7
100
AcDbVertex
100
AcDb2dVertex
 10
8.4010038468
 20
6.9757266774
 30
0.0
  0
VERTEX
  5
4EE
330
2AC
100
AcDbEntity
  8
0
  6
CONTINUOUS
 62
     7
100
AcDbVertex
100
AcDb2dVertex
 10
8.3789612032
 20
6.9535745922
 30
0.0
  0
VERTEX
  5
4EF
330
2AC
100
AcDbEntity
  8
0
  6
CONTINUOUS
 62
     7
100
AcDbVertex
100
AcDb2dVertex
 10
8.3575199766
 20
6.9300728093
 30
0.0
  0
VERTEX
  5
4F0
330
2AC
100
AcDbEntity
  8
0
  6
CONTINUOUS
 62
     7
100
AcDbVertex
100
AcDb2dVertex
 10
8.3367779985
 20
6.9053285621
 30
0.0
  0
VERTEX
  5
4F1
330
2AC
100
AcDbEntity
  8
0
  6
CONTINUOUS
 62
     7
100
AcDbVertex
100
AcDb2dVertex
 10
8.3168299096
 20
6.8794547527
 30
0.0
  0
VERTEX
  5
4F2
330
2AC
100
AcDbEntity
  8
0
  6
CONTINUOUS
 62
     7
100
AcDbVertex
100
AcDb2dVertex
 10
8.2977667286
 20
6.8525694376
 30
0.0
  0
VERTEX
  5
4F3
330
2AC
100
AcDbEntity
  8
0
  6
CONTINUOUS
 62
     7
100
AcDbVertex
100
AcDb2dVertex
 10
8.2796754363
 20
6.8247952883
 30
0.0
  0
VERTEX
  5
4F4
330
2AC
100
AcDbEntity
  8
0
  6
CONTINUOUS
 62
     7
100
AcDbVertex
100
AcDb2dVertex
 10
8.2626385792
 20
6.7962590317
 30
0.0
  0
VERTEX
  5
4F5
330
2AC
100
AcDbEntity
  8
0
  6
CONTINUOUS
 62
     7
100
AcDbVertex
100
AcDb2dVertex
 10
8.2467338926
 20
6.7670908723
 30
0.0
  0
VERTEX
  5
4F6
330
2AC
100
AcDbEntity
  8
0
  6
CONTINUOUS
 62
     7
100
AcDbVertex
100
AcDb2dVertex
 10
8.2320339458
 20
6.7374238977
 30
0.0
  0
VERTEX
  5
4F7
330
2AC
100
AcDbEntity
  8
0
  6
CONTINUOUS
 62
     7
100
AcDbVertex
100
AcDb2dVertex
 10
8.2186058114
 20
6.7073934716
 30
0.0
  0
VERTEX
  5
4F8
330
2AC
100
AcDbEntity
  8
0
  6
CONTINUOUS
 62
     7
100
AcDbVertex
100
AcDb2dVertex
 10
8.2065107589
 20
6.6771366158
 30
0.0
  0
VERTEX
  5
4F9
330
2AC
100
AcDbEntity
  8
0
  6
CONTINUOUS
 62
     7
100
AcDbVertex
100
AcDb2dVertex
 10
8.1958039752
 20
6.6467913854
 30
0.0
  0
VERTEX
  5
4FA
330
2AC
100
AcDbEntity
  8
0
  6
CONTINUOUS
 62
     7
100
AcDbVertex
100
AcDb2dVertex
 10
8.186534313
 20
6.6164962389
 30
0.0
  0
VERTEX
  5
4FB
330
2AC
100
AcDbEntity
  8
0
  6
CONTINUOUS
 62
     7
100
AcDbVertex
100
AcDb2dVertex
 10
8.1787440675
 20
6.5863894059
 30
0.0
  0
VERTEX
  5
4FC
330
2AC
100
AcDbEntity
  8
0
  6
CONTINUOUS
 62
     7
100
AcDbVertex
100
AcDb2dVertex
 10
8.1724687838
 20
6.5566082571
 30
0.0
  0
VERTEX
  5
4FD
330
2AC
100
AcDbEntity
  8
0
  6
CONTINUOUS
 62
     7
100
AcDbVertex
100
AcDb2dVertex
 10
8.1677370948
 20
6.527288677
 30
0.0
  0
VERTEX
  5
4FE
330
2AC
100
AcDbEntity
  8
0
  6
CONTINUOUS
 62
     7
100
AcDbVertex
100
AcDb2dVertex
 10
8.1666817599
 20
6.5190963994
 30
0.0
  0
SEQEND
  5
4FF
330
2AC
100
AcDbEntity
  8
0
  6
CONTINUOUS
 62
     7
  0
POLYLINE
  5
2AD
330
1F
100
AcDbEntity
  8
0
  6
CONTINUOUS
 62
     7
100
AcDb2dPolyline
 66
     1
 10
0.0
 20
0.0
 30
0.0
  0
VERTEX
  5
500
330
2AD
100
AcDbEntity
  8
0
  6
CONTINUOUS
 62
     7
100
AcDbVertex
100
AcDb2dVertex
 10
8.9357959313
 20
6.5210784979
 30
0.0
  0
VERTEX
  5
501
330
2AD
100
AcDbEntity
  8
0
  6
CONTINUOUS
 62
     7
100
AcDbVertex
100
AcDb2dVertex
 10
8.9349906947
 20
6.5064267606
 30
0.0
  0
VERTEX
  5
502
330
2AD
100
AcDbEntity
  8
0
  6
CONTINUOUS
 62
     7
100
AcDbVertex
100
AcDb2dVertex
 10
8.9325887628
 20
6.4910960123
 30
0.0
  0
VERTEX
  5
503
330
2AD
100
AcDbEntity
  8
0
  6
CONTINUOUS
 62
     7
100
AcDbVertex
100
AcDb2dVertex
 10
8.9286312331
 20
6.4753485662
 30
0.0
  0
VERTEX
  5
504
330
2AD
100
AcDbEntity
  8
0
  6
CONTINUOUS
 62
     7
100
AcDbVertex
100
AcDb2dVertex
 10
8.9231858202
 20
6.4594538655
 30
0.0
  0
VERTEX
  5
505
330
2AD
100
AcDbEntity
  8
0
  6
CONTINUOUS
 62
     7
100
AcDbVertex
100
AcDb2dVertex
 10
8.9163456967
 20
6.443683873
 30
0.0
  0
VERTEX
  5
506
330
2AD
100
AcDbEntity
  8
0
  6
CONTINUOUS
 62
     7
100
AcDbVertex
100
AcDb2dVertex
 10
8.9082278988
 20
6.4283084176
 30
0.0
  0
VERTEX
  5
507
330
2AD
100
AcDbEntity
  8
0
  6
CONTINUOUS
 62
     7
100
AcDbVertex
100
AcDb2dVertex
 10
8.8989713244
 20
6.4135905775
 30
0.0
  0
VERTEX
  5
508
330
2AD
100
AcDbEntity
  8
0
  6
CONTINUOUS
 62
     7
100
AcDbVertex
100
AcDb2dVertex
 10
8.888734356
 20
6.3997821793
 30
0.0
  0
VERTEX
  5
509
330
2AD
100
AcDbEntity
  8
0
  6
CONTINUOUS
 62
     7
100
AcDbVertex
100
AcDb2dVertex
 10
8.877692151
 20
6.3871194882
 30
0.0
  0
VERTEX
  5
50A
330
2AD
100
AcDbEntity
  8
0
  6
CONTINUOUS
 62
     7
100
AcDbVertex
100
AcDb2dVertex
 10
8.8660336447
 20
6.3758191666
 30
0.0
  0
VERTEX
  5
50B
330
2AD
100
AcDbEntity
  8
0
  6
CONTINUOUS
 62
     7
100
AcDbVertex
100
AcDb2dVertex
 10
8.8539583171
 20
6.366074566
 30
0.0
  0
VERTEX
  5
50C
330
2AD
100
AcDbEntity
  8
0
  6
CONTINUOUS
 62
     7
100
AcDbVertex
100
AcDb2dVertex
 10
8.8416727807
 20
6.3580524192
 30
0.0
  0
VERTEX
  5
50D
330
2AD
100
AcDbEntity
  8
0
  6
CONTINUOUS
 62
     7
100
AcDbVertex
100
AcDb2dVertex
 10
8.8293872442
 20
6.3518899875
 30
0.0
  0
VERTEX
  5
50E
330
2AD
100
AcDbEntity
  8
0
  6
CONTINUOUS
 62
     7
100
AcDbVertex
100
AcDb2dVertex
 10
8.8173119167
 20
6.3476927117
 30
0.0
  0
VERTEX
  5
50F
330
2AD
100
AcDbEntity
  8
0
  6
CONTINUOUS
 62
     7
100
AcDbVertex
100
AcDb2dVertex
 10
8.8056534103
 20
6.3455324084
 30
0.0
  0
VERTEX
  5
510
330
2AD
100
AcDbEntity
  8
0
  6
CONTINUOUS
 62
     7
100
AcDbVertex
100
AcDb2dVertex
 10
8.7946112053
 20
6.3454460409
 30
0.0
  0
VERTEX
  5
511
330
2AD
100
AcDbEntity
  8
0
  6
CONTINUOUS
 62
     7
100
AcDbVertex
100
AcDb2dVertex
 10
8.784374237
 20
6.3474350871
 30
0.0
  0
VERTEX
  5
512
330
2AD
100
AcDbEntity
  8
0
  6
CONTINUOUS
 62
     7
100
AcDbVertex
100
AcDb2dVertex
 10
8.7751176626
 20
6.3514655138
 30
0.0
  0
VERTEX
  5
513
330
2AD
100
AcDbEntity
  8
0
  6
CONTINUOUS
 62
     7
100
AcDbVertex
100
AcDb2dVertex
 10
8.7669998647
 20
6.3574683593
 30
0.0
  0
VERTEX
  5
514
330
2AD
100
AcDbEntity
  8
0
  6
CONTINUOUS
 62
     7
100
AcDbVertex
100
AcDb2dVertex
 10
8.7601597411
 20
6.3653409133
 30
0.0
  0
VERTEX
  5
515
330
2AD
100
AcDbEntity
  8
0
  6
CONTINUOUS
 62
     7
100
AcDbVertex
100
AcDb2dVertex
 10
8.7547143282
 20
6.3749484741
 30
0.0
  0
VERTEX
  5
516
330
2AD
100
AcDbEntity
  8
0
  6
CONTINUOUS
 62
     7
100
AcDbVertex
100
AcDb2dVertex
 10
8.7507567986
 20
6.3861266537
 30
0.0
  0
VERTEX
  5
517
330
2AD
100
AcDbEntity
  8
0
  6
CONTINUOUS
 62
     7
100
AcDbVertex
100
AcDb2dVertex
 10
8.7483548666
 20
6.3986841904
 30
0.0
  0
VERTEX
  5
518
330
2AD
100
AcDbEntity
  8
0
  6
CONTINUOUS
 62
     7
100
AcDbVertex
100
AcDb2dVertex
 10
8.74754963
 20
6.4124062213
 30
0.0
  0
VERTEX
  5
519
330
2AD
100
AcDbEntity
  8
0
  6
CONTINUOUS
 62
     7
100
AcDbVertex
100
AcDb2dVertex
 10
8.7483548666
 20
6.4270579585
 30
0.0
  0
VERTEX
  5
51A
330
2AD
100
AcDbEntity
  8
0
  6
CONTINUOUS
 62
     7
100
AcDbVertex
100
AcDb2dVertex
 10
8.7507567986
 20
6.4423887069
 30
0.0
  0
VERTEX
  5
51B
330
2AD
100
AcDbEntity
  8
0
  6
CONTINUOUS
 62
     7
100
AcDbVertex
100
AcDb2dVertex
 10
8.7547143282
 20
6.458136153
 30
0.0
  0
VERTEX
  5
51C
330
2AD
100
AcDbEntity
  8
0
  6
CONTINUOUS
 62
     7
100
AcDbVertex
100
AcDb2dVertex
 10
8.7601597411
 20
6.4740308536
 30
0.0
  0
VERTEX
  5
51D
330
2AD
100
AcDbEntity
  8
0
  6
CONTINUOUS
 62
     7
100
AcDbVertex
100
AcDb2dVertex
 10
8.7669998647
 20
6.4898008462
 30
0.0
  0
VERTEX
  5
51E
330
2AD
100
AcDbEntity
  8
0
  6
CONTINUOUS
 62
     7
100
AcDbVertex
100
AcDb2dVertex
 10
8.7751176626
 20
6.5051763016
 30
0.0
  0
VERTEX
  5
51F
330
2AD
100
AcDbEntity
  8
0
  6
CONTINUOUS
 62
     7
100
AcDbVertex
100
AcDb2dVertex
 10
8.784374237
 20
6.5198941416
 30
0.0
  0
VERTEX
  5
520
330
2AD
100
AcDbEntity
  8
0
  6
CONTINUOUS
 62
     7
100
AcDbVertex
100
AcDb2dVertex
 10
8.7946112053
 20
6.5337025399
 30
0.0
  0
VERTEX
  5
521
330
2AD
100
AcDbEntity
  8
0
  6
CONTINUOUS
 62
     7
100
AcDbVertex
100
AcDb2dVertex
 10
8.8056534103
 20
6.546365231
 30
0.0
  0
VERTEX
  5
522
330
2AD
100
AcDbEntity
  8
0
  6
CONTINUOUS
 62
     7
100
AcDbVertex
100
AcDb2dVertex
 10
8.8173119167
 20
6.5576655526
 30
0.0
  0
VERTEX
  5
523
330
2AD
100
AcDbEntity
  8
0
  6
CONTINUOUS
 62
     7
100
AcDbVertex
100
AcDb2dVertex
 10
8.8293872442
 20
6.5674101532
 30
0.0
  0
VERTEX
  5
524
330
2AD
100
AcDbEntity
  8
0
  6
CONTINUOUS
 62
     7
100
AcDbVertex
100
AcDb2dVertex
 10
8.8416727807
 20
6.5754322999
 30
0.0
  0
VERTEX
  5
525
330
2AD
100
AcDbEntity
  8
0
  6
CONTINUOUS
 62
     7
100
AcDbVertex
100
AcDb2dVertex
 10
8.8539583171
 20
6.5815947317
 30
0.0
  0
VERTEX
  5
526
330
2AD
100
AcDbEntity
  8
0
  6
CONTINUOUS
 62
     7
100
AcDbVertex
100
AcDb2dVertex
 10
8.8660336447
 20
6.5857920075
 30
0.0
  0
VERTEX
  5
527
330
2AD
100
AcDbEntity
  8
0
  6
CONTINUOUS
 62
     7
100
AcDbVertex
100
AcDb2dVertex
 10
8.877692151
 20
6.5879523108
 30
0.0
  0
VERTEX
  5
528
330
2AD
100
AcDbEntity
  8
0
  6
CONTINUOUS
 62
     7
100
AcDbVertex
100
AcDb2dVertex
 10
8.888734356
 20
6.5880386782
 30
0.0
  0
VERTEX
  5
529
330
2AD
100
AcDbEntity
  8
0
  6
CONTINUOUS
 62
     7
100
AcDbVertex
100
AcDb2dVertex
 10
8.8989713244
 20
6.586049632
 30
0.0
  0
VERTEX
  5
52A
330
2AD
100
AcDbEntity
  8
0
  6
CONTINUOUS
 62
     7
100
AcDbVertex
100
AcDb2dVertex
 10
8.9082278988
 20
6.5820192053
 30
0.0
  0
VERTEX
  5
52B
330
2AD
100
AcDbEntity
  8
0
  6
CONTINUOUS
 62
     7
100
AcDbVertex
100
AcDb2dVertex
 10
8.9163456967
 20
6.5760163598
 30
0.0
  0
VERTEX
  5
52C
330
2AD
100
AcDbEntity
  8
0
  6
CONTINUOUS
 62
     7
100
AcDbVertex
100
AcDb2dVertex
 10
8.9231858202
 20
6.5681438059
 30
0.0
  0
VERTEX
  5
52D
330
2AD
100
AcDbEntity
  8
0
  6
CONTINUOUS
 62
     7
100
AcDbVertex
100
AcDb2dVertex
 10
8.9286312331
 20
6.5585362451
 30
0.0
  0
VERTEX
  5
52E
330
2AD
100
AcDbEntity
  8
0
  6
CONTINUOUS
 62
     7
100
AcDbVertex
100
AcDb2dVertex
 10
8.9325887628
 20
6.5473580654
 30
0.0
  0
VERTEX
  5
52F
330
2AD
100
AcDbEntity
  8
0
  6
CONTINUOUS
 62
     7
100
AcDbVertex
100
AcDb2dVertex
 10
8.9349906947
 20
6.5348005287
 30
0.0
  0
VERTEX
  5
530
330
2AD
100
AcDbEntity
  8
0
  6
CONTINUOUS
 62
     7
100
AcDbVertex
100
AcDb2dVertex
 10
8.9357959313
 20
6.5210784979
 30
0.0
  0
SEQEND
  5
531
330
2AD
100
AcDbEntity
  8
0
  6
CONTINUOUS
 62
     7
  0
ARC
  5
2AE
330
1F
100
AcDbEntity
  8
0
  6
CONTINUOUS
 62
     7
100
AcDbCircle
 10
8.8925993573
 20
6.4353589827
 30
0.0
 40
0.7323508988582266
100
AcDbArc
 50
122.7145774406
 51
173.4428778241
  0
SPLINE
  5
2AF
330
1F
100
AcDbEntity
  8
0
  6
CONTINUOUS
 62
     7
100
AcDbSpline
210
0.0
220
0.0
230
1.0
 70
     8
 71
     3
 72
     9
 73
     5
 74
     0
 42
0.00000001
 43
0.00000001
 40
0.0
 40
0.0
 40
0.0
 40
0.0
 40
0.4795712624175292
 40
1.0
 40
1.0
 40
1.0
 40
1.0
 10
8.570243996555776
 20
7.016549874329729
 30
0.0
 10
8.567372766157831
 20
7.014710584923344
 30
0.0
 10
8.561385688484595
 20
7.010875306309874
 30
0.0
 10
8.557255898199278
 20
7.005917630328048
 30
0.0
 10
8.555106636654612
 20
7.003337513275483
 30
0.0
  0
SPLINE
  5
2B0
330
1F
100
AcDbEntity
  8
0
  6
CONTINUOUS
 62
     7
100
AcDbSpline
210
0.0
220
0.0
230
1.0
 70
     8
 71
     3
 72
    14
 73
    10
 74
     0
 42
0.00000001
 43
0.00000001
 40
0.0
 40
0.0
 40
0.0
 40
0.0
 40
0.0000561372235907
 40
0.2106195150089628
 40
0.3983070389914238
 40
0.5631921248323155
 40
0.705400972937005
 40
0.8477272517895483
 40
1.0
 40
1.0
 40
1.0
 40
1.0
 10
8.547182105512327
 20
6.980859922585434
 30
0.0
 10
8.547181916473782
 20
6.980858847443981
 30
0.0
 10
8.546472668601023
 20
6.976825057438939
 30
0.0
 10
8.548837712183756
 20
6.969020051352529
 30
0.0
 10
8.553965306140373
 20
6.958920588628479
 30
0.0
 10
8.561438238900866
 20
6.950991888315103
 30
0.0
 10
8.569996821691218
 20
6.944949790784764
 30
0.0
 10
8.579692429414843
 20
6.940311027291187
 30
0.0
 10
8.587269481045352
 20
6.938384692345227
 30
0.0
 10
8.591185917859868
 20
6.937389005702539
 30
0.0
  0
POLYLINE
  5
2B1
330
1F
100
AcDbEntity
  8
0
  6
CONTINUOUS
 62
     7
100
AcDb2dPolyline
 66
     1
 10
0.0
 20
0.0
 30
0.0
  0
VERTEX
  5
532
330
2B1
100
AcDbEntity
  8
0
  6
CONTINUOUS
 62
     7
100
AcDbVertex
100
AcDb2dVertex
 10
8.4170562756
 20
7.3547745884
 30
0.0
  0
VERTEX
  5
533
330
2B1
100
AcDbEntity
  8
0
  6
CONTINUOUS
 62
     7
100
AcDbVertex
100
AcDb2dVertex
 10
8.4157411356
 20
7.3822723216
 30
0.0
  0
VERTEX
  5
534
330
2B1
100
AcDbEntity
  8
0
  6
CONTINUOUS
 62
     7
100
AcDbVertex
100
AcDb2dVertex
 10
8.4127886131
 20
7.4105404798
 30
0.0
  0
VERTEX
  5
535
330
2B1
100
AcDbEntity
  8
0
  6
CONTINUOUS
 62
     7
100
AcDbVertex
100
AcDb2dVertex
 10
8.4082135502
 20
7.4394369588
 30
0.0
  0
VERTEX
  5
536
330
2B1
100
AcDbEntity
  8
0
  6
CONTINUOUS
 62
     7
100
AcDbVertex
100
AcDb2dVertex
 10
8.402038946
 20
7.468816496
 30
0.0
  0
VERTEX
  5
537
330
2B1
100
AcDbEntity
  8
0
  6
CONTINUOUS
 62
     7
100
AcDbVertex
100
AcDb2dVertex
 10
8.3942958401
 20
7.4985314002
 30
0.0
  0
VERTEX
  5
538
330
2B1
100
AcDbEntity
  8
0
  6
CONTINUOUS
 62
     7
100
AcDbVertex
100
AcDb2dVertex
 10
8.3850231573
 20
7.5284322945
 30
0.0
  0
VERTEX
  5
539
330
2B1
100
AcDbEntity
  8
0
  6
CONTINUOUS
 62
     7
100
AcDbVertex
100
AcDb2dVertex
 10
8.3742675112
 20
7.5583688668
 30
0.0
  0
VERTEX
  5
53A
330
2B1
100
AcDbEntity
  8
0
  6
CONTINUOUS
 62
     7
100
AcDbVertex
100
AcDb2dVertex
 10
8.3620829707
 20
7.5881906258
 30
0.0
  0
VERTEX
  5
53B
330
2B1
100
AcDbEntity
  8
0
  6
CONTINUOUS
 62
     7
100
AcDbVertex
100
AcDb2dVertex
 10
8.3485307875
 20
7.6177476575
 30
0.0
  0
VERTEX
  5
53C
330
2B1
100
AcDbEntity
  8
0
  6
CONTINUOUS
 62
     7
100
AcDbVertex
100
AcDb2dVertex
 10
8.3336790884
 20
7.6468913784
 30
0.0
  0
VERTEX
  5
53D
330
2B1
100
AcDbEntity
  8
0
  6
CONTINUOUS
 62
     7
100
AcDbVertex
100
AcDb2dVertex
 10
8.3176025331
 20
7.675475283
 30
0.0
  0
VERTEX
  5
53E
330
2B1
100
AcDbEntity
  8
0
  6
CONTINUOUS
 62
     7
100
AcDbVertex
100
AcDb2dVertex
 10
8.3003819384
 20
7.7033556797
 30
0.0
  0
VERTEX
  5
53F
330
2B1
100
AcDbEntity
  8
0
  6
CONTINUOUS
 62
     7
100
AcDbVertex
100
AcDb2dVertex
 10
8.2821038724
 20
7.7303924137
 30
0.0
  0
VERTEX
  5
540
330
2B1
100
AcDbEntity
  8
0
  6
CONTINUOUS
 62
     7
100
AcDbVertex
100
AcDb2dVertex
 10
8.2628602191
 20
7.7564495711
 30
0.0
  0
VERTEX
  5
541
330
2B1
100
AcDbEntity
  8
0
  6
CONTINUOUS
 62
     7
100
AcDbVertex
100
AcDb2dVertex
 10
8.2427477163
 20
7.7813961625
 30
0.0
  0
VERTEX
  5
542
330
2B1
100
AcDbEntity
  8
0
  6
CONTINUOUS
 62
     7
100
AcDbVertex
100
AcDb2dVertex
 10
8.2218674698
 20
7.8051067813
 30
0.0
  0
VERTEX
  5
543
330
2B1
100
AcDbEntity
  8
0
  6
CONTINUOUS
 62
     7
100
AcDbVertex
100
AcDb2dVertex
 10
8.2003244447
 20
7.827462234
 30
0.0
  0
VERTEX
  5
544
330
2B1
100
AcDbEntity
  8
0
  6
CONTINUOUS
 62
     7
100
AcDbVertex
100
AcDb2dVertex
 10
8.1782269378
 20
7.8483501396
 30
0.0
  0
VERTEX
  5
545
330
2B1
100
AcDbEntity
  8
0
  6
CONTINUOUS
 62
     7
100
AcDbVertex
100
AcDb2dVertex
 10
8.1556860334
 20
7.8676654945
 30
0.0
  0
VERTEX
  5
546
330
2B1
100
AcDbEntity
  8
0
  6
CONTINUOUS
 62
     7
100
AcDbVertex
100
AcDb2dVertex
 10
8.1328150449
 20
7.8853112004
 30
0.0
  0
VERTEX
  5
547
330
2B1
100
AcDbEntity
  8
0
  6
CONTINUOUS
 62
     7
100
AcDbVertex
100
AcDb2dVertex
 10
8.1097289447
 20
7.9011985521
 30
0.0
  0
VERTEX
  5
548
330
2B1
100
AcDbEntity
  8
0
  6
CONTINUOUS
 62
     7
100
AcDbVertex
100
AcDb2dVertex
 10
8.0865437869
 20
7.9152476839
 30
0.0
  0
VERTEX
  5
549
330
2B1
100
AcDbEntity
  8
0
  6
CONTINUOUS
 62
     7
100
AcDbVertex
100
AcDb2dVertex
 10
8.0633761233
 20
7.9273879708
 30
0.0
  0
VERTEX
  5
54A
330
2B1
100
AcDbEntity
  8
0
  6
CONTINUOUS
 62
     7
100
AcDbVertex
100
AcDb2dVertex
 10
8.0403424179
 20
7.9375583833
 30
0.0
  0
VERTEX
  5
54B
330
2B1
100
AcDbEntity
  8
0
  6
CONTINUOUS
 62
     7
100
AcDbVertex
100
AcDb2dVertex
 10
8.0175584613
 20
7.9457077948
 30
0.0
  0
VERTEX
  5
54C
330
2B1
100
AcDbEntity
  8
0
  6
CONTINUOUS
 62
     7
100
AcDbVertex
100
AcDb2dVertex
 10
7.9951387886
 20
7.9517952382
 30
0.0
  0
VERTEX
  5
54D
330
2B1
100
AcDbEntity
  8
0
  6
CONTINUOUS
 62
     7
100
AcDbVertex
100
AcDb2dVertex
 10
7.9731961035
 20
7.9557901119
 30
0.0
  0
VERTEX
  5
54E
330
2B1
100
AcDbEntity
  8
0
  6
CONTINUOUS
 62
     7
100
AcDbVertex
100
AcDb2dVertex
 10
7.9518407121
 20
7.9576723335
 30
0.0
  0
VERTEX
  5
54F
330
2B1
100
AcDbEntity
  8
0
  6
CONTINUOUS
 62
     7
100
AcDbVertex
100
AcDb2dVertex
 10
7.931179968
 20
7.9574324412
 30
0.0
  0
VERTEX
  5
550
330
2B1
100
AcDbEntity
  8
0
  6
CONTINUOUS
 62
     7
100
AcDbVertex
100
AcDb2dVertex
 10
7.911317733
 20
7.955071641
 30
0.0
  0
VERTEX
  5
551
330
2B1
100
AcDbEntity
  8
0
  6
CONTINUOUS
 62
     7
100
AcDbVertex
100
AcDb2dVertex
 10
7.8923538545
 20
7.9506018004
 30
0.0
  0
VERTEX
  5
552
330
2B1
100
AcDbEntity
  8
0
  6
CONTINUOUS
 62
     7
100
AcDbVertex
100
AcDb2dVertex
 10
7.8743836641
 20
7.9440453896
 30
0.0
  0
VERTEX
  5
553
330
2B1
100
AcDbEntity
  8
0
  6
CONTINUOUS
 62
     7
100
AcDbVertex
100
AcDb2dVertex
 10
7.8587434245
 20
7.9361624158
 30
0.0
  0
SEQEND
  5
554
330
2B1
100
AcDbEntity
  8
0
  6
CONTINUOUS
 62
     7
  0
SPLINE
  5
2B2
330
1F
100
AcDbEntity
  8
0
  6
CONTINUOUS
 62
     7
100
AcDbSpline
210
0.0
220
0.0
230
1.0
 70
     8
 71
     3
 72
     8
 73
     4
 74
     0
 42
0.00000001
 43
0.00000001
 40
0.0
 40
0.0
 40
0.0
 40
0.0
 40
0.0002500923556257
 40
0.0002500923556257
 40
0.0002500923556257
 40
0.0002500923556257
 10
8.417304425156185
 20
7.346795529217786
 30
0.0
 10
8.41718838709806
 20
7.349405119196853
 30
0.0
 10
8.417105653486324
 20
7.35206676046992
 30
0.0
 10
8.41705627558925
 20
7.354774588393293
 30
0.0
  0
LINE
  5
2B3
330
1F
100
AcDbEntity
  8
0
  6
CONTINUOUS
 62
     7
100
AcDbLine
 10
8.4173044252
 20
7.3467955292
 30
0.0
 11
7.999373477
 21
7.1055291283
 31
0.0
  0
SPLINE
  5
2B4
330
1F
100
AcDbEntity
  8
0
  6
CONTINUOUS
 62
     7
100
AcDbSpline
210
0.0
220
0.0
230
1.0
 70
     8
 71
     3
 72
     8
 73
     4
 74
     0
 42
0.00000001
 43
0.00000001
 40
0.0
 40
0.0
 40
0.0
 40
0.0
 40
0.0002500923556256
 40
0.0002500923556256
 40
0.0002500923556256
 40
0.0002500923556256
 10
7.999473530794043
 20
7.113709201044069
 30
0.0
 10
7.999522908691119
 20
7.111001373120695
 30
0.0
 10
7.999489515035142
 20
7.108272693002942
 30
0.0
 10
7.999373476977016
 20
7.105529128333694
 30
0.0
  0
POLYLINE
  5
2B5
330
1F
100
AcDbEntity
  8
0
  6
CONTINUOUS
 62
     7
100
AcDb2dPolyline
 66
     1
 10
0.0
 20
0.0
 30
0.0
  0
VERTEX
  5
555
330
2B5
100
AcDbEntity
  8
0
  6
CONTINUOUS
 62
     7
100
AcDbVertex
100
AcDb2dVertex
 10
7.9994735308
 20
7.113709201
 30
0.0
  0
VERTEX
  5
556
330
2B5
100
AcDbEntity
  8
0
  6
CONTINUOUS
 62
     7
100
AcDbVertex
100
AcDb2dVertex
 10
7.9981583908
 20
7.1412069342
 30
0.0
  0
VERTEX
  5
557
330
2B5
100
AcDbEntity
  8
0
  6
CONTINUOUS
 62
     7
100
AcDbVertex
100
AcDb2dVertex
 10
7.9952058683
 20
7.1694750924
 30
0.0
  0
VERTEX
  5
558
330
2B5
100
AcDbEntity
  8
0
  6
CONTINUOUS
 62
     7
100
AcDbVertex
100
AcDb2dVertex
 10
7.9906308055
 20
7.1983715715
 30
0.0
  0
VERTEX
  5
559
330
2B5
100
AcDbEntity
  8
0
  6
CONTINUOUS
 62
     7
100
AcDbVertex
100
AcDb2dVertex
 10
7.9844562012
 20
7.2277511087
 30
0.0
  0
VERTEX
  5
55A
330
2B5
100
AcDbEntity
  8
0
  6
CONTINUOUS
 62
     7
100
AcDbVertex
100
AcDb2dVertex
 10
7.9767130953
 20
7.2574660129
 30
0.0
  0
VERTEX
  5
55B
330
2B5
100
AcDbEntity
  8
0
  6
CONTINUOUS
 62
     7
100
AcDbVertex
100
AcDb2dVertex
 10
7.9674404125
 20
7.2873669071
 30
0.0
  0
VERTEX
  5
55C
330
2B5
100
AcDbEntity
  8
0
  6
CONTINUOUS
 62
     7
100
AcDbVertex
100
AcDb2dVertex
 10
7.9566847664
 20
7.3173034794
 30
0.0
  0
VERTEX
  5
55D
330
2B5
100
AcDbEntity
  8
0
  6
CONTINUOUS
 62
     7
100
AcDbVertex
100
AcDb2dVertex
 10
7.9445002259
 20
7.3471252385
 30
0.0
  0
VERTEX
  5
55E
330
2B5
100
AcDbEntity
  8
0
  6
CONTINUOUS
 62
     7
100
AcDbVertex
100
AcDb2dVertex
 10
7.9309480427
 20
7.3766822702
 30
0.0
  0
VERTEX
  5
55F
330
2B5
100
AcDbEntity
  8
0
  6
CONTINUOUS
 62
     7
100
AcDbVertex
100
AcDb2dVertex
 10
7.9160963436
 20
7.4058259911
 30
0.0
  0
VERTEX
  5
560
330
2B5
100
AcDbEntity
  8
0
  6
CONTINUOUS
 62
     7
100
AcDbVertex
100
AcDb2dVertex
 10
7.9000197883
 20
7.4344098956
 30
0.0
  0
VERTEX
  5
561
330
2B5
100
AcDbEntity
  8
0
  6
CONTINUOUS
 62
     7
100
AcDbVertex
100
AcDb2dVertex
 10
7.8827991936
 20
7.4622902924
 30
0.0
  0
VERTEX
  5
562
330
2B5
100
AcDbEntity
  8
0
  6
CONTINUOUS
 62
     7
100
AcDbVertex
100
AcDb2dVertex
 10
7.8645211276
 20
7.4893270263
 30
0.0
  0
VERTEX
  5
563
330
2B5
100
AcDbEntity
  8
0
  6
CONTINUOUS
 62
     7
100
AcDbVertex
100
AcDb2dVertex
 10
7.8452774743
 20
7.5153841838
 30
0.0
  0
VERTEX
  5
564
330
2B5
100
AcDbEntity
  8
0
  6
CONTINUOUS
 62
     7
100
AcDbVertex
100
AcDb2dVertex
 10
7.8251649715
 20
7.5403307752
 30
0.0
  0
VERTEX
  5
565
330
2B5
100
AcDbEntity
  8
0
  6
CONTINUOUS
 62
     7
100
AcDbVertex
100
AcDb2dVertex
 10
7.804284725
 20
7.5640413939
 30
0.0
  0
VERTEX
  5
566
330
2B5
100
AcDbEntity
  8
0
  6
CONTINUOUS
 62
     7
100
AcDbVertex
100
AcDb2dVertex
 10
7.7827416999
 20
7.5863968466
 30
0.0
  0
VERTEX
  5
567
330
2B5
100
AcDbEntity
  8
0
  6
CONTINUOUS
 62
     7
100
AcDbVertex
100
AcDb2dVertex
 10
7.760644193
 20
7.6072847522
 30
0.0
  0
VERTEX
  5
568
330
2B5
100
AcDbEntity
  8
0
  6
CONTINUOUS
 62
     7
100
AcDbVertex
100
AcDb2dVertex
 10
7.7381032886
 20
7.6266001072
 30
0.0
  0
VERTEX
  5
569
330
2B5
100
AcDbEntity
  8
0
  6
CONTINUOUS
 62
     7
100
AcDbVertex
100
AcDb2dVertex
 10
7.7152323001
 20
7.644245813
 30
0.0
  0
VERTEX
  5
56A
330
2B5
100
AcDbEntity
  8
0
  6
CONTINUOUS
 62
     7
100
AcDbVertex
100
AcDb2dVertex
 10
7.6921461999
 20
7.6601331648
 30
0.0
  0
VERTEX
  5
56B
330
2B5
100
AcDbEntity
  8
0
  6
CONTINUOUS
 62
     7
100
AcDbVertex
100
AcDb2dVertex
 10
7.6689610421
 20
7.6741822966
 30
0.0
  0
VERTEX
  5
56C
330
2B5
100
AcDbEntity
  8
0
  6
CONTINUOUS
 62
     7
100
AcDbVertex
100
AcDb2dVertex
 10
7.6457933785
 20
7.6863225834
 30
0.0
  0
VERTEX
  5
56D
330
2B5
100
AcDbEntity
  8
0
  6
CONTINUOUS
 62
     7
100
AcDbVertex
100
AcDb2dVertex
 10
7.6227596731
 20
7.6964929959
 30
0.0
  0
VERTEX
  5
56E
330
2B5
100
AcDbEntity
  8
0
  6
CONTINUOUS
 62
     7
100
AcDbVertex
100
AcDb2dVertex
 10
7.5999757165
 20
7.7046424075
 30
0.0
  0
VERTEX
  5
56F
330
2B5
100
AcDbEntity
  8
0
  6
CONTINUOUS
 62
     7
100
AcDbVertex
100
AcDb2dVertex
 10
7.5775560438
 20
7.7107298509
 30
0.0
  0
VERTEX
  5
570
330
2B5
100
AcDbEntity
  8
0
  6
CONTINUOUS
 62
     7
100
AcDbVertex
100
AcDb2dVertex
 10
7.5556133587
 20
7.7147247245
 30
0.0
  0
VERTEX
  5
571
330
2B5
100
AcDbEntity
  8
0
  6
CONTINUOUS
 62
     7
100
AcDbVertex
100
AcDb2dVertex
 10
7.5342579673
 20
7.7166069462
 30
0.0
  0
VERTEX
  5
572
330
2B5
100
AcDbEntity
  8
0
  6
CONTINUOUS
 62
     7
100
AcDbVertex
100
AcDb2dVertex
 10
7.5135972233
 20
7.7163670539
 30
0.0
  0
VERTEX
  5
573
330
2B5
100
AcDbEntity
  8
0
  6
CONTINUOUS
 62
     7
100
AcDbVertex
100
AcDb2dVertex
 10
7.4937349882
 20
7.7140062536
 30
0.0
  0
VERTEX
  5
574
330
2B5
100
AcDbEntity
  8
0
  6
CONTINUOUS
 62
     7
100
AcDbVertex
100
AcDb2dVertex
 10
7.4747711097
 20
7.7095364131
 30
0.0
  0
VERTEX
  5
575
330
2B5
100
AcDbEntity
  8
0
  6
CONTINUOUS
 62
     7
100
AcDbVertex
100
AcDb2dVertex
 10
7.4568009193
 20
7.7029800022
 30
0.0
  0
VERTEX
  5
576
330
2B5
100
AcDbEntity
  8
0
  6
CONTINUOUS
 62
     7
100
AcDbVertex
100
AcDb2dVertex
 10
7.4399147532
 20
7.6943699801
 30
0.0
  0
VERTEX
  5
577
330
2B5
100
AcDbEntity
  8
0
  6
CONTINUOUS
 62
     7
100
AcDbVertex
100
AcDb2dVertex
 10
7.4241974984
 20
7.6837496295
 30
0.0
  0
VERTEX
  5
578
330
2B5
100
AcDbEntity
  8
0
  6
CONTINUOUS
 62
     7
100
AcDbVertex
100
AcDb2dVertex
 10
7.4097281654
 20
7.6711723388
 30
0.0
  0
VERTEX
  5
579
330
2B5
100
AcDbEntity
  8
0
  6
CONTINUOUS
 62
     7
100
AcDbVertex
100
AcDb2dVertex
 10
7.3965794918
 20
7.6567013342
 30
0.0
  0
VERTEX
  5
57A
330
2B5
100
AcDbEntity
  8
0
  6
CONTINUOUS
 62
     7
100
AcDbVertex
100
AcDb2dVertex
 10
7.3848175759
 20
7.6404093615
 30
0.0
  0
VERTEX
  5
57B
330
2B5
100
AcDbEntity
  8
0
  6
CONTINUOUS
 62
     7
100
AcDbVertex
100
AcDb2dVertex
 10
7.3745015451
 20
7.6223783205
 30
0.0
  0
VERTEX
  5
57C
330
2B5
100
AcDbEntity
  8
0
  6
CONTINUOUS
 62
     7
100
AcDbVertex
100
AcDb2dVertex
 10
7.3656832579
 20
7.6026988534
 30
0.0
  0
VERTEX
  5
57D
330
2B5
100
AcDbEntity
  8
0
  6
CONTINUOUS
 62
     7
100
AcDbVertex
100
AcDb2dVertex
 10
7.3584070441
 20
7.581469889
 30
0.0
  0
VERTEX
  5
57E
330
2B5
100
AcDbEntity
  8
0
  6
CONTINUOUS
 62
     7
100
AcDbVertex
100
AcDb2dVertex
 10
7.3527094812
 20
7.5587981453
 30
0.0
  0
VERTEX
  5
57F
330
2B5
100
AcDbEntity
  8
0
  6
CONTINUOUS
 62
     7
100
AcDbVertex
100
AcDb2dVertex
 10
7.3486192108
 20
7.5347975934
 30
0.0
  0
VERTEX
  5
580
330
2B5
100
AcDbEntity
  8
0
  6
CONTINUOUS
 62
     7
100
AcDbVertex
100
AcDb2dVertex
 10
7.3461567949
 20
7.5095888842
 30
0.0
  0
VERTEX
  5
581
330
2B5
100
AcDbEntity
  8
0
  6
CONTINUOUS
 62
     7
100
AcDbVertex
100
AcDb2dVertex
 10
7.3453346118
 20
7.4832987419
 30
0.0
  0
SEQEND
  5
582
330
2B5
100
AcDbEntity
  8
0
  6
CONTINUOUS
 62
     7
  0
LINE
  5
2B6
330
1F
100
AcDbEntity
  8
0
  6
CONTINUOUS
 62
     7
100
AcDbLine
 10
7.414931736
 20
7.4431211774
 30
0.0
 11
7.414931736
 21
7.3707898063
 31
0.0
  0
LINE
  5
2B7
330
1F
100
AcDbEntity
  8
0
  6
CONTINUOUS
 62
     7
100
AcDbLine
 10
7.3453346118
 20
7.4109673708
 30
0.0
 11
7.414931736
 21
7.3707898063
 31
0.0
  0
LINE
  5
2B8
330
1F
100
AcDbEntity
  8
0
  6
CONTINUOUS
 62
     7
100
AcDbLine
 10
7.3453346118
 20
7.4832987419
 30
0.0
 11
7.3453346118
 21
7.4109673708
 31
0.0
  0
LINE
  5
2B9
330
1F
100
AcDbEntity
  8
0
  6
CONTINUOUS
 62
     7
100
AcDbLine
 10
7.9298563872
 20
7.1538983226
 30
0.0
 11
7.9994735308
 21
7.113709201
 31
0.0
  0
POLYLINE
  5
2BA
330
1F
100
AcDbEntity
  8
0
  6
CONTINUOUS
 62
     7
100
AcDb2dPolyline
 66
     1
 10
0.0
 20
0.0
 30
0.0
  0
VERTEX
  5
583
330
2BA
100
AcDbEntity
  8
0
  6
CONTINUOUS
 62
     7
100
AcDbVertex
100
AcDb2dVertex
 10
7.9298563872
 20
7.1538983226
 30
0.0
  0
VERTEX
  5
584
330
2BA
100
AcDbEntity
  8
0
  6
CONTINUOUS
 62
     7
100
AcDbVertex
100
AcDb2dVertex
 10
7.9284807472
 20
7.1783804718
 30
0.0
  0
VERTEX
  5
585
330
2BA
100
AcDbEntity
  8
0
  6
CONTINUOUS
 62
     7
100
AcDbVertex
100
AcDb2dVertex
 10
7.9254730279
 20
7.203602576
 30
0.0
  0
VERTEX
  5
586
330
2BA
100
AcDbEntity
  8
0
  6
CONTINUOUS
 62
     7
100
AcDbVertex
100
AcDb2dVertex
 10
7.9208524016
 20
7.2294038614
 30
0.0
  0
VERTEX
  5
587
330
2BA
100
AcDbEntity
  8
0
  6
CONTINUOUS
 62
     7
100
AcDbVertex
100
AcDb2dVertex
 10
7.9146483216
 20
7.2556198623
 30
0.0
  0
VERTEX
  5
588
330
2BA
100
AcDbEntity
  8
0
  6
CONTINUOUS
 62
     7
100
AcDbVertex
100
AcDb2dVertex
 10
7.9069003347
 20
7.2820834694
 30
0.0
  0
VERTEX
  5
589
330
2BA
100
AcDbEntity
  8
0
  6
CONTINUOUS
 62
     7
100
AcDbVertex
100
AcDb2dVertex
 10
7.897657829
 20
7.3086259953
 30
0.0
  0
VERTEX
  5
58A
330
2BA
100
AcDbEntity
  8
0
  6
CONTINUOUS
 62
     7
100
AcDbVertex
100
AcDb2dVertex
 10
7.8869797194
 20
7.3350782492
 30
0.0
  0
VERTEX
  5
58B
330
2BA
100
AcDbEntity
  8
0
  6
CONTINUOUS
 62
     7
100
AcDbVertex
100
AcDb2dVertex
 10
7.8749340714
 20
7.361271616
 30
0.0
  0
VERTEX
  5
58C
330
2BA
100
AcDbEntity
  8
0
  6
CONTINUOUS
 62
     7
100
AcDbVertex
100
AcDb2dVertex
 10
7.8615976679
 20
7.3870391307
 30
0.0
  0
VERTEX
  5
58D
330
2BA
100
AcDbEntity
  8
0
  6
CONTINUOUS
 62
     7
100
AcDbVertex
100
AcDb2dVertex
 10
7.8470555195
 20
7.4122165429
 30
0.0
  0
VERTEX
  5
58E
330
2BA
100
AcDbEntity
  8
0
  6
CONTINUOUS
 62
     7
100
AcDbVertex
100
AcDb2dVertex
 10
7.8314003225
 20
7.4366433637
 30
0.0
  0
VERTEX
  5
58F
330
2BA
100
AcDbEntity
  8
0
  6
CONTINUOUS
 62
     7
100
AcDbVertex
100
AcDb2dVertex
 10
7.8147318682
 20
7.4601638886
 30
0.0
  0
VERTEX
  5
590
330
2BA
100
AcDbEntity
  8
0
  6
CONTINUOUS
 62
     7
100
AcDbVertex
100
AcDb2dVertex
 10
7.7971564066
 20
7.4826281903
 30
0.0
  0
VERTEX
  5
591
330
2BA
100
AcDbEntity
  8
0
  6
CONTINUOUS
 62
     7
100
AcDbVertex
100
AcDb2dVertex
 10
7.7787859695
 20
7.5038930739
 30
0.0
  0
VERTEX
  5
592
330
2BA
100
AcDbEntity
  8
0
  6
CONTINUOUS
 62
     7
100
AcDbVertex
100
AcDb2dVertex
 10
7.7597376559
 20
7.5238229904
 30
0.0
  0
VERTEX
  5
593
330
2BA
100
AcDbEntity
  8
0
  6
CONTINUOUS
 62
     7
100
AcDbVertex
100
AcDb2dVertex
 10
7.7401328858
 20
7.5422909
 30
0.0
  0
VERTEX
  5
594
330
2BA
100
AcDbEntity
  8
0
  6
CONTINUOUS
 62
     7
100
AcDbVertex
100
AcDb2dVertex
 10
7.7200966265
 20
7.5591790822
 30
0.0
  0
VERTEX
  5
595
330
2BA
100
AcDbEntity
  8
0
  6
CONTINUOUS
 62
     7
100
AcDbVertex
100
AcDb2dVertex
 10
7.6997565955
 20
7.5743798865
 30
0.0
  0
VERTEX
  5
596
330
2BA
100
AcDbEntity
  8
0
  6
CONTINUOUS
 62
     7
100
AcDbVertex
100
AcDb2dVertex
 10
7.6792424467
 20
7.5877964179
 30
0.0
  0
VERTEX
  5
597
330
2BA
100
AcDbEntity
  8
0
  6
CONTINUOUS
 62
     7
100
AcDbVertex
100
AcDb2dVertex
 10
7.6586849439
 20
7.5993431551
 30
0.0
  0
VERTEX
  5
598
330
2BA
100
AcDbEntity
  8
0
  6
CONTINUOUS
 62
     7
100
AcDbVertex
100
AcDb2dVertex
 10
7.6382151272
 20
7.6089464956
 30
0.0
  0
VERTEX
  5
599
330
2BA
100
AcDbEntity
  8
0
  6
CONTINUOUS
 62
     7
100
AcDbVertex
100
AcDb2dVertex
 10
7.6179634778
 20
7.6165452246
 30
0.0
  0
VERTEX
  5
59A
330
2BA
100
AcDbEntity
  8
0
  6
CONTINUOUS
 62
     7
100
AcDbVertex
100
AcDb2dVertex
 10
7.5980590864
 20
7.6220909052
 30
0.0
  0
VERTEX
  5
59B
330
2BA
100
AcDbEntity
  8
0
  6
CONTINUOUS
 62
     7
100
AcDbVertex
100
AcDb2dVertex
 10
7.5786288298
 20
7.6255481876
 30
0.0
  0
VERTEX
  5
59C
330
2BA
100
AcDbEntity
  8
0
  6
CONTINUOUS
 62
     7
100
AcDbVertex
100
AcDb2dVertex
 10
7.5597965629
 20
7.6268950339
 30
0.0
  0
VERTEX
  5
59D
330
2BA
100
AcDbEntity
  8
0
  6
CONTINUOUS
 62
     7
100
AcDbVertex
100
AcDb2dVertex
 10
7.5416823284
 20
7.6261228589
 30
0.0
  0
VERTEX
  5
59E
330
2BA
100
AcDbEntity
  8
0
  6
CONTINUOUS
 62
     7
100
AcDbVertex
100
AcDb2dVertex
 10
7.5244015925
 20
7.6232365847
 30
0.0
  0
VERTEX
  5
59F
330
2BA
100
AcDbEntity
  8
0
  6
CONTINUOUS
 62
     7
100
AcDbVertex
100
AcDb2dVertex
 10
7.5080645081
 20
7.6182546093
 30
0.0
  0
VERTEX
  5
5A0
330
2BA
100
AcDbEntity
  8
0
  6
CONTINUOUS
 62
     7
100
AcDbVertex
100
AcDb2dVertex
 10
7.492775213
 20
7.6112086895
 30
0.0
  0
VERTEX
  5
5A1
330
2BA
100
AcDbEntity
  8
0
  6
CONTINUOUS
 62
     7
100
AcDbVertex
100
AcDb2dVertex
 10
7.4786311662
 20
7.6021437381
 30
0.0
  0
VERTEX
  5
5A2
330
2BA
100
AcDbEntity
  8
0
  6
CONTINUOUS
 62
     7
100
AcDbVertex
100
AcDb2dVertex
 10
7.4657225262
 20
7.5911175381
 30
0.0
  0
VERTEX
  5
5A3
330
2BA
100
AcDbEntity
  8
0
  6
CONTINUOUS
 62
     7
100
AcDbVertex
100
AcDb2dVertex
 10
7.454131577
 20
7.5782003742
 30
0.0
  0
VERTEX
  5
5A4
330
2BA
100
AcDbEntity
  8
0
  6
CONTINUOUS
 62
     7
100
AcDbVertex
100
AcDb2dVertex
 10
7.4439322031
 20
7.5634745843
 30
0.0
  0
VERTEX
  5
5A5
330
2BA
100
AcDbEntity
  8
0
  6
CONTINUOUS
 62
     7
100
AcDbVertex
100
AcDb2dVertex
 10
7.4351894184
 20
7.5470340355
 30
0.0
  0
VERTEX
  5
5A6
330
2BA
100
AcDbEntity
  8
0
  6
CONTINUOUS
 62
     7
100
AcDbVertex
100
AcDb2dVertex
 10
7.4279589524
 20
7.5289835252
 30
0.0
  0
VERTEX
  5
5A7
330
2BA
100
AcDbEntity
  8
0
  6
CONTINUOUS
 62
     7
100
AcDbVertex
100
AcDb2dVertex
 10
7.4222868943
 20
7.509438113
 30
0.0
  0
VERTEX
  5
5A8
330
2BA
100
AcDbEntity
  8
0
  6
CONTINUOUS
 62
     7
100
AcDbVertex
100
AcDb2dVertex
 10
7.4182093996
 20
7.4885223878
 30
0.0
  0
VERTEX
  5
5A9
330
2BA
100
AcDbEntity
  8
0
  6
CONTINUOUS
 62
     7
100
AcDbVertex
100
AcDb2dVertex
 10
7.4157524598
 20
7.4663696731
 30
0.0
  0
VERTEX
  5
5AA
330
2BA
100
AcDbEntity
  8
0
  6
CONTINUOUS
 62
     7
100
AcDbVertex
100
AcDb2dVertex
 10
7.414931736
 20
7.4431211774
 30
0.0
  0
SEQEND
  5
5AB
330
2BA
100
AcDbEntity
  8
0
  6
CONTINUOUS
 62
     7
  0
LINE
  5
2BB
330
1F
100
AcDbEntity
  8
0
  6
CONTINUOUS
 62
     7
100
AcDbLine
 10
8.4519288855
 20
6.056892018
 30
0.0
 11
8.5145662972
 21
6.0930518261
 31
0.0
  0
ARC
  5
2BC
330
1F
100
AcDbEntity
  8
0
  6
CONTINUOUS
 62
     7
100
AcDbCircle
 10
8.8643215798
 20
6.5295740072
 30
0.0
 40
0.050974078609847
100
AcDbArc
 50
350.406126069
 51
123.4873494773
  0
POLYLINE
  5
2BD
330
1F
100
AcDbEntity
  8
0
  6
CONTINUOUS
 62
     7
100
AcDb2dPolyline
 66
     1
 10
0.0
 20
0.0
 30
0.0
  0
VERTEX
  5
5AC
330
2BD
100
AcDbEntity
  8
0
  6
CONTINUOUS
 62
     7
100
AcDbVertex
100
AcDb2dVertex
 10
8.7477081877
 20
6.4188039419
 30
0.0
  0
VERTEX
  5
5AD
330
2BD
100
AcDbEntity
  8
0
  6
CONTINUOUS
 62
     7
100
AcDbVertex
100
AcDb2dVertex
 10
8.7477530721
 20
6.4180423457
 30
0.0
  0
VERTEX
  5
5AE
330
2BD
100
AcDbEntity
  8
0
  6
CONTINUOUS
 62
     7
100
AcDbVertex
100
AcDb2dVertex
 10
8.749374667
 20
6.4056545308
 30
0.0
  0
VERTEX
  5
5AF
330
2BD
100
AcDbEntity
  8
0
  6
CONTINUOUS
 62
     7
100
AcDbVertex
100
AcDb2dVertex
 10
8.7525862942
 20
6.3945748994
 30
0.0
  0
VERTEX
  5
5B0
330
2BD
100
AcDbEntity
  8
0
  6
CONTINUOUS
 62
     7
100
AcDbVertex
100
AcDb2dVertex
 10
8.7573254431
 20
6.3850191039
 30
0.0
  0
VERTEX
  5
5B1
330
2BD
100
AcDbEntity
  8
0
  6
CONTINUOUS
 62
     7
100
AcDbVertex
100
AcDb2dVertex
 10
8.7634998715
 20
6.3771731371
 30
0.0
  0
VERTEX
  5
5B2
330
2BD
100
AcDbEntity
  8
0
  6
CONTINUOUS
 62
     7
100
AcDbVertex
100
AcDb2dVertex
 10
8.7709894013
 20
6.3711897117
 30
0.0
  0
VERTEX
  5
5B3
330
2BD
100
AcDbEntity
  8
0
  6
CONTINUOUS
 62
     7
100
AcDbVertex
100
AcDb2dVertex
 10
8.7796482572
 20
6.3671852883
 30
0.0
  0
VERTEX
  5
5B4
330
2BD
100
AcDbEntity
  8
0
  6
CONTINUOUS
 62
     7
100
AcDbVertex
100
AcDb2dVertex
 10
8.7893079045
 20
6.3652378085
 30
0.0
  0
VERTEX
  5
5B5
330
2BD
100
AcDbEntity
  8
0
  6
CONTINUOUS
 62
     7
100
AcDbVertex
100
AcDb2dVertex
 10
8.7997803291
 20
6.3653851777
 30
0.0
  0
VERTEX
  5
5B6
330
2BD
100
AcDbEntity
  8
0
  6
CONTINUOUS
 62
     7
100
AcDbVertex
100
AcDb2dVertex
 10
8.8108616971
 20
6.3676245276
 30
0.0
  0
VERTEX
  5
5B7
330
2BD
100
AcDbEntity
  8
0
  6
CONTINUOUS
 62
     7
100
AcDbVertex
100
AcDb2dVertex
 10
8.8223363224
 20
6.3719122718
 30
0.0
  0
VERTEX
  5
5B8
330
2BD
100
AcDbEntity
  8
0
  6
CONTINUOUS
 62
     7
100
AcDbVertex
100
AcDb2dVertex
 10
8.8339808645
 20
6.3781649541
 30
0.0
  0
VERTEX
  5
5B9
330
2BD
100
AcDbEntity
  8
0
  6
CONTINUOUS
 62
     7
100
AcDbVertex
100
AcDb2dVertex
 10
8.8455686755
 20
6.3862608734
 30
0.0
  0
VERTEX
  5
5BA
330
2BD
100
AcDbEntity
  8
0
  6
CONTINUOUS
 62
     7
100
AcDbVertex
100
AcDb2dVertex
 10
8.8568742119
 20
6.3960424516
 30
0.0
  0
VERTEX
  5
5BB
330
2BD
100
AcDbEntity
  8
0
  6
CONTINUOUS
 62
     7
100
AcDbVertex
100
AcDb2dVertex
 10
8.8676774243
 20
6.4073193015
 30
0.0
  0
VERTEX
  5
5BC
330
2BD
100
AcDbEntity
  8
0
  6
CONTINUOUS
 62
     7
100
AcDbVertex
100
AcDb2dVertex
 10
8.8777680405
 20
6.4198719321
 30
0.0
  0
VERTEX
  5
5BD
330
2BD
100
AcDbEntity
  8
0
  6
CONTINUOUS
 62
     7
100
AcDbVertex
100
AcDb2dVertex
 10
8.886949658
 20
6.4334560206
 30
0.0
  0
VERTEX
  5
5BE
330
2BD
100
AcDbEntity
  8
0
  6
CONTINUOUS
 62
     7
100
AcDbVertex
100
AcDb2dVertex
 10
8.8950435672
 20
6.4478071683
 30
0.0
  0
VERTEX
  5
5BF
330
2BD
100
AcDbEntity
  8
0
  6
CONTINUOUS
 62
     7
100
AcDbVertex
100
AcDb2dVertex
 10
8.9018922293
 20
6.4626460463
 30
0.0
  0
VERTEX
  5
5C0
330
2BD
100
AcDbEntity
  8
0
  6
CONTINUOUS
 62
     7
100
AcDbVertex
100
AcDb2dVertex
 10
8.9073623429
 20
6.4776838329
 30
0.0
  0
VERTEX
  5
5C1
330
2BD
100
AcDbEntity
  8
0
  6
CONTINUOUS
 62
     7
100
AcDbVertex
100
AcDb2dVertex
 10
8.9113474384
 20
6.4926278345
 30
0.0
  0
VERTEX
  5
5C2
330
2BD
100
AcDbEntity
  8
0
  6
CONTINUOUS
 62
     7
100
AcDbVertex
100
AcDb2dVertex
 10
8.9137699506
 20
6.5071871832
 30
0.0
  0
VERTEX
  5
5C3
330
2BD
100
AcDbEntity
  8
0
  6
CONTINUOUS
 62
     7
100
AcDbVertex
100
AcDb2dVertex
 10
8.9145827279
 20
6.5210784979
 30
0.0
  0
SEQEND
  5
5C4
330
2BD
100
AcDbEntity
  8
0
  6
CONTINUOUS
 62
     7
  0
LINE
  5
2BE
330
1F
100
AcDbEntity
  8
0
  6
CONTINUOUS
 62
     7
100
AcDbLine
 10
7.5544748442
 20
7.5236776991
 30
0.0
 11
7.414931736
 21
7.4431211774
 31
0.0
  0
SPLINE
  5
2BF
330
1F
100
AcDbEntity
  8
0
  6
CONTINUOUS
 62
     7
100
AcDbSpline
210
0.0
220
0.0
230
1.0
 70
     8
 71
     3
 72
     8
 73
     4
 74
     0
 42
0.00000001
 43
0.00000001
 40
0.0
 40
0.0
 40
0.0
 40
0.0
 40
0.0002501010376137
 40
0.0002501010376137
 40
0.0002501010376137
 40
0.0002501010376137
 10
7.929776352844481
 20
7.145706692891898
 30
0.0
 10
7.929892394930885
 20
7.148450352804343
 30
0.0
 10
7.929919112639576
 20
7.15118306860331
 30
0.0
 10
7.929856387187465
 20
7.153898322598639
 30
0.0
  0
SPLINE
  5
2C0
330
1F
100
AcDbEntity
  8
0
  6
CONTINUOUS
 62
     7
100
AcDbSpline
210
0.0
220
0.0
230
1.0
 70
     8
 71
     3
 72
    12
 73
     8
 74
     0
 42
0.00000001
 43
0.00000001
 40
0.0
 40
0.0
 40
0.0
 40
0.0
 40
0.0340787760784258
 40
0.2876077597701986
 40
0.546649792463903
 40
0.8075978377525516
 40
1.0
 40
1.0
 40
1.0
 40
1.0
 10
7.668400222099225
 20
7.593958842887675
 30
0.0
 10
7.667118828498891
 20
7.593461205448861
 30
0.0
 10
7.656304509876412
 20
7.589261395319945
 30
0.0
 10
7.635458274923334
 20
7.578435386575327
 30
0.0
 10
7.605934738716694
 20
7.561291127558218
 30
0.0
 10
7.578739660292045
 20
7.542791157480832
 30
0.0
 10
7.561704555298644
 20
7.52937256121985
 30
0.0
 10
7.554474844182693
 20
7.523677699075703
 30
0.0
  0
ARC
  5
2C1
330
1F
100
AcDbEntity
  8
0
  6
CONTINUOUS
 62
     7
100
AcDbCircle
 10
7.6244846195
 20
7.1694767037
 30
0.0
 40
0.3062157015559907
100
AcDbArc
 50
304.4520666629
 51
355.5479331915
  0
ARC
  5
2C2
330
1F
100
AcDbEntity
  8
0
  6
CONTINUOUS
 62
     7
100
AcDbCircle
 10
7.6940823465
 20
7.129298791
 30
0.0
 40
0.3062150734748364
100
AcDbArc
 50
304.452010488
 51
355.5479893664
  0
ARC
  5
2C3
330
1F
100
AcDbEntity
  8
0
  6
CONTINUOUS
 62
     7
100
AcDbCircle
 10
8.5009020804
 20
7.3390858079
 30
0.0
 40
0.083952413662285
100
AcDbArc
 50
174.7308512119
 51
305.2583970333
  0
LINE
  5
2C4
330
1F
100
AcDbEntity
  8
0
  6
CONTINUOUS
 62
     7
100
AcDbLine
 10
9.0762954654
 20
6.8995403133
 30
0.0
 11
9.133980702
 21
6.9328412915
 31
0.0
  0
LINE
  5
2C5
330
1F
100
AcDbEntity
  8
0
  6
CONTINUOUS
 62
     7
100
AcDbLine
 10
9.0066983413
 20
6.9397178778
 30
0.0
 11
9.0643835779
 21
6.9730188561
 31
0.0
  0
POLYLINE
  5
2C6
330
1F
100
AcDbEntity
  8
0
  6
CONTINUOUS
 62
     7
100
AcDb2dPolyline
 66
     1
 10
0.0
 20
0.0
 30
0.0
  0
VERTEX
  5
5C5
330
2C6
100
AcDbEntity
  8
0
  6
CONTINUOUS
 62
     7
100
AcDbVertex
100
AcDb2dVertex
 10
9.0643835779
 20
6.9730188561
 30
0.0
  0
VERTEX
  5
5C6
330
2C6
100
AcDbEntity
  8
0
  6
CONTINUOUS
 62
     7
100
AcDbVertex
100
AcDb2dVertex
 10
9.0841058465
 20
6.985351867
 30
0.0
  0
VERTEX
  5
5C7
330
2C6
100
AcDbEntity
  8
0
  6
CONTINUOUS
 62
     7
100
AcDbVertex
100
AcDb2dVertex
 10
9.1020609514
 20
6.9985538508
 30
0.0
  0
VERTEX
  5
5C8
330
2C6
100
AcDbEntity
  8
0
  6
CONTINUOUS
 62
     7
100
AcDbVertex
100
AcDb2dVertex
 10
9.118134441
 20
7.0125406539
 30
0.0
  0
VERTEX
  5
5C9
330
2C6
100
AcDbEntity
  8
0
  6
CONTINUOUS
 62
     7
100
AcDbVertex
100
AcDb2dVertex
 10
9.1322238576
 20
7.0272231199
 30
0.0
  0
VERTEX
  5
5CA
330
2C6
100
AcDbEntity
  8
0
  6
CONTINUOUS
 62
     7
100
AcDbVertex
100
AcDb2dVertex
 10
9.1442393908
 20
7.0425076579
 30
0.0
  0
VERTEX
  5
5CB
330
2C6
100
AcDbEntity
  8
0
  6
CONTINUOUS
 62
     7
100
AcDbVertex
100
AcDb2dVertex
 10
9.1541044497
 20
7.0582968395
 30
0.0
  0
VERTEX
  5
5CC
330
2C6
100
AcDbEntity
  8
0
  6
CONTINUOUS
 62
     7
100
AcDbVertex
100
AcDb2dVertex
 10
9.1617561512
 20
7.0744900193
 30
0.0
  0
VERTEX
  5
5CD
330
2C6
100
AcDbEntity
  8
0
  6
CONTINUOUS
 62
     7
100
AcDbVertex
100
AcDb2dVertex
 10
9.167145721
 20
7.0909839768
 30
0.0
  0
VERTEX
  5
5CE
330
2C6
100
AcDbEntity
  8
0
  6
CONTINUOUS
 62
     7
100
AcDbVertex
100
AcDb2dVertex
 10
9.1702388041
 20
7.1076735741
 30
0.0
  0
VERTEX
  5
5CF
330
2C6
100
AcDbEntity
  8
0
  6
CONTINUOUS
 62
     7
100
AcDbVertex
100
AcDb2dVertex
 10
9.1710156843
 20
7.1244524264
 30
0.0
  0
VERTEX
  5
5D0
330
2C6
100
AcDbEntity
  8
0
  6
CONTINUOUS
 62
     7
100
AcDbVertex
100
AcDb2dVertex
 10
9.1694714094
 20
7.1412135799
 30
0.0
  0
VERTEX
  5
5D1
330
2C6
100
AcDbEntity
  8
0
  6
CONTINUOUS
 62
     7
100
AcDbVertex
100
AcDb2dVertex
 10
9.1656158233
 20
7.1578501935
 30
0.0
  0
VERTEX
  5
5D2
330
2C6
100
AcDbEntity
  8
0
  6
CONTINUOUS
 62
     7
100
AcDbVertex
100
AcDb2dVertex
 10
9.1594735025
 20
7.1742562202
 30
0.0
  0
VERTEX
  5
5D3
330
2C6
100
AcDbEntity
  8
0
  6
CONTINUOUS
 62
     7
100
AcDbVertex
100
AcDb2dVertex
 10
9.1510836003
 20
7.1903270827
 30
0.0
  0
VERTEX
  5
5D4
330
2C6
100
AcDbEntity
  8
0
  6
CONTINUOUS
 62
     7
100
AcDbVertex
100
AcDb2dVertex
 10
9.1404995966
 20
7.20596034
 30
0.0
  0
VERTEX
  5
5D5
330
2C6
100
AcDbEntity
  8
0
  6
CONTINUOUS
 62
     7
100
AcDbVertex
100
AcDb2dVertex
 10
9.1277889573
 20
7.2210563408
 30
0.0
  0
VERTEX
  5
5D6
330
2C6
100
AcDbEntity
  8
0
  6
CONTINUOUS
 62
     7
100
AcDbVertex
100
AcDb2dVertex
 10
9.113032704
 20
7.2355188583
 30
0.0
  0
VERTEX
  5
5D7
330
2C6
100
AcDbEntity
  8
0
  6
CONTINUOUS
 62
     7
100
AcDbVertex
100
AcDb2dVertex
 10
9.0963248979
 20
7.2492557038
 30
0.0
  0
VERTEX
  5
5D8
330
2C6
100
AcDbEntity
  8
0
  6
CONTINUOUS
 62
     7
100
AcDbVertex
100
AcDb2dVertex
 10
9.0777720399
 20
7.2621793141
 30
0.0
  0
VERTEX
  5
5D9
330
2C6
100
AcDbEntity
  8
0
  6
CONTINUOUS
 62
     7
100
AcDbVertex
100
AcDb2dVertex
 10
9.0574923919
 20
7.2742073101
 30
0.0
  0
VERTEX
  5
5DA
330
2C6
100
AcDbEntity
  8
0
  6
CONTINUOUS
 62
     7
100
AcDbVertex
100
AcDb2dVertex
 10
9.035615223
 20
7.2852630213
 30
0.0
  0
VERTEX
  5
5DB
330
2C6
100
AcDbEntity
  8
0
  6
CONTINUOUS
 62
     7
100
AcDbVertex
100
AcDb2dVertex
 10
9.0122799851
 20
7.2952759752
 30
0.0
  0
VERTEX
  5
5DC
330
2C6
100
AcDbEntity
  8
0
  6
CONTINUOUS
 62
     7
100
AcDbVertex
100
AcDb2dVertex
 10
8.9876354248
 20
7.304182346
 30
0.0
  0
VERTEX
  5
5DD
330
2C6
100
AcDbEntity
  8
0
  6
CONTINUOUS
 62
     7
100
AcDbVertex
100
AcDb2dVertex
 10
8.9618386342
 20
7.3119253614
 30
0.0
  0
VERTEX
  5
5DE
330
2C6
100
AcDbEntity
  8
0
  6
CONTINUOUS
 62
     7
100
AcDbVertex
100
AcDb2dVertex
 10
8.9350540506
 20
7.3184556652
 30
0.0
  0
VERTEX
  5
5DF
330
2C6
100
AcDbEntity
  8
0
  6
CONTINUOUS
 62
     7
100
AcDbVertex
100
AcDb2dVertex
 10
8.9074524074
 20
7.323731631
 30
0.0
  0
VERTEX
  5
5E0
330
2C6
100
AcDbEntity
  8
0
  6
CONTINUOUS
 62
     7
100
AcDbVertex
100
AcDb2dVertex
 10
8.8792096464
 20
7.3277196281
 30
0.0
  0
VERTEX
  5
5E1
330
2C6
100
AcDbEntity
  8
0
  6
CONTINUOUS
 62
     7
100
AcDbVertex
100
AcDb2dVertex
 10
8.8505057961
 20
7.3303942358
 30
0.0
  0
VERTEX
  5
5E2
330
2C6
100
AcDbEntity
  8
0
  6
CONTINUOUS
 62
     7
100
AcDbVertex
100
AcDb2dVertex
 10
8.8215238241
 20
7.3317384052
 30
0.0
  0
VERTEX
  5
5E3
330
2C6
100
AcDbEntity
  8
0
  6
CONTINUOUS
 62
     7
100
AcDbVertex
100
AcDb2dVertex
 10
8.7924484708
 20
7.3317435681
 30
0.0
  0
VERTEX
  5
5E4
330
2C6
100
AcDbEntity
  8
0
  6
CONTINUOUS
 62
     7
100
AcDbVertex
100
AcDb2dVertex
 10
8.7634650718
 20
7.3304096917
 30
0.0
  0
VERTEX
  5
5E5
330
2C6
100
AcDbEntity
  8
0
  6
CONTINUOUS
 62
     7
100
AcDbVertex
100
AcDb2dVertex
 10
8.7347583767
 20
7.3277452785
 30
0.0
  0
VERTEX
  5
5E6
330
2C6
100
AcDbEntity
  8
0
  6
CONTINUOUS
 62
     7
100
AcDbVertex
100
AcDb2dVertex
 10
8.7065113712
 20
7.3237673124
 30
0.0
  0
VERTEX
  5
5E7
330
2C6
100
AcDbEntity
  8
0
  6
CONTINUOUS
 62
     7
100
AcDbVertex
100
AcDb2dVertex
 10
8.6789041109
 20
7.3185011501
 30
0.0
  0
VERTEX
  5
5E8
330
2C6
100
AcDbEntity
  8
0
  6
CONTINUOUS
 62
     7
100
AcDbVertex
100
AcDb2dVertex
 10
8.6521125732
 20
7.3119803599
 30
0.0
  0
VERTEX
  5
5E9
330
2C6
100
AcDbEntity
  8
0
  6
CONTINUOUS
 62
     7
100
AcDbVertex
100
AcDb2dVertex
 10
8.6263075362
 20
7.3042465074
 30
0.0
  0
VERTEX
  5
5EA
330
2C6
100
AcDbEntity
  8
0
  6
CONTINUOUS
 62
     7
100
AcDbVertex
100
AcDb2dVertex
 10
8.6016534893
 20
7.2953488907
 30
0.0
  0
VERTEX
  5
5EB
330
2C6
100
AcDbEntity
  8
0
  6
CONTINUOUS
 62
     7
100
AcDbVertex
100
AcDb2dVertex
 10
8.5783075855
 20
7.285344226
 30
0.0
  0
VERTEX
  5
5EC
330
2C6
100
AcDbEntity
  8
0
  6
CONTINUOUS
 62
     7
100
AcDbVertex
100
AcDb2dVertex
 10
8.5564186391
 20
7.2742962864
 30
0.0
  0
SEQEND
  5
5ED
330
2C6
100
AcDbEntity
  8
0
  6
CONTINUOUS
 62
     7
  0
LINE
  5
2C7
330
1F
100
AcDbEntity
  8
0
  6
CONTINUOUS
 62
     7
100
AcDbLine
 10
8.4868014955
 20
7.3144854079
 30
0.0
 11
8.5564186391
 21
7.2742962864
 31
0.0
  0
POLYLINE
  5
2C8
330
1F
100
AcDbEntity
  8
0
  6
CONTINUOUS
 62
     7
100
AcDb2dPolyline
 66
     1
 10
0.0
 20
0.0
 30
0.0
  0
VERTEX
  5
5EE
330
2C8
100
AcDbEntity
  8
0
  6
CONTINUOUS
 62
     7
100
AcDbVertex
100
AcDb2dVertex
 10
9.133980702
 20
6.9328412915
 30
0.0
  0
VERTEX
  5
5EF
330
2C8
100
AcDbEntity
  8
0
  6
CONTINUOUS
 62
     7
100
AcDbVertex
100
AcDb2dVertex
 10
9.1563362414
 20
6.9466961421
 30
0.0
  0
VERTEX
  5
5F0
330
2C8
100
AcDbEntity
  8
0
  6
CONTINUOUS
 62
     7
100
AcDbVertex
100
AcDb2dVertex
 10
9.1769350334
 20
6.9614306165
 30
0.0
  0
VERTEX
  5
5F1
330
2C8
100
AcDbEntity
  8
0
  6
CONTINUOUS
 62
     7
100
AcDbVertex
100
AcDb2dVertex
 10
9.1956735276
 20
6.9769706446
 30
0.0
  0
VERTEX
  5
5F2
330
2C8
100
AcDbEntity
  8
0
  6
CONTINUOUS
 62
     7
100
AcDbVertex
100
AcDb2dVertex
 10
9.2124575255
 20
6.9932381065
 30
0.0
  0
VERTEX
  5
5F3
330
2C8
100
AcDbEntity
  8
0
  6
CONTINUOUS
 62
     7
100
AcDbVertex
100
AcDb2dVertex
 10
9.227202654
 20
7.0101512256
 30
0.0
  0
VERTEX
  5
5F4
330
2C8
100
AcDbEntity
  8
0
  6
CONTINUOUS
 62
     7
100
AcDbVertex
100
AcDb2dVertex
 10
9.2398347891
 20
7.0276249796
 30
0.0
  0
VERTEX
  5
5F5
330
2C8
100
AcDbEntity
  8
0
  6
CONTINUOUS
 62
     7
100
AcDbVertex
100
AcDb2dVertex
 10
9.2502904291
 20
7.0455715278
 30
0.0
  0
VERTEX
  5
5F6
330
2C8
100
AcDbEntity
  8
0
  6
CONTINUOUS
 62
     7
100
AcDbVertex
100
AcDb2dVertex
 10
9.2585170134
 20
7.0639006528
 30
0.0
  0
VERTEX
  5
5F7
330
2C8
100
AcDbEntity
  8
0
  6
CONTINUOUS
 62
     7
100
AcDbVertex
100
AcDb2dVertex
 10
9.2644731869
 20
7.082520214
 30
0.0
  0
VERTEX
  5
5F8
330
2C8
100
AcDbEntity
  8
0
  6
CONTINUOUS
 62
     7
100
AcDbVertex
100
AcDb2dVertex
 10
9.2681290079
 20
7.1013366108
 30
0.0
  0
VERTEX
  5
5F9
330
2C8
100
AcDbEntity
  8
0
  6
CONTINUOUS
 62
     7
100
AcDbVertex
100
AcDb2dVertex
 10
9.2694660986
 20
7.1202552531
 30
0.0
  0
VERTEX
  5
5FA
330
2C8
100
AcDbEntity
  8
0
  6
CONTINUOUS
 62
     7
100
AcDbVertex
100
AcDb2dVertex
 10
9.2684777374
 20
7.1391810366
 30
0.0
  0
VERTEX
  5
5FB
330
2C8
100
AcDbEntity
  8
0
  6
CONTINUOUS
 62
     7
100
AcDbVertex
100
AcDb2dVertex
 10
9.2651688928
 20
7.1580188215
 30
0.0
  0
VERTEX
  5
5FC
330
2C8
100
AcDbEntity
  8
0
  6
CONTINUOUS
 62
     7
100
AcDbVertex
100
AcDb2dVertex
 10
9.2595561983
 20
7.17667391
 30
0.0
  0
VERTEX
  5
5FD
330
2C8
100
AcDbEntity
  8
0
  6
CONTINUOUS
 62
     7
100
AcDbVertex
100
AcDb2dVertex
 10
9.2516678691
 20
7.1950525229
 30
0.0
  0
VERTEX
  5
5FE
330
2C8
100
AcDbEntity
  8
0
  6
CONTINUOUS
 62
     7
100
AcDbVertex
100
AcDb2dVertex
 10
9.2415435598
 20
7.2130622709
 30
0.0
  0
VERTEX
  5
5FF
330
2C8
100
AcDbEntity
  8
0
  6
CONTINUOUS
 62
     7
100
AcDbVertex
100
AcDb2dVertex
 10
9.2292341653
 20
7.2306126188
 30
0.0
  0
VERTEX
  5
600
330
2C8
100
AcDbEntity
  8
0
  6
CONTINUOUS
 62
     7
100
AcDbVertex
100
AcDb2dVertex
 10
9.2148015651
 20
7.247615341
 30
0.0
  0
VERTEX
  5
601
330
2C8
100
AcDbEntity
  8
0
  6
CONTINUOUS
 62
     7
100
AcDbVertex
100
AcDb2dVertex
 10
9.1983183119
 20
7.2639849647
 30
0.0
  0
VERTEX
  5
602
330
2C8
100
AcDbEntity
  8
0
  6
CONTINUOUS
 62
     7
100
AcDbVertex
100
AcDb2dVertex
 10
9.1798672672
 20
7.2796391996
 30
0.0
  0
VERTEX
  5
603
330
2C8
100
AcDbEntity
  8
0
  6
CONTINUOUS
 62
     7
100
AcDbVertex
100
AcDb2dVertex
 10
9.1595411843
 20
7.2944993519
 30
0.0
  0
VERTEX
  5
604
330
2C8
100
AcDbEntity
  8
0
  6
CONTINUOUS
 62
     7
100
AcDbVertex
100
AcDb2dVertex
 10
9.1374422427
 20
7.3084907194
 30
0.0
  0
VERTEX
  5
605
330
2C8
100
AcDbEntity
  8
0
  6
CONTINUOUS
 62
     7
100
AcDbVertex
100
AcDb2dVertex
 10
9.1136815338
 20
7.3215429676
 30
0.0
  0
VERTEX
  5
606
330
2C8
100
AcDbEntity
  8
0
  6
CONTINUOUS
 62
     7
100
AcDbVertex
100
AcDb2dVertex
 10
9.0883785029
 20
7.3335904827
 30
0.0
  0
VERTEX
  5
607
330
2C8
100
AcDbEntity
  8
0
  6
CONTINUOUS
 62
     7
100
AcDbVertex
100
AcDb2dVertex
 10
9.0616603484
 20
7.3445727017
 30
0.0
  0
VERTEX
  5
608
330
2C8
100
AcDbEntity
  8
0
  6
CONTINUOUS
 62
     7
100
AcDbVertex
100
AcDb2dVertex
 10
9.0336613827
 20
7.354434417
 30
0.0
  0
VERTEX
  5
609
330
2C8
100
AcDbEntity
  8
0
  6
CONTINUOUS
 62
     7
100
AcDbVertex
100
AcDb2dVertex
 10
9.0045223567
 20
7.3631260538
 30
0.0
  0
VERTEX
  5
60A
330
2C8
100
AcDbEntity
  8
0
  6
CONTINUOUS
 62
     7
100
AcDbVertex
100
AcDb2dVertex
 10
8.9743897523
 20
7.370603919
 30
0.0
  0
VERTEX
  5
60B
330
2C8
100
AcDbEntity
  8
0
  6
CONTINUOUS
 62
     7
100
AcDbVertex
100
AcDb2dVertex
 10
8.9434150465
 20
7.3768304214
 30
0.0
  0
VERTEX
  5
60C
330
2C8
100
AcDbEntity
  8
0
  6
CONTINUOUS
 62
     7
100
AcDbVertex
100
AcDb2dVertex
 10
8.9117539492
 20
7.3817742604
 30
0.0
  0
VERTEX
  5
60D
330
2C8
100
AcDbEntity
  8
0
  6
CONTINUOUS
 62
     7
100
AcDbVertex
100
AcDb2dVertex
 10
8.879565621
 20
7.3854105832
 30
0.0
  0
VERTEX
  5
60E
330
2C8
100
AcDbEntity
  8
0
  6
CONTINUOUS
 62
     7
100
AcDbVertex
100
AcDb2dVertex
 10
8.8470118726
 20
7.3877211101
 30
0.0
  0
VERTEX
  5
60F
330
2C8
100
AcDbEntity
  8
0
  6
CONTINUOUS
 62
     7
100
AcDbVertex
100
AcDb2dVertex
 10
8.8142563521
 20
7.3886942259
 30
0.0
  0
VERTEX
  5
610
330
2C8
100
AcDbEntity
  8
0
  6
CONTINUOUS
 62
     7
100
AcDbVertex
100
AcDb2dVertex
 10
8.7814637215
 20
7.388325039
 30
0.0
  0
VERTEX
  5
611
330
2C8
100
AcDbEntity
  8
0
  6
CONTINUOUS
 62
     7
100
AcDbVertex
100
AcDb2dVertex
 10
8.7487988296
 20
7.386615405
 30
0.0
  0
VERTEX
  5
612
330
2C8
100
AcDbEntity
  8
0
  6
CONTINUOUS
 62
     7
100
AcDbVertex
100
AcDb2dVertex
 10
8.7164258831
 20
7.3835739185
 30
0.0
  0
VERTEX
  5
613
330
2C8
100
AcDbEntity
  8
0
  6
CONTINUOUS
 62
     7
100
AcDbVertex
100
AcDb2dVertex
 10
8.6845076208
 20
7.3792158689
 30
0.0
  0
VERTEX
  5
614
330
2C8
100
AcDbEntity
  8
0
  6
CONTINUOUS
 62
     7
100
AcDbVertex
100
AcDb2dVertex
 10
8.653204496
 20
7.3735631642
 30
0.0
  0
VERTEX
  5
615
330
2C8
100
AcDbEntity
  8
0
  6
CONTINUOUS
 62
     7
100
AcDbVertex
100
AcDb2dVertex
 10
8.6226738698
 20
7.3666442206
 30
0.0
  0
VERTEX
  5
616
330
2C8
100
AcDbEntity
  8
0
  6
CONTINUOUS
 62
     7
100
AcDbVertex
100
AcDb2dVertex
 10
8.5930692198
 20
7.3584938197
 30
0.0
  0
VERTEX
  5
617
330
2C8
100
AcDbEntity
  8
0
  6
CONTINUOUS
 62
     7
100
AcDbVertex
100
AcDb2dVertex
 10
8.5645393686
 20
7.3491529335
 30
0.0
  0
VERTEX
  5
618
330
2C8
100
AcDbEntity
  8
0
  6
CONTINUOUS
 62
     7
100
AcDbVertex
100
AcDb2dVertex
 10
8.537227736
 20
7.3386685187
 30
0.0
  0
VERTEX
  5
619
330
2C8
100
AcDbEntity
  8
0
  6
CONTINUOUS
 62
     7
100
AcDbVertex
100
AcDb2dVertex
 10
8.5112716178
 20
7.3270932806
 30
0.0
  0
VERTEX
  5
61A
330
2C8
100
AcDbEntity
  8
0
  6
CONTINUOUS
 62
     7
100
AcDbVertex
100
AcDb2dVertex
 10
8.4868014955
 20
7.3144854079
 30
0.0
  0
SEQEND
  5
61B
330
2C8
100
AcDbEntity
  8
0
  6
CONTINUOUS
 62
     7
  0
SPLINE
  5
2C9
330
1F
100
AcDbEntity
  8
0
  6
CONTINUOUS
 62
     7
100
AcDbSpline
210
0.0
220
0.0
230
1.0
 70
     8
 71
     3
 72
     8
 73
     4
 74
     0
 42
0.00000001
 43
0.00000001
 40
0.0
 40
0.0
 40
0.0
 40
0.0
 40
0.0002500923556257
 40
0.0002500923556257
 40
0.0002500923556257
 40
0.0002500923556257
 10
8.479767735183485
 20
7.310711444599174
 30
0.0
 10
8.48208559357921
 20
7.311915519302774
 30
0.0
 10
8.484431881768314
 20
7.313174469551911
 30
0.0
 10
8.486801495471694
 20
7.3144854079188
 30
0.0
  0
ARC
  5
2CA
330
1F
100
AcDbEntity
  8
0
  6
CONTINUOUS
 62
     7
100
AcDbCircle
 10
9.0427176315
 20
6.6598398261
 30
0.0
 40
0.2276683985448815
100
AcDbArc
 50
294.927599211
 51
354.8659653717
  0
SPLINE
  5
2CB
330
1F
100
AcDbEntity
  8
0
  6
CONTINUOUS
 62
     7
100
AcDbSpline
210
0.0
220
0.0
230
1.0
 70
     8
 71
     3
 72
     8
 73
     4
 74
     0
 42
0.00000001
 43
0.00000001
 40
0.0
 40
0.0
 40
0.0
 40
0.0
 40
0.0002501010376138
 40
0.0002501010376138
 40
0.0002501010376138
 40
0.0002501010376138
 10
8.556418639078272
 20
7.274296286364228
 30
0.0
 10
8.55403591969419
 20
7.272993193007927
 30
0.0
 10
8.551682798176495
 20
7.271737996544177
 30
0.0
 10
8.549364859316018
 20
7.270533880040969
 30
0.0
  0
ARC
  5
2CC
330
1F
100
AcDbEntity
  8
0
  6
CONTINUOUS
 62
     7
100
AcDbCircle
 10
8.2455951305
 20
6.8114390784
 30
0.0
 40
0.7580699252558412
100
AcDbArc
 50
123.5332270119
 51
177.3689235379
  0
POLYLINE
  5
2CD
330
1F
100
AcDbEntity
  8
0
  6
CONTINUOUS
 62
     7
100
AcDb2dPolyline
 66
     1
 10
0.0
 20
0.0
 30
0.0
  0
VERTEX
  5
61C
330
2CD
100
AcDbEntity
  8
0
  6
CONTINUOUS
 62
     7
100
AcDbVertex
100
AcDb2dVertex
 10
7.6622239769
 20
6.5986859279
 30
0.0
  0
VERTEX
  5
61D
330
2CD
100
AcDbEntity
  8
0
  6
CONTINUOUS
 62
     7
100
AcDbVertex
100
AcDb2dVertex
 10
7.6522380997
 20
6.5998435132
 30
0.0
  0
VERTEX
  5
61E
330
2CD
100
AcDbEntity
  8
0
  6
CONTINUOUS
 62
     7
100
AcDbVertex
100
AcDb2dVertex
 10
7.6327213303
 20
6.6037045514
 30
0.0
  0
VERTEX
  5
61F
330
2CD
100
AcDbEntity
  8
0
  6
CONTINUOUS
 62
     7
100
AcDbVertex
100
AcDb2dVertex
 10
7.6141334891
 20
6.6095888198
 30
0.0
  0
VERTEX
  5
620
330
2CD
100
AcDbEntity
  8
0
  6
CONTINUOUS
 62
     7
100
AcDbVertex
100
AcDb2dVertex
 10
7.5965593882
 20
6.6174694698
 30
0.0
  0
VERTEX
  5
621
330
2CD
100
AcDbEntity
  8
0
  6
CONTINUOUS
 62
     7
100
AcDbVertex
100
AcDb2dVertex
 10
7.5800792143
 20
6.6273105438
 30
0.0
  0
VERTEX
  5
622
330
2CD
100
AcDbEntity
  8
0
  6
CONTINUOUS
 62
     7
100
AcDbVertex
100
AcDb2dVertex
 10
7.5647681625
 20
6.6390671392
 30
0.0
  0
VERTEX
  5
623
330
2CD
100
AcDbEntity
  8
0
  6
CONTINUOUS
 62
     7
100
AcDbVertex
100
AcDb2dVertex
 10
7.5506960937
 20
6.6526856134
 30
0.0
  0
VERTEX
  5
624
330
2CD
100
AcDbEntity
  8
0
  6
CONTINUOUS
 62
     7
100
AcDbVertex
100
AcDb2dVertex
 10
7.5379272155
 20
6.6681038285
 30
0.0
  0
VERTEX
  5
625
330
2CD
100
AcDbEntity
  8
0
  6
CONTINUOUS
 62
     7
100
AcDbVertex
100
AcDb2dVertex
 10
7.5265197893
 20
6.6852514346
 30
0.0
  0
VERTEX
  5
626
330
2CD
100
AcDbEntity
  8
0
  6
CONTINUOUS
 62
     7
100
AcDbVertex
100
AcDb2dVertex
 10
7.5165258647
 20
6.7040501911
 30
0.0
  0
VERTEX
  5
627
330
2CD
100
AcDbEntity
  8
0
  6
CONTINUOUS
 62
     7
100
AcDbVertex
100
AcDb2dVertex
 10
7.5079910417
 20
6.7244143236
 30
0.0
  0
VERTEX
  5
628
330
2CD
100
AcDbEntity
  8
0
  6
CONTINUOUS
 62
     7
100
AcDbVertex
100
AcDb2dVertex
 10
7.5009542626
 20
6.7462509154
 30
0.0
  0
VERTEX
  5
629
330
2CD
100
AcDbEntity
  8
0
  6
CONTINUOUS
 62
     7
100
AcDbVertex
100
AcDb2dVertex
 10
7.4954476346
 20
6.7694603309
 30
0.0
  0
VERTEX
  5
62A
330
2CD
100
AcDbEntity
  8
0
  6
CONTINUOUS
 62
     7
100
AcDbVertex
100
AcDb2dVertex
 10
7.4914962833
 20
6.793936671
 30
0.0
  0
VERTEX
  5
62B
330
2CD
100
AcDbEntity
  8
0
  6
CONTINUOUS
 62
     7
100
AcDbVertex
100
AcDb2dVertex
 10
7.4891182378
 20
6.8195682557
 30
0.0
  0
VERTEX
  5
62C
330
2CD
100
AcDbEntity
  8
0
  6
CONTINUOUS
 62
     7
100
AcDbVertex
100
AcDb2dVertex
 10
7.4883243485
 20
6.846238134
 30
0.0
  0
SEQEND
  5
62D
330
2CD
100
AcDbEntity
  8
0
  6
CONTINUOUS
 62
     7
  0
POLYLINE
  5
2CE
330
1F
100
AcDbEntity
  8
0
  6
CONTINUOUS
 62
     7
100
AcDb2dPolyline
 66
     1
 10
0.0
 20
0.0
 30
0.0
  0
VERTEX
  5
62E
330
2CE
100
AcDbEntity
  8
0
  6
CONTINUOUS
 62
     7
100
AcDbVertex
100
AcDb2dVertex
 10
7.5161631982
 20
6.846238134
 30
0.0
  0
VERTEX
  5
62F
330
2CE
100
AcDbEntity
  8
0
  6
CONTINUOUS
 62
     7
100
AcDbVertex
100
AcDb2dVertex
 10
7.516959187
 20
6.8200831202
 30
0.0
  0
VERTEX
  5
630
330
2CE
100
AcDbEntity
  8
0
  6
CONTINUOUS
 62
     7
100
AcDbVertex
100
AcDb2dVertex
 10
7.51934336
 20
6.794971776
 30
0.0
  0
VERTEX
  5
631
330
2CE
100
AcDbEntity
  8
0
  6
CONTINUOUS
 62
     7
100
AcDbVertex
100
AcDb2dVertex
 10
7.5233043558
 20
6.7710237684
 30
0.0
  0
VERTEX
  5
632
330
2CE
100
AcDbEntity
  8
0
  6
CONTINUOUS
 62
     7
100
AcDbVertex
100
AcDb2dVertex
 10
7.5288232982
 20
6.7483532206
 30
0.0
  0
VERTEX
  5
633
330
2CE
100
AcDbEntity
  8
0
  6
CONTINUOUS
 62
     7
100
AcDbVertex
100
AcDb2dVertex
 10
7.535873887
 20
6.7270681681
 30
0.0
  0
VERTEX
  5
634
330
2CE
100
AcDbEntity
  8
0
  6
CONTINUOUS
 62
     7
100
AcDbVertex
100
AcDb2dVertex
 10
7.544422523
 20
6.7072700438
 30
0.0
  0
VERTEX
  5
635
330
2CE
100
AcDbEntity
  8
0
  6
CONTINUOUS
 62
     7
100
AcDbVertex
100
AcDb2dVertex
 10
7.5544284679
 20
6.6890531949
 30
0.0
  0
VERTEX
  5
636
330
2CE
100
AcDbEntity
  8
0
  6
CONTINUOUS
 62
     7
100
AcDbVertex
100
AcDb2dVertex
 10
7.565844039
 20
6.6725044328
 30
0.0
  0
VERTEX
  5
637
330
2CE
100
AcDbEntity
  8
0
  6
CONTINUOUS
 62
     7
100
AcDbVertex
100
AcDb2dVertex
 10
7.5786148359
 20
6.65770262
 30
0.0
  0
VERTEX
  5
638
330
2CE
100
AcDbEntity
  8
0
  6
CONTINUOUS
 62
     7
100
AcDbVertex
100
AcDb2dVertex
 10
7.5926799997
 20
6.6447182939
 30
0.0
  0
VERTEX
  5
639
330
2CE
100
AcDbEntity
  8
0
  6
CONTINUOUS
 62
     7
100
AcDbVertex
100
AcDb2dVertex
 10
7.6079725038
 20
6.6336133306
 30
0.0
  0
VERTEX
  5
63A
330
2CE
100
AcDbEntity
  8
0
  6
CONTINUOUS
 62
     7
100
AcDbVertex
100
AcDb2dVertex
 10
7.6244194722
 20
6.6244406505
 30
0.0
  0
VERTEX
  5
63B
330
2CE
100
AcDbEntity
  8
0
  6
CONTINUOUS
 62
     7
100
AcDbVertex
100
AcDb2dVertex
 10
7.6419425278
 20
6.6172439655
 30
0.0
  0
VERTEX
  5
63C
330
2CE
100
AcDbEntity
  8
0
  6
CONTINUOUS
 62
     7
100
AcDbVertex
100
AcDb2dVertex
 10
7.6604581651
 20
6.612057571
 30
0.0
  0
VERTEX
  5
63D
330
2CE
100
AcDbEntity
  8
0
  6
CONTINUOUS
 62
     7
100
AcDbVertex
100
AcDb2dVertex
 10
7.6622239769
 20
6.611679093
 30
0.0
  0
SEQEND
  5
63E
330
2CE
100
AcDbEntity
  8
0
  6
CONTINUOUS
 62
     7
  0
ARC
  5
2CF
330
1F
100
AcDbEntity
  8
0
  6
CONTINUOUS
 62
     7
100
AcDbCircle
 10
8.2421575838
 20
6.8133299662
 30
0.0
 40
0.7267398402846394
100
AcDbArc
 50
123.3927702142
 51
177.4046502282
  0
ARC
  5
2D0
330
1F
100
AcDbEntity
  8
0
  6
CONTINUOUS
 62
     7
100
AcDbCircle
 10
8.0259122594
 20
6.9532640839
 30
0.0
 40
0.7400168436499404
100
AcDbArc
 50
129.5731683103
 51
145.652472924
  0
POLYLINE
  5
2D1
330
1F
100
AcDbEntity
  8
0
  6
CONTINUOUS
 62
     7
100
AcDb2dPolyline
 66
     1
 10
0.0
 20
0.0
 30
0.0
  0
VERTEX
  5
63F
330
2D1
100
AcDbEntity
  8
0
  6
CONTINUOUS
 62
     7
100
AcDbVertex
100
AcDb2dVertex
 10
7.3453347808
 20
7.4836825666
 30
0.0
  0
VERTEX
  5
640
330
2D1
100
AcDbEntity
  8
0
  6
CONTINUOUS
 62
     7
100
AcDbVertex
100
AcDb2dVertex
 10
7.3420217887
 20
7.4795890985
 30
0.0
  0
VERTEX
  5
641
330
2D1
100
AcDbEntity
  8
0
  6
CONTINUOUS
 62
     7
100
AcDbVertex
100
AcDb2dVertex
 10
7.3220736998
 20
7.4537152892
 30
0.0
  0
VERTEX
  5
642
330
2D1
100
AcDbEntity
  8
0
  6
CONTINUOUS
 62
     7
100
AcDbVertex
100
AcDb2dVertex
 10
7.3030105188
 20
7.4268299741
 30
0.0
  0
VERTEX
  5
643
330
2D1
100
AcDbEntity
  8
0
  6
CONTINUOUS
 62
     7
100
AcDbVertex
100
AcDb2dVertex
 10
7.2849192265
 20
7.3990558247
 30
0.0
  0
VERTEX
  5
644
330
2D1
100
AcDbEntity
  8
0
  6
CONTINUOUS
 62
     7
100
AcDbVertex
100
AcDb2dVertex
 10
7.2678823694
 20
7.3705195681
 30
0.0
  0
VERTEX
  5
645
330
2D1
100
AcDbEntity
  8
0
  6
CONTINUOUS
 62
     7
100
AcDbVertex
100
AcDb2dVertex
 10
7.2519776828
 20
7.3413514087
 30
0.0
  0
VERTEX
  5
646
330
2D1
100
AcDbEntity
  8
0
  6
CONTINUOUS
 62
     7
100
AcDbVertex
100
AcDb2dVertex
 10
7.237277736
 20
7.3116844341
 30
0.0
  0
VERTEX
  5
647
330
2D1
100
AcDbEntity
  8
0
  6
CONTINUOUS
 62
     7
100
AcDbVertex
100
AcDb2dVertex
 10
7.2238496017
 20
7.281654008
 30
0.0
  0
VERTEX
  5
648
330
2D1
100
AcDbEntity
  8
0
  6
CONTINUOUS
 62
     7
100
AcDbVertex
100
AcDb2dVertex
 10
7.2117545492
 20
7.2513971522
 30
0.0
  0
VERTEX
  5
649
330
2D1
100
AcDbEntity
  8
0
  6
CONTINUOUS
 62
     7
100
AcDbVertex
100
AcDb2dVertex
 10
7.2010477655
 20
7.2210519219
 30
0.0
  0
VERTEX
  5
64A
330
2D1
100
AcDbEntity
  8
0
  6
CONTINUOUS
 62
     7
100
AcDbVertex
100
AcDb2dVertex
 10
7.1917781032
 20
7.1907567753
 30
0.0
  0
VERTEX
  5
64B
330
2D1
100
AcDbEntity
  8
0
  6
CONTINUOUS
 62
     7
100
AcDbVertex
100
AcDb2dVertex
 10
7.1839878577
 20
7.1606499424
 30
0.0
  0
VERTEX
  5
64C
330
2D1
100
AcDbEntity
  8
0
  6
CONTINUOUS
 62
     7
100
AcDbVertex
100
AcDb2dVertex
 10
7.1777125741
 20
7.1308687936
 30
0.0
  0
VERTEX
  5
64D
330
2D1
100
AcDbEntity
  8
0
  6
CONTINUOUS
 62
     7
100
AcDbVertex
100
AcDb2dVertex
 10
7.172980885
 20
7.1015492135
 30
0.0
  0
VERTEX
  5
64E
330
2D1
100
AcDbEntity
  8
0
  6
CONTINUOUS
 62
     7
100
AcDbVertex
100
AcDb2dVertex
 10
7.1698143801
 20
7.0728249806
 30
0.0
  0
VERTEX
  5
64F
330
2D1
100
AcDbEntity
  8
0
  6
CONTINUOUS
 62
     7
100
AcDbVertex
100
AcDb2dVertex
 10
7.1682275073
 20
7.0448271571
 30
0.0
  0
VERTEX
  5
650
330
2D1
100
AcDbEntity
  8
0
  6
CONTINUOUS
 62
     7
100
AcDbVertex
100
AcDb2dVertex
 10
7.1682275073
 20
7.0176834905
 30
0.0
  0
VERTEX
  5
651
330
2D1
100
AcDbEntity
  8
0
  6
CONTINUOUS
 62
     7
100
AcDbVertex
100
AcDb2dVertex
 10
7.1698143801
 20
6.9915178312
 30
0.0
  0
VERTEX
  5
652
330
2D1
100
AcDbEntity
  8
0
  6
CONTINUOUS
 62
     7
100
AcDbVertex
100
AcDb2dVertex
 10
7.172980885
 20
6.9664495671
 30
0.0
  0
VERTEX
  5
653
330
2D1
100
AcDbEntity
  8
0
  6
CONTINUOUS
 62
     7
100
AcDbVertex
100
AcDb2dVertex
 10
7.1777125741
 20
6.942593079
 30
0.0
  0
VERTEX
  5
654
330
2D1
100
AcDbEntity
  8
0
  6
CONTINUOUS
 62
     7
100
AcDbVertex
100
AcDb2dVertex
 10
7.1839878577
 20
6.9200572185
 30
0.0
  0
VERTEX
  5
655
330
2D1
100
AcDbEntity
  8
0
  6
CONTINUOUS
 62
     7
100
AcDbVertex
100
AcDb2dVertex
 10
7.1917781032
 20
6.8989448115
 30
0.0
  0
VERTEX
  5
656
330
2D1
100
AcDbEntity
  8
0
  6
CONTINUOUS
 62
     7
100
AcDbVertex
100
AcDb2dVertex
 10
7.2010477655
 20
6.8793521892
 30
0.0
  0
VERTEX
  5
657
330
2D1
100
AcDbEntity
  8
0
  6
CONTINUOUS
 62
     7
100
AcDbVertex
100
AcDb2dVertex
 10
7.2117545492
 20
6.8613687482
 30
0.0
  0
VERTEX
  5
658
330
2D1
100
AcDbEntity
  8
0
  6
CONTINUOUS
 62
     7
100
AcDbVertex
100
AcDb2dVertex
 10
7.2238496017
 20
6.8450765427
 30
0.0
  0
VERTEX
  5
659
330
2D1
100
AcDbEntity
  8
0
  6
CONTINUOUS
 62
     7
100
AcDbVertex
100
AcDb2dVertex
 10
7.237277736
 20
6.8305499105
 30
0.0
  0
VERTEX
  5
65A
330
2D1
100
AcDbEntity
  8
0
  6
CONTINUOUS
 62
     7
100
AcDbVertex
100
AcDb2dVertex
 10
7.2519776828
 20
6.8178551332
 30
0.0
  0
VERTEX
  5
65B
330
2D1
100
AcDbEntity
  8
0
  6
CONTINUOUS
 62
     7
100
AcDbVertex
100
AcDb2dVertex
 10
7.2678823694
 20
6.8070501342
 30
0.0
  0
VERTEX
  5
65C
330
2D1
100
AcDbEntity
  8
0
  6
CONTINUOUS
 62
     7
100
AcDbVertex
100
AcDb2dVertex
 10
7.2699716038
 20
6.8058233894
 30
0.0
  0
SEQEND
  5
65D
330
2D1
100
AcDbEntity
  8
0
  6
CONTINUOUS
 62
     7
  0
SPLINE
  5
2D2
330
1F
100
AcDbEntity
  8
0
  6
CONTINUOUS
 62
     7
100
AcDbSpline
210
0.0
220
0.0
230
1.0
 70
     8
 71
     3
 72
    11
 73
     7
 74
     0
 42
0.00000001
 43
0.00000001
 40
0.0
 40
0.0
 40
0.0
 40
0.0
 40
0.2913256295443301
 40
0.5859794369287568
 40
0.8791144419039184
 40
0.9999999999999999
 40
0.9999999999999999
 40
0.9999999999999999
 40
0.9999999999999999
 10
7.656623926201924
 20
7.552697452217711
 30
0.0
 10
7.661161848207807
 20
7.554993073046603
 30
0.0
 10
7.670289534590889
 20
7.559610540458653
 30
0.0
 10
7.686676932783735
 20
7.563599127465074
 30
0.0
 10
7.700687599949052
 20
7.565556894827679
 30
0.0
 10
7.709259740226298
 20
7.56530358631254
 30
0.0
 10
7.711762630309355
 20
7.565229625393799
 30
0.0
  0
POLYLINE
  5
2D3
330
1F
100
AcDbEntity
  8
0
  6
CONTINUOUS
 62
     7
100
AcDb2dPolyline
 66
     1
 10
0.0
 20
0.0
 30
0.0
  0
VERTEX
  5
65E
330
2D3
100
AcDbEntity
  8
0
  6
CONTINUOUS
 62
     7
100
AcDbVertex
100
AcDb2dVertex
 10
7.7949155762
 20
7.4844345356
 30
0.0
  0
VERTEX
  5
65F
330
2D3
100
AcDbEntity
  8
0
  6
CONTINUOUS
 62
     7
100
AcDbVertex
100
AcDb2dVertex
 10
7.7856933875
 20
7.4781862561
 30
0.0
  0
VERTEX
  5
660
330
2D3
100
AcDbEntity
  8
0
  6
CONTINUOUS
 62
     7
100
AcDbVertex
100
AcDb2dVertex
 10
7.7716135099
 20
7.4712232264
 30
0.0
  0
VERTEX
  5
661
330
2D3
100
AcDbEntity
  8
0
  6
CONTINUOUS
 62
     7
100
AcDbVertex
100
AcDb2dVertex
 10
7.7554144301
 20
7.4653987509
 30
0.0
  0
VERTEX
  5
662
330
2D3
100
AcDbEntity
  8
0
  6
CONTINUOUS
 62
     7
100
AcDbVertex
100
AcDb2dVertex
 10
7.7380161259
 20
7.4610554497
 30
0.0
  0
VERTEX
  5
663
330
2D3
100
AcDbEntity
  8
0
  6
CONTINUOUS
 62
     7
100
AcDbVertex
100
AcDb2dVertex
 10
7.7201026027
 20
7.4585400376
 30
0.0
  0
VERTEX
  5
664
330
2D3
100
AcDbEntity
  8
0
  6
CONTINUOUS
 62
     7
100
AcDbVertex
100
AcDb2dVertex
 10
7.7022523155
 20
7.4580692371
 30
0.0
  0
VERTEX
  5
665
330
2D3
100
AcDbEntity
  8
0
  6
CONTINUOUS
 62
     7
100
AcDbVertex
100
AcDb2dVertex
 10
7.6849416398
 20
7.4598497429
 30
0.0
  0
VERTEX
  5
666
330
2D3
100
AcDbEntity
  8
0
  6
CONTINUOUS
 62
     7
100
AcDbVertex
100
AcDb2dVertex
 10
7.6689624154
 20
7.4638738315
 30
0.0
  0
VERTEX
  5
667
330
2D3
100
AcDbEntity
  8
0
  6
CONTINUOUS
 62
     7
100
AcDbVertex
100
AcDb2dVertex
 10
7.6551620987
 20
7.4700902456
 30
0.0
  0
VERTEX
  5
668
330
2D3
100
AcDbEntity
  8
0
  6
CONTINUOUS
 62
     7
100
AcDbVertex
100
AcDb2dVertex
 10
7.6439269834
 20
7.4783171467
 30
0.0
  0
VERTEX
  5
669
330
2D3
100
AcDbEntity
  8
0
  6
CONTINUOUS
 62
     7
100
AcDbVertex
100
AcDb2dVertex
 10
7.6355570007
 20
7.4883692905
 30
0.0
  0
VERTEX
  5
66A
330
2D3
100
AcDbEntity
  8
0
  6
CONTINUOUS
 62
     7
100
AcDbVertex
100
AcDb2dVertex
 10
7.6304460253
 20
7.4995309669
 30
0.0
  0
VERTEX
  5
66B
330
2D3
100
AcDbEntity
  8
0
  6
CONTINUOUS
 62
     7
100
AcDbVertex
100
AcDb2dVertex
 10
7.6288796091
 20
7.5112269793
 30
0.0
  0
VERTEX
  5
66C
330
2D3
100
AcDbEntity
  8
0
  6
CONTINUOUS
 62
     7
100
AcDbVertex
100
AcDb2dVertex
 10
7.6308518166
 20
7.5229312837
 30
0.0
  0
VERTEX
  5
66D
330
2D3
100
AcDbEntity
  8
0
  6
CONTINUOUS
 62
     7
100
AcDbVertex
100
AcDb2dVertex
 10
7.636350538
 20
7.5341769515
 30
0.0
  0
VERTEX
  5
66E
330
2D3
100
AcDbEntity
  8
0
  6
CONTINUOUS
 62
     7
100
AcDbVertex
100
AcDb2dVertex
 10
7.6450653261
 20
7.5443149128
 30
0.0
  0
VERTEX
  5
66F
330
2D3
100
AcDbEntity
  8
0
  6
CONTINUOUS
 62
     7
100
AcDbVertex
100
AcDb2dVertex
 10
7.6566239262
 20
7.5526974522
 30
0.0
  0
VERTEX
  5
670
330
2D3
100
AcDbEntity
  8
0
  6
CONTINUOUS
 62
     7
100
AcDbVertex
100
AcDb2dVertex
 10
7.6566239262
 20
7.5526974522
 30
0.0
  0
SEQEND
  5
671
330
2D3
100
AcDbEntity
  8
0
  6
CONTINUOUS
 62
     7
  0
POLYLINE
  5
2D4
330
1F
100
AcDbEntity
  8
0
  6
CONTINUOUS
 62
     7
100
AcDb2dPolyline
 66
     1
 10
0.0
 20
0.0
 30
0.0
  0
VERTEX
  5
672
330
2D4
100
AcDbEntity
  8
0
  6
CONTINUOUS
 62
     7
100
AcDbVertex
100
AcDb2dVertex
 10
7.7667128451
 20
6.9908773665
 30
0.0
  0
VERTEX
  5
673
330
2D4
100
AcDbEntity
  8
0
  6
CONTINUOUS
 62
     7
100
AcDbVertex
100
AcDb2dVertex
 10
7.7675256224
 20
6.9779244645
 30
0.0
  0
VERTEX
  5
674
330
2D4
100
AcDbEntity
  8
0
  6
CONTINUOUS
 62
     7
100
AcDbVertex
100
AcDb2dVertex
 10
7.7699481345
 20
6.9661620888
 30
0.0
  0
VERTEX
  5
675
330
2D4
100
AcDbEntity
  8
0
  6
CONTINUOUS
 62
     7
100
AcDbVertex
100
AcDb2dVertex
 10
7.7739332301
 20
6.9558191806
 30
0.0
  0
VERTEX
  5
676
330
2D4
100
AcDbEntity
  8
0
  6
CONTINUOUS
 62
     7
100
AcDbVertex
100
AcDb2dVertex
 10
7.7794033437
 20
6.9470970527
 30
0.0
  0
VERTEX
  5
677
330
2D4
100
AcDbEntity
  8
0
  6
CONTINUOUS
 62
     7
100
AcDbVertex
100
AcDb2dVertex
 10
7.7862520058
 20
6.9401654716
 30
0.0
  0
VERTEX
  5
678
330
2D4
100
AcDbEntity
  8
0
  6
CONTINUOUS
 62
     7
100
AcDbVertex
100
AcDb2dVertex
 10
7.794345915
 20
6.9351593526
 30
0.0
  0
VERTEX
  5
679
330
2D4
100
AcDbEntity
  8
0
  6
CONTINUOUS
 62
     7
100
AcDbVertex
100
AcDb2dVertex
 10
7.8035275325
 20
6.932176134
 30
0.0
  0
VERTEX
  5
67A
330
2D4
100
AcDbEntity
  8
0
  6
CONTINUOUS
 62
     7
100
AcDbVertex
100
AcDb2dVertex
 10
7.8136181487
 20
6.9312738809
 30
0.0
  0
VERTEX
  5
67B
330
2D4
100
AcDbEntity
  8
0
  6
CONTINUOUS
 62
     7
100
AcDbVertex
100
AcDb2dVertex
 10
7.8178944409
 20
6.93150363
 30
0.0
  0
SEQEND
  5
67C
330
2D4
100
AcDbEntity
  8
0
  6
CONTINUOUS
 62
     7
  0
POLYLINE
  5
2D5
330
1F
100
AcDbEntity
  8
0
  6
CONTINUOUS
 62
     7
100
AcDb2dPolyline
 66
     1
 10
0.0
 20
0.0
 30
0.0
  0
VERTEX
  5
67D
330
2D5
100
AcDbEntity
  8
0
  6
CONTINUOUS
 62
     7
100
AcDbVertex
100
AcDb2dVertex
 10
7.9272578702
 20
7.12082716
 30
0.0
  0
VERTEX
  5
67E
330
2D5
100
AcDbEntity
  8
0
  6
CONTINUOUS
 62
     7
100
AcDbVertex
100
AcDb2dVertex
 10
7.9239701299
 20
7.1269367604
 30
0.0
  0
VERTEX
  5
67F
330
2D5
100
AcDbEntity
  8
0
  6
CONTINUOUS
 62
     7
100
AcDbVertex
100
AcDb2dVertex
 10
7.9177957014
 20
7.1347827273
 30
0.0
  0
VERTEX
  5
680
330
2D5
100
AcDbEntity
  8
0
  6
CONTINUOUS
 62
     7
100
AcDbVertex
100
AcDb2dVertex
 10
7.9103061717
 20
7.1407661527
 30
0.0
  0
VERTEX
  5
681
330
2D5
100
AcDbEntity
  8
0
  6
CONTINUOUS
 62
     7
100
AcDbVertex
100
AcDb2dVertex
 10
7.9016473158
 20
7.144770576
 30
0.0
  0
VERTEX
  5
682
330
2D5
100
AcDbEntity
  8
0
  6
CONTINUOUS
 62
     7
100
AcDbVertex
100
AcDb2dVertex
 10
7.8919876685
 20
7.1467180558
 30
0.0
  0
VERTEX
  5
683
330
2D5
100
AcDbEntity
  8
0
  6
CONTINUOUS
 62
     7
100
AcDbVertex
100
AcDb2dVertex
 10
7.8815152439
 20
7.1465706866
 30
0.0
  0
VERTEX
  5
684
330
2D5
100
AcDbEntity
  8
0
  6
CONTINUOUS
 62
     7
100
AcDbVertex
100
AcDb2dVertex
 10
7.8704338759
 20
7.1443313367
 30
0.0
  0
VERTEX
  5
685
330
2D5
100
AcDbEntity
  8
0
  6
CONTINUOUS
 62
     7
100
AcDbVertex
100
AcDb2dVertex
 10
7.8589592505
 20
7.1400435926
 30
0.0
  0
VERTEX
  5
686
330
2D5
100
AcDbEntity
  8
0
  6
CONTINUOUS
 62
     7
100
AcDbVertex
100
AcDb2dVertex
 10
7.8473147085
 20
7.1337909102
 30
0.0
  0
VERTEX
  5
687
330
2D5
100
AcDbEntity
  8
0
  6
CONTINUOUS
 62
     7
100
AcDbVertex
100
AcDb2dVertex
 10
7.8357268975
 20
7.125694991
 30
0.0
  0
VERTEX
  5
688
330
2D5
100
AcDbEntity
  8
0
  6
CONTINUOUS
 62
     7
100
AcDbVertex
100
AcDb2dVertex
 10
7.8244213611
 20
7.1159134128
 30
0.0
  0
VERTEX
  5
689
330
2D5
100
AcDbEntity
  8
0
  6
CONTINUOUS
 62
     7
100
AcDbVertex
100
AcDb2dVertex
 10
7.8136181487
 20
7.1046365628
 30
0.0
  0
VERTEX
  5
68A
330
2D5
100
AcDbEntity
  8
0
  6
CONTINUOUS
 62
     7
100
AcDbVertex
100
AcDb2dVertex
 10
7.8035275325
 20
7.0920839323
 30
0.0
  0
VERTEX
  5
68B
330
2D5
100
AcDbEntity
  8
0
  6
CONTINUOUS
 62
     7
100
AcDbVertex
100
AcDb2dVertex
 10
7.794345915
 20
7.0784998437
 30
0.0
  0
VERTEX
  5
68C
330
2D5
100
AcDbEntity
  8
0
  6
CONTINUOUS
 62
     7
100
AcDbVertex
100
AcDb2dVertex
 10
7.7862520058
 20
7.0641486961
 30
0.0
  0
VERTEX
  5
68D
330
2D5
100
AcDbEntity
  8
0
  6
CONTINUOUS
 62
     7
100
AcDbVertex
100
AcDb2dVertex
 10
7.7794033437
 20
7.049309818
 30
0.0
  0
VERTEX
  5
68E
330
2D5
100
AcDbEntity
  8
0
  6
CONTINUOUS
 62
     7
100
AcDbVertex
100
AcDb2dVertex
 10
7.7739332301
 20
7.0342720314
 30
0.0
  0
VERTEX
  5
68F
330
2D5
100
AcDbEntity
  8
0
  6
CONTINUOUS
 62
     7
100
AcDbVertex
100
AcDb2dVertex
 10
7.7699481345
 20
7.0193280298
 30
0.0
  0
VERTEX
  5
690
330
2D5
100
AcDbEntity
  8
0
  6
CONTINUOUS
 62
     7
100
AcDbVertex
100
AcDb2dVertex
 10
7.7675256224
 20
7.0047686811
 30
0.0
  0
VERTEX
  5
691
330
2D5
100
AcDbEntity
  8
0
  6
CONTINUOUS
 62
     7
100
AcDbVertex
100
AcDb2dVertex
 10
7.7667128451
 20
6.9908773665
 30
0.0
  0
SEQEND
  5
692
330
2D5
100
AcDbEntity
  8
0
  6
CONTINUOUS
 62
     7
  0
ARC
  5
2D6
330
1F
100
AcDbEntity
  8
0
  6
CONTINUOUS
 62
     7
100
AcDbCircle
 10
8.4202128719
 20
7.4185117507
 30
0.0
 40
0.1231571668371647
100
AcDbArc
 50
274.3079510392
 51
298.9186933539
  0
ARC
  5
2D7
330
1F
100
AcDbEntity
  8
0
  6
CONTINUOUS
 62
     7
100
AcDbCircle
 10
7.9039072959
 20
7.0083377576
 30
0.0
 40
0.7367125193676102
100
AcDbArc
 50
139.3013743292
 51
177.2731254173
  0
SPLINE
  5
2D8
330
1F
100
AcDbEntity
  8
0
  6
CONTINUOUS
 62
     7
100
AcDbSpline
210
0.0
220
0.0
230
1.0
 70
     8
 71
     3
 72
    14
 73
    10
 74
     0
 42
0.00000001
 43
0.00000001
 40
0.0
 40
0.0
 40
0.0
 40
0.0
 40
0.0000561372235856
 40
0.2106195150112888
 40
0.3983070389943992
 40
0.5631921248342521
 40
0.7054009729362142
 40
0.8477272517926506
 40
1.0
 40
1.0
 40
1.0
 40
1.0
 10
7.642419491789384
 20
7.50316826184209
 30
0.0
 10
7.64241930275084
 20
7.503167186700637
 30
0.0
 10
7.641710054878007
 20
7.499133396695425
 30
0.0
 10
7.64407509846087
 20
7.491328390609124
 30
0.0
 10
7.64920269241753
 20
7.481228927884977
 30
0.0
 10
7.656675625178035
 20
7.473300227571667
 30
0.0
 10
7.66523420796841
 20
7.467258130041341
 30
0.0
 10
7.674929815692018
 20
7.462619366547793
 30
0.0
 10
7.682506867322576
 20
7.460693031601843
 30
0.0
 10
7.686423304137027
 20
7.459697344959185
 30
0.0
  0
LINE
  5
2D9
330
1F
100
AcDbEntity
  8
0
  6
CONTINUOUS
 62
     7
100
AcDbLine
 10
7.3453346118
 20
6.762317251
 30
0.0
 11
7.3453346118
 21
6.6956904785
 31
0.0
  0
LINE
  5
2DA
330
1F
100
AcDbEntity
  8
0
  6
CONTINUOUS
 62
     7
100
AcDbLine
 10
7.414931736
 20
6.7221396864
 30
0.0
 11
7.414931736
 21
6.655512914
 31
0.0
  0
ARC
  5
2DB
330
1F
100
AcDbEntity
  8
0
  6
CONTINUOUS
 62
     7
100
AcDbCircle
 10
7.9755677032
 20
6.6814191237
 30
0.0
 40
0.5612341930597704
100
AcDbArc
 50
182.6456764513
 51
236.4745263898
  0
POLYLINE
  5
2DC
330
1F
100
AcDbEntity
  8
0
  6
CONTINUOUS
 62
     7
100
AcDb2dPolyline
 66
     1
 10
0.0
 20
0.0
 30
0.0
  0
VERTEX
  5
693
330
2DC
100
AcDbEntity
  8
0
  6
CONTINUOUS
 62
     7
100
AcDbVertex
100
AcDb2dVertex
 10
7.3453346118
 20
6.6956904785
 30
0.0
  0
VERTEX
  5
694
330
2DC
100
AcDbEntity
  8
0
  6
CONTINUOUS
 62
     7
100
AcDbVertex
100
AcDb2dVertex
 10
7.3461567949
 20
6.6684510639
 30
0.0
  0
VERTEX
  5
695
330
2DC
100
AcDbEntity
  8
0
  6
CONTINUOUS
 62
     7
100
AcDbVertex
100
AcDb2dVertex
 10
7.3486192108
 20
6.6403993097
 30
0.0
  0
VERTEX
  5
696
330
2DC
100
AcDbEntity
  8
0
  6
CONTINUOUS
 62
     7
100
AcDbVertex
100
AcDb2dVertex
 10
7.3527094812
 20
6.6116762322
 30
0.0
  0
VERTEX
  5
697
330
2DC
100
AcDbEntity
  8
0
  6
CONTINUOUS
 62
     7
100
AcDbVertex
100
AcDb2dVertex
 10
7.3584070441
 20
6.5824262224
 30
0.0
  0
VERTEX
  5
698
330
2DC
100
AcDbEntity
  8
0
  6
CONTINUOUS
 62
     7
100
AcDbVertex
100
AcDb2dVertex
 10
7.3656832579
 20
6.5527963204
 30
0.0
  0
VERTEX
  5
699
330
2DC
100
AcDbEntity
  8
0
  6
CONTINUOUS
 62
     7
100
AcDbVertex
100
AcDb2dVertex
 10
7.3745015451
 20
6.5229354757
 30
0.0
  0
VERTEX
  5
69A
330
2DC
100
AcDbEntity
  8
0
  6
CONTINUOUS
 62
     7
100
AcDbVertex
100
AcDb2dVertex
 10
7.3848175759
 20
6.492993799
 30
0.0
  0
VERTEX
  5
69B
330
2DC
100
AcDbEntity
  8
0
  6
CONTINUOUS
 62
     7
100
AcDbVertex
100
AcDb2dVertex
 10
7.3965794918
 20
6.4631218073
 30
0.0
  0
VERTEX
  5
69C
330
2DC
100
AcDbEntity
  8
0
  6
CONTINUOUS
 62
     7
100
AcDbVertex
100
AcDb2dVertex
 10
7.4097281654
 20
6.4334696672
 30
0.0
  0
VERTEX
  5
69D
330
2DC
100
AcDbEntity
  8
0
  6
CONTINUOUS
 62
     7
100
AcDbVertex
100
AcDb2dVertex
 10
7.4241974984
 20
6.4041864403
 30
0.0
  0
VERTEX
  5
69E
330
2DC
100
AcDbEntity
  8
0
  6
CONTINUOUS
 62
     7
100
AcDbVertex
100
AcDb2dVertex
 10
7.4399147532
 20
6.3754193334
 30
0.0
  0
VERTEX
  5
69F
330
2DC
100
AcDbEntity
  8
0
  6
CONTINUOUS
 62
     7
100
AcDbVertex
100
AcDb2dVertex
 10
7.4568009193
 20
6.347312959
 30
0.0
  0
VERTEX
  5
6A0
330
2DC
100
AcDbEntity
  8
0
  6
CONTINUOUS
 62
     7
100
AcDbVertex
100
AcDb2dVertex
 10
7.4747711097
 20
6.3200086079
 30
0.0
  0
VERTEX
  5
6A1
330
2DC
100
AcDbEntity
  8
0
  6
CONTINUOUS
 62
     7
100
AcDbVertex
100
AcDb2dVertex
 10
7.4937349882
 20
6.2936435394
 30
0.0
  0
VERTEX
  5
6A2
330
2DC
100
AcDbEntity
  8
0
  6
CONTINUOUS
 62
     7
100
AcDbVertex
100
AcDb2dVertex
 10
7.5135972233
 20
6.2683502906
 30
0.0
  0
VERTEX
  5
6A3
330
2DC
100
AcDbEntity
  8
0
  6
CONTINUOUS
 62
     7
100
AcDbVertex
100
AcDb2dVertex
 10
7.5342579673
 20
6.244256011
 30
0.0
  0
VERTEX
  5
6A4
330
2DC
100
AcDbEntity
  8
0
  6
CONTINUOUS
 62
     7
100
AcDbVertex
100
AcDb2dVertex
 10
7.5556133587
 20
6.2214818225
 30
0.0
  0
VERTEX
  5
6A5
330
2DC
100
AcDbEntity
  8
0
  6
CONTINUOUS
 62
     7
100
AcDbVertex
100
AcDb2dVertex
 10
7.5775560438
 20
6.2001422113
 30
0.0
  0
VERTEX
  5
6A6
330
2DC
100
AcDbEntity
  8
0
  6
CONTINUOUS
 62
     7
100
AcDbVertex
100
AcDb2dVertex
 10
7.5999757165
 20
6.1803444515
 30
0.0
  0
VERTEX
  5
6A7
330
2DC
100
AcDbEntity
  8
0
  6
CONTINUOUS
 62
     7
100
AcDbVertex
100
AcDb2dVertex
 10
7.6227596731
 20
6.1621880667
 30
0.0
  0
VERTEX
  5
6A8
330
2DC
100
AcDbEntity
  8
0
  6
CONTINUOUS
 62
     7
100
AcDbVertex
100
AcDb2dVertex
 10
7.6457933785
 20
6.1457643291
 30
0.0
  0
VERTEX
  5
6A9
330
2DC
100
AcDbEntity
  8
0
  6
CONTINUOUS
 62
     7
100
AcDbVertex
100
AcDb2dVertex
 10
7.6689610421
 20
6.1311558009
 30
0.0
  0
VERTEX
  5
6AA
330
2DC
100
AcDbEntity
  8
0
  6
CONTINUOUS
 62
     7
100
AcDbVertex
100
AcDb2dVertex
 10
7.6921461999
 20
6.1184359192
 30
0.0
  0
VERTEX
  5
6AB
330
2DC
100
AcDbEntity
  8
0
  6
CONTINUOUS
 62
     7
100
AcDbVertex
100
AcDb2dVertex
 10
7.7152323001
 20
6.1076686271
 30
0.0
  0
VERTEX
  5
6AC
330
2DC
100
AcDbEntity
  8
0
  6
CONTINUOUS
 62
     7
100
AcDbVertex
100
AcDb2dVertex
 10
7.7381032886
 20
6.0989080517
 30
0.0
  0
VERTEX
  5
6AD
330
2DC
100
AcDbEntity
  8
0
  6
CONTINUOUS
 62
     7
100
AcDbVertex
100
AcDb2dVertex
 10
7.738600553
 20
6.0987391138
 30
0.0
  0
SEQEND
  5
6AE
330
2DC
100
AcDbEntity
  8
0
  6
CONTINUOUS
 62
     7
  0
SPLINE
  5
2DD
330
1F
100
AcDbEntity
  8
0
  6
CONTINUOUS
 62
     7
100
AcDbSpline
210
0.0
220
0.0
230
1.0
 70
     8
 71
     3
 72
    15
 73
    11
 74
     0
 42
0.00000001
 43
0.00000001
 40
0.0
 40
0.0
 40
0.0
 40
0.0
 40
0.0004851274136586
 40
0.1649725520912013
 40
0.3630796179662021
 40
0.4819850403655668
 40
0.6044969689028682
 40
0.7977509231723178
 40
0.9916178729000904
 40
1.0
 40
1.0
 40
1.0
 40
1.0
 10
7.796279452213326
 20
7.080548258413127
 30
0.0
 10
7.796294371883648
 20
7.080542051937722
 30
0.0
 10
7.801367958780808
 20
7.078431476327744
 30
0.0
 10
7.81447153283526
 20
7.080209298129877
 30
0.0
 10
7.830107328265344
 20
7.084899899248868
 30
0.0
 10
7.842577531381663
 20
7.093250108385379
 30
0.0
 10
7.852879676599366
 20
7.103596032120088
 30
0.0
 10
7.859952422097406
 20
7.118764761519562
 30
0.0
 10
7.861906596780073
 20
7.132415494968217
 30
0.0
 10
7.859269257031592
 20
7.139126826894285
 30
0.0
 10
7.859159953605716
 20
7.139404975195855
 30
0.0
  0
LINE
  5
2DE
330
1F
100
AcDbEntity
  8
0
  6
CONTINUOUS
 62
     8
100
AcDbLine
 10
7.8673130428
 20
6.8767937474
 30
0.0
 11
7.8673130428
 21
6.5792787234
 31
0.0
  0
LINE
  5
2DF
330
1F
100
AcDbEntity
  8
0
  6
CONTINUOUS
 62
     8
100
AcDbLine
 10
8.5493648593
 20
7.27053388
 30
0.0
 11
8.5493648593
 21
7.0794097809
 31
0.0
  0
LINE
  5
2E0
330
1F
100
AcDbEntity
  8
0
  6
CONTINUOUS
 62
     8
100
AcDbLine
 10
9.133980702
 20
6.9328412915
 30
0.0
 11
9.133980702
 21
6.8455218908
 31
0.0
  0
LINE
  5
2E1
330
1F
100
AcDbEntity
  8
0
  6
CONTINUOUS
 62
     8
100
AcDbLine
 10
7.4726384661
 20
6.6888263002
 30
0.0
 11
7.414931736
 21
6.655512914
 31
0.0
  0
ENDSEC
  0
SECTION
  2
OBJECTS
  0
DICTIONARY
  5
C
330
0
100
AcDbDictionary
  3
ACAD_GROUP
350
D
  3
ACAD_LAYOUT
350
1A
  3
ACAD_MLEADERSTYLE
350
2E4
  3
ACAD_MLINESTYLE
350
17
  3
ACAD_PLOTSETTINGS
350
19
  3
ACAD_SCALELIST
350
6F
  3
ACAD_VISUALSTYLE
350
2A
  3
ACDBVARIABLEDICTIONARY
350
2E2
1001
ACAD
1000
TREAT_AS_HARD
1070
     0
  0
DICTIONARY
  5
D
102
{ACAD_REACTORS
330
C
102
}
330
C
100
AcDbDictionary
1001
ACAD
1000
TREAT_AS_HARD
1070
     0
  0
DICTIONARY
  5
1A
102
{ACAD_REACTORS
330
C
102
}
330
C
100
AcDbDictionary
1001
ACAD
1000
TREAT_AS_HARD
1070
     0
  0
DICTIONARY
  5
2E4
102
{ACAD_REACTORS
330
C
102
}
330
C
100
AcDbDictionary
1001
ACAD
1000
TREAT_AS_HARD
1070
     0
  0
DICTIONARY
  5
17
102
{ACAD_REACTORS
330
C
102
}
330
C
100
AcDbDictionary
  3
STANDARD
350
18
1001
ACAD
1000
TREAT_AS_HARD
1070
     0
  0
DICTIONARY
  5
19
102
{ACAD_REACTORS
330
C
102
}
330
C
100
AcDbDictionary
1001
ACAD
1000
TREAT_AS_HARD
1070
     0
  0
DICTIONARY
  5
6F
102
{ACAD_REACTORS
330
C
102
}
330
C
100
AcDbDictionary
  3
A0
350
70
  3
A1
350
71
  3
A2
350
72
  3
A3
350
73
  3
A4
350
74
  3
A5
350
75
  3
A6
350
76
  3
A7
350
77
  3
A8
350
78
  3
A9
350
79
  3
B0
350
7A
  3
B1
350
7B
  3
B2
350
7C
  3
B3
350
7D
  3
B4
350
7E
  3
B5
350
7F
  3
B6
350
80
  3
B7
350
81
  3
B8
350
82
  3
B9
350
83
  3
C0
350
84
  3
C1
350
85
  3
C2
350
86
  3
C3
350
87
  3
C4
350
88
  3
C5
350
89
  3
C6
350
8A
  3
C7
350
8B
  3
C8
350
8C
  3
C9
350
8D
  3
D0
350
8E
  3
D1
350
8F
  3
D2
350
90
1001
ACAD
1000
TREAT_AS_HARD
1070
     0
  0
DICTIONARY
  5
2A
102
{ACAD_REACTORS
330
C
102
}
330
C
100
AcDbDictionary
  3
2DWIREFRAME
350
2F
  3
3D_HIDDEN
350
31
  3
3DWIREFRAME
350
30
  3
BASIC
350
32
  3
BRIGHTEN
350
36
  3
COLORCHANGE
350
3A
  3
CONCEPTUAL
350
34
  3
DIM
350
35
  3
FACEPATTERN
350
39
  3
FLAT
350
2B
  3
FLATWITHEDGES
350
2C
  3
GOURAUD
350
2D
  3
GOURAUDWITHEDGES
350
2E
  3
LINEPATTERN
350
38
  3
REALISTIC
350
33
  3
THICKEN
350
37
1001
ACAD
1000
TREAT_AS_HARD
1070
     0
  0
DICTIONARY
  5
2E2
102
{ACAD_REACTORS
330
C
102
}
330
C
100
AcDbDictionary
  3
CANNOSCALE
350
2E5
  3
DIMASSOC
350
2E6
  3
HIDETEXT
350
2E7
1001
ACAD
1000
TREAT_AS_HARD
1070
     0
  0
MLINESTYLE
  5
18
102
{ACAD_REACTORS
330
17
102
}
330
17
100
AcDbMlineStyle
  2
Standard
 70
     0
  3

 62
   256
 51
90.0
 52
90.0
 71
     2
 49
0.5
 62
   256
  6
BYLAYER
 49
-0.5
 62
   256
  6
BYLAYER
  0
ACAD_PROXY_OBJECT
  5
70
102
{ACAD_REACTORS
330
6F
102
}
330
6F
100
AcDbZombieObject
 90
      499
 91
      502
 93
       41
310
903313A31580
  0
ACAD_PROXY_OBJECT
  5
71
102
{ACAD_REACTORS
330
6F
102
}
330
6F
100
AcDbZombieObject
 90
      499
 91
      502
 93
      105
310
903313A324000000000000004000
  0
ACAD_PROXY_OBJECT
  5
72
102
{ACAD_REACTORS
330
6F
102
}
330
6F
100
AcDbZombieObject
 90
      499
 91
      502
 93
      105
310
903313A344000000000000104000
  0
ACAD_PROXY_OBJECT
  5
73
102
{ACAD_REACTORS
330
6F
102
}
330
6F
100
AcDbZombieObject
 90
      499
 91
      502
 93
      105
310
903313A354000000000000144000
  0
ACAD_PROXY_OBJECT
  5
74
102
{ACAD_REACTORS
330
6F
102
}
330
6F
100
AcDbZombieObject
 90
      499
 91
      502
 93
      105
310
903313A384000000000000204000
  0
ACAD_PROXY_OBJECT
  5
75
102
{ACAD_REACTORS
330
6F
102
}
330
6F
100
AcDbZombieObject
 90
      499
 91
      502
 93
      113
310
904313A31304000000000000244000
  0
ACAD_PROXY_OBJECT
  5
76
102
{ACAD_REACTORS
330
6F
102
}
330
6F
100
AcDbZombieObject
 90
      499
 91
      502
 93
      113
310
904313A31364000000000000304000
  0
ACAD_PROXY_OBJECT
  5
77
102
{ACAD_REACTORS
330
6F
102
}
330
6F
100
AcDbZombieObject
 90
      499
 91
      502
 93
      113
310
904313A32304000000000000344000
  0
ACAD_PROXY_OBJECT
  5
78
102
{ACAD_REACTORS
330
6F
102
}
330
6F
100
AcDbZombieObject
 90
      499
 91
      502
 93
      113
310
904313A333040000000000003E4000
  0
ACAD_PROXY_OBJECT
  5
79
102
{ACAD_REACTORS
330
6F
102
}
330
6F
100
AcDbZombieObject
 90
      499
 91
      502
 93
      113
310
904313A34304000000000000444000
  0
ACAD_PROXY_OBJECT
  5
7A
102
{ACAD_REACTORS
330
6F
102
}
330
6F
100
AcDbZombieObject
 90
      499
 91
      502
 93
      113
310
904313A35304000000000000494000
  0
ACAD_PROXY_OBJECT
  5
7B
102
{ACAD_REACTORS
330
6F
102
}
330
6F
100
AcDbZombieObject
 90
      499
 91
      502
 93
      121
310
905313A3130304000000000000594000
  0
ACAD_PROXY_OBJECT
  5
7C
102
{ACAD_REACTORS
330
6F
102
}
330
6F
100
AcDbZombieObject
 90
      499
 91
      502
 93
      105
310
903323A310000000000000010100
  0
ACAD_PROXY_OBJECT
  5
7D
102
{ACAD_REACTORS
330
6F
102
}
330
6F
100
AcDbZombieObject
 90
      499
 91
      502
 93
      105
310
903343A310000000000000410100
  0
ACAD_PROXY_OBJECT
  5
7E
102
{ACAD_REACTORS
330
6F
102
}
330
6F
100
AcDbZombieObject
 90
      499
 91
      502
 93
      105
310
903383A310000000000000810100
  0
ACAD_PROXY_OBJECT
  5
7F
102
{ACAD_REACTORS
330
6F
102
}
330
6F
100
AcDbZombieObject
 90
      499
 91
      502
 93
      113
310
90431303A310000000000000910100
  0
ACAD_PROXY_OBJECT
  5
80
102
{ACAD_REACTORS
330
6F
102
}
330
6F
100
AcDbZombieObject
 90
      499
 91
      502
 93
      121
310
9053130303A310000000000001650100
  0
ACAD_PROXY_OBJECT
  5
81
102
{ACAD_REACTORS
330
6F
102
}
330
6F
100
AcDbZombieObject
 90
      499
 91
      502
 93
      257
310
90E312F31323822203D2031272D3022000000000000200FC000000000000284000
  0
ACAD_PROXY_OBJECT
  5
82
102
{ACAD_REACTORS
330
6F
102
}
330
6F
100
AcDbZombieObject
 90
      499
 91
      502
 93
      249
310
90D312F363422203D2031272D3022000000000000240FC000000000000284000
  0
ACAD_PROXY_OBJECT
  5
83
102
{ACAD_REACTORS
330
6F
102
}
330
6F
100
AcDbZombieObject
 90
      499
 91
      502
 93
      249
310
90D312F333222203D2031272D3022000000000000280FC000000000000284000
  0
ACAD_PROXY_OBJECT
  5
84
102
{ACAD_REACTORS
330
6F
102
}
330
6F
100
AcDbZombieObject
 90
      499
 91
      502
 93
      249
310
90D312F313622203D2031272D30220000000000002C0FC000000000000284000
  0
ACAD_PROXY_OBJECT
  5
85
102
{ACAD_REACTORS
330
6F
102
}
330
6F
100
AcDbZombieObject
 90
      499
 91
      502
 93
      249
310
90D332F333222203D2031272D30220000000000002E0FC000000000000284000
  0
ACAD_PROXY_OBJECT
  5
86
102
{ACAD_REACTORS
330
6F
102
}
330
6F
100
AcDbZombieObject
 90
      499
 91
      502
 93
      241
310
90C312F3822203D2031272D3022000000000000300FC000000000000284000
  0
ACAD_PROXY_OBJECT
  5
87
102
{ACAD_REACTORS
330
6F
102
}
330
6F
100
AcDbZombieObject
 90
      499
 91
      502
 93
      249
310
90D332F313622203D2031272D3022000000000000320FC000000000000284000
  0
ACAD_PROXY_OBJECT
  5
88
102
{ACAD_REACTORS
330
6F
102
}
330
6F
100
AcDbZombieObject
 90
      499
 91
      502
 93
      241
310
90C312F3422203D2031272D3022000000000000340FC000000000000284000
  0
ACAD_PROXY_OBJECT
  5
89
102
{ACAD_REACTORS
330
6F
102
}
330
6F
100
AcDbZombieObject
 90
      499
 91
      502
 93
      241
310
90C332F3822203D2031272D3022000000000000360FC000000000000284000
  0
ACAD_PROXY_OBJECT
  5
8A
102
{ACAD_REACTORS
330
6F
102
}
330
6F
100
AcDbZombieObject
 90
      499
 91
      502
 93
      241
310
90C312F3222203D2031272D3022000000000000380FC000000000000284000
  0
ACAD_PROXY_OBJECT
  5
8B
102
{ACAD_REACTORS
330
6F
102
}
330
6F
100
AcDbZombieObject
 90
      499
 91
      502
 93
      241
310
90C332F3422203D2031272D30220000000000003A0FC000000000000284000
  0
ACAD_PROXY_OBJECT
  5
8C
102
{ACAD_REACTORS
330
6F
102
}
330
6F
100
AcDbZombieObject
 90
      499
 91
      502
 93
      161
310
90A3122203D2031272D30224000000000000284000
  0
ACAD_PROXY_OBJECT
  5
8D
102
{ACAD_REACTORS
330
6F
102
}
330
6F
100
AcDbZombieObject
 90
      499
 91
      502
 93
      257
310
90E312D312F3222203D2031272D30220000000000003E0FC000000000000284000
  0
ACAD_PROXY_OBJECT
  5
8E
102
{ACAD_REACTORS
330
6F
102
}
330
6F
100
AcDbZombieObject
 90
      499
 91
      502
 93
      225
310
90A3322203D2031272D302200000000000002100000000000000284000
  0
ACAD_PROXY_OBJECT
  5
8F
102
{ACAD_REACTORS
330
6F
102
}
330
6F
100
AcDbZombieObject
 90
      499
 91
      502
 93
      225
310
90A3622203D2031272D302200000000000006100000000000000284000
  0
ACAD_PROXY_OBJECT
  5
90
102
{ACAD_REACTORS
330
6F
102
}
330
6F
100
AcDbZombieObject
 90
      499
 91
      502
 93
      249
310
90D31272D3022203D2031272D30220000000000000A100000000000000284000
  0
ACAD_PROXY_OBJECT
  5
2F
102
{ACAD_REACTORS
330
2A
102
}
330
2A
100
AcDbZombieObject
 90
      499
 91
      501
 93
      436
310
42CC9915DA5C99599C985B595049028333333333333E3BF0000000000000FB0107901411070040501600405405064090741402480A0340
1001
ACAD
1000
AcDbSavedByObjectVersion
1070
     0
  0
ACAD_PROXY_OBJECT
  5
31
102
{ACAD_REACTORS
330
2A
102
}
330
2A
100
AcDbZombieObject
 90
      499
 91
      501
 93
      500
310
424CD108121A5919195B90640502408333333333333E3BF0000000000000FB01079024090700405020000000000001110200405405064090740C02480A0340
1001
ACAD
1000
AcDbSavedByObjectVersion
1070
     0
  0
ACAD_PROXY_OBJECT
  5
30
102
{ACAD_REACTORS
330
2A
102
}
330
2A
100
AcDbZombieObject
 90
      499
 91
      501
 93
      436
310
42CCD915DA5C99599C985B595059028333333333333E3BF0000000000000FB0107901411070040501600405405064090741402480A0340
1001
ACAD
1000
AcDbSavedByObjectVersion
1070
     0
  0
ACAD_PROXY_OBJECT
  5
32
102
{ACAD_REACTORS
330
2A
102
}
330
2A
100
AcDbZombieObject
 90
      499
 91
      501
 93
      388
310
4150985CDA58D07406404333333333333E3BF0000000000000FB0107A41107004050150841D405064090741402480A0350
1001
ACAD
1000
AcDbSavedByObjectVersion
1070
     0
  0
ACAD_PROXY_OBJECT
  5
36
102
{ACAD_REACTORS
330
2A
102
}
330
2A
100
AcDbZombieObject
 90
      499
 91
      501
 93
      428
310
42109C9A59DA1D195B90C409028333333333333E3BF0000000000000FB010790141107004050150841D405064090741402480A029950
1001
ACAD
1000
AcDbSavedByObjectVersion
1070
     0
  0
ACAD_PROXY_OBJECT
  5
3A
102
{ACAD_REACTORS
330
2A
102
}
330
2A
100
AcDbZombieObject
 90
      499
 91
      501
 93
      452
310
42D0DBDB1BDC90DA185B99D95104090240C333333333333E3BF0000000000000FB0108901411070040501508421405064090741402480A0350
1001
ACAD
1000
AcDbSavedByObjectVersion
1070
     0
  0
ACAD_PROXY_OBJECT
  5
34
102
{ACAD_REACTORS
330
2A
102
}
330
2A
100
AcDbZombieObject
 90
      499
 91
      501
 93
      500
310
4290DBDB98D95C1D1D585B10940D028333333333333E3BF0000000000000FB0107902409070040501000000000000111010841D405064090740C02480A0340
1001
ACAD
1000
AcDbSavedByObjectVersion
1070
     0
  0
ACAD_PROXY_OBJECT
  5
35
102
{ACAD_REACTORS
330
2A
102
}
330
2A
100
AcDbZombieObject
 90
      499
 91
      501
 93
      412
310
40D11A5B50B409028333333333333E3BF0000000000000FB010790141107004050150841D405064090741402480A02677FFFFFD0
1001
ACAD
1000
AcDbSavedByObjectVersion
1070
     0
  0
ACAD_PROXY_OBJECT
  5
39
102
{ACAD_REACTORS
330
2A
102
}
330
2A
100
AcDbZombieObject
 90
      499
 91
      501
 93
      444
310
42D19858D95C185D1D195C9B90F409028333333333333E3BF0000000000000FB010790141107004050150841D405064090741402480A0350
1001
ACAD
1000
AcDbSavedByObjectVersion
1070
     0
  0
ACAD_PROXY_OBJECT
  5
2B
102
{ACAD_REACTORS
330
2A
102
}
330
2A
100
AcDbZombieObject
 90
      499
 91
      501
 93
      388
310
41119B185D240901404333333333333E3BF0000000000000F9010740A41107004050150841D405064090741402480A1B50
1001
ACAD
1000
AcDbSavedByObjectVersion
1070
     0
  0
ACAD_PROXY_OBJECT
  5
2C
102
{ACAD_REACTORS
330
2A
102
}
330
2A
100
AcDbZombieObject
 90
      499
 91
      501
 93
      476
310
43519B185D15DA5D1A115919D95CD0140901404333333333333E3BF0000000000000F9010740901411070040501600405405064090741402480A1B50
1001
ACAD
1000
AcDbSavedByObjectVersion
1070
     0
  0
ACAD_PROXY_OBJECT
  5
2D
102
{ACAD_REACTORS
330
2A
102
}
330
2A
100
AcDbZombieObject
 90
      499
 91
      501
 93
      412
310
41D1DBDD5C985D5910240902404333333333333E3BF0000000000000F9010740A411070040501641D405064090741402480A1B50
1001
ACAD
1000
AcDbSavedByObjectVersion
1070
     0
  0
ACAD_PROXY_OBJECT
  5
2E
102
{ACAD_REACTORS
330
2A
102
}
330
2A
100
AcDbZombieObject
 90
      499
 91
      501
 93
      500
310
4411DBDD5C985D5915DA5D1A115919D95CD0340902404333333333333E3BF0000000000000F9010740901411070040501600405405064090741402480A1B50
1001
ACAD
1000
AcDbSavedByObjectVersion
1070
     0
  0
ACAD_PROXY_OBJECT
  5
38
102
{ACAD_REACTORS
330
2A
102
}
330
2A
100
AcDbZombieObject
 90
      499
 91
      501
 93
      444
310
42D31A5B995C185D1D195C9B90E409028333333333333E3BF0000000000000FB010790141107004050750841D405064090741402483A0350
1001
ACAD
1000
AcDbSavedByObjectVersion
1070
     0
  0
ACAD_PROXY_OBJECT
  5
33
102
{ACAD_REACTORS
330
2A
102
}
330
2A
100
AcDbZombieObject
 90
      499
 91
      501
 93
      420
310
425499585B1A5CDD1A58D08409028333333333333E3BF0000000000000FB01079019070040501508421405064090741402480A1B40
1001
ACAD
1000
AcDbSavedByObjectVersion
1070
     0
  0
ACAD_PROXY_OBJECT
  5
37
102
{ACAD_REACTORS
330
2A
102
}
330
2A
100
AcDbZombieObject
 90
      499
 91
      501
 93
      412
310
41D51A1A58DAD95B90D409028333333333333E3BF0000000000000FB010790141107004050150C41D405064090741402480A0350
1001
ACAD
1000
AcDbSavedByObjectVersion
1070
     0
  0
DICTIONARYVAR
  5
2E5
102
{ACAD_REACTORS
330
2E2
102
}
330
2E2
100
DictionaryVariables
280
     0
  1
1:1
  0
DICTIONARYVAR
  5
2E6
102
{ACAD_REACTORS
330
2E2
102
}
330
2E2
100
DictionaryVariables
280
     0
  1
2
  0
DICTIONARYVAR
  5
2E7
102
{ACAD_REACTORS
330
2E2
102
}
330
2E2
100
DictionaryVariables
280
     0
  1
1
  0
ENDSEC
  0
EOF
