  0
SECTION
  2
HEADER
  9
$ACADVER
  1
AC1012
  9
$DWGCODEPAGE
  3
ansi_1252
  9
$INSBASE
 10
0.0
 20
0.0
 30
0.0
  9
$EXTMIN
 10
0.0
 20
0.0
 30
0.0
  9
$EXTMAX
 10
11.0
 20
8.5
 30
0.0
  9
$LIMMIN
 10
0.0
 20
0.0
  9
$LIMMAX
 10
11.0
 20
8.5
  9
$ORTHOMODE
 70
     0
  9
$REGENMODE
 70
     1
  9
$FILLMODE
 70
     1
  9
$QTEXTMODE
 70
     0
  9
$MIRRTEXT
 70
     1
  9
$DRAGMODE
 70
     2
  9
$LTSCALE
 40
1.0
  9
$OSMODE
 70
    37
  9
$ATTMODE
 70
     1
  9
$TEXTSIZE
 40
0.125
  9
$TRACEWID
 40
0.05
  9
$TEXTSTYLE
  7
STANDARD
  9
$CLAYER
  8
0
  9
$CELTYPE
  6
BYLAYER
  9
$CECOLOR
 62
   256
  9
$CELTSCALE
 40
1.0
  9
$DELOBJ
 70
     1
  9
$DISPSILH
 70
     0
  9
$DIMSCALE
 40
1.0
  9
$DIMASZ
 40
0.13
  9
$DIMEXO
 40
0.05
  9
$DIMDLI
 40
0.38
  9
$DIMRND
 40
0.0
  9
$DIMDLE
 40
0.0
  9
$DIMEXE
 40
0.125
  9
$DIMTP
 40
0.0
  9
$DIMTM
 40
0.0
  9
$DIMTXT
 40
0.125
  9
$DIMCEN
 40
0.09
  9
$DIMTSZ
 40
0.0
  9
$DIMTOL
 70
     0
  9
$DIMLIM
 70
     0
  9
$DIMTIH
 70
     1
  9
$DIMTOH
 70
     1
  9
$DIMSE1
 70
     0
  9
$DIMSE2
 70
     0
  9
$DIMTAD
 70
     0
  9
$DIMZIN
 70
     0
  9
$DIMBLK
  1

  9
$DIMASO
 70
     1
  9
$DIMSHO
 70
     1
  9
$DIMPOST
  1

  9
$DIMAPOST
  1

  9
$DIMALT
 70
     0
  9
$DIMALTD
 70
     2
  9
$DIMALTF
 40
25.4
  9
$DIMLFAC
 40
1.0
  9
$DIMTOFL
 70
     0
  9
$DIMTVP
 40
0.0
  9
$DIMTIX
 70
     0
  9
$DIMSOXD
 70
     0
  9
$DIMSAH
 70
     0
  9
$DIMBLK1
  1

  9
$DIMBLK2
  1

  9
$DIMSTYLE
  2
STANDARD
  9
$DIMCLRD
 70
     0
  9
$DIMCLRE
 70
     0
  9
$DIMCLRT
 70
     0
  9
$DIMTFAC
 40
1.0
  9
$DIMGAP
 40
0.06
  9
$DIMJUST
 70
     0
  9
$DIMSD1
 70
     0
  9
$DIMSD2
 70
     0
  9
$DIMTOLJ
 70
     1
  9
$DIMTZIN
 70
     0
  9
$DIMALTZ
 70
     0
  9
$DIMALTTZ
 70
     0
  9
$DIMFIT
 70
     3
  9
$DIMUPT
 70
     0
  9
$DIMUNIT
 70
     2
  9
$DIMDEC
 70
     3
  9
$DIMTDEC
 70
     3
  9
$DIMALTU
 70
     2
  9
$DIMALTTD
 70
     2
  9
$DIMTXSTY
  7
STANDARD
  9
$DIMAUNIT
 70
     0
  9
$LUNITS
 70
     2
  9
$LUPREC
 70
     2
  9
$SKETCHINC
 40
0.1
  9
$FILLETRAD
 40
0.5
  9
$AUNITS
 70
     0
  9
$AUPREC
 70
     2
  9
$MENU
  1
.
  9
$ELEVATION
 40
0.0
  9
$PELEVATION
 40
0.0
  9
$THICKNESS
 40
0.0
  9
$LIMCHECK
 70
     0
  9
$CHAMFERA
 40
0.5
  9
$CHAMFERB
 40
0.5
  9
$CHAMFERC
 40
1.0
  9
$CHAMFERD
 40
0.0
  9
$SKPOLY
 70
     0
  9
$TDCREATE
 40
2455783.998772014
  9
$TDUPDATE
 40
2455783.998772026
  9
$TDINDWG
 40
0.0000000116
  9
$TDUSRTIMER
 40
0.0000000116
  9
$USRTIMER
 70
     1
  9
$ANGBASE
 50
0.0
  9
$ANGDIR
 70
     0
  9
$PDMODE
 70
     0
  9
$PDSIZE
 40
-1.0
  9
$PLINEWID
 40
0.0
  9
$COORDS
 70
     1
  9
$SPLFRAME
 70
     0
  9
$SPLINETYPE
 70
     6
  9
$SPLINESEGS
 70
     8
  9
$ATTDIA
 70
     0
  9
$ATTREQ
 70
     1
  9
$HANDLING
 70
     1
  9
$HANDSEED
  5
67A
  9
$SURFTAB1
 70
     6
  9
$SURFTAB2
 70
     6
  9
$SURFTYPE
 70
     6
  9
$SURFU
 70
     6
  9
$SURFV
 70
     6
  9
$UCSNAME
  2

  9
$UCSORG
 10
0.0
 20
0.0
 30
0.0
  9
$UCSXDIR
 10
1.0
 20
0.0
 30
0.0
  9
$UCSYDIR
 10
0.0
 20
1.0
 30
0.0
  9
$PUCSNAME
  2

  9
$PUCSORG
 10
0.0
 20
0.0
 30
0.0
  9
$PUCSXDIR
 10
1.0
 20
0.0
 30
0.0
  9
$PUCSYDIR
 10
0.0
 20
1.0
 30
0.0
  9
$USERI1
 70
     0
  9
$USERI2
 70
     0
  9
$USERI3
 70
     0
  9
$USERI4
 70
     0
  9
$USERI5
 70
     0
  9
$USERR1
 40
0.0
  9
$USERR2
 40
0.0
  9
$USERR3
 40
0.0
  9
$USERR4
 40
0.0
  9
$USERR5
 40
0.0
  9
$WORLDVIEW
 70
     1
  9
$SHADEDGE
 70
     3
  9
$SHADEDIF
 70
    70
  9
$TILEMODE
 70
     1
  9
$MAXACTVP
 70
    64
  9
$PINSBASE
 10
0.0
 20
0.0
 30
0.0
  9
$PLIMCHECK
 70
     0
  9
$PEXTMIN
 10
1.0000000000E+20
 20
1.0000000000E+20
 30
1.0000000000E+20
  9
$PEXTMAX
 10
-1.0000000000E+20
 20
-1.0000000000E+20
 30
-1.0000000000E+20
  9
$PLIMMIN
 10
0.0
 20
0.0
  9
$PLIMMAX
 10
12.0
 20
9.0
  9
$UNITMODE
 70
     0
  9
$VISRETAIN
 70
     1
  9
$PLINEGEN
 70
     0
  9
$PSLTSCALE
 70
     1
  9
$TREEDEPTH
 70
  3020
  9
$PICKSTYLE
 70
     1
  9
$CMLSTYLE
  2
STANDARD
  9
$CMLJUST
 70
     0
  9
$CMLSCALE
 40
1.0
  9
$SAVEIMAGES
 70
     1
  0
ENDSEC
  0
SECTION
  2
CLASSES
  0
CLASS
  1
ACDBDICTIONARYWDFLT
  2
AcDbDictionaryWithDefault
  3
ObjectDBX Classes
 90
    32768
280
     0
281
     0
  0
CLASS
  1
VISUALSTYLE
  2
AcDbVisualStyle
  3
ObjectDBX Classes
 90
     4095
280
     0
281
     0
  0
CLASS
  1
SCALE
  2
AcDbScale
  3
ObjectDBX Classes
 90
     1153
280
     0
281
     0
  0
CLASS
  1
DICTIONARYVAR
  2
AcDbDictionaryVar
  3
ObjectDBX Classes
 90
        0
280
     0
281
     0
  0
CLASS
  1
XRECORD
  2
AcDbXrecord
  3
AutoCAD 2000
 90
    32768
280
     0
281
     0
  0
CLASS
  1
LWPOLYLINE
  2
AcDbPolyline
  3
AutoCAD 2000
 90
    32768
280
     0
281
     1
  0
CLASS
  1
HATCH
  2
AcDbHatch
  3
AutoCAD 2000
 90
    32768
280
     0
281
     1
  0
CLASS
  1
ACDBPLACEHOLDER
  2
AcDbPlaceHolder
  3
ObjectDBX Classes
 90
        0
280
     0
281
     0
  0
CLASS
  1
LAYOUT
  2
AcDbLayout
  3
ObjectDBX Classes
 90
        0
280
     0
281
     0
  0
ENDSEC
  0
SECTION
  2
TABLES
  0
TABLE
  2
VPORT
  5
8
330
0
100
AcDbSymbolTable
 70
     1
  0
VPORT
  5
29
330
8
100
AcDbSymbolTableRecord
100
AcDbViewportTableRecord
  2
*ACTIVE
 70
     0
 10
0.0
 20
0.0
 11
1.0
 21
1.0
 12
5.5
 22
4.25
 13
0.0
 23
0.0
 14
0.5
 24
0.5
 15
0.5
 25
0.5
 16
0.0
 26
0.0
 36
1.0
 17
0.0
 27
0.0
 37
0.0
 40
8.5
 41
1.2941176471
 42
50.0
 43
0.0
 44
0.0
 50
0.0
 51
0.0
 71
     0
 72
  2000
 73
     1
 74
     3
 75
     0
 76
     0
 77
     0
 78
     0
  0
ENDTAB
  0
TABLE
  2
LTYPE
  5
5
330
0
100
AcDbSymbolTable
 70
     6
  0
LTYPE
  5
14
330
5
100
AcDbSymbolTableRecord
100
AcDbLinetypeTableRecord
  2
BYBLOCK
 70
     0
  3

 72
    65
 73
     0
 40
0.0
  0
LTYPE
  5
15
330
5
100
AcDbSymbolTableRecord
100
AcDbLinetypeTableRecord
  2
BYLAYER
 70
     0
  3

 72
    65
 73
     0
 40
0.0
  0
LTYPE
  5
16
330
5
100
AcDbSymbolTableRecord
100
AcDbLinetypeTableRecord
  2
CONTINUOUS
 70
     0
  3
Solid line
 72
    65
 73
     0
 40
0.0
  0
LTYPE
  5
3B
330
5
100
AcDbSymbolTableRecord
100
AcDbLinetypeTableRecord
  2
HIDDEN
 70
     0
  3
Hidden __ __ __ __ __ __ __ __ __ __ __ __ __ __
 72
    65
 73
     2
 40
0.075
 49
0.05
 74
     0
 49
-0.025
 74
     0
  0
LTYPE
  5
3C
330
5
100
AcDbSymbolTableRecord
100
AcDbLinetypeTableRecord
  2
PHANTOM
 70
     0
  3
Phantom ______  __  __  ______  __  __  ______
 72
    65
 73
     6
 40
0.5
 49
0.25
 74
     0
 49
-0.05
 74
     0
 49
0.05
 74
     0
 49
-0.05
 74
     0
 49
0.05
 74
     0
 49
-0.05
 74
     0
  0
LTYPE
  5
3D
330
5
100
AcDbSymbolTableRecord
100
AcDbLinetypeTableRecord
  2
CENTER
 70
     0
  3
Center ____ _ ____ _ ____ _ ____ _ ____ _ ____
 72
    65
 73
     4
 40
0.4
 49
0.25
 74
     0
 49
-0.05
 74
     0
 49
0.05
 74
     0
 49
-0.05
 74
     0
  0
LTYPE
  5
3E
330
5
100
AcDbSymbolTableRecord
100
AcDbLinetypeTableRecord
  2
CENTERX2
 70
     0
  3
Center (2x) ________  __  ________  __  _____
 72
    65
 73
     4
 40
0.8
 49
0.5
 74
     0
 49
-0.1
 74
     0
 49
0.1
 74
     0
 49
-0.1
 74
     0
  0
LTYPE
  5
3F
330
5
100
AcDbSymbolTableRecord
100
AcDbLinetypeTableRecord
  2
DOT2
 70
     0
  3
Dot (.5x) ........................................
 72
    65
 73
     2
 40
0.025
 49
0.0
 74
     0
 49
-0.025
 74
     0
  0
ENDTAB
  0
TABLE
  2
LAYER
  5
2
330
0
100
AcDbSymbolTable
 70
     2
  0
LAYER
  5
10
330
2
100
AcDbSymbolTableRecord
100
AcDbLayerTableRecord
  2
0
 70
     0
 62
     7
  6
CONTINUOUS
  0
LAYER
  5
40
330
2
100
AcDbSymbolTableRecord
100
AcDbLayerTableRecord
  2
FORMAT
 70
     0
 62
     7
  6
CONTINUOUS
  0
ENDTAB
  0
TABLE
  2
STYLE
  5
3
330
0
100
AcDbSymbolTable
 70
     4
  0
STYLE
  5
11
330
3
100
AcDbSymbolTableRecord
100
AcDbTextStyleTableRecord
  2
STANDARD
 70
     0
 40
0.0
 41
1.0
 50
0.0
 71
     0
 42
0.2
  3
txt
  4

  0
STYLE
  5
6E
330
3
100
AcDbSymbolTableRecord
100
AcDbTextStyleTableRecord
  2
SLDTEXTSTYLE0
 70
     0
 40
0.0
 41
0.75
 50
0.0
 71
     0
 42
0.2
  3
TXT
  4

  0
STYLE
  5
93
330
3
100
AcDbSymbolTableRecord
100
AcDbTextStyleTableRecord
  2
SLDTEXTSTYLE1
 70
     0
 40
0.0
 41
0.6875
 50
0.0
 71
     0
 42
0.2
  3
TXT
  4

  0
STYLE
  5
99
330
3
100
AcDbSymbolTableRecord
100
AcDbTextStyleTableRecord
  2
SLDTEXTSTYLE2
 70
     0
 40
0.0
 41
0.6944444444
 50
0.0
 71
     0
 42
0.2
  3
TXT
  4

  0
ENDTAB
  0
TABLE
  2
VIEW
  5
6
330
0
100
AcDbSymbolTable
 70
     0
  0
ENDTAB
  0
TABLE
  2
UCS
  5
7
330
0
100
AcDbSymbolTable
 70
     0
  0
ENDTAB
  0
TABLE
  2
APPID
  5
9
330
0
100
AcDbSymbolTable
 70
     1
  0
APPID
  5
12
330
9
100
AcDbSymbolTableRecord
100
AcDbRegAppTableRecord
  2
ACAD
 70
     0
  0
ENDTAB
  0
TABLE
  2
DIMSTYLE
  5
A
330
0
100
AcDbSymbolTable
 70
     1
  0
DIMSTYLE
105
27
330
A
100
AcDbSymbolTableRecord
100
AcDbDimStyleTableRecord
  2
STANDARD
 70
     0
  3

  4

  5

  6

  7

 40
1.0
 41
0.18
 42
0.0625
 43
0.38
 44
0.18
 45
0.0
 46
0.0
 47
0.0
 48
0.0
140
0.18
141
0.09
142
0.0
143
25.4
144
1.0
145
0.0
146
1.0
147
0.09
 71
     0
 72
     0
 73
     1
 74
     1
 75
     0
 76
     0
 77
     0
 78
     0
170
     0
171
     2
172
     0
173
     0
174
     0
175
     0
176
     0
177
     0
178
     0
270
     2
271
     4
272
     4
273
     2
274
     2
340
11
275
     0
280
     0
281
     0
282
     0
283
     1
284
     0
285
     0
286
     0
287
     3
288
     0
  0
ENDTAB
  0
TABLE
  2
BLOCK_RECORD
  5
1
330
0
100
AcDbSymbolTable
 70
     4
  0
BLOCK_RECORD
  5
1F
330
1
100
AcDbSymbolTableRecord
100
AcDbBlockTableRecord
  2
*MODEL_SPACE
  0
BLOCK_RECORD
  5
1B
330
1
100
AcDbSymbolTableRecord
100
AcDbBlockTableRecord
  2
*PAPER_SPACE
  0
BLOCK_RECORD
  5
A8
330
1
100
AcDbSymbolTableRecord
100
AcDbBlockTableRecord
  2
SW_NOTE_0
  0
BLOCK_RECORD
  5
AE
330
1
100
AcDbSymbolTableRecord
100
AcDbBlockTableRecord
  2
SW_NOTE_1
  0
BLOCK_RECORD
  5
C2
330
1
100
AcDbSymbolTableRecord
100
AcDbBlockTableRecord
  2
SW_NOTE_2
  0
ENDTAB
  0
ENDSEC
  0
SECTION
  2
BLOCKS
  0
BLOCK
  5
20
330
1F
100
AcDbEntity
  8
0
100
AcDbBlockBegin
  2
*MODEL_SPACE
 70
     0
 10
0.0
 20
0.0
 30
0.0
  3
*MODEL_SPACE
  1

  0
ENDBLK
  5
21
330
1F
100
AcDbEntity
  8
0
100
AcDbBlockEnd
  0
BLOCK
  5
1C
330
1B
100
AcDbEntity
 67
     1
  8
0
100
AcDbBlockBegin
  2
*PAPER_SPACE
 70
     0
 10
0.0
 20
0.0
 30
0.0
  3
*PAPER_SPACE
  1

  0
ENDBLK
  5
1D
330
1B
100
AcDbEntity
 67
     1
  8
0
100
AcDbBlockEnd
  0
BLOCK
  5
A9
330
A8
100
AcDbEntity
  8
0
100
AcDbBlockBegin
  2
SW_NOTE_0
 70
     0
 10
0.0
 20
0.0
 30
0.0
  3
SW_NOTE_0
  1

  0
MTEXT
  5
AB
330
A8
100
AcDbEntity
  8
0
  6
CONTINUOUS
 62
     0
100
AcDbMText
 10
0.0
 20
0.0773440644
 30
0.0
 40
0.06
 41
0.0
 71
     1
 72
     1
  1
INTERPRET GEOMETRIC
  7
SLDTEXTSTYLE0
  0
MTEXT
  5
AC
330
A8
100
AcDbEntity
  8
0
  6
CONTINUOUS
 62
     0
100
AcDbMText
 10
0.0
 20
-0.0220260102
 30
0.0
 40
0.06
 41
0.0
 71
     1
 72
     1
  1
TOLERANCING PER:
  7
SLDTEXTSTYLE0
  0
ENDBLK
  5
AA
330
A8
100
AcDbEntity
  8
0
100
AcDbBlockEnd
  0
BLOCK
  5
AF
330
AE
100
AcDbEntity
  8
0
100
AcDbBlockBegin
  2
SW_NOTE_1
 70
     0
 10
0.0
 20
0.0
 30
0.0
  3
SW_NOTE_1
  1

  0
MTEXT
  5
B1
330
AE
100
AcDbEntity
  8
0
  6
CONTINUOUS
 62
     0
100
AcDbMText
 10
0.0
 20
0.0837894031
 30
0.0
 40
0.065
 41
0.0
 71
     1
 72
     1
  1
DIMENSIONS ARE IN INCHES
  7
SLDTEXTSTYLE0
  0
MTEXT
  5
B2
330
AE
100
AcDbEntity
  8
0
  6
CONTINUOUS
 62
     0
100
AcDbMText
 10
0.0
 20
-0.0205806729
 30
0.0
 40
0.065
 41
0.0
 71
     1
 72
     1
  1
TOLERANCES:
  7
SLDTEXTSTYLE0
  0
MTEXT
  5
B3
330
AE
100
AcDbEntity
  8
0
  6
CONTINUOUS
 62
     0
100
AcDbMText
 10
0.0
 20
-0.1249507489
 30
0.0
 40
0.065
 41
0.0
 71
     1
 72
     1
  1
FRACTIONAL
  7
SLDTEXTSTYLE0
  0
MTEXT
  5
B4
330
AE
100
AcDbEntity
  8
0
  6
CONTINUOUS
 62
     0
100
AcDbMText
 10
0.5175850875
 20
-0.1249507489
 30
0.0
 40
0.065
 41
0.0
 71
     1
 72
     1
  1
%%p
  7
SLDTEXTSTYLE0
  0
MTEXT
  5
B5
330
AE
100
AcDbEntity
  8
0
  6
CONTINUOUS
 62
     0
100
AcDbMText
 10
0.0
 20
-0.2293208248
 30
0.0
 40
0.065
 41
0.0
 71
     1
 72
     1
  1
ANGULAR: MACH
  7
SLDTEXTSTYLE0
  0
MTEXT
  5
B6
330
AE
100
AcDbEntity
  8
0
  6
CONTINUOUS
 62
     0
100
AcDbMText
 10
0.7233732769
 20
-0.2293208248
 30
0.0
 40
0.065
 41
0.0
 71
     1
 72
     1
  1
%%p
  7
SLDTEXTSTYLE0
  0
MTEXT
  5
B7
330
AE
100
AcDbEntity
  8
0
  6
CONTINUOUS
 62
     0
100
AcDbMText
 10
0.7852857683
 20
-0.2293208248
 30
0.0
 40
0.065
 41
0.0
 71
     1
 72
     1
  1
     BEND 
  7
SLDTEXTSTYLE0
  0
MTEXT
  5
B8
330
AE
100
AcDbEntity
  8
0
  6
CONTINUOUS
 62
     0
100
AcDbMText
 10
1.14784136
 20
-0.2293208248
 30
0.0
 40
0.065
 41
0.0
 71
     1
 72
     1
  1
%%p
  7
SLDTEXTSTYLE0
  0
MTEXT
  5
B9
330
AE
100
AcDbEntity
  8
0
  6
CONTINUOUS
 62
     0
100
AcDbMText
 10
0.0
 20
-0.3336909008
 30
0.0
 40
0.065
 41
0.0
 71
     1
 72
     1
  1
TWO PLACE DECIMAL    
  7
SLDTEXTSTYLE0
  0
MTEXT
  5
BA
330
AE
100
AcDbEntity
  8
0
  6
CONTINUOUS
 62
     0
100
AcDbMText
 10
0.9794349188
 20
-0.3336909008
 30
0.0
 40
0.065
 41
0.0
 71
     1
 72
     1
  1
%%p
  7
SLDTEXTSTYLE0
  0
MTEXT
  5
BB
330
AE
100
AcDbEntity
  8
0
  6
CONTINUOUS
 62
     0
100
AcDbMText
 10
0.0
 20
-0.4380609768
 30
0.0
 40
0.065
 41
0.0
 71
     1
 72
     1
  1
THREE PLACE DECIMAL  
  7
SLDTEXTSTYLE0
  0
MTEXT
  5
BC
330
AE
100
AcDbEntity
  8
0
  6
CONTINUOUS
 62
     0
100
AcDbMText
 10
0.9738038639
 20
-0.4380609768
 30
0.0
 40
0.065
 41
0.0
 71
     1
 72
     1
  1
%%p
  7
SLDTEXTSTYLE0
  0
ENDBLK
  5
B0
330
AE
100
AcDbEntity
  8
0
100
AcDbBlockEnd
  0
BLOCK
  5
C3
330
C2
100
AcDbEntity
  8
0
100
AcDbBlockBegin
  2
SW_NOTE_2
 70
     0
 10
0.0
 20
0.0
 30
0.0
  3
SW_NOTE_2
  1

  0
MTEXT
  5
C5
330
C2
100
AcDbEntity
  8
0
  6
CONTINUOUS
 62
     0
100
AcDbMText
 10
0.0
 20
0.0773440644
 30
0.0
 40
0.06
 41
0.0
 71
     1
 72
     1
  1
THE INFORMATION CONTAINED IN THIS
  7
SLDTEXTSTYLE0
  0
MTEXT
  5
C6
330
C2
100
AcDbEntity
  8
0
  6
CONTINUOUS
 62
     0
100
AcDbMText
 10
0.0
 20
-0.0220260102
 30
0.0
 40
0.06
 41
0.0
 71
     1
 72
     1
  1
DRAWING IS THE SOLE PROPERTY OF
  7
SLDTEXTSTYLE0
  0
MTEXT
  5
C7
330
C2
100
AcDbEntity
  8
0
  6
CONTINUOUS
 62
     0
100
AcDbMText
 10
0.0
 20
-0.1213960848
 30
0.0
 40
0.06
 41
0.0
 71
     1
 72
     1
  1
Candy Controls.  ANY 
  7
SLDTEXTSTYLE0
  0
MTEXT
  5
C8
330
C2
100
AcDbEntity
  8
0
  6
CONTINUOUS
 62
     0
100
AcDbMText
 10
0.0
 20
-0.2207661593
 30
0.0
 40
0.06
 41
0.0
 71
     1
 72
     1
  1
REPRODUCTION IN PART OR AS A WHOLE
  7
SLDTEXTSTYLE0
  0
MTEXT
  5
C9
330
C2
100
AcDbEntity
  8
0
  6
CONTINUOUS
 62
     0
100
AcDbMText
 10
0.0
 20
-0.3201362339
 30
0.0
 40
0.06
 41
0.0
 71
     1
 72
     1
  1
WITHOUT THE WRITTEN PERMISSION OF
  7
SLDTEXTSTYLE0
  0
MTEXT
  5
CA
330
C2
100
AcDbEntity
  8
0
  6
CONTINUOUS
 62
     0
100
AcDbMText
 10
0.0
 20
-0.4195063085
 30
0.0
 40
0.06
 41
0.0
 71
     1
 72
     1
  1
Candy Controls IS 
  7
SLDTEXTSTYLE0
  0
MTEXT
  5
CB
330
C2
100
AcDbEntity
  8
0
  6
CONTINUOUS
 62
     0
100
AcDbMText
 10
0.0
 20
-0.518876383
 30
0.0
 40
0.06
 41
0.0
 71
     1
 72
     1
  1
PROHIBITED.
  7
SLDTEXTSTYLE0
  0
ENDBLK
  5
C4
330
C2
100
AcDbEntity
  8
0
100
AcDbBlockEnd
  0
ENDSEC
  0
SECTION
  2
ENTITIES
  0
LINE
  5
41
330
1F
100
AcDbEntity
  8
0
  6
CONTINUOUS
 62
     7
100
AcDbLine
 10
0.329927
 20
8.1920731707
 30
0.0
 11
10.629927
 21
8.1920731707
 31
0.0
  0
LINE
  5
42
330
1F
100
AcDbEntity
  8
0
  6
CONTINUOUS
 62
     7
100
AcDbLine
 10
0.329927
 20
8.1920731707
 30
0.0
 11
0.329927
 21
0.3920731707
 31
0.0
  0
LINE
  5
43
330
1F
100
AcDbEntity
  8
0
  6
CONTINUOUS
 62
     7
100
AcDbLine
 10
10.629927
 20
0.3920731707
 30
0.0
 11
0.329927
 21
0.3920731707
 31
0.0
  0
LINE
  5
44
330
1F
100
AcDbEntity
  8
0
  6
CONTINUOUS
 62
     7
100
AcDbLine
 10
10.629927
 20
0.3920731707
 30
0.0
 11
10.629927
 21
8.1920731707
 31
0.0
  0
LINE
  5
45
330
1F
100
AcDbEntity
  8
0
  6
CONTINUOUS
 62
     7
100
AcDbLine
 10
4.7981841288
 20
0.3920731707
 30
0.0
 11
4.7981841288
 21
2.3564211366
 31
0.0
  0
LINE
  5
46
330
1F
100
AcDbEntity
  8
0
  6
CONTINUOUS
 62
     7
100
AcDbLine
 10
2.8210345579
 20
2.3564211366
 30
0.0
 11
10.629927
 21
2.3564211366
 31
0.0
  0
LINE
  5
47
330
1F
100
AcDbEntity
  8
0
  6
CONTINUOUS
 62
     7
100
AcDbLine
 10
6.1796352514
 20
2.3564211366
 30
0.0
 11
6.1796352514
 21
0.3920731707
 31
0.0
  0
LINE
  5
48
330
1F
100
AcDbEntity
  8
0
  6
CONTINUOUS
 62
     7
100
AcDbLine
 10
7.8712070044
 20
2.3564211366
 30
0.0
 11
7.8712070044
 21
0.3920731707
 31
0.0
  0
LINE
  5
49
330
1F
100
AcDbEntity
  8
0
  6
CONTINUOUS
 62
     7
100
AcDbLine
 10
7.8712070044
 20
0.6049590101
 30
0.0
 11
10.629927
 21
0.6049590101
 31
0.0
  0
LINE
  5
4A
330
1F
100
AcDbEntity
  8
0
  6
CONTINUOUS
 62
     7
100
AcDbLine
 10
7.8712070044
 20
1.1119362457
 30
0.0
 11
10.629927
 21
1.1119362457
 31
0.0
  0
LINE
  5
4B
330
1F
100
AcDbEntity
  8
0
  6
CONTINUOUS
 62
     7
100
AcDbLine
 10
7.8712070044
 20
1.9892703708
 30
0.0
 11
10.629927
 21
1.9892703708
 31
0.0
  0
LINE
  5
4C
330
1F
100
AcDbEntity
  8
0
  6
CONTINUOUS
 62
     7
100
AcDbLine
 10
8.266751752
 20
1.1119362457
 30
0.0
 11
8.266751752
 21
0.6049590101
 31
0.0
  0
LINE
  5
4D
330
1F
100
AcDbEntity
  8
0
  6
CONTINUOUS
 62
     7
100
AcDbLine
 10
8.6943435176
 20
0.6049590101
 30
0.0
 11
8.6943435176
 21
0.3920731707
 31
0.0
  0
LINE
  5
4E
330
1F
100
AcDbEntity
  8
0
  6
CONTINUOUS
 62
     7
100
AcDbLine
 10
10.0579917045
 20
1.1119362457
 30
0.0
 11
10.0579917045
 21
0.6049590101
 31
0.0
  0
LINE
  5
4F
330
1F
100
AcDbEntity
  8
0
  6
CONTINUOUS
 62
     7
100
AcDbLine
 10
9.6662556631
 20
0.6049590101
 30
0.0
 11
9.6662556631
 21
0.3920731707
 31
0.0
  0
LINE
  5
50
330
1F
100
AcDbEntity
  8
0
  6
CONTINUOUS
 62
     7
100
AcDbLine
 10
2.8210345579
 20
0.5883479999
 30
0.0
 11
6.1796352514
 21
0.5883479999
 31
0.0
  0
LINE
  5
51
330
1F
100
AcDbEntity
  8
0
  6
CONTINUOUS
 62
     7
100
AcDbLine
 10
6.1796352514
 20
1.7939211366
 30
0.0
 11
7.8712070044
 21
1.7939211366
 31
0.0
  0
LINE
  5
52
330
1F
100
AcDbEntity
  8
0
  6
CONTINUOUS
 62
     7
100
AcDbLine
 10
6.1796352514
 20
1.9814211366
 30
0.0
 11
7.8712070044
 21
1.9814211366
 31
0.0
  0
LINE
  5
53
330
1F
100
AcDbEntity
  8
0
  6
CONTINUOUS
 62
     7
100
AcDbLine
 10
6.1796352514
 20
2.1689211366
 30
0.0
 11
7.8712070044
 21
2.1689211366
 31
0.0
  0
LINE
  5
54
330
1F
100
AcDbEntity
  8
0
  6
CONTINUOUS
 62
     7
100
AcDbLine
 10
7.8712070044
 20
1.2314211366
 30
0.0
 11
6.1796352514
 21
1.2314211366
 31
0.0
  0
LINE
  5
55
330
1F
100
AcDbEntity
  8
0
  6
CONTINUOUS
 62
     7
100
AcDbLine
 10
7.3921580388
 20
2.3564211366
 30
0.0
 11
7.3921580388
 21
1.2314211366
 31
0.0
  0
LINE
  5
56
330
1F
100
AcDbEntity
  8
0
  6
CONTINUOUS
 62
     7
100
AcDbLine
 10
6.9236308342
 20
2.3564211366
 30
0.0
 11
6.9236308342
 21
1.2314211366
 31
0.0
  0
LINE
  5
57
330
1F
100
AcDbEntity
  8
0
  6
CONTINUOUS
 62
     7
100
AcDbLine
 10
4.7981841288
 20
0.8557965305
 30
0.0
 11
6.1796352514
 21
0.8557965305
 31
0.0
  0
LINE
  5
58
330
1F
100
AcDbEntity
  8
0
  6
CONTINUOUS
 62
     7
100
AcDbLine
 10
4.7981841288
 20
1.1257965305
 30
0.0
 11
6.1796352514
 21
1.1257965305
 31
0.0
  0
LINE
  5
59
330
1F
100
AcDbEntity
  8
0
  6
CONTINUOUS
 62
     7
100
AcDbLine
 10
2.8210345579
 20
0.3920731707
 30
0.0
 11
2.8210345579
 21
2.3564211366
 31
0.0
  0
LINE
  5
5A
330
1F
100
AcDbEntity
  8
0
  6
CONTINUOUS
 62
     7
100
AcDbLine
 10
2.8210345579
 20
1.1064211366
 30
0.0
 11
4.7981841288
 21
1.1064211366
 31
0.0
  0
LINE
  5
5B
330
1F
100
AcDbEntity
  8
0
  6
CONTINUOUS
 62
     7
100
AcDbLine
 10
2.8210345579
 20
1.3564211366
 30
0.0
 11
4.7981841288
 21
1.3564211366
 31
0.0
  0
LINE
  5
5C
330
1F
100
AcDbEntity
  8
0
  6
CONTINUOUS
 62
     7
100
AcDbLine
 10
2.8210345579
 20
1.6064211366
 30
0.0
 11
4.7981841288
 21
1.6064211366
 31
0.0
  0
LINE
  5
5D
330
1F
100
AcDbEntity
  8
0
  6
CONTINUOUS
 62
     7
100
AcDbLine
 10
2.8210345579
 20
1.8564211366
 30
0.0
 11
4.7981841288
 21
1.8564211366
 31
0.0
  0
LINE
  5
5E
330
1F
100
AcDbEntity
  8
0
  6
CONTINUOUS
 62
     7
100
AcDbLine
 10
3.8190146875
 20
2.3564211366
 30
0.0
 11
3.8190146875
 21
0.5883479999
 31
0.0
  0
LINE
  5
5F
330
1F
100
AcDbEntity
  8
0
  6
CONTINUOUS
 62
     7
100
AcDbLine
 10
6.1796352514
 20
2.2020813496
 30
0.0
 11
4.7981841288
 21
2.2020813496
 31
0.0
  0
LINE
  5
60
330
1F
100
AcDbEntity
  8
0
  6
CONTINUOUS
 62
     7
100
AcDbLine
 10
7.8712070044
 20
1.6064211366
 30
0.0
 11
6.1796352514
 21
1.6064211366
 31
0.0
  0
LINE
  5
61
330
1F
100
AcDbEntity
  8
0
  6
CONTINUOUS
 62
     7
100
AcDbLine
 10
7.8712070044
 20
1.4189211366
 30
0.0
 11
6.1796352514
 21
1.4189211366
 31
0.0
  0
LINE
  5
62
330
1F
100
AcDbEntity
  8
0
  6
CONTINUOUS
 62
     7
100
AcDbLine
 10
2.8210345579
 20
2.1064211366
 30
0.0
 11
4.7981841288
 21
2.1064211366
 31
0.0
  0
LINE
  5
63
330
1F
100
AcDbEntity
  8
0
  6
CONTINUOUS
 62
     7
100
AcDbLine
 10
4.7981841288
 20
1.3957965305
 30
0.0
 11
6.1796352514
 21
1.3957965305
 31
0.0
  0
LINE
  5
64
330
1F
100
AcDbEntity
  8
0
  6
CONTINUOUS
 62
     7
100
AcDbLine
 10
2.8210345579
 20
0.8564211366
 30
0.0
 11
4.7981841288
 21
0.8564211366
 31
0.0
  0
LINE
  5
65
330
1F
100
AcDbEntity
  8
0
  6
CONTINUOUS
 62
     7
100
AcDbLine
 10
1.1838252943
 20
0.3920731707
 30
0.0
 11
1.1838252943
 21
1.3064211366
 31
0.0
  0
LINE
  5
66
330
1F
100
AcDbEntity
  8
0
  6
CONTINUOUS
 62
     7
100
AcDbLine
 10
2.8210345579
 20
1.3064211366
 30
0.0
 11
1.1838252943
 21
1.3064211366
 31
0.0
  0
LINE
  5
67
330
1F
100
AcDbEntity
  8
0
  6
CONTINUOUS
 62
     7
100
AcDbLine
 10
8.660927
 20
0.3920731707
 30
0.0
 11
8.660927
 21
0.3072739649
 31
0.0
  0
LINE
  5
68
330
1F
100
AcDbEntity
  8
0
  6
CONTINUOUS
 62
     7
100
AcDbLine
 10
6.692177
 20
0.3920731707
 30
0.0
 11
6.692177
 21
0.3072739649
 31
0.0
  0
LINE
  5
69
330
1F
100
AcDbEntity
  8
0
  6
CONTINUOUS
 62
     7
100
AcDbLine
 10
4.723427
 20
0.3920731707
 30
0.0
 11
4.723427
 21
0.3072739649
 31
0.0
  0
LINE
  5
6A
330
1F
100
AcDbEntity
  8
0
  6
CONTINUOUS
 62
     7
100
AcDbLine
 10
2.754677
 20
0.3920731707
 30
0.0
 11
2.754677
 21
0.3072739649
 31
0.0
  0
LINE
  5
6B
330
1F
100
AcDbEntity
  8
0
  6
CONTINUOUS
 62
     7
100
AcDbLine
 10
2.754677
 20
0.3920731707
 30
0.0
 11
2.7672319738
 21
0.3575
 31
0.0
  0
LINE
  5
6C
330
1F
100
AcDbEntity
  8
0
  6
CONTINUOUS
 62
     7
100
AcDbLine
 10
2.7672319738
 20
0.3575
 30
0.0
 11
2.7414258825
 21
0.3575
 31
0.0
  0
LINE
  5
6D
330
1F
100
AcDbEntity
  8
0
  6
CONTINUOUS
 62
     7
100
AcDbLine
 10
2.7414258825
 20
0.3575
 30
0.0
 11
2.754677
 21
0.3920731707
 31
0.0
  0
MTEXT
  5
91
330
1F
100
AcDbEntity
  8
0
  6
CONTINUOUS
 62
     7
100
AcDbMText
 10
4.9775846961
 20
0.5178452352
 30
0.0
 40
0.0625
 41
0.0
 71
     1
 72
     1
  1
DO NOT SCALE DRAWING
  7
SLDTEXTSTYLE0
  0
MTEXT
  5
92
330
1F
100
AcDbEntity
  8
0
  6
CONTINUOUS
 62
     7
100
AcDbMText
 10
8.8602108986
 20
0.9417064595
 30
0.0
 40
0.125
 41
0.0
 71
     1
 72
     1
  1
CL12-25
  7
SLDTEXTSTYLE0
  0
MTEXT
  5
94
330
1F
100
AcDbEntity
  8
0
  6
CONTINUOUS
 62
     7
100
AcDbMText
 10
9.7571278483
 20
0.5524239532
 30
0.0
 40
0.1
 41
0.0
 71
     1
 72
     1
  1
SHEET 1 OF 1
  7
SLDTEXTSTYLE1
  0
MTEXT
  5
95
330
1F
100
AcDbEntity
  8
0
  6
CONTINUOUS
 62
     7
100
AcDbMText
 10
4.8448077858
 20
2.3132954224
 30
0.0
 40
0.07
 41
0.0
 71
     1
 72
     1
  1
UNLESS OTHERWISE SPECIFIED:
  7
SLDTEXTSTYLE0
  0
MTEXT
  5
96
330
1F
100
AcDbEntity
  8
0
  6
CONTINUOUS
 62
     7
100
AcDbMText
 10
7.9586139647
 20
0.5520987879
 30
0.0
 40
0.1
 41
0.0
 71
     1
 72
     1
  1
SCALE: 1:1
  7
SLDTEXTSTYLE0
  0
MTEXT
  5
97
330
1F
100
AcDbEntity
  8
0
  6
CONTINUOUS
 62
     7
100
AcDbMText
 10
8.7023691647
 20
0.5486763345
 30
0.0
 40
0.1
 41
0.0
 71
     1
 72
     1
  1
WEIGHT: 
  7
SLDTEXTSTYLE0
  0
MTEXT
  5
98
330
1F
100
AcDbEntity
  8
0
  6
CONTINUOUS
 62
     7
100
AcDbMText
 10
10.2277580983
 20
1.081966299
 30
0.0
 40
0.1
 41
0.0
 71
     1
 72
     1
  1
REV
  7
SLDTEXTSTYLE0
  0
MTEXT
  5
9A
330
1F
100
AcDbEntity
  8
0
  6
CONTINUOUS
 62
     7
100
AcDbMText
 10
8.2984570898
 20
1.0858725293
 30
0.0
 40
0.1
 41
0.0
 71
     1
 72
     1
  1
DWG.  NO.
  7
SLDTEXTSTYLE2
  0
MTEXT
  5
9B
330
1F
100
AcDbEntity
  8
0
  6
CONTINUOUS
 62
     7
100
AcDbMText
 10
7.9598482632
 20
0.9442140768
 30
0.0
 40
0.25
 41
0.0
 71
     1
 72
     1
  1
A
  7
SLDTEXTSTYLE0
  0
MTEXT
  5
9C
330
1F
100
AcDbEntity
  8
0
  6
CONTINUOUS
 62
     7
100
AcDbMText
 10
7.9519581822
 20
1.0872713483
 30
0.0
 40
0.1
 41
0.0
 71
     1
 72
     1
  1
SIZE
  7
SLDTEXTSTYLE0
  0
MTEXT
  5
9D
330
1F
100
AcDbEntity
  8
0
  6
CONTINUOUS
 62
     7
100
AcDbMText
 10
7.9170704177
 20
1.9547881128
 30
0.0
 40
0.1
 41
0.0
 71
     1
 72
     1
  1
TITLE:
  7
SLDTEXTSTYLE0
  0
MTEXT
  5
9E
330
1F
100
AcDbEntity
  8
0
  6
CONTINUOUS
 62
     7
100
AcDbMText
 10
7.0363774929
 20
2.2906161274
 30
0.0
 40
0.065
 41
0.0
 71
     1
 72
     1
  1
NAME
  7
SLDTEXTSTYLE0
  0
MTEXT
  5
9F
330
1F
100
AcDbEntity
  8
0
  6
CONTINUOUS
 62
     7
100
AcDbMText
 10
7.5281510634
 20
2.2888799118
 30
0.0
 40
0.065
 41
0.0
 71
     1
 72
     1
  1
DATE
  7
SLDTEXTSTYLE0
  0
MTEXT
  5
A0
330
1F
100
AcDbEntity
  8
0
  6
CONTINUOUS
 62
     7
100
AcDbMText
 10
6.2277147029
 20
1.1876913145
 30
0.0
 40
0.065
 41
0.0
 71
     1
 72
     1
  1
COMMENTS:
  7
SLDTEXTSTYLE0
  0
MTEXT
  5
A1
330
1F
100
AcDbEntity
  8
0
  6
CONTINUOUS
 62
     7
100
AcDbMText
 10
6.2268411461
 20
1.3536101679
 30
0.0
 40
0.065
 41
0.0
 71
     1
 72
     1
  1
Q.A.
  7
SLDTEXTSTYLE0
  0
MTEXT
  5
A2
330
1F
100
AcDbEntity
  8
0
  6
CONTINUOUS
 62
     7
100
AcDbMText
 10
6.2284654509
 20
1.5395328424
 30
0.0
 40
0.065
 41
0.0
 71
     1
 72
     1
  1
MFG APPR.
  7
SLDTEXTSTYLE0
  0
MTEXT
  5
A3
330
1F
100
AcDbEntity
  8
0
  6
CONTINUOUS
 62
     7
100
AcDbMText
 10
6.2235171344
 20
1.7267501785
 30
0.0
 40
0.065
 41
0.0
 71
     1
 72
     1
  1
ENG APPR.
  7
SLDTEXTSTYLE0
  0
MTEXT
  5
A4
330
1F
100
AcDbEntity
  8
0
  6
CONTINUOUS
 62
     7
100
AcDbMText
 10
6.2264103951
 20
1.9092699088
 30
0.0
 40
0.065
 41
0.0
 71
     1
 72
     1
  1
CHECKED
  7
SLDTEXTSTYLE0
  0
MTEXT
  5
A5
330
1F
100
AcDbEntity
  8
0
  6
CONTINUOUS
 62
     7
100
AcDbMText
 10
6.2242794356
 20
2.1016301232
 30
0.0
 40
0.065
 41
0.0
 71
     1
 72
     1
  1
DRAWN
  7
SLDTEXTSTYLE0
  0
MTEXT
  5
A6
330
1F
100
AcDbEntity
  8
0
  6
CONTINUOUS
 62
     7
100
AcDbMText
 10
4.8208600979
 20
0.834523235
 30
0.0
 40
0.06
 41
0.0
 71
     1
 72
     1
  1
FINISH
  7
SLDTEXTSTYLE0
  0
MTEXT
  5
A7
330
1F
100
AcDbEntity
  8
0
  6
CONTINUOUS
 62
     7
100
AcDbMText
 10
4.8181240648
 20
1.1028217587
 30
0.0
 40
0.06
 41
0.0
 71
     1
 72
     1
  1
MATERIAL
  7
SLDTEXTSTYLE0
  0
INSERT
  5
AD
330
1F
100
AcDbEntity
  8
0
  6
CONTINUOUS
 62
     7
100
AcDbBlockReference
  2
SW_NOTE_0
 10
4.8231926633
 20
1.2646542947
 30
0.0
  0
INSERT
  5
BD
330
1F
100
AcDbEntity
  8
0
  6
CONTINUOUS
 62
     7
100
AcDbBlockReference
  2
SW_NOTE_1
 10
4.8353339353
 20
2.0049168724
 30
0.0
  0
MTEXT
  5
BE
330
1F
100
AcDbEntity
  8
0
  6
CONTINUOUS
 62
     7
100
AcDbMText
 10
3.5531400086
 20
0.5200091997
 30
0.0
 40
0.0625
 41
0.0
 71
     1
 72
     1
  1
APPLICATION
  7
SLDTEXTSTYLE0
  0
MTEXT
  5
BF
330
1F
100
AcDbEntity
  8
0
  6
CONTINUOUS
 62
     7
100
AcDbMText
 10
4.1005607758
 20
0.7502454275
 30
0.0
 40
0.0625
 41
0.0
 71
     1
 72
     1
  1
USED ON
  7
SLDTEXTSTYLE0
  0
MTEXT
  5
C0
330
1F
100
AcDbEntity
  8
0
  6
CONTINUOUS
 62
     7
100
AcDbMText
 10
3.1040019536
 20
0.7492094783
 30
0.0
 40
0.0625
 41
0.0
 71
     1
 72
     1
  1
NEXT ASSY
  7
SLDTEXTSTYLE0
  0
MTEXT
  5
C1
330
1F
100
AcDbEntity
  8
0
  6
CONTINUOUS
 62
     7
100
AcDbMText
 10
1.3712489489
 20
1.2496672684
 30
0.0
 40
0.06
 41
0.0
 71
     1
 72
     1
  1
PROPRIETARY AND CONFIDENTIAL
  7
SLDTEXTSTYLE0
  0
INSERT
  5
CC
330
1F
100
AcDbEntity
  8
0
  6
CONTINUOUS
 62
     7
100
AcDbBlockReference
  2
SW_NOTE_2
 10
1.2226209074
 20
1.0313492921
 30
0.0
  0
MTEXT
  5
CD
330
1F
100
AcDbEntity
  8
0
  6
CONTINUOUS
 62
     7
100
AcDbMText
 10
1.7387909509
 20
0.3105864247
 30
0.0
 40
0.09375
 41
0.0
 71
     1
 72
     1
  1
5
  7
SLDTEXTSTYLE0
  0
MTEXT
  5
CE
330
1F
100
AcDbEntity
  8
0
  6
CONTINUOUS
 62
     7
100
AcDbMText
 10
3.723800327
 20
0.3137237518
 30
0.0
 40
0.09375
 41
0.0
 71
     1
 72
     1
  1
4
  7
SLDTEXTSTYLE0
  0
MTEXT
  5
CF
330
1F
100
AcDbEntity
  8
0
  6
CONTINUOUS
 62
     7
100
AcDbMText
 10
5.6324457277
 20
0.3116191842
 30
0.0
 40
0.09375
 41
0.0
 71
     1
 72
     1
  1
3
  7
SLDTEXTSTYLE0
  0
MTEXT
  5
D0
330
1F
100
AcDbEntity
  8
0
  6
CONTINUOUS
 62
     7
100
AcDbMText
 10
7.6059721724
 20
0.3124391351
 30
0.0
 40
0.09375
 41
0.0
 71
     1
 72
     1
  1
2
  7
SLDTEXTSTYLE0
  0
MTEXT
  5
D1
330
1F
100
AcDbEntity
  8
0
  6
CONTINUOUS
 62
     7
100
AcDbMText
 10
9.6619921328
 20
0.301372012
 30
0.0
 40
0.09375
 41
0.0
 71
     1
 72
     1
  1
1
  7
SLDTEXTSTYLE0
  0
LINE
  5
D2
330
1F
100
AcDbEntity
  8
0
  6
CONTINUOUS
 62
     7
100
AcDbLine
 10
3.922204475
 20
4.1491729069
 30
0.0
 11
3.9189983081
 21
4.1523790738
 31
0.0
  0
LINE
  5
D3
330
1F
100
AcDbEntity
  8
0
  6
CONTINUOUS
 62
     7
100
AcDbLine
 10
3.8208880719
 20
4.1523790738
 30
0.0
 11
3.8176818046
 21
4.1491728065
 31
0.0
  0
LINE
  5
D4
330
1F
100
AcDbEntity
  8
0
  6
CONTINUOUS
 62
     7
100
AcDbLine
 10
2.8355903018
 20
4.1491729069
 30
0.0
 11
2.8323841349
 21
4.1523790738
 31
0.0
  0
LINE
  5
D5
330
1F
100
AcDbEntity
  8
0
  6
CONTINUOUS
 62
     7
100
AcDbLine
 10
2.7342738987
 20
4.1523790738
 30
0.0
 11
2.7310676313
 21
4.1491728065
 31
0.0
  0
LINE
  5
D6
330
1F
100
AcDbEntity
  8
0
  6
CONTINUOUS
 62
     7
100
AcDbLine
 10
2.6723447648
 20
4.1523790738
 30
0.0
 11
2.6573447648
 21
4.1373790738
 31
0.0
  0
LINE
  5
D7
330
1F
100
AcDbEntity
  8
0
  6
CONTINUOUS
 62
     7
100
AcDbLine
 10
2.6573447648
 20
3.379977499
 30
0.0
 11
2.6723447648
 21
3.364977499
 31
0.0
  0
LINE
  5
D8
330
1F
100
AcDbEntity
  8
0
  6
CONTINUOUS
 62
     7
100
AcDbLine
 10
2.9580526702
 20
3.364977499
 30
0.0
 11
3.0156124813
 21
3.364977499
 31
0.0
  0
LINE
  5
D9
330
1F
100
AcDbEntity
  8
0
  6
CONTINUOUS
 62
     7
100
AcDbLine
 10
2.6723447648
 20
3.364977499
 30
0.0
 11
2.893786981
 21
3.364977499
 31
0.0
  0
LINE
  5
DA
330
1F
100
AcDbEntity
  8
0
  6
CONTINUOUS
 62
     7
100
AcDbLine
 10
2.7117911363
 20
4.1523790738
 30
0.0
 11
2.6723447648
 21
4.1523790738
 31
0.0
  0
LINE
  5
DB
330
1F
100
AcDbEntity
  8
0
  6
CONTINUOUS
 62
     7
100
AcDbLine
 10
2.8938036648
 20
4.1523790738
 30
0.0
 11
2.8548668859
 21
4.1523790738
 31
0.0
  0
LINE
  5
DC
330
1F
100
AcDbEntity
  8
0
  6
CONTINUOUS
 62
     7
100
AcDbLine
 10
3.0156124813
 20
4.1523790738
 30
0.0
 11
2.9580526702
 21
4.1523790738
 31
0.0
  0
LINE
  5
DD
330
1F
100
AcDbEntity
  8
0
  6
CONTINUOUS
 62
     7
100
AcDbLine
 10
3.6376597254
 20
3.364977499
 30
0.0
 11
3.980927442
 21
3.364977499
 31
0.0
  0
LINE
  5
DE
330
1F
100
AcDbEntity
  8
0
  6
CONTINUOUS
 62
     7
100
AcDbLine
 10
3.7984053095
 20
4.1523790738
 30
0.0
 11
3.6376597254
 21
4.1523790738
 31
0.0
  0
LINE
  5
DF
330
1F
100
AcDbEntity
  8
0
  6
CONTINUOUS
 62
     7
100
AcDbLine
 10
3.980927442
 20
4.1523790738
 30
0.0
 11
3.9414810591
 21
4.1523790738
 31
0.0
  0
LINE
  5
E0
330
1F
100
AcDbEntity
  8
0
  6
CONTINUOUS
 62
     7
100
AcDbLine
 10
3.6376597254
 20
4.1523790738
 30
0.0
 11
3.6179746861
 21
4.1326940344
 31
0.0
  0
LINE
  5
E1
330
1F
100
AcDbEntity
  8
0
  6
CONTINUOUS
 62
     7
100
AcDbLine
 10
3.6179746861
 20
3.3846625384
 30
0.0
 11
3.6376597254
 21
3.364977499
 31
0.0
  0
LINE
  5
E2
330
1F
100
AcDbEntity
  8
0
  6
CONTINUOUS
 62
     7
100
AcDbLine
 10
3.980927442
 20
3.364977499
 30
0.0
 11
3.995927442
 21
3.379977499
 31
0.0
  0
LINE
  5
E3
330
1F
100
AcDbEntity
  8
0
  6
CONTINUOUS
 62
     7
100
AcDbLine
 10
3.995927442
 20
4.1373790738
 30
0.0
 11
3.980927442
 21
4.1523790738
 31
0.0
  0
LINE
  5
E4
330
1F
100
AcDbEntity
  8
0
  6
CONTINUOUS
 62
     7
100
AcDbLine
 10
3.0156124813
 20
3.364977499
 30
0.0
 11
3.0352975207
 21
3.3846625384
 31
0.0
  0
LINE
  5
E5
330
1F
100
AcDbEntity
  8
0
  6
CONTINUOUS
 62
     7
100
AcDbLine
 10
3.0352975207
 20
4.1326940344
 30
0.0
 11
3.0156124813
 21
4.1523790738
 31
0.0
  0
LINE
  5
E6
330
1F
100
AcDbEntity
  8
0
  6
CONTINUOUS
 62
     7
100
AcDbLine
 10
3.8208880719
 20
4.1523790738
 30
0.0
 11
3.9189983081
 21
4.1523790738
 31
0.0
  0
LINE
  5
E7
330
1F
100
AcDbEntity
  8
0
  6
CONTINUOUS
 62
     7
100
AcDbLine
 10
2.8323841349
 20
4.1523790738
 30
0.0
 11
2.7342738987
 21
4.1523790738
 31
0.0
  0
LINE
  5
E8
330
1F
100
AcDbEntity
  8
0
  6
CONTINUOUS
 62
     7
100
AcDbLine
 10
3.7734864971
 20
3.5198556763
 30
0.0
 11
3.7734864971
 21
3.4634026958
 31
0.0
  0
LINE
  5
E9
330
1F
100
AcDbEntity
  8
0
  6
CONTINUOUS
 62
     7
100
AcDbLine
 10
3.300723204
 20
3.4634026958
 30
0.0
 11
3.7734864971
 21
3.4634026958
 31
0.0
  0
SPLINE
  5
EA
330
1F
100
AcDbEntity
  8
0
  6
CONTINUOUS
 62
     7
100
AcDbSpline
210
0.0
220
0.0
230
1.0
 70
     8
 71
     3
 72
    12
 73
     8
 74
     0
 42
0.00000001
 43
0.00000001
 40
0.0
 40
0.0
 40
0.0
 40
0.0
 40
0.2499999999999992
 40
0.2499999999999992
 40
0.4999999999999984
 40
0.4999999999999984
 40
1.0
 40
1.0
 40
1.0
 40
1.0
 10
3.297108544329435
 20
3.446521367662968
 30
0.0
 10
3.297108544329435
 20
3.449226640796708
 30
0.0
 10
3.2971563206306
 20
3.451618676139673
 30
0.0
 10
3.297395068942756
 20
3.455801560316626
 30
0.0
 10
3.297589490212685
 20
3.457606970759285
 30
0.0
 10
3.298443145907799
 20
3.461929120568439
 30
0.0
 10
3.299381683777628
 20
3.463402695840866
 30
0.0
 10
3.300723204018155
 20
3.463402695840866
 30
0.0
  0
LINE
  5
EB
330
1F
100
AcDbEntity
  8
0
  6
CONTINUOUS
 62
     7
100
AcDbLine
 10
3.2971085443
 20
4.0708352051
 30
0.0
 11
3.2971085443
 21
3.4465213677
 31
0.0
  0
SPLINE
  5
EC
330
1F
100
AcDbEntity
  8
0
  6
CONTINUOUS
 62
     7
100
AcDbSpline
210
0.0
220
0.0
230
1.0
 70
     8
 71
     3
 72
    12
 73
     8
 74
     0
 42
0.00000001
 43
0.00000001
 40
0.0
 40
0.0
 40
0.0
 40
0.0
 40
0.25
 40
0.25
 40
0.5
 40
0.5
 40
1.0
 40
1.0
 40
1.0
 40
1.0
 10
3.300723204018155
 20
4.053953876943228
 30
0.0
 10
3.300052513057809
 20
4.053953876943228
 30
0.0
 10
3.299485403538867
 20
4.054318432796017
 30
0.0
 10
3.298540689261727
 20
4.055763150950684
 30
0.0
 10
3.298160478743359
 20
4.056861557260816
 30
0.0
 10
3.297305824685713
 20
4.061179992631802
 30
0.0
 10
3.297108544329435
 20
4.065424394788213
 30
0.0
 10
3.297108544329435
 20
4.070835205121123
 30
0.0
  0
LINE
  5
ED
330
1F
100
AcDbEntity
  8
0
  6
CONTINUOUS
 62
     7
100
AcDbLine
 10
3.300723204
 20
4.0539538769
 30
0.0
 11
3.7734864971
 21
4.0539538769
 31
0.0
  0
LINE
  5
EE
330
1F
100
AcDbEntity
  8
0
  6
CONTINUOUS
 62
     7
100
AcDbLine
 10
3.7734864971
 20
4.0539538769
 30
0.0
 11
3.7734864971
 21
3.9975008964
 31
0.0
  0
SPLINE
  5
EF
330
1F
100
AcDbEntity
  8
0
  6
CONTINUOUS
 62
     7
100
AcDbSpline
210
0.0
220
0.0
230
1.0
 70
     8
 71
     3
 72
    28
 73
    24
 74
     0
 42
0.00000001
 43
0.00000001
 40
0.0
 40
0.0
 40
0.0
 40
0.0
 40
0.1249999999999997
 40
0.1249999999999997
 40
0.1874999999999997
 40
0.1874999999999997
 40
0.2499999999999997
 40
0.2499999999999997
 40
0.3749999999999998
 40
0.3749999999999998
 40
0.4374999999999998
 40
0.4374999999999998
 40
0.4999999999999999
 40
0.4999999999999999
 40
0.6249999999999999
 40
0.6249999999999999
 40
0.6874999999999999
 40
0.6874999999999999
 40
0.7499999999999999
 40
0.7499999999999999
 40
0.8749999999999999
 40
0.8749999999999999
 40
1.0
 40
1.0
 40
1.0
 40
1.0
 10
3.77348649708534
 20
3.997500896444945
 30
0.0
 10
3.77348649708534
 20
3.980290685187827
 30
0.0
 10
3.772422983716414
 20
3.962274332302885
 30
0.0
 10
3.77021716435089
 20
3.93405167588252
 30
0.0
 10
3.769376191008385
 20
3.924443359376145
 30
0.0
 10
3.767614853888173
 20
3.904814124776599
 30
0.0
 10
3.766690843081223
 20
3.894752918876524
 30
0.0
 10
3.764007320122396
 20
3.864225965315362
 30
0.0
 10
3.762359653494488
 20
3.84354717643973
 30
0.0
 10
3.76062802620919
 20
3.81202144828286
 30
0.0
 10
3.760171432006802
 20
3.801427995422939
 30
0.0
 10
3.759554138518793
 20
3.780065351155601
 30
0.0
 10
3.759393878615137
 20
3.769244608307365
 30
0.0
 10
3.759400116516362
 20
3.736912915351932
 30
0.0
 10
3.760058935628099
 20
3.715642742880632
 30
0.0
 10
3.76179374267176
 20
3.684139209526459
 30
0.0
 10
3.762493272026556
 20
3.673705168220609
 30
0.0
 10
3.764059467185056
 20
3.652969528848606
 30
0.0
 10
3.764929928593462
 20
3.642626080087514
 30
0.0
 10
3.767615126906425
 20
3.612108148174658
 30
0.0
 10
3.769492944008826
 20
3.592583067425156
 30
0.0
 10
3.772423423420749
 20
3.555064532688434
 30
0.0
 10
3.773486497085341
 20
3.537071179437922
 30
0.0
 10
3.773486497085341
 20
3.51985567633915
 30
0.0
  0
SPLINE
  5
F0
330
1F
100
AcDbEntity
  8
0
  6
CONTINUOUS
 62
     7
100
AcDbSpline
210
0.0
220
0.0
230
1.0
 70
     8
 71
     3
 72
    12
 73
     8
 74
     0
 42
0.00000001
 43
0.00000001
 40
0.0
 40
0.0
 40
0.0
 40
0.0
 40
0.2500000000000008
 40
0.2500000000000008
 40
0.5000000000000017
 40
0.5000000000000017
 40
1.0
 40
1.0
 40
1.0
 40
1.0
 10
3.356163662439671
 20
4.070835205121123
 30
0.0
 10
3.356163662439671
 20
4.068120793266983
 30
0.0
 10
3.356227600470701
 20
4.065721830598478
 30
0.0
 10
3.356547506086489
 20
4.061529675183715
 30
0.0
 10
3.356808392119251
 20
4.059721841819562
 30
0.0
 10
3.357951052271114
 20
4.055409216500472
 30
0.0
 10
3.359208873543293
 20
4.053953876943228
 30
0.0
 10
3.360998752036689
 20
4.053953876943228
 30
0.0
  0
SPLINE
  5
F1
330
1F
100
AcDbEntity
  8
0
  6
CONTINUOUS
 62
     7
100
AcDbSpline
210
0.0
220
0.0
230
1.0
 70
     8
 71
     3
 72
    12
 73
     8
 74
     0
 42
0.00000001
 43
0.00000001
 40
0.0
 40
0.0
 40
0.0
 40
0.0
 40
0.2499999999999998
 40
0.2499999999999998
 40
0.4999999999999996
 40
0.4999999999999996
 40
1.0
 40
1.0
 40
1.0
 40
1.0
 10
3.360998752036689
 20
3.463402695840866
 30
0.0
 10
3.360103973442297
 20
3.463402695840866
 30
0.0
 10
3.359346288432616
 20
3.463044328521634
 30
0.0
 10
3.358082527678969
 20
3.46161113839029
 30
0.0
 10
3.357572964885503
 20
3.460517127395384
 30
0.0
 10
3.356428815991547
 20
3.456208610919262
 30
0.0
 10
3.356163662439671
 20
3.451950684043889
 30
0.0
 10
3.356163662439671
 20
3.446521367662968
 30
0.0
  0
LINE
  5
F2
330
1F
100
AcDbEntity
  8
0
  6
CONTINUOUS
 62
     7
100
AcDbLine
 10
2.6723447648
 20
4.1523790738
 30
0.0
 11
2.6723447648
 21
3.364977499
 31
0.0
  0
LINE
  5
F3
330
1F
100
AcDbEntity
  8
0
  6
CONTINUOUS
 62
     7
100
AcDbLine
 10
2.6573447648
 20
3.379977499
 30
0.0
 11
2.6573447648
 21
4.1373790738
 31
0.0
  0
LINE
  5
F4
330
1F
100
AcDbEntity
  8
0
  6
CONTINUOUS
 62
     7
100
AcDbLine
 10
2.8797857097
 20
4.01908688
 30
0.0
 11
2.9388408278
 21
4.01908688
 31
0.0
  0
ARC
  5
F5
330
1F
100
AcDbEntity
  8
0
  6
CONTINUOUS
 62
     7
100
AcDbCircle
 10
2.7833290168
 20
4.5187857312
 30
0.0
 40
0.3733249347702092
100
AcDbArc
 50
258.9524472188
 51
281.0475527812
  0
LINE
  5
F6
330
1F
100
AcDbEntity
  8
0
  6
CONTINUOUS
 62
     7
100
AcDbLine
 10
2.9388408278
 20
3.4982696928
 30
0.0
 11
2.8797857097
 21
3.4982696928
 31
0.0
  0
LINE
  5
F7
330
1F
100
AcDbEntity
  8
0
  6
CONTINUOUS
 62
     7
100
AcDbLine
 10
3.0156124813
 20
3.7586782864
 30
0.0
 11
3.0156124813
 21
4.1523790738
 31
0.0
  0
LINE
  5
F8
330
1F
100
AcDbEntity
  8
0
  6
CONTINUOUS
 62
     7
100
AcDbLine
 10
3.0156124813
 20
3.364977499
 30
0.0
 11
3.0156124813
 21
3.7586782864
 31
0.0
  0
LINE
  5
F9
330
1F
100
AcDbEntity
  8
0
  6
CONTINUOUS
 62
     7
100
AcDbLine
 10
3.980927442
 20
3.364977499
 30
0.0
 11
3.980927442
 21
4.1523790738
 31
0.0
  0
ARC
  5
FA
330
1F
100
AcDbEntity
  8
0
  6
CONTINUOUS
 62
     7
100
AcDbCircle
 10
3.86994319
 20
4.5187857312
 30
0.0
 40
0.3733249347696138
100
AcDbArc
 50
258.9524472188
 51
281.0475527812
  0
LINE
  5
FB
330
1F
100
AcDbEntity
  8
0
  6
CONTINUOUS
 62
     7
100
AcDbLine
 10
3.6376597254
 20
4.1523790738
 30
0.0
 11
3.6376597254
 21
4.0539538769
 31
0.0
  0
LINE
  5
FC
330
1F
100
AcDbEntity
  8
0
  6
CONTINUOUS
 62
     7
100
AcDbLine
 10
3.6376597254
 20
3.4634026958
 30
0.0
 11
3.6376597254
 21
3.364977499
 31
0.0
  0
LINE
  5
FD
330
1F
100
AcDbEntity
  8
0
  6
CONTINUOUS
 62
     7
100
AcDbLine
 10
3.6179746861
 20
3.3846625384
 30
0.0
 11
3.6179746861
 21
3.4634026958
 31
0.0
  0
LINE
  5
FE
330
1F
100
AcDbEntity
  8
0
  6
CONTINUOUS
 62
     7
100
AcDbLine
 10
3.6179746861
 20
4.0539538769
 30
0.0
 11
3.6179746861
 21
4.1326940344
 31
0.0
  0
LINE
  5
FF
330
1F
100
AcDbEntity
  8
0
  6
CONTINUOUS
 62
     7
100
AcDbLine
 10
3.995927442
 20
4.1373790738
 30
0.0
 11
3.995927442
 21
3.379977499
 31
0.0
  0
LINE
  5
100
330
1F
100
AcDbEntity
  8
0
  6
CONTINUOUS
 62
     7
100
AcDbLine
 10
3.0352975207
 20
3.7586782864
 30
0.0
 11
3.0352975207
 21
3.3846625384
 31
0.0
  0
LINE
  5
101
330
1F
100
AcDbEntity
  8
0
  6
CONTINUOUS
 62
     7
100
AcDbLine
 10
3.0352975207
 20
4.1326940344
 30
0.0
 11
3.0352975207
 21
3.7586782864
 31
0.0
  0
LINE
  5
102
330
1F
100
AcDbEntity
  8
0
  6
CONTINUOUS
 62
     7
100
AcDbLine
 10
3.2971085443
 20
3.4456861604
 30
0.0
 11
3.2971085443
 21
3.4465213677
 31
0.0
  0
LINE
  5
103
330
1F
100
AcDbEntity
  8
0
  6
CONTINUOUS
 62
     7
100
AcDbLine
 10
3.3561636624
 20
3.4465213677
 30
0.0
 11
3.3561636624
 21
3.4456861604
 31
0.0
  0
SPLINE
  5
104
330
1F
100
AcDbEntity
  8
0
  6
CONTINUOUS
 62
     7
100
AcDbSpline
210
0.0
220
0.0
230
1.0
 70
     8
 71
     3
 72
    12
 73
     8
 74
     0
 42
0.00000001
 43
0.00000001
 40
0.0
 40
0.0
 40
0.0
 40
0.0
 40
0.2500000000000011
 40
0.2500000000000011
 40
0.5000000000000021
 40
0.5000000000000021
 40
1.0
 40
1.0
 40
1.0
 40
1.0
 10
3.356163662439671
 20
3.445686160407796
 30
0.0
 10
3.356163662439671
 20
3.442926229770045
 30
0.0
 10
3.356115886138505
 20
3.439949079320755
 30
0.0
 10
3.355877137826349
 20
3.433579603597976
 30
0.0
 10
3.355682716556419
 20
3.430145951756752
 30
0.0
 10
3.354829060861305
 20
3.419523914313135
 30
0.0
 10
3.353890522991477
 20
3.411959986607922
 30
0.0
 10
3.352549002750949
 20
3.40434757773063
 30
0.0
  0
LINE
  5
105
330
1F
100
AcDbEntity
  8
0
  6
CONTINUOUS
 62
     7
100
AcDbLine
 10
3.3525490028
 20
3.4043475777
 30
0.0
 11
3.2922734547
 21
3.4043475777
 31
0.0
  0
SPLINE
  5
106
330
1F
100
AcDbEntity
  8
0
  6
CONTINUOUS
 62
     7
100
AcDbSpline
210
0.0
220
0.0
230
1.0
 70
     8
 71
     3
 72
    12
 73
     8
 74
     0
 42
0.00000001
 43
0.00000001
 40
0.0
 40
0.0
 40
0.0
 40
0.0
 40
0.25
 40
0.25
 40
0.5
 40
0.5
 40
1.0
 40
1.0
 40
1.0
 40
1.0
 10
3.292273454732416
 20
3.40434757773063
 30
0.0
 10
3.293168233326807
 20
3.408120295543752
 30
0.0
 10
3.293925918336488
 20
3.411859785406077
 30
0.0
 10
3.295189679090137
 20
3.419268249235549
 30
0.0
 10
3.295699241883602
 20
3.422978632367535
 30
0.0
 10
3.296843390777558
 20
3.433612750500738
 30
0.0
 10
3.297108544329435
 20
3.440147149786331
 30
0.0
 10
3.297108544329435
 20
3.445686160407796
 30
0.0
  0
LINE
  5
107
330
1F
100
AcDbEntity
  8
0
  6
CONTINUOUS
 62
     7
100
AcDbLine
 10
3.2971085443
 20
4.0708352051
 30
0.0
 11
3.2971085443
 21
4.0716704124
 31
0.0
  0
SPLINE
  5
108
330
1F
100
AcDbEntity
  8
0
  6
CONTINUOUS
 62
     7
100
AcDbSpline
210
0.0
220
0.0
230
1.0
 70
     8
 71
     3
 72
    12
 73
     8
 74
     0
 42
0.00000001
 43
0.00000001
 40
0.0
 40
0.0
 40
0.0
 40
0.0
 40
0.249999999999999
 40
0.249999999999999
 40
0.499999999999998
 40
0.499999999999998
 40
1.0
 40
1.0
 40
1.0
 40
1.0
 10
3.297108544329435
 20
4.0716704123763
 30
0.0
 10
3.297108544329435
 20
4.07443966637372
 30
0.0
 10
3.297044606298404
 20
4.077427531048021
 30
0.0
 10
3.296724700682616
 20
4.083820022328965
 30
0.0
 10
3.296463814649853
 20
4.087267715925085
 30
0.0
 10
3.295321154497991
 20
4.097900017941896
 30
0.0
 10
3.294063333225811
 20
4.105462204688025
 30
0.0
 10
3.292273454732416
 20
4.113008995053464
 30
0.0
  0
LINE
  5
109
330
1F
100
AcDbEntity
  8
0
  6
CONTINUOUS
 62
     7
100
AcDbLine
 10
3.2922734547
 20
4.1130089951
 30
0.0
 11
3.3525490028
 21
4.1130089951
 31
0.0
  0
SPLINE
  5
10A
330
1F
100
AcDbEntity
  8
0
  6
CONTINUOUS
 62
     7
100
AcDbSpline
210
0.0
220
0.0
230
1.0
 70
     8
 71
     3
 72
    12
 73
     8
 74
     0
 42
0.00000001
 43
0.00000001
 40
0.0
 40
0.0
 40
0.0
 40
0.0
 40
0.2500000000000002
 40
0.2500000000000002
 40
0.5000000000000004
 40
0.5000000000000004
 40
1.0
 40
1.0
 40
1.0
 40
1.0
 10
3.35254900275095
 20
4.113008995053464
 30
0.0
 10
3.353219693711296
 20
4.109203183060307
 30
0.0
 10
3.353786803230238
 20
4.105443809323065
 30
0.0
 10
3.354731517507378
 20
4.098018082266348
 30
0.0
 10
3.355111728025746
 20
4.09431181599704
 30
0.0
 10
3.355966382083392
 20
4.083688171662528
 30
0.0
 10
3.356163662439671
 20
4.077190543052429
 30
0.0
 10
3.356163662439671
 20
4.0716704123763
 30
0.0
  0
LINE
  5
10B
330
1F
100
AcDbEntity
  8
0
  6
CONTINUOUS
 62
     7
100
AcDbLine
 10
3.3561636624
 20
4.0716704124
 30
0.0
 11
3.3561636624
 21
4.0708352051
 31
0.0
  0
LINE
  5
10C
330
1F
100
AcDbEntity
  8
0
  6
CONTINUOUS
 62
     7
100
AcDbLine
 10
2.8797857097
 20
3.4982696928
 30
0.0
 11
2.8797857097
 21
3.4456861604
 31
0.0
  0
LINE
  5
10D
330
1F
100
AcDbEntity
  8
0
  6
CONTINUOUS
 62
     7
100
AcDbLine
 10
2.9388408278
 20
3.4982696928
 30
0.0
 11
2.9388408278
 21
3.4456861604
 31
0.0
  0
ARC
  5
10E
330
1F
100
AcDbEntity
  8
0
  6
CONTINUOUS
 62
     7
100
AcDbCircle
 10
3.1179746861
 20
3.4456861604
 30
0.0
 40
0.1791338582677168
100
AcDbArc
 50
180.0
 51
346.6576362029
  0
ARC
  5
10F
330
1F
100
AcDbEntity
  8
0
  6
CONTINUOUS
 62
     7
100
AcDbCircle
 10
3.1179746861
 20
3.4456861604
 30
0.0
 40
0.2381889763779528
100
AcDbArc
 50
180.0
 51
350.0054955261
  0
LINE
  5
110
330
1F
100
AcDbEntity
  8
0
  6
CONTINUOUS
 62
     7
100
AcDbLine
 10
2.9388408278
 20
4.0716704124
 30
0.0
 11
2.9388408278
 21
4.01908688
 31
0.0
  0
LINE
  5
111
330
1F
100
AcDbEntity
  8
0
  6
CONTINUOUS
 62
     7
100
AcDbLine
 10
2.8797857097
 20
4.0716704124
 30
0.0
 11
2.8797857097
 21
4.01908688
 31
0.0
  0
ARC
  5
112
330
1F
100
AcDbEntity
  8
0
  6
CONTINUOUS
 62
     7
100
AcDbCircle
 10
3.1179746861
 20
4.0716704124
 30
0.0
 40
0.1791338582677167
100
AcDbArc
 50
13.3423637971
 51
180.0
  0
ARC
  5
113
330
1F
100
AcDbEntity
  8
0
  6
CONTINUOUS
 62
     7
100
AcDbCircle
 10
3.1179746861
 20
4.0716704124
 30
0.0
 40
0.238188976377953
100
AcDbArc
 50
9.9945044739
 51
180.0
  0
CIRCLE
  5
114
330
1F
100
AcDbEntity
  8
0
  6
HIDDEN
 62
     7
100
AcDbCircle
 10
3.86994319
 20
3.7586782864
 30
0.0
 40
0.0490551181102368
  0
LINE
  5
115
330
1F
100
AcDbEntity
  8
0
  6
HIDDEN
 62
     7
100
AcDbLine
 10
3.9289983081
 20
3.7586782864
 30
0.0
 11
3.9289876771
 21
3.757557789
 31
0.0
  0
LINE
  5
116
330
1F
100
AcDbEntity
  8
0
  6
HIDDEN
 62
     7
100
AcDbLine
 10
3.8480014588
 20
3.8135059017
 30
0.0
 11
3.8502581506
 21
3.8143559857
 31
0.0
  0
POLYLINE
  5
117
330
1F
100
AcDbEntity
  8
0
  6
HIDDEN
 62
     7
100
AcDb2dPolyline
 66
     1
 10
0.0
 20
0.0
 30
0.0
  0
VERTEX
  5
309
330
117
100
AcDbEntity
  8
0
  6
HIDDEN
 62
     7
100
AcDbVertex
100
AcDb2dVertex
 10
3.8896282294
 20
3.8143559857
 30
0.0
  0
VERTEX
  5
30A
330
117
100
AcDbEntity
  8
0
  6
HIDDEN
 62
     7
100
AcDbVertex
100
AcDb2dVertex
 10
3.8967536526
 20
3.8112967819
 30
0.0
  0
VERTEX
  5
30B
330
117
100
AcDbEntity
  8
0
  6
HIDDEN
 62
     7
100
AcDbVertex
100
AcDb2dVertex
 10
3.899353128
 20
3.8098892474
 30
0.0
  0
SEQEND
  5
30C
330
117
100
AcDbEntity
  8
0
  6
HIDDEN
 62
     7
  0
LINE
  5
118
330
1F
100
AcDbEntity
  8
0
  6
HIDDEN
 62
     7
100
AcDbLine
 10
3.9287381326
 20
3.7642155867
 30
0.0
 11
3.9289983081
 21
3.7586782864
 31
0.0
  0
LINE
  5
119
330
1F
100
AcDbEntity
  8
0
  6
HIDDEN
 62
     7
100
AcDbLine
 10
3.8404156309
 20
3.7416305422
 30
0.0
 11
3.8404156309
 21
3.7757260306
 31
0.0
  0
LINE
  5
11A
330
1F
100
AcDbEntity
  8
0
  6
HIDDEN
 62
     7
100
AcDbLine
 10
3.8404156309
 20
3.7757260306
 30
0.0
 11
3.86994319
 21
3.7927737747
 31
0.0
  0
LINE
  5
11B
330
1F
100
AcDbEntity
  8
0
  6
HIDDEN
 62
     7
100
AcDbLine
 10
3.8994707491
 20
3.7757260306
 30
0.0
 11
3.8994707491
 21
3.7416305422
 31
0.0
  0
LINE
  5
11C
330
1F
100
AcDbEntity
  8
0
  6
HIDDEN
 62
     7
100
AcDbLine
 10
3.8994707491
 20
3.7416305422
 30
0.0
 11
3.86994319
 21
3.7245827981
 31
0.0
  0
LINE
  5
11D
330
1F
100
AcDbEntity
  8
0
  6
HIDDEN
 62
     7
100
AcDbLine
 10
3.86994319
 20
3.7245827981
 30
0.0
 11
3.8404156309
 21
3.7416305422
 31
0.0
  0
LINE
  5
11E
330
1F
100
AcDbEntity
  8
0
  6
HIDDEN
 62
     7
100
AcDbLine
 10
3.86994319
 20
3.7927737747
 30
0.0
 11
3.8994707491
 21
3.7757260306
 31
0.0
  0
CIRCLE
  5
11F
330
1F
100
AcDbEntity
  8
0
  6
HIDDEN
 62
     7
100
AcDbCircle
 10
2.7833290168
 20
3.7586782864
 30
0.0
 40
0.0490551181102368
  0
POLYLINE
  5
120
330
1F
100
AcDbEntity
  8
0
  6
HIDDEN
 62
     7
100
AcDb2dPolyline
 66
     1
 10
0.0
 20
0.0
 30
0.0
  0
VERTEX
  5
30D
330
120
100
AcDbEntity
  8
0
  6
HIDDEN
 62
     7
100
AcDbVertex
100
AcDb2dVertex
 10
2.7242738987
 20
3.7586782864
 30
0.0
  0
VERTEX
  5
30E
330
120
100
AcDbEntity
  8
0
  6
HIDDEN
 62
     7
100
AcDbVertex
100
AcDb2dVertex
 10
2.7250009652
 20
3.7494400306
 30
0.0
  0
VERTEX
  5
30F
330
120
100
AcDbEntity
  8
0
  6
HIDDEN
 62
     7
100
AcDbVertex
100
AcDb2dVertex
 10
2.7269693019
 20
3.7410405564
 30
0.0
  0
SEQEND
  5
310
330
120
100
AcDbEntity
  8
0
  6
HIDDEN
 62
     7
  0
LINE
  5
121
330
1F
100
AcDbEntity
  8
0
  6
HIDDEN
 62
     7
100
AcDbLine
 10
2.8051103932
 20
3.8135698032
 30
0.0
 11
2.8030140561
 21
3.8143559857
 31
0.0
  0
POLYLINE
  5
122
330
1F
100
AcDbEntity
  8
0
  6
HIDDEN
 62
     7
100
AcDb2dPolyline
 66
     1
 10
0.0
 20
0.0
 30
0.0
  0
VERTEX
  5
311
330
122
100
AcDbEntity
  8
0
  6
HIDDEN
 62
     7
100
AcDbVertex
100
AcDb2dVertex
 10
2.7636439774
 20
3.8143559857
 30
0.0
  0
VERTEX
  5
312
330
122
100
AcDbEntity
  8
0
  6
HIDDEN
 62
     7
100
AcDbVertex
100
AcDb2dVertex
 10
2.7565185542
 20
3.8112967819
 30
0.0
  0
VERTEX
  5
313
330
122
100
AcDbEntity
  8
0
  6
HIDDEN
 62
     7
100
AcDbVertex
100
AcDb2dVertex
 10
2.7543965656
 20
3.8101605187
 30
0.0
  0
SEQEND
  5
314
330
122
100
AcDbEntity
  8
0
  6
HIDDEN
 62
     7
  0
LINE
  5
123
330
1F
100
AcDbEntity
  8
0
  6
HIDDEN
 62
     7
100
AcDbLine
 10
2.7833290168
 20
3.7245827981
 30
0.0
 11
2.8128565758
 21
3.7416305422
 31
0.0
  0
LINE
  5
124
330
1F
100
AcDbEntity
  8
0
  6
HIDDEN
 62
     7
100
AcDbLine
 10
2.7538014577
 20
3.7416305422
 30
0.0
 11
2.7833290168
 21
3.7245827981
 31
0.0
  0
LINE
  5
125
330
1F
100
AcDbEntity
  8
0
  6
HIDDEN
 62
     7
100
AcDbLine
 10
2.7833290168
 20
3.7927737747
 30
0.0
 11
2.7538014577
 21
3.7757260306
 31
0.0
  0
LINE
  5
126
330
1F
100
AcDbEntity
  8
0
  6
HIDDEN
 62
     7
100
AcDbLine
 10
2.7538014577
 20
3.7757260306
 30
0.0
 11
2.7538014577
 21
3.7416305422
 31
0.0
  0
LINE
  5
127
330
1F
100
AcDbEntity
  8
0
  6
HIDDEN
 62
     7
100
AcDbLine
 10
2.8128565758
 20
3.7757260306
 30
0.0
 11
2.7833290168
 21
3.7927737747
 31
0.0
  0
LINE
  5
128
330
1F
100
AcDbEntity
  8
0
  6
HIDDEN
 62
     7
100
AcDbLine
 10
2.8128565758
 20
3.7416305422
 30
0.0
 11
2.8128565758
 21
3.7757260306
 31
0.0
  0
LINE
  5
129
330
1F
100
AcDbEntity
  8
0
  6
HIDDEN
 62
     7
100
AcDbLine
 10
3.9289983081
 20
4.1423790738
 30
0.0
 11
3.8108880719
 21
4.1423790738
 31
0.0
  0
LINE
  5
12A
330
1F
100
AcDbEntity
  8
0
  6
HIDDEN
 62
     7
100
AcDbLine
 10
3.8108880719
 20
3.8474184439
 30
0.0
 11
3.9289983081
 21
3.8474184439
 31
0.0
  0
LINE
  5
12B
330
1F
100
AcDbEntity
  8
0
  6
HIDDEN
 62
     7
100
AcDbLine
 10
3.9189983081
 20
3.8374184439
 30
0.0
 11
3.8208880719
 21
3.8374184439
 31
0.0
  0
LINE
  5
12C
330
1F
100
AcDbEntity
  8
0
  6
HIDDEN
 62
     7
100
AcDbLine
 10
3.86994319
 20
4.1023790738
 30
0.0
 11
3.86994319
 21
4.1523790738
 31
0.0
  0
LINE
  5
12D
330
1F
100
AcDbEntity
  8
0
  6
HIDDEN
 62
     7
100
AcDbLine
 10
3.86994319
 20
4.1023790738
 30
0.0
 11
3.8994707491
 21
4.1023790738
 31
0.0
  0
LINE
  5
12E
330
1F
100
AcDbEntity
  8
0
  6
HIDDEN
 62
     7
100
AcDbLine
 10
3.8404156309
 20
4.1023790738
 30
0.0
 11
3.86994319
 21
4.1023790738
 31
0.0
  0
LINE
  5
12F
330
1F
100
AcDbEntity
  8
0
  6
HIDDEN
 62
     7
100
AcDbLine
 10
3.8404156309
 20
4.1023790738
 30
0.0
 11
3.8404156309
 21
4.1523790738
 31
0.0
  0
LINE
  5
130
330
1F
100
AcDbEntity
  8
0
  6
HIDDEN
 62
     7
100
AcDbLine
 10
3.8994707491
 20
4.1023790738
 30
0.0
 11
3.8994707491
 21
4.1523790738
 31
0.0
  0
LINE
  5
131
330
1F
100
AcDbEntity
  8
0
  6
HIDDEN
 62
     7
100
AcDbLine
 10
2.7242738987
 20
4.1423790738
 30
0.0
 11
2.8423841349
 21
4.1423790738
 31
0.0
  0
LINE
  5
132
330
1F
100
AcDbEntity
  8
0
  6
HIDDEN
 62
     7
100
AcDbLine
 10
2.8423841349
 20
3.8474184439
 30
0.0
 11
2.7242738987
 21
3.8474184439
 31
0.0
  0
LINE
  5
133
330
1F
100
AcDbEntity
  8
0
  6
HIDDEN
 62
     7
100
AcDbLine
 10
2.7342738987
 20
3.8374184439
 30
0.0
 11
2.8323841349
 21
3.8374184439
 31
0.0
  0
LINE
  5
134
330
1F
100
AcDbEntity
  8
0
  6
HIDDEN
 62
     7
100
AcDbLine
 10
2.7833290168
 20
4.1023790738
 30
0.0
 11
2.7833290168
 21
4.1523790738
 31
0.0
  0
LINE
  5
135
330
1F
100
AcDbEntity
  8
0
  6
HIDDEN
 62
     7
100
AcDbLine
 10
2.8128565758
 20
4.1023790738
 30
0.0
 11
2.7833290168
 21
4.1023790738
 31
0.0
  0
LINE
  5
136
330
1F
100
AcDbEntity
  8
0
  6
HIDDEN
 62
     7
100
AcDbLine
 10
2.7833290168
 20
4.1023790738
 30
0.0
 11
2.7538014577
 21
4.1023790738
 31
0.0
  0
LINE
  5
137
330
1F
100
AcDbEntity
  8
0
  6
HIDDEN
 62
     7
100
AcDbLine
 10
2.8128565758
 20
4.1023790738
 30
0.0
 11
2.8128565758
 21
4.1523790738
 31
0.0
  0
LINE
  5
138
330
1F
100
AcDbEntity
  8
0
  6
HIDDEN
 62
     7
100
AcDbLine
 10
2.7538014577
 20
4.1023790738
 30
0.0
 11
2.7538014577
 21
4.1523790738
 31
0.0
  0
LINE
  5
139
330
1F
100
AcDbEntity
  8
0
  6
HIDDEN
 62
     7
100
AcDbLine
 10
3.3561636624
 20
4.0708352051
 30
0.0
 11
3.3561636624
 21
3.4465213677
 31
0.0
  0
LINE
  5
13A
330
1F
100
AcDbEntity
  8
0
  6
HIDDEN
 62
     7
100
AcDbLine
 10
3.714431379
 20
3.5198556763
 30
0.0
 11
3.714431379
 21
3.4634026958
 31
0.0
  0
SPLINE
  5
13B
330
1F
100
AcDbEntity
  8
0
  6
HIDDEN
 62
     7
100
AcDbSpline
210
0.0
220
0.0
230
1.0
 70
     8
 71
     3
 72
    28
 73
    24
 74
     0
 42
0.00000001
 43
0.00000001
 40
0.0
 40
0.0
 40
0.0
 40
0.0
 40
0.1249999999999998
 40
0.1249999999999998
 40
0.1874999999999999
 40
0.1874999999999999
 40
0.2499999999999999
 40
0.2499999999999999
 40
0.3749999999999997
 40
0.3749999999999997
 40
0.4374999999999997
 40
0.4374999999999997
 40
0.4999999999999997
 40
0.4999999999999997
 40
0.6249999999999997
 40
0.6249999999999997
 40
0.6874999999999998
 40
0.6874999999999998
 40
0.7499999999999997
 40
0.7499999999999997
 40
0.8749999999999998
 40
0.8749999999999998
 40
1.0
 40
1.0
 40
1.0
 40
1.0
 10
3.714431378975104
 20
3.997500896444945
 30
0.0
 10
3.714431378975104
 20
3.980262461059886
 30
0.0
 10
3.713017333174506
 20
3.962252384559731
 30
0.0
 10
3.710063461552418
 20
3.934065520304512
 30
0.0
 10
3.708934067356673
 20
3.924473575116634
 30
0.0
 10
3.706556909569111
 20
3.90488154003693
 30
0.0
 10
3.705303938858429
 20
3.894839852284371
 30
0.0
 10
3.701648346798556
 20
3.864399721515906
 30
0.0
 10
3.699371581463323
 20
3.843761289061881
 30
0.0
 10
3.696956589897442
 20
3.812235867407552
 30
0.0
 10
3.696315374571747
 20
3.801632503026277
 30
0.0
 10
3.695445537392255
 20
3.780225122085453
 30
0.0
 10
3.695218525340328
 20
3.769367059988258
 30
0.0
 10
3.695221569360645
 20
3.737080093235416
 30
0.0
 10
3.696140987799228
 20
3.715831259298806
 30
0.0
 10
3.698546045602498
 20
3.684340558167921
 30
0.0
 10
3.699513793598427
 20
3.673907430562973
 30
0.0
 10
3.701671482300825
 20
3.653164231615527
 30
0.0
 10
3.702866272052597
 20
3.642815765573274
 30
0.0
 10
3.706515394667889
 20
3.612427758516395
 30
0.0
 10
3.709049683611559
 20
3.592927152748534
 30
0.0
 10
3.712999833818551
 20
3.555308448661
 30
0.0
 10
3.714431378975104
 20
3.537079173960048
 30
0.0
 10
3.714431378975104
 20
3.51985567633915
 30
0.0
  0
LINE
  5
13C
330
1F
100
AcDbEntity
  8
0
  6
HIDDEN
 62
     7
100
AcDbLine
 10
3.714431379
 20
4.0539538769
 30
0.0
 11
3.714431379
 21
3.9975008964
 31
0.0
  0
SPLINE
  5
13D
330
1F
100
AcDbEntity
  8
0
  6
HIDDEN
 62
     7
100
AcDbSpline
210
0.0
220
0.0
230
1.0
 70
     8
 71
     3
 72
    12
 73
     8
 74
     0
 42
0.00000001
 43
0.00000001
 40
0.0
 40
0.0
 40
0.0
 40
0.0
 40
0.0001500569484812
 40
0.2541008302188255
 40
0.4989224888789248
 40
0.7443373662972284
 40
1.0
 40
1.0
 40
1.0
 40
1.0
 10
2.833898433081204
 20
4.148924764279978
 30
0.0
 10
2.833900615423629
 20
4.148925036002799
 30
0.0
 10
2.837596112550298
 20
4.149385161276881
 30
0.0
 10
2.843247638859121
 20
4.150292444987244
 30
0.0
 10
2.850088114817017
 20
4.15141910181857
 30
0.0
 10
2.854153549746254
 20
4.15222029969559
 30
0.0
 10
2.854625894726715
 20
4.152325432389297
 30
0.0
 10
2.854866897284285
 20
4.152379073793601
 30
0.0
  0
SPLINE
  5
13E
330
1F
100
AcDbEntity
  8
0
  6
HIDDEN
 62
     7
100
AcDbSpline
210
0.0
220
0.0
230
1.0
 70
     8
 71
     3
 72
    31
 73
    27
 74
     0
 42
0.00000001
 43
0.00000001
 40
-0.1261202054354881
 40
-0.0836798205598579
 40
-0.0426119081074922
 40
0.0
 40
0.0426216130868679
 40
0.0836913141793426
 40
0.1261195178979168
 40
0.1682793248177474
 40
0.2084855799152394
 40
0.249906792796755
 40
0.2913619713115055
 40
0.3316224479921016
 40
0.3738581062766603
 40
0.4162626079443299
 40
0.4573352864399628
 40
0.4999972665413266
 40
0.5426396366311554
 40
0.58372684795203
 40
0.6261788426281357
 40
0.6683249926210091
 40
0.7085632764784195
 40
0.7500555229830581
 40
0.7914450068359712
 40
0.831660597258292
 40
0.8738797945645119
 40
0.9163201794401421
 40
0.9573880918925078
 40
1.0
 40
1.042621613086868
 40
1.083691314179343
 40
1.126119517897917
 10
2.713213279329185
 20
3.777960925825994
 30
0.0
 10
2.711064756710956
 20
3.758676569267037
 30
0.0
 10
2.713221745225112
 20
3.739393334753212
 30
0.0
 10
2.72046120203639
 20
3.721396258667678
 30
0.0
 10
2.732193987135447
 20
3.706166366886721
 30
0.0
 10
2.74696017777443
 20
3.694062247186809
 30
0.0
 10
2.764491526395198
 20
3.686582691227723
 30
0.0
 10
2.783291309199984
 20
3.684360279605763
 30
0.0
 10
2.802101298305947
 20
3.686572023716498
 30
0.0
 10
2.819659238716684
 20
3.694052428632087
 30
0.0
 10
2.834450711934011
 20
3.706150981777257
 30
0.0
 10
2.84620244459283
 20
3.721378378296676
 30
0.0
 10
2.853440935472186
 20
3.739380359117996
 30
0.0
 10
2.855593185703957
 20
3.758675299796558
 30
0.0
 10
2.85344124981991
 20
3.777973170136237
 30
0.0
 10
2.846193926449021
 20
3.795978225576077
 30
0.0
 10
2.834450589545032
 20
3.811205934222341
 30
0.0
 10
2.819668299236465
 20
3.823301700456099
 30
0.0
 10
2.802118065523902
 20
3.830769552322209
 30
0.0
 10
2.7833142844199
 20
3.832995899942929
 30
0.0
 10
2.76450874559742
 20
3.830790729172469
 30
0.0
 10
2.746972768837034
 20
3.823304885268829
 30
0.0
 10
2.732197621973532
 20
3.811193347868427
 30
0.0
 10
2.720453473591608
 20
3.7959587429453
 30
0.0
 10
2.713213279329185
 20
3.777960925825994
 30
0.0
 10
2.711064756710956
 20
3.758676569267037
 30
0.0
 10
2.713221745225112
 20
3.739393334753212
 30
0.0
  0
SPLINE
  5
13F
330
1F
100
AcDbEntity
  8
0
  6
HIDDEN
 62
     7
100
AcDbSpline
210
0.0
220
0.0
230
1.0
 70
     8
 71
     3
 72
    12
 73
     8
 74
     0
 42
0.00000001
 43
0.00000001
 40
0.0
 40
0.0
 40
0.0
 40
0.0
 40
0.000150056948577
 40
0.2541008302188976
 40
0.4989224888789726
 40
0.7443373662972536
 40
1.0
 40
1.0
 40
1.0
 40
1.0
 10
3.920512606309546
 20
4.148924764279977
 30
0.0
 10
3.920514788651972
 20
4.148925036002799
 30
0.0
 10
3.924210285778721
 20
4.149385161276891
 30
0.0
 10
3.929861812087434
 20
4.150292444987238
 30
0.0
 10
3.936702288045372
 20
4.151419101818572
 30
0.0
 10
3.940767722974598
 20
4.15222029969559
 30
0.0
 10
3.941240067955061
 20
4.152325432389297
 30
0.0
 10
3.941481070512632
 20
4.152379073793601
 30
0.0
  0
SPLINE
  5
140
330
1F
100
AcDbEntity
  8
0
  6
HIDDEN
 62
     7
100
AcDbSpline
210
0.0
220
0.0
230
1.0
 70
     8
 71
     3
 72
    31
 73
    27
 74
     0
 42
0.00000001
 43
0.00000001
 40
-0.1261202054355445
 40
-0.0836798205601442
 40
-0.0426119081077785
 40
0.0
 40
0.0426216130870396
 40
0.0836913141795148
 40
0.1261195178979521
 40
0.1682793248179124
 40
0.208485579915405
 40
0.2499067927967562
 40
0.2913619713114814
 40
0.3316224479920781
 40
0.373858106276657
 40
0.416262607944305
 40
0.4573352864399393
 40
0.49999726654133
 40
0.5426396366314443
 40
0.5837268479523194
 40
0.6261788426281961
 40
0.6683249926212856
 40
0.708563276478696
 40
0.7500555229830606
 40
0.7914450068356995
 40
0.8316605972580198
 40
0.8738797945644555
 40
0.9163201794398558
 40
0.9573880918922215
 40
1.0
 40
1.04262161308704
 40
1.083691314179515
 40
1.126119517897952
 10
3.799827452557519
 20
3.777960925826081
 30
0.0
 10
3.797678929939307
 20
3.758676569267056
 30
0.0
 10
3.799835918453449
 20
3.73939333475316
 30
0.0
 10
3.807075375264717
 20
3.721396258667612
 30
0.0
 10
3.818808160363824
 20
3.70616636688669
 30
0.0
 10
3.833574351002842
 20
3.694062247186828
 30
0.0
 10
3.851105699623595
 20
3.686582691227731
 30
0.0
 10
3.869905482428351
 20
3.684360279605761
 30
0.0
 10
3.888715471534285
 20
3.6865720237165
 30
0.0
 10
3.90627341194502
 20
3.69405242863209
 30
0.0
 10
3.921064885162353
 20
3.706150981777252
 30
0.0
 10
3.932816617821179
 20
3.721378378296665
 30
0.0
 10
3.940055108700535
 20
3.739380359117987
 30
0.0
 10
3.9422073589323
 20
3.758675299796597
 30
0.0
 10
3.940055423048269
 20
3.777973170136323
 30
0.0
 10
3.9328080996774
 20
3.795978225576188
 30
0.0
 10
3.921064762773327
 20
3.811205934222394
 30
0.0
 10
3.906282472464703
 20
3.823301700456067
 30
0.0
 10
3.888732238752165
 20
3.830769552322193
 30
0.0
 10
3.869928457648247
 20
3.832995899942933
 30
0.0
 10
3.851122918825849
 20
3.830790729172453
 30
0.0
 10
3.833586942065491
 20
3.823304885268797
 30
0.0
 10
3.818811795201931
 20
3.81119334786848
 30
0.0
 10
3.807067646819922
 20
3.795958742945411
 30
0.0
 10
3.799827452557519
 20
3.777960925826081
 30
0.0
 10
3.797678929939307
 20
3.758676569267056
 30
0.0
 10
3.799835918453449
 20
3.73939333475316
 30
0.0
  0
LINE
  5
141
330
1F
100
AcDbEntity
  8
0
  6
HIDDEN
 62
     7
100
AcDbLine
 10
3.6376597254
 20
4.0539538769
 30
0.0
 11
3.6376597254
 21
3.4634026958
 31
0.0
  0
LINE
  5
142
330
1F
100
AcDbEntity
  8
0
  6
HIDDEN
 62
     7
100
AcDbLine
 10
3.6179746861
 20
3.4634026958
 30
0.0
 11
3.6179746861
 21
4.0539538769
 31
0.0
  0
SPLINE
  5
143
330
1F
100
AcDbEntity
  8
0
  6
HIDDEN
 62
     7
100
AcDbSpline
210
0.0
220
0.0
230
1.0
 70
     8
 71
     3
 72
    26
 73
    22
 74
     0
 42
0.00000001
 43
0.00000001
 40
0.0
 40
0.0
 40
0.0
 40
0.0
 40
0.0206463950522237
 40
0.0641082631353535
 40
0.1465644802082477
 40
0.2380360407911792
 40
0.2923091631962792
 40
0.34784316112175
 40
0.3913813025201955
 40
0.4359279121293439
 40
0.50617925717613
 40
0.5764871676191803
 40
0.6243766937519549
 40
0.6736062492464243
 40
0.7234649260608678
 40
0.7742924457717273
 40
0.8344028231647963
 40
0.8968386792171242
 40
0.9387984950338167
 40
0.9819336991329044
 40
1.0
 40
1.0
 40
1.0
 40
1.0
 10
3.928856341805187
 20
3.837312025303711
 30
0.0
 10
3.928884029807826
 20
3.837332763150091
 30
0.0
 10
3.928970002674007
 20
3.83739715537494
 30
0.0
 10
3.927459600435864
 20
3.836265917600571
 30
0.0
 10
3.922842507391972
 20
3.832858626522192
 30
0.0
 10
3.914720710102454
 20
3.827241765049675
 30
0.0
 10
3.90587926249116
 20
3.821849829007246
 30
0.0
 10
3.898204058440023
 20
3.817795190247574
 30
0.0
 10
3.890254250249201
 20
3.814432716128341
 30
0.0
 10
3.880772040340117
 20
3.81152699813052
 30
0.0
 10
3.868670559632786
 20
3.810141942809459
 30
0.0
 10
3.856509250933629
 20
3.812125967480666
 30
0.0
 10
3.846727476552059
 20
3.815540111044466
 30
0.0
 10
3.838888169666665
 20
3.819201409040015
 30
0.0
 10
3.8316997493274
 20
3.823215775583162
 30
0.0
 10
3.824893857837294
 20
3.827480508668195
 30
0.0
 10
3.818745848153419
 20
3.831672581933574
 30
0.0
 10
3.814368589029578
 20
3.834833194884823
 30
0.0
 10
3.811919179127031
 20
3.836645473470666
 30
0.0
 10
3.810884677437271
 20
3.837420971468414
 30
0.0
 10
3.810993998884034
 20
3.837339038746422
 30
0.0
 10
3.811026269890269
 20
3.83731485272016
 30
0.0
  0
LINE
  5
144
330
1F
100
AcDbEntity
  8
0
  6
HIDDEN
 62
     7
100
AcDbLine
 10
3.8482800721
 20
3.8151604196
 30
0.0
 11
3.8502581506
 21
3.8143559857
 31
0.0
  0
SPLINE
  5
145
330
1F
100
AcDbEntity
  8
0
  6
HIDDEN
 62
     7
100
AcDbSpline
210
0.0
220
0.0
230
1.0
 70
     8
 71
     3
 72
    48
 73
    44
 74
     0
 42
0.00000001
 43
0.00000001
 40
0.0
 40
0.0
 40
0.0
 40
0.0
 40
0.0624999999999996
 40
0.0624999999999996
 40
0.1249999999999993
 40
0.1249999999999993
 40
0.187499999999999
 40
0.187499999999999
 40
0.2187499999999988
 40
0.2187499999999988
 40
0.2499999999999987
 40
0.2499999999999987
 40
0.2812499999999986
 40
0.2812499999999986
 40
0.3124999999999984
 40
0.3124999999999984
 40
0.3749999999999986
 40
0.3749999999999986
 40
0.4374999999999986
 40
0.4374999999999986
 40
0.4687499999999987
 40
0.4687499999999987
 40
0.4999999999999987
 40
0.4999999999999987
 40
0.5312499999999987
 40
0.5312499999999987
 40
0.5624999999999988
 40
0.5624999999999988
 40
0.6249999999999988
 40
0.6249999999999988
 40
0.6874999999999989
 40
0.6874999999999989
 40
0.749999999999999
 40
0.749999999999999
 40
0.781249999999999
 40
0.781249999999999
 40
0.8124999999999991
 40
0.8124999999999991
 40
0.8749999999999993
 40
0.8749999999999993
 40
0.9374999999999997
 40
0.9374999999999997
 40
1.0
 40
1.0
 40
1.0
 40
1.0
 10
3.850258150628647
 20
3.814355985698074
 30
0.0
 10
3.843779407121229
 20
3.812065403964243
 30
0.0
 10
3.837898761919503
 20
3.808718450340769
 30
0.0
 10
3.827663939888874
 20
3.800431470571078
 30
0.0
 10
3.823163111966097
 20
3.795350819406254
 30
0.0
 10
3.816083176465216
 20
3.783824843225678
 30
0.0
 10
3.813392225128009
 20
3.77714531399812
 30
0.0
 10
3.811309183129924
 20
3.766580447733928
 30
0.0
 10
3.81092599371922
 20
3.762919325464512
 30
0.0
 10
3.810855570335016
 20
3.75556877331367
 30
0.0
 10
3.811160489335468
 20
3.751978451150915
 30
0.0
 10
3.812398361166308
 20
3.74493469282369
 30
0.0
 10
3.813348782419101
 20
3.741446308671225
 30
0.0
 10
3.815793104142879
 20
3.734853168821213
 30
0.0
 10
3.817279807375062
 20
3.73173731579305
 30
0.0
 10
3.822483656975035
 20
3.722872380945317
 30
0.0
 10
3.826834481533949
 20
3.717771614289869
 30
0.0
 10
3.837009817016805
 20
3.709210018664038
 30
0.0
 10
3.84264568931108
 20
3.70585794256217
 30
0.0
 10
3.852332410089152
 20
3.702204609083394
 30
0.0
 10
3.855695842726409
 20
3.701257365547848
 30
0.0
 10
3.862688146221192
 20
3.699962756975377
 30
0.0
 10
3.866359297349017
 20
3.699621829394054
 30
0.0
 10
3.873571071849875
 20
3.699624515361278
 30
0.0
 10
3.877205490143647
 20
3.699962476046836
 30
0.0
 10
3.884235360926015
 20
3.701267301048867
 30
0.0
 10
3.887591616621279
 20
3.702216046856561
 30
0.0
 10
3.897290073750084
 20
3.705882142153053
 30
0.0
 10
3.902937607175393
 20
3.709249709696581
 30
0.0
 10
3.913112772592735
 20
3.717834646769376
 30
0.0
 10
3.917403425514158
 20
3.722867462320901
 30
0.0
 10
3.92436741964202
 20
3.734743117632065
 30
0.0
 10
3.926881300222119
 20
3.741431911320181
 30
0.0
 10
3.928738388630496
 20
3.752075157486464
 30
0.0
 10
3.929032194485496
 20
3.755659381884126
 30
0.0
 10
3.928958270936322
 20
3.762902556458515
 30
0.0
 10
3.928577937631468
 20
3.766571730967108
 30
0.0
 10
3.926501825536526
 20
3.777116296315019
 30
0.0
 10
3.923835580572702
 20
3.783773293089087
 30
0.0
 10
3.91668539767273
 20
3.795411311650834
 30
0.0
 10
3.912228046652483
 20
3.800435076200543
 30
0.0
 10
3.90189413373604
 20
3.808785928440288
 30
0.0
 10
3.896126409454347
 20
3.812058532096145
 30
0.0
 10
3.889628229368805
 20
3.814355985698074
 30
0.0
  0
SPLINE
  5
146
330
1F
100
AcDbEntity
  8
0
  6
HIDDEN
 62
     7
100
AcDbSpline
210
0.0
220
0.0
230
1.0
 70
     8
 71
     3
 72
    26
 73
    22
 74
     0
 42
0.00000001
 43
0.00000001
 40
0.0
 40
0.0
 40
0.0
 40
0.0
 40
0.0206463950522245
 40
0.0641082631353542
 40
0.1465644802082482
 40
0.2380360407911797
 40
0.29230916319628
 40
0.3478431611217503
 40
0.3913813025201956
 40
0.4359279121293441
 40
0.5061792571761294
 40
0.5764871676191796
 40
0.624376693751954
 40
0.6736062492464233
 40
0.7234649260608667
 40
0.7742924457717261
 40
0.8344028231647949
 40
0.8968386792171227
 40
0.9387984950338152
 40
0.981933699132903
 40
1.0
 40
1.0
 40
1.0
 40
1.0
 10
2.84224216857684
 20
3.837312025303711
 30
0.0
 10
2.84226985657948
 20
3.837332763150091
 30
0.0
 10
2.842355829445661
 20
3.83739715537494
 30
0.0
 10
2.840845427207517
 20
3.836265917600571
 30
0.0
 10
2.836228334163625
 20
3.832858626522192
 30
0.0
 10
2.828106536874108
 20
3.827241765049675
 30
0.0
 10
2.819265089262813
 20
3.821849829007246
 30
0.0
 10
2.811589885211676
 20
3.817795190247574
 30
0.0
 10
2.803640077020854
 20
3.814432716128341
 30
0.0
 10
2.794157867111771
 20
3.81152699813052
 30
0.0
 10
2.782056386404439
 20
3.810141942809459
 30
0.0
 10
2.769895077705283
 20
3.812125967480666
 30
0.0
 10
2.760113303323712
 20
3.815540111044466
 30
0.0
 10
2.752273996438319
 20
3.819201409040015
 30
0.0
 10
2.745085576099053
 20
3.823215775583162
 30
0.0
 10
2.738279684608947
 20
3.827480508668195
 30
0.0
 10
2.732131674925073
 20
3.831672581933574
 30
0.0
 10
2.727754415801231
 20
3.834833194884823
 30
0.0
 10
2.725305005898685
 20
3.836645473470666
 30
0.0
 10
2.724270504208925
 20
3.837420971468414
 30
0.0
 10
2.724379825655687
 20
3.837339038746422
 30
0.0
 10
2.724412096661923
 20
3.83731485272016
 30
0.0
  0
LINE
  5
147
330
1F
100
AcDbEntity
  8
0
  6
HIDDEN
 62
     7
100
AcDbLine
 10
2.7616658988
 20
3.8151604196
 30
0.0
 11
2.7636439774
 21
3.8143559857
 31
0.0
  0
SPLINE
  5
148
330
1F
100
AcDbEntity
  8
0
  6
HIDDEN
 62
     7
100
AcDbSpline
210
0.0
220
0.0
230
1.0
 70
     8
 71
     3
 72
    48
 73
    44
 74
     0
 42
0.00000001
 43
0.00000001
 40
0.0
 40
0.0
 40
0.0
 40
0.0
 40
0.0624999999999998
 40
0.0624999999999998
 40
0.1249999999999996
 40
0.1249999999999996
 40
0.1874999999999994
 40
0.1874999999999994
 40
0.2187499999999993
 40
0.2187499999999993
 40
0.2499999999999992
 40
0.2499999999999992
 40
0.2812499999999991
 40
0.2812499999999991
 40
0.3124999999999989
 40
0.3124999999999989
 40
0.374999999999999
 40
0.374999999999999
 40
0.4374999999999991
 40
0.4374999999999991
 40
0.4687499999999991
 40
0.4687499999999991
 40
0.4999999999999991
 40
0.4999999999999991
 40
0.5312499999999991
 40
0.5312499999999991
 40
0.5624999999999991
 40
0.5624999999999991
 40
0.6249999999999991
 40
0.6249999999999991
 40
0.6874999999999991
 40
0.6874999999999991
 40
0.7499999999999991
 40
0.7499999999999991
 40
0.7812499999999992
 40
0.7812499999999992
 40
0.8124999999999992
 40
0.8124999999999992
 40
0.8749999999999994
 40
0.8749999999999994
 40
0.9374999999999997
 40
0.9374999999999997
 40
1.0
 40
1.0
 40
1.0
 40
1.0
 10
2.7636439774003
 20
3.814355985698074
 30
0.0
 10
2.757165233892882
 20
3.812065403964243
 30
0.0
 10
2.751284588691156
 20
3.808718450340769
 30
0.0
 10
2.741049766660528
 20
3.800431470571078
 30
0.0
 10
2.736548938737751
 20
3.795350819406254
 30
0.0
 10
2.72946900323687
 20
3.783824843225678
 30
0.0
 10
2.726778051899663
 20
3.77714531399812
 30
0.0
 10
2.724695009901577
 20
3.766580447733928
 30
0.0
 10
2.724311820490874
 20
3.762919325464512
 30
0.0
 10
2.724241397106669
 20
3.755568773313671
 30
0.0
 10
2.724546316107121
 20
3.751978451150916
 30
0.0
 10
2.725784187937962
 20
3.74493469282369
 30
0.0
 10
2.726734609190755
 20
3.741446308671225
 30
0.0
 10
2.729178930914533
 20
3.734853168821213
 30
0.0
 10
2.730665634146716
 20
3.73173731579305
 30
0.0
 10
2.735869483746689
 20
3.722872380945317
 30
0.0
 10
2.740220308305602
 20
3.717771614289869
 30
0.0
 10
2.750395643788459
 20
3.709210018664038
 30
0.0
 10
2.756031516082734
 20
3.70585794256217
 30
0.0
 10
2.765718236860805
 20
3.702204609083394
 30
0.0
 10
2.769081669498062
 20
3.701257365547848
 30
0.0
 10
2.776073972992846
 20
3.699962756975377
 30
0.0
 10
2.77974512412067
 20
3.699621829394055
 30
0.0
 10
2.786956898621528
 20
3.699624515361278
 30
0.0
 10
2.790591316915301
 20
3.699962476046836
 30
0.0
 10
2.797621187697669
 20
3.701267301048868
 30
0.0
 10
2.800977443392933
 20
3.702216046856561
 30
0.0
 10
2.810675900521738
 20
3.705882142153053
 30
0.0
 10
2.816323433947046
 20
3.709249709696581
 30
0.0
 10
2.826498599364388
 20
3.717834646769377
 30
0.0
 10
2.830789252285811
 20
3.722867462320901
 30
0.0
 10
2.837753246413674
 20
3.734743117632065
 30
0.0
 10
2.840267126993772
 20
3.741431911320182
 30
0.0
 10
2.84212421540215
 20
3.752075157486464
 30
0.0
 10
2.84241802125715
 20
3.755659381884127
 30
0.0
 10
2.842344097707976
 20
3.762902556458516
 30
0.0
 10
2.841963764403121
 20
3.766571730967108
 30
0.0
 10
2.839887652308179
 20
3.777116296315019
 30
0.0
 10
2.837221407344355
 20
3.783773293089087
 30
0.0
 10
2.830071224444383
 20
3.795411311650834
 30
0.0
 10
2.825613873424136
 20
3.800435076200543
 30
0.0
 10
2.815279960507694
 20
3.808785928440289
 30
0.0
 10
2.809512236226001
 20
3.812058532096145
 30
0.0
 10
2.803014056140458
 20
3.814355985698074
 30
0.0
  0
SPLINE
  5
149
330
1F
100
AcDbEntity
  8
0
  6
HIDDEN
 62
     7
100
AcDbSpline
210
0.0
220
0.0
230
1.0
 70
     8
 71
     3
 72
    24
 73
    20
 74
     0
 42
0.00000001
 43
0.00000001
 40
0.0
 40
0.0
 40
0.0
 40
0.0
 40
0.0510059562450017
 40
0.1096476218551775
 40
0.1759737576023333
 40
0.2500143360401985
 40
0.3245927752327824
 40
0.3910688864030717
 40
0.4494708896910495
 40
0.4998467378733252
 40
0.550249320950948
 40
0.6086854235303233
 40
0.6752029924271651
 40
0.7498302280357968
 40
0.824011413367245
 40
0.8904052478741544
 40
0.9490413796298257
 40
0.9999684118590723
 40
1.0
 40
1.0
 40
1.0
 40
1.0
 10
2.724273898660143
 20
4.141495283349981
 30
0.0
 10
2.724422480289933
 20
4.141448496580026
 30
0.0
 10
2.724741886562402
 20
4.141347918952678
 30
0.0
 10
2.727585215255906
 20
4.140661220986841
 30
0.0
 10
2.732924901966983
 20
4.139616555309332
 30
0.0
 10
2.741221012787283
 20
4.138134031954538
 30
0.0
 10
2.751703360598275
 20
4.136651397073654
 30
0.0
 10
2.762882061416907
 20
4.135586036111188
 30
0.0
 10
2.773436908620091
 20
4.134925923053229
 30
0.0
 10
2.783304731190801
 20
4.134671160077791
 30
0.0
 10
2.793175284214995
 20
4.134925081386069
 30
0.0
 10
2.803738823548636
 20
4.135584600337614
 30
0.0
 10
2.814926178756912
 20
4.136648853894653
 30
0.0
 10
2.825431705216012
 20
4.138133737971552
 30
0.0
 10
2.83371150038344
 20
4.139608775842228
 30
0.0
 10
2.83914649746819
 20
4.140681188159614
 30
0.0
 10
2.84170325620991
 20
4.141286066007768
 30
0.0
 10
2.842636344658882
 20
4.141565105859883
 30
0.0
 10
2.842383822077753
 20
4.141495196756411
 30
0.0
 10
2.842383665544495
 20
4.141495153421278
 30
0.0
  0
SPLINE
  5
14A
330
1F
100
AcDbEntity
  8
0
  6
HIDDEN
 62
     7
100
AcDbSpline
210
0.0
220
0.0
230
1.0
 70
     8
 71
     3
 72
    24
 73
    20
 74
     0
 42
0.00000001
 43
0.00000001
 40
0.0
 40
0.0
 40
0.0
 40
0.0
 40
0.0510059562450007
 40
0.1096476218551762
 40
0.1759737576023321
 40
0.2500143360401971
 40
0.3245927752327822
 40
0.391068886403072
 40
0.4494708896910492
 40
0.4998467378733234
 40
0.5502493209508212
 40
0.6086854235301552
 40
0.6752029924270387
 40
0.7498302280357949
 40
0.8240114133673677
 40
0.890405247874319
 40
0.949041379629949
 40
0.9999684118590705
 40
1.0
 40
1.0
 40
1.0
 40
1.0
 10
3.810888071888489
 20
4.141495283349982
 30
0.0
 10
3.81103665351828
 20
4.141448496580027
 30
0.0
 10
3.811356059790748
 20
4.141347918952678
 30
0.0
 10
3.814199388484253
 20
4.140661220986842
 30
0.0
 10
3.81953907519533
 20
4.139616555309332
 30
0.0
 10
3.827835186015629
 20
4.138134031954539
 30
0.0
 10
3.838317533826622
 20
4.136651397073654
 30
0.0
 10
3.849496234645255
 20
4.135586036111189
 30
0.0
 10
3.860051081848437
 20
4.134925923053229
 30
0.0
 10
3.86991890441914
 20
4.134671160077792
 30
0.0
 10
3.879789457443323
 20
4.13492508138607
 30
0.0
 10
3.890352996776958
 20
4.135584600337616
 30
0.0
 10
3.901540351985243
 20
4.136648853894653
 30
0.0
 10
3.912045878444362
 20
4.138133737971553
 30
0.0
 10
3.920325673611792
 20
4.139608775842226
 30
0.0
 10
3.925760670696564
 20
4.140681188159621
 30
0.0
 10
3.928317429438203
 20
4.141286066007745
 30
0.0
 10
3.929250517887333
 20
4.141565105859925
 30
0.0
 10
3.9289979953061
 20
4.141495196756412
 30
0.0
 10
3.928997838772841
 20
4.141495153421279
 30
0.0
  0
ARC
  5
14B
330
1F
100
AcDbEntity
  8
0
  6
HIDDEN
 62
     7
100
AcDbCircle
 10
2.7833290168
 20
3.7586782864
 30
0.0
 40
0.0590551181102361
100
AcDbArc
 50
70.5287793655
 51
109.4712206345
  0
ARC
  5
14C
330
1F
100
AcDbEntity
  8
0
  6
HIDDEN
 62
     7
100
AcDbCircle
 10
3.86994319
 20
3.7586782864
 30
0.0
 40
0.0590551181102362
100
AcDbArc
 50
70.5287793655
 51
109.4712206345
  0
LINE
  5
14D
330
1F
100
AcDbEntity
  8
0
  6
HIDDEN
 62
     7
100
AcDbLine
 10
3.2922734547
 20
3.4043475777
 30
0.0
 11
3.3525490028
 21
3.4043475777
 31
0.0
  0
LINE
  5
14E
330
1F
100
AcDbEntity
  8
0
  6
HIDDEN
 62
     7
100
AcDbLine
 10
3.3525490028
 20
4.1130089951
 30
0.0
 11
3.2922734547
 21
4.1130089951
 31
0.0
  0
LINE
  5
14F
330
1F
100
AcDbEntity
  8
0
  6
HIDDEN
 62
     7
100
AcDbLine
 10
3.9289983081
 20
4.1423790738
 30
0.0
 11
3.922204475
 21
4.1491729069
 31
0.0
  0
LINE
  5
150
330
1F
100
AcDbEntity
  8
0
  6
HIDDEN
 62
     7
100
AcDbLine
 10
3.8176818046
 20
4.1491728065
 30
0.0
 11
3.8108880719
 21
4.1423790738
 31
0.0
  0
LINE
  5
151
330
1F
100
AcDbEntity
  8
0
  6
HIDDEN
 62
     7
100
AcDbLine
 10
3.9289983081
 20
3.8474184439
 30
0.0
 11
3.9289983081
 21
4.1423790738
 31
0.0
  0
LINE
  5
152
330
1F
100
AcDbEntity
  8
0
  6
HIDDEN
 62
     7
100
AcDbLine
 10
3.8108880719
 20
4.1423790738
 30
0.0
 11
3.8108880719
 21
3.8474184439
 31
0.0
  0
LINE
  5
153
330
1F
100
AcDbEntity
  8
0
  6
HIDDEN
 62
     7
100
AcDbLine
 10
3.8108880719
 20
3.8474184439
 30
0.0
 11
3.8208880719
 21
3.8374184439
 31
0.0
  0
LINE
  5
154
330
1F
100
AcDbEntity
  8
0
  6
HIDDEN
 62
     7
100
AcDbLine
 10
3.9189983081
 20
3.8374184439
 30
0.0
 11
3.9289983081
 21
3.8474184439
 31
0.0
  0
LINE
  5
155
330
1F
100
AcDbEntity
  8
0
  6
HIDDEN
 62
     7
100
AcDbLine
 10
2.8423841349
 20
4.1423790738
 30
0.0
 11
2.8355903018
 21
4.1491729069
 31
0.0
  0
LINE
  5
156
330
1F
100
AcDbEntity
  8
0
  6
HIDDEN
 62
     7
100
AcDbLine
 10
2.7310676313
 20
4.1491728065
 30
0.0
 11
2.7242738987
 21
4.1423790738
 31
0.0
  0
LINE
  5
157
330
1F
100
AcDbEntity
  8
0
  6
HIDDEN
 62
     7
100
AcDbLine
 10
2.8423841349
 20
3.8474184439
 30
0.0
 11
2.8423841349
 21
4.1423790738
 31
0.0
  0
LINE
  5
158
330
1F
100
AcDbEntity
  8
0
  6
HIDDEN
 62
     7
100
AcDbLine
 10
2.7242738987
 20
4.1423790738
 30
0.0
 11
2.7242738987
 21
3.8474184439
 31
0.0
  0
LINE
  5
159
330
1F
100
AcDbEntity
  8
0
  6
HIDDEN
 62
     7
100
AcDbLine
 10
2.7242738987
 20
3.8474184439
 30
0.0
 11
2.7342738987
 21
3.8374184439
 31
0.0
  0
LINE
  5
15A
330
1F
100
AcDbEntity
  8
0
  6
HIDDEN
 62
     7
100
AcDbLine
 10
2.8323841349
 20
3.8374184439
 30
0.0
 11
2.8423841349
 21
3.8474184439
 31
0.0
  0
LINE
  5
15B
330
1F
100
AcDbEntity
  8
0
  6
HIDDEN
 62
     7
100
AcDbLine
 10
2.9578827057
 20
3.364977499
 30
0.0
 11
2.9580526702
 21
3.364977499
 31
0.0
  0
LINE
  5
15C
330
1F
100
AcDbEntity
  8
0
  6
HIDDEN
 62
     7
100
AcDbLine
 10
2.9580526702
 20
4.1523790738
 30
0.0
 11
2.957894459
 21
4.1523790738
 31
0.0
  0
LINE
  5
15D
330
1F
100
AcDbEntity
  8
0
  6
HIDDEN
 62
     7
100
AcDbLine
 10
3.995927442
 20
3.8524184439
 30
0.0
 11
3.980927442
 21
3.8374184439
 31
0.0
  0
LINE
  5
15E
330
1F
100
AcDbEntity
  8
0
  6
HIDDEN
 62
     7
100
AcDbLine
 10
3.980927442
 20
3.6799381289
 30
0.0
 11
3.995927442
 21
3.6649381289
 31
0.0
  0
LINE
  5
15F
330
1F
100
AcDbEntity
  8
0
  6
HIDDEN
 62
     7
100
AcDbLine
 10
2.6573447648
 20
3.6649381289
 30
0.0
 11
2.6723447648
 21
3.6799381289
 31
0.0
  0
LINE
  5
160
330
1F
100
AcDbEntity
  8
0
  6
HIDDEN
 62
     7
100
AcDbLine
 10
2.6723447648
 20
3.8374184439
 30
0.0
 11
2.6573447648
 21
3.8524184439
 31
0.0
  0
LINE
  5
161
330
1F
100
AcDbEntity
  8
0
  6
HIDDEN
 62
     7
100
AcDbLine
 10
3.8110262699
 20
3.8374184439
 30
0.0
 11
3.6179746861
 21
3.8374184439
 31
0.0
  0
LINE
  5
162
330
1F
100
AcDbEntity
  8
0
  6
HIDDEN
 62
     7
100
AcDbLine
 10
3.980927442
 20
3.8374184439
 30
0.0
 11
3.9288563418
 21
3.8374184439
 31
0.0
  0
LINE
  5
163
330
1F
100
AcDbEntity
  8
0
  6
HIDDEN
 62
     7
100
AcDbLine
 10
3.6179746861
 20
3.6799381289
 30
0.0
 11
3.980927442
 21
3.6799381289
 31
0.0
  0
LINE
  5
164
330
1F
100
AcDbEntity
  8
0
  6
HIDDEN
 62
     7
100
AcDbLine
 10
2.7244120967
 20
3.8374184439
 30
0.0
 11
2.6723447648
 21
3.8374184439
 31
0.0
  0
LINE
  5
165
330
1F
100
AcDbEntity
  8
0
  6
HIDDEN
 62
     7
100
AcDbLine
 10
3.0352975207
 20
3.8374184439
 30
0.0
 11
2.8422421686
 21
3.8374184439
 31
0.0
  0
LINE
  5
166
330
1F
100
AcDbEntity
  8
0
  6
HIDDEN
 62
     7
100
AcDbLine
 10
2.6723447648
 20
3.6799381289
 30
0.0
 11
3.0352975207
 21
3.6799381289
 31
0.0
  0
LINE
  5
167
330
1F
100
AcDbEntity
  8
0
  6
HIDDEN
 62
     7
100
AcDbLine
 10
2.8423841358
 20
4.1414952834
 30
0.0
 11
2.8548668984
 21
4.1523790738
 31
0.0
  0
LINE
  5
168
330
1F
100
AcDbEntity
  8
0
  6
HIDDEN
 62
     7
100
AcDbLine
 10
2.7117911341
 20
4.152379074
 30
0.0
 11
2.7242738969
 21
4.1414952836
 31
0.0
  0
LINE
  5
169
330
1F
100
AcDbEntity
  8
0
  6
HIDDEN
 62
     7
100
AcDbLine
 10
3.928998309
 20
4.1414952834
 30
0.0
 11
3.9414810716
 21
4.1523790738
 31
0.0
  0
LINE
  5
16A
330
1F
100
AcDbEntity
  8
0
  6
HIDDEN
 62
     7
100
AcDbLine
 10
3.7984053074
 20
4.152379074
 30
0.0
 11
3.8108880701
 21
4.1414952836
 31
0.0
  0
LINE
  5
16B
330
1F
100
AcDbEntity
  8
0
  6
HIDDEN
 62
     7
100
AcDbLine
 10
2.8423841349
 20
3.8373120254
 30
0.0
 11
2.8423841349
 21
4.1414952811
 31
0.0
  0
LINE
  5
16C
330
1F
100
AcDbEntity
  8
0
  6
HIDDEN
 62
     7
100
AcDbLine
 10
2.7242738987
 20
4.1414952833
 30
0.0
 11
2.7242738987
 21
3.8373148569
 31
0.0
  0
LINE
  5
16D
330
1F
100
AcDbEntity
  8
0
  6
HIDDEN
 62
     7
100
AcDbLine
 10
3.9289983081
 20
3.8373120254
 30
0.0
 11
3.9289983081
 21
4.1414952811
 31
0.0
  0
LINE
  5
16E
330
1F
100
AcDbEntity
  8
0
  6
HIDDEN
 62
     7
100
AcDbLine
 10
3.8108880719
 20
4.1414952833
 30
0.0
 11
3.8108880719
 21
3.8373148569
 31
0.0
  0
LINE
  5
16F
330
1F
100
AcDbEntity
  8
0
  6
CONTINUOUS
 62
     7
100
AcDbLine
 10
8.6410581664
 20
3.7060959409
 30
0.0
 11
8.6445853937
 21
3.7096231683
 31
0.0
  0
LINE
  5
170
330
1F
100
AcDbEntity
  8
0
  6
CONTINUOUS
 62
     7
100
AcDbLine
 10
8.6445853937
 20
3.8077334045
 30
0.0
 11
8.6410581664
 21
3.8112606319
 31
0.0
  0
LINE
  5
171
330
1F
100
AcDbEntity
  8
0
  6
CONTINUOUS
 62
     7
100
AcDbLine
 10
8.3034669518
 20
4.1488518464
 30
0.0
 11
8.2999397244
 21
4.1523790738
 31
0.0
  0
LINE
  5
172
330
1F
100
AcDbEntity
  8
0
  6
CONTINUOUS
 62
     7
100
AcDbLine
 10
8.2018294882
 20
4.1523790738
 30
0.0
 11
8.1983022608
 21
4.1488518464
 31
0.0
  0
LINE
  5
173
330
1F
100
AcDbEntity
  8
0
  6
CONTINUOUS
 62
     7
100
AcDbLine
 10
8.8020657087
 20
3.4634026958
 30
0.0
 11
8.8020657087
 21
4.0539538769
 31
0.0
  0
LINE
  5
174
330
1F
100
AcDbEntity
  8
0
  6
CONTINUOUS
 62
     7
100
AcDbLine
 10
7.699703504
 20
4.0539538769
 30
0.0
 11
7.699703504
 21
3.4634026958
 31
0.0
  0
LINE
  5
175
330
1F
100
AcDbEntity
  8
0
  6
CONTINUOUS
 62
     7
100
AcDbLine
 10
8.5461601969
 20
4.3098593888
 30
0.0
 11
7.9556090158
 21
4.3098593888
 31
0.0
  0
LINE
  5
176
330
1F
100
AcDbEntity
  8
0
  6
CONTINUOUS
 62
     7
100
AcDbLine
 10
7.9556090158
 20
3.207497184
 30
0.0
 11
8.5461601969
 21
3.207497184
 31
0.0
  0
LINE
  5
177
330
1F
100
AcDbEntity
  8
0
  6
CONTINUOUS
 62
     7
100
AcDbLine
 10
8.6445853937
 20
3.8077334045
 30
0.0
 11
8.6445853937
 21
3.7096231683
 31
0.0
  0
LINE
  5
178
330
1F
100
AcDbEntity
  8
0
  6
CONTINUOUS
 62
     7
100
AcDbLine
 10
8.2018294882
 20
4.1523790738
 30
0.0
 11
8.2999397244
 21
4.1523790738
 31
0.0
  0
CIRCLE
  5
179
330
1F
100
AcDbEntity
  8
0
  6
CONTINUOUS
 62
     7
100
AcDbCircle
 10
8.2508846063
 20
3.7586782864
 30
0.0
 40
0.0937401574803172
  0
CIRCLE
  5
17A
330
1F
100
AcDbEntity
  8
0
  6
CONTINUOUS
 62
     7
100
AcDbCircle
 10
8.2508846063
 20
3.7586782864
 30
0.0
 40
0.3787007874015753
  0
CIRCLE
  5
17B
330
1F
100
AcDbEntity
  8
0
  6
CONTINUOUS
 62
     7
100
AcDbCircle
 10
8.2508846063
 20
3.7586782864
 30
0.0
 40
0.3937007874015759
  0
CIRCLE
  5
17C
330
1F
100
AcDbEntity
  8
0
  6
CONTINUOUS
 62
     7
100
AcDbCircle
 10
8.2508846063
 20
3.7586782864
 30
0.0
 40
0.0787401574803166
  0
LINE
  5
17D
330
1F
100
AcDbEntity
  8
0
  6
CONTINUOUS
 62
     7
100
AcDbLine
 10
8.5638767323
 20
4.0539538769
 30
0.0
 11
8.5638767323
 21
3.9975008964
 31
0.0
  0
LINE
  5
17E
330
1F
100
AcDbEntity
  8
0
  6
CONTINUOUS
 62
     7
100
AcDbLine
 10
8.5638767323
 20
4.0539538769
 30
0.0
 11
8.8020657087
 21
4.0539538769
 31
0.0
  0
LINE
  5
17F
330
1F
100
AcDbEntity
  8
0
  6
CONTINUOUS
 62
     7
100
AcDbLine
 10
8.5638767323
 20
3.5198556763
 30
0.0
 11
8.5638767323
 21
3.4634026958
 31
0.0
  0
LINE
  5
180
330
1F
100
AcDbEntity
  8
0
  6
CONTINUOUS
 62
     7
100
AcDbLine
 10
8.5638767323
 20
3.4634026958
 30
0.0
 11
8.8020657087
 21
3.4634026958
 31
0.0
  0
LINE
  5
181
330
1F
100
AcDbEntity
  8
0
  6
CONTINUOUS
 62
     7
100
AcDbLine
 10
8.5112931999
 20
4.0539538769
 30
0.0
 11
8.5638767323
 21
4.0539538769
 31
0.0
  0
LINE
  5
182
330
1F
100
AcDbEntity
  8
0
  6
CONTINUOUS
 62
     7
100
AcDbLine
 10
8.5112931999
 20
3.4634026958
 30
0.0
 11
8.5638767323
 21
3.4634026958
 31
0.0
  0
LINE
  5
183
330
1F
100
AcDbEntity
  8
0
  6
CONTINUOUS
 62
     7
100
AcDbLine
 10
7.9378924803
 20
3.5198556763
 30
0.0
 11
7.9378924803
 21
3.4634026958
 31
0.0
  0
LINE
  5
184
330
1F
100
AcDbEntity
  8
0
  6
CONTINUOUS
 62
     7
100
AcDbLine
 10
7.9378924803
 20
3.4634026958
 30
0.0
 11
7.9904760127
 21
3.4634026958
 31
0.0
  0
LINE
  5
185
330
1F
100
AcDbEntity
  8
0
  6
CONTINUOUS
 62
     7
100
AcDbLine
 10
7.9378924803
 20
4.0539538769
 30
0.0
 11
7.9378924803
 21
3.9975008964
 31
0.0
  0
LINE
  5
186
330
1F
100
AcDbEntity
  8
0
  6
CONTINUOUS
 62
     7
100
AcDbLine
 10
7.9378924803
 20
4.0539538769
 30
0.0
 11
7.9904760127
 21
4.0539538769
 31
0.0
  0
LINE
  5
187
330
1F
100
AcDbEntity
  8
0
  6
CONTINUOUS
 62
     7
100
AcDbLine
 10
7.699703504
 20
4.0539538769
 30
0.0
 11
7.9378924803
 21
4.0539538769
 31
0.0
  0
LINE
  5
188
330
1F
100
AcDbEntity
  8
0
  6
CONTINUOUS
 62
     7
100
AcDbLine
 10
7.699703504
 20
3.4634026958
 30
0.0
 11
7.9378924803
 21
3.4634026958
 31
0.0
  0
SPLINE
  5
189
330
1F
100
AcDbEntity
  8
0
  6
CONTINUOUS
 62
     7
100
AcDbSpline
210
0.0
220
0.0
230
1.0
 70
     8
 71
     3
 72
    12
 73
     8
 74
     0
 42
0.00000001
 43
0.00000001
 40
0.0
 40
0.0
 40
0.0
 40
0.0
 40
0.2500000000000012
 40
0.2500000000000012
 40
0.5000000000000024
 40
0.5000000000000024
 40
1.0
 40
1.0
 40
1.0
 40
1.0
 10
8.563876732308243
 20
3.446521367662971
 30
0.0
 10
8.566645986305662
 20
3.449235779517111
 30
0.0
 10
8.569633850979963
 20
3.451634742185616
 30
0.0
 10
8.576026342260906
 20
3.455826897600379
 30
0.0
 10
8.579474035857027
 20
3.457634730964531
 30
0.0
 10
8.590106337873838
 20
3.461947356283622
 30
0.0
 10
8.597668524619968
 20
3.463402695840866
 30
0.0
 10
8.605215314985406
 20
3.463402695840866
 30
0.0
  0
SPLINE
  5
18A
330
1F
100
AcDbEntity
  8
0
  6
CONTINUOUS
 62
     7
100
AcDbSpline
210
0.0
220
0.0
230
1.0
 70
     8
 71
     3
 72
    12
 73
     8
 74
     0
 42
0.00000001
 43
0.00000001
 40
0.0
 40
0.0
 40
0.0
 40
0.0
 40
0.2499999999999998
 40
0.2499999999999998
 40
0.4999999999999996
 40
0.4999999999999996
 40
1.0
 40
1.0
 40
1.0
 40
1.0
 10
8.60521531498541
 20
4.053953876943228
 30
0.0
 10
8.601442597172285
 20
4.053953876943228
 30
0.0
 10
8.597703107309961
 20
4.05431224426246
 30
0.0
 10
8.590294643480489
 20
4.055745434393804
 30
0.0
 10
8.586584260348502
 20
4.05683944538871
 30
0.0
 10
8.575950142215301
 20
4.061147961864832
 30
0.0
 10
8.569415742929706
 20
4.065405888740205
 30
0.0
 10
8.563876732308243
 20
4.070835205121126
 30
0.0
  0
SPLINE
  5
18B
330
1F
100
AcDbEntity
  8
0
  6
CONTINUOUS
 62
     7
100
AcDbSpline
210
0.0
220
0.0
230
1.0
 70
     8
 71
     3
 72
    12
 73
     8
 74
     0
 42
0.00000001
 43
0.00000001
 40
0.0
 40
0.0
 40
0.0
 40
0.0
 40
0.2500000000000008
 40
0.2500000000000008
 40
0.5000000000000017
 40
0.5000000000000017
 40
1.0
 40
1.0
 40
1.0
 40
1.0
 10
7.937892480339737
 20
4.070835205121123
 30
0.0
 10
7.93512322634232
 20
4.068120793266983
 30
0.0
 10
7.932135361668017
 20
4.065721830598478
 30
0.0
 10
7.925742870387074
 20
4.061529675183715
 30
0.0
 10
7.922295176790954
 20
4.059721841819562
 30
0.0
 10
7.911662874774142
 20
4.055409216500472
 30
0.0
 10
7.904100688028013
 20
4.053953876943228
 30
0.0
 10
7.896553897662574
 20
4.053953876943228
 30
0.0
  0
SPLINE
  5
18C
330
1F
100
AcDbEntity
  8
0
  6
CONTINUOUS
 62
     7
100
AcDbSpline
210
0.0
220
0.0
230
1.0
 70
     8
 71
     3
 72
    12
 73
     8
 74
     0
 42
0.00000001
 43
0.00000001
 40
0.0
 40
0.0
 40
0.0
 40
0.0
 40
0.2499999999999998
 40
0.2499999999999998
 40
0.4999999999999996
 40
0.4999999999999996
 40
1.0
 40
1.0
 40
1.0
 40
1.0
 10
7.896553897662571
 20
3.463402695840866
 30
0.0
 10
7.900326615475694
 20
3.463402695840866
 30
0.0
 10
7.904066105338019
 20
3.463044328521634
 30
0.0
 10
7.911474569167491
 20
3.46161113839029
 30
0.0
 10
7.915184952299477
 20
3.460517127395384
 30
0.0
 10
7.925819070432679
 20
3.456208610919262
 30
0.0
 10
7.932353469718273
 20
3.451950684043889
 30
0.0
 10
7.937892480339737
 20
3.446521367662968
 30
0.0
  0
ARC
  5
18D
330
1F
100
AcDbEntity
  8
0
  6
CONTINUOUS
 62
     7
100
AcDbCircle
 10
7.8965538977
 20
3.4043475777
 30
0.0
 40
0.059055118110237
100
AcDbArc
 50
44.4270040008
 51
45.5729959992
  0
ARC
  5
18E
330
1F
100
AcDbEntity
  8
0
  6
CONTINUOUS
 62
     7
100
AcDbCircle
 10
8.605215315
 20
4.1130089951
 30
0.0
 40
0.0590551181102373
100
AcDbArc
 50
224.4270040008
 51
225.5729959992
  0
ARC
  5
18F
330
1F
100
AcDbEntity
  8
0
  6
CONTINUOUS
 62
     7
100
AcDbCircle
 10
7.8965538977
 20
4.1130089951
 30
0.0
 40
0.0590551181102367
100
AcDbArc
 50
314.4270040008
 51
315.5729959992
  0
ARC
  5
190
330
1F
100
AcDbEntity
  8
0
  6
CONTINUOUS
 62
     7
100
AcDbCircle
 10
8.605215315
 20
3.4043475777
 30
0.0
 40
0.0590551181102355
100
AcDbArc
 50
134.4270040008
 51
135.5729959992
  0
LINE
  5
191
330
1F
100
AcDbEntity
  8
0
  6
CONTINUOUS
 62
     7
100
AcDbLine
 10
8.5461601969
 20
4.1130089951
 30
0.0
 11
8.5461601969
 21
4.3098593888
 31
0.0
  0
LINE
  5
192
330
1F
100
AcDbEntity
  8
0
  6
CONTINUOUS
 62
     7
100
AcDbLine
 10
7.9556090158
 20
4.1130089951
 30
0.0
 11
7.9556090158
 21
4.3098593888
 31
0.0
  0
SPLINE
  5
193
330
1F
100
AcDbEntity
  8
0
  6
CONTINUOUS
 62
     7
100
AcDbSpline
210
0.0
220
0.0
230
1.0
 70
     8
 71
     3
 72
    12
 73
     8
 74
     0
 42
0.00000001
 43
0.00000001
 40
0.0
 40
0.0
 40
0.0
 40
0.0
 40
0.2500000000000011
 40
0.2500000000000011
 40
0.5000000000000021
 40
0.5000000000000021
 40
1.0
 40
1.0
 40
1.0
 40
1.0
 10
8.56304152505307
 20
4.071670412376298
 30
0.0
 10
8.560336251919331
 20
4.074430343014049
 30
0.0
 10
8.557944216576365
 20
4.07740749346334
 30
0.0
 10
8.553761332399413
 20
4.083776969186118
 30
0.0
 10
8.551955921956752
 20
4.087210621027342
 30
0.0
 10
8.5476337721476
 20
4.097832658470959
 30
0.0
 10
8.546160196875173
 20
4.105396586176172
 30
0.0
 10
8.546160196875173
 20
4.113008995053465
 30
0.0
  0
SPLINE
  5
194
330
1F
100
AcDbEntity
  8
0
  6
CONTINUOUS
 62
     7
100
AcDbSpline
210
0.0
220
0.0
230
1.0
 70
     8
 71
     3
 72
    12
 73
     8
 74
     0
 42
0.00000001
 43
0.00000001
 40
0.0
 40
0.0
 40
0.0
 40
0.0
 40
0.2500000000000002
 40
0.2500000000000002
 40
0.5000000000000004
 40
0.5000000000000004
 40
1.0
 40
1.0
 40
1.0
 40
1.0
 10
7.95560901577281
 20
4.113008995053464
 30
0.0
 10
7.95560901577281
 20
4.109203183060307
 30
0.0
 10
7.955244459920022
 20
4.105443809323065
 30
0.0
 10
7.953799741765354
 20
4.098018082266348
 30
0.0
 10
7.952701335455221
 20
4.09431181599704
 30
0.0
 10
7.948382900084236
 20
4.083688171662528
 30
0.0
 10
7.944138497927825
 20
4.077190543052429
 30
0.0
 10
7.938727687594915
 20
4.0716704123763
 30
0.0
  0
LINE
  5
195
330
1F
100
AcDbEntity
  8
0
  6
CONTINUOUS
 62
     7
100
AcDbLine
 10
7.9556090158
 20
3.207497184
 30
0.0
 11
7.9556090158
 21
3.4043475777
 31
0.0
  0
LINE
  5
196
330
1F
100
AcDbEntity
  8
0
  6
CONTINUOUS
 62
     7
100
AcDbLine
 10
8.5461601969
 20
3.207497184
 30
0.0
 11
8.5461601969
 21
3.4043475777
 31
0.0
  0
SPLINE
  5
197
330
1F
100
AcDbEntity
  8
0
  6
CONTINUOUS
 62
     7
100
AcDbSpline
210
0.0
220
0.0
230
1.0
 70
     8
 71
     3
 72
    12
 73
     8
 74
     0
 42
0.00000001
 43
0.00000001
 40
0.0
 40
0.0
 40
0.0
 40
0.0
 40
0.2500000000000011
 40
0.2500000000000011
 40
0.5000000000000021
 40
0.5000000000000021
 40
1.0
 40
1.0
 40
1.0
 40
1.0
 10
7.938727687594911
 20
3.445686160407796
 30
0.0
 10
7.941432960728649
 20
3.442926229770045
 30
0.0
 10
7.943824996071616
 20
3.439949079320755
 30
0.0
 10
7.948007880248567
 20
3.433579603597976
 30
0.0
 10
7.949813290691227
 20
3.430145951756752
 30
0.0
 10
7.95413544050038
 20
3.419523914313135
 30
0.0
 10
7.955609015772808
 20
3.411959986607922
 30
0.0
 10
7.955609015772808
 20
3.40434757773063
 30
0.0
  0
SPLINE
  5
198
330
1F
100
AcDbEntity
  8
0
  6
CONTINUOUS
 62
     7
100
AcDbSpline
210
0.0
220
0.0
230
1.0
 70
     8
 71
     3
 72
    12
 73
     8
 74
     0
 42
0.00000001
 43
0.00000001
 40
0.0
 40
0.0
 40
0.0
 40
0.0
 40
0.2500000000000002
 40
0.2500000000000002
 40
0.5000000000000004
 40
0.5000000000000004
 40
1.0
 40
1.0
 40
1.0
 40
1.0
 10
8.54616019687517
 20
3.40434757773063
 30
0.0
 10
8.54616019687517
 20
3.408153389723787
 30
0.0
 10
8.546524752727958
 20
3.41191276346103
 30
0.0
 10
8.547969470882625
 20
3.419338490517746
 30
0.0
 10
8.549067877192758
 20
3.423044756787054
 30
0.0
 10
8.553386312563743
 20
3.433668401121566
 30
0.0
 10
8.557630714720155
 20
3.440166029731665
 30
0.0
 10
8.563041525053066
 20
3.445686160407794
 30
0.0
  0
LINE
  5
199
330
1F
100
AcDbEntity
  8
0
  6
CONTINUOUS
 62
     8
100
AcDbLine
 10
8.5638767323
 20
4.0708352051
 30
0.0
 11
8.5638767323
 21
4.0539538769
 31
0.0
  0
LINE
  5
19A
330
1F
100
AcDbEntity
  8
0
  6
CONTINUOUS
 62
     8
100
AcDbLine
 10
8.5638767323
 20
3.4634026958
 30
0.0
 11
8.5638767323
 21
3.4465213677
 31
0.0
  0
LINE
  5
19B
330
1F
100
AcDbEntity
  8
0
  6
CONTINUOUS
 62
     8
100
AcDbLine
 10
7.9378924803
 20
4.0708352051
 30
0.0
 11
7.9378924803
 21
4.0539538769
 31
0.0
  0
LINE
  5
19C
330
1F
100
AcDbEntity
  8
0
  6
CONTINUOUS
 62
     8
100
AcDbLine
 10
7.9378924803
 20
3.4634026958
 30
0.0
 11
7.9378924803
 21
3.4465213677
 31
0.0
  0
LINE
  5
19D
330
1F
100
AcDbEntity
  8
0
  6
CONTINUOUS
 62
     8
100
AcDbLine
 10
8.5630415251
 20
3.4456861604
 30
0.0
 11
8.4897072164
 21
3.4456861604
 31
0.0
  0
LINE
  5
19E
330
1F
100
AcDbEntity
  8
0
  6
CONTINUOUS
 62
     8
100
AcDbLine
 10
8.0120619963
 20
3.4456861604
 30
0.0
 11
7.9387276876
 21
3.4456861604
 31
0.0
  0
LINE
  5
19F
330
1F
100
AcDbEntity
  8
0
  6
CONTINUOUS
 62
     8
100
AcDbLine
 10
8.5630415251
 20
4.0716704124
 30
0.0
 11
8.4897072164
 21
4.0716704124
 31
0.0
  0
LINE
  5
1A0
330
1F
100
AcDbEntity
  8
0
  6
CONTINUOUS
 62
     8
100
AcDbLine
 10
8.0120619963
 20
4.0716704124
 30
0.0
 11
7.9387276876
 21
4.0716704124
 31
0.0
  0
LINE
  5
1A1
330
1F
100
AcDbEntity
  8
0
  6
HIDDEN
 62
     7
100
AcDbLine
 10
8.6345853937
 20
3.6996231683
 30
0.0
 11
8.6345853937
 21
3.8177334045
 31
0.0
  0
LINE
  5
1A2
330
1F
100
AcDbEntity
  8
0
  6
HIDDEN
 62
     7
100
AcDbLine
 10
8.3396247638
 20
3.7586782864
 30
0.0
 11
8.3396247638
 21
3.6996231683
 31
0.0
  0
LINE
  5
1A3
330
1F
100
AcDbEntity
  8
0
  6
HIDDEN
 62
     7
100
AcDbLine
 10
8.3396247638
 20
3.8177334045
 30
0.0
 11
8.3396247638
 21
3.7586782864
 31
0.0
  0
LINE
  5
1A4
330
1F
100
AcDbEntity
  8
0
  6
HIDDEN
 62
     7
100
AcDbLine
 10
8.3296247638
 20
3.7586782864
 30
0.0
 11
8.3296247638
 21
3.8077334045
 31
0.0
  0
LINE
  5
1A5
330
1F
100
AcDbEntity
  8
0
  6
HIDDEN
 62
     7
100
AcDbLine
 10
8.3296247638
 20
3.7096231683
 30
0.0
 11
8.3296247638
 21
3.7586782864
 31
0.0
  0
LINE
  5
1A6
330
1F
100
AcDbEntity
  8
0
  6
HIDDEN
 62
     7
100
AcDbLine
 10
8.5945853937
 20
3.7416305422
 30
0.0
 11
8.6445853937
 21
3.7416305422
 31
0.0
  0
LINE
  5
1A7
330
1F
100
AcDbEntity
  8
0
  6
HIDDEN
 62
     7
100
AcDbLine
 10
8.5945853937
 20
3.7757260306
 30
0.0
 11
8.6445853937
 21
3.7757260306
 31
0.0
  0
LINE
  5
1A8
330
1F
100
AcDbEntity
  8
0
  6
HIDDEN
 62
     7
100
AcDbLine
 10
8.5945853937
 20
3.7757260306
 30
0.0
 11
8.5945853937
 21
3.7416305422
 31
0.0
  0
LINE
  5
1A9
330
1F
100
AcDbEntity
  8
0
  6
HIDDEN
 62
     7
100
AcDbLine
 10
8.5945853937
 20
3.7416305422
 30
0.0
 11
8.5945853937
 21
3.7245827981
 31
0.0
  0
LINE
  5
1AA
330
1F
100
AcDbEntity
  8
0
  6
HIDDEN
 62
     7
100
AcDbLine
 10
8.5945853937
 20
3.7927737747
 30
0.0
 11
8.5945853937
 21
3.7757260306
 31
0.0
  0
LINE
  5
1AB
330
1F
100
AcDbEntity
  8
0
  6
HIDDEN
 62
     7
100
AcDbLine
 10
8.5945853937
 20
3.7927737747
 30
0.0
 11
8.6445853937
 21
3.7927737747
 31
0.0
  0
LINE
  5
1AC
330
1F
100
AcDbEntity
  8
0
  6
HIDDEN
 62
     7
100
AcDbLine
 10
8.5945853937
 20
3.7245827981
 30
0.0
 11
8.6445853937
 21
3.7245827981
 31
0.0
  0
LINE
  5
1AD
330
1F
100
AcDbEntity
  8
0
  6
HIDDEN
 62
     7
100
AcDbLine
 10
8.2508846063
 20
3.8374184439
 30
0.0
 11
8.2018294882
 21
3.8374184439
 31
0.0
  0
LINE
  5
1AE
330
1F
100
AcDbEntity
  8
0
  6
HIDDEN
 62
     7
100
AcDbLine
 10
8.2999397244
 20
3.8374184439
 30
0.0
 11
8.2508846063
 21
3.8374184439
 31
0.0
  0
LINE
  5
1AF
330
1F
100
AcDbEntity
  8
0
  6
HIDDEN
 62
     7
100
AcDbLine
 10
8.2508846063
 20
3.8474184439
 30
0.0
 11
8.3099397244
 21
3.8474184439
 31
0.0
  0
LINE
  5
1B0
330
1F
100
AcDbEntity
  8
0
  6
HIDDEN
 62
     7
100
AcDbLine
 10
8.1918294882
 20
3.8474184439
 30
0.0
 11
8.2508846063
 21
3.8474184439
 31
0.0
  0
LINE
  5
1B1
330
1F
100
AcDbEntity
  8
0
  6
HIDDEN
 62
     7
100
AcDbLine
 10
8.3099397244
 20
4.1423790738
 30
0.0
 11
8.1918294882
 21
4.1423790738
 31
0.0
  0
LINE
  5
1B2
330
1F
100
AcDbEntity
  8
0
  6
HIDDEN
 62
     7
100
AcDbLine
 10
8.2679323505
 20
4.1023790738
 30
0.0
 11
8.2849800947
 21
4.1023790738
 31
0.0
  0
LINE
  5
1B3
330
1F
100
AcDbEntity
  8
0
  6
HIDDEN
 62
     7
100
AcDbLine
 10
8.2338368622
 20
4.1023790738
 30
0.0
 11
8.2679323505
 21
4.1023790738
 31
0.0
  0
LINE
  5
1B4
330
1F
100
AcDbEntity
  8
0
  6
HIDDEN
 62
     7
100
AcDbLine
 10
8.2679323505
 20
4.1023790738
 30
0.0
 11
8.2679323505
 21
4.1523790738
 31
0.0
  0
LINE
  5
1B5
330
1F
100
AcDbEntity
  8
0
  6
HIDDEN
 62
     7
100
AcDbLine
 10
8.2338368622
 20
4.1023790738
 30
0.0
 11
8.2338368622
 21
4.1523790738
 31
0.0
  0
LINE
  5
1B6
330
1F
100
AcDbEntity
  8
0
  6
HIDDEN
 62
     7
100
AcDbLine
 10
8.216789118
 20
4.1023790738
 30
0.0
 11
8.2338368622
 21
4.1023790738
 31
0.0
  0
LINE
  5
1B7
330
1F
100
AcDbEntity
  8
0
  6
HIDDEN
 62
     7
100
AcDbLine
 10
8.2849800947
 20
4.1023790738
 30
0.0
 11
8.2849800947
 21
4.1523790738
 31
0.0
  0
LINE
  5
1B8
330
1F
100
AcDbEntity
  8
0
  6
HIDDEN
 62
     7
100
AcDbLine
 10
8.216789118
 20
4.1023790738
 30
0.0
 11
8.216789118
 21
4.1523790738
 31
0.0
  0
SPLINE
  5
1B9
330
1F
100
AcDbEntity
  8
0
  6
HIDDEN
 62
     7
100
AcDbSpline
210
0.0
220
0.0
230
1.0
 70
     8
 71
     3
 72
    25
 73
    21
 74
     0
 42
0.00000001
 43
0.00000001
 40
0.0
 40
0.0
 40
0.0
 40
0.0
 40
0.0000382927746872
 40
0.0504255226117176
 40
0.1088438248427001
 40
0.1753411316781646
 40
0.2499456349222507
 40
0.3241042237620645
 40
0.3904778338987874
 40
0.4490961043745552
 40
0.5000076236090475
 40
0.5508542125034445
 40
0.609437692271378
 40
0.6758067811241049
 40
0.749991673631187
 40
0.82459977365673
 40
0.8911035025885656
 40
0.9495309643141899
 40
0.9999298229042345
 40
1.0
 40
1.0
 40
1.0
 40
1.0
 10
8.626958145684574
 20
3.817732832057319
 30
0.0
 10
8.626958091926056
 20
3.817733021116369
 30
0.0
 10
8.626887300470363
 20
3.817981981956983
 30
0.0
 10
8.627169353740703
 20
3.8170678736234
 30
0.0
 10
8.62777844938317
 20
3.814544168851079
 30
0.0
 10
8.628859418719557
 20
3.809128014917154
 30
0.0
 10
8.630337844966684
 20
3.800859803793828
 30
0.0
 10
8.631819230372667
 20
3.790375187518166
 30
0.0
 10
8.632875308584211
 20
3.779221938945441
 30
0.0
 10
8.633529818159088
 20
3.768627944506384
 30
0.0
 10
8.633781051715713
 20
3.758682415629496
 30
0.0
 10
8.633531477164249
 20
3.748739041730391
 30
0.0
 10
8.63287743800489
 20
3.738150653858207
 30
0.0
 10
8.63182143030901
 20
3.72699640575176
 30
0.0
 10
8.630339541571457
 20
3.716508095057972
 30
0.0
 10
8.628861305762916
 20
3.708235882053628
 30
0.0
 10
8.627780070272951
 20
3.702816742199418
 30
0.0
 10
8.62717046775586
 20
3.700290281540398
 30
0.0
 10
8.626887567085618
 20
3.699375045445587
 30
0.0
 10
8.62695818242153
 20
3.699623861338285
 30
0.0
 10
8.626958280612017
 20
3.699624207316299
 30
0.0
  0
SPLINE
  5
1BA
330
1F
100
AcDbEntity
  8
0
  6
HIDDEN
 62
     7
100
AcDbSpline
210
0.0
220
0.0
230
1.0
 70
     8
 71
     3
 72
    12
 73
     8
 74
     0
 42
0.00000001
 43
0.00000001
 40
0.0
 40
0.0
 40
0.0
 40
0.0
 40
0.0001634402502651
 40
0.2967718616596847
 40
0.5621884389976783
 40
0.7965325510827792
 40
1.0
 40
1.0
 40
1.0
 40
1.0
 10
8.630343489955282
 20
3.716912372035537
 30
0.0
 10
8.630343760558562
 20
3.71691393145585
 30
0.0
 10
8.630835117117456
 20
3.719745498763761
 30
0.0
 10
8.631833573202362
 20
3.727166200532203
 30
0.0
 10
8.632868893139635
 20
3.738112353281016
 30
0.0
 10
8.63355753254732
 20
3.74874467103168
 30
0.0
 10
8.63365589197003
 20
3.755526511042106
 30
0.0
 10
8.633701603281924
 20
3.758678286392046
 30
0.0
  0
SPLINE
  5
1BB
330
1F
100
AcDbEntity
  8
0
  6
HIDDEN
 62
     7
100
AcDbSpline
210
0.0
220
0.0
230
1.0
 70
     8
 71
     3
 72
    25
 73
    21
 74
     0
 42
0.00000001
 43
0.00000001
 40
0.0
 40
0.0
 40
0.0
 40
0.0
 40
0.0000382927746872
 40
0.0504255226116768
 40
0.108843824842646
 40
0.1753411316781243
 40
0.2499456349222514
 40
0.3241042237615406
 40
0.3904778338980885
 40
0.4490961043740311
 40
0.500007623609047
 40
0.5508542125027984
 40
0.6094376922705167
 40
0.6758067811234594
 40
0.749991673631187
 40
0.8245997736568113
 40
0.8911035025886743
 40
0.9495309643142712
 40
0.999929822904233
 40
1.0
 40
1.0
 40
1.0
 40
1.0
 10
8.191830060658717
 20
4.134751825752631
 30
0.0
 10
8.191829871599666
 20
4.134751771994115
 30
0.0
 10
8.191580910759056
 20
4.134680980538421
 30
0.0
 10
8.192495019092634
 20
4.13496303380876
 30
0.0
 10
8.195018723864953
 20
4.135572129451228
 30
0.0
 10
8.200434877798878
 20
4.136653098787614
 30
0.0
 10
8.208703088922187
 20
4.138131525034738
 30
0.0
 10
8.219187705197808
 20
4.139612910440714
 30
0.0
 10
8.230340953770494
 20
4.140668988652253
 30
0.0
 10
8.240934948209576
 20
4.141323498227131
 30
0.0
 10
8.250880477086469
 20
4.141574731783771
 30
0.0
 10
8.26082385098555
 20
4.141325157232319
 30
0.0
 10
8.271412238857701
 20
4.140671118072963
 30
0.0
 10
8.282566486964198
 20
4.139615110377078
 30
0.0
 10
8.293054797658042
 20
4.138133221639518
 30
0.0
 10
8.301327010662414
 20
4.136654985830972
 30
0.0
 10
8.306746150516624
 20
4.135573750341015
 30
0.0
 10
8.30927261117564
 20
4.134964147823902
 30
0.0
 10
8.310187847270447
 20
4.134681247153705
 30
0.0
 10
8.30993903137775
 20
4.13475186248959
 30
0.0
 10
8.309938685399738
 20
4.134751960680076
 30
0.0
  0
SPLINE
  5
1BC
330
1F
100
AcDbEntity
  8
0
  6
HIDDEN
 62
     7
100
AcDbSpline
210
0.0
220
0.0
230
1.0
 70
     8
 71
     3
 72
    12
 73
     8
 74
     0
 42
0.00000001
 43
0.00000001
 40
0.0
 40
0.0
 40
0.0
 40
0.0
 40
0.0001634402498721
 40
0.296771861659722
 40
0.5621884389979246
 40
0.7965325510830136
 40
1.0
 40
1.0
 40
1.0
 40
1.0
 10
8.292650520680487
 20
4.138137170023342
 30
0.0
 10
8.292648961260179
 20
4.13813744062662
 30
0.0
 10
8.289817393952255
 20
4.138628797185578
 30
0.0
 10
8.282396692183829
 20
4.139627253270392
 30
0.0
 10
8.271450539435003
 20
4.140662573207699
 30
0.0
 10
8.260818221684344
 20
4.141351212615377
 30
0.0
 10
8.254036381673926
 20
4.141449572038088
 30
0.0
 10
8.25088460632399
 20
4.141495283349982
 30
0.0
  0
LINE
  5
1BD
330
1F
100
AcDbEntity
  8
0
  6
HIDDEN
 62
     7
100
AcDbLine
 10
8.3099397244
 20
3.8177334045
 30
0.0
 11
8.3065623056
 21
3.8143559857
 31
0.0
  0
LINE
  5
1BE
330
1F
100
AcDbEntity
  8
0
  6
HIDDEN
 62
     7
100
AcDbLine
 10
8.5638767323
 20
4.0708352051
 30
0.0
 11
8.5638767323
 21
3.4465213677
 31
0.0
  0
LINE
  5
1BF
330
1F
100
AcDbEntity
  8
0
  6
HIDDEN
 62
     7
100
AcDbLine
 10
7.9378924803
 20
4.0708352051
 30
0.0
 11
7.9378924803
 21
3.4465213677
 31
0.0
  0
LINE
  5
1C0
330
1F
100
AcDbEntity
  8
0
  6
HIDDEN
 62
     7
100
AcDbLine
 10
8.5638767323
 20
4.0539538769
 30
0.0
 11
8.5638767323
 21
3.9975008964
 31
0.0
  0
LINE
  5
1C1
330
1F
100
AcDbEntity
  8
0
  6
HIDDEN
 62
     7
100
AcDbLine
 10
8.5638767323
 20
3.5198556763
 30
0.0
 11
8.5638767323
 21
3.4634026958
 31
0.0
  0
LINE
  5
1C2
330
1F
100
AcDbEntity
  8
0
  6
HIDDEN
 62
     7
100
AcDbLine
 10
7.9378924803
 20
4.0539538769
 30
0.0
 11
7.9378924803
 21
3.9975008964
 31
0.0
  0
LINE
  5
1C3
330
1F
100
AcDbEntity
  8
0
  6
HIDDEN
 62
     7
100
AcDbLine
 10
7.9378924803
 20
3.5198556763
 30
0.0
 11
7.9378924803
 21
3.4634026958
 31
0.0
  0
CIRCLE
  5
1C4
330
1F
100
AcDbEntity
  8
0
  6
HIDDEN
 62
     7
100
AcDbCircle
 10
8.2508846063
 20
3.7586782864
 30
0.0
 40
0.3740157480314963
  0
LINE
  5
1C5
330
1F
100
AcDbEntity
  8
0
  6
HIDDEN
 62
     7
100
AcDbLine
 10
8.0120619963
 20
4.0716704124
 30
0.0
 11
7.9556090158
 21
4.0716704124
 31
0.0
  0
LINE
  5
1C6
330
1F
100
AcDbEntity
  8
0
  6
HIDDEN
 62
     7
100
AcDbLine
 10
8.5461601969
 20
4.0716704124
 30
0.0
 11
8.4897072164
 21
4.0716704124
 31
0.0
  0
LINE
  5
1C7
330
1F
100
AcDbEntity
  8
0
  6
HIDDEN
 62
     7
100
AcDbLine
 10
8.5461601969
 20
3.4456861604
 30
0.0
 11
8.4897072164
 21
3.4456861604
 31
0.0
  0
LINE
  5
1C8
330
1F
100
AcDbEntity
  8
0
  6
HIDDEN
 62
     7
100
AcDbLine
 10
8.0120619963
 20
3.4456861604
 30
0.0
 11
7.9556090158
 21
3.4456861604
 31
0.0
  0
LINE
  5
1C9
330
1F
100
AcDbEntity
  8
0
  6
HIDDEN
 62
     7
100
AcDbLine
 10
8.5630415251
 20
3.4456861604
 30
0.0
 11
7.9387276876
 21
3.4456861604
 31
0.0
  0
LINE
  5
1CA
330
1F
100
AcDbEntity
  8
0
  6
HIDDEN
 62
     7
100
AcDbLine
 10
7.9556090158
 20
3.4456861604
 30
0.0
 11
7.9556090158
 21
3.4041935443
 31
0.0
  0
LINE
  5
1CB
330
1F
100
AcDbEntity
  8
0
  6
HIDDEN
 62
     7
100
AcDbLine
 10
8.5461601969
 20
3.4456861604
 30
0.0
 11
8.5461601969
 21
3.4041935443
 31
0.0
  0
LINE
  5
1CC
330
1F
100
AcDbEntity
  8
0
  6
HIDDEN
 62
     7
100
AcDbLine
 10
8.5630415251
 20
4.0716704124
 30
0.0
 11
7.9387276876
 21
4.0716704124
 31
0.0
  0
LINE
  5
1CD
330
1F
100
AcDbEntity
  8
0
  6
HIDDEN
 62
     7
100
AcDbLine
 10
7.9556090158
 20
4.1130089951
 30
0.0
 11
7.9556090158
 21
4.0716704124
 31
0.0
  0
LINE
  5
1CE
330
1F
100
AcDbEntity
  8
0
  6
HIDDEN
 62
     7
100
AcDbLine
 10
8.5461601969
 20
4.1130089951
 30
0.0
 11
8.5461601969
 21
4.0716704124
 31
0.0
  0
LINE
  5
1CF
330
1F
100
AcDbEntity
  8
0
  6
HIDDEN
 62
     7
100
AcDbLine
 10
8.5461601969
 20
4.0716704124
 30
0.0
 11
8.5461601969
 21
4.01908688
 31
0.0
  0
LINE
  5
1D0
330
1F
100
AcDbEntity
  8
0
  6
HIDDEN
 62
     7
100
AcDbLine
 10
8.5461601969
 20
3.4982696928
 30
0.0
 11
8.5461601969
 21
3.4456861604
 31
0.0
  0
LINE
  5
1D1
330
1F
100
AcDbEntity
  8
0
  6
HIDDEN
 62
     7
100
AcDbLine
 10
7.9556090158
 20
3.4982696928
 30
0.0
 11
7.9556090158
 21
3.4456861604
 31
0.0
  0
LINE
  5
1D2
330
1F
100
AcDbEntity
  8
0
  6
HIDDEN
 62
     7
100
AcDbLine
 10
7.9556090158
 20
4.0716704124
 30
0.0
 11
7.9556090158
 21
4.01908688
 31
0.0
  0
SPLINE
  5
1D3
330
1F
100
AcDbEntity
  8
0
  6
HIDDEN
 62
     7
100
AcDbSpline
210
0.0
220
0.0
230
1.0
 70
     8
 71
     3
 72
    10
 73
     6
 74
     0
 42
0.00000001
 43
0.00000001
 40
0.0
 40
0.0
 40
0.0
 40
0.0
 40
0.2700796004678229
 40
0.6524199927036762
 40
1.0
 40
1.0
 40
1.0
 40
1.0
 10
8.306562305630017
 20
3.814355985698074
 30
0.0
 10
8.307498760881687
 20
3.813390814718409
 30
0.0
 10
8.309760916658737
 20
3.811059291558497
 30
0.0
 10
8.313991976610557
 20
3.806070337403487
 30
0.0
 10
8.317021992920942
 20
3.801287342209199
 30
0.0
 10
8.318464853117678
 20
3.799009732889615
 30
0.0
  0
SPLINE
  5
1D4
330
1F
100
AcDbEntity
  8
0
  6
HIDDEN
 62
     7
100
AcDbSpline
210
0.0
220
0.0
230
1.0
 70
     8
 71
     3
 72
     9
 73
     5
 74
     0
 42
0.00000001
 43
0.00000001
 40
0.0
 40
0.0
 40
0.0
 40
0.0
 40
0.8638094872320012
 40
1.0
 40
1.0
 40
1.0
 40
1.0
 10
8.329624763804306
 20
3.758678286392047
 30
0.0
 10
8.329593404184866
 20
3.755766808293994
 30
0.0
 10
8.329557100324001
 20
3.752396298776458
 30
0.0
 10
8.32900537373913
 20
3.749184717881469
 30
0.0
 10
8.32893023381263
 20
3.748747331032585
 30
0.0
  0
SPLINE
  5
1D5
330
1F
100
AcDbEntity
  8
0
  6
HIDDEN
 62
     7
100
AcDbSpline
210
0.0
220
0.0
230
1.0
 70
     8
 71
     3
 72
    11
 73
     7
 74
     0
 42
0.00000001
 43
0.00000001
 40
0.0
 40
0.0
 40
0.0
 40
0.0
 40
0.0771379052246309
 40
0.3991225144201303
 40
0.8199504884874439
 40
1.0
 40
1.0
 40
1.0
 40
1.0
 10
8.312023988222593
 20
3.709170943009765
 30
0.0
 10
8.311652845037786
 20
3.708682292817315
 30
0.0
 10
8.309732497308627
 20
3.706153947084895
 30
0.0
 10
8.306224156776866
 20
3.702624853673689
 30
0.0
 10
8.303252099646874
 20
3.699867858794843
 30
0.0
 10
8.303093297252204
 20
3.699731069796
 30
0.0
 10
8.303045713020355
 20
3.699690081752658
 30
0.0
  0
LINE
  5
1D6
330
1F
100
AcDbEntity
  8
0
  6
HIDDEN
 62
     7
100
AcDbLine
 10
8.3396247638
 20
3.6996231683
 30
0.0
 11
8.6345853937
 21
3.6996231683
 31
0.0
  0
LINE
  5
1D7
330
1F
100
AcDbEntity
  8
0
  6
HIDDEN
 62
     7
100
AcDbLine
 10
8.6345853937
 20
3.8177334045
 30
0.0
 11
8.3396247638
 21
3.8177334045
 31
0.0
  0
LINE
  5
1D8
330
1F
100
AcDbEntity
  8
0
  6
HIDDEN
 62
     7
100
AcDbLine
 10
8.6345853937
 20
3.6996231683
 30
0.0
 11
8.6410581664
 21
3.7060959409
 31
0.0
  0
LINE
  5
1D9
330
1F
100
AcDbEntity
  8
0
  6
HIDDEN
 62
     7
100
AcDbLine
 10
8.6410581664
 20
3.8112606319
 30
0.0
 11
8.6345853937
 21
3.8177334045
 31
0.0
  0
LINE
  5
1DA
330
1F
100
AcDbEntity
  8
0
  6
HIDDEN
 62
     7
100
AcDbLine
 10
8.3396247638
 20
3.8177334045
 30
0.0
 11
8.3296247638
 21
3.8077334045
 31
0.0
  0
LINE
  5
1DB
330
1F
100
AcDbEntity
  8
0
  6
HIDDEN
 62
     7
100
AcDbLine
 10
8.3296247638
 20
3.7096231683
 30
0.0
 11
8.3396247638
 21
3.6996231683
 31
0.0
  0
LINE
  5
1DC
330
1F
100
AcDbEntity
  8
0
  6
HIDDEN
 62
     7
100
AcDbLine
 10
8.1918294882
 20
3.8474184439
 30
0.0
 11
8.2018294882
 21
3.8374184439
 31
0.0
  0
LINE
  5
1DD
330
1F
100
AcDbEntity
  8
0
  6
HIDDEN
 62
     7
100
AcDbLine
 10
8.2999397244
 20
3.8374184439
 30
0.0
 11
8.3099397244
 21
3.8474184439
 31
0.0
  0
LINE
  5
1DE
330
1F
100
AcDbEntity
  8
0
  6
HIDDEN
 62
     7
100
AcDbLine
 10
8.3099397244
 20
4.1423790738
 30
0.0
 11
8.3034669518
 21
4.1488518464
 31
0.0
  0
LINE
  5
1DF
330
1F
100
AcDbEntity
  8
0
  6
HIDDEN
 62
     7
100
AcDbLine
 10
8.1983022608
 20
4.1488518464
 30
0.0
 11
8.1918294882
 21
4.1423790738
 31
0.0
  0
LINE
  5
1E0
330
1F
100
AcDbEntity
  8
0
  6
HIDDEN
 62
     7
100
AcDbLine
 10
8.3099397244
 20
3.8474184439
 30
0.0
 11
8.3099397244
 21
4.1423790738
 31
0.0
  0
LINE
  5
1E1
330
1F
100
AcDbEntity
  8
0
  6
HIDDEN
 62
     7
100
AcDbLine
 10
8.1918294882
 20
4.1423790738
 30
0.0
 11
8.1918294882
 21
3.8474184439
 31
0.0
  0
LINE
  5
1E2
330
1F
100
AcDbEntity
  8
0
  6
HIDDEN
 62
     7
100
AcDbLine
 10
8.6269579858
 20
3.699623178
 30
0.0
 11
8.6376500498
 21
3.6851065394
 31
0.0
  0
LINE
  5
1E3
330
1F
100
AcDbEntity
  8
0
  6
HIDDEN
 62
     7
100
AcDbLine
 10
8.6376500485
 20
3.8322500408
 30
0.0
 11
8.6269579845
 21
3.8177334007
 31
0.0
  0
LINE
  5
1E4
330
1F
100
AcDbEntity
  8
0
  6
HIDDEN
 62
     7
100
AcDbLine
 10
8.3099397147
 20
4.1347516658
 30
0.0
 11
8.3244563534
 21
4.1454437299
 31
0.0
  0
LINE
  5
1E5
330
1F
100
AcDbEntity
  8
0
  6
HIDDEN
 62
     7
100
AcDbLine
 10
8.1773128519
 20
4.1454437286
 30
0.0
 11
8.191829492
 21
4.1347516646
 31
0.0
  0
LINE
  5
1E6
330
1F
100
AcDbEntity
  8
0
  6
HIDDEN
 62
     7
100
AcDbLine
 10
8.303045713
 20
3.6996231683
 30
0.0
 11
8.6269583668
 21
3.6996231683
 31
0.0
  0
LINE
  5
1E7
330
1F
100
AcDbEntity
  8
0
  6
HIDDEN
 62
     7
100
AcDbLine
 10
8.6269585656
 20
3.8177334045
 30
0.0
 11
8.3099397244
 21
3.8177334045
 31
0.0
  0
LINE
  5
1E8
330
1F
100
AcDbEntity
  8
0
  6
HIDDEN
 62
     7
100
AcDbLine
 10
8.3099397244
 20
3.8177334045
 30
0.0
 11
8.3099397244
 21
4.1347520468
 31
0.0
  0
LINE
  5
1E9
330
1F
100
AcDbEntity
  8
0
  6
HIDDEN
 62
     7
100
AcDbLine
 10
8.1918294882
 20
4.1347522457
 30
0.0
 11
8.1918294882
 21
3.8109029695
 31
0.0
  0
LINE
  5
1EA
330
1F
100
AcDbEntity
  8
0
  6
HIDDEN
 62
     7
100
AcDbLine
 10
8.7430105906
 20
3.4634026958
 30
0.0
 11
8.7430105906
 21
4.0539538769
 31
0.0
  0
LINE
  5
1EB
330
1F
100
AcDbEntity
  8
0
  6
HIDDEN
 62
     7
100
AcDbLine
 10
7.7587586221
 20
4.0539538769
 30
0.0
 11
7.7587586221
 21
3.4634026958
 31
0.0
  0
LINE
  5
1EC
330
1F
100
AcDbEntity
  8
0
  6
HIDDEN
 62
     7
100
AcDbLine
 10
7.9556090158
 20
3.2665523021
 30
0.0
 11
8.5461601969
 21
3.2665523021
 31
0.0
  0
LINE
  5
1ED
330
1F
100
AcDbEntity
  8
0
  6
HIDDEN
 62
     7
100
AcDbLine
 10
8.5461601969
 20
4.2508042706
 30
0.0
 11
7.9556090158
 21
4.2508042706
 31
0.0
  0
LINE
  5
1EE
330
1F
100
AcDbEntity
  8
0
  6
HIDDEN
 62
     7
100
AcDbLine
 10
8.5638767323
 20
4.0539538769
 30
0.0
 11
8.5638767323
 21
3.4634026958
 31
0.0
  0
LINE
  5
1EF
330
1F
100
AcDbEntity
  8
0
  6
HIDDEN
 62
     7
100
AcDbLine
 10
7.9378924803
 20
4.0539538769
 30
0.0
 11
7.9378924803
 21
3.4634026958
 31
0.0
  0
LINE
  5
1F0
330
1F
100
AcDbEntity
  8
0
  6
HIDDEN
 62
     7
100
AcDbLine
 10
8.4897072164
 20
3.4456861604
 30
0.0
 11
8.0120619963
 21
3.4456861604
 31
0.0
  0
LINE
  5
1F1
330
1F
100
AcDbEntity
  8
0
  6
HIDDEN
 62
     7
100
AcDbLine
 10
8.4897072164
 20
4.0716704124
 30
0.0
 11
8.0120619963
 21
4.0716704124
 31
0.0
  0
LINE
  5
1F2
330
1F
100
AcDbEntity
  8
0
  6
CONTINUOUS
 62
     7
100
AcDbLine
 10
3.922204475
 20
7.0624717594
 30
0.0
 11
3.9189983081
 21
7.0656779263
 31
0.0
  0
LINE
  5
1F3
330
1F
100
AcDbEntity
  8
0
  6
CONTINUOUS
 62
     7
100
AcDbLine
 10
3.8208880719
 20
7.0656779263
 30
0.0
 11
3.8176818046
 21
7.062471659
 31
0.0
  0
LINE
  5
1F4
330
1F
100
AcDbEntity
  8
0
  6
CONTINUOUS
 62
     7
100
AcDbLine
 10
2.8355903018
 20
7.0624717594
 30
0.0
 11
2.8323841349
 21
7.0656779263
 31
0.0
  0
LINE
  5
1F5
330
1F
100
AcDbEntity
  8
0
  6
CONTINUOUS
 62
     7
100
AcDbLine
 10
2.7342738987
 20
7.0656779263
 30
0.0
 11
2.7310676313
 21
7.062471659
 31
0.0
  0
LINE
  5
1F6
330
1F
100
AcDbEntity
  8
0
  6
CONTINUOUS
 62
     7
100
AcDbLine
 10
3.7594835312
 20
6.2782763515
 30
0.0
 11
3.980927442
 21
6.2782763515
 31
0.0
  0
LINE
  5
1F7
330
1F
100
AcDbEntity
  8
0
  6
CONTINUOUS
 62
     7
100
AcDbLine
 10
3.6376597254
 20
6.2782763515
 30
0.0
 11
3.6952195365
 21
6.2782763515
 31
0.0
  0
LINE
  5
1F8
330
1F
100
AcDbEntity
  8
0
  6
CONTINUOUS
 62
     7
100
AcDbLine
 10
3.6952195365
 20
7.0656779263
 30
0.0
 11
3.6376597254
 21
7.0656779263
 31
0.0
  0
LINE
  5
1F9
330
1F
100
AcDbEntity
  8
0
  6
CONTINUOUS
 62
     7
100
AcDbLine
 10
3.7984053095
 20
7.0656779263
 30
0.0
 11
3.7594852258
 21
7.0656779263
 31
0.0
  0
LINE
  5
1FA
330
1F
100
AcDbEntity
  8
0
  6
CONTINUOUS
 62
     7
100
AcDbLine
 10
3.980927442
 20
7.0656779263
 30
0.0
 11
3.9414810591
 21
7.0656779263
 31
0.0
  0
LINE
  5
1FB
330
1F
100
AcDbEntity
  8
0
  6
CONTINUOUS
 62
     7
100
AcDbLine
 10
2.6723447648
 20
6.2782763515
 30
0.0
 11
3.0156124813
 21
6.2782763515
 31
0.0
  0
LINE
  5
1FC
330
1F
100
AcDbEntity
  8
0
  6
CONTINUOUS
 62
     7
100
AcDbLine
 10
2.7117911363
 20
7.0656779263
 30
0.0
 11
2.6723447648
 21
7.0656779263
 31
0.0
  0
LINE
  5
1FD
330
1F
100
AcDbEntity
  8
0
  6
CONTINUOUS
 62
     7
100
AcDbLine
 10
3.0156124813
 20
7.0656779263
 30
0.0
 11
2.8548668859
 21
7.0656779263
 31
0.0
  0
LINE
  5
1FE
330
1F
100
AcDbEntity
  8
0
  6
CONTINUOUS
 62
     7
100
AcDbLine
 10
3.980927442
 20
6.2782763515
 30
0.0
 11
3.995927442
 21
6.2932763515
 31
0.0
  0
LINE
  5
1FF
330
1F
100
AcDbEntity
  8
0
  6
CONTINUOUS
 62
     7
100
AcDbLine
 10
3.995927442
 20
7.0506779263
 30
0.0
 11
3.980927442
 21
7.0656779263
 31
0.0
  0
LINE
  5
200
330
1F
100
AcDbEntity
  8
0
  6
CONTINUOUS
 62
     7
100
AcDbLine
 10
3.0156124813
 20
6.2782763515
 30
0.0
 11
3.0352975207
 21
6.2979613909
 31
0.0
  0
LINE
  5
201
330
1F
100
AcDbEntity
  8
0
  6
CONTINUOUS
 62
     7
100
AcDbLine
 10
3.0352975207
 20
7.0459928869
 30
0.0
 11
3.0156124813
 21
7.0656779263
 31
0.0
  0
LINE
  5
202
330
1F
100
AcDbEntity
  8
0
  6
CONTINUOUS
 62
     7
100
AcDbLine
 10
3.6376597254
 20
7.0656779263
 30
0.0
 11
3.6179746861
 21
7.0459928869
 31
0.0
  0
LINE
  5
203
330
1F
100
AcDbEntity
  8
0
  6
CONTINUOUS
 62
     7
100
AcDbLine
 10
3.6179746861
 20
6.2979613909
 30
0.0
 11
3.6376597254
 21
6.2782763515
 31
0.0
  0
LINE
  5
204
330
1F
100
AcDbEntity
  8
0
  6
CONTINUOUS
 62
     7
100
AcDbLine
 10
2.6723447648
 20
7.0656779263
 30
0.0
 11
2.6573447648
 21
7.0506779263
 31
0.0
  0
LINE
  5
205
330
1F
100
AcDbEntity
  8
0
  6
CONTINUOUS
 62
     7
100
AcDbLine
 10
2.6573447648
 20
6.2932763515
 30
0.0
 11
2.6723447648
 21
6.2782763515
 31
0.0
  0
LINE
  5
206
330
1F
100
AcDbEntity
  8
0
  6
CONTINUOUS
 62
     7
100
AcDbLine
 10
3.8208880719
 20
7.0656779263
 30
0.0
 11
3.9189983081
 21
7.0656779263
 31
0.0
  0
LINE
  5
207
330
1F
100
AcDbEntity
  8
0
  6
CONTINUOUS
 62
     7
100
AcDbLine
 10
2.8323841349
 20
7.0656779263
 30
0.0
 11
2.7342738987
 21
7.0656779263
 31
0.0
  0
CIRCLE
  5
208
330
1F
100
AcDbEntity
  8
0
  6
CONTINUOUS
 62
     7
100
AcDbCircle
 10
3.86994319
 20
6.6719771389
 30
0.0
 40
0.0490551181102359
  0
LINE
  5
209
330
1F
100
AcDbEntity
  8
0
  6
CONTINUOUS
 62
     7
100
AcDbLine
 10
3.86994319
 20
6.7060726273
 30
0.0
 11
3.8404156309
 21
6.6890248831
 31
0.0
  0
LINE
  5
20A
330
1F
100
AcDbEntity
  8
0
  6
CONTINUOUS
 62
     7
100
AcDbLine
 10
3.8404156309
 20
6.6890248831
 30
0.0
 11
3.8404156309
 21
6.6549293947
 31
0.0
  0
LINE
  5
20B
330
1F
100
AcDbEntity
  8
0
  6
CONTINUOUS
 62
     7
100
AcDbLine
 10
3.8404156309
 20
6.6549293947
 30
0.0
 11
3.86994319
 21
6.6378816506
 31
0.0
  0
LINE
  5
20C
330
1F
100
AcDbEntity
  8
0
  6
CONTINUOUS
 62
     7
100
AcDbLine
 10
3.86994319
 20
6.6378816506
 30
0.0
 11
3.8994707491
 21
6.6549293947
 31
0.0
  0
LINE
  5
20D
330
1F
100
AcDbEntity
  8
0
  6
CONTINUOUS
 62
     7
100
AcDbLine
 10
3.8994707491
 20
6.6549293947
 30
0.0
 11
3.8994707491
 21
6.6890248831
 31
0.0
  0
LINE
  5
20E
330
1F
100
AcDbEntity
  8
0
  6
CONTINUOUS
 62
     7
100
AcDbLine
 10
3.8994707491
 20
6.6890248831
 30
0.0
 11
3.86994319
 21
6.7060726273
 31
0.0
  0
CIRCLE
  5
20F
330
1F
100
AcDbEntity
  8
0
  6
CONTINUOUS
 62
     7
100
AcDbCircle
 10
3.86994319
 20
6.6719771389
 30
0.0
 40
0.0590551181102361
  0
CIRCLE
  5
210
330
1F
100
AcDbEntity
  8
0
  6
CONTINUOUS
 62
     7
100
AcDbCircle
 10
2.7833290168
 20
6.6719771389
 30
0.0
 40
0.0490551181102363
  0
LINE
  5
211
330
1F
100
AcDbEntity
  8
0
  6
CONTINUOUS
 62
     7
100
AcDbLine
 10
2.7538014577
 20
6.6549293947
 30
0.0
 11
2.7538014577
 21
6.6890248831
 31
0.0
  0
LINE
  5
212
330
1F
100
AcDbEntity
  8
0
  6
CONTINUOUS
 62
     7
100
AcDbLine
 10
2.7833290168
 20
6.6378816506
 30
0.0
 11
2.7538014577
 21
6.6549293947
 31
0.0
  0
LINE
  5
213
330
1F
100
AcDbEntity
  8
0
  6
CONTINUOUS
 62
     7
100
AcDbLine
 10
2.8128565758
 20
6.6549293947
 30
0.0
 11
2.7833290168
 21
6.6378816506
 31
0.0
  0
LINE
  5
214
330
1F
100
AcDbEntity
  8
0
  6
CONTINUOUS
 62
     7
100
AcDbLine
 10
2.8128565758
 20
6.6890248831
 30
0.0
 11
2.8128565758
 21
6.6549293947
 31
0.0
  0
LINE
  5
215
330
1F
100
AcDbEntity
  8
0
  6
CONTINUOUS
 62
     7
100
AcDbLine
 10
2.7833290168
 20
6.7060726273
 30
0.0
 11
2.8128565758
 21
6.6890248831
 31
0.0
  0
LINE
  5
216
330
1F
100
AcDbEntity
  8
0
  6
CONTINUOUS
 62
     7
100
AcDbLine
 10
2.7538014577
 20
6.6890248831
 30
0.0
 11
2.7833290168
 21
6.7060726273
 31
0.0
  0
CIRCLE
  5
217
330
1F
100
AcDbEntity
  8
0
  6
CONTINUOUS
 62
     7
100
AcDbCircle
 10
2.7833290168
 20
6.6719771389
 30
0.0
 40
0.0590551181102361
  0
LINE
  5
218
330
1F
100
AcDbEntity
  8
0
  6
CONTINUOUS
 62
     7
100
AcDbLine
 10
3.3525490028
 20
6.9672527295
 30
0.0
 11
2.8797857097
 21
6.9672527295
 31
0.0
  0
SPLINE
  5
219
330
1F
100
AcDbEntity
  8
0
  6
CONTINUOUS
 62
     7
100
AcDbSpline
210
0.0
220
0.0
230
1.0
 70
     8
 71
     3
 72
    12
 73
     8
 74
     0
 42
0.00000001
 43
0.00000001
 40
0.0
 40
0.0
 40
0.0
 40
0.0
 40
0.2500000000000011
 40
0.2500000000000011
 40
0.5000000000000021
 40
0.5000000000000021
 40
1.0
 40
1.0
 40
1.0
 40
1.0
 10
3.356163662439671
 20
6.984134057645505
 30
0.0
 10
3.356163662439671
 20
6.981428784511767
 30
0.0
 10
3.356115886138505
 20
6.979036749168801
 30
0.0
 10
3.355877137826349
 20
6.974853864991849
 30
0.0
 10
3.355682716556419
 20
6.973048454549189
 30
0.0
 10
3.354829060861305
 20
6.968726304740036
 30
0.0
 10
3.353890522991477
 20
6.967252729467608
 30
0.0
 10
3.352549002750949
 20
6.967252729467608
 30
0.0
  0
LINE
  5
21A
330
1F
100
AcDbEntity
  8
0
  6
CONTINUOUS
 62
     7
100
AcDbLine
 10
3.3561636624
 20
6.9841340576
 30
0.0
 11
3.3561636624
 21
6.3598202202
 31
0.0
  0
SPLINE
  5
21B
330
1F
100
AcDbEntity
  8
0
  6
CONTINUOUS
 62
     7
100
AcDbSpline
210
0.0
220
0.0
230
1.0
 70
     8
 71
     3
 72
    12
 73
     8
 74
     0
 42
0.00000001
 43
0.00000001
 40
0.0
 40
0.0
 40
0.0
 40
0.0
 40
0.2500000000000002
 40
0.2500000000000002
 40
0.5000000000000004
 40
0.5000000000000004
 40
1.0
 40
1.0
 40
1.0
 40
1.0
 10
3.35254900275095
 20
6.376701548365246
 30
0.0
 10
3.353219693711296
 20
6.376701548365246
 30
0.0
 10
3.353786803230238
 20
6.376336992512458
 30
0.0
 10
3.354731517507378
 20
6.374892274357791
 30
0.0
 10
3.355111728025746
 20
6.373793868047658
 30
0.0
 10
3.355966382083392
 20
6.369475432676672
 30
0.0
 10
3.356163662439671
 20
6.365231030520261
 30
0.0
 10
3.356163662439671
 20
6.359820220187351
 30
0.0
  0
LINE
  5
21C
330
1F
100
AcDbEntity
  8
0
  6
CONTINUOUS
 62
     7
100
AcDbLine
 10
3.3525490028
 20
6.3767015484
 30
0.0
 11
2.8797857097
 21
6.3767015484
 31
0.0
  0
LINE
  5
21D
330
1F
100
AcDbEntity
  8
0
  6
CONTINUOUS
 62
     7
100
AcDbLine
 10
2.8797857097
 20
6.4331545289
 30
0.0
 11
2.8797857097
 21
6.3767015484
 31
0.0
  0
SPLINE
  5
21E
330
1F
100
AcDbEntity
  8
0
  6
CONTINUOUS
 62
     7
100
AcDbSpline
210
0.0
220
0.0
230
1.0
 70
     8
 71
     3
 72
    26
 73
    22
 74
     0
 42
0.00000001
 43
0.00000001
 40
0.0
 40
0.0
 40
0.0
 40
0.0
 40
0.1249999999999999
 40
0.1249999999999999
 40
0.1874999999999998
 40
0.1874999999999998
 40
0.2499999999999997
 40
0.2499999999999997
 40
0.3749999999999997
 40
0.3749999999999997
 40
0.4999999999999997
 40
0.4999999999999997
 40
0.6249999999999998
 40
0.6249999999999998
 40
0.6874999999999998
 40
0.6874999999999998
 40
0.7499999999999998
 40
0.7499999999999998
 40
0.8749999999999999
 40
0.8749999999999999
 40
1.0
 40
1.0
 40
1.0
 40
1.0
 10
2.879785709683765
 20
6.910799748969324
 30
0.0
 10
2.879785709683765
 20
6.893800956768951
 30
0.0
 10
2.880829982927059
 20
6.875844955659391
 30
0.0
 10
2.883046633834201
 20
6.847445468267179
 30
0.0
 10
2.883899147217039
 20
6.837706419855342
 30
0.0
 10
2.885664022604915
 20
6.818039545000422
 30
0.0
 10
2.886578749544134
 20
6.808078312994563
 30
0.0
 10
2.889240833689849
 20
6.777804776823035
 30
0.0
 10
2.890898111669955
 20
6.757104965251867
 30
0.0
 10
2.893234324649155
 20
6.714580215006769
 30
0.0
 10
2.893877597227998
 20
6.693188995148413
 30
0.0
 10
2.893874936899638
 20
6.650628621630402
 30
0.0
 10
2.893233846046441
 20
6.629382312092728
 30
0.0
 10
2.891487218243044
 20
6.5975640374872
 30
0.0
 10
2.890777509579006
 20
6.586982906428457
 30
0.0
 10
2.889209611250377
 20
6.566229216200441
 30
0.0
 10
2.888348995045362
 20
6.556006386168411
 30
0.0
 10
2.885690876867448
 20
6.525781017384952
 30
0.0
 10
2.883806944783347
 20
6.506218813837845
 30
0.0
 10
2.880837545561445
 20
6.468236927845034
 30
0.0
 10
2.879785709683765
 20
6.450130923982169
 30
0.0
 10
2.879785709683765
 20
6.433154528863531
 30
0.0
  0
LINE
  5
21F
330
1F
100
AcDbEntity
  8
0
  6
CONTINUOUS
 62
     7
100
AcDbLine
 10
2.8797857097
 20
6.9672527295
 30
0.0
 11
2.8797857097
 21
6.910799749
 31
0.0
  0
SPLINE
  5
220
330
1F
100
AcDbEntity
  8
0
  6
CONTINUOUS
 62
     7
100
AcDbSpline
210
0.0
220
0.0
230
1.0
 70
     8
 71
     3
 72
    12
 73
     8
 74
     0
 42
0.00000001
 43
0.00000001
 40
0.0
 40
0.0
 40
0.0
 40
0.0
 40
0.249999999999999
 40
0.249999999999999
 40
0.499999999999998
 40
0.499999999999998
 40
1.0
 40
1.0
 40
1.0
 40
1.0
 10
3.297108544329435
 20
6.359820220187351
 30
0.0
 10
3.297108544329435
 20
6.362534632041491
 30
0.0
 10
3.297044606298404
 20
6.364933594709996
 30
0.0
 10
3.296724700682616
 20
6.369125750124759
 30
0.0
 10
3.296463814649853
 20
6.370933583488911
 30
0.0
 10
3.295321154497991
 20
6.375246208808002
 30
0.0
 10
3.294063333225811
 20
6.376701548365246
 30
0.0
 10
3.292273454732416
 20
6.376701548365246
 30
0.0
  0
SPLINE
  5
221
330
1F
100
AcDbEntity
  8
0
  6
CONTINUOUS
 62
     7
100
AcDbSpline
210
0.0
220
0.0
230
1.0
 70
     8
 71
     3
 72
    12
 73
     8
 74
     0
 42
0.00000001
 43
0.00000001
 40
0.0
 40
0.0
 40
0.0
 40
0.0
 40
0.25
 40
0.25
 40
0.5
 40
0.5
 40
1.0
 40
1.0
 40
1.0
 40
1.0
 10
3.292273454732416
 20
6.967252729467608
 30
0.0
 10
3.293168233326807
 20
6.967252729467608
 30
0.0
 10
3.293925918336488
 20
6.967611096786841
 30
0.0
 10
3.295189679090137
 20
6.969044286918185
 30
0.0
 10
3.295699241883602
 20
6.97013829791309
 30
0.0
 10
3.296843390777558
 20
6.974446814389212
 30
0.0
 10
3.297108544329435
 20
6.978704741264586
 30
0.0
 10
3.297108544329435
 20
6.984134057645505
 30
0.0
  0
LINE
  5
222
330
1F
100
AcDbEntity
  8
0
  6
CONTINUOUS
 62
     7
100
AcDbLine
 10
3.7734864971
 20
6.4115685453
 30
0.0
 11
3.714431379
 21
6.4115685453
 31
0.0
  0
LINE
  5
223
330
1F
100
AcDbEntity
  8
0
  6
CONTINUOUS
 62
     7
100
AcDbLine
 10
3.980927442
 20
6.2782763515
 30
0.0
 11
3.980927442
 21
7.0656779263
 31
0.0
  0
SPLINE
  5
224
330
1F
100
AcDbEntity
  8
0
  6
CONTINUOUS
 62
     7
100
AcDbSpline
210
0.0
220
0.0
230
1.0
 70
     8
 71
     3
 72
    31
 73
    27
 74
     0
 42
0.00000001
 43
0.00000001
 40
-0.1261202054355449
 40
-0.0836798205601442
 40
-0.042611908107778
 40
0.0
 40
0.0426216130868988
 40
0.0836913141793737
 40
0.1261195178979241
 40
0.168279324817778
 40
0.2084855799152702
 40
0.2499067927967572
 40
0.2913619713114405
 40
0.3316224479920369
 40
0.373858106276649
 40
0.4162626079442618
 40
0.4573352864398955
 40
0.4999972665413304
 40
0.5426396366314312
 40
0.583726847952306
 40
0.6261788426281932
 40
0.6683249926213212
 40
0.7085632764787316
 40
0.7500555229830712
 40
0.7914450068357473
 40
0.8316605972580675
 40
0.8738797945644551
 40
0.9163201794398558
 40
0.957388091892222
 40
1.0
 40
1.042621613086899
 40
1.083691314179374
 40
1.126119517897924
 10
3.799827452557519
 20
6.652694499482392
 30
0.0
 10
3.797678929939306
 20
6.671978856041395
 30
0.0
 10
3.799835918453456
 20
6.691262090555269
 30
0.0
 10
3.807075375264733
 20
6.709259166640805
 30
0.0
 10
3.818808160363799
 20
6.724489058421756
 30
0.0
 10
3.833574351002788
 20
6.73659317812166
 30
0.0
 10
3.851105699623553
 20
6.744072734080746
 30
0.0
 10
3.869905482428325
 20
6.74629514570271
 30
0.0
 10
3.888715471534273
 20
6.74408340159197
 30
0.0
 10
3.906273411945003
 20
6.736602996676377
 30
0.0
 10
3.921064885162344
 20
6.724504443531228
 30
0.0
 10
3.932816617821184
 20
6.709277047011823
 30
0.0
 10
3.940055108700537
 20
6.691275066190498
 30
0.0
 10
3.9422073589323
 20
6.671980125511883
 30
0.0
 10
3.940055423048268
 20
6.652682255172153
 30
0.0
 10
3.932808099677398
 20
6.634677199732289
 30
0.0
 10
3.921064762773324
 20
6.619449491086076
 30
0.0
 10
3.906282472464699
 20
6.607353724852392
 30
0.0
 10
3.888732238752159
 20
6.599885872986262
 30
0.0
 10
3.869928457648236
 20
6.597659525365539
 30
0.0
 10
3.85112291882584
 20
6.599864696136037
 30
0.0
 10
3.833586942065482
 20
6.607350540039688
 30
0.0
 10
3.818811795201925
 20
6.619462077439997
 30
0.0
 10
3.807067646819922
 20
6.634696682363062
 30
0.0
 10
3.799827452557519
 20
6.652694499482392
 30
0.0
 10
3.797678929939306
 20
6.671978856041395
 30
0.0
 10
3.799835918453456
 20
6.691262090555269
 30
0.0
  0
ARC
  5
225
330
1F
100
AcDbEntity
  8
0
  6
CONTINUOUS
 62
     7
100
AcDbCircle
 10
3.86994319
 20
7.4320845837
 30
0.0
 40
0.373324934769538
100
AcDbArc
 50
258.9524472188
 51
281.0475527812
  0
LINE
  5
226
330
1F
100
AcDbEntity
  8
0
  6
CONTINUOUS
 62
     7
100
AcDbLine
 10
3.714431379
 20
6.9323857325
 30
0.0
 11
3.7734864971
 21
6.9323857325
 31
0.0
  0
LINE
  5
227
330
1F
100
AcDbEntity
  8
0
  6
CONTINUOUS
 62
     7
100
AcDbLine
 10
3.6376597254
 20
7.0656779263
 30
0.0
 11
3.6376597254
 21
6.2782763515
 31
0.0
  0
LINE
  5
228
330
1F
100
AcDbEntity
  8
0
  6
CONTINUOUS
 62
     7
100
AcDbLine
 10
2.6723447648
 20
7.0656779263
 30
0.0
 11
2.6723447648
 21
6.2782763515
 31
0.0
  0
SPLINE
  5
229
330
1F
100
AcDbEntity
  8
0
  6
CONTINUOUS
 62
     7
100
AcDbSpline
210
0.0
220
0.0
230
1.0
 70
     8
 71
     3
 72
    31
 73
    27
 74
     0
 42
0.00000001
 43
0.00000001
 40
-0.1261202054354891
 40
-0.0836798205598586
 40
-0.0426119081074926
 40
0.0
 40
0.0426216130869554
 40
0.0836913141794306
 40
0.1261195178979349
 40
0.1682793248178797
 40
0.2084855799153721
 40
0.2499067927967653
 40
0.2913619713114862
 40
0.3316224479920827
 40
0.3738581062766457
 40
0.4162626079442586
 40
0.4573352864398926
 40
0.499997266541327
 40
0.5426396366312699
 40
0.5837268479521444
 40
0.6261788426281579
 40
0.6683249926211668
 40
0.7085632764785768
 40
0.7500555229830674
 40
0.791445006836019
 40
0.8316605972583391
 40
0.8738797945645109
 40
0.9163201794401414
 40
0.9573880918925074
 40
1.0
 40
1.042621613086955
 40
1.083691314179431
 40
1.126119517897935
 10
2.713213279329185
 20
6.652694499482478
 30
0.0
 10
2.711064756710957
 20
6.671978856041448
 30
0.0
 10
2.713221745225108
 20
6.691262090555287
 30
0.0
 10
2.72046120203638
 20
6.709259166640829
 30
0.0
 10
2.732193987135469
 20
6.724489058421772
 30
0.0
 10
2.746960177774473
 20
6.736593178121665
 30
0.0
 10
2.764491526395233
 20
6.744072734080762
 30
0.0
 10
2.783291309199999
 20
6.74629514570271
 30
0.0
 10
2.802101298305935
 20
6.744083401591952
 30
0.0
 10
2.819659238716666
 20
6.736602996676364
 30
0.0
 10
2.834450711934004
 20
6.724504443531223
 30
0.0
 10
2.846202444592838
 20
6.709277047011823
 30
0.0
 10
2.853440935472189
 20
6.691275066190498
 30
0.0
 10
2.855593185703955
 20
6.671980125511907
 30
0.0
 10
2.853441249819915
 20
6.652682255172201
 30
0.0
 10
2.846193926449033
 20
6.634677199732351
 30
0.0
 10
2.834450589545007
 20
6.619449491086105
 30
0.0
 10
2.819668299236413
 20
6.607353724852374
 30
0.0
 10
2.80211806552386
 20
6.599885872986251
 30
0.0
 10
2.78331428441987
 20
6.597659525365543
 30
0.0
 10
2.764508745597411
 20
6.599864696136022
 30
0.0
 10
2.746972768837026
 20
6.607350540039655
 30
0.0
 10
2.732197621973528
 20
6.61946207744005
 30
0.0
 10
2.720453473591609
 20
6.634696682363172
 30
0.0
 10
2.713213279329185
 20
6.652694499482478
 30
0.0
 10
2.711064756710957
 20
6.671978856041448
 30
0.0
 10
2.713221745225108
 20
6.691262090555287
 30
0.0
  0
ARC
  5
22A
330
1F
100
AcDbEntity
  8
0
  6
CONTINUOUS
 62
     7
100
AcDbCircle
 10
2.7833290168
 20
7.4320845837
 30
0.0
 40
0.3733249347701263
100
AcDbArc
 50
258.9524472188
 51
281.0475527812
  0
LINE
  5
22B
330
1F
100
AcDbEntity
  8
0
  6
CONTINUOUS
 62
     7
100
AcDbLine
 10
3.0156124813
 20
6.2782763515
 30
0.0
 11
3.0156124813
 21
6.3767015484
 31
0.0
  0
LINE
  5
22C
330
1F
100
AcDbEntity
  8
0
  6
CONTINUOUS
 62
     7
100
AcDbLine
 10
3.0156124813
 20
6.9672527295
 30
0.0
 11
3.0156124813
 21
7.0656779263
 31
0.0
  0
SPLINE
  5
22D
330
1F
100
AcDbEntity
  8
0
  6
CONTINUOUS
 62
     7
100
AcDbSpline
210
0.0
220
0.0
230
1.0
 70
     8
 71
     3
 72
     9
 73
     5
 74
     0
 42
0.00000001
 43
0.00000001
 40
0.0
 40
0.0
 40
0.0
 40
0.0
 40
0.714255860415722
 40
1.0
 40
1.0
 40
1.0
 40
1.0
 10
2.724273898660143
 20
6.671977138916426
 30
0.0
 10
2.724335979820805
 20
6.668795411812594
 30
0.0
 10
2.724422897078476
 20
6.664340807685187
 30
0.0
 10
2.72563447262611
 20
6.660084833032889
 30
0.0
 10
2.725980673238511
 20
6.658868713217776
 30
0.0
  0
SPLINE
  5
22E
330
1F
100
AcDbEntity
  8
0
  6
CONTINUOUS
 62
     7
100
AcDbSpline
210
0.0
220
0.0
230
1.0
 70
     8
 71
     3
 72
     9
 73
     5
 74
     0
 42
0.00000001
 43
0.00000001
 40
0.0
 40
0.0
 40
0.0
 40
0.0
 40
0.5687981924239253
 40
1.0
 40
1.0
 40
1.0
 40
1.0
 10
2.842384134880527
 20
6.671977036648723
 30
0.0
 10
2.84228386120204
 20
6.675142900442221
 30
0.0
 10
2.842107570771052
 20
6.680708782745761
 30
0.0
 10
2.840525274948811
 20
6.686026843022676
 30
0.0
 10
2.83984298613014
 20
6.688320000226879
 30
0.0
  0
LINE
  5
22F
330
1F
100
AcDbEntity
  8
0
  6
CONTINUOUS
 62
     7
100
AcDbLine
 10
2.7244635191
 20
6.6743393639
 30
0.0
 11
2.7242738987
 21
6.6719771389
 31
0.0
  0
SPLINE
  5
230
330
1F
100
AcDbEntity
  8
0
  6
CONTINUOUS
 62
     7
100
AcDbSpline
210
0.0
220
0.0
230
1.0
 70
     8
 71
     3
 72
    29
 73
    25
 74
     0
 42
0.00000001
 43
0.00000001
 40
-0.0881771917838534
 40
-0.0548960641915769
 40
-0.025511852282836
 40
0.0
 40
0.0349098082171365
 40
0.0766195181141592
 40
0.1251672972876574
 40
0.1740298805796416
 40
0.2157098588205773
 40
0.2502429678047931
 40
0.3045973451722213
 40
0.3749224006845979
 40
0.4235556238869925
 40
0.4652860545289347
 40
0.5001514010349357
 40
0.5548003641181681
 40
0.6248326997703506
 40
0.6737239267555554
 40
0.7154320156125605
 40
0.7499924793230865
 40
0.8043168013526325
 40
0.8746297963046924
 40
0.9118228082161466
 40
0.9451039358084231
 40
0.974488147717164
 40
1.0
 40
1.034909808217136
 40
1.076619518114159
 40
1.125167297287657
 10
3.81143384948298
 20
6.681920481572289
 30
0.0
 10
3.810540604251398
 20
6.670816970577412
 30
0.0
 10
3.811932936791503
 20
6.658172615058051
 30
0.0
 10
3.817290618253283
 20
6.643521629425659
 30
0.0
 10
3.827563450878243
 20
6.629535568830618
 30
0.0
 10
3.841560012841436
 20
6.619278839305436
 30
0.0
 10
3.856214092264021
 20
6.61395665432618
 30
0.0
 10
3.872362285015834
 20
6.612185742586282
 30
0.0
 10
3.892130288254813
 20
6.615573543794234
 30
0.0
 10
3.910755638747951
 20
6.627376699799467
 30
0.0
 10
3.922593213619538
 20
6.643518837772438
 30
0.0
 10
3.927955345847792
 20
6.658184576835278
 30
0.0
 10
3.92974447632071
 20
6.674417359267203
 30
0.0
 10
3.926321395797666
 20
6.694227925576477
 30
0.0
 10
3.914478046660227
 20
6.712858880220922
 30
0.0
 10
3.898323948143759
 20
6.724673863782232
 30
0.0
 10
3.883656924640727
 20
6.730003169828327
 30
0.0
 10
3.867504734378805
 20
6.731766728897884
 30
0.0
 10
3.847743405276148
 20
6.72837724507853
 30
0.0
 10
3.830339981497356
 20
6.717334665905629
 30
0.0
 10
3.819545679618018
 20
6.703667424753903
 30
0.0
 10
3.814165127603835
 20
6.692511203509006
 30
0.0
 10
3.81143384948298
 20
6.681920481572289
 30
0.0
 10
3.810540604251398
 20
6.670816970577412
 30
0.0
 10
3.811932936791503
 20
6.658172615058051
 30
0.0
  0
LINE
  5
231
330
1F
100
AcDbEntity
  8
0
  6
CONTINUOUS
 62
     7
100
AcDbLine
 10
3.995927442
 20
7.0506779263
 30
0.0
 11
3.995927442
 21
6.2932763515
 31
0.0
  0
LINE
  5
232
330
1F
100
AcDbEntity
  8
0
  6
CONTINUOUS
 62
     7
100
AcDbLine
 10
3.0352975207
 20
7.0459928869
 30
0.0
 11
3.0352975207
 21
6.9672527295
 31
0.0
  0
LINE
  5
233
330
1F
100
AcDbEntity
  8
0
  6
CONTINUOUS
 62
     7
100
AcDbLine
 10
3.0352975207
 20
6.3767015484
 30
0.0
 11
3.0352975207
 21
6.2979613909
 31
0.0
  0
LINE
  5
234
330
1F
100
AcDbEntity
  8
0
  6
CONTINUOUS
 62
     7
100
AcDbLine
 10
3.6179746861
 20
6.2979613909
 30
0.0
 11
3.6179746861
 21
7.0459928869
 31
0.0
  0
LINE
  5
235
330
1F
100
AcDbEntity
  8
0
  6
CONTINUOUS
 62
     7
100
AcDbLine
 10
2.6573447648
 20
6.2932763515
 30
0.0
 11
2.6573447648
 21
7.0506779263
 31
0.0
  0
LINE
  5
236
330
1F
100
AcDbEntity
  8
0
  6
CONTINUOUS
 62
     7
100
AcDbLine
 10
3.2971085443
 20
6.9841340576
 30
0.0
 11
3.2971085443
 21
6.9849692649
 31
0.0
  0
SPLINE
  5
237
330
1F
100
AcDbEntity
  8
0
  6
CONTINUOUS
 62
     7
100
AcDbSpline
210
0.0
220
0.0
230
1.0
 70
     8
 71
     3
 72
    12
 73
     8
 74
     0
 42
0.00000001
 43
0.00000001
 40
0.0
 40
0.0
 40
0.0
 40
0.0
 40
0.2499999999999992
 40
0.2499999999999992
 40
0.4999999999999984
 40
0.4999999999999984
 40
1.0
 40
1.0
 40
1.0
 40
1.0
 10
3.297108544329435
 20
6.984969264900679
 30
0.0
 10
3.297108544329435
 20
6.98772919553843
 30
0.0
 10
3.2971563206306
 20
6.99070634598772
 30
0.0
 10
3.297395068942756
 20
6.997075821710498
 30
0.0
 10
3.297589490212685
 20
7.000509473551722
 30
0.0
 10
3.298443145907799
 20
7.011131510995338
 30
0.0
 10
3.299381683777628
 20
7.018695438700552
 30
0.0
 10
3.300723204018155
 20
7.026307847577845
 30
0.0
  0
LINE
  5
238
330
1F
100
AcDbEntity
  8
0
  6
CONTINUOUS
 62
     7
100
AcDbLine
 10
3.300723204
 20
7.0263078476
 30
0.0
 11
3.360998752
 21
7.0263078476
 31
0.0
  0
SPLINE
  5
239
330
1F
100
AcDbEntity
  8
0
  6
CONTINUOUS
 62
     7
100
AcDbSpline
210
0.0
220
0.0
230
1.0
 70
     8
 71
     3
 72
    12
 73
     8
 74
     0
 42
0.00000001
 43
0.00000001
 40
0.0
 40
0.0
 40
0.0
 40
0.0
 40
0.2499999999999998
 40
0.2499999999999998
 40
0.4999999999999996
 40
0.4999999999999996
 40
1.0
 40
1.0
 40
1.0
 40
1.0
 10
3.360998752036689
 20
7.026307847577845
 30
0.0
 10
3.360103973442297
 20
7.022535129764724
 30
0.0
 10
3.359346288432617
 20
7.018795639902398
 30
0.0
 10
3.358082527678969
 20
7.011387176072925
 30
0.0
 10
3.357572964885503
 20
7.007676792940939
 30
0.0
 10
3.356428815991547
 20
6.997042674807737
 30
0.0
 10
3.356163662439671
 20
6.990508275522143
 30
0.0
 10
3.356163662439671
 20
6.984969264900679
 30
0.0
  0
LINE
  5
23A
330
1F
100
AcDbEntity
  8
0
  6
CONTINUOUS
 62
     7
100
AcDbLine
 10
3.3561636624
 20
6.9849692649
 30
0.0
 11
3.3561636624
 21
6.9841340576
 31
0.0
  0
LINE
  5
23B
330
1F
100
AcDbEntity
  8
0
  6
CONTINUOUS
 62
     7
100
AcDbLine
 10
3.2971085443
 20
6.3589850129
 30
0.0
 11
3.2971085443
 21
6.3598202202
 31
0.0
  0
LINE
  5
23C
330
1F
100
AcDbEntity
  8
0
  6
CONTINUOUS
 62
     7
100
AcDbLine
 10
3.3561636624
 20
6.3598202202
 30
0.0
 11
3.3561636624
 21
6.3589850129
 31
0.0
  0
SPLINE
  5
23D
330
1F
100
AcDbEntity
  8
0
  6
CONTINUOUS
 62
     7
100
AcDbSpline
210
0.0
220
0.0
230
1.0
 70
     8
 71
     3
 72
    12
 73
     8
 74
     0
 42
0.00000001
 43
0.00000001
 40
0.0
 40
0.0
 40
0.0
 40
0.0
 40
0.2500000000000008
 40
0.2500000000000008
 40
0.5000000000000017
 40
0.5000000000000017
 40
1.0
 40
1.0
 40
1.0
 40
1.0
 10
3.356163662439671
 20
6.358985012932174
 30
0.0
 10
3.356163662439671
 20
6.356215758934756
 30
0.0
 10
3.356227600470701
 20
6.353227894260453
 30
0.0
 10
3.356547506086489
 20
6.346835402979511
 30
0.0
 10
3.356808392119251
 20
6.343387709383389
 30
0.0
 10
3.357951052271114
 20
6.332755407366578
 30
0.0
 10
3.359208873543293
 20
6.32519322062045
 30
0.0
 10
3.360998752036689
 20
6.317646430255011
 30
0.0
  0
LINE
  5
23E
330
1F
100
AcDbEntity
  8
0
  6
CONTINUOUS
 62
     7
100
AcDbLine
 10
3.360998752
 20
6.3176464303
 30
0.0
 11
3.300723204
 21
6.3176464303
 31
0.0
  0
SPLINE
  5
23F
330
1F
100
AcDbEntity
  8
0
  6
CONTINUOUS
 62
     7
100
AcDbSpline
210
0.0
220
0.0
230
1.0
 70
     8
 71
     3
 72
    12
 73
     8
 74
     0
 42
0.00000001
 43
0.00000001
 40
0.0
 40
0.0
 40
0.0
 40
0.0
 40
0.25
 40
0.25
 40
0.5
 40
0.5
 40
1.0
 40
1.0
 40
1.0
 40
1.0
 10
3.300723204018155
 20
6.317646430255009
 30
0.0
 10
3.300052513057809
 20
6.321452242248167
 30
0.0
 10
3.299485403538867
 20
6.32521161598541
 30
0.0
 10
3.298540689261727
 20
6.332637343042126
 30
0.0
 10
3.298160478743359
 20
6.336343609311434
 30
0.0
 10
3.297305824685713
 20
6.346967253645946
 30
0.0
 10
3.297108544329435
 20
6.353464882256046
 30
0.0
 10
3.297108544329435
 20
6.358985012932175
 30
0.0
  0
LINE
  5
240
330
1F
100
AcDbEntity
  8
0
  6
CONTINUOUS
 62
     7
100
AcDbLine
 10
3.7734864971
 20
6.9323857325
 30
0.0
 11
3.7734864971
 21
6.9849692649
 31
0.0
  0
LINE
  5
241
330
1F
100
AcDbEntity
  8
0
  6
CONTINUOUS
 62
     7
100
AcDbLine
 10
3.714431379
 20
6.9323857325
 30
0.0
 11
3.714431379
 21
6.9849692649
 31
0.0
  0
ARC
  5
242
330
1F
100
AcDbEntity
  8
0
  6
CONTINUOUS
 62
     7
100
AcDbCircle
 10
3.5352975207
 20
6.9849692649
 30
0.0
 40
0.1791338582677167
100
AcDbArc
 50
0.0
 51
166.6576362029
  0
ARC
  5
243
330
1F
100
AcDbEntity
  8
0
  6
CONTINUOUS
 62
     7
100
AcDbCircle
 10
3.5352975207
 20
6.9849692649
 30
0.0
 40
0.2381889763779528
100
AcDbArc
 50
0.0
 51
170.0054955261
  0
LINE
  5
244
330
1F
100
AcDbEntity
  8
0
  6
CONTINUOUS
 62
     7
100
AcDbLine
 10
3.7734864971
 20
6.3589850129
 30
0.0
 11
3.7734864971
 21
6.4115685453
 31
0.0
  0
LINE
  5
245
330
1F
100
AcDbEntity
  8
0
  6
CONTINUOUS
 62
     7
100
AcDbLine
 10
3.714431379
 20
6.3589850129
 30
0.0
 11
3.714431379
 21
6.4115685453
 31
0.0
  0
ARC
  5
246
330
1F
100
AcDbEntity
  8
0
  6
CONTINUOUS
 62
     7
100
AcDbCircle
 10
3.5352975207
 20
6.3589850129
 30
0.0
 40
0.1791338582677167
100
AcDbArc
 50
193.3423637971
 51
0.0
  0
ARC
  5
247
330
1F
100
AcDbEntity
  8
0
  6
CONTINUOUS
 62
     7
100
AcDbCircle
 10
3.5352975207
 20
6.3589850129
 30
0.0
 40
0.2381889763779528
100
AcDbArc
 50
189.9945044739
 51
0.0
  0
LINE
  5
248
330
1F
100
AcDbEntity
  8
0
  6
HIDDEN
 62
     7
100
AcDbLine
 10
3.9289983081
 20
7.0556779263
 30
0.0
 11
3.8108880719
 21
7.0556779263
 31
0.0
  0
LINE
  5
249
330
1F
100
AcDbEntity
  8
0
  6
HIDDEN
 62
     7
100
AcDbLine
 10
3.8108880719
 20
6.7607172964
 30
0.0
 11
3.9289983081
 21
6.7607172964
 31
0.0
  0
LINE
  5
24A
330
1F
100
AcDbEntity
  8
0
  6
HIDDEN
 62
     7
100
AcDbLine
 10
3.9189983081
 20
6.7507172964
 30
0.0
 11
3.8208880719
 21
6.7507172964
 31
0.0
  0
LINE
  5
24B
330
1F
100
AcDbEntity
  8
0
  6
HIDDEN
 62
     7
100
AcDbLine
 10
3.86994319
 20
7.0156779263
 30
0.0
 11
3.86994319
 21
7.0656779263
 31
0.0
  0
LINE
  5
24C
330
1F
100
AcDbEntity
  8
0
  6
HIDDEN
 62
     7
100
AcDbLine
 10
3.86994319
 20
7.0156779263
 30
0.0
 11
3.8994707491
 21
7.0156779263
 31
0.0
  0
LINE
  5
24D
330
1F
100
AcDbEntity
  8
0
  6
HIDDEN
 62
     7
100
AcDbLine
 10
3.8404156309
 20
7.0156779263
 30
0.0
 11
3.86994319
 21
7.0156779263
 31
0.0
  0
LINE
  5
24E
330
1F
100
AcDbEntity
  8
0
  6
HIDDEN
 62
     7
100
AcDbLine
 10
3.8404156309
 20
7.0156779263
 30
0.0
 11
3.8404156309
 21
7.0656779263
 31
0.0
  0
LINE
  5
24F
330
1F
100
AcDbEntity
  8
0
  6
HIDDEN
 62
     7
100
AcDbLine
 10
3.8994707491
 20
7.0156779263
 30
0.0
 11
3.8994707491
 21
7.0656779263
 31
0.0
  0
LINE
  5
250
330
1F
100
AcDbEntity
  8
0
  6
HIDDEN
 62
     7
100
AcDbLine
 10
2.7242738987
 20
7.0556779263
 30
0.0
 11
2.8423841349
 21
7.0556779263
 31
0.0
  0
LINE
  5
251
330
1F
100
AcDbEntity
  8
0
  6
HIDDEN
 62
     7
100
AcDbLine
 10
2.8423841349
 20
6.7607172964
 30
0.0
 11
2.7242738987
 21
6.7607172964
 31
0.0
  0
LINE
  5
252
330
1F
100
AcDbEntity
  8
0
  6
HIDDEN
 62
     7
100
AcDbLine
 10
2.7342738987
 20
6.7507172964
 30
0.0
 11
2.8323841349
 21
6.7507172964
 31
0.0
  0
LINE
  5
253
330
1F
100
AcDbEntity
  8
0
  6
HIDDEN
 62
     7
100
AcDbLine
 10
2.7833290168
 20
7.0156779263
 30
0.0
 11
2.7833290168
 21
7.0656779263
 31
0.0
  0
LINE
  5
254
330
1F
100
AcDbEntity
  8
0
  6
HIDDEN
 62
     7
100
AcDbLine
 10
2.7833290168
 20
7.0156779263
 30
0.0
 11
2.7538014577
 21
7.0156779263
 31
0.0
  0
LINE
  5
255
330
1F
100
AcDbEntity
  8
0
  6
HIDDEN
 62
     7
100
AcDbLine
 10
2.8128565758
 20
7.0156779263
 30
0.0
 11
2.7833290168
 21
7.0156779263
 31
0.0
  0
LINE
  5
256
330
1F
100
AcDbEntity
  8
0
  6
HIDDEN
 62
     7
100
AcDbLine
 10
2.8128565758
 20
7.0156779263
 30
0.0
 11
2.8128565758
 21
7.0656779263
 31
0.0
  0
LINE
  5
257
330
1F
100
AcDbEntity
  8
0
  6
HIDDEN
 62
     7
100
AcDbLine
 10
2.7538014577
 20
7.0156779263
 30
0.0
 11
2.7538014577
 21
7.0656779263
 31
0.0
  0
LINE
  5
258
330
1F
100
AcDbEntity
  8
0
  6
HIDDEN
 62
     7
100
AcDbLine
 10
2.9388408278
 20
6.4331545289
 30
0.0
 11
2.9388408278
 21
6.3767015484
 31
0.0
  0
LINE
  5
259
330
1F
100
AcDbEntity
  8
0
  6
HIDDEN
 62
     7
100
AcDbLine
 10
3.2971085443
 20
6.9841340576
 30
0.0
 11
3.2971085443
 21
6.3598202202
 31
0.0
  0
LINE
  5
25A
330
1F
100
AcDbEntity
  8
0
  6
HIDDEN
 62
     7
100
AcDbLine
 10
2.9388408278
 20
6.9672527295
 30
0.0
 11
2.9388408278
 21
6.910799749
 31
0.0
  0
SPLINE
  5
25B
330
1F
100
AcDbEntity
  8
0
  6
HIDDEN
 62
     7
100
AcDbSpline
210
0.0
220
0.0
230
1.0
 70
     8
 71
     3
 72
    28
 73
    24
 74
     0
 42
0.00000001
 43
0.00000001
 40
0.0
 40
0.0
 40
0.0
 40
0.0
 40
0.1249999999999997
 40
0.1249999999999997
 40
0.1874999999999996
 40
0.1874999999999996
 40
0.2499999999999997
 40
0.2499999999999997
 40
0.3749999999999998
 40
0.3749999999999998
 40
0.4374999999999998
 40
0.4374999999999998
 40
0.4999999999999999
 40
0.4999999999999999
 40
0.625
 40
0.625
 40
0.6875
 40
0.6875
 40
0.7500000000000001
 40
0.7500000000000001
 40
0.875
 40
0.875
 40
1.0
 40
1.0
 40
1.0
 40
1.0
 10
2.938840827794001
 20
6.910799748969324
 30
0.0
 10
2.938840827794001
 20
6.893561313584267
 30
0.0
 10
2.940254873594599
 20
6.875551237084111
 30
0.0
 10
2.943208745216686
 20
6.847364372828893
 30
0.0
 10
2.944338139412431
 20
6.837772427641014
 30
0.0
 10
2.946715297199994
 20
6.81818039256131
 30
0.0
 10
2.947968267910675
 20
6.808138704808751
 30
0.0
 10
2.95162385997055
 20
6.777698574040286
 30
0.0
 10
2.953900625305781
 20
6.757060141586262
 30
0.0
 10
2.956315616871663
 20
6.725534719931933
 30
0.0
 10
2.956956832197358
 20
6.714931355550657
 30
0.0
 10
2.957826669376851
 20
6.693523974609834
 30
0.0
 10
2.958053681428777
 20
6.682665912512639
 30
0.0
 10
2.95805063740846
 20
6.650378945759797
 30
0.0
 10
2.957131218969876
 20
6.629130111823186
 30
0.0
 10
2.954726161166607
 20
6.597639410692302
 30
0.0
 10
2.953758413170678
 20
6.587206283087354
 30
0.0
 10
2.95160072446828
 20
6.566463084139907
 30
0.0
 10
2.950405934716508
 20
6.556114618097655
 30
0.0
 10
2.946756812101217
 20
6.525726611040776
 30
0.0
 10
2.944222523157545
 20
6.506226005272914
 30
0.0
 10
2.940272372950555
 20
6.468607301185381
 30
0.0
 10
2.938840827794001
 20
6.450378026484429
 30
0.0
 10
2.938840827794001
 20
6.433154528863531
 30
0.0
  0
SPLINE
  5
25C
330
1F
100
AcDbEntity
  8
0
  6
HIDDEN
 62
     7
100
AcDbSpline
210
0.0
220
0.0
230
1.0
 70
     8
 71
     3
 72
    12
 73
     8
 74
     0
 42
0.00000001
 43
0.00000001
 40
0.0
 40
0.0
 40
0.0
 40
0.0
 40
0.0001500569485943
 40
0.2541008302191577
 40
0.498922488879332
 40
0.7443373662975328
 40
1.0
 40
1.0
 40
1.0
 40
1.0
 10
3.920512606309545
 20
7.062223616804356
 30
0.0
 10
3.920514788651972
 20
7.062223888527178
 30
0.0
 10
3.924210285778716
 20
7.062684013801281
 30
0.0
 10
3.929861812087434
 20
7.063591297511615
 30
0.0
 10
3.93670228804537
 20
7.064717954342953
 30
0.0
 10
3.940767722974597
 20
7.065519152219969
 30
0.0
 10
3.941240067955061
 20
7.065624284913676
 30
0.0
 10
3.941481070512632
 20
7.065677926317981
 30
0.0
  0
SPLINE
  5
25D
330
1F
100
AcDbEntity
  8
0
  6
HIDDEN
 62
     7
100
AcDbSpline
210
0.0
220
0.0
230
1.0
 70
     8
 71
     3
 72
    12
 73
     8
 74
     0
 42
0.00000001
 43
0.00000001
 40
0.0
 40
0.0
 40
0.0
 40
0.0
 40
0.0001500569485567
 40
0.25410083021928
 40
0.4989224888795297
 40
0.7443373662976912
 40
1.0
 40
1.0
 40
1.0
 40
1.0
 10
2.833898433081201
 20
7.062223616804356
 30
0.0
 10
2.833900615423627
 20
7.062223888527178
 30
0.0
 10
2.837596112550348
 20
7.062684013801173
 30
0.0
 10
2.843247638859096
 20
7.063591297511664
 30
0.0
 10
2.850088114817019
 20
7.064717954342942
 30
0.0
 10
2.854153549746251
 20
7.065519152219972
 30
0.0
 10
2.854625894726714
 20
7.065624284913678
 30
0.0
 10
2.854866897284285
 20
7.065677926317981
 30
0.0
  0
LINE
  5
25E
330
1F
100
AcDbEntity
  8
0
  6
HIDDEN
 62
     7
100
AcDbLine
 10
3.0156124813
 20
6.3767015484
 30
0.0
 11
3.0156124813
 21
6.9672527295
 31
0.0
  0
SPLINE
  5
25F
330
1F
100
AcDbEntity
  8
0
  6
HIDDEN
 62
     7
100
AcDbSpline
210
0.0
220
0.0
230
1.0
 70
     8
 71
     3
 72
    22
 73
    18
 74
     0
 42
0.00000001
 43
0.00000001
 40
0.0
 40
0.0
 40
0.0
 40
0.0
 40
0.0411781880959974
 40
0.1126074373819773
 40
0.1923446763291928
 40
0.2726611588807156
 40
0.3442519226551411
 40
0.4071473590417917
 40
0.4613991102899223
 40
0.5156796534084503
 40
0.5786118126760327
 40
0.6502472239223994
 40
0.7306162572719882
 40
0.8105049213661678
 40
0.8820070781347308
 40
0.9451546567650901
 40
1.0
 40
1.0
 40
1.0
 40
1.0
 10
2.725980673238511
 20
6.658868713217776
 30
0.0
 10
2.726503624182393
 20
6.656557418709877
 30
0.0
 10
2.727933705698604
 20
6.650236864950621
 30
0.0
 10
2.73299814635698
 20
6.640297439259186
 30
0.0
 10
2.741200230884051
 20
6.629808482741863
 30
0.0
 10
2.751708300291465
 20
6.621532199509704
 30
0.0
 10
2.762880964898722
 20
6.616168751800746
 30
0.0
 10
2.773437148962409
 20
6.613462642972869
 30
0.0
 10
2.783304654842022
 20
6.612673540633014
 30
0.0
 10
2.793175373504719
 20
6.613454543431498
 30
0.0
 10
2.803738487247433
 20
6.616154773824634
 30
0.0
 10
2.814927670862148
 20
6.621513442243728
 30
0.0
 10
2.825425431140127
 20
6.629799534220943
 30
0.0
 10
2.833733634010482
 20
6.640279309416159
 30
0.0
 10
2.839077058055644
 20
6.651433692647683
 30
0.0
 10
2.841917284633072
 20
6.662027439260359
 30
0.0
 10
2.842235993136301
 20
6.668819812850522
 30
0.0
 10
2.842384134880527
 20
6.671977036648723
 30
0.0
  0
SPLINE
  5
260
330
1F
100
AcDbEntity
  8
0
  6
HIDDEN
 62
     7
100
AcDbSpline
210
0.0
220
0.0
230
1.0
 70
     8
 71
     3
 72
    22
 73
    18
 74
     0
 42
0.00000001
 43
0.00000001
 40
0.0
 40
0.0
 40
0.0
 40
0.0
 40
0.0223249558004976
 40
0.0962723265694049
 40
0.1789279399961876
 40
0.2620550844290301
 40
0.3361524690072024
 40
0.4012514066298962
 40
0.4574050038375873
 40
0.5135096754912097
 40
0.5785680224531016
 40
0.6526336096730103
 40
0.7357372886900461
 40
0.818348281383681
 40
0.8922717621374209
 40
0.9575409801849216
 40
1.0
 40
1.0
 40
1.0
 40
1.0
 10
2.83984298613014
 20
6.688320000226879
 30
0.0
 10
2.839556792599963
 20
6.689527562371629
 30
0.0
 10
2.83832263485983
 20
6.694734955308536
 30
0.0
 10
2.833626133679357
 20
6.703629503654513
 30
0.0
 10
2.8254702757094
 20
6.714152048397919
 30
0.0
 10
2.814931638944755
 20
6.722431445038607
 30
0.0
 10
2.803752233923575
 20
6.727795669975336
 30
0.0
 10
2.793185892865025
 20
6.730497914112104
 30
0.0
 10
2.783314926919017
 20
6.731280781310208
 30
0.0
 10
2.773446034503454
 20
6.730493240823802
 30
0.0
 10
2.76288962018655
 20
6.727788183900845
 30
0.0
 10
2.751706532560122
 20
6.722425864742998
 30
0.0
 10
2.741217218500474
 20
6.714137180290517
 30
0.0
 10
2.732907883032491
 20
6.703658161370726
 30
0.0
 10
2.727594052738549
 20
6.692503275949854
 30
0.0
 10
2.724895067694507
 20
6.682693237939528
 30
0.0
 10
2.724585521032692
 20
6.676701064253888
 30
0.0
 10
2.724463519149913
 20
6.674339363865002
 30
0.0
  0
LINE
  5
261
330
1F
100
AcDbEntity
  8
0
  6
HIDDEN
 62
     7
100
AcDbLine
 10
3.0352975207
 20
6.9672527295
 30
0.0
 11
3.0352975207
 21
6.3767015484
 31
0.0
  0
SPLINE
  5
262
330
1F
100
AcDbEntity
  8
0
  6
HIDDEN
 62
     7
100
AcDbSpline
210
0.0
220
0.0
230
1.0
 70
     8
 71
     3
 72
    14
 73
    10
 74
     0
 42
0.00000001
 43
0.00000001
 40
0.0
 40
0.0
 40
0.0
 40
0.0
 40
0.25
 40
0.25
 40
0.5
 40
0.5
 40
0.75
 40
0.75
 40
1.0
 40
1.0
 40
1.0
 40
1.0
 10
3.850258150628647
 20
6.727654838222453
 30
0.0
 10
3.844547707792368
 20
6.729673784649009
 30
0.0
 10
3.83928394533935
 20
6.732290161617026
 30
0.0
 10
3.829977302112323
 20
6.737512958273082
 30
0.0
 10
3.825786169305138
 20
6.740209865563796
 30
0.0
 10
3.818799466534332
 20
6.744926045412707
 30
0.0
 10
3.815947174599268
 20
6.746985348575961
 30
0.0
 10
3.811960088473485
 20
6.749904681542872
 30
0.0
 10
3.81088807188849
 20
6.750717296396742
 30
0.0
 10
3.81088807188849
 20
6.750717296396742
 30
0.0
  0
SPLINE
  5
263
330
1F
100
AcDbEntity
  8
0
  6
HIDDEN
 62
     7
100
AcDbSpline
210
0.0
220
0.0
230
1.0
 70
     8
 71
     3
 72
    11
 73
     7
 74
     0
 42
0.00000001
 43
0.00000001
 40
0.0
 40
0.0
 40
0.0
 40
0.0
 40
0.3340152281995739
 40
0.5102045480385654
 40
0.6928605817428768
 40
1.0
 40
1.0
 40
1.0
 40
1.0
 10
3.850433909037609
 20
6.727684686855961
 30
0.0
 10
3.854753158264694
 20
6.726358736011309
 30
0.0
 10
3.861350763444703
 20
6.72433336083586
 30
0.0
 10
3.871055224573849
 20
6.723907490923565
 30
0.0
 10
3.880333016869129
 20
6.724708979389147
 30
0.0
 10
3.886585302238071
 20
6.726744355275035
 30
0.0
 10
3.890505966023952
 20
6.728020692495037
 30
0.0
  0
SPLINE
  5
264
330
1F
100
AcDbEntity
  8
0
  6
HIDDEN
 62
     7
100
AcDbSpline
210
0.0
220
0.0
230
1.0
 70
     8
 71
     3
 72
    15
 73
    11
 74
     0
 42
0.00000001
 43
0.00000001
 40
0.0
 40
0.0
 40
0.0
 40
0.0
 40
0.06095611297029
 40
0.1646347112513734
 40
0.2711473362792897
 40
0.4882351118754242
 40
0.6140814507312664
 40
0.742532761946124
 40
0.8698380623915556
 40
1.0
 40
1.0
 40
1.0
 40
1.0
 10
3.928821965223711
 20
6.750585125989765
 30
0.0
 10
3.928855439853567
 20
6.750610191196933
 30
0.0
 10
3.928945850572889
 20
6.750677889134732
 30
0.0
 10
3.927778677237542
 20
6.749803904842354
 30
0.0
 10
3.924847434211024
 20
6.747638765494653
 30
0.0
 10
3.919619639594744
 20
6.74388650319829
 30
0.0
 10
3.912502938189658
 20
6.739175399495382
 30
0.0
 10
3.905817126429015
 20
6.735144953876544
 30
0.0
 10
3.898270756139194
 20
6.731067438664381
 30
0.0
 10
3.892530302021991
 20
6.728800754767682
 30
0.0
 10
3.889628229368805
 20
6.727654838222453
 30
0.0
  0
SPLINE
  5
265
330
1F
100
AcDbEntity
  8
0
  6
HIDDEN
 62
     7
100
AcDbSpline
210
0.0
220
0.0
230
1.0
 70
     8
 71
     3
 72
    14
 73
    10
 74
     0
 42
0.00000001
 43
0.00000001
 40
0.0
 40
0.0
 40
0.0
 40
0.0
 40
0.25
 40
0.25
 40
0.5
 40
0.5
 40
0.75
 40
0.75
 40
1.0
 40
1.0
 40
1.0
 40
1.0
 10
2.7636439774003
 20
6.727654838222453
 30
0.0
 10
2.757933534564022
 20
6.729673784649009
 30
0.0
 10
2.752669772111004
 20
6.732290161617026
 30
0.0
 10
2.743363128883977
 20
6.737512958273082
 30
0.0
 10
2.739171996076792
 20
6.740209865563796
 30
0.0
 10
2.732185293305986
 20
6.744926045412707
 30
0.0
 10
2.729333001370922
 20
6.746985348575961
 30
0.0
 10
2.725345915245138
 20
6.749904681542872
 30
0.0
 10
2.724273898660143
 20
6.750717296396742
 30
0.0
 10
2.724273898660143
 20
6.750717296396742
 30
0.0
  0
SPLINE
  5
266
330
1F
100
AcDbEntity
  8
0
  6
HIDDEN
 62
     7
100
AcDbSpline
210
0.0
220
0.0
230
1.0
 70
     8
 71
     3
 72
    11
 73
     7
 74
     0
 42
0.00000001
 43
0.00000001
 40
0.0
 40
0.0
 40
0.0
 40
0.0
 40
0.3340152281985987
 40
0.5102045480378347
 40
0.6928605817424008
 40
1.0
 40
1.0
 40
1.0
 40
1.0
 10
2.763819735809319
 20
6.727684686855947
 30
0.0
 10
2.768138985036386
 20
6.7263587360113
 30
0.0
 10
2.774736590216376
 20
6.724333360835859
 30
0.0
 10
2.784441051345502
 20
6.723907490923565
 30
0.0
 10
2.793718843640782
 20
6.724708979389147
 30
0.0
 10
2.799971129009726
 20
6.726744355275036
 30
0.0
 10
2.803891792795608
 20
6.728020692495038
 30
0.0
  0
SPLINE
  5
267
330
1F
100
AcDbEntity
  8
0
  6
HIDDEN
 62
     7
100
AcDbSpline
210
0.0
220
0.0
230
1.0
 70
     8
 71
     3
 72
    15
 73
    11
 74
     0
 42
0.00000001
 43
0.00000001
 40
0.0
 40
0.0
 40
0.0
 40
0.0
 40
0.0609561129702931
 40
0.1646347112513764
 40
0.2711473362792924
 40
0.4882351118754269
 40
0.6140814507312695
 40
0.7425327619461266
 40
0.869838062391558
 40
1.0
 40
1.0
 40
1.0
 40
1.0
 10
2.842207791995364
 20
6.750585125989765
 30
0.0
 10
2.842241266625221
 20
6.750610191196933
 30
0.0
 10
2.842331677344543
 20
6.750677889134732
 30
0.0
 10
2.841164504009195
 20
6.749803904842354
 30
0.0
 10
2.838233260982677
 20
6.747638765494652
 30
0.0
 10
2.833005466366398
 20
6.74388650319829
 30
0.0
 10
2.825888764961311
 20
6.739175399495382
 30
0.0
 10
2.819202953200668
 20
6.735144953876544
 30
0.0
 10
2.811656582910846
 20
6.731067438664381
 30
0.0
 10
2.805916128793644
 20
6.728800754767682
 30
0.0
 10
2.803014056140458
 20
6.727654838222453
 30
0.0
  0
SPLINE
  5
268
330
1F
100
AcDbEntity
  8
0
  6
HIDDEN
 62
     7
100
AcDbSpline
210
0.0
220
0.0
230
1.0
 70
     8
 71
     3
 72
    24
 73
    20
 74
     0
 42
0.00000001
 43
0.00000001
 40
0.0
 40
0.0
 40
0.0
 40
0.0
 40
0.0510059562451268
 40
0.109647621855344
 40
0.175973757602457
 40
0.250014336040196
 40
0.3245927752320977
 40
0.3910688864021596
 40
0.4494708896903652
 40
0.4998467378733236
 40
0.5502493209503874
 40
0.6086854235295756
 40
0.675202992426603
 40
0.749830228035793
 40
0.8240114133678083
 40
0.8904052478749069
 40
0.9490413796303891
 40
0.999968411859069
 40
1.0
 40
1.0
 40
1.0
 40
1.0
 10
2.724273898660143
 20
7.05479413587436
 30
0.0
 10
2.724422480289934
 20
7.054747349104406
 30
0.0
 10
2.724741886562404
 20
7.054646771477057
 30
0.0
 10
2.727585215255916
 20
7.05396007351122
 30
0.0
 10
2.732924901966994
 20
7.052915407833712
 30
0.0
 10
2.741221012787263
 20
7.05143288447892
 30
0.0
 10
2.751703360598193
 20
7.049950249598042
 30
0.0
 10
2.762882061416774
 20
7.048884888635581
 30
0.0
 10
2.773436908619992
 20
7.048224775577621
 30
0.0
 10
2.783304731190725
 20
7.04797001260217
 30
0.0
 10
2.793175284214914
 20
7.048223933910434
 30
0.0
 10
2.803738823548527
 20
7.048883452861979
 30
0.0
 10
2.814926178756846
 20
7.049947706419021
 30
0.0
 10
2.825431705216017
 20
7.051432590495932
 30
0.0
 10
2.833711500383492
 20
7.052907628366612
 30
0.0
 10
2.839146497468218
 20
7.053980040684022
 30
0.0
 10
2.841703256209961
 20
7.054584918532115
 30
0.0
 10
2.842636344658805
 20
7.054863958384348
 30
0.0
 10
2.842383822077753
 20
7.05479404928079
 30
0.0
 10
2.842383665544495
 20
7.054794005945658
 30
0.0
  0
SPLINE
  5
269
330
1F
100
AcDbEntity
  8
0
  6
HIDDEN
 62
     7
100
AcDbSpline
210
0.0
220
0.0
230
1.0
 70
     8
 71
     3
 72
    24
 73
    20
 74
     0
 42
0.00000001
 43
0.00000001
 40
0.0
 40
0.0
 40
0.0
 40
0.0
 40
0.0510059562459379
 40
0.1096476218564238
 40
0.1759737576032676
 40
0.2500143360402022
 40
0.324592775231849
 40
0.3910688864018246
 40
0.4494708896901154
 40
0.4998467378733336
 40
0.5502493209508713
 40
0.6086854235302175
 40
0.6752029924270857
 40
0.7498302280357995
 40
0.8240114133678955
 40
0.8904052478750205
 40
0.9490413796304743
 40
0.9999684118590709
 40
1.0
 40
1.0
 40
1.0
 40
1.0
 10
3.810888071888489
 20
7.054794135874361
 30
0.0
 10
3.811036653518285
 20
7.054747349104406
 30
0.0
 10
3.811356059790763
 20
7.054646771477059
 30
0.0
 10
3.814199388484321
 20
7.053960073511225
 30
0.0
 10
3.819539075195411
 20
7.052915407833717
 30
0.0
 10
3.827835186015639
 20
7.051432884478916
 30
0.0
 10
3.838317533826508
 20
7.049950249598028
 30
0.0
 10
3.849496234645069
 20
7.048884888635563
 30
0.0
 10
3.8600510818483
 20
7.048224775577606
 30
0.0
 10
3.869918904419085
 20
7.04797001260217
 30
0.0
 10
3.879789457443329
 20
7.048223933910449
 30
0.0
 10
3.890352996776967
 20
7.048883452861994
 30
0.0
 10
3.901540351985248
 20
7.049947706419032
 30
0.0
 10
3.912045878444387
 20
7.051432590495935
 30
0.0
 10
3.920325673611842
 20
7.052907628366615
 30
0.0
 10
3.925760670696583
 20
7.053980040684014
 30
0.0
 10
3.928317429438271
 20
7.054584918532139
 30
0.0
 10
3.929250517887221
 20
7.054863958384305
 30
0.0
 10
3.9289979953061
 20
7.05479404928079
 30
0.0
 10
3.928997838772841
 20
7.054794005945658
 30
0.0
  0
LINE
  5
26A
330
1F
100
AcDbEntity
  8
0
  6
HIDDEN
 62
     7
100
AcDbLine
 10
3.360998752
 20
7.0263078476
 30
0.0
 11
3.300723204
 21
7.0263078476
 31
0.0
  0
LINE
  5
26B
330
1F
100
AcDbEntity
  8
0
  6
HIDDEN
 62
     7
100
AcDbLine
 10
3.300723204
 20
6.3176464303
 30
0.0
 11
3.360998752
 21
6.3176464303
 31
0.0
  0
LINE
  5
26C
330
1F
100
AcDbEntity
  8
0
  6
HIDDEN
 62
     7
100
AcDbLine
 10
3.9289983081
 20
7.0556779263
 30
0.0
 11
3.922204475
 21
7.0624717594
 31
0.0
  0
LINE
  5
26D
330
1F
100
AcDbEntity
  8
0
  6
HIDDEN
 62
     7
100
AcDbLine
 10
3.8176818046
 20
7.062471659
 30
0.0
 11
3.8108880719
 21
7.0556779263
 31
0.0
  0
LINE
  5
26E
330
1F
100
AcDbEntity
  8
0
  6
HIDDEN
 62
     7
100
AcDbLine
 10
3.9289983081
 20
6.7607172964
 30
0.0
 11
3.9289983081
 21
7.0556779263
 31
0.0
  0
LINE
  5
26F
330
1F
100
AcDbEntity
  8
0
  6
HIDDEN
 62
     7
100
AcDbLine
 10
3.8108880719
 20
7.0556779263
 30
0.0
 11
3.8108880719
 21
6.7607172964
 31
0.0
  0
LINE
  5
270
330
1F
100
AcDbEntity
  8
0
  6
HIDDEN
 62
     7
100
AcDbLine
 10
3.8108880719
 20
6.7607172964
 30
0.0
 11
3.8208880719
 21
6.7507172964
 31
0.0
  0
LINE
  5
271
330
1F
100
AcDbEntity
  8
0
  6
HIDDEN
 62
     7
100
AcDbLine
 10
3.9189983081
 20
6.7507172964
 30
0.0
 11
3.9289983081
 21
6.7607172964
 31
0.0
  0
LINE
  5
272
330
1F
100
AcDbEntity
  8
0
  6
HIDDEN
 62
     7
100
AcDbLine
 10
2.8423841349
 20
7.0556779263
 30
0.0
 11
2.8355903018
 21
7.0624717594
 31
0.0
  0
LINE
  5
273
330
1F
100
AcDbEntity
  8
0
  6
HIDDEN
 62
     7
100
AcDbLine
 10
2.7310676313
 20
7.062471659
 30
0.0
 11
2.7242738987
 21
7.0556779263
 31
0.0
  0
LINE
  5
274
330
1F
100
AcDbEntity
  8
0
  6
HIDDEN
 62
     7
100
AcDbLine
 10
2.8423841349
 20
6.7607172964
 30
0.0
 11
2.8423841349
 21
7.0556779263
 31
0.0
  0
LINE
  5
275
330
1F
100
AcDbEntity
  8
0
  6
HIDDEN
 62
     7
100
AcDbLine
 10
2.7242738987
 20
7.0556779263
 30
0.0
 11
2.7242738987
 21
6.7607172964
 31
0.0
  0
LINE
  5
276
330
1F
100
AcDbEntity
  8
0
  6
HIDDEN
 62
     7
100
AcDbLine
 10
2.7242738987
 20
6.7607172964
 30
0.0
 11
2.7342738987
 21
6.7507172964
 31
0.0
  0
LINE
  5
277
330
1F
100
AcDbEntity
  8
0
  6
HIDDEN
 62
     7
100
AcDbLine
 10
2.8323841349
 20
6.7507172964
 30
0.0
 11
2.8423841349
 21
6.7607172964
 31
0.0
  0
LINE
  5
278
330
1F
100
AcDbEntity
  8
0
  6
HIDDEN
 62
     7
100
AcDbLine
 10
3.6952195365
 20
6.2782763515
 30
0.0
 11
3.6953734784
 21
6.2782763515
 31
0.0
  0
LINE
  5
279
330
1F
100
AcDbEntity
  8
0
  6
HIDDEN
 62
     7
100
AcDbLine
 10
3.6953777478
 20
7.0656779263
 30
0.0
 11
3.6952195365
 21
7.0656779263
 31
0.0
  0
LINE
  5
27A
330
1F
100
AcDbEntity
  8
0
  6
HIDDEN
 62
     7
100
AcDbLine
 10
3.995927442
 20
6.7657172964
 30
0.0
 11
3.980927442
 21
6.7507172964
 31
0.0
  0
LINE
  5
27B
330
1F
100
AcDbEntity
  8
0
  6
HIDDEN
 62
     7
100
AcDbLine
 10
3.980927442
 20
6.5932369814
 30
0.0
 11
3.995927442
 21
6.5782369814
 31
0.0
  0
LINE
  5
27C
330
1F
100
AcDbEntity
  8
0
  6
HIDDEN
 62
     7
100
AcDbLine
 10
2.6573447648
 20
6.5782369814
 30
0.0
 11
2.6723447648
 21
6.5932369814
 31
0.0
  0
LINE
  5
27D
330
1F
100
AcDbEntity
  8
0
  6
HIDDEN
 62
     7
100
AcDbLine
 10
2.6723447648
 20
6.7507172964
 30
0.0
 11
2.6573447648
 21
6.7657172964
 31
0.0
  0
LINE
  5
27E
330
1F
100
AcDbEntity
  8
0
  6
HIDDEN
 62
     7
100
AcDbLine
 10
3.8108880719
 20
6.7507172964
 30
0.0
 11
3.6179746861
 21
6.7507172964
 31
0.0
  0
LINE
  5
27F
330
1F
100
AcDbEntity
  8
0
  6
HIDDEN
 62
     7
100
AcDbLine
 10
3.980927442
 20
6.7507172964
 30
0.0
 11
3.9288219652
 21
6.7507172964
 31
0.0
  0
LINE
  5
280
330
1F
100
AcDbEntity
  8
0
  6
HIDDEN
 62
     7
100
AcDbLine
 10
3.6179746861
 20
6.5932369814
 30
0.0
 11
3.980927442
 21
6.5932369814
 31
0.0
  0
LINE
  5
281
330
1F
100
AcDbEntity
  8
0
  6
HIDDEN
 62
     7
100
AcDbLine
 10
2.7242738987
 20
6.7507172964
 30
0.0
 11
2.6723447648
 21
6.7507172964
 31
0.0
  0
LINE
  5
282
330
1F
100
AcDbEntity
  8
0
  6
HIDDEN
 62
     7
100
AcDbLine
 10
3.0352975207
 20
6.7507172964
 30
0.0
 11
2.842207792
 21
6.7507172964
 31
0.0
  0
LINE
  5
283
330
1F
100
AcDbEntity
  8
0
  6
HIDDEN
 62
     7
100
AcDbLine
 10
2.6723447648
 20
6.5932369814
 30
0.0
 11
3.0352975207
 21
6.5932369814
 31
0.0
  0
LINE
  5
284
330
1F
100
AcDbEntity
  8
0
  6
HIDDEN
 62
     7
100
AcDbLine
 10
2.8423841358
 20
7.0547941359
 30
0.0
 11
2.8548668984
 21
7.0656779263
 31
0.0
  0
LINE
  5
285
330
1F
100
AcDbEntity
  8
0
  6
HIDDEN
 62
     7
100
AcDbLine
 10
2.7117911341
 20
7.0656779265
 30
0.0
 11
2.7242738969
 21
7.0547941361
 31
0.0
  0
LINE
  5
286
330
1F
100
AcDbEntity
  8
0
  6
HIDDEN
 62
     7
100
AcDbLine
 10
3.928998309
 20
7.0547941359
 30
0.0
 11
3.9414810716
 21
7.0656779263
 31
0.0
  0
LINE
  5
287
330
1F
100
AcDbEntity
  8
0
  6
HIDDEN
 62
     7
100
AcDbLine
 10
3.7984053074
 20
7.0656779265
 30
0.0
 11
3.8108880701
 21
7.0547941361
 31
0.0
  0
LINE
  5
288
330
1F
100
AcDbEntity
  8
0
  6
HIDDEN
 62
     7
100
AcDbLine
 10
2.8423841349
 20
6.7505851262
 30
0.0
 11
2.8423841349
 21
7.0547941336
 31
0.0
  0
LINE
  5
289
330
1F
100
AcDbEntity
  8
0
  6
HIDDEN
 62
     7
100
AcDbLine
 10
2.7242738987
 20
7.0547941359
 30
0.0
 11
2.7242738987
 21
6.7507172964
 31
0.0
  0
LINE
  5
28A
330
1F
100
AcDbEntity
  8
0
  6
HIDDEN
 62
     7
100
AcDbLine
 10
3.9289983081
 20
6.7505851262
 30
0.0
 11
3.9289983081
 21
7.0547941336
 31
0.0
  0
LINE
  5
28B
330
1F
100
AcDbEntity
  8
0
  6
HIDDEN
 62
     7
100
AcDbLine
 10
3.8108880719
 20
7.0547941359
 30
0.0
 11
3.8108880719
 21
6.7507172964
 31
0.0
  0
LINE
  5
28C
330
1F
100
AcDbEntity
  8
0
  6
CONTINUOUS
 62
     7
100
AcDbLine
 10
8.6133885759
 20
6.6227566237
 30
0.0
 11
8.6204584944
 21
6.6186739197
 31
0.0
  0
LINE
  5
28D
330
1F
100
AcDbEntity
  8
0
  6
CONTINUOUS
 62
     7
100
AcDbLine
 10
8.5994815739
 20
6.9680767965
 30
0.0
 11
8.5924093572
 21
6.9721608275
 31
0.0
  0
LINE
  5
28E
330
1F
100
AcDbEntity
  8
0
  6
CONTINUOUS
 62
     7
100
AcDbLine
 10
8.5230236713
 20
6.9721608275
 30
0.0
 11
8.5159514545
 21
6.9680767965
 31
0.0
  0
LINE
  5
28F
330
1F
100
AcDbEntity
  8
0
  6
CONTINUOUS
 62
     7
100
AcDbLine
 10
8.6167716323
 20
6.9388163877
 30
0.0
 11
8.6167716323
 21
6.9439741754
 31
0.0
  0
LINE
  5
290
330
1F
100
AcDbEntity
  8
0
  6
CONTINUOUS
 62
     7
100
AcDbLine
 10
8.4986613961
 20
6.9439741754
 30
0.0
 11
8.4986613961
 21
6.9405098995
 31
0.0
  0
LINE
  5
291
330
1F
100
AcDbEntity
  8
0
  6
CONTINUOUS
 62
     7
100
AcDbLine
 10
7.8311293235
 20
7.4116371092
 30
0.0
 11
7.8240571067
 21
7.4157211402
 31
0.0
  0
LINE
  5
292
330
1F
100
AcDbEntity
  8
0
  6
CONTINUOUS
 62
     7
100
AcDbLine
 10
7.7546714208
 20
7.4157211402
 30
0.0
 11
7.7475992041
 21
7.4116371092
 31
0.0
  0
LINE
  5
293
330
1F
100
AcDbEntity
  8
0
  6
CONTINUOUS
 62
     7
100
AcDbLine
 10
7.8484193819
 20
7.3823767005
 30
0.0
 11
7.8484193819
 21
7.3875344882
 31
0.0
  0
LINE
  5
294
330
1F
100
AcDbEntity
  8
0
  6
CONTINUOUS
 62
     7
100
AcDbLine
 10
7.7303091457
 20
7.3875344882
 30
0.0
 11
7.7303091457
 21
7.3840702122
 31
0.0
  0
LINE
  5
295
330
1F
100
AcDbEntity
  8
0
  6
CONTINUOUS
 62
     7
100
AcDbLine
 10
8.6362394773
 20
6.2639159648
 30
0.0
 11
8.6468443552
 21
6.2700400208
 31
0.0
  0
LINE
  5
296
330
1F
100
AcDbEntity
  8
0
  6
CONTINUOUS
 62
     7
100
AcDbLine
 10
8.9145827279
 20
6.7338267377
 30
0.0
 11
8.9145827279
 21
6.7460728594
 31
0.0
  0
LINE
  5
297
330
1F
100
AcDbEntity
  8
0
  6
CONTINUOUS
 62
     7
100
AcDbLine
 10
8.2926769364
 20
6.3290767172
 30
0.0
 11
8.4393598352
 21
6.2443984821
 31
0.0
  0
LINE
  5
298
330
1F
100
AcDbEntity
  8
0
  6
CONTINUOUS
 62
     7
100
AcDbLine
 10
8.6326605335
 20
7.0419967588
 30
0.0
 11
8.5903016974
 21
7.0664499944
 31
0.0
  0
LINE
  5
299
330
1F
100
AcDbEntity
  8
0
  6
CONTINUOUS
 62
     7
100
AcDbLine
 10
8.8330286276
 20
6.9263267202
 30
0.0
 11
8.6863457288
 21
7.0110049553
 31
0.0
  0
LINE
  5
29A
330
1F
100
AcDbEntity
  8
0
  6
CONTINUOUS
 62
     7
100
AcDbLine
 10
7.861578461
 20
6.8806104576
 30
0.0
 11
7.861578461
 21
6.3984013167
 31
0.0
  0
LINE
  5
29B
330
1F
100
AcDbEntity
  8
0
  6
CONTINUOUS
 62
     7
100
AcDbLine
 10
8.3934220553
 20
7.0469325117
 30
0.0
 11
8.3795048928
 21
7.0388956928
 31
0.0
  0
LINE
  5
29C
330
1F
100
AcDbEntity
  8
0
  6
CONTINUOUS
 62
     7
100
AcDbLine
 10
8.1157010485
 20
7.5200102466
 30
0.0
 11
7.6981183037
 21
7.2789448592
 31
0.0
  0
LINE
  5
29D
330
1F
100
AcDbEntity
  8
0
  6
CONTINUOUS
 62
     7
100
AcDbLine
 10
7.7024933237
 20
6.6697824647
 30
0.0
 11
7.7567790806
 21
6.6384439643
 31
0.0
  0
LINE
  5
29E
330
1F
100
AcDbEntity
  8
0
  6
CONTINUOUS
 62
     7
100
AcDbLine
 10
7.5140521504
 20
6.7785672384
 30
0.0
 11
7.648778073
 21
6.7007916188
 31
0.0
  0
LINE
  5
29F
330
1F
100
AcDbEntity
  8
0
  6
CONTINUOUS
 62
     7
100
AcDbLine
 10
7.9601641077
 20
7.4302206819
 30
0.0
 11
7.9077209428
 21
7.4604954765
 31
0.0
  0
LINE
  5
2A0
330
1F
100
AcDbEntity
  8
0
  6
CONTINUOUS
 62
     7
100
AcDbLine
 10
8.7805941233
 20
6.9565965152
 30
0.0
 11
8.7805941233
 21
7.1361397682
 31
0.0
  0
LINE
  5
2A1
330
1F
100
AcDbEntity
  8
0
  6
CONTINUOUS
 62
     7
100
AcDbLine
 10
7.7108413007
 20
7.4409779939
 30
0.0
 11
7.7002364228
 21
7.4348539379
 31
0.0
  0
LINE
  5
2A2
330
1F
100
AcDbEntity
  8
0
  6
CONTINUOUS
 62
     7
100
AcDbLine
 10
7.4324980501
 20
6.9710672209
 30
0.0
 11
7.4324980501
 21
6.9588210993
 31
0.0
  0
POLYLINE
  5
2A3
330
1F
100
AcDbEntity
  8
0
  6
CONTINUOUS
 62
     7
100
AcDb2dPolyline
 66
     1
 10
0.0
 20
0.0
 30
0.0
  0
VERTEX
  5
315
330
2A3
100
AcDbEntity
  8
0
  6
CONTINUOUS
 62
     7
100
AcDbVertex
100
AcDb2dVertex
 10
8.6480814202
 20
6.6427843764
 30
0.0
  0
VERTEX
  5
316
330
2A3
100
AcDbEntity
  8
0
  6
CONTINUOUS
 62
     7
100
AcDbVertex
100
AcDb2dVertex
 10
8.6475824763
 20
6.649841824
 30
0.0
  0
VERTEX
  5
317
330
2A3
100
AcDbEntity
  8
0
  6
CONTINUOUS
 62
     7
100
AcDbVertex
100
AcDb2dVertex
 10
8.6467418134
 20
6.6545819165
 30
0.0
  0
SEQEND
  5
318
330
2A3
100
AcDbEntity
  8
0
  6
CONTINUOUS
 62
     7
  0
POLYLINE
  5
2A4
330
1F
100
AcDbEntity
  8
0
  6
CONTINUOUS
 62
     7
100
AcDb2dPolyline
 66
     1
 10
0.0
 20
0.0
 30
0.0
  0
VERTEX
  5
319
330
2A4
100
AcDbEntity
  8
0
  6
CONTINUOUS
 62
     7
100
AcDbVertex
100
AcDb2dVertex
 10
8.6116345568
 20
6.6238207706
 30
0.0
  0
VERTEX
  5
31A
330
2A4
100
AcDbEntity
  8
0
  6
CONTINUOUS
 62
     7
100
AcDbVertex
100
AcDb2dVertex
 10
8.6148663803
 20
6.6219395962
 30
0.0
  0
VERTEX
  5
31B
330
2A4
100
AcDbEntity
  8
0
  6
CONTINUOUS
 62
     7
100
AcDbVertex
100
AcDb2dVertex
 10
8.6207020889
 20
6.6194336583
 30
0.0
  0
VERTEX
  5
31C
330
2A4
100
AcDbEntity
  8
0
  6
CONTINUOUS
 62
     7
100
AcDbVertex
100
AcDb2dVertex
 10
8.6263275632
 20
6.6181755463
 30
0.0
  0
VERTEX
  5
31D
330
2A4
100
AcDbEntity
  8
0
  6
CONTINUOUS
 62
     7
100
AcDbVertex
100
AcDb2dVertex
 10
8.6315809686
 20
6.6182014539
 30
0.0
  0
VERTEX
  5
31E
330
2A4
100
AcDbEntity
  8
0
  6
CONTINUOUS
 62
     7
100
AcDbVertex
100
AcDb2dVertex
 10
8.6363111742
 20
6.6195106358
 30
0.0
  0
VERTEX
  5
31F
330
2A4
100
AcDbEntity
  8
0
  6
CONTINUOUS
 62
     7
100
AcDbVertex
100
AcDb2dVertex
 10
8.6403821005
 20
6.6220654292
 30
0.0
  0
VERTEX
  5
320
330
2A4
100
AcDbEntity
  8
0
  6
CONTINUOUS
 62
     7
100
AcDbVertex
100
AcDb2dVertex
 10
8.6436766345
 20
6.6257923374
 30
0.0
  0
VERTEX
  5
321
330
2A4
100
AcDbEntity
  8
0
  6
CONTINUOUS
 62
     7
100
AcDbVertex
100
AcDb2dVertex
 10
8.6460999983
 20
6.6305841439
 30
0.0
  0
VERTEX
  5
322
330
2A4
100
AcDbEntity
  8
0
  6
CONTINUOUS
 62
     7
100
AcDbVertex
100
AcDb2dVertex
 10
8.6475824763
 20
6.6363029973
 30
0.0
  0
VERTEX
  5
323
330
2A4
100
AcDbEntity
  8
0
  6
CONTINUOUS
 62
     7
100
AcDbVertex
100
AcDb2dVertex
 10
8.6480814202
 20
6.6427843764
 30
0.0
  0
SEQEND
  5
324
330
2A4
100
AcDbEntity
  8
0
  6
CONTINUOUS
 62
     7
  0
ARC
  5
2A5
330
1F
100
AcDbEntity
  8
0
  6
CONTINUOUS
 62
     7
100
AcDbCircle
 10
8.6396090355
 20
6.6492731986
 30
0.0
 40
0.0360979098013274
100
AcDbArc
 50
237.959632627
 51
276.4523506005
  0
POLYLINE
  5
2A6
330
1F
100
AcDbEntity
  8
0
  6
CONTINUOUS
 62
     7
100
AcDb2dPolyline
 66
     1
 10
0.0
 20
0.0
 30
0.0
  0
VERTEX
  5
325
330
2A6
100
AcDbEntity
  8
0
  6
CONTINUOUS
 62
     7
100
AcDbVertex
100
AcDb2dVertex
 10
8.5994815739
 20
6.9680767965
 30
0.0
  0
VERTEX
  5
326
330
2A6
100
AcDbEntity
  8
0
  6
CONTINUOUS
 62
     7
100
AcDbVertex
100
AcDb2dVertex
 10
8.6054931084
 20
6.9640128292
 30
0.0
  0
VERTEX
  5
327
330
2A6
100
AcDbEntity
  8
0
  6
CONTINUOUS
 62
     7
100
AcDbVertex
100
AcDb2dVertex
 10
8.6103350097
 20
6.959451526
 30
0.0
  0
VERTEX
  5
328
330
2A6
100
AcDbEntity
  8
0
  6
CONTINUOUS
 62
     7
100
AcDbVertex
100
AcDb2dVertex
 10
8.6138812691
 20
6.9545091192
 30
0.0
  0
VERTEX
  5
329
330
2A6
100
AcDbEntity
  8
0
  6
CONTINUOUS
 62
     7
100
AcDbVertex
100
AcDb2dVertex
 10
8.6160445658
 20
6.949307307
 30
0.0
  0
VERTEX
  5
32A
330
2A6
100
AcDbEntity
  8
0
  6
CONTINUOUS
 62
     7
100
AcDbVertex
100
AcDb2dVertex
 10
8.6167716323
 20
6.9439741754
 30
0.0
  0
VERTEX
  5
32B
330
2A6
100
AcDbEntity
  8
0
  6
CONTINUOUS
 62
     7
100
AcDbVertex
100
AcDb2dVertex
 10
8.6160445658
 20
6.9386410439
 30
0.0
  0
VERTEX
  5
32C
330
2A6
100
AcDbEntity
  8
0
  6
CONTINUOUS
 62
     7
100
AcDbVertex
100
AcDb2dVertex
 10
8.6138812691
 20
6.9334392317
 30
0.0
  0
VERTEX
  5
32D
330
2A6
100
AcDbEntity
  8
0
  6
CONTINUOUS
 62
     7
100
AcDbVertex
100
AcDb2dVertex
 10
8.6103350097
 20
6.9284968248
 30
0.0
  0
VERTEX
  5
32E
330
2A6
100
AcDbEntity
  8
0
  6
CONTINUOUS
 62
     7
100
AcDbVertex
100
AcDb2dVertex
 10
8.6054931084
 20
6.9239355217
 30
0.0
  0
VERTEX
  5
32F
330
2A6
100
AcDbEntity
  8
0
  6
CONTINUOUS
 62
     7
100
AcDbVertex
100
AcDb2dVertex
 10
8.5994747887
 20
6.9198676367
 30
0.0
  0
VERTEX
  5
330
330
2A6
100
AcDbEntity
  8
0
  6
CONTINUOUS
 62
     7
100
AcDbVertex
100
AcDb2dVertex
 10
8.5924282417
 20
6.9163933347
 30
0.0
  0
VERTEX
  5
331
330
2A6
100
AcDbEntity
  8
0
  6
CONTINUOUS
 62
     7
100
AcDbVertex
100
AcDb2dVertex
 10
8.5845269768
 20
6.9135981645
 30
0.0
  0
VERTEX
  5
332
330
2A6
100
AcDbEntity
  8
0
  6
CONTINUOUS
 62
     7
100
AcDbVertex
100
AcDb2dVertex
 10
8.5759655493
 20
6.9115509526
 30
0.0
  0
VERTEX
  5
333
330
2A6
100
AcDbEntity
  8
0
  6
CONTINUOUS
 62
     7
100
AcDbVertex
100
AcDb2dVertex
 10
8.56695477
 20
6.910302108
 30
0.0
  0
VERTEX
  5
334
330
2A6
100
AcDbEntity
  8
0
  6
CONTINUOUS
 62
     7
100
AcDbVertex
100
AcDb2dVertex
 10
8.5577165142
 20
6.9098823814
 30
0.0
  0
VERTEX
  5
335
330
2A6
100
AcDbEntity
  8
0
  6
CONTINUOUS
 62
     7
100
AcDbVertex
100
AcDb2dVertex
 10
8.5484782584
 20
6.910302108
 30
0.0
  0
VERTEX
  5
336
330
2A6
100
AcDbEntity
  8
0
  6
CONTINUOUS
 62
     7
100
AcDbVertex
100
AcDb2dVertex
 10
8.5394674791
 20
6.9115509526
 30
0.0
  0
VERTEX
  5
337
330
2A6
100
AcDbEntity
  8
0
  6
CONTINUOUS
 62
     7
100
AcDbVertex
100
AcDb2dVertex
 10
8.5309060516
 20
6.9135981645
 30
0.0
  0
VERTEX
  5
338
330
2A6
100
AcDbEntity
  8
0
  6
CONTINUOUS
 62
     7
100
AcDbVertex
100
AcDb2dVertex
 10
8.5230047867
 20
6.9163933347
 30
0.0
  0
VERTEX
  5
339
330
2A6
100
AcDbEntity
  8
0
  6
CONTINUOUS
 62
     7
100
AcDbVertex
100
AcDb2dVertex
 10
8.5159582397
 20
6.9198676367
 30
0.0
  0
VERTEX
  5
33A
330
2A6
100
AcDbEntity
  8
0
  6
CONTINUOUS
 62
     7
100
AcDbVertex
100
AcDb2dVertex
 10
8.5099399201
 20
6.9239355217
 30
0.0
  0
VERTEX
  5
33B
330
2A6
100
AcDbEntity
  8
0
  6
CONTINUOUS
 62
     7
100
AcDbVertex
100
AcDb2dVertex
 10
8.5050980187
 20
6.9284968248
 30
0.0
  0
VERTEX
  5
33C
330
2A6
100
AcDbEntity
  8
0
  6
CONTINUOUS
 62
     7
100
AcDbVertex
100
AcDb2dVertex
 10
8.5015517593
 20
6.9334392317
 30
0.0
  0
VERTEX
  5
33D
330
2A6
100
AcDbEntity
  8
0
  6
CONTINUOUS
 62
     7
100
AcDbVertex
100
AcDb2dVertex
 10
8.4993884626
 20
6.9386410439
 30
0.0
  0
VERTEX
  5
33E
330
2A6
100
AcDbEntity
  8
0
  6
CONTINUOUS
 62
     7
100
AcDbVertex
100
AcDb2dVertex
 10
8.4986613961
 20
6.9439741754
 30
0.0
  0
VERTEX
  5
33F
330
2A6
100
AcDbEntity
  8
0
  6
CONTINUOUS
 62
     7
100
AcDbVertex
100
AcDb2dVertex
 10
8.4993884626
 20
6.949307307
 30
0.0
  0
VERTEX
  5
340
330
2A6
100
AcDbEntity
  8
0
  6
CONTINUOUS
 62
     7
100
AcDbVertex
100
AcDb2dVertex
 10
8.5015517593
 20
6.9545091192
 30
0.0
  0
VERTEX
  5
341
330
2A6
100
AcDbEntity
  8
0
  6
CONTINUOUS
 62
     7
100
AcDbVertex
100
AcDb2dVertex
 10
8.5050980187
 20
6.959451526
 30
0.0
  0
VERTEX
  5
342
330
2A6
100
AcDbEntity
  8
0
  6
CONTINUOUS
 62
     7
100
AcDbVertex
100
AcDb2dVertex
 10
8.5099399201
 20
6.9640128292
 30
0.0
  0
VERTEX
  5
343
330
2A6
100
AcDbEntity
  8
0
  6
CONTINUOUS
 62
     7
100
AcDbVertex
100
AcDb2dVertex
 10
8.5159582397
 20
6.9680807142
 30
0.0
  0
VERTEX
  5
344
330
2A6
100
AcDbEntity
  8
0
  6
CONTINUOUS
 62
     7
100
AcDbVertex
100
AcDb2dVertex
 10
8.5159582397
 20
6.9680807142
 30
0.0
  0
SEQEND
  5
345
330
2A6
100
AcDbEntity
  8
0
  6
CONTINUOUS
 62
     7
  0
POLYLINE
  5
2A7
330
1F
100
AcDbEntity
  8
0
  6
CONTINUOUS
 62
     7
100
AcDb2dPolyline
 66
     1
 10
0.0
 20
0.0
 30
0.0
  0
VERTEX
  5
346
330
2A7
100
AcDbEntity
  8
0
  6
CONTINUOUS
 62
     7
100
AcDbVertex
100
AcDb2dVertex
 10
8.5230293075
 20
6.9721640817
 30
0.0
  0
VERTEX
  5
347
330
2A7
100
AcDbEntity
  8
0
  6
CONTINUOUS
 62
     7
100
AcDbVertex
100
AcDb2dVertex
 10
8.5176660851
 20
6.9684918909
 30
0.0
  0
VERTEX
  5
348
330
2A7
100
AcDbEntity
  8
0
  6
CONTINUOUS
 62
     7
100
AcDbVertex
100
AcDb2dVertex
 10
8.5134550405
 20
6.964349274
 30
0.0
  0
VERTEX
  5
349
330
2A7
100
AcDbEntity
  8
0
  6
CONTINUOUS
 62
     7
100
AcDbVertex
100
AcDb2dVertex
 10
8.5105173179
 20
6.9598554066
 30
0.0
  0
VERTEX
  5
34A
330
2A7
100
AcDbEntity
  8
0
  6
CONTINUOUS
 62
     7
100
AcDbVertex
100
AcDb2dVertex
 10
8.5089374303
 20
6.9551395689
 30
0.0
  0
VERTEX
  5
34B
330
2A7
100
AcDbEntity
  8
0
  6
CONTINUOUS
 62
     7
100
AcDbVertex
100
AcDb2dVertex
 10
8.5087608281
 20
6.9503374271
 30
0.0
  0
VERTEX
  5
34C
330
2A7
100
AcDbEntity
  8
0
  6
CONTINUOUS
 62
     7
100
AcDbVertex
100
AcDb2dVertex
 10
8.5099925919
 20
6.9455871301
 30
0.0
  0
VERTEX
  5
34D
330
2A7
100
AcDbEntity
  8
0
  6
CONTINUOUS
 62
     7
100
AcDbVertex
100
AcDb2dVertex
 10
8.5125972861
 20
6.9410253353
 30
0.0
  0
VERTEX
  5
34E
330
2A7
100
AcDbEntity
  8
0
  6
CONTINUOUS
 62
     7
100
AcDbVertex
100
AcDb2dVertex
 10
8.5164999782
 20
6.9367832771
 30
0.0
  0
VERTEX
  5
34F
330
2A7
100
AcDbEntity
  8
0
  6
CONTINUOUS
 62
     7
100
AcDbVertex
100
AcDb2dVertex
 10
8.5215883951
 20
6.9329829919
 30
0.0
  0
VERTEX
  5
350
330
2A7
100
AcDbEntity
  8
0
  6
CONTINUOUS
 62
     7
100
AcDbVertex
100
AcDb2dVertex
 10
8.5277161522
 20
6.929733807
 30
0.0
  0
VERTEX
  5
351
330
2A7
100
AcDbEntity
  8
0
  6
CONTINUOUS
 62
     7
100
AcDbVertex
100
AcDb2dVertex
 10
8.5347069651
 20
6.9271291955
 30
0.0
  0
VERTEX
  5
352
330
2A7
100
AcDbEntity
  8
0
  6
CONTINUOUS
 62
     7
100
AcDbVertex
100
AcDb2dVertex
 10
8.5423597208
 20
6.9252440873
 30
0.0
  0
VERTEX
  5
353
330
2A7
100
AcDbEntity
  8
0
  6
CONTINUOUS
 62
     7
100
AcDbVertex
100
AcDb2dVertex
 10
8.5504542635
 20
6.9241327135
 30
0.0
  0
VERTEX
  5
354
330
2A7
100
AcDbEntity
  8
0
  6
CONTINUOUS
 62
     7
100
AcDbVertex
100
AcDb2dVertex
 10
8.5587577279
 20
6.9238270465
 30
0.0
  0
VERTEX
  5
355
330
2A7
100
AcDbEntity
  8
0
  6
CONTINUOUS
 62
     7
100
AcDbVertex
100
AcDb2dVertex
 10
8.5670312385
 20
6.9243358795
 30
0.0
  0
VERTEX
  5
356
330
2A7
100
AcDbEntity
  8
0
  6
CONTINUOUS
 62
     7
100
AcDbVertex
100
AcDb2dVertex
 10
8.5750367815
 20
6.9256445745
 30
0.0
  0
VERTEX
  5
357
330
2A7
100
AcDbEntity
  8
0
  6
CONTINUOUS
 62
     7
100
AcDbVertex
100
AcDb2dVertex
 10
8.5825440519
 20
6.9277154827
 30
0.0
  0
VERTEX
  5
358
330
2A7
100
AcDbEntity
  8
0
  6
CONTINUOUS
 62
     7
100
AcDbVertex
100
AcDb2dVertex
 10
8.5893370792
 20
6.9304890278
 30
0.0
  0
VERTEX
  5
359
330
2A7
100
AcDbEntity
  8
0
  6
CONTINUOUS
 62
     7
100
AcDbVertex
100
AcDb2dVertex
 10
8.5952204404
 20
6.93388542
 30
0.0
  0
VERTEX
  5
35A
330
2A7
100
AcDbEntity
  8
0
  6
CONTINUOUS
 62
     7
100
AcDbVertex
100
AcDb2dVertex
 10
8.600024882
 20
6.9378069512
 30
0.0
  0
VERTEX
  5
35B
330
2A7
100
AcDbEntity
  8
0
  6
CONTINUOUS
 62
     7
100
AcDbVertex
100
AcDb2dVertex
 10
8.6036121889
 20
6.9421408061
 30
0.0
  0
VERTEX
  5
35C
330
2A7
100
AcDbEntity
  8
0
  6
CONTINUOUS
 62
     7
100
AcDbVertex
100
AcDb2dVertex
 10
8.6058791608
 20
6.9467623077
 30
0.0
  0
VERTEX
  5
35D
330
2A7
100
AcDbEntity
  8
0
  6
CONTINUOUS
 62
     7
100
AcDbVertex
100
AcDb2dVertex
 10
8.606760581
 20
6.9515385037
 30
0.0
  0
VERTEX
  5
35E
330
2A7
100
AcDbEntity
  8
0
  6
CONTINUOUS
 62
     7
100
AcDbVertex
100
AcDb2dVertex
 10
8.6062310927
 20
6.9563319917
 30
0.0
  0
VERTEX
  5
35F
330
2A7
100
AcDbEntity
  8
0
  6
CONTINUOUS
 62
     7
100
AcDbVertex
100
AcDb2dVertex
 10
8.6043059283
 20
6.9610048717
 30
0.0
  0
VERTEX
  5
360
330
2A7
100
AcDbEntity
  8
0
  6
CONTINUOUS
 62
     7
100
AcDbVertex
100
AcDb2dVertex
 10
8.6010404713
 20
6.9654227135
 30
0.0
  0
VERTEX
  5
361
330
2A7
100
AcDbEntity
  8
0
  6
CONTINUOUS
 62
     7
100
AcDbVertex
100
AcDb2dVertex
 10
8.596528663
 20
6.9694584239
 30
0.0
  0
VERTEX
  5
362
330
2A7
100
AcDbEntity
  8
0
  6
CONTINUOUS
 62
     7
100
AcDbVertex
100
AcDb2dVertex
 10
8.5909002997
 20
6.9729959028
 30
0.0
  0
VERTEX
  5
363
330
2A7
100
AcDbEntity
  8
0
  6
CONTINUOUS
 62
     7
100
AcDbVertex
100
AcDb2dVertex
 10
8.5843172994
 20
6.9759333833
 30
0.0
  0
VERTEX
  5
364
330
2A7
100
AcDbEntity
  8
0
  6
CONTINUOUS
 62
     7
100
AcDbVertex
100
AcDb2dVertex
 10
8.576969043
 20
6.9781863596
 30
0.0
  0
VERTEX
  5
365
330
2A7
100
AcDbEntity
  8
0
  6
CONTINUOUS
 62
     7
100
AcDbVertex
100
AcDb2dVertex
 10
8.5690669263
 20
6.9796900175
 30
0.0
  0
VERTEX
  5
366
330
2A7
100
AcDbEntity
  8
0
  6
CONTINUOUS
 62
     7
100
AcDbVertex
100
AcDb2dVertex
 10
8.5608382789
 20
6.9804010996
 30
0.0
  0
VERTEX
  5
367
330
2A7
100
AcDbEntity
  8
0
  6
CONTINUOUS
 62
     7
100
AcDbVertex
100
AcDb2dVertex
 10
8.5525198241
 20
6.9802991493
 30
0.0
  0
VERTEX
  5
368
330
2A7
100
AcDbEntity
  8
0
  6
CONTINUOUS
 62
     7
100
AcDbVertex
100
AcDb2dVertex
 10
8.5443508686
 20
6.9793870996
 30
0.0
  0
VERTEX
  5
369
330
2A7
100
AcDbEntity
  8
0
  6
CONTINUOUS
 62
     7
100
AcDbVertex
100
AcDb2dVertex
 10
8.5365664183
 20
6.9776911885
 30
0.0
  0
VERTEX
  5
36A
330
2A7
100
AcDbEntity
  8
0
  6
CONTINUOUS
 62
     7
100
AcDbVertex
100
AcDb2dVertex
 10
8.5293904178
 20
6.9752602042
 30
0.0
  0
VERTEX
  5
36B
330
2A7
100
AcDbEntity
  8
0
  6
CONTINUOUS
 62
     7
100
AcDbVertex
100
AcDb2dVertex
 10
8.5230293075
 20
6.9721640817
 30
0.0
  0
SEQEND
  5
36C
330
2A7
100
AcDbEntity
  8
0
  6
CONTINUOUS
 62
     7
  0
LINE
  5
2A8
330
1F
100
AcDbEntity
  8
0
  6
CONTINUOUS
 62
     7
100
AcDbLine
 10
8.5818256652
 20
6.9660575002
 30
0.0
 11
8.5488919525
 21
6.9711518112
 31
0.0
  0
LINE
  5
2A9
330
1F
100
AcDbEntity
  8
0
  6
CONTINUOUS
 62
     7
100
AcDbLine
 10
8.5488919525
 20
6.9711518112
 30
0.0
 11
8.5247828015
 21
6.9572338946
 31
0.0
  0
LINE
  5
2AA
330
1F
100
AcDbEntity
  8
0
  6
CONTINUOUS
 62
     7
100
AcDbLine
 10
8.5247828015
 20
6.9572338946
 30
0.0
 11
8.5336073632
 21
6.9382216669
 31
0.0
  0
LINE
  5
2AB
330
1F
100
AcDbEntity
  8
0
  6
CONTINUOUS
 62
     7
100
AcDbLine
 10
8.5336073632
 20
6.9382216669
 30
0.0
 11
8.5665410759
 21
6.9331273559
 31
0.0
  0
LINE
  5
2AC
330
1F
100
AcDbEntity
  8
0
  6
CONTINUOUS
 62
     7
100
AcDbLine
 10
8.5665410759
 20
6.9331273559
 30
0.0
 11
8.590650227
 21
6.9470452725
 31
0.0
  0
LINE
  5
2AD
330
1F
100
AcDbEntity
  8
0
  6
CONTINUOUS
 62
     7
100
AcDbLine
 10
8.590650227
 20
6.9470452725
 30
0.0
 11
8.5818256652
 21
6.9660575002
 31
0.0
  0
LINE
  5
2AE
330
1F
100
AcDbEntity
  8
0
  6
CONTINUOUS
 62
     7
100
AcDbLine
 10
8.5818256652
 20
6.9419509615
 30
0.0
 11
8.5818256652
 21
6.9660575002
 31
0.0
  0
LINE
  5
2AF
330
1F
100
AcDbEntity
  8
0
  6
CONTINUOUS
 62
     7
100
AcDbLine
 10
8.5488919525
 20
6.9358573889
 30
0.0
 11
8.5488919525
 21
6.9711518112
 31
0.0
  0
POLYLINE
  5
2B0
330
1F
100
AcDbEntity
  8
0
  6
CONTINUOUS
 62
     7
100
AcDb2dPolyline
 66
     1
 10
0.0
 20
0.0
 30
0.0
  0
VERTEX
  5
36D
330
2B0
100
AcDbEntity
  8
0
  6
CONTINUOUS
 62
     7
100
AcDbVertex
100
AcDb2dVertex
 10
7.8311225383
 20
7.3634279494
 30
0.0
  0
VERTEX
  5
36E
330
2B0
100
AcDbEntity
  8
0
  6
CONTINUOUS
 62
     7
100
AcDbVertex
100
AcDb2dVertex
 10
7.8371408579
 20
7.3674958344
 30
0.0
  0
VERTEX
  5
36F
330
2B0
100
AcDbEntity
  8
0
  6
CONTINUOUS
 62
     7
100
AcDbVertex
100
AcDb2dVertex
 10
7.8419827593
 20
7.3720571376
 30
0.0
  0
VERTEX
  5
370
330
2B0
100
AcDbEntity
  8
0
  6
CONTINUOUS
 62
     7
100
AcDbVertex
100
AcDb2dVertex
 10
7.8455290187
 20
7.3769995444
 30
0.0
  0
VERTEX
  5
371
330
2B0
100
AcDbEntity
  8
0
  6
CONTINUOUS
 62
     7
100
AcDbVertex
100
AcDb2dVertex
 10
7.8476923154
 20
7.3822013566
 30
0.0
  0
VERTEX
  5
372
330
2B0
100
AcDbEntity
  8
0
  6
CONTINUOUS
 62
     7
100
AcDbVertex
100
AcDb2dVertex
 10
7.8484193819
 20
7.3875344882
 30
0.0
  0
VERTEX
  5
373
330
2B0
100
AcDbEntity
  8
0
  6
CONTINUOUS
 62
     7
100
AcDbVertex
100
AcDb2dVertex
 10
7.8476923154
 20
7.3928676197
 30
0.0
  0
VERTEX
  5
374
330
2B0
100
AcDbEntity
  8
0
  6
CONTINUOUS
 62
     7
100
AcDbVertex
100
AcDb2dVertex
 10
7.8455290187
 20
7.3980694319
 30
0.0
  0
VERTEX
  5
375
330
2B0
100
AcDbEntity
  8
0
  6
CONTINUOUS
 62
     7
100
AcDbVertex
100
AcDb2dVertex
 10
7.8419827593
 20
7.4030118388
 30
0.0
  0
VERTEX
  5
376
330
2B0
100
AcDbEntity
  8
0
  6
CONTINUOUS
 62
     7
100
AcDbVertex
100
AcDb2dVertex
 10
7.8371408579
 20
7.4075731419
 30
0.0
  0
VERTEX
  5
377
330
2B0
100
AcDbEntity
  8
0
  6
CONTINUOUS
 62
     7
100
AcDbVertex
100
AcDb2dVertex
 10
7.8311293235
 20
7.4116371092
 30
0.0
  0
SEQEND
  5
378
330
2B0
100
AcDbEntity
  8
0
  6
CONTINUOUS
 62
     7
  0
POLYLINE
  5
2B1
330
1F
100
AcDbEntity
  8
0
  6
CONTINUOUS
 62
     7
100
AcDb2dPolyline
 66
     1
 10
0.0
 20
0.0
 30
0.0
  0
VERTEX
  5
379
330
2B1
100
AcDbEntity
  8
0
  6
CONTINUOUS
 62
     7
100
AcDbVertex
100
AcDb2dVertex
 10
7.7475992041
 20
7.4116371092
 30
0.0
  0
VERTEX
  5
37A
330
2B1
100
AcDbEntity
  8
0
  6
CONTINUOUS
 62
     7
100
AcDbVertex
100
AcDb2dVertex
 10
7.7415876696
 20
7.4075731419
 30
0.0
  0
VERTEX
  5
37B
330
2B1
100
AcDbEntity
  8
0
  6
CONTINUOUS
 62
     7
100
AcDbVertex
100
AcDb2dVertex
 10
7.7367457683
 20
7.4030118388
 30
0.0
  0
VERTEX
  5
37C
330
2B1
100
AcDbEntity
  8
0
  6
CONTINUOUS
 62
     7
100
AcDbVertex
100
AcDb2dVertex
 10
7.7331995089
 20
7.3980694319
 30
0.0
  0
VERTEX
  5
37D
330
2B1
100
AcDbEntity
  8
0
  6
CONTINUOUS
 62
     7
100
AcDbVertex
100
AcDb2dVertex
 10
7.7310362122
 20
7.3928676197
 30
0.0
  0
VERTEX
  5
37E
330
2B1
100
AcDbEntity
  8
0
  6
CONTINUOUS
 62
     7
100
AcDbVertex
100
AcDb2dVertex
 10
7.7303091457
 20
7.3875344882
 30
0.0
  0
VERTEX
  5
37F
330
2B1
100
AcDbEntity
  8
0
  6
CONTINUOUS
 62
     7
100
AcDbVertex
100
AcDb2dVertex
 10
7.7310362122
 20
7.3822013566
 30
0.0
  0
VERTEX
  5
380
330
2B1
100
AcDbEntity
  8
0
  6
CONTINUOUS
 62
     7
100
AcDbVertex
100
AcDb2dVertex
 10
7.7331995089
 20
7.3769995444
 30
0.0
  0
VERTEX
  5
381
330
2B1
100
AcDbEntity
  8
0
  6
CONTINUOUS
 62
     7
100
AcDbVertex
100
AcDb2dVertex
 10
7.7367457683
 20
7.3720571376
 30
0.0
  0
VERTEX
  5
382
330
2B1
100
AcDbEntity
  8
0
  6
CONTINUOUS
 62
     7
100
AcDbVertex
100
AcDb2dVertex
 10
7.7415876696
 20
7.3674958344
 30
0.0
  0
VERTEX
  5
383
330
2B1
100
AcDbEntity
  8
0
  6
CONTINUOUS
 62
     7
100
AcDbVertex
100
AcDb2dVertex
 10
7.7476059893
 20
7.3634279494
 30
0.0
  0
VERTEX
  5
384
330
2B1
100
AcDbEntity
  8
0
  6
CONTINUOUS
 62
     7
100
AcDbVertex
100
AcDb2dVertex
 10
7.7546525363
 20
7.3599536474
 30
0.0
  0
VERTEX
  5
385
330
2B1
100
AcDbEntity
  8
0
  6
CONTINUOUS
 62
     7
100
AcDbVertex
100
AcDb2dVertex
 10
7.7625538012
 20
7.3571584773
 30
0.0
  0
VERTEX
  5
386
330
2B1
100
AcDbEntity
  8
0
  6
CONTINUOUS
 62
     7
100
AcDbVertex
100
AcDb2dVertex
 10
7.7711152287
 20
7.3551112653
 30
0.0
  0
VERTEX
  5
387
330
2B1
100
AcDbEntity
  8
0
  6
CONTINUOUS
 62
     7
100
AcDbVertex
100
AcDb2dVertex
 10
7.780126008
 20
7.3538624207
 30
0.0
  0
VERTEX
  5
388
330
2B1
100
AcDbEntity
  8
0
  6
CONTINUOUS
 62
     7
100
AcDbVertex
100
AcDb2dVertex
 10
7.7893642638
 20
7.3534426941
 30
0.0
  0
VERTEX
  5
389
330
2B1
100
AcDbEntity
  8
0
  6
CONTINUOUS
 62
     7
100
AcDbVertex
100
AcDb2dVertex
 10
7.7986025196
 20
7.3538624207
 30
0.0
  0
VERTEX
  5
38A
330
2B1
100
AcDbEntity
  8
0
  6
CONTINUOUS
 62
     7
100
AcDbVertex
100
AcDb2dVertex
 10
7.8076132989
 20
7.3551112653
 30
0.0
  0
VERTEX
  5
38B
330
2B1
100
AcDbEntity
  8
0
  6
CONTINUOUS
 62
     7
100
AcDbVertex
100
AcDb2dVertex
 10
7.8161747264
 20
7.3571584773
 30
0.0
  0
VERTEX
  5
38C
330
2B1
100
AcDbEntity
  8
0
  6
CONTINUOUS
 62
     7
100
AcDbVertex
100
AcDb2dVertex
 10
7.8240759913
 20
7.3599536474
 30
0.0
  0
VERTEX
  5
38D
330
2B1
100
AcDbEntity
  8
0
  6
CONTINUOUS
 62
     7
100
AcDbVertex
100
AcDb2dVertex
 10
7.8311225383
 20
7.3634279494
 30
0.0
  0
SEQEND
  5
38E
330
2B1
100
AcDbEntity
  8
0
  6
CONTINUOUS
 62
     7
  0
POLYLINE
  5
2B2
330
1F
100
AcDbEntity
  8
0
  6
CONTINUOUS
 62
     7
100
AcDb2dPolyline
 66
     1
 10
0.0
 20
0.0
 30
0.0
  0
VERTEX
  5
38F
330
2B2
100
AcDbEntity
  8
0
  6
CONTINUOUS
 62
     7
100
AcDbVertex
100
AcDb2dVertex
 10
7.8240514705
 20
7.3756753981
 30
0.0
  0
VERTEX
  5
390
330
2B2
100
AcDbEntity
  8
0
  6
CONTINUOUS
 62
     7
100
AcDbVertex
100
AcDb2dVertex
 10
7.8176903602
 20
7.3725792757
 30
0.0
  0
VERTEX
  5
391
330
2B2
100
AcDbEntity
  8
0
  6
CONTINUOUS
 62
     7
100
AcDbVertex
100
AcDb2dVertex
 10
7.8105143597
 20
7.3701482914
 30
0.0
  0
VERTEX
  5
392
330
2B2
100
AcDbEntity
  8
0
  6
CONTINUOUS
 62
     7
100
AcDbVertex
100
AcDb2dVertex
 10
7.8027299094
 20
7.3684523803
 30
0.0
  0
VERTEX
  5
393
330
2B2
100
AcDbEntity
  8
0
  6
CONTINUOUS
 62
     7
100
AcDbVertex
100
AcDb2dVertex
 10
7.7945609539
 20
7.3675403306
 30
0.0
  0
VERTEX
  5
394
330
2B2
100
AcDbEntity
  8
0
  6
CONTINUOUS
 62
     7
100
AcDbVertex
100
AcDb2dVertex
 10
7.7862424991
 20
7.3674383803
 30
0.0
  0
VERTEX
  5
395
330
2B2
100
AcDbEntity
  8
0
  6
CONTINUOUS
 62
     7
100
AcDbVertex
100
AcDb2dVertex
 10
7.7780138517
 20
7.3681494624
 30
0.0
  0
VERTEX
  5
396
330
2B2
100
AcDbEntity
  8
0
  6
CONTINUOUS
 62
     7
100
AcDbVertex
100
AcDb2dVertex
 10
7.770111735
 20
7.3696531203
 30
0.0
  0
VERTEX
  5
397
330
2B2
100
AcDbEntity
  8
0
  6
CONTINUOUS
 62
     7
100
AcDbVertex
100
AcDb2dVertex
 10
7.7627634786
 20
7.3719060965
 30
0.0
  0
VERTEX
  5
398
330
2B2
100
AcDbEntity
  8
0
  6
CONTINUOUS
 62
     7
100
AcDbVertex
100
AcDb2dVertex
 10
7.7561804783
 20
7.3748435771
 30
0.0
  0
VERTEX
  5
399
330
2B2
100
AcDbEntity
  8
0
  6
CONTINUOUS
 62
     7
100
AcDbVertex
100
AcDb2dVertex
 10
7.750552115
 20
7.3783810559
 30
0.0
  0
VERTEX
  5
39A
330
2B2
100
AcDbEntity
  8
0
  6
CONTINUOUS
 62
     7
100
AcDbVertex
100
AcDb2dVertex
 10
7.7460403067
 20
7.3824167663
 30
0.0
  0
VERTEX
  5
39B
330
2B2
100
AcDbEntity
  8
0
  6
CONTINUOUS
 62
     7
100
AcDbVertex
100
AcDb2dVertex
 10
7.7427748497
 20
7.3868346081
 30
0.0
  0
VERTEX
  5
39C
330
2B2
100
AcDbEntity
  8
0
  6
CONTINUOUS
 62
     7
100
AcDbVertex
100
AcDb2dVertex
 10
7.7408496853
 20
7.3915074882
 30
0.0
  0
VERTEX
  5
39D
330
2B2
100
AcDbEntity
  8
0
  6
CONTINUOUS
 62
     7
100
AcDbVertex
100
AcDb2dVertex
 10
7.740320197
 20
7.3963009762
 30
0.0
  0
VERTEX
  5
39E
330
2B2
100
AcDbEntity
  8
0
  6
CONTINUOUS
 62
     7
100
AcDbVertex
100
AcDb2dVertex
 10
7.7412016172
 20
7.4010771722
 30
0.0
  0
VERTEX
  5
39F
330
2B2
100
AcDbEntity
  8
0
  6
CONTINUOUS
 62
     7
100
AcDbVertex
100
AcDb2dVertex
 10
7.7434685891
 20
7.4056986737
 30
0.0
  0
VERTEX
  5
3A0
330
2B2
100
AcDbEntity
  8
0
  6
CONTINUOUS
 62
     7
100
AcDbVertex
100
AcDb2dVertex
 10
7.747055896
 20
7.4100325287
 30
0.0
  0
VERTEX
  5
3A1
330
2B2
100
AcDbEntity
  8
0
  6
CONTINUOUS
 62
     7
100
AcDbVertex
100
AcDb2dVertex
 10
7.7518603376
 20
7.4139540599
 30
0.0
  0
VERTEX
  5
3A2
330
2B2
100
AcDbEntity
  8
0
  6
CONTINUOUS
 62
     7
100
AcDbVertex
100
AcDb2dVertex
 10
7.7577436988
 20
7.4173504521
 30
0.0
  0
VERTEX
  5
3A3
330
2B2
100
AcDbEntity
  8
0
  6
CONTINUOUS
 62
     7
100
AcDbVertex
100
AcDb2dVertex
 10
7.7645367262
 20
7.4201239971
 30
0.0
  0
VERTEX
  5
3A4
330
2B2
100
AcDbEntity
  8
0
  6
CONTINUOUS
 62
     7
100
AcDbVertex
100
AcDb2dVertex
 10
7.7720439965
 20
7.4221949053
 30
0.0
  0
VERTEX
  5
3A5
330
2B2
100
AcDbEntity
  8
0
  6
CONTINUOUS
 62
     7
100
AcDbVertex
100
AcDb2dVertex
 10
7.7800495395
 20
7.4235036003
 30
0.0
  0
VERTEX
  5
3A6
330
2B2
100
AcDbEntity
  8
0
  6
CONTINUOUS
 62
     7
100
AcDbVertex
100
AcDb2dVertex
 10
7.7883230501
 20
7.4240124334
 30
0.0
  0
VERTEX
  5
3A7
330
2B2
100
AcDbEntity
  8
0
  6
CONTINUOUS
 62
     7
100
AcDbVertex
100
AcDb2dVertex
 10
7.7966265145
 20
7.4237067663
 30
0.0
  0
VERTEX
  5
3A8
330
2B2
100
AcDbEntity
  8
0
  6
CONTINUOUS
 62
     7
100
AcDbVertex
100
AcDb2dVertex
 10
7.8047210572
 20
7.4225953926
 30
0.0
  0
VERTEX
  5
3A9
330
2B2
100
AcDbEntity
  8
0
  6
CONTINUOUS
 62
     7
100
AcDbVertex
100
AcDb2dVertex
 10
7.8123738129
 20
7.4207102844
 30
0.0
  0
VERTEX
  5
3AA
330
2B2
100
AcDbEntity
  8
0
  6
CONTINUOUS
 62
     7
100
AcDbVertex
100
AcDb2dVertex
 10
7.8193646258
 20
7.4181056728
 30
0.0
  0
VERTEX
  5
3AB
330
2B2
100
AcDbEntity
  8
0
  6
CONTINUOUS
 62
     7
100
AcDbVertex
100
AcDb2dVertex
 10
7.8254923829
 20
7.4148564879
 30
0.0
  0
VERTEX
  5
3AC
330
2B2
100
AcDbEntity
  8
0
  6
CONTINUOUS
 62
     7
100
AcDbVertex
100
AcDb2dVertex
 10
7.8305807998
 20
7.4110562027
 30
0.0
  0
VERTEX
  5
3AD
330
2B2
100
AcDbEntity
  8
0
  6
CONTINUOUS
 62
     7
100
AcDbVertex
100
AcDb2dVertex
 10
7.8344834919
 20
7.4068141446
 30
0.0
  0
VERTEX
  5
3AE
330
2B2
100
AcDbEntity
  8
0
  6
CONTINUOUS
 62
     7
100
AcDbVertex
100
AcDb2dVertex
 10
7.8370881861
 20
7.4022523497
 30
0.0
  0
VERTEX
  5
3AF
330
2B2
100
AcDbEntity
  8
0
  6
CONTINUOUS
 62
     7
100
AcDbVertex
100
AcDb2dVertex
 10
7.8383199499
 20
7.3975020527
 30
0.0
  0
VERTEX
  5
3B0
330
2B2
100
AcDbEntity
  8
0
  6
CONTINUOUS
 62
     7
100
AcDbVertex
100
AcDb2dVertex
 10
7.8381433477
 20
7.3926999109
 30
0.0
  0
VERTEX
  5
3B1
330
2B2
100
AcDbEntity
  8
0
  6
CONTINUOUS
 62
     7
100
AcDbVertex
100
AcDb2dVertex
 10
7.8365634601
 20
7.3879840733
 30
0.0
  0
VERTEX
  5
3B2
330
2B2
100
AcDbEntity
  8
0
  6
CONTINUOUS
 62
     7
100
AcDbVertex
100
AcDb2dVertex
 10
7.8336257375
 20
7.3834902058
 30
0.0
  0
VERTEX
  5
3B3
330
2B2
100
AcDbEntity
  8
0
  6
CONTINUOUS
 62
     7
100
AcDbVertex
100
AcDb2dVertex
 10
7.8294146929
 20
7.3793475889
 30
0.0
  0
VERTEX
  5
3B4
330
2B2
100
AcDbEntity
  8
0
  6
CONTINUOUS
 62
     7
100
AcDbVertex
100
AcDb2dVertex
 10
7.8240514705
 20
7.3756753981
 30
0.0
  0
SEQEND
  5
3B5
330
2B2
100
AcDbEntity
  8
0
  6
CONTINUOUS
 62
     7
  0
LINE
  5
2B3
330
1F
100
AcDbEntity
  8
0
  6
CONTINUOUS
 62
     7
100
AcDbLine
 10
7.756430551
 20
7.4007942073
 30
0.0
 11
7.7805397021
 21
7.414712124
 31
0.0
  0
LINE
  5
2B4
330
1F
100
AcDbEntity
  8
0
  6
CONTINUOUS
 62
     7
100
AcDbLine
 10
7.7652551128
 20
7.3817819797
 30
0.0
 11
7.756430551
 21
7.4007942073
 31
0.0
  0
LINE
  5
2B5
330
1F
100
AcDbEntity
  8
0
  6
CONTINUOUS
 62
     7
100
AcDbLine
 10
7.7981888255
 20
7.3766876686
 30
0.0
 11
7.7652551128
 21
7.3817819797
 31
0.0
  0
LINE
  5
2B6
330
1F
100
AcDbEntity
  8
0
  6
CONTINUOUS
 62
     7
100
AcDbLine
 10
7.8222979765
 20
7.3906055852
 30
0.0
 11
7.7981888255
 21
7.3766876686
 31
0.0
  0
LINE
  5
2B7
330
1F
100
AcDbEntity
  8
0
  6
CONTINUOUS
 62
     7
100
AcDbLine
 10
7.8134734148
 20
7.4096178129
 30
0.0
 11
7.8222979765
 21
7.3906055852
 31
0.0
  0
LINE
  5
2B8
330
1F
100
AcDbEntity
  8
0
  6
CONTINUOUS
 62
     7
100
AcDbLine
 10
7.7805397021
 20
7.414712124
 30
0.0
 11
7.8134734148
 21
7.4096178129
 31
0.0
  0
LINE
  5
2B9
330
1F
100
AcDbEntity
  8
0
  6
CONTINUOUS
 62
     7
100
AcDbLine
 10
7.8134734148
 20
7.3855112742
 30
0.0
 11
7.8134734148
 21
7.4096178129
 31
0.0
  0
LINE
  5
2BA
330
1F
100
AcDbEntity
  8
0
  6
CONTINUOUS
 62
     7
100
AcDbLine
 10
7.7805397021
 20
7.3794177017
 30
0.0
 11
7.7805397021
 21
7.414712124
 31
0.0
  0
POLYLINE
  5
2BB
330
1F
100
AcDbEntity
  8
0
  6
CONTINUOUS
 62
     7
100
AcDb2dPolyline
 66
     1
 10
0.0
 20
0.0
 30
0.0
  0
VERTEX
  5
3B6
330
2BB
100
AcDbEntity
  8
0
  6
CONTINUOUS
 62
     7
100
AcDbVertex
100
AcDb2dVertex
 10
8.9145827279
 20
6.7338267377
 30
0.0
  0
VERTEX
  5
3B7
330
2BB
100
AcDbEntity
  8
0
  6
CONTINUOUS
 62
     7
100
AcDbVertex
100
AcDb2dVertex
 10
8.9140846448
 20
6.7523907635
 30
0.0
  0
VERTEX
  5
3B8
330
2BB
100
AcDbEntity
  8
0
  6
CONTINUOUS
 62
     7
100
AcDbVertex
100
AcDb2dVertex
 10
8.9125922483
 20
6.7703106553
 30
0.0
  0
VERTEX
  5
3B9
330
2BB
100
AcDbEntity
  8
0
  6
CONTINUOUS
 62
     7
100
AcDbVertex
100
AcDb2dVertex
 10
8.9101110904
 20
6.78751975
 30
0.0
  0
VERTEX
  5
3BA
330
2BB
100
AcDbEntity
  8
0
  6
CONTINUOUS
 62
     7
100
AcDbVertex
100
AcDb2dVertex
 10
8.9066504009
 20
6.8039540287
 30
0.0
  0
VERTEX
  5
3BB
330
2BB
100
AcDbEntity
  8
0
  6
CONTINUOUS
 62
     7
100
AcDbVertex
100
AcDb2dVertex
 10
8.9022230541
 20
6.8195523547
 30
0.0
  0
VERTEX
  5
3BC
330
2BB
100
AcDbEntity
  8
0
  6
CONTINUOUS
 62
     7
100
AcDbVertex
100
AcDb2dVertex
 10
8.8968455197
 20
6.8342567012
 30
0.0
  0
VERTEX
  5
3BD
330
2BB
100
AcDbEntity
  8
0
  6
CONTINUOUS
 62
     7
100
AcDbVertex
100
AcDb2dVertex
 10
8.8905378028
 20
6.8480123672
 30
0.0
  0
VERTEX
  5
3BE
330
2BB
100
AcDbEntity
  8
0
  6
CONTINUOUS
 62
     7
100
AcDbVertex
100
AcDb2dVertex
 10
8.8833233682
 20
6.8607681806
 30
0.0
  0
VERTEX
  5
3BF
330
2BB
100
AcDbEntity
  8
0
  6
CONTINUOUS
 62
     7
100
AcDbVertex
100
AcDb2dVertex
 10
8.8752290544
 20
6.8724766889
 30
0.0
  0
VERTEX
  5
3C0
330
2BB
100
AcDbEntity
  8
0
  6
CONTINUOUS
 62
     7
100
AcDbVertex
100
AcDb2dVertex
 10
8.8662849725
 20
6.8830943358
 30
0.0
  0
VERTEX
  5
3C1
330
2BB
100
AcDbEntity
  8
0
  6
CONTINUOUS
 62
     7
100
AcDbVertex
100
AcDb2dVertex
 10
8.8565243952
 20
6.8925816229
 30
0.0
  0
VERTEX
  5
3C2
330
2BB
100
AcDbEntity
  8
0
  6
CONTINUOUS
 62
     7
100
AcDbVertex
100
AcDb2dVertex
 10
8.8459836325
 20
6.9009032569
 30
0.0
  0
VERTEX
  5
3C3
330
2BB
100
AcDbEntity
  8
0
  6
CONTINUOUS
 62
     7
100
AcDbVertex
100
AcDb2dVertex
 10
8.8347018967
 20
6.9080282807
 30
0.0
  0
VERTEX
  5
3C4
330
2BB
100
AcDbEntity
  8
0
  6
CONTINUOUS
 62
     7
100
AcDbVertex
100
AcDb2dVertex
 10
8.8227211566
 20
6.9139301889
 30
0.0
  0
VERTEX
  5
3C5
330
2BB
100
AcDbEntity
  8
0
  6
CONTINUOUS
 62
     7
100
AcDbVertex
100
AcDb2dVertex
 10
8.8100859813
 20
6.9185870258
 30
0.0
  0
VERTEX
  5
3C6
330
2BB
100
AcDbEntity
  8
0
  6
CONTINUOUS
 62
     7
100
AcDbVertex
100
AcDb2dVertex
 10
8.7968433746
 20
6.9219814678
 30
0.0
  0
VERTEX
  5
3C7
330
2BB
100
AcDbEntity
  8
0
  6
CONTINUOUS
 62
     7
100
AcDbVertex
100
AcDb2dVertex
 10
8.7830425997
 20
6.9241008873
 30
0.0
  0
VERTEX
  5
3C8
330
2BB
100
AcDbEntity
  8
0
  6
CONTINUOUS
 62
     7
100
AcDbVertex
100
AcDb2dVertex
 10
8.7687349966
 20
6.9249373999
 30
0.0
  0
VERTEX
  5
3C9
330
2BB
100
AcDbEntity
  8
0
  6
CONTINUOUS
 62
     7
100
AcDbVertex
100
AcDb2dVertex
 10
8.7539737903
 20
6.9244878938
 30
0.0
  0
VERTEX
  5
3CA
330
2BB
100
AcDbEntity
  8
0
  6
CONTINUOUS
 62
     7
100
AcDbVertex
100
AcDb2dVertex
 10
8.7388138936
 20
6.9227540412
 30
0.0
  0
VERTEX
  5
3CB
330
2BB
100
AcDbEntity
  8
0
  6
CONTINUOUS
 62
     7
100
AcDbVertex
100
AcDb2dVertex
 10
8.7233117023
 20
6.919742292
 30
0.0
  0
VERTEX
  5
3CC
330
2BB
100
AcDbEntity
  8
0
  6
CONTINUOUS
 62
     7
100
AcDbVertex
100
AcDb2dVertex
 10
8.7075248855
 20
6.9154638503
 30
0.0
  0
VERTEX
  5
3CD
330
2BB
100
AcDbEntity
  8
0
  6
CONTINUOUS
 62
     7
100
AcDbVertex
100
AcDb2dVertex
 10
8.6915121712
 20
6.909934632
 30
0.0
  0
VERTEX
  5
3CE
330
2BB
100
AcDbEntity
  8
0
  6
CONTINUOUS
 62
     7
100
AcDbVertex
100
AcDb2dVertex
 10
8.6753331279
 20
6.9031752063
 30
0.0
  0
VERTEX
  5
3CF
330
2BB
100
AcDbEntity
  8
0
  6
CONTINUOUS
 62
     7
100
AcDbVertex
100
AcDb2dVertex
 10
8.6590479425
 20
6.8952107186
 30
0.0
  0
VERTEX
  5
3D0
330
2BB
100
AcDbEntity
  8
0
  6
CONTINUOUS
 62
     7
100
AcDbVertex
100
AcDb2dVertex
 10
8.6427171971
 20
6.8860707974
 30
0.0
  0
VERTEX
  5
3D1
330
2BB
100
AcDbEntity
  8
0
  6
CONTINUOUS
 62
     7
100
AcDbVertex
100
AcDb2dVertex
 10
8.626401643
 20
6.8757894437
 30
0.0
  0
VERTEX
  5
3D2
330
2BB
100
AcDbEntity
  8
0
  6
CONTINUOUS
 62
     7
100
AcDbVertex
100
AcDb2dVertex
 10
8.6101619753
 20
6.864404905
 30
0.0
  0
VERTEX
  5
3D3
330
2BB
100
AcDbEntity
  8
0
  6
CONTINUOUS
 62
     7
100
AcDbVertex
100
AcDb2dVertex
 10
8.5940586066
 20
6.8519595323
 30
0.0
  0
VERTEX
  5
3D4
330
2BB
100
AcDbEntity
  8
0
  6
CONTINUOUS
 62
     7
100
AcDbVertex
100
AcDb2dVertex
 10
8.5781514424
 20
6.8384996234
 30
0.0
  0
VERTEX
  5
3D5
330
2BB
100
AcDbEntity
  8
0
  6
CONTINUOUS
 62
     7
100
AcDbVertex
100
AcDb2dVertex
 10
8.5624996584
 20
6.8240752499
 30
0.0
  0
VERTEX
  5
3D6
330
2BB
100
AcDbEntity
  8
0
  6
CONTINUOUS
 62
     7
100
AcDbVertex
100
AcDb2dVertex
 10
8.5471614803
 20
6.8087400715
 30
0.0
  0
VERTEX
  5
3D7
330
2BB
100
AcDbEntity
  8
0
  6
CONTINUOUS
 62
     7
100
AcDbVertex
100
AcDb2dVertex
 10
8.5321939672
 20
6.7925511361
 30
0.0
  0
VERTEX
  5
3D8
330
2BB
100
AcDbEntity
  8
0
  6
CONTINUOUS
 62
     7
100
AcDbVertex
100
AcDb2dVertex
 10
8.5176527992
 20
6.7755686675
 30
0.0
  0
VERTEX
  5
3D9
330
2BB
100
AcDbEntity
  8
0
  6
CONTINUOUS
 62
     7
100
AcDbVertex
100
AcDb2dVertex
 10
8.5035920703
 20
6.7578558417
 30
0.0
  0
VERTEX
  5
3DA
330
2BB
100
AcDbEntity
  8
0
  6
CONTINUOUS
 62
     7
100
AcDbVertex
100
AcDb2dVertex
 10
8.4900640874
 20
6.7394785514
 30
0.0
  0
VERTEX
  5
3DB
330
2BB
100
AcDbEntity
  8
0
  6
CONTINUOUS
 62
     7
100
AcDbVertex
100
AcDb2dVertex
 10
8.4771191755
 20
6.7205051616
 30
0.0
  0
VERTEX
  5
3DC
330
2BB
100
AcDbEntity
  8
0
  6
CONTINUOUS
 62
     7
100
AcDbVertex
100
AcDb2dVertex
 10
8.4648054906
 20
6.7010062543
 30
0.0
  0
VERTEX
  5
3DD
330
2BB
100
AcDbEntity
  8
0
  6
CONTINUOUS
 62
     7
100
AcDbVertex
100
AcDb2dVertex
 10
8.4531688402
 20
6.6810543669
 30
0.0
  0
VERTEX
  5
3DE
330
2BB
100
AcDbEntity
  8
0
  6
CONTINUOUS
 62
     7
100
AcDbVertex
100
AcDb2dVertex
 10
8.4422525136
 20
6.6607237217
 30
0.0
  0
VERTEX
  5
3DF
330
2BB
100
AcDbEntity
  8
0
  6
CONTINUOUS
 62
     7
100
AcDbVertex
100
AcDb2dVertex
 10
8.4320971201
 20
6.6400899499
 30
0.0
  0
VERTEX
  5
3E0
330
2BB
100
AcDbEntity
  8
0
  6
CONTINUOUS
 62
     7
100
AcDbVertex
100
AcDb2dVertex
 10
8.4227404386
 20
6.6192298106
 30
0.0
  0
VERTEX
  5
3E1
330
2BB
100
AcDbEntity
  8
0
  6
CONTINUOUS
 62
     7
100
AcDbVertex
100
AcDb2dVertex
 10
8.4142172765
 20
6.5982209049
 30
0.0
  0
VERTEX
  5
3E2
330
2BB
100
AcDbEntity
  8
0
  6
CONTINUOUS
 62
     7
100
AcDbVertex
100
AcDb2dVertex
 10
8.4065593405
 20
6.5771413873
 30
0.0
  0
VERTEX
  5
3E3
330
2BB
100
AcDbEntity
  8
0
  6
CONTINUOUS
 62
     7
100
AcDbVertex
100
AcDb2dVertex
 10
8.3997951186
 20
6.5560696749
 30
0.0
  0
VERTEX
  5
3E4
330
2BB
100
AcDbEntity
  8
0
  6
CONTINUOUS
 62
     7
100
AcDbVertex
100
AcDb2dVertex
 10
8.3939497741
 20
6.5350841559
 30
0.0
  0
VERTEX
  5
3E5
330
2BB
100
AcDbEntity
  8
0
  6
CONTINUOUS
 62
     7
100
AcDbVertex
100
AcDb2dVertex
 10
8.3890450523
 20
6.5142628979
 30
0.0
  0
VERTEX
  5
3E6
330
2BB
100
AcDbEntity
  8
0
  6
CONTINUOUS
 62
     7
100
AcDbVertex
100
AcDb2dVertex
 10
8.3850991988
 20
6.4936833573
 30
0.0
  0
VERTEX
  5
3E7
330
2BB
100
AcDbEntity
  8
0
  6
CONTINUOUS
 62
     7
100
AcDbVertex
100
AcDb2dVertex
 10
8.3821268927
 20
6.4734220912
 30
0.0
  0
VERTEX
  5
3E8
330
2BB
100
AcDbEntity
  8
0
  6
CONTINUOUS
 62
     7
100
AcDbVertex
100
AcDb2dVertex
 10
8.3801391909
 20
6.4535544731
 30
0.0
  0
VERTEX
  5
3E9
330
2BB
100
AcDbEntity
  8
0
  6
CONTINUOUS
 62
     7
100
AcDbVertex
100
AcDb2dVertex
 10
8.379143488
 20
6.4341544116
 30
0.0
  0
VERTEX
  5
3EA
330
2BB
100
AcDbEntity
  8
0
  6
CONTINUOUS
 62
     7
100
AcDbVertex
100
AcDb2dVertex
 10
8.379143488
 20
6.4152940764
 30
0.0
  0
VERTEX
  5
3EB
330
2BB
100
AcDbEntity
  8
0
  6
CONTINUOUS
 62
     7
100
AcDbVertex
100
AcDb2dVertex
 10
8.3801391909
 20
6.397043629
 30
0.0
  0
VERTEX
  5
3EC
330
2BB
100
AcDbEntity
  8
0
  6
CONTINUOUS
 62
     7
100
AcDbVertex
100
AcDb2dVertex
 10
8.3821268927
 20
6.3794709624
 30
0.0
  0
VERTEX
  5
3ED
330
2BB
100
AcDbEntity
  8
0
  6
CONTINUOUS
 62
     7
100
AcDbVertex
100
AcDb2dVertex
 10
8.3850991988
 20
6.362641448
 30
0.0
  0
VERTEX
  5
3EE
330
2BB
100
AcDbEntity
  8
0
  6
CONTINUOUS
 62
     7
100
AcDbVertex
100
AcDb2dVertex
 10
8.3890450523
 20
6.3466176928
 30
0.0
  0
VERTEX
  5
3EF
330
2BB
100
AcDbEntity
  8
0
  6
CONTINUOUS
 62
     7
100
AcDbVertex
100
AcDb2dVertex
 10
8.3939497741
 20
6.3314593061
 30
0.0
  0
VERTEX
  5
3F0
330
2BB
100
AcDbEntity
  8
0
  6
CONTINUOUS
 62
     7
100
AcDbVertex
100
AcDb2dVertex
 10
8.3997951186
 20
6.3172226782
 30
0.0
  0
VERTEX
  5
3F1
330
2BB
100
AcDbEntity
  8
0
  6
CONTINUOUS
 62
     7
100
AcDbVertex
100
AcDb2dVertex
 10
8.4065593405
 20
6.3039607702
 30
0.0
  0
VERTEX
  5
3F2
330
2BB
100
AcDbEntity
  8
0
  6
CONTINUOUS
 62
     7
100
AcDbVertex
100
AcDb2dVertex
 10
8.4142172765
 20
6.2917229173
 30
0.0
  0
VERTEX
  5
3F3
330
2BB
100
AcDbEntity
  8
0
  6
CONTINUOUS
 62
     7
100
AcDbVertex
100
AcDb2dVertex
 10
8.4227404386
 20
6.2805546451
 30
0.0
  0
VERTEX
  5
3F4
330
2BB
100
AcDbEntity
  8
0
  6
CONTINUOUS
 62
     7
100
AcDbVertex
100
AcDb2dVertex
 10
8.4320971201
 20
6.2704975003
 30
0.0
  0
VERTEX
  5
3F5
330
2BB
100
AcDbEntity
  8
0
  6
CONTINUOUS
 62
     7
100
AcDbVertex
100
AcDb2dVertex
 10
8.4422525136
 20
6.2615888962
 30
0.0
  0
VERTEX
  5
3F6
330
2BB
100
AcDbEntity
  8
0
  6
CONTINUOUS
 62
     7
100
AcDbVertex
100
AcDb2dVertex
 10
8.4531688402
 20
6.2538619734
 30
0.0
  0
VERTEX
  5
3F7
330
2BB
100
AcDbEntity
  8
0
  6
CONTINUOUS
 62
     7
100
AcDbVertex
100
AcDb2dVertex
 10
8.4648054906
 20
6.2473454765
 30
0.0
  0
VERTEX
  5
3F8
330
2BB
100
AcDbEntity
  8
0
  6
CONTINUOUS
 62
     7
100
AcDbVertex
100
AcDb2dVertex
 10
8.4771191755
 20
6.2420636473
 30
0.0
  0
VERTEX
  5
3F9
330
2BB
100
AcDbEntity
  8
0
  6
CONTINUOUS
 62
     7
100
AcDbVertex
100
AcDb2dVertex
 10
8.4900640874
 20
6.2380361346
 30
0.0
  0
VERTEX
  5
3FA
330
2BB
100
AcDbEntity
  8
0
  6
CONTINUOUS
 62
     7
100
AcDbVertex
100
AcDb2dVertex
 10
8.5035920703
 20
6.235277921
 30
0.0
  0
VERTEX
  5
3FB
330
2BB
100
AcDbEntity
  8
0
  6
CONTINUOUS
 62
     7
100
AcDbVertex
100
AcDb2dVertex
 10
8.5176527992
 20
6.2337992671
 30
0.0
  0
VERTEX
  5
3FC
330
2BB
100
AcDbEntity
  8
0
  6
CONTINUOUS
 62
     7
100
AcDbVertex
100
AcDb2dVertex
 10
8.5321939672
 20
6.2336056738
 30
0.0
  0
VERTEX
  5
3FD
330
2BB
100
AcDbEntity
  8
0
  6
CONTINUOUS
 62
     7
100
AcDbVertex
100
AcDb2dVertex
 10
8.5471614803
 20
6.2346978612
 30
0.0
  0
VERTEX
  5
3FE
330
2BB
100
AcDbEntity
  8
0
  6
CONTINUOUS
 62
     7
100
AcDbVertex
100
AcDb2dVertex
 10
8.5624996584
 20
6.2370717662
 30
0.0
  0
VERTEX
  5
3FF
330
2BB
100
AcDbEntity
  8
0
  6
CONTINUOUS
 62
     7
100
AcDbVertex
100
AcDb2dVertex
 10
8.5781514424
 20
6.2407185579
 30
0.0
  0
VERTEX
  5
400
330
2BB
100
AcDbEntity
  8
0
  6
CONTINUOUS
 62
     7
100
AcDbVertex
100
AcDb2dVertex
 10
8.5940586066
 20
6.2456246698
 30
0.0
  0
VERTEX
  5
401
330
2BB
100
AcDbEntity
  8
0
  6
CONTINUOUS
 62
     7
100
AcDbVertex
100
AcDb2dVertex
 10
8.6101619753
 20
6.2517718509
 30
0.0
  0
VERTEX
  5
402
330
2BB
100
AcDbEntity
  8
0
  6
CONTINUOUS
 62
     7
100
AcDbVertex
100
AcDb2dVertex
 10
8.626401643
 20
6.2591372334
 30
0.0
  0
VERTEX
  5
403
330
2BB
100
AcDbEntity
  8
0
  6
CONTINUOUS
 62
     7
100
AcDbVertex
100
AcDb2dVertex
 10
8.6427171971
 20
6.2676934175
 30
0.0
  0
VERTEX
  5
404
330
2BB
100
AcDbEntity
  8
0
  6
CONTINUOUS
 62
     7
100
AcDbVertex
100
AcDb2dVertex
 10
8.6590479425
 20
6.2774085736
 30
0.0
  0
VERTEX
  5
405
330
2BB
100
AcDbEntity
  8
0
  6
CONTINUOUS
 62
     7
100
AcDbVertex
100
AcDb2dVertex
 10
8.6753331279
 20
6.2882465607
 30
0.0
  0
VERTEX
  5
406
330
2BB
100
AcDbEntity
  8
0
  6
CONTINUOUS
 62
     7
100
AcDbVertex
100
AcDb2dVertex
 10
8.6915121712
 20
6.3001670609
 30
0.0
  0
VERTEX
  5
407
330
2BB
100
AcDbEntity
  8
0
  6
CONTINUOUS
 62
     7
100
AcDbVertex
100
AcDb2dVertex
 10
8.7075248855
 20
6.3131257289
 30
0.0
  0
VERTEX
  5
408
330
2BB
100
AcDbEntity
  8
0
  6
CONTINUOUS
 62
     7
100
AcDbVertex
100
AcDb2dVertex
 10
8.7233117023
 20
6.3270743579
 30
0.0
  0
VERTEX
  5
409
330
2BB
100
AcDbEntity
  8
0
  6
CONTINUOUS
 62
     7
100
AcDbVertex
100
AcDb2dVertex
 10
8.7388138936
 20
6.3419610579
 30
0.0
  0
VERTEX
  5
40A
330
2BB
100
AcDbEntity
  8
0
  6
CONTINUOUS
 62
     7
100
AcDbVertex
100
AcDb2dVertex
 10
8.7539737903
 20
6.3577304494
 30
0.0
  0
VERTEX
  5
40B
330
2BB
100
AcDbEntity
  8
0
  6
CONTINUOUS
 62
     7
100
AcDbVertex
100
AcDb2dVertex
 10
8.7687349966
 20
6.3743238693
 30
0.0
  0
VERTEX
  5
40C
330
2BB
100
AcDbEntity
  8
0
  6
CONTINUOUS
 62
     7
100
AcDbVertex
100
AcDb2dVertex
 10
8.7830425997
 20
6.3916795889
 30
0.0
  0
VERTEX
  5
40D
330
2BB
100
AcDbEntity
  8
0
  6
CONTINUOUS
 62
     7
100
AcDbVertex
100
AcDb2dVertex
 10
8.7968433746
 20
6.4097330439
 30
0.0
  0
VERTEX
  5
40E
330
2BB
100
AcDbEntity
  8
0
  6
CONTINUOUS
 62
     7
100
AcDbVertex
100
AcDb2dVertex
 10
8.8100859813
 20
6.4284170742
 30
0.0
  0
VERTEX
  5
40F
330
2BB
100
AcDbEntity
  8
0
  6
CONTINUOUS
 62
     7
100
AcDbVertex
100
AcDb2dVertex
 10
8.8227211566
 20
6.4476621739
 30
0.0
  0
VERTEX
  5
410
330
2BB
100
AcDbEntity
  8
0
  6
CONTINUOUS
 62
     7
100
AcDbVertex
100
AcDb2dVertex
 10
8.8347018967
 20
6.4673967501
 30
0.0
  0
VERTEX
  5
411
330
2BB
100
AcDbEntity
  8
0
  6
CONTINUOUS
 62
     7
100
AcDbVertex
100
AcDb2dVertex
 10
8.8459836325
 20
6.4875473889
 30
0.0
  0
VERTEX
  5
412
330
2BB
100
AcDbEntity
  8
0
  6
CONTINUOUS
 62
     7
100
AcDbVertex
100
AcDb2dVertex
 10
8.8565243952
 20
6.5080391284
 30
0.0
  0
VERTEX
  5
413
330
2BB
100
AcDbEntity
  8
0
  6
CONTINUOUS
 62
     7
100
AcDbVertex
100
AcDb2dVertex
 10
8.8662849725
 20
6.5287957382
 30
0.0
  0
VERTEX
  5
414
330
2BB
100
AcDbEntity
  8
0
  6
CONTINUOUS
 62
     7
100
AcDbVertex
100
AcDb2dVertex
 10
8.8752290544
 20
6.5497400022
 30
0.0
  0
VERTEX
  5
415
330
2BB
100
AcDbEntity
  8
0
  6
CONTINUOUS
 62
     7
100
AcDbVertex
100
AcDb2dVertex
 10
8.8833233682
 20
6.5707940065
 30
0.0
  0
VERTEX
  5
416
330
2BB
100
AcDbEntity
  8
0
  6
CONTINUOUS
 62
     7
100
AcDbVertex
100
AcDb2dVertex
 10
8.8905378028
 20
6.5918794286
 30
0.0
  0
VERTEX
  5
417
330
2BB
100
AcDbEntity
  8
0
  6
CONTINUOUS
 62
     7
100
AcDbVertex
100
AcDb2dVertex
 10
8.8968455197
 20
6.6129178296
 30
0.0
  0
VERTEX
  5
418
330
2BB
100
AcDbEntity
  8
0
  6
CONTINUOUS
 62
     7
100
AcDbVertex
100
AcDb2dVertex
 10
8.9022230541
 20
6.6338309451
 30
0.0
  0
VERTEX
  5
419
330
2BB
100
AcDbEntity
  8
0
  6
CONTINUOUS
 62
     7
100
AcDbVertex
100
AcDb2dVertex
 10
8.9066504009
 20
6.654540977
 30
0.0
  0
VERTEX
  5
41A
330
2BB
100
AcDbEntity
  8
0
  6
CONTINUOUS
 62
     7
100
AcDbVertex
100
AcDb2dVertex
 10
8.9101110904
 20
6.6749708827
 30
0.0
  0
VERTEX
  5
41B
330
2BB
100
AcDbEntity
  8
0
  6
CONTINUOUS
 62
     7
100
AcDbVertex
100
AcDb2dVertex
 10
8.9125922483
 20
6.6950446614
 30
0.0
  0
VERTEX
  5
41C
330
2BB
100
AcDbEntity
  8
0
  6
CONTINUOUS
 62
     7
100
AcDbVertex
100
AcDb2dVertex
 10
8.9140846448
 20
6.7146876375
 30
0.0
  0
VERTEX
  5
41D
330
2BB
100
AcDbEntity
  8
0
  6
CONTINUOUS
 62
     7
100
AcDbVertex
100
AcDb2dVertex
 10
8.9145827279
 20
6.7338267377
 30
0.0
  0
SEQEND
  5
41E
330
2BB
100
AcDbEntity
  8
0
  6
CONTINUOUS
 62
     7
  0
POLYLINE
  5
2BC
330
1F
100
AcDbEntity
  8
0
  6
CONTINUOUS
 62
     7
100
AcDb2dPolyline
 66
     1
 10
0.0
 20
0.0
 30
0.0
  0
VERTEX
  5
41F
330
2BC
100
AcDbEntity
  8
0
  6
CONTINUOUS
 62
     7
100
AcDbVertex
100
AcDb2dVertex
 10
8.6362394773
 20
6.2639159648
 30
0.0
  0
VERTEX
  5
420
330
2BC
100
AcDbEntity
  8
0
  6
CONTINUOUS
 62
     7
100
AcDbVertex
100
AcDb2dVertex
 10
8.6237043787
 20
6.2570033038
 30
0.0
  0
VERTEX
  5
421
330
2BC
100
AcDbEntity
  8
0
  6
CONTINUOUS
 62
     7
100
AcDbVertex
100
AcDb2dVertex
 10
8.6070947097
 20
6.2488521057
 30
0.0
  0
VERTEX
  5
422
330
2BC
100
AcDbEntity
  8
0
  6
CONTINUOUS
 62
     7
100
AcDbVertex
100
AcDb2dVertex
 10
8.5905892093
 20
6.2419055278
 30
0.0
  0
VERTEX
  5
423
330
2BC
100
AcDbEntity
  8
0
  6
CONTINUOUS
 62
     7
100
AcDbVertex
100
AcDb2dVertex
 10
8.5742469631
 20
6.2361884371
 30
0.0
  0
VERTEX
  5
424
330
2BC
100
AcDbEntity
  8
0
  6
CONTINUOUS
 62
     7
100
AcDbVertex
100
AcDb2dVertex
 10
8.5581264721
 20
6.2317212993
 30
0.0
  0
VERTEX
  5
425
330
2BC
100
AcDbEntity
  8
0
  6
CONTINUOUS
 62
     7
100
AcDbVertex
100
AcDb2dVertex
 10
8.5422854434
 20
6.2285201056
 30
0.0
  0
VERTEX
  5
426
330
2BC
100
AcDbEntity
  8
0
  6
CONTINUOUS
 62
     7
100
AcDbVertex
100
AcDb2dVertex
 10
8.5267805837
 20
6.2265963154
 30
0.0
  0
VERTEX
  5
427
330
2BC
100
AcDbEntity
  8
0
  6
CONTINUOUS
 62
     7
100
AcDbVertex
100
AcDb2dVertex
 10
8.5116673965
 20
6.2259568154
 30
0.0
  0
VERTEX
  5
428
330
2BC
100
AcDbEntity
  8
0
  6
CONTINUOUS
 62
     7
100
AcDbVertex
100
AcDb2dVertex
 10
8.4969999831
 20
6.2266038948
 30
0.0
  0
VERTEX
  5
429
330
2BC
100
AcDbEntity
  8
0
  6
CONTINUOUS
 62
     7
100
AcDbVertex
100
AcDb2dVertex
 10
8.482830849
 20
6.2285352372
 30
0.0
  0
VERTEX
  5
42A
330
2BC
100
AcDbEntity
  8
0
  6
CONTINUOUS
 62
     7
100
AcDbVertex
100
AcDb2dVertex
 10
8.4692107159
 20
6.2317439291
 30
0.0
  0
VERTEX
  5
42B
330
2BC
100
AcDbEntity
  8
0
  6
CONTINUOUS
 62
     7
100
AcDbVertex
100
AcDb2dVertex
 10
8.4561883405
 20
6.236218484
 30
0.0
  0
VERTEX
  5
42C
330
2BC
100
AcDbEntity
  8
0
  6
CONTINUOUS
 62
     7
100
AcDbVertex
100
AcDb2dVertex
 10
8.4438103395
 20
6.2419428842
 30
0.0
  0
VERTEX
  5
42D
330
2BC
100
AcDbEntity
  8
0
  6
CONTINUOUS
 62
     7
100
AcDbVertex
100
AcDb2dVertex
 10
8.4321210229
 20
6.2488966379
 30
0.0
  0
VERTEX
  5
42E
330
2BC
100
AcDbEntity
  8
0
  6
CONTINUOUS
 62
     7
100
AcDbVertex
100
AcDb2dVertex
 10
8.4211622354
 20
6.2570548524
 30
0.0
  0
VERTEX
  5
42F
330
2BC
100
AcDbEntity
  8
0
  6
CONTINUOUS
 62
     7
100
AcDbVertex
100
AcDb2dVertex
 10
8.4109732067
 20
6.2663883234
 30
0.0
  0
VERTEX
  5
430
330
2BC
100
AcDbEntity
  8
0
  6
CONTINUOUS
 62
     7
100
AcDbVertex
100
AcDb2dVertex
 10
8.4015904107
 20
6.2768636396
 30
0.0
  0
VERTEX
  5
431
330
2BC
100
AcDbEntity
  8
0
  6
CONTINUOUS
 62
     7
100
AcDbVertex
100
AcDb2dVertex
 10
8.3930474356
 20
6.288443302
 30
0.0
  0
VERTEX
  5
432
330
2BC
100
AcDbEntity
  8
0
  6
CONTINUOUS
 62
     7
100
AcDbVertex
100
AcDb2dVertex
 10
8.3853748628
 20
6.3010858584
 30
0.0
  0
VERTEX
  5
433
330
2BC
100
AcDbEntity
  8
0
  6
CONTINUOUS
 62
     7
100
AcDbVertex
100
AcDb2dVertex
 10
8.3786001583
 20
6.3147460517
 30
0.0
  0
VERTEX
  5
434
330
2BC
100
AcDbEntity
  8
0
  6
CONTINUOUS
 62
     7
100
AcDbVertex
100
AcDb2dVertex
 10
8.3727475738
 20
6.3293749821
 30
0.0
  0
VERTEX
  5
435
330
2BC
100
AcDbEntity
  8
0
  6
CONTINUOUS
 62
     7
100
AcDbVertex
100
AcDb2dVertex
 10
8.3678380599
 20
6.3449202818
 30
0.0
  0
VERTEX
  5
436
330
2BC
100
AcDbEntity
  8
0
  6
CONTINUOUS
 62
     7
100
AcDbVertex
100
AcDb2dVertex
 10
8.3638891914
 20
6.3613263025
 30
0.0
  0
VERTEX
  5
437
330
2BC
100
AcDbEntity
  8
0
  6
CONTINUOUS
 62
     7
100
AcDbVertex
100
AcDb2dVertex
 10
8.3609151043
 20
6.378534315
 30
0.0
  0
VERTEX
  5
438
330
2BC
100
AcDbEntity
  8
0
  6
CONTINUOUS
 62
     7
100
AcDbVertex
100
AcDb2dVertex
 10
8.3589264451
 20
6.3964827191
 30
0.0
  0
VERTEX
  5
439
330
2BC
100
AcDbEntity
  8
0
  6
CONTINUOUS
 62
     7
100
AcDbVertex
100
AcDb2dVertex
 10
8.3579303326
 20
6.4151072642
 30
0.0
  0
VERTEX
  5
43A
330
2BC
100
AcDbEntity
  8
0
  6
CONTINUOUS
 62
     7
100
AcDbVertex
100
AcDb2dVertex
 10
8.3579303326
 20
6.4343412792
 30
0.0
  0
VERTEX
  5
43B
330
2BC
100
AcDbEntity
  8
0
  6
CONTINUOUS
 62
     7
100
AcDbVertex
100
AcDb2dVertex
 10
8.3589264451
 20
6.4541159113
 30
0.0
  0
VERTEX
  5
43C
330
2BC
100
AcDbEntity
  8
0
  6
CONTINUOUS
 62
     7
100
AcDbVertex
100
AcDb2dVertex
 10
8.3609151043
 20
6.4743603725
 30
0.0
  0
VERTEX
  5
43D
330
2BC
100
AcDbEntity
  8
0
  6
CONTINUOUS
 62
     7
100
AcDbVertex
100
AcDb2dVertex
 10
8.3638891914
 20
6.4950021929
 30
0.0
  0
VERTEX
  5
43E
330
2BC
100
AcDbEntity
  8
0
  6
CONTINUOUS
 62
     7
100
AcDbVertex
100
AcDb2dVertex
 10
8.3678380599
 20
6.5159674801
 30
0.0
  0
VERTEX
  5
43F
330
2BC
100
AcDbEntity
  8
0
  6
CONTINUOUS
 62
     7
100
AcDbVertex
100
AcDb2dVertex
 10
8.3727475738
 20
6.5371811838
 30
0.0
  0
VERTEX
  5
440
330
2BC
100
AcDbEntity
  8
0
  6
CONTINUOUS
 62
     7
100
AcDbVertex
100
AcDb2dVertex
 10
8.3786001583
 20
6.5585673645
 30
0.0
  0
VERTEX
  5
441
330
2BC
100
AcDbEntity
  8
0
  6
CONTINUOUS
 62
     7
100
AcDbVertex
100
AcDb2dVertex
 10
8.3853748628
 20
6.5800494651
 30
0.0
  0
VERTEX
  5
442
330
2BC
100
AcDbEntity
  8
0
  6
CONTINUOUS
 62
     7
100
AcDbVertex
100
AcDb2dVertex
 10
8.3930474356
 20
6.6015505855
 30
0.0
  0
VERTEX
  5
443
330
2BC
100
AcDbEntity
  8
0
  6
CONTINUOUS
 62
     7
100
AcDbVertex
100
AcDb2dVertex
 10
8.4015904107
 20
6.622993757
 30
0.0
  0
VERTEX
  5
444
330
2BC
100
AcDbEntity
  8
0
  6
CONTINUOUS
 62
     7
100
AcDbVertex
100
AcDb2dVertex
 10
8.4109732067
 20
6.6443022188
 30
0.0
  0
VERTEX
  5
445
330
2BC
100
AcDbEntity
  8
0
  6
CONTINUOUS
 62
     7
100
AcDbVertex
100
AcDb2dVertex
 10
8.4211622354
 20
6.665399692
 30
0.0
  0
VERTEX
  5
446
330
2BC
100
AcDbEntity
  8
0
  6
CONTINUOUS
 62
     7
100
AcDbVertex
100
AcDb2dVertex
 10
8.4321210229
 20
6.6862106532
 30
0.0
  0
VERTEX
  5
447
330
2BC
100
AcDbEntity
  8
0
  6
CONTINUOUS
 62
     7
100
AcDbVertex
100
AcDb2dVertex
 10
8.4438103395
 20
6.7066606046
 30
0.0
  0
VERTEX
  5
448
330
2BC
100
AcDbEntity
  8
0
  6
CONTINUOUS
 62
     7
100
AcDbVertex
100
AcDb2dVertex
 10
8.4561883405
 20
6.7266763406
 30
0.0
  0
VERTEX
  5
449
330
2BC
100
AcDbEntity
  8
0
  6
CONTINUOUS
 62
     7
100
AcDbVertex
100
AcDb2dVertex
 10
8.4692107159
 20
6.7461862101
 30
0.0
  0
VERTEX
  5
44A
330
2BC
100
AcDbEntity
  8
0
  6
CONTINUOUS
 62
     7
100
AcDbVertex
100
AcDb2dVertex
 10
8.482830849
 20
6.7651203728
 30
0.0
  0
VERTEX
  5
44B
330
2BC
100
AcDbEntity
  8
0
  6
CONTINUOUS
 62
     7
100
AcDbVertex
100
AcDb2dVertex
 10
8.4969999831
 20
6.7834110494
 30
0.0
  0
VERTEX
  5
44C
330
2BC
100
AcDbEntity
  8
0
  6
CONTINUOUS
 62
     7
100
AcDbVertex
100
AcDb2dVertex
 10
8.5116673965
 20
6.8009927639
 30
0.0
  0
VERTEX
  5
44D
330
2BC
100
AcDbEntity
  8
0
  6
CONTINUOUS
 62
     7
100
AcDbVertex
100
AcDb2dVertex
 10
8.5267805837
 20
6.8178025783
 30
0.0
  0
VERTEX
  5
44E
330
2BC
100
AcDbEntity
  8
0
  6
CONTINUOUS
 62
     7
100
AcDbVertex
100
AcDb2dVertex
 10
8.5422854434
 20
6.833780318
 30
0.0
  0
VERTEX
  5
44F
330
2BC
100
AcDbEntity
  8
0
  6
CONTINUOUS
 62
     7
100
AcDbVertex
100
AcDb2dVertex
 10
8.5581264721
 20
6.8488687867
 30
0.0
  0
VERTEX
  5
450
330
2BC
100
AcDbEntity
  8
0
  6
CONTINUOUS
 62
     7
100
AcDbVertex
100
AcDb2dVertex
 10
8.5742469631
 20
6.8630139717
 30
0.0
  0
VERTEX
  5
451
330
2BC
100
AcDbEntity
  8
0
  6
CONTINUOUS
 62
     7
100
AcDbVertex
100
AcDb2dVertex
 10
8.5905892093
 20
6.8761652369
 30
0.0
  0
VERTEX
  5
452
330
2BC
100
AcDbEntity
  8
0
  6
CONTINUOUS
 62
     7
100
AcDbVertex
100
AcDb2dVertex
 10
8.6070947097
 20
6.888275504
 30
0.0
  0
VERTEX
  5
453
330
2BC
100
AcDbEntity
  8
0
  6
CONTINUOUS
 62
     7
100
AcDbVertex
100
AcDb2dVertex
 10
8.6237043787
 20
6.8993014216
 30
0.0
  0
VERTEX
  5
454
330
2BC
100
AcDbEntity
  8
0
  6
CONTINUOUS
 62
     7
100
AcDbVertex
100
AcDb2dVertex
 10
8.6403587582
 20
6.9092035197
 30
0.0
  0
VERTEX
  5
455
330
2BC
100
AcDbEntity
  8
0
  6
CONTINUOUS
 62
     7
100
AcDbVertex
100
AcDb2dVertex
 10
8.6569982298
 20
6.9179463514
 30
0.0
  0
VERTEX
  5
456
330
2BC
100
AcDbEntity
  8
0
  6
CONTINUOUS
 62
     7
100
AcDbVertex
100
AcDb2dVertex
 10
8.6735632284
 20
6.9254986195
 30
0.0
  0
VERTEX
  5
457
330
2BC
100
AcDbEntity
  8
0
  6
CONTINUOUS
 62
     7
100
AcDbVertex
100
AcDb2dVertex
 10
8.6899944558
 20
6.931833289
 30
0.0
  0
VERTEX
  5
458
330
2BC
100
AcDbEntity
  8
0
  6
CONTINUOUS
 62
     7
100
AcDbVertex
100
AcDb2dVertex
 10
8.7062330923
 20
6.9369276833
 30
0.0
  0
VERTEX
  5
459
330
2BC
100
AcDbEntity
  8
0
  6
CONTINUOUS
 62
     7
100
AcDbVertex
100
AcDb2dVertex
 10
8.7222210079
 20
6.9407635659
 30
0.0
  0
VERTEX
  5
45A
330
2BC
100
AcDbEntity
  8
0
  6
CONTINUOUS
 62
     7
100
AcDbVertex
100
AcDb2dVertex
 10
8.7379009699
 20
6.9433272053
 30
0.0
  0
VERTEX
  5
45B
330
2BC
100
AcDbEntity
  8
0
  6
CONTINUOUS
 62
     7
100
AcDbVertex
100
AcDb2dVertex
 10
8.7532168482
 20
6.9446094243
 30
0.0
  0
VERTEX
  5
45C
330
2BC
100
AcDbEntity
  8
0
  6
CONTINUOUS
 62
     7
100
AcDbVertex
100
AcDb2dVertex
 10
8.7681138159
 20
6.9446056329
 30
0.0
  0
VERTEX
  5
45D
330
2BC
100
AcDbEntity
  8
0
  6
CONTINUOUS
 62
     7
100
AcDbVertex
100
AcDb2dVertex
 10
8.7825385457
 20
6.9433158447
 30
0.0
  0
VERTEX
  5
45E
330
2BC
100
AcDbEntity
  8
0
  6
CONTINUOUS
 62
     7
100
AcDbVertex
100
AcDb2dVertex
 10
8.7964394009
 20
6.9407446767
 30
0.0
  0
VERTEX
  5
45F
330
2BC
100
AcDbEntity
  8
0
  6
CONTINUOUS
 62
     7
100
AcDbVertex
100
AcDb2dVertex
 10
8.8097666199
 20
6.9369013332
 30
0.0
  0
VERTEX
  5
460
330
2BC
100
AcDbEntity
  8
0
  6
CONTINUOUS
 62
     7
100
AcDbVertex
100
AcDb2dVertex
 10
8.8224724949
 20
6.9317995723
 30
0.0
  0
VERTEX
  5
461
330
2BC
100
AcDbEntity
  8
0
  6
CONTINUOUS
 62
     7
100
AcDbVertex
100
AcDb2dVertex
 10
8.834511542
 20
6.9254576569
 30
0.0
  0
VERTEX
  5
462
330
2BC
100
AcDbEntity
  8
0
  6
CONTINUOUS
 62
     7
100
AcDbVertex
100
AcDb2dVertex
 10
8.8458406646
 20
6.9178982895
 30
0.0
  0
VERTEX
  5
463
330
2BC
100
AcDbEntity
  8
0
  6
CONTINUOUS
 62
     7
100
AcDbVertex
100
AcDb2dVertex
 10
8.8564193074
 20
6.9091485306
 30
0.0
  0
VERTEX
  5
464
330
2BC
100
AcDbEntity
  8
0
  6
CONTINUOUS
 62
     7
100
AcDbVertex
100
AcDb2dVertex
 10
8.8662096015
 20
6.8992397021
 30
0.0
  0
VERTEX
  5
465
330
2BC
100
AcDbEntity
  8
0
  6
CONTINUOUS
 62
     7
100
AcDbVertex
100
AcDb2dVertex
 10
8.8751765004
 20
6.8882072751
 30
0.0
  0
VERTEX
  5
466
330
2BC
100
AcDbEntity
  8
0
  6
CONTINUOUS
 62
     7
100
AcDbVertex
100
AcDb2dVertex
 10
8.8832879047
 20
6.8760907427
 30
0.0
  0
VERTEX
  5
467
330
2BC
100
AcDbEntity
  8
0
  6
CONTINUOUS
 62
     7
100
AcDbVertex
100
AcDb2dVertex
 10
8.8905147778
 20
6.8629334791
 30
0.0
  0
VERTEX
  5
468
330
2BC
100
AcDbEntity
  8
0
  6
CONTINUOUS
 62
     7
100
AcDbVertex
100
AcDb2dVertex
 10
8.8968312494
 20
6.8487825837
 30
0.0
  0
VERTEX
  5
469
330
2BC
100
AcDbEntity
  8
0
  6
CONTINUOUS
 62
     7
100
AcDbVertex
100
AcDb2dVertex
 10
8.9022147081
 20
6.8336887132
 30
0.0
  0
VERTEX
  5
46A
330
2BC
100
AcDbEntity
  8
0
  6
CONTINUOUS
 62
     7
100
AcDbVertex
100
AcDb2dVertex
 10
8.9066458825
 20
6.8177058996
 30
0.0
  0
VERTEX
  5
46B
330
2BC
100
AcDbEntity
  8
0
  6
CONTINUOUS
 62
     7
100
AcDbVertex
100
AcDb2dVertex
 10
8.9101089102
 20
6.8008913573
 30
0.0
  0
VERTEX
  5
46C
330
2BC
100
AcDbEntity
  8
0
  6
CONTINUOUS
 62
     7
100
AcDbVertex
100
AcDb2dVertex
 10
8.9125913945
 20
6.7833052781
 30
0.0
  0
VERTEX
  5
46D
330
2BC
100
AcDbEntity
  8
0
  6
CONTINUOUS
 62
     7
100
AcDbVertex
100
AcDb2dVertex
 10
8.9140844486
 20
6.7650106154
 30
0.0
  0
VERTEX
  5
46E
330
2BC
100
AcDbEntity
  8
0
  6
CONTINUOUS
 62
     7
100
AcDbVertex
100
AcDb2dVertex
 10
8.9145827279
 20
6.7460728594
 30
0.0
  0
VERTEX
  5
46F
330
2BC
100
AcDbEntity
  8
0
  6
CONTINUOUS
 62
     7
100
AcDbVertex
100
AcDb2dVertex
 10
8.9145827279
 20
6.7460728594
 30
0.0
  0
SEQEND
  5
470
330
2BC
100
AcDbEntity
  8
0
  6
CONTINUOUS
 62
     7
  0
ARC
  5
2BD
330
1F
100
AcDbEntity
  8
0
  6
CONTINUOUS
 62
     7
100
AcDbCircle
 10
8.8813405996
 20
6.4438506953
 30
0.0
 40
0.6797455914638458
100
AcDbArc
 50
147.9219846833
 51
154.425652476
  0
LINE
  5
2BE
330
1F
100
AcDbEntity
  8
0
  6
CONTINUOUS
 62
     7
100
AcDbLine
 10
8.3053746501
 20
6.8048455626
 30
0.0
 11
8.2636163757
 21
6.8289521013
 31
0.0
  0
ARC
  5
2BF
330
1F
100
AcDbEntity
  8
0
  6
CONTINUOUS
 62
     7
100
AcDbCircle
 10
8.3594003886
 20
6.4444570025
 30
0.0
 40
0.1332840174926586
100
AcDbArc
 50
226.8184418227
 51
239.9595648579
  0
SPLINE
  5
2C0
330
1F
100
AcDbEntity
  8
0
  6
CONTINUOUS
 62
     7
100
AcDbSpline
210
0.0
220
0.0
230
1.0
 70
     8
 71
     3
 72
    28
 73
    24
 74
     0
 42
0.00000001
 43
0.00000001
 40
0.0
 40
0.0
 40
0.0
 40
0.0
 40
0.1249999999999997
 40
0.1249999999999997
 40
0.1874999999999997
 40
0.1874999999999997
 40
0.2499999999999997
 40
0.2499999999999997
 40
0.3749999999999998
 40
0.3749999999999998
 40
0.4374999999999998
 40
0.4374999999999998
 40
0.4999999999999999
 40
0.4999999999999999
 40
0.6249999999999999
 40
0.6249999999999999
 40
0.6874999999999999
 40
0.6874999999999999
 40
0.7499999999999999
 40
0.7499999999999999
 40
0.8749999999999999
 40
0.8749999999999999
 40
1.0
 40
1.0
 40
1.0
 40
1.0
 10
8.268192477820579
 20
6.737284588858218
 30
0.0
 10
8.258906808109364
 20
6.717871245962838
 30
0.0
 10
8.250009465144649
 20
6.698892092728628
 30
0.0
 10
8.237842402043011
 20
6.670624094744057
 30
0.0
 10
8.23398216040443
 20
6.6612366195781
 30
0.0
 10
8.22674885794297
 20
6.642470821705288
 30
0.0
 10
8.22336402115133
 20
6.633055781702065
 30
0.0
 10
8.214181150006128
 20
6.605018969494895
 30
0.0
 10
8.209383264325822
 20
6.586709302390944
 30
0.0
 10
8.204494909291299
 20
6.559558985995074
 30
0.0
 10
8.203249970475976
 20
6.550563078726419
 30
0.0
 10
8.20157896312303
 20
6.532658919231665
 30
0.0
 10
8.201153807440166
 20
6.523708741415063
 30
0.0
 10
8.201170465662408
 20
6.497313118513438
 30
0.0
 10
8.202887276330063
 20
6.480398383050142
 30
0.0
 10
8.207786264671702
 20
6.456086277576242
 30
0.0
 10
8.209805909854019
 20
6.448161271923924
 30
0.0
 10
8.214573019936541
 20
6.432703115756842
 30
0.0
 10
8.217333573944835
 20
6.425140249860446
 30
0.0
 10
8.226536484685514
 20
6.403341622560707
 30
0.0
 10
8.233839564586177
 20
6.390081510445485
 30
0.0
 10
8.250020038082939
 20
6.366394416992781
 30
0.0
 10
8.258903952926879
 20
6.355962782632445
 30
0.0
 10
8.268192477820579
 20
6.347267773039685
 30
0.0
  0
SPLINE
  5
2C1
330
1F
100
AcDbEntity
  8
0
  6
CONTINUOUS
 62
     7
100
AcDbSpline
210
0.0
220
0.0
230
1.0
 70
     8
 71
     3
 72
    31
 73
    27
 74
     0
 42
0.00000001
 43
0.00000001
 40
-0.1261202054355449
 40
-0.0836798205601442
 40
-0.042611908107778
 40
0.0
 40
0.0426216130868988
 40
0.0836913141793737
 40
0.1261195178979241
 40
0.168279324817778
 40
0.2084855799152702
 40
0.2499067927967572
 40
0.2913619713114405
 40
0.3316224479920369
 40
0.373858106276649
 40
0.4162626079442618
 40
0.4573352864398955
 40
0.4999972665413304
 40
0.5426396366314312
 40
0.583726847952306
 40
0.6261788426281932
 40
0.6683249926213212
 40
0.7085632764787316
 40
0.7500555229830712
 40
0.7914450068357473
 40
0.8316605972580675
 40
0.8738797945644551
 40
0.9163201794398558
 40
0.957388091892222
 40
1.0
 40
1.042621613086899
 40
1.083691314179374
 40
1.126119517897924
 10
8.494502315696367
 20
6.97262622141865
 30
0.0
 10
8.506619180077188
 20
6.981773127977656
 30
0.0
 10
8.521779707170454
 20
6.988366127620058
 30
0.0
 10
8.53962463071543
 20
6.991673760082668
 30
0.0
 10
8.55869012237623
 20
6.991645016622316
 30
0.0
 10
8.577690301029447
 20
6.989036991590257
 30
0.0
 10
8.595375681261471
 20
6.983829861560033
 30
0.0
 10
8.610240617496038
 20
6.976710577679907
 30
0.0
 10
8.621977349087945
 20
6.968480116549631
 30
0.0
 10
8.629103242774205
 20
6.959363625198146
 30
0.0
 10
8.631007424818444
 20
6.949907950994369
 30
0.0
 10
8.628549759333513
 20
6.940351503245071
 30
0.0
 10
8.620938822606313
 20
6.931133019151778
 30
0.0
 10
8.608817109943562
 20
6.92277677617684
 30
0.0
 10
8.593649806507601
 20
6.915379237350818
 30
0.0
 10
8.575793678209441
 20
6.909903165134698
 30
0.0
 10
8.55672226900514
 20
6.907024069442069
 30
0.0
 10
8.53771661295896
 20
6.906600075179501
 30
0.0
 10
8.520026154993976
 20
6.909613547291458
 30
0.0
 10
8.505155608363552
 20
6.916027600295184
 30
0.0
 10
8.493417375543864
 20
6.924953934157823
 30
0.0
 10
8.48631085844906
 20
6.936273123694769
 30
0.0
 10
8.484427402135166
 20
6.948770840562888
 30
0.0
 10
8.486895527624787
 20
6.961240331683769
 30
0.0
 10
8.494502315696367
 20
6.97262622141865
 30
0.0
 10
8.506619180077188
 20
6.981773127977656
 30
0.0
 10
8.521779707170454
 20
6.988366127620058
 30
0.0
  0
LINE
  5
2C2
330
1F
100
AcDbEntity
  8
0
  6
CONTINUOUS
 62
     7
100
AcDbLine
 10
8.6318897405
 20
7.0415517895
 30
0.0
 11
8.673648015
 21
7.0174452508
 31
0.0
  0
ARC
  5
2C3
330
1F
100
AcDbEntity
  8
0
  6
CONTINUOUS
 62
     7
100
AcDbCircle
 10
8.6205265965
 20
6.8969732572
 30
0.0
 40
0.1316639143278658
100
AcDbArc
 50
60.0064441403
 51
66.205200644
  0
POLYLINE
  5
2C4
330
1F
100
AcDbEntity
  8
0
  6
CONTINUOUS
 62
     7
100
AcDb2dPolyline
 66
     1
 10
0.0
 20
0.0
 30
0.0
  0
VERTEX
  5
471
330
2C4
100
AcDbEntity
  8
0
  6
CONTINUOUS
 62
     7
100
AcDbVertex
100
AcDb2dVertex
 10
8.5903016974
 20
7.0664499944
 30
0.0
  0
VERTEX
  5
472
330
2C4
100
AcDbEntity
  8
0
  6
CONTINUOUS
 62
     7
100
AcDbVertex
100
AcDb2dVertex
 10
8.5797455647
 20
7.0719228464
 30
0.0
  0
VERTEX
  5
473
330
2C4
100
AcDbEntity
  8
0
  6
CONTINUOUS
 62
     7
100
AcDbVertex
100
AcDb2dVertex
 10
8.5670396898
 20
7.0770246074
 30
0.0
  0
VERTEX
  5
474
330
2C4
100
AcDbEntity
  8
0
  6
CONTINUOUS
 62
     7
100
AcDbVertex
100
AcDb2dVertex
 10
8.5537124708
 20
7.0808679509
 30
0.0
  0
VERTEX
  5
475
330
2C4
100
AcDbEntity
  8
0
  6
CONTINUOUS
 62
     7
100
AcDbVertex
100
AcDb2dVertex
 10
8.5398116156
 20
7.0834391188
 30
0.0
  0
VERTEX
  5
476
330
2C4
100
AcDbEntity
  8
0
  6
CONTINUOUS
 62
     7
100
AcDbVertex
100
AcDb2dVertex
 10
8.5253868858
 20
7.084728907
 30
0.0
  0
VERTEX
  5
477
330
2C4
100
AcDbEntity
  8
0
  6
CONTINUOUS
 62
     7
100
AcDbVertex
100
AcDb2dVertex
 10
8.5104899181
 20
7.0847326984
 30
0.0
  0
VERTEX
  5
478
330
2C4
100
AcDbEntity
  8
0
  6
CONTINUOUS
 62
     7
100
AcDbVertex
100
AcDb2dVertex
 10
8.4951740398
 20
7.0834504794
 30
0.0
  0
VERTEX
  5
479
330
2C4
100
AcDbEntity
  8
0
  6
CONTINUOUS
 62
     7
100
AcDbVertex
100
AcDb2dVertex
 10
8.4794940777
 20
7.0808868401
 30
0.0
  0
VERTEX
  5
47A
330
2C4
100
AcDbEntity
  8
0
  6
CONTINUOUS
 62
     7
100
AcDbVertex
100
AcDb2dVertex
 10
8.4635061622
 20
7.0770509575
 30
0.0
  0
VERTEX
  5
47B
330
2C4
100
AcDbEntity
  8
0
  6
CONTINUOUS
 62
     7
100
AcDbVertex
100
AcDb2dVertex
 10
8.4472675257
 20
7.0719565631
 30
0.0
  0
VERTEX
  5
47C
330
2C4
100
AcDbEntity
  8
0
  6
CONTINUOUS
 62
     7
100
AcDbVertex
100
AcDb2dVertex
 10
8.4308362983
 20
7.0656218937
 30
0.0
  0
VERTEX
  5
47D
330
2C4
100
AcDbEntity
  8
0
  6
CONTINUOUS
 62
     7
100
AcDbVertex
100
AcDb2dVertex
 10
8.4142712997
 20
7.0580696255
 30
0.0
  0
VERTEX
  5
47E
330
2C4
100
AcDbEntity
  8
0
  6
CONTINUOUS
 62
     7
100
AcDbVertex
100
AcDb2dVertex
 10
8.3976318281
 20
7.0493267939
 30
0.0
  0
VERTEX
  5
47F
330
2C4
100
AcDbEntity
  8
0
  6
CONTINUOUS
 62
     7
100
AcDbVertex
100
AcDb2dVertex
 10
8.3809774486
 20
7.0394246958
 30
0.0
  0
VERTEX
  5
480
330
2C4
100
AcDbEntity
  8
0
  6
CONTINUOUS
 62
     7
100
AcDbVertex
100
AcDb2dVertex
 10
8.3643677795
 20
7.0283987782
 30
0.0
  0
VERTEX
  5
481
330
2C4
100
AcDbEntity
  8
0
  6
CONTINUOUS
 62
     7
100
AcDbVertex
100
AcDb2dVertex
 10
8.3478622792
 20
7.016288511
 30
0.0
  0
VERTEX
  5
482
330
2C4
100
AcDbEntity
  8
0
  6
CONTINUOUS
 62
     7
100
AcDbVertex
100
AcDb2dVertex
 10
8.331520033
 20
7.0031372459
 30
0.0
  0
VERTEX
  5
483
330
2C4
100
AcDbEntity
  8
0
  6
CONTINUOUS
 62
     7
100
AcDbVertex
100
AcDb2dVertex
 10
8.315399542
 20
6.9889920609
 30
0.0
  0
VERTEX
  5
484
330
2C4
100
AcDbEntity
  8
0
  6
CONTINUOUS
 62
     7
100
AcDbVertex
100
AcDb2dVertex
 10
8.2995585132
 20
6.9739035922
 30
0.0
  0
VERTEX
  5
485
330
2C4
100
AcDbEntity
  8
0
  6
CONTINUOUS
 62
     7
100
AcDbVertex
100
AcDb2dVertex
 10
8.2840536536
 20
6.9579258525
 30
0.0
  0
VERTEX
  5
486
330
2C4
100
AcDbEntity
  8
0
  6
CONTINUOUS
 62
     7
100
AcDbVertex
100
AcDb2dVertex
 10
8.2689404664
 20
6.941116038
 30
0.0
  0
VERTEX
  5
487
330
2C4
100
AcDbEntity
  8
0
  6
CONTINUOUS
 62
     7
100
AcDbVertex
100
AcDb2dVertex
 10
8.254273053
 20
6.9235343235
 30
0.0
  0
VERTEX
  5
488
330
2C4
100
AcDbEntity
  8
0
  6
CONTINUOUS
 62
     7
100
AcDbVertex
100
AcDb2dVertex
 10
8.2401039188
 20
6.905243647
 30
0.0
  0
VERTEX
  5
489
330
2C4
100
AcDbEntity
  8
0
  6
CONTINUOUS
 62
     7
100
AcDbVertex
100
AcDb2dVertex
 10
8.2264837858
 20
6.8863094843
 30
0.0
  0
VERTEX
  5
48A
330
2C4
100
AcDbEntity
  8
0
  6
CONTINUOUS
 62
     7
100
AcDbVertex
100
AcDb2dVertex
 10
8.2134614104
 20
6.8667996148
 30
0.0
  0
VERTEX
  5
48B
330
2C4
100
AcDbEntity
  8
0
  6
CONTINUOUS
 62
     7
100
AcDbVertex
100
AcDb2dVertex
 10
8.2010834094
 20
6.8467838788
 30
0.0
  0
VERTEX
  5
48C
330
2C4
100
AcDbEntity
  8
0
  6
CONTINUOUS
 62
     7
100
AcDbVertex
100
AcDb2dVertex
 10
8.1893940928
 20
6.8263339274
 30
0.0
  0
VERTEX
  5
48D
330
2C4
100
AcDbEntity
  8
0
  6
CONTINUOUS
 62
     7
100
AcDbVertex
100
AcDb2dVertex
 10
8.1784353053
 20
6.8055229662
 30
0.0
  0
VERTEX
  5
48E
330
2C4
100
AcDbEntity
  8
0
  6
CONTINUOUS
 62
     7
100
AcDbVertex
100
AcDb2dVertex
 10
8.1685724752
 20
6.7851311782
 30
0.0
  0
SEQEND
  5
48F
330
2C4
100
AcDbEntity
  8
0
  6
CONTINUOUS
 62
     7
  0
POLYLINE
  5
2C5
330
1F
100
AcDbEntity
  8
0
  6
CONTINUOUS
 62
     7
100
AcDb2dPolyline
 66
     1
 10
0.0
 20
0.0
 30
0.0
  0
VERTEX
  5
490
330
2C5
100
AcDbEntity
  8
0
  6
CONTINUOUS
 62
     7
100
AcDbVertex
100
AcDb2dVertex
 10
8.7130851341
 20
6.6175046528
 30
0.0
  0
VERTEX
  5
491
330
2C5
100
AcDbEntity
  8
0
  6
CONTINUOUS
 62
     7
100
AcDbVertex
100
AcDb2dVertex
 10
8.7125827329
 20
6.6078084256
 30
0.0
  0
VERTEX
  5
492
330
2C5
100
AcDbEntity
  8
0
  6
CONTINUOUS
 62
     7
100
AcDbVertex
100
AcDb2dVertex
 10
8.7110831451
 20
6.5976791232
 30
0.0
  0
VERTEX
  5
493
330
2C5
100
AcDbEntity
  8
0
  6
CONTINUOUS
 62
     7
100
AcDbVertex
100
AcDb2dVertex
 10
8.7086091031
 20
6.5872702955
 30
0.0
  0
VERTEX
  5
494
330
2C5
100
AcDbEntity
  8
0
  6
CONTINUOUS
 62
     7
100
AcDbVertex
100
AcDb2dVertex
 10
8.7051981106
 20
6.5767397298
 30
0.0
  0
VERTEX
  5
495
330
2C5
100
AcDbEntity
  8
0
  6
CONTINUOUS
 62
     7
100
AcDbVertex
100
AcDb2dVertex
 10
8.7009018749
 20
6.5662470586
 30
0.0
  0
VERTEX
  5
496
330
2C5
100
AcDbEntity
  8
0
  6
CONTINUOUS
 62
     7
100
AcDbVertex
100
AcDb2dVertex
 10
8.6957855226
 20
6.5559513402
 30
0.0
  0
VERTEX
  5
497
330
2C5
100
AcDbEntity
  8
0
  6
CONTINUOUS
 62
     7
100
AcDbVertex
100
AcDb2dVertex
 10
8.6899266124
 20
6.5460086472
 30
0.0
  0
VERTEX
  5
498
330
2C5
100
AcDbEntity
  8
0
  6
CONTINUOUS
 62
     7
100
AcDbVertex
100
AcDb2dVertex
 10
8.6834139592
 20
6.5365697006
 30
0.0
  0
VERTEX
  5
499
330
2C5
100
AcDbEntity
  8
0
  6
CONTINUOUS
 62
     7
100
AcDbVertex
100
AcDb2dVertex
 10
8.6763462885
 20
6.5277775854
 30
0.0
  0
VERTEX
  5
49A
330
2C5
100
AcDbEntity
  8
0
  6
CONTINUOUS
 62
     7
100
AcDbVertex
100
AcDb2dVertex
 10
8.6688307387
 20
6.5197655809
 30
0.0
  0
VERTEX
  5
49B
330
2C5
100
AcDbEntity
  8
0
  6
CONTINUOUS
 62
     7
100
AcDbVertex
100
AcDb2dVertex
 10
8.660981238
 20
6.512655141
 30
0.0
  0
VERTEX
  5
49C
330
2C5
100
AcDbEntity
  8
0
  6
CONTINUOUS
 62
     7
100
AcDbVertex
100
AcDb2dVertex
 10
8.6529167768
 20
6.5065540527
 30
0.0
  0
VERTEX
  5
49D
330
2C5
100
AcDbEntity
  8
0
  6
CONTINUOUS
 62
     7
100
AcDbVertex
100
AcDb2dVertex
 10
8.6447596042
 20
6.5015548023
 30
0.0
  0
VERTEX
  5
49E
330
2C5
100
AcDbEntity
  8
0
  6
CONTINUOUS
 62
     7
100
AcDbVertex
100
AcDb2dVertex
 10
8.6366333745
 20
6.4977331734
 30
0.0
  0
VERTEX
  5
49F
330
2C5
100
AcDbEntity
  8
0
  6
CONTINUOUS
 62
     7
100
AcDbVertex
100
AcDb2dVertex
 10
8.6286612731
 20
6.4951470979
 30
0.0
  0
VERTEX
  5
4A0
330
2C5
100
AcDbEntity
  8
0
  6
CONTINUOUS
 62
     7
100
AcDbVertex
100
AcDb2dVertex
 10
8.6209641489
 20
6.4938357781
 30
0.0
  0
VERTEX
  5
4A1
330
2C5
100
AcDbEntity
  8
0
  6
CONTINUOUS
 62
     7
100
AcDbVertex
100
AcDb2dVertex
 10
8.6136586826
 20
6.4938190923
 30
0.0
  0
VERTEX
  5
4A2
330
2C5
100
AcDbEntity
  8
0
  6
CONTINUOUS
 62
     7
100
AcDbVertex
100
AcDb2dVertex
 10
8.6068556175
 20
6.4950972935
 30
0.0
  0
VERTEX
  5
4A3
330
2C5
100
AcDbEntity
  8
0
  6
CONTINUOUS
 62
     7
100
AcDbVertex
100
AcDb2dVertex
 10
8.6006580811
 20
6.4976510053
 30
0.0
  0
VERTEX
  5
4A4
330
2C5
100
AcDbEntity
  8
0
  6
CONTINUOUS
 62
     7
100
AcDbVertex
100
AcDb2dVertex
 10
8.5951600218
 20
6.5014415161
 30
0.0
  0
VERTEX
  5
4A5
330
2C5
100
AcDbEntity
  8
0
  6
CONTINUOUS
 62
     7
100
AcDbVertex
100
AcDb2dVertex
 10
8.5904447845
 20
6.5064113657
 30
0.0
  0
VERTEX
  5
4A6
330
2C5
100
AcDbEntity
  8
0
  6
CONTINUOUS
 62
     7
100
AcDbVertex
100
AcDb2dVertex
 10
8.5865838476
 20
6.5124852162
 30
0.0
  0
VERTEX
  5
4A7
330
2C5
100
AcDbEntity
  8
0
  6
CONTINUOUS
 62
     7
100
AcDbVertex
100
AcDb2dVertex
 10
8.5836357387
 20
6.5195709941
 30
0.0
  0
VERTEX
  5
4A8
330
2C5
100
AcDbEntity
  8
0
  6
CONTINUOUS
 62
     7
100
AcDbVertex
100
AcDb2dVertex
 10
8.5816451483
 20
6.5275612865
 30
0.0
  0
VERTEX
  5
4A9
330
2C5
100
AcDbEntity
  8
0
  6
CONTINUOUS
 62
     7
100
AcDbVertex
100
AcDb2dVertex
 10
8.5806422516
 20
6.5363349684
 30
0.0
  0
VERTEX
  5
4AA
330
2C5
100
AcDbEntity
  8
0
  6
CONTINUOUS
 62
     7
100
AcDbVertex
100
AcDb2dVertex
 10
8.5806422516
 20
6.54575904
 30
0.0
  0
VERTEX
  5
4AB
330
2C5
100
AcDbEntity
  8
0
  6
CONTINUOUS
 62
     7
100
AcDbVertex
100
AcDb2dVertex
 10
8.5816451483
 20
6.5556906418
 30
0.0
  0
VERTEX
  5
4AC
330
2C5
100
AcDbEntity
  8
0
  6
CONTINUOUS
 62
     7
100
AcDbVertex
100
AcDb2dVertex
 10
8.5836357387
 20
6.5659792209
 30
0.0
  0
VERTEX
  5
4AD
330
2C5
100
AcDbEntity
  8
0
  6
CONTINUOUS
 62
     7
100
AcDbVertex
100
AcDb2dVertex
 10
8.5865838476
 20
6.5764688129
 30
0.0
  0
VERTEX
  5
4AE
330
2C5
100
AcDbEntity
  8
0
  6
CONTINUOUS
 62
     7
100
AcDbVertex
100
AcDb2dVertex
 10
8.5904447845
 20
6.5870004063
 30
0.0
  0
VERTEX
  5
4AF
330
2C5
100
AcDbEntity
  8
0
  6
CONTINUOUS
 62
     7
100
AcDbVertex
100
AcDb2dVertex
 10
8.5951600218
 20
6.5974143529
 30
0.0
  0
VERTEX
  5
4B0
330
2C5
100
AcDbEntity
  8
0
  6
CONTINUOUS
 62
     7
100
AcDbVertex
100
AcDb2dVertex
 10
8.6006580811
 20
6.6075527879
 30
0.0
  0
VERTEX
  5
4B1
330
2C5
100
AcDbEntity
  8
0
  6
CONTINUOUS
 62
     7
100
AcDbVertex
100
AcDb2dVertex
 10
8.6068556175
 20
6.6172620229
 30
0.0
  0
VERTEX
  5
4B2
330
2C5
100
AcDbEntity
  8
0
  6
CONTINUOUS
 62
     7
100
AcDbVertex
100
AcDb2dVertex
 10
8.6136586826
 20
6.6263948759
 30
0.0
  0
VERTEX
  5
4B3
330
2C5
100
AcDbEntity
  8
0
  6
CONTINUOUS
 62
     7
100
AcDbVertex
100
AcDb2dVertex
 10
8.6209641489
 20
6.634812902
 30
0.0
  0
VERTEX
  5
4B4
330
2C5
100
AcDbEntity
  8
0
  6
CONTINUOUS
 62
     7
100
AcDbVertex
100
AcDb2dVertex
 10
8.6286612731
 20
6.6423884926
 30
0.0
  0
VERTEX
  5
4B5
330
2C5
100
AcDbEntity
  8
0
  6
CONTINUOUS
 62
     7
100
AcDbVertex
100
AcDb2dVertex
 10
8.6366333745
 20
6.6490068094
 30
0.0
  0
VERTEX
  5
4B6
330
2C5
100
AcDbEntity
  8
0
  6
CONTINUOUS
 62
     7
100
AcDbVertex
100
AcDb2dVertex
 10
8.6447596042
 20
6.6545675256
 30
0.0
  0
VERTEX
  5
4B7
330
2C5
100
AcDbEntity
  8
0
  6
CONTINUOUS
 62
     7
100
AcDbVertex
100
AcDb2dVertex
 10
8.6529167768
 20
6.6589863463
 30
0.0
  0
VERTEX
  5
4B8
330
2C5
100
AcDbEntity
  8
0
  6
CONTINUOUS
 62
     7
100
AcDbVertex
100
AcDb2dVertex
 10
8.660981238
 20
6.6621962867
 30
0.0
  0
VERTEX
  5
4B9
330
2C5
100
AcDbEntity
  8
0
  6
CONTINUOUS
 62
     7
100
AcDbVertex
100
AcDb2dVertex
 10
8.6688307387
 20
6.6641486874
 30
0.0
  0
VERTEX
  5
4BA
330
2C5
100
AcDbEntity
  8
0
  6
CONTINUOUS
 62
     7
100
AcDbVertex
100
AcDb2dVertex
 10
8.6763462885
 20
6.664813952
 30
0.0
  0
VERTEX
  5
4BB
330
2C5
100
AcDbEntity
  8
0
  6
CONTINUOUS
 62
     7
100
AcDbVertex
100
AcDb2dVertex
 10
8.6834139592
 20
6.6641819957
 30
0.0
  0
VERTEX
  5
4BC
330
2C5
100
AcDbEntity
  8
0
  6
CONTINUOUS
 62
     7
100
AcDbVertex
100
AcDb2dVertex
 10
8.6899266124
 20
6.6622623984
 30
0.0
  0
VERTEX
  5
4BD
330
2C5
100
AcDbEntity
  8
0
  6
CONTINUOUS
 62
     7
100
AcDbVertex
100
AcDb2dVertex
 10
8.6957855226
 20
6.6590842592
 30
0.0
  0
VERTEX
  5
4BE
330
2C5
100
AcDbEntity
  8
0
  6
CONTINUOUS
 62
     7
100
AcDbVertex
100
AcDb2dVertex
 10
8.7009018749
 20
6.6546957554
 30
0.0
  0
VERTEX
  5
4BF
330
2C5
100
AcDbEntity
  8
0
  6
CONTINUOUS
 62
     7
100
AcDbVertex
100
AcDb2dVertex
 10
8.7051981106
 20
6.6491634124
 30
0.0
  0
VERTEX
  5
4C0
330
2C5
100
AcDbEntity
  8
0
  6
CONTINUOUS
 62
     7
100
AcDbVertex
100
AcDb2dVertex
 10
8.7086091031
 20
6.6425710947
 30
0.0
  0
VERTEX
  5
4C1
330
2C5
100
AcDbEntity
  8
0
  6
CONTINUOUS
 62
     7
100
AcDbVertex
100
AcDb2dVertex
 10
8.7110831451
 20
6.6350187352
 30
0.0
  0
VERTEX
  5
4C2
330
2C5
100
AcDbEntity
  8
0
  6
CONTINUOUS
 62
     7
100
AcDbVertex
100
AcDb2dVertex
 10
8.7125827329
 20
6.62662082
 30
0.0
  0
VERTEX
  5
4C3
330
2C5
100
AcDbEntity
  8
0
  6
CONTINUOUS
 62
     7
100
AcDbVertex
100
AcDb2dVertex
 10
8.7130851341
 20
6.6175046528
 30
0.0
  0
SEQEND
  5
4C4
330
2C5
100
AcDbEntity
  8
0
  6
CONTINUOUS
 62
     7
  0
LINE
  5
2C6
330
1F
100
AcDbEntity
  8
0
  6
CONTINUOUS
 62
     7
100
AcDbLine
 10
8.2681924778
 20
6.347267773
 30
0.0
 11
8.2681924778
 21
6.3011716105
 31
0.0
  0
POLYLINE
  5
2C7
330
1F
100
AcDbEntity
  8
0
  6
CONTINUOUS
 62
     7
100
AcDb2dPolyline
 66
     1
 10
0.0
 20
0.0
 30
0.0
  0
VERTEX
  5
4C5
330
2C7
100
AcDbEntity
  8
0
  6
CONTINUOUS
 62
     7
100
AcDbVertex
100
AcDb2dVertex
 10
7.861578461
 20
6.3984013167
 30
0.0
  0
VERTEX
  5
4C6
330
2C7
100
AcDbEntity
  8
0
  6
CONTINUOUS
 62
     7
100
AcDbVertex
100
AcDb2dVertex
 10
7.861600824
 20
6.3965171378
 30
0.0
  0
VERTEX
  5
4C7
330
2C7
100
AcDbEntity
  8
0
  6
CONTINUOUS
 62
     7
100
AcDbVertex
100
AcDb2dVertex
 10
7.8625810937
 20
6.3857980955
 30
0.0
  0
VERTEX
  5
4C8
330
2C7
100
AcDbEntity
  8
0
  6
CONTINUOUS
 62
     7
100
AcDbVertex
100
AcDb2dVertex
 10
7.865006745
 20
6.3751558556
 30
0.0
  0
VERTEX
  5
4C9
330
2C7
100
AcDbEntity
  8
0
  6
CONTINUOUS
 62
     7
100
AcDbVertex
100
AcDb2dVertex
 10
7.868862996
 20
6.3646552703
 30
0.0
  0
VERTEX
  5
4CA
330
2C7
100
AcDbEntity
  8
0
  6
CONTINUOUS
 62
     7
100
AcDbVertex
100
AcDb2dVertex
 10
7.8741263475
 20
6.3543603289
 30
0.0
  0
VERTEX
  5
4CB
330
2C7
100
AcDbEntity
  8
0
  6
CONTINUOUS
 62
     7
100
AcDbVertex
100
AcDb2dVertex
 10
7.8807647252
 20
6.3443337672
 30
0.0
  0
VERTEX
  5
4CC
330
2C7
100
AcDbEntity
  8
0
  6
CONTINUOUS
 62
     7
100
AcDbVertex
100
AcDb2dVertex
 10
7.8887376758
 20
6.3346366859
 30
0.0
  0
VERTEX
  5
4CD
330
2C7
100
AcDbEntity
  8
0
  6
CONTINUOUS
 62
     7
100
AcDbVertex
100
AcDb2dVertex
 10
7.8979966131
 20
6.3253281777
 30
0.0
  0
VERTEX
  5
4CE
330
2C7
100
AcDbEntity
  8
0
  6
CONTINUOUS
 62
     7
100
AcDbVertex
100
AcDb2dVertex
 10
7.9084851145
 20
6.3164649672
 30
0.0
  0
VERTEX
  5
4CF
330
2C7
100
AcDbEntity
  8
0
  6
CONTINUOUS
 62
     7
100
AcDbVertex
100
AcDb2dVertex
 10
7.9201392645
 20
6.3081010658
 30
0.0
  0
VERTEX
  5
4D0
330
2C7
100
AcDbEntity
  8
0
  6
CONTINUOUS
 62
     7
100
AcDbVertex
100
AcDb2dVertex
 10
7.9328880442
 20
6.3002874418
 30
0.0
  0
VERTEX
  5
4D1
330
2C7
100
AcDbEntity
  8
0
  6
CONTINUOUS
 62
     7
100
AcDbVertex
100
AcDb2dVertex
 10
7.9466537643
 20
6.2930717105
 30
0.0
  0
VERTEX
  5
4D2
330
2C7
100
AcDbEntity
  8
0
  6
CONTINUOUS
 62
     7
100
AcDbVertex
100
AcDb2dVertex
 10
7.9613525384
 20
6.2864978436
 30
0.0
  0
VERTEX
  5
4D3
330
2C7
100
AcDbEntity
  8
0
  6
CONTINUOUS
 62
     7
100
AcDbVertex
100
AcDb2dVertex
 10
7.9768947942
 20
6.2806059012
 30
0.0
  0
VERTEX
  5
4D4
330
2C7
100
AcDbEntity
  8
0
  6
CONTINUOUS
 62
     7
100
AcDbVertex
100
AcDb2dVertex
 10
7.9931858192
 20
6.2754317882
 30
0.0
  0
VERTEX
  5
4D5
330
2C7
100
AcDbEntity
  8
0
  6
CONTINUOUS
 62
     7
100
AcDbVertex
100
AcDb2dVertex
 10
8.0101263381
 20
6.2710070348
 30
0.0
  0
VERTEX
  5
4D6
330
2C7
100
AcDbEntity
  8
0
  6
CONTINUOUS
 62
     7
100
AcDbVertex
100
AcDb2dVertex
 10
8.0276131178
 20
6.2673586049
 30
0.0
  0
VERTEX
  5
4D7
330
2C7
100
AcDbEntity
  8
0
  6
CONTINUOUS
 62
     7
100
AcDbVertex
100
AcDb2dVertex
 10
8.0455395961
 20
6.2645087316
 30
0.0
  0
VERTEX
  5
4D8
330
2C7
100
AcDbEntity
  8
0
  6
CONTINUOUS
 62
     7
100
AcDbVertex
100
AcDb2dVertex
 10
8.0637965315
 20
6.2624747815
 30
0.0
  0
VERTEX
  5
4D9
330
2C7
100
AcDbEntity
  8
0
  6
CONTINUOUS
 62
     7
100
AcDbVertex
100
AcDb2dVertex
 10
8.0822726688
 20
6.2612691493
 30
0.0
  0
VERTEX
  5
4DA
330
2C7
100
AcDbEntity
  8
0
  6
CONTINUOUS
 62
     7
100
AcDbVertex
100
AcDb2dVertex
 10
8.1008554168
 20
6.260899182
 30
0.0
  0
VERTEX
  5
4DB
330
2C7
100
AcDbEntity
  8
0
  6
CONTINUOUS
 62
     7
100
AcDbVertex
100
AcDb2dVertex
 10
8.1194315348
 20
6.261367134
 30
0.0
  0
VERTEX
  5
4DC
330
2C7
100
AcDbEntity
  8
0
  6
CONTINUOUS
 62
     7
100
AcDbVertex
100
AcDb2dVertex
 10
8.1378878225
 20
6.2626701538
 30
0.0
  0
VERTEX
  5
4DD
330
2C7
100
AcDbEntity
  8
0
  6
CONTINUOUS
 62
     7
100
AcDbVertex
100
AcDb2dVertex
 10
8.1561118096
 20
6.2648003009
 30
0.0
  0
VERTEX
  5
4DE
330
2C7
100
AcDbEntity
  8
0
  6
CONTINUOUS
 62
     7
100
AcDbVertex
100
AcDb2dVertex
 10
8.1739924419
 20
6.2677445945
 30
0.0
  0
VERTEX
  5
4DF
330
2C7
100
AcDbEntity
  8
0
  6
CONTINUOUS
 62
     7
100
AcDbVertex
100
AcDb2dVertex
 10
8.191420757
 20
6.2714850925
 30
0.0
  0
VERTEX
  5
4E0
330
2C7
100
AcDbEntity
  8
0
  6
CONTINUOUS
 62
     7
100
AcDbVertex
100
AcDb2dVertex
 10
8.2082905492
 20
6.2759990007
 30
0.0
  0
VERTEX
  5
4E1
330
2C7
100
AcDbEntity
  8
0
  6
CONTINUOUS
 62
     7
100
AcDbVertex
100
AcDb2dVertex
 10
8.2244990162
 20
6.2812588121
 30
0.0
  0
VERTEX
  5
4E2
330
2C7
100
AcDbEntity
  8
0
  6
CONTINUOUS
 62
     7
100
AcDbVertex
100
AcDb2dVertex
 10
8.2399473859
 20
6.287232474
 30
0.0
  0
VERTEX
  5
4E3
330
2C7
100
AcDbEntity
  8
0
  6
CONTINUOUS
 62
     7
100
AcDbVertex
100
AcDb2dVertex
 10
8.254541518
 20
6.2938835838
 30
0.0
  0
VERTEX
  5
4E4
330
2C7
100
AcDbEntity
  8
0
  6
CONTINUOUS
 62
     7
100
AcDbVertex
100
AcDb2dVertex
 10
8.2681924778
 20
6.3011716105
 30
0.0
  0
SEQEND
  5
4E5
330
2C7
100
AcDbEntity
  8
0
  6
CONTINUOUS
 62
     7
  0
SPLINE
  5
2C8
330
1F
100
AcDbEntity
  8
0
  6
CONTINUOUS
 62
     7
100
AcDbSpline
210
0.0
220
0.0
230
1.0
 70
     8
 71
     3
 72
    12
 73
     8
 74
     0
 42
0.00000001
 43
0.00000001
 40
0.0
 40
0.0
 40
0.0
 40
0.0
 40
0.25
 40
0.25
 40
0.5
 40
0.5
 40
1.0
 40
1.0
 40
1.0
 40
1.0
 10
7.904667555261026
 20
6.959490067989246
 30
0.0
 10
7.906884420603166
 20
6.961317394651165
 30
0.0
 10
7.909141692279267
 20
6.963381157396186
 30
0.0
 10
7.913724460364662
 20
6.967977676833392
 30
0.0
 10
7.916076336940757
 20
6.970542686812765
 30
0.0
 10
7.922984056210874
 20
6.978754353495305
 30
0.0
 10
7.927439075184987
 20
6.984952970072104
 30
0.0
 10
7.931342397019113
 20
6.991624457265455
 30
0.0
  0
POLYLINE
  5
2C9
330
1F
100
AcDbEntity
  8
0
  6
CONTINUOUS
 62
     7
100
AcDb2dPolyline
 66
     1
 10
0.0
 20
0.0
 30
0.0
  0
VERTEX
  5
4E6
330
2C9
100
AcDbEntity
  8
0
  6
CONTINUOUS
 62
     7
100
AcDbVertex
100
AcDb2dVertex
 10
7.9046675553
 20
6.959490068
 30
0.0
  0
VERTEX
  5
4E7
330
2C9
100
AcDbEntity
  8
0
  6
CONTINUOUS
 62
     7
100
AcDbVertex
100
AcDb2dVertex
 10
7.8946037155
 20
6.9504642643
 30
0.0
  0
VERTEX
  5
4E8
330
2C9
100
AcDbEntity
  8
0
  6
CONTINUOUS
 62
     7
100
AcDbVertex
100
AcDb2dVertex
 10
7.8857901157
 20
6.9410127809
 30
0.0
  0
VERTEX
  5
4E9
330
2C9
100
AcDbEntity
  8
0
  6
CONTINUOUS
 62
     7
100
AcDbVertex
100
AcDb2dVertex
 10
7.8782804647
 20
6.9311932139
 30
0.0
  0
VERTEX
  5
4EA
330
2C9
100
AcDbEntity
  8
0
  6
CONTINUOUS
 62
     7
100
AcDbVertex
100
AcDb2dVertex
 10
7.8721205253
 20
6.9210654025
 30
0.0
  0
VERTEX
  5
4EB
330
2C9
100
AcDbEntity
  8
0
  6
CONTINUOUS
 62
     7
100
AcDbVertex
100
AcDb2dVertex
 10
7.8673478353
 20
6.9106910642
 30
0.0
  0
VERTEX
  5
4EC
330
2C9
100
AcDbEntity
  8
0
  6
CONTINUOUS
 62
     7
100
AcDbVertex
100
AcDb2dVertex
 10
7.8639914789
 20
6.9001334187
 30
0.0
  0
VERTEX
  5
4ED
330
2C9
100
AcDbEntity
  8
0
  6
CONTINUOUS
 62
     7
100
AcDbVertex
100
AcDb2dVertex
 10
7.8620719093
 20
6.8894568029
 30
0.0
  0
VERTEX
  5
4EE
330
2C9
100
AcDbEntity
  8
0
  6
CONTINUOUS
 62
     7
100
AcDbVertex
100
AcDb2dVertex
 10
7.861600824
 20
6.8787262787
 30
0.0
  0
VERTEX
  5
4EF
330
2C9
100
AcDbEntity
  8
0
  6
CONTINUOUS
 62
     7
100
AcDbVertex
100
AcDb2dVertex
 10
7.8625810937
 20
6.8680072364
 30
0.0
  0
VERTEX
  5
4F0
330
2C9
100
AcDbEntity
  8
0
  6
CONTINUOUS
 62
     7
100
AcDbVertex
100
AcDb2dVertex
 10
7.865006745
 20
6.8573649964
 30
0.0
  0
VERTEX
  5
4F1
330
2C9
100
AcDbEntity
  8
0
  6
CONTINUOUS
 62
     7
100
AcDbVertex
100
AcDb2dVertex
 10
7.868862996
 20
6.8468644112
 30
0.0
  0
VERTEX
  5
4F2
330
2C9
100
AcDbEntity
  8
0
  6
CONTINUOUS
 62
     7
100
AcDbVertex
100
AcDb2dVertex
 10
7.8741263475
 20
6.8365694697
 30
0.0
  0
VERTEX
  5
4F3
330
2C9
100
AcDbEntity
  8
0
  6
CONTINUOUS
 62
     7
100
AcDbVertex
100
AcDb2dVertex
 10
7.8807647252
 20
6.8265429081
 30
0.0
  0
VERTEX
  5
4F4
330
2C9
100
AcDbEntity
  8
0
  6
CONTINUOUS
 62
     7
100
AcDbVertex
100
AcDb2dVertex
 10
7.8887376758
 20
6.8168458268
 30
0.0
  0
VERTEX
  5
4F5
330
2C9
100
AcDbEntity
  8
0
  6
CONTINUOUS
 62
     7
100
AcDbVertex
100
AcDb2dVertex
 10
7.8979966131
 20
6.8075373185
 30
0.0
  0
VERTEX
  5
4F6
330
2C9
100
AcDbEntity
  8
0
  6
CONTINUOUS
 62
     7
100
AcDbVertex
100
AcDb2dVertex
 10
7.9084851145
 20
6.7986741081
 30
0.0
  0
VERTEX
  5
4F7
330
2C9
100
AcDbEntity
  8
0
  6
CONTINUOUS
 62
     7
100
AcDbVertex
100
AcDb2dVertex
 10
7.9201392645
 20
6.7903102066
 30
0.0
  0
VERTEX
  5
4F8
330
2C9
100
AcDbEntity
  8
0
  6
CONTINUOUS
 62
     7
100
AcDbVertex
100
AcDb2dVertex
 10
7.9328880442
 20
6.7824965827
 30
0.0
  0
VERTEX
  5
4F9
330
2C9
100
AcDbEntity
  8
0
  6
CONTINUOUS
 62
     7
100
AcDbVertex
100
AcDb2dVertex
 10
7.9466537643
 20
6.7752808514
 30
0.0
  0
VERTEX
  5
4FA
330
2C9
100
AcDbEntity
  8
0
  6
CONTINUOUS
 62
     7
100
AcDbVertex
100
AcDb2dVertex
 10
7.9613525384
 20
6.7687069844
 30
0.0
  0
VERTEX
  5
4FB
330
2C9
100
AcDbEntity
  8
0
  6
CONTINUOUS
 62
     7
100
AcDbVertex
100
AcDb2dVertex
 10
7.9768947942
 20
6.7628150421
 30
0.0
  0
VERTEX
  5
4FC
330
2C9
100
AcDbEntity
  8
0
  6
CONTINUOUS
 62
     7
100
AcDbVertex
100
AcDb2dVertex
 10
7.9931858192
 20
6.7576409291
 30
0.0
  0
VERTEX
  5
4FD
330
2C9
100
AcDbEntity
  8
0
  6
CONTINUOUS
 62
     7
100
AcDbVertex
100
AcDb2dVertex
 10
8.0101263381
 20
6.7532161757
 30
0.0
  0
VERTEX
  5
4FE
330
2C9
100
AcDbEntity
  8
0
  6
CONTINUOUS
 62
     7
100
AcDbVertex
100
AcDb2dVertex
 10
8.0276131178
 20
6.7495677458
 30
0.0
  0
VERTEX
  5
4FF
330
2C9
100
AcDbEntity
  8
0
  6
CONTINUOUS
 62
     7
100
AcDbVertex
100
AcDb2dVertex
 10
8.0455395961
 20
6.7467178725
 30
0.0
  0
VERTEX
  5
500
330
2C9
100
AcDbEntity
  8
0
  6
CONTINUOUS
 62
     7
100
AcDbVertex
100
AcDb2dVertex
 10
8.0637965315
 20
6.7446839224
 30
0.0
  0
VERTEX
  5
501
330
2C9
100
AcDbEntity
  8
0
  6
CONTINUOUS
 62
     7
100
AcDbVertex
100
AcDb2dVertex
 10
8.0822726688
 20
6.7434782902
 30
0.0
  0
VERTEX
  5
502
330
2C9
100
AcDbEntity
  8
0
  6
CONTINUOUS
 62
     7
100
AcDbVertex
100
AcDb2dVertex
 10
8.1008554168
 20
6.7431083228
 30
0.0
  0
VERTEX
  5
503
330
2C9
100
AcDbEntity
  8
0
  6
CONTINUOUS
 62
     7
100
AcDbVertex
100
AcDb2dVertex
 10
8.1194315348
 20
6.7435762749
 30
0.0
  0
VERTEX
  5
504
330
2C9
100
AcDbEntity
  8
0
  6
CONTINUOUS
 62
     7
100
AcDbVertex
100
AcDb2dVertex
 10
8.1378878225
 20
6.7448792947
 30
0.0
  0
VERTEX
  5
505
330
2C9
100
AcDbEntity
  8
0
  6
CONTINUOUS
 62
     7
100
AcDbVertex
100
AcDb2dVertex
 10
8.1561118096
 20
6.7470094418
 30
0.0
  0
VERTEX
  5
506
330
2C9
100
AcDbEntity
  8
0
  6
CONTINUOUS
 62
     7
100
AcDbVertex
100
AcDb2dVertex
 10
8.1739924419
 20
6.7499537354
 30
0.0
  0
VERTEX
  5
507
330
2C9
100
AcDbEntity
  8
0
  6
CONTINUOUS
 62
     7
100
AcDbVertex
100
AcDb2dVertex
 10
8.191420757
 20
6.7536942334
 30
0.0
  0
VERTEX
  5
508
330
2C9
100
AcDbEntity
  8
0
  6
CONTINUOUS
 62
     7
100
AcDbVertex
100
AcDb2dVertex
 10
8.2082905492
 20
6.7582081416
 30
0.0
  0
VERTEX
  5
509
330
2C9
100
AcDbEntity
  8
0
  6
CONTINUOUS
 62
     7
100
AcDbVertex
100
AcDb2dVertex
 10
8.2244990162
 20
6.763467953
 30
0.0
  0
VERTEX
  5
50A
330
2C9
100
AcDbEntity
  8
0
  6
CONTINUOUS
 62
     7
100
AcDbVertex
100
AcDb2dVertex
 10
8.2399473859
 20
6.7694416149
 30
0.0
  0
VERTEX
  5
50B
330
2C9
100
AcDbEntity
  8
0
  6
CONTINUOUS
 62
     7
100
AcDbVertex
100
AcDb2dVertex
 10
8.254541518
 20
6.7760927247
 30
0.0
  0
VERTEX
  5
50C
330
2C9
100
AcDbEntity
  8
0
  6
CONTINUOUS
 62
     7
100
AcDbVertex
100
AcDb2dVertex
 10
8.2681924778
 20
6.7833807514
 30
0.0
  0
SEQEND
  5
50D
330
2C9
100
AcDbEntity
  8
0
  6
CONTINUOUS
 62
     7
  0
LINE
  5
2CA
330
1F
100
AcDbEntity
  8
0
  6
CONTINUOUS
 62
     7
100
AcDbLine
 10
8.2681924778
 20
6.7833807514
 30
0.0
 11
8.2681924778
 21
6.7372845889
 31
0.0
  0
LINE
  5
2CB
330
1F
100
AcDbEntity
  8
0
  6
CONTINUOUS
 62
     7
100
AcDbLine
 10
8.2264342033
 20
6.8074872901
 30
0.0
 11
8.2636163757
 21
6.8289521013
 31
0.0
  0
LINE
  5
2CC
330
1F
100
AcDbEntity
  8
0
  6
CONTINUOUS
 62
     7
100
AcDbLine
 10
8.2681924778
 20
6.7833807514
 30
0.0
 11
8.3053746501
 21
6.8048455626
 31
0.0
  0
LINE
  5
2CD
330
1F
100
AcDbEntity
  8
0
  6
CONTINUOUS
 62
     7
100
AcDbLine
 10
7.947288804
 20
6.9348853448
 30
0.0
 11
7.9046675553
 21
6.959490068
 31
0.0
  0
POLYLINE
  5
2CE
330
1F
100
AcDbEntity
  8
0
  6
CONTINUOUS
 62
     7
100
AcDb2dPolyline
 66
     1
 10
0.0
 20
0.0
 30
0.0
  0
VERTEX
  5
50E
330
2CE
100
AcDbEntity
  8
0
  6
CONTINUOUS
 62
     7
100
AcDbVertex
100
AcDb2dVertex
 10
7.947288804
 20
6.9348853448
 30
0.0
  0
VERTEX
  5
50F
330
2CE
100
AcDbEntity
  8
0
  6
CONTINUOUS
 62
     7
100
AcDbVertex
100
AcDb2dVertex
 10
7.9393841242
 20
6.9266711152
 30
0.0
  0
VERTEX
  5
510
330
2CE
100
AcDbEntity
  8
0
  6
CONTINUOUS
 62
     7
100
AcDbVertex
100
AcDb2dVertex
 10
7.9328036803
 20
6.9180765769
 30
0.0
  0
VERTEX
  5
511
330
2CE
100
AcDbEntity
  8
0
  6
CONTINUOUS
 62
     7
100
AcDbVertex
100
AcDb2dVertex
 10
7.927601805
 20
6.9091726923
 30
0.0
  0
VERTEX
  5
512
330
2CE
100
AcDbEntity
  8
0
  6
CONTINUOUS
 62
     7
100
AcDbVertex
100
AcDb2dVertex
 10
7.9238214486
 20
6.9000329781
 30
0.0
  0
VERTEX
  5
513
330
2CE
100
AcDbEntity
  8
0
  6
CONTINUOUS
 62
     7
100
AcDbVertex
100
AcDb2dVertex
 10
7.9214938243
 20
6.8907328981
 30
0.0
  0
VERTEX
  5
514
330
2CE
100
AcDbEntity
  8
0
  6
CONTINUOUS
 62
     7
100
AcDbVertex
100
AcDb2dVertex
 10
7.9206381505
 20
6.8813492402
 30
0.0
  0
VERTEX
  5
515
330
2CE
100
AcDbEntity
  8
0
  6
CONTINUOUS
 62
     7
100
AcDbVertex
100
AcDb2dVertex
 10
7.9212614924
 20
6.8719594823
 30
0.0
  0
VERTEX
  5
516
330
2CE
100
AcDbEntity
  8
0
  6
CONTINUOUS
 62
     7
100
AcDbVertex
100
AcDb2dVertex
 10
7.9233587032
 20
6.862641153
 30
0.0
  0
VERTEX
  5
517
330
2CE
100
AcDbEntity
  8
0
  6
CONTINUOUS
 62
     7
100
AcDbVertex
100
AcDb2dVertex
 10
7.9269124669
 20
6.8534711907
 30
0.0
  0
VERTEX
  5
518
330
2CE
100
AcDbEntity
  8
0
  6
CONTINUOUS
 62
     7
100
AcDbVertex
100
AcDb2dVertex
 10
7.9318934411
 20
6.844525309
 30
0.0
  0
VERTEX
  5
519
330
2CE
100
AcDbEntity
  8
0
  6
CONTINUOUS
 62
     7
100
AcDbVertex
100
AcDb2dVertex
 10
7.9382604994
 20
6.8358773713
 30
0.0
  0
VERTEX
  5
51A
330
2CE
100
AcDbEntity
  8
0
  6
CONTINUOUS
 62
     7
100
AcDbVertex
100
AcDb2dVertex
 10
7.9459610711
 20
6.827598781
 30
0.0
  0
VERTEX
  5
51B
330
2CE
100
AcDbEntity
  8
0
  6
CONTINUOUS
 62
     7
100
AcDbVertex
100
AcDb2dVertex
 10
7.9549315747
 20
6.8197578919
 30
0.0
  0
VERTEX
  5
51C
330
2CE
100
AcDbEntity
  8
0
  6
CONTINUOUS
 62
     7
100
AcDbVertex
100
AcDb2dVertex
 10
7.9650979437
 20
6.8124194437
 30
0.0
  0
VERTEX
  5
51D
330
2CE
100
AcDbEntity
  8
0
  6
CONTINUOUS
 62
     7
100
AcDbVertex
100
AcDb2dVertex
 10
7.9763762375
 20
6.8056440279
 30
0.0
  0
VERTEX
  5
51E
330
2CE
100
AcDbEntity
  8
0
  6
CONTINUOUS
 62
     7
100
AcDbVertex
100
AcDb2dVertex
 10
7.9886733346
 20
6.7994875869
 30
0.0
  0
VERTEX
  5
51F
330
2CE
100
AcDbEntity
  8
0
  6
CONTINUOUS
 62
     7
100
AcDbVertex
100
AcDb2dVertex
 10
8.0018877016
 20
6.7940009526
 30
0.0
  0
VERTEX
  5
520
330
2CE
100
AcDbEntity
  8
0
  6
CONTINUOUS
 62
     7
100
AcDbVertex
100
AcDb2dVertex
 10
8.0159102317
 20
6.7892294264
 30
0.0
  0
VERTEX
  5
521
330
2CE
100
AcDbEntity
  8
0
  6
CONTINUOUS
 62
     7
100
AcDbVertex
100
AcDb2dVertex
 10
8.030625145
 20
6.7852124054
 30
0.0
  0
VERTEX
  5
522
330
2CE
100
AcDbEntity
  8
0
  6
CONTINUOUS
 62
     7
100
AcDbVertex
100
AcDb2dVertex
 10
8.045910945
 20
6.7819830569
 30
0.0
  0
VERTEX
  5
523
330
2CE
100
AcDbEntity
  8
0
  6
CONTINUOUS
 62
     7
100
AcDbVertex
100
AcDb2dVertex
 10
8.0616414216
 20
6.7795680447
 30
0.0
  0
VERTEX
  5
524
330
2CE
100
AcDbEntity
  8
0
  6
CONTINUOUS
 62
     7
100
AcDbVertex
100
AcDb2dVertex
 10
8.077686693
 20
6.7779873086
 30
0.0
  0
VERTEX
  5
525
330
2CE
100
AcDbEntity
  8
0
  6
CONTINUOUS
 62
     7
100
AcDbVertex
100
AcDb2dVertex
 10
8.0939142783
 20
6.7772539005
 30
0.0
  0
VERTEX
  5
526
330
2CE
100
AcDbEntity
  8
0
  6
CONTINUOUS
 62
     7
100
AcDbVertex
100
AcDb2dVertex
 10
8.1101901914
 20
6.7773738758
 30
0.0
  0
VERTEX
  5
527
330
2CE
100
AcDbEntity
  8
0
  6
CONTINUOUS
 62
     7
100
AcDbVertex
100
AcDb2dVertex
 10
8.126380047
 20
6.7783462439
 30
0.0
  0
VERTEX
  5
528
330
2CE
100
AcDbEntity
  8
0
  6
CONTINUOUS
 62
     7
100
AcDbVertex
100
AcDb2dVertex
 10
8.1423501704
 20
6.7801629763
 30
0.0
  0
VERTEX
  5
529
330
2CE
100
AcDbEntity
  8
0
  6
CONTINUOUS
 62
     7
100
AcDbVertex
100
AcDb2dVertex
 10
8.1579687013
 20
6.7828090727
 30
0.0
  0
VERTEX
  5
52A
330
2CE
100
AcDbEntity
  8
0
  6
CONTINUOUS
 62
     7
100
AcDbVertex
100
AcDb2dVertex
 10
8.1731066821
 20
6.7862626853
 30
0.0
  0
VERTEX
  5
52B
330
2CE
100
AcDbEntity
  8
0
  6
CONTINUOUS
 62
     7
100
AcDbVertex
100
AcDb2dVertex
 10
8.1876391233
 20
6.7904952984
 30
0.0
  0
VERTEX
  5
52C
330
2CE
100
AcDbEntity
  8
0
  6
CONTINUOUS
 62
     7
100
AcDbVertex
100
AcDb2dVertex
 10
8.2014460349
 20
6.7954719649
 30
0.0
  0
VERTEX
  5
52D
330
2CE
100
AcDbEntity
  8
0
  6
CONTINUOUS
 62
     7
100
AcDbVertex
100
AcDb2dVertex
 10
8.2144134175
 20
6.8011515938
 30
0.0
  0
VERTEX
  5
52E
330
2CE
100
AcDbEntity
  8
0
  6
CONTINUOUS
 62
     7
100
AcDbVertex
100
AcDb2dVertex
 10
8.2264342033
 20
6.8074872901
 30
0.0
  0
SEQEND
  5
52F
330
2CE
100
AcDbEntity
  8
0
  6
CONTINUOUS
 62
     7
  0
SPLINE
  5
2CF
330
1F
100
AcDbEntity
  8
0
  6
CONTINUOUS
 62
     7
100
AcDbSpline
210
0.0
220
0.0
230
1.0
 70
     8
 71
     3
 72
    12
 73
     8
 74
     0
 42
0.00000001
 43
0.00000001
 40
0.0
 40
0.0
 40
0.0
 40
0.0
 40
0.2500000000000008
 40
0.2500000000000008
 40
0.5000000000000017
 40
0.5000000000000017
 40
1.0
 40
1.0
 40
1.0
 40
1.0
 10
7.973100671498633
 20
6.967517918530532
 30
0.0
 10
7.971142513218231
 20
6.964171069757765
 30
0.0
 10
7.969074984861082
 20
6.960966460590583
 30
0.0
 10
7.964781018357913
 20
6.954803366966528
 30
0.0
 10
7.962527605119527
 20
6.951813339997429
 30
0.0
 10
7.955817415005789
 20
6.943485318102565
 30
0.0
 10
7.951359555428082
 20
6.938696610912679
 30
0.0
 10
7.947288804004667
 20
6.9348853448158
 30
0.0
  0
ARC
  5
2D0
330
1F
100
AcDbEntity
  8
0
  6
CONTINUOUS
 62
     7
100
AcDbCircle
 10
8.6819277786
 20
6.5627718186
 30
0.0
 40
0.5640510131767714
100
AcDbArc
 50
122.4227697929
 51
156.9233995779
  0
SPLINE
  5
2D1
330
1F
100
AcDbEntity
  8
0
  6
CONTINUOUS
 62
     7
100
AcDbSpline
210
0.0
220
0.0
230
1.0
 70
     8
 71
     3
 72
    14
 73
    10
 74
     0
 42
0.00000001
 43
0.00000001
 40
0.0
 40
0.0
 40
0.0
 40
0.0
 40
0.0000733520254471
 40
0.2096754310204416
 40
0.3965059849398433
 40
0.560644326250821
 40
0.7022252258305843
 40
0.8438812636095546
 40
1.0
 40
1.0
 40
1.0
 40
1.0
 10
8.49866195427094
 20
6.940511468771071
 30
0.0
 10
8.498661768221071
 20
6.940510406411797
 30
0.0
 10
8.498129948051538
 20
6.937473671747
 30
0.0
 10
8.499903220078254
 20
6.931597330931965
 30
0.0
 10
8.503748111621924
 20
6.923997945743538
 30
0.0
 10
8.509353253302255
 20
6.918035460521696
 30
0.0
 10
8.515772073034238
 20
6.913495949387542
 30
0.0
 10
8.523124828207953
 20
6.909990047603269
 30
0.0
 10
8.528897174063646
 20
6.908535334884293
 30
0.0
 10
8.531923526257222
 20
6.907772651369106
 30
0.0
  0
SPLINE
  5
2D2
330
1F
100
AcDbEntity
  8
0
  6
CONTINUOUS
 62
     7
100
AcDbSpline
210
0.0
220
0.0
230
1.0
 70
     8
 71
     3
 72
    12
 73
     8
 74
     0
 42
0.00000001
 43
0.00000001
 40
0.0
 40
0.0
 40
0.0
 40
0.0
 40
0.1569676201736528
 40
0.3284891074015135
 40
0.5261095534404654
 40
0.749993300092618
 40
1.0
 40
1.0
 40
1.0
 40
1.0
 10
8.592891038163415
 20
6.915753383903014
 30
0.0
 10
8.595148989581965
 20
6.916866906316796
 30
0.0
 10
8.59987424721927
 20
6.919197195731708
 30
0.0
 10
8.606108310658811
 20
6.923294084490917
 30
0.0
 10
8.61165016069355
 20
6.928187221422955
 30
0.0
 10
8.615886507032759
 20
6.934072817309431
 30
0.0
 10
8.616464936326304
 20
6.938287856326519
 30
0.0
 10
8.61677009377326
 20
6.940511551702303
 30
0.0
  0
POLYLINE
  5
2D3
330
1F
100
AcDbEntity
  8
0
  6
CONTINUOUS
 62
     7
100
AcDb2dPolyline
 66
     1
 10
0.0
 20
0.0
 30
0.0
  0
VERTEX
  5
530
330
2D3
100
AcDbEntity
  8
0
  6
CONTINUOUS
 62
     7
100
AcDbVertex
100
AcDb2dVertex
 10
8.4006549483
 20
7.2517274069
 30
0.0
  0
VERTEX
  5
531
330
2D3
100
AcDbEntity
  8
0
  6
CONTINUOUS
 62
     7
100
AcDbVertex
100
AcDb2dVertex
 10
8.3978694458
 20
7.2681733894
 30
0.0
  0
VERTEX
  5
532
330
2D3
100
AcDbEntity
  8
0
  6
CONTINUOUS
 62
     7
100
AcDbVertex
100
AcDb2dVertex
 10
8.394090134
 20
7.2848969692
 30
0.0
  0
VERTEX
  5
533
330
2D3
100
AcDbEntity
  8
0
  6
CONTINUOUS
 62
     7
100
AcDbVertex
100
AcDb2dVertex
 10
8.3893400436
 20
7.301796235
 30
0.0
  0
VERTEX
  5
534
330
2D3
100
AcDbEntity
  8
0
  6
CONTINUOUS
 62
     7
100
AcDbVertex
100
AcDb2dVertex
 10
8.3836481208
 20
7.3187682049
 30
0.0
  0
VERTEX
  5
535
330
2D3
100
AcDbEntity
  8
0
  6
CONTINUOUS
 62
     7
100
AcDbVertex
100
AcDb2dVertex
 10
8.3770490517
 20
7.3357094542
 30
0.0
  0
VERTEX
  5
536
330
2D3
100
AcDbEntity
  8
0
  6
CONTINUOUS
 62
     7
100
AcDbVertex
100
AcDb2dVertex
 10
8.3695830499
 20
7.3525167451
 30
0.0
  0
VERTEX
  5
537
330
2D3
100
AcDbEntity
  8
0
  6
CONTINUOUS
 62
     7
100
AcDbVertex
100
AcDb2dVertex
 10
8.3612956122
 20
7.3690876563
 30
0.0
  0
VERTEX
  5
538
330
2D3
100
AcDbEntity
  8
0
  6
CONTINUOUS
 62
     7
100
AcDbVertex
100
AcDb2dVertex
 10
8.3522372413
 20
7.3853212068
 30
0.0
  0
VERTEX
  5
539
330
2D3
100
AcDbEntity
  8
0
  6
CONTINUOUS
 62
     7
100
AcDbVertex
100
AcDb2dVertex
 10
8.3424631376
 20
7.4011184717
 30
0.0
  0
VERTEX
  5
53A
330
2D3
100
AcDbEntity
  8
0
  6
CONTINUOUS
 62
     7
100
AcDbVertex
100
AcDb2dVertex
 10
8.3320328631
 20
7.4163831845
 30
0.0
  0
VERTEX
  5
53B
330
2D3
100
AcDbEntity
  8
0
  6
CONTINUOUS
 62
     7
100
AcDbVertex
100
AcDb2dVertex
 10
8.3210099785
 20
7.4310223242
 30
0.0
  0
VERTEX
  5
53C
330
2D3
100
AcDbEntity
  8
0
  6
CONTINUOUS
 62
     7
100
AcDbVertex
100
AcDb2dVertex
 10
8.3094616558
 20
7.4449466817
 30
0.0
  0
VERTEX
  5
53D
330
2D3
100
AcDbEntity
  8
0
  6
CONTINUOUS
 62
     7
100
AcDbVertex
100
AcDb2dVertex
 10
8.2974582689
 20
7.4580714041
 30
0.0
  0
VERTEX
  5
53E
330
2D3
100
AcDbEntity
  8
0
  6
CONTINUOUS
 62
     7
100
AcDbVertex
100
AcDb2dVertex
 10
8.2850729649
 20
7.4703165109
 30
0.0
  0
VERTEX
  5
53F
330
2D3
100
AcDbEntity
  8
0
  6
CONTINUOUS
 62
     7
100
AcDbVertex
100
AcDb2dVertex
 10
8.272381218
 20
7.4816073821
 30
0.0
  0
VERTEX
  5
540
330
2D3
100
AcDbEntity
  8
0
  6
CONTINUOUS
 62
     7
100
AcDbVertex
100
AcDb2dVertex
 10
8.2594603701
 20
7.4918752128
 30
0.0
  0
VERTEX
  5
541
330
2D3
100
AcDbEntity
  8
0
  6
CONTINUOUS
 62
     7
100
AcDbVertex
100
AcDb2dVertex
 10
8.2463891591
 20
7.5010574321
 30
0.0
  0
VERTEX
  5
542
330
2D3
100
AcDbEntity
  8
0
  6
CONTINUOUS
 62
     7
100
AcDbVertex
100
AcDb2dVertex
 10
8.2332472391
 20
7.5090980849
 30
0.0
  0
VERTEX
  5
543
330
2D3
100
AcDbEntity
  8
0
  6
CONTINUOUS
 62
     7
100
AcDbVertex
100
AcDb2dVertex
 10
8.2201146953
 20
7.5159481725
 30
0.0
  0
VERTEX
  5
544
330
2D3
100
AcDbEntity
  8
0
  6
CONTINUOUS
 62
     7
100
AcDbVertex
100
AcDb2dVertex
 10
8.2070715555
 20
7.5215659513
 30
0.0
  0
VERTEX
  5
545
330
2D3
100
AcDbEntity
  8
0
  6
CONTINUOUS
 62
     7
100
AcDbVertex
100
AcDb2dVertex
 10
8.194197303
 20
7.5259171875
 30
0.0
  0
VERTEX
  5
546
330
2D3
100
AcDbEntity
  8
0
  6
CONTINUOUS
 62
     7
100
AcDbVertex
100
AcDb2dVertex
 10
8.1815703916
 20
7.5289753651
 30
0.0
  0
VERTEX
  5
547
330
2D3
100
AcDbEntity
  8
0
  6
CONTINUOUS
 62
     7
100
AcDbVertex
100
AcDb2dVertex
 10
8.169267768
 20
7.5307218481
 30
0.0
  0
VERTEX
  5
548
330
2D3
100
AcDbEntity
  8
0
  6
CONTINUOUS
 62
     7
100
AcDbVertex
100
AcDb2dVertex
 10
8.1573644028
 20
7.5311459936
 30
0.0
  0
VERTEX
  5
549
330
2D3
100
AcDbEntity
  8
0
  6
CONTINUOUS
 62
     7
100
AcDbVertex
100
AcDb2dVertex
 10
8.1459328335
 20
7.530245217
 30
0.0
  0
VERTEX
  5
54A
330
2D3
100
AcDbEntity
  8
0
  6
CONTINUOUS
 62
     7
100
AcDbVertex
100
AcDb2dVertex
 10
8.1350427225
 20
7.5280250073
 30
0.0
  0
VERTEX
  5
54B
330
2D3
100
AcDbEntity
  8
0
  6
CONTINUOUS
 62
     7
100
AcDbVertex
100
AcDb2dVertex
 10
8.1247604326
 20
7.5244988944
 30
0.0
  0
VERTEX
  5
54C
330
2D3
100
AcDbEntity
  8
0
  6
CONTINUOUS
 62
     7
100
AcDbVertex
100
AcDb2dVertex
 10
8.1157010485
 20
7.5200102466
 30
0.0
  0
SEQEND
  5
54D
330
2D3
100
AcDbEntity
  8
0
  6
CONTINUOUS
 62
     7
  0
SPLINE
  5
2D4
330
1F
100
AcDbEntity
  8
0
  6
CONTINUOUS
 62
     7
100
AcDbSpline
210
0.0
220
0.0
230
1.0
 70
     8
 71
     3
 72
    12
 73
     8
 74
     0
 42
0.00000001
 43
0.00000001
 40
0.0
 40
0.0
 40
0.0
 40
0.0
 40
0.2500000000000011
 40
0.2500000000000011
 40
0.5000000000000021
 40
0.5000000000000021
 40
1.0
 40
1.0
 40
1.0
 40
1.0
 10
8.415147800267725
 20
7.223388274941856
 30
0.0
 10
8.413234883289896
 20
7.224537567480013
 30
0.0
 10
8.411509675931512
 20
7.226011596276013
 30
0.0
 10
8.408383109614547
 20
7.229602520896902
 30
0.0
 10
8.406969015049345
 20
7.231748625444729
 30
0.0
 10
8.403309167879176
 20
7.239006099157566
 30
0.0
 10
8.401603546319295
 20
7.244963950389222
 30
0.0
 10
8.40065494826012
 20
7.251727406917562
 30
0.0
  0
LINE
  5
2D5
330
1F
100
AcDbEntity
  8
0
  6
CONTINUOUS
 62
     7
100
AcDbLine
 10
8.4151478003
 20
7.2233882749
 30
0.0
 11
7.9736912522
 21
6.9685408343
 31
0.0
  0
SPLINE
  5
2D6
330
1F
100
AcDbEntity
  8
0
  6
CONTINUOUS
 62
     7
100
AcDbSpline
210
0.0
220
0.0
230
1.0
 70
     8
 71
     3
 72
    12
 73
     8
 74
     0
 42
0.00000001
 43
0.00000001
 40
0.0
 40
0.0
 40
0.0
 40
0.0
 40
0.2500000000000002
 40
0.2500000000000002
 40
0.5000000000000004
 40
0.5000000000000004
 40
1.0
 40
1.0
 40
1.0
 40
1.0
 10
7.983072203464915
 20
7.010662019568337
 30
0.0
 10
7.983546453591057
 20
7.007280639983284
 30
0.0
 10
7.983689680661946
 20
7.003830648316201
 30
0.0
 10
7.983336124529528
 20
6.996791863106478
 30
0.0
 10
7.982828283414952
 20
6.99316196805134
 30
0.0
 10
7.980379020159742
 20
6.982375652794893
 30
0.0
 10
7.97751727289058
 20
6.975256961037519
 30
0.0
 10
7.973691252212466
 20
6.968540834329857
 30
0.0
  0
POLYLINE
  5
2D7
330
1F
100
AcDbEntity
  8
0
  6
CONTINUOUS
 62
     7
100
AcDb2dPolyline
 66
     1
 10
0.0
 20
0.0
 30
0.0
  0
VERTEX
  5
54E
330
2D7
100
AcDbEntity
  8
0
  6
CONTINUOUS
 62
     7
100
AcDbVertex
100
AcDb2dVertex
 10
7.9830722035
 20
7.0106620196
 30
0.0
  0
VERTEX
  5
54F
330
2D7
100
AcDbEntity
  8
0
  6
CONTINUOUS
 62
     7
100
AcDbVertex
100
AcDb2dVertex
 10
7.980286701
 20
7.0271080021
 30
0.0
  0
VERTEX
  5
550
330
2D7
100
AcDbEntity
  8
0
  6
CONTINUOUS
 62
     7
100
AcDbVertex
100
AcDb2dVertex
 10
7.9765073892
 20
7.0438315818
 30
0.0
  0
VERTEX
  5
551
330
2D7
100
AcDbEntity
  8
0
  6
CONTINUOUS
 62
     7
100
AcDbVertex
100
AcDb2dVertex
 10
7.9717572988
 20
7.0607308476
 30
0.0
  0
VERTEX
  5
552
330
2D7
100
AcDbEntity
  8
0
  6
CONTINUOUS
 62
     7
100
AcDbVertex
100
AcDb2dVertex
 10
7.9660653761
 20
7.0777028176
 30
0.0
  0
VERTEX
  5
553
330
2D7
100
AcDbEntity
  8
0
  6
CONTINUOUS
 62
     7
100
AcDbVertex
100
AcDb2dVertex
 10
7.9594663069
 20
7.0946440669
 30
0.0
  0
VERTEX
  5
554
330
2D7
100
AcDbEntity
  8
0
  6
CONTINUOUS
 62
     7
100
AcDbVertex
100
AcDb2dVertex
 10
7.9520003051
 20
7.1114513577
 30
0.0
  0
VERTEX
  5
555
330
2D7
100
AcDbEntity
  8
0
  6
CONTINUOUS
 62
     7
100
AcDbVertex
100
AcDb2dVertex
 10
7.9437128674
 20
7.1280222689
 30
0.0
  0
VERTEX
  5
556
330
2D7
100
AcDbEntity
  8
0
  6
CONTINUOUS
 62
     7
100
AcDbVertex
100
AcDb2dVertex
 10
7.9346544965
 20
7.1442558195
 30
0.0
  0
VERTEX
  5
557
330
2D7
100
AcDbEntity
  8
0
  6
CONTINUOUS
 62
     7
100
AcDbVertex
100
AcDb2dVertex
 10
7.9248803928
 20
7.1600530844
 30
0.0
  0
VERTEX
  5
558
330
2D7
100
AcDbEntity
  8
0
  6
CONTINUOUS
 62
     7
100
AcDbVertex
100
AcDb2dVertex
 10
7.9144501183
 20
7.1753177972
 30
0.0
  0
VERTEX
  5
559
330
2D7
100
AcDbEntity
  8
0
  6
CONTINUOUS
 62
     7
100
AcDbVertex
100
AcDb2dVertex
 10
7.9034272337
 20
7.1899569368
 30
0.0
  0
VERTEX
  5
55A
330
2D7
100
AcDbEntity
  8
0
  6
CONTINUOUS
 62
     7
100
AcDbVertex
100
AcDb2dVertex
 10
7.891878911
 20
7.2038812944
 30
0.0
  0
VERTEX
  5
55B
330
2D7
100
AcDbEntity
  8
0
  6
CONTINUOUS
 62
     7
100
AcDbVertex
100
AcDb2dVertex
 10
7.8798755241
 20
7.2170060167
 30
0.0
  0
VERTEX
  5
55C
330
2D7
100
AcDbEntity
  8
0
  6
CONTINUOUS
 62
     7
100
AcDbVertex
100
AcDb2dVertex
 10
7.8674902201
 20
7.2292511235
 30
0.0
  0
VERTEX
  5
55D
330
2D7
100
AcDbEntity
  8
0
  6
CONTINUOUS
 62
     7
100
AcDbVertex
100
AcDb2dVertex
 10
7.8547984732
 20
7.2405419948
 30
0.0
  0
VERTEX
  5
55E
330
2D7
100
AcDbEntity
  8
0
  6
CONTINUOUS
 62
     7
100
AcDbVertex
100
AcDb2dVertex
 10
7.8418776253
 20
7.2508098254
 30
0.0
  0
VERTEX
  5
55F
330
2D7
100
AcDbEntity
  8
0
  6
CONTINUOUS
 62
     7
100
AcDbVertex
100
AcDb2dVertex
 10
7.8288064143
 20
7.2599920448
 30
0.0
  0
VERTEX
  5
560
330
2D7
100
AcDbEntity
  8
0
  6
CONTINUOUS
 62
     7
100
AcDbVertex
100
AcDb2dVertex
 10
7.8156644943
 20
7.2680326975
 30
0.0
  0
VERTEX
  5
561
330
2D7
100
AcDbEntity
  8
0
  6
CONTINUOUS
 62
     7
100
AcDbVertex
100
AcDb2dVertex
 10
7.8025319505
 20
7.2748827851
 30
0.0
  0
VERTEX
  5
562
330
2D7
100
AcDbEntity
  8
0
  6
CONTINUOUS
 62
     7
100
AcDbVertex
100
AcDb2dVertex
 10
7.7894888107
 20
7.280500564
 30
0.0
  0
VERTEX
  5
563
330
2D7
100
AcDbEntity
  8
0
  6
CONTINUOUS
 62
     7
100
AcDbVertex
100
AcDb2dVertex
 10
7.7766145582
 20
7.2848518001
 30
0.0
  0
VERTEX
  5
564
330
2D7
100
AcDbEntity
  8
0
  6
CONTINUOUS
 62
     7
100
AcDbVertex
100
AcDb2dVertex
 10
7.7639876468
 20
7.2879099778
 30
0.0
  0
VERTEX
  5
565
330
2D7
100
AcDbEntity
  8
0
  6
CONTINUOUS
 62
     7
100
AcDbVertex
100
AcDb2dVertex
 10
7.7516850232
 20
7.2896564608
 30
0.0
  0
VERTEX
  5
566
330
2D7
100
AcDbEntity
  8
0
  6
CONTINUOUS
 62
     7
100
AcDbVertex
100
AcDb2dVertex
 10
7.739781658
 20
7.2900806063
 30
0.0
  0
VERTEX
  5
567
330
2D7
100
AcDbEntity
  8
0
  6
CONTINUOUS
 62
     7
100
AcDbVertex
100
AcDb2dVertex
 10
7.7283500887
 20
7.2891798296
 30
0.0
  0
VERTEX
  5
568
330
2D7
100
AcDbEntity
  8
0
  6
CONTINUOUS
 62
     7
100
AcDbVertex
100
AcDb2dVertex
 10
7.7174599777
 20
7.28695962
 30
0.0
  0
VERTEX
  5
569
330
2D7
100
AcDbEntity
  8
0
  6
CONTINUOUS
 62
     7
100
AcDbVertex
100
AcDb2dVertex
 10
7.7071776878
 20
7.2834335071
 30
0.0
  0
VERTEX
  5
56A
330
2D7
100
AcDbEntity
  8
0
  6
CONTINUOUS
 62
     7
100
AcDbVertex
100
AcDb2dVertex
 10
7.697565878
 20
7.2786229785
 30
0.0
  0
VERTEX
  5
56B
330
2D7
100
AcDbEntity
  8
0
  6
CONTINUOUS
 62
     7
100
AcDbVertex
100
AcDb2dVertex
 10
7.6886831212
 20
7.272557349
 30
0.0
  0
VERTEX
  5
56C
330
2D7
100
AcDbEntity
  8
0
  6
CONTINUOUS
 62
     7
100
AcDbVertex
100
AcDb2dVertex
 10
7.6805835479
 20
7.2652735816
 30
0.0
  0
VERTEX
  5
56D
330
2D7
100
AcDbEntity
  8
0
  6
CONTINUOUS
 62
     7
100
AcDbVertex
100
AcDb2dVertex
 10
7.6733165158
 20
7.2568160628
 30
0.0
  0
VERTEX
  5
56E
330
2D7
100
AcDbEntity
  8
0
  6
CONTINUOUS
 62
     7
100
AcDbVertex
100
AcDb2dVertex
 10
7.666926309
 20
7.2472363314
 30
0.0
  0
VERTEX
  5
56F
330
2D7
100
AcDbEntity
  8
0
  6
CONTINUOUS
 62
     7
100
AcDbVertex
100
AcDb2dVertex
 10
7.6614518687
 20
7.236592765
 30
0.0
  0
VERTEX
  5
570
330
2D7
100
AcDbEntity
  8
0
  6
CONTINUOUS
 62
     7
100
AcDbVertex
100
AcDb2dVertex
 10
7.6569265555
 20
7.2249502242
 30
0.0
  0
VERTEX
  5
571
330
2D7
100
AcDbEntity
  8
0
  6
CONTINUOUS
 62
     7
100
AcDbVertex
100
AcDb2dVertex
 10
7.6533779458
 20
7.2123796568
 30
0.0
  0
VERTEX
  5
572
330
2D7
100
AcDbEntity
  8
0
  6
CONTINUOUS
 62
     7
100
AcDbVertex
100
AcDb2dVertex
 10
7.6508276646
 20
7.1989576664
 30
0.0
  0
VERTEX
  5
573
330
2D7
100
AcDbEntity
  8
0
  6
CONTINUOUS
 62
     7
100
AcDbVertex
100
AcDb2dVertex
 10
7.6492912527
 20
7.1847660447
 30
0.0
  0
VERTEX
  5
574
330
2D7
100
AcDbEntity
  8
0
  6
CONTINUOUS
 62
     7
100
AcDbVertex
100
AcDb2dVertex
 10
7.648778073
 20
7.1698912734
 30
0.0
  0
SEQEND
  5
575
330
2D7
100
AcDbEntity
  8
0
  6
CONTINUOUS
 62
     7
  0
LINE
  5
2D8
330
1F
100
AcDbEntity
  8
0
  6
CONTINUOUS
 62
     7
100
AcDbLine
 10
7.6905363475
 20
7.1457847347
 30
0.0
 11
7.6905363475
 21
7.1028481345
 31
0.0
  0
LINE
  5
2D9
330
1F
100
AcDbEntity
  8
0
  6
CONTINUOUS
 62
     7
100
AcDbLine
 10
7.648778073
 20
7.1269546732
 30
0.0
 11
7.6905363475
 21
7.1028481345
 31
0.0
  0
LINE
  5
2DA
330
1F
100
AcDbEntity
  8
0
  6
CONTINUOUS
 62
     7
100
AcDbLine
 10
7.648778073
 20
7.1698912734
 30
0.0
 11
7.648778073
 21
7.1269546732
 31
0.0
  0
LINE
  5
2DB
330
1F
100
AcDbEntity
  8
0
  6
CONTINUOUS
 62
     7
100
AcDbLine
 10
7.9404509547
 20
7.0352667427
 30
0.0
 11
7.9830722035
 21
7.0106620196
 31
0.0
  0
POLYLINE
  5
2DC
330
1F
100
AcDbEntity
  8
0
  6
CONTINUOUS
 62
     7
100
AcDb2dPolyline
 66
     1
 10
0.0
 20
0.0
 30
0.0
  0
VERTEX
  5
576
330
2DC
100
AcDbEntity
  8
0
  6
CONTINUOUS
 62
     7
100
AcDbVertex
100
AcDb2dVertex
 10
7.9404509547
 20
7.0352667427
 30
0.0
  0
VERTEX
  5
577
330
2DC
100
AcDbEntity
  8
0
  6
CONTINUOUS
 62
     7
100
AcDbVertex
100
AcDb2dVertex
 10
7.9372887922
 20
7.0498718013
 30
0.0
  0
VERTEX
  5
578
330
2DC
100
AcDbEntity
  8
0
  6
CONTINUOUS
 62
     7
100
AcDbVertex
100
AcDb2dVertex
 10
7.9331351191
 20
7.0646650279
 30
0.0
  0
VERTEX
  5
579
330
2DC
100
AcDbEntity
  8
0
  6
CONTINUOUS
 62
     7
100
AcDbVertex
100
AcDb2dVertex
 10
7.9280242309
 20
7.0795242795
 30
0.0
  0
VERTEX
  5
57A
330
2DC
100
AcDbEntity
  8
0
  6
CONTINUOUS
 62
     7
100
AcDbVertex
100
AcDb2dVertex
 10
7.9219983267
 20
7.0943268678
 30
0.0
  0
VERTEX
  5
57B
330
2DC
100
AcDbEntity
  8
0
  6
CONTINUOUS
 62
     7
100
AcDbVertex
100
AcDb2dVertex
 10
7.9151071605
 20
7.1089505723
 30
0.0
  0
VERTEX
  5
57C
330
2DC
100
AcDbEntity
  8
0
  6
CONTINUOUS
 62
     7
100
AcDbVertex
100
AcDb2dVertex
 10
7.9074076307
 20
7.1232746497
 30
0.0
  0
VERTEX
  5
57D
330
2DC
100
AcDbEntity
  8
0
  6
CONTINUOUS
 62
     7
100
AcDbVertex
100
AcDb2dVertex
 10
7.8989633097
 20
7.1371808303
 30
0.0
  0
VERTEX
  5
57E
330
2DC
100
AcDbEntity
  8
0
  6
CONTINUOUS
 62
     7
100
AcDbVertex
100
AcDb2dVertex
 10
7.8898439199
 20
7.1505542951
 30
0.0
  0
VERTEX
  5
57F
330
2DC
100
AcDbEntity
  8
0
  6
CONTINUOUS
 62
     7
100
AcDbVertex
100
AcDb2dVertex
 10
7.8801247572
 20
7.1632846236
 30
0.0
  0
VERTEX
  5
580
330
2DC
100
AcDbEntity
  8
0
  6
CONTINUOUS
 62
     7
100
AcDbVertex
100
AcDb2dVertex
 10
7.8698860698
 20
7.1752667053
 30
0.0
  0
VERTEX
  5
581
330
2DC
100
AcDbEntity
  8
0
  6
CONTINUOUS
 62
     7
100
AcDbVertex
100
AcDb2dVertex
 10
7.8592123953
 20
7.1864016077
 30
0.0
  0
VERTEX
  5
582
330
2DC
100
AcDbEntity
  8
0
  6
CONTINUOUS
 62
     7
100
AcDbVertex
100
AcDb2dVertex
 10
7.848191863
 20
7.1965973935
 30
0.0
  0
VERTEX
  5
583
330
2DC
100
AcDbEntity
  8
0
  6
CONTINUOUS
 62
     7
100
AcDbVertex
100
AcDb2dVertex
 10
7.8369154662
 20
7.2057698792
 30
0.0
  0
VERTEX
  5
584
330
2DC
100
AcDbEntity
  8
0
  6
CONTINUOUS
 62
     7
100
AcDbVertex
100
AcDb2dVertex
 10
7.8254763105
 20
7.2138433303
 30
0.0
  0
VERTEX
  5
585
330
2DC
100
AcDbEntity
  8
0
  6
CONTINUOUS
 62
     7
100
AcDbVertex
100
AcDb2dVertex
 10
7.8139688455
 20
7.2207510868
 30
0.0
  0
VERTEX
  5
586
330
2DC
100
AcDbEntity
  8
0
  6
CONTINUOUS
 62
     7
100
AcDbVertex
100
AcDb2dVertex
 10
7.8024880849
 20
7.2264361136
 30
0.0
  0
VERTEX
  5
587
330
2DC
100
AcDbEntity
  8
0
  6
CONTINUOUS
 62
     7
100
AcDbVertex
100
AcDb2dVertex
 10
7.7911288218
 20
7.2308514711
 30
0.0
  0
VERTEX
  5
588
330
2DC
100
AcDbEntity
  8
0
  6
CONTINUOUS
 62
     7
100
AcDbVertex
100
AcDb2dVertex
 10
7.7799848462
 20
7.233960703
 30
0.0
  0
VERTEX
  5
589
330
2DC
100
AcDbEntity
  8
0
  6
CONTINUOUS
 62
     7
100
AcDbVertex
100
AcDb2dVertex
 10
7.7691481703
 20
7.2357381373
 30
0.0
  0
VERTEX
  5
58A
330
2DC
100
AcDbEntity
  8
0
  6
CONTINUOUS
 62
     7
100
AcDbVertex
100
AcDb2dVertex
 10
7.7587082694
 20
7.2361690984
 30
0.0
  0
VERTEX
  5
58B
330
2DC
100
AcDbEntity
  8
0
  6
CONTINUOUS
 62
     7
100
AcDbVertex
100
AcDb2dVertex
 10
7.7487513425
 20
7.2352500279
 30
0.0
  0
VERTEX
  5
58C
330
2DC
100
AcDbEntity
  8
0
  6
CONTINUOUS
 62
     7
100
AcDbVertex
100
AcDb2dVertex
 10
7.7393596009
 20
7.2329885143
 30
0.0
  0
VERTEX
  5
58D
330
2DC
100
AcDbEntity
  8
0
  6
CONTINUOUS
 62
     7
100
AcDbVertex
100
AcDb2dVertex
 10
7.7306105893
 20
7.2294032302
 30
0.0
  0
VERTEX
  5
58E
330
2DC
100
AcDbEntity
  8
0
  6
CONTINUOUS
 62
     7
100
AcDbVertex
100
AcDb2dVertex
 10
7.7225765457
 20
7.2245237783
 30
0.0
  0
VERTEX
  5
58F
330
2DC
100
AcDbEntity
  8
0
  6
CONTINUOUS
 62
     7
100
AcDbVertex
100
AcDb2dVertex
 10
7.7153238046
 20
7.2183904466
 30
0.0
  0
VERTEX
  5
590
330
2DC
100
AcDbEntity
  8
0
  6
CONTINUOUS
 62
     7
100
AcDbVertex
100
AcDb2dVertex
 10
7.7089122498
 20
7.2110538761
 30
0.0
  0
VERTEX
  5
591
330
2DC
100
AcDbEntity
  8
0
  6
CONTINUOUS
 62
     7
100
AcDbVertex
100
AcDb2dVertex
 10
7.7033948194
 20
7.2025746428
 30
0.0
  0
VERTEX
  5
592
330
2DC
100
AcDbEntity
  8
0
  6
CONTINUOUS
 62
     7
100
AcDbVertex
100
AcDb2dVertex
 10
7.6988170693
 20
7.1930227571
 30
0.0
  0
VERTEX
  5
593
330
2DC
100
AcDbEntity
  8
0
  6
CONTINUOUS
 62
     7
100
AcDbVertex
100
AcDb2dVertex
 10
7.6952167964
 20
7.1824770859
 30
0.0
  0
VERTEX
  5
594
330
2DC
100
AcDbEntity
  8
0
  6
CONTINUOUS
 62
     7
100
AcDbVertex
100
AcDb2dVertex
 10
7.6926237272
 20
7.1710247016
 30
0.0
  0
VERTEX
  5
595
330
2DC
100
AcDbEntity
  8
0
  6
CONTINUOUS
 62
     7
100
AcDbVertex
100
AcDb2dVertex
 10
7.6910592719
 20
7.158760163
 30
0.0
  0
VERTEX
  5
596
330
2DC
100
AcDbEntity
  8
0
  6
CONTINUOUS
 62
     7
100
AcDbVertex
100
AcDb2dVertex
 10
7.6905363475
 20
7.1457847347
 30
0.0
  0
SEQEND
  5
597
330
2DC
100
AcDbEntity
  8
0
  6
CONTINUOUS
 62
     7
  0
ARC
  5
2DD
330
1F
100
AcDbEntity
  8
0
  6
CONTINUOUS
 62
     7
100
AcDbCircle
 10
8.6586579826
 20
6.6234124628
 30
0.0
 40
0.0337352718554391
100
AcDbArc
 50
349.9142047754
 51
121.0531559399
  0
POLYLINE
  5
2DE
330
1F
100
AcDbEntity
  8
0
  6
CONTINUOUS
 62
     7
100
AcDb2dPolyline
 66
     1
 10
0.0
 20
0.0
 30
0.0
  0
VERTEX
  5
598
330
2DE
100
AcDbEntity
  8
0
  6
CONTINUOUS
 62
     7
100
AcDbVertex
100
AcDb2dVertex
 10
8.58074794
 20
6.5474983424
 30
0.0
  0
VERTEX
  5
599
330
2DE
100
AcDbEntity
  8
0
  6
CONTINUOUS
 62
     7
100
AcDbVertex
100
AcDb2dVertex
 10
8.5816322182
 20
6.5410580477
 30
0.0
  0
VERTEX
  5
59A
330
2DE
100
AcDbEntity
  8
0
  6
CONTINUOUS
 62
     7
100
AcDbVertex
100
AcDb2dVertex
 10
8.5835972298
 20
6.5339087871
 30
0.0
  0
VERTEX
  5
59B
330
2DE
100
AcDbEntity
  8
0
  6
CONTINUOUS
 62
     7
100
AcDbVertex
100
AcDb2dVertex
 10
8.586500836
 20
6.527677721
 30
0.0
  0
VERTEX
  5
59C
330
2DE
100
AcDbEntity
  8
0
  6
CONTINUOUS
 62
     7
100
AcDbVertex
100
AcDb2dVertex
 10
8.5902912221
 20
6.522476043
 30
0.0
  0
VERTEX
  5
59D
330
2DE
100
AcDbEntity
  8
0
  6
CONTINUOUS
 62
     7
100
AcDbVertex
100
AcDb2dVertex
 10
8.5949007485
 20
6.5183965771
 30
0.0
  0
VERTEX
  5
59E
330
2DE
100
AcDbEntity
  8
0
  6
CONTINUOUS
 62
     7
100
AcDbVertex
100
AcDb2dVertex
 10
8.600247158
 20
6.5155121215
 30
0.0
  0
VERTEX
  5
59F
330
2DE
100
AcDbEntity
  8
0
  6
CONTINUOUS
 62
     7
100
AcDbVertex
100
AcDb2dVertex
 10
8.6062350439
 20
6.5138741493
 30
0.0
  0
VERTEX
  5
5A0
330
2DE
100
AcDbEntity
  8
0
  6
CONTINUOUS
 62
     7
100
AcDbVertex
100
AcDb2dVertex
 10
8.6127575523
 20
6.5135118903
 30
0.0
  0
VERTEX
  5
5A1
330
2DE
100
AcDbEntity
  8
0
  6
CONTINUOUS
 62
     7
100
AcDbVertex
100
AcDb2dVertex
 10
8.6196982887
 20
6.5144318089
 30
0.0
  0
VERTEX
  5
5A2
330
2DE
100
AcDbEntity
  8
0
  6
CONTINUOUS
 62
     7
100
AcDbVertex
100
AcDb2dVertex
 10
8.6269333956
 20
6.5166174891
 30
0.0
  0
VERTEX
  5
5A3
330
2DE
100
AcDbEntity
  8
0
  6
CONTINUOUS
 62
     7
100
AcDbVertex
100
AcDb2dVertex
 10
8.6343337623
 20
6.5200299276
 30
0.0
  0
VERTEX
  5
5A4
330
2DE
100
AcDbEntity
  8
0
  6
CONTINUOUS
 62
     7
100
AcDbVertex
100
AcDb2dVertex
 10
8.6417673292
 20
6.5246082291
 30
0.0
  0
VERTEX
  5
5A5
330
2DE
100
AcDbEntity
  8
0
  6
CONTINUOUS
 62
     7
100
AcDbVertex
100
AcDb2dVertex
 10
8.649101444
 20
6.5302706938
 30
0.0
  0
VERTEX
  5
5A6
330
2DE
100
AcDbEntity
  8
0
  6
CONTINUOUS
 62
     7
100
AcDbVertex
100
AcDb2dVertex
 10
8.6562052293
 20
6.5369162749
 30
0.0
  0
VERTEX
  5
5A7
330
2DE
100
AcDbEntity
  8
0
  6
CONTINUOUS
 62
     7
100
AcDbVertex
100
AcDb2dVertex
 10
8.6629519178
 20
6.5444263819
 30
0.0
  0
VERTEX
  5
5A8
330
2DE
100
AcDbEntity
  8
0
  6
CONTINUOUS
 62
     7
100
AcDbVertex
100
AcDb2dVertex
 10
8.6692211148
 20
6.5526669967
 30
0.0
  0
VERTEX
  5
5A9
330
2DE
100
AcDbEntity
  8
0
  6
CONTINUOUS
 62
     7
100
AcDbVertex
100
AcDb2dVertex
 10
8.6749009463
 20
6.5614910653
 30
0.0
  0
VERTEX
  5
5AA
330
2DE
100
AcDbEntity
  8
0
  6
CONTINUOUS
 62
     7
100
AcDbVertex
100
AcDb2dVertex
 10
8.6798900556
 20
6.570741122
 30
0.0
  0
VERTEX
  5
5AB
330
2DE
100
AcDbEntity
  8
0
  6
CONTINUOUS
 62
     7
100
AcDbVertex
100
AcDb2dVertex
 10
8.6840994118
 20
6.5802520994
 30
0.0
  0
VERTEX
  5
5AC
330
2DE
100
AcDbEntity
  8
0
  6
CONTINUOUS
 62
     7
100
AcDbVertex
100
AcDb2dVertex
 10
8.6874538989
 20
6.5898542738
 30
0.0
  0
VERTEX
  5
5AD
330
2DE
100
AcDbEntity
  8
0
  6
CONTINUOUS
 62
     7
100
AcDbVertex
100
AcDb2dVertex
 10
8.6898936561
 20
6.5993762942
 30
0.0
  0
VERTEX
  5
5AE
330
2DE
100
AcDbEntity
  8
0
  6
CONTINUOUS
 62
     7
100
AcDbVertex
100
AcDb2dVertex
 10
8.6913751458
 20
6.6086482399
 30
0.0
  0
VERTEX
  5
5AF
330
2DE
100
AcDbEntity
  8
0
  6
CONTINUOUS
 62
     7
100
AcDbVertex
100
AcDb2dVertex
 10
8.6918719307
 20
6.6175046528
 30
0.0
  0
SEQEND
  5
5B0
330
2DE
100
AcDbEntity
  8
0
  6
CONTINUOUS
 62
     7
  0
SPLINE
  5
2DF
330
1F
100
AcDbEntity
  8
0
  6
CONTINUOUS
 62
     7
100
AcDbSpline
210
0.0
220
0.0
230
1.0
 70
     8
 71
     3
 72
    20
 73
    16
 74
     0
 42
0.00000001
 43
0.00000001
 40
0.0
 40
0.0
 40
0.0
 40
0.0
 40
0.0366919104688691
 40
0.1542183823178843
 40
0.2488034066226515
 40
0.3460521505902627
 40
0.4430539992522798
 40
0.5427614716676304
 40
0.6202485513857791
 40
0.6998193245102153
 40
0.7773963785332699
 40
0.8577538254513137
 40
0.9278156804568986
 40
0.9997926575253825
 40
1.0
 40
1.0
 40
1.0
 40
1.0
 10
8.597912875063525
 20
6.602260418989846
 30
0.0
 10
8.598963509047863
 20
6.601809618014683
 30
0.0
 10
8.603379389044362
 20
6.599914873471583
 30
0.0
 10
8.61162528948164
 20
6.599551906787
 30
0.0
 10
8.621636934668944
 20
6.601160586956666
 30
0.0
 10
8.630605463645237
 20
6.604452188023329
 30
0.0
 10
8.638897988094017
 20
6.609283318855285
 30
0.0
 10
8.64551536389089
 20
6.615088052642743
 30
0.0
 10
8.650400105024268
 20
6.621487077255368
 30
0.0
 10
8.653573444287067
 20
6.6280154405778
 30
0.0
 10
8.655222401813445
 20
6.635123049458571
 30
0.0
 10
8.655261434519288
 20
6.642236281158785
 30
0.0
 10
8.653537382820447
 20
6.649083894656117
 30
0.0
 10
8.652220508109451
 20
6.65355829285443
 30
0.0
 10
8.650765139710789
 20
6.655580382929648
 30
0.0
 10
8.650760959305858
 20
6.655586191187768
 30
0.0
  0
LINE
  5
2E0
330
1F
100
AcDbEntity
  8
0
  6
CONTINUOUS
 62
     7
100
AcDbLine
 10
7.7304546328
 20
7.1688290703
 30
0.0
 11
7.6905363475
 21
7.1457847347
 31
0.0
  0
SPLINE
  5
2E1
330
1F
100
AcDbEntity
  8
0
  6
CONTINUOUS
 62
     7
100
AcDbSpline
210
0.0
220
0.0
230
1.0
 70
     8
 71
     3
 72
    12
 73
     8
 74
     0
 42
0.00000001
 43
0.00000001
 40
0.0
 40
0.0
 40
0.0
 40
0.0
 40
0.249999999999999
 40
0.249999999999999
 40
0.499999999999998
 40
0.499999999999998
 40
1.0
 40
1.0
 40
1.0
 40
1.0
 10
7.931932977732944
 20
6.992647373064779
 30
0.0
 10
7.933852356761941
 20
6.996016615900423
 30
0.0
 10
7.935503468517337
 20
6.99946169540224
 30
0.0
 10
7.93824156260864
 20
7.006523267035944
 30
0.0
 10
7.939335419556804
 20
7.010182909212417
 30
0.0
 10
7.941576923422677
 20
7.021091487388836
 30
0.0
 10
7.941716589941453
 20
7.028373844749062
 30
0.0
 10
7.940450954721274
 20
7.035266742741782
 30
0.0
  0
SPLINE
  5
2E2
330
1F
100
AcDbEntity
  8
0
  6
CONTINUOUS
 62
     7
100
AcDbSpline
210
0.0
220
0.0
230
1.0
 70
     8
 71
     3
 72
    11
 73
     7
 74
     0
 42
0.00000001
 43
0.00000001
 40
0.0
 40
0.0
 40
0.0
 40
0.0
 40
0.0379914827130754
 40
0.4016211520472416
 40
0.7678751483740089
 40
0.9999999999999999
 40
0.9999999999999999
 40
0.9999999999999999
 40
0.9999999999999999
 10
7.786049433975773
 20
7.232338242684337
 30
0.0
 10
7.785261936817151
 20
7.231638406361232
 30
0.0
 10
7.776937030983172
 20
7.224240193649909
 30
0.0
 10
7.761969795945707
 20
7.208568724248077
 30
0.0
 10
7.744140829351589
 20
7.188034233683426
 30
0.0
 10
7.734279909406038
 20
7.174196891900948
 30
0.0
 10
7.730454632849075
 20
7.168829070295714
 30
0.0
  0
ARC
  5
2E3
330
1F
100
AcDbEntity
  8
0
  6
CONTINUOUS
 62
     7
100
AcDbCircle
 10
7.8430630084
 20
7.0432745301
 30
0.0
 40
0.1022789346753514
100
AcDbArc
 50
329.6691598531
 51
330.3308400013
  0
ARC
  5
2E4
330
1F
100
AcDbEntity
  8
0
  6
CONTINUOUS
 62
     7
100
AcDbCircle
 10
7.8848212829
 20
7.0191679913
 30
0.0
 40
0.1022789346717411
100
AcDbArc
 50
329.669159853
 51
330.3308400013
  0
ARC
  5
2E5
330
1F
100
AcDbEntity
  8
0
  6
CONTINUOUS
 62
     7
100
AcDbCircle
 10
8.425287374
 20
7.2402648571
 30
0.0
 40
0.0196883209080324
100
AcDbArc
 50
239.0022445203
 51
240.9870037248
  0
LINE
  5
2E6
330
1F
100
AcDbEntity
  8
0
  6
CONTINUOUS
 62
     7
100
AcDbLine
 10
8.2681924778
 20
6.3011716105
 30
0.0
 11
8.3046038572
 21
6.3221914524
 31
0.0
  0
ARC
  5
2E7
330
1F
100
AcDbEntity
  8
0
  6
CONTINUOUS
 62
     7
100
AcDbCircle
 10
8.2879750542
 20
6.7880614716
 30
0.0
 40
0.6135154760665995
100
AcDbArc
 50
137.187377537
 51
177.1377020563
  0
POLYLINE
  5
2E8
330
1F
100
AcDbEntity
  8
0
  6
CONTINUOUS
 62
     7
100
AcDb2dPolyline
 66
     1
 10
0.0
 20
0.0
 30
0.0
  0
VERTEX
  5
5B1
330
2E8
100
AcDbEntity
  8
0
  6
CONTINUOUS
 62
     7
100
AcDbVertex
100
AcDb2dVertex
 10
7.861578461
 20
6.6228806518
 30
0.0
  0
VERTEX
  5
5B2
330
2E8
100
AcDbEntity
  8
0
  6
CONTINUOUS
 62
     7
100
AcDbVertex
100
AcDb2dVertex
 10
7.8519067382
 20
6.6214434792
 30
0.0
  0
VERTEX
  5
5B3
330
2E8
100
AcDbEntity
  8
0
  6
CONTINUOUS
 62
     7
100
AcDbVertex
100
AcDb2dVertex
 10
7.8365908599
 20
6.6201612602
 30
0.0
  0
VERTEX
  5
5B4
330
2E8
100
AcDbEntity
  8
0
  6
CONTINUOUS
 62
     7
100
AcDbVertex
100
AcDb2dVertex
 10
7.8216938922
 20
6.6201650516
 30
0.0
  0
VERTEX
  5
5B5
330
2E8
100
AcDbEntity
  8
0
  6
CONTINUOUS
 62
     7
100
AcDbVertex
100
AcDb2dVertex
 10
7.8072691624
 20
6.6214548399
 30
0.0
  0
VERTEX
  5
5B6
330
2E8
100
AcDbEntity
  8
0
  6
CONTINUOUS
 62
     7
100
AcDbVertex
100
AcDb2dVertex
 10
7.7933683072
 20
6.6240260078
 30
0.0
  0
VERTEX
  5
5B7
330
2E8
100
AcDbEntity
  8
0
  6
CONTINUOUS
 62
     7
100
AcDbVertex
100
AcDb2dVertex
 10
7.7800410882
 20
6.6278693513
 30
0.0
  0
VERTEX
  5
5B8
330
2E8
100
AcDbEntity
  8
0
  6
CONTINUOUS
 62
     7
100
AcDbVertex
100
AcDb2dVertex
 10
7.7673352133
 20
6.6329711122
 30
0.0
  0
VERTEX
  5
5B9
330
2E8
100
AcDbEntity
  8
0
  6
CONTINUOUS
 62
     7
100
AcDbVertex
100
AcDb2dVertex
 10
7.7552961661
 20
6.6393130276
 30
0.0
  0
VERTEX
  5
5BA
330
2E8
100
AcDbEntity
  8
0
  6
CONTINUOUS
 62
     7
100
AcDbVertex
100
AcDb2dVertex
 10
7.7439670435
 20
6.646872395
 30
0.0
  0
VERTEX
  5
5BB
330
2E8
100
AcDbEntity
  8
0
  6
CONTINUOUS
 62
     7
100
AcDbVertex
100
AcDb2dVertex
 10
7.7333884008
 20
6.6556221539
 30
0.0
  0
VERTEX
  5
5BC
330
2E8
100
AcDbEntity
  8
0
  6
CONTINUOUS
 62
     7
100
AcDbVertex
100
AcDb2dVertex
 10
7.7235981066
 20
6.6655309824
 30
0.0
  0
VERTEX
  5
5BD
330
2E8
100
AcDbEntity
  8
0
  6
CONTINUOUS
 62
     7
100
AcDbVertex
100
AcDb2dVertex
 10
7.7146312077
 20
6.6765634094
 30
0.0
  0
VERTEX
  5
5BE
330
2E8
100
AcDbEntity
  8
0
  6
CONTINUOUS
 62
     7
100
AcDbVertex
100
AcDb2dVertex
 10
7.7065198034
 20
6.6886799418
 30
0.0
  0
VERTEX
  5
5BF
330
2E8
100
AcDbEntity
  8
0
  6
CONTINUOUS
 62
     7
100
AcDbVertex
100
AcDb2dVertex
 10
7.6992929303
 20
6.7018372055
 30
0.0
  0
VERTEX
  5
5C0
330
2E8
100
AcDbEntity
  8
0
  6
CONTINUOUS
 62
     7
100
AcDbVertex
100
AcDb2dVertex
 10
7.6929764587
 20
6.7159881008
 30
0.0
  0
VERTEX
  5
5C1
330
2E8
100
AcDbEntity
  8
0
  6
CONTINUOUS
 62
     7
100
AcDbVertex
100
AcDb2dVertex
 10
7.687593
 20
6.7310819713
 30
0.0
  0
VERTEX
  5
5C2
330
2E8
100
AcDbEntity
  8
0
  6
CONTINUOUS
 62
     7
100
AcDbVertex
100
AcDb2dVertex
 10
7.6831618256
 20
6.7470647849
 30
0.0
  0
VERTEX
  5
5C3
330
2E8
100
AcDbEntity
  8
0
  6
CONTINUOUS
 62
     7
100
AcDbVertex
100
AcDb2dVertex
 10
7.6796987979
 20
6.7638793272
 30
0.0
  0
VERTEX
  5
5C4
330
2E8
100
AcDbEntity
  8
0
  6
CONTINUOUS
 62
     7
100
AcDbVertex
100
AcDb2dVertex
 10
7.6772163136
 20
6.7814654065
 30
0.0
  0
VERTEX
  5
5C5
330
2E8
100
AcDbEntity
  8
0
  6
CONTINUOUS
 62
     7
100
AcDbVertex
100
AcDb2dVertex
 10
7.6757232595
 20
6.7997600692
 30
0.0
  0
VERTEX
  5
5C6
330
2E8
100
AcDbEntity
  8
0
  6
CONTINUOUS
 62
     7
100
AcDbVertex
100
AcDb2dVertex
 10
7.6752249802
 20
6.8186978251
 30
0.0
  0
SEQEND
  5
5C7
330
2E8
100
AcDbEntity
  8
0
  6
CONTINUOUS
 62
     7
  0
POLYLINE
  5
2E9
330
1F
100
AcDbEntity
  8
0
  6
CONTINUOUS
 62
     7
100
AcDb2dPolyline
 66
     1
 10
0.0
 20
0.0
 30
0.0
  0
VERTEX
  5
5C8
330
2E9
100
AcDbEntity
  8
0
  6
CONTINUOUS
 62
     7
100
AcDbVertex
100
AcDb2dVertex
 10
7.7030638299
 20
6.8186978251
 30
0.0
  0
VERTEX
  5
5C9
330
2E9
100
AcDbEntity
  8
0
  6
CONTINUOUS
 62
     7
100
AcDbVertex
100
AcDb2dVertex
 10
7.7035654408
 20
6.8001867522
 30
0.0
  0
VERTEX
  5
5CA
330
2E9
100
AcDbEntity
  8
0
  6
CONTINUOUS
 62
     7
100
AcDbVertex
100
AcDb2dVertex
 10
7.7050683706
 20
6.7823250457
 30
0.0
  0
VERTEX
  5
5CB
330
2E9
100
AcDbEntity
  8
0
  6
CONTINUOUS
 62
     7
100
AcDbVertex
100
AcDb2dVertex
 10
7.7075669184
 20
6.7651804613
 30
0.0
  0
VERTEX
  5
5CC
330
2E9
100
AcDbEntity
  8
0
  6
CONTINUOUS
 62
     7
100
AcDbVertex
100
AcDb2dVertex
 10
7.7110516062
 20
6.7488180341
 30
0.0
  0
VERTEX
  5
5CD
330
2E9
100
AcDbEntity
  8
0
  6
CONTINUOUS
 62
     7
100
AcDbVertex
100
AcDb2dVertex
 10
7.7155092153
 20
6.7332998325
 30
0.0
  0
VERTEX
  5
5CE
330
2E9
100
AcDbEntity
  8
0
  6
CONTINUOUS
 62
     7
100
AcDbVertex
100
AcDb2dVertex
 10
7.7209228367
 20
6.7186847224
 30
0.0
  0
VERTEX
  5
5CF
330
2E9
100
AcDbEntity
  8
0
  6
CONTINUOUS
 62
     7
100
AcDbVertex
100
AcDb2dVertex
 10
7.7272719345
 20
6.7050281438
 30
0.0
  0
VERTEX
  5
5D0
330
2E9
100
AcDbEntity
  8
0
  6
CONTINUOUS
 62
     7
100
AcDbVertex
100
AcDb2dVertex
 10
7.7345324244
 20
6.6923819009
 30
0.0
  0
VERTEX
  5
5D1
330
2E9
100
AcDbEntity
  8
0
  6
CONTINUOUS
 62
     7
100
AcDbVertex
100
AcDb2dVertex
 10
7.7426767649
 20
6.6807939651
 30
0.0
  0
VERTEX
  5
5D2
330
2E9
100
AcDbEntity
  8
0
  6
CONTINUOUS
 62
     7
100
AcDbVertex
100
AcDb2dVertex
 10
7.7516740618
 20
6.6703082936
 30
0.0
  0
VERTEX
  5
5D3
330
2E9
100
AcDbEntity
  8
0
  6
CONTINUOUS
 62
     7
100
AcDbVertex
100
AcDb2dVertex
 10
7.7614901852
 20
6.6609646619
 30
0.0
  0
VERTEX
  5
5D4
330
2E9
100
AcDbEntity
  8
0
  6
CONTINUOUS
 62
     7
100
AcDbVertex
100
AcDb2dVertex
 10
7.7720878992
 20
6.6527985138
 30
0.0
  0
VERTEX
  5
5D5
330
2E9
100
AcDbEntity
  8
0
  6
CONTINUOUS
 62
     7
100
AcDbVertex
100
AcDb2dVertex
 10
7.7834270031
 20
6.6458408261
 30
0.0
  0
VERTEX
  5
5D6
330
2E9
100
AcDbEntity
  8
0
  6
CONTINUOUS
 62
     7
100
AcDbVertex
100
AcDb2dVertex
 10
7.7954644837
 20
6.6401179919
 30
0.0
  0
VERTEX
  5
5D7
330
2E9
100
AcDbEntity
  8
0
  6
CONTINUOUS
 62
     7
100
AcDbVertex
100
AcDb2dVertex
 10
7.8081546787
 20
6.6356517198
 30
0.0
  0
VERTEX
  5
5D8
330
2E9
100
AcDbEntity
  8
0
  6
CONTINUOUS
 62
     7
100
AcDbVertex
100
AcDb2dVertex
 10
7.8214494499
 20
6.6324589519
 30
0.0
  0
VERTEX
  5
5D9
330
2E9
100
AcDbEntity
  8
0
  6
CONTINUOUS
 62
     7
100
AcDbVertex
100
AcDb2dVertex
 10
7.8352983657
 20
6.6305517993
 30
0.0
  0
VERTEX
  5
5DA
330
2E9
100
AcDbEntity
  8
0
  6
CONTINUOUS
 62
     7
100
AcDbVertex
100
AcDb2dVertex
 10
7.8496488924
 20
6.6299374968
 30
0.0
  0
VERTEX
  5
5DB
330
2E9
100
AcDbEntity
  8
0
  6
CONTINUOUS
 62
     7
100
AcDbVertex
100
AcDb2dVertex
 10
7.861578461
 20
6.6303876034
 30
0.0
  0
SEQEND
  5
5DC
330
2E9
100
AcDbEntity
  8
0
  6
CONTINUOUS
 62
     7
  0
ARC
  5
2EA
330
1F
100
AcDbEntity
  8
0
  6
CONTINUOUS
 62
     7
100
AcDbCircle
 10
8.2815563851
 20
6.7911533919
 30
0.0
 40
0.5791479364475749
100
AcDbArc
 50
136.896515368
 51
177.2739687996
  0
LINE
  5
2EB
330
1F
100
AcDbEntity
  8
0
  6
CONTINUOUS
 62
     7
100
AcDbLine
 10
8.673648015
 20
7.0174452508
 30
0.0
 11
8.7108301873
 21
7.038910062
 31
0.0
  0
LINE
  5
2EC
330
1F
100
AcDbEntity
  8
0
  6
CONTINUOUS
 62
     7
100
AcDbLine
 10
8.6318897405
 20
7.0415517895
 30
0.0
 11
8.6690719128
 21
7.0630166007
 31
0.0
  0
POLYLINE
  5
2ED
330
1F
100
AcDbEntity
  8
0
  6
CONTINUOUS
 62
     7
100
AcDb2dPolyline
 66
     1
 10
0.0
 20
0.0
 30
0.0
  0
VERTEX
  5
5DD
330
2ED
100
AcDbEntity
  8
0
  6
CONTINUOUS
 62
     7
100
AcDbVertex
100
AcDb2dVertex
 10
8.6690719128
 20
7.0630166007
 30
0.0
  0
VERTEX
  5
5DE
330
2ED
100
AcDbEntity
  8
0
  6
CONTINUOUS
 62
     7
100
AcDbVertex
100
AcDb2dVertex
 10
8.68004685
 20
7.0699560527
 30
0.0
  0
VERTEX
  5
5DF
330
2ED
100
AcDbEntity
  8
0
  6
CONTINUOUS
 62
     7
100
AcDbVertex
100
AcDb2dVertex
 10
8.6898853218
 20
7.0774419633
 30
0.0
  0
VERTEX
  5
5E0
330
2ED
100
AcDbEntity
  8
0
  6
CONTINUOUS
 62
     7
100
AcDbVertex
100
AcDb2dVertex
 10
8.698506095
 20
7.0854125237
 30
0.0
  0
VERTEX
  5
5E1
330
2ED
100
AcDbEntity
  8
0
  6
CONTINUOUS
 62
     7
100
AcDbVertex
100
AcDb2dVertex
 10
8.7058379905
 20
7.0938019234
 30
0.0
  0
VERTEX
  5
5E2
330
2ED
100
AcDbEntity
  8
0
  6
CONTINUOUS
 62
     7
100
AcDbVertex
100
AcDb2dVertex
 10
8.7118204711
 20
7.1025408938
 30
0.0
  0
VERTEX
  5
5E3
330
2ED
100
AcDbEntity
  8
0
  6
CONTINUOUS
 62
     7
100
AcDbVertex
100
AcDb2dVertex
 10
8.7164041412
 20
7.1115572797
 30
0.0
  0
VERTEX
  5
5E4
330
2ED
100
AcDbEntity
  8
0
  6
CONTINUOUS
 62
     7
100
AcDbVertex
100
AcDb2dVertex
 10
8.719551155
 20
7.1207766357
 30
0.0
  0
VERTEX
  5
5E5
330
2ED
100
AcDbEntity
  8
0
  6
CONTINUOUS
 62
     7
100
AcDbVertex
100
AcDb2dVertex
 10
8.7212355285
 20
7.1301228404
 30
0.0
  0
VERTEX
  5
5E6
330
2ED
100
AcDbEntity
  8
0
  6
CONTINUOUS
 62
     7
100
AcDbVertex
100
AcDb2dVertex
 10
8.7214433543
 20
7.139518725
 30
0.0
  0
VERTEX
  5
5E7
330
2ED
100
AcDbEntity
  8
0
  6
CONTINUOUS
 62
     7
100
AcDbVertex
100
AcDb2dVertex
 10
8.7201729165
 20
7.1488867107
 30
0.0
  0
VERTEX
  5
5E8
330
2ED
100
AcDbEntity
  8
0
  6
CONTINUOUS
 62
     7
100
AcDbVertex
100
AcDb2dVertex
 10
8.7174347047
 20
7.1581494487
 30
0.0
  0
VERTEX
  5
5E9
330
2ED
100
AcDbEntity
  8
0
  6
CONTINUOUS
 62
     7
100
AcDbVertex
100
AcDb2dVertex
 10
8.7132513274
 20
7.1672304595
 30
0.0
  0
VERTEX
  5
5EA
330
2ED
100
AcDbEntity
  8
0
  6
CONTINUOUS
 62
     7
100
AcDbVertex
100
AcDb2dVertex
 10
8.7076573256
 20
7.176054764
 30
0.0
  0
VERTEX
  5
5EB
330
2ED
100
AcDbEntity
  8
0
  6
CONTINUOUS
 62
     7
100
AcDbVertex
100
AcDb2dVertex
 10
8.7006988872
 20
7.1845495027
 30
0.0
  0
VERTEX
  5
5EC
330
2ED
100
AcDbEntity
  8
0
  6
CONTINUOUS
 62
     7
100
AcDbVertex
100
AcDb2dVertex
 10
8.6924334659
 20
7.1926445369
 30
0.0
  0
VERTEX
  5
5ED
330
2ED
100
AcDbEntity
  8
0
  6
CONTINUOUS
 62
     7
100
AcDbVertex
100
AcDb2dVertex
 10
8.6829293067
 20
7.2002730287
 30
0.0
  0
VERTEX
  5
5EE
330
2ED
100
AcDbEntity
  8
0
  6
CONTINUOUS
 62
     7
100
AcDbVertex
100
AcDb2dVertex
 10
8.6722648826
 20
7.2073719917
 30
0.0
  0
VERTEX
  5
5EF
330
2ED
100
AcDbEntity
  8
0
  6
CONTINUOUS
 62
     7
100
AcDbVertex
100
AcDb2dVertex
 10
8.6605282465
 20
7.2138828121
 30
0.0
  0
VERTEX
  5
5F0
330
2ED
100
AcDbEntity
  8
0
  6
CONTINUOUS
 62
     7
100
AcDbVertex
100
AcDb2dVertex
 10
8.6478163041
 20
7.219751732
 30
0.0
  0
VERTEX
  5
5F1
330
2ED
100
AcDbEntity
  8
0
  6
CONTINUOUS
 62
     7
100
AcDbVertex
100
AcDb2dVertex
 10
8.6342340141
 20
7.2249302936
 30
0.0
  0
VERTEX
  5
5F2
330
2ED
100
AcDbEntity
  8
0
  6
CONTINUOUS
 62
     7
100
AcDbVertex
100
AcDb2dVertex
 10
8.6198935212
 20
7.2293757389
 30
0.0
  0
VERTEX
  5
5F3
330
2ED
100
AcDbEntity
  8
0
  6
CONTINUOUS
 62
     7
100
AcDbVertex
100
AcDb2dVertex
 10
8.6049132306
 20
7.2330513635
 30
0.0
  0
VERTEX
  5
5F4
330
2ED
100
AcDbEntity
  8
0
  6
CONTINUOUS
 62
     7
100
AcDbVertex
100
AcDb2dVertex
 10
8.5894168299
 20
7.2359268187
 30
0.0
  0
VERTEX
  5
5F5
330
2ED
100
AcDbEntity
  8
0
  6
CONTINUOUS
 62
     7
100
AcDbVertex
100
AcDb2dVertex
 10
8.5735322682
 20
7.2379783628
 30
0.0
  0
VERTEX
  5
5F6
330
2ED
100
AcDbEntity
  8
0
  6
CONTINUOUS
 62
     7
100
AcDbVertex
100
AcDb2dVertex
 10
8.5573906993
 20
7.2391890568
 30
0.0
  0
VERTEX
  5
5F7
330
2ED
100
AcDbEntity
  8
0
  6
CONTINUOUS
 62
     7
100
AcDbVertex
100
AcDb2dVertex
 10
8.5411253993
 20
7.2395489044
 30
0.0
  0
VERTEX
  5
5F8
330
2ED
100
AcDbEntity
  8
0
  6
CONTINUOUS
 62
     7
100
AcDbVertex
100
AcDb2dVertex
 10
8.5248706659
 20
7.2390549345
 30
0.0
  0
VERTEX
  5
5F9
330
2ED
100
AcDbEntity
  8
0
  6
CONTINUOUS
 62
     7
100
AcDbVertex
100
AcDb2dVertex
 10
8.5087607092
 20
7.2377112256
 30
0.0
  0
VERTEX
  5
5FA
330
2ED
100
AcDbEntity
  8
0
  6
CONTINUOUS
 62
     7
100
AcDbVertex
100
AcDb2dVertex
 10
8.4929285444
 20
7.2355288722
 30
0.0
  0
VERTEX
  5
5FB
330
2ED
100
AcDbEntity
  8
0
  6
CONTINUOUS
 62
     7
100
AcDbVertex
100
AcDb2dVertex
 10
8.4775048927
 20
7.2325258935
 30
0.0
  0
VERTEX
  5
5FC
330
2ED
100
AcDbEntity
  8
0
  6
CONTINUOUS
 62
     7
100
AcDbVertex
100
AcDb2dVertex
 10
8.4626171025
 20
7.2287270841
 30
0.0
  0
VERTEX
  5
5FD
330
2ED
100
AcDbEntity
  8
0
  6
CONTINUOUS
 62
     7
100
AcDbVertex
100
AcDb2dVertex
 10
8.4483880978
 20
7.2241638096
 30
0.0
  0
SEQEND
  5
5FE
330
2ED
100
AcDbEntity
  8
0
  6
CONTINUOUS
 62
     7
  0
LINE
  5
2EE
330
1F
100
AcDbEntity
  8
0
  6
CONTINUOUS
 62
     7
100
AcDbLine
 10
8.405766849
 20
7.2487685328
 30
0.0
 11
8.4483880978
 21
7.2241638096
 31
0.0
  0
POLYLINE
  5
2EF
330
1F
100
AcDbEntity
  8
0
  6
CONTINUOUS
 62
     7
100
AcDb2dPolyline
 66
     1
 10
0.0
 20
0.0
 30
0.0
  0
VERTEX
  5
5FF
330
2EF
100
AcDbEntity
  8
0
  6
CONTINUOUS
 62
     7
100
AcDbVertex
100
AcDb2dVertex
 10
8.7108301873
 20
7.038910062
 30
0.0
  0
VERTEX
  5
600
330
2EF
100
AcDbEntity
  8
0
  6
CONTINUOUS
 62
     7
100
AcDbVertex
100
AcDb2dVertex
 10
8.7234547877
 20
7.0467905933
 30
0.0
  0
VERTEX
  5
601
330
2EF
100
AcDbEntity
  8
0
  6
CONTINUOUS
 62
     7
100
AcDbVertex
100
AcDb2dVertex
 10
8.7349760962
 20
7.0552156065
 30
0.0
  0
VERTEX
  5
602
330
2EF
100
AcDbEntity
  8
0
  6
CONTINUOUS
 62
     7
100
AcDbVertex
100
AcDb2dVertex
 10
8.7453239034
 20
7.0641337605
 30
0.0
  0
VERTEX
  5
603
330
2EF
100
AcDbEntity
  8
0
  6
CONTINUOUS
 62
     7
100
AcDbVertex
100
AcDb2dVertex
 10
8.7544351511
 20
7.0734907093
 30
0.0
  0
VERTEX
  5
604
330
2EF
100
AcDbEntity
  8
0
  6
CONTINUOUS
 62
     7
100
AcDbVertex
100
AcDb2dVertex
 10
8.7622543168
 20
7.0832294331
 30
0.0
  0
VERTEX
  5
605
330
2EF
100
AcDbEntity
  8
0
  6
CONTINUOUS
 62
     7
100
AcDbVertex
100
AcDb2dVertex
 10
8.7687337513
 20
7.0932905852
 30
0.0
  0
VERTEX
  5
606
330
2EF
100
AcDbEntity
  8
0
  6
CONTINUOUS
 62
     7
100
AcDbVertex
100
AcDb2dVertex
 10
8.7738339701
 20
7.1036128545
 30
0.0
  0
VERTEX
  5
607
330
2EF
100
AcDbEntity
  8
0
  6
CONTINUOUS
 62
     7
100
AcDbVertex
100
AcDb2dVertex
 10
8.7775238929
 20
7.1141333384
 30
0.0
  0
VERTEX
  5
608
330
2EF
100
AcDbEntity
  8
0
  6
CONTINUOUS
 62
     7
100
AcDbVertex
100
AcDb2dVertex
 10
8.7797810339
 20
7.1247879264
 30
0.0
  0
VERTEX
  5
609
330
2EF
100
AcDbEntity
  8
0
  6
CONTINUOUS
 62
     7
100
AcDbVertex
100
AcDb2dVertex
 10
8.7805916385
 20
7.1355116911
 30
0.0
  0
VERTEX
  5
60A
330
2EF
100
AcDbEntity
  8
0
  6
CONTINUOUS
 62
     7
100
AcDbVertex
100
AcDb2dVertex
 10
8.7799507668
 20
7.1462392832
 30
0.0
  0
VERTEX
  5
60B
330
2EF
100
AcDbEntity
  8
0
  6
CONTINUOUS
 62
     7
100
AcDbVertex
100
AcDb2dVertex
 10
8.7778623243
 20
7.1569053302
 30
0.0
  0
VERTEX
  5
60C
330
2EF
100
AcDbEntity
  8
0
  6
CONTINUOUS
 62
     7
100
AcDbVertex
100
AcDb2dVertex
 10
8.7743390377
 20
7.1674448347
 30
0.0
  0
VERTEX
  5
60D
330
2EF
100
AcDbEntity
  8
0
  6
CONTINUOUS
 62
     7
100
AcDbVertex
100
AcDb2dVertex
 10
8.7694023773
 20
7.1777935703
 30
0.0
  0
VERTEX
  5
60E
330
2EF
100
AcDbEntity
  8
0
  6
CONTINUOUS
 62
     7
100
AcDbVertex
100
AcDb2dVertex
 10
8.7630824266
 20
7.1878884733
 30
0.0
  0
VERTEX
  5
60F
330
2EF
100
AcDbEntity
  8
0
  6
CONTINUOUS
 62
     7
100
AcDbVertex
100
AcDb2dVertex
 10
8.7554176985
 20
7.1976680267
 30
0.0
  0
VERTEX
  5
610
330
2EF
100
AcDbEntity
  8
0
  6
CONTINUOUS
 62
     7
100
AcDbVertex
100
AcDb2dVertex
 10
8.7464549007
 20
7.2070726353
 30
0.0
  0
VERTEX
  5
611
330
2EF
100
AcDbEntity
  8
0
  6
CONTINUOUS
 62
     7
100
AcDbVertex
100
AcDb2dVertex
 10
8.7362486513
 20
7.2160449886
 30
0.0
  0
VERTEX
  5
612
330
2EF
100
AcDbEntity
  8
0
  6
CONTINUOUS
 62
     7
100
AcDbVertex
100
AcDb2dVertex
 10
8.7248611459
 20
7.2245304102
 30
0.0
  0
VERTEX
  5
613
330
2EF
100
AcDbEntity
  8
0
  6
CONTINUOUS
 62
     7
100
AcDbVertex
100
AcDb2dVertex
 10
8.7123617784
 20
7.2324771913
 30
0.0
  0
VERTEX
  5
614
330
2EF
100
AcDbEntity
  8
0
  6
CONTINUOUS
 62
     7
100
AcDbVertex
100
AcDb2dVertex
 10
8.6988267182
 20
7.2398369052
 30
0.0
  0
VERTEX
  5
615
330
2EF
100
AcDbEntity
  8
0
  6
CONTINUOUS
 62
     7
100
AcDbVertex
100
AcDb2dVertex
 10
8.6843384461
 20
7.2465647028
 30
0.0
  0
VERTEX
  5
616
330
2EF
100
AcDbEntity
  8
0
  6
CONTINUOUS
 62
     7
100
AcDbVertex
100
AcDb2dVertex
 10
8.6689852517
 20
7.2526195857
 30
0.0
  0
VERTEX
  5
617
330
2EF
100
AcDbEntity
  8
0
  6
CONTINUOUS
 62
     7
100
AcDbVertex
100
AcDb2dVertex
 10
8.6528606953
 20
7.2579646565
 30
0.0
  0
VERTEX
  5
618
330
2EF
100
AcDbEntity
  8
0
  6
CONTINUOUS
 62
     7
100
AcDbVertex
100
AcDb2dVertex
 10
8.6360630377
 20
7.2625673429
 30
0.0
  0
VERTEX
  5
619
330
2EF
100
AcDbEntity
  8
0
  6
CONTINUOUS
 62
     7
100
AcDbVertex
100
AcDb2dVertex
 10
8.6186946417
 20
7.2663995968
 30
0.0
  0
VERTEX
  5
61A
330
2EF
100
AcDbEntity
  8
0
  6
CONTINUOUS
 62
     7
100
AcDbVertex
100
AcDb2dVertex
 10
8.6008613478
 20
7.2694380649
 30
0.0
  0
VERTEX
  5
61B
330
2EF
100
AcDbEntity
  8
0
  6
CONTINUOUS
 62
     7
100
AcDbVertex
100
AcDb2dVertex
 10
8.5826718297
 20
7.2716642312
 30
0.0
  0
VERTEX
  5
61C
330
2EF
100
AcDbEntity
  8
0
  6
CONTINUOUS
 62
     7
100
AcDbVertex
100
AcDb2dVertex
 10
8.5642369319
 20
7.2730645299
 30
0.0
  0
VERTEX
  5
61D
330
2EF
100
AcDbEntity
  8
0
  6
CONTINUOUS
 62
     7
100
AcDbVertex
100
AcDb2dVertex
 10
8.5456689942
 20
7.2736304276
 30
0.0
  0
VERTEX
  5
61E
330
2EF
100
AcDbEntity
  8
0
  6
CONTINUOUS
 62
     7
100
AcDbVertex
100
AcDb2dVertex
 10
8.5270811671
 20
7.2733584758
 30
0.0
  0
VERTEX
  5
61F
330
2EF
100
AcDbEntity
  8
0
  6
CONTINUOUS
 62
     7
100
AcDbVertex
100
AcDb2dVertex
 10
8.5085867222
 20
7.2722503319
 30
0.0
  0
VERTEX
  5
620
330
2EF
100
AcDbEntity
  8
0
  6
CONTINUOUS
 62
     7
100
AcDbVertex
100
AcDb2dVertex
 10
8.4902983622
 20
7.2703127486
 30
0.0
  0
VERTEX
  5
621
330
2EF
100
AcDbEntity
  8
0
  6
CONTINUOUS
 62
     7
100
AcDbVertex
100
AcDb2dVertex
 10
8.4723275338
 20
7.2675575333
 30
0.0
  0
VERTEX
  5
622
330
2EF
100
AcDbEntity
  8
0
  6
CONTINUOUS
 62
     7
100
AcDbVertex
100
AcDb2dVertex
 10
8.454783749
 20
7.264001476
 30
0.0
  0
VERTEX
  5
623
330
2EF
100
AcDbEntity
  8
0
  6
CONTINUOUS
 62
     7
100
AcDbVertex
100
AcDb2dVertex
 10
8.4377739171
 20
7.2596662467
 30
0.0
  0
VERTEX
  5
624
330
2EF
100
AcDbEntity
  8
0
  6
CONTINUOUS
 62
     7
100
AcDbVertex
100
AcDb2dVertex
 10
8.4214016937
 20
7.2545782638
 30
0.0
  0
VERTEX
  5
625
330
2EF
100
AcDbEntity
  8
0
  6
CONTINUOUS
 62
     7
100
AcDbVertex
100
AcDb2dVertex
 10
8.405766849
 20
7.2487685328
 30
0.0
  0
SEQEND
  5
626
330
2EF
100
AcDbEntity
  8
0
  6
CONTINUOUS
 62
     7
  0
ARC
  5
2F0
330
1F
100
AcDbEntity
  8
0
  6
CONTINUOUS
 62
     7
100
AcDbCircle
 10
8.2911432384
 20
6.7845483062
 30
0.0
 40
0.6797377568653056
100
AcDbArc
 50
145.5743178571
 51
152.0780356683
  0
POLYLINE
  5
2F1
330
1F
100
AcDbEntity
  8
0
  6
CONTINUOUS
 62
     7
100
AcDb2dPolyline
 66
     1
 10
0.0
 20
0.0
 30
0.0
  0
VERTEX
  5
627
330
2F1
100
AcDbEntity
  8
0
  6
CONTINUOUS
 62
     7
100
AcDbVertex
100
AcDb2dVertex
 10
7.9077209428
 20
7.4604954765
 30
0.0
  0
VERTEX
  5
628
330
2F1
100
AcDbEntity
  8
0
  6
CONTINUOUS
 62
     7
100
AcDbVertex
100
AcDb2dVertex
 10
7.8971648101
 20
7.4659683286
 30
0.0
  0
VERTEX
  5
629
330
2F1
100
AcDbEntity
  8
0
  6
CONTINUOUS
 62
     7
100
AcDbVertex
100
AcDb2dVertex
 10
7.8844589352
 20
7.4710700895
 30
0.0
  0
VERTEX
  5
62A
330
2F1
100
AcDbEntity
  8
0
  6
CONTINUOUS
 62
     7
100
AcDbVertex
100
AcDb2dVertex
 10
7.8711317161
 20
7.4749134331
 30
0.0
  0
VERTEX
  5
62B
330
2F1
100
AcDbEntity
  8
0
  6
CONTINUOUS
 62
     7
100
AcDbVertex
100
AcDb2dVertex
 10
7.8572308609
 20
7.477484601
 30
0.0
  0
VERTEX
  5
62C
330
2F1
100
AcDbEntity
  8
0
  6
CONTINUOUS
 62
     7
100
AcDbVertex
100
AcDb2dVertex
 10
7.8428061311
 20
7.4787743892
 30
0.0
  0
VERTEX
  5
62D
330
2F1
100
AcDbEntity
  8
0
  6
CONTINUOUS
 62
     7
100
AcDbVertex
100
AcDb2dVertex
 10
7.8279091634
 20
7.4787781806
 30
0.0
  0
VERTEX
  5
62E
330
2F1
100
AcDbEntity
  8
0
  6
CONTINUOUS
 62
     7
100
AcDbVertex
100
AcDb2dVertex
 10
7.8125932851
 20
7.4774959616
 30
0.0
  0
VERTEX
  5
62F
330
2F1
100
AcDbEntity
  8
0
  6
CONTINUOUS
 62
     7
100
AcDbVertex
100
AcDb2dVertex
 10
7.7969133231
 20
7.4749323222
 30
0.0
  0
VERTEX
  5
630
330
2F1
100
AcDbEntity
  8
0
  6
CONTINUOUS
 62
     7
100
AcDbVertex
100
AcDb2dVertex
 10
7.7809254075
 20
7.4710964396
 30
0.0
  0
VERTEX
  5
631
330
2F1
100
AcDbEntity
  8
0
  6
CONTINUOUS
 62
     7
100
AcDbVertex
100
AcDb2dVertex
 10
7.764686771
 20
7.4660020453
 30
0.0
  0
VERTEX
  5
632
330
2F1
100
AcDbEntity
  8
0
  6
CONTINUOUS
 62
     7
100
AcDbVertex
100
AcDb2dVertex
 10
7.7482555437
 20
7.4596673758
 30
0.0
  0
VERTEX
  5
633
330
2F1
100
AcDbEntity
  8
0
  6
CONTINUOUS
 62
     7
100
AcDbVertex
100
AcDb2dVertex
 10
7.731690545
 20
7.4521151077
 30
0.0
  0
VERTEX
  5
634
330
2F1
100
AcDbEntity
  8
0
  6
CONTINUOUS
 62
     7
100
AcDbVertex
100
AcDb2dVertex
 10
7.7150510734
 20
7.443372276
 30
0.0
  0
VERTEX
  5
635
330
2F1
100
AcDbEntity
  8
0
  6
CONTINUOUS
 62
     7
100
AcDbVertex
100
AcDb2dVertex
 10
7.6983966939
 20
7.4334701779
 30
0.0
  0
VERTEX
  5
636
330
2F1
100
AcDbEntity
  8
0
  6
CONTINUOUS
 62
     7
100
AcDbVertex
100
AcDb2dVertex
 10
7.6817870249
 20
7.4224442603
 30
0.0
  0
VERTEX
  5
637
330
2F1
100
AcDbEntity
  8
0
  6
CONTINUOUS
 62
     7
100
AcDbVertex
100
AcDb2dVertex
 10
7.6652815246
 20
7.4103339932
 30
0.0
  0
VERTEX
  5
638
330
2F1
100
AcDbEntity
  8
0
  6
CONTINUOUS
 62
     7
100
AcDbVertex
100
AcDb2dVertex
 10
7.6489392784
 20
7.397182728
 30
0.0
  0
VERTEX
  5
639
330
2F1
100
AcDbEntity
  8
0
  6
CONTINUOUS
 62
     7
100
AcDbVertex
100
AcDb2dVertex
 10
7.6328187873
 20
7.3830375431
 30
0.0
  0
VERTEX
  5
63A
330
2F1
100
AcDbEntity
  8
0
  6
CONTINUOUS
 62
     7
100
AcDbVertex
100
AcDb2dVertex
 10
7.6169777586
 20
7.3679490743
 30
0.0
  0
VERTEX
  5
63B
330
2F1
100
AcDbEntity
  8
0
  6
CONTINUOUS
 62
     7
100
AcDbVertex
100
AcDb2dVertex
 10
7.601472899
 20
7.3519713346
 30
0.0
  0
VERTEX
  5
63C
330
2F1
100
AcDbEntity
  8
0
  6
CONTINUOUS
 62
     7
100
AcDbVertex
100
AcDb2dVertex
 10
7.5863597118
 20
7.3351615202
 30
0.0
  0
VERTEX
  5
63D
330
2F1
100
AcDbEntity
  8
0
  6
CONTINUOUS
 62
     7
100
AcDbVertex
100
AcDb2dVertex
 10
7.5716922984
 20
7.3175798057
 30
0.0
  0
VERTEX
  5
63E
330
2F1
100
AcDbEntity
  8
0
  6
CONTINUOUS
 62
     7
100
AcDbVertex
100
AcDb2dVertex
 10
7.5575231642
 20
7.2992891291
 30
0.0
  0
VERTEX
  5
63F
330
2F1
100
AcDbEntity
  8
0
  6
CONTINUOUS
 62
     7
100
AcDbVertex
100
AcDb2dVertex
 10
7.5439030312
 20
7.2803549664
 30
0.0
  0
VERTEX
  5
640
330
2F1
100
AcDbEntity
  8
0
  6
CONTINUOUS
 62
     7
100
AcDbVertex
100
AcDb2dVertex
 10
7.5308806558
 20
7.2608450969
 30
0.0
  0
VERTEX
  5
641
330
2F1
100
AcDbEntity
  8
0
  6
CONTINUOUS
 62
     7
100
AcDbVertex
100
AcDb2dVertex
 10
7.5185026548
 20
7.2408293609
 30
0.0
  0
VERTEX
  5
642
330
2F1
100
AcDbEntity
  8
0
  6
CONTINUOUS
 62
     7
100
AcDbVertex
100
AcDb2dVertex
 10
7.5068133381
 20
7.2203794096
 30
0.0
  0
VERTEX
  5
643
330
2F1
100
AcDbEntity
  8
0
  6
CONTINUOUS
 62
     7
100
AcDbVertex
100
AcDb2dVertex
 10
7.4958545506
 20
7.1995684483
 30
0.0
  0
VERTEX
  5
644
330
2F1
100
AcDbEntity
  8
0
  6
CONTINUOUS
 62
     7
100
AcDbVertex
100
AcDb2dVertex
 10
7.4856655219
 20
7.1784709751
 30
0.0
  0
VERTEX
  5
645
330
2F1
100
AcDbEntity
  8
0
  6
CONTINUOUS
 62
     7
100
AcDbVertex
100
AcDb2dVertex
 10
7.4762827259
 20
7.1571625133
 30
0.0
  0
VERTEX
  5
646
330
2F1
100
AcDbEntity
  8
0
  6
CONTINUOUS
 62
     7
100
AcDbVertex
100
AcDb2dVertex
 10
7.4677397508
 20
7.1357193418
 30
0.0
  0
VERTEX
  5
647
330
2F1
100
AcDbEntity
  8
0
  6
CONTINUOUS
 62
     7
100
AcDbVertex
100
AcDb2dVertex
 10
7.4600671781
 20
7.1142182215
 30
0.0
  0
VERTEX
  5
648
330
2F1
100
AcDbEntity
  8
0
  6
CONTINUOUS
 62
     7
100
AcDbVertex
100
AcDb2dVertex
 10
7.4532924736
 20
7.0927361208
 30
0.0
  0
VERTEX
  5
649
330
2F1
100
AcDbEntity
  8
0
  6
CONTINUOUS
 62
     7
100
AcDbVertex
100
AcDb2dVertex
 10
7.447439889
 20
7.0713499401
 30
0.0
  0
VERTEX
  5
64A
330
2F1
100
AcDbEntity
  8
0
  6
CONTINUOUS
 62
     7
100
AcDbVertex
100
AcDb2dVertex
 10
7.4425303751
 20
7.0501362364
 30
0.0
  0
VERTEX
  5
64B
330
2F1
100
AcDbEntity
  8
0
  6
CONTINUOUS
 62
     7
100
AcDbVertex
100
AcDb2dVertex
 10
7.4385815067
 20
7.0291709492
 30
0.0
  0
VERTEX
  5
64C
330
2F1
100
AcDbEntity
  8
0
  6
CONTINUOUS
 62
     7
100
AcDbVertex
100
AcDb2dVertex
 10
7.4356074196
 20
7.0085291288
 30
0.0
  0
VERTEX
  5
64D
330
2F1
100
AcDbEntity
  8
0
  6
CONTINUOUS
 62
     7
100
AcDbVertex
100
AcDb2dVertex
 10
7.4336187603
 20
6.9882846676
 30
0.0
  0
VERTEX
  5
64E
330
2F1
100
AcDbEntity
  8
0
  6
CONTINUOUS
 62
     7
100
AcDbVertex
100
AcDb2dVertex
 10
7.4326226478
 20
6.9685100355
 30
0.0
  0
VERTEX
  5
64F
330
2F1
100
AcDbEntity
  8
0
  6
CONTINUOUS
 62
     7
100
AcDbVertex
100
AcDb2dVertex
 10
7.4326226478
 20
6.9492760205
 30
0.0
  0
VERTEX
  5
650
330
2F1
100
AcDbEntity
  8
0
  6
CONTINUOUS
 62
     7
100
AcDbVertex
100
AcDb2dVertex
 10
7.4336187603
 20
6.9306514754
 30
0.0
  0
VERTEX
  5
651
330
2F1
100
AcDbEntity
  8
0
  6
CONTINUOUS
 62
     7
100
AcDbVertex
100
AcDb2dVertex
 10
7.4356074196
 20
6.9127030713
 30
0.0
  0
VERTEX
  5
652
330
2F1
100
AcDbEntity
  8
0
  6
CONTINUOUS
 62
     7
100
AcDbVertex
100
AcDb2dVertex
 10
7.4385815067
 20
6.8954950588
 30
0.0
  0
VERTEX
  5
653
330
2F1
100
AcDbEntity
  8
0
  6
CONTINUOUS
 62
     7
100
AcDbVertex
100
AcDb2dVertex
 10
7.4425303751
 20
6.8790890381
 30
0.0
  0
VERTEX
  5
654
330
2F1
100
AcDbEntity
  8
0
  6
CONTINUOUS
 62
     7
100
AcDbVertex
100
AcDb2dVertex
 10
7.447439889
 20
6.8635437384
 30
0.0
  0
VERTEX
  5
655
330
2F1
100
AcDbEntity
  8
0
  6
CONTINUOUS
 62
     7
100
AcDbVertex
100
AcDb2dVertex
 10
7.4532924736
 20
6.8489148081
 30
0.0
  0
VERTEX
  5
656
330
2F1
100
AcDbEntity
  8
0
  6
CONTINUOUS
 62
     7
100
AcDbVertex
100
AcDb2dVertex
 10
7.4600671781
 20
6.8352546147
 30
0.0
  0
VERTEX
  5
657
330
2F1
100
AcDbEntity
  8
0
  6
CONTINUOUS
 62
     7
100
AcDbVertex
100
AcDb2dVertex
 10
7.4677397508
 20
6.8226120583
 30
0.0
  0
VERTEX
  5
658
330
2F1
100
AcDbEntity
  8
0
  6
CONTINUOUS
 62
     7
100
AcDbVertex
100
AcDb2dVertex
 10
7.4762827259
 20
6.8110323959
 30
0.0
  0
VERTEX
  5
659
330
2F1
100
AcDbEntity
  8
0
  6
CONTINUOUS
 62
     7
100
AcDbVertex
100
AcDb2dVertex
 10
7.4856655219
 20
6.8005570797
 30
0.0
  0
VERTEX
  5
65A
330
2F1
100
AcDbEntity
  8
0
  6
CONTINUOUS
 62
     7
100
AcDbVertex
100
AcDb2dVertex
 10
7.4958545506
 20
6.7912236087
 30
0.0
  0
VERTEX
  5
65B
330
2F1
100
AcDbEntity
  8
0
  6
CONTINUOUS
 62
     7
100
AcDbVertex
100
AcDb2dVertex
 10
7.5068133381
 20
6.7830653942
 30
0.0
  0
VERTEX
  5
65C
330
2F1
100
AcDbEntity
  8
0
  6
CONTINUOUS
 62
     7
100
AcDbVertex
100
AcDb2dVertex
 10
7.5140521504
 20
6.7785672384
 30
0.0
  0
SEQEND
  5
65D
330
2F1
100
AcDbEntity
  8
0
  6
CONTINUOUS
 62
     7
  0
SPLINE
  5
2F2
330
1F
100
AcDbEntity
  8
0
  6
CONTINUOUS
 62
     7
100
AcDbSpline
210
0.0
220
0.0
230
1.0
 70
     8
 71
     3
 72
    31
 73
    27
 74
     0
 42
0.00000001
 43
0.00000001
 40
-0.1261202054354891
 40
-0.0836798205598586
 40
-0.0426119081074926
 40
0.0
 40
0.0426216130869554
 40
0.0836913141794306
 40
0.1261195178979349
 40
0.1682793248178797
 40
0.2084855799153721
 40
0.2499067927967653
 40
0.2913619713114862
 40
0.3316224479920827
 40
0.3738581062766457
 40
0.4162626079442586
 40
0.4573352864398926
 40
0.499997266541327
 40
0.5426396366312699
 40
0.5837268479521444
 40
0.6261788426281579
 40
0.6683249926211668
 40
0.7085632764785768
 40
0.7500555229830674
 40
0.791445006836019
 40
0.8316605972583391
 40
0.8738797945645109
 40
0.9163201794401414
 40
0.9573880918925074
 40
1.0
 40
1.042621613086955
 40
1.083691314179431
 40
1.126119517897935
 10
7.72615006527326
 20
7.416186534141257
 30
0.0
 10
7.738266929654046
 20
7.425333440700254
 30
0.0
 10
7.753427456747289
 20
7.43192644034264
 30
0.0
 10
7.771272380292263
 20
7.435234072805254
 30
0.0
 10
7.790337871953076
 20
7.43520532934489
 30
0.0
 10
7.809338050606298
 20
7.432597304312822
 30
0.0
 10
7.827023430838325
 20
7.427390174282603
 30
0.0
 10
7.841888367072877
 20
7.420270890402474
 30
0.0
 10
7.853625098664763
 20
7.412040429272198
 30
0.0
 10
7.860750992351026
 20
7.402923937920714
 30
0.0
 10
7.86265517439527
 20
7.393468263716939
 30
0.0
 10
7.860197508910337
 20
7.383911815967647
 30
0.0
 10
7.852586572183135
 20
7.374693331874353
 30
0.0
 10
7.840464859520404
 20
7.366337088899423
 30
0.0
 10
7.825297556084455
 20
7.358939550073416
 30
0.0
 10
7.807441427786295
 20
7.353463477857311
 30
0.0
 10
7.788370018582006
 20
7.350584382164647
 30
0.0
 10
7.769364362535813
 20
7.350160387902042
 30
0.0
 10
7.751673904570826
 20
7.353173860014008
 30
0.0
 10
7.736803357940365
 20
7.359587913017767
 30
0.0
 10
7.725065125120618
 20
7.368514246880424
 30
0.0
 10
7.717958608025783
 20
7.379833436417371
 30
0.0
 10
7.716075151711991
 20
7.392331153285513
 30
0.0
 10
7.718543277201712
 20
7.404800644406385
 30
0.0
 10
7.72615006527326
 20
7.416186534141257
 30
0.0
 10
7.738266929654046
 20
7.425333440700254
 30
0.0
 10
7.753427456747289
 20
7.43192644034264
 30
0.0
  0
ARC
  5
2F3
330
1F
100
AcDbEntity
  8
0
  6
CONTINUOUS
 62
     7
100
AcDbCircle
 10
7.7683289097
 20
6.7838079308
 30
0.0
 40
0.1316667433803154
100
AcDbArc
 50
233.7841241924
 51
239.9988873896
  0
LINE
  5
2F4
330
1F
100
AcDbEntity
  8
0
  6
CONTINUOUS
 62
     7
100
AcDbLine
 10
7.6905363475
 20
6.6775796456
 30
0.0
 11
7.648778073
 21
6.7016861843
 31
0.0
  0
LINE
  5
2F5
330
1F
100
AcDbEntity
  8
0
  6
CONTINUOUS
 62
     7
100
AcDbLine
 10
8.4014663541
 20
7.2472211312
 30
0.0
 11
8.405766849
 21
7.2487685328
 31
0.0
  0
ARC
  5
2F6
330
1F
100
AcDbEntity
  8
0
  6
CONTINUOUS
 62
     7
100
AcDbCircle
 10
8.0442277374
 20
6.9271060813
 30
0.0
 40
0.1340252005759174
100
AcDbArc
 50
141.8900241377
 51
159.287075344
  0
SPLINE
  5
2F7
330
1F
100
AcDbEntity
  8
0
  6
CONTINUOUS
 62
     7
100
AcDbSpline
210
0.0
220
0.0
230
1.0
 70
     8
 71
     3
 72
    12
 73
     8
 74
     0
 42
0.00000001
 43
0.00000001
 40
0.0
 40
0.0
 40
0.0
 40
0.0
 40
0.2499999999999998
 40
0.2499999999999998
 40
0.4999999999999996
 40
0.4999999999999996
 40
1.0
 40
1.0
 40
1.0
 40
1.0
 10
8.448388097758913
 20
7.22416380963487
 30
0.0
 10
8.445087679397998
 20
7.222989023173118
 30
0.0
 10
8.44190769654982
 20
7.222064459880131
 30
0.0
 10
8.435775507739123
 20
7.220726425395643
 30
0.0
 10
8.432791555358994
 20
7.220313142177208
 30
0.0
 10
8.424463062873466
 20
7.21995737778471
 30
0.0
 10
8.419655052953054
 20
7.22087501731647
 30
0.0
 10
8.415738380981551
 20
7.223047229120713
 30
0.0
  0
ARC
  5
2F8
330
1F
100
AcDbEntity
  8
0
  6
CONTINUOUS
 62
     7
100
AcDbCircle
 10
8.0120420275
 20
6.9456779989
 30
0.0
 40
0.5800998486249088
100
AcDbArc
 50
122.5138413999
 51
177.4915351328
  0
LINE
  5
2F9
330
1F
100
AcDbEntity
  8
0
  6
CONTINUOUS
 62
     7
100
AcDbLine
 10
7.648778073
 20
6.7016861843
 30
0.0
 11
7.648778073
 21
6.6587495841
 31
0.0
  0
LINE
  5
2FA
330
1F
100
AcDbEntity
  8
0
  6
CONTINUOUS
 62
     7
100
AcDbLine
 10
7.6905363475
 20
6.6775796456
 30
0.0
 11
7.6905363475
 21
6.6346430454
 31
0.0
  0
ARC
  5
2FB
330
1F
100
AcDbEntity
  8
0
  6
CONTINUOUS
 62
     7
100
AcDbCircle
 10
7.9395436857
 20
6.6353903113
 30
0.0
 40
0.2490084594721782
100
AcDbArc
 50
180.1719429421
 51
251.7536856452
  0
POLYLINE
  5
2FC
330
1F
100
AcDbEntity
  8
0
  6
CONTINUOUS
 62
     7
100
AcDb2dPolyline
 66
     1
 10
0.0
 20
0.0
 30
0.0
  0
VERTEX
  5
65E
330
2FC
100
AcDbEntity
  8
0
  6
CONTINUOUS
 62
     7
100
AcDbVertex
100
AcDb2dVertex
 10
7.648778073
 20
6.6587495841
 30
0.0
  0
VERTEX
  5
65F
330
2FC
100
AcDbEntity
  8
0
  6
CONTINUOUS
 62
     7
100
AcDbVertex
100
AcDb2dVertex
 10
7.6492912527
 20
6.6432823082
 30
0.0
  0
VERTEX
  5
660
330
2FC
100
AcDbEntity
  8
0
  6
CONTINUOUS
 62
     7
100
AcDbVertex
100
AcDb2dVertex
 10
7.6508276646
 20
6.6273167831
 30
0.0
  0
VERTEX
  5
661
330
2FC
100
AcDbEntity
  8
0
  6
CONTINUOUS
 62
     7
100
AcDbVertex
100
AcDb2dVertex
 10
7.6533779458
 20
6.6109503006
 30
0.0
  0
VERTEX
  5
662
330
2FC
100
AcDbEntity
  8
0
  6
CONTINUOUS
 62
     7
100
AcDbVertex
100
AcDb2dVertex
 10
7.6569265555
 20
6.5942825958
 30
0.0
  0
VERTEX
  5
663
330
2FC
100
AcDbEntity
  8
0
  6
CONTINUOUS
 62
     7
100
AcDbVertex
100
AcDb2dVertex
 10
7.6614518687
 20
6.5774152394
 30
0.0
  0
VERTEX
  5
664
330
2FC
100
AcDbEntity
  8
0
  6
CONTINUOUS
 62
     7
100
AcDbVertex
100
AcDb2dVertex
 10
7.666926309
 20
6.5604510189
 30
0.0
  0
VERTEX
  5
665
330
2FC
100
AcDbEntity
  8
0
  6
CONTINUOUS
 62
     7
100
AcDbVertex
100
AcDb2dVertex
 10
7.6733165158
 20
6.5434933118
 30
0.0
  0
VERTEX
  5
666
330
2FC
100
AcDbEntity
  8
0
  6
CONTINUOUS
 62
     7
100
AcDbVertex
100
AcDb2dVertex
 10
7.6805835479
 20
6.5266454562
 30
0.0
  0
VERTEX
  5
667
330
2FC
100
AcDbEntity
  8
0
  6
CONTINUOUS
 62
     7
100
AcDbVertex
100
AcDb2dVertex
 10
7.6886831212
 20
6.5100101206
 30
0.0
  0
VERTEX
  5
668
330
2FC
100
AcDbEntity
  8
0
  6
CONTINUOUS
 62
     7
100
AcDbVertex
100
AcDb2dVertex
 10
7.697565878
 20
6.4936886785
 30
0.0
  0
VERTEX
  5
669
330
2FC
100
AcDbEntity
  8
0
  6
CONTINUOUS
 62
     7
100
AcDbVertex
100
AcDb2dVertex
 10
7.7071776878
 20
6.4777805905
 30
0.0
  0
VERTEX
  5
66A
330
2FC
100
AcDbEntity
  8
0
  6
CONTINUOUS
 62
     7
100
AcDbVertex
100
AcDb2dVertex
 10
7.7174599777
 20
6.4623827984
 30
0.0
  0
VERTEX
  5
66B
330
2FC
100
AcDbEntity
  8
0
  6
CONTINUOUS
 62
     7
100
AcDbVertex
100
AcDb2dVertex
 10
7.7283500887
 20
6.4475891342
 30
0.0
  0
VERTEX
  5
66C
330
2FC
100
AcDbEntity
  8
0
  6
CONTINUOUS
 62
     7
100
AcDbVertex
100
AcDb2dVertex
 10
7.739781658
 20
6.4334897485
 30
0.0
  0
VERTEX
  5
66D
330
2FC
100
AcDbEntity
  8
0
  6
CONTINUOUS
 62
     7
100
AcDbVertex
100
AcDb2dVertex
 10
7.7516850232
 20
6.4201705611
 30
0.0
  0
VERTEX
  5
66E
330
2FC
100
AcDbEntity
  8
0
  6
CONTINUOUS
 62
     7
100
AcDbVertex
100
AcDb2dVertex
 10
7.7639876468
 20
6.4077127373
 30
0.0
  0
VERTEX
  5
66F
330
2FC
100
AcDbEntity
  8
0
  6
CONTINUOUS
 62
     7
100
AcDbVertex
100
AcDb2dVertex
 10
7.7766145582
 20
6.3961921933
 30
0.0
  0
VERTEX
  5
670
330
2FC
100
AcDbEntity
  8
0
  6
CONTINUOUS
 62
     7
100
AcDbVertex
100
AcDb2dVertex
 10
7.7894888107
 20
6.3856791339
 30
0.0
  0
VERTEX
  5
671
330
2FC
100
AcDbEntity
  8
0
  6
CONTINUOUS
 62
     7
100
AcDbVertex
100
AcDb2dVertex
 10
7.8025319505
 20
6.3762376242
 30
0.0
  0
VERTEX
  5
672
330
2FC
100
AcDbEntity
  8
0
  6
CONTINUOUS
 62
     7
100
AcDbVertex
100
AcDb2dVertex
 10
7.8156644943
 20
6.3679251994
 30
0.0
  0
VERTEX
  5
673
330
2FC
100
AcDbEntity
  8
0
  6
CONTINUOUS
 62
     7
100
AcDbVertex
100
AcDb2dVertex
 10
7.8288064143
 20
6.3607925143
 30
0.0
  0
VERTEX
  5
674
330
2FC
100
AcDbEntity
  8
0
  6
CONTINUOUS
 62
     7
100
AcDbVertex
100
AcDb2dVertex
 10
7.8418776253
 20
6.3548830346
 30
0.0
  0
VERTEX
  5
675
330
2FC
100
AcDbEntity
  8
0
  6
CONTINUOUS
 62
     7
100
AcDbVertex
100
AcDb2dVertex
 10
7.8547984732
 20
6.3502327718
 30
0.0
  0
VERTEX
  5
676
330
2FC
100
AcDbEntity
  8
0
  6
CONTINUOUS
 62
     7
100
AcDbVertex
100
AcDb2dVertex
 10
7.8674902201
 20
6.3468700641
 30
0.0
  0
VERTEX
  5
677
330
2FC
100
AcDbEntity
  8
0
  6
CONTINUOUS
 62
     7
100
AcDbVertex
100
AcDb2dVertex
 10
7.8798755241
 20
6.3448154032
 30
0.0
  0
VERTEX
  5
678
330
2FC
100
AcDbEntity
  8
0
  6
CONTINUOUS
 62
     7
100
AcDbVertex
100
AcDb2dVertex
 10
7.8804575574
 20
6.3447503043
 30
0.0
  0
SEQEND
  5
679
330
2FC
100
AcDbEntity
  8
0
  6
CONTINUOUS
 62
     7
  0
SPLINE
  5
2FD
330
1F
100
AcDbEntity
  8
0
  6
CONTINUOUS
 62
     7
100
AcDbSpline
210
0.0
220
0.0
230
1.0
 70
     8
 71
     3
 72
    14
 73
    10
 74
     0
 42
0.00000001
 43
0.00000001
 40
0.0
 40
0.0
 40
0.0
 40
0.0
 40
0.0000733520254502
 40
0.2096754310204458
 40
0.3965059849398503
 40
0.5606443262508334
 40
0.7022252258306036
 40
0.8438812636099283
 40
1.0
 40
1.0
 40
1.0
 40
1.0
 10
7.730309703847764
 20
7.384071781493645
 30
0.0
 10
7.730309517797894
 20
7.384070719134371
 30
0.0
 10
7.729777697628336
 20
7.381033984469594
 30
0.0
 10
7.731550969655089
 20
7.375157643654531
 30
0.0
 10
7.735395861198745
 20
7.367558258466114
 30
0.0
 10
7.741001002879079
 20
7.361595773244271
 30
0.0
 10
7.747419822611068
 20
7.357056262110113
 30
0.0
 10
7.754772577784783
 20
7.35355036032584
 30
0.0
 10
7.760544923640476
 20
7.352095647606865
 30
0.0
 10
7.763571275834045
 20
7.35133296409168
 30
0.0
  0
SPLINE
  5
2FE
330
1F
100
AcDbEntity
  8
0
  6
CONTINUOUS
 62
     7
100
AcDbSpline
210
0.0
220
0.0
230
1.0
 70
     8
 71
     3
 72
    12
 73
     8
 74
     0
 42
0.00000001
 43
0.00000001
 40
0.0
 40
0.0
 40
0.0
 40
0.0
 40
0.1569676201720922
 40
0.3284891074005524
 40
0.5261095534399632
 40
0.7499933000924365
 40
1.0
 40
1.0
 40
1.0
 40
1.0
 10
7.824538787740316
 20
7.359313696625629
 30
0.0
 10
7.826796739158838
 20
7.360427219039399
 30
0.0
 10
7.831521996796122
 20
7.362757508454298
 30
0.0
 10
7.837756060235643
 20
7.366854397213498
 30
0.0
 10
7.843297910270381
 20
7.371747534145539
 30
0.0
 10
7.847534256609583
 20
7.377633130032015
 30
0.0
 10
7.848112685903128
 20
7.381848169049096
 30
0.0
 10
7.848417843350084
 20
7.384071864424879
 30
0.0
  0
LINE
  5
2FF
330
1F
100
AcDbEntity
  8
0
  6
CONTINUOUS
 62
     8
100
AcDbLine
 10
7.9731006715
 20
6.9675179185
 30
0.0
 11
7.9731006715
 21
6.8074872901
 31
0.0
  0
LINE
  5
300
330
1F
100
AcDbEntity
  8
0
  6
CONTINUOUS
 62
     8
100
AcDbLine
 10
8.415738381
 20
7.2230472291
 30
0.0
 11
8.415738381
 21
7.0587850925
 31
0.0
  0
LINE
  5
301
330
1F
100
AcDbEntity
  8
0
  6
CONTINUOUS
 62
     8
100
AcDbLine
 10
8.7108301873
 20
7.038910062
 30
0.0
 11
8.7108301873
 21
6.9968703782
 31
0.0
  0
LINE
  5
302
330
1F
100
AcDbEntity
  8
0
  6
CONTINUOUS
 62
     8
100
AcDbLine
 10
7.7269497631
 20
6.6556640627
 30
0.0
 11
7.6905363475
 21
6.6346430454
 31
0.0
  0
ENDSEC
  0
SECTION
  2
OBJECTS
  0
DICTIONARY
  5
C
330
0
100
AcDbDictionary
  3
ACAD_GROUP
350
D
  3
ACAD_LAYOUT
350
1A
  3
ACAD_MLEADERSTYLE
350
305
  3
ACAD_MLINESTYLE
350
17
  3
ACAD_PLOTSETTINGS
350
19
  3
ACAD_SCALELIST
350
6F
  3
ACAD_VISUALSTYLE
350
2A
  3
ACDBVARIABLEDICTIONARY
350
303
1001
ACAD
1000
TREAT_AS_HARD
1070
     0
  0
DICTIONARY
  5
D
102
{ACAD_REACTORS
330
C
102
}
330
C
100
AcDbDictionary
1001
ACAD
1000
TREAT_AS_HARD
1070
     0
  0
DICTIONARY
  5
1A
102
{ACAD_REACTORS
330
C
102
}
330
C
100
AcDbDictionary
1001
ACAD
1000
TREAT_AS_HARD
1070
     0
  0
DICTIONARY
  5
305
102
{ACAD_REACTORS
330
C
102
}
330
C
100
AcDbDictionary
1001
ACAD
1000
TREAT_AS_HARD
1070
     0
  0
DICTIONARY
  5
17
102
{ACAD_REACTORS
330
C
102
}
330
C
100
AcDbDictionary
  3
STANDARD
350
18
1001
ACAD
1000
TREAT_AS_HARD
1070
     0
  0
DICTIONARY
  5
19
102
{ACAD_REACTORS
330
C
102
}
330
C
100
AcDbDictionary
1001
ACAD
1000
TREAT_AS_HARD
1070
     0
  0
DICTIONARY
  5
6F
102
{ACAD_REACTORS
330
C
102
}
330
C
100
AcDbDictionary
  3
A0
350
70
  3
A1
350
71
  3
A2
350
72
  3
A3
350
73
  3
A4
350
74
  3
A5
350
75
  3
A6
350
76
  3
A7
350
77
  3
A8
350
78
  3
A9
350
79
  3
B0
350
7A
  3
B1
350
7B
  3
B2
350
7C
  3
B3
350
7D
  3
B4
350
7E
  3
B5
350
7F
  3
B6
350
80
  3
B7
350
81
  3
B8
350
82
  3
B9
350
83
  3
C0
350
84
  3
C1
350
85
  3
C2
350
86
  3
C3
350
87
  3
C4
350
88
  3
C5
350
89
  3
C6
350
8A
  3
C7
350
8B
  3
C8
350
8C
  3
C9
350
8D
  3
D0
350
8E
  3
D1
350
8F
  3
D2
350
90
1001
ACAD
1000
TREAT_AS_HARD
1070
     0
  0
DICTIONARY
  5
2A
102
{ACAD_REACTORS
330
C
102
}
330
C
100
AcDbDictionary
  3
2DWIREFRAME
350
2F
  3
3D_HIDDEN
350
31
  3
3DWIREFRAME
350
30
  3
BASIC
350
32
  3
BRIGHTEN
350
36
  3
COLORCHANGE
350
3A
  3
CONCEPTUAL
350
34
  3
DIM
350
35
  3
FACEPATTERN
350
39
  3
FLAT
350
2B
  3
FLATWITHEDGES
350
2C
  3
GOURAUD
350
2D
  3
GOURAUDWITHEDGES
350
2E
  3
LINEPATTERN
350
38
  3
REALISTIC
350
33
  3
THICKEN
350
37
1001
ACAD
1000
TREAT_AS_HARD
1070
     0
  0
DICTIONARY
  5
303
102
{ACAD_REACTORS
330
C
102
}
330
C
100
AcDbDictionary
  3
CANNOSCALE
350
306
  3
DIMASSOC
350
307
  3
HIDETEXT
350
308
1001
ACAD
1000
TREAT_AS_HARD
1070
     0
  0
MLINESTYLE
  5
18
102
{ACAD_REACTORS
330
17
102
}
330
17
100
AcDbMlineStyle
  2
Standard
 70
     0
  3

 62
   256
 51
90.0
 52
90.0
 71
     2
 49
0.5
 62
   256
  6
BYLAYER
 49
-0.5
 62
   256
  6
BYLAYER
  0
ACAD_PROXY_OBJECT
  5
70
102
{ACAD_REACTORS
330
6F
102
}
330
6F
100
AcDbZombieObject
 90
      499
 91
      502
 93
       41
310
903313A31580
  0
ACAD_PROXY_OBJECT
  5
71
102
{ACAD_REACTORS
330
6F
102
}
330
6F
100
AcDbZombieObject
 90
      499
 91
      502
 93
      105
310
903313A324000000000000004000
  0
ACAD_PROXY_OBJECT
  5
72
102
{ACAD_REACTORS
330
6F
102
}
330
6F
100
AcDbZombieObject
 90
      499
 91
      502
 93
      105
310
903313A344000000000000104000
  0
ACAD_PROXY_OBJECT
  5
73
102
{ACAD_REACTORS
330
6F
102
}
330
6F
100
AcDbZombieObject
 90
      499
 91
      502
 93
      105
310
903313A354000000000000144000
  0
ACAD_PROXY_OBJECT
  5
74
102
{ACAD_REACTORS
330
6F
102
}
330
6F
100
AcDbZombieObject
 90
      499
 91
      502
 93
      105
310
903313A384000000000000204000
  0
ACAD_PROXY_OBJECT
  5
75
102
{ACAD_REACTORS
330
6F
102
}
330
6F
100
AcDbZombieObject
 90
      499
 91
      502
 93
      113
310
904313A31304000000000000244000
  0
ACAD_PROXY_OBJECT
  5
76
102
{ACAD_REACTORS
330
6F
102
}
330
6F
100
AcDbZombieObject
 90
      499
 91
      502
 93
      113
310
904313A31364000000000000304000
  0
ACAD_PROXY_OBJECT
  5
77
102
{ACAD_REACTORS
330
6F
102
}
330
6F
100
AcDbZombieObject
 90
      499
 91
      502
 93
      113
310
904313A32304000000000000344000
  0
ACAD_PROXY_OBJECT
  5
78
102
{ACAD_REACTORS
330
6F
102
}
330
6F
100
AcDbZombieObject
 90
      499
 91
      502
 93
      113
310
904313A333040000000000003E4000
  0
ACAD_PROXY_OBJECT
  5
79
102
{ACAD_REACTORS
330
6F
102
}
330
6F
100
AcDbZombieObject
 90
      499
 91
      502
 93
      113
310
904313A34304000000000000444000
  0
ACAD_PROXY_OBJECT
  5
7A
102
{ACAD_REACTORS
330
6F
102
}
330
6F
100
AcDbZombieObject
 90
      499
 91
      502
 93
      113
310
904313A35304000000000000494000
  0
ACAD_PROXY_OBJECT
  5
7B
102
{ACAD_REACTORS
330
6F
102
}
330
6F
100
AcDbZombieObject
 90
      499
 91
      502
 93
      121
310
905313A3130304000000000000594000
  0
ACAD_PROXY_OBJECT
  5
7C
102
{ACAD_REACTORS
330
6F
102
}
330
6F
100
AcDbZombieObject
 90
      499
 91
      502
 93
      105
310
903323A310000000000000010100
  0
ACAD_PROXY_OBJECT
  5
7D
102
{ACAD_REACTORS
330
6F
102
}
330
6F
100
AcDbZombieObject
 90
      499
 91
      502
 93
      105
310
903343A310000000000000410100
  0
ACAD_PROXY_OBJECT
  5
7E
102
{ACAD_REACTORS
330
6F
102
}
330
6F
100
AcDbZombieObject
 90
      499
 91
      502
 93
      105
310
903383A310000000000000810100
  0
ACAD_PROXY_OBJECT
  5
7F
102
{ACAD_REACTORS
330
6F
102
}
330
6F
100
AcDbZombieObject
 90
      499
 91
      502
 93
      113
310
90431303A310000000000000910100
  0
ACAD_PROXY_OBJECT
  5
80
102
{ACAD_REACTORS
330
6F
102
}
330
6F
100
AcDbZombieObject
 90
      499
 91
      502
 93
      121
310
9053130303A310000000000001650100
  0
ACAD_PROXY_OBJECT
  5
81
102
{ACAD_REACTORS
330
6F
102
}
330
6F
100
AcDbZombieObject
 90
      499
 91
      502
 93
      257
310
90E312F31323822203D2031272D3022000000000000200FC000000000000284000
  0
ACAD_PROXY_OBJECT
  5
82
102
{ACAD_REACTORS
330
6F
102
}
330
6F
100
AcDbZombieObject
 90
      499
 91
      502
 93
      249
310
90D312F363422203D2031272D3022000000000000240FC000000000000284000
  0
ACAD_PROXY_OBJECT
  5
83
102
{ACAD_REACTORS
330
6F
102
}
330
6F
100
AcDbZombieObject
 90
      499
 91
      502
 93
      249
310
90D312F333222203D2031272D3022000000000000280FC000000000000284000
  0
ACAD_PROXY_OBJECT
  5
84
102
{ACAD_REACTORS
330
6F
102
}
330
6F
100
AcDbZombieObject
 90
      499
 91
      502
 93
      249
310
90D312F313622203D2031272D30220000000000002C0FC000000000000284000
  0
ACAD_PROXY_OBJECT
  5
85
102
{ACAD_REACTORS
330
6F
102
}
330
6F
100
AcDbZombieObject
 90
      499
 91
      502
 93
      249
310
90D332F333222203D2031272D30220000000000002E0FC000000000000284000
  0
ACAD_PROXY_OBJECT
  5
86
102
{ACAD_REACTORS
330
6F
102
}
330
6F
100
AcDbZombieObject
 90
      499
 91
      502
 93
      241
310
90C312F3822203D2031272D3022000000000000300FC000000000000284000
  0
ACAD_PROXY_OBJECT
  5
87
102
{ACAD_REACTORS
330
6F
102
}
330
6F
100
AcDbZombieObject
 90
      499
 91
      502
 93
      249
310
90D332F313622203D2031272D3022000000000000320FC000000000000284000
  0
ACAD_PROXY_OBJECT
  5
88
102
{ACAD_REACTORS
330
6F
102
}
330
6F
100
AcDbZombieObject
 90
      499
 91
      502
 93
      241
310
90C312F3422203D2031272D3022000000000000340FC000000000000284000
  0
ACAD_PROXY_OBJECT
  5
89
102
{ACAD_REACTORS
330
6F
102
}
330
6F
100
AcDbZombieObject
 90
      499
 91
      502
 93
      241
310
90C332F3822203D2031272D3022000000000000360FC000000000000284000
  0
ACAD_PROXY_OBJECT
  5
8A
102
{ACAD_REACTORS
330
6F
102
}
330
6F
100
AcDbZombieObject
 90
      499
 91
      502
 93
      241
310
90C312F3222203D2031272D3022000000000000380FC000000000000284000
  0
ACAD_PROXY_OBJECT
  5
8B
102
{ACAD_REACTORS
330
6F
102
}
330
6F
100
AcDbZombieObject
 90
      499
 91
      502
 93
      241
310
90C332F3422203D2031272D30220000000000003A0FC000000000000284000
  0
ACAD_PROXY_OBJECT
  5
8C
102
{ACAD_REACTORS
330
6F
102
}
330
6F
100
AcDbZombieObject
 90
      499
 91
      502
 93
      161
310
90A3122203D2031272D30224000000000000284000
  0
ACAD_PROXY_OBJECT
  5
8D
102
{ACAD_REACTORS
330
6F
102
}
330
6F
100
AcDbZombieObject
 90
      499
 91
      502
 93
      257
310
90E312D312F3222203D2031272D30220000000000003E0FC000000000000284000
  0
ACAD_PROXY_OBJECT
  5
8E
102
{ACAD_REACTORS
330
6F
102
}
330
6F
100
AcDbZombieObject
 90
      499
 91
      502
 93
      225
310
90A3322203D2031272D302200000000000002100000000000000284000
  0
ACAD_PROXY_OBJECT
  5
8F
102
{ACAD_REACTORS
330
6F
102
}
330
6F
100
AcDbZombieObject
 90
      499
 91
      502
 93
      225
310
90A3622203D2031272D302200000000000006100000000000000284000
  0
ACAD_PROXY_OBJECT
  5
90
102
{ACAD_REACTORS
330
6F
102
}
330
6F
100
AcDbZombieObject
 90
      499
 91
      502
 93
      249
310
90D31272D3022203D2031272D30220000000000000A100000000000000284000
  0
ACAD_PROXY_OBJECT
  5
2F
102
{ACAD_REACTORS
330
2A
102
}
330
2A
100
AcDbZombieObject
 90
      499
 91
      501
 93
      436
310
42CC9915DA5C99599C985B595049028333333333333E3BF0000000000000FB0107901411070040501600405405064090741402480A0340
1001
ACAD
1000
AcDbSavedByObjectVersion
1070
     0
  0
ACAD_PROXY_OBJECT
  5
31
102
{ACAD_REACTORS
330
2A
102
}
330
2A
100
AcDbZombieObject
 90
      499
 91
      501
 93
      500
310
424CD108121A5919195B90640502408333333333333E3BF0000000000000FB01079024090700405020000000000001110200405405064090740C02480A0340
1001
ACAD
1000
AcDbSavedByObjectVersion
1070
     0
  0
ACAD_PROXY_OBJECT
  5
30
102
{ACAD_REACTORS
330
2A
102
}
330
2A
100
AcDbZombieObject
 90
      499
 91
      501
 93
      436
310
42CCD915DA5C99599C985B595059028333333333333E3BF0000000000000FB0107901411070040501600405405064090741402480A0340
1001
ACAD
1000
AcDbSavedByObjectVersion
1070
     0
  0
ACAD_PROXY_OBJECT
  5
32
102
{ACAD_REACTORS
330
2A
102
}
330
2A
100
AcDbZombieObject
 90
      499
 91
      501
 93
      388
310
4150985CDA58D07406404333333333333E3BF0000000000000FB0107A41107004050150841D405064090741402480A0350
1001
ACAD
1000
AcDbSavedByObjectVersion
1070
     0
  0
ACAD_PROXY_OBJECT
  5
36
102
{ACAD_REACTORS
330
2A
102
}
330
2A
100
AcDbZombieObject
 90
      499
 91
      501
 93
      428
310
42109C9A59DA1D195B90C409028333333333333E3BF0000000000000FB010790141107004050150841D405064090741402480A029950
1001
ACAD
1000
AcDbSavedByObjectVersion
1070
     0
  0
ACAD_PROXY_OBJECT
  5
3A
102
{ACAD_REACTORS
330
2A
102
}
330
2A
100
AcDbZombieObject
 90
      499
 91
      501
 93
      452
310
42D0DBDB1BDC90DA185B99D95104090240C333333333333E3BF0000000000000FB0108901411070040501508421405064090741402480A0350
1001
ACAD
1000
AcDbSavedByObjectVersion
1070
     0
  0
ACAD_PROXY_OBJECT
  5
34
102
{ACAD_REACTORS
330
2A
102
}
330
2A
100
AcDbZombieObject
 90
      499
 91
      501
 93
      500
310
4290DBDB98D95C1D1D585B10940D028333333333333E3BF0000000000000FB0107902409070040501000000000000111010841D405064090740C02480A0340
1001
ACAD
1000
AcDbSavedByObjectVersion
1070
     0
  0
ACAD_PROXY_OBJECT
  5
35
102
{ACAD_REACTORS
330
2A
102
}
330
2A
100
AcDbZombieObject
 90
      499
 91
      501
 93
      412
310
40D11A5B50B409028333333333333E3BF0000000000000FB010790141107004050150841D405064090741402480A02677FFFFFD0
1001
ACAD
1000
AcDbSavedByObjectVersion
1070
     0
  0
ACAD_PROXY_OBJECT
  5
39
102
{ACAD_REACTORS
330
2A
102
}
330
2A
100
AcDbZombieObject
 90
      499
 91
      501
 93
      444
310
42D19858D95C185D1D195C9B90F409028333333333333E3BF0000000000000FB010790141107004050150841D405064090741402480A0350
1001
ACAD
1000
AcDbSavedByObjectVersion
1070
     0
  0
ACAD_PROXY_OBJECT
  5
2B
102
{ACAD_REACTORS
330
2A
102
}
330
2A
100
AcDbZombieObject
 90
      499
 91
      501
 93
      388
310
41119B185D240901404333333333333E3BF0000000000000F9010740A41107004050150841D405064090741402480A1B50
1001
ACAD
1000
AcDbSavedByObjectVersion
1070
     0
  0
ACAD_PROXY_OBJECT
  5
2C
102
{ACAD_REACTORS
330
2A
102
}
330
2A
100
AcDbZombieObject
 90
      499
 91
      501
 93
      476
310
43519B185D15DA5D1A115919D95CD0140901404333333333333E3BF0000000000000F9010740901411070040501600405405064090741402480A1B50
1001
ACAD
1000
AcDbSavedByObjectVersion
1070
     0
  0
ACAD_PROXY_OBJECT
  5
2D
102
{ACAD_REACTORS
330
2A
102
}
330
2A
100
AcDbZombieObject
 90
      499
 91
      501
 93
      412
310
41D1DBDD5C985D5910240902404333333333333E3BF0000000000000F9010740A411070040501641D405064090741402480A1B50
1001
ACAD
1000
AcDbSavedByObjectVersion
1070
     0
  0
ACAD_PROXY_OBJECT
  5
2E
102
{ACAD_REACTORS
330
2A
102
}
330
2A
100
AcDbZombieObject
 90
      499
 91
      501
 93
      500
310
4411DBDD5C985D5915DA5D1A115919D95CD0340902404333333333333E3BF0000000000000F9010740901411070040501600405405064090741402480A1B50
1001
ACAD
1000
AcDbSavedByObjectVersion
1070
     0
  0
ACAD_PROXY_OBJECT
  5
38
102
{ACAD_REACTORS
330
2A
102
}
330
2A
100
AcDbZombieObject
 90
      499
 91
      501
 93
      444
310
42D31A5B995C185D1D195C9B90E409028333333333333E3BF0000000000000FB010790141107004050750841D405064090741402483A0350
1001
ACAD
1000
AcDbSavedByObjectVersion
1070
     0
  0
ACAD_PROXY_OBJECT
  5
33
102
{ACAD_REACTORS
330
2A
102
}
330
2A
100
AcDbZombieObject
 90
      499
 91
      501
 93
      420
310
425499585B1A5CDD1A58D08409028333333333333E3BF0000000000000FB01079019070040501508421405064090741402480A1B40
1001
ACAD
1000
AcDbSavedByObjectVersion
1070
     0
  0
ACAD_PROXY_OBJECT
  5
37
102
{ACAD_REACTORS
330
2A
102
}
330
2A
100
AcDbZombieObject
 90
      499
 91
      501
 93
      412
310
41D51A1A58DAD95B90D409028333333333333E3BF0000000000000FB010790141107004050150C41D405064090741402480A0350
1001
ACAD
1000
AcDbSavedByObjectVersion
1070
     0
  0
DICTIONARYVAR
  5
306
102
{ACAD_REACTORS
330
303
102
}
330
303
100
DictionaryVariables
280
     0
  1
1:1
  0
DICTIONARYVAR
  5
307
102
{ACAD_REACTORS
330
303
102
}
330
303
100
DictionaryVariables
280
     0
  1
2
  0
DICTIONARYVAR
  5
308
102
{ACAD_REACTORS
330
303
102
}
330
303
100
DictionaryVariables
280
     0
  1
1
  0
ENDSEC
  0
EOF
