  0
SECTION
  2
HEADER
  9
$ACADVER
  1
AC1012
  9
$DWGCODEPAGE
  3
ansi_1252
  9
$INSBASE
 10
0.0
 20
0.0
 30
0.0
  9
$EXTMIN
 10
0.0
 20
0.0
 30
0.0
  9
$EXTMAX
 10
11.0
 20
8.5
 30
0.0
  9
$LIMMIN
 10
0.0
 20
0.0
  9
$LIMMAX
 10
11.0
 20
8.5
  9
$ORTHOMODE
 70
     0
  9
$REGENMODE
 70
     1
  9
$FILLMODE
 70
     1
  9
$QTEXTMODE
 70
     0
  9
$MIRRTEXT
 70
     1
  9
$DRAGMODE
 70
     2
  9
$LTSCALE
 40
1.0
  9
$OSMODE
 70
    37
  9
$ATTMODE
 70
     1
  9
$TEXTSIZE
 40
0.125
  9
$TRACEWID
 40
0.05
  9
$TEXTSTYLE
  7
STANDARD
  9
$CLAYER
  8
0
  9
$CELTYPE
  6
BYLAYER
  9
$CECOLOR
 62
   256
  9
$CELTSCALE
 40
1.0
  9
$DELOBJ
 70
     1
  9
$DISPSILH
 70
     0
  9
$DIMSCALE
 40
1.0
  9
$DIMASZ
 40
0.13
  9
$DIMEXO
 40
0.05
  9
$DIMDLI
 40
0.38
  9
$DIMRND
 40
0.0
  9
$DIMDLE
 40
0.0
  9
$DIMEXE
 40
0.125
  9
$DIMTP
 40
0.0
  9
$DIMTM
 40
0.0
  9
$DIMTXT
 40
0.125
  9
$DIMCEN
 40
0.09
  9
$DIMTSZ
 40
0.0
  9
$DIMTOL
 70
     0
  9
$DIMLIM
 70
     0
  9
$DIMTIH
 70
     1
  9
$DIMTOH
 70
     1
  9
$DIMSE1
 70
     0
  9
$DIMSE2
 70
     0
  9
$DIMTAD
 70
     0
  9
$DIMZIN
 70
     0
  9
$DIMBLK
  1

  9
$DIMASO
 70
     1
  9
$DIMSHO
 70
     1
  9
$DIMPOST
  1

  9
$DIMAPOST
  1

  9
$DIMALT
 70
     0
  9
$DIMALTD
 70
     2
  9
$DIMALTF
 40
25.4
  9
$DIMLFAC
 40
0.5
  9
$DIMTOFL
 70
     0
  9
$DIMTVP
 40
0.0
  9
$DIMTIX
 70
     0
  9
$DIMSOXD
 70
     0
  9
$DIMSAH
 70
     0
  9
$DIMBLK1
  1

  9
$DIMBLK2
  1

  9
$DIMSTYLE
  2
STANDARD
  9
$DIMCLRD
 70
     0
  9
$DIMCLRE
 70
     0
  9
$DIMCLRT
 70
     0
  9
$DIMTFAC
 40
1.0
  9
$DIMGAP
 40
0.06
  9
$DIMJUST
 70
     0
  9
$DIMSD1
 70
     0
  9
$DIMSD2
 70
     0
  9
$DIMTOLJ
 70
     1
  9
$DIMTZIN
 70
     0
  9
$DIMALTZ
 70
     0
  9
$DIMALTTZ
 70
     0
  9
$DIMFIT
 70
     3
  9
$DIMUPT
 70
     0
  9
$DIMUNIT
 70
     2
  9
$DIMDEC
 70
     3
  9
$DIMTDEC
 70
     3
  9
$DIMALTU
 70
     2
  9
$DIMALTTD
 70
     2
  9
$DIMTXSTY
  7
STANDARD
  9
$DIMAUNIT
 70
     0
  9
$LUNITS
 70
     2
  9
$LUPREC
 70
     2
  9
$SKETCHINC
 40
0.1
  9
$FILLETRAD
 40
0.5
  9
$AUNITS
 70
     0
  9
$AUPREC
 70
     2
  9
$MENU
  1
.
  9
$ELEVATION
 40
0.0
  9
$PELEVATION
 40
0.0
  9
$THICKNESS
 40
0.0
  9
$LIMCHECK
 70
     0
  9
$CHAMFERA
 40
0.5
  9
$CHAMFERB
 40
0.5
  9
$CHAMFERC
 40
1.0
  9
$CHAMFERD
 40
0.0
  9
$SKPOLY
 70
     0
  9
$TDCREATE
 40
2455783.993467639
  9
$TDUPDATE
 40
2455783.99346765
  9
$TDINDWG
 40
0.0000000116
  9
$TDUSRTIMER
 40
0.0000000116
  9
$USRTIMER
 70
     1
  9
$ANGBASE
 50
0.0
  9
$ANGDIR
 70
     0
  9
$PDMODE
 70
     0
  9
$PDSIZE
 40
-1.0
  9
$PLINEWID
 40
0.0
  9
$COORDS
 70
     1
  9
$SPLFRAME
 70
     0
  9
$SPLINETYPE
 70
     6
  9
$SPLINESEGS
 70
     8
  9
$ATTDIA
 70
     0
  9
$ATTREQ
 70
     1
  9
$HANDLING
 70
     1
  9
$HANDSEED
  5
44E
  9
$SURFTAB1
 70
     6
  9
$SURFTAB2
 70
     6
  9
$SURFTYPE
 70
     6
  9
$SURFU
 70
     6
  9
$SURFV
 70
     6
  9
$UCSNAME
  2

  9
$UCSORG
 10
0.0
 20
0.0
 30
0.0
  9
$UCSXDIR
 10
1.0
 20
0.0
 30
0.0
  9
$UCSYDIR
 10
0.0
 20
1.0
 30
0.0
  9
$PUCSNAME
  2

  9
$PUCSORG
 10
0.0
 20
0.0
 30
0.0
  9
$PUCSXDIR
 10
1.0
 20
0.0
 30
0.0
  9
$PUCSYDIR
 10
0.0
 20
1.0
 30
0.0
  9
$USERI1
 70
     0
  9
$USERI2
 70
     0
  9
$USERI3
 70
     0
  9
$USERI4
 70
     0
  9
$USERI5
 70
     0
  9
$USERR1
 40
0.0
  9
$USERR2
 40
0.0
  9
$USERR3
 40
0.0
  9
$USERR4
 40
0.0
  9
$USERR5
 40
0.0
  9
$WORLDVIEW
 70
     1
  9
$SHADEDGE
 70
     3
  9
$SHADEDIF
 70
    70
  9
$TILEMODE
 70
     1
  9
$MAXACTVP
 70
    64
  9
$PINSBASE
 10
0.0
 20
0.0
 30
0.0
  9
$PLIMCHECK
 70
     0
  9
$PEXTMIN
 10
1.0000000000E+20
 20
1.0000000000E+20
 30
1.0000000000E+20
  9
$PEXTMAX
 10
-1.0000000000E+20
 20
-1.0000000000E+20
 30
-1.0000000000E+20
  9
$PLIMMIN
 10
0.0
 20
0.0
  9
$PLIMMAX
 10
12.0
 20
9.0
  9
$UNITMODE
 70
     0
  9
$VISRETAIN
 70
     1
  9
$PLINEGEN
 70
     0
  9
$PSLTSCALE
 70
     1
  9
$TREEDEPTH
 70
  3020
  9
$PICKSTYLE
 70
     1
  9
$CMLSTYLE
  2
STANDARD
  9
$CMLJUST
 70
     0
  9
$CMLSCALE
 40
1.0
  9
$SAVEIMAGES
 70
     1
  0
ENDSEC
  0
SECTION
  2
CLASSES
  0
CLASS
  1
ACDBDICTIONARYWDFLT
  2
AcDbDictionaryWithDefault
  3
ObjectDBX Classes
 90
    32768
280
     0
281
     0
  0
CLASS
  1
VISUALSTYLE
  2
AcDbVisualStyle
  3
ObjectDBX Classes
 90
     4095
280
     0
281
     0
  0
CLASS
  1
SCALE
  2
AcDbScale
  3
ObjectDBX Classes
 90
     1153
280
     0
281
     0
  0
CLASS
  1
DICTIONARYVAR
  2
AcDbDictionaryVar
  3
ObjectDBX Classes
 90
        0
280
     0
281
     0
  0
CLASS
  1
XRECORD
  2
AcDbXrecord
  3
AutoCAD 2000
 90
    32768
280
     0
281
     0
  0
CLASS
  1
LWPOLYLINE
  2
AcDbPolyline
  3
AutoCAD 2000
 90
    32768
280
     0
281
     1
  0
CLASS
  1
HATCH
  2
AcDbHatch
  3
AutoCAD 2000
 90
    32768
280
     0
281
     1
  0
CLASS
  1
ACDBPLACEHOLDER
  2
AcDbPlaceHolder
  3
ObjectDBX Classes
 90
        0
280
     0
281
     0
  0
CLASS
  1
LAYOUT
  2
AcDbLayout
  3
ObjectDBX Classes
 90
        0
280
     0
281
     0
  0
ENDSEC
  0
SECTION
  2
TABLES
  0
TABLE
  2
VPORT
  5
8
330
0
100
AcDbSymbolTable
 70
     1
  0
VPORT
  5
29
330
8
100
AcDbSymbolTableRecord
100
AcDbViewportTableRecord
  2
*ACTIVE
 70
     0
 10
0.0
 20
0.0
 11
1.0
 21
1.0
 12
5.5
 22
4.25
 13
0.0
 23
0.0
 14
0.5
 24
0.5
 15
0.5
 25
0.5
 16
0.0
 26
0.0
 36
1.0
 17
0.0
 27
0.0
 37
0.0
 40
8.5
 41
1.2941176471
 42
50.0
 43
0.0
 44
0.0
 50
0.0
 51
0.0
 71
     0
 72
  2000
 73
     1
 74
     3
 75
     0
 76
     0
 77
     0
 78
     0
  0
ENDTAB
  0
TABLE
  2
LTYPE
  5
5
330
0
100
AcDbSymbolTable
 70
     6
  0
LTYPE
  5
14
330
5
100
AcDbSymbolTableRecord
100
AcDbLinetypeTableRecord
  2
BYBLOCK
 70
     0
  3

 72
    65
 73
     0
 40
0.0
  0
LTYPE
  5
15
330
5
100
AcDbSymbolTableRecord
100
AcDbLinetypeTableRecord
  2
BYLAYER
 70
     0
  3

 72
    65
 73
     0
 40
0.0
  0
LTYPE
  5
16
330
5
100
AcDbSymbolTableRecord
100
AcDbLinetypeTableRecord
  2
CONTINUOUS
 70
     0
  3
Solid line
 72
    65
 73
     0
 40
0.0
  0
LTYPE
  5
3B
330
5
100
AcDbSymbolTableRecord
100
AcDbLinetypeTableRecord
  2
HIDDEN
 70
     0
  3
Hidden __ __ __ __ __ __ __ __ __ __ __ __ __ __
 72
    65
 73
     2
 40
0.075
 49
0.05
 74
     0
 49
-0.025
 74
     0
  0
LTYPE
  5
3C
330
5
100
AcDbSymbolTableRecord
100
AcDbLinetypeTableRecord
  2
PHANTOM
 70
     0
  3
Phantom ______  __  __  ______  __  __  ______
 72
    65
 73
     6
 40
0.5
 49
0.25
 74
     0
 49
-0.05
 74
     0
 49
0.05
 74
     0
 49
-0.05
 74
     0
 49
0.05
 74
     0
 49
-0.05
 74
     0
  0
LTYPE
  5
3D
330
5
100
AcDbSymbolTableRecord
100
AcDbLinetypeTableRecord
  2
CENTER
 70
     0
  3
Center ____ _ ____ _ ____ _ ____ _ ____ _ ____
 72
    65
 73
     4
 40
0.4
 49
0.25
 74
     0
 49
-0.05
 74
     0
 49
0.05
 74
     0
 49
-0.05
 74
     0
  0
LTYPE
  5
3E
330
5
100
AcDbSymbolTableRecord
100
AcDbLinetypeTableRecord
  2
CENTERX2
 70
     0
  3
Center (2x) ________  __  ________  __  _____
 72
    65
 73
     4
 40
0.8
 49
0.5
 74
     0
 49
-0.1
 74
     0
 49
0.1
 74
     0
 49
-0.1
 74
     0
  0
LTYPE
  5
3F
330
5
100
AcDbSymbolTableRecord
100
AcDbLinetypeTableRecord
  2
DOT2
 70
     0
  3
Dot (.5x) ........................................
 72
    65
 73
     2
 40
0.025
 49
0.0
 74
     0
 49
-0.025
 74
     0
  0
ENDTAB
  0
TABLE
  2
LAYER
  5
2
330
0
100
AcDbSymbolTable
 70
     2
  0
LAYER
  5
10
330
2
100
AcDbSymbolTableRecord
100
AcDbLayerTableRecord
  2
0
 70
     0
 62
     7
  6
CONTINUOUS
  0
LAYER
  5
40
330
2
100
AcDbSymbolTableRecord
100
AcDbLayerTableRecord
  2
FORMAT
 70
     0
 62
     7
  6
CONTINUOUS
  0
ENDTAB
  0
TABLE
  2
STYLE
  5
3
330
0
100
AcDbSymbolTable
 70
     4
  0
STYLE
  5
11
330
3
100
AcDbSymbolTableRecord
100
AcDbTextStyleTableRecord
  2
STANDARD
 70
     0
 40
0.0
 41
1.0
 50
0.0
 71
     0
 42
0.2
  3
txt
  4

  0
STYLE
  5
6E
330
3
100
AcDbSymbolTableRecord
100
AcDbTextStyleTableRecord
  2
SLDTEXTSTYLE0
 70
     0
 40
0.0
 41
0.75
 50
0.0
 71
     0
 42
0.2
  3
TXT
  4

  0
STYLE
  5
93
330
3
100
AcDbSymbolTableRecord
100
AcDbTextStyleTableRecord
  2
SLDTEXTSTYLE1
 70
     0
 40
0.0
 41
0.6875
 50
0.0
 71
     0
 42
0.2
  3
TXT
  4

  0
STYLE
  5
99
330
3
100
AcDbSymbolTableRecord
100
AcDbTextStyleTableRecord
  2
SLDTEXTSTYLE2
 70
     0
 40
0.0
 41
0.6944444444
 50
0.0
 71
     0
 42
0.2
  3
TXT
  4

  0
ENDTAB
  0
TABLE
  2
VIEW
  5
6
330
0
100
AcDbSymbolTable
 70
     0
  0
ENDTAB
  0
TABLE
  2
UCS
  5
7
330
0
100
AcDbSymbolTable
 70
     0
  0
ENDTAB
  0
TABLE
  2
APPID
  5
9
330
0
100
AcDbSymbolTable
 70
     1
  0
APPID
  5
12
330
9
100
AcDbSymbolTableRecord
100
AcDbRegAppTableRecord
  2
ACAD
 70
     0
  0
ENDTAB
  0
TABLE
  2
DIMSTYLE
  5
A
330
0
100
AcDbSymbolTable
 70
     1
  0
DIMSTYLE
105
27
330
A
100
AcDbSymbolTableRecord
100
AcDbDimStyleTableRecord
  2
STANDARD
 70
     0
  3

  4

  5

  6

  7

 40
1.0
 41
0.18
 42
0.0625
 43
0.38
 44
0.18
 45
0.0
 46
0.0
 47
0.0
 48
0.0
140
0.18
141
0.09
142
0.0
143
25.4
144
1.0
145
0.0
146
1.0
147
0.09
 71
     0
 72
     0
 73
     1
 74
     1
 75
     0
 76
     0
 77
     0
 78
     0
170
     0
171
     2
172
     0
173
     0
174
     0
175
     0
176
     0
177
     0
178
     0
270
     2
271
     4
272
     4
273
     2
274
     2
340
11
275
     0
280
     0
281
     0
282
     0
283
     1
284
     0
285
     0
286
     0
287
     3
288
     0
  0
ENDTAB
  0
TABLE
  2
BLOCK_RECORD
  5
1
330
0
100
AcDbSymbolTable
 70
     4
  0
BLOCK_RECORD
  5
1F
330
1
100
AcDbSymbolTableRecord
100
AcDbBlockTableRecord
  2
*MODEL_SPACE
  0
BLOCK_RECORD
  5
1B
330
1
100
AcDbSymbolTableRecord
100
AcDbBlockTableRecord
  2
*PAPER_SPACE
  0
BLOCK_RECORD
  5
A8
330
1
100
AcDbSymbolTableRecord
100
AcDbBlockTableRecord
  2
SW_NOTE_0
  0
BLOCK_RECORD
  5
AE
330
1
100
AcDbSymbolTableRecord
100
AcDbBlockTableRecord
  2
SW_NOTE_1
  0
BLOCK_RECORD
  5
C2
330
1
100
AcDbSymbolTableRecord
100
AcDbBlockTableRecord
  2
SW_NOTE_2
  0
ENDTAB
  0
ENDSEC
  0
SECTION
  2
BLOCKS
  0
BLOCK
  5
20
330
1F
100
AcDbEntity
  8
0
100
AcDbBlockBegin
  2
*MODEL_SPACE
 70
     0
 10
0.0
 20
0.0
 30
0.0
  3
*MODEL_SPACE
  1

  0
ENDBLK
  5
21
330
1F
100
AcDbEntity
  8
0
100
AcDbBlockEnd
  0
BLOCK
  5
1C
330
1B
100
AcDbEntity
 67
     1
  8
0
100
AcDbBlockBegin
  2
*PAPER_SPACE
 70
     0
 10
0.0
 20
0.0
 30
0.0
  3
*PAPER_SPACE
  1

  0
ENDBLK
  5
1D
330
1B
100
AcDbEntity
 67
     1
  8
0
100
AcDbBlockEnd
  0
BLOCK
  5
A9
330
A8
100
AcDbEntity
  8
0
100
AcDbBlockBegin
  2
SW_NOTE_0
 70
     0
 10
0.0
 20
0.0
 30
0.0
  3
SW_NOTE_0
  1

  0
MTEXT
  5
AB
330
A8
100
AcDbEntity
  8
0
  6
CONTINUOUS
 62
     0
100
AcDbMText
 10
0.0
 20
0.0773440644
 30
0.0
 40
0.06
 41
0.0
 71
     1
 72
     1
  1
INTERPRET GEOMETRIC
  7
SLDTEXTSTYLE0
  0
MTEXT
  5
AC
330
A8
100
AcDbEntity
  8
0
  6
CONTINUOUS
 62
     0
100
AcDbMText
 10
0.0
 20
-0.0220260102
 30
0.0
 40
0.06
 41
0.0
 71
     1
 72
     1
  1
TOLERANCING PER:
  7
SLDTEXTSTYLE0
  0
ENDBLK
  5
AA
330
A8
100
AcDbEntity
  8
0
100
AcDbBlockEnd
  0
BLOCK
  5
AF
330
AE
100
AcDbEntity
  8
0
100
AcDbBlockBegin
  2
SW_NOTE_1
 70
     0
 10
0.0
 20
0.0
 30
0.0
  3
SW_NOTE_1
  1

  0
MTEXT
  5
B1
330
AE
100
AcDbEntity
  8
0
  6
CONTINUOUS
 62
     0
100
AcDbMText
 10
0.0
 20
0.0837894031
 30
0.0
 40
0.065
 41
0.0
 71
     1
 72
     1
  1
DIMENSIONS ARE IN INCHES
  7
SLDTEXTSTYLE0
  0
MTEXT
  5
B2
330
AE
100
AcDbEntity
  8
0
  6
CONTINUOUS
 62
     0
100
AcDbMText
 10
0.0
 20
-0.0205806729
 30
0.0
 40
0.065
 41
0.0
 71
     1
 72
     1
  1
TOLERANCES:
  7
SLDTEXTSTYLE0
  0
MTEXT
  5
B3
330
AE
100
AcDbEntity
  8
0
  6
CONTINUOUS
 62
     0
100
AcDbMText
 10
0.0
 20
-0.1249507489
 30
0.0
 40
0.065
 41
0.0
 71
     1
 72
     1
  1
FRACTIONAL
  7
SLDTEXTSTYLE0
  0
MTEXT
  5
B4
330
AE
100
AcDbEntity
  8
0
  6
CONTINUOUS
 62
     0
100
AcDbMText
 10
0.5175850875
 20
-0.1249507489
 30
0.0
 40
0.065
 41
0.0
 71
     1
 72
     1
  1
%%p
  7
SLDTEXTSTYLE0
  0
MTEXT
  5
B5
330
AE
100
AcDbEntity
  8
0
  6
CONTINUOUS
 62
     0
100
AcDbMText
 10
0.0
 20
-0.2293208248
 30
0.0
 40
0.065
 41
0.0
 71
     1
 72
     1
  1
ANGULAR: MACH
  7
SLDTEXTSTYLE0
  0
MTEXT
  5
B6
330
AE
100
AcDbEntity
  8
0
  6
CONTINUOUS
 62
     0
100
AcDbMText
 10
0.7233732769
 20
-0.2293208248
 30
0.0
 40
0.065
 41
0.0
 71
     1
 72
     1
  1
%%p
  7
SLDTEXTSTYLE0
  0
MTEXT
  5
B7
330
AE
100
AcDbEntity
  8
0
  6
CONTINUOUS
 62
     0
100
AcDbMText
 10
0.7852857683
 20
-0.2293208248
 30
0.0
 40
0.065
 41
0.0
 71
     1
 72
     1
  1
     BEND 
  7
SLDTEXTSTYLE0
  0
MTEXT
  5
B8
330
AE
100
AcDbEntity
  8
0
  6
CONTINUOUS
 62
     0
100
AcDbMText
 10
1.14784136
 20
-0.2293208248
 30
0.0
 40
0.065
 41
0.0
 71
     1
 72
     1
  1
%%p
  7
SLDTEXTSTYLE0
  0
MTEXT
  5
B9
330
AE
100
AcDbEntity
  8
0
  6
CONTINUOUS
 62
     0
100
AcDbMText
 10
0.0
 20
-0.3336909008
 30
0.0
 40
0.065
 41
0.0
 71
     1
 72
     1
  1
TWO PLACE DECIMAL    
  7
SLDTEXTSTYLE0
  0
MTEXT
  5
BA
330
AE
100
AcDbEntity
  8
0
  6
CONTINUOUS
 62
     0
100
AcDbMText
 10
0.9794349188
 20
-0.3336909008
 30
0.0
 40
0.065
 41
0.0
 71
     1
 72
     1
  1
%%p
  7
SLDTEXTSTYLE0
  0
MTEXT
  5
BB
330
AE
100
AcDbEntity
  8
0
  6
CONTINUOUS
 62
     0
100
AcDbMText
 10
0.0
 20
-0.4380609768
 30
0.0
 40
0.065
 41
0.0
 71
     1
 72
     1
  1
THREE PLACE DECIMAL  
  7
SLDTEXTSTYLE0
  0
MTEXT
  5
BC
330
AE
100
AcDbEntity
  8
0
  6
CONTINUOUS
 62
     0
100
AcDbMText
 10
0.9738038639
 20
-0.4380609768
 30
0.0
 40
0.065
 41
0.0
 71
     1
 72
     1
  1
%%p
  7
SLDTEXTSTYLE0
  0
ENDBLK
  5
B0
330
AE
100
AcDbEntity
  8
0
100
AcDbBlockEnd
  0
BLOCK
  5
C3
330
C2
100
AcDbEntity
  8
0
100
AcDbBlockBegin
  2
SW_NOTE_2
 70
     0
 10
0.0
 20
0.0
 30
0.0
  3
SW_NOTE_2
  1

  0
MTEXT
  5
C5
330
C2
100
AcDbEntity
  8
0
  6
CONTINUOUS
 62
     0
100
AcDbMText
 10
0.0
 20
0.0773440644
 30
0.0
 40
0.06
 41
0.0
 71
     1
 72
     1
  1
THE INFORMATION CONTAINED IN THIS
  7
SLDTEXTSTYLE0
  0
MTEXT
  5
C6
330
C2
100
AcDbEntity
  8
0
  6
CONTINUOUS
 62
     0
100
AcDbMText
 10
0.0
 20
-0.0220260102
 30
0.0
 40
0.06
 41
0.0
 71
     1
 72
     1
  1
DRAWING IS THE SOLE PROPERTY OF
  7
SLDTEXTSTYLE0
  0
MTEXT
  5
C7
330
C2
100
AcDbEntity
  8
0
  6
CONTINUOUS
 62
     0
100
AcDbMText
 10
0.0
 20
-0.1213960848
 30
0.0
 40
0.06
 41
0.0
 71
     1
 72
     1
  1
Candy Controls.  ANY 
  7
SLDTEXTSTYLE0
  0
MTEXT
  5
C8
330
C2
100
AcDbEntity
  8
0
  6
CONTINUOUS
 62
     0
100
AcDbMText
 10
0.0
 20
-0.2207661593
 30
0.0
 40
0.06
 41
0.0
 71
     1
 72
     1
  1
REPRODUCTION IN PART OR AS A WHOLE
  7
SLDTEXTSTYLE0
  0
MTEXT
  5
C9
330
C2
100
AcDbEntity
  8
0
  6
CONTINUOUS
 62
     0
100
AcDbMText
 10
0.0
 20
-0.3201362339
 30
0.0
 40
0.06
 41
0.0
 71
     1
 72
     1
  1
WITHOUT THE WRITTEN PERMISSION OF
  7
SLDTEXTSTYLE0
  0
MTEXT
  5
CA
330
C2
100
AcDbEntity
  8
0
  6
CONTINUOUS
 62
     0
100
AcDbMText
 10
0.0
 20
-0.4195063085
 30
0.0
 40
0.06
 41
0.0
 71
     1
 72
     1
  1
Candy Controls IS 
  7
SLDTEXTSTYLE0
  0
MTEXT
  5
CB
330
C2
100
AcDbEntity
  8
0
  6
CONTINUOUS
 62
     0
100
AcDbMText
 10
0.0
 20
-0.518876383
 30
0.0
 40
0.06
 41
0.0
 71
     1
 72
     1
  1
PROHIBITED.
  7
SLDTEXTSTYLE0
  0
ENDBLK
  5
C4
330
C2
100
AcDbEntity
  8
0
100
AcDbBlockEnd
  0
ENDSEC
  0
SECTION
  2
ENTITIES
  0
LINE
  5
41
330
1F
100
AcDbEntity
  8
0
  6
CONTINUOUS
 62
     7
100
AcDbLine
 10
0.329927
 20
8.1920731707
 30
0.0
 11
10.629927
 21
8.1920731707
 31
0.0
  0
LINE
  5
42
330
1F
100
AcDbEntity
  8
0
  6
CONTINUOUS
 62
     7
100
AcDbLine
 10
0.329927
 20
8.1920731707
 30
0.0
 11
0.329927
 21
0.3920731707
 31
0.0
  0
LINE
  5
43
330
1F
100
AcDbEntity
  8
0
  6
CONTINUOUS
 62
     7
100
AcDbLine
 10
10.629927
 20
0.3920731707
 30
0.0
 11
0.329927
 21
0.3920731707
 31
0.0
  0
LINE
  5
44
330
1F
100
AcDbEntity
  8
0
  6
CONTINUOUS
 62
     7
100
AcDbLine
 10
10.629927
 20
0.3920731707
 30
0.0
 11
10.629927
 21
8.1920731707
 31
0.0
  0
LINE
  5
45
330
1F
100
AcDbEntity
  8
0
  6
CONTINUOUS
 62
     7
100
AcDbLine
 10
4.7981841288
 20
0.3920731707
 30
0.0
 11
4.7981841288
 21
2.3564211366
 31
0.0
  0
LINE
  5
46
330
1F
100
AcDbEntity
  8
0
  6
CONTINUOUS
 62
     7
100
AcDbLine
 10
2.8210345579
 20
2.3564211366
 30
0.0
 11
10.629927
 21
2.3564211366
 31
0.0
  0
LINE
  5
47
330
1F
100
AcDbEntity
  8
0
  6
CONTINUOUS
 62
     7
100
AcDbLine
 10
6.1796352514
 20
2.3564211366
 30
0.0
 11
6.1796352514
 21
0.3920731707
 31
0.0
  0
LINE
  5
48
330
1F
100
AcDbEntity
  8
0
  6
CONTINUOUS
 62
     7
100
AcDbLine
 10
7.8712070044
 20
2.3564211366
 30
0.0
 11
7.8712070044
 21
0.3920731707
 31
0.0
  0
LINE
  5
49
330
1F
100
AcDbEntity
  8
0
  6
CONTINUOUS
 62
     7
100
AcDbLine
 10
7.8712070044
 20
0.6049590101
 30
0.0
 11
10.629927
 21
0.6049590101
 31
0.0
  0
LINE
  5
4A
330
1F
100
AcDbEntity
  8
0
  6
CONTINUOUS
 62
     7
100
AcDbLine
 10
7.8712070044
 20
1.1119362457
 30
0.0
 11
10.629927
 21
1.1119362457
 31
0.0
  0
LINE
  5
4B
330
1F
100
AcDbEntity
  8
0
  6
CONTINUOUS
 62
     7
100
AcDbLine
 10
7.8712070044
 20
1.9892703708
 30
0.0
 11
10.629927
 21
1.9892703708
 31
0.0
  0
LINE
  5
4C
330
1F
100
AcDbEntity
  8
0
  6
CONTINUOUS
 62
     7
100
AcDbLine
 10
8.266751752
 20
1.1119362457
 30
0.0
 11
8.266751752
 21
0.6049590101
 31
0.0
  0
LINE
  5
4D
330
1F
100
AcDbEntity
  8
0
  6
CONTINUOUS
 62
     7
100
AcDbLine
 10
8.6943435176
 20
0.6049590101
 30
0.0
 11
8.6943435176
 21
0.3920731707
 31
0.0
  0
LINE
  5
4E
330
1F
100
AcDbEntity
  8
0
  6
CONTINUOUS
 62
     7
100
AcDbLine
 10
10.0579917045
 20
1.1119362457
 30
0.0
 11
10.0579917045
 21
0.6049590101
 31
0.0
  0
LINE
  5
4F
330
1F
100
AcDbEntity
  8
0
  6
CONTINUOUS
 62
     7
100
AcDbLine
 10
9.6662556631
 20
0.6049590101
 30
0.0
 11
9.6662556631
 21
0.3920731707
 31
0.0
  0
LINE
  5
50
330
1F
100
AcDbEntity
  8
0
  6
CONTINUOUS
 62
     7
100
AcDbLine
 10
2.8210345579
 20
0.5883479999
 30
0.0
 11
6.1796352514
 21
0.5883479999
 31
0.0
  0
LINE
  5
51
330
1F
100
AcDbEntity
  8
0
  6
CONTINUOUS
 62
     7
100
AcDbLine
 10
6.1796352514
 20
1.7939211366
 30
0.0
 11
7.8712070044
 21
1.7939211366
 31
0.0
  0
LINE
  5
52
330
1F
100
AcDbEntity
  8
0
  6
CONTINUOUS
 62
     7
100
AcDbLine
 10
6.1796352514
 20
1.9814211366
 30
0.0
 11
7.8712070044
 21
1.9814211366
 31
0.0
  0
LINE
  5
53
330
1F
100
AcDbEntity
  8
0
  6
CONTINUOUS
 62
     7
100
AcDbLine
 10
6.1796352514
 20
2.1689211366
 30
0.0
 11
7.8712070044
 21
2.1689211366
 31
0.0
  0
LINE
  5
54
330
1F
100
AcDbEntity
  8
0
  6
CONTINUOUS
 62
     7
100
AcDbLine
 10
7.8712070044
 20
1.2314211366
 30
0.0
 11
6.1796352514
 21
1.2314211366
 31
0.0
  0
LINE
  5
55
330
1F
100
AcDbEntity
  8
0
  6
CONTINUOUS
 62
     7
100
AcDbLine
 10
7.3921580388
 20
2.3564211366
 30
0.0
 11
7.3921580388
 21
1.2314211366
 31
0.0
  0
LINE
  5
56
330
1F
100
AcDbEntity
  8
0
  6
CONTINUOUS
 62
     7
100
AcDbLine
 10
6.9236308342
 20
2.3564211366
 30
0.0
 11
6.9236308342
 21
1.2314211366
 31
0.0
  0
LINE
  5
57
330
1F
100
AcDbEntity
  8
0
  6
CONTINUOUS
 62
     7
100
AcDbLine
 10
4.7981841288
 20
0.8557965305
 30
0.0
 11
6.1796352514
 21
0.8557965305
 31
0.0
  0
LINE
  5
58
330
1F
100
AcDbEntity
  8
0
  6
CONTINUOUS
 62
     7
100
AcDbLine
 10
4.7981841288
 20
1.1257965305
 30
0.0
 11
6.1796352514
 21
1.1257965305
 31
0.0
  0
LINE
  5
59
330
1F
100
AcDbEntity
  8
0
  6
CONTINUOUS
 62
     7
100
AcDbLine
 10
2.8210345579
 20
0.3920731707
 30
0.0
 11
2.8210345579
 21
2.3564211366
 31
0.0
  0
LINE
  5
5A
330
1F
100
AcDbEntity
  8
0
  6
CONTINUOUS
 62
     7
100
AcDbLine
 10
2.8210345579
 20
1.1064211366
 30
0.0
 11
4.7981841288
 21
1.1064211366
 31
0.0
  0
LINE
  5
5B
330
1F
100
AcDbEntity
  8
0
  6
CONTINUOUS
 62
     7
100
AcDbLine
 10
2.8210345579
 20
1.3564211366
 30
0.0
 11
4.7981841288
 21
1.3564211366
 31
0.0
  0
LINE
  5
5C
330
1F
100
AcDbEntity
  8
0
  6
CONTINUOUS
 62
     7
100
AcDbLine
 10
2.8210345579
 20
1.6064211366
 30
0.0
 11
4.7981841288
 21
1.6064211366
 31
0.0
  0
LINE
  5
5D
330
1F
100
AcDbEntity
  8
0
  6
CONTINUOUS
 62
     7
100
AcDbLine
 10
2.8210345579
 20
1.8564211366
 30
0.0
 11
4.7981841288
 21
1.8564211366
 31
0.0
  0
LINE
  5
5E
330
1F
100
AcDbEntity
  8
0
  6
CONTINUOUS
 62
     7
100
AcDbLine
 10
3.8190146875
 20
2.3564211366
 30
0.0
 11
3.8190146875
 21
0.5883479999
 31
0.0
  0
LINE
  5
5F
330
1F
100
AcDbEntity
  8
0
  6
CONTINUOUS
 62
     7
100
AcDbLine
 10
6.1796352514
 20
2.2020813496
 30
0.0
 11
4.7981841288
 21
2.2020813496
 31
0.0
  0
LINE
  5
60
330
1F
100
AcDbEntity
  8
0
  6
CONTINUOUS
 62
     7
100
AcDbLine
 10
7.8712070044
 20
1.6064211366
 30
0.0
 11
6.1796352514
 21
1.6064211366
 31
0.0
  0
LINE
  5
61
330
1F
100
AcDbEntity
  8
0
  6
CONTINUOUS
 62
     7
100
AcDbLine
 10
7.8712070044
 20
1.4189211366
 30
0.0
 11
6.1796352514
 21
1.4189211366
 31
0.0
  0
LINE
  5
62
330
1F
100
AcDbEntity
  8
0
  6
CONTINUOUS
 62
     7
100
AcDbLine
 10
2.8210345579
 20
2.1064211366
 30
0.0
 11
4.7981841288
 21
2.1064211366
 31
0.0
  0
LINE
  5
63
330
1F
100
AcDbEntity
  8
0
  6
CONTINUOUS
 62
     7
100
AcDbLine
 10
4.7981841288
 20
1.3957965305
 30
0.0
 11
6.1796352514
 21
1.3957965305
 31
0.0
  0
LINE
  5
64
330
1F
100
AcDbEntity
  8
0
  6
CONTINUOUS
 62
     7
100
AcDbLine
 10
2.8210345579
 20
0.8564211366
 30
0.0
 11
4.7981841288
 21
0.8564211366
 31
0.0
  0
LINE
  5
65
330
1F
100
AcDbEntity
  8
0
  6
CONTINUOUS
 62
     7
100
AcDbLine
 10
1.1838252943
 20
0.3920731707
 30
0.0
 11
1.1838252943
 21
1.3064211366
 31
0.0
  0
LINE
  5
66
330
1F
100
AcDbEntity
  8
0
  6
CONTINUOUS
 62
     7
100
AcDbLine
 10
2.8210345579
 20
1.3064211366
 30
0.0
 11
1.1838252943
 21
1.3064211366
 31
0.0
  0
LINE
  5
67
330
1F
100
AcDbEntity
  8
0
  6
CONTINUOUS
 62
     7
100
AcDbLine
 10
8.660927
 20
0.3920731707
 30
0.0
 11
8.660927
 21
0.3072739649
 31
0.0
  0
LINE
  5
68
330
1F
100
AcDbEntity
  8
0
  6
CONTINUOUS
 62
     7
100
AcDbLine
 10
6.692177
 20
0.3920731707
 30
0.0
 11
6.692177
 21
0.3072739649
 31
0.0
  0
LINE
  5
69
330
1F
100
AcDbEntity
  8
0
  6
CONTINUOUS
 62
     7
100
AcDbLine
 10
4.723427
 20
0.3920731707
 30
0.0
 11
4.723427
 21
0.3072739649
 31
0.0
  0
LINE
  5
6A
330
1F
100
AcDbEntity
  8
0
  6
CONTINUOUS
 62
     7
100
AcDbLine
 10
2.754677
 20
0.3920731707
 30
0.0
 11
2.754677
 21
0.3072739649
 31
0.0
  0
LINE
  5
6B
330
1F
100
AcDbEntity
  8
0
  6
CONTINUOUS
 62
     7
100
AcDbLine
 10
2.754677
 20
0.3920731707
 30
0.0
 11
2.7672319738
 21
0.3575
 31
0.0
  0
LINE
  5
6C
330
1F
100
AcDbEntity
  8
0
  6
CONTINUOUS
 62
     7
100
AcDbLine
 10
2.7672319738
 20
0.3575
 30
0.0
 11
2.7414258825
 21
0.3575
 31
0.0
  0
LINE
  5
6D
330
1F
100
AcDbEntity
  8
0
  6
CONTINUOUS
 62
     7
100
AcDbLine
 10
2.7414258825
 20
0.3575
 30
0.0
 11
2.754677
 21
0.3920731707
 31
0.0
  0
MTEXT
  5
91
330
1F
100
AcDbEntity
  8
0
  6
CONTINUOUS
 62
     7
100
AcDbMText
 10
4.9775846961
 20
0.5178452352
 30
0.0
 40
0.0625
 41
0.0
 71
     1
 72
     1
  1
DO NOT SCALE DRAWING
  7
SLDTEXTSTYLE0
  0
MTEXT
  5
92
330
1F
100
AcDbEntity
  8
0
  6
CONTINUOUS
 62
     7
100
AcDbMText
 10
8.8333880018
 20
0.9417064595
 30
0.0
 40
0.125
 41
0.0
 71
     1
 72
     1
  1
CL1-M15
  7
SLDTEXTSTYLE0
  0
MTEXT
  5
94
330
1F
100
AcDbEntity
  8
0
  6
CONTINUOUS
 62
     7
100
AcDbMText
 10
9.7571278483
 20
0.5524239532
 30
0.0
 40
0.1
 41
0.0
 71
     1
 72
     1
  1
SHEET 1 OF 1
  7
SLDTEXTSTYLE1
  0
MTEXT
  5
95
330
1F
100
AcDbEntity
  8
0
  6
CONTINUOUS
 62
     7
100
AcDbMText
 10
4.8448077858
 20
2.3132954224
 30
0.0
 40
0.07
 41
0.0
 71
     1
 72
     1
  1
UNLESS OTHERWISE SPECIFIED:
  7
SLDTEXTSTYLE0
  0
MTEXT
  5
96
330
1F
100
AcDbEntity
  8
0
  6
CONTINUOUS
 62
     7
100
AcDbMText
 10
7.9586139647
 20
0.5520987879
 30
0.0
 40
0.1
 41
0.0
 71
     1
 72
     1
  1
SCALE: 2:1
  7
SLDTEXTSTYLE0
  0
MTEXT
  5
97
330
1F
100
AcDbEntity
  8
0
  6
CONTINUOUS
 62
     7
100
AcDbMText
 10
8.7023691647
 20
0.5486763345
 30
0.0
 40
0.1
 41
0.0
 71
     1
 72
     1
  1
WEIGHT: 
  7
SLDTEXTSTYLE0
  0
MTEXT
  5
98
330
1F
100
AcDbEntity
  8
0
  6
CONTINUOUS
 62
     7
100
AcDbMText
 10
10.2277580983
 20
1.081966299
 30
0.0
 40
0.1
 41
0.0
 71
     1
 72
     1
  1
REV
  7
SLDTEXTSTYLE0
  0
MTEXT
  5
9A
330
1F
100
AcDbEntity
  8
0
  6
CONTINUOUS
 62
     7
100
AcDbMText
 10
8.2984570898
 20
1.0858725293
 30
0.0
 40
0.1
 41
0.0
 71
     1
 72
     1
  1
DWG.  NO.
  7
SLDTEXTSTYLE2
  0
MTEXT
  5
9B
330
1F
100
AcDbEntity
  8
0
  6
CONTINUOUS
 62
     7
100
AcDbMText
 10
7.9598482632
 20
0.9442140768
 30
0.0
 40
0.25
 41
0.0
 71
     1
 72
     1
  1
A
  7
SLDTEXTSTYLE0
  0
MTEXT
  5
9C
330
1F
100
AcDbEntity
  8
0
  6
CONTINUOUS
 62
     7
100
AcDbMText
 10
7.9519581822
 20
1.0872713483
 30
0.0
 40
0.1
 41
0.0
 71
     1
 72
     1
  1
SIZE
  7
SLDTEXTSTYLE0
  0
MTEXT
  5
9D
330
1F
100
AcDbEntity
  8
0
  6
CONTINUOUS
 62
     7
100
AcDbMText
 10
7.9170704177
 20
1.9547881128
 30
0.0
 40
0.1
 41
0.0
 71
     1
 72
     1
  1
TITLE:
  7
SLDTEXTSTYLE0
  0
MTEXT
  5
9E
330
1F
100
AcDbEntity
  8
0
  6
CONTINUOUS
 62
     7
100
AcDbMText
 10
7.0363774929
 20
2.2906161274
 30
0.0
 40
0.065
 41
0.0
 71
     1
 72
     1
  1
NAME
  7
SLDTEXTSTYLE0
  0
MTEXT
  5
9F
330
1F
100
AcDbEntity
  8
0
  6
CONTINUOUS
 62
     7
100
AcDbMText
 10
7.5281510634
 20
2.2888799118
 30
0.0
 40
0.065
 41
0.0
 71
     1
 72
     1
  1
DATE
  7
SLDTEXTSTYLE0
  0
MTEXT
  5
A0
330
1F
100
AcDbEntity
  8
0
  6
CONTINUOUS
 62
     7
100
AcDbMText
 10
6.2277147029
 20
1.1876913145
 30
0.0
 40
0.065
 41
0.0
 71
     1
 72
     1
  1
COMMENTS:
  7
SLDTEXTSTYLE0
  0
MTEXT
  5
A1
330
1F
100
AcDbEntity
  8
0
  6
CONTINUOUS
 62
     7
100
AcDbMText
 10
6.2268411461
 20
1.3536101679
 30
0.0
 40
0.065
 41
0.0
 71
     1
 72
     1
  1
Q.A.
  7
SLDTEXTSTYLE0
  0
MTEXT
  5
A2
330
1F
100
AcDbEntity
  8
0
  6
CONTINUOUS
 62
     7
100
AcDbMText
 10
6.2284654509
 20
1.5395328424
 30
0.0
 40
0.065
 41
0.0
 71
     1
 72
     1
  1
MFG APPR.
  7
SLDTEXTSTYLE0
  0
MTEXT
  5
A3
330
1F
100
AcDbEntity
  8
0
  6
CONTINUOUS
 62
     7
100
AcDbMText
 10
6.2235171344
 20
1.7267501785
 30
0.0
 40
0.065
 41
0.0
 71
     1
 72
     1
  1
ENG APPR.
  7
SLDTEXTSTYLE0
  0
MTEXT
  5
A4
330
1F
100
AcDbEntity
  8
0
  6
CONTINUOUS
 62
     7
100
AcDbMText
 10
6.2264103951
 20
1.9092699088
 30
0.0
 40
0.065
 41
0.0
 71
     1
 72
     1
  1
CHECKED
  7
SLDTEXTSTYLE0
  0
MTEXT
  5
A5
330
1F
100
AcDbEntity
  8
0
  6
CONTINUOUS
 62
     7
100
AcDbMText
 10
6.2242794356
 20
2.1016301232
 30
0.0
 40
0.065
 41
0.0
 71
     1
 72
     1
  1
DRAWN
  7
SLDTEXTSTYLE0
  0
MTEXT
  5
A6
330
1F
100
AcDbEntity
  8
0
  6
CONTINUOUS
 62
     7
100
AcDbMText
 10
4.8208600979
 20
0.834523235
 30
0.0
 40
0.06
 41
0.0
 71
     1
 72
     1
  1
FINISH
  7
SLDTEXTSTYLE0
  0
MTEXT
  5
A7
330
1F
100
AcDbEntity
  8
0
  6
CONTINUOUS
 62
     7
100
AcDbMText
 10
4.8181240648
 20
1.1028217587
 30
0.0
 40
0.06
 41
0.0
 71
     1
 72
     1
  1
MATERIAL
  7
SLDTEXTSTYLE0
  0
INSERT
  5
AD
330
1F
100
AcDbEntity
  8
0
  6
CONTINUOUS
 62
     7
100
AcDbBlockReference
  2
SW_NOTE_0
 10
4.8231926633
 20
1.2646542947
 30
0.0
  0
INSERT
  5
BD
330
1F
100
AcDbEntity
  8
0
  6
CONTINUOUS
 62
     7
100
AcDbBlockReference
  2
SW_NOTE_1
 10
4.8353339353
 20
2.0049168724
 30
0.0
  0
MTEXT
  5
BE
330
1F
100
AcDbEntity
  8
0
  6
CONTINUOUS
 62
     7
100
AcDbMText
 10
3.5531400086
 20
0.5200091997
 30
0.0
 40
0.0625
 41
0.0
 71
     1
 72
     1
  1
APPLICATION
  7
SLDTEXTSTYLE0
  0
MTEXT
  5
BF
330
1F
100
AcDbEntity
  8
0
  6
CONTINUOUS
 62
     7
100
AcDbMText
 10
4.1005607758
 20
0.7502454275
 30
0.0
 40
0.0625
 41
0.0
 71
     1
 72
     1
  1
USED ON
  7
SLDTEXTSTYLE0
  0
MTEXT
  5
C0
330
1F
100
AcDbEntity
  8
0
  6
CONTINUOUS
 62
     7
100
AcDbMText
 10
3.1040019536
 20
0.7492094783
 30
0.0
 40
0.0625
 41
0.0
 71
     1
 72
     1
  1
NEXT ASSY
  7
SLDTEXTSTYLE0
  0
MTEXT
  5
C1
330
1F
100
AcDbEntity
  8
0
  6
CONTINUOUS
 62
     7
100
AcDbMText
 10
1.3712489489
 20
1.2496672684
 30
0.0
 40
0.06
 41
0.0
 71
     1
 72
     1
  1
PROPRIETARY AND CONFIDENTIAL
  7
SLDTEXTSTYLE0
  0
INSERT
  5
CC
330
1F
100
AcDbEntity
  8
0
  6
CONTINUOUS
 62
     7
100
AcDbBlockReference
  2
SW_NOTE_2
 10
1.2226209074
 20
1.0313492921
 30
0.0
  0
MTEXT
  5
CD
330
1F
100
AcDbEntity
  8
0
  6
CONTINUOUS
 62
     7
100
AcDbMText
 10
1.7387909509
 20
0.3105864247
 30
0.0
 40
0.09375
 41
0.0
 71
     1
 72
     1
  1
5
  7
SLDTEXTSTYLE0
  0
MTEXT
  5
CE
330
1F
100
AcDbEntity
  8
0
  6
CONTINUOUS
 62
     7
100
AcDbMText
 10
3.723800327
 20
0.3137237518
 30
0.0
 40
0.09375
 41
0.0
 71
     1
 72
     1
  1
4
  7
SLDTEXTSTYLE0
  0
MTEXT
  5
CF
330
1F
100
AcDbEntity
  8
0
  6
CONTINUOUS
 62
     7
100
AcDbMText
 10
5.6324457277
 20
0.3116191842
 30
0.0
 40
0.09375
 41
0.0
 71
     1
 72
     1
  1
3
  7
SLDTEXTSTYLE0
  0
MTEXT
  5
D0
330
1F
100
AcDbEntity
  8
0
  6
CONTINUOUS
 62
     7
100
AcDbMText
 10
7.6059721724
 20
0.3124391351
 30
0.0
 40
0.09375
 41
0.0
 71
     1
 72
     1
  1
2
  7
SLDTEXTSTYLE0
  0
MTEXT
  5
D1
330
1F
100
AcDbEntity
  8
0
  6
CONTINUOUS
 62
     7
100
AcDbMText
 10
9.6619921328
 20
0.301372012
 30
0.0
 40
0.09375
 41
0.0
 71
     1
 72
     1
  1
1
  7
SLDTEXTSTYLE0
  0
LINE
  5
D2
330
1F
100
AcDbEntity
  8
0
  6
CONTINUOUS
 62
     7
100
AcDbLine
 10
2.5298644498
 20
3.144505058
 30
0.0
 11
4.1234077569
 21
3.144505058
 31
0.0
  0
LINE
  5
D3
330
1F
100
AcDbEntity
  8
0
  6
CONTINUOUS
 62
     7
100
AcDbLine
 10
2.5860923615
 20
4.364977499
 30
0.0
 11
2.5298644498
 21
4.364977499
 31
0.0
  0
LINE
  5
D4
330
1F
100
AcDbEntity
  8
0
  6
CONTINUOUS
 62
     7
100
AcDbLine
 10
3.8301868497
 20
4.364977499
 30
0.0
 11
2.8230733407
 21
4.364977499
 31
0.0
  0
LINE
  5
D5
330
1F
100
AcDbEntity
  8
0
  6
CONTINUOUS
 62
     7
100
AcDbLine
 10
4.1234077569
 20
4.364977499
 30
0.0
 11
4.0671678289
 21
4.364977499
 31
0.0
  0
LINE
  5
D6
330
1F
100
AcDbEntity
  8
0
  6
CONTINUOUS
 62
     7
100
AcDbLine
 10
4.1234077569
 20
3.144505058
 30
0.0
 11
4.1534077569
 21
3.174505058
 31
0.0
  0
LINE
  5
D7
330
1F
100
AcDbEntity
  8
0
  6
CONTINUOUS
 62
     7
100
AcDbLine
 10
4.1534077569
 20
4.334977499
 30
0.0
 11
4.1234077569
 21
4.364977499
 31
0.0
  0
LINE
  5
D8
330
1F
100
AcDbEntity
  8
0
  6
CONTINUOUS
 62
     7
100
AcDbLine
 10
2.5298644498
 20
4.364977499
 30
0.0
 11
2.4998644498
 21
4.334977499
 31
0.0
  0
LINE
  5
D9
330
1F
100
AcDbEntity
  8
0
  6
CONTINUOUS
 62
     7
100
AcDbLine
 10
2.4998644498
 20
3.174505058
 30
0.0
 11
2.5298644498
 21
3.144505058
 31
0.0
  0
LINE
  5
DA
330
1F
100
AcDbEntity
  8
0
  6
CONTINUOUS
 62
     7
100
AcDbLine
 10
2.7891879938
 20
4.3588035614
 30
0.0
 11
2.7830140561
 21
4.364977499
 31
0.0
  0
LINE
  5
DB
330
1F
100
AcDbEntity
  8
0
  6
CONTINUOUS
 62
     7
100
AcDbLine
 10
2.6261636624
 20
4.364977499
 30
0.0
 11
2.6199888541
 21
4.3588026907
 31
0.0
  0
LINE
  5
DC
330
1F
100
AcDbEntity
  8
0
  6
CONTINUOUS
 62
     7
100
AcDbLine
 10
4.033282482
 20
4.3588035614
 30
0.0
 11
4.0271085443
 21
4.364977499
 31
0.0
  0
LINE
  5
DD
330
1F
100
AcDbEntity
  8
0
  6
CONTINUOUS
 62
     7
100
AcDbLine
 10
3.8702581506
 20
4.364977499
 30
0.0
 11
3.8640833423
 21
4.3588026907
 31
0.0
  0
LINE
  5
DE
330
1F
100
AcDbEntity
  8
0
  6
CONTINUOUS
 62
     7
100
AcDbLine
 10
4.1234077569
 20
3.144505058
 30
0.0
 11
4.1234077569
 21
4.364977499
 31
0.0
  0
LINE
  5
DF
330
1F
100
AcDbEntity
  8
0
  6
CONTINUOUS
 62
     7
100
AcDbLine
 10
2.5298644498
 20
4.364977499
 30
0.0
 11
2.5298644498
 21
3.144505058
 31
0.0
  0
POLYLINE
  5
E0
330
1F
100
AcDbEntity
  8
0
  6
CONTINUOUS
 62
     7
100
AcDb2dPolyline
 66
     1
 10
0.0
 20
0.0
 30
0.0
  0
VERTEX
  5
206
330
E0
100
AcDbEntity
  8
0
  6
CONTINUOUS
 62
     7
100
AcDbVertex
100
AcDb2dVertex
 10
2.8230733407
 20
4.3649747589
 30
0.0
  0
VERTEX
  5
207
330
E0
100
AcDbEntity
  8
0
  6
CONTINUOUS
 62
     7
100
AcDbVertex
100
AcDb2dVertex
 10
2.8230852856
 20
4.3649774839
 30
0.0
  0
VERTEX
  5
208
330
E0
100
AcDbEntity
  8
0
  6
CONTINUOUS
 62
     7
100
AcDbVertex
100
AcDb2dVertex
 10
2.8209175608
 20
4.3644744699
 30
0.0
  0
VERTEX
  5
209
330
E0
100
AcDbEntity
  8
0
  6
CONTINUOUS
 62
     7
100
AcDbVertex
100
AcDb2dVertex
 10
2.8144021987
 20
4.3631209577
 30
0.0
  0
VERTEX
  5
20A
330
E0
100
AcDbEntity
  8
0
  6
CONTINUOUS
 62
     7
100
AcDbVertex
100
AcDb2dVertex
 10
2.8035391995
 20
4.3611215448
 30
0.0
  0
VERTEX
  5
20B
330
E0
100
AcDbEntity
  8
0
  6
CONTINUOUS
 62
     7
100
AcDbVertex
100
AcDb2dVertex
 10
2.788328563
 20
4.3586647475
 30
0.0
  0
VERTEX
  5
20C
330
E0
100
AcDbEntity
  8
0
  6
CONTINUOUS
 62
     7
100
AcDbVertex
100
AcDb2dVertex
 10
2.7700110981
 20
4.3561498382
 30
0.0
  0
VERTEX
  5
20D
330
E0
100
AcDbEntity
  8
0
  6
CONTINUOUS
 62
     7
100
AcDbVertex
100
AcDb2dVertex
 10
2.7499357313
 20
4.3540974902
 30
0.0
  0
VERTEX
  5
20E
330
E0
100
AcDbEntity
  8
0
  6
CONTINUOUS
 62
     7
100
AcDbVertex
100
AcDb2dVertex
 10
2.7281024628
 20
4.3527634571
 30
0.0
  0
VERTEX
  5
20F
330
E0
100
AcDbEntity
  8
0
  6
CONTINUOUS
 62
     7
100
AcDbVertex
100
AcDb2dVertex
 10
2.7045112925
 20
4.3523005916
 30
0.0
  0
VERTEX
  5
210
330
E0
100
AcDbEntity
  8
0
  6
CONTINUOUS
 62
     7
100
AcDbVertex
100
AcDb2dVertex
 10
2.6809668764
 20
4.3527621678
 30
0.0
  0
VERTEX
  5
211
330
E0
100
AcDbEntity
  8
0
  6
CONTINUOUS
 62
     7
100
AcDbVertex
100
AcDb2dVertex
 10
2.6591571578
 20
4.3540994158
 30
0.0
  0
VERTEX
  5
212
330
E0
100
AcDbEntity
  8
0
  6
CONTINUOUS
 62
     7
100
AcDbVertex
100
AcDb2dVertex
 10
2.6390821367
 20
4.356158337
 30
0.0
  0
VERTEX
  5
213
330
E0
100
AcDbEntity
  8
0
  6
CONTINUOUS
 62
     7
100
AcDbVertex
100
AcDb2dVertex
 10
2.6207418129
 20
4.3586809876
 30
0.0
  0
VERTEX
  5
214
330
E0
100
AcDbEntity
  8
0
  6
CONTINUOUS
 62
     7
100
AcDbVertex
100
AcDb2dVertex
 10
2.6055569568
 20
4.3611353625
 30
0.0
  0
VERTEX
  5
215
330
E0
100
AcDbEntity
  8
0
  6
CONTINUOUS
 62
     7
100
AcDbVertex
100
AcDb2dVertex
 10
2.5947204295
 20
4.3631311008
 30
0.0
  0
VERTEX
  5
216
330
E0
100
AcDbEntity
  8
0
  6
CONTINUOUS
 62
     7
100
AcDbVertex
100
AcDb2dVertex
 10
2.5882322311
 20
4.3644799169
 30
0.0
  0
VERTEX
  5
217
330
E0
100
AcDbEntity
  8
0
  6
CONTINUOUS
 62
     7
100
AcDbVertex
100
AcDb2dVertex
 10
2.5860923615
 20
4.364977499
 30
0.0
  0
VERTEX
  5
218
330
E0
100
AcDbEntity
  8
0
  6
CONTINUOUS
 62
     7
100
AcDbVertex
100
AcDb2dVertex
 10
2.5860923615
 20
4.364977499
 30
0.0
  0
SEQEND
  5
219
330
E0
100
AcDbEntity
  8
0
  6
CONTINUOUS
 62
     7
  0
POLYLINE
  5
E1
330
1F
100
AcDbEntity
  8
0
  6
CONTINUOUS
 62
     7
100
AcDb2dPolyline
 66
     1
 10
0.0
 20
0.0
 30
0.0
  0
VERTEX
  5
21A
330
E1
100
AcDbEntity
  8
0
  6
CONTINUOUS
 62
     7
100
AcDbVertex
100
AcDb2dVertex
 10
4.0671678289
 20
4.3649747589
 30
0.0
  0
VERTEX
  5
21B
330
E1
100
AcDbEntity
  8
0
  6
CONTINUOUS
 62
     7
100
AcDbVertex
100
AcDb2dVertex
 10
4.0671797737
 20
4.3649774839
 30
0.0
  0
VERTEX
  5
21C
330
E1
100
AcDbEntity
  8
0
  6
CONTINUOUS
 62
     7
100
AcDbVertex
100
AcDb2dVertex
 10
4.0650120489
 20
4.3644744699
 30
0.0
  0
VERTEX
  5
21D
330
E1
100
AcDbEntity
  8
0
  6
CONTINUOUS
 62
     7
100
AcDbVertex
100
AcDb2dVertex
 10
4.0584966869
 20
4.3631209577
 30
0.0
  0
VERTEX
  5
21E
330
E1
100
AcDbEntity
  8
0
  6
CONTINUOUS
 62
     7
100
AcDbVertex
100
AcDb2dVertex
 10
4.0476336877
 20
4.3611215448
 30
0.0
  0
VERTEX
  5
21F
330
E1
100
AcDbEntity
  8
0
  6
CONTINUOUS
 62
     7
100
AcDbVertex
100
AcDb2dVertex
 10
4.0324230512
 20
4.3586647475
 30
0.0
  0
VERTEX
  5
220
330
E1
100
AcDbEntity
  8
0
  6
CONTINUOUS
 62
     7
100
AcDbVertex
100
AcDb2dVertex
 10
4.0141055863
 20
4.3561498382
 30
0.0
  0
VERTEX
  5
221
330
E1
100
AcDbEntity
  8
0
  6
CONTINUOUS
 62
     7
100
AcDbVertex
100
AcDb2dVertex
 10
3.9940302195
 20
4.3540974902
 30
0.0
  0
VERTEX
  5
222
330
E1
100
AcDbEntity
  8
0
  6
CONTINUOUS
 62
     7
100
AcDbVertex
100
AcDb2dVertex
 10
3.972196951
 20
4.3527634571
 30
0.0
  0
VERTEX
  5
223
330
E1
100
AcDbEntity
  8
0
  6
CONTINUOUS
 62
     7
100
AcDbVertex
100
AcDb2dVertex
 10
3.9486057806
 20
4.3523005916
 30
0.0
  0
VERTEX
  5
224
330
E1
100
AcDbEntity
  8
0
  6
CONTINUOUS
 62
     7
100
AcDbVertex
100
AcDb2dVertex
 10
3.9250613646
 20
4.3527621678
 30
0.0
  0
VERTEX
  5
225
330
E1
100
AcDbEntity
  8
0
  6
CONTINUOUS
 62
     7
100
AcDbVertex
100
AcDb2dVertex
 10
3.903251646
 20
4.3540994158
 30
0.0
  0
VERTEX
  5
226
330
E1
100
AcDbEntity
  8
0
  6
CONTINUOUS
 62
     7
100
AcDbVertex
100
AcDb2dVertex
 10
3.8831766249
 20
4.356158337
 30
0.0
  0
VERTEX
  5
227
330
E1
100
AcDbEntity
  8
0
  6
CONTINUOUS
 62
     7
100
AcDbVertex
100
AcDb2dVertex
 10
3.8648363011
 20
4.3586809876
 30
0.0
  0
VERTEX
  5
228
330
E1
100
AcDbEntity
  8
0
  6
CONTINUOUS
 62
     7
100
AcDbVertex
100
AcDb2dVertex
 10
3.849651445
 20
4.3611353625
 30
0.0
  0
VERTEX
  5
229
330
E1
100
AcDbEntity
  8
0
  6
CONTINUOUS
 62
     7
100
AcDbVertex
100
AcDb2dVertex
 10
3.8388149177
 20
4.3631311008
 30
0.0
  0
VERTEX
  5
22A
330
E1
100
AcDbEntity
  8
0
  6
CONTINUOUS
 62
     7
100
AcDbVertex
100
AcDb2dVertex
 10
3.8323267193
 20
4.3644799169
 30
0.0
  0
VERTEX
  5
22B
330
E1
100
AcDbEntity
  8
0
  6
CONTINUOUS
 62
     7
100
AcDbVertex
100
AcDb2dVertex
 10
3.8301868497
 20
4.364977499
 30
0.0
  0
VERTEX
  5
22C
330
E1
100
AcDbEntity
  8
0
  6
CONTINUOUS
 62
     7
100
AcDbVertex
100
AcDb2dVertex
 10
3.8301868497
 20
4.364977499
 30
0.0
  0
SEQEND
  5
22D
330
E1
100
AcDbEntity
  8
0
  6
CONTINUOUS
 62
     7
  0
LINE
  5
E2
330
1F
100
AcDbEntity
  8
0
  6
CONTINUOUS
 62
     7
100
AcDbLine
 10
4.1534077569
 20
4.334977499
 30
0.0
 11
4.1534077569
 21
3.174505058
 31
0.0
  0
LINE
  5
E3
330
1F
100
AcDbEntity
  8
0
  6
CONTINUOUS
 62
     7
100
AcDbLine
 10
2.4998644498
 20
3.174505058
 30
0.0
 11
2.4998644498
 21
4.334977499
 31
0.0
  0
LINE
  5
E4
330
1F
100
AcDbEntity
  8
0
  6
CONTINUOUS
 62
     7
100
AcDbLine
 10
2.7830140561
 20
4.364977499
 30
0.0
 11
2.6261636624
 21
4.364977499
 31
0.0
  0
LINE
  5
E5
330
1F
100
AcDbEntity
  8
0
  6
CONTINUOUS
 62
     7
100
AcDbLine
 10
3.8702581506
 20
4.364977499
 30
0.0
 11
4.0271085443
 21
4.364977499
 31
0.0
  0
LINE
  5
E6
330
1F
100
AcDbEntity
  8
0
  6
HIDDEN
 62
     7
100
AcDbLine
 10
3.2266361034
 20
3.9028515147
 30
0.0
 11
3.2266361034
 21
3.6066310423
 31
0.0
  0
LINE
  5
E7
330
1F
100
AcDbEntity
  8
0
  6
HIDDEN
 62
     7
100
AcDbLine
 10
3.4266361034
 20
3.9028515147
 30
0.0
 11
3.4266361034
 21
3.6066310423
 31
0.0
  0
SPLINE
  5
E8
330
1F
100
AcDbEntity
  8
0
  6
HIDDEN
 62
     7
100
AcDbSpline
210
0.0
220
0.0
230
1.0
 70
     8
 71
     3
 72
    24
 73
    20
 74
     0
 42
0.00000001
 43
0.00000001
 40
0.0
 40
0.0
 40
0.0
 40
0.0
 40
0.0282600280402712
 40
0.0590049749401772
 40
0.0922503709412787
 40
0.1280083561005743
 40
0.1662885468741731
 40
0.2070986429357086
 40
0.2504448614194046
 40
0.348234324813889
 40
0.4315585014983472
 40
0.5005065877052918
 40
0.609051790849271
 40
0.7496292800160207
 40
0.8096733376581727
 40
0.8647107501710022
 40
0.9147592555909734
 40
0.9598438137458962
 40
1.0
 40
1.0
 40
1.0
 40
1.0
 10
2.606163662439671
 20
4.339127590325239
 30
0.0
 10
2.606238977660076
 20
4.339101638515305
 30
0.0
 10
2.606396230607112
 20
4.339047452939388
 30
0.0
 10
2.607747636405576
 20
4.338652339608647
 30
0.0
 10
2.610154289232611
 20
4.33803432956485
 30
0.0
 10
2.61390603110441
 20
4.337165356312238
 30
0.0
 10
2.619170794673115
 20
4.336050330710774
 30
0.0
 10
2.62613096668485
 20
4.334701108914567
 30
0.0
 10
2.638391793125914
 20
4.332403246924986
 30
0.0
 10
2.657244916347778
 20
4.329685995224331
 30
0.0
 10
2.681676740543463
 20
4.327581680966572
 30
0.0
 10
2.70860264382017
 20
4.326578574373602
 30
0.0
 10
2.741553880388352
 20
4.32840517581143
 30
0.0
 10
2.769303235745397
 20
4.332059023104716
 30
0.0
 10
2.786054559227
 20
4.335265945889764
 30
0.0
 10
2.794419267497666
 20
4.336959150279101
 30
0.0
 10
2.799664686100548
 20
4.338179153651739
 30
0.0
 10
2.802523164533061
 20
4.33896226908397
 30
0.0
 10
2.802856816276752
 20
4.339074639219255
 30
0.0
 10
2.803013996761935
 20
4.339127575829713
 30
0.0
  0
SPLINE
  5
E9
330
1F
100
AcDbEntity
  8
0
  6
HIDDEN
 62
     7
100
AcDbSpline
210
0.0
220
0.0
230
1.0
 70
     8
 71
     3
 72
    24
 73
    20
 74
     0
 42
0.00000001
 43
0.00000001
 40
0.0
 40
0.0
 40
0.0
 40
0.0
 40
0.0282600280402237
 40
0.0590049749400978
 40
0.0922503709411825
 40
0.1280083561004776
 40
0.166288546874091
 40
0.2070986429356568
 40
0.250444861419398
 40
0.3482343248139632
 40
0.4315585014984202
 40
0.5005065877052797
 40
0.6090517908503185
 40
0.7496292800160185
 40
0.8096733376574887
 40
0.8647107501699761
 40
0.9147592555899462
 40
0.9598438137452108
 40
1.0
 40
1.0
 40
1.0
 40
1.0
 10
3.850258150628647
 20
4.339127590325239
 30
0.0
 10
3.850333465849052
 20
4.339101638515305
 30
0.0
 10
3.850490718796087
 20
4.339047452939388
 30
0.0
 10
3.851842124594548
 20
4.338652339608646
 30
0.0
 10
3.85424877742158
 20
4.33803432956485
 30
0.0
 10
3.858000519293376
 20
4.337165356312237
 30
0.0
 10
3.86326528286208
 20
4.336050330710774
 30
0.0
 10
3.870225454873819
 20
4.334701108914567
 30
0.0
 10
3.882486281314892
 20
4.332403246924986
 30
0.0
 10
3.90133940453677
 20
4.329685995224333
 30
0.0
 10
3.925771228732457
 20
4.327581680966571
 30
0.0
 10
3.952697132009264
 20
4.326578574373604
 30
0.0
 10
3.985648368577448
 20
4.3284051758114
 30
0.0
 10
4.013397723934383
 20
4.332059023104707
 30
0.0
 10
4.030149047415867
 20
4.335265945889771
 30
0.0
 10
4.03851375568652
 20
4.336959150279105
 30
0.0
 10
4.043759174289449
 20
4.338179153651742
 30
0.0
 10
4.046617652722023
 20
4.338962269083972
 30
0.0
 10
4.046951304465723
 20
4.339074639219256
 30
0.0
 10
4.047108484950912
 20
4.339127575829713
 30
0.0
  0
SPLINE
  5
EA
330
1F
100
AcDbEntity
  8
0
  6
HIDDEN
 62
     7
100
AcDbSpline
210
0.0
220
0.0
230
1.0
 70
     8
 71
     3
 72
    44
 73
    40
 74
     0
 42
0.00000001
 43
0.00000001
 40
0.0
 40
0.0
 40
0.0
 40
0.0
 40
0.0624999999999999
 40
0.0624999999999999
 40
0.1249999999999999
 40
0.1249999999999999
 40
0.1874999999999998
 40
0.1874999999999998
 40
0.2187499999999998
 40
0.2187499999999998
 40
0.2499999999999998
 40
0.2499999999999998
 40
0.3124999999999996
 40
0.3124999999999996
 40
0.3749999999999994
 40
0.3749999999999994
 40
0.4374999999999993
 40
0.4374999999999993
 40
0.4687499999999994
 40
0.4687499999999994
 40
0.4999999999999995
 40
0.4999999999999995
 40
0.5312499999999996
 40
0.5312499999999996
 40
0.5624999999999996
 40
0.5624999999999996
 40
0.6249999999999997
 40
0.6249999999999997
 40
0.6874999999999997
 40
0.6874999999999997
 40
0.7499999999999998
 40
0.7499999999999998
 40
0.8124999999999998
 40
0.8124999999999998
 40
0.8749999999999999
 40
0.8749999999999999
 40
0.9374999999999999
 40
0.9374999999999999
 40
1.0
 40
1.0
 40
1.0
 40
1.0
 10
2.756670578011807
 20
3.838257827477073
 30
0.0
 10
2.765134531315355
 20
3.832979625243818
 30
0.0
 10
2.772797536989513
 20
3.826415387191395
 30
0.0
 10
2.785936611598278
 20
3.811063075027286
 30
0.0
 10
2.791585081313481
 20
3.802022489033483
 30
0.0
 10
2.799760077595081
 20
3.782059673794712
 30
0.0
 10
2.802325929488338
 20
3.770924697949754
 30
0.0
 10
2.803172667692503
 20
3.75404720286523
 30
0.0
 10
2.802962256389884
 20
3.748268566098831
 30
0.0
 10
2.801582381697606
 20
3.737092542755993
 30
0.0
 10
2.800426243888727
 20
3.731641293917657
 30
0.0
 10
2.795611204201103
 20
3.71567685860966
 30
0.0
 10
2.790729447061354
 20
3.706016606029554
 30
0.0
 10
2.778732051678918
 20
3.689189149696138
 30
0.0
 10
2.771697060542015
 20
3.682046335248168
 30
0.0
 10
2.755658610182905
 20
3.670006716525748
 30
0.0
 10
2.746946576844287
 20
3.665278666031474
 30
0.0
 10
2.732079268833984
 20
3.660087431624641
 30
0.0
 10
2.726853200013003
 20
3.658709006593312
 30
0.0
 10
2.715992241281564
 20
3.656823654986789
 30
0.0
 10
2.710258756776782
 20
3.656317788078451
 30
0.0
 10
2.698978361414088
 20
3.656314384218741
 30
0.0
 10
2.693256441000574
 20
3.656815386673604
 30
0.0
 10
2.682393077886954
 20
3.658693106824241
 30
0.0
 10
2.677229466225455
 20
3.660048412915196
 30
0.0
 10
2.662301602712469
 20
3.665240828542711
 30
0.0
 10
2.653556499383553
 20
3.669986687981589
 30
0.0
 10
2.637544135239011
 20
3.681990695348232
 30
0.0
 10
2.63047404718572
 20
3.689162768484958
 30
0.0
 10
2.618506118649548
 20
3.705922141745269
 30
0.0
 10
2.613610059361351
 20
3.71559406169322
 30
0.0
 10
2.607193971906523
 20
3.736744541782031
 30
0.0
 10
2.605723730148282
 20
3.748285075602474
 30
0.0
 10
2.606844182332596
 20
3.770926903090107
 30
0.0
 10
2.609402133075049
 20
3.782013905458287
 30
0.0
 10
2.617587514466825
 20
3.802017858625972
 30
0.0
 10
2.623232984901693
 20
3.811052778274762
 30
0.0
 10
2.636381667215154
 20
3.826417929190374
 30
0.0
 10
2.644048790634148
 20
3.83298311955852
 30
0.0
 10
2.652507140568091
 20
3.838257827476929
 30
0.0
  0
SPLINE
  5
EB
330
1F
100
AcDbEntity
  8
0
  6
HIDDEN
 62
     7
100
AcDbSpline
210
0.0
220
0.0
230
1.0
 70
     8
 71
     3
 72
    31
 73
    27
 74
     0
 42
0.00000001
 43
0.00000001
 40
0.0
 40
0.0
 40
0.0
 40
0.0
 40
0.0031439429903382
 40
0.0454431050671138
 40
0.0837894976207122
 40
0.1230905608254258
 40
0.1648377729019057
 40
0.2074267907642313
 40
0.2688464545015116
 40
0.3320362643040559
 40
0.3772835612568712
 40
0.4234615661826544
 40
0.4538257304800519
 40
0.4849364275646237
 40
0.5153549172023555
 40
0.5468220628530992
 40
0.5851381654632873
 40
0.6245091454572536
 40
0.6847639212557171
 40
0.7466980233670135
 40
0.8081666761513262
 40
0.8718702136778645
 40
0.9130220145815376
 40
0.955285223285898
 40
0.9964778264579472
 40
1.0
 40
1.0
 40
1.0
 40
1.0
 10
2.606229258474331
 20
3.872796913498128
 30
0.0
 10
2.606207707984923
 20
3.872814851442549
 30
0.0
 10
2.60589621341985
 20
3.873074129646866
 30
0.0
 10
2.607063449047458
 20
3.872100997318713
 30
0.0
 10
2.609720399814541
 20
3.869899234952583
 30
0.0
 10
2.614045427790382
 20
3.866355540219006
 30
0.0
 10
2.619879543039465
 20
3.861665582805735
 30
0.0
 10
2.628237537385125
 20
3.855138365824877
 30
0.0
 10
2.639595593832329
 20
3.846699292930222
 30
0.0
 10
2.652970117458341
 20
3.837731437669006
 30
0.0
 10
2.666566759728251
 20
3.830034190180961
 30
0.0
 10
2.678329620076751
 20
3.824825718991105
 30
0.0
 10
2.689504402678219
 20
3.821520725083448
 30
0.0
 10
2.699493855088491
 20
3.819963930723774
 30
0.0
 10
2.709784096353432
 20
3.81996880429821
 30
0.0
 10
2.720672258368266
 20
3.82168564353608
 30
0.0
 10
2.731928940427625
 20
3.825253580687924
 30
0.0
 10
2.74510006985351
 20
3.831266350040909
 30
0.0
 10
2.759055919106058
 20
3.839516057091138
 30
0.0
 10
2.773013099747462
 20
3.849175893911812
 30
0.0
 10
2.785183425823266
 20
3.858386410017215
 30
0.0
 10
2.793756190327867
 20
3.86523250026822
 30
0.0
 10
2.799269328493114
 20
3.869743085518476
 30
0.0
 10
2.802073591850476
 20
3.872067222284584
 30
0.0
 10
2.803280113305402
 20
3.873072951855546
 30
0.0
 10
2.80296306423645
 20
3.872809072094076
 30
0.0
 10
2.802938090348079
 20
3.872788286340855
 30
0.0
  0
SPLINE
  5
EC
330
1F
100
AcDbEntity
  8
0
  6
HIDDEN
 62
     7
100
AcDbSpline
210
0.0
220
0.0
230
1.0
 70
     8
 71
     3
 72
    44
 73
    40
 74
     0
 42
0.00000001
 43
0.00000001
 40
0.0
 40
0.0
 40
0.0
 40
0.0
 40
0.0625000000000002
 40
0.0625000000000002
 40
0.1250000000000003
 40
0.1250000000000003
 40
0.1875000000000005
 40
0.1875000000000005
 40
0.2187500000000006
 40
0.2187500000000006
 40
0.2500000000000006
 40
0.2500000000000006
 40
0.3125000000000007
 40
0.3125000000000007
 40
0.3750000000000008
 40
0.3750000000000008
 40
0.437500000000001
 40
0.437500000000001
 40
0.4687500000000011
 40
0.4687500000000011
 40
0.5000000000000011
 40
0.5000000000000011
 40
0.5312500000000012
 40
0.5312500000000012
 40
0.5625000000000012
 40
0.5625000000000012
 40
0.6250000000000011
 40
0.6250000000000011
 40
0.6875000000000009
 40
0.6875000000000009
 40
0.7500000000000008
 40
0.7500000000000008
 40
0.8125000000000006
 40
0.8125000000000006
 40
0.8750000000000004
 40
0.8750000000000004
 40
0.9375000000000002
 40
0.9375000000000002
 40
1.0
 40
1.0
 40
1.0
 40
1.0
 10
4.000765066200784
 20
3.838257827477073
 30
0.0
 10
4.009229019504331
 20
3.832979625243818
 30
0.0
 10
4.01689202517849
 20
3.826415387191395
 30
0.0
 10
4.030031099787255
 20
3.811063075027286
 30
0.0
 10
4.035679569502458
 20
3.802022489033483
 30
0.0
 10
4.043854565784057
 20
3.782059673794712
 30
0.0
 10
4.046420417677314
 20
3.770924697949754
 30
0.0
 10
4.04726715588148
 20
3.75404720286523
 30
0.0
 10
4.04705674457886
 20
3.748268566098831
 30
0.0
 10
4.045676869886583
 20
3.737092542755994
 30
0.0
 10
4.044520732077704
 20
3.731641293917658
 30
0.0
 10
4.03970569239008
 20
3.71567685860966
 30
0.0
 10
4.03482393525033
 20
3.706016606029554
 30
0.0
 10
4.022826539867895
 20
3.689189149696139
 30
0.0
 10
4.015791548730992
 20
3.682046335248168
 30
0.0
 10
3.999753098371882
 20
3.670006716525748
 30
0.0
 10
3.991041065033264
 20
3.665278666031475
 30
0.0
 10
3.976173757022961
 20
3.660087431624641
 30
0.0
 10
3.97094768820198
 20
3.658709006593312
 30
0.0
 10
3.960086729470542
 20
3.656823654986789
 30
0.0
 10
3.95435324496576
 20
3.656317788078451
 30
0.0
 10
3.943072849603065
 20
3.656314384218741
 30
0.0
 10
3.937350929189551
 20
3.656815386673604
 30
0.0
 10
3.92648756607593
 20
3.658693106824241
 30
0.0
 10
3.921323954414432
 20
3.660048412915196
 30
0.0
 10
3.906396090901446
 20
3.665240828542711
 30
0.0
 10
3.897650987572529
 20
3.669986687981589
 30
0.0
 10
3.881638623427988
 20
3.681990695348232
 30
0.0
 10
3.874568535374697
 20
3.689162768484958
 30
0.0
 10
3.862600606838525
 20
3.705922141745269
 30
0.0
 10
3.857704547550328
 20
3.71559406169322
 30
0.0
 10
3.851288460095499
 20
3.736744541782031
 30
0.0
 10
3.849818218337259
 20
3.748285075602474
 30
0.0
 10
3.850938670521572
 20
3.770926903090107
 30
0.0
 10
3.853496621264025
 20
3.782013905458287
 30
0.0
 10
3.861682002655802
 20
3.802017858625972
 30
0.0
 10
3.867327473090669
 20
3.811052778274761
 30
0.0
 10
3.880476155404131
 20
3.826417929190374
 30
0.0
 10
3.888143278823125
 20
3.83298311955852
 30
0.0
 10
3.896601628757068
 20
3.838257827476929
 30
0.0
  0
SPLINE
  5
ED
330
1F
100
AcDbEntity
  8
0
  6
HIDDEN
 62
     7
100
AcDbSpline
210
0.0
220
0.0
230
1.0
 70
     8
 71
     3
 72
    31
 73
    27
 74
     0
 42
0.00000001
 43
0.00000001
 40
0.0
 40
0.0
 40
0.0
 40
0.0
 40
0.0031439429903385
 40
0.045443105067114
 40
0.0837894976207123
 40
0.1230905608254258
 40
0.1648377729019056
 40
0.2074267907642313
 40
0.2688464545015117
 40
0.3320362643040556
 40
0.3772835612568719
 40
0.4234615661826548
 40
0.4538257304800524
 40
0.484936427564624
 40
0.5153549172023563
 40
0.5468220628530998
 40
0.5851381654632878
 40
0.6245091454572536
 40
0.6847639212557166
 40
0.7466980233670127
 40
0.808166676151325
 40
0.8718702136778632
 40
0.9130220145815364
 40
0.955285223285897
 40
0.9964778264579465
 40
1.0
 40
1.0
 40
1.0
 40
1.0
 10
3.850323746663307
 20
3.872796913498128
 30
0.0
 10
3.850302196173899
 20
3.872814851442549
 30
0.0
 10
3.849990701608824
 20
3.873074129646866
 30
0.0
 10
3.851157937236435
 20
3.872100997318713
 30
0.0
 10
3.853814888003519
 20
3.869899234952583
 30
0.0
 10
3.858139915979358
 20
3.866355540219006
 30
0.0
 10
3.863974031228442
 20
3.861665582805735
 30
0.0
 10
3.872332025574101
 20
3.855138365824878
 30
0.0
 10
3.883690082021307
 20
3.846699292930222
 30
0.0
 10
3.897064605647317
 20
3.837731437669006
 30
0.0
 10
3.910661247917229
 20
3.830034190180961
 30
0.0
 10
3.922424108265727
 20
3.824825718991105
 30
0.0
 10
3.933598890867195
 20
3.821520725083448
 30
0.0
 10
3.943588343277467
 20
3.819963930723774
 30
0.0
 10
3.953878584542409
 20
3.81996880429821
 30
0.0
 10
3.964766746557243
 20
3.82168564353608
 30
0.0
 10
3.976023428616602
 20
3.825253580687924
 30
0.0
 10
3.989194558042487
 20
3.831266350040909
 30
0.0
 10
4.003150407295034
 20
3.839516057091138
 30
0.0
 10
4.017107587936438
 20
3.849175893911811
 30
0.0
 10
4.029277914012243
 20
3.858386410017215
 30
0.0
 10
4.037850678516843
 20
3.86523250026822
 30
0.0
 10
4.04336381668209
 20
3.869743085518476
 30
0.0
 10
4.046168080039453
 20
3.872067222284584
 30
0.0
 10
4.047374601494378
 20
3.873072951855546
 30
0.0
 10
4.047057552425426
 20
3.872809072094076
 30
0.0
 10
4.047032578537055
 20
3.872788286340855
 30
0.0
  0
ARC
  5
EE
330
1F
100
AcDbEntity
  8
0
  6
HIDDEN
 62
     7
100
AcDbCircle
 10
2.7045888593
 20
3.7547412785
 30
0.0
 40
0.0984251968503933
100
AcDbArc
 50
58.0519405687
 51
121.9480594314
  0
ARC
  5
EF
330
1F
100
AcDbEntity
  8
0
  6
HIDDEN
 62
     7
100
AcDbCircle
 10
3.9486833475
 20
3.7547412785
 30
0.0
 40
0.0984251968503935
100
AcDbArc
 50
58.0519405687
 51
121.9480594314
  0
CIRCLE
  5
F0
330
1F
100
AcDbEntity
  8
0
  6
HIDDEN
 62
     7
100
AcDbCircle
 10
3.9486833475
 20
3.7547412785
 30
0.0
 40
0.0784251968503935
  0
POLYLINE
  5
F1
330
1F
100
AcDbEntity
  8
0
  6
HIDDEN
 62
     7
100
AcDb2dPolyline
 66
     1
 10
0.0
 20
0.0
 30
0.0
  0
VERTEX
  5
22E
330
F1
100
AcDbEntity
  8
0
  6
HIDDEN
 62
     7
100
AcDbVertex
100
AcDb2dVertex
 10
4.0471085443
 20
3.7547412785
 30
0.0
  0
VERTEX
  5
22F
330
F1
100
AcDbEntity
  8
0
  6
HIDDEN
 62
     7
100
AcDbVertex
100
AcDb2dVertex
 10
4.0462665031
 20
3.7418942124
 30
0.0
  0
VERTEX
  5
230
330
F1
100
AcDbEntity
  8
0
  6
HIDDEN
 62
     7
100
AcDbVertex
100
AcDb2dVertex
 10
4.0442910572
 20
3.7313599781
 30
0.0
  0
SEQEND
  5
231
330
F1
100
AcDbEntity
  8
0
  6
HIDDEN
 62
     7
  0
LINE
  5
F2
330
1F
100
AcDbEntity
  8
0
  6
HIDDEN
 62
     7
100
AcDbLine
 10
3.8948618662
 20
3.8371473919
 30
0.0
 11
3.8966016288
 21
3.8382578275
 31
0.0
  0
POLYLINE
  5
F3
330
1F
100
AcDbEntity
  8
0
  6
HIDDEN
 62
     7
100
AcDb2dPolyline
 66
     1
 10
0.0
 20
0.0
 30
0.0
  0
VERTEX
  5
232
330
F3
100
AcDbEntity
  8
0
  6
HIDDEN
 62
     7
100
AcDbVertex
100
AcDb2dVertex
 10
4.0007650662
 20
3.8382578275
 30
0.0
  0
VERTEX
  5
233
330
F3
100
AcDbEntity
  8
0
  6
HIDDEN
 62
     7
100
AcDbVertex
100
AcDb2dVertex
 10
4.008600811
 20
3.8328272372
 30
0.0
  0
VERTEX
  5
234
330
F3
100
AcDbEntity
  8
0
  6
HIDDEN
 62
     7
100
AcDbVertex
100
AcDb2dVertex
 10
4.0113649301
 20
3.8306263138
 30
0.0
  0
SEQEND
  5
235
330
F3
100
AcDbEntity
  8
0
  6
HIDDEN
 62
     7
  0
LINE
  5
F4
330
1F
100
AcDbEntity
  8
0
  6
HIDDEN
 62
     7
100
AcDbLine
 10
4.046613842
 20
3.7645971205
 30
0.0
 11
4.0471085443
 21
3.7547412785
 31
0.0
  0
LINE
  5
F5
330
1F
100
AcDbEntity
  8
0
  6
HIDDEN
 62
     7
100
AcDbLine
 10
3.9486833475
 20
3.6912952703
 30
0.0
 11
3.8937374926
 21
3.7230182744
 31
0.0
  0
LINE
  5
F6
330
1F
100
AcDbEntity
  8
0
  6
HIDDEN
 62
     7
100
AcDbLine
 10
3.8937374926
 20
3.7864642826
 30
0.0
 11
3.9486833475
 21
3.8181872868
 31
0.0
  0
LINE
  5
F7
330
1F
100
AcDbEntity
  8
0
  6
HIDDEN
 62
     7
100
AcDbLine
 10
3.9486833475
 20
3.8181872868
 30
0.0
 11
4.0036292024
 21
3.7864642826
 31
0.0
  0
LINE
  5
F8
330
1F
100
AcDbEntity
  8
0
  6
HIDDEN
 62
     7
100
AcDbLine
 10
4.0036292024
 20
3.7864642826
 30
0.0
 11
4.0036292024
 21
3.7230182744
 31
0.0
  0
LINE
  5
F9
330
1F
100
AcDbEntity
  8
0
  6
HIDDEN
 62
     7
100
AcDbLine
 10
3.8937374926
 20
3.7230182744
 30
0.0
 11
3.8937374926
 21
3.7864642826
 31
0.0
  0
LINE
  5
FA
330
1F
100
AcDbEntity
  8
0
  6
HIDDEN
 62
     7
100
AcDbLine
 10
4.0036292024
 20
3.7230182744
 30
0.0
 11
3.9486833475
 21
3.6912952703
 31
0.0
  0
CIRCLE
  5
FB
330
1F
100
AcDbEntity
  8
0
  6
HIDDEN
 62
     7
100
AcDbCircle
 10
2.7045888593
 20
3.7547412785
 30
0.0
 40
0.0784251968503935
  0
LINE
  5
FC
330
1F
100
AcDbEntity
  8
0
  6
HIDDEN
 62
     7
100
AcDbLine
 10
2.7584072505
 20
3.83714941
 30
0.0
 11
2.756670578
 21
3.8382578275
 31
0.0
  0
POLYLINE
  5
FD
330
1F
100
AcDbEntity
  8
0
  6
HIDDEN
 62
     7
100
AcDb2dPolyline
 66
     1
 10
0.0
 20
0.0
 30
0.0
  0
VERTEX
  5
236
330
FD
100
AcDbEntity
  8
0
  6
HIDDEN
 62
     7
100
AcDbVertex
100
AcDb2dVertex
 10
2.6525071406
 20
3.8382578275
 30
0.0
  0
VERTEX
  5
237
330
FD
100
AcDbEntity
  8
0
  6
HIDDEN
 62
     7
100
AcDbVertex
100
AcDb2dVertex
 10
2.6446713958
 20
3.8328272372
 30
0.0
  0
VERTEX
  5
238
330
FD
100
AcDbEntity
  8
0
  6
HIDDEN
 62
     7
100
AcDbVertex
100
AcDb2dVertex
 10
2.6419068197
 20
3.8306259363
 30
0.0
  0
SEQEND
  5
239
330
FD
100
AcDbEntity
  8
0
  6
HIDDEN
 62
     7
  0
LINE
  5
FE
330
1F
100
AcDbEntity
  8
0
  6
HIDDEN
 62
     7
100
AcDbLine
 10
2.606754507
 20
3.7655096991
 30
0.0
 11
2.6061636624
 21
3.7547412785
 31
0.0
  0
LINE
  5
FF
330
1F
100
AcDbEntity
  8
0
  6
HIDDEN
 62
     7
100
AcDbLine
 10
2.7595347142
 20
3.7864642826
 30
0.0
 11
2.7045888593
 21
3.8181872868
 31
0.0
  0
LINE
  5
100
330
1F
100
AcDbEntity
  8
0
  6
HIDDEN
 62
     7
100
AcDbLine
 10
2.7045888593
 20
3.8181872868
 30
0.0
 11
2.6496430044
 21
3.7864642826
 31
0.0
  0
LINE
  5
101
330
1F
100
AcDbEntity
  8
0
  6
HIDDEN
 62
     7
100
AcDbLine
 10
2.6496430044
 20
3.7864642826
 30
0.0
 11
2.6496430044
 21
3.7230182744
 31
0.0
  0
LINE
  5
102
330
1F
100
AcDbEntity
  8
0
  6
HIDDEN
 62
     7
100
AcDbLine
 10
2.7595347142
 20
3.7230182744
 30
0.0
 11
2.7595347142
 21
3.7864642826
 31
0.0
  0
LINE
  5
103
330
1F
100
AcDbEntity
  8
0
  6
HIDDEN
 62
     7
100
AcDbLine
 10
2.6496430044
 20
3.7230182744
 30
0.0
 11
2.7045888593
 21
3.6912952703
 31
0.0
  0
LINE
  5
104
330
1F
100
AcDbEntity
  8
0
  6
HIDDEN
 62
     7
100
AcDbLine
 10
2.7045888593
 20
3.6912952703
 30
0.0
 11
2.7595347142
 21
3.7230182744
 31
0.0
  0
LINE
  5
105
330
1F
100
AcDbEntity
  8
0
  6
HIDDEN
 62
     7
100
AcDbLine
 10
2.6061636624
 20
4.344977499
 30
0.0
 11
2.8030140561
 21
4.344977499
 31
0.0
  0
LINE
  5
106
330
1F
100
AcDbEntity
  8
0
  6
HIDDEN
 62
     7
100
AcDbLine
 10
2.8030140561
 20
3.8928515147
 30
0.0
 11
2.6061636624
 21
3.8928515147
 31
0.0
  0
LINE
  5
107
330
1F
100
AcDbEntity
  8
0
  6
HIDDEN
 62
     7
100
AcDbLine
 10
2.6261636624
 20
3.8728515147
 30
0.0
 11
2.7830140561
 21
3.8728515147
 31
0.0
  0
LINE
  5
108
330
1F
100
AcDbEntity
  8
0
  6
HIDDEN
 62
     7
100
AcDbLine
 10
2.7045888593
 20
4.264977499
 30
0.0
 11
2.7045888593
 21
4.364977499
 31
0.0
  0
LINE
  5
109
330
1F
100
AcDbEntity
  8
0
  6
HIDDEN
 62
     7
100
AcDbLine
 10
2.7595347142
 20
4.264977499
 30
0.0
 11
2.7045888593
 21
4.264977499
 31
0.0
  0
LINE
  5
10A
330
1F
100
AcDbEntity
  8
0
  6
HIDDEN
 62
     7
100
AcDbLine
 10
2.7045888593
 20
4.264977499
 30
0.0
 11
2.6496430044
 21
4.264977499
 31
0.0
  0
LINE
  5
10B
330
1F
100
AcDbEntity
  8
0
  6
HIDDEN
 62
     7
100
AcDbLine
 10
2.6496430044
 20
4.264977499
 30
0.0
 11
2.6496430044
 21
4.364977499
 31
0.0
  0
LINE
  5
10C
330
1F
100
AcDbEntity
  8
0
  6
HIDDEN
 62
     7
100
AcDbLine
 10
2.7595347142
 20
4.264977499
 30
0.0
 11
2.7595347142
 21
4.364977499
 31
0.0
  0
LINE
  5
10D
330
1F
100
AcDbEntity
  8
0
  6
HIDDEN
 62
     7
100
AcDbLine
 10
4.0471085443
 20
4.344977499
 30
0.0
 11
3.8502581506
 21
4.344977499
 31
0.0
  0
LINE
  5
10E
330
1F
100
AcDbEntity
  8
0
  6
HIDDEN
 62
     7
100
AcDbLine
 10
3.8502581506
 20
3.8928515147
 30
0.0
 11
4.0471085443
 21
3.8928515147
 31
0.0
  0
LINE
  5
10F
330
1F
100
AcDbEntity
  8
0
  6
HIDDEN
 62
     7
100
AcDbLine
 10
4.0271085443
 20
3.8728515147
 30
0.0
 11
3.8702581506
 21
3.8728515147
 31
0.0
  0
LINE
  5
110
330
1F
100
AcDbEntity
  8
0
  6
HIDDEN
 62
     7
100
AcDbLine
 10
3.9486833475
 20
4.264977499
 30
0.0
 11
3.9486833475
 21
4.364977499
 31
0.0
  0
LINE
  5
111
330
1F
100
AcDbEntity
  8
0
  6
HIDDEN
 62
     7
100
AcDbLine
 10
3.8937374926
 20
4.264977499
 30
0.0
 11
3.9486833475
 21
4.264977499
 31
0.0
  0
LINE
  5
112
330
1F
100
AcDbEntity
  8
0
  6
HIDDEN
 62
     7
100
AcDbLine
 10
3.9486833475
 20
4.264977499
 30
0.0
 11
4.0036292024
 21
4.264977499
 31
0.0
  0
LINE
  5
113
330
1F
100
AcDbEntity
  8
0
  6
HIDDEN
 62
     7
100
AcDbLine
 10
4.0036292024
 20
4.264977499
 30
0.0
 11
4.0036292024
 21
4.364977499
 31
0.0
  0
LINE
  5
114
330
1F
100
AcDbEntity
  8
0
  6
HIDDEN
 62
     7
100
AcDbLine
 10
3.8937374926
 20
4.264977499
 30
0.0
 11
3.8937374926
 21
4.364977499
 31
0.0
  0
LINE
  5
115
330
1F
100
AcDbEntity
  8
0
  6
HIDDEN
 62
     7
100
AcDbLine
 10
4.1534077569
 20
3.9028515147
 30
0.0
 11
4.1234077569
 21
3.8728515147
 31
0.0
  0
LINE
  5
116
330
1F
100
AcDbEntity
  8
0
  6
HIDDEN
 62
     7
100
AcDbLine
 10
4.1234077569
 20
3.6366310423
 30
0.0
 11
4.1534077569
 21
3.6066310423
 31
0.0
  0
LINE
  5
117
330
1F
100
AcDbEntity
  8
0
  6
HIDDEN
 62
     7
100
AcDbLine
 10
3.4266361034
 20
3.9028515147
 30
0.0
 11
3.2266361034
 21
3.9028515147
 31
0.0
  0
LINE
  5
118
330
1F
100
AcDbEntity
  8
0
  6
HIDDEN
 62
     7
100
AcDbLine
 10
3.2266361034
 20
3.6066310423
 30
0.0
 11
3.4266361034
 21
3.6066310423
 31
0.0
  0
LINE
  5
119
330
1F
100
AcDbEntity
  8
0
  6
HIDDEN
 62
     7
100
AcDbLine
 10
2.4998644498
 20
3.6066310423
 30
0.0
 11
2.5298644498
 21
3.6366310423
 31
0.0
  0
LINE
  5
11A
330
1F
100
AcDbEntity
  8
0
  6
HIDDEN
 62
     7
100
AcDbLine
 10
2.5298644498
 20
3.8728515147
 30
0.0
 11
2.4998644498
 21
3.9028515147
 31
0.0
  0
LINE
  5
11B
330
1F
100
AcDbEntity
  8
0
  6
HIDDEN
 62
     7
100
AcDbLine
 10
2.586092327
 20
4.3649775027
 30
0.0
 11
2.6061636338
 21
4.3391275938
 31
0.0
  0
LINE
  5
11C
330
1F
100
AcDbEntity
  8
0
  6
HIDDEN
 62
     7
100
AcDbLine
 10
2.8030139968
 20
4.3391275759
 30
0.0
 11
2.8230852857
 21
4.364977484
 31
0.0
  0
LINE
  5
11D
330
1F
100
AcDbEntity
  8
0
  6
HIDDEN
 62
     7
100
AcDbLine
 10
3.8301868152
 20
4.3649775027
 30
0.0
 11
3.850258122
 21
4.3391275938
 31
0.0
  0
LINE
  5
11E
330
1F
100
AcDbEntity
  8
0
  6
HIDDEN
 62
     7
100
AcDbLine
 10
4.047108485
 20
4.3391275759
 30
0.0
 11
4.0671797739
 21
4.364977484
 31
0.0
  0
LINE
  5
11F
330
1F
100
AcDbEntity
  8
0
  6
HIDDEN
 62
     7
100
AcDbLine
 10
2.6062292585
 20
3.8728515147
 30
0.0
 11
2.5298644498
 21
3.8728515147
 31
0.0
  0
LINE
  5
120
330
1F
100
AcDbEntity
  8
0
  6
HIDDEN
 62
     7
100
AcDbLine
 10
3.2266361034
 20
3.8728515147
 30
0.0
 11
2.8029380903
 21
3.8728515147
 31
0.0
  0
LINE
  5
121
330
1F
100
AcDbEntity
  8
0
  6
HIDDEN
 62
     7
100
AcDbLine
 10
2.5298644498
 20
3.6366310423
 30
0.0
 11
3.2266361034
 21
3.6366310423
 31
0.0
  0
LINE
  5
122
330
1F
100
AcDbEntity
  8
0
  6
HIDDEN
 62
     7
100
AcDbLine
 10
3.8503237467
 20
3.8728515147
 30
0.0
 11
3.4266361034
 21
3.8728515147
 31
0.0
  0
LINE
  5
123
330
1F
100
AcDbEntity
  8
0
  6
HIDDEN
 62
     7
100
AcDbLine
 10
4.1234077569
 20
3.8728515147
 30
0.0
 11
4.0470325785
 21
3.8728515147
 31
0.0
  0
LINE
  5
124
330
1F
100
AcDbEntity
  8
0
  6
HIDDEN
 62
     7
100
AcDbLine
 10
3.4266361034
 20
3.6366310423
 30
0.0
 11
4.1234077569
 21
3.6366310423
 31
0.0
  0
LINE
  5
125
330
1F
100
AcDbEntity
  8
0
  6
HIDDEN
 62
     7
100
AcDbLine
 10
2.8030140561
 20
3.8727883552
 30
0.0
 11
2.8030140561
 21
4.3391250162
 31
0.0
  0
LINE
  5
126
330
1F
100
AcDbEntity
  8
0
  6
HIDDEN
 62
     7
100
AcDbLine
 10
2.6061636624
 20
4.3391275903
 30
0.0
 11
2.6061636624
 21
3.87279697
 31
0.0
  0
LINE
  5
127
330
1F
100
AcDbEntity
  8
0
  6
HIDDEN
 62
     7
100
AcDbLine
 10
4.0471085443
 20
3.8727883552
 30
0.0
 11
4.0471085443
 21
4.3391250162
 31
0.0
  0
LINE
  5
128
330
1F
100
AcDbEntity
  8
0
  6
HIDDEN
 62
     7
100
AcDbLine
 10
3.8502581506
 20
4.3391275903
 30
0.0
 11
3.8502581506
 21
3.87279697
 31
0.0
  0
LINE
  5
129
330
1F
100
AcDbEntity
  8
0
  6
HIDDEN
 62
     7
100
AcDbLine
 10
2.8030140561
 20
4.344977499
 30
0.0
 11
2.7891879938
 21
4.3588035614
 31
0.0
  0
LINE
  5
12A
330
1F
100
AcDbEntity
  8
0
  6
HIDDEN
 62
     7
100
AcDbLine
 10
2.6199888541
 20
4.3588026907
 30
0.0
 11
2.6061636624
 21
4.344977499
 31
0.0
  0
LINE
  5
12B
330
1F
100
AcDbEntity
  8
0
  6
HIDDEN
 62
     7
100
AcDbLine
 10
2.8030140561
 20
3.8928515147
 30
0.0
 11
2.8030140561
 21
4.344977499
 31
0.0
  0
LINE
  5
12C
330
1F
100
AcDbEntity
  8
0
  6
HIDDEN
 62
     7
100
AcDbLine
 10
2.6061636624
 20
4.344977499
 30
0.0
 11
2.6061636624
 21
3.8928515147
 31
0.0
  0
LINE
  5
12D
330
1F
100
AcDbEntity
  8
0
  6
HIDDEN
 62
     7
100
AcDbLine
 10
2.6061636624
 20
3.8928515147
 30
0.0
 11
2.6261636624
 21
3.8728515147
 31
0.0
  0
LINE
  5
12E
330
1F
100
AcDbEntity
  8
0
  6
HIDDEN
 62
     7
100
AcDbLine
 10
2.7830140561
 20
3.8728515147
 30
0.0
 11
2.8030140561
 21
3.8928515147
 31
0.0
  0
LINE
  5
12F
330
1F
100
AcDbEntity
  8
0
  6
HIDDEN
 62
     7
100
AcDbLine
 10
4.0471085443
 20
3.8928515147
 30
0.0
 11
4.0471085443
 21
4.344977499
 31
0.0
  0
LINE
  5
130
330
1F
100
AcDbEntity
  8
0
  6
HIDDEN
 62
     7
100
AcDbLine
 10
3.8502581506
 20
4.344977499
 30
0.0
 11
3.8502581506
 21
3.8928515147
 31
0.0
  0
LINE
  5
131
330
1F
100
AcDbEntity
  8
0
  6
HIDDEN
 62
     7
100
AcDbLine
 10
4.0471085443
 20
4.344977499
 30
0.0
 11
4.033282482
 21
4.3588035614
 31
0.0
  0
LINE
  5
132
330
1F
100
AcDbEntity
  8
0
  6
HIDDEN
 62
     7
100
AcDbLine
 10
3.8640833423
 20
4.3588026907
 30
0.0
 11
3.8502581506
 21
4.344977499
 31
0.0
  0
LINE
  5
133
330
1F
100
AcDbEntity
  8
0
  6
HIDDEN
 62
     7
100
AcDbLine
 10
3.8502581506
 20
3.8928515147
 30
0.0
 11
3.8702581506
 21
3.8728515147
 31
0.0
  0
LINE
  5
134
330
1F
100
AcDbEntity
  8
0
  6
HIDDEN
 62
     7
100
AcDbLine
 10
4.0271085443
 20
3.8728515147
 30
0.0
 11
4.0471085443
 21
3.8928515147
 31
0.0
  0
LINE
  5
135
330
1F
100
AcDbEntity
  8
0
  6
CONTINUOUS
 62
     7
100
AcDbLine
 10
8.8552739343
 20
3.6704691891
 30
0.0
 11
8.8611208268
 21
3.6763160817
 31
0.0
  0
LINE
  5
136
330
1F
100
AcDbEntity
  8
0
  6
CONTINUOUS
 62
     7
100
AcDbLine
 10
8.8611208268
 20
3.8331664754
 30
0.0
 11
8.8552739343
 21
3.8390133679
 31
0.0
  0
LINE
  5
137
330
1F
100
AcDbEntity
  8
0
  6
CONTINUOUS
 62
     7
100
AcDbLine
 10
8.3351566957
 20
4.3591306065
 30
0.0
 11
8.3293098032
 21
4.364977499
 31
0.0
  0
LINE
  5
138
330
1F
100
AcDbEntity
  8
0
  6
CONTINUOUS
 62
     7
100
AcDbLine
 10
8.1724594095
 20
4.364977499
 30
0.0
 11
8.1666125169
 21
4.3591306065
 31
0.0
  0
CIRCLE
  5
139
330
1F
100
AcDbEntity
  8
0
  6
CONTINUOUS
 62
     7
100
AcDbCircle
 10
8.2508846063
 20
3.7547412785
 30
0.0
 40
0.5802362204724432
  0
CIRCLE
  5
13A
330
1F
100
AcDbEntity
  8
0
  6
CONTINUOUS
 62
     7
100
AcDbCircle
 10
8.2508846063
 20
3.7547412785
 30
0.0
 40
0.6102362204724407
  0
CIRCLE
  5
13B
330
1F
100
AcDbEntity
  8
0
  6
CONTINUOUS
 62
     7
100
AcDbCircle
 10
8.2508846063
 20
3.7547412785
 30
0.0
 40
0.1481102362204751
  0
CIRCLE
  5
13C
330
1F
100
AcDbEntity
  8
0
  6
CONTINUOUS
 62
     7
100
AcDbCircle
 10
8.2508846063
 20
3.7547412785
 30
0.0
 40
0.118110236220474
  0
LINE
  5
13D
330
1F
100
AcDbEntity
  8
0
  6
CONTINUOUS
 62
     7
100
AcDbLine
 10
8.8611208268
 20
3.8331664754
 30
0.0
 11
8.8611208268
 21
3.6763160817
 31
0.0
  0
LINE
  5
13E
330
1F
100
AcDbEntity
  8
0
  6
CONTINUOUS
 62
     7
100
AcDbLine
 10
8.1724594095
 20
4.364977499
 30
0.0
 11
8.3293098032
 21
4.364977499
 31
0.0
  0
SPLINE
  5
13F
330
1F
100
AcDbEntity
  8
0
  6
HIDDEN
 62
     7
100
AcDbSpline
210
0.0
220
0.0
230
1.0
 70
     8
 71
     3
 72
    32
 73
    28
 74
     0
 42
0.00000001
 43
0.00000001
 40
0.0
 40
0.0
 40
0.0
 40
0.0
 40
0.0503191004845548
 40
0.1087402495182578
 40
0.1752739610427231
 40
0.2499548977714985
 40
0.3240486315149859
 40
0.3903546776745135
 40
0.4489092168678908
 40
0.4997703196679844
 40
0.5508445504714937
 40
0.609567697378222
 40
0.6759984551607182
 40
0.7501736159983455
 40
0.8248012173619359
 40
0.8912913027304902
 40
0.9496783772019485
 40
0.9758734501228441
 40
0.9882204541210378
 40
0.9942065826524187
 40
0.99715285842541
 40
0.9986143074383493
 40
0.9993421108445476
 40
0.9997052824177822
 40
0.9998866856904243
 40
0.9999773417005839
 40
1.0
 40
1.0
 40
1.0
 40
1.0
 10
8.152460577403074
 20
4.326988037336398
 30
0.0
 10
8.152698933201558
 20
4.327071860070877
 30
0.0
 10
8.153214023271763
 20
4.327253002121802
 30
0.0
 10
8.15788321543461
 20
4.328501081059007
 30
0.0
 10
8.166756654894677
 20
4.330399541325584
 30
0.0
 10
8.180574750519032
 20
4.333077165465279
 30
0.0
 10
8.198013198898021
 20
4.335739233177923
 30
0.0
 10
8.216574188852519
 20
4.337640126760308
 30
0.0
 10
8.234207383070363
 20
4.338818091265986
 30
0.0
 10
8.250798002844187
 20
4.339270390880178
 30
0.0
 10
8.26740935297571
 20
4.338822838321771
 30
0.0
 10
8.285100272231519
 20
4.33764717433435
 30
0.0
 10
8.303703031091207
 20
4.335746701655648
 30
0.0
 10
8.321165424373977
 20
4.333081889384609
 30
0.0
 10
8.334971963417745
 20
4.330409386119396
 30
0.0
 10
8.343906416763803
 20
4.328491590974535
 30
0.0
 10
8.347792374978464
 20
4.327464519523953
 30
0.0
 10
8.348966509185011
 20
4.327103578649708
 30
0.0
 10
8.349228117844001
 20
4.327016283419829
 30
0.0
 10
8.349289749209929
 20
4.326994836335742
 30
0.0
 10
8.349304765458442
 20
4.326989495507156
 30
0.0
 10
8.34930850547916
 20
4.326988149518926
 30
0.0
 10
8.349309455595657
 20
4.326987804995421
 30
0.0
 10
8.349309704110174
 20
4.326987714273876
 30
0.0
 10
8.349309771187547
 20
4.326987689577741
 30
0.0
 10
8.349309790267469
 20
4.326987682479397
 30
0.0
 10
8.349309794617735
 20
4.326987680832468
 30
0.0
 10
8.349309795487613
 20
4.326987680503148
 30
0.0
  0
LINE
  5
140
330
1F
100
AcDbEntity
  8
0
  6
HIDDEN
 62
     7
100
AcDbLine
 10
8.2663430477
 20
4.3387566929
 30
0.0
 11
8.2508846063
 21
4.3391275903
 31
0.0
  0
LINE
  5
141
330
1F
100
AcDbEntity
  8
0
  6
HIDDEN
 62
     7
100
AcDbLine
 10
8.3493098032
 20
3.8531664754
 30
0.0
 11
8.3344011553
 21
3.8382578275
 31
0.0
  0
LINE
  5
142
330
1F
100
AcDbEntity
  8
0
  6
HIDDEN
 62
     7
100
AcDbLine
 10
8.8411208268
 20
3.6563160817
 30
0.0
 11
8.8411208268
 21
3.8531664754
 31
0.0
  0
LINE
  5
143
330
1F
100
AcDbEntity
  8
0
  6
HIDDEN
 62
     7
100
AcDbLine
 10
8.3889948425
 20
3.7547412785
 30
0.0
 11
8.3889948425
 21
3.6563160817
 31
0.0
  0
LINE
  5
144
330
1F
100
AcDbEntity
  8
0
  6
HIDDEN
 62
     7
100
AcDbLine
 10
8.3889948425
 20
3.8531664754
 30
0.0
 11
8.3889948425
 21
3.7547412785
 31
0.0
  0
LINE
  5
145
330
1F
100
AcDbEntity
  8
0
  6
HIDDEN
 62
     7
100
AcDbLine
 10
8.3689948425
 20
3.7547412785
 30
0.0
 11
8.3689948425
 21
3.8331664754
 31
0.0
  0
LINE
  5
146
330
1F
100
AcDbEntity
  8
0
  6
HIDDEN
 62
     7
100
AcDbLine
 10
8.3689948425
 20
3.6763160817
 30
0.0
 11
8.3689948425
 21
3.7547412785
 31
0.0
  0
LINE
  5
147
330
1F
100
AcDbEntity
  8
0
  6
HIDDEN
 62
     7
100
AcDbLine
 10
8.7611208268
 20
3.7864642826
 30
0.0
 11
8.8611208268
 21
3.7864642826
 31
0.0
  0
LINE
  5
148
330
1F
100
AcDbEntity
  8
0
  6
HIDDEN
 62
     7
100
AcDbLine
 10
8.7611208268
 20
3.7230182744
 30
0.0
 11
8.8611208268
 21
3.7230182744
 31
0.0
  0
LINE
  5
149
330
1F
100
AcDbEntity
  8
0
  6
HIDDEN
 62
     7
100
AcDbLine
 10
8.7611208268
 20
3.7230182744
 30
0.0
 11
8.7611208268
 21
3.6912952703
 31
0.0
  0
LINE
  5
14A
330
1F
100
AcDbEntity
  8
0
  6
HIDDEN
 62
     7
100
AcDbLine
 10
8.7611208268
 20
3.7864642826
 30
0.0
 11
8.7611208268
 21
3.7230182744
 31
0.0
  0
LINE
  5
14B
330
1F
100
AcDbEntity
  8
0
  6
HIDDEN
 62
     7
100
AcDbLine
 10
8.7611208268
 20
3.8181872868
 30
0.0
 11
8.7611208268
 21
3.7864642826
 31
0.0
  0
LINE
  5
14C
330
1F
100
AcDbEntity
  8
0
  6
HIDDEN
 62
     7
100
AcDbLine
 10
8.7611208268
 20
3.8181872868
 30
0.0
 11
8.8611208268
 21
3.8181872868
 31
0.0
  0
LINE
  5
14D
330
1F
100
AcDbEntity
  8
0
  6
HIDDEN
 62
     7
100
AcDbLine
 10
8.7611208268
 20
3.6912952703
 30
0.0
 11
8.8611208268
 21
3.6912952703
 31
0.0
  0
LINE
  5
14E
330
1F
100
AcDbEntity
  8
0
  6
HIDDEN
 62
     7
100
AcDbLine
 10
8.2508846063
 20
3.8728515147
 30
0.0
 11
8.1724594095
 21
3.8728515147
 31
0.0
  0
LINE
  5
14F
330
1F
100
AcDbEntity
  8
0
  6
HIDDEN
 62
     7
100
AcDbLine
 10
8.3293098032
 20
3.8728515147
 30
0.0
 11
8.2508846063
 21
3.8728515147
 31
0.0
  0
LINE
  5
150
330
1F
100
AcDbEntity
  8
0
  6
HIDDEN
 62
     7
100
AcDbLine
 10
8.2508846063
 20
3.8928515147
 30
0.0
 11
8.3493098032
 21
3.8928515147
 31
0.0
  0
LINE
  5
151
330
1F
100
AcDbEntity
  8
0
  6
HIDDEN
 62
     7
100
AcDbLine
 10
8.1524594095
 20
3.8928515147
 30
0.0
 11
8.2508846063
 21
3.8928515147
 31
0.0
  0
LINE
  5
152
330
1F
100
AcDbEntity
  8
0
  6
HIDDEN
 62
     7
100
AcDbLine
 10
8.3493098032
 20
4.344977499
 30
0.0
 11
8.1524594095
 21
4.344977499
 31
0.0
  0
LINE
  5
153
330
1F
100
AcDbEntity
  8
0
  6
HIDDEN
 62
     7
100
AcDbLine
 10
8.2826076105
 20
4.264977499
 30
0.0
 11
8.3143306146
 21
4.264977499
 31
0.0
  0
LINE
  5
154
330
1F
100
AcDbEntity
  8
0
  6
HIDDEN
 62
     7
100
AcDbLine
 10
8.2191616022
 20
4.264977499
 30
0.0
 11
8.2826076105
 21
4.264977499
 31
0.0
  0
LINE
  5
155
330
1F
100
AcDbEntity
  8
0
  6
HIDDEN
 62
     7
100
AcDbLine
 10
8.2826076105
 20
4.264977499
 30
0.0
 11
8.2826076105
 21
4.364977499
 31
0.0
  0
LINE
  5
156
330
1F
100
AcDbEntity
  8
0
  6
HIDDEN
 62
     7
100
AcDbLine
 10
8.2191616022
 20
4.264977499
 30
0.0
 11
8.2191616022
 21
4.364977499
 31
0.0
  0
LINE
  5
157
330
1F
100
AcDbEntity
  8
0
  6
HIDDEN
 62
     7
100
AcDbLine
 10
8.1874385981
 20
4.264977499
 30
0.0
 11
8.2191616022
 21
4.264977499
 31
0.0
  0
LINE
  5
158
330
1F
100
AcDbEntity
  8
0
  6
HIDDEN
 62
     7
100
AcDbLine
 10
8.3143306146
 20
4.264977499
 30
0.0
 11
8.3143306146
 21
4.364977499
 31
0.0
  0
LINE
  5
159
330
1F
100
AcDbEntity
  8
0
  6
HIDDEN
 62
     7
100
AcDbLine
 10
8.1874385981
 20
4.264977499
 30
0.0
 11
8.1874385981
 21
4.364977499
 31
0.0
  0
LINE
  5
15A
330
1F
100
AcDbEntity
  8
0
  6
HIDDEN
 62
     7
100
AcDbLine
 10
8.1271465233
 20
4.3523005902
 30
0.0
 11
8.1524594272
 21
4.3269876817
 31
0.0
  0
LINE
  5
15B
330
1F
100
AcDbEntity
  8
0
  6
HIDDEN
 62
     7
100
AcDbLine
 10
8.3493098033
 20
4.326987678
 30
0.0
 11
8.3746227117
 21
4.3523005863
 31
0.0
  0
LINE
  5
15C
330
1F
100
AcDbEntity
  8
0
  6
HIDDEN
 62
     7
100
AcDbLine
 10
8.3493098032
 20
3.8531664754
 30
0.0
 11
8.3493098032
 21
4.326986286
 31
0.0
  0
LINE
  5
15D
330
1F
100
AcDbEntity
  8
0
  6
HIDDEN
 62
     7
100
AcDbLine
 10
8.1524594095
 20
4.3269892427
 30
0.0
 11
8.1524594095
 21
3.8202218179
 31
0.0
  0
LINE
  5
15E
330
1F
100
AcDbEntity
  8
0
  6
HIDDEN
 62
     7
100
AcDbLine
 10
8.3162391175
 20
3.6563160817
 30
0.0
 11
8.8531845649
 21
3.6563160817
 31
0.0
  0
LINE
  5
15F
330
1F
100
AcDbEntity
  8
0
  6
HIDDEN
 62
     7
100
AcDbLine
 10
8.8531431874
 20
3.8531664754
 30
0.0
 11
8.3493098032
 21
3.8531664754
 31
0.0
  0
LINE
  5
160
330
1F
100
AcDbEntity
  8
0
  6
HIDDEN
 62
     7
100
AcDbLine
 10
8.8411208268
 20
3.6563160817
 30
0.0
 11
8.8552739343
 21
3.6704691891
 31
0.0
  0
LINE
  5
161
330
1F
100
AcDbEntity
  8
0
  6
HIDDEN
 62
     7
100
AcDbLine
 10
8.8552739343
 20
3.8390133679
 30
0.0
 11
8.8411208268
 21
3.8531664754
 31
0.0
  0
LINE
  5
162
330
1F
100
AcDbEntity
  8
0
  6
HIDDEN
 62
     7
100
AcDbLine
 10
8.3889948425
 20
3.6563160817
 30
0.0
 11
8.8411208268
 21
3.6563160817
 31
0.0
  0
LINE
  5
163
330
1F
100
AcDbEntity
  8
0
  6
HIDDEN
 62
     7
100
AcDbLine
 10
8.8411208268
 20
3.8531664754
 30
0.0
 11
8.3889948425
 21
3.8531664754
 31
0.0
  0
LINE
  5
164
330
1F
100
AcDbEntity
  8
0
  6
HIDDEN
 62
     7
100
AcDbLine
 10
8.3889948425
 20
3.8531664754
 30
0.0
 11
8.3689948425
 21
3.8331664754
 31
0.0
  0
LINE
  5
165
330
1F
100
AcDbEntity
  8
0
  6
HIDDEN
 62
     7
100
AcDbLine
 10
8.3689948425
 20
3.6763160817
 30
0.0
 11
8.3889948425
 21
3.6563160817
 31
0.0
  0
LINE
  5
166
330
1F
100
AcDbEntity
  8
0
  6
HIDDEN
 62
     7
100
AcDbLine
 10
8.1524594095
 20
3.8928515147
 30
0.0
 11
8.1724594095
 21
3.8728515147
 31
0.0
  0
LINE
  5
167
330
1F
100
AcDbEntity
  8
0
  6
HIDDEN
 62
     7
100
AcDbLine
 10
8.3293098032
 20
3.8728515147
 30
0.0
 11
8.3493098032
 21
3.8928515147
 31
0.0
  0
LINE
  5
168
330
1F
100
AcDbEntity
  8
0
  6
HIDDEN
 62
     7
100
AcDbLine
 10
8.3493098032
 20
4.344977499
 30
0.0
 11
8.3351566957
 21
4.3591306065
 31
0.0
  0
LINE
  5
169
330
1F
100
AcDbEntity
  8
0
  6
HIDDEN
 62
     7
100
AcDbLine
 10
8.1666125169
 20
4.3591306065
 30
0.0
 11
8.1524594095
 21
4.344977499
 31
0.0
  0
LINE
  5
16A
330
1F
100
AcDbEntity
  8
0
  6
HIDDEN
 62
     7
100
AcDbLine
 10
8.3493098032
 20
3.8928515147
 30
0.0
 11
8.3493098032
 21
4.344977499
 31
0.0
  0
LINE
  5
16B
330
1F
100
AcDbEntity
  8
0
  6
HIDDEN
 62
     7
100
AcDbLine
 10
8.1524594095
 20
4.344977499
 30
0.0
 11
8.1524594095
 21
3.8928515147
 31
0.0
  0
LINE
  5
16C
330
1F
100
AcDbEntity
  8
0
  6
CONTINUOUS
 62
     7
100
AcDbLine
 10
2.5298644498
 20
6.0617409184
 30
0.0
 11
4.1234077569
 21
6.0617409184
 31
0.0
  0
LINE
  5
16D
330
1F
100
AcDbEntity
  8
0
  6
CONTINUOUS
 62
     7
100
AcDbLine
 10
2.6061636624
 20
7.2822133594
 30
0.0
 11
2.5298644498
 21
7.2822133594
 31
0.0
  0
LINE
  5
16E
330
1F
100
AcDbEntity
  8
0
  6
CONTINUOUS
 62
     7
100
AcDbLine
 10
3.8502581506
 20
7.2822133594
 30
0.0
 11
2.8027401063
 21
7.2822133594
 31
0.0
  0
LINE
  5
16F
330
1F
100
AcDbEntity
  8
0
  6
CONTINUOUS
 62
     7
100
AcDbLine
 10
4.1234077569
 20
7.2822133594
 30
0.0
 11
4.0468345945
 21
7.2822133594
 31
0.0
  0
LINE
  5
170
330
1F
100
AcDbEntity
  8
0
  6
CONTINUOUS
 62
     7
100
AcDbLine
 10
2.5298644498
 20
7.2822133594
 30
0.0
 11
2.4998644498
 21
7.2522133594
 31
0.0
  0
LINE
  5
171
330
1F
100
AcDbEntity
  8
0
  6
CONTINUOUS
 62
     7
100
AcDbLine
 10
2.4998644498
 20
6.0917409184
 30
0.0
 11
2.5298644498
 21
6.0617409184
 31
0.0
  0
LINE
  5
172
330
1F
100
AcDbEntity
  8
0
  6
CONTINUOUS
 62
     7
100
AcDbLine
 10
4.1234077569
 20
6.0617409184
 30
0.0
 11
4.1534077569
 21
6.0917409184
 31
0.0
  0
LINE
  5
173
330
1F
100
AcDbEntity
  8
0
  6
CONTINUOUS
 62
     7
100
AcDbLine
 10
4.1534077569
 20
7.2522133594
 30
0.0
 11
4.1234077569
 21
7.2822133594
 31
0.0
  0
LINE
  5
174
330
1F
100
AcDbEntity
  8
0
  6
CONTINUOUS
 62
     7
100
AcDbLine
 10
4.0296626124
 20
7.2796592913
 30
0.0
 11
4.0271085443
 21
7.2822133594
 31
0.0
  0
LINE
  5
175
330
1F
100
AcDbEntity
  8
0
  6
CONTINUOUS
 62
     7
100
AcDbLine
 10
3.8702581506
 20
7.2822133594
 30
0.0
 11
3.8676995252
 21
7.279654734
 31
0.0
  0
LINE
  5
176
330
1F
100
AcDbEntity
  8
0
  6
CONTINUOUS
 62
     7
100
AcDbLine
 10
2.7855681242
 20
7.2796592913
 30
0.0
 11
2.7830140561
 21
7.2822133594
 31
0.0
  0
LINE
  5
177
330
1F
100
AcDbEntity
  8
0
  6
CONTINUOUS
 62
     7
100
AcDbLine
 10
2.6261636624
 20
7.2822133594
 30
0.0
 11
2.6236050371
 21
7.279654734
 31
0.0
  0
LINE
  5
178
330
1F
100
AcDbEntity
  8
0
  6
CONTINUOUS
 62
     7
100
AcDbLine
 10
4.1234077569
 20
6.0617409184
 30
0.0
 11
4.1234077569
 21
7.2822133594
 31
0.0
  0
LINE
  5
179
330
1F
100
AcDbEntity
  8
0
  6
CONTINUOUS
 62
     7
100
AcDbLine
 10
2.5298644498
 20
7.2822133594
 30
0.0
 11
2.5298644498
 21
6.0617409184
 31
0.0
  0
SPLINE
  5
17A
330
1F
100
AcDbEntity
  8
0
  6
CONTINUOUS
 62
     7
100
AcDbSpline
210
0.0
220
0.0
230
1.0
 70
     8
 71
     3
 72
    29
 73
    25
 74
     0
 42
0.00000001
 43
0.00000001
 40
-0.1267424971293043
 40
-0.0842023872840779
 40
-0.0429133788077013
 40
0.0
 40
0.043013431125249
 40
0.0843624759808951
 40
0.1269025952224689
 40
0.188882531495908
 40
0.2497672989092573
 40
0.2908430043587844
 40
0.3308814395779289
 40
0.3731122492140263
 40
0.4156765622498595
 40
0.4570677618035562
 40
0.5001569689355145
 40
0.5430728328022614
 40
0.5843698995033154
 40
0.6269236963746025
 40
0.6889800734179387
 40
0.7498418763335752
 40
0.7909128103877873
 40
0.8309750397853475
 40
0.8732575028706957
 40
0.9157976127159221
 40
0.9570866211922987
 40
1.0
 40
1.043013431125249
 40
1.084362475980895
 40
1.126902595222469
 10
2.588409125714621
 20
6.639592974537179
 30
0.0
 10
2.584892708036489
 20
6.672004848068591
 30
0.0
 10
2.58848255481847
 20
6.704418845860594
 30
0.0
 10
2.600479180292557
 20
6.734686076273001
 30
0.0
 10
2.622866560841277
 20
6.764307569235517
 30
0.0
 10
2.657427926236575
 20
6.789866702707714
 30
0.0
 10
2.699617799500926
 20
6.797617142745825
 30
0.0
 10
2.735746775175225
 20
6.793244349200801
 30
0.0
 10
2.764830116147118
 20
6.780649047822349
 30
0.0
 10
2.789301907614968
 20
6.760284164083015
 30
0.0
 10
2.80875906142694
 20
6.734644647520628
 30
0.0
 10
2.820723849646501
 20
6.704336387959155
 30
0.0
 10
2.824286018774528
 20
6.671885587524772
 30
0.0
 10
2.820736386990397
 20
6.639457509089889
 30
0.0
 10
2.808725195231922
 20
6.609228037368712
 30
0.0
 10
2.786284758665644
 20
6.579635017143573
 30
0.0
 10
2.751699742528332
 20
6.554088175742102
 30
0.0
 10
2.709498177399233
 20
6.546329801797218
 30
0.0
 10
2.673371526712761
 20
6.550730992983732
 30
0.0
 10
2.644282998069476
 20
6.563357163041207
 30
0.0
 10
2.619812365654656
 20
6.583742064647077
 30
0.0
 10
2.600360509179079
 20
6.609359374003167
 30
0.0
 10
2.588409125714621
 20
6.639592974537179
 30
0.0
 10
2.584892708036489
 20
6.672004848068591
 30
0.0
 10
2.58848255481847
 20
6.704418845860594
 30
0.0
  0
SPLINE
  5
17B
330
1F
100
AcDbEntity
  8
0
  6
CONTINUOUS
 62
     7
100
AcDbSpline
210
0.0
220
0.0
230
1.0
 70
     8
 71
     3
 72
    29
 73
    25
 74
     0
 42
0.00000001
 43
0.00000001
 40
-0.1267424971292984
 40
-0.0842023872840483
 40
-0.0429133788076715
 40
0.0
 40
0.0430134311252494
 40
0.0843624759808952
 40
0.1269025952224688
 40
0.1888825314959077
 40
0.2497672989092569
 40
0.2908430043588395
 40
0.3308814395779839
 40
0.3731122492140377
 40
0.4156765622499185
 40
0.4570677618036152
 40
0.500156968935515
 40
0.5430728328022616
 40
0.5843698995033155
 40
0.6269236963746029
 40
0.6889800734179389
 40
0.7498418763335751
 40
0.790912810387815
 40
0.8309750397853751
 40
0.8732575028707016
 40
0.9157976127159517
 40
0.9570866211923285
 40
1.0
 40
1.043013431125249
 40
1.084362475980895
 40
1.126902595222469
 10
3.832503613903598
 20
6.639592974537194
 30
0.0
 10
3.828987196225465
 20
6.672004848068598
 30
0.0
 10
3.832577043007447
 20
6.704418845860594
 30
0.0
 10
3.844573668481532
 20
6.734686076273002
 30
0.0
 10
3.866961049030253
 20
6.764307569235517
 30
0.0
 10
3.901522414425551
 20
6.789866702707716
 30
0.0
 10
3.943712287689916
 20
6.797617142745824
 30
0.0
 10
3.979841263364228
 20
6.793244349200807
 30
0.0
 10
4.008924604336131
 20
6.78064904782236
 30
0.0
 10
4.03339639580396
 20
6.760284164082997
 30
0.0
 10
4.052853549615904
 20
6.73464464752059
 30
0.0
 10
4.064818337835472
 20
6.704336387959126
 30
0.0
 10
4.068380506963504
 20
6.671885587524757
 30
0.0
 10
4.064830875179371
 20
6.639457509089889
 30
0.0
 10
4.052819683420898
 20
6.609228037368712
 30
0.0
 10
4.030379246854619
 20
6.579635017143573
 30
0.0
 10
3.995794230717307
 20
6.554088175742102
 30
0.0
 10
3.953592665588202
 20
6.546329801797219
 30
0.0
 10
3.917466014901722
 20
6.550730992983731
 30
0.0
 10
3.888377486258433
 20
6.563357163041202
 30
0.0
 10
3.863906853843624
 20
6.583742064647086
 30
0.0
 10
3.84445499736806
 20
6.609359374003185
 30
0.0
 10
3.832503613903598
 20
6.639592974537194
 30
0.0
 10
3.828987196225465
 20
6.672004848068598
 30
0.0
 10
3.832577043007447
 20
6.704418845860594
 30
0.0
  0
SPLINE
  5
17C
330
1F
100
AcDbEntity
  8
0
  6
CONTINUOUS
 62
     7
100
AcDbSpline
210
0.0
220
0.0
230
1.0
 70
     8
 71
     3
 72
    26
 73
    22
 74
     0
 42
0.00000001
 43
0.00000001
 40
0.0
 40
0.0
 40
0.0
 40
0.0
 40
0.0150226979497936
 40
0.0690502536626216
 40
0.1212627330299077
 40
0.1749658341680516
 40
0.227618569304968
 40
0.2817690921660395
 40
0.3349121752264613
 40
0.3896071767918911
 40
0.4425238820803578
 40
0.4970109402465188
 40
0.5493236225014141
 40
0.6031577009549665
 40
0.6554363705566603
 40
0.7091988072271055
 40
0.762059223365501
 40
0.8164335208947628
 40
0.869591471993339
 40
0.9243153934089213
 40
1.0
 40
1.0
 40
1.0
 40
1.0
 10
4.04683459453337
 20
7.282169287585462
 30
0.0
 10
4.046914202437531
 20
7.282182092784278
 30
0.0
 10
4.047280111809756
 20
7.282240950536021
 30
0.0
 10
4.045158392904154
 20
7.281898468211685
 30
0.0
 10
4.040439171836248
 20
7.281163857136545
 30
0.0
 10
4.033034398351073
 20
7.280082014729631
 30
0.0
 10
4.023247656310304
 20
7.278790352798884
 30
0.0
 10
4.011396458581931
 20
7.277434901647328
 30
0.0
 10
3.997614047020013
 20
7.276150295418543
 30
0.0
 10
3.98252460462756
 20
7.27510549866972
 30
0.0
 10
3.96633007284897
 20
7.274407401507962
 30
0.0
 10
3.949854522851662
 20
7.27414823108199
 30
0.0
 10
3.933260985252758
 20
7.274347392805248
 30
0.0
 10
3.917325731849444
 20
7.274972089289668
 30
0.0
 10
3.902143655732596
 20
7.275961178021016
 30
0.0
 10
3.888346982308619
 20
7.277191904001014
 30
0.0
 10
3.876078277229808
 20
7.278549672028488
 30
0.0
 10
3.865873541269763
 20
7.279868411526196
 30
0.0
 10
3.857973960857613
 20
7.281004130827283
 30
0.0
 10
3.851701392718423
 20
7.281977113915027
 30
0.0
 10
3.850788159597619
 20
7.282126601788807
 30
0.0
 10
3.850258150628647
 20
7.282213359388868
 30
0.0
  0
SPLINE
  5
17D
330
1F
100
AcDbEntity
  8
0
  6
CONTINUOUS
 62
     7
100
AcDbSpline
210
0.0
220
0.0
230
1.0
 70
     8
 71
     3
 72
    26
 73
    22
 74
     0
 42
0.00000001
 43
0.00000001
 40
0.0
 40
0.0
 40
0.0
 40
0.0
 40
0.0150226979497934
 40
0.0690502536626214
 40
0.1212627330299074
 40
0.1749658341680515
 40
0.2276185693049678
 40
0.2817690921660394
 40
0.3349121752264614
 40
0.3896071767918903
 40
0.4425238820803572
 40
0.4970109402465187
 40
0.5493236225014142
 40
0.6031577009549659
 40
0.65543637055666
 40
0.7091988072271052
 40
0.7620592233655007
 40
0.8164335208947625
 40
0.869591471993339
 40
0.9243153934089213
 40
1.0
 40
1.0
 40
1.0
 40
1.0
 10
2.802740106344393
 20
7.282169287585462
 30
0.0
 10
2.802819714248554
 20
7.282182092784278
 30
0.0
 10
2.803185623620779
 20
7.282240950536021
 30
0.0
 10
2.801063904715178
 20
7.281898468211685
 30
0.0
 10
2.796344683647272
 20
7.281163857136545
 30
0.0
 10
2.788939910162096
 20
7.280082014729631
 30
0.0
 10
2.779153168121328
 20
7.278790352798884
 30
0.0
 10
2.767301970392955
 20
7.277434901647328
 30
0.0
 10
2.753519558831036
 20
7.276150295418543
 30
0.0
 10
2.738430116438583
 20
7.27510549866972
 30
0.0
 10
2.722235584659993
 20
7.274407401507962
 30
0.0
 10
2.705760034662685
 20
7.27414823108199
 30
0.0
 10
2.689166497063782
 20
7.274347392805248
 30
0.0
 10
2.673231243660468
 20
7.274972089289668
 30
0.0
 10
2.65804916754362
 20
7.275961178021016
 30
0.0
 10
2.644252494119642
 20
7.277191904001014
 30
0.0
 10
2.631983789040831
 20
7.278549672028488
 30
0.0
 10
2.621779053080787
 20
7.279868411526196
 30
0.0
 10
2.613879472668636
 20
7.281004130827283
 30
0.0
 10
2.607606904529447
 20
7.281977113915027
 30
0.0
 10
2.606693671408642
 20
7.282126601788807
 30
0.0
 10
2.606163662439671
 20
7.282213359388868
 30
0.0
  0
SPLINE
  5
17E
330
1F
100
AcDbEntity
  8
0
  6
CONTINUOUS
 62
     7
100
AcDbSpline
210
0.0
220
0.0
230
1.0
 70
     8
 71
     3
 72
     9
 73
     5
 74
     0
 42
0.00000001
 43
0.00000001
 40
0.0
 40
0.0
 40
0.0
 40
0.0
 40
0.8393464304009786
 40
1.0
 40
1.0
 40
1.0
 40
1.0
 10
2.606163662439671
 20
6.671977138916426
 30
0.0
 10
2.606211498157213
 20
6.666665533515748
 30
0.0
 10
2.606268489782851
 20
6.660337269990352
 30
0.0
 10
2.607918674563084
 20
6.654292488763527
 30
0.0
 10
2.608183782638527
 20
6.653321373081993
 30
0.0
  0
ARC
  5
17F
330
1F
100
AcDbEntity
  8
0
  6
CONTINUOUS
 62
     7
100
AcDbCircle
 10
2.7045872622
 20
6.6719786782
 30
0.0
 40
0.0984235997924054
100
AcDbArc
 50
359.9592962753
 51
180.0008960804
  0
SPLINE
  5
180
330
1F
100
AcDbEntity
  8
0
  6
CONTINUOUS
 62
     7
100
AcDbSpline
210
0.0
220
0.0
230
1.0
 70
     8
 71
     3
 72
    29
 73
    25
 74
     0
 42
0.00000001
 43
0.00000001
 40
-0.1251976512174425
 40
-0.0765763615434067
 40
-0.0348596144037384
 40
0.0
 40
0.0348865940178083
 40
0.076559321336135
 40
0.1250660610151626
 40
0.174021323558832
 40
0.2157349888579648
 40
0.2502517102405258
 40
0.3045915003708869
 40
0.3749672612242711
 40
0.423553373603616
 40
0.4652363447546057
 40
0.500063395126059
 40
0.5549039709738663
 40
0.6249796582330698
 40
0.6738822094038207
 40
0.7155708250943902
 40
0.7500904653653799
 40
0.7501183031270249
 40
0.8044385063391757
 40
0.8748023487825575
 40
0.9234236384565933
 40
0.9651403855962616
 40
1.0
 40
1.034886594017808
 40
1.076559321336135
 40
1.125066061015163
 10
3.851996249389816
 20
6.694970750544281
 30
0.0
 10
3.849465978057633
 20
6.671971737501498
 30
0.0
 10
3.85199866188829
 20
6.648980749067958
 30
0.0
 10
3.860916509552597
 20
6.624580834803899
 30
0.0
 10
3.878016072966331
 20
6.601276801325903
 30
0.0
 10
3.901333087327969
 20
6.584167677447335
 30
0.0
 10
3.925772806566882
 20
6.575282331844429
 30
0.0
 10
3.952695322503948
 20
6.572323665091053
 30
0.0
 10
3.985657810137824
 20
6.577968112095413
 30
0.0
 10
4.016680261761945
 20
6.597626152520959
 30
0.0
 10
4.036400884702359
 20
6.624494528490488
 30
0.0
 10
4.045347382306109
 20
6.648901519236024
 30
0.0
 10
4.048360991718414
 20
6.675983406737195
 30
0.0
 10
4.042657315226211
 20
6.709061137889599
 30
0.0
 10
4.022891546763305
 20
6.740130542661957
 30
0.0
 10
3.995972863782091
 20
6.759807751780966
 30
0.0
 10
3.971553380873047
 20
6.768686000470931
 30
0.0
 10
3.955804927607562
 20
6.770401712509863
 30
0.0
 10
3.937500588325972
 20
6.770403315750139
 30
0.0
 10
3.911640684998002
 20
6.765963103194415
 30
0.0
 10
3.88064870455208
 20
6.746292528645446
 30
0.0
 10
3.860931739113867
 20
6.719400456119754
 30
0.0
 10
3.851996249389816
 20
6.694970750544281
 30
0.0
 10
3.849465978057633
 20
6.671971737501498
 30
0.0
 10
3.85199866188829
 20
6.648980749067958
 30
0.0
  0
LINE
  5
181
330
1F
100
AcDbEntity
  8
0
  6
CONTINUOUS
 62
     7
100
AcDbLine
 10
2.4998644498
 20
6.0917409184
 30
0.0
 11
2.4998644498
 21
7.2522133594
 31
0.0
  0
LINE
  5
182
330
1F
100
AcDbEntity
  8
0
  6
CONTINUOUS
 62
     7
100
AcDbLine
 10
4.1534077569
 20
7.2522133594
 30
0.0
 11
4.1534077569
 21
6.0917409184
 31
0.0
  0
LINE
  5
183
330
1F
100
AcDbEntity
  8
0
  6
CONTINUOUS
 62
     7
100
AcDbLine
 10
3.8702581506
 20
7.2822133594
 30
0.0
 11
4.0271085443
 21
7.2822133594
 31
0.0
  0
LINE
  5
184
330
1F
100
AcDbEntity
  8
0
  6
CONTINUOUS
 62
     7
100
AcDbLine
 10
2.7830140561
 20
7.2822133594
 30
0.0
 11
2.6261636624
 21
7.2822133594
 31
0.0
  0
CIRCLE
  5
185
330
1F
100
AcDbEntity
  8
0
  6
CONTINUOUS
 62
     7
100
AcDbCircle
 10
2.7045888593
 20
6.6719771389
 30
0.0
 40
0.0784251968503935
  0
LINE
  5
186
330
1F
100
AcDbEntity
  8
0
  6
CONTINUOUS
 62
     7
100
AcDbLine
 10
2.6496430044
 20
6.6402541348
 30
0.0
 11
2.6496430044
 21
6.703700143
 31
0.0
  0
LINE
  5
187
330
1F
100
AcDbEntity
  8
0
  6
CONTINUOUS
 62
     7
100
AcDbLine
 10
2.7045888593
 20
6.6085311307
 30
0.0
 11
2.6496430044
 21
6.6402541348
 31
0.0
  0
LINE
  5
188
330
1F
100
AcDbEntity
  8
0
  6
CONTINUOUS
 62
     7
100
AcDbLine
 10
2.7595347142
 20
6.6402541348
 30
0.0
 11
2.7045888593
 21
6.6085311307
 31
0.0
  0
LINE
  5
189
330
1F
100
AcDbEntity
  8
0
  6
CONTINUOUS
 62
     7
100
AcDbLine
 10
2.7595347142
 20
6.703700143
 30
0.0
 11
2.7595347142
 21
6.6402541348
 31
0.0
  0
LINE
  5
18A
330
1F
100
AcDbEntity
  8
0
  6
CONTINUOUS
 62
     7
100
AcDbLine
 10
2.7045888593
 20
6.7354231472
 30
0.0
 11
2.7595347142
 21
6.703700143
 31
0.0
  0
LINE
  5
18B
330
1F
100
AcDbEntity
  8
0
  6
CONTINUOUS
 62
     7
100
AcDbLine
 10
2.6496430044
 20
6.703700143
 30
0.0
 11
2.7045888593
 21
6.7354231472
 31
0.0
  0
CIRCLE
  5
18C
330
1F
100
AcDbEntity
  8
0
  6
CONTINUOUS
 62
     7
100
AcDbCircle
 10
2.7045888593
 20
6.6719771389
 30
0.0
 40
0.0984251968503931
  0
CIRCLE
  5
18D
330
1F
100
AcDbEntity
  8
0
  6
CONTINUOUS
 62
     7
100
AcDbCircle
 10
3.9486833475
 20
6.6719771389
 30
0.0
 40
0.0784251968503935
  0
LINE
  5
18E
330
1F
100
AcDbEntity
  8
0
  6
CONTINUOUS
 62
     7
100
AcDbLine
 10
3.9486833475
 20
6.7354231472
 30
0.0
 11
3.8937374926
 21
6.703700143
 31
0.0
  0
LINE
  5
18F
330
1F
100
AcDbEntity
  8
0
  6
CONTINUOUS
 62
     7
100
AcDbLine
 10
3.8937374926
 20
6.703700143
 30
0.0
 11
3.8937374926
 21
6.6402541348
 31
0.0
  0
LINE
  5
190
330
1F
100
AcDbEntity
  8
0
  6
CONTINUOUS
 62
     7
100
AcDbLine
 10
3.8937374926
 20
6.6402541348
 30
0.0
 11
3.9486833475
 21
6.6085311307
 31
0.0
  0
LINE
  5
191
330
1F
100
AcDbEntity
  8
0
  6
CONTINUOUS
 62
     7
100
AcDbLine
 10
3.9486833475
 20
6.6085311307
 30
0.0
 11
4.0036292024
 21
6.6402541348
 31
0.0
  0
LINE
  5
192
330
1F
100
AcDbEntity
  8
0
  6
CONTINUOUS
 62
     7
100
AcDbLine
 10
4.0036292024
 20
6.6402541348
 30
0.0
 11
4.0036292024
 21
6.703700143
 31
0.0
  0
LINE
  5
193
330
1F
100
AcDbEntity
  8
0
  6
CONTINUOUS
 62
     7
100
AcDbLine
 10
4.0036292024
 20
6.703700143
 30
0.0
 11
3.9486833475
 21
6.7354231472
 31
0.0
  0
CIRCLE
  5
194
330
1F
100
AcDbEntity
  8
0
  6
CONTINUOUS
 62
     7
100
AcDbCircle
 10
3.9486833475
 20
6.6719771389
 30
0.0
 40
0.0984251968503935
  0
SPLINE
  5
195
330
1F
100
AcDbEntity
  8
0
  6
HIDDEN
 62
     7
100
AcDbSpline
210
0.0
220
0.0
230
1.0
 70
     8
 71
     3
 72
    23
 73
    19
 74
     0
 42
0.00000001
 43
0.00000001
 40
0.0
 40
0.0
 40
0.0
 40
0.0
 40
0.0519966600630895
 40
0.1225537067722527
 40
0.2013216907885172
 40
0.280888983484011
 40
0.3517567507325202
 40
0.4139615137661099
 40
0.4675641707840211
 40
0.5212034988600048
 40
0.5834212316072656
 40
0.6542787335704664
 40
0.7338129200702278
 40
0.8127217433408901
 40
0.8833367847728295
 40
0.9456965762341534
 40
0.9998629620987347
 40
0.9999999999999999
 40
0.9999999999999999
 40
0.9999999999999999
 40
0.9999999999999999
 10
2.608183782638527
 20
6.653321373081993
 30
0.0
 10
2.609274715569392
 20
6.648393555022444
 30
0.0
 10
2.611845993692933
 20
6.636778917298326
 30
0.0
 10
2.620652439686725
 20
6.619204114396571
 30
0.0
 10
2.634344754194507
 20
6.60173756523138
 30
0.0
 10
2.651840947265725
 20
6.587927286737274
 30
0.0
 10
2.670480202013942
 20
6.578972940714964
 30
0.0
 10
2.688080166317027
 20
6.574456570847931
 30
0.0
 10
2.704527639593269
 20
6.573137963369885
 30
0.0
 10
2.720978591063828
 20
6.574435987540461
 30
0.0
 10
2.738586922043864
 20
6.578932977386058
 30
0.0
 10
2.757238714535825
 20
6.587862845838292
 30
0.0
 10
2.774740284118225
 20
6.601663806338971
 30
0.0
 10
2.78853113165765
 20
6.619105353273508
 30
0.0
 10
2.7975900217566
 20
6.637670563019209
 30
0.0
 10
2.801862179060101
 20
6.655287492394013
 30
0.0
 10
2.803430203872708
 20
6.666647401382627
 30
0.0
 10
2.803011892808545
 20
6.671895512799423
 30
0.0
 10
2.803010837175837
 20
6.671908756718946
 30
0.0
  0
LINE
  5
196
330
1F
100
AcDbEntity
  8
0
  6
HIDDEN
 62
     7
100
AcDbLine
 10
3.4266361034
 20
6.8200873751
 30
0.0
 11
3.4266361034
 21
6.5238669027
 31
0.0
  0
LINE
  5
197
330
1F
100
AcDbEntity
  8
0
  6
HIDDEN
 62
     7
100
AcDbLine
 10
3.2266361034
 20
6.8200873751
 30
0.0
 11
3.2266361034
 21
6.5238669027
 31
0.0
  0
SPLINE
  5
198
330
1F
100
AcDbEntity
  8
0
  6
HIDDEN
 62
     7
100
AcDbSpline
210
0.0
220
0.0
230
1.0
 70
     8
 71
     3
 72
    14
 73
    10
 74
     0
 42
0.00000001
 43
0.00000001
 40
0.0
 40
0.0
 40
0.0
 40
0.0
 40
0.1184210897946646
 40
0.2987842959689269
 40
0.4841646967583796
 40
0.6203646770612835
 40
0.7601213767608354
 40
0.8965093587425251
 40
1.0
 40
1.0
 40
1.0
 40
1.0
 10
4.000765066200784
 20
6.755493687875467
 30
0.0
 10
4.003848573319413
 20
6.75748104053944
 30
0.0
 10
4.011628467130153
 20
6.762495263661154
 30
0.0
 10
4.022679101524227
 20
6.770577192407679
 30
0.0
 10
4.03239689007534
 20
6.778097573904729
 30
0.0
 10
4.039490389508505
 20
6.783803896040633
 30
0.0
 10
4.044090328805991
 20
6.787577687848191
 30
0.0
 10
4.046784959205718
 20
6.789817446351142
 30
0.0
 10
4.046852293553567
 20
6.789873847995509
 30
0.0
 10
4.046881343557037
 20
6.789898181311519
 30
0.0
  0
SPLINE
  5
199
330
1F
100
AcDbEntity
  8
0
  6
HIDDEN
 62
     7
100
AcDbSpline
210
0.0
220
0.0
230
1.0
 70
     8
 71
     3
 72
    17
 73
    13
 74
     0
 42
0.00000001
 43
0.00000001
 40
0.0
 40
0.0
 40
0.0
 40
0.0
 40
0.1296705522123625
 40
0.2702098781907299
 40
0.3440453817350391
 40
0.4194618524270952
 40
0.4934627515363459
 40
0.5702594796745005
 40
0.6526683383267018
 40
0.7374205027720978
 40
0.868946039831726
 40
1.0
 40
1.0
 40
1.0
 40
1.0
 10
4.008500561653983
 20
6.760558381224812
 30
0.0
 10
4.004106749214324
 20
6.757668685690283
 30
0.0
 10
3.994950842157115
 20
6.751647085064145
 30
0.0
 10
3.981346113177646
 20
6.74462754461319
 30
0.0
 10
3.968915305271797
 20
6.7401086895266
 30
0.0
 10
3.958766315355254
 20
6.73777046572604
 30
0.0
 10
3.948123505149576
 20
6.736972897358751
 30
0.0
 10
3.937168235910995
 20
6.737972313891468
 30
0.0
 10
3.926162677681368
 20
6.740779403957347
 30
0.0
 10
3.913572723220532
 20
6.745791453158747
 30
0.0
 10
3.90011543524776
 20
6.753044930955582
 30
0.0
 10
3.891354461917596
 20
6.75890255950899
 30
0.0
 10
3.886981842341552
 20
6.761826113812441
 30
0.0
  0
SPLINE
  5
19A
330
1F
100
AcDbEntity
  8
0
  6
HIDDEN
 62
     7
100
AcDbSpline
210
0.0
220
0.0
230
1.0
 70
     8
 71
     3
 72
    10
 73
     6
 74
     0
 42
0.00000001
 43
0.00000001
 40
0.0
 40
0.0
 40
0.0
 40
0.0
 40
0.5
 40
0.5
 40
1.0
 40
1.0
 40
1.0
 40
1.0
 10
3.850258150628647
 20
6.790087375136899
 30
0.0
 10
3.850258150628647
 20
6.790087375136899
 30
0.0
 10
3.855286931788536
 20
6.785816627573753
 30
0.0
 10
3.872022363015482
 20
6.77254276551344
 30
0.0
 10
3.883311893932298
 20
6.763781293621527
 30
0.0
 10
3.896601628757068
 20
6.75549368787561
 30
0.0
  0
SPLINE
  5
19B
330
1F
100
AcDbEntity
  8
0
  6
HIDDEN
 62
     7
100
AcDbSpline
210
0.0
220
0.0
230
1.0
 70
     8
 71
     3
 72
    15
 73
    11
 74
     0
 42
0.00000001
 43
0.00000001
 40
0.0
 40
0.0
 40
0.0
 40
0.0
 40
0.1074833751316886
 40
0.2711877134619412
 40
0.4394458437887742
 40
0.5630659996344067
 40
0.6899143659770964
 40
0.8137051591222282
 40
0.9421194620304764
 40
0.9999999999999999
 40
0.9999999999999999
 40
0.9999999999999999
 40
0.9999999999999999
 10
2.756670578011807
 20
6.755493687875467
 30
0.0
 10
2.759754165113521
 20
6.757481107047214
 30
0.0
 10
2.767534260726911
 20
6.762495497972471
 30
0.0
 10
2.778582746921114
 20
6.770575640441408
 30
0.0
 10
2.788308715561695
 20
6.778102823870942
 30
0.0
 10
2.795379017305398
 20
6.78378985659466
 30
0.0
 10
2.800060692746759
 20
6.787631613885254
 30
0.0
 10
2.802720907715943
 20
6.789842666237917
 30
0.0
 10
2.803401112523879
 20
6.790409077859043
 30
0.0
 10
2.802493854399457
 20
6.78965477329882
 30
0.0
 10
2.802211975480688
 20
6.789420416010486
 30
0.0
  0
SPLINE
  5
19C
330
1F
100
AcDbEntity
  8
0
  6
HIDDEN
 62
     7
100
AcDbSpline
210
0.0
220
0.0
230
1.0
 70
     8
 71
     3
 72
    17
 73
    13
 74
     0
 42
0.00000001
 43
0.00000001
 40
0.0
 40
0.0
 40
0.0
 40
0.0
 40
0.1296705522123512
 40
0.2702098781907213
 40
0.3440453817350317
 40
0.4194618524270904
 40
0.4934627515363437
 40
0.5702594796744999
 40
0.6526683383267017
 40
0.7374205027720977
 40
0.8689460398317266
 40
1.0
 40
1.0
 40
1.0
 40
1.0
 10
2.764406073465005
 20
6.760558381224812
 30
0.0
 10
2.760012261025346
 20
6.757668685690282
 30
0.0
 10
2.750856353968139
 20
6.751647085064144
 30
0.0
 10
2.73725162498867
 20
6.74462754461319
 30
0.0
 10
2.72482081708282
 20
6.7401086895266
 30
0.0
 10
2.714671827166277
 20
6.73777046572604
 30
0.0
 10
2.7040290169606
 20
6.736972897358751
 30
0.0
 10
2.693073747722019
 20
6.737972313891468
 30
0.0
 10
2.682068189492392
 20
6.740779403957347
 30
0.0
 10
2.669478235031555
 20
6.745791453158747
 30
0.0
 10
2.656020947058785
 20
6.753044930955581
 30
0.0
 10
2.64725997372862
 20
6.758902559508989
 30
0.0
 10
2.642887354152576
 20
6.761826113812441
 30
0.0
  0
SPLINE
  5
19D
330
1F
100
AcDbEntity
  8
0
  6
HIDDEN
 62
     7
100
AcDbSpline
210
0.0
220
0.0
230
1.0
 70
     8
 71
     3
 72
    10
 73
     6
 74
     0
 42
0.00000001
 43
0.00000001
 40
0.0
 40
0.0
 40
0.0
 40
0.0
 40
0.5
 40
0.5
 40
1.0
 40
1.0
 40
1.0
 40
1.0
 10
2.606163662439671
 20
6.790087375136899
 30
0.0
 10
2.606163662439671
 20
6.790087375136899
 30
0.0
 10
2.611192443599559
 20
6.785816627573753
 30
0.0
 10
2.627927874826506
 20
6.77254276551344
 30
0.0
 10
2.639217405743322
 20
6.763781293621527
 30
0.0
 10
2.652507140568092
 20
6.75549368787561
 30
0.0
  0
LINE
  5
19E
330
1F
100
AcDbEntity
  8
0
  6
HIDDEN
 62
     7
100
AcDbLine
 10
4.0471085443
 20
7.2622133594
 30
0.0
 11
3.8502581506
 21
7.2622133594
 31
0.0
  0
LINE
  5
19F
330
1F
100
AcDbEntity
  8
0
  6
HIDDEN
 62
     7
100
AcDbLine
 10
3.8502581506
 20
6.8100873751
 30
0.0
 11
4.0471085443
 21
6.8100873751
 31
0.0
  0
LINE
  5
1A0
330
1F
100
AcDbEntity
  8
0
  6
HIDDEN
 62
     7
100
AcDbLine
 10
4.0271085443
 20
6.7900873751
 30
0.0
 11
3.8702581506
 21
6.7900873751
 31
0.0
  0
LINE
  5
1A1
330
1F
100
AcDbEntity
  8
0
  6
HIDDEN
 62
     7
100
AcDbLine
 10
3.9486833475
 20
7.1822133594
 30
0.0
 11
3.9486833475
 21
7.2822133594
 31
0.0
  0
LINE
  5
1A2
330
1F
100
AcDbEntity
  8
0
  6
HIDDEN
 62
     7
100
AcDbLine
 10
3.8937374926
 20
7.1822133594
 30
0.0
 11
3.9486833475
 21
7.1822133594
 31
0.0
  0
LINE
  5
1A3
330
1F
100
AcDbEntity
  8
0
  6
HIDDEN
 62
     7
100
AcDbLine
 10
3.9486833475
 20
7.1822133594
 30
0.0
 11
4.0036292024
 21
7.1822133594
 31
0.0
  0
LINE
  5
1A4
330
1F
100
AcDbEntity
  8
0
  6
HIDDEN
 62
     7
100
AcDbLine
 10
4.0036292024
 20
7.1822133594
 30
0.0
 11
4.0036292024
 21
7.2822133594
 31
0.0
  0
LINE
  5
1A5
330
1F
100
AcDbEntity
  8
0
  6
HIDDEN
 62
     7
100
AcDbLine
 10
3.8937374926
 20
7.1822133594
 30
0.0
 11
3.8937374926
 21
7.2822133594
 31
0.0
  0
LINE
  5
1A6
330
1F
100
AcDbEntity
  8
0
  6
HIDDEN
 62
     7
100
AcDbLine
 10
2.6061636624
 20
7.2622133594
 30
0.0
 11
2.8030140561
 21
7.2622133594
 31
0.0
  0
LINE
  5
1A7
330
1F
100
AcDbEntity
  8
0
  6
HIDDEN
 62
     7
100
AcDbLine
 10
2.8030140561
 20
6.8100873751
 30
0.0
 11
2.6061636624
 21
6.8100873751
 31
0.0
  0
LINE
  5
1A8
330
1F
100
AcDbEntity
  8
0
  6
HIDDEN
 62
     7
100
AcDbLine
 10
2.6261636624
 20
6.7900873751
 30
0.0
 11
2.7830140561
 21
6.7900873751
 31
0.0
  0
LINE
  5
1A9
330
1F
100
AcDbEntity
  8
0
  6
HIDDEN
 62
     7
100
AcDbLine
 10
2.7045888593
 20
7.1822133594
 30
0.0
 11
2.7045888593
 21
7.2822133594
 31
0.0
  0
LINE
  5
1AA
330
1F
100
AcDbEntity
  8
0
  6
HIDDEN
 62
     7
100
AcDbLine
 10
2.7045888593
 20
7.1822133594
 30
0.0
 11
2.6496430044
 21
7.1822133594
 31
0.0
  0
LINE
  5
1AB
330
1F
100
AcDbEntity
  8
0
  6
HIDDEN
 62
     7
100
AcDbLine
 10
2.7595347142
 20
7.1822133594
 30
0.0
 11
2.7045888593
 21
7.1822133594
 31
0.0
  0
LINE
  5
1AC
330
1F
100
AcDbEntity
  8
0
  6
HIDDEN
 62
     7
100
AcDbLine
 10
2.6496430044
 20
7.1822133594
 30
0.0
 11
2.6496430044
 21
7.2822133594
 31
0.0
  0
LINE
  5
1AD
330
1F
100
AcDbEntity
  8
0
  6
HIDDEN
 62
     7
100
AcDbLine
 10
2.7595347142
 20
7.1822133594
 30
0.0
 11
2.7595347142
 21
7.2822133594
 31
0.0
  0
LINE
  5
1AE
330
1F
100
AcDbEntity
  8
0
  6
HIDDEN
 62
     7
100
AcDbLine
 10
4.1534077569
 20
6.8200873751
 30
0.0
 11
4.1234077569
 21
6.7900873751
 31
0.0
  0
LINE
  5
1AF
330
1F
100
AcDbEntity
  8
0
  6
HIDDEN
 62
     7
100
AcDbLine
 10
4.1234077569
 20
6.5538669027
 30
0.0
 11
4.1534077569
 21
6.5238669027
 31
0.0
  0
LINE
  5
1B0
330
1F
100
AcDbEntity
  8
0
  6
HIDDEN
 62
     7
100
AcDbLine
 10
3.4266361034
 20
6.8200873751
 30
0.0
 11
3.2266361034
 21
6.8200873751
 31
0.0
  0
LINE
  5
1B1
330
1F
100
AcDbEntity
  8
0
  6
HIDDEN
 62
     7
100
AcDbLine
 10
3.2266361034
 20
6.5238669027
 30
0.0
 11
3.4266361034
 21
6.5238669027
 31
0.0
  0
LINE
  5
1B2
330
1F
100
AcDbEntity
  8
0
  6
HIDDEN
 62
     7
100
AcDbLine
 10
2.4998644498
 20
6.5238669027
 30
0.0
 11
2.5298644498
 21
6.5538669027
 31
0.0
  0
LINE
  5
1B3
330
1F
100
AcDbEntity
  8
0
  6
HIDDEN
 62
     7
100
AcDbLine
 10
2.5298644498
 20
6.7900873751
 30
0.0
 11
2.4998644498
 21
6.8200873751
 31
0.0
  0
LINE
  5
1B4
330
1F
100
AcDbEntity
  8
0
  6
HIDDEN
 62
     7
100
AcDbLine
 10
3.8502581506
 20
6.7900873751
 30
0.0
 11
3.4266361034
 21
6.7900873751
 31
0.0
  0
LINE
  5
1B5
330
1F
100
AcDbEntity
  8
0
  6
HIDDEN
 62
     7
100
AcDbLine
 10
4.1234077569
 20
6.7900873751
 30
0.0
 11
4.0468813436
 21
6.7900873751
 31
0.0
  0
LINE
  5
1B6
330
1F
100
AcDbEntity
  8
0
  6
HIDDEN
 62
     7
100
AcDbLine
 10
3.4266361034
 20
6.5538669027
 30
0.0
 11
4.1234077569
 21
6.5538669027
 31
0.0
  0
LINE
  5
1B7
330
1F
100
AcDbEntity
  8
0
  6
HIDDEN
 62
     7
100
AcDbLine
 10
2.6061636624
 20
6.7900873751
 30
0.0
 11
2.5298644498
 21
6.7900873751
 31
0.0
  0
LINE
  5
1B8
330
1F
100
AcDbEntity
  8
0
  6
HIDDEN
 62
     7
100
AcDbLine
 10
3.2266361034
 20
6.7900873751
 30
0.0
 11
2.8027868554
 21
6.7900873751
 31
0.0
  0
LINE
  5
1B9
330
1F
100
AcDbEntity
  8
0
  6
HIDDEN
 62
     7
100
AcDbLine
 10
2.5298644498
 20
6.5538669027
 30
0.0
 11
3.2266361034
 21
6.5538669027
 31
0.0
  0
LINE
  5
1BA
330
1F
100
AcDbEntity
  8
0
  6
HIDDEN
 62
     7
100
AcDbLine
 10
4.0471085443
 20
6.7898982544
 30
0.0
 11
4.0471085443
 21
7.2822133594
 31
0.0
  0
LINE
  5
1BB
330
1F
100
AcDbEntity
  8
0
  6
HIDDEN
 62
     7
100
AcDbLine
 10
3.8502581506
 20
7.2822133594
 30
0.0
 11
3.8502581506
 21
6.7900873751
 31
0.0
  0
LINE
  5
1BC
330
1F
100
AcDbEntity
  8
0
  6
HIDDEN
 62
     7
100
AcDbLine
 10
2.8030140561
 20
6.7898982544
 30
0.0
 11
2.8030140561
 21
7.2822133594
 31
0.0
  0
LINE
  5
1BD
330
1F
100
AcDbEntity
  8
0
  6
HIDDEN
 62
     7
100
AcDbLine
 10
2.6061636624
 20
7.2822133594
 30
0.0
 11
2.6061636624
 21
6.7900873751
 31
0.0
  0
LINE
  5
1BE
330
1F
100
AcDbEntity
  8
0
  6
HIDDEN
 62
     7
100
AcDbLine
 10
4.0471085443
 20
7.2622133594
 30
0.0
 11
4.0296626124
 21
7.2796592913
 31
0.0
  0
LINE
  5
1BF
330
1F
100
AcDbEntity
  8
0
  6
HIDDEN
 62
     7
100
AcDbLine
 10
3.8676995252
 20
7.279654734
 30
0.0
 11
3.8502581506
 21
7.2622133594
 31
0.0
  0
LINE
  5
1C0
330
1F
100
AcDbEntity
  8
0
  6
HIDDEN
 62
     7
100
AcDbLine
 10
4.0471085443
 20
6.8100873751
 30
0.0
 11
4.0471085443
 21
7.2622133594
 31
0.0
  0
LINE
  5
1C1
330
1F
100
AcDbEntity
  8
0
  6
HIDDEN
 62
     7
100
AcDbLine
 10
3.8502581506
 20
7.2622133594
 30
0.0
 11
3.8502581506
 21
6.8100873751
 31
0.0
  0
LINE
  5
1C2
330
1F
100
AcDbEntity
  8
0
  6
HIDDEN
 62
     7
100
AcDbLine
 10
3.8502581506
 20
6.8100873751
 30
0.0
 11
3.8702581506
 21
6.7900873751
 31
0.0
  0
LINE
  5
1C3
330
1F
100
AcDbEntity
  8
0
  6
HIDDEN
 62
     7
100
AcDbLine
 10
4.0271085443
 20
6.7900873751
 30
0.0
 11
4.0471085443
 21
6.8100873751
 31
0.0
  0
LINE
  5
1C4
330
1F
100
AcDbEntity
  8
0
  6
HIDDEN
 62
     7
100
AcDbLine
 10
2.8030140561
 20
7.2622133594
 30
0.0
 11
2.7855681242
 21
7.2796592913
 31
0.0
  0
LINE
  5
1C5
330
1F
100
AcDbEntity
  8
0
  6
HIDDEN
 62
     7
100
AcDbLine
 10
2.6236050371
 20
7.279654734
 30
0.0
 11
2.6061636624
 21
7.2622133594
 31
0.0
  0
LINE
  5
1C6
330
1F
100
AcDbEntity
  8
0
  6
HIDDEN
 62
     7
100
AcDbLine
 10
2.8030140561
 20
6.8100873751
 30
0.0
 11
2.8030140561
 21
7.2622133594
 31
0.0
  0
LINE
  5
1C7
330
1F
100
AcDbEntity
  8
0
  6
HIDDEN
 62
     7
100
AcDbLine
 10
2.6061636624
 20
7.2622133594
 30
0.0
 11
2.6061636624
 21
6.8100873751
 31
0.0
  0
LINE
  5
1C8
330
1F
100
AcDbEntity
  8
0
  6
HIDDEN
 62
     7
100
AcDbLine
 10
2.6061636624
 20
6.8100873751
 30
0.0
 11
2.6261636624
 21
6.7900873751
 31
0.0
  0
LINE
  5
1C9
330
1F
100
AcDbEntity
  8
0
  6
HIDDEN
 62
     7
100
AcDbLine
 10
2.7830140561
 20
6.7900873751
 30
0.0
 11
2.8030140561
 21
6.8100873751
 31
0.0
  0
LINE
  5
1CA
330
1F
100
AcDbEntity
  8
0
  6
CONTINUOUS
 62
     7
100
AcDbLine
 10
8.7370131595
 20
6.0257445447
 30
0.0
 11
8.7582229152
 21
6.0379926567
 31
0.0
  0
LINE
  5
1CB
330
1F
100
AcDbEntity
  8
0
  6
CONTINUOUS
 62
     7
100
AcDbLine
 10
9.1684451979
 20
6.748595488
 30
0.0
 11
9.1684451979
 21
6.7730877314
 31
0.0
  0
LINE
  5
1CC
330
1F
100
AcDbEntity
  8
0
  6
CONTINUOUS
 62
     7
100
AcDbLine
 10
7.3050444356
 20
6.6459832878
 30
0.0
 11
8.4318497142
 21
5.9954924466
 31
0.0
  0
LINE
  5
1CD
330
1F
100
AcDbEntity
  8
0
  6
CONTINUOUS
 62
     7
100
AcDbLine
 10
9.0420363424
 20
7.0524812156
 30
0.0
 11
7.9152310638
 21
7.7029720569
 31
0.0
  0
LINE
  5
1CE
330
1F
100
AcDbEntity
  8
0
  6
CONTINUOUS
 62
     7
100
AcDbLine
 10
7.6100676185
 20
7.6727199588
 30
0.0
 11
7.5888578628
 21
7.6604718468
 31
0.0
  0
LINE
  5
1CF
330
1F
100
AcDbEntity
  8
0
  6
CONTINUOUS
 62
     7
100
AcDbLine
 10
7.1786355801
 20
6.9498690154
 30
0.0
 11
7.1786355801
 21
6.9253767721
 31
0.0
  0
LINE
  5
1D0
330
1F
100
AcDbEntity
  8
0
  6
CONTINUOUS
 62
     7
100
AcDbLine
 10
8.6994591727
 20
6.5780141022
 30
0.0
 11
8.7110415866
 21
6.5713255432
 31
0.0
  0
LINE
  5
1D1
330
1F
100
AcDbEntity
  8
0
  6
CONTINUOUS
 62
     7
100
AcDbLine
 10
7.8032949973
 20
7.6252774575
 30
0.0
 11
7.7891505638
 21
7.6334455194
 31
0.0
  0
LINE
  5
1D2
330
1F
100
AcDbEntity
  8
0
  6
CONTINUOUS
 62
     7
100
AcDbLine
 10
7.6782225652
 20
7.6334455194
 30
0.0
 11
7.6640781316
 21
7.6252774575
 31
0.0
  0
LINE
  5
1D3
330
1F
100
AcDbEntity
  8
0
  6
CONTINUOUS
 62
     7
100
AcDbLine
 10
7.8321117613
 20
7.572051722
 30
0.0
 11
7.8321117613
 21
7.5851064224
 31
0.0
  0
LINE
  5
1D4
330
1F
100
AcDbEntity
  8
0
  6
CONTINUOUS
 62
     7
100
AcDbLine
 10
7.6352613676
 20
7.5851064224
 30
0.0
 11
7.6352613676
 21
7.5708213406
 31
0.0
  0
LINE
  5
1D5
330
1F
100
AcDbEntity
  8
0
  6
CONTINUOUS
 62
     7
100
AcDbLine
 10
8.6830026464
 20
7.1174330415
 30
0.0
 11
8.6688582128
 21
7.1256011034
 31
0.0
  0
LINE
  5
1D6
330
1F
100
AcDbEntity
  8
0
  6
CONTINUOUS
 62
     7
100
AcDbLine
 10
8.5579302142
 20
7.1256011034
 30
0.0
 11
8.5437857807
 21
7.1174330415
 31
0.0
  0
LINE
  5
1D7
330
1F
100
AcDbEntity
  8
0
  6
CONTINUOUS
 62
     7
100
AcDbLine
 10
8.7118194104
 20
7.064207306
 30
0.0
 11
8.7118194104
 21
7.0772620064
 31
0.0
  0
LINE
  5
1D8
330
1F
100
AcDbEntity
  8
0
  6
CONTINUOUS
 62
     7
100
AcDbLine
 10
8.5149690167
 20
7.0772620064
 30
0.0
 11
8.5149690167
 21
7.0629769246
 31
0.0
  0
POLYLINE
  5
1D9
330
1F
100
AcDbEntity
  8
0
  6
CONTINUOUS
 62
     7
100
AcDb2dPolyline
 66
     1
 10
0.0
 20
0.0
 30
0.0
  0
VERTEX
  5
23A
330
1D9
100
AcDbEntity
  8
0
  6
CONTINUOUS
 62
     7
100
AcDbVertex
100
AcDb2dVertex
 10
9.1684451979
 20
6.748595488
 30
0.0
  0
VERTEX
  5
23B
330
1D9
100
AcDbEntity
  8
0
  6
CONTINUOUS
 62
     7
100
AcDbVertex
100
AcDb2dVertex
 10
9.1678636936
 20
6.7734757436
 30
0.0
  0
VERTEX
  5
23C
330
1D9
100
AcDbEntity
  8
0
  6
CONTINUOUS
 62
     7
100
AcDbVertex
100
AcDb2dVertex
 10
9.1661208289
 20
6.7976140827
 30
0.0
  0
VERTEX
  5
23D
330
1D9
100
AcDbEntity
  8
0
  6
CONTINUOUS
 62
     7
100
AcDbVertex
100
AcDb2dVertex
 10
9.1632215443
 20
6.8209420827
 30
0.0
  0
VERTEX
  5
23E
330
1D9
100
AcDbEntity
  8
0
  6
CONTINUOUS
 62
     7
100
AcDbVertex
100
AcDb2dVertex
 10
9.1591740581
 20
6.8433936179
 30
0.0
  0
VERTEX
  5
23F
330
1D9
100
AcDbEntity
  8
0
  6
CONTINUOUS
 62
     7
100
AcDbVertex
100
AcDb2dVertex
 10
9.1539898432
 20
6.8649050468
 30
0.0
  0
VERTEX
  5
240
330
1D9
100
AcDbEntity
  8
0
  6
CONTINUOUS
 62
     7
100
AcDbVertex
100
AcDb2dVertex
 10
9.147683595
 20
6.885415393
 30
0.0
  0
VERTEX
  5
241
330
1D9
100
AcDbEntity
  8
0
  6
CONTINUOUS
 62
     7
100
AcDbVertex
100
AcDb2dVertex
 10
9.1402731891
 20
6.9048665178
 30
0.0
  0
VERTEX
  5
242
330
1D9
100
AcDbEntity
  8
0
  6
CONTINUOUS
 62
     7
100
AcDbVertex
100
AcDb2dVertex
 10
9.1317796312
 20
6.9232032847
 30
0.0
  0
VERTEX
  5
243
330
1D9
100
AcDbEntity
  8
0
  6
CONTINUOUS
 62
     7
100
AcDbVertex
100
AcDb2dVertex
 10
9.1222269972
 20
6.9403737163
 30
0.0
  0
VERTEX
  5
244
330
1D9
100
AcDbEntity
  8
0
  6
CONTINUOUS
 62
     7
100
AcDbVertex
100
AcDb2dVertex
 10
9.1116423651
 20
6.956329141
 30
0.0
  0
VERTEX
  5
245
330
1D9
100
AcDbEntity
  8
0
  6
CONTINUOUS
 62
     7
100
AcDbVertex
100
AcDb2dVertex
 10
9.1000557381
 20
6.9710243316
 30
0.0
  0
VERTEX
  5
246
330
1D9
100
AcDbEntity
  8
0
  6
CONTINUOUS
 62
     7
100
AcDbVertex
100
AcDb2dVertex
 10
9.0874999598
 20
6.9844176328
 30
0.0
  0
VERTEX
  5
247
330
1D9
100
AcDbEntity
  8
0
  6
CONTINUOUS
 62
     7
100
AcDbVertex
100
AcDb2dVertex
 10
9.0740106209
 20
6.9964710799
 30
0.0
  0
VERTEX
  5
248
330
1D9
100
AcDbEntity
  8
0
  6
CONTINUOUS
 62
     7
100
AcDbVertex
100
AcDb2dVertex
 10
9.0596259585
 20
7.0071505061
 30
0.0
  0
VERTEX
  5
249
330
1D9
100
AcDbEntity
  8
0
  6
CONTINUOUS
 62
     7
100
AcDbVertex
100
AcDb2dVertex
 10
9.0443867473
 20
7.0164256394
 30
0.0
  0
VERTEX
  5
24A
330
1D9
100
AcDbEntity
  8
0
  6
CONTINUOUS
 62
     7
100
AcDbVertex
100
AcDb2dVertex
 10
9.0283361847
 20
7.0242701884
 30
0.0
  0
VERTEX
  5
24B
330
1D9
100
AcDbEntity
  8
0
  6
CONTINUOUS
 62
     7
100
AcDbVertex
100
AcDb2dVertex
 10
9.0115197676
 20
7.030661917
 30
0.0
  0
VERTEX
  5
24C
330
1D9
100
AcDbEntity
  8
0
  6
CONTINUOUS
 62
     7
100
AcDbVertex
100
AcDb2dVertex
 10
8.993985164
 20
7.035582707
 30
0.0
  0
VERTEX
  5
24D
330
1D9
100
AcDbEntity
  8
0
  6
CONTINUOUS
 62
     7
100
AcDbVertex
100
AcDb2dVertex
 10
8.9757820777
 20
7.03901861
 30
0.0
  0
VERTEX
  5
24E
330
1D9
100
AcDbEntity
  8
0
  6
CONTINUOUS
 62
     7
100
AcDbVertex
100
AcDb2dVertex
 10
8.9569621074
 20
7.0409598864
 30
0.0
  0
VERTEX
  5
24F
330
1D9
100
AcDbEntity
  8
0
  6
CONTINUOUS
 62
     7
100
AcDbVertex
100
AcDb2dVertex
 10
8.9375786001
 20
7.0414010336
 30
0.0
  0
VERTEX
  5
250
330
1D9
100
AcDbEntity
  8
0
  6
CONTINUOUS
 62
     7
100
AcDbVertex
100
AcDb2dVertex
 10
8.9176865007
 20
7.0403408011
 30
0.0
  0
VERTEX
  5
251
330
1D9
100
AcDbEntity
  8
0
  6
CONTINUOUS
 62
     7
100
AcDbVertex
100
AcDb2dVertex
 10
8.8973421954
 20
7.0377821942
 30
0.0
  0
VERTEX
  5
252
330
1D9
100
AcDbEntity
  8
0
  6
CONTINUOUS
 62
     7
100
AcDbVertex
100
AcDb2dVertex
 10
8.8766033523
 20
7.0337324655
 30
0.0
  0
VERTEX
  5
253
330
1D9
100
AcDbEntity
  8
0
  6
CONTINUOUS
 62
     7
100
AcDbVertex
100
AcDb2dVertex
 10
8.8555287581
 20
7.0282030945
 30
0.0
  0
VERTEX
  5
254
330
1D9
100
AcDbEntity
  8
0
  6
CONTINUOUS
 62
     7
100
AcDbVertex
100
AcDb2dVertex
 10
8.8341781508
 20
7.0212097548
 30
0.0
  0
VERTEX
  5
255
330
1D9
100
AcDbEntity
  8
0
  6
CONTINUOUS
 62
     7
100
AcDbVertex
100
AcDb2dVertex
 10
8.8126120511
 20
7.0127722697
 30
0.0
  0
VERTEX
  5
256
330
1D9
100
AcDbEntity
  8
0
  6
CONTINUOUS
 62
     7
100
AcDbVertex
100
AcDb2dVertex
 10
8.7908915905
 20
7.0029145562
 30
0.0
  0
VERTEX
  5
257
330
1D9
100
AcDbEntity
  8
0
  6
CONTINUOUS
 62
     7
100
AcDbVertex
100
AcDb2dVertex
 10
8.7690783379
 20
6.991664557
 30
0.0
  0
VERTEX
  5
258
330
1D9
100
AcDbEntity
  8
0
  6
CONTINUOUS
 62
     7
100
AcDbVertex
100
AcDb2dVertex
 10
8.7472341255
 20
6.9790541616
 30
0.0
  0
VERTEX
  5
259
330
1D9
100
AcDbEntity
  8
0
  6
CONTINUOUS
 62
     7
100
AcDbVertex
100
AcDb2dVertex
 10
8.725420873
 20
6.9651191154
 30
0.0
  0
VERTEX
  5
25A
330
1D9
100
AcDbEntity
  8
0
  6
CONTINUOUS
 62
     7
100
AcDbVertex
100
AcDb2dVertex
 10
8.7037004123
 20
6.9498989189
 30
0.0
  0
VERTEX
  5
25B
330
1D9
100
AcDbEntity
  8
0
  6
CONTINUOUS
 62
     7
100
AcDbVertex
100
AcDb2dVertex
 10
8.6821343127
 20
6.9334367153
 30
0.0
  0
VERTEX
  5
25C
330
1D9
100
AcDbEntity
  8
0
  6
CONTINUOUS
 62
     7
100
AcDbVertex
100
AcDb2dVertex
 10
8.6607837054
 20
6.9157791686
 30
0.0
  0
VERTEX
  5
25D
330
1D9
100
AcDbEntity
  8
0
  6
CONTINUOUS
 62
     7
100
AcDbVertex
100
AcDb2dVertex
 10
8.6397091111
 20
6.896976331
 30
0.0
  0
VERTEX
  5
25E
330
1D9
100
AcDbEntity
  8
0
  6
CONTINUOUS
 62
     7
100
AcDbVertex
100
AcDb2dVertex
 10
8.618970268
 20
6.8770815011
 30
0.0
  0
VERTEX
  5
25F
330
1D9
100
AcDbEntity
  8
0
  6
CONTINUOUS
 62
     7
100
AcDbVertex
100
AcDb2dVertex
 10
8.5986259627
 20
6.8561510731
 30
0.0
  0
VERTEX
  5
260
330
1D9
100
AcDbEntity
  8
0
  6
CONTINUOUS
 62
     7
100
AcDbVertex
100
AcDb2dVertex
 10
8.5787338633
 20
6.8342443765
 30
0.0
  0
VERTEX
  5
261
330
1D9
100
AcDbEntity
  8
0
  6
CONTINUOUS
 62
     7
100
AcDbVertex
100
AcDb2dVertex
 10
8.5593503561
 20
6.8114235082
 30
0.0
  0
VERTEX
  5
262
330
1D9
100
AcDbEntity
  8
0
  6
CONTINUOUS
 62
     7
100
AcDbVertex
100
AcDb2dVertex
 10
8.5405303857
 20
6.7877531565
 30
0.0
  0
VERTEX
  5
263
330
1D9
100
AcDbEntity
  8
0
  6
CONTINUOUS
 62
     7
100
AcDbVertex
100
AcDb2dVertex
 10
8.5223272994
 20
6.7633004174
 30
0.0
  0
VERTEX
  5
264
330
1D9
100
AcDbEntity
  8
0
  6
CONTINUOUS
 62
     7
100
AcDbVertex
100
AcDb2dVertex
 10
8.5047926959
 20
6.7381346051
 30
0.0
  0
VERTEX
  5
265
330
1D9
100
AcDbEntity
  8
0
  6
CONTINUOUS
 62
     7
100
AcDbVertex
100
AcDb2dVertex
 10
8.4879762788
 20
6.7123270547
 30
0.0
  0
VERTEX
  5
266
330
1D9
100
AcDbEntity
  8
0
  6
CONTINUOUS
 62
     7
100
AcDbVertex
100
AcDb2dVertex
 10
8.4719257161
 20
6.6859509204
 30
0.0
  0
VERTEX
  5
267
330
1D9
100
AcDbEntity
  8
0
  6
CONTINUOUS
 62
     7
100
AcDbVertex
100
AcDb2dVertex
 10
8.456686505
 20
6.6590809684
 30
0.0
  0
VERTEX
  5
268
330
1D9
100
AcDbEntity
  8
0
  6
CONTINUOUS
 62
     7
100
AcDbVertex
100
AcDb2dVertex
 10
8.4423018425
 20
6.6317933645
 30
0.0
  0
VERTEX
  5
269
330
1D9
100
AcDbEntity
  8
0
  6
CONTINUOUS
 62
     7
100
AcDbVertex
100
AcDb2dVertex
 10
8.4288125036
 20
6.6041654582
 30
0.0
  0
VERTEX
  5
26A
330
1D9
100
AcDbEntity
  8
0
  6
CONTINUOUS
 62
     7
100
AcDbVertex
100
AcDb2dVertex
 10
8.4162567253
 20
6.576275564
 30
0.0
  0
VERTEX
  5
26B
330
1D9
100
AcDbEntity
  8
0
  6
CONTINUOUS
 62
     7
100
AcDbVertex
100
AcDb2dVertex
 10
8.4046700983
 20
6.5482027387
 30
0.0
  0
VERTEX
  5
26C
330
1D9
100
AcDbEntity
  8
0
  6
CONTINUOUS
 62
     7
100
AcDbVertex
100
AcDb2dVertex
 10
8.3940854662
 20
6.5200265578
 30
0.0
  0
VERTEX
  5
26D
330
1D9
100
AcDbEntity
  8
0
  6
CONTINUOUS
 62
     7
100
AcDbVertex
100
AcDb2dVertex
 10
8.3845328322
 20
6.4918268897
 30
0.0
  0
VERTEX
  5
26E
330
1D9
100
AcDbEntity
  8
0
  6
CONTINUOUS
 62
     7
100
AcDbVertex
100
AcDb2dVertex
 10
8.3760392743
 20
6.4636836696
 30
0.0
  0
VERTEX
  5
26F
330
1D9
100
AcDbEntity
  8
0
  6
CONTINUOUS
 62
     7
100
AcDbVertex
100
AcDb2dVertex
 10
8.3686288684
 20
6.4356766724
 30
0.0
  0
VERTEX
  5
270
330
1D9
100
AcDbEntity
  8
0
  6
CONTINUOUS
 62
     7
100
AcDbVertex
100
AcDb2dVertex
 10
8.3623226202
 20
6.4078852869
 30
0.0
  0
VERTEX
  5
271
330
1D9
100
AcDbEntity
  8
0
  6
CONTINUOUS
 62
     7
100
AcDbVertex
100
AcDb2dVertex
 10
8.3571384054
 20
6.3803882909
 30
0.0
  0
VERTEX
  5
272
330
1D9
100
AcDbEntity
  8
0
  6
CONTINUOUS
 62
     7
100
AcDbVertex
100
AcDb2dVertex
 10
8.3530909191
 20
6.3532636276
 30
0.0
  0
VERTEX
  5
273
330
1D9
100
AcDbEntity
  8
0
  6
CONTINUOUS
 62
     7
100
AcDbVertex
100
AcDb2dVertex
 10
8.3501916345
 20
6.3265881848
 30
0.0
  0
VERTEX
  5
274
330
1D9
100
AcDbEntity
  8
0
  6
CONTINUOUS
 62
     7
100
AcDbVertex
100
AcDb2dVertex
 10
8.3484487699
 20
6.300437577
 30
0.0
  0
VERTEX
  5
275
330
1D9
100
AcDbEntity
  8
0
  6
CONTINUOUS
 62
     7
100
AcDbVertex
100
AcDb2dVertex
 10
8.3478672655
 20
6.2748859309
 30
0.0
  0
VERTEX
  5
276
330
1D9
100
AcDbEntity
  8
0
  6
CONTINUOUS
 62
     7
100
AcDbVertex
100
AcDb2dVertex
 10
8.3484487699
 20
6.2500056753
 30
0.0
  0
VERTEX
  5
277
330
1D9
100
AcDbEntity
  8
0
  6
CONTINUOUS
 62
     7
100
AcDbVertex
100
AcDb2dVertex
 10
8.3501916345
 20
6.2258673362
 30
0.0
  0
VERTEX
  5
278
330
1D9
100
AcDbEntity
  8
0
  6
CONTINUOUS
 62
     7
100
AcDbVertex
100
AcDb2dVertex
 10
8.3530909191
 20
6.2025393361
 30
0.0
  0
VERTEX
  5
279
330
1D9
100
AcDbEntity
  8
0
  6
CONTINUOUS
 62
     7
100
AcDbVertex
100
AcDb2dVertex
 10
8.3571384054
 20
6.180087801
 30
0.0
  0
VERTEX
  5
27A
330
1D9
100
AcDbEntity
  8
0
  6
CONTINUOUS
 62
     7
100
AcDbVertex
100
AcDb2dVertex
 10
8.3623226202
 20
6.1585763721
 30
0.0
  0
VERTEX
  5
27B
330
1D9
100
AcDbEntity
  8
0
  6
CONTINUOUS
 62
     7
100
AcDbVertex
100
AcDb2dVertex
 10
8.3686288684
 20
6.1380660258
 30
0.0
  0
VERTEX
  5
27C
330
1D9
100
AcDbEntity
  8
0
  6
CONTINUOUS
 62
     7
100
AcDbVertex
100
AcDb2dVertex
 10
8.3760392743
 20
6.1186149011
 30
0.0
  0
VERTEX
  5
27D
330
1D9
100
AcDbEntity
  8
0
  6
CONTINUOUS
 62
     7
100
AcDbVertex
100
AcDb2dVertex
 10
8.3845328322
 20
6.1002781342
 30
0.0
  0
VERTEX
  5
27E
330
1D9
100
AcDbEntity
  8
0
  6
CONTINUOUS
 62
     7
100
AcDbVertex
100
AcDb2dVertex
 10
8.3940854662
 20
6.0831077026
 30
0.0
  0
VERTEX
  5
27F
330
1D9
100
AcDbEntity
  8
0
  6
CONTINUOUS
 62
     7
100
AcDbVertex
100
AcDb2dVertex
 10
8.4046700983
 20
6.0671522779
 30
0.0
  0
VERTEX
  5
280
330
1D9
100
AcDbEntity
  8
0
  6
CONTINUOUS
 62
     7
100
AcDbVertex
100
AcDb2dVertex
 10
8.4162567253
 20
6.0524570873
 30
0.0
  0
VERTEX
  5
281
330
1D9
100
AcDbEntity
  8
0
  6
CONTINUOUS
 62
     7
100
AcDbVertex
100
AcDb2dVertex
 10
8.4288125036
 20
6.0390637861
 30
0.0
  0
VERTEX
  5
282
330
1D9
100
AcDbEntity
  8
0
  6
CONTINUOUS
 62
     7
100
AcDbVertex
100
AcDb2dVertex
 10
8.4423018425
 20
6.027010339
 30
0.0
  0
VERTEX
  5
283
330
1D9
100
AcDbEntity
  8
0
  6
CONTINUOUS
 62
     7
100
AcDbVertex
100
AcDb2dVertex
 10
8.456686505
 20
6.0163309128
 30
0.0
  0
VERTEX
  5
284
330
1D9
100
AcDbEntity
  8
0
  6
CONTINUOUS
 62
     7
100
AcDbVertex
100
AcDb2dVertex
 10
8.4719257161
 20
6.0070557795
 30
0.0
  0
VERTEX
  5
285
330
1D9
100
AcDbEntity
  8
0
  6
CONTINUOUS
 62
     7
100
AcDbVertex
100
AcDb2dVertex
 10
8.4879762788
 20
5.9992112305
 30
0.0
  0
VERTEX
  5
286
330
1D9
100
AcDbEntity
  8
0
  6
CONTINUOUS
 62
     7
100
AcDbVertex
100
AcDb2dVertex
 10
8.5047926959
 20
5.9928195019
 30
0.0
  0
VERTEX
  5
287
330
1D9
100
AcDbEntity
  8
0
  6
CONTINUOUS
 62
     7
100
AcDbVertex
100
AcDb2dVertex
 10
8.5223272994
 20
5.9878987119
 30
0.0
  0
VERTEX
  5
288
330
1D9
100
AcDbEntity
  8
0
  6
CONTINUOUS
 62
     7
100
AcDbVertex
100
AcDb2dVertex
 10
8.5405303857
 20
5.9844628089
 30
0.0
  0
VERTEX
  5
289
330
1D9
100
AcDbEntity
  8
0
  6
CONTINUOUS
 62
     7
100
AcDbVertex
100
AcDb2dVertex
 10
8.5593503561
 20
5.9825215325
 30
0.0
  0
VERTEX
  5
28A
330
1D9
100
AcDbEntity
  8
0
  6
CONTINUOUS
 62
     7
100
AcDbVertex
100
AcDb2dVertex
 10
8.5787338633
 20
5.9820803853
 30
0.0
  0
VERTEX
  5
28B
330
1D9
100
AcDbEntity
  8
0
  6
CONTINUOUS
 62
     7
100
AcDbVertex
100
AcDb2dVertex
 10
8.5986259627
 20
5.9831406178
 30
0.0
  0
VERTEX
  5
28C
330
1D9
100
AcDbEntity
  8
0
  6
CONTINUOUS
 62
     7
100
AcDbVertex
100
AcDb2dVertex
 10
8.618970268
 20
5.9856992247
 30
0.0
  0
VERTEX
  5
28D
330
1D9
100
AcDbEntity
  8
0
  6
CONTINUOUS
 62
     7
100
AcDbVertex
100
AcDb2dVertex
 10
8.6397091111
 20
5.9897489534
 30
0.0
  0
VERTEX
  5
28E
330
1D9
100
AcDbEntity
  8
0
  6
CONTINUOUS
 62
     7
100
AcDbVertex
100
AcDb2dVertex
 10
8.6607837054
 20
5.9952783244
 30
0.0
  0
VERTEX
  5
28F
330
1D9
100
AcDbEntity
  8
0
  6
CONTINUOUS
 62
     7
100
AcDbVertex
100
AcDb2dVertex
 10
8.6821343127
 20
6.0022716641
 30
0.0
  0
VERTEX
  5
290
330
1D9
100
AcDbEntity
  8
0
  6
CONTINUOUS
 62
     7
100
AcDbVertex
100
AcDb2dVertex
 10
8.7037004123
 20
6.0107091492
 30
0.0
  0
VERTEX
  5
291
330
1D9
100
AcDbEntity
  8
0
  6
CONTINUOUS
 62
     7
100
AcDbVertex
100
AcDb2dVertex
 10
8.725420873
 20
6.0205668627
 30
0.0
  0
VERTEX
  5
292
330
1D9
100
AcDbEntity
  8
0
  6
CONTINUOUS
 62
     7
100
AcDbVertex
100
AcDb2dVertex
 10
8.7472341255
 20
6.0318168619
 30
0.0
  0
VERTEX
  5
293
330
1D9
100
AcDbEntity
  8
0
  6
CONTINUOUS
 62
     7
100
AcDbVertex
100
AcDb2dVertex
 10
8.7690783379
 20
6.0444272573
 30
0.0
  0
VERTEX
  5
294
330
1D9
100
AcDbEntity
  8
0
  6
CONTINUOUS
 62
     7
100
AcDbVertex
100
AcDb2dVertex
 10
8.7908915905
 20
6.0583623035
 30
0.0
  0
VERTEX
  5
295
330
1D9
100
AcDbEntity
  8
0
  6
CONTINUOUS
 62
     7
100
AcDbVertex
100
AcDb2dVertex
 10
8.8126120511
 20
6.0735825
 30
0.0
  0
VERTEX
  5
296
330
1D9
100
AcDbEntity
  8
0
  6
CONTINUOUS
 62
     7
100
AcDbVertex
100
AcDb2dVertex
 10
8.8341781508
 20
6.0900447036
 30
0.0
  0
VERTEX
  5
297
330
1D9
100
AcDbEntity
  8
0
  6
CONTINUOUS
 62
     7
100
AcDbVertex
100
AcDb2dVertex
 10
8.8555287581
 20
6.1077022503
 30
0.0
  0
VERTEX
  5
298
330
1D9
100
AcDbEntity
  8
0
  6
CONTINUOUS
 62
     7
100
AcDbVertex
100
AcDb2dVertex
 10
8.8766033523
 20
6.1265050879
 30
0.0
  0
VERTEX
  5
299
330
1D9
100
AcDbEntity
  8
0
  6
CONTINUOUS
 62
     7
100
AcDbVertex
100
AcDb2dVertex
 10
8.8973421954
 20
6.1463999178
 30
0.0
  0
VERTEX
  5
29A
330
1D9
100
AcDbEntity
  8
0
  6
CONTINUOUS
 62
     7
100
AcDbVertex
100
AcDb2dVertex
 10
8.9176865007
 20
6.1673303458
 30
0.0
  0
VERTEX
  5
29B
330
1D9
100
AcDbEntity
  8
0
  6
CONTINUOUS
 62
     7
100
AcDbVertex
100
AcDb2dVertex
 10
8.9375786001
 20
6.1892370424
 30
0.0
  0
VERTEX
  5
29C
330
1D9
100
AcDbEntity
  8
0
  6
CONTINUOUS
 62
     7
100
AcDbVertex
100
AcDb2dVertex
 10
8.9569621074
 20
6.2120579107
 30
0.0
  0
VERTEX
  5
29D
330
1D9
100
AcDbEntity
  8
0
  6
CONTINUOUS
 62
     7
100
AcDbVertex
100
AcDb2dVertex
 10
8.9757820777
 20
6.2357282624
 30
0.0
  0
VERTEX
  5
29E
330
1D9
100
AcDbEntity
  8
0
  6
CONTINUOUS
 62
     7
100
AcDbVertex
100
AcDb2dVertex
 10
8.993985164
 20
6.2601810014
 30
0.0
  0
VERTEX
  5
29F
330
1D9
100
AcDbEntity
  8
0
  6
CONTINUOUS
 62
     7
100
AcDbVertex
100
AcDb2dVertex
 10
9.0115197676
 20
6.2853468138
 30
0.0
  0
VERTEX
  5
2A0
330
1D9
100
AcDbEntity
  8
0
  6
CONTINUOUS
 62
     7
100
AcDbVertex
100
AcDb2dVertex
 10
9.0283361847
 20
6.3111543642
 30
0.0
  0
VERTEX
  5
2A1
330
1D9
100
AcDbEntity
  8
0
  6
CONTINUOUS
 62
     7
100
AcDbVertex
100
AcDb2dVertex
 10
9.0443867473
 20
6.3375304984
 30
0.0
  0
VERTEX
  5
2A2
330
1D9
100
AcDbEntity
  8
0
  6
CONTINUOUS
 62
     7
100
AcDbVertex
100
AcDb2dVertex
 10
9.0596259585
 20
6.3644004504
 30
0.0
  0
VERTEX
  5
2A3
330
1D9
100
AcDbEntity
  8
0
  6
CONTINUOUS
 62
     7
100
AcDbVertex
100
AcDb2dVertex
 10
9.0740106209
 20
6.3916880544
 30
0.0
  0
VERTEX
  5
2A4
330
1D9
100
AcDbEntity
  8
0
  6
CONTINUOUS
 62
     7
100
AcDbVertex
100
AcDb2dVertex
 10
9.0874999598
 20
6.4193159607
 30
0.0
  0
VERTEX
  5
2A5
330
1D9
100
AcDbEntity
  8
0
  6
CONTINUOUS
 62
     7
100
AcDbVertex
100
AcDb2dVertex
 10
9.1000557381
 20
6.4472058549
 30
0.0
  0
VERTEX
  5
2A6
330
1D9
100
AcDbEntity
  8
0
  6
CONTINUOUS
 62
     7
100
AcDbVertex
100
AcDb2dVertex
 10
9.1116423651
 20
6.4752786802
 30
0.0
  0
VERTEX
  5
2A7
330
1D9
100
AcDbEntity
  8
0
  6
CONTINUOUS
 62
     7
100
AcDbVertex
100
AcDb2dVertex
 10
9.1222269972
 20
6.5034548611
 30
0.0
  0
VERTEX
  5
2A8
330
1D9
100
AcDbEntity
  8
0
  6
CONTINUOUS
 62
     7
100
AcDbVertex
100
AcDb2dVertex
 10
9.1317796312
 20
6.5316545291
 30
0.0
  0
VERTEX
  5
2A9
330
1D9
100
AcDbEntity
  8
0
  6
CONTINUOUS
 62
     7
100
AcDbVertex
100
AcDb2dVertex
 10
9.1402731891
 20
6.5597977493
 30
0.0
  0
VERTEX
  5
2AA
330
1D9
100
AcDbEntity
  8
0
  6
CONTINUOUS
 62
     7
100
AcDbVertex
100
AcDb2dVertex
 10
9.147683595
 20
6.5878047465
 30
0.0
  0
VERTEX
  5
2AB
330
1D9
100
AcDbEntity
  8
0
  6
CONTINUOUS
 62
     7
100
AcDbVertex
100
AcDb2dVertex
 10
9.1539898432
 20
6.615596132
 30
0.0
  0
VERTEX
  5
2AC
330
1D9
100
AcDbEntity
  8
0
  6
CONTINUOUS
 62
     7
100
AcDbVertex
100
AcDb2dVertex
 10
9.1591740581
 20
6.643093128
 30
0.0
  0
VERTEX
  5
2AD
330
1D9
100
AcDbEntity
  8
0
  6
CONTINUOUS
 62
     7
100
AcDbVertex
100
AcDb2dVertex
 10
9.1632215443
 20
6.6702177913
 30
0.0
  0
VERTEX
  5
2AE
330
1D9
100
AcDbEntity
  8
0
  6
CONTINUOUS
 62
     7
100
AcDbVertex
100
AcDb2dVertex
 10
9.1661208289
 20
6.696893234
 30
0.0
  0
VERTEX
  5
2AF
330
1D9
100
AcDbEntity
  8
0
  6
CONTINUOUS
 62
     7
100
AcDbVertex
100
AcDb2dVertex
 10
9.1678636936
 20
6.7230438419
 30
0.0
  0
VERTEX
  5
2B0
330
1D9
100
AcDbEntity
  8
0
  6
CONTINUOUS
 62
     7
100
AcDbVertex
100
AcDb2dVertex
 10
9.1684451979
 20
6.748595488
 30
0.0
  0
SEQEND
  5
2B1
330
1D9
100
AcDbEntity
  8
0
  6
CONTINUOUS
 62
     7
  0
POLYLINE
  5
1DA
330
1F
100
AcDbEntity
  8
0
  6
CONTINUOUS
 62
     7
100
AcDb2dPolyline
 66
     1
 10
0.0
 20
0.0
 30
0.0
  0
VERTEX
  5
2B2
330
1DA
100
AcDbEntity
  8
0
  6
CONTINUOUS
 62
     7
100
AcDbVertex
100
AcDb2dVertex
 10
8.7370131595
 20
6.0257445447
 30
0.0
  0
VERTEX
  5
2B3
330
1DA
100
AcDbEntity
  8
0
  6
CONTINUOUS
 62
     7
100
AcDbVertex
100
AcDb2dVertex
 10
8.7201422673
 20
6.0163830146
 30
0.0
  0
VERTEX
  5
2B4
330
1DA
100
AcDbEntity
  8
0
  6
CONTINUOUS
 62
     7
100
AcDbVertex
100
AcDb2dVertex
 10
8.6977852859
 20
6.0051547165
 30
0.0
  0
VERTEX
  5
2B5
330
1DA
100
AcDbEntity
  8
0
  6
CONTINUOUS
 62
     7
100
AcDbVertex
100
AcDb2dVertex
 10
8.6755338668
 20
5.9953250981
 30
0.0
  0
VERTEX
  5
2B6
330
1DA
100
AcDbEntity
  8
0
  6
CONTINUOUS
 62
     7
100
AcDbVertex
100
AcDb2dVertex
 10
8.653447996
 20
5.9869206582
 30
0.0
  0
VERTEX
  5
2B7
330
1DA
100
AcDbEntity
  8
0
  6
CONTINUOUS
 62
     7
100
AcDbVertex
100
AcDb2dVertex
 10
8.631587213
 20
5.9799640538
 30
0.0
  0
VERTEX
  5
2B8
330
1DA
100
AcDbEntity
  8
0
  6
CONTINUOUS
 62
     7
100
AcDbVertex
100
AcDb2dVertex
 10
8.6100104507
 20
5.9744740386
 30
0.0
  0
VERTEX
  5
2B9
330
1DA
100
AcDbEntity
  8
0
  6
CONTINUOUS
 62
     7
100
AcDbVertex
100
AcDb2dVertex
 10
8.5887758762
 20
5.9704654128
 30
0.0
  0
VERTEX
  5
2BA
330
1DA
100
AcDbEntity
  8
0
  6
CONTINUOUS
 62
     7
100
AcDbVertex
100
AcDb2dVertex
 10
8.5679407341
 20
5.9679489828
 30
0.0
  0
VERTEX
  5
2BB
330
1DA
100
AcDbEntity
  8
0
  6
CONTINUOUS
 62
     7
100
AcDbVertex
100
AcDb2dVertex
 10
8.5475611923
 20
5.9669315326
 30
0.0
  0
VERTEX
  5
2BC
330
1DA
100
AcDbEntity
  8
0
  6
CONTINUOUS
 62
     7
100
AcDbVertex
100
AcDb2dVertex
 10
8.5276921905
 20
5.967415805
 30
0.0
  0
VERTEX
  5
2BD
330
1DA
100
AcDbEntity
  8
0
  6
CONTINUOUS
 62
     7
100
AcDbVertex
100
AcDb2dVertex
 10
8.5083872919
 20
5.9694004944
 30
0.0
  0
VERTEX
  5
2BE
330
1DA
100
AcDbEntity
  8
0
  6
CONTINUOUS
 62
     7
100
AcDbVertex
100
AcDb2dVertex
 10
8.4896985392
 20
5.9728802506
 30
0.0
  0
VERTEX
  5
2BF
330
1DA
100
AcDbEntity
  8
0
  6
CONTINUOUS
 62
     7
100
AcDbVertex
100
AcDb2dVertex
 10
8.4716763139
 20
5.9778456927
 30
0.0
  0
VERTEX
  5
2C0
330
1DA
100
AcDbEntity
  8
0
  6
CONTINUOUS
 62
     7
100
AcDbVertex
100
AcDb2dVertex
 10
8.4543692008
 20
5.9842834347
 30
0.0
  0
VERTEX
  5
2C1
330
1DA
100
AcDbEntity
  8
0
  6
CONTINUOUS
 62
     7
100
AcDbVertex
100
AcDb2dVertex
 10
8.4378238567
 20
5.9921761216
 30
0.0
  0
VERTEX
  5
2C2
330
1DA
100
AcDbEntity
  8
0
  6
CONTINUOUS
 62
     7
100
AcDbVertex
100
AcDb2dVertex
 10
8.4220848851
 20
6.0015024763
 30
0.0
  0
VERTEX
  5
2C3
330
1DA
100
AcDbEntity
  8
0
  6
CONTINUOUS
 62
     7
100
AcDbVertex
100
AcDb2dVertex
 10
8.4071947154
 20
6.0122373563
 30
0.0
  0
VERTEX
  5
2C4
330
1DA
100
AcDbEntity
  8
0
  6
CONTINUOUS
 62
     7
100
AcDbVertex
100
AcDb2dVertex
 10
8.3931934888
 20
6.0243518225
 30
0.0
  0
VERTEX
  5
2C5
330
1DA
100
AcDbEntity
  8
0
  6
CONTINUOUS
 62
     7
100
AcDbVertex
100
AcDb2dVertex
 10
8.3801189502
 20
6.0378132163
 30
0.0
  0
VERTEX
  5
2C6
330
1DA
100
AcDbEntity
  8
0
  6
CONTINUOUS
 62
     7
100
AcDbVertex
100
AcDb2dVertex
 10
8.3680063462
 20
6.0525852482
 30
0.0
  0
VERTEX
  5
2C7
330
1DA
100
AcDbEntity
  8
0
  6
CONTINUOUS
 62
     7
100
AcDbVertex
100
AcDb2dVertex
 10
8.3568883303
 20
6.0686280955
 30
0.0
  0
VERTEX
  5
2C8
330
1DA
100
AcDbEntity
  8
0
  6
CONTINUOUS
 62
     7
100
AcDbVertex
100
AcDb2dVertex
 10
8.3467948746
 20
6.0858985094
 30
0.0
  0
VERTEX
  5
2C9
330
1DA
100
AcDbEntity
  8
0
  6
CONTINUOUS
 62
     7
100
AcDbVertex
100
AcDb2dVertex
 10
8.3377531894
 20
6.1043499319
 30
0.0
  0
VERTEX
  5
2CA
330
1DA
100
AcDbEntity
  8
0
  6
CONTINUOUS
 62
     7
100
AcDbVertex
100
AcDb2dVertex
 10
8.3297876495
 20
6.1239326214
 30
0.0
  0
VERTEX
  5
2CB
330
1DA
100
AcDbEntity
  8
0
  6
CONTINUOUS
 62
     7
100
AcDbVertex
100
AcDb2dVertex
 10
8.3229197284
 20
6.1445937863
 30
0.0
  0
VERTEX
  5
2CC
330
1DA
100
AcDbEntity
  8
0
  6
CONTINUOUS
 62
     7
100
AcDbVertex
100
AcDb2dVertex
 10
8.317167941
 20
6.1662777277
 30
0.0
  0
VERTEX
  5
2CD
330
1DA
100
AcDbEntity
  8
0
  6
CONTINUOUS
 62
     7
100
AcDbVertex
100
AcDb2dVertex
 10
8.312547793
 20
6.1889259897
 30
0.0
  0
VERTEX
  5
2CE
330
1DA
100
AcDbEntity
  8
0
  6
CONTINUOUS
 62
     7
100
AcDbVertex
100
AcDb2dVertex
 10
8.3090717395
 20
6.2124775164
 30
0.0
  0
VERTEX
  5
2CF
330
1DA
100
AcDbEntity
  8
0
  6
CONTINUOUS
 62
     7
100
AcDbVertex
100
AcDb2dVertex
 10
8.3067491514
 20
6.2368688172
 30
0.0
  0
VERTEX
  5
2D0
330
1DA
100
AcDbEntity
  8
0
  6
CONTINUOUS
 62
     7
100
AcDbVertex
100
AcDb2dVertex
 10
8.3055862899
 20
6.2620341373
 30
0.0
  0
VERTEX
  5
2D1
330
1DA
100
AcDbEntity
  8
0
  6
CONTINUOUS
 62
     7
100
AcDbVertex
100
AcDb2dVertex
 10
8.3055862899
 20
6.2879056357
 30
0.0
  0
VERTEX
  5
2D2
330
1DA
100
AcDbEntity
  8
0
  6
CONTINUOUS
 62
     7
100
AcDbVertex
100
AcDb2dVertex
 10
8.3067491514
 20
6.3144135672
 30
0.0
  0
VERTEX
  5
2D3
330
1DA
100
AcDbEntity
  8
0
  6
CONTINUOUS
 62
     7
100
AcDbVertex
100
AcDb2dVertex
 10
8.3090717395
 20
6.3414864711
 30
0.0
  0
VERTEX
  5
2D4
330
1DA
100
AcDbEntity
  8
0
  6
CONTINUOUS
 62
     7
100
AcDbVertex
100
AcDb2dVertex
 10
8.312547793
 20
6.3690513638
 30
0.0
  0
VERTEX
  5
2D5
330
1DA
100
AcDbEntity
  8
0
  6
CONTINUOUS
 62
     7
100
AcDbVertex
100
AcDb2dVertex
 10
8.317167941
 20
6.3970339351
 30
0.0
  0
VERTEX
  5
2D6
330
1DA
100
AcDbEntity
  8
0
  6
CONTINUOUS
 62
     7
100
AcDbVertex
100
AcDb2dVertex
 10
8.3229197284
 20
6.4253587489
 30
0.0
  0
VERTEX
  5
2D7
330
1DA
100
AcDbEntity
  8
0
  6
CONTINUOUS
 62
     7
100
AcDbVertex
100
AcDb2dVertex
 10
8.3297876495
 20
6.4539494467
 30
0.0
  0
VERTEX
  5
2D8
330
1DA
100
AcDbEntity
  8
0
  6
CONTINUOUS
 62
     7
100
AcDbVertex
100
AcDb2dVertex
 10
8.3377531894
 20
6.4827289528
 30
0.0
  0
VERTEX
  5
2D9
330
1DA
100
AcDbEntity
  8
0
  6
CONTINUOUS
 62
     7
100
AcDbVertex
100
AcDb2dVertex
 10
8.3467948746
 20
6.5116196829
 30
0.0
  0
VERTEX
  5
2DA
330
1DA
100
AcDbEntity
  8
0
  6
CONTINUOUS
 62
     7
100
AcDbVertex
100
AcDb2dVertex
 10
8.3568883303
 20
6.5405437526
 30
0.0
  0
VERTEX
  5
2DB
330
1DA
100
AcDbEntity
  8
0
  6
CONTINUOUS
 62
     7
100
AcDbVertex
100
AcDb2dVertex
 10
8.3680063462
 20
6.5694231878
 30
0.0
  0
VERTEX
  5
2DC
330
1DA
100
AcDbEntity
  8
0
  6
CONTINUOUS
 62
     7
100
AcDbVertex
100
AcDb2dVertex
 10
8.3801189502
 20
6.5981801346
 30
0.0
  0
VERTEX
  5
2DD
330
1DA
100
AcDbEntity
  8
0
  6
CONTINUOUS
 62
     7
100
AcDbVertex
100
AcDb2dVertex
 10
8.3931934888
 20
6.6267370694
 30
0.0
  0
VERTEX
  5
2DE
330
1DA
100
AcDbEntity
  8
0
  6
CONTINUOUS
 62
     7
100
AcDbVertex
100
AcDb2dVertex
 10
8.4071947154
 20
6.6550170077
 30
0.0
  0
VERTEX
  5
2DF
330
1DA
100
AcDbEntity
  8
0
  6
CONTINUOUS
 62
     7
100
AcDbVertex
100
AcDb2dVertex
 10
8.4220848851
 20
6.6829437118
 30
0.0
  0
VERTEX
  5
2E0
330
1DA
100
AcDbEntity
  8
0
  6
CONTINUOUS
 62
     7
100
AcDbVertex
100
AcDb2dVertex
 10
8.4378238567
 20
6.7104418962
 30
0.0
  0
VERTEX
  5
2E1
330
1DA
100
AcDbEntity
  8
0
  6
CONTINUOUS
 62
     7
100
AcDbVertex
100
AcDb2dVertex
 10
8.4543692008
 20
6.7374374308
 30
0.0
  0
VERTEX
  5
2E2
330
1DA
100
AcDbEntity
  8
0
  6
CONTINUOUS
 62
     7
100
AcDbVertex
100
AcDb2dVertex
 10
8.4716763139
 20
6.7638575403
 30
0.0
  0
VERTEX
  5
2E3
330
1DA
100
AcDbEntity
  8
0
  6
CONTINUOUS
 62
     7
100
AcDbVertex
100
AcDb2dVertex
 10
8.4896985392
 20
6.7896310008
 30
0.0
  0
VERTEX
  5
2E4
330
1DA
100
AcDbEntity
  8
0
  6
CONTINUOUS
 62
     7
100
AcDbVertex
100
AcDb2dVertex
 10
8.5083872919
 20
6.8146883315
 30
0.0
  0
VERTEX
  5
2E5
330
1DA
100
AcDbEntity
  8
0
  6
CONTINUOUS
 62
     7
100
AcDbVertex
100
AcDb2dVertex
 10
8.5276921905
 20
6.8389619824
 30
0.0
  0
VERTEX
  5
2E6
330
1DA
100
AcDbEntity
  8
0
  6
CONTINUOUS
 62
     7
100
AcDbVertex
100
AcDb2dVertex
 10
8.5475611923
 20
6.862386516
 30
0.0
  0
VERTEX
  5
2E7
330
1DA
100
AcDbEntity
  8
0
  6
CONTINUOUS
 62
     7
100
AcDbVertex
100
AcDb2dVertex
 10
8.5679407341
 20
6.8848987839
 30
0.0
  0
VERTEX
  5
2E8
330
1DA
100
AcDbEntity
  8
0
  6
CONTINUOUS
 62
     7
100
AcDbVertex
100
AcDb2dVertex
 10
8.5887758762
 20
6.9064380969
 30
0.0
  0
VERTEX
  5
2E9
330
1DA
100
AcDbEntity
  8
0
  6
CONTINUOUS
 62
     7
100
AcDbVertex
100
AcDb2dVertex
 10
8.6100104507
 20
6.926946389
 30
0.0
  0
VERTEX
  5
2EA
330
1DA
100
AcDbEntity
  8
0
  6
CONTINUOUS
 62
     7
100
AcDbVertex
100
AcDb2dVertex
 10
8.631587213
 20
6.9463683733
 30
0.0
  0
VERTEX
  5
2EB
330
1DA
100
AcDbEntity
  8
0
  6
CONTINUOUS
 62
     7
100
AcDbVertex
100
AcDb2dVertex
 10
8.653447996
 20
6.9646516917
 30
0.0
  0
VERTEX
  5
2EC
330
1DA
100
AcDbEntity
  8
0
  6
CONTINUOUS
 62
     7
100
AcDbVertex
100
AcDb2dVertex
 10
8.6755338668
 20
6.9817470555
 30
0.0
  0
VERTEX
  5
2ED
330
1DA
100
AcDbEntity
  8
0
  6
CONTINUOUS
 62
     7
100
AcDbVertex
100
AcDb2dVertex
 10
8.6977852859
 20
6.9976083786
 30
0.0
  0
VERTEX
  5
2EE
330
1DA
100
AcDbEntity
  8
0
  6
CONTINUOUS
 62
     7
100
AcDbVertex
100
AcDb2dVertex
 10
8.7201422673
 20
7.0121929019
 30
0.0
  0
VERTEX
  5
2EF
330
1DA
100
AcDbEntity
  8
0
  6
CONTINUOUS
 62
     7
100
AcDbVertex
100
AcDb2dVertex
 10
8.7425445406
 20
7.0254613078
 30
0.0
  0
VERTEX
  5
2F0
330
1DA
100
AcDbEntity
  8
0
  6
CONTINUOUS
 62
     7
100
AcDbVertex
100
AcDb2dVertex
 10
8.7649317132
 20
7.0373778272
 30
0.0
  0
VERTEX
  5
2F1
330
1DA
100
AcDbEntity
  8
0
  6
CONTINUOUS
 62
     7
100
AcDbVertex
100
AcDb2dVertex
 10
8.7872434332
 20
7.0479103353
 30
0.0
  0
VERTEX
  5
2F2
330
1DA
100
AcDbEntity
  8
0
  6
CONTINUOUS
 62
     7
100
AcDbVertex
100
AcDb2dVertex
 10
8.8094195523
 20
7.0570304383
 30
0.0
  0
VERTEX
  5
2F3
330
1DA
100
AcDbEntity
  8
0
  6
CONTINUOUS
 62
     7
100
AcDbVertex
100
AcDb2dVertex
 10
8.8314002874
 20
7.0647135499
 30
0.0
  0
VERTEX
  5
2F4
330
1DA
100
AcDbEntity
  8
0
  6
CONTINUOUS
 62
     7
100
AcDbVertex
100
AcDb2dVertex
 10
8.8531263825
 20
7.0709389578
 30
0.0
  0
VERTEX
  5
2F5
330
1DA
100
AcDbEntity
  8
0
  6
CONTINUOUS
 62
     7
100
AcDbVertex
100
AcDb2dVertex
 10
8.8745392678
 20
7.0756898796
 30
0.0
  0
VERTEX
  5
2F6
330
1DA
100
AcDbEntity
  8
0
  6
CONTINUOUS
 62
     7
100
AcDbVertex
100
AcDb2dVertex
 10
8.895581218
 20
7.0789535074
 30
0.0
  0
VERTEX
  5
2F7
330
1DA
100
AcDbEntity
  8
0
  6
CONTINUOUS
 62
     7
100
AcDbVertex
100
AcDb2dVertex
 10
8.9161955077
 20
7.0807210433
 30
0.0
  0
VERTEX
  5
2F8
330
1DA
100
AcDbEntity
  8
0
  6
CONTINUOUS
 62
     7
100
AcDbVertex
100
AcDb2dVertex
 10
8.9363265644
 20
7.0809877221
 30
0.0
  0
VERTEX
  5
2F9
330
1DA
100
AcDbEntity
  8
0
  6
CONTINUOUS
 62
     7
100
AcDbVertex
100
AcDb2dVertex
 10
8.9559201183
 20
7.079752825
 30
0.0
  0
VERTEX
  5
2FA
330
1DA
100
AcDbEntity
  8
0
  6
CONTINUOUS
 62
     7
100
AcDbVertex
100
AcDb2dVertex
 10
8.9749233486
 20
7.077019681
 30
0.0
  0
VERTEX
  5
2FB
330
1DA
100
AcDbEntity
  8
0
  6
CONTINUOUS
 62
     7
100
AcDbVertex
100
AcDb2dVertex
 10
8.9932850262
 20
7.0727956582
 30
0.0
  0
VERTEX
  5
2FC
330
1DA
100
AcDbEntity
  8
0
  6
CONTINUOUS
 62
     7
100
AcDbVertex
100
AcDb2dVertex
 10
9.010955651
 20
7.0670921439
 30
0.0
  0
VERTEX
  5
2FD
330
1DA
100
AcDbEntity
  8
0
  6
CONTINUOUS
 62
     7
100
AcDbVertex
100
AcDb2dVertex
 10
9.0278875862
 20
7.0599245137
 30
0.0
  0
VERTEX
  5
2FE
330
1DA
100
AcDbEntity
  8
0
  6
CONTINUOUS
 62
     7
100
AcDbVertex
100
AcDb2dVertex
 10
9.0440351863
 20
7.0513120902
 30
0.0
  0
VERTEX
  5
2FF
330
1DA
100
AcDbEntity
  8
0
  6
CONTINUOUS
 62
     7
100
AcDbVertex
100
AcDb2dVertex
 10
9.0593549203
 20
7.0412780911
 30
0.0
  0
VERTEX
  5
300
330
1DA
100
AcDbEntity
  8
0
  6
CONTINUOUS
 62
     7
100
AcDbVertex
100
AcDb2dVertex
 10
9.0738054888
 20
7.0298495661
 30
0.0
  0
VERTEX
  5
301
330
1DA
100
AcDbEntity
  8
0
  6
CONTINUOUS
 62
     7
100
AcDbVertex
100
AcDb2dVertex
 10
9.0873479357
 20
7.0170573247
 30
0.0
  0
VERTEX
  5
302
330
1DA
100
AcDbEntity
  8
0
  6
CONTINUOUS
 62
     7
100
AcDbVertex
100
AcDb2dVertex
 10
9.0999457529
 20
7.0029358524
 30
0.0
  0
VERTEX
  5
303
330
1DA
100
AcDbEntity
  8
0
  6
CONTINUOUS
 62
     7
100
AcDbVertex
100
AcDb2dVertex
 10
9.1115649789
 20
6.9875232182
 30
0.0
  0
VERTEX
  5
304
330
1DA
100
AcDbEntity
  8
0
  6
CONTINUOUS
 62
     7
100
AcDbVertex
100
AcDb2dVertex
 10
9.1221742904
 20
6.9708609719
 30
0.0
  0
VERTEX
  5
305
330
1DA
100
AcDbEntity
  8
0
  6
CONTINUOUS
 62
     7
100
AcDbVertex
100
AcDb2dVertex
 10
9.1317450865
 20
6.9529940319
 30
0.0
  0
VERTEX
  5
306
330
1DA
100
AcDbEntity
  8
0
  6
CONTINUOUS
 62
     7
100
AcDbVertex
100
AcDb2dVertex
 10
9.1402515661
 20
6.9339705643
 30
0.0
  0
VERTEX
  5
307
330
1DA
100
AcDbEntity
  8
0
  6
CONTINUOUS
 62
     7
100
AcDbVertex
100
AcDb2dVertex
 10
9.1476707971
 20
6.9138418531
 30
0.0
  0
VERTEX
  5
308
330
1DA
100
AcDbEntity
  8
0
  6
CONTINUOUS
 62
     7
100
AcDbVertex
100
AcDb2dVertex
 10
9.1539827787
 20
6.8926621616
 30
0.0
  0
VERTEX
  5
309
330
1DA
100
AcDbEntity
  8
0
  6
CONTINUOUS
 62
     7
100
AcDbVertex
100
AcDb2dVertex
 10
9.1591704949
 20
6.8704885867
 30
0.0
  0
VERTEX
  5
30A
330
1DA
100
AcDbEntity
  8
0
  6
CONTINUOUS
 62
     7
100
AcDbVertex
100
AcDb2dVertex
 10
9.1632199604
 20
6.8473809042
 30
0.0
  0
VERTEX
  5
30B
330
1DA
100
AcDbEntity
  8
0
  6
CONTINUOUS
 62
     7
100
AcDbVertex
100
AcDb2dVertex
 10
9.1661202587
 20
6.8234014086
 30
0.0
  0
VERTEX
  5
30C
330
1DA
100
AcDbEntity
  8
0
  6
CONTINUOUS
 62
     7
100
AcDbVertex
100
AcDb2dVertex
 10
9.1678635711
 20
6.7986147441
 30
0.0
  0
VERTEX
  5
30D
330
1DA
100
AcDbEntity
  8
0
  6
CONTINUOUS
 62
     7
100
AcDbVertex
100
AcDb2dVertex
 10
9.1684451979
 20
6.7730877314
 30
0.0
  0
VERTEX
  5
30E
330
1DA
100
AcDbEntity
  8
0
  6
CONTINUOUS
 62
     7
100
AcDbVertex
100
AcDb2dVertex
 10
9.1684451979
 20
6.7730877314
 30
0.0
  0
SEQEND
  5
30F
330
1DA
100
AcDbEntity
  8
0
  6
CONTINUOUS
 62
     7
  0
POLYLINE
  5
1DB
330
1F
100
AcDbEntity
  8
0
  6
CONTINUOUS
 62
     7
100
AcDb2dPolyline
 66
     1
 10
0.0
 20
0.0
 30
0.0
  0
VERTEX
  5
310
330
1DB
100
AcDbEntity
  8
0
  6
CONTINUOUS
 62
     7
100
AcDbVertex
100
AcDb2dVertex
 10
7.9152310638
 20
7.7029720569
 30
0.0
  0
VERTEX
  5
311
330
1DB
100
AcDbEntity
  8
0
  6
CONTINUOUS
 62
     7
100
AcDbVertex
100
AcDb2dVertex
 10
7.9010823076
 20
7.7104153549
 30
0.0
  0
VERTEX
  5
312
330
1DB
100
AcDbEntity
  8
0
  6
CONTINUOUS
 62
     7
100
AcDbVertex
100
AcDb2dVertex
 10
7.8841503724
 20
7.7175829851
 30
0.0
  0
VERTEX
  5
313
330
1DB
100
AcDbEntity
  8
0
  6
CONTINUOUS
 62
     7
100
AcDbVertex
100
AcDb2dVertex
 10
7.8664797476
 20
7.7232864995
 30
0.0
  0
VERTEX
  5
314
330
1DB
100
AcDbEntity
  8
0
  6
CONTINUOUS
 62
     7
100
AcDbVertex
100
AcDb2dVertex
 10
7.8481180701
 20
7.7275105222
 30
0.0
  0
VERTEX
  5
315
330
1DB
100
AcDbEntity
  8
0
  6
CONTINUOUS
 62
     7
100
AcDbVertex
100
AcDb2dVertex
 10
7.8291148397
 20
7.7302436662
 30
0.0
  0
VERTEX
  5
316
330
1DB
100
AcDbEntity
  8
0
  6
CONTINUOUS
 62
     7
100
AcDbVertex
100
AcDb2dVertex
 10
7.8095212858
 20
7.7314785633
 30
0.0
  0
VERTEX
  5
317
330
1DB
100
AcDbEntity
  8
0
  6
CONTINUOUS
 62
     7
100
AcDbVertex
100
AcDb2dVertex
 10
7.7893902291
 20
7.7312118845
 30
0.0
  0
VERTEX
  5
318
330
1DB
100
AcDbEntity
  8
0
  6
CONTINUOUS
 62
     7
100
AcDbVertex
100
AcDb2dVertex
 10
7.7687759395
 20
7.7294443487
 30
0.0
  0
VERTEX
  5
319
330
1DB
100
AcDbEntity
  8
0
  6
CONTINUOUS
 62
     7
100
AcDbVertex
100
AcDb2dVertex
 10
7.7477339893
 20
7.7261807208
 30
0.0
  0
VERTEX
  5
31A
330
1DB
100
AcDbEntity
  8
0
  6
CONTINUOUS
 62
     7
100
AcDbVertex
100
AcDb2dVertex
 10
7.726321104
 20
7.7214297991
 30
0.0
  0
VERTEX
  5
31B
330
1DB
100
AcDbEntity
  8
0
  6
CONTINUOUS
 62
     7
100
AcDbVertex
100
AcDb2dVertex
 10
7.7045950089
 20
7.7152043911
 30
0.0
  0
VERTEX
  5
31C
330
1DB
100
AcDbEntity
  8
0
  6
CONTINUOUS
 62
     7
100
AcDbVertex
100
AcDb2dVertex
 10
7.6826142737
 20
7.7075212795
 30
0.0
  0
VERTEX
  5
31D
330
1DB
100
AcDbEntity
  8
0
  6
CONTINUOUS
 62
     7
100
AcDbVertex
100
AcDb2dVertex
 10
7.6604381547
 20
7.6984011765
 30
0.0
  0
VERTEX
  5
31E
330
1DB
100
AcDbEntity
  8
0
  6
CONTINUOUS
 62
     7
100
AcDbVertex
100
AcDb2dVertex
 10
7.6381264346
 20
7.6878686685
 30
0.0
  0
VERTEX
  5
31F
330
1DB
100
AcDbEntity
  8
0
  6
CONTINUOUS
 62
     7
100
AcDbVertex
100
AcDb2dVertex
 10
7.615739262
 20
7.675952149
 30
0.0
  0
VERTEX
  5
320
330
1DB
100
AcDbEntity
  8
0
  6
CONTINUOUS
 62
     7
100
AcDbVertex
100
AcDb2dVertex
 10
7.5933369887
 20
7.6626837431
 30
0.0
  0
VERTEX
  5
321
330
1DB
100
AcDbEntity
  8
0
  6
CONTINUOUS
 62
     7
100
AcDbVertex
100
AcDb2dVertex
 10
7.5709800073
 20
7.6480992199
 30
0.0
  0
VERTEX
  5
322
330
1DB
100
AcDbEntity
  8
0
  6
CONTINUOUS
 62
     7
100
AcDbVertex
100
AcDb2dVertex
 10
7.5487285882
 20
7.6322378967
 30
0.0
  0
VERTEX
  5
323
330
1DB
100
AcDbEntity
  8
0
  6
CONTINUOUS
 62
     7
100
AcDbVertex
100
AcDb2dVertex
 10
7.5266427174
 20
7.6151425329
 30
0.0
  0
VERTEX
  5
324
330
1DB
100
AcDbEntity
  8
0
  6
CONTINUOUS
 62
     7
100
AcDbVertex
100
AcDb2dVertex
 10
7.5047819345
 20
7.5968592145
 30
0.0
  0
VERTEX
  5
325
330
1DB
100
AcDbEntity
  8
0
  6
CONTINUOUS
 62
     7
100
AcDbVertex
100
AcDb2dVertex
 10
7.4832051721
 20
7.5774372302
 30
0.0
  0
VERTEX
  5
326
330
1DB
100
AcDbEntity
  8
0
  6
CONTINUOUS
 62
     7
100
AcDbVertex
100
AcDb2dVertex
 10
7.4619705976
 20
7.5569289382
 30
0.0
  0
VERTEX
  5
327
330
1DB
100
AcDbEntity
  8
0
  6
CONTINUOUS
 62
     7
100
AcDbVertex
100
AcDb2dVertex
 10
7.4411354555
 20
7.5353896251
 30
0.0
  0
VERTEX
  5
328
330
1DB
100
AcDbEntity
  8
0
  6
CONTINUOUS
 62
     7
100
AcDbVertex
100
AcDb2dVertex
 10
7.4207559137
 20
7.5128773572
 30
0.0
  0
VERTEX
  5
329
330
1DB
100
AcDbEntity
  8
0
  6
CONTINUOUS
 62
     7
100
AcDbVertex
100
AcDb2dVertex
 10
7.4008869119
 20
7.4894528237
 30
0.0
  0
VERTEX
  5
32A
330
1DB
100
AcDbEntity
  8
0
  6
CONTINUOUS
 62
     7
100
AcDbVertex
100
AcDb2dVertex
 10
7.3815820133
 20
7.4651791728
 30
0.0
  0
VERTEX
  5
32B
330
1DB
100
AcDbEntity
  8
0
  6
CONTINUOUS
 62
     7
100
AcDbVertex
100
AcDb2dVertex
 10
7.3628932606
 20
7.440121842
 30
0.0
  0
VERTEX
  5
32C
330
1DB
100
AcDbEntity
  8
0
  6
CONTINUOUS
 62
     7
100
AcDbVertex
100
AcDb2dVertex
 10
7.3448710353
 20
7.4143483815
 30
0.0
  0
VERTEX
  5
32D
330
1DB
100
AcDbEntity
  8
0
  6
CONTINUOUS
 62
     7
100
AcDbVertex
100
AcDb2dVertex
 10
7.3275639222
 20
7.387928272
 30
0.0
  0
VERTEX
  5
32E
330
1DB
100
AcDbEntity
  8
0
  6
CONTINUOUS
 62
     7
100
AcDbVertex
100
AcDb2dVertex
 10
7.3110185782
 20
7.3609327375
 30
0.0
  0
VERTEX
  5
32F
330
1DB
100
AcDbEntity
  8
0
  6
CONTINUOUS
 62
     7
100
AcDbVertex
100
AcDb2dVertex
 10
7.2952796066
 20
7.333434553
 30
0.0
  0
VERTEX
  5
330
330
1DB
100
AcDbEntity
  8
0
  6
CONTINUOUS
 62
     7
100
AcDbVertex
100
AcDb2dVertex
 10
7.2803894368
 20
7.3055078489
 30
0.0
  0
VERTEX
  5
331
330
1DB
100
AcDbEntity
  8
0
  6
CONTINUOUS
 62
     7
100
AcDbVertex
100
AcDb2dVertex
 10
7.2663882102
 20
7.2772279106
 30
0.0
  0
VERTEX
  5
332
330
1DB
100
AcDbEntity
  8
0
  6
CONTINUOUS
 62
     7
100
AcDbVertex
100
AcDb2dVertex
 10
7.2533136716
 20
7.2486709758
 30
0.0
  0
VERTEX
  5
333
330
1DB
100
AcDbEntity
  8
0
  6
CONTINUOUS
 62
     7
100
AcDbVertex
100
AcDb2dVertex
 10
7.2412010676
 20
7.219914029
 30
0.0
  0
VERTEX
  5
334
330
1DB
100
AcDbEntity
  8
0
  6
CONTINUOUS
 62
     7
100
AcDbVertex
100
AcDb2dVertex
 10
7.2300830517
 20
7.1910345938
 30
0.0
  0
VERTEX
  5
335
330
1DB
100
AcDbEntity
  8
0
  6
CONTINUOUS
 62
     7
100
AcDbVertex
100
AcDb2dVertex
 10
7.2199895961
 20
7.1621105241
 30
0.0
  0
VERTEX
  5
336
330
1DB
100
AcDbEntity
  8
0
  6
CONTINUOUS
 62
     7
100
AcDbVertex
100
AcDb2dVertex
 10
7.2109479109
 20
7.133219794
 30
0.0
  0
VERTEX
  5
337
330
1DB
100
AcDbEntity
  8
0
  6
CONTINUOUS
 62
     7
100
AcDbVertex
100
AcDb2dVertex
 10
7.2029823709
 20
7.1044402879
 30
0.0
  0
VERTEX
  5
338
330
1DB
100
AcDbEntity
  8
0
  6
CONTINUOUS
 62
     7
100
AcDbVertex
100
AcDb2dVertex
 10
7.1961144499
 20
7.0758495902
 30
0.0
  0
VERTEX
  5
339
330
1DB
100
AcDbEntity
  8
0
  6
CONTINUOUS
 62
     7
100
AcDbVertex
100
AcDb2dVertex
 10
7.1903626624
 20
7.0475247763
 30
0.0
  0
VERTEX
  5
33A
330
1DB
100
AcDbEntity
  8
0
  6
CONTINUOUS
 62
     7
100
AcDbVertex
100
AcDb2dVertex
 10
7.1857425144
 20
7.019542205
 30
0.0
  0
VERTEX
  5
33B
330
1DB
100
AcDbEntity
  8
0
  6
CONTINUOUS
 62
     7
100
AcDbVertex
100
AcDb2dVertex
 10
7.1822664609
 20
6.9919773123
 30
0.0
  0
VERTEX
  5
33C
330
1DB
100
AcDbEntity
  8
0
  6
CONTINUOUS
 62
     7
100
AcDbVertex
100
AcDb2dVertex
 10
7.1799438728
 20
6.9649044084
 30
0.0
  0
VERTEX
  5
33D
330
1DB
100
AcDbEntity
  8
0
  6
CONTINUOUS
 62
     7
100
AcDbVertex
100
AcDb2dVertex
 10
7.1787810113
 20
6.9383964769
 30
0.0
  0
VERTEX
  5
33E
330
1DB
100
AcDbEntity
  8
0
  6
CONTINUOUS
 62
     7
100
AcDbVertex
100
AcDb2dVertex
 10
7.1787810113
 20
6.9125249786
 30
0.0
  0
VERTEX
  5
33F
330
1DB
100
AcDbEntity
  8
0
  6
CONTINUOUS
 62
     7
100
AcDbVertex
100
AcDb2dVertex
 10
7.1799438728
 20
6.8873596584
 30
0.0
  0
VERTEX
  5
340
330
1DB
100
AcDbEntity
  8
0
  6
CONTINUOUS
 62
     7
100
AcDbVertex
100
AcDb2dVertex
 10
7.1822664609
 20
6.8629683576
 30
0.0
  0
VERTEX
  5
341
330
1DB
100
AcDbEntity
  8
0
  6
CONTINUOUS
 62
     7
100
AcDbVertex
100
AcDb2dVertex
 10
7.1857425144
 20
6.8394168309
 30
0.0
  0
VERTEX
  5
342
330
1DB
100
AcDbEntity
  8
0
  6
CONTINUOUS
 62
     7
100
AcDbVertex
100
AcDb2dVertex
 10
7.1903626624
 20
6.8167685689
 30
0.0
  0
VERTEX
  5
343
330
1DB
100
AcDbEntity
  8
0
  6
CONTINUOUS
 62
     7
100
AcDbVertex
100
AcDb2dVertex
 10
7.1961144499
 20
6.7950846275
 30
0.0
  0
VERTEX
  5
344
330
1DB
100
AcDbEntity
  8
0
  6
CONTINUOUS
 62
     7
100
AcDbVertex
100
AcDb2dVertex
 10
7.2029823709
 20
6.7744234626
 30
0.0
  0
VERTEX
  5
345
330
1DB
100
AcDbEntity
  8
0
  6
CONTINUOUS
 62
     7
100
AcDbVertex
100
AcDb2dVertex
 10
7.2109479109
 20
6.7548407732
 30
0.0
  0
VERTEX
  5
346
330
1DB
100
AcDbEntity
  8
0
  6
CONTINUOUS
 62
     7
100
AcDbVertex
100
AcDb2dVertex
 10
7.2199895961
 20
6.7363893506
 30
0.0
  0
VERTEX
  5
347
330
1DB
100
AcDbEntity
  8
0
  6
CONTINUOUS
 62
     7
100
AcDbVertex
100
AcDb2dVertex
 10
7.2300830517
 20
6.7191189367
 30
0.0
  0
VERTEX
  5
348
330
1DB
100
AcDbEntity
  8
0
  6
CONTINUOUS
 62
     7
100
AcDbVertex
100
AcDb2dVertex
 10
7.2412010676
 20
6.7030760895
 30
0.0
  0
VERTEX
  5
349
330
1DB
100
AcDbEntity
  8
0
  6
CONTINUOUS
 62
     7
100
AcDbVertex
100
AcDb2dVertex
 10
7.2533136716
 20
6.6883040575
 30
0.0
  0
VERTEX
  5
34A
330
1DB
100
AcDbEntity
  8
0
  6
CONTINUOUS
 62
     7
100
AcDbVertex
100
AcDb2dVertex
 10
7.2663882102
 20
6.6748426637
 30
0.0
  0
VERTEX
  5
34B
330
1DB
100
AcDbEntity
  8
0
  6
CONTINUOUS
 62
     7
100
AcDbVertex
100
AcDb2dVertex
 10
7.2803894368
 20
6.6627281975
 30
0.0
  0
VERTEX
  5
34C
330
1DB
100
AcDbEntity
  8
0
  6
CONTINUOUS
 62
     7
100
AcDbVertex
100
AcDb2dVertex
 10
7.2952796066
 20
6.6519933175
 30
0.0
  0
VERTEX
  5
34D
330
1DB
100
AcDbEntity
  8
0
  6
CONTINUOUS
 62
     7
100
AcDbVertex
100
AcDb2dVertex
 10
7.3050444356
 20
6.6459832878
 30
0.0
  0
SEQEND
  5
34E
330
1DB
100
AcDbEntity
  8
0
  6
CONTINUOUS
 62
     7
  0
SPLINE
  5
1DC
330
1F
100
AcDbEntity
  8
0
  6
CONTINUOUS
 62
     7
100
AcDbSpline
210
0.0
220
0.0
230
1.0
 70
     8
 71
     3
 72
    29
 73
    25
 74
     0
 42
0.00000001
 43
0.00000001
 40
-0.1267424971293043
 40
-0.0842023872840779
 40
-0.0429133788077013
 40
0.0
 40
0.043013431125249
 40
0.0843624759808951
 40
0.1269025952224689
 40
0.188882531495908
 40
0.2497672989092573
 40
0.2908430043587844
 40
0.3308814395779289
 40
0.3731122492140263
 40
0.4156765622498595
 40
0.4570677618035562
 40
0.5001569689355145
 40
0.5430728328022614
 40
0.5843698995033154
 40
0.6269236963746025
 40
0.6889800734179387
 40
0.7498418763335752
 40
0.7909128103877873
 40
0.8309750397853475
 40
0.8732575028706957
 40
0.9157976127159221
 40
0.9570866211922987
 40
1.0
 40
1.043013431125249
 40
1.084362475980895
 40
1.126902595222469
 10
7.628636024799449
 20
7.63516350316092
 30
0.0
 10
7.64906819757878
 20
7.650553801846402
 30
0.0
 10
7.674526760225831
 20
7.661594112419483
 30
0.0
 10
7.704411819322262
 20
7.667072124239692
 30
0.0
 10
7.74118764646393
 20
7.66695360247685
 30
0.0
 10
7.783699258901454
 20
7.659503721310048
 30
0.0
 10
7.819012393092205
 20
7.644067822931567
 30
0.0
 10
7.841467404820411
 20
7.628296900779415
 30
0.0
 10
7.853126209425406
 20
7.613304879181138
 30
0.0
 10
7.856030231729947
 20
7.59778583467309
 30
0.0
 10
7.851658641105373
 20
7.582039313649663
 30
0.0
 10
7.838687848129006
 20
7.566762682320006
 30
0.0
 10
7.818260501033084
 20
7.552784239542214
 30
0.0
 10
7.792820418165653
 20
7.540265593069621
 30
0.0
 10
7.762951758577373
 20
7.530848978128531
 30
0.0
 10
7.726158548431584
 20
7.524859944911596
 30
0.0
 10
7.683638904200568
 20
7.524775873111771
 30
0.0
 10
7.648311892493688
 20
7.537456868978119
 30
0.0
 10
7.625878604945009
 20
7.554767377046646
 30
0.0
 10
7.614237959554657
 20
7.573821209499044
 30
0.0
 10
7.611348911593547
 20
7.594915655287417
 30
0.0
 10
7.615708545134443
 20
7.615970060388193
 30
0.0
 10
7.628636024799449
 20
7.63516350316092
 30
0.0
 10
7.64906819757878
 20
7.650553801846402
 30
0.0
 10
7.674526760225831
 20
7.661594112419483
 30
0.0
  0
SPLINE
  5
1DD
330
1F
100
AcDbEntity
  8
0
  6
CONTINUOUS
 62
     7
100
AcDbSpline
210
0.0
220
0.0
230
1.0
 70
     8
 71
     3
 72
    29
 73
    25
 74
     0
 42
0.00000001
 43
0.00000001
 40
-0.1267424971292984
 40
-0.0842023872840483
 40
-0.0429133788076715
 40
0.0
 40
0.0430134311252494
 40
0.0843624759808952
 40
0.1269025952224688
 40
0.1888825314959077
 40
0.2497672989092569
 40
0.2908430043588395
 40
0.3308814395779839
 40
0.3731122492140377
 40
0.4156765622499185
 40
0.4570677618036152
 40
0.500156968935515
 40
0.5430728328022616
 40
0.5843698995033155
 40
0.6269236963746029
 40
0.6889800734179389
 40
0.7498418763335751
 40
0.790912810387815
 40
0.8309750397853751
 40
0.8732575028707016
 40
0.9157976127159517
 40
0.9570866211923285
 40
1.0
 40
1.043013431125249
 40
1.084362475980895
 40
1.126902595222469
 10
8.508343673834691
 20
7.127319087145224
 30
0.0
 10
8.528775846614016
 20
7.142709385830703
 30
0.0
 10
8.554234409261062
 20
7.153749696403781
 30
0.0
 10
8.584119468357493
 20
7.15922770822399
 30
0.0
 10
8.62089529549916
 20
7.159109186461149
 30
0.0
 10
8.663406907936686
 20
7.151659305294346
 30
0.0
 10
8.698720042127446
 20
7.13622340691586
 30
0.0
 10
8.721175053855664
 20
7.120452484763703
 30
0.0
 10
8.73283385846067
 20
7.105460463165424
 30
0.0
 10
8.735737880765177
 20
7.089941418657375
 30
0.0
 10
8.731366290140569
 20
7.074194897633953
 30
0.0
 10
8.718395497164211
 20
7.058918266304295
 30
0.0
 10
8.697968150068304
 20
7.044939823526505
 30
0.0
 10
8.672528067200885
 20
7.032421177053919
 30
0.0
 10
8.642659407612603
 20
7.023004562112829
 30
0.0
 10
8.605866197466815
 20
7.017015528895895
 30
0.0
 10
8.563346553235798
 20
7.01693145709607
 30
0.0
 10
8.528019541528915
 20
7.029612452962421
 30
0.0
 10
8.505586253980226
 20
7.046922961030949
 30
0.0
 10
8.49394560858987
 20
7.065976793483347
 30
0.0
 10
8.491056560628778
 20
7.087071239271724
 30
0.0
 10
8.49541619416969
 20
7.108125644372499
 30
0.0
 10
8.508343673834691
 20
7.127319087145224
 30
0.0
 10
8.528775846614016
 20
7.142709385830703
 30
0.0
 10
8.554234409261062
 20
7.153749696403781
 30
0.0
  0
POLYLINE
  5
1DE
330
1F
100
AcDbEntity
  8
0
  6
CONTINUOUS
 62
     7
100
AcDb2dPolyline
 66
     1
 10
0.0
 20
0.0
 30
0.0
  0
VERTEX
  5
34F
330
1DE
100
AcDbEntity
  8
0
  6
CONTINUOUS
 62
     7
100
AcDbVertex
100
AcDb2dVertex
 10
8.8628859841
 20
6.5721999086
 30
0.0
  0
VERTEX
  5
350
330
1DE
100
AcDbEntity
  8
0
  6
CONTINUOUS
 62
     7
100
AcDbVertex
100
AcDb2dVertex
 10
8.8622926691
 20
6.559002468
 30
0.0
  0
VERTEX
  5
351
330
1DE
100
AcDbEntity
  8
0
  6
CONTINUOUS
 62
     7
100
AcDbVertex
100
AcDb2dVertex
 10
8.8605194467
 20
6.5452695328
 30
0.0
  0
VERTEX
  5
352
330
1DE
100
AcDbEntity
  8
0
  6
CONTINUOUS
 62
     7
100
AcDbVertex
100
AcDb2dVertex
 10
8.8575864082
 20
6.5311567026
 30
0.0
  0
VERTEX
  5
353
330
1DE
100
AcDbEntity
  8
0
  6
CONTINUOUS
 62
     7
100
AcDbVertex
100
AcDb2dVertex
 10
8.853526786
 20
6.5168238815
 30
0.0
  0
VERTEX
  5
354
330
1DE
100
AcDbEntity
  8
0
  6
CONTINUOUS
 62
     7
100
AcDbVertex
100
AcDb2dVertex
 10
8.8483865773
 20
6.502433466
 30
0.0
  0
VERTEX
  5
355
330
1DE
100
AcDbEntity
  8
0
  6
CONTINUOUS
 62
     7
100
AcDbVertex
100
AcDb2dVertex
 10
8.8422240228
 20
6.4881485053
 30
0.0
  0
VERTEX
  5
356
330
1DE
100
AcDbEntity
  8
0
  6
CONTINUOUS
 62
     7
100
AcDbVertex
100
AcDb2dVertex
 10
8.8351089466
 20
6.4741308537
 30
0.0
  0
VERTEX
  5
357
330
1DE
100
AcDbEntity
  8
0
  6
CONTINUOUS
 62
     7
100
AcDbVertex
100
AcDb2dVertex
 10
8.8271219654
 20
6.4605393368
 30
0.0
  0
VERTEX
  5
358
330
1DE
100
AcDbEntity
  8
0
  6
CONTINUOUS
 62
     7
100
AcDbVertex
100
AcDb2dVertex
 10
8.8183535749
 20
6.4475279518
 30
0.0
  0
VERTEX
  5
359
330
1DE
100
AcDbEntity
  8
0
  6
CONTINUOUS
 62
     7
100
AcDbVertex
100
AcDb2dVertex
 10
8.8089031244
 20
6.4352441231
 30
0.0
  0
VERTEX
  5
35A
330
1DE
100
AcDbEntity
  8
0
  6
CONTINUOUS
 62
     7
100
AcDbVertex
100
AcDb2dVertex
 10
8.7988776913
 20
6.4238270313
 30
0.0
  0
VERTEX
  5
35B
330
1DE
100
AcDbEntity
  8
0
  6
CONTINUOUS
 62
     7
100
AcDbVertex
100
AcDb2dVertex
 10
8.7883908679
 20
6.4134060366
 30
0.0
  0
VERTEX
  5
35C
330
1DE
100
AcDbEntity
  8
0
  6
CONTINUOUS
 62
     7
100
AcDbVertex
100
AcDb2dVertex
 10
8.7775614739
 20
6.404099213
 30
0.0
  0
VERTEX
  5
35D
330
1DE
100
AcDbEntity
  8
0
  6
CONTINUOUS
 62
     7
100
AcDbVertex
100
AcDb2dVertex
 10
8.7665122108
 20
6.3960120106
 30
0.0
  0
VERTEX
  5
35E
330
1DE
100
AcDbEntity
  8
0
  6
CONTINUOUS
 62
     7
100
AcDbVertex
100
AcDb2dVertex
 10
8.7553682711
 20
6.3892360606
 30
0.0
  0
VERTEX
  5
35F
330
1DE
100
AcDbEntity
  8
0
  6
CONTINUOUS
 62
     7
100
AcDbVertex
100
AcDb2dVertex
 10
8.7442559201
 20
6.3838481372
 30
0.0
  0
VERTEX
  5
360
330
1DE
100
AcDbEntity
  8
0
  6
CONTINUOUS
 62
     7
100
AcDbVertex
100
AcDb2dVertex
 10
8.7333010652
 20
6.3799092878
 30
0.0
  0
VERTEX
  5
361
330
1DE
100
AcDbEntity
  8
0
  6
CONTINUOUS
 62
     7
100
AcDbVertex
100
AcDb2dVertex
 10
8.7226278293
 20
6.377464141
 30
0.0
  0
VERTEX
  5
362
330
1DE
100
AcDbEntity
  8
0
  6
CONTINUOUS
 62
     7
100
AcDbVertex
100
AcDb2dVertex
 10
8.7123571443
 20
6.3765404014
 30
0.0
  0
VERTEX
  5
363
330
1DE
100
AcDbEntity
  8
0
  6
CONTINUOUS
 62
     7
100
AcDbVertex
100
AcDb2dVertex
 10
8.7026053813
 20
6.3771485354
 30
0.0
  0
VERTEX
  5
364
330
1DE
100
AcDbEntity
  8
0
  6
CONTINUOUS
 62
     7
100
AcDbVertex
100
AcDb2dVertex
 10
8.6934830317
 20
6.3792816524
 30
0.0
  0
VERTEX
  5
365
330
1DE
100
AcDbEntity
  8
0
  6
CONTINUOUS
 62
     7
100
AcDbVertex
100
AcDb2dVertex
 10
8.6850934552
 20
6.3829155835
 30
0.0
  0
VERTEX
  5
366
330
1DE
100
AcDbEntity
  8
0
  6
CONTINUOUS
 62
     7
100
AcDbVertex
100
AcDb2dVertex
 10
8.6775317092
 20
6.3880091547
 30
0.0
  0
VERTEX
  5
367
330
1DE
100
AcDbEntity
  8
0
  6
CONTINUOUS
 62
     7
100
AcDbVertex
100
AcDb2dVertex
 10
8.6708834713
 20
6.3945046539
 30
0.0
  0
VERTEX
  5
368
330
1DE
100
AcDbEntity
  8
0
  6
CONTINUOUS
 62
     7
100
AcDbVertex
100
AcDb2dVertex
 10
8.6652240686
 20
6.4023284845
 30
0.0
  0
VERTEX
  5
369
330
1DE
100
AcDbEntity
  8
0
  6
CONTINUOUS
 62
     7
100
AcDbVertex
100
AcDb2dVertex
 10
8.6606176245
 20
6.4113919992
 30
0.0
  0
VERTEX
  5
36A
330
1DE
100
AcDbEntity
  8
0
  6
CONTINUOUS
 62
     7
100
AcDbVertex
100
AcDb2dVertex
 10
8.6571163317
 20
6.421592505
 30
0.0
  0
VERTEX
  5
36B
330
1DE
100
AcDbEntity
  8
0
  6
CONTINUOUS
 62
     7
100
AcDbVertex
100
AcDb2dVertex
 10
8.6547598614
 20
6.4328144259
 30
0.0
  0
VERTEX
  5
36C
330
1DE
100
AcDbEntity
  8
0
  6
CONTINUOUS
 62
     7
100
AcDbVertex
100
AcDb2dVertex
 10
8.6535749132
 20
6.4449306132
 30
0.0
  0
VERTEX
  5
36D
330
1DE
100
AcDbEntity
  8
0
  6
CONTINUOUS
 62
     7
100
AcDbVertex
100
AcDb2dVertex
 10
8.6535749132
 20
6.4578037856
 30
0.0
  0
VERTEX
  5
36E
330
1DE
100
AcDbEntity
  8
0
  6
CONTINUOUS
 62
     7
100
AcDbVertex
100
AcDb2dVertex
 10
8.6547598614
 20
6.4712880848
 30
0.0
  0
VERTEX
  5
36F
330
1DE
100
AcDbEntity
  8
0
  6
CONTINUOUS
 62
     7
100
AcDbVertex
100
AcDb2dVertex
 10
8.6571163317
 20
6.4852307285
 30
0.0
  0
VERTEX
  5
370
330
1DE
100
AcDbEntity
  8
0
  6
CONTINUOUS
 62
     7
100
AcDbVertex
100
AcDb2dVertex
 10
8.6606176245
 20
6.4994737408
 30
0.0
  0
VERTEX
  5
371
330
1DE
100
AcDbEntity
  8
0
  6
CONTINUOUS
 62
     7
100
AcDbVertex
100
AcDb2dVertex
 10
8.6652240686
 20
6.5138557428
 30
0.0
  0
VERTEX
  5
372
330
1DE
100
AcDbEntity
  8
0
  6
CONTINUOUS
 62
     7
100
AcDbVertex
100
AcDb2dVertex
 10
8.6708834713
 20
6.5282137806
 30
0.0
  0
VERTEX
  5
373
330
1DE
100
AcDbEntity
  8
0
  6
CONTINUOUS
 62
     7
100
AcDbVertex
100
AcDb2dVertex
 10
8.6775317092
 20
6.5423851719
 30
0.0
  0
VERTEX
  5
374
330
1DE
100
AcDbEntity
  8
0
  6
CONTINUOUS
 62
     7
100
AcDbVertex
100
AcDb2dVertex
 10
8.6850934552
 20
6.5562093493
 30
0.0
  0
VERTEX
  5
375
330
1DE
100
AcDbEntity
  8
0
  6
CONTINUOUS
 62
     7
100
AcDbVertex
100
AcDb2dVertex
 10
8.6934830317
 20
6.5695296791
 30
0.0
  0
VERTEX
  5
376
330
1DE
100
AcDbEntity
  8
0
  6
CONTINUOUS
 62
     7
100
AcDbVertex
100
AcDb2dVertex
 10
8.7026053813
 20
6.5821952369
 30
0.0
  0
VERTEX
  5
377
330
1DE
100
AcDbEntity
  8
0
  6
CONTINUOUS
 62
     7
100
AcDbVertex
100
AcDb2dVertex
 10
8.7123571443
 20
6.5940625167
 30
0.0
  0
VERTEX
  5
378
330
1DE
100
AcDbEntity
  8
0
  6
CONTINUOUS
 62
     7
100
AcDbVertex
100
AcDb2dVertex
 10
8.7226278293
 20
6.6049970575
 30
0.0
  0
VERTEX
  5
379
330
1DE
100
AcDbEntity
  8
0
  6
CONTINUOUS
 62
     7
100
AcDbVertex
100
AcDb2dVertex
 10
8.7333010652
 20
6.6148749667
 30
0.0
  0
VERTEX
  5
37A
330
1DE
100
AcDbEntity
  8
0
  6
CONTINUOUS
 62
     7
100
AcDbVertex
100
AcDb2dVertex
 10
8.7442559201
 20
6.6235843235
 30
0.0
  0
VERTEX
  5
37B
330
1DE
100
AcDbEntity
  8
0
  6
CONTINUOUS
 62
     7
100
AcDbVertex
100
AcDb2dVertex
 10
8.7553682711
 20
6.6310264475
 30
0.0
  0
VERTEX
  5
37C
330
1DE
100
AcDbEntity
  8
0
  6
CONTINUOUS
 62
     7
100
AcDbVertex
100
AcDb2dVertex
 10
8.7665122108
 20
6.6371170164
 30
0.0
  0
VERTEX
  5
37D
330
1DE
100
AcDbEntity
  8
0
  6
CONTINUOUS
 62
     7
100
AcDbVertex
100
AcDb2dVertex
 10
8.7775614739
 20
6.6417870216
 30
0.0
  0
VERTEX
  5
37E
330
1DE
100
AcDbEntity
  8
0
  6
CONTINUOUS
 62
     7
100
AcDbVertex
100
AcDb2dVertex
 10
8.7883908679
 20
6.6449835502
 30
0.0
  0
VERTEX
  5
37F
330
1DE
100
AcDbEntity
  8
0
  6
CONTINUOUS
 62
     7
100
AcDbVertex
100
AcDb2dVertex
 10
8.7988776913
 20
6.6466703841
 30
0.0
  0
VERTEX
  5
380
330
1DE
100
AcDbEntity
  8
0
  6
CONTINUOUS
 62
     7
100
AcDbVertex
100
AcDb2dVertex
 10
8.8089031244
 20
6.6468284109
 30
0.0
  0
VERTEX
  5
381
330
1DE
100
AcDbEntity
  8
0
  6
CONTINUOUS
 62
     7
100
AcDbVertex
100
AcDb2dVertex
 10
8.8183535749
 20
6.64545584
 30
0.0
  0
VERTEX
  5
382
330
1DE
100
AcDbEntity
  8
0
  6
CONTINUOUS
 62
     7
100
AcDbVertex
100
AcDb2dVertex
 10
8.8271219654
 20
6.6425682234
 30
0.0
  0
VERTEX
  5
383
330
1DE
100
AcDbEntity
  8
0
  6
CONTINUOUS
 62
     7
100
AcDbVertex
100
AcDb2dVertex
 10
8.8351089466
 20
6.6381982786
 30
0.0
  0
VERTEX
  5
384
330
1DE
100
AcDbEntity
  8
0
  6
CONTINUOUS
 62
     7
100
AcDbVertex
100
AcDb2dVertex
 10
8.8422240228
 20
6.6323955192
 30
0.0
  0
VERTEX
  5
385
330
1DE
100
AcDbEntity
  8
0
  6
CONTINUOUS
 62
     7
100
AcDbVertex
100
AcDb2dVertex
 10
8.8483865773
 20
6.6252256925
 30
0.0
  0
VERTEX
  5
386
330
1DE
100
AcDbEntity
  8
0
  6
CONTINUOUS
 62
     7
100
AcDbVertex
100
AcDb2dVertex
 10
8.853526786
 20
6.6167700356
 30
0.0
  0
VERTEX
  5
387
330
1DE
100
AcDbEntity
  8
0
  6
CONTINUOUS
 62
     7
100
AcDbVertex
100
AcDb2dVertex
 10
8.8575864082
 20
6.6071243544
 30
0.0
  0
VERTEX
  5
388
330
1DE
100
AcDbEntity
  8
0
  6
CONTINUOUS
 62
     7
100
AcDbVertex
100
AcDb2dVertex
 10
8.8605194467
 20
6.5963979385
 30
0.0
  0
VERTEX
  5
389
330
1DE
100
AcDbEntity
  8
0
  6
CONTINUOUS
 62
     7
100
AcDbVertex
100
AcDb2dVertex
 10
8.8622926691
 20
6.5847123223
 30
0.0
  0
VERTEX
  5
38A
330
1DE
100
AcDbEntity
  8
0
  6
CONTINUOUS
 62
     7
100
AcDbVertex
100
AcDb2dVertex
 10
8.8628859841
 20
6.5721999086
 30
0.0
  0
SEQEND
  5
38B
330
1DE
100
AcDbEntity
  8
0
  6
CONTINUOUS
 62
     7
  0
SPLINE
  5
1DF
330
1F
100
AcDbEntity
  8
0
  6
CONTINUOUS
 62
     7
100
AcDbSpline
210
0.0
220
0.0
230
1.0
 70
     8
 71
     3
 72
    11
 73
     7
 74
     0
 42
0.00000001
 43
0.00000001
 40
0.0
 40
0.0
 40
0.0
 40
0.0
 40
0.3600455685403023
 40
0.6816618792696351
 40
0.9639632297056666
 40
1.0
 40
1.0
 40
1.0
 40
1.0
 10
8.514976815106753
 20
7.067555924746546
 30
0.0
 10
8.51547035131891
 20
7.062369077750195
 30
0.0
 10
8.516404746437928
 20
7.05254899890476
 30
0.0
 10
8.523717049361533
 20
7.039877861190373
 30
0.0
 10
8.530180040820692
 20
7.031969165193788
 30
0.0
 10
8.534636197765328
 20
7.028875349373517
 30
0.0
 10
8.535140647260228
 20
7.028525120724204
 30
0.0
  0
SPLINE
  5
1E0
330
1F
100
AcDbEntity
  8
0
  6
CONTINUOUS
 62
     7
100
AcDbSpline
210
0.0
220
0.0
230
1.0
 70
     8
 71
     3
 72
     9
 73
     5
 74
     0
 42
0.00000001
 43
0.00000001
 40
0.0
 40
0.0
 40
0.0
 40
0.0
 40
0.3759098453295097
 40
1.0
 40
1.0
 40
1.0
 40
1.0
 10
8.70463113559482
 20
7.050169290559269
 30
0.0
 10
8.706331936047695
 20
7.052318060549062
 30
0.0
 10
8.710856426358358
 20
7.058034244938725
 30
0.0
 10
8.711447530446602
 20
7.063896444761437
 30
0.0
 10
8.711816432688462
 20
7.067554985955503
 30
0.0
  0
POLYLINE
  5
1E1
330
1F
100
AcDbEntity
  8
0
  6
CONTINUOUS
 62
     7
100
AcDb2dPolyline
 66
     1
 10
0.0
 20
0.0
 30
0.0
  0
VERTEX
  5
38C
330
1E1
100
AcDbEntity
  8
0
  6
CONTINUOUS
 62
     7
100
AcDbVertex
100
AcDb2dVertex
 10
8.8204595772
 20
6.5721999086
 30
0.0
  0
VERTEX
  5
38D
330
1E1
100
AcDbEntity
  8
0
  6
CONTINUOUS
 62
     7
100
AcDbVertex
100
AcDb2dVertex
 10
8.8198733826
 20
6.5832679865
 30
0.0
  0
VERTEX
  5
38E
330
1E1
100
AcDbEntity
  8
0
  6
CONTINUOUS
 62
     7
100
AcDbVertex
100
AcDb2dVertex
 10
8.8181230276
 20
6.5935038868
 30
0.0
  0
VERTEX
  5
38F
330
1E1
100
AcDbEntity
  8
0
  6
CONTINUOUS
 62
     7
100
AcDbVertex
100
AcDb2dVertex
 10
8.8152330833
 20
6.6027639202
 30
0.0
  0
VERTEX
  5
390
330
1E1
100
AcDbEntity
  8
0
  6
CONTINUOUS
 62
     7
100
AcDbVertex
100
AcDb2dVertex
 10
8.8112441183
 20
6.6109180958
 30
0.0
  0
VERTEX
  5
391
330
1E1
100
AcDbEntity
  8
0
  6
CONTINUOUS
 62
     7
100
AcDbVertex
100
AcDb2dVertex
 10
8.8062121288
 20
6.6178519471
 30
0.0
  0
VERTEX
  5
392
330
1E1
100
AcDbEntity
  8
0
  6
CONTINUOUS
 62
     7
100
AcDbVertex
100
AcDb2dVertex
 10
8.800207753
 20
6.6234681379
 30
0.0
  0
VERTEX
  5
393
330
1E1
100
AcDbEntity
  8
0
  6
CONTINUOUS
 62
     7
100
AcDbVertex
100
AcDb2dVertex
 10
8.7933152792
 20
6.6276878292
 30
0.0
  0
VERTEX
  5
394
330
1E1
100
AcDbEntity
  8
0
  6
CONTINUOUS
 62
     7
100
AcDbVertex
100
AcDb2dVertex
 10
8.7856314625
 20
6.6304517858
 30
0.0
  0
VERTEX
  5
395
330
1E1
100
AcDbEntity
  8
0
  6
CONTINUOUS
 62
     7
100
AcDbVertex
100
AcDb2dVertex
 10
8.7772641669
 20
6.6317212078
 30
0.0
  0
VERTEX
  5
396
330
1E1
100
AcDbEntity
  8
0
  6
CONTINUOUS
 62
     7
100
AcDbVertex
100
AcDb2dVertex
 10
8.7683308509
 20
6.6314782753
 30
0.0
  0
VERTEX
  5
397
330
1E1
100
AcDbEntity
  8
0
  6
CONTINUOUS
 62
     7
100
AcDbVertex
100
AcDb2dVertex
 10
8.7589569187
 20
6.6297263986
 30
0.0
  0
VERTEX
  5
398
330
1E1
100
AcDbEntity
  8
0
  6
CONTINUOUS
 62
     7
100
AcDbVertex
100
AcDb2dVertex
 10
8.7492739598
 20
6.6264901702
 30
0.0
  0
VERTEX
  5
399
330
1E1
100
AcDbEntity
  8
0
  6
CONTINUOUS
 62
     7
100
AcDbVertex
100
AcDb2dVertex
 10
8.7469330637
 20
6.6255033373
 30
0.0
  0
SEQEND
  5
39A
330
1E1
100
AcDbEntity
  8
0
  6
CONTINUOUS
 62
     7
  0
POLYLINE
  5
1E2
330
1F
100
AcDbEntity
  8
0
  6
CONTINUOUS
 62
     7
100
AcDb2dPolyline
 66
     1
 10
0.0
 20
0.0
 30
0.0
  0
VERTEX
  5
39B
330
1E2
100
AcDbEntity
  8
0
  6
CONTINUOUS
 62
     7
100
AcDbVertex
100
AcDb2dVertex
 10
8.654027748
 20
6.4645691727
 30
0.0
  0
VERTEX
  5
39C
330
1E2
100
AcDbEntity
  8
0
  6
CONTINUOUS
 62
     7
100
AcDbVertex
100
AcDb2dVertex
 10
8.654743487
 20
6.4594744245
 30
0.0
  0
VERTEX
  5
39D
330
1E2
100
AcDbEntity
  8
0
  6
CONTINUOUS
 62
     7
100
AcDbVertex
100
AcDb2dVertex
 10
8.6570677187
 20
6.4497093075
 30
0.0
  0
VERTEX
  5
39E
330
1E2
100
AcDbEntity
  8
0
  6
CONTINUOUS
 62
     7
100
AcDbVertex
100
AcDb2dVertex
 10
8.6605132245
 20
6.4409868841
 30
0.0
  0
VERTEX
  5
39F
330
1E2
100
AcDbEntity
  8
0
  6
CONTINUOUS
 62
     7
100
AcDbVertex
100
AcDb2dVertex
 10
8.6650316373
 20
6.433429598
 30
0.0
  0
VERTEX
  5
3A0
330
1E2
100
AcDbEntity
  8
0
  6
CONTINUOUS
 62
     7
100
AcDbVertex
100
AcDb2dVertex
 10
8.6705595284
 20
6.427143537
 30
0.0
  0
VERTEX
  5
3A1
330
1E2
100
AcDbEntity
  8
0
  6
CONTINUOUS
 62
     7
100
AcDbVertex
100
AcDb2dVertex
 10
8.6770192983
 20
6.4222169435
 30
0.0
  0
VERTEX
  5
3A2
330
1E2
100
AcDbEntity
  8
0
  6
CONTINUOUS
 62
     7
100
AcDbVertex
100
AcDb2dVertex
 10
8.684320266
 20
6.4187189762
 30
0.0
  0
VERTEX
  5
3A3
330
1E2
100
AcDbEntity
  8
0
  6
CONTINUOUS
 62
     7
100
AcDbVertex
100
AcDb2dVertex
 10
8.692359942
 20
6.4166987388
 30
0.0
  0
VERTEX
  5
3A4
330
1E2
100
AcDbEntity
  8
0
  6
CONTINUOUS
 62
     7
100
AcDbVertex
100
AcDb2dVertex
 10
8.7010254668
 20
6.416184591
 30
0.0
  0
VERTEX
  5
3A5
330
1E2
100
AcDbEntity
  8
0
  6
CONTINUOUS
 62
     7
100
AcDbVertex
100
AcDb2dVertex
 10
8.7101951953
 20
6.4171837504
 30
0.0
  0
VERTEX
  5
3A6
330
1E2
100
AcDbEntity
  8
0
  6
CONTINUOUS
 62
     7
100
AcDbVertex
100
AcDb2dVertex
 10
8.7197404049
 20
6.4196821909
 30
0.0
  0
VERTEX
  5
3A7
330
1E2
100
AcDbEntity
  8
0
  6
CONTINUOUS
 62
     7
100
AcDbVertex
100
AcDb2dVertex
 10
8.7295271015
 20
6.42364484
 30
0.0
  0
VERTEX
  5
3A8
330
1E2
100
AcDbEntity
  8
0
  6
CONTINUOUS
 62
     7
100
AcDbVertex
100
AcDb2dVertex
 10
8.7394179016
 20
6.4290160706
 30
0.0
  0
VERTEX
  5
3A9
330
1E2
100
AcDbEntity
  8
0
  6
CONTINUOUS
 62
     7
100
AcDbVertex
100
AcDb2dVertex
 10
8.7492739598
 20
6.4357204825
 30
0.0
  0
VERTEX
  5
3AA
330
1E2
100
AcDbEntity
  8
0
  6
CONTINUOUS
 62
     7
100
AcDbVertex
100
AcDb2dVertex
 10
8.7589569187
 20
6.4436639605
 30
0.0
  0
VERTEX
  5
3AB
330
1E2
100
AcDbEntity
  8
0
  6
CONTINUOUS
 62
     7
100
AcDbVertex
100
AcDb2dVertex
 10
8.7683308509
 20
6.4527349956
 30
0.0
  0
VERTEX
  5
3AC
330
1E2
100
AcDbEntity
  8
0
  6
CONTINUOUS
 62
     7
100
AcDbVertex
100
AcDb2dVertex
 10
8.7772641669
 20
6.4628062502
 30
0.0
  0
VERTEX
  5
3AD
330
1E2
100
AcDbEntity
  8
0
  6
CONTINUOUS
 62
     7
100
AcDbVertex
100
AcDb2dVertex
 10
8.7856314625
 20
6.473736346
 30
0.0
  0
VERTEX
  5
3AE
330
1E2
100
AcDbEntity
  8
0
  6
CONTINUOUS
 62
     7
100
AcDbVertex
100
AcDb2dVertex
 10
8.7933152792
 20
6.4853718485
 30
0.0
  0
VERTEX
  5
3AF
330
1E2
100
AcDbEntity
  8
0
  6
CONTINUOUS
 62
     7
100
AcDbVertex
100
AcDb2dVertex
 10
8.800207753
 20
6.4975494208
 30
0.0
  0
VERTEX
  5
3B0
330
1E2
100
AcDbEntity
  8
0
  6
CONTINUOUS
 62
     7
100
AcDbVertex
100
AcDb2dVertex
 10
8.8062121288
 20
6.5100981163
 30
0.0
  0
VERTEX
  5
3B1
330
1E2
100
AcDbEntity
  8
0
  6
CONTINUOUS
 62
     7
100
AcDbVertex
100
AcDb2dVertex
 10
8.8112441183
 20
6.5228417789
 30
0.0
  0
VERTEX
  5
3B2
330
1E2
100
AcDbEntity
  8
0
  6
CONTINUOUS
 62
     7
100
AcDbVertex
100
AcDb2dVertex
 10
8.8152330833
 20
6.5356015156
 30
0.0
  0
VERTEX
  5
3B3
330
1E2
100
AcDbEntity
  8
0
  6
CONTINUOUS
 62
     7
100
AcDbVertex
100
AcDb2dVertex
 10
8.8181230276
 20
6.5481982075
 30
0.0
  0
VERTEX
  5
3B4
330
1E2
100
AcDbEntity
  8
0
  6
CONTINUOUS
 62
     7
100
AcDbVertex
100
AcDb2dVertex
 10
8.8198733826
 20
6.5604550248
 30
0.0
  0
VERTEX
  5
3B5
330
1E2
100
AcDbEntity
  8
0
  6
CONTINUOUS
 62
     7
100
AcDbVertex
100
AcDb2dVertex
 10
8.8204595772
 20
6.5721999086
 30
0.0
  0
SEQEND
  5
3B6
330
1E2
100
AcDbEntity
  8
0
  6
CONTINUOUS
 62
     7
  0
SPLINE
  5
1E3
330
1F
100
AcDbEntity
  8
0
  6
CONTINUOUS
 62
     7
100
AcDbSpline
210
0.0
220
0.0
230
1.0
 70
     8
 71
     3
 72
    20
 73
    16
 74
     0
 42
0.00000001
 43
0.00000001
 40
0.0
 40
0.0
 40
0.0
 40
0.0
 40
0.0371401814512801
 40
0.1188035805479439
 40
0.2035170572264686
 40
0.2756920843751924
 40
0.3499255598043917
 40
0.4233384028508047
 40
0.4983333815368294
 40
0.6045379158349394
 40
0.7137967845121687
 40
0.8219691214787138
 40
0.9331176754382112
 40
0.9915120742492922
 40
1.0
 40
1.0
 40
1.0
 40
1.0
 10
8.759606770041735
 20
6.629199896904518
 30
0.0
 10
8.760547793972536
 20
6.627515783154547
 30
0.0
 10
8.763557930379841
 20
6.622128659674577
 30
0.0
 10
8.76612029225695
 20
6.612245624032015
 30
0.0
 10
8.766887482128132
 20
6.600610394583118
 30
0.0
 10
8.764962322031028
 20
6.589556030651442
 30
0.0
 10
8.761038293666271
 20
6.579564134412944
 30
0.0
 10
8.755143072986662
 20
6.570213436372164
 30
0.0
 10
8.746558113706701
 20
6.560590027501362
 30
0.0
 10
8.734667511500824
 20
6.551236760422094
 30
0.0
 10
8.719463358431927
 20
6.543190859538946
 30
0.0
 10
8.702657686448328
 20
6.537543238471611
 30
0.0
 10
8.687938278454398
 20
6.535699422249107
 30
0.0
 10
8.678470844061664
 20
6.535725287410545
 30
0.0
 10
8.675164918217723
 20
6.53648392267183
 30
0.0
 10
8.674745368608995
 20
6.536580199824453
 30
0.0
  0
ARC
  5
1E4
330
1F
100
AcDbEntity
  8
0
  6
CONTINUOUS
 62
     7
100
AcDbCircle
 10
8.0668561894
 20
6.9108197292
 30
0.0
 40
0.8890785665930613
100
AcDbArc
 50
122.5226785306
 51
177.4826980021
  0
SPLINE
  5
1E5
330
1F
100
AcDbEntity
  8
0
  6
CONTINUOUS
 62
     7
100
AcDbSpline
210
0.0
220
0.0
230
1.0
 70
     8
 71
     3
 72
    11
 73
     7
 74
     0
 42
0.00000001
 43
0.00000001
 40
0.0
 40
0.0
 40
0.0
 40
0.0
 40
0.360045568539936
 40
0.6816618792691312
 40
0.9639632297052533
 40
1.0
 40
1.0
 40
1.0
 40
1.0
 10
7.635269166071521
 20
7.575400340762247
 30
0.0
 10
7.635762702283679
 20
7.570213493765901
 30
0.0
 10
7.636697097402695
 20
7.560393414920472
 30
0.0
 10
7.644009400326292
 20
7.547722277206087
 30
0.0
 10
7.650472391785454
 20
7.539813581209496
 30
0.0
 10
7.654928548730096
 20
7.536719765389221
 30
0.0
 10
7.655432998225001
 20
7.536369536739904
 30
0.0
  0
SPLINE
  5
1E6
330
1F
100
AcDbEntity
  8
0
  6
CONTINUOUS
 62
     7
100
AcDbSpline
210
0.0
220
0.0
230
1.0
 70
     8
 71
     3
 72
     9
 73
     5
 74
     0
 42
0.00000001
 43
0.00000001
 40
0.0
 40
0.0
 40
0.0
 40
0.0
 40
0.3759098453309132
 40
1.0
 40
1.0
 40
1.0
 40
1.0
 10
7.824923486559585
 20
7.558013706574966
 30
0.0
 10
7.826624287012467
 20
7.560162476564768
 30
0.0
 10
7.831148777323126
 20
7.565878660954435
 30
0.0
 10
7.831739881411371
 20
7.571740860777147
 30
0.0
 10
7.83210878365323
 20
7.575399401971205
 30
0.0
  0
POLYLINE
  5
1E7
330
1F
100
AcDbEntity
  8
0
  6
CONTINUOUS
 62
     7
100
AcDb2dPolyline
 66
     1
 10
0.0
 20
0.0
 30
0.0
  0
VERTEX
  5
3B7
330
1E7
100
AcDbEntity
  8
0
  6
CONTINUOUS
 62
     7
100
AcDbVertex
100
AcDb2dVertex
 10
8.752365751
 20
6.6115096378
 30
0.0
  0
VERTEX
  5
3B8
330
1E7
100
AcDbEntity
  8
0
  6
CONTINUOUS
 62
     7
100
AcDbVertex
100
AcDb2dVertex
 10
8.7517747876
 20
6.6211747101
 30
0.0
  0
VERTEX
  5
3B9
330
1E7
100
AcDbEntity
  8
0
  6
CONTINUOUS
 62
     7
100
AcDbVertex
100
AcDb2dVertex
 10
8.7508747393
 20
6.6271199625
 30
0.0
  0
SEQEND
  5
3BA
330
1E7
100
AcDbEntity
  8
0
  6
CONTINUOUS
 62
     7
  0
POLYLINE
  5
1E8
330
1F
100
AcDbEntity
  8
0
  6
CONTINUOUS
 62
     7
100
AcDb2dPolyline
 66
     1
 10
0.0
 20
0.0
 30
0.0
  0
VERTEX
  5
3BB
330
1E8
100
AcDbEntity
  8
0
  6
CONTINUOUS
 62
     7
100
AcDbVertex
100
AcDb2dVertex
 10
8.6994953712
 20
6.5780632746
 30
0.0
  0
VERTEX
  5
3BC
330
1E8
100
AcDbEntity
  8
0
  6
CONTINUOUS
 62
     7
100
AcDbVertex
100
AcDb2dVertex
 10
8.7029759416
 20
6.5763685557
 30
0.0
  0
VERTEX
  5
3BD
330
1E8
100
AcDbEntity
  8
0
  6
CONTINUOUS
 62
     7
100
AcDbVertex
100
AcDb2dVertex
 10
8.7109371803
 20
6.5734707273
 30
0.0
  0
VERTEX
  5
3BE
330
1E8
100
AcDbEntity
  8
0
  6
CONTINUOUS
 62
     7
100
AcDbVertex
100
AcDb2dVertex
 10
8.7185994703
 20
6.572065944
 30
0.0
  0
VERTEX
  5
3BF
330
1E8
100
AcDbEntity
  8
0
  6
CONTINUOUS
 62
     7
100
AcDbVertex
100
AcDb2dVertex
 10
8.7257995031
 20
6.5721841464
 30
0.0
  0
VERTEX
  5
3C0
330
1E8
100
AcDbEntity
  8
0
  6
CONTINUOUS
 62
     7
100
AcDbVertex
100
AcDb2dVertex
 10
8.7323838225
 20
6.5738228152
 30
0.0
  0
VERTEX
  5
3C1
330
1E8
100
AcDbEntity
  8
0
  6
CONTINUOUS
 62
     7
100
AcDbVertex
100
AcDb2dVertex
 10
8.7382120953
 20
6.576947025
 30
0.0
  0
VERTEX
  5
3C2
330
1E8
100
AcDbEntity
  8
0
  6
CONTINUOUS
 62
     7
100
AcDbVertex
100
AcDb2dVertex
 10
8.7431601019
 20
6.5814901887
 30
0.0
  0
VERTEX
  5
3C3
330
1E8
100
AcDbEntity
  8
0
  6
CONTINUOUS
 62
     7
100
AcDbVertex
100
AcDb2dVertex
 10
8.7471223841
 20
6.5873554767
 30
0.0
  0
VERTEX
  5
3C4
330
1E8
100
AcDbEntity
  8
0
  6
CONTINUOUS
 62
     7
100
AcDbVertex
100
AcDb2dVertex
 10
8.7500144927
 20
6.5944178805
 30
0.0
  0
VERTEX
  5
3C5
330
1E8
100
AcDbEntity
  8
0
  6
CONTINUOUS
 62
     7
100
AcDbVertex
100
AcDb2dVertex
 10
8.7517747876
 20
6.6025268772
 30
0.0
  0
VERTEX
  5
3C6
330
1E8
100
AcDbEntity
  8
0
  6
CONTINUOUS
 62
     7
100
AcDbVertex
100
AcDb2dVertex
 10
8.752365751
 20
6.6115096378
 30
0.0
  0
SEQEND
  5
3C7
330
1E8
100
AcDbEntity
  8
0
  6
CONTINUOUS
 62
     7
  0
ARC
  5
1E9
330
1F
100
AcDbEntity
  8
0
  6
CONTINUOUS
 62
     7
100
AcDbCircle
 10
8.7429897697
 20
6.6216041499
 30
0.0
 40
0.0595703339652461
100
AcDbArc
 50
237.5671842349
 51
274.7461920132
  0
ARC
  5
1EA
330
1F
100
AcDbEntity
  8
0
  6
CONTINUOUS
 62
     7
100
AcDbCircle
 10
7.788737384
 20
7.5855122641
 30
0.0
 40
0.0423461297924372
100
AcDbArc
 50
296.5805207138
 51
69.8928603449
  0
POLYLINE
  5
1EB
330
1F
100
AcDbEntity
  8
0
  6
CONTINUOUS
 62
     7
100
AcDb2dPolyline
 66
     1
 10
0.0
 20
0.0
 30
0.0
  0
VERTEX
  5
3C8
330
1EB
100
AcDbEntity
  8
0
  6
CONTINUOUS
 62
     7
100
AcDbVertex
100
AcDb2dVertex
 10
7.6640781316
 20
7.6252774575
 30
0.0
  0
VERTEX
  5
3C9
330
1EB
100
AcDbEntity
  8
0
  6
CONTINUOUS
 62
     7
100
AcDbVertex
100
AcDb2dVertex
 10
7.6556006058
 20
7.6196960378
 30
0.0
  0
VERTEX
  5
3CA
330
1EB
100
AcDbEntity
  8
0
  6
CONTINUOUS
 62
     7
100
AcDbVertex
100
AcDb2dVertex
 10
7.6484478436
 20
7.6135162508
 30
0.0
  0
VERTEX
  5
3CB
330
1EB
100
AcDbEntity
  8
0
  6
CONTINUOUS
 62
     7
100
AcDbVertex
100
AcDb2dVertex
 10
7.6427535396
 20
7.6068503637
 30
0.0
  0
VERTEX
  5
3CC
330
1EB
100
AcDbEntity
  8
0
  6
CONTINUOUS
 62
     7
100
AcDbVertex
100
AcDb2dVertex
 10
7.6386151249
 20
7.5998124317
 30
0.0
  0
VERTEX
  5
3CD
330
1EB
100
AcDbEntity
  8
0
  6
CONTINUOUS
 62
     7
100
AcDbVertex
100
AcDb2dVertex
 10
7.6361034088
 20
7.5925228758
 30
0.0
  0
VERTEX
  5
3CE
330
1EB
100
AcDbEntity
  8
0
  6
CONTINUOUS
 62
     7
100
AcDbVertex
100
AcDb2dVertex
 10
7.6352613676
 20
7.5851064224
 30
0.0
  0
VERTEX
  5
3CF
330
1EB
100
AcDbEntity
  8
0
  6
CONTINUOUS
 62
     7
100
AcDbVertex
100
AcDb2dVertex
 10
7.6361034088
 20
7.577689969
 30
0.0
  0
VERTEX
  5
3D0
330
1EB
100
AcDbEntity
  8
0
  6
CONTINUOUS
 62
     7
100
AcDbVertex
100
AcDb2dVertex
 10
7.6386151249
 20
7.5704004131
 30
0.0
  0
VERTEX
  5
3D1
330
1EB
100
AcDbEntity
  8
0
  6
CONTINUOUS
 62
     7
100
AcDbVertex
100
AcDb2dVertex
 10
7.6427535396
 20
7.5633624812
 30
0.0
  0
VERTEX
  5
3D2
330
1EB
100
AcDbEntity
  8
0
  6
CONTINUOUS
 62
     7
100
AcDbVertex
100
AcDb2dVertex
 10
7.6484478436
 20
7.5566965941
 30
0.0
  0
VERTEX
  5
3D3
330
1EB
100
AcDbEntity
  8
0
  6
CONTINUOUS
 62
     7
100
AcDbVertex
100
AcDb2dVertex
 10
7.6556006058
 20
7.550516807
 30
0.0
  0
VERTEX
  5
3D4
330
1EB
100
AcDbEntity
  8
0
  6
CONTINUOUS
 62
     7
100
AcDbVertex
100
AcDb2dVertex
 10
7.6640894404
 20
7.5449288579
 30
0.0
  0
VERTEX
  5
3D5
330
1EB
100
AcDbEntity
  8
0
  6
CONTINUOUS
 62
     7
100
AcDbVertex
100
AcDb2dVertex
 10
7.673769101
 20
7.540028358
 30
0.0
  0
VERTEX
  5
3D6
330
1EB
100
AcDbEntity
  8
0
  6
CONTINUOUS
 62
     7
100
AcDbVertex
100
AcDb2dVertex
 10
7.6844739661
 20
7.5358991563
 30
0.0
  0
VERTEX
  5
3D7
330
1EB
100
AcDbEntity
  8
0
  6
CONTINUOUS
 62
     7
100
AcDbVertex
100
AcDb2dVertex
 10
7.6960208723
 20
7.5326119045
 30
0.0
  0
VERTEX
  5
3D8
330
1EB
100
AcDbEntity
  8
0
  6
CONTINUOUS
 62
     7
100
AcDbVertex
100
AcDb2dVertex
 10
7.708212249
 20
7.5302228486
 30
0.0
  0
VERTEX
  5
3D9
330
1EB
100
AcDbEntity
  8
0
  6
CONTINUOUS
 62
     7
100
AcDbVertex
100
AcDb2dVertex
 10
7.7208394983
 20
7.5287728657
 30
0.0
  0
VERTEX
  5
3DA
330
1EB
100
AcDbEntity
  8
0
  6
CONTINUOUS
 62
     7
100
AcDbVertex
100
AcDb2dVertex
 10
7.7336865645
 20
7.5282867657
 30
0.0
  0
VERTEX
  5
3DB
330
1EB
100
AcDbEntity
  8
0
  6
CONTINUOUS
 62
     7
100
AcDbVertex
100
AcDb2dVertex
 10
7.7465336306
 20
7.5287728657
 30
0.0
  0
VERTEX
  5
3DC
330
1EB
100
AcDbEntity
  8
0
  6
CONTINUOUS
 62
     7
100
AcDbVertex
100
AcDb2dVertex
 10
7.7497592433
 20
7.5290494718
 30
0.0
  0
SEQEND
  5
3DD
330
1EB
100
AcDbEntity
  8
0
  6
CONTINUOUS
 62
     7
  0
POLYLINE
  5
1EC
330
1F
100
AcDbEntity
  8
0
  6
CONTINUOUS
 62
     7
100
AcDb2dPolyline
 66
     1
 10
0.0
 20
0.0
 30
0.0
  0
VERTEX
  5
3DE
330
1EC
100
AcDbEntity
  8
0
  6
CONTINUOUS
 62
     7
100
AcDbVertex
100
AcDb2dVertex
 10
7.789141553
 20
7.5694237552
 30
0.0
  0
VERTEX
  5
3DF
330
1EC
100
AcDbEntity
  8
0
  6
CONTINUOUS
 62
     7
100
AcDbVertex
100
AcDb2dVertex
 10
7.7804762785
 20
7.5651037105
 30
0.0
  0
VERTEX
  5
3E0
330
1EC
100
AcDbEntity
  8
0
  6
CONTINUOUS
 62
     7
100
AcDbVertex
100
AcDb2dVertex
 10
7.7708137625
 20
7.561558052
 30
0.0
  0
VERTEX
  5
3E1
330
1EC
100
AcDbEntity
  8
0
  6
CONTINUOUS
 62
     7
100
AcDbVertex
100
AcDb2dVertex
 10
7.7603599447
 20
7.558862349
 30
0.0
  0
VERTEX
  5
3E2
330
1EC
100
AcDbEntity
  8
0
  6
CONTINUOUS
 62
     7
100
AcDbVertex
100
AcDb2dVertex
 10
7.7493376302
 20
7.5570740559
 30
0.0
  0
VERTEX
  5
3E3
330
1EC
100
AcDbEntity
  8
0
  6
CONTINUOUS
 62
     7
100
AcDbVertex
100
AcDb2dVertex
 10
7.7379817403
 20
7.556231287
 30
0.0
  0
VERTEX
  5
3E4
330
1EC
100
AcDbEntity
  8
0
  6
CONTINUOUS
 62
     7
100
AcDbVertex
100
AcDb2dVertex
 10
7.7265343062
 20
7.5563520045
 30
0.0
  0
VERTEX
  5
3E5
330
1EC
100
AcDbEntity
  8
0
  6
CONTINUOUS
 62
     7
100
AcDbVertex
100
AcDb2dVertex
 10
7.7152393101
 20
7.5574336355
 30
0.0
  0
VERTEX
  5
3E6
330
1EC
100
AcDbEntity
  8
0
  6
CONTINUOUS
 62
     7
100
AcDbVertex
100
AcDb2dVertex
 10
7.7043374852
 20
7.5594531268
 30
0.0
  0
VERTEX
  5
3E7
330
1EC
100
AcDbEntity
  8
0
  6
CONTINUOUS
 62
     7
100
AcDbVertex
100
AcDb2dVertex
 10
7.694061185
 20
7.5623674367
 30
0.0
  0
VERTEX
  5
3E8
330
1EC
100
AcDbEntity
  8
0
  6
CONTINUOUS
 62
     7
100
AcDbVertex
100
AcDb2dVertex
 10
7.6846294309
 20
7.5661144515
 30
0.0
  0
VERTEX
  5
3E9
330
1EC
100
AcDbEntity
  8
0
  6
CONTINUOUS
 62
     7
100
AcDbVertex
100
AcDb2dVertex
 10
7.6762432445
 20
7.5706143102
 30
0.0
  0
VERTEX
  5
3EA
330
1EC
100
AcDbEntity
  8
0
  6
CONTINUOUS
 62
     7
100
AcDbVertex
100
AcDb2dVertex
 10
7.6690813627
 20
7.5757711062
 30
0.0
  0
VERTEX
  5
3EB
330
1EC
100
AcDbEntity
  8
0
  6
CONTINUOUS
 62
     7
100
AcDbVertex
100
AcDb2dVertex
 10
7.6632964286
 20
7.5814749311
 30
0.0
  0
VERTEX
  5
3EC
330
1EC
100
AcDbEntity
  8
0
  6
CONTINUOUS
 62
     7
100
AcDbVertex
100
AcDb2dVertex
 10
7.6590117381
 20
7.587604218
 30
0.0
  0
VERTEX
  5
3ED
330
1EC
100
AcDbEntity
  8
0
  6
CONTINUOUS
 62
     7
100
AcDbVertex
100
AcDb2dVertex
 10
7.6563186118
 20
7.5940283318
 30
0.0
  0
VERTEX
  5
3EE
330
1EC
100
AcDbEntity
  8
0
  6
CONTINUOUS
 62
     7
100
AcDbVertex
100
AcDb2dVertex
 10
7.6552744491
 20
7.6006103535
 30
0.0
  0
VERTEX
  5
3EF
330
1EC
100
AcDbEntity
  8
0
  6
CONTINUOUS
 62
     7
100
AcDbVertex
100
AcDb2dVertex
 10
7.6559015045
 20
7.6072099988
 30
0.0
  0
VERTEX
  5
3F0
330
1EC
100
AcDbEntity
  8
0
  6
CONTINUOUS
 62
     7
100
AcDbVertex
100
AcDb2dVertex
 10
7.6581864134
 20
7.6136866078
 30
0.0
  0
VERTEX
  5
3F1
330
1EC
100
AcDbEntity
  8
0
  6
CONTINUOUS
 62
     7
100
AcDbVertex
100
AcDb2dVertex
 10
7.662080477
 20
7.6199021427
 30
0.0
  0
VERTEX
  5
3F2
330
1EC
100
AcDbEntity
  8
0
  6
CONTINUOUS
 62
     7
100
AcDbVertex
100
AcDb2dVertex
 10
7.6675007
 20
7.6257241303
 30
0.0
  0
VERTEX
  5
3F3
330
1EC
100
AcDbEntity
  8
0
  6
CONTINUOUS
 62
     7
100
AcDbVertex
100
AcDb2dVertex
 10
7.6743315598
 20
7.6310284849
 30
0.0
  0
VERTEX
  5
3F4
330
1EC
100
AcDbEntity
  8
0
  6
CONTINUOUS
 62
     7
100
AcDbVertex
100
AcDb2dVertex
 10
7.6824274685
 20
7.6357021535
 30
0.0
  0
VERTEX
  5
3F5
330
1EC
100
AcDbEntity
  8
0
  6
CONTINUOUS
 62
     7
100
AcDbVertex
100
AcDb2dVertex
 10
7.6916158758
 20
7.6396455249
 30
0.0
  0
VERTEX
  5
3F6
330
1EC
100
AcDbEntity
  8
0
  6
CONTINUOUS
 62
     7
100
AcDbVertex
100
AcDb2dVertex
 10
7.7017009468
 20
7.6427745531
 30
0.0
  0
VERTEX
  5
3F7
330
1EC
100
AcDbEntity
  8
0
  6
CONTINUOUS
 62
     7
100
AcDbVertex
100
AcDb2dVertex
 10
7.7124677357
 20
7.6450225481
 30
0.0
  0
VERTEX
  5
3F8
330
1EC
100
AcDbEntity
  8
0
  6
CONTINUOUS
 62
     7
100
AcDbVertex
100
AcDb2dVertex
 10
7.7236867671
 20
7.6463415979
 30
0.0
  0
VERTEX
  5
3F9
330
1EC
100
AcDbEntity
  8
0
  6
CONTINUOUS
 62
     7
100
AcDbVertex
100
AcDb2dVertex
 10
7.7351189268
 20
7.6467035893
 30
0.0
  0
VERTEX
  5
3FA
330
1EC
100
AcDbEntity
  8
0
  6
CONTINUOUS
 62
     7
100
AcDbVertex
100
AcDb2dVertex
 10
7.7465205582
 20
7.6461008071
 30
0.0
  0
VERTEX
  5
3FB
330
1EC
100
AcDbEntity
  8
0
  6
CONTINUOUS
 62
     7
100
AcDbVertex
100
AcDb2dVertex
 10
7.7576486553
 20
7.6445460983
 30
0.0
  0
VERTEX
  5
3FC
330
1EC
100
AcDbEntity
  8
0
  6
CONTINUOUS
 62
     7
100
AcDbVertex
100
AcDb2dVertex
 10
7.7682660421
 20
7.6420725991
 30
0.0
  0
VERTEX
  5
3FD
330
1EC
100
AcDbEntity
  8
0
  6
CONTINUOUS
 62
     7
100
AcDbVertex
100
AcDb2dVertex
 10
7.7781464273
 20
7.6387330278
 30
0.0
  0
VERTEX
  5
3FE
330
1EC
100
AcDbEntity
  8
0
  6
CONTINUOUS
 62
     7
100
AcDbVertex
100
AcDb2dVertex
 10
7.7870792277
 20
7.6345985614
 30
0.0
  0
VERTEX
  5
3FF
330
1EC
100
AcDbEntity
  8
0
  6
CONTINUOUS
 62
     7
100
AcDbVertex
100
AcDb2dVertex
 10
7.7948740562
 20
7.629757319
 30
0.0
  0
VERTEX
  5
400
330
1EC
100
AcDbEntity
  8
0
  6
CONTINUOUS
 62
     7
100
AcDbVertex
100
AcDb2dVertex
 10
7.8013647796
 20
7.6243124833
 30
0.0
  0
VERTEX
  5
401
330
1EC
100
AcDbEntity
  8
0
  6
CONTINUOUS
 62
     7
100
AcDbVertex
100
AcDb2dVertex
 10
7.8064130593
 20
7.6183801015
 30
0.0
  0
VERTEX
  5
402
330
1EC
100
AcDbEntity
  8
0
  6
CONTINUOUS
 62
     7
100
AcDbVertex
100
AcDb2dVertex
 10
7.8099113
 20
7.6120866119
 30
0.0
  0
VERTEX
  5
403
330
1EC
100
AcDbEntity
  8
0
  6
CONTINUOUS
 62
     7
100
AcDbVertex
100
AcDb2dVertex
 10
7.8117849428
 20
7.6055661494
 30
0.0
  0
VERTEX
  5
404
330
1EC
100
AcDbEntity
  8
0
  6
CONTINUOUS
 62
     7
100
AcDbVertex
100
AcDb2dVertex
 10
7.8119940543
 20
7.5989576864
 30
0.0
  0
VERTEX
  5
405
330
1EC
100
AcDbEntity
  8
0
  6
CONTINUOUS
 62
     7
100
AcDbVertex
100
AcDb2dVertex
 10
7.8105341776
 20
7.5924020707
 30
0.0
  0
VERTEX
  5
406
330
1EC
100
AcDbEntity
  8
0
  6
CONTINUOUS
 62
     7
100
AcDbVertex
100
AcDb2dVertex
 10
7.8074364274
 20
7.586039024
 30
0.0
  0
VERTEX
  5
407
330
1EC
100
AcDbEntity
  8
0
  6
CONTINUOUS
 62
     7
100
AcDbVertex
100
AcDb2dVertex
 10
7.802766827
 20
7.5800041634
 30
0.0
  0
VERTEX
  5
408
330
1EC
100
AcDbEntity
  8
0
  6
CONTINUOUS
 62
     7
100
AcDbVertex
100
AcDb2dVertex
 10
7.7966249007
 20
7.5744261117
 30
0.0
  0
VERTEX
  5
409
330
1EC
100
AcDbEntity
  8
0
  6
CONTINUOUS
 62
     7
100
AcDbVertex
100
AcDb2dVertex
 10
7.789141553
 20
7.5694237552
 30
0.0
  0
SEQEND
  5
40A
330
1EC
100
AcDbEntity
  8
0
  6
CONTINUOUS
 62
     7
  0
LINE
  5
1ED
330
1F
100
AcDbEntity
  8
0
  6
CONTINUOUS
 62
     7
100
AcDbLine
 10
7.6724024265
 20
7.6109169005
 30
0.0
 11
7.7172655292
 21
7.6368158184
 31
0.0
  0
LINE
  5
1EE
330
1F
100
AcDbEntity
  8
0
  6
CONTINUOUS
 62
     7
100
AcDbLine
 10
7.6888234618
 20
7.5755383207
 30
0.0
 11
7.6724024265
 21
7.6109169005
 31
0.0
  0
LINE
  5
1EF
330
1F
100
AcDbEntity
  8
0
  6
CONTINUOUS
 62
     7
100
AcDbLine
 10
7.7501075998
 20
7.5660586589
 30
0.0
 11
7.6888234618
 21
7.5755383207
 31
0.0
  0
LINE
  5
1F0
330
1F
100
AcDbEntity
  8
0
  6
CONTINUOUS
 62
     7
100
AcDbLine
 10
7.7949707024
 20
7.5919575768
 30
0.0
 11
7.7501075998
 21
7.5660586589
 31
0.0
  0
LINE
  5
1F1
330
1F
100
AcDbEntity
  8
0
  6
CONTINUOUS
 62
     7
100
AcDbLine
 10
7.7785496672
 20
7.6273361565
 30
0.0
 11
7.7949707024
 21
7.5919575768
 31
0.0
  0
LINE
  5
1F2
330
1F
100
AcDbEntity
  8
0
  6
CONTINUOUS
 62
     7
100
AcDbLine
 10
7.7172655292
 20
7.6368158184
 30
0.0
 11
7.7785496672
 21
7.6273361565
 31
0.0
  0
LINE
  5
1F3
330
1F
100
AcDbEntity
  8
0
  6
CONTINUOUS
 62
     7
100
AcDbLine
 10
7.7785496672
 20
7.5824779149
 30
0.0
 11
7.7785496672
 21
7.6273361565
 31
0.0
  0
LINE
  5
1F4
330
1F
100
AcDbEntity
  8
0
  6
CONTINUOUS
 62
     7
100
AcDbLine
 10
7.7172655292
 20
7.5711387944
 30
0.0
 11
7.7172655292
 21
7.6368158184
 31
0.0
  0
ARC
  5
1F5
330
1F
100
AcDbEntity
  8
0
  6
CONTINUOUS
 62
     7
100
AcDbCircle
 10
8.6686066531
 20
7.0777587432
 30
0.0
 40
0.042205385545764
100
AcDbArc
 50
298.0892413155
 51
70.0564747129
  0
POLYLINE
  5
1F6
330
1F
100
AcDbEntity
  8
0
  6
CONTINUOUS
 62
     7
100
AcDb2dPolyline
 66
     1
 10
0.0
 20
0.0
 30
0.0
  0
VERTEX
  5
40B
330
1F6
100
AcDbEntity
  8
0
  6
CONTINUOUS
 62
     7
100
AcDbVertex
100
AcDb2dVertex
 10
8.6362735276
 20
7.021998786
 30
0.0
  0
VERTEX
  5
40C
330
1F6
100
AcDbEntity
  8
0
  6
CONTINUOUS
 62
     7
100
AcDbVertex
100
AcDb2dVertex
 10
8.6262412797
 20
7.0209284497
 30
0.0
  0
VERTEX
  5
40D
330
1F6
100
AcDbEntity
  8
0
  6
CONTINUOUS
 62
     7
100
AcDbVertex
100
AcDb2dVertex
 10
8.6133942135
 20
7.0204423497
 30
0.0
  0
VERTEX
  5
40E
330
1F6
100
AcDbEntity
  8
0
  6
CONTINUOUS
 62
     7
100
AcDbVertex
100
AcDb2dVertex
 10
8.6005471474
 20
7.0209284497
 30
0.0
  0
VERTEX
  5
40F
330
1F6
100
AcDbEntity
  8
0
  6
CONTINUOUS
 62
     7
100
AcDbVertex
100
AcDb2dVertex
 10
8.5879198981
 20
7.0223784325
 30
0.0
  0
VERTEX
  5
410
330
1F6
100
AcDbEntity
  8
0
  6
CONTINUOUS
 62
     7
100
AcDbVertex
100
AcDb2dVertex
 10
8.5757285214
 20
7.0247674885
 30
0.0
  0
VERTEX
  5
411
330
1F6
100
AcDbEntity
  8
0
  6
CONTINUOUS
 62
     7
100
AcDbVertex
100
AcDb2dVertex
 10
8.5641816151
 20
7.0280547403
 30
0.0
  0
VERTEX
  5
412
330
1F6
100
AcDbEntity
  8
0
  6
CONTINUOUS
 62
     7
100
AcDbVertex
100
AcDb2dVertex
 10
8.55347675
 20
7.032183942
 30
0.0
  0
VERTEX
  5
413
330
1F6
100
AcDbEntity
  8
0
  6
CONTINUOUS
 62
     7
100
AcDbVertex
100
AcDb2dVertex
 10
8.5437970894
 20
7.0370844418
 30
0.0
  0
VERTEX
  5
414
330
1F6
100
AcDbEntity
  8
0
  6
CONTINUOUS
 62
     7
100
AcDbVertex
100
AcDb2dVertex
 10
8.5353082548
 20
7.042672391
 30
0.0
  0
VERTEX
  5
415
330
1F6
100
AcDbEntity
  8
0
  6
CONTINUOUS
 62
     7
100
AcDbVertex
100
AcDb2dVertex
 10
8.5281554927
 20
7.048852178
 30
0.0
  0
VERTEX
  5
416
330
1F6
100
AcDbEntity
  8
0
  6
CONTINUOUS
 62
     7
100
AcDbVertex
100
AcDb2dVertex
 10
8.5224611887
 20
7.0555180651
 30
0.0
  0
VERTEX
  5
417
330
1F6
100
AcDbEntity
  8
0
  6
CONTINUOUS
 62
     7
100
AcDbVertex
100
AcDb2dVertex
 10
8.5183227739
 20
7.0625559971
 30
0.0
  0
VERTEX
  5
418
330
1F6
100
AcDbEntity
  8
0
  6
CONTINUOUS
 62
     7
100
AcDbVertex
100
AcDb2dVertex
 10
8.5158110579
 20
7.069845553
 30
0.0
  0
VERTEX
  5
419
330
1F6
100
AcDbEntity
  8
0
  6
CONTINUOUS
 62
     7
100
AcDbVertex
100
AcDb2dVertex
 10
8.5149690167
 20
7.0772620064
 30
0.0
  0
VERTEX
  5
41A
330
1F6
100
AcDbEntity
  8
0
  6
CONTINUOUS
 62
     7
100
AcDbVertex
100
AcDb2dVertex
 10
8.5158110579
 20
7.0846784598
 30
0.0
  0
VERTEX
  5
41B
330
1F6
100
AcDbEntity
  8
0
  6
CONTINUOUS
 62
     7
100
AcDbVertex
100
AcDb2dVertex
 10
8.5183227739
 20
7.0919680157
 30
0.0
  0
VERTEX
  5
41C
330
1F6
100
AcDbEntity
  8
0
  6
CONTINUOUS
 62
     7
100
AcDbVertex
100
AcDb2dVertex
 10
8.5224611887
 20
7.0990059476
 30
0.0
  0
VERTEX
  5
41D
330
1F6
100
AcDbEntity
  8
0
  6
CONTINUOUS
 62
     7
100
AcDbVertex
100
AcDb2dVertex
 10
8.5281554927
 20
7.1056718347
 30
0.0
  0
VERTEX
  5
41E
330
1F6
100
AcDbEntity
  8
0
  6
CONTINUOUS
 62
     7
100
AcDbVertex
100
AcDb2dVertex
 10
8.5353082548
 20
7.1118516218
 30
0.0
  0
VERTEX
  5
41F
330
1F6
100
AcDbEntity
  8
0
  6
CONTINUOUS
 62
     7
100
AcDbVertex
100
AcDb2dVertex
 10
8.5437970894
 20
7.117439571
 30
0.0
  0
SEQEND
  5
420
330
1F6
100
AcDbEntity
  8
0
  6
CONTINUOUS
 62
     7
  0
POLYLINE
  5
1F7
330
1F
100
AcDbEntity
  8
0
  6
CONTINUOUS
 62
     7
100
AcDb2dPolyline
 66
     1
 10
0.0
 20
0.0
 30
0.0
  0
VERTEX
  5
421
330
1F7
100
AcDbEntity
  8
0
  6
CONTINUOUS
 62
     7
100
AcDbVertex
100
AcDb2dVertex
 10
8.557939225
 20
7.1256063061
 30
0.0
  0
VERTEX
  5
422
330
1F7
100
AcDbEntity
  8
0
  6
CONTINUOUS
 62
     7
100
AcDbVertex
100
AcDb2dVertex
 10
8.5504558773
 20
7.1206039496
 30
0.0
  0
VERTEX
  5
423
330
1F7
100
AcDbEntity
  8
0
  6
CONTINUOUS
 62
     7
100
AcDbVertex
100
AcDb2dVertex
 10
8.544313951
 20
7.1150258978
 30
0.0
  0
VERTEX
  5
424
330
1F7
100
AcDbEntity
  8
0
  6
CONTINUOUS
 62
     7
100
AcDbVertex
100
AcDb2dVertex
 10
8.5396443506
 20
7.1089910373
 30
0.0
  0
VERTEX
  5
425
330
1F7
100
AcDbEntity
  8
0
  6
CONTINUOUS
 62
     7
100
AcDbVertex
100
AcDb2dVertex
 10
8.5365466004
 20
7.1026279905
 30
0.0
  0
VERTEX
  5
426
330
1F7
100
AcDbEntity
  8
0
  6
CONTINUOUS
 62
     7
100
AcDbVertex
100
AcDb2dVertex
 10
8.5350867237
 20
7.0960723749
 30
0.0
  0
VERTEX
  5
427
330
1F7
100
AcDbEntity
  8
0
  6
CONTINUOUS
 62
     7
100
AcDbVertex
100
AcDb2dVertex
 10
8.5352958352
 20
7.0894639118
 30
0.0
  0
VERTEX
  5
428
330
1F7
100
AcDbEntity
  8
0
  6
CONTINUOUS
 62
     7
100
AcDbVertex
100
AcDb2dVertex
 10
8.537169478
 20
7.0829434494
 30
0.0
  0
VERTEX
  5
429
330
1F7
100
AcDbEntity
  8
0
  6
CONTINUOUS
 62
     7
100
AcDbVertex
100
AcDb2dVertex
 10
8.5406677187
 20
7.0766499598
 30
0.0
  0
VERTEX
  5
42A
330
1F7
100
AcDbEntity
  8
0
  6
CONTINUOUS
 62
     7
100
AcDbVertex
100
AcDb2dVertex
 10
8.5457159984
 20
7.070717578
 30
0.0
  0
VERTEX
  5
42B
330
1F7
100
AcDbEntity
  8
0
  6
CONTINUOUS
 62
     7
100
AcDbVertex
100
AcDb2dVertex
 10
8.5522067218
 20
7.0652727422
 30
0.0
  0
VERTEX
  5
42C
330
1F7
100
AcDbEntity
  8
0
  6
CONTINUOUS
 62
     7
100
AcDbVertex
100
AcDb2dVertex
 10
8.5600015503
 20
7.0604314999
 30
0.0
  0
VERTEX
  5
42D
330
1F7
100
AcDbEntity
  8
0
  6
CONTINUOUS
 62
     7
100
AcDbVertex
100
AcDb2dVertex
 10
8.5689343507
 20
7.0562970335
 30
0.0
  0
VERTEX
  5
42E
330
1F7
100
AcDbEntity
  8
0
  6
CONTINUOUS
 62
     7
100
AcDbVertex
100
AcDb2dVertex
 10
8.5788147359
 20
7.0529574621
 30
0.0
  0
VERTEX
  5
42F
330
1F7
100
AcDbEntity
  8
0
  6
CONTINUOUS
 62
     7
100
AcDbVertex
100
AcDb2dVertex
 10
8.5894321227
 20
7.0504839629
 30
0.0
  0
VERTEX
  5
430
330
1F7
100
AcDbEntity
  8
0
  6
CONTINUOUS
 62
     7
100
AcDbVertex
100
AcDb2dVertex
 10
8.6005602198
 20
7.0489292542
 30
0.0
  0
VERTEX
  5
431
330
1F7
100
AcDbEntity
  8
0
  6
CONTINUOUS
 62
     7
100
AcDbVertex
100
AcDb2dVertex
 10
8.6119618512
 20
7.0483264719
 30
0.0
  0
VERTEX
  5
432
330
1F7
100
AcDbEntity
  8
0
  6
CONTINUOUS
 62
     7
100
AcDbVertex
100
AcDb2dVertex
 10
8.6233940109
 20
7.0486884633
 30
0.0
  0
VERTEX
  5
433
330
1F7
100
AcDbEntity
  8
0
  6
CONTINUOUS
 62
     7
100
AcDbVertex
100
AcDb2dVertex
 10
8.6346130423
 20
7.0500075132
 30
0.0
  0
VERTEX
  5
434
330
1F7
100
AcDbEntity
  8
0
  6
CONTINUOUS
 62
     7
100
AcDbVertex
100
AcDb2dVertex
 10
8.6453798312
 20
7.0522555082
 30
0.0
  0
VERTEX
  5
435
330
1F7
100
AcDbEntity
  8
0
  6
CONTINUOUS
 62
     7
100
AcDbVertex
100
AcDb2dVertex
 10
8.6554649022
 20
7.0553845364
 30
0.0
  0
VERTEX
  5
436
330
1F7
100
AcDbEntity
  8
0
  6
CONTINUOUS
 62
     7
100
AcDbVertex
100
AcDb2dVertex
 10
8.6646533095
 20
7.0593279078
 30
0.0
  0
VERTEX
  5
437
330
1F7
100
AcDbEntity
  8
0
  6
CONTINUOUS
 62
     7
100
AcDbVertex
100
AcDb2dVertex
 10
8.6727492182
 20
7.0640015764
 30
0.0
  0
VERTEX
  5
438
330
1F7
100
AcDbEntity
  8
0
  6
CONTINUOUS
 62
     7
100
AcDbVertex
100
AcDb2dVertex
 10
8.679580078
 20
7.069305931
 30
0.0
  0
VERTEX
  5
439
330
1F7
100
AcDbEntity
  8
0
  6
CONTINUOUS
 62
     7
100
AcDbVertex
100
AcDb2dVertex
 10
8.685000301
 20
7.0751279186
 30
0.0
  0
VERTEX
  5
43A
330
1F7
100
AcDbEntity
  8
0
  6
CONTINUOUS
 62
     7
100
AcDbVertex
100
AcDb2dVertex
 10
8.6888943646
 20
7.0813434535
 30
0.0
  0
VERTEX
  5
43B
330
1F7
100
AcDbEntity
  8
0
  6
CONTINUOUS
 62
     7
100
AcDbVertex
100
AcDb2dVertex
 10
8.6911792735
 20
7.0878200625
 30
0.0
  0
VERTEX
  5
43C
330
1F7
100
AcDbEntity
  8
0
  6
CONTINUOUS
 62
     7
100
AcDbVertex
100
AcDb2dVertex
 10
8.6918063289
 20
7.0944197078
 30
0.0
  0
VERTEX
  5
43D
330
1F7
100
AcDbEntity
  8
0
  6
CONTINUOUS
 62
     7
100
AcDbVertex
100
AcDb2dVertex
 10
8.6907621662
 20
7.1010017295
 30
0.0
  0
VERTEX
  5
43E
330
1F7
100
AcDbEntity
  8
0
  6
CONTINUOUS
 62
     7
100
AcDbVertex
100
AcDb2dVertex
 10
8.6880690399
 20
7.1074258432
 30
0.0
  0
VERTEX
  5
43F
330
1F7
100
AcDbEntity
  8
0
  6
CONTINUOUS
 62
     7
100
AcDbVertex
100
AcDb2dVertex
 10
8.6837843494
 20
7.1135551301
 30
0.0
  0
VERTEX
  5
440
330
1F7
100
AcDbEntity
  8
0
  6
CONTINUOUS
 62
     7
100
AcDbVertex
100
AcDb2dVertex
 10
8.6779994153
 20
7.1192589551
 30
0.0
  0
VERTEX
  5
441
330
1F7
100
AcDbEntity
  8
0
  6
CONTINUOUS
 62
     7
100
AcDbVertex
100
AcDb2dVertex
 10
8.6708375335
 20
7.124415751
 30
0.0
  0
VERTEX
  5
442
330
1F7
100
AcDbEntity
  8
0
  6
CONTINUOUS
 62
     7
100
AcDbVertex
100
AcDb2dVertex
 10
8.6624513471
 20
7.1289156098
 30
0.0
  0
VERTEX
  5
443
330
1F7
100
AcDbEntity
  8
0
  6
CONTINUOUS
 62
     7
100
AcDbVertex
100
AcDb2dVertex
 10
8.653019593
 20
7.1326626246
 30
0.0
  0
VERTEX
  5
444
330
1F7
100
AcDbEntity
  8
0
  6
CONTINUOUS
 62
     7
100
AcDbVertex
100
AcDb2dVertex
 10
8.6427432928
 20
7.1355769344
 30
0.0
  0
VERTEX
  5
445
330
1F7
100
AcDbEntity
  8
0
  6
CONTINUOUS
 62
     7
100
AcDbVertex
100
AcDb2dVertex
 10
8.6318414679
 20
7.1375964258
 30
0.0
  0
VERTEX
  5
446
330
1F7
100
AcDbEntity
  8
0
  6
CONTINUOUS
 62
     7
100
AcDbVertex
100
AcDb2dVertex
 10
8.6205464718
 20
7.1386780568
 30
0.0
  0
VERTEX
  5
447
330
1F7
100
AcDbEntity
  8
0
  6
CONTINUOUS
 62
     7
100
AcDbVertex
100
AcDb2dVertex
 10
8.6090990377
 20
7.1387987743
 30
0.0
  0
VERTEX
  5
448
330
1F7
100
AcDbEntity
  8
0
  6
CONTINUOUS
 62
     7
100
AcDbVertex
100
AcDb2dVertex
 10
8.5977431478
 20
7.1379560054
 30
0.0
  0
VERTEX
  5
449
330
1F7
100
AcDbEntity
  8
0
  6
CONTINUOUS
 62
     7
100
AcDbVertex
100
AcDb2dVertex
 10
8.5867208333
 20
7.1361677123
 30
0.0
  0
VERTEX
  5
44A
330
1F7
100
AcDbEntity
  8
0
  6
CONTINUOUS
 62
     7
100
AcDbVertex
100
AcDb2dVertex
 10
8.5762670155
 20
7.1334720093
 30
0.0
  0
VERTEX
  5
44B
330
1F7
100
AcDbEntity
  8
0
  6
CONTINUOUS
 62
     7
100
AcDbVertex
100
AcDb2dVertex
 10
8.5666044995
 20
7.1299263507
 30
0.0
  0
VERTEX
  5
44C
330
1F7
100
AcDbEntity
  8
0
  6
CONTINUOUS
 62
     7
100
AcDbVertex
100
AcDb2dVertex
 10
8.557939225
 20
7.1256063061
 30
0.0
  0
SEQEND
  5
44D
330
1F7
100
AcDbEntity
  8
0
  6
CONTINUOUS
 62
     7
  0
LINE
  5
1F8
330
1F
100
AcDbEntity
  8
0
  6
CONTINUOUS
 62
     7
100
AcDbLine
 10
8.6582573162
 20
7.1194917405
 30
0.0
 11
8.5969731782
 21
7.1289714024
 31
0.0
  0
LINE
  5
1F9
330
1F
100
AcDbEntity
  8
0
  6
CONTINUOUS
 62
     7
100
AcDbLine
 10
8.5969731782
 20
7.1289714024
 30
0.0
 11
8.5521100756
 21
7.1030724845
 31
0.0
  0
LINE
  5
1FA
330
1F
100
AcDbEntity
  8
0
  6
CONTINUOUS
 62
     7
100
AcDbLine
 10
8.5521100756
 20
7.1030724845
 30
0.0
 11
8.5685311108
 21
7.0676939047
 31
0.0
  0
LINE
  5
1FB
330
1F
100
AcDbEntity
  8
0
  6
CONTINUOUS
 62
     7
100
AcDbLine
 10
8.5685311108
 20
7.0676939047
 30
0.0
 11
8.6298152488
 21
7.0582142428
 31
0.0
  0
LINE
  5
1FC
330
1F
100
AcDbEntity
  8
0
  6
CONTINUOUS
 62
     7
100
AcDbLine
 10
8.6298152488
 20
7.0582142428
 30
0.0
 11
8.6746783515
 21
7.0841131607
 31
0.0
  0
LINE
  5
1FD
330
1F
100
AcDbEntity
  8
0
  6
CONTINUOUS
 62
     7
100
AcDbLine
 10
8.6746783515
 20
7.0841131607
 30
0.0
 11
8.6582573162
 21
7.1194917405
 31
0.0
  0
LINE
  5
1FE
330
1F
100
AcDbEntity
  8
0
  6
CONTINUOUS
 62
     7
100
AcDbLine
 10
8.6582573162
 20
7.0746334989
 30
0.0
 11
8.6582573162
 21
7.1194917405
 31
0.0
  0
LINE
  5
1FF
330
1F
100
AcDbEntity
  8
0
  6
CONTINUOUS
 62
     7
100
AcDbLine
 10
8.5969731782
 20
7.0632943783
 30
0.0
 11
8.5969731782
 21
7.1289714024
 31
0.0
  0
ENDSEC
  0
SECTION
  2
OBJECTS
  0
DICTIONARY
  5
C
330
0
100
AcDbDictionary
  3
ACAD_GROUP
350
D
  3
ACAD_LAYOUT
350
1A
  3
ACAD_MLEADERSTYLE
350
202
  3
ACAD_MLINESTYLE
350
17
  3
ACAD_PLOTSETTINGS
350
19
  3
ACAD_SCALELIST
350
6F
  3
ACAD_VISUALSTYLE
350
2A
  3
ACDBVARIABLEDICTIONARY
350
200
1001
ACAD
1000
TREAT_AS_HARD
1070
     0
  0
DICTIONARY
  5
D
102
{ACAD_REACTORS
330
C
102
}
330
C
100
AcDbDictionary
1001
ACAD
1000
TREAT_AS_HARD
1070
     0
  0
DICTIONARY
  5
1A
102
{ACAD_REACTORS
330
C
102
}
330
C
100
AcDbDictionary
1001
ACAD
1000
TREAT_AS_HARD
1070
     0
  0
DICTIONARY
  5
202
102
{ACAD_REACTORS
330
C
102
}
330
C
100
AcDbDictionary
1001
ACAD
1000
TREAT_AS_HARD
1070
     0
  0
DICTIONARY
  5
17
102
{ACAD_REACTORS
330
C
102
}
330
C
100
AcDbDictionary
  3
STANDARD
350
18
1001
ACAD
1000
TREAT_AS_HARD
1070
     0
  0
DICTIONARY
  5
19
102
{ACAD_REACTORS
330
C
102
}
330
C
100
AcDbDictionary
1001
ACAD
1000
TREAT_AS_HARD
1070
     0
  0
DICTIONARY
  5
6F
102
{ACAD_REACTORS
330
C
102
}
330
C
100
AcDbDictionary
  3
A0
350
70
  3
A1
350
71
  3
A2
350
72
  3
A3
350
73
  3
A4
350
74
  3
A5
350
75
  3
A6
350
76
  3
A7
350
77
  3
A8
350
78
  3
A9
350
79
  3
B0
350
7A
  3
B1
350
7B
  3
B2
350
7C
  3
B3
350
7D
  3
B4
350
7E
  3
B5
350
7F
  3
B6
350
80
  3
B7
350
81
  3
B8
350
82
  3
B9
350
83
  3
C0
350
84
  3
C1
350
85
  3
C2
350
86
  3
C3
350
87
  3
C4
350
88
  3
C5
350
89
  3
C6
350
8A
  3
C7
350
8B
  3
C8
350
8C
  3
C9
350
8D
  3
D0
350
8E
  3
D1
350
8F
  3
D2
350
90
1001
ACAD
1000
TREAT_AS_HARD
1070
     0
  0
DICTIONARY
  5
2A
102
{ACAD_REACTORS
330
C
102
}
330
C
100
AcDbDictionary
  3
2DWIREFRAME
350
2F
  3
3D_HIDDEN
350
31
  3
3DWIREFRAME
350
30
  3
BASIC
350
32
  3
BRIGHTEN
350
36
  3
COLORCHANGE
350
3A
  3
CONCEPTUAL
350
34
  3
DIM
350
35
  3
FACEPATTERN
350
39
  3
FLAT
350
2B
  3
FLATWITHEDGES
350
2C
  3
GOURAUD
350
2D
  3
GOURAUDWITHEDGES
350
2E
  3
LINEPATTERN
350
38
  3
REALISTIC
350
33
  3
THICKEN
350
37
1001
ACAD
1000
TREAT_AS_HARD
1070
     0
  0
DICTIONARY
  5
200
102
{ACAD_REACTORS
330
C
102
}
330
C
100
AcDbDictionary
  3
CANNOSCALE
350
203
  3
DIMASSOC
350
204
  3
HIDETEXT
350
205
1001
ACAD
1000
TREAT_AS_HARD
1070
     0
  0
MLINESTYLE
  5
18
102
{ACAD_REACTORS
330
17
102
}
330
17
100
AcDbMlineStyle
  2
Standard
 70
     0
  3

 62
   256
 51
90.0
 52
90.0
 71
     2
 49
0.5
 62
   256
  6
BYLAYER
 49
-0.5
 62
   256
  6
BYLAYER
  0
ACAD_PROXY_OBJECT
  5
70
102
{ACAD_REACTORS
330
6F
102
}
330
6F
100
AcDbZombieObject
 90
      499
 91
      502
 93
       41
310
903313A31580
  0
ACAD_PROXY_OBJECT
  5
71
102
{ACAD_REACTORS
330
6F
102
}
330
6F
100
AcDbZombieObject
 90
      499
 91
      502
 93
      105
310
903313A324000000000000004000
  0
ACAD_PROXY_OBJECT
  5
72
102
{ACAD_REACTORS
330
6F
102
}
330
6F
100
AcDbZombieObject
 90
      499
 91
      502
 93
      105
310
903313A344000000000000104000
  0
ACAD_PROXY_OBJECT
  5
73
102
{ACAD_REACTORS
330
6F
102
}
330
6F
100
AcDbZombieObject
 90
      499
 91
      502
 93
      105
310
903313A354000000000000144000
  0
ACAD_PROXY_OBJECT
  5
74
102
{ACAD_REACTORS
330
6F
102
}
330
6F
100
AcDbZombieObject
 90
      499
 91
      502
 93
      105
310
903313A384000000000000204000
  0
ACAD_PROXY_OBJECT
  5
75
102
{ACAD_REACTORS
330
6F
102
}
330
6F
100
AcDbZombieObject
 90
      499
 91
      502
 93
      113
310
904313A31304000000000000244000
  0
ACAD_PROXY_OBJECT
  5
76
102
{ACAD_REACTORS
330
6F
102
}
330
6F
100
AcDbZombieObject
 90
      499
 91
      502
 93
      113
310
904313A31364000000000000304000
  0
ACAD_PROXY_OBJECT
  5
77
102
{ACAD_REACTORS
330
6F
102
}
330
6F
100
AcDbZombieObject
 90
      499
 91
      502
 93
      113
310
904313A32304000000000000344000
  0
ACAD_PROXY_OBJECT
  5
78
102
{ACAD_REACTORS
330
6F
102
}
330
6F
100
AcDbZombieObject
 90
      499
 91
      502
 93
      113
310
904313A333040000000000003E4000
  0
ACAD_PROXY_OBJECT
  5
79
102
{ACAD_REACTORS
330
6F
102
}
330
6F
100
AcDbZombieObject
 90
      499
 91
      502
 93
      113
310
904313A34304000000000000444000
  0
ACAD_PROXY_OBJECT
  5
7A
102
{ACAD_REACTORS
330
6F
102
}
330
6F
100
AcDbZombieObject
 90
      499
 91
      502
 93
      113
310
904313A35304000000000000494000
  0
ACAD_PROXY_OBJECT
  5
7B
102
{ACAD_REACTORS
330
6F
102
}
330
6F
100
AcDbZombieObject
 90
      499
 91
      502
 93
      121
310
905313A3130304000000000000594000
  0
ACAD_PROXY_OBJECT
  5
7C
102
{ACAD_REACTORS
330
6F
102
}
330
6F
100
AcDbZombieObject
 90
      499
 91
      502
 93
      105
310
903323A310000000000000010100
  0
ACAD_PROXY_OBJECT
  5
7D
102
{ACAD_REACTORS
330
6F
102
}
330
6F
100
AcDbZombieObject
 90
      499
 91
      502
 93
      105
310
903343A310000000000000410100
  0
ACAD_PROXY_OBJECT
  5
7E
102
{ACAD_REACTORS
330
6F
102
}
330
6F
100
AcDbZombieObject
 90
      499
 91
      502
 93
      105
310
903383A310000000000000810100
  0
ACAD_PROXY_OBJECT
  5
7F
102
{ACAD_REACTORS
330
6F
102
}
330
6F
100
AcDbZombieObject
 90
      499
 91
      502
 93
      113
310
90431303A310000000000000910100
  0
ACAD_PROXY_OBJECT
  5
80
102
{ACAD_REACTORS
330
6F
102
}
330
6F
100
AcDbZombieObject
 90
      499
 91
      502
 93
      121
310
9053130303A310000000000001650100
  0
ACAD_PROXY_OBJECT
  5
81
102
{ACAD_REACTORS
330
6F
102
}
330
6F
100
AcDbZombieObject
 90
      499
 91
      502
 93
      257
310
90E312F31323822203D2031272D3022000000000000200FC000000000000284000
  0
ACAD_PROXY_OBJECT
  5
82
102
{ACAD_REACTORS
330
6F
102
}
330
6F
100
AcDbZombieObject
 90
      499
 91
      502
 93
      249
310
90D312F363422203D2031272D3022000000000000240FC000000000000284000
  0
ACAD_PROXY_OBJECT
  5
83
102
{ACAD_REACTORS
330
6F
102
}
330
6F
100
AcDbZombieObject
 90
      499
 91
      502
 93
      249
310
90D312F333222203D2031272D3022000000000000280FC000000000000284000
  0
ACAD_PROXY_OBJECT
  5
84
102
{ACAD_REACTORS
330
6F
102
}
330
6F
100
AcDbZombieObject
 90
      499
 91
      502
 93
      249
310
90D312F313622203D2031272D30220000000000002C0FC000000000000284000
  0
ACAD_PROXY_OBJECT
  5
85
102
{ACAD_REACTORS
330
6F
102
}
330
6F
100
AcDbZombieObject
 90
      499
 91
      502
 93
      249
310
90D332F333222203D2031272D30220000000000002E0FC000000000000284000
  0
ACAD_PROXY_OBJECT
  5
86
102
{ACAD_REACTORS
330
6F
102
}
330
6F
100
AcDbZombieObject
 90
      499
 91
      502
 93
      241
310
90C312F3822203D2031272D3022000000000000300FC000000000000284000
  0
ACAD_PROXY_OBJECT
  5
87
102
{ACAD_REACTORS
330
6F
102
}
330
6F
100
AcDbZombieObject
 90
      499
 91
      502
 93
      249
310
90D332F313622203D2031272D3022000000000000320FC000000000000284000
  0
ACAD_PROXY_OBJECT
  5
88
102
{ACAD_REACTORS
330
6F
102
}
330
6F
100
AcDbZombieObject
 90
      499
 91
      502
 93
      241
310
90C312F3422203D2031272D3022000000000000340FC000000000000284000
  0
ACAD_PROXY_OBJECT
  5
89
102
{ACAD_REACTORS
330
6F
102
}
330
6F
100
AcDbZombieObject
 90
      499
 91
      502
 93
      241
310
90C332F3822203D2031272D3022000000000000360FC000000000000284000
  0
ACAD_PROXY_OBJECT
  5
8A
102
{ACAD_REACTORS
330
6F
102
}
330
6F
100
AcDbZombieObject
 90
      499
 91
      502
 93
      241
310
90C312F3222203D2031272D3022000000000000380FC000000000000284000
  0
ACAD_PROXY_OBJECT
  5
8B
102
{ACAD_REACTORS
330
6F
102
}
330
6F
100
AcDbZombieObject
 90
      499
 91
      502
 93
      241
310
90C332F3422203D2031272D30220000000000003A0FC000000000000284000
  0
ACAD_PROXY_OBJECT
  5
8C
102
{ACAD_REACTORS
330
6F
102
}
330
6F
100
AcDbZombieObject
 90
      499
 91
      502
 93
      161
310
90A3122203D2031272D30224000000000000284000
  0
ACAD_PROXY_OBJECT
  5
8D
102
{ACAD_REACTORS
330
6F
102
}
330
6F
100
AcDbZombieObject
 90
      499
 91
      502
 93
      257
310
90E312D312F3222203D2031272D30220000000000003E0FC000000000000284000
  0
ACAD_PROXY_OBJECT
  5
8E
102
{ACAD_REACTORS
330
6F
102
}
330
6F
100
AcDbZombieObject
 90
      499
 91
      502
 93
      225
310
90A3322203D2031272D302200000000000002100000000000000284000
  0
ACAD_PROXY_OBJECT
  5
8F
102
{ACAD_REACTORS
330
6F
102
}
330
6F
100
AcDbZombieObject
 90
      499
 91
      502
 93
      225
310
90A3622203D2031272D302200000000000006100000000000000284000
  0
ACAD_PROXY_OBJECT
  5
90
102
{ACAD_REACTORS
330
6F
102
}
330
6F
100
AcDbZombieObject
 90
      499
 91
      502
 93
      249
310
90D31272D3022203D2031272D30220000000000000A100000000000000284000
  0
ACAD_PROXY_OBJECT
  5
2F
102
{ACAD_REACTORS
330
2A
102
}
330
2A
100
AcDbZombieObject
 90
      499
 91
      501
 93
      436
310
42CC9915DA5C99599C985B595049028333333333333E3BF0000000000000FB0107901411070040501600405405064090741402480A0340
1001
ACAD
1000
AcDbSavedByObjectVersion
1070
     0
  0
ACAD_PROXY_OBJECT
  5
31
102
{ACAD_REACTORS
330
2A
102
}
330
2A
100
AcDbZombieObject
 90
      499
 91
      501
 93
      500
310
424CD108121A5919195B90640502408333333333333E3BF0000000000000FB01079024090700405020000000000001110200405405064090740C02480A0340
1001
ACAD
1000
AcDbSavedByObjectVersion
1070
     0
  0
ACAD_PROXY_OBJECT
  5
30
102
{ACAD_REACTORS
330
2A
102
}
330
2A
100
AcDbZombieObject
 90
      499
 91
      501
 93
      436
310
42CCD915DA5C99599C985B595059028333333333333E3BF0000000000000FB0107901411070040501600405405064090741402480A0340
1001
ACAD
1000
AcDbSavedByObjectVersion
1070
     0
  0
ACAD_PROXY_OBJECT
  5
32
102
{ACAD_REACTORS
330
2A
102
}
330
2A
100
AcDbZombieObject
 90
      499
 91
      501
 93
      388
310
4150985CDA58D07406404333333333333E3BF0000000000000FB0107A41107004050150841D405064090741402480A0350
1001
ACAD
1000
AcDbSavedByObjectVersion
1070
     0
  0
ACAD_PROXY_OBJECT
  5
36
102
{ACAD_REACTORS
330
2A
102
}
330
2A
100
AcDbZombieObject
 90
      499
 91
      501
 93
      428
310
42109C9A59DA1D195B90C409028333333333333E3BF0000000000000FB010790141107004050150841D405064090741402480A029950
1001
ACAD
1000
AcDbSavedByObjectVersion
1070
     0
  0
ACAD_PROXY_OBJECT
  5
3A
102
{ACAD_REACTORS
330
2A
102
}
330
2A
100
AcDbZombieObject
 90
      499
 91
      501
 93
      452
310
42D0DBDB1BDC90DA185B99D95104090240C333333333333E3BF0000000000000FB0108901411070040501508421405064090741402480A0350
1001
ACAD
1000
AcDbSavedByObjectVersion
1070
     0
  0
ACAD_PROXY_OBJECT
  5
34
102
{ACAD_REACTORS
330
2A
102
}
330
2A
100
AcDbZombieObject
 90
      499
 91
      501
 93
      500
310
4290DBDB98D95C1D1D585B10940D028333333333333E3BF0000000000000FB0107902409070040501000000000000111010841D405064090740C02480A0340
1001
ACAD
1000
AcDbSavedByObjectVersion
1070
     0
  0
ACAD_PROXY_OBJECT
  5
35
102
{ACAD_REACTORS
330
2A
102
}
330
2A
100
AcDbZombieObject
 90
      499
 91
      501
 93
      412
310
40D11A5B50B409028333333333333E3BF0000000000000FB010790141107004050150841D405064090741402480A02677FFFFFD0
1001
ACAD
1000
AcDbSavedByObjectVersion
1070
     0
  0
ACAD_PROXY_OBJECT
  5
39
102
{ACAD_REACTORS
330
2A
102
}
330
2A
100
AcDbZombieObject
 90
      499
 91
      501
 93
      444
310
42D19858D95C185D1D195C9B90F409028333333333333E3BF0000000000000FB010790141107004050150841D405064090741402480A0350
1001
ACAD
1000
AcDbSavedByObjectVersion
1070
     0
  0
ACAD_PROXY_OBJECT
  5
2B
102
{ACAD_REACTORS
330
2A
102
}
330
2A
100
AcDbZombieObject
 90
      499
 91
      501
 93
      388
310
41119B185D240901404333333333333E3BF0000000000000F9010740A41107004050150841D405064090741402480A1B50
1001
ACAD
1000
AcDbSavedByObjectVersion
1070
     0
  0
ACAD_PROXY_OBJECT
  5
2C
102
{ACAD_REACTORS
330
2A
102
}
330
2A
100
AcDbZombieObject
 90
      499
 91
      501
 93
      476
310
43519B185D15DA5D1A115919D95CD0140901404333333333333E3BF0000000000000F9010740901411070040501600405405064090741402480A1B50
1001
ACAD
1000
AcDbSavedByObjectVersion
1070
     0
  0
ACAD_PROXY_OBJECT
  5
2D
102
{ACAD_REACTORS
330
2A
102
}
330
2A
100
AcDbZombieObject
 90
      499
 91
      501
 93
      412
310
41D1DBDD5C985D5910240902404333333333333E3BF0000000000000F9010740A411070040501641D405064090741402480A1B50
1001
ACAD
1000
AcDbSavedByObjectVersion
1070
     0
  0
ACAD_PROXY_OBJECT
  5
2E
102
{ACAD_REACTORS
330
2A
102
}
330
2A
100
AcDbZombieObject
 90
      499
 91
      501
 93
      500
310
4411DBDD5C985D5915DA5D1A115919D95CD0340902404333333333333E3BF0000000000000F9010740901411070040501600405405064090741402480A1B50
1001
ACAD
1000
AcDbSavedByObjectVersion
1070
     0
  0
ACAD_PROXY_OBJECT
  5
38
102
{ACAD_REACTORS
330
2A
102
}
330
2A
100
AcDbZombieObject
 90
      499
 91
      501
 93
      444
310
42D31A5B995C185D1D195C9B90E409028333333333333E3BF0000000000000FB010790141107004050750841D405064090741402483A0350
1001
ACAD
1000
AcDbSavedByObjectVersion
1070
     0
  0
ACAD_PROXY_OBJECT
  5
33
102
{ACAD_REACTORS
330
2A
102
}
330
2A
100
AcDbZombieObject
 90
      499
 91
      501
 93
      420
310
425499585B1A5CDD1A58D08409028333333333333E3BF0000000000000FB01079019070040501508421405064090741402480A1B40
1001
ACAD
1000
AcDbSavedByObjectVersion
1070
     0
  0
ACAD_PROXY_OBJECT
  5
37
102
{ACAD_REACTORS
330
2A
102
}
330
2A
100
AcDbZombieObject
 90
      499
 91
      501
 93
      412
310
41D51A1A58DAD95B90D409028333333333333E3BF0000000000000FB010790141107004050150C41D405064090741402480A0350
1001
ACAD
1000
AcDbSavedByObjectVersion
1070
     0
  0
DICTIONARYVAR
  5
203
102
{ACAD_REACTORS
330
200
102
}
330
200
100
DictionaryVariables
280
     0
  1
1:1
  0
DICTIONARYVAR
  5
204
102
{ACAD_REACTORS
330
200
102
}
330
200
100
DictionaryVariables
280
     0
  1
2
  0
DICTIONARYVAR
  5
205
102
{ACAD_REACTORS
330
200
102
}
330
200
100
DictionaryVariables
280
     0
  1
1
  0
ENDSEC
  0
EOF
