  0
SECTION
  2
HEADER
  9
$ACADVER
  1
AC1012
  9
$DWGCODEPAGE
  3
ansi_1252
  9
$INSBASE
 10
0.0
 20
0.0
 30
0.0
  9
$EXTMIN
 10
0.0
 20
0.0
 30
0.0
  9
$EXTMAX
 10
11.0
 20
8.5
 30
0.0
  9
$LIMMIN
 10
0.0
 20
0.0
  9
$LIMMAX
 10
11.0
 20
8.5
  9
$ORTHOMODE
 70
     0
  9
$REGENMODE
 70
     1
  9
$FILLMODE
 70
     1
  9
$QTEXTMODE
 70
     0
  9
$MIRRTEXT
 70
     1
  9
$DRAGMODE
 70
     2
  9
$LTSCALE
 40
1.0
  9
$OSMODE
 70
    37
  9
$ATTMODE
 70
     1
  9
$TEXTSIZE
 40
0.125
  9
$TRACEWID
 40
0.05
  9
$TEXTSTYLE
  7
STANDARD
  9
$CLAYER
  8
0
  9
$CELTYPE
  6
BYLAYER
  9
$CECOLOR
 62
   256
  9
$CELTSCALE
 40
1.0
  9
$DELOBJ
 70
     1
  9
$DISPSILH
 70
     0
  9
$DIMSCALE
 40
1.0
  9
$DIMASZ
 40
0.13
  9
$DIMEXO
 40
0.05
  9
$DIMDLI
 40
0.38
  9
$DIMRND
 40
0.0
  9
$DIMDLE
 40
0.0
  9
$DIMEXE
 40
0.125
  9
$DIMTP
 40
0.0
  9
$DIMTM
 40
0.0
  9
$DIMTXT
 40
0.125
  9
$DIMCEN
 40
0.09
  9
$DIMTSZ
 40
0.0
  9
$DIMTOL
 70
     0
  9
$DIMLIM
 70
     0
  9
$DIMTIH
 70
     1
  9
$DIMTOH
 70
     1
  9
$DIMSE1
 70
     0
  9
$DIMSE2
 70
     0
  9
$DIMTAD
 70
     0
  9
$DIMZIN
 70
     0
  9
$DIMBLK
  1

  9
$DIMASO
 70
     1
  9
$DIMSHO
 70
     1
  9
$DIMPOST
  1

  9
$DIMAPOST
  1

  9
$DIMALT
 70
     0
  9
$DIMALTD
 70
     2
  9
$DIMALTF
 40
25.4
  9
$DIMLFAC
 40
0.5
  9
$DIMTOFL
 70
     0
  9
$DIMTVP
 40
0.0
  9
$DIMTIX
 70
     0
  9
$DIMSOXD
 70
     0
  9
$DIMSAH
 70
     0
  9
$DIMBLK1
  1

  9
$DIMBLK2
  1

  9
$DIMSTYLE
  2
STANDARD
  9
$DIMCLRD
 70
     0
  9
$DIMCLRE
 70
     0
  9
$DIMCLRT
 70
     0
  9
$DIMTFAC
 40
1.0
  9
$DIMGAP
 40
0.06
  9
$DIMJUST
 70
     0
  9
$DIMSD1
 70
     0
  9
$DIMSD2
 70
     0
  9
$DIMTOLJ
 70
     1
  9
$DIMTZIN
 70
     0
  9
$DIMALTZ
 70
     0
  9
$DIMALTTZ
 70
     0
  9
$DIMFIT
 70
     3
  9
$DIMUPT
 70
     0
  9
$DIMUNIT
 70
     2
  9
$DIMDEC
 70
     3
  9
$DIMTDEC
 70
     3
  9
$DIMALTU
 70
     2
  9
$DIMALTTD
 70
     2
  9
$DIMTXSTY
  7
STANDARD
  9
$DIMAUNIT
 70
     0
  9
$LUNITS
 70
     2
  9
$LUPREC
 70
     2
  9
$SKETCHINC
 40
0.1
  9
$FILLETRAD
 40
0.5
  9
$AUNITS
 70
     0
  9
$AUPREC
 70
     2
  9
$MENU
  1
.
  9
$ELEVATION
 40
0.0
  9
$PELEVATION
 40
0.0
  9
$THICKNESS
 40
0.0
  9
$LIMCHECK
 70
     0
  9
$CHAMFERA
 40
0.5
  9
$CHAMFERB
 40
0.5
  9
$CHAMFERC
 40
1.0
  9
$CHAMFERD
 40
0.0
  9
$SKPOLY
 70
     0
  9
$TDCREATE
 40
2455783.993324097
  9
$TDUPDATE
 40
2455783.993324109
  9
$TDINDWG
 40
0.0000000116
  9
$TDUSRTIMER
 40
0.0000000116
  9
$USRTIMER
 70
     1
  9
$ANGBASE
 50
0.0
  9
$ANGDIR
 70
     0
  9
$PDMODE
 70
     0
  9
$PDSIZE
 40
-1.0
  9
$PLINEWID
 40
0.0
  9
$COORDS
 70
     1
  9
$SPLFRAME
 70
     0
  9
$SPLINETYPE
 70
     6
  9
$SPLINESEGS
 70
     8
  9
$ATTDIA
 70
     0
  9
$ATTREQ
 70
     1
  9
$HANDLING
 70
     1
  9
$HANDSEED
  5
46D
  9
$SURFTAB1
 70
     6
  9
$SURFTAB2
 70
     6
  9
$SURFTYPE
 70
     6
  9
$SURFU
 70
     6
  9
$SURFV
 70
     6
  9
$UCSNAME
  2

  9
$UCSORG
 10
0.0
 20
0.0
 30
0.0
  9
$UCSXDIR
 10
1.0
 20
0.0
 30
0.0
  9
$UCSYDIR
 10
0.0
 20
1.0
 30
0.0
  9
$PUCSNAME
  2

  9
$PUCSORG
 10
0.0
 20
0.0
 30
0.0
  9
$PUCSXDIR
 10
1.0
 20
0.0
 30
0.0
  9
$PUCSYDIR
 10
0.0
 20
1.0
 30
0.0
  9
$USERI1
 70
     0
  9
$USERI2
 70
     0
  9
$USERI3
 70
     0
  9
$USERI4
 70
     0
  9
$USERI5
 70
     0
  9
$USERR1
 40
0.0
  9
$USERR2
 40
0.0
  9
$USERR3
 40
0.0
  9
$USERR4
 40
0.0
  9
$USERR5
 40
0.0
  9
$WORLDVIEW
 70
     1
  9
$SHADEDGE
 70
     3
  9
$SHADEDIF
 70
    70
  9
$TILEMODE
 70
     1
  9
$MAXACTVP
 70
    64
  9
$PINSBASE
 10
0.0
 20
0.0
 30
0.0
  9
$PLIMCHECK
 70
     0
  9
$PEXTMIN
 10
1.0000000000E+20
 20
1.0000000000E+20
 30
1.0000000000E+20
  9
$PEXTMAX
 10
-1.0000000000E+20
 20
-1.0000000000E+20
 30
-1.0000000000E+20
  9
$PLIMMIN
 10
0.0
 20
0.0
  9
$PLIMMAX
 10
12.0
 20
9.0
  9
$UNITMODE
 70
     0
  9
$VISRETAIN
 70
     1
  9
$PLINEGEN
 70
     0
  9
$PSLTSCALE
 70
     1
  9
$TREEDEPTH
 70
  3020
  9
$PICKSTYLE
 70
     1
  9
$CMLSTYLE
  2
STANDARD
  9
$CMLJUST
 70
     0
  9
$CMLSCALE
 40
1.0
  9
$SAVEIMAGES
 70
     1
  0
ENDSEC
  0
SECTION
  2
CLASSES
  0
CLASS
  1
ACDBDICTIONARYWDFLT
  2
AcDbDictionaryWithDefault
  3
ObjectDBX Classes
 90
    32768
280
     0
281
     0
  0
CLASS
  1
VISUALSTYLE
  2
AcDbVisualStyle
  3
ObjectDBX Classes
 90
     4095
280
     0
281
     0
  0
CLASS
  1
SCALE
  2
AcDbScale
  3
ObjectDBX Classes
 90
     1153
280
     0
281
     0
  0
CLASS
  1
DICTIONARYVAR
  2
AcDbDictionaryVar
  3
ObjectDBX Classes
 90
        0
280
     0
281
     0
  0
CLASS
  1
XRECORD
  2
AcDbXrecord
  3
AutoCAD 2000
 90
    32768
280
     0
281
     0
  0
CLASS
  1
LWPOLYLINE
  2
AcDbPolyline
  3
AutoCAD 2000
 90
    32768
280
     0
281
     1
  0
CLASS
  1
HATCH
  2
AcDbHatch
  3
AutoCAD 2000
 90
    32768
280
     0
281
     1
  0
CLASS
  1
ACDBPLACEHOLDER
  2
AcDbPlaceHolder
  3
ObjectDBX Classes
 90
        0
280
     0
281
     0
  0
CLASS
  1
LAYOUT
  2
AcDbLayout
  3
ObjectDBX Classes
 90
        0
280
     0
281
     0
  0
ENDSEC
  0
SECTION
  2
TABLES
  0
TABLE
  2
VPORT
  5
8
330
0
100
AcDbSymbolTable
 70
     1
  0
VPORT
  5
29
330
8
100
AcDbSymbolTableRecord
100
AcDbViewportTableRecord
  2
*ACTIVE
 70
     0
 10
0.0
 20
0.0
 11
1.0
 21
1.0
 12
5.5
 22
4.25
 13
0.0
 23
0.0
 14
0.5
 24
0.5
 15
0.5
 25
0.5
 16
0.0
 26
0.0
 36
1.0
 17
0.0
 27
0.0
 37
0.0
 40
8.5
 41
1.2941176471
 42
50.0
 43
0.0
 44
0.0
 50
0.0
 51
0.0
 71
     0
 72
  2000
 73
     1
 74
     3
 75
     0
 76
     0
 77
     0
 78
     0
  0
ENDTAB
  0
TABLE
  2
LTYPE
  5
5
330
0
100
AcDbSymbolTable
 70
     6
  0
LTYPE
  5
14
330
5
100
AcDbSymbolTableRecord
100
AcDbLinetypeTableRecord
  2
BYBLOCK
 70
     0
  3

 72
    65
 73
     0
 40
0.0
  0
LTYPE
  5
15
330
5
100
AcDbSymbolTableRecord
100
AcDbLinetypeTableRecord
  2
BYLAYER
 70
     0
  3

 72
    65
 73
     0
 40
0.0
  0
LTYPE
  5
16
330
5
100
AcDbSymbolTableRecord
100
AcDbLinetypeTableRecord
  2
CONTINUOUS
 70
     0
  3
Solid line
 72
    65
 73
     0
 40
0.0
  0
LTYPE
  5
3B
330
5
100
AcDbSymbolTableRecord
100
AcDbLinetypeTableRecord
  2
HIDDEN
 70
     0
  3
Hidden __ __ __ __ __ __ __ __ __ __ __ __ __ __
 72
    65
 73
     2
 40
0.075
 49
0.05
 74
     0
 49
-0.025
 74
     0
  0
LTYPE
  5
3C
330
5
100
AcDbSymbolTableRecord
100
AcDbLinetypeTableRecord
  2
PHANTOM
 70
     0
  3
Phantom ______  __  __  ______  __  __  ______
 72
    65
 73
     6
 40
0.5
 49
0.25
 74
     0
 49
-0.05
 74
     0
 49
0.05
 74
     0
 49
-0.05
 74
     0
 49
0.05
 74
     0
 49
-0.05
 74
     0
  0
LTYPE
  5
3D
330
5
100
AcDbSymbolTableRecord
100
AcDbLinetypeTableRecord
  2
CENTER
 70
     0
  3
Center ____ _ ____ _ ____ _ ____ _ ____ _ ____
 72
    65
 73
     4
 40
0.4
 49
0.25
 74
     0
 49
-0.05
 74
     0
 49
0.05
 74
     0
 49
-0.05
 74
     0
  0
LTYPE
  5
3E
330
5
100
AcDbSymbolTableRecord
100
AcDbLinetypeTableRecord
  2
CENTERX2
 70
     0
  3
Center (2x) ________  __  ________  __  _____
 72
    65
 73
     4
 40
0.8
 49
0.5
 74
     0
 49
-0.1
 74
     0
 49
0.1
 74
     0
 49
-0.1
 74
     0
  0
LTYPE
  5
3F
330
5
100
AcDbSymbolTableRecord
100
AcDbLinetypeTableRecord
  2
DOT2
 70
     0
  3
Dot (.5x) ........................................
 72
    65
 73
     2
 40
0.025
 49
0.0
 74
     0
 49
-0.025
 74
     0
  0
ENDTAB
  0
TABLE
  2
LAYER
  5
2
330
0
100
AcDbSymbolTable
 70
     2
  0
LAYER
  5
10
330
2
100
AcDbSymbolTableRecord
100
AcDbLayerTableRecord
  2
0
 70
     0
 62
     7
  6
CONTINUOUS
  0
LAYER
  5
40
330
2
100
AcDbSymbolTableRecord
100
AcDbLayerTableRecord
  2
FORMAT
 70
     0
 62
     7
  6
CONTINUOUS
  0
ENDTAB
  0
TABLE
  2
STYLE
  5
3
330
0
100
AcDbSymbolTable
 70
     4
  0
STYLE
  5
11
330
3
100
AcDbSymbolTableRecord
100
AcDbTextStyleTableRecord
  2
STANDARD
 70
     0
 40
0.0
 41
1.0
 50
0.0
 71
     0
 42
0.2
  3
txt
  4

  0
STYLE
  5
6E
330
3
100
AcDbSymbolTableRecord
100
AcDbTextStyleTableRecord
  2
SLDTEXTSTYLE0
 70
     0
 40
0.0
 41
0.75
 50
0.0
 71
     0
 42
0.2
  3
TXT
  4

  0
STYLE
  5
93
330
3
100
AcDbSymbolTableRecord
100
AcDbTextStyleTableRecord
  2
SLDTEXTSTYLE1
 70
     0
 40
0.0
 41
0.6875
 50
0.0
 71
     0
 42
0.2
  3
TXT
  4

  0
STYLE
  5
99
330
3
100
AcDbSymbolTableRecord
100
AcDbTextStyleTableRecord
  2
SLDTEXTSTYLE2
 70
     0
 40
0.0
 41
0.6944444444
 50
0.0
 71
     0
 42
0.2
  3
TXT
  4

  0
ENDTAB
  0
TABLE
  2
VIEW
  5
6
330
0
100
AcDbSymbolTable
 70
     0
  0
ENDTAB
  0
TABLE
  2
UCS
  5
7
330
0
100
AcDbSymbolTable
 70
     0
  0
ENDTAB
  0
TABLE
  2
APPID
  5
9
330
0
100
AcDbSymbolTable
 70
     1
  0
APPID
  5
12
330
9
100
AcDbSymbolTableRecord
100
AcDbRegAppTableRecord
  2
ACAD
 70
     0
  0
ENDTAB
  0
TABLE
  2
DIMSTYLE
  5
A
330
0
100
AcDbSymbolTable
 70
     1
  0
DIMSTYLE
105
27
330
A
100
AcDbSymbolTableRecord
100
AcDbDimStyleTableRecord
  2
STANDARD
 70
     0
  3

  4

  5

  6

  7

 40
1.0
 41
0.18
 42
0.0625
 43
0.38
 44
0.18
 45
0.0
 46
0.0
 47
0.0
 48
0.0
140
0.18
141
0.09
142
0.0
143
25.4
144
1.0
145
0.0
146
1.0
147
0.09
 71
     0
 72
     0
 73
     1
 74
     1
 75
     0
 76
     0
 77
     0
 78
     0
170
     0
171
     2
172
     0
173
     0
174
     0
175
     0
176
     0
177
     0
178
     0
270
     2
271
     4
272
     4
273
     2
274
     2
340
11
275
     0
280
     0
281
     0
282
     0
283
     1
284
     0
285
     0
286
     0
287
     3
288
     0
  0
ENDTAB
  0
TABLE
  2
BLOCK_RECORD
  5
1
330
0
100
AcDbSymbolTable
 70
     4
  0
BLOCK_RECORD
  5
1F
330
1
100
AcDbSymbolTableRecord
100
AcDbBlockTableRecord
  2
*MODEL_SPACE
  0
BLOCK_RECORD
  5
1B
330
1
100
AcDbSymbolTableRecord
100
AcDbBlockTableRecord
  2
*PAPER_SPACE
  0
BLOCK_RECORD
  5
A8
330
1
100
AcDbSymbolTableRecord
100
AcDbBlockTableRecord
  2
SW_NOTE_0
  0
BLOCK_RECORD
  5
AE
330
1
100
AcDbSymbolTableRecord
100
AcDbBlockTableRecord
  2
SW_NOTE_1
  0
BLOCK_RECORD
  5
C2
330
1
100
AcDbSymbolTableRecord
100
AcDbBlockTableRecord
  2
SW_NOTE_2
  0
ENDTAB
  0
ENDSEC
  0
SECTION
  2
BLOCKS
  0
BLOCK
  5
20
330
1F
100
AcDbEntity
  8
0
100
AcDbBlockBegin
  2
*MODEL_SPACE
 70
     0
 10
0.0
 20
0.0
 30
0.0
  3
*MODEL_SPACE
  1

  0
ENDBLK
  5
21
330
1F
100
AcDbEntity
  8
0
100
AcDbBlockEnd
  0
BLOCK
  5
1C
330
1B
100
AcDbEntity
 67
     1
  8
0
100
AcDbBlockBegin
  2
*PAPER_SPACE
 70
     0
 10
0.0
 20
0.0
 30
0.0
  3
*PAPER_SPACE
  1

  0
ENDBLK
  5
1D
330
1B
100
AcDbEntity
 67
     1
  8
0
100
AcDbBlockEnd
  0
BLOCK
  5
A9
330
A8
100
AcDbEntity
  8
0
100
AcDbBlockBegin
  2
SW_NOTE_0
 70
     0
 10
0.0
 20
0.0
 30
0.0
  3
SW_NOTE_0
  1

  0
MTEXT
  5
AB
330
A8
100
AcDbEntity
  8
0
  6
CONTINUOUS
 62
     0
100
AcDbMText
 10
0.0
 20
0.0773440644
 30
0.0
 40
0.06
 41
0.0
 71
     1
 72
     1
  1
INTERPRET GEOMETRIC
  7
SLDTEXTSTYLE0
  0
MTEXT
  5
AC
330
A8
100
AcDbEntity
  8
0
  6
CONTINUOUS
 62
     0
100
AcDbMText
 10
0.0
 20
-0.0220260102
 30
0.0
 40
0.06
 41
0.0
 71
     1
 72
     1
  1
TOLERANCING PER:
  7
SLDTEXTSTYLE0
  0
ENDBLK
  5
AA
330
A8
100
AcDbEntity
  8
0
100
AcDbBlockEnd
  0
BLOCK
  5
AF
330
AE
100
AcDbEntity
  8
0
100
AcDbBlockBegin
  2
SW_NOTE_1
 70
     0
 10
0.0
 20
0.0
 30
0.0
  3
SW_NOTE_1
  1

  0
MTEXT
  5
B1
330
AE
100
AcDbEntity
  8
0
  6
CONTINUOUS
 62
     0
100
AcDbMText
 10
0.0
 20
0.0837894031
 30
0.0
 40
0.065
 41
0.0
 71
     1
 72
     1
  1
DIMENSIONS ARE IN INCHES
  7
SLDTEXTSTYLE0
  0
MTEXT
  5
B2
330
AE
100
AcDbEntity
  8
0
  6
CONTINUOUS
 62
     0
100
AcDbMText
 10
0.0
 20
-0.0205806729
 30
0.0
 40
0.065
 41
0.0
 71
     1
 72
     1
  1
TOLERANCES:
  7
SLDTEXTSTYLE0
  0
MTEXT
  5
B3
330
AE
100
AcDbEntity
  8
0
  6
CONTINUOUS
 62
     0
100
AcDbMText
 10
0.0
 20
-0.1249507489
 30
0.0
 40
0.065
 41
0.0
 71
     1
 72
     1
  1
FRACTIONAL
  7
SLDTEXTSTYLE0
  0
MTEXT
  5
B4
330
AE
100
AcDbEntity
  8
0
  6
CONTINUOUS
 62
     0
100
AcDbMText
 10
0.5175850875
 20
-0.1249507489
 30
0.0
 40
0.065
 41
0.0
 71
     1
 72
     1
  1
%%p
  7
SLDTEXTSTYLE0
  0
MTEXT
  5
B5
330
AE
100
AcDbEntity
  8
0
  6
CONTINUOUS
 62
     0
100
AcDbMText
 10
0.0
 20
-0.2293208248
 30
0.0
 40
0.065
 41
0.0
 71
     1
 72
     1
  1
ANGULAR: MACH
  7
SLDTEXTSTYLE0
  0
MTEXT
  5
B6
330
AE
100
AcDbEntity
  8
0
  6
CONTINUOUS
 62
     0
100
AcDbMText
 10
0.7233732769
 20
-0.2293208248
 30
0.0
 40
0.065
 41
0.0
 71
     1
 72
     1
  1
%%p
  7
SLDTEXTSTYLE0
  0
MTEXT
  5
B7
330
AE
100
AcDbEntity
  8
0
  6
CONTINUOUS
 62
     0
100
AcDbMText
 10
0.7852857683
 20
-0.2293208248
 30
0.0
 40
0.065
 41
0.0
 71
     1
 72
     1
  1
     BEND 
  7
SLDTEXTSTYLE0
  0
MTEXT
  5
B8
330
AE
100
AcDbEntity
  8
0
  6
CONTINUOUS
 62
     0
100
AcDbMText
 10
1.14784136
 20
-0.2293208248
 30
0.0
 40
0.065
 41
0.0
 71
     1
 72
     1
  1
%%p
  7
SLDTEXTSTYLE0
  0
MTEXT
  5
B9
330
AE
100
AcDbEntity
  8
0
  6
CONTINUOUS
 62
     0
100
AcDbMText
 10
0.0
 20
-0.3336909008
 30
0.0
 40
0.065
 41
0.0
 71
     1
 72
     1
  1
TWO PLACE DECIMAL    
  7
SLDTEXTSTYLE0
  0
MTEXT
  5
BA
330
AE
100
AcDbEntity
  8
0
  6
CONTINUOUS
 62
     0
100
AcDbMText
 10
0.9794349188
 20
-0.3336909008
 30
0.0
 40
0.065
 41
0.0
 71
     1
 72
     1
  1
%%p
  7
SLDTEXTSTYLE0
  0
MTEXT
  5
BB
330
AE
100
AcDbEntity
  8
0
  6
CONTINUOUS
 62
     0
100
AcDbMText
 10
0.0
 20
-0.4380609768
 30
0.0
 40
0.065
 41
0.0
 71
     1
 72
     1
  1
THREE PLACE DECIMAL  
  7
SLDTEXTSTYLE0
  0
MTEXT
  5
BC
330
AE
100
AcDbEntity
  8
0
  6
CONTINUOUS
 62
     0
100
AcDbMText
 10
0.9738038639
 20
-0.4380609768
 30
0.0
 40
0.065
 41
0.0
 71
     1
 72
     1
  1
%%p
  7
SLDTEXTSTYLE0
  0
ENDBLK
  5
B0
330
AE
100
AcDbEntity
  8
0
100
AcDbBlockEnd
  0
BLOCK
  5
C3
330
C2
100
AcDbEntity
  8
0
100
AcDbBlockBegin
  2
SW_NOTE_2
 70
     0
 10
0.0
 20
0.0
 30
0.0
  3
SW_NOTE_2
  1

  0
MTEXT
  5
C5
330
C2
100
AcDbEntity
  8
0
  6
CONTINUOUS
 62
     0
100
AcDbMText
 10
0.0
 20
0.0773440644
 30
0.0
 40
0.06
 41
0.0
 71
     1
 72
     1
  1
THE INFORMATION CONTAINED IN THIS
  7
SLDTEXTSTYLE0
  0
MTEXT
  5
C6
330
C2
100
AcDbEntity
  8
0
  6
CONTINUOUS
 62
     0
100
AcDbMText
 10
0.0
 20
-0.0220260102
 30
0.0
 40
0.06
 41
0.0
 71
     1
 72
     1
  1
DRAWING IS THE SOLE PROPERTY OF
  7
SLDTEXTSTYLE0
  0
MTEXT
  5
C7
330
C2
100
AcDbEntity
  8
0
  6
CONTINUOUS
 62
     0
100
AcDbMText
 10
0.0
 20
-0.1213960848
 30
0.0
 40
0.06
 41
0.0
 71
     1
 72
     1
  1
Candy Controls.  ANY 
  7
SLDTEXTSTYLE0
  0
MTEXT
  5
C8
330
C2
100
AcDbEntity
  8
0
  6
CONTINUOUS
 62
     0
100
AcDbMText
 10
0.0
 20
-0.2207661593
 30
0.0
 40
0.06
 41
0.0
 71
     1
 72
     1
  1
REPRODUCTION IN PART OR AS A WHOLE
  7
SLDTEXTSTYLE0
  0
MTEXT
  5
C9
330
C2
100
AcDbEntity
  8
0
  6
CONTINUOUS
 62
     0
100
AcDbMText
 10
0.0
 20
-0.3201362339
 30
0.0
 40
0.06
 41
0.0
 71
     1
 72
     1
  1
WITHOUT THE WRITTEN PERMISSION OF
  7
SLDTEXTSTYLE0
  0
MTEXT
  5
CA
330
C2
100
AcDbEntity
  8
0
  6
CONTINUOUS
 62
     0
100
AcDbMText
 10
0.0
 20
-0.4195063085
 30
0.0
 40
0.06
 41
0.0
 71
     1
 72
     1
  1
Candy Controls IS 
  7
SLDTEXTSTYLE0
  0
MTEXT
  5
CB
330
C2
100
AcDbEntity
  8
0
  6
CONTINUOUS
 62
     0
100
AcDbMText
 10
0.0
 20
-0.518876383
 30
0.0
 40
0.06
 41
0.0
 71
     1
 72
     1
  1
PROHIBITED.
  7
SLDTEXTSTYLE0
  0
ENDBLK
  5
C4
330
C2
100
AcDbEntity
  8
0
100
AcDbBlockEnd
  0
ENDSEC
  0
SECTION
  2
ENTITIES
  0
LINE
  5
41
330
1F
100
AcDbEntity
  8
0
  6
CONTINUOUS
 62
     7
100
AcDbLine
 10
0.329927
 20
8.1920731707
 30
0.0
 11
10.629927
 21
8.1920731707
 31
0.0
  0
LINE
  5
42
330
1F
100
AcDbEntity
  8
0
  6
CONTINUOUS
 62
     7
100
AcDbLine
 10
0.329927
 20
8.1920731707
 30
0.0
 11
0.329927
 21
0.3920731707
 31
0.0
  0
LINE
  5
43
330
1F
100
AcDbEntity
  8
0
  6
CONTINUOUS
 62
     7
100
AcDbLine
 10
10.629927
 20
0.3920731707
 30
0.0
 11
0.329927
 21
0.3920731707
 31
0.0
  0
LINE
  5
44
330
1F
100
AcDbEntity
  8
0
  6
CONTINUOUS
 62
     7
100
AcDbLine
 10
10.629927
 20
0.3920731707
 30
0.0
 11
10.629927
 21
8.1920731707
 31
0.0
  0
LINE
  5
45
330
1F
100
AcDbEntity
  8
0
  6
CONTINUOUS
 62
     7
100
AcDbLine
 10
4.7981841288
 20
0.3920731707
 30
0.0
 11
4.7981841288
 21
2.3564211366
 31
0.0
  0
LINE
  5
46
330
1F
100
AcDbEntity
  8
0
  6
CONTINUOUS
 62
     7
100
AcDbLine
 10
2.8210345579
 20
2.3564211366
 30
0.0
 11
10.629927
 21
2.3564211366
 31
0.0
  0
LINE
  5
47
330
1F
100
AcDbEntity
  8
0
  6
CONTINUOUS
 62
     7
100
AcDbLine
 10
6.1796352514
 20
2.3564211366
 30
0.0
 11
6.1796352514
 21
0.3920731707
 31
0.0
  0
LINE
  5
48
330
1F
100
AcDbEntity
  8
0
  6
CONTINUOUS
 62
     7
100
AcDbLine
 10
7.8712070044
 20
2.3564211366
 30
0.0
 11
7.8712070044
 21
0.3920731707
 31
0.0
  0
LINE
  5
49
330
1F
100
AcDbEntity
  8
0
  6
CONTINUOUS
 62
     7
100
AcDbLine
 10
7.8712070044
 20
0.6049590101
 30
0.0
 11
10.629927
 21
0.6049590101
 31
0.0
  0
LINE
  5
4A
330
1F
100
AcDbEntity
  8
0
  6
CONTINUOUS
 62
     7
100
AcDbLine
 10
7.8712070044
 20
1.1119362457
 30
0.0
 11
10.629927
 21
1.1119362457
 31
0.0
  0
LINE
  5
4B
330
1F
100
AcDbEntity
  8
0
  6
CONTINUOUS
 62
     7
100
AcDbLine
 10
7.8712070044
 20
1.9892703708
 30
0.0
 11
10.629927
 21
1.9892703708
 31
0.0
  0
LINE
  5
4C
330
1F
100
AcDbEntity
  8
0
  6
CONTINUOUS
 62
     7
100
AcDbLine
 10
8.266751752
 20
1.1119362457
 30
0.0
 11
8.266751752
 21
0.6049590101
 31
0.0
  0
LINE
  5
4D
330
1F
100
AcDbEntity
  8
0
  6
CONTINUOUS
 62
     7
100
AcDbLine
 10
8.6943435176
 20
0.6049590101
 30
0.0
 11
8.6943435176
 21
0.3920731707
 31
0.0
  0
LINE
  5
4E
330
1F
100
AcDbEntity
  8
0
  6
CONTINUOUS
 62
     7
100
AcDbLine
 10
10.0579917045
 20
1.1119362457
 30
0.0
 11
10.0579917045
 21
0.6049590101
 31
0.0
  0
LINE
  5
4F
330
1F
100
AcDbEntity
  8
0
  6
CONTINUOUS
 62
     7
100
AcDbLine
 10
9.6662556631
 20
0.6049590101
 30
0.0
 11
9.6662556631
 21
0.3920731707
 31
0.0
  0
LINE
  5
50
330
1F
100
AcDbEntity
  8
0
  6
CONTINUOUS
 62
     7
100
AcDbLine
 10
2.8210345579
 20
0.5883479999
 30
0.0
 11
6.1796352514
 21
0.5883479999
 31
0.0
  0
LINE
  5
51
330
1F
100
AcDbEntity
  8
0
  6
CONTINUOUS
 62
     7
100
AcDbLine
 10
6.1796352514
 20
1.7939211366
 30
0.0
 11
7.8712070044
 21
1.7939211366
 31
0.0
  0
LINE
  5
52
330
1F
100
AcDbEntity
  8
0
  6
CONTINUOUS
 62
     7
100
AcDbLine
 10
6.1796352514
 20
1.9814211366
 30
0.0
 11
7.8712070044
 21
1.9814211366
 31
0.0
  0
LINE
  5
53
330
1F
100
AcDbEntity
  8
0
  6
CONTINUOUS
 62
     7
100
AcDbLine
 10
6.1796352514
 20
2.1689211366
 30
0.0
 11
7.8712070044
 21
2.1689211366
 31
0.0
  0
LINE
  5
54
330
1F
100
AcDbEntity
  8
0
  6
CONTINUOUS
 62
     7
100
AcDbLine
 10
7.8712070044
 20
1.2314211366
 30
0.0
 11
6.1796352514
 21
1.2314211366
 31
0.0
  0
LINE
  5
55
330
1F
100
AcDbEntity
  8
0
  6
CONTINUOUS
 62
     7
100
AcDbLine
 10
7.3921580388
 20
2.3564211366
 30
0.0
 11
7.3921580388
 21
1.2314211366
 31
0.0
  0
LINE
  5
56
330
1F
100
AcDbEntity
  8
0
  6
CONTINUOUS
 62
     7
100
AcDbLine
 10
6.9236308342
 20
2.3564211366
 30
0.0
 11
6.9236308342
 21
1.2314211366
 31
0.0
  0
LINE
  5
57
330
1F
100
AcDbEntity
  8
0
  6
CONTINUOUS
 62
     7
100
AcDbLine
 10
4.7981841288
 20
0.8557965305
 30
0.0
 11
6.1796352514
 21
0.8557965305
 31
0.0
  0
LINE
  5
58
330
1F
100
AcDbEntity
  8
0
  6
CONTINUOUS
 62
     7
100
AcDbLine
 10
4.7981841288
 20
1.1257965305
 30
0.0
 11
6.1796352514
 21
1.1257965305
 31
0.0
  0
LINE
  5
59
330
1F
100
AcDbEntity
  8
0
  6
CONTINUOUS
 62
     7
100
AcDbLine
 10
2.8210345579
 20
0.3920731707
 30
0.0
 11
2.8210345579
 21
2.3564211366
 31
0.0
  0
LINE
  5
5A
330
1F
100
AcDbEntity
  8
0
  6
CONTINUOUS
 62
     7
100
AcDbLine
 10
2.8210345579
 20
1.1064211366
 30
0.0
 11
4.7981841288
 21
1.1064211366
 31
0.0
  0
LINE
  5
5B
330
1F
100
AcDbEntity
  8
0
  6
CONTINUOUS
 62
     7
100
AcDbLine
 10
2.8210345579
 20
1.3564211366
 30
0.0
 11
4.7981841288
 21
1.3564211366
 31
0.0
  0
LINE
  5
5C
330
1F
100
AcDbEntity
  8
0
  6
CONTINUOUS
 62
     7
100
AcDbLine
 10
2.8210345579
 20
1.6064211366
 30
0.0
 11
4.7981841288
 21
1.6064211366
 31
0.0
  0
LINE
  5
5D
330
1F
100
AcDbEntity
  8
0
  6
CONTINUOUS
 62
     7
100
AcDbLine
 10
2.8210345579
 20
1.8564211366
 30
0.0
 11
4.7981841288
 21
1.8564211366
 31
0.0
  0
LINE
  5
5E
330
1F
100
AcDbEntity
  8
0
  6
CONTINUOUS
 62
     7
100
AcDbLine
 10
3.8190146875
 20
2.3564211366
 30
0.0
 11
3.8190146875
 21
0.5883479999
 31
0.0
  0
LINE
  5
5F
330
1F
100
AcDbEntity
  8
0
  6
CONTINUOUS
 62
     7
100
AcDbLine
 10
6.1796352514
 20
2.2020813496
 30
0.0
 11
4.7981841288
 21
2.2020813496
 31
0.0
  0
LINE
  5
60
330
1F
100
AcDbEntity
  8
0
  6
CONTINUOUS
 62
     7
100
AcDbLine
 10
7.8712070044
 20
1.6064211366
 30
0.0
 11
6.1796352514
 21
1.6064211366
 31
0.0
  0
LINE
  5
61
330
1F
100
AcDbEntity
  8
0
  6
CONTINUOUS
 62
     7
100
AcDbLine
 10
7.8712070044
 20
1.4189211366
 30
0.0
 11
6.1796352514
 21
1.4189211366
 31
0.0
  0
LINE
  5
62
330
1F
100
AcDbEntity
  8
0
  6
CONTINUOUS
 62
     7
100
AcDbLine
 10
2.8210345579
 20
2.1064211366
 30
0.0
 11
4.7981841288
 21
2.1064211366
 31
0.0
  0
LINE
  5
63
330
1F
100
AcDbEntity
  8
0
  6
CONTINUOUS
 62
     7
100
AcDbLine
 10
4.7981841288
 20
1.3957965305
 30
0.0
 11
6.1796352514
 21
1.3957965305
 31
0.0
  0
LINE
  5
64
330
1F
100
AcDbEntity
  8
0
  6
CONTINUOUS
 62
     7
100
AcDbLine
 10
2.8210345579
 20
0.8564211366
 30
0.0
 11
4.7981841288
 21
0.8564211366
 31
0.0
  0
LINE
  5
65
330
1F
100
AcDbEntity
  8
0
  6
CONTINUOUS
 62
     7
100
AcDbLine
 10
1.1838252943
 20
0.3920731707
 30
0.0
 11
1.1838252943
 21
1.3064211366
 31
0.0
  0
LINE
  5
66
330
1F
100
AcDbEntity
  8
0
  6
CONTINUOUS
 62
     7
100
AcDbLine
 10
2.8210345579
 20
1.3064211366
 30
0.0
 11
1.1838252943
 21
1.3064211366
 31
0.0
  0
LINE
  5
67
330
1F
100
AcDbEntity
  8
0
  6
CONTINUOUS
 62
     7
100
AcDbLine
 10
8.660927
 20
0.3920731707
 30
0.0
 11
8.660927
 21
0.3072739649
 31
0.0
  0
LINE
  5
68
330
1F
100
AcDbEntity
  8
0
  6
CONTINUOUS
 62
     7
100
AcDbLine
 10
6.692177
 20
0.3920731707
 30
0.0
 11
6.692177
 21
0.3072739649
 31
0.0
  0
LINE
  5
69
330
1F
100
AcDbEntity
  8
0
  6
CONTINUOUS
 62
     7
100
AcDbLine
 10
4.723427
 20
0.3920731707
 30
0.0
 11
4.723427
 21
0.3072739649
 31
0.0
  0
LINE
  5
6A
330
1F
100
AcDbEntity
  8
0
  6
CONTINUOUS
 62
     7
100
AcDbLine
 10
2.754677
 20
0.3920731707
 30
0.0
 11
2.754677
 21
0.3072739649
 31
0.0
  0
LINE
  5
6B
330
1F
100
AcDbEntity
  8
0
  6
CONTINUOUS
 62
     7
100
AcDbLine
 10
2.754677
 20
0.3920731707
 30
0.0
 11
2.7672319738
 21
0.3575
 31
0.0
  0
LINE
  5
6C
330
1F
100
AcDbEntity
  8
0
  6
CONTINUOUS
 62
     7
100
AcDbLine
 10
2.7672319738
 20
0.3575
 30
0.0
 11
2.7414258825
 21
0.3575
 31
0.0
  0
LINE
  5
6D
330
1F
100
AcDbEntity
  8
0
  6
CONTINUOUS
 62
     7
100
AcDbLine
 10
2.7414258825
 20
0.3575
 30
0.0
 11
2.754677
 21
0.3920731707
 31
0.0
  0
MTEXT
  5
91
330
1F
100
AcDbEntity
  8
0
  6
CONTINUOUS
 62
     7
100
AcDbMText
 10
4.9775846961
 20
0.5178452352
 30
0.0
 40
0.0625
 41
0.0
 71
     1
 72
     1
  1
DO NOT SCALE DRAWING
  7
SLDTEXTSTYLE0
  0
MTEXT
  5
92
330
1F
100
AcDbEntity
  8
0
  6
CONTINUOUS
 62
     7
100
AcDbMText
 10
8.9091403317
 20
0.9417064595
 30
0.0
 40
0.125
 41
0.0
 71
     1
 72
     1
  1
CL1-19
  7
SLDTEXTSTYLE0
  0
MTEXT
  5
94
330
1F
100
AcDbEntity
  8
0
  6
CONTINUOUS
 62
     7
100
AcDbMText
 10
9.7571278483
 20
0.5524239532
 30
0.0
 40
0.1
 41
0.0
 71
     1
 72
     1
  1
SHEET 1 OF 1
  7
SLDTEXTSTYLE1
  0
MTEXT
  5
95
330
1F
100
AcDbEntity
  8
0
  6
CONTINUOUS
 62
     7
100
AcDbMText
 10
4.8448077858
 20
2.3132954224
 30
0.0
 40
0.07
 41
0.0
 71
     1
 72
     1
  1
UNLESS OTHERWISE SPECIFIED:
  7
SLDTEXTSTYLE0
  0
MTEXT
  5
96
330
1F
100
AcDbEntity
  8
0
  6
CONTINUOUS
 62
     7
100
AcDbMText
 10
7.9586139647
 20
0.5520987879
 30
0.0
 40
0.1
 41
0.0
 71
     1
 72
     1
  1
SCALE: 2:1
  7
SLDTEXTSTYLE0
  0
MTEXT
  5
97
330
1F
100
AcDbEntity
  8
0
  6
CONTINUOUS
 62
     7
100
AcDbMText
 10
8.7023691647
 20
0.5486763345
 30
0.0
 40
0.1
 41
0.0
 71
     1
 72
     1
  1
WEIGHT: 
  7
SLDTEXTSTYLE0
  0
MTEXT
  5
98
330
1F
100
AcDbEntity
  8
0
  6
CONTINUOUS
 62
     7
100
AcDbMText
 10
10.2277580983
 20
1.081966299
 30
0.0
 40
0.1
 41
0.0
 71
     1
 72
     1
  1
REV
  7
SLDTEXTSTYLE0
  0
MTEXT
  5
9A
330
1F
100
AcDbEntity
  8
0
  6
CONTINUOUS
 62
     7
100
AcDbMText
 10
8.2984570898
 20
1.0858725293
 30
0.0
 40
0.1
 41
0.0
 71
     1
 72
     1
  1
DWG.  NO.
  7
SLDTEXTSTYLE2
  0
MTEXT
  5
9B
330
1F
100
AcDbEntity
  8
0
  6
CONTINUOUS
 62
     7
100
AcDbMText
 10
7.9598482632
 20
0.9442140768
 30
0.0
 40
0.25
 41
0.0
 71
     1
 72
     1
  1
A
  7
SLDTEXTSTYLE0
  0
MTEXT
  5
9C
330
1F
100
AcDbEntity
  8
0
  6
CONTINUOUS
 62
     7
100
AcDbMText
 10
7.9519581822
 20
1.0872713483
 30
0.0
 40
0.1
 41
0.0
 71
     1
 72
     1
  1
SIZE
  7
SLDTEXTSTYLE0
  0
MTEXT
  5
9D
330
1F
100
AcDbEntity
  8
0
  6
CONTINUOUS
 62
     7
100
AcDbMText
 10
7.9170704177
 20
1.9547881128
 30
0.0
 40
0.1
 41
0.0
 71
     1
 72
     1
  1
TITLE:
  7
SLDTEXTSTYLE0
  0
MTEXT
  5
9E
330
1F
100
AcDbEntity
  8
0
  6
CONTINUOUS
 62
     7
100
AcDbMText
 10
7.0363774929
 20
2.2906161274
 30
0.0
 40
0.065
 41
0.0
 71
     1
 72
     1
  1
NAME
  7
SLDTEXTSTYLE0
  0
MTEXT
  5
9F
330
1F
100
AcDbEntity
  8
0
  6
CONTINUOUS
 62
     7
100
AcDbMText
 10
7.5281510634
 20
2.2888799118
 30
0.0
 40
0.065
 41
0.0
 71
     1
 72
     1
  1
DATE
  7
SLDTEXTSTYLE0
  0
MTEXT
  5
A0
330
1F
100
AcDbEntity
  8
0
  6
CONTINUOUS
 62
     7
100
AcDbMText
 10
6.2277147029
 20
1.1876913145
 30
0.0
 40
0.065
 41
0.0
 71
     1
 72
     1
  1
COMMENTS:
  7
SLDTEXTSTYLE0
  0
MTEXT
  5
A1
330
1F
100
AcDbEntity
  8
0
  6
CONTINUOUS
 62
     7
100
AcDbMText
 10
6.2268411461
 20
1.3536101679
 30
0.0
 40
0.065
 41
0.0
 71
     1
 72
     1
  1
Q.A.
  7
SLDTEXTSTYLE0
  0
MTEXT
  5
A2
330
1F
100
AcDbEntity
  8
0
  6
CONTINUOUS
 62
     7
100
AcDbMText
 10
6.2284654509
 20
1.5395328424
 30
0.0
 40
0.065
 41
0.0
 71
     1
 72
     1
  1
MFG APPR.
  7
SLDTEXTSTYLE0
  0
MTEXT
  5
A3
330
1F
100
AcDbEntity
  8
0
  6
CONTINUOUS
 62
     7
100
AcDbMText
 10
6.2235171344
 20
1.7267501785
 30
0.0
 40
0.065
 41
0.0
 71
     1
 72
     1
  1
ENG APPR.
  7
SLDTEXTSTYLE0
  0
MTEXT
  5
A4
330
1F
100
AcDbEntity
  8
0
  6
CONTINUOUS
 62
     7
100
AcDbMText
 10
6.2264103951
 20
1.9092699088
 30
0.0
 40
0.065
 41
0.0
 71
     1
 72
     1
  1
CHECKED
  7
SLDTEXTSTYLE0
  0
MTEXT
  5
A5
330
1F
100
AcDbEntity
  8
0
  6
CONTINUOUS
 62
     7
100
AcDbMText
 10
6.2242794356
 20
2.1016301232
 30
0.0
 40
0.065
 41
0.0
 71
     1
 72
     1
  1
DRAWN
  7
SLDTEXTSTYLE0
  0
MTEXT
  5
A6
330
1F
100
AcDbEntity
  8
0
  6
CONTINUOUS
 62
     7
100
AcDbMText
 10
4.8208600979
 20
0.834523235
 30
0.0
 40
0.06
 41
0.0
 71
     1
 72
     1
  1
FINISH
  7
SLDTEXTSTYLE0
  0
MTEXT
  5
A7
330
1F
100
AcDbEntity
  8
0
  6
CONTINUOUS
 62
     7
100
AcDbMText
 10
4.8181240648
 20
1.1028217587
 30
0.0
 40
0.06
 41
0.0
 71
     1
 72
     1
  1
MATERIAL
  7
SLDTEXTSTYLE0
  0
INSERT
  5
AD
330
1F
100
AcDbEntity
  8
0
  6
CONTINUOUS
 62
     7
100
AcDbBlockReference
  2
SW_NOTE_0
 10
4.8231926633
 20
1.2646542947
 30
0.0
  0
INSERT
  5
BD
330
1F
100
AcDbEntity
  8
0
  6
CONTINUOUS
 62
     7
100
AcDbBlockReference
  2
SW_NOTE_1
 10
4.8353339353
 20
2.0049168724
 30
0.0
  0
MTEXT
  5
BE
330
1F
100
AcDbEntity
  8
0
  6
CONTINUOUS
 62
     7
100
AcDbMText
 10
3.5531400086
 20
0.5200091997
 30
0.0
 40
0.0625
 41
0.0
 71
     1
 72
     1
  1
APPLICATION
  7
SLDTEXTSTYLE0
  0
MTEXT
  5
BF
330
1F
100
AcDbEntity
  8
0
  6
CONTINUOUS
 62
     7
100
AcDbMText
 10
4.1005607758
 20
0.7502454275
 30
0.0
 40
0.0625
 41
0.0
 71
     1
 72
     1
  1
USED ON
  7
SLDTEXTSTYLE0
  0
MTEXT
  5
C0
330
1F
100
AcDbEntity
  8
0
  6
CONTINUOUS
 62
     7
100
AcDbMText
 10
3.1040019536
 20
0.7492094783
 30
0.0
 40
0.0625
 41
0.0
 71
     1
 72
     1
  1
NEXT ASSY
  7
SLDTEXTSTYLE0
  0
MTEXT
  5
C1
330
1F
100
AcDbEntity
  8
0
  6
CONTINUOUS
 62
     7
100
AcDbMText
 10
1.3712489489
 20
1.2496672684
 30
0.0
 40
0.06
 41
0.0
 71
     1
 72
     1
  1
PROPRIETARY AND CONFIDENTIAL
  7
SLDTEXTSTYLE0
  0
INSERT
  5
CC
330
1F
100
AcDbEntity
  8
0
  6
CONTINUOUS
 62
     7
100
AcDbBlockReference
  2
SW_NOTE_2
 10
1.2226209074
 20
1.0313492921
 30
0.0
  0
MTEXT
  5
CD
330
1F
100
AcDbEntity
  8
0
  6
CONTINUOUS
 62
     7
100
AcDbMText
 10
1.7387909509
 20
0.3105864247
 30
0.0
 40
0.09375
 41
0.0
 71
     1
 72
     1
  1
5
  7
SLDTEXTSTYLE0
  0
MTEXT
  5
CE
330
1F
100
AcDbEntity
  8
0
  6
CONTINUOUS
 62
     7
100
AcDbMText
 10
3.723800327
 20
0.3137237518
 30
0.0
 40
0.09375
 41
0.0
 71
     1
 72
     1
  1
4
  7
SLDTEXTSTYLE0
  0
MTEXT
  5
CF
330
1F
100
AcDbEntity
  8
0
  6
CONTINUOUS
 62
     7
100
AcDbMText
 10
5.6324457277
 20
0.3116191842
 30
0.0
 40
0.09375
 41
0.0
 71
     1
 72
     1
  1
3
  7
SLDTEXTSTYLE0
  0
MTEXT
  5
D0
330
1F
100
AcDbEntity
  8
0
  6
CONTINUOUS
 62
     7
100
AcDbMText
 10
7.6059721724
 20
0.3124391351
 30
0.0
 40
0.09375
 41
0.0
 71
     1
 72
     1
  1
2
  7
SLDTEXTSTYLE0
  0
MTEXT
  5
D1
330
1F
100
AcDbEntity
  8
0
  6
CONTINUOUS
 62
     7
100
AcDbMText
 10
9.6619921328
 20
0.301372012
 30
0.0
 40
0.09375
 41
0.0
 71
     1
 72
     1
  1
1
  7
SLDTEXTSTYLE0
  0
LINE
  5
D2
330
1F
100
AcDbEntity
  8
0
  6
CONTINUOUS
 62
     7
100
AcDbLine
 10
2.3920691743
 20
2.9870247431
 30
0.0
 11
4.2612030325
 21
2.9870247431
 31
0.0
  0
LINE
  5
D3
330
1F
100
AcDbEntity
  8
0
  6
CONTINUOUS
 62
     7
100
AcDbLine
 10
2.4877133778
 20
4.522457814
 30
0.0
 11
2.3920691743
 21
4.522457814
 31
0.0
  0
LINE
  5
D4
330
1F
100
AcDbEntity
  8
0
  6
CONTINUOUS
 62
     7
100
AcDbLine
 10
3.8656661337
 20
4.522457814
 30
0.0
 11
2.7875909033
 21
4.522457814
 31
0.0
  0
LINE
  5
D5
330
1F
100
AcDbEntity
  8
0
  6
CONTINUOUS
 62
     7
100
AcDbLine
 10
4.2612030325
 20
4.522457814
 30
0.0
 11
4.1655436592
 21
4.522457814
 31
0.0
  0
LINE
  5
D6
330
1F
100
AcDbEntity
  8
0
  6
CONTINUOUS
 62
     7
100
AcDbLine
 10
4.2612030325
 20
2.9870247431
 30
0.0
 11
4.2912030325
 21
3.0170247431
 31
0.0
  0
LINE
  5
D7
330
1F
100
AcDbEntity
  8
0
  6
CONTINUOUS
 62
     7
100
AcDbLine
 10
4.2912030325
 20
4.492457814
 30
0.0
 11
4.2612030325
 21
4.522457814
 31
0.0
  0
LINE
  5
D8
330
1F
100
AcDbEntity
  8
0
  6
CONTINUOUS
 62
     7
100
AcDbLine
 10
2.3920691743
 20
4.522457814
 30
0.0
 11
2.3620691743
 21
4.492457814
 31
0.0
  0
LINE
  5
D9
330
1F
100
AcDbEntity
  8
0
  6
CONTINUOUS
 62
     7
100
AcDbLine
 10
2.3620691743
 20
3.0170247431
 30
0.0
 11
2.3920691743
 21
2.9870247431
 31
0.0
  0
LINE
  5
DA
330
1F
100
AcDbEntity
  8
0
  6
CONTINUOUS
 62
     7
100
AcDbLine
 10
2.7538404666
 20
4.5161983327
 30
0.0
 11
2.7475809853
 21
4.522457814
 31
0.0
  0
LINE
  5
DB
330
1F
100
AcDbEntity
  8
0
  6
CONTINUOUS
 62
     7
100
AcDbLine
 10
2.5277384656
 20
4.522457814
 30
0.0
 11
2.5214790935
 21
4.5161984419
 31
0.0
  0
LINE
  5
DC
330
1F
100
AcDbEntity
  8
0
  6
CONTINUOUS
 62
     7
100
AcDbLine
 10
4.1317932225
 20
4.5161983327
 30
0.0
 11
4.1255337412
 21
4.522457814
 31
0.0
  0
LINE
  5
DD
330
1F
100
AcDbEntity
  8
0
  6
CONTINUOUS
 62
     7
100
AcDbLine
 10
3.9056912215
 20
4.522457814
 30
0.0
 11
3.8994318494
 21
4.5161984419
 31
0.0
  0
LINE
  5
DE
330
1F
100
AcDbEntity
  8
0
  6
CONTINUOUS
 62
     7
100
AcDbLine
 10
4.2612030325
 20
2.9870247431
 30
0.0
 11
4.2612030325
 21
4.522457814
 31
0.0
  0
LINE
  5
DF
330
1F
100
AcDbEntity
  8
0
  6
CONTINUOUS
 62
     7
100
AcDbLine
 10
2.3920691743
 20
4.522457814
 30
0.0
 11
2.3920691743
 21
2.9870247431
 31
0.0
  0
POLYLINE
  5
E0
330
1F
100
AcDbEntity
  8
0
  6
CONTINUOUS
 62
     7
100
AcDb2dPolyline
 66
     1
 10
0.0
 20
0.0
 30
0.0
  0
VERTEX
  5
200
330
E0
100
AcDbEntity
  8
0
  6
CONTINUOUS
 62
     7
100
AcDbVertex
100
AcDb2dVertex
 10
2.7875909033
 20
4.522454396
 30
0.0
  0
VERTEX
  5
201
330
E0
100
AcDbEntity
  8
0
  6
CONTINUOUS
 62
     7
100
AcDbVertex
100
AcDb2dVertex
 10
2.7876059829
 20
4.5224577951
 30
0.0
  0
VERTEX
  5
202
330
E0
100
AcDbEntity
  8
0
  6
CONTINUOUS
 62
     7
100
AcDbVertex
100
AcDb2dVertex
 10
2.7848611782
 20
4.5218289921
 30
0.0
  0
VERTEX
  5
203
330
E0
100
AcDbEntity
  8
0
  6
CONTINUOUS
 62
     7
100
AcDbVertex
100
AcDb2dVertex
 10
2.7766160053
 20
4.5201372235
 30
0.0
  0
VERTEX
  5
204
330
E0
100
AcDbEntity
  8
0
  6
CONTINUOUS
 62
     7
100
AcDbVertex
100
AcDb2dVertex
 10
2.7628704644
 20
4.5176385695
 30
0.0
  0
VERTEX
  5
205
330
E0
100
AcDbEntity
  8
0
  6
CONTINUOUS
 62
     7
100
AcDbVertex
100
AcDb2dVertex
 10
2.7436245553
 20
4.514568949
 30
0.0
  0
VERTEX
  5
206
330
E0
100
AcDbEntity
  8
0
  6
CONTINUOUS
 62
     7
100
AcDbVertex
100
AcDb2dVertex
 10
2.7204407235
 20
4.5114259086
 30
0.0
  0
VERTEX
  5
207
330
E0
100
AcDbEntity
  8
0
  6
CONTINUOUS
 62
     7
100
AcDbVertex
100
AcDb2dVertex
 10
2.6950351026
 20
4.5088611157
 30
0.0
  0
VERTEX
  5
208
330
E0
100
AcDbEntity
  8
0
  6
CONTINUOUS
 62
     7
100
AcDbVertex
100
AcDb2dVertex
 10
2.6674076927
 20
4.5071942698
 30
0.0
  0
VERTEX
  5
209
330
E0
100
AcDbEntity
  8
0
  6
CONTINUOUS
 62
     7
100
AcDbVertex
100
AcDb2dVertex
 10
2.6527608168
 20
4.5067622648
 30
0.0
  0
VERTEX
  5
20A
330
E0
100
AcDbEntity
  8
0
  6
CONTINUOUS
 62
     7
100
AcDbVertex
100
AcDb2dVertex
 10
2.6375584937
 20
4.5066164153
 30
0.0
  0
VERTEX
  5
20B
330
E0
100
AcDbEntity
  8
0
  6
CONTINUOUS
 62
     7
100
AcDbVertex
100
AcDb2dVertex
 10
2.6085025027
 20
4.5072289662
 30
0.0
  0
VERTEX
  5
20C
330
E0
100
AcDbEntity
  8
0
  6
CONTINUOUS
 62
     7
100
AcDbVertex
100
AcDb2dVertex
 10
2.5801417726
 20
4.5089975717
 30
0.0
  0
VERTEX
  5
20D
330
E0
100
AcDbEntity
  8
0
  6
CONTINUOUS
 62
     7
100
AcDbVertex
100
AcDb2dVertex
 10
2.5541405902
 20
4.5115756491
 30
0.0
  0
VERTEX
  5
20E
330
E0
100
AcDbEntity
  8
0
  6
CONTINUOUS
 62
     7
100
AcDbVertex
100
AcDb2dVertex
 10
2.531559499
 20
4.514589178
 30
0.0
  0
VERTEX
  5
20F
330
E0
100
AcDbEntity
  8
0
  6
CONTINUOUS
 62
     7
100
AcDbVertex
100
AcDb2dVertex
 10
2.5123471389
 20
4.5176562925
 30
0.0
  0
VERTEX
  5
210
330
E0
100
AcDbEntity
  8
0
  6
CONTINUOUS
 62
     7
100
AcDbVertex
100
AcDb2dVertex
 10
2.498635332
 20
4.5201503348
 30
0.0
  0
VERTEX
  5
211
330
E0
100
AcDbEntity
  8
0
  6
CONTINUOUS
 62
     7
100
AcDbVertex
100
AcDb2dVertex
 10
2.4904240783
 20
4.5218359671
 30
0.0
  0
VERTEX
  5
212
330
E0
100
AcDbEntity
  8
0
  6
CONTINUOUS
 62
     7
100
AcDbVertex
100
AcDb2dVertex
 10
2.4877133778
 20
4.522457814
 30
0.0
  0
VERTEX
  5
213
330
E0
100
AcDbEntity
  8
0
  6
CONTINUOUS
 62
     7
100
AcDbVertex
100
AcDb2dVertex
 10
2.4877133778
 20
4.522457814
 30
0.0
  0
SEQEND
  5
214
330
E0
100
AcDbEntity
  8
0
  6
CONTINUOUS
 62
     7
  0
POLYLINE
  5
E1
330
1F
100
AcDbEntity
  8
0
  6
CONTINUOUS
 62
     7
100
AcDb2dPolyline
 66
     1
 10
0.0
 20
0.0
 30
0.0
  0
VERTEX
  5
215
330
E1
100
AcDbEntity
  8
0
  6
CONTINUOUS
 62
     7
100
AcDbVertex
100
AcDb2dVertex
 10
4.1655436592
 20
4.522454396
 30
0.0
  0
VERTEX
  5
216
330
E1
100
AcDbEntity
  8
0
  6
CONTINUOUS
 62
     7
100
AcDbVertex
100
AcDb2dVertex
 10
4.1655587389
 20
4.5224577951
 30
0.0
  0
VERTEX
  5
217
330
E1
100
AcDbEntity
  8
0
  6
CONTINUOUS
 62
     7
100
AcDbVertex
100
AcDb2dVertex
 10
4.1628139341
 20
4.5218289921
 30
0.0
  0
VERTEX
  5
218
330
E1
100
AcDbEntity
  8
0
  6
CONTINUOUS
 62
     7
100
AcDbVertex
100
AcDb2dVertex
 10
4.1545687612
 20
4.5201372235
 30
0.0
  0
VERTEX
  5
219
330
E1
100
AcDbEntity
  8
0
  6
CONTINUOUS
 62
     7
100
AcDbVertex
100
AcDb2dVertex
 10
4.1408232203
 20
4.5176385695
 30
0.0
  0
VERTEX
  5
21A
330
E1
100
AcDbEntity
  8
0
  6
CONTINUOUS
 62
     7
100
AcDbVertex
100
AcDb2dVertex
 10
4.1215773113
 20
4.514568949
 30
0.0
  0
VERTEX
  5
21B
330
E1
100
AcDbEntity
  8
0
  6
CONTINUOUS
 62
     7
100
AcDbVertex
100
AcDb2dVertex
 10
4.0983934794
 20
4.5114259086
 30
0.0
  0
VERTEX
  5
21C
330
E1
100
AcDbEntity
  8
0
  6
CONTINUOUS
 62
     7
100
AcDbVertex
100
AcDb2dVertex
 10
4.0729878585
 20
4.5088611157
 30
0.0
  0
VERTEX
  5
21D
330
E1
100
AcDbEntity
  8
0
  6
CONTINUOUS
 62
     7
100
AcDbVertex
100
AcDb2dVertex
 10
4.0453604486
 20
4.5071942698
 30
0.0
  0
VERTEX
  5
21E
330
E1
100
AcDbEntity
  8
0
  6
CONTINUOUS
 62
     7
100
AcDbVertex
100
AcDb2dVertex
 10
4.0307135727
 20
4.5067622648
 30
0.0
  0
VERTEX
  5
21F
330
E1
100
AcDbEntity
  8
0
  6
CONTINUOUS
 62
     7
100
AcDbVertex
100
AcDb2dVertex
 10
4.0155112496
 20
4.5066164153
 30
0.0
  0
VERTEX
  5
220
330
E1
100
AcDbEntity
  8
0
  6
CONTINUOUS
 62
     7
100
AcDbVertex
100
AcDb2dVertex
 10
3.9864552586
 20
4.5072289662
 30
0.0
  0
VERTEX
  5
221
330
E1
100
AcDbEntity
  8
0
  6
CONTINUOUS
 62
     7
100
AcDbVertex
100
AcDb2dVertex
 10
3.9580945285
 20
4.5089975717
 30
0.0
  0
VERTEX
  5
222
330
E1
100
AcDbEntity
  8
0
  6
CONTINUOUS
 62
     7
100
AcDbVertex
100
AcDb2dVertex
 10
3.9320933461
 20
4.5115756491
 30
0.0
  0
VERTEX
  5
223
330
E1
100
AcDbEntity
  8
0
  6
CONTINUOUS
 62
     7
100
AcDbVertex
100
AcDb2dVertex
 10
3.9095122549
 20
4.514589178
 30
0.0
  0
VERTEX
  5
224
330
E1
100
AcDbEntity
  8
0
  6
CONTINUOUS
 62
     7
100
AcDbVertex
100
AcDb2dVertex
 10
3.8902998948
 20
4.5176562925
 30
0.0
  0
VERTEX
  5
225
330
E1
100
AcDbEntity
  8
0
  6
CONTINUOUS
 62
     7
100
AcDbVertex
100
AcDb2dVertex
 10
3.8765880879
 20
4.5201503348
 30
0.0
  0
VERTEX
  5
226
330
E1
100
AcDbEntity
  8
0
  6
CONTINUOUS
 62
     7
100
AcDbVertex
100
AcDb2dVertex
 10
3.8683768342
 20
4.5218359671
 30
0.0
  0
VERTEX
  5
227
330
E1
100
AcDbEntity
  8
0
  6
CONTINUOUS
 62
     7
100
AcDbVertex
100
AcDb2dVertex
 10
3.8656661337
 20
4.522457814
 30
0.0
  0
VERTEX
  5
228
330
E1
100
AcDbEntity
  8
0
  6
CONTINUOUS
 62
     7
100
AcDbVertex
100
AcDb2dVertex
 10
3.8656661337
 20
4.522457814
 30
0.0
  0
SEQEND
  5
229
330
E1
100
AcDbEntity
  8
0
  6
CONTINUOUS
 62
     7
  0
LINE
  5
E2
330
1F
100
AcDbEntity
  8
0
  6
CONTINUOUS
 62
     7
100
AcDbLine
 10
4.2912030325
 20
4.492457814
 30
0.0
 11
4.2912030325
 21
3.0170247431
 31
0.0
  0
LINE
  5
E3
330
1F
100
AcDbEntity
  8
0
  6
CONTINUOUS
 62
     7
100
AcDbLine
 10
2.3620691743
 20
3.0170247431
 30
0.0
 11
2.3620691743
 21
4.492457814
 31
0.0
  0
LINE
  5
E4
330
1F
100
AcDbEntity
  8
0
  6
CONTINUOUS
 62
     7
100
AcDbLine
 10
2.7475809853
 20
4.522457814
 30
0.0
 11
2.5277384656
 21
4.522457814
 31
0.0
  0
LINE
  5
E5
330
1F
100
AcDbEntity
  8
0
  6
CONTINUOUS
 62
     7
100
AcDbLine
 10
3.9056912215
 20
4.522457814
 30
0.0
 11
4.1255337412
 21
4.522457814
 31
0.0
  0
LINE
  5
E6
330
1F
100
AcDbEntity
  8
0
  6
HIDDEN
 62
     7
100
AcDbLine
 10
3.2266361034
 20
3.9815916722
 30
0.0
 11
3.2266361034
 21
3.5278908848
 31
0.0
  0
LINE
  5
E7
330
1F
100
AcDbEntity
  8
0
  6
HIDDEN
 62
     7
100
AcDbLine
 10
3.4266361034
 20
3.9815916722
 30
0.0
 11
3.4266361034
 21
3.5278908848
 31
0.0
  0
SPLINE
  5
E8
330
1F
100
AcDbEntity
  8
0
  6
HIDDEN
 62
     7
100
AcDbSpline
210
0.0
220
0.0
230
1.0
 70
     8
 71
     3
 72
    30
 73
    26
 74
     0
 42
0.00000001
 43
0.00000001
 40
0.0
 40
0.0
 40
0.0
 40
0.0
 40
0.006367590788104
 40
0.0502665032678869
 40
0.0954564659944165
 40
0.1393782769861993
 40
0.1843068255811824
 40
0.2340218005813196
 40
0.2848317490218817
 40
0.3418051023356849
 40
0.400559670747672
 40
0.4414855494660326
 40
0.4835152658938243
 40
0.5244827407365348
 40
0.5667635564227286
 40
0.6062125833504659
 40
0.6464704439051835
 40
0.6938254621566611
 40
0.7421235951724771
 40
0.799069522089157
 40
0.8577510602635363
 40
0.9036215911698939
 40
0.9507612696253818
 40
0.9966702406082475
 40
1.0
 40
1.0
 40
1.0
 40
1.0
 10
2.507943369101509
 20
3.951456830588962
 30
0.0
 10
2.507876091551152
 20
3.951501097377427
 30
0.0
 10
2.507344994733314
 20
3.951850544560995
 30
0.0
 10
2.509253056608044
 20
3.950591024849372
 30
0.0
 10
2.513352934594565
 20
3.947917393040941
 30
0.0
 10
2.520233600479751
 20
3.943544956530372
 30
0.0
 10
2.529486826147933
 20
3.937903444117973
 30
0.0
 10
2.541426045561382
 20
3.93106340572792
 30
0.0
 10
2.556577751072103
 20
3.92319124320841
 30
0.0
 10
2.574902136935064
 20
3.915033391471684
 30
0.0
 10
2.594297835653235
 20
3.908467102107536
 30
0.0
 10
2.613228317054317
 20
3.904317614872983
 30
0.0
 10
2.630516440551526
 20
3.902452379559259
 30
0.0
 10
2.648222171091551
 20
3.902658241619359
 30
0.0
 10
2.665231958571896
 20
3.904880018167104
 30
0.0
 10
2.68136053633663
 20
3.908715722346104
 30
0.0
 10
2.697123636532646
 20
3.913911064257144
 30
0.0
 10
2.712619301143465
 20
3.920348870587969
 30
0.0
 10
2.728200557786717
 20
3.927981615077179
 30
0.0
 10
2.742639794540212
 20
3.935986316187952
 30
0.0
 10
2.753987213850212
 20
3.942850066785772
 30
0.0
 10
2.761884798490971
 20
3.947863118933128
 30
0.0
 10
2.766171445183563
 20
3.950659839578593
 30
0.0
 10
2.768003534417019
 20
3.951869779857946
 30
0.0
 10
2.767513676439851
 20
3.951547366995996
 30
0.0
 10
2.767480549891142
 20
3.951525563890048
 30
0.0
  0
SPLINE
  5
E9
330
1F
100
AcDbEntity
  8
0
  6
HIDDEN
 62
     7
100
AcDbSpline
210
0.0
220
0.0
230
1.0
 70
     8
 71
     3
 72
    52
 73
    48
 74
     0
 42
0.00000001
 43
0.00000001
 40
-0.0312500000000003
 40
-0.0312500000000003
 40
0.0
 40
0.0
 40
0.03125
 40
0.03125
 40
0.0624999999999999
 40
0.0624999999999999
 40
0.1249999999999997
 40
0.1249999999999997
 40
0.1562499999999996
 40
0.1562499999999996
 40
0.1874999999999995
 40
0.1874999999999995
 40
0.2499999999999989
 40
0.2499999999999989
 40
0.3124999999999984
 40
0.3124999999999984
 40
0.3749999999999978
 40
0.3749999999999978
 40
0.4062499999999976
 40
0.4062499999999976
 40
0.4374999999999974
 40
0.4374999999999974
 40
0.4687499999999973
 40
0.4687499999999973
 40
0.4999999999999971
 40
0.4999999999999971
 40
0.531249999999997
 40
0.531249999999997
 40
0.5624999999999968
 40
0.5624999999999968
 40
0.6249999999999966
 40
0.6249999999999966
 40
0.6562499999999964
 40
0.6562499999999964
 40
0.6874999999999967
 40
0.6874999999999967
 40
0.7499999999999973
 40
0.7499999999999973
 40
0.812499999999998
 40
0.812499999999998
 40
0.8749999999999988
 40
0.8749999999999988
 40
0.9374999999999994
 40
0.9374999999999994
 40
0.9687499999999997
 40
0.9687499999999997
 40
1.0
 40
1.0
 40
1.03125
 40
1.03125
 10
2.507738465589277
 20
3.74586556254482
 30
0.0
 10
2.507738465589277
 20
3.763616994491243
 30
0.0
 10
2.508638056492415
 20
3.772297785318319
 30
0.0
 10
2.512118536180893
 20
3.789298937414443
 30
0.0
 10
2.514745257885915
 20
3.797683579285725
 30
0.0
 10
2.524727076776437
 20
3.821191603571602
 30
0.0
 10
2.534334320057575
 20
3.83519781617365
 30
0.0
 10
2.55179261527374
 20
3.852587270639447
 30
0.0
 10
2.558222898983371
 20
3.857877326330933
 30
0.0
 10
2.571870818556735
 20
3.867075928056127
 30
0.0
 10
2.579104638858259
 20
3.871022116810695
 30
0.0
 10
2.602268968382237
 20
3.880870653006978
 30
0.0
 10
2.619787271660075
 20
3.884627315684976
 30
0.0
 10
2.655016366057658
 20
3.884697249065521
 30
0.0
 10
2.672412839604636
 20
3.881061111401986
 30
0.0
 10
2.703538856900284
 20
3.867986230553424
 30
0.0
 10
2.717386641207529
 20
3.858651133184935
 30
0.0
 10
2.735020428684449
 20
3.841164386136608
 30
0.0
 10
2.740286263400614
 20
3.834841968447056
 30
0.0
 10
2.749638869088562
 20
3.82114156623178
 30
0.0
 10
2.753762616556457
 20
3.813672483193215
 30
0.0
 10
2.76048938611433
 20
3.797934364406714
 30
0.0
 10
2.763083774171501
 20
3.789737438199453
 30
0.0
 10
2.766640992198626
 20
3.772623001531528
 30
0.0
 10
2.767561495558496
 20
3.76377157260625
 30
0.0
 10
2.767599850253901
 20
3.746280778852805
 30
0.0
 10
2.76671710178605
 20
3.737415963209611
 30
0.0
 10
2.763232219856669
 20
3.720280843438147
 30
0.0
 10
2.760668344787093
 20
3.712053480283922
 30
0.0
 10
2.750628219936355
 20
3.68831092260102
 30
0.0
 10
2.741015555867123
 20
3.674312816340512
 30
0.0
 10
2.723498383357807
 20
3.656868062426671
 30
0.0
 10
2.717174999087712
 20
3.651662334369588
 30
0.0
 10
2.703461263535338
 20
3.642410939541683
 30
0.0
 10
2.696059437352788
 20
3.63838158019805
 30
0.0
 10
2.672852502910472
 20
3.628553758856136
 30
0.0
 10
2.655447252421918
 20
3.62483230055218
 30
0.0
 10
2.620052068376176
 20
3.624807799054238
 30
0.0
 10
2.602542120501877
 20
3.628532006769737
 30
0.0
 10
2.571581100926769
 20
3.641623455719092
 30
0.0
 10
2.557696070080006
 20
3.651032657605471
 30
0.0
 10
2.534389195822376
 20
3.674212638004269
 30
0.0
 10
2.524776078171207
 20
3.68822551763648
 30
0.0
 10
2.514808212786937
 20
3.711626058162607
 30
0.0
 10
2.512161105246018
 20
3.720015775235884
 30
0.0
 10
2.508643265983302
 20
3.737119773528168
 30
0.0
 10
2.507738465589277
 20
3.74586556254482
 30
0.0
 10
2.507738465589277
 20
3.763616994491243
 30
0.0
  0
SPLINE
  5
EA
330
1F
100
AcDbEntity
  8
0
  6
HIDDEN
 62
     7
100
AcDbSpline
210
0.0
220
0.0
230
1.0
 70
     8
 71
     3
 72
    30
 73
    26
 74
     0
 42
0.00000001
 43
0.00000001
 40
0.0
 40
0.0
 40
0.0
 40
0.0
 40
0.006367590788104
 40
0.0502665032678869
 40
0.0954564659944164
 40
0.139378276986199
 40
0.1843068255811822
 40
0.2340218005813194
 40
0.2848317490218815
 40
0.3418051023356848
 40
0.4005596707476718
 40
0.4414855494660325
 40
0.4835152658938242
 40
0.5244827407365346
 40
0.5667635564227285
 40
0.6062125833504655
 40
0.6464704439051826
 40
0.6938254621566607
 40
0.742123595172477
 40
0.799069522089157
 40
0.8577510602635361
 40
0.9036215911698938
 40
0.9507612696253814
 40
0.9966702406082472
 40
1.0
 40
1.0
 40
1.0
 40
1.0
 10
3.885896125007021
 20
3.951456830588962
 30
0.0
 10
3.885828847456664
 20
3.951501097377427
 30
0.0
 10
3.885297750638826
 20
3.951850544560995
 30
0.0
 10
3.887205812513555
 20
3.950591024849372
 30
0.0
 10
3.891305690500078
 20
3.947917393040941
 30
0.0
 10
3.898186356385263
 20
3.943544956530372
 30
0.0
 10
3.907439582053445
 20
3.937903444117973
 30
0.0
 10
3.919378801466895
 20
3.931063405727921
 30
0.0
 10
3.934530506977616
 20
3.92319124320841
 30
0.0
 10
3.952854892840576
 20
3.915033391471684
 30
0.0
 10
3.972250591558748
 20
3.908467102107536
 30
0.0
 10
3.991181072959829
 20
3.904317614872983
 30
0.0
 10
4.008469196457039
 20
3.902452379559259
 30
0.0
 10
4.026174926997063
 20
3.902658241619359
 30
0.0
 10
4.043184714477408
 20
3.904880018167104
 30
0.0
 10
4.059313292242142
 20
3.908715722346104
 30
0.0
 10
4.075076392438158
 20
3.913911064257143
 30
0.0
 10
4.090572057048978
 20
3.920348870587969
 30
0.0
 10
4.106153313692229
 20
3.927981615077179
 30
0.0
 10
4.120592550445725
 20
3.935986316187952
 30
0.0
 10
4.131939969755724
 20
3.942850066785772
 30
0.0
 10
4.139837554396484
 20
3.947863118933128
 30
0.0
 10
4.144124201089074
 20
3.950659839578593
 30
0.0
 10
4.145956290322533
 20
3.951869779857946
 30
0.0
 10
4.145466432345363
 20
3.951547366995996
 30
0.0
 10
4.145433305796654
 20
3.951525563890048
 30
0.0
  0
SPLINE
  5
EB
330
1F
100
AcDbEntity
  8
0
  6
HIDDEN
 62
     7
100
AcDbSpline
210
0.0
220
0.0
230
1.0
 70
     8
 71
     3
 72
    52
 73
    48
 74
     0
 42
0.00000001
 43
0.00000001
 40
-0.0312500000000001
 40
-0.0312500000000001
 40
0.0
 40
0.0
 40
0.0312499999999999
 40
0.0312499999999999
 40
0.0624999999999997
 40
0.0624999999999997
 40
0.1249999999999996
 40
0.1249999999999996
 40
0.1562499999999995
 40
0.1562499999999995
 40
0.1874999999999996
 40
0.1874999999999996
 40
0.2499999999999994
 40
0.2499999999999994
 40
0.3124999999999992
 40
0.3124999999999992
 40
0.3749999999999991
 40
0.3749999999999991
 40
0.4062499999999989
 40
0.4062499999999989
 40
0.4374999999999988
 40
0.4374999999999988
 40
0.4687499999999986
 40
0.4687499999999986
 40
0.4999999999999986
 40
0.4999999999999986
 40
0.5312499999999984
 40
0.5312499999999984
 40
0.5624999999999982
 40
0.5624999999999982
 40
0.6249999999999982
 40
0.6249999999999982
 40
0.6562499999999982
 40
0.6562499999999982
 40
0.6874999999999981
 40
0.6874999999999981
 40
0.7499999999999986
 40
0.7499999999999986
 40
0.8124999999999989
 40
0.8124999999999989
 40
0.8749999999999993
 40
0.8749999999999993
 40
0.9374999999999997
 40
0.9374999999999997
 40
0.9687499999999999
 40
0.9687499999999999
 40
1.0
 40
1.0
 40
1.03125
 40
1.03125
 10
3.885691221494789
 20
3.74586556254482
 30
0.0
 10
3.88569122149479
 20
3.763616994491243
 30
0.0
 10
3.886590812397928
 20
3.772297785318319
 30
0.0
 10
3.890071292086406
 20
3.789298937414443
 30
0.0
 10
3.892698013791427
 20
3.797683579285725
 30
0.0
 10
3.902679832681949
 20
3.821191603571602
 30
0.0
 10
3.912287075963086
 20
3.835197816173651
 30
0.0
 10
3.929745371179253
 20
3.852587270639447
 30
0.0
 10
3.936175654888883
 20
3.857877326330933
 30
0.0
 10
3.949823574462247
 20
3.867075928056126
 30
0.0
 10
3.957057394763771
 20
3.871022116810695
 30
0.0
 10
3.980221724287749
 20
3.880870653006978
 30
0.0
 10
3.997740027565588
 20
3.884627315684976
 30
0.0
 10
4.03296912196317
 20
3.884697249065521
 30
0.0
 10
4.050365595510149
 20
3.881061111401986
 30
0.0
 10
4.081491612805796
 20
3.867986230553424
 30
0.0
 10
4.09533939711304
 20
3.858651133184936
 30
0.0
 10
4.112973184589961
 20
3.841164386136608
 30
0.0
 10
4.118239019306126
 20
3.834841968447056
 30
0.0
 10
4.127591624994074
 20
3.82114156623178
 30
0.0
 10
4.13171537246197
 20
3.813672483193215
 30
0.0
 10
4.138442142019842
 20
3.797934364406714
 30
0.0
 10
4.141036530077013
 20
3.789737438199453
 30
0.0
 10
4.144593748104137
 20
3.772623001531528
 30
0.0
 10
4.145514251464008
 20
3.76377157260625
 30
0.0
 10
4.145552606159414
 20
3.746280778852805
 30
0.0
 10
4.144669857691563
 20
3.737415963209611
 30
0.0
 10
4.141184975762181
 20
3.720280843438147
 30
0.0
 10
4.138621100692607
 20
3.712053480283922
 30
0.0
 10
4.128580975841868
 20
3.68831092260102
 30
0.0
 10
4.118968311772635
 20
3.674312816340512
 30
0.0
 10
4.10145113926332
 20
3.656868062426671
 30
0.0
 10
4.095127754993225
 20
3.651662334369588
 30
0.0
 10
4.081414019440851
 20
3.642410939541683
 30
0.0
 10
4.074012193258301
 20
3.63838158019805
 30
0.0
 10
4.050805258815985
 20
3.628553758856136
 30
0.0
 10
4.03340000832743
 20
3.62483230055218
 30
0.0
 10
3.998004824281689
 20
3.624807799054238
 30
0.0
 10
3.98049487640739
 20
3.628532006769738
 30
0.0
 10
3.949533856832281
 20
3.641623455719092
 30
0.0
 10
3.935648825985519
 20
3.651032657605471
 30
0.0
 10
3.912341951727889
 20
3.674212638004269
 30
0.0
 10
3.902728834076719
 20
3.68822551763648
 30
0.0
 10
3.892760968692449
 20
3.711626058162607
 30
0.0
 10
3.89011386115153
 20
3.720015775235884
 30
0.0
 10
3.886596021888815
 20
3.737119773528168
 30
0.0
 10
3.885691221494789
 20
3.74586556254482
 30
0.0
 10
3.88569122149479
 20
3.763616994491243
 30
0.0
  0
SPLINE
  5
EC
330
1F
100
AcDbEntity
  8
0
  6
HIDDEN
 62
     7
100
AcDbSpline
210
0.0
220
0.0
230
1.0
 70
     8
 71
     3
 72
    25
 73
    21
 74
     0
 42
0.00000001
 43
0.00000001
 40
0.0
 40
0.0
 40
0.0
 40
0.0
 40
0.0245967617659008
 40
0.051096680142969
 40
0.0795097629928666
 40
0.1098440642832923
 40
0.1421061384814501
 40
0.1763013706045913
 40
0.2124342202133566
 40
0.2505084046913836
 40
0.3482881915802483
 40
0.431622988256863
 40
0.5005907276991692
 40
0.6091909932420894
 40
0.7497497193078052
 40
0.8239593871244533
 40
0.8903786936207208
 40
0.9490399343086022
 40
0.9999955256007481
 40
1.0
 40
1.0
 40
1.0
 40
1.0
 10
2.507738465589277
 20
4.496694411641202
 30
0.0
 10
2.507813629561182
 20
4.496669718797643
 30
0.0
 10
2.507969773262832
 20
4.496618422519654
 30
0.0
 10
2.509302847323391
 20
4.496238282534468
 30
0.0
 10
2.511650983754938
 20
4.495642270525752
 30
0.0
 10
2.515279615499976
 20
4.494803044484513
 30
0.0
 10
2.520342559031358
 20
4.49372938235547
 30
0.0
 10
2.527009954630143
 20
4.492415141966425
 30
0.0
 10
2.535426362697859
 20
4.490875891885398
 30
0.0
 10
2.550861513205013
 20
4.488128006794371
 30
0.0
 10
2.575171973540617
 20
4.484788115947624
 30
0.0
 10
2.607419196074716
 20
4.482132427961628
 30
0.0
 10
2.642956967855877
 20
4.480869762403207
 30
0.0
 10
2.686448657227688
 20
4.483166819329246
 30
0.0
 10
2.724740906699746
 20
4.488008901260494
 30
0.0
 10
2.748487249769815
 20
4.492426862471605
 30
0.0
 10
2.760329440407448
 20
4.494817914756431
 30
0.0
 10
2.76635719905747
 20
4.496304539870062
 30
0.0
 10
2.76757337149985
 20
4.496693450565763
 30
0.0
 10
2.767580908503628
 20
4.49669439359199
 30
0.0
 10
2.767580909165392
 20
4.496694393674789
 30
0.0
  0
SPLINE
  5
ED
330
1F
100
AcDbEntity
  8
0
  6
HIDDEN
 62
     7
100
AcDbSpline
210
0.0
220
0.0
230
1.0
 70
     8
 71
     3
 72
    27
 73
    23
 74
     0
 42
0.00000001
 43
0.00000001
 40
0.0
 40
0.0
 40
0.0
 40
0.0
 40
0.0433403675361357
 40
0.0931586686345335
 40
0.1494996857810436
 40
0.2123912286119439
 40
0.2759103704136241
 40
0.3324943777725934
 40
0.3821691421028809
 40
0.424978423452294
 40
0.4678327286794222
 40
0.5175251827143237
 40
0.574099861628682
 40
0.6375829580549058
 40
0.7005819653738957
 40
0.7569674808902797
 40
0.806766921317498
 40
0.8500247846577899
 40
0.893475620599817
 40
0.9434221369689653
 40
0.9999093083431204
 40
0.9999999999999999
 40
0.9999999999999999
 40
0.9999999999999999
 40
0.9999999999999999
 10
3.885691221494789
 20
4.496694411641202
 30
0.0
 10
3.886017757862867
 20
4.49658964228514
 30
0.0
 10
3.886719636850985
 20
4.496364444062804
 30
0.0
 10
3.892965965211497
 20
4.494809747488055
 30
0.0
 10
3.904692393001911
 20
4.492442411577789
 30
0.0
 10
3.922923243948123
 20
4.48907821222206
 30
0.0
 10
3.945980634598459
 20
4.485709947537905
 30
0.0
 10
3.97059383739498
 20
4.483286118746499
 30
0.0
 10
3.993821741040579
 20
4.481783381520699
 30
0.0
 10
4.015531590971872
 20
4.481201516304732
 30
0.0
 10
4.037246811379254
 20
4.481776887513155
 30
0.0
 10
4.060490638389192
 20
4.4832744293994
 30
0.0
 10
4.085112040435861
 20
4.485693217951685
 30
0.0
 10
4.10820533651958
 20
4.489062407260363
 30
0.0
 10
4.126450855281365
 20
4.492422192148329
 30
0.0
 10
4.1382780055827
 20
4.494818726068448
 30
0.0
 10
4.144316317865057
 20
4.496305078718251
 30
0.0
 10
4.146074961081654
 20
4.496872610580443
 30
0.0
 10
4.144423601780045
 20
4.496317316765277
 30
0.0
 10
4.137983452766086
 20
4.494792665591325
 30
0.0
 10
4.131730918737863
 20
4.493405243321835
 30
0.0
 10
4.126137218569249
 20
4.492407546778935
 30
0.0
 10
4.126128252130624
 20
4.49240594751824
 30
0.0
  0
CIRCLE
  5
EE
330
1F
100
AcDbEntity
  8
0
  6
HIDDEN
 62
     7
100
AcDbCircle
 10
4.0156124813
 20
3.7547412785
 30
0.0
 40
0.109921259842519
  0
POLYLINE
  5
EF
330
1F
100
AcDbEntity
  8
0
  6
HIDDEN
 62
     7
100
AcDb2dPolyline
 66
     1
 10
0.0
 20
0.0
 30
0.0
  0
VERTEX
  5
22A
330
EF
100
AcDbEntity
  8
0
  6
HIDDEN
 62
     7
100
AcDbVertex
100
AcDb2dVertex
 10
4.1455337412
 20
3.7547412785
 30
0.0
  0
VERTEX
  5
22B
330
EF
100
AcDbEntity
  8
0
  6
HIDDEN
 62
     7
100
AcDbVertex
100
AcDb2dVertex
 10
4.1445092732
 20
3.7384578269
 30
0.0
  0
VERTEX
  5
22C
330
EF
100
AcDbEntity
  8
0
  6
HIDDEN
 62
     7
100
AcDbVertex
100
AcDb2dVertex
 10
4.1422411969
 20
3.7256775182
 30
0.0
  0
SEQEND
  5
22D
330
EF
100
AcDbEntity
  8
0
  6
HIDDEN
 62
     7
  0
ARC
  5
F0
330
1F
100
AcDbEntity
  8
0
  6
HIDDEN
 62
     7
100
AcDbCircle
 10
4.0156124813
 20
3.7547412785
 30
0.0
 40
0.1299212598425197
100
AcDbArc
 50
177.0660309098
 51
189.2424039803
  0
LINE
  5
F1
330
1F
100
AcDbEntity
  8
0
  6
HIDDEN
 62
     7
100
AcDbLine
 10
4.0156124813
 20
3.6647142186
 30
0.0
 11
3.9376467605
 21
3.7097277486
 31
0.0
  0
LINE
  5
F2
330
1F
100
AcDbEntity
  8
0
  6
HIDDEN
 62
     7
100
AcDbLine
 10
3.9376467605
 20
3.7997548085
 30
0.0
 11
4.0156124813
 21
3.8447683384
 31
0.0
  0
LINE
  5
F3
330
1F
100
AcDbEntity
  8
0
  6
HIDDEN
 62
     7
100
AcDbLine
 10
4.0156124813
 20
3.8447683384
 30
0.0
 11
4.0935782022
 21
3.7997548085
 31
0.0
  0
LINE
  5
F4
330
1F
100
AcDbEntity
  8
0
  6
HIDDEN
 62
     7
100
AcDbLine
 10
4.0935782022
 20
3.7997548085
 30
0.0
 11
4.0935782022
 21
3.7097277486
 31
0.0
  0
LINE
  5
F5
330
1F
100
AcDbEntity
  8
0
  6
HIDDEN
 62
     7
100
AcDbLine
 10
3.9376467605
 20
3.7097277486
 30
0.0
 11
3.9376467605
 21
3.7997548085
 31
0.0
  0
LINE
  5
F6
330
1F
100
AcDbEntity
  8
0
  6
HIDDEN
 62
     7
100
AcDbLine
 10
4.0935782022
 20
3.7097277486
 30
0.0
 11
4.0156124813
 21
3.6647142186
 31
0.0
  0
CIRCLE
  5
F7
330
1F
100
AcDbEntity
  8
0
  6
HIDDEN
 62
     7
100
AcDbCircle
 10
2.6376597254
 20
3.7547412785
 30
0.0
 40
0.1099212598425194
  0
LINE
  5
F8
330
1F
100
AcDbEntity
  8
0
  6
HIDDEN
 62
     7
100
AcDbLine
 10
2.7156254463
 20
3.7997548085
 30
0.0
 11
2.6376597254
 21
3.8447683384
 31
0.0
  0
LINE
  5
F9
330
1F
100
AcDbEntity
  8
0
  6
HIDDEN
 62
     7
100
AcDbLine
 10
2.6376597254
 20
3.8447683384
 30
0.0
 11
2.5596940046
 21
3.7997548085
 31
0.0
  0
LINE
  5
FA
330
1F
100
AcDbEntity
  8
0
  6
HIDDEN
 62
     7
100
AcDbLine
 10
2.5596940046
 20
3.7997548085
 30
0.0
 11
2.5596940046
 21
3.7097277486
 31
0.0
  0
LINE
  5
FB
330
1F
100
AcDbEntity
  8
0
  6
HIDDEN
 62
     7
100
AcDbLine
 10
2.7156254463
 20
3.7097277486
 30
0.0
 11
2.7156254463
 21
3.7997548085
 31
0.0
  0
LINE
  5
FC
330
1F
100
AcDbEntity
  8
0
  6
HIDDEN
 62
     7
100
AcDbLine
 10
2.5596940046
 20
3.7097277486
 30
0.0
 11
2.6376597254
 21
3.6647142186
 31
0.0
  0
LINE
  5
FD
330
1F
100
AcDbEntity
  8
0
  6
HIDDEN
 62
     7
100
AcDbLine
 10
2.6376597254
 20
3.6647142186
 30
0.0
 11
2.7156254463
 21
3.7097277486
 31
0.0
  0
LINE
  5
FE
330
1F
100
AcDbEntity
  8
0
  6
HIDDEN
 62
     7
100
AcDbLine
 10
2.5077384656
 20
4.502457814
 30
0.0
 11
2.7675809853
 21
4.502457814
 31
0.0
  0
LINE
  5
FF
330
1F
100
AcDbEntity
  8
0
  6
HIDDEN
 62
     7
100
AcDbLine
 10
2.7675809853
 20
3.9715916722
 30
0.0
 11
2.5077384656
 21
3.9715916722
 31
0.0
  0
LINE
  5
100
330
1F
100
AcDbEntity
  8
0
  6
HIDDEN
 62
     7
100
AcDbLine
 10
2.5277384656
 20
3.9515916722
 30
0.0
 11
2.7475809853
 21
3.9515916722
 31
0.0
  0
LINE
  5
101
330
1F
100
AcDbEntity
  8
0
  6
HIDDEN
 62
     7
100
AcDbLine
 10
2.6376597254
 20
4.422457814
 30
0.0
 11
2.6376597254
 21
4.522457814
 31
0.0
  0
LINE
  5
102
330
1F
100
AcDbEntity
  8
0
  6
HIDDEN
 62
     7
100
AcDbLine
 10
2.7156254463
 20
4.422457814
 30
0.0
 11
2.6376597254
 21
4.422457814
 31
0.0
  0
LINE
  5
103
330
1F
100
AcDbEntity
  8
0
  6
HIDDEN
 62
     7
100
AcDbLine
 10
2.6376597254
 20
4.422457814
 30
0.0
 11
2.5596940046
 21
4.422457814
 31
0.0
  0
LINE
  5
104
330
1F
100
AcDbEntity
  8
0
  6
HIDDEN
 62
     7
100
AcDbLine
 10
2.5596940046
 20
4.422457814
 30
0.0
 11
2.5596940046
 21
4.522457814
 31
0.0
  0
LINE
  5
105
330
1F
100
AcDbEntity
  8
0
  6
HIDDEN
 62
     7
100
AcDbLine
 10
2.7156254463
 20
4.422457814
 30
0.0
 11
2.7156254463
 21
4.522457814
 31
0.0
  0
LINE
  5
106
330
1F
100
AcDbEntity
  8
0
  6
HIDDEN
 62
     7
100
AcDbLine
 10
4.1455337412
 20
4.502457814
 30
0.0
 11
3.8856912215
 21
4.502457814
 31
0.0
  0
LINE
  5
107
330
1F
100
AcDbEntity
  8
0
  6
HIDDEN
 62
     7
100
AcDbLine
 10
3.8856912215
 20
3.9715916722
 30
0.0
 11
4.1455337412
 21
3.9715916722
 31
0.0
  0
LINE
  5
108
330
1F
100
AcDbEntity
  8
0
  6
HIDDEN
 62
     7
100
AcDbLine
 10
4.1255337412
 20
3.9515916722
 30
0.0
 11
3.9056912215
 21
3.9515916722
 31
0.0
  0
LINE
  5
109
330
1F
100
AcDbEntity
  8
0
  6
HIDDEN
 62
     7
100
AcDbLine
 10
4.0156124813
 20
4.422457814
 30
0.0
 11
4.0156124813
 21
4.522457814
 31
0.0
  0
LINE
  5
10A
330
1F
100
AcDbEntity
  8
0
  6
HIDDEN
 62
     7
100
AcDbLine
 10
3.9376467605
 20
4.422457814
 30
0.0
 11
4.0156124813
 21
4.422457814
 31
0.0
  0
LINE
  5
10B
330
1F
100
AcDbEntity
  8
0
  6
HIDDEN
 62
     7
100
AcDbLine
 10
4.0156124813
 20
4.422457814
 30
0.0
 11
4.0935782022
 21
4.422457814
 31
0.0
  0
LINE
  5
10C
330
1F
100
AcDbEntity
  8
0
  6
HIDDEN
 62
     7
100
AcDbLine
 10
4.0935782022
 20
4.422457814
 30
0.0
 11
4.0935782022
 21
4.522457814
 31
0.0
  0
LINE
  5
10D
330
1F
100
AcDbEntity
  8
0
  6
HIDDEN
 62
     7
100
AcDbLine
 10
3.9376467605
 20
4.422457814
 30
0.0
 11
3.9376467605
 21
4.522457814
 31
0.0
  0
LINE
  5
10E
330
1F
100
AcDbEntity
  8
0
  6
HIDDEN
 62
     7
100
AcDbLine
 10
4.2912030325
 20
3.9815916722
 30
0.0
 11
4.2612030325
 21
3.9515916722
 31
0.0
  0
LINE
  5
10F
330
1F
100
AcDbEntity
  8
0
  6
HIDDEN
 62
     7
100
AcDbLine
 10
4.2612030325
 20
3.5578908848
 30
0.0
 11
4.2912030325
 21
3.5278908848
 31
0.0
  0
LINE
  5
110
330
1F
100
AcDbEntity
  8
0
  6
HIDDEN
 62
     7
100
AcDbLine
 10
2.3620691743
 20
3.5278908848
 30
0.0
 11
2.3920691743
 21
3.5578908848
 31
0.0
  0
LINE
  5
111
330
1F
100
AcDbEntity
  8
0
  6
HIDDEN
 62
     7
100
AcDbLine
 10
2.3920691743
 20
3.9515916722
 30
0.0
 11
2.3620691743
 21
3.9815916722
 31
0.0
  0
LINE
  5
112
330
1F
100
AcDbEntity
  8
0
  6
HIDDEN
 62
     7
100
AcDbLine
 10
3.4266361034
 20
3.9815916722
 30
0.0
 11
3.2266361034
 21
3.9815916722
 31
0.0
  0
LINE
  5
113
330
1F
100
AcDbEntity
  8
0
  6
HIDDEN
 62
     7
100
AcDbLine
 10
3.2266361034
 20
3.5278908848
 30
0.0
 11
3.4266361034
 21
3.5278908848
 31
0.0
  0
LINE
  5
114
330
1F
100
AcDbEntity
  8
0
  6
HIDDEN
 62
     7
100
AcDbLine
 10
2.5079433691
 20
3.9515916722
 30
0.0
 11
2.3920691743
 21
3.9515916722
 31
0.0
  0
LINE
  5
115
330
1F
100
AcDbEntity
  8
0
  6
HIDDEN
 62
     7
100
AcDbLine
 10
3.2266361034
 20
3.9515916722
 30
0.0
 11
2.7674805499
 21
3.9515916722
 31
0.0
  0
LINE
  5
116
330
1F
100
AcDbEntity
  8
0
  6
HIDDEN
 62
     7
100
AcDbLine
 10
2.3920691743
 20
3.5578908848
 30
0.0
 11
3.2266361034
 21
3.5578908848
 31
0.0
  0
LINE
  5
117
330
1F
100
AcDbEntity
  8
0
  6
HIDDEN
 62
     7
100
AcDbLine
 10
3.885896125
 20
3.9515916722
 30
0.0
 11
3.4266361034
 21
3.9515916722
 31
0.0
  0
LINE
  5
118
330
1F
100
AcDbEntity
  8
0
  6
HIDDEN
 62
     7
100
AcDbLine
 10
4.2612030325
 20
3.9515916722
 30
0.0
 11
4.1454333058
 21
3.9515916722
 31
0.0
  0
LINE
  5
119
330
1F
100
AcDbEntity
  8
0
  6
HIDDEN
 62
     7
100
AcDbLine
 10
3.4266361034
 20
3.5578908848
 30
0.0
 11
4.2612030325
 21
3.5578908848
 31
0.0
  0
LINE
  5
11A
330
1F
100
AcDbEntity
  8
0
  6
HIDDEN
 62
     7
100
AcDbLine
 10
2.4877133338
 20
4.5224578186
 30
0.0
 11
2.5077384276
 21
4.4966944161
 31
0.0
  0
LINE
  5
11B
330
1F
100
AcDbEntity
  8
0
  6
HIDDEN
 62
     7
100
AcDbLine
 10
2.7675809074
 20
4.4966943937
 30
0.0
 11
2.7876059832
 21
4.5224577954
 31
0.0
  0
LINE
  5
11C
330
1F
100
AcDbEntity
  8
0
  6
HIDDEN
 62
     7
100
AcDbLine
 10
3.8656660897
 20
4.5224578186
 30
0.0
 11
3.8856911835
 21
4.4966944161
 31
0.0
  0
LINE
  5
11D
330
1F
100
AcDbEntity
  8
0
  6
HIDDEN
 62
     7
100
AcDbLine
 10
4.1455336633
 20
4.4966943937
 30
0.0
 11
4.1655587391
 21
4.5224577954
 31
0.0
  0
LINE
  5
11E
330
1F
100
AcDbEntity
  8
0
  6
HIDDEN
 62
     7
100
AcDbLine
 10
2.7675809853
 20
3.9515257279
 30
0.0
 11
2.7675809853
 21
4.4966911695
 31
0.0
  0
LINE
  5
11F
330
1F
100
AcDbEntity
  8
0
  6
HIDDEN
 62
     7
100
AcDbLine
 10
2.5077384656
 20
4.4966944116
 30
0.0
 11
2.5077384656
 21
3.9514571638
 31
0.0
  0
LINE
  5
120
330
1F
100
AcDbEntity
  8
0
  6
HIDDEN
 62
     7
100
AcDbLine
 10
4.1455337412
 20
3.9515257279
 30
0.0
 11
4.1455337412
 21
4.4966911695
 31
0.0
  0
LINE
  5
121
330
1F
100
AcDbEntity
  8
0
  6
HIDDEN
 62
     7
100
AcDbLine
 10
3.8856912215
 20
4.4966944116
 30
0.0
 11
3.8856912215
 21
3.9514571638
 31
0.0
  0
LINE
  5
122
330
1F
100
AcDbEntity
  8
0
  6
HIDDEN
 62
     7
100
AcDbLine
 10
2.7675809853
 20
4.502457814
 30
0.0
 11
2.7538404666
 21
4.5161983327
 31
0.0
  0
LINE
  5
123
330
1F
100
AcDbEntity
  8
0
  6
HIDDEN
 62
     7
100
AcDbLine
 10
2.5214790935
 20
4.5161984419
 30
0.0
 11
2.5077384656
 21
4.502457814
 31
0.0
  0
LINE
  5
124
330
1F
100
AcDbEntity
  8
0
  6
HIDDEN
 62
     7
100
AcDbLine
 10
2.7675809853
 20
3.9715916722
 30
0.0
 11
2.7675809853
 21
4.502457814
 31
0.0
  0
LINE
  5
125
330
1F
100
AcDbEntity
  8
0
  6
HIDDEN
 62
     7
100
AcDbLine
 10
2.5077384656
 20
4.502457814
 30
0.0
 11
2.5077384656
 21
3.9715916722
 31
0.0
  0
LINE
  5
126
330
1F
100
AcDbEntity
  8
0
  6
HIDDEN
 62
     7
100
AcDbLine
 10
2.5077384656
 20
3.9715916722
 30
0.0
 11
2.5277384656
 21
3.9515916722
 31
0.0
  0
LINE
  5
127
330
1F
100
AcDbEntity
  8
0
  6
HIDDEN
 62
     7
100
AcDbLine
 10
2.7475809853
 20
3.9515916722
 30
0.0
 11
2.7675809853
 21
3.9715916722
 31
0.0
  0
LINE
  5
128
330
1F
100
AcDbEntity
  8
0
  6
HIDDEN
 62
     7
100
AcDbLine
 10
4.1455337412
 20
3.9715916722
 30
0.0
 11
4.1455337412
 21
4.502457814
 31
0.0
  0
LINE
  5
129
330
1F
100
AcDbEntity
  8
0
  6
HIDDEN
 62
     7
100
AcDbLine
 10
3.8856912215
 20
4.502457814
 30
0.0
 11
3.8856912215
 21
3.9715916722
 31
0.0
  0
LINE
  5
12A
330
1F
100
AcDbEntity
  8
0
  6
HIDDEN
 62
     7
100
AcDbLine
 10
4.1455337412
 20
4.502457814
 30
0.0
 11
4.1317932225
 21
4.5161983327
 31
0.0
  0
LINE
  5
12B
330
1F
100
AcDbEntity
  8
0
  6
HIDDEN
 62
     7
100
AcDbLine
 10
3.8994318494
 20
4.5161984419
 30
0.0
 11
3.8856912215
 21
4.502457814
 31
0.0
  0
LINE
  5
12C
330
1F
100
AcDbEntity
  8
0
  6
HIDDEN
 62
     7
100
AcDbLine
 10
3.8856912215
 20
3.9715916722
 30
0.0
 11
3.9056912215
 21
3.9515916722
 31
0.0
  0
LINE
  5
12D
330
1F
100
AcDbEntity
  8
0
  6
HIDDEN
 62
     7
100
AcDbLine
 10
4.1255337412
 20
3.9515916722
 30
0.0
 11
4.1455337412
 21
3.9715916722
 31
0.0
  0
LINE
  5
12E
330
1F
100
AcDbEntity
  8
0
  6
CONTINUOUS
 62
     7
100
AcDbLine
 10
9.0092849716
 20
3.6355038485
 30
0.0
 11
9.0186011418
 21
3.6448200187
 31
0.0
  0
LINE
  5
12F
330
1F
100
AcDbEntity
  8
0
  6
CONTINUOUS
 62
     7
100
AcDbLine
 10
9.0186011418
 20
3.8646625384
 30
0.0
 11
9.0092849716
 21
3.8739787085
 31
0.0
  0
LINE
  5
130
330
1F
100
AcDbEntity
  8
0
  6
CONTINUOUS
 62
     7
100
AcDbLine
 10
8.3701220363
 20
4.5131416438
 30
0.0
 11
8.3608058662
 21
4.522457814
 31
0.0
  0
LINE
  5
131
330
1F
100
AcDbEntity
  8
0
  6
CONTINUOUS
 62
     7
100
AcDbLine
 10
8.1409633465
 20
4.522457814
 30
0.0
 11
8.1316471763
 21
4.5131416438
 31
0.0
  0
CIRCLE
  5
132
330
1F
100
AcDbEntity
  8
0
  6
CONTINUOUS
 62
     7
100
AcDbCircle
 10
8.2508846063
 20
3.7547412785
 30
0.0
 40
0.737716535433071
  0
CIRCLE
  5
133
330
1F
100
AcDbEntity
  8
0
  6
CONTINUOUS
 62
     7
100
AcDbCircle
 10
8.2508846063
 20
3.7547412785
 30
0.0
 40
0.7677165354330704
  0
CIRCLE
  5
134
330
1F
100
AcDbEntity
  8
0
  6
CONTINUOUS
 62
     7
100
AcDbCircle
 10
8.2508846063
 20
3.7547412785
 30
0.0
 40
0.2268503937007882
  0
CIRCLE
  5
135
330
1F
100
AcDbEntity
  8
0
  6
CONTINUOUS
 62
     7
100
AcDbCircle
 10
8.2508846063
 20
3.7547412785
 30
0.0
 40
0.1968503937007888
  0
LINE
  5
136
330
1F
100
AcDbEntity
  8
0
  6
CONTINUOUS
 62
     7
100
AcDbLine
 10
9.0186011418
 20
3.8646625384
 30
0.0
 11
9.0186011418
 21
3.6448200187
 31
0.0
  0
LINE
  5
137
330
1F
100
AcDbEntity
  8
0
  6
CONTINUOUS
 62
     7
100
AcDbLine
 10
8.1409633465
 20
4.522457814
 30
0.0
 11
8.3608058662
 21
4.522457814
 31
0.0
  0
SPLINE
  5
138
330
1F
100
AcDbEntity
  8
0
  6
HIDDEN
 62
     7
100
AcDbSpline
210
0.0
220
0.0
230
1.0
 70
     8
 71
     3
 72
    25
 73
    21
 74
     0
 42
0.00000001
 43
0.00000001
 40
0.0
 40
0.0
 40
0.0
 40
0.0
 40
0.0503437052088149
 40
0.1087720805320453
 40
0.1752925741884406
 40
0.2499359834687926
 40
0.3240102008950356
 40
0.3903082762742714
 40
0.4488624461714702
 40
0.4997250313268018
 40
0.5508145136201449
 40
0.6095416153739606
 40
0.6759592176859475
 40
0.7501001427532715
 40
0.8247017539520997
 40
0.8911817373163156
 40
0.9214196275195747
 40
0.9496339299000123
 40
0.975832675470649
 40
1.0
 40
1.0
 40
1.0
 40
1.0
 10
8.120964801934923
 20
4.481385047343609
 30
0.0
 10
8.121279414071951
 20
4.481490874781994
 30
0.0
 10
8.121959161749707
 20
4.481719524433482
 30
0.0
 10
8.12812317095728
 20
4.483293333311476
 30
0.0
 10
8.139835680244992
 20
4.485687144521382
 30
0.0
 10
8.158077127364592
 20
4.48906412155692
 30
0.0
 10
8.181099205268229
 20
4.492421729276072
 30
0.0
 10
8.205600731177206
 20
4.494819005243918
 30
0.0
 10
8.228875102854671
 20
4.496304475762853
 30
0.0
 10
8.250772422457338
 20
4.496874488116681
 30
0.0
 10
8.272697666361521
 20
4.496309810621733
 30
0.0
 10
8.296049593145558
 20
4.494827216100699
 30
0.0
 10
8.320603655205652
 20
4.492430694895769
 30
0.0
 10
8.343656023642156
 20
4.489069760578261
 30
0.0
 10
8.36188171870339
 20
4.48569894471073
 30
0.0
 10
8.372010659479994
 20
4.483622034445951
 30
0.0
 10
8.376959857513276
 20
4.482450647055195
 30
0.0
 10
8.379273920515075
 20
4.481847863925637
 30
0.0
 10
8.380578688627253
 20
4.481462522506663
 30
0.0
 10
8.380731928369942
 20
4.481409967037129
 30
0.0
 10
8.380805457922376
 20
4.481384749165543
 30
0.0
  0
LINE
  5
139
330
1F
100
AcDbEntity
  8
0
  6
HIDDEN
 62
     7
100
AcDbLine
 10
8.2691626488
 20
4.4962748649
 30
0.0
 11
8.2508846063
 21
4.4966944116
 31
0.0
  0
LINE
  5
13A
330
1F
100
AcDbEntity
  8
0
  6
HIDDEN
 62
     7
100
AcDbLine
 10
8.9986011418
 20
3.6248200187
 30
0.0
 11
8.9986011418
 21
3.8846625384
 31
0.0
  0
LINE
  5
13B
330
1F
100
AcDbEntity
  8
0
  6
HIDDEN
 62
     7
100
AcDbLine
 10
8.467735
 20
3.7547412785
 30
0.0
 11
8.467735
 21
3.6248200187
 31
0.0
  0
LINE
  5
13C
330
1F
100
AcDbEntity
  8
0
  6
HIDDEN
 62
     7
100
AcDbLine
 10
8.467735
 20
3.8846625384
 30
0.0
 11
8.467735
 21
3.7547412785
 31
0.0
  0
LINE
  5
13D
330
1F
100
AcDbEntity
  8
0
  6
HIDDEN
 62
     7
100
AcDbLine
 10
8.447735
 20
3.7547412785
 30
0.0
 11
8.447735
 21
3.8646625384
 31
0.0
  0
LINE
  5
13E
330
1F
100
AcDbEntity
  8
0
  6
HIDDEN
 62
     7
100
AcDbLine
 10
8.447735
 20
3.6448200187
 30
0.0
 11
8.447735
 21
3.7547412785
 31
0.0
  0
LINE
  5
13F
330
1F
100
AcDbEntity
  8
0
  6
HIDDEN
 62
     7
100
AcDbLine
 10
8.9186011418
 20
3.7997548085
 30
0.0
 11
9.0186011418
 21
3.7997548085
 31
0.0
  0
LINE
  5
140
330
1F
100
AcDbEntity
  8
0
  6
HIDDEN
 62
     7
100
AcDbLine
 10
8.9186011418
 20
3.7097277486
 30
0.0
 11
9.0186011418
 21
3.7097277486
 31
0.0
  0
LINE
  5
141
330
1F
100
AcDbEntity
  8
0
  6
HIDDEN
 62
     7
100
AcDbLine
 10
8.9186011418
 20
3.7097277486
 30
0.0
 11
8.9186011418
 21
3.6647142186
 31
0.0
  0
LINE
  5
142
330
1F
100
AcDbEntity
  8
0
  6
HIDDEN
 62
     7
100
AcDbLine
 10
8.9186011418
 20
3.7997548085
 30
0.0
 11
8.9186011418
 21
3.7097277486
 31
0.0
  0
LINE
  5
143
330
1F
100
AcDbEntity
  8
0
  6
HIDDEN
 62
     7
100
AcDbLine
 10
8.9186011418
 20
3.8447683384
 30
0.0
 11
8.9186011418
 21
3.7997548085
 31
0.0
  0
LINE
  5
144
330
1F
100
AcDbEntity
  8
0
  6
HIDDEN
 62
     7
100
AcDbLine
 10
8.9186011418
 20
3.8447683384
 30
0.0
 11
9.0186011418
 21
3.8447683384
 31
0.0
  0
LINE
  5
145
330
1F
100
AcDbEntity
  8
0
  6
HIDDEN
 62
     7
100
AcDbLine
 10
8.9186011418
 20
3.6647142186
 30
0.0
 11
9.0186011418
 21
3.6647142186
 31
0.0
  0
LINE
  5
146
330
1F
100
AcDbEntity
  8
0
  6
HIDDEN
 62
     7
100
AcDbLine
 10
8.2508846063
 20
3.9515916722
 30
0.0
 11
8.1409633465
 21
3.9515916722
 31
0.0
  0
LINE
  5
147
330
1F
100
AcDbEntity
  8
0
  6
HIDDEN
 62
     7
100
AcDbLine
 10
8.3608058662
 20
3.9515916722
 30
0.0
 11
8.2508846063
 21
3.9515916722
 31
0.0
  0
LINE
  5
148
330
1F
100
AcDbEntity
  8
0
  6
HIDDEN
 62
     7
100
AcDbLine
 10
8.2508846063
 20
3.9715916722
 30
0.0
 11
8.3808058662
 21
3.9715916722
 31
0.0
  0
LINE
  5
149
330
1F
100
AcDbEntity
  8
0
  6
HIDDEN
 62
     7
100
AcDbLine
 10
8.1209633465
 20
3.9715916722
 30
0.0
 11
8.2508846063
 21
3.9715916722
 31
0.0
  0
LINE
  5
14A
330
1F
100
AcDbEntity
  8
0
  6
HIDDEN
 62
     7
100
AcDbLine
 10
8.3808058662
 20
4.502457814
 30
0.0
 11
8.1209633465
 21
4.502457814
 31
0.0
  0
LINE
  5
14B
330
1F
100
AcDbEntity
  8
0
  6
HIDDEN
 62
     7
100
AcDbLine
 10
8.2958981363
 20
4.422457814
 30
0.0
 11
8.3409116662
 21
4.422457814
 31
0.0
  0
LINE
  5
14C
330
1F
100
AcDbEntity
  8
0
  6
HIDDEN
 62
     7
100
AcDbLine
 10
8.2058710764
 20
4.422457814
 30
0.0
 11
8.2958981363
 21
4.422457814
 31
0.0
  0
LINE
  5
14D
330
1F
100
AcDbEntity
  8
0
  6
HIDDEN
 62
     7
100
AcDbLine
 10
8.2958981363
 20
4.422457814
 30
0.0
 11
8.2958981363
 21
4.522457814
 31
0.0
  0
LINE
  5
14E
330
1F
100
AcDbEntity
  8
0
  6
HIDDEN
 62
     7
100
AcDbLine
 10
8.2058710764
 20
4.422457814
 30
0.0
 11
8.2058710764
 21
4.522457814
 31
0.0
  0
LINE
  5
14F
330
1F
100
AcDbEntity
  8
0
  6
HIDDEN
 62
     7
100
AcDbLine
 10
8.1608575464
 20
4.422457814
 30
0.0
 11
8.2058710764
 21
4.422457814
 31
0.0
  0
LINE
  5
150
330
1F
100
AcDbEntity
  8
0
  6
HIDDEN
 62
     7
100
AcDbLine
 10
8.3409116662
 20
4.422457814
 30
0.0
 11
8.3409116662
 21
4.522457814
 31
0.0
  0
LINE
  5
151
330
1F
100
AcDbEntity
  8
0
  6
HIDDEN
 62
     7
100
AcDbLine
 10
8.1608575464
 20
4.422457814
 30
0.0
 11
8.1608575464
 21
4.522457814
 31
0.0
  0
LINE
  5
152
330
1F
100
AcDbEntity
  8
0
  6
HIDDEN
 62
     7
100
AcDbLine
 10
8.0957315884
 20
4.5066164136
 30
0.0
 11
8.1209633721
 21
4.4813846247
 31
0.0
  0
LINE
  5
153
330
1F
100
AcDbEntity
  8
0
  6
HIDDEN
 62
     7
100
AcDbLine
 10
8.380805866
 20
4.4813846195
 30
0.0
 11
8.4060376547
 21
4.5066164083
 31
0.0
  0
LINE
  5
154
330
1F
100
AcDbEntity
  8
0
  6
HIDDEN
 62
     7
100
AcDbLine
 10
8.3808058662
 20
3.9026282074
 30
0.0
 11
8.3808058662
 21
4.4813848902
 31
0.0
  0
LINE
  5
155
330
1F
100
AcDbEntity
  8
0
  6
HIDDEN
 62
     7
100
AcDbLine
 10
8.1209633465
 20
4.4813866559
 30
0.0
 11
8.1209633465
 21
3.9028707075
 31
0.0
  0
LINE
  5
156
330
1F
100
AcDbEntity
  8
0
  6
HIDDEN
 62
     7
100
AcDbLine
 10
8.3989444857
 20
3.6248200187
 30
0.0
 11
9.0076025195
 21
3.6248200187
 31
0.0
  0
LINE
  5
157
330
1F
100
AcDbEntity
  8
0
  6
HIDDEN
 62
     7
100
AcDbLine
 10
9.007548153
 20
3.8846625384
 30
0.0
 11
8.399020133
 21
3.8846625384
 31
0.0
  0
LINE
  5
158
330
1F
100
AcDbEntity
  8
0
  6
HIDDEN
 62
     7
100
AcDbLine
 10
8.9986011418
 20
3.6248200187
 30
0.0
 11
9.0092849716
 21
3.6355038485
 31
0.0
  0
LINE
  5
159
330
1F
100
AcDbEntity
  8
0
  6
HIDDEN
 62
     7
100
AcDbLine
 10
9.0092849716
 20
3.8739787085
 30
0.0
 11
8.9986011418
 21
3.8846625384
 31
0.0
  0
LINE
  5
15A
330
1F
100
AcDbEntity
  8
0
  6
HIDDEN
 62
     7
100
AcDbLine
 10
8.467735
 20
3.6248200187
 30
0.0
 11
8.9986011418
 21
3.6248200187
 31
0.0
  0
LINE
  5
15B
330
1F
100
AcDbEntity
  8
0
  6
HIDDEN
 62
     7
100
AcDbLine
 10
8.9986011418
 20
3.8846625384
 30
0.0
 11
8.467735
 21
3.8846625384
 31
0.0
  0
LINE
  5
15C
330
1F
100
AcDbEntity
  8
0
  6
HIDDEN
 62
     7
100
AcDbLine
 10
8.467735
 20
3.8846625384
 30
0.0
 11
8.447735
 21
3.8646625384
 31
0.0
  0
LINE
  5
15D
330
1F
100
AcDbEntity
  8
0
  6
HIDDEN
 62
     7
100
AcDbLine
 10
8.447735
 20
3.6448200187
 30
0.0
 11
8.467735
 21
3.6248200187
 31
0.0
  0
LINE
  5
15E
330
1F
100
AcDbEntity
  8
0
  6
HIDDEN
 62
     7
100
AcDbLine
 10
8.1209633465
 20
3.9715916722
 30
0.0
 11
8.1409633465
 21
3.9515916722
 31
0.0
  0
LINE
  5
15F
330
1F
100
AcDbEntity
  8
0
  6
HIDDEN
 62
     7
100
AcDbLine
 10
8.3608058662
 20
3.9515916722
 30
0.0
 11
8.3808058662
 21
3.9715916722
 31
0.0
  0
LINE
  5
160
330
1F
100
AcDbEntity
  8
0
  6
HIDDEN
 62
     7
100
AcDbLine
 10
8.3808058662
 20
4.502457814
 30
0.0
 11
8.3701220363
 21
4.5131416438
 31
0.0
  0
LINE
  5
161
330
1F
100
AcDbEntity
  8
0
  6
HIDDEN
 62
     7
100
AcDbLine
 10
8.1316471763
 20
4.5131416438
 30
0.0
 11
8.1209633465
 21
4.502457814
 31
0.0
  0
LINE
  5
162
330
1F
100
AcDbEntity
  8
0
  6
HIDDEN
 62
     7
100
AcDbLine
 10
8.3808058662
 20
3.9715916722
 30
0.0
 11
8.3808058662
 21
4.502457814
 31
0.0
  0
LINE
  5
163
330
1F
100
AcDbEntity
  8
0
  6
HIDDEN
 62
     7
100
AcDbLine
 10
8.1209633465
 20
4.502457814
 30
0.0
 11
8.1209633465
 21
3.9715916722
 31
0.0
  0
LINE
  5
164
330
1F
100
AcDbEntity
  8
0
  6
CONTINUOUS
 62
     7
100
AcDbLine
 10
2.3920691743
 20
5.9042606035
 30
0.0
 11
4.2612030325
 21
5.9042606035
 31
0.0
  0
LINE
  5
165
330
1F
100
AcDbEntity
  8
0
  6
CONTINUOUS
 62
     7
100
AcDbLine
 10
2.5077384656
 20
7.4396936743
 30
0.0
 11
2.3920691743
 21
7.4396936743
 31
0.0
  0
LINE
  5
166
330
1F
100
AcDbEntity
  8
0
  6
CONTINUOUS
 62
     7
100
AcDbLine
 10
3.8856912215
 20
7.4396936743
 30
0.0
 11
2.7672261401
 21
7.4396936743
 31
0.0
  0
LINE
  5
167
330
1F
100
AcDbEntity
  8
0
  6
CONTINUOUS
 62
     7
100
AcDbLine
 10
4.2612030325
 20
7.4396936743
 30
0.0
 11
4.145178896
 21
7.4396936743
 31
0.0
  0
LINE
  5
168
330
1F
100
AcDbEntity
  8
0
  6
CONTINUOUS
 62
     7
100
AcDbLine
 10
2.3920691743
 20
7.4396936743
 30
0.0
 11
2.3620691743
 21
7.4096936743
 31
0.0
  0
LINE
  5
169
330
1F
100
AcDbEntity
  8
0
  6
CONTINUOUS
 62
     7
100
AcDbLine
 10
2.3620691743
 20
5.9342606035
 30
0.0
 11
2.3920691743
 21
5.9042606035
 31
0.0
  0
LINE
  5
16A
330
1F
100
AcDbEntity
  8
0
  6
CONTINUOUS
 62
     7
100
AcDbLine
 10
4.2612030325
 20
5.9042606035
 30
0.0
 11
4.2912030325
 21
5.9342606035
 31
0.0
  0
LINE
  5
16B
330
1F
100
AcDbEntity
  8
0
  6
CONTINUOUS
 62
     7
100
AcDbLine
 10
4.2912030325
 20
7.4096936743
 30
0.0
 11
4.2612030325
 21
7.4396936743
 31
0.0
  0
LINE
  5
16C
330
1F
100
AcDbEntity
  8
0
  6
CONTINUOUS
 62
     7
100
AcDbLine
 10
4.1282587537
 20
7.4369686618
 30
0.0
 11
4.1255337412
 21
7.4396936743
 31
0.0
  0
LINE
  5
16D
330
1F
100
AcDbEntity
  8
0
  6
CONTINUOUS
 62
     7
100
AcDbLine
 10
3.9056912215
 20
7.4396936743
 30
0.0
 11
3.9029724728
 21
7.4369749257
 31
0.0
  0
LINE
  5
16E
330
1F
100
AcDbEntity
  8
0
  6
CONTINUOUS
 62
     7
100
AcDbLine
 10
2.7503059978
 20
7.4369686618
 30
0.0
 11
2.7475809853
 21
7.4396936743
 31
0.0
  0
LINE
  5
16F
330
1F
100
AcDbEntity
  8
0
  6
CONTINUOUS
 62
     7
100
AcDbLine
 10
2.5277384656
 20
7.4396936743
 30
0.0
 11
2.5250197169
 21
7.4369749257
 31
0.0
  0
LINE
  5
170
330
1F
100
AcDbEntity
  8
0
  6
CONTINUOUS
 62
     7
100
AcDbLine
 10
4.2612030325
 20
5.9042606035
 30
0.0
 11
4.2612030325
 21
7.4396936743
 31
0.0
  0
LINE
  5
171
330
1F
100
AcDbEntity
  8
0
  6
CONTINUOUS
 62
     7
100
AcDbLine
 10
2.3920691743
 20
7.4396936743
 30
0.0
 11
2.3920691743
 21
5.9042606035
 31
0.0
  0
SPLINE
  5
172
330
1F
100
AcDbEntity
  8
0
  6
CONTINUOUS
 62
     7
100
AcDbSpline
210
0.0
220
0.0
230
1.0
 70
     8
 71
     3
 72
    29
 73
    25
 74
     0
 42
0.00000001
 43
0.00000001
 40
-0.15713835649848
 40
-0.1260613612896084
 40
-0.0631673630134331
 40
0.0
 40
0.0633023602787567
 40
0.1262276593336203
 40
0.1684518235531778
 40
0.2086660491148556
 40
0.2500651379023528
 40
0.2805421373724742
 40
0.3116364844367434
 40
0.3427388654848037
 40
0.3737946932179061
 40
0.4367595776968927
 40
0.5001583974319951
 40
0.563337460048075
 40
0.6262459080816639
 40
0.6685314124610273
 40
0.7087669916102476
 40
0.7501412804592513
 40
0.7806377318305712
 40
0.8117581114454415
 40
0.8428616435015199
 40
0.8739386387103915
 40
0.9368326369865668
 40
0.9999999999999999
 40
1.063302360278757
 40
1.12622765933362
 40
1.168451823553178
 10
2.494573514280952
 20
6.610989326539693
 30
0.0
 10
2.484250492123615
 20
6.672013262424593
 30
0.0
 10
2.49466935016063
 20
6.733091589982023
 30
0.0
 10
2.525462766235725
 20
6.778675611338313
 30
0.0
 10
2.561461781237913
 20
6.808240163531411
 30
0.0
 10
2.598234516474605
 20
6.823984290106981
 30
0.0
 10
2.634206522117976
 20
6.828390500385618
 30
0.0
 10
2.667137811670076
 20
6.825141725189957
 30
0.0
 10
2.695450530211973
 20
6.816012992589402
 30
0.0
 10
2.721672596955148
 20
6.801704684443793
 30
0.0
 10
2.75201873854935
 20
6.775762076962754
 30
0.0
 10
2.780688737205482
 20
6.732956295813518
 30
0.0
 10
2.791070571617256
 20
6.671891733216088
 30
0.0
 10
2.780703463176649
 20
6.610762311938734
 30
0.0
 10
2.749830648006054
 20
6.565248868262134
 30
0.0
 10
2.713791725672163
 20
6.535708791699459
 30
0.0
 10
2.677001421632059
 20
6.519960908495024
 30
0.0
 10
2.641022568772275
 20
6.515559536339559
 30
0.0
 10
2.608085873496198
 20
6.518830860986915
 30
0.0
 10
2.579767387030981
 20
6.527990792027316
 30
0.0
 10
2.553546693370668
 20
6.542333023193667
 30
0.0
 10
2.523230853894819
 20
6.568282176590111
 30
0.0
 10
2.494573514280952
 20
6.610989326539693
 30
0.0
 10
2.484250492123615
 20
6.672013262424593
 30
0.0
 10
2.49466935016063
 20
6.733091589982023
 30
0.0
  0
SPLINE
  5
173
330
1F
100
AcDbEntity
  8
0
  6
CONTINUOUS
 62
     7
100
AcDbSpline
210
0.0
220
0.0
230
1.0
 70
     8
 71
     3
 72
    29
 73
    25
 74
     0
 42
0.00000001
 43
0.00000001
 40
-0.1571383564983549
 40
-0.1260613612896092
 40
-0.0631673630134338
 40
0.0
 40
0.0633023602787891
 40
0.1262276593336262
 40
0.1684518235532059
 40
0.2086660491148847
 40
0.2500651379023541
 40
0.2805421373723891
 40
0.3116364844367411
 40
0.3427388654847709
 40
0.37379469321791
 40
0.4367595776969527
 40
0.5001583974319911
 40
0.5633374600480713
 40
0.6262459080816606
 40
0.6685314124610245
 40
0.7087669916102446
 40
0.7501412804592488
 40
0.7806377318306906
 40
0.811758111445445
 40
0.842861643501645
 40
0.8739386387103908
 40
0.9368326369865662
 40
1.0
 40
1.063302360278789
 40
1.126227659333626
 40
1.168451823553206
 10
3.872526270186468
 20
6.6109893265397
 30
0.0
 10
3.862203248029129
 20
6.6720132624246
 30
0.0
 10
3.872622106066129
 20
6.733091589982039
 30
0.0
 10
3.903415522141246
 20
6.77867561133833
 30
0.0
 10
3.939414537143448
 20
6.808240163531406
 30
0.0
 10
3.976187272380135
 20
6.823984290106976
 30
0.0
 10
4.01215927802347
 20
6.828390500385625
 30
0.0
 10
4.045090567575556
 20
6.825141725189936
 30
0.0
 10
4.073403286117448
 20
6.816012992589414
 30
0.0
 10
4.099625352860676
 20
6.801704684443834
 30
0.0
 10
4.129971494454857
 20
6.775762076962735
 30
0.0
 10
4.15864149311097
 20
6.73295629581349
 30
0.0
 10
4.169023327522773
 20
6.671891733216069
 30
0.0
 10
4.158656219082159
 20
6.610762311938734
 30
0.0
 10
4.127783403911566
 20
6.565248868262134
 30
0.0
 10
4.091744481577676
 20
6.53570879169946
 30
0.0
 10
4.054954177537571
 20
6.519960908495021
 30
0.0
 10
4.01897532467775
 20
6.515559536339569
 30
0.0
 10
3.986038629401665
 20
6.518830860986887
 30
0.0
 10
3.957720142936422
 20
6.527990792027348
 30
0.0
 10
3.93149944927617
 20
6.54233302319372
 30
0.0
 10
3.901183609800296
 20
6.568282176590129
 30
0.0
 10
3.872526270186468
 20
6.6109893265397
 30
0.0
 10
3.862203248029129
 20
6.6720132624246
 30
0.0
 10
3.872622106066129
 20
6.733091589982039
 30
0.0
  0
SPLINE
  5
174
330
1F
100
AcDbEntity
  8
0
  6
CONTINUOUS
 62
     7
100
AcDbSpline
210
0.0
220
0.0
230
1.0
 70
     8
 71
     3
 72
    26
 73
    22
 74
     0
 42
0.00000001
 43
0.00000001
 40
0.0
 40
0.0
 40
0.0
 40
0.0
 40
0.0145817122982392
 40
0.0685685008249585
 40
0.1207095414003235
 40
0.1743370402695499
 40
0.2269583930146491
 40
0.2810736169111422
 40
0.3342372700621612
 40
0.3889541848961179
 40
0.4418742954598241
 40
0.4963686206721757
 40
0.548621975863286
 40
0.6023957795590298
 40
0.6546058616015935
 40
0.7082946336833368
 40
0.7611435080400374
 40
0.8155037018207718
 40
0.8686860901598179
 40
0.9234373526305959
 40
0.9999999999999999
 40
0.9999999999999999
 40
0.9999999999999999
 40
0.9999999999999999
 10
4.145178896015013
 20
7.4396337817273
 30
0.0
 10
4.14528283420609
 20
7.439651322619429
 30
0.0
 10
4.145771589284701
 20
7.439733806257268
 30
0.0
 10
4.142998554833531
 20
7.439264105651461
 30
0.0
 10
4.136811864077239
 20
7.438253105013667
 30
0.0
 10
4.127083341607214
 20
7.436760135276892
 30
0.0
 10
4.114213581396609
 20
7.434974618436615
 30
0.0
 10
4.098609878389674
 20
7.433096824879713
 30
0.0
 10
4.080446442022993
 20
7.431313300749842
 30
0.0
 10
4.060543471914522
 20
7.429859071019854
 30
0.0
 10
4.039173142886951
 20
7.42888377535027
 30
0.0
 10
4.017432867268413
 20
7.428516717823567
 30
0.0
 10
3.99553784616791
 20
7.428784825627385
 30
0.0
 10
3.974514536037739
 20
7.429642625816659
 30
0.0
 10
3.954478629460335
 20
7.431005921978571
 30
0.0
 10
3.936255324885387
 20
7.432706048313582
 30
0.0
 10
3.920031344235789
 20
7.434585459884983
 30
0.0
 10
3.906512955420224
 20
7.436415192252011
 30
0.0
 10
3.896027057619238
 20
7.437994939730378
 30
0.0
 10
3.887635011254495
 20
7.439359725465787
 30
0.0
 10
3.886407135265589
 20
7.439570678226384
 30
0.0
 10
3.885691221494789
 20
7.439693674349496
 30
0.0
  0
SPLINE
  5
175
330
1F
100
AcDbEntity
  8
0
  6
CONTINUOUS
 62
     7
100
AcDbSpline
210
0.0
220
0.0
230
1.0
 70
     8
 71
     3
 72
    26
 73
    22
 74
     0
 42
0.00000001
 43
0.00000001
 40
0.0
 40
0.0
 40
0.0
 40
0.0
 40
0.0145817122982392
 40
0.0685685008249584
 40
0.1207095414003234
 40
0.1743370402695499
 40
0.2269583930146491
 40
0.2810736169111423
 40
0.3342372700621612
 40
0.388954184896118
 40
0.4418742954598242
 40
0.4963686206721759
 40
0.5486219758632862
 40
0.60239577955903
 40
0.6546058616015936
 40
0.708294633683337
 40
0.7611435080400376
 40
0.8155037018207718
 40
0.8686860901598179
 40
0.9234373526305959
 40
0.9999999999999999
 40
0.9999999999999999
 40
0.9999999999999999
 40
0.9999999999999999
 10
2.7672261401095
 20
7.4396337817273
 30
0.0
 10
2.767330078300578
 20
7.439651322619429
 30
0.0
 10
2.767818833379189
 20
7.439733806257268
 30
0.0
 10
2.765045798928018
 20
7.439264105651461
 30
0.0
 10
2.758859108171726
 20
7.438253105013667
 30
0.0
 10
2.749130585701701
 20
7.436760135276892
 30
0.0
 10
2.736260825491097
 20
7.434974618436615
 30
0.0
 10
2.720657122484163
 20
7.433096824879713
 30
0.0
 10
2.70249368611748
 20
7.431313300749842
 30
0.0
 10
2.682590716009009
 20
7.429859071019854
 30
0.0
 10
2.661220386981439
 20
7.42888377535027
 30
0.0
 10
2.639480111362901
 20
7.428516717823567
 30
0.0
 10
2.617585090262398
 20
7.428784825627385
 30
0.0
 10
2.596561780132227
 20
7.429642625816659
 30
0.0
 10
2.576525873554823
 20
7.431005921978571
 30
0.0
 10
2.558302568979875
 20
7.432706048313582
 30
0.0
 10
2.542078588330277
 20
7.434585459884983
 30
0.0
 10
2.528560199514713
 20
7.436415192252012
 30
0.0
 10
2.518074301713725
 20
7.437994939730378
 30
0.0
 10
2.509682255348983
 20
7.439359725465788
 30
0.0
 10
2.508454379360076
 20
7.439570678226384
 30
0.0
 10
2.507738465589277
 20
7.439693674349496
 30
0.0
  0
LINE
  5
176
330
1F
100
AcDbEntity
  8
0
  6
CONTINUOUS
 62
     7
100
AcDbLine
 10
2.5077384656
 20
6.6719771389
 30
0.0
 11
2.5082565741
 21
6.6655354751
 31
0.0
  0
SPLINE
  5
177
330
1F
100
AcDbEntity
  8
0
  6
CONTINUOUS
 62
     7
100
AcDbSpline
210
0.0
220
0.0
230
1.0
 70
     8
 71
     3
 72
     9
 73
     5
 74
     0
 42
0.00000001
 43
0.00000001
 40
0.0
 40
0.0
 40
0.0
 40
0.0
 40
0.7459765591565141
 40
1.0
 40
1.0
 40
1.0
 40
1.0
 10
2.76757661833757
 20
6.671888608992359
 30
0.0
 10
2.767466092647317
 20
6.678888041961918
 30
0.0
 10
2.767317930230018
 20
6.688270954713861
 30
0.0
 10
2.764797739304264
 20
6.697235637719784
 30
0.0
 10
2.764157551733721
 20
6.69951287734302
 30
0.0
  0
SPLINE
  5
178
330
1F
100
AcDbEntity
  8
0
  6
CONTINUOUS
 62
     7
100
AcDbSpline
210
0.0
220
0.0
230
1.0
 70
     8
 71
     3
 72
     9
 73
     5
 74
     0
 42
0.00000001
 43
0.00000001
 40
0.0
 40
0.0
 40
0.0
 40
0.0
 40
0.043315167966015
 40
1.0
 40
1.0
 40
1.0
 40
1.0
 10
2.509643365496753
 20
6.693649584680813
 30
0.0
 10
2.509563732099633
 20
6.693345900827937
 30
0.0
 10
2.507725267634206
 20
6.686334872886985
 30
0.0
 10
2.507732012693428
 20
6.678997087191762
 30
0.0
 10
2.507738465589277
 20
6.671977138916426
 30
0.0
  0
SPLINE
  5
179
330
1F
100
AcDbEntity
  8
0
  6
CONTINUOUS
 62
     7
100
AcDbSpline
210
0.0
220
0.0
230
1.0
 70
     8
 71
     3
 72
    32
 73
    28
 74
     0
 42
0.00000001
 43
0.00000001
 40
-0.0882025977820298
 40
-0.0549300487097093
 40
-0.0255379498233352
 40
0.0
 40
0.054706781541204
 40
0.1245727448970935
 40
0.1620183192183738
 40
0.1953755182115773
 40
0.2246596052892882
 40
0.2498963777163307
 40
0.3042464317395403
 40
0.3745904066510219
 40
0.4117293531767087
 40
0.4449695379780816
 40
0.474327123656707
 40
0.4998283425136317
 40
0.554674222012948
 40
0.6247198303141263
 40
0.6621231987911826
 40
0.6954545876735638
 40
0.7247293638545481
 40
0.7499734047613252
 40
0.7500005177601514
 40
0.8043289747114136
 40
0.8746281792688964
 40
0.9117974022179702
 40
0.9450699512902907
 40
0.9744620501766648
 40
1.0
 40
1.054706781541204
 40
1.124572744897093
 40
1.162018319218374
 10
3.886895124066232
 20
6.693871663993214
 30
0.0
 10
3.8844888026083
 20
6.664055770011276
 30
0.0
 10
3.891578066385532
 20
6.623027256550645
 30
0.0
 10
3.915928591629598
 20
6.584753606353424
 30
0.0
 10
3.945978561532467
 20
6.561037717237758
 30
0.0
 10
3.970593279379151
 20
6.549208429166634
 30
0.0
 10
3.993824968870785
 20
6.543251221913285
 30
0.0
 10
4.023430671966914
 20
6.540870547702289
 30
0.0
 10
4.064407822072422
 20
6.54787296337812
 30
0.0
 10
4.102692766589704
 20
6.572152851955903
 30
0.0
 10
4.126440077896005
 20
6.602189752608838
 30
0.0
 10
4.138282450711362
 20
6.626692657060514
 30
0.0
 10
4.144309065136314
 20
6.649971006769136
 30
0.0
 10
4.14674616261874
 20
6.679802397041668
 30
0.0
 10
4.139670387233855
 20
6.720917472184722
 30
0.0
 10
4.115258465683358
 20
6.759254596751382
 30
0.0
 10
4.085167209963751
 20
6.782964281997458
 30
0.0
 10
4.060561523133306
 20
6.794769455481606
 30
0.0
 10
4.037343502706514
 20
6.800714561998864
 30
0.0
 10
4.022489907755832
 20
6.801897812757914
 30
0.0
 10
4.00085046238341
 20
6.801899658575298
 30
0.0
 10
3.966740769365359
 20
6.796051848731567
 30
0.0
 10
3.928495464607033
 20
6.771766181697946
 30
0.0
 10
3.904751778238652
 20
6.741716174022207
 30
0.0
 10
3.892911474311749
 20
6.717182441212106
 30
0.0
 10
3.886895124066232
 20
6.693871663993214
 30
0.0
 10
3.8844888026083
 20
6.664055770011276
 30
0.0
 10
3.891578066385532
 20
6.623027256550645
 30
0.0
  0
LINE
  5
17A
330
1F
100
AcDbEntity
  8
0
  6
CONTINUOUS
 62
     7
100
AcDbLine
 10
2.3620691743
 20
5.9342606035
 30
0.0
 11
2.3620691743
 21
7.4096936743
 31
0.0
  0
LINE
  5
17B
330
1F
100
AcDbEntity
  8
0
  6
CONTINUOUS
 62
     7
100
AcDbLine
 10
4.2912030325
 20
7.4096936743
 30
0.0
 11
4.2912030325
 21
5.9342606035
 31
0.0
  0
LINE
  5
17C
330
1F
100
AcDbEntity
  8
0
  6
CONTINUOUS
 62
     7
100
AcDbLine
 10
3.9056912215
 20
7.4396936743
 30
0.0
 11
4.1255337412
 21
7.4396936743
 31
0.0
  0
LINE
  5
17D
330
1F
100
AcDbEntity
  8
0
  6
CONTINUOUS
 62
     7
100
AcDbLine
 10
2.7475809853
 20
7.4396936743
 30
0.0
 11
2.5277384656
 21
7.4396936743
 31
0.0
  0
CIRCLE
  5
17E
330
1F
100
AcDbEntity
  8
0
  6
CONTINUOUS
 62
     7
100
AcDbCircle
 10
2.6376597254
 20
6.6719771389
 30
0.0
 40
0.109921259842519
  0
LINE
  5
17F
330
1F
100
AcDbEntity
  8
0
  6
CONTINUOUS
 62
     7
100
AcDbLine
 10
2.5596940046
 20
6.626963609
 30
0.0
 11
2.5596940046
 21
6.7169906689
 31
0.0
  0
LINE
  5
180
330
1F
100
AcDbEntity
  8
0
  6
CONTINUOUS
 62
     7
100
AcDbLine
 10
2.6376597254
 20
6.581950079
 30
0.0
 11
2.5596940046
 21
6.626963609
 31
0.0
  0
LINE
  5
181
330
1F
100
AcDbEntity
  8
0
  6
CONTINUOUS
 62
     7
100
AcDbLine
 10
2.7156254463
 20
6.626963609
 30
0.0
 11
2.6376597254
 21
6.581950079
 31
0.0
  0
LINE
  5
182
330
1F
100
AcDbEntity
  8
0
  6
CONTINUOUS
 62
     7
100
AcDbLine
 10
2.7156254463
 20
6.7169906689
 30
0.0
 11
2.7156254463
 21
6.626963609
 31
0.0
  0
LINE
  5
183
330
1F
100
AcDbEntity
  8
0
  6
CONTINUOUS
 62
     7
100
AcDbLine
 10
2.6376597254
 20
6.7620041988
 30
0.0
 11
2.7156254463
 21
6.7169906689
 31
0.0
  0
LINE
  5
184
330
1F
100
AcDbEntity
  8
0
  6
CONTINUOUS
 62
     7
100
AcDbLine
 10
2.5596940046
 20
6.7169906689
 30
0.0
 11
2.6376597254
 21
6.7620041988
 31
0.0
  0
CIRCLE
  5
185
330
1F
100
AcDbEntity
  8
0
  6
CONTINUOUS
 62
     7
100
AcDbCircle
 10
2.6376597254
 20
6.6719771389
 30
0.0
 40
0.1299212598425195
  0
CIRCLE
  5
186
330
1F
100
AcDbEntity
  8
0
  6
CONTINUOUS
 62
     7
100
AcDbCircle
 10
4.0156124813
 20
6.6719771389
 30
0.0
 40
0.1099212598425194
  0
LINE
  5
187
330
1F
100
AcDbEntity
  8
0
  6
CONTINUOUS
 62
     7
100
AcDbLine
 10
4.0156124813
 20
6.7620041988
 30
0.0
 11
3.9376467605
 21
6.7169906689
 31
0.0
  0
LINE
  5
188
330
1F
100
AcDbEntity
  8
0
  6
CONTINUOUS
 62
     7
100
AcDbLine
 10
3.9376467605
 20
6.7169906689
 30
0.0
 11
3.9376467605
 21
6.626963609
 31
0.0
  0
LINE
  5
189
330
1F
100
AcDbEntity
  8
0
  6
CONTINUOUS
 62
     7
100
AcDbLine
 10
3.9376467605
 20
6.626963609
 30
0.0
 11
4.0156124813
 21
6.581950079
 31
0.0
  0
LINE
  5
18A
330
1F
100
AcDbEntity
  8
0
  6
CONTINUOUS
 62
     7
100
AcDbLine
 10
4.0156124813
 20
6.581950079
 30
0.0
 11
4.0935782022
 21
6.626963609
 31
0.0
  0
LINE
  5
18B
330
1F
100
AcDbEntity
  8
0
  6
CONTINUOUS
 62
     7
100
AcDbLine
 10
4.0935782022
 20
6.626963609
 30
0.0
 11
4.0935782022
 21
6.7169906689
 31
0.0
  0
LINE
  5
18C
330
1F
100
AcDbEntity
  8
0
  6
CONTINUOUS
 62
     7
100
AcDbLine
 10
4.0935782022
 20
6.7169906689
 30
0.0
 11
4.0156124813
 21
6.7620041988
 31
0.0
  0
CIRCLE
  5
18D
330
1F
100
AcDbEntity
  8
0
  6
CONTINUOUS
 62
     7
100
AcDbCircle
 10
4.0156124813
 20
6.6719771389
 30
0.0
 40
0.1299212598425199
  0
SPLINE
  5
18E
330
1F
100
AcDbEntity
  8
0
  6
HIDDEN
 62
     7
100
AcDbSpline
210
0.0
220
0.0
230
1.0
 70
     8
 71
     3
 72
    24
 73
    20
 74
     0
 42
0.00000001
 43
0.00000001
 40
0.0
 40
0.0
 40
0.0
 40
0.0
 40
0.0357305114551552
 40
0.0952724658005006
 40
0.1626102552622871
 40
0.2377771174270461
 40
0.3136940748060955
 40
0.3813222818816603
 40
0.4406926836148904
 40
0.4918575812427048
 40
0.543076290611773
 40
0.6024678347668375
 40
0.6700848926509735
 40
0.7459587692362132
 40
0.8212540710624912
 40
0.8886450441912863
 40
0.9481644565946807
 40
0.9998654914997026
 40
0.9999999999999999
 40
0.9999999999999999
 40
0.9999999999999999
 40
0.9999999999999999
 10
2.508256574087794
 20
6.66553547511776
 30
0.0
 10
2.508511019304724
 20
6.660743430175383
 30
0.0
 10
2.509189476517923
 20
6.64796583704017
 30
0.0
 10
2.515064357312302
 20
6.626797569865545
 30
0.0
 10
2.526723360036104
 20
6.602298140924494
 30
0.0
 10
2.544975120367914
 20
6.579268328208507
 30
0.0
 10
2.568026776421645
 20
6.561027413261727
 30
0.0
 10
2.592641327929002
 20
6.54921097225358
 30
0.0
 10
2.615868925035521
 20
6.543249877204586
 30
0.0
 10
2.63757887312313
 20
6.541509440580302
 30
0.0
 10
2.659293951118403
 20
6.543222618285125
 30
0.0
 10
2.682538351362913
 20
6.549159279689445
 30
0.0
 10
2.707157173972144
 20
6.560946223311911
 30
0.0
 10
2.730261459628637
 20
6.57916507215639
 30
0.0
 10
2.748466831572409
 20
6.602191248317389
 30
0.0
 10
2.760423352707262
 20
6.62669830286784
 30
0.0
 10
2.766061154096613
 20
6.649951332845516
 30
0.0
 10
2.768130292035516
 20
6.664943696380739
 30
0.0
 10
2.767578051351701
 20
6.671870634221394
 30
0.0
 10
2.76757661833757
 20
6.671888608992359
 30
0.0
  0
SPLINE
  5
18F
330
1F
100
AcDbEntity
  8
0
  6
HIDDEN
 62
     7
100
AcDbSpline
210
0.0
220
0.0
230
1.0
 70
     8
 71
     3
 72
    25
 73
    21
 74
     0
 42
0.00000001
 43
0.00000001
 40
0.0
 40
0.0
 40
0.0
 40
0.0
 40
0.0470884388925273
 40
0.1226777161861345
 40
0.2070568378139899
 40
0.2919602621948416
 40
0.3676205348043097
 40
0.4020340063507998
 40
0.4341444507517531
 40
0.4639610080310339
 40
0.4914952030046253
 40
0.5190000671888235
 40
0.5488270519373701
 40
0.5809460139766393
 40
0.6153660671526799
 40
0.6910335929786992
 40
0.7759363767403864
 40
0.8603370771906987
 40
0.9358875561323204
 40
1.0
 40
1.0
 40
1.0
 40
1.0
 10
2.764157551733721
 20
6.69951287734302
 30
0.0
 10
2.762923569878335
 20
6.705020082252652
 30
0.0
 10
2.759708723954491
 20
6.719367793427039
 30
0.0
 10
2.748411262239049
 20
6.741664599166325
 30
0.0
 10
2.730330614972592
 20
6.764757738806781
 30
0.0
 10
2.707205215725903
 20
6.782971247772397
 30
0.0
 10
2.686073881217564
 20
6.793105529415332
 30
0.0
 10
2.669797762368181
 20
6.798049142892542
 30
0.0
 10
2.658496794088981
 20
6.80037748423037
 30
0.0
 10
2.647850366534749
 20
6.801634845050656
 30
0.0
 10
2.637685369248684
 20
6.802023962610144
 30
0.0
 10
2.627519012609532
 20
6.80163867282819
 30
0.0
 10
2.616873317699232
 20
6.800385786695164
 30
0.0
 10
2.605568367142721
 20
6.798061156224977
 30
0.0
 10
2.58928829286347
 20
6.793122457833269
 30
0.0
 10
2.568147895440396
 20
6.782995917487349
 30
0.0
 10
2.545032095711506
 20
6.764781585729263
 30
0.0
 10
2.526878184028986
 20
6.741717372487685
 30
0.0
 10
2.514860839777373
 20
6.717523131981683
 30
0.0
 10
2.511284903590401
 20
6.70116075487871
 30
0.0
 10
2.509643365496753
 20
6.693649584680813
 30
0.0
  0
LINE
  5
190
330
1F
100
AcDbEntity
  8
0
  6
HIDDEN
 62
     7
100
AcDbLine
 10
3.4266361034
 20
6.8988275326
 30
0.0
 11
3.4266361034
 21
6.4451267452
 31
0.0
  0
LINE
  5
191
330
1F
100
AcDbEntity
  8
0
  6
HIDDEN
 62
     7
100
AcDbLine
 10
3.2266361034
 20
6.8988275326
 30
0.0
 11
3.2266361034
 21
6.4451267452
 31
0.0
  0
SPLINE
  5
192
330
1F
100
AcDbEntity
  8
0
  6
HIDDEN
 62
     7
100
AcDbSpline
210
0.0
220
0.0
230
1.0
 70
     8
 71
     3
 72
    29
 73
    25
 74
     0
 42
0.00000001
 43
0.00000001
 40
0.0
 40
0.0
 40
0.0
 40
0.0
 40
0.0457316405366513
 40
0.0929393164932703
 40
0.1386389378994483
 40
0.1854802321647782
 40
0.2351370501328937
 40
0.2858821536611749
 40
0.3429136311452639
 40
0.401739554615961
 40
0.4425901606614341
 40
0.4845446858222507
 40
0.5254358851242519
 40
0.5676305850664708
 40
0.6071197885130474
 40
0.6474158955163081
 40
0.6948953221858345
 40
0.7433229199005057
 40
0.8003304415271622
 40
0.8590852717322919
 40
0.9048812997364212
 40
0.9519452286511684
 40
0.9977791277638846
 40
1.0
 40
1.0
 40
1.0
 40
1.0
 10
3.88569122149479
 20
6.868827532617214
 30
0.0
 10
3.88596950780396
 20
6.868643301168351
 30
0.0
 10
3.886535062397238
 20
6.868268892012394
 30
0.0
 10
3.891037214837429
 20
6.865324276884738
 30
0.0
 10
3.89801287377015
 20
6.860887261787664
 30
0.0
 10
3.907555295777414
 20
6.855066960882631
 30
0.0
 10
3.91968268909218
 20
6.848133026102791
 30
0.0
 10
3.93487663953126
 20
6.840259218293732
 30
0.0
 10
3.953251700539426
 20
6.832111171487186
 30
0.0
 10
3.972694990248813
 20
6.825576072853672
 30
0.0
 10
3.991642792641496
 20
6.821478865896625
 30
0.0
 10
4.008911497343296
 20
6.819668491748905
 30
0.0
 10
4.02658113849563
 20
6.819925532267437
 30
0.0
 10
4.043559655797733
 20
6.822186429194116
 30
0.0
 10
4.059666445696761
 20
6.826052742415608
 30
0.0
 10
4.075427913488155
 20
6.831278931044263
 30
0.0
 10
4.090923293051109
 20
6.837744333468161
 30
0.0
 10
4.106491452090747
 20
6.845395304118063
 30
0.0
 10
4.120896236159775
 20
6.85339934634331
 30
0.0
 10
4.1321772531284
 20
6.860233594283346
 30
0.0
 10
4.139997887439383
 20
6.865202651390039
 30
0.0
 10
4.144194055451007
 20
6.867941814780813
 30
0.0
 10
4.145979304661014
 20
6.869120736944519
 30
0.0
 10
4.145487929977153
 20
6.868797384134277
 30
0.0
 10
4.14546522088163
 20
6.868782440242993
 30
0.0
  0
SPLINE
  5
193
330
1F
100
AcDbEntity
  8
0
  6
HIDDEN
 62
     7
100
AcDbSpline
210
0.0
220
0.0
230
1.0
 70
     8
 71
     3
 72
    29
 73
    25
 74
     0
 42
0.00000001
 43
0.00000001
 40
0.0
 40
0.0
 40
0.0
 40
0.0
 40
0.0457316405366513
 40
0.0929393164932704
 40
0.1386389378994482
 40
0.1854802321647782
 40
0.2351370501328935
 40
0.2858821536611746
 40
0.3429136311452637
 40
0.4017395546159609
 40
0.4425901606614341
 40
0.4845446858222507
 40
0.5254358851242517
 40
0.5676305850664705
 40
0.607119788513047
 40
0.6474158955163081
 40
0.6948953221858346
 40
0.7433229199005055
 40
0.8003304415271615
 40
0.8590852717322914
 40
0.9048812997364206
 40
0.9519452286511677
 40
0.997779127763884
 40
1.0
 40
1.0
 40
1.0
 40
1.0
 10
2.507738465589277
 20
6.868827532617214
 30
0.0
 10
2.508016751898447
 20
6.868643301168351
 30
0.0
 10
2.508582306491726
 20
6.868268892012394
 30
0.0
 10
2.513084458931917
 20
6.865324276884738
 30
0.0
 10
2.520060117864638
 20
6.860887261787664
 30
0.0
 10
2.529602539871902
 20
6.855066960882631
 30
0.0
 10
2.541729933186667
 20
6.848133026102791
 30
0.0
 10
2.556923883625748
 20
6.840259218293733
 30
0.0
 10
2.575298944633913
 20
6.832111171487186
 30
0.0
 10
2.594742234343301
 20
6.825576072853672
 30
0.0
 10
2.613690036735984
 20
6.821478865896625
 30
0.0
 10
2.630958741437784
 20
6.819668491748905
 30
0.0
 10
2.648628382590118
 20
6.819925532267437
 30
0.0
 10
2.665606899892221
 20
6.822186429194117
 30
0.0
 10
2.681713689791249
 20
6.826052742415608
 30
0.0
 10
2.697475157582643
 20
6.831278931044263
 30
0.0
 10
2.712970537145596
 20
6.837744333468161
 30
0.0
 10
2.728538696185235
 20
6.845395304118063
 30
0.0
 10
2.742943480254262
 20
6.85339934634331
 30
0.0
 10
2.754224497222888
 20
6.860233594283346
 30
0.0
 10
2.762045131533871
 20
6.865202651390039
 30
0.0
 10
2.766241299545495
 20
6.867941814780813
 30
0.0
 10
2.7680265487555
 20
6.869120736944519
 30
0.0
 10
2.767535174071641
 20
6.868797384134277
 30
0.0
 10
2.767512464976118
 20
6.868782440242993
 30
0.0
  0
LINE
  5
194
330
1F
100
AcDbEntity
  8
0
  6
HIDDEN
 62
     7
100
AcDbLine
 10
4.1455337412
 20
7.4196936743
 30
0.0
 11
3.8856912215
 21
7.4196936743
 31
0.0
  0
LINE
  5
195
330
1F
100
AcDbEntity
  8
0
  6
HIDDEN
 62
     7
100
AcDbLine
 10
3.8856912215
 20
6.8888275326
 30
0.0
 11
4.1455337412
 21
6.8888275326
 31
0.0
  0
LINE
  5
196
330
1F
100
AcDbEntity
  8
0
  6
HIDDEN
 62
     7
100
AcDbLine
 10
4.1255337412
 20
6.8688275326
 30
0.0
 11
3.9056912215
 21
6.8688275326
 31
0.0
  0
LINE
  5
197
330
1F
100
AcDbEntity
  8
0
  6
HIDDEN
 62
     7
100
AcDbLine
 10
4.0156124813
 20
7.3396936743
 30
0.0
 11
4.0156124813
 21
7.4396936743
 31
0.0
  0
LINE
  5
198
330
1F
100
AcDbEntity
  8
0
  6
HIDDEN
 62
     7
100
AcDbLine
 10
3.9376467605
 20
7.3396936743
 30
0.0
 11
4.0156124813
 21
7.3396936743
 31
0.0
  0
LINE
  5
199
330
1F
100
AcDbEntity
  8
0
  6
HIDDEN
 62
     7
100
AcDbLine
 10
4.0156124813
 20
7.3396936743
 30
0.0
 11
4.0935782022
 21
7.3396936743
 31
0.0
  0
LINE
  5
19A
330
1F
100
AcDbEntity
  8
0
  6
HIDDEN
 62
     7
100
AcDbLine
 10
4.0935782022
 20
7.3396936743
 30
0.0
 11
4.0935782022
 21
7.4396936743
 31
0.0
  0
LINE
  5
19B
330
1F
100
AcDbEntity
  8
0
  6
HIDDEN
 62
     7
100
AcDbLine
 10
3.9376467605
 20
7.3396936743
 30
0.0
 11
3.9376467605
 21
7.4396936743
 31
0.0
  0
LINE
  5
19C
330
1F
100
AcDbEntity
  8
0
  6
HIDDEN
 62
     7
100
AcDbLine
 10
2.5077384656
 20
7.4196936743
 30
0.0
 11
2.7675809853
 21
7.4196936743
 31
0.0
  0
LINE
  5
19D
330
1F
100
AcDbEntity
  8
0
  6
HIDDEN
 62
     7
100
AcDbLine
 10
2.7675809853
 20
6.8888275326
 30
0.0
 11
2.5077384656
 21
6.8888275326
 31
0.0
  0
LINE
  5
19E
330
1F
100
AcDbEntity
  8
0
  6
HIDDEN
 62
     7
100
AcDbLine
 10
2.5277384656
 20
6.8688275326
 30
0.0
 11
2.7475809853
 21
6.8688275326
 31
0.0
  0
LINE
  5
19F
330
1F
100
AcDbEntity
  8
0
  6
HIDDEN
 62
     7
100
AcDbLine
 10
2.6376597254
 20
7.3396936743
 30
0.0
 11
2.6376597254
 21
7.4396936743
 31
0.0
  0
LINE
  5
1A0
330
1F
100
AcDbEntity
  8
0
  6
HIDDEN
 62
     7
100
AcDbLine
 10
2.6376597254
 20
7.3396936743
 30
0.0
 11
2.5596940046
 21
7.3396936743
 31
0.0
  0
LINE
  5
1A1
330
1F
100
AcDbEntity
  8
0
  6
HIDDEN
 62
     7
100
AcDbLine
 10
2.7156254463
 20
7.3396936743
 30
0.0
 11
2.6376597254
 21
7.3396936743
 31
0.0
  0
LINE
  5
1A2
330
1F
100
AcDbEntity
  8
0
  6
HIDDEN
 62
     7
100
AcDbLine
 10
2.5596940046
 20
7.3396936743
 30
0.0
 11
2.5596940046
 21
7.4396936743
 31
0.0
  0
LINE
  5
1A3
330
1F
100
AcDbEntity
  8
0
  6
HIDDEN
 62
     7
100
AcDbLine
 10
2.7156254463
 20
7.3396936743
 30
0.0
 11
2.7156254463
 21
7.4396936743
 31
0.0
  0
LINE
  5
1A4
330
1F
100
AcDbEntity
  8
0
  6
HIDDEN
 62
     7
100
AcDbLine
 10
4.2912030325
 20
6.8988275326
 30
0.0
 11
4.2612030325
 21
6.8688275326
 31
0.0
  0
LINE
  5
1A5
330
1F
100
AcDbEntity
  8
0
  6
HIDDEN
 62
     7
100
AcDbLine
 10
4.2612030325
 20
6.4751267452
 30
0.0
 11
4.2912030325
 21
6.4451267452
 31
0.0
  0
LINE
  5
1A6
330
1F
100
AcDbEntity
  8
0
  6
HIDDEN
 62
     7
100
AcDbLine
 10
3.4266361034
 20
6.8988275326
 30
0.0
 11
3.2266361034
 21
6.8988275326
 31
0.0
  0
LINE
  5
1A7
330
1F
100
AcDbEntity
  8
0
  6
HIDDEN
 62
     7
100
AcDbLine
 10
3.2266361034
 20
6.4451267452
 30
0.0
 11
3.4266361034
 21
6.4451267452
 31
0.0
  0
LINE
  5
1A8
330
1F
100
AcDbEntity
  8
0
  6
HIDDEN
 62
     7
100
AcDbLine
 10
2.3620691743
 20
6.4451267452
 30
0.0
 11
2.3920691743
 21
6.4751267452
 31
0.0
  0
LINE
  5
1A9
330
1F
100
AcDbEntity
  8
0
  6
HIDDEN
 62
     7
100
AcDbLine
 10
2.3920691743
 20
6.8688275326
 30
0.0
 11
2.3620691743
 21
6.8988275326
 31
0.0
  0
LINE
  5
1AA
330
1F
100
AcDbEntity
  8
0
  6
HIDDEN
 62
     7
100
AcDbLine
 10
3.8856912215
 20
6.8688275326
 30
0.0
 11
3.4266361034
 21
6.8688275326
 31
0.0
  0
LINE
  5
1AB
330
1F
100
AcDbEntity
  8
0
  6
HIDDEN
 62
     7
100
AcDbLine
 10
4.2612030325
 20
6.8688275326
 30
0.0
 11
4.1454652209
 21
6.8688275326
 31
0.0
  0
LINE
  5
1AC
330
1F
100
AcDbEntity
  8
0
  6
HIDDEN
 62
     7
100
AcDbLine
 10
3.4266361034
 20
6.4751267452
 30
0.0
 11
4.2612030325
 21
6.4751267452
 31
0.0
  0
LINE
  5
1AD
330
1F
100
AcDbEntity
  8
0
  6
HIDDEN
 62
     7
100
AcDbLine
 10
2.5077384656
 20
6.8688275326
 30
0.0
 11
2.3920691743
 21
6.8688275326
 31
0.0
  0
LINE
  5
1AE
330
1F
100
AcDbEntity
  8
0
  6
HIDDEN
 62
     7
100
AcDbLine
 10
3.2266361034
 20
6.8688275326
 30
0.0
 11
2.767512465
 21
6.8688275326
 31
0.0
  0
LINE
  5
1AF
330
1F
100
AcDbEntity
  8
0
  6
HIDDEN
 62
     7
100
AcDbLine
 10
2.3920691743
 20
6.4751267452
 30
0.0
 11
3.2266361034
 21
6.4751267452
 31
0.0
  0
LINE
  5
1B0
330
1F
100
AcDbEntity
  8
0
  6
HIDDEN
 62
     7
100
AcDbLine
 10
4.1455337412
 20
6.8687825641
 30
0.0
 11
4.1455337412
 21
7.4396936743
 31
0.0
  0
LINE
  5
1B1
330
1F
100
AcDbEntity
  8
0
  6
HIDDEN
 62
     7
100
AcDbLine
 10
3.8856912215
 20
7.4396936743
 30
0.0
 11
3.8856912215
 21
6.8688275326
 31
0.0
  0
LINE
  5
1B2
330
1F
100
AcDbEntity
  8
0
  6
HIDDEN
 62
     7
100
AcDbLine
 10
2.7675809853
 20
6.8687825641
 30
0.0
 11
2.7675809853
 21
7.4396936743
 31
0.0
  0
LINE
  5
1B3
330
1F
100
AcDbEntity
  8
0
  6
HIDDEN
 62
     7
100
AcDbLine
 10
2.5077384656
 20
7.4396936743
 30
0.0
 11
2.5077384656
 21
6.8688275326
 31
0.0
  0
LINE
  5
1B4
330
1F
100
AcDbEntity
  8
0
  6
HIDDEN
 62
     7
100
AcDbLine
 10
4.1455337412
 20
7.4196936743
 30
0.0
 11
4.1282587537
 21
7.4369686618
 31
0.0
  0
LINE
  5
1B5
330
1F
100
AcDbEntity
  8
0
  6
HIDDEN
 62
     7
100
AcDbLine
 10
3.9029724728
 20
7.4369749257
 30
0.0
 11
3.8856912215
 21
7.4196936743
 31
0.0
  0
LINE
  5
1B6
330
1F
100
AcDbEntity
  8
0
  6
HIDDEN
 62
     7
100
AcDbLine
 10
4.1455337412
 20
6.8888275326
 30
0.0
 11
4.1455337412
 21
7.4196936743
 31
0.0
  0
LINE
  5
1B7
330
1F
100
AcDbEntity
  8
0
  6
HIDDEN
 62
     7
100
AcDbLine
 10
3.8856912215
 20
7.4196936743
 30
0.0
 11
3.8856912215
 21
6.8888275326
 31
0.0
  0
LINE
  5
1B8
330
1F
100
AcDbEntity
  8
0
  6
HIDDEN
 62
     7
100
AcDbLine
 10
3.8856912215
 20
6.8888275326
 30
0.0
 11
3.9056912215
 21
6.8688275326
 31
0.0
  0
LINE
  5
1B9
330
1F
100
AcDbEntity
  8
0
  6
HIDDEN
 62
     7
100
AcDbLine
 10
4.1255337412
 20
6.8688275326
 30
0.0
 11
4.1455337412
 21
6.8888275326
 31
0.0
  0
LINE
  5
1BA
330
1F
100
AcDbEntity
  8
0
  6
HIDDEN
 62
     7
100
AcDbLine
 10
2.7675809853
 20
7.4196936743
 30
0.0
 11
2.7503059978
 21
7.4369686618
 31
0.0
  0
LINE
  5
1BB
330
1F
100
AcDbEntity
  8
0
  6
HIDDEN
 62
     7
100
AcDbLine
 10
2.5250197169
 20
7.4369749257
 30
0.0
 11
2.5077384656
 21
7.4196936743
 31
0.0
  0
LINE
  5
1BC
330
1F
100
AcDbEntity
  8
0
  6
HIDDEN
 62
     7
100
AcDbLine
 10
2.7675809853
 20
6.8888275326
 30
0.0
 11
2.7675809853
 21
7.4196936743
 31
0.0
  0
LINE
  5
1BD
330
1F
100
AcDbEntity
  8
0
  6
HIDDEN
 62
     7
100
AcDbLine
 10
2.5077384656
 20
7.4196936743
 30
0.0
 11
2.5077384656
 21
6.8888275326
 31
0.0
  0
LINE
  5
1BE
330
1F
100
AcDbEntity
  8
0
  6
HIDDEN
 62
     7
100
AcDbLine
 10
2.5077384656
 20
6.8888275326
 30
0.0
 11
2.5277384656
 21
6.8688275326
 31
0.0
  0
LINE
  5
1BF
330
1F
100
AcDbEntity
  8
0
  6
HIDDEN
 62
     7
100
AcDbLine
 10
2.7475809853
 20
6.8688275326
 30
0.0
 11
2.7675809853
 21
6.8888275326
 31
0.0
  0
LINE
  5
1C0
330
1F
100
AcDbEntity
  8
0
  6
CONTINUOUS
 62
     7
100
AcDbLine
 10
8.8344672317
 20
5.8409172998
 30
0.0
 11
8.8556769874
 21
5.8531654118
 31
0.0
  0
LINE
  5
1C1
330
1F
100
AcDbEntity
  8
0
  6
CONTINUOUS
 62
     7
100
AcDbLine
 10
9.3772365703
 20
6.7566310009
 30
0.0
 11
9.3772365703
 21
6.7811232443
 31
0.0
  0
LINE
  5
1C2
330
1F
100
AcDbEntity
  8
0
  6
CONTINUOUS
 62
     7
100
AcDbLine
 10
7.1288747034
 20
6.5658462306
 30
0.0
 11
8.4505519295
 21
5.8028582086
 31
0.0
  0
LINE
  5
1C3
330
1F
100
AcDbEntity
  8
0
  6
CONTINUOUS
 62
     7
100
AcDbLine
 10
9.2182060746
 20
7.1326182729
 30
0.0
 11
7.8965288485
 21
7.8956062949
 31
0.0
  0
LINE
  5
1C4
330
1F
100
AcDbEntity
  8
0
  6
CONTINUOUS
 62
     7
100
AcDbLine
 10
7.5126135463
 20
7.8575472037
 30
0.0
 11
7.4914037906
 21
7.8452990917
 31
0.0
  0
LINE
  5
1C5
330
1F
100
AcDbEntity
  8
0
  6
CONTINUOUS
 62
     7
100
AcDbLine
 10
6.9698442077
 20
6.9418335025
 30
0.0
 11
6.9698442077
 21
6.9173412592
 31
0.0
  0
LINE
  5
1C6
330
1F
100
AcDbEntity
  8
0
  6
CONTINUOUS
 62
     7
100
AcDbLine
 10
8.7999018735
 20
6.5585965281
 30
0.0
 11
8.8140417107
 21
6.55043112
 31
0.0
  0
LINE
  5
1C7
330
1F
100
AcDbEntity
  8
0
  6
CONTINUOUS
 62
     7
100
AcDbLine
 10
7.7782436515
 20
7.7940420369
 30
0.0
 11
7.7640992179
 21
7.8022100988
 31
0.0
  0
LINE
  5
1C8
330
1F
100
AcDbEntity
  8
0
  6
CONTINUOUS
 62
     7
100
AcDbLine
 10
7.6086218222
 20
7.8022100988
 30
0.0
 11
7.5944773887
 21
7.7940420369
 31
0.0
  0
LINE
  5
1C9
330
1F
100
AcDbEntity
  8
0
  6
CONTINUOUS
 62
     7
100
AcDbLine
 10
7.8162817799
 20
7.726718398
 30
0.0
 11
7.8162817799
 21
7.7410162705
 31
0.0
  0
LINE
  5
1CA
330
1F
100
AcDbEntity
  8
0
  6
CONTINUOUS
 62
     7
100
AcDbLine
 10
7.5564392602
 20
7.7410162705
 30
0.0
 11
7.5564392602
 21
7.7255497225
 31
0.0
  0
LINE
  5
1CB
330
1F
100
AcDbEntity
  8
0
  6
CONTINUOUS
 62
     7
100
AcDbLine
 10
8.7526033893
 20
7.2315561331
 30
0.0
 11
8.7384589558
 21
7.239724195
 31
0.0
  0
LINE
  5
1CC
330
1F
100
AcDbEntity
  8
0
  6
CONTINUOUS
 62
     7
100
AcDbLine
 10
8.5829815601
 20
7.239724195
 30
0.0
 11
8.5688371265
 21
7.2315561331
 31
0.0
  0
LINE
  5
1CD
330
1F
100
AcDbEntity
  8
0
  6
CONTINUOUS
 62
     7
100
AcDbLine
 10
8.7906415178
 20
7.1642324942
 30
0.0
 11
8.7906415178
 21
7.1785303667
 31
0.0
  0
LINE
  5
1CE
330
1F
100
AcDbEntity
  8
0
  6
CONTINUOUS
 62
     7
100
AcDbLine
 10
8.5307989981
 20
7.1785303667
 30
0.0
 11
8.5307989981
 21
7.1630638186
 31
0.0
  0
POLYLINE
  5
1CF
330
1F
100
AcDbEntity
  8
0
  6
CONTINUOUS
 62
     7
100
AcDb2dPolyline
 66
     1
 10
0.0
 20
0.0
 30
0.0
  0
VERTEX
  5
22E
330
1CF
100
AcDbEntity
  8
0
  6
CONTINUOUS
 62
     7
100
AcDbVertex
100
AcDb2dVertex
 10
9.3772365703
 20
6.7566310009
 30
0.0
  0
VERTEX
  5
22F
330
1CF
100
AcDbEntity
  8
0
  6
CONTINUOUS
 62
     7
100
AcDbVertex
100
AcDb2dVertex
 10
9.3765334398
 20
6.787490689
 30
0.0
  0
VERTEX
  5
230
330
1CF
100
AcDbEntity
  8
0
  6
CONTINUOUS
 62
     7
100
AcDbVertex
100
AcDb2dVertex
 10
9.3744259438
 20
6.8174553676
 30
0.0
  0
VERTEX
  5
231
330
1CF
100
AcDbEntity
  8
0
  6
CONTINUOUS
 62
     7
100
AcDbVertex
100
AcDb2dVertex
 10
9.3709197639
 20
6.8464442573
 30
0.0
  0
VERTEX
  5
232
330
1CF
100
AcDbEntity
  8
0
  6
CONTINUOUS
 62
     7
100
AcDbVertex
100
AcDb2dVertex
 10
9.3660243519
 20
6.8743792091
 30
0.0
  0
VERTEX
  5
233
330
1CF
100
AcDbEntity
  8
0
  6
CONTINUOUS
 62
     7
100
AcDbVertex
100
AcDb2dVertex
 10
9.3597529051
 20
6.9011849154
 30
0.0
  0
VERTEX
  5
234
330
1CF
100
AcDbEntity
  8
0
  6
CONTINUOUS
 62
     7
100
AcDbVertex
100
AcDb2dVertex
 10
9.3521223302
 20
6.9267891127
 30
0.0
  0
VERTEX
  5
235
330
1CF
100
AcDbEntity
  8
0
  6
CONTINUOUS
 62
     7
100
AcDbVertex
100
AcDb2dVertex
 10
9.3431531978
 20
6.9511227766
 30
0.0
  0
VERTEX
  5
236
330
1CF
100
AcDbEntity
  8
0
  6
CONTINUOUS
 62
     7
100
AcDbVertex
100
AcDb2dVertex
 10
9.3328696873
 20
6.974120308
 30
0.0
  0
VERTEX
  5
237
330
1CF
100
AcDbEntity
  8
0
  6
CONTINUOUS
 62
     7
100
AcDbVertex
100
AcDb2dVertex
 10
9.321299521
 20
6.9957197094
 30
0.0
  0
VERTEX
  5
238
330
1CF
100
AcDbEntity
  8
0
  6
CONTINUOUS
 62
     7
100
AcDbVertex
100
AcDb2dVertex
 10
9.3084738901
 20
7.0158627527
 30
0.0
  0
VERTEX
  5
239
330
1CF
100
AcDbEntity
  8
0
  6
CONTINUOUS
 62
     7
100
AcDbVertex
100
AcDb2dVertex
 10
9.2944273703
 20
7.0344951359
 30
0.0
  0
VERTEX
  5
23A
330
1CF
100
AcDbEntity
  8
0
  6
CONTINUOUS
 62
     7
100
AcDbVertex
100
AcDb2dVertex
 10
9.2791978284
 20
7.0515666293
 30
0.0
  0
VERTEX
  5
23B
330
1CF
100
AcDbEntity
  8
0
  6
CONTINUOUS
 62
     7
100
AcDbVertex
100
AcDb2dVertex
 10
9.2628263207
 20
7.0670312112
 30
0.0
  0
VERTEX
  5
23C
330
1CF
100
AcDbEntity
  8
0
  6
CONTINUOUS
 62
     7
100
AcDbVertex
100
AcDb2dVertex
 10
9.2453569818
 20
7.0808471919
 30
0.0
  0
VERTEX
  5
23D
330
1CF
100
AcDbEntity
  8
0
  6
CONTINUOUS
 62
     7
100
AcDbVertex
100
AcDb2dVertex
 10
9.226836906
 20
7.0929773258
 30
0.0
  0
VERTEX
  5
23E
330
1CF
100
AcDbEntity
  8
0
  6
CONTINUOUS
 62
     7
100
AcDbVertex
100
AcDb2dVertex
 10
9.2073160201
 20
7.1033889123
 30
0.0
  0
VERTEX
  5
23F
330
1CF
100
AcDbEntity
  8
0
  6
CONTINUOUS
 62
     7
100
AcDbVertex
100
AcDb2dVertex
 10
9.186846949
 20
7.1120538836
 30
0.0
  0
VERTEX
  5
240
330
1CF
100
AcDbEntity
  8
0
  6
CONTINUOUS
 62
     7
100
AcDbVertex
100
AcDb2dVertex
 10
9.1654848737
 20
7.1189488805
 30
0.0
  0
VERTEX
  5
241
330
1CF
100
AcDbEntity
  8
0
  6
CONTINUOUS
 62
     7
100
AcDbVertex
100
AcDb2dVertex
 10
9.1432873825
 20
7.1240553153
 30
0.0
  0
VERTEX
  5
242
330
1CF
100
AcDbEntity
  8
0
  6
CONTINUOUS
 62
     7
100
AcDbVertex
100
AcDb2dVertex
 10
9.120314316
 20
7.1273594218
 30
0.0
  0
VERTEX
  5
243
330
1CF
100
AcDbEntity
  8
0
  6
CONTINUOUS
 62
     7
100
AcDbVertex
100
AcDb2dVertex
 10
9.0966276054
 20
7.1288522929
 30
0.0
  0
VERTEX
  5
244
330
1CF
100
AcDbEntity
  8
0
  6
CONTINUOUS
 62
     7
100
AcDbVertex
100
AcDb2dVertex
 10
9.0722911061
 20
7.128529904
 30
0.0
  0
VERTEX
  5
245
330
1CF
100
AcDbEntity
  8
0
  6
CONTINUOUS
 62
     7
100
AcDbVertex
100
AcDb2dVertex
 10
9.0473704248
 20
7.1263931243
 30
0.0
  0
VERTEX
  5
246
330
1CF
100
AcDbEntity
  8
0
  6
CONTINUOUS
 62
     7
100
AcDbVertex
100
AcDb2dVertex
 10
9.0219327434
 20
7.122447714
 30
0.0
  0
VERTEX
  5
247
330
1CF
100
AcDbEntity
  8
0
  6
CONTINUOUS
 62
     7
100
AcDbVertex
100
AcDb2dVertex
 10
8.9960466372
 20
7.1167043094
 30
0.0
  0
VERTEX
  5
248
330
1CF
100
AcDbEntity
  8
0
  6
CONTINUOUS
 62
     7
100
AcDbVertex
100
AcDb2dVertex
 10
8.9697818908
 20
7.1091783936
 30
0.0
  0
VERTEX
  5
249
330
1CF
100
AcDbEntity
  8
0
  6
CONTINUOUS
 62
     7
100
AcDbVertex
100
AcDb2dVertex
 10
8.9432093092
 20
7.0998902552
 30
0.0
  0
VERTEX
  5
24A
330
1CF
100
AcDbEntity
  8
0
  6
CONTINUOUS
 62
     7
100
AcDbVertex
100
AcDb2dVertex
 10
8.9164005273
 20
7.0888649334
 30
0.0
  0
VERTEX
  5
24B
330
1CF
100
AcDbEntity
  8
0
  6
CONTINUOUS
 62
     7
100
AcDbVertex
100
AcDb2dVertex
 10
8.8894278169
 20
7.0761321504
 30
0.0
  0
VERTEX
  5
24C
330
1CF
100
AcDbEntity
  8
0
  6
CONTINUOUS
 62
     7
100
AcDbVertex
100
AcDb2dVertex
 10
8.8623638918
 20
7.0617262316
 30
0.0
  0
VERTEX
  5
24D
330
1CF
100
AcDbEntity
  8
0
  6
CONTINUOUS
 62
     7
100
AcDbVertex
100
AcDb2dVertex
 10
8.8352817113
 20
7.0456860128
 30
0.0
  0
VERTEX
  5
24E
330
1CF
100
AcDbEntity
  8
0
  6
CONTINUOUS
 62
     7
100
AcDbVertex
100
AcDb2dVertex
 10
8.8082542844
 20
7.0280547357
 30
0.0
  0
VERTEX
  5
24F
330
1CF
100
AcDbEntity
  8
0
  6
CONTINUOUS
 62
     7
100
AcDbVertex
100
AcDb2dVertex
 10
8.7813544721
 20
7.0088799309
 30
0.0
  0
VERTEX
  5
250
330
1CF
100
AcDbEntity
  8
0
  6
CONTINUOUS
 62
     7
100
AcDbVertex
100
AcDb2dVertex
 10
8.7546547916
 20
6.9882132905
 30
0.0
  0
VERTEX
  5
251
330
1CF
100
AcDbEntity
  8
0
  6
CONTINUOUS
 62
     7
100
AcDbVertex
100
AcDb2dVertex
 10
8.7282272206
 20
6.9661105279
 30
0.0
  0
VERTEX
  5
252
330
1CF
100
AcDbEntity
  8
0
  6
CONTINUOUS
 62
     7
100
AcDbVertex
100
AcDb2dVertex
 10
8.702143003
 20
6.9426312284
 30
0.0
  0
VERTEX
  5
253
330
1CF
100
AcDbEntity
  8
0
  6
CONTINUOUS
 62
     7
100
AcDbVertex
100
AcDb2dVertex
 10
8.6764724573
 20
6.917838688
 30
0.0
  0
VERTEX
  5
254
330
1CF
100
AcDbEntity
  8
0
  6
CONTINUOUS
 62
     7
100
AcDbVertex
100
AcDb2dVertex
 10
8.6512847869
 20
6.891799743
 30
0.0
  0
VERTEX
  5
255
330
1CF
100
AcDbEntity
  8
0
  6
CONTINUOUS
 62
     7
100
AcDbVertex
100
AcDb2dVertex
 10
8.6266478931
 20
6.8645845898
 30
0.0
  0
VERTEX
  5
256
330
1CF
100
AcDbEntity
  8
0
  6
CONTINUOUS
 62
     7
100
AcDbVertex
100
AcDb2dVertex
 10
8.6026281927
 20
6.8362665955
 30
0.0
  0
VERTEX
  5
257
330
1CF
100
AcDbEntity
  8
0
  6
CONTINUOUS
 62
     7
100
AcDbVertex
100
AcDb2dVertex
 10
8.5792904385
 20
6.8069221007
 30
0.0
  0
VERTEX
  5
258
330
1CF
100
AcDbEntity
  8
0
  6
CONTINUOUS
 62
     7
100
AcDbVertex
100
AcDb2dVertex
 10
8.5566975451
 20
6.7766302127
 30
0.0
  0
VERTEX
  5
259
330
1CF
100
AcDbEntity
  8
0
  6
CONTINUOUS
 62
     7
100
AcDbVertex
100
AcDb2dVertex
 10
8.5349104188
 20
6.7454725932
 30
0.0
  0
VERTEX
  5
25A
330
1CF
100
AcDbEntity
  8
0
  6
CONTINUOUS
 62
     7
100
AcDbVertex
100
AcDb2dVertex
 10
8.5139877939
 20
6.7135332376
 30
0.0
  0
VERTEX
  5
25B
330
1CF
100
AcDbEntity
  8
0
  6
CONTINUOUS
 62
     7
100
AcDbVertex
100
AcDb2dVertex
 10
8.4939860741
 20
6.6808982488
 30
0.0
  0
VERTEX
  5
25C
330
1CF
100
AcDbEntity
  8
0
  6
CONTINUOUS
 62
     7
100
AcDbVertex
100
AcDb2dVertex
 10
8.4749591806
 20
6.6476556049
 30
0.0
  0
VERTEX
  5
25D
330
1CF
100
AcDbEntity
  8
0
  6
CONTINUOUS
 62
     7
100
AcDbVertex
100
AcDb2dVertex
 10
8.4569584063
 20
6.6138949222
 30
0.0
  0
VERTEX
  5
25E
330
1CF
100
AcDbEntity
  8
0
  6
CONTINUOUS
 62
     7
100
AcDbVertex
100
AcDb2dVertex
 10
8.4400322783
 20
6.5797072135
 30
0.0
  0
VERTEX
  5
25F
330
1CF
100
AcDbEntity
  8
0
  6
CONTINUOUS
 62
     7
100
AcDbVertex
100
AcDb2dVertex
 10
8.4242264264
 20
6.545184643
 30
0.0
  0
VERTEX
  5
260
330
1CF
100
AcDbEntity
  8
0
  6
CONTINUOUS
 62
     7
100
AcDbVertex
100
AcDb2dVertex
 10
8.4095834604
 20
6.5104202772
 30
0.0
  0
VERTEX
  5
261
330
1CF
100
AcDbEntity
  8
0
  6
CONTINUOUS
 62
     7
100
AcDbVertex
100
AcDb2dVertex
 10
8.3961428551
 20
6.4755078348
 30
0.0
  0
VERTEX
  5
262
330
1CF
100
AcDbEntity
  8
0
  6
CONTINUOUS
 62
     7
100
AcDbVertex
100
AcDb2dVertex
 10
8.383940844
 20
6.4405414336
 30
0.0
  0
VERTEX
  5
263
330
1CF
100
AcDbEntity
  8
0
  6
CONTINUOUS
 62
     7
100
AcDbVertex
100
AcDb2dVertex
 10
8.3730103216
 20
6.4056153369
 30
0.0
  0
VERTEX
  5
264
330
1CF
100
AcDbEntity
  8
0
  6
CONTINUOUS
 62
     7
100
AcDbVertex
100
AcDb2dVertex
 10
8.3633807547
 20
6.3708236991
 30
0.0
  0
VERTEX
  5
265
330
1CF
100
AcDbEntity
  8
0
  6
CONTINUOUS
 62
     7
100
AcDbVertex
100
AcDb2dVertex
 10
8.3550781027
 20
6.3362603123
 30
0.0
  0
VERTEX
  5
266
330
1CF
100
AcDbEntity
  8
0
  6
CONTINUOUS
 62
     7
100
AcDbVertex
100
AcDb2dVertex
 10
8.3481247484
 20
6.3020183535
 30
0.0
  0
VERTEX
  5
267
330
1CF
100
AcDbEntity
  8
0
  6
CONTINUOUS
 62
     7
100
AcDbVertex
100
AcDb2dVertex
 10
8.3425394365
 20
6.2681901328
 30
0.0
  0
VERTEX
  5
268
330
1CF
100
AcDbEntity
  8
0
  6
CONTINUOUS
 62
     7
100
AcDbVertex
100
AcDb2dVertex
 10
8.3383372243
 20
6.2348668451
 30
0.0
  0
VERTEX
  5
269
330
1CF
100
AcDbEntity
  8
0
  6
CONTINUOUS
 62
     7
100
AcDbVertex
100
AcDb2dVertex
 10
8.33552944
 20
6.2021383242
 30
0.0
  0
VERTEX
  5
26A
330
1CF
100
AcDbEntity
  8
0
  6
CONTINUOUS
 62
     7
100
AcDbVertex
100
AcDb2dVertex
 10
8.334123653
 20
6.1700928003
 30
0.0
  0
VERTEX
  5
26B
330
1CF
100
AcDbEntity
  8
0
  6
CONTINUOUS
 62
     7
100
AcDbVertex
100
AcDb2dVertex
 10
8.334123653
 20
6.1388166625
 30
0.0
  0
VERTEX
  5
26C
330
1CF
100
AcDbEntity
  8
0
  6
CONTINUOUS
 62
     7
100
AcDbVertex
100
AcDb2dVertex
 10
8.33552944
 20
6.1083942258
 30
0.0
  0
VERTEX
  5
26D
330
1CF
100
AcDbEntity
  8
0
  6
CONTINUOUS
 62
     7
100
AcDbVertex
100
AcDb2dVertex
 10
8.3383372243
 20
6.0789075036
 30
0.0
  0
VERTEX
  5
26E
330
1CF
100
AcDbEntity
  8
0
  6
CONTINUOUS
 62
     7
100
AcDbVertex
100
AcDb2dVertex
 10
8.3425394365
 20
6.050435987
 30
0.0
  0
VERTEX
  5
26F
330
1CF
100
AcDbEntity
  8
0
  6
CONTINUOUS
 62
     7
100
AcDbVertex
100
AcDb2dVertex
 10
8.3481247484
 20
6.0230564301
 30
0.0
  0
VERTEX
  5
270
330
1CF
100
AcDbEntity
  8
0
  6
CONTINUOUS
 62
     7
100
AcDbVertex
100
AcDb2dVertex
 10
8.3550781027
 20
5.9968426433
 30
0.0
  0
VERTEX
  5
271
330
1CF
100
AcDbEntity
  8
0
  6
CONTINUOUS
 62
     7
100
AcDbVertex
100
AcDb2dVertex
 10
8.3633807547
 20
5.9718652944
 30
0.0
  0
VERTEX
  5
272
330
1CF
100
AcDbEntity
  8
0
  6
CONTINUOUS
 62
     7
100
AcDbVertex
100
AcDb2dVertex
 10
8.3730103216
 20
5.948191718
 30
0.0
  0
VERTEX
  5
273
330
1CF
100
AcDbEntity
  8
0
  6
CONTINUOUS
 62
     7
100
AcDbVertex
100
AcDb2dVertex
 10
8.383940844
 20
5.9258857337
 30
0.0
  0
VERTEX
  5
274
330
1CF
100
AcDbEntity
  8
0
  6
CONTINUOUS
 62
     7
100
AcDbVertex
100
AcDb2dVertex
 10
8.3961428551
 20
5.9050074747
 30
0.0
  0
VERTEX
  5
275
330
1CF
100
AcDbEntity
  8
0
  6
CONTINUOUS
 62
     7
100
AcDbVertex
100
AcDb2dVertex
 10
8.4095834604
 20
5.8856132249
 30
0.0
  0
VERTEX
  5
276
330
1CF
100
AcDbEntity
  8
0
  6
CONTINUOUS
 62
     7
100
AcDbVertex
100
AcDb2dVertex
 10
8.4242264264
 20
5.8677552678
 30
0.0
  0
VERTEX
  5
277
330
1CF
100
AcDbEntity
  8
0
  6
CONTINUOUS
 62
     7
100
AcDbVertex
100
AcDb2dVertex
 10
8.4400322783
 20
5.8514817454
 30
0.0
  0
VERTEX
  5
278
330
1CF
100
AcDbEntity
  8
0
  6
CONTINUOUS
 62
     7
100
AcDbVertex
100
AcDb2dVertex
 10
8.4569584063
 20
5.8368365282
 30
0.0
  0
VERTEX
  5
279
330
1CF
100
AcDbEntity
  8
0
  6
CONTINUOUS
 62
     7
100
AcDbVertex
100
AcDb2dVertex
 10
8.4749591806
 20
5.823859097
 30
0.0
  0
VERTEX
  5
27A
330
1CF
100
AcDbEntity
  8
0
  6
CONTINUOUS
 62
     7
100
AcDbVertex
100
AcDb2dVertex
 10
8.4939860741
 20
5.8125844369
 30
0.0
  0
VERTEX
  5
27B
330
1CF
100
AcDbEntity
  8
0
  6
CONTINUOUS
 62
     7
100
AcDbVertex
100
AcDb2dVertex
 10
8.5139877939
 20
5.8030429421
 30
0.0
  0
VERTEX
  5
27C
330
1CF
100
AcDbEntity
  8
0
  6
CONTINUOUS
 62
     7
100
AcDbVertex
100
AcDb2dVertex
 10
8.5349104188
 20
5.795260335
 30
0.0
  0
VERTEX
  5
27D
330
1CF
100
AcDbEntity
  8
0
  6
CONTINUOUS
 62
     7
100
AcDbVertex
100
AcDb2dVertex
 10
8.5566975451
 20
5.7892575961
 30
0.0
  0
VERTEX
  5
27E
330
1CF
100
AcDbEntity
  8
0
  6
CONTINUOUS
 62
     7
100
AcDbVertex
100
AcDb2dVertex
 10
8.5792904385
 20
5.7850509076
 30
0.0
  0
VERTEX
  5
27F
330
1CF
100
AcDbEntity
  8
0
  6
CONTINUOUS
 62
     7
100
AcDbVertex
100
AcDb2dVertex
 10
8.6026281927
 20
5.7826516102
 30
0.0
  0
VERTEX
  5
280
330
1CF
100
AcDbEntity
  8
0
  6
CONTINUOUS
 62
     7
100
AcDbVertex
100
AcDb2dVertex
 10
8.6266478931
 20
5.7820661717
 30
0.0
  0
VERTEX
  5
281
330
1CF
100
AcDbEntity
  8
0
  6
CONTINUOUS
 62
     7
100
AcDbVertex
100
AcDb2dVertex
 10
8.6512847869
 20
5.7832961706
 30
0.0
  0
VERTEX
  5
282
330
1CF
100
AcDbEntity
  8
0
  6
CONTINUOUS
 62
     7
100
AcDbVertex
100
AcDb2dVertex
 10
8.6764724573
 20
5.7863382909
 30
0.0
  0
VERTEX
  5
283
330
1CF
100
AcDbEntity
  8
0
  6
CONTINUOUS
 62
     7
100
AcDbVertex
100
AcDb2dVertex
 10
8.702143003
 20
5.7911843316
 30
0.0
  0
VERTEX
  5
284
330
1CF
100
AcDbEntity
  8
0
  6
CONTINUOUS
 62
     7
100
AcDbVertex
100
AcDb2dVertex
 10
8.7282272206
 20
5.7978212287
 30
0.0
  0
VERTEX
  5
285
330
1CF
100
AcDbEntity
  8
0
  6
CONTINUOUS
 62
     7
100
AcDbVertex
100
AcDb2dVertex
 10
8.7546547916
 20
5.8062310902
 30
0.0
  0
VERTEX
  5
286
330
1CF
100
AcDbEntity
  8
0
  6
CONTINUOUS
 62
     7
100
AcDbVertex
100
AcDb2dVertex
 10
8.7813544721
 20
5.8163912447
 30
0.0
  0
VERTEX
  5
287
330
1CF
100
AcDbEntity
  8
0
  6
CONTINUOUS
 62
     7
100
AcDbVertex
100
AcDb2dVertex
 10
8.8082542844
 20
5.8282743021
 30
0.0
  0
VERTEX
  5
288
330
1CF
100
AcDbEntity
  8
0
  6
CONTINUOUS
 62
     7
100
AcDbVertex
100
AcDb2dVertex
 10
8.8352817113
 20
5.8418482279
 30
0.0
  0
VERTEX
  5
289
330
1CF
100
AcDbEntity
  8
0
  6
CONTINUOUS
 62
     7
100
AcDbVertex
100
AcDb2dVertex
 10
8.8623638918
 20
5.8570764291
 30
0.0
  0
VERTEX
  5
28A
330
1CF
100
AcDbEntity
  8
0
  6
CONTINUOUS
 62
     7
100
AcDbVertex
100
AcDb2dVertex
 10
8.8894278169
 20
5.8739178532
 30
0.0
  0
VERTEX
  5
28B
330
1CF
100
AcDbEntity
  8
0
  6
CONTINUOUS
 62
     7
100
AcDbVertex
100
AcDb2dVertex
 10
8.9164005273
 20
5.8923270987
 30
0.0
  0
VERTEX
  5
28C
330
1CF
100
AcDbEntity
  8
0
  6
CONTINUOUS
 62
     7
100
AcDbVertex
100
AcDb2dVertex
 10
8.9432093092
 20
5.9122545375
 30
0.0
  0
VERTEX
  5
28D
330
1CF
100
AcDbEntity
  8
0
  6
CONTINUOUS
 62
     7
100
AcDbVertex
100
AcDb2dVertex
 10
8.9697818908
 20
5.9336464488
 30
0.0
  0
VERTEX
  5
28E
330
1CF
100
AcDbEntity
  8
0
  6
CONTINUOUS
 62
     7
100
AcDbVertex
100
AcDb2dVertex
 10
8.9960466372
 20
5.9564451638
 30
0.0
  0
VERTEX
  5
28F
330
1CF
100
AcDbEntity
  8
0
  6
CONTINUOUS
 62
     7
100
AcDbVertex
100
AcDb2dVertex
 10
9.0219327434
 20
5.9805892212
 30
0.0
  0
VERTEX
  5
290
330
1CF
100
AcDbEntity
  8
0
  6
CONTINUOUS
 62
     7
100
AcDbVertex
100
AcDb2dVertex
 10
9.0473704248
 20
6.0060135327
 30
0.0
  0
VERTEX
  5
291
330
1CF
100
AcDbEntity
  8
0
  6
CONTINUOUS
 62
     7
100
AcDbVertex
100
AcDb2dVertex
 10
9.0722911061
 20
6.0326495591
 30
0.0
  0
VERTEX
  5
292
330
1CF
100
AcDbEntity
  8
0
  6
CONTINUOUS
 62
     7
100
AcDbVertex
100
AcDb2dVertex
 10
9.0966276054
 20
6.0604254943
 30
0.0
  0
VERTEX
  5
293
330
1CF
100
AcDbEntity
  8
0
  6
CONTINUOUS
 62
     7
100
AcDbVertex
100
AcDb2dVertex
 10
9.120314316
 20
6.0892664593
 30
0.0
  0
VERTEX
  5
294
330
1CF
100
AcDbEntity
  8
0
  6
CONTINUOUS
 62
     7
100
AcDbVertex
100
AcDb2dVertex
 10
9.1432873825
 20
6.1190947039
 30
0.0
  0
VERTEX
  5
295
330
1CF
100
AcDbEntity
  8
0
  6
CONTINUOUS
 62
     7
100
AcDbVertex
100
AcDb2dVertex
 10
9.1654848737
 20
6.1498298164
 30
0.0
  0
VERTEX
  5
296
330
1CF
100
AcDbEntity
  8
0
  6
CONTINUOUS
 62
     7
100
AcDbVertex
100
AcDb2dVertex
 10
9.186846949
 20
6.1813889405
 30
0.0
  0
VERTEX
  5
297
330
1CF
100
AcDbEntity
  8
0
  6
CONTINUOUS
 62
     7
100
AcDbVertex
100
AcDb2dVertex
 10
9.2073160201
 20
6.2136869982
 30
0.0
  0
VERTEX
  5
298
330
1CF
100
AcDbEntity
  8
0
  6
CONTINUOUS
 62
     7
100
AcDbVertex
100
AcDb2dVertex
 10
9.226836906
 20
6.2466369199
 30
0.0
  0
VERTEX
  5
299
330
1CF
100
AcDbEntity
  8
0
  6
CONTINUOUS
 62
     7
100
AcDbVertex
100
AcDb2dVertex
 10
9.2453569818
 20
6.2801498782
 30
0.0
  0
VERTEX
  5
29A
330
1CF
100
AcDbEntity
  8
0
  6
CONTINUOUS
 62
     7
100
AcDbVertex
100
AcDb2dVertex
 10
9.2628263207
 20
6.3141355282
 30
0.0
  0
VERTEX
  5
29B
330
1CF
100
AcDbEntity
  8
0
  6
CONTINUOUS
 62
     7
100
AcDbVertex
100
AcDb2dVertex
 10
9.2791978284
 20
6.3485022506
 30
0.0
  0
VERTEX
  5
29C
330
1CF
100
AcDbEntity
  8
0
  6
CONTINUOUS
 62
     7
100
AcDbVertex
100
AcDb2dVertex
 10
9.2944273703
 20
6.3831573987
 30
0.0
  0
VERTEX
  5
29D
330
1CF
100
AcDbEntity
  8
0
  6
CONTINUOUS
 62
     7
100
AcDbVertex
100
AcDb2dVertex
 10
9.3084738901
 20
6.4180075485
 30
0.0
  0
VERTEX
  5
29E
330
1CF
100
AcDbEntity
  8
0
  6
CONTINUOUS
 62
     7
100
AcDbVertex
100
AcDb2dVertex
 10
9.321299521
 20
6.45295875
 30
0.0
  0
VERTEX
  5
29F
330
1CF
100
AcDbEntity
  8
0
  6
CONTINUOUS
 62
     7
100
AcDbVertex
100
AcDb2dVertex
 10
9.3328696873
 20
6.4879167811
 30
0.0
  0
VERTEX
  5
2A0
330
1CF
100
AcDbEntity
  8
0
  6
CONTINUOUS
 62
     7
100
AcDbVertex
100
AcDb2dVertex
 10
9.3431531978
 20
6.522787401
 30
0.0
  0
VERTEX
  5
2A1
330
1CF
100
AcDbEntity
  8
0
  6
CONTINUOUS
 62
     7
100
AcDbVertex
100
AcDb2dVertex
 10
9.3521223302
 20
6.5574766047
 30
0.0
  0
VERTEX
  5
2A2
330
1CF
100
AcDbEntity
  8
0
  6
CONTINUOUS
 62
     7
100
AcDbVertex
100
AcDb2dVertex
 10
9.3597529051
 20
6.5918908763
 30
0.0
  0
VERTEX
  5
2A3
330
1CF
100
AcDbEntity
  8
0
  6
CONTINUOUS
 62
     7
100
AcDbVertex
100
AcDb2dVertex
 10
9.3660243519
 20
6.625937441
 30
0.0
  0
VERTEX
  5
2A4
330
1CF
100
AcDbEntity
  8
0
  6
CONTINUOUS
 62
     7
100
AcDbVertex
100
AcDb2dVertex
 10
9.3709197639
 20
6.6595245151
 30
0.0
  0
VERTEX
  5
2A5
330
1CF
100
AcDbEntity
  8
0
  6
CONTINUOUS
 62
     7
100
AcDbVertex
100
AcDb2dVertex
 10
9.3744259438
 20
6.6925615541
 30
0.0
  0
VERTEX
  5
2A6
330
1CF
100
AcDbEntity
  8
0
  6
CONTINUOUS
 62
     7
100
AcDbVertex
100
AcDb2dVertex
 10
9.3765334398
 20
6.7249594957
 30
0.0
  0
VERTEX
  5
2A7
330
1CF
100
AcDbEntity
  8
0
  6
CONTINUOUS
 62
     7
100
AcDbVertex
100
AcDb2dVertex
 10
9.3772365703
 20
6.7566310009
 30
0.0
  0
SEQEND
  5
2A8
330
1CF
100
AcDbEntity
  8
0
  6
CONTINUOUS
 62
     7
  0
POLYLINE
  5
1D0
330
1F
100
AcDbEntity
  8
0
  6
CONTINUOUS
 62
     7
100
AcDb2dPolyline
 66
     1
 10
0.0
 20
0.0
 30
0.0
  0
VERTEX
  5
2A9
330
1D0
100
AcDbEntity
  8
0
  6
CONTINUOUS
 62
     7
100
AcDbVertex
100
AcDb2dVertex
 10
8.8344672317
 20
5.8409172998
 30
0.0
  0
VERTEX
  5
2AA
330
1D0
100
AcDbEntity
  8
0
  6
CONTINUOUS
 62
     7
100
AcDbVertex
100
AcDb2dVertex
 10
8.8274465184
 20
5.8369154378
 30
0.0
  0
VERTEX
  5
2AB
330
1D0
100
AcDbEntity
  8
0
  6
CONTINUOUS
 62
     7
100
AcDbVertex
100
AcDb2dVertex
 10
8.7997391918
 20
5.8221467498
 30
0.0
  0
VERTEX
  5
2AC
330
1D0
100
AcDbEntity
  8
0
  6
CONTINUOUS
 62
     7
100
AcDbVertex
100
AcDb2dVertex
 10
8.7721222366
 20
5.8090623363
 30
0.0
  0
VERTEX
  5
2AD
330
1D0
100
AcDbEntity
  8
0
  6
CONTINUOUS
 62
     7
100
AcDbVertex
100
AcDb2dVertex
 10
8.7446677022
 20
5.7976963331
 30
0.0
  0
VERTEX
  5
2AE
330
1D0
100
AcDbEntity
  8
0
  6
CONTINUOUS
 62
     7
100
AcDbVertex
100
AcDb2dVertex
 10
8.7174472143
 20
5.7880783927
 30
0.0
  0
VERTEX
  5
2AF
330
1D0
100
AcDbEntity
  8
0
  6
CONTINUOUS
 62
     7
100
AcDbVertex
100
AcDb2dVertex
 10
8.6905317882
 20
5.7802336072
 30
0.0
  0
VERTEX
  5
2B0
330
1D0
100
AcDbEntity
  8
0
  6
CONTINUOUS
 62
     7
100
AcDbVertex
100
AcDb2dVertex
 10
8.6639916429
 20
5.7741824428
 30
0.0
  0
VERTEX
  5
2B1
330
1D0
100
AcDbEntity
  8
0
  6
CONTINUOUS
 62
     7
100
AcDbVertex
100
AcDb2dVertex
 10
8.6378960188
 20
5.7699406863
 30
0.0
  0
VERTEX
  5
2B2
330
1D0
100
AcDbEntity
  8
0
  6
CONTINUOUS
 62
     7
100
AcDbVertex
100
AcDb2dVertex
 10
8.6123129964
 20
5.767519404
 30
0.0
  0
VERTEX
  5
2B3
330
1D0
100
AcDbEntity
  8
0
  6
CONTINUOUS
 62
     7
100
AcDbVertex
100
AcDb2dVertex
 10
8.5873093189
 20
5.7669249126
 30
0.0
  0
VERTEX
  5
2B4
330
1D0
100
AcDbEntity
  8
0
  6
CONTINUOUS
 62
     7
100
AcDbVertex
100
AcDb2dVertex
 10
8.5629502179
 20
5.7681587632
 30
0.0
  0
VERTEX
  5
2B5
330
1D0
100
AcDbEntity
  8
0
  6
CONTINUOUS
 62
     7
100
AcDbVertex
100
AcDb2dVertex
 10
8.5392992437
 20
5.7712177368
 30
0.0
  0
VERTEX
  5
2B6
330
1D0
100
AcDbEntity
  8
0
  6
CONTINUOUS
 62
     7
100
AcDbVertex
100
AcDb2dVertex
 10
8.5164180988
 20
5.7760938529
 30
0.0
  0
VERTEX
  5
2B7
330
1D0
100
AcDbEntity
  8
0
  6
CONTINUOUS
 62
     7
100
AcDbVertex
100
AcDb2dVertex
 10
8.4943664777
 20
5.7827743902
 30
0.0
  0
VERTEX
  5
2B8
330
1D0
100
AcDbEntity
  8
0
  6
CONTINUOUS
 62
     7
100
AcDbVertex
100
AcDb2dVertex
 10
8.4732019104
 20
5.7912419199
 30
0.0
  0
VERTEX
  5
2B9
330
1D0
100
AcDbEntity
  8
0
  6
CONTINUOUS
 62
     7
100
AcDbVertex
100
AcDb2dVertex
 10
8.4529796129
 20
5.8014743514
 30
0.0
  0
VERTEX
  5
2BA
330
1D0
100
AcDbEntity
  8
0
  6
CONTINUOUS
 62
     7
100
AcDbVertex
100
AcDb2dVertex
 10
8.4337523428
 20
5.8134449892
 30
0.0
  0
VERTEX
  5
2BB
330
1D0
100
AcDbEntity
  8
0
  6
CONTINUOUS
 62
     7
100
AcDbVertex
100
AcDb2dVertex
 10
8.415570262
 20
5.8271226034
 30
0.0
  0
VERTEX
  5
2BC
330
1D0
100
AcDbEntity
  8
0
  6
CONTINUOUS
 62
     7
100
AcDbVertex
100
AcDb2dVertex
 10
8.3984808053
 20
5.8424715107
 30
0.0
  0
VERTEX
  5
2BD
330
1D0
100
AcDbEntity
  8
0
  6
CONTINUOUS
 62
     7
100
AcDbVertex
100
AcDb2dVertex
 10
8.3825285573
 20
5.8594516675
 30
0.0
  0
VERTEX
  5
2BE
330
1D0
100
AcDbEntity
  8
0
  6
CONTINUOUS
 62
     7
100
AcDbVertex
100
AcDb2dVertex
 10
8.3677551355
 20
5.8780187745
 30
0.0
  0
VERTEX
  5
2BF
330
1D0
100
AcDbEntity
  8
0
  6
CONTINUOUS
 62
     7
100
AcDbVertex
100
AcDb2dVertex
 10
8.3541990821
 20
5.8981243923
 30
0.0
  0
VERTEX
  5
2C0
330
1D0
100
AcDbEntity
  8
0
  6
CONTINUOUS
 62
     7
100
AcDbVertex
100
AcDb2dVertex
 10
8.3418957632
 20
5.9197160675
 30
0.0
  0
VERTEX
  5
2C1
330
1D0
100
AcDbEntity
  8
0
  6
CONTINUOUS
 62
     7
100
AcDbVertex
100
AcDb2dVertex
 10
8.3308772769
 20
5.94273747
 30
0.0
  0
VERTEX
  5
2C2
330
1D0
100
AcDbEntity
  8
0
  6
CONTINUOUS
 62
     7
100
AcDbVertex
100
AcDb2dVertex
 10
8.3211723691
 20
5.9671285396
 30
0.0
  0
VERTEX
  5
2C3
330
1D0
100
AcDbEntity
  8
0
  6
CONTINUOUS
 62
     7
100
AcDbVertex
100
AcDb2dVertex
 10
8.3128063589
 20
5.9928256428
 30
0.0
  0
VERTEX
  5
2C4
330
1D0
100
AcDbEntity
  8
0
  6
CONTINUOUS
 62
     7
100
AcDbVertex
100
AcDb2dVertex
 10
8.3058010721
 20
6.0197617387
 30
0.0
  0
VERTEX
  5
2C5
330
1D0
100
AcDbEntity
  8
0
  6
CONTINUOUS
 62
     7
100
AcDbVertex
100
AcDb2dVertex
 10
8.3001747847
 20
6.0478665541
 30
0.0
  0
VERTEX
  5
2C6
330
1D0
100
AcDbEntity
  8
0
  6
CONTINUOUS
 62
     7
100
AcDbVertex
100
AcDb2dVertex
 10
8.2959421752
 20
6.0770667668
 30
0.0
  0
VERTEX
  5
2C7
330
1D0
100
AcDbEntity
  8
0
  6
CONTINUOUS
 62
     7
100
AcDbVertex
100
AcDb2dVertex
 10
8.2931142859
 20
6.1072861968
 30
0.0
  0
VERTEX
  5
2C8
330
1D0
100
AcDbEntity
  8
0
  6
CONTINUOUS
 62
     7
100
AcDbVertex
100
AcDb2dVertex
 10
8.2916984944
 20
6.138446005
 30
0.0
  0
VERTEX
  5
2C9
330
1D0
100
AcDbEntity
  8
0
  6
CONTINUOUS
 62
     7
100
AcDbVertex
100
AcDb2dVertex
 10
8.2916984944
 20
6.1704648991
 30
0.0
  0
VERTEX
  5
2CA
330
1D0
100
AcDbEntity
  8
0
  6
CONTINUOUS
 62
     7
100
AcDbVertex
100
AcDb2dVertex
 10
8.2931142859
 20
6.2032593454
 30
0.0
  0
VERTEX
  5
2CB
330
1D0
100
AcDbEntity
  8
0
  6
CONTINUOUS
 62
     7
100
AcDbVertex
100
AcDb2dVertex
 10
8.2959421752
 20
6.2367437869
 30
0.0
  0
VERTEX
  5
2CC
330
1D0
100
AcDbEntity
  8
0
  6
CONTINUOUS
 62
     7
100
AcDbVertex
100
AcDb2dVertex
 10
8.3001747847
 20
6.2708308665
 30
0.0
  0
VERTEX
  5
2CD
330
1D0
100
AcDbEntity
  8
0
  6
CONTINUOUS
 62
     7
100
AcDbVertex
100
AcDb2dVertex
 10
8.3058010721
 20
6.3054316551
 30
0.0
  0
VERTEX
  5
2CE
330
1D0
100
AcDbEntity
  8
0
  6
CONTINUOUS
 62
     7
100
AcDbVertex
100
AcDb2dVertex
 10
8.3128063589
 20
6.3404558829
 30
0.0
  0
VERTEX
  5
2CF
330
1D0
100
AcDbEntity
  8
0
  6
CONTINUOUS
 62
     7
100
AcDbVertex
100
AcDb2dVertex
 10
8.3211723691
 20
6.375812176
 30
0.0
  0
VERTEX
  5
2D0
330
1D0
100
AcDbEntity
  8
0
  6
CONTINUOUS
 62
     7
100
AcDbVertex
100
AcDb2dVertex
 10
8.3308772769
 20
6.4114082936
 30
0.0
  0
VERTEX
  5
2D1
330
1D0
100
AcDbEntity
  8
0
  6
CONTINUOUS
 62
     7
100
AcDbVertex
100
AcDb2dVertex
 10
8.3418957632
 20
6.4471513696
 30
0.0
  0
VERTEX
  5
2D2
330
1D0
100
AcDbEntity
  8
0
  6
CONTINUOUS
 62
     7
100
AcDbVertex
100
AcDb2dVertex
 10
8.3541990821
 20
6.4829481544
 30
0.0
  0
VERTEX
  5
2D3
330
1D0
100
AcDbEntity
  8
0
  6
CONTINUOUS
 62
     7
100
AcDbVertex
100
AcDb2dVertex
 10
8.3677551355
 20
6.5187052583
 30
0.0
  0
VERTEX
  5
2D4
330
1D0
100
AcDbEntity
  8
0
  6
CONTINUOUS
 62
     7
100
AcDbVertex
100
AcDb2dVertex
 10
8.3825285573
 20
6.5543293951
 30
0.0
  0
VERTEX
  5
2D5
330
1D0
100
AcDbEntity
  8
0
  6
CONTINUOUS
 62
     7
100
AcDbVertex
100
AcDb2dVertex
 10
8.3984808053
 20
6.5897276254
 30
0.0
  0
VERTEX
  5
2D6
330
1D0
100
AcDbEntity
  8
0
  6
CONTINUOUS
 62
     7
100
AcDbVertex
100
AcDb2dVertex
 10
8.415570262
 20
6.6248075993
 30
0.0
  0
VERTEX
  5
2D7
330
1D0
100
AcDbEntity
  8
0
  6
CONTINUOUS
 62
     7
100
AcDbVertex
100
AcDb2dVertex
 10
8.4337523428
 20
6.6594777973
 30
0.0
  0
VERTEX
  5
2D8
330
1D0
100
AcDbEntity
  8
0
  6
CONTINUOUS
 62
     7
100
AcDbVertex
100
AcDb2dVertex
 10
8.4529796129
 20
6.6936477686
 30
0.0
  0
VERTEX
  5
2D9
330
1D0
100
AcDbEntity
  8
0
  6
CONTINUOUS
 62
     7
100
AcDbVertex
100
AcDb2dVertex
 10
8.4732019104
 20
6.7272283677
 30
0.0
  0
VERTEX
  5
2DA
330
1D0
100
AcDbEntity
  8
0
  6
CONTINUOUS
 62
     7
100
AcDbVertex
100
AcDb2dVertex
 10
8.4943664777
 20
6.7601319868
 30
0.0
  0
VERTEX
  5
2DB
330
1D0
100
AcDbEntity
  8
0
  6
CONTINUOUS
 62
     7
100
AcDbVertex
100
AcDb2dVertex
 10
8.5164180988
 20
6.7922727839
 30
0.0
  0
VERTEX
  5
2DC
330
1D0
100
AcDbEntity
  8
0
  6
CONTINUOUS
 62
     7
100
AcDbVertex
100
AcDb2dVertex
 10
8.5392992437
 20
6.8235669075
 30
0.0
  0
VERTEX
  5
2DD
330
1D0
100
AcDbEntity
  8
0
  6
CONTINUOUS
 62
     7
100
AcDbVertex
100
AcDb2dVertex
 10
8.5629502179
 20
6.8539327147
 30
0.0
  0
VERTEX
  5
2DE
330
1D0
100
AcDbEntity
  8
0
  6
CONTINUOUS
 62
     7
100
AcDbVertex
100
AcDb2dVertex
 10
8.5873093189
 20
6.8832909846
 30
0.0
  0
VERTEX
  5
2DF
330
1D0
100
AcDbEntity
  8
0
  6
CONTINUOUS
 62
     7
100
AcDbVertex
100
AcDb2dVertex
 10
8.6123129964
 20
6.9115651249
 30
0.0
  0
VERTEX
  5
2E0
330
1D0
100
AcDbEntity
  8
0
  6
CONTINUOUS
 62
     7
100
AcDbVertex
100
AcDb2dVertex
 10
8.6378960188
 20
6.9386813715
 30
0.0
  0
VERTEX
  5
2E1
330
1D0
100
AcDbEntity
  8
0
  6
CONTINUOUS
 62
     7
100
AcDbVertex
100
AcDb2dVertex
 10
8.6639916429
 20
6.9645689812
 30
0.0
  0
VERTEX
  5
2E2
330
1D0
100
AcDbEntity
  8
0
  6
CONTINUOUS
 62
     7
100
AcDbVertex
100
AcDb2dVertex
 10
8.6905317882
 20
6.9891604163
 30
0.0
  0
VERTEX
  5
2E3
330
1D0
100
AcDbEntity
  8
0
  6
CONTINUOUS
 62
     7
100
AcDbVertex
100
AcDb2dVertex
 10
8.7174472143
 20
7.0123915204
 30
0.0
  0
VERTEX
  5
2E4
330
1D0
100
AcDbEntity
  8
0
  6
CONTINUOUS
 62
     7
100
AcDbVertex
100
AcDb2dVertex
 10
8.7446677022
 20
7.0342016863
 30
0.0
  0
VERTEX
  5
2E5
330
1D0
100
AcDbEntity
  8
0
  6
CONTINUOUS
 62
     7
100
AcDbVertex
100
AcDb2dVertex
 10
8.7721222366
 20
7.0545340138
 30
0.0
  0
VERTEX
  5
2E6
330
1D0
100
AcDbEntity
  8
0
  6
CONTINUOUS
 62
     7
100
AcDbVertex
100
AcDb2dVertex
 10
8.7997391918
 20
7.0733354581
 30
0.0
  0
VERTEX
  5
2E7
330
1D0
100
AcDbEntity
  8
0
  6
CONTINUOUS
 62
     7
100
AcDbVertex
100
AcDb2dVertex
 10
8.8274465184
 20
7.0905569684
 30
0.0
  0
VERTEX
  5
2E8
330
1D0
100
AcDbEntity
  8
0
  6
CONTINUOUS
 62
     7
100
AcDbVertex
100
AcDb2dVertex
 10
8.8551719309
 20
7.1061536157
 30
0.0
  0
VERTEX
  5
2E9
330
1D0
100
AcDbEntity
  8
0
  6
CONTINUOUS
 62
     7
100
AcDbVertex
100
AcDb2dVertex
 10
8.8828430971
 20
7.1200847103
 30
0.0
  0
VERTEX
  5
2EA
330
1D0
100
AcDbEntity
  8
0
  6
CONTINUOUS
 62
     7
100
AcDbVertex
100
AcDb2dVertex
 10
8.910387826
 20
7.1323139074
 30
0.0
  0
VERTEX
  5
2EB
330
1D0
100
AcDbEntity
  8
0
  6
CONTINUOUS
 62
     7
100
AcDbVertex
100
AcDb2dVertex
 10
8.9377342566
 20
7.1428093024
 30
0.0
  0
VERTEX
  5
2EC
330
1D0
100
AcDbEntity
  8
0
  6
CONTINUOUS
 62
     7
100
AcDbVertex
100
AcDb2dVertex
 10
8.9648110451
 20
7.1515435141
 30
0.0
  0
VERTEX
  5
2ED
330
1D0
100
AcDbEntity
  8
0
  6
CONTINUOUS
 62
     7
100
AcDbVertex
100
AcDb2dVertex
 10
8.9915475513
 20
7.158493756
 30
0.0
  0
VERTEX
  5
2EE
330
1D0
100
AcDbEntity
  8
0
  6
CONTINUOUS
 62
     7
100
AcDbVertex
100
AcDb2dVertex
 10
9.0178740227
 20
7.1636418956
 30
0.0
  0
VERTEX
  5
2EF
330
1D0
100
AcDbEntity
  8
0
  6
CONTINUOUS
 62
     7
100
AcDbVertex
100
AcDb2dVertex
 10
9.0437217765
 20
7.166974502
 30
0.0
  0
VERTEX
  5
2F0
330
1D0
100
AcDbEntity
  8
0
  6
CONTINUOUS
 62
     7
100
AcDbVertex
100
AcDb2dVertex
 10
9.069023379
 20
7.1684828808
 30
0.0
  0
VERTEX
  5
2F1
330
1D0
100
AcDbEntity
  8
0
  6
CONTINUOUS
 62
     7
100
AcDbVertex
100
AcDb2dVertex
 10
9.093712821
 20
7.1681630969
 30
0.0
  0
VERTEX
  5
2F2
330
1D0
100
AcDbEntity
  8
0
  6
CONTINUOUS
 62
     7
100
AcDbVertex
100
AcDb2dVertex
 10
9.1177256908
 20
7.1660159844
 30
0.0
  0
VERTEX
  5
2F3
330
1D0
100
AcDbEntity
  8
0
  6
CONTINUOUS
 62
     7
100
AcDbVertex
100
AcDb2dVertex
 10
9.1409993413
 20
7.1620471451
 30
0.0
  0
VERTEX
  5
2F4
330
1D0
100
AcDbEntity
  8
0
  6
CONTINUOUS
 62
     7
100
AcDbVertex
100
AcDb2dVertex
 10
9.1634730545
 20
7.1562669332
 30
0.0
  0
VERTEX
  5
2F5
330
1D0
100
AcDbEntity
  8
0
  6
CONTINUOUS
 62
     7
100
AcDbVertex
100
AcDb2dVertex
 10
9.1850881988
 20
7.1486904285
 30
0.0
  0
VERTEX
  5
2F6
330
1D0
100
AcDbEntity
  8
0
  6
CONTINUOUS
 62
     7
100
AcDbVertex
100
AcDb2dVertex
 10
9.2057883828
 20
7.1393373972
 30
0.0
  0
VERTEX
  5
2F7
330
1D0
100
AcDbEntity
  8
0
  6
CONTINUOUS
 62
     7
100
AcDbVertex
100
AcDb2dVertex
 10
9.2255196022
 20
7.1282322405
 30
0.0
  0
VERTEX
  5
2F8
330
1D0
100
AcDbEntity
  8
0
  6
CONTINUOUS
 62
     7
100
AcDbVertex
100
AcDb2dVertex
 10
9.2442303805
 20
7.1154039303
 30
0.0
  0
VERTEX
  5
2F9
330
1D0
100
AcDbEntity
  8
0
  6
CONTINUOUS
 62
     7
100
AcDbVertex
100
AcDb2dVertex
 10
9.2618719032
 20
7.1008859343
 30
0.0
  0
VERTEX
  5
2FA
330
1D0
100
AcDbEntity
  8
0
  6
CONTINUOUS
 62
     7
100
AcDbVertex
100
AcDb2dVertex
 10
9.2783981458
 20
7.0847161283
 30
0.0
  0
VERTEX
  5
2FB
330
1D0
100
AcDbEntity
  8
0
  6
CONTINUOUS
 62
     7
100
AcDbVertex
100
AcDb2dVertex
 10
9.2937659932
 20
7.0669366974
 30
0.0
  0
VERTEX
  5
2FC
330
1D0
100
AcDbEntity
  8
0
  6
CONTINUOUS
 62
     7
100
AcDbVertex
100
AcDb2dVertex
 10
9.3079353523
 20
7.0475940261
 30
0.0
  0
VERTEX
  5
2FD
330
1D0
100
AcDbEntity
  8
0
  6
CONTINUOUS
 62
     7
100
AcDbVertex
100
AcDb2dVertex
 10
9.3208692571
 20
7.0267385773
 30
0.0
  0
VERTEX
  5
2FE
330
1D0
100
AcDbEntity
  8
0
  6
CONTINUOUS
 62
     7
100
AcDbVertex
100
AcDb2dVertex
 10
9.3325339642
 20
7.0044247605
 30
0.0
  0
VERTEX
  5
2FF
330
1D0
100
AcDbEntity
  8
0
  6
CONTINUOUS
 62
     7
100
AcDbVertex
100
AcDb2dVertex
 10
9.342899042
 20
6.9807107898
 30
0.0
  0
VERTEX
  5
300
330
1D0
100
AcDbEntity
  8
0
  6
CONTINUOUS
 62
     7
100
AcDbVertex
100
AcDb2dVertex
 10
9.351937449
 20
6.9556585323
 30
0.0
  0
VERTEX
  5
301
330
1D0
100
AcDbEntity
  8
0
  6
CONTINUOUS
 62
     7
100
AcDbVertex
100
AcDb2dVertex
 10
9.3596256052
 20
6.9293333464
 30
0.0
  0
VERTEX
  5
302
330
1D0
100
AcDbEntity
  8
0
  6
CONTINUOUS
 62
     7
100
AcDbVertex
100
AcDb2dVertex
 10
9.3659434529
 20
6.9018039117
 30
0.0
  0
VERTEX
  5
303
330
1D0
100
AcDbEntity
  8
0
  6
CONTINUOUS
 62
     7
100
AcDbVertex
100
AcDb2dVertex
 10
9.3708745097
 20
6.8731420491
 30
0.0
  0
VERTEX
  5
304
330
1D0
100
AcDbEntity
  8
0
  6
CONTINUOUS
 62
     7
100
AcDbVertex
100
AcDb2dVertex
 10
9.3744059109
 20
6.8434225343
 30
0.0
  0
VERTEX
  5
305
330
1D0
100
AcDbEntity
  8
0
  6
CONTINUOUS
 62
     7
100
AcDbVertex
100
AcDb2dVertex
 10
9.3765284436
 20
6.8127229021
 30
0.0
  0
VERTEX
  5
306
330
1D0
100
AcDbEntity
  8
0
  6
CONTINUOUS
 62
     7
100
AcDbVertex
100
AcDb2dVertex
 10
9.3772365703
 20
6.7811232443
 30
0.0
  0
VERTEX
  5
307
330
1D0
100
AcDbEntity
  8
0
  6
CONTINUOUS
 62
     7
100
AcDbVertex
100
AcDb2dVertex
 10
9.3772365703
 20
6.7811232443
 30
0.0
  0
SEQEND
  5
308
330
1D0
100
AcDbEntity
  8
0
  6
CONTINUOUS
 62
     7
  0
POLYLINE
  5
1D1
330
1F
100
AcDbEntity
  8
0
  6
CONTINUOUS
 62
     7
100
AcDb2dPolyline
 66
     1
 10
0.0
 20
0.0
 30
0.0
  0
VERTEX
  5
309
330
1D1
100
AcDbEntity
  8
0
  6
CONTINUOUS
 62
     7
100
AcDbVertex
100
AcDb2dVertex
 10
7.8965288485
 20
7.8956062949
 30
0.0
  0
VERTEX
  5
30A
330
1D1
100
AcDbEntity
  8
0
  6
CONTINUOUS
 62
     7
100
AcDbVertex
100
AcDb2dVertex
 10
7.8841111567
 20
7.9023254192
 30
0.0
  0
VERTEX
  5
30B
330
1D1
100
AcDbEntity
  8
0
  6
CONTINUOUS
 62
     7
100
AcDbVertex
100
AcDb2dVertex
 10
7.8634109726
 20
7.9116784505
 30
0.0
  0
VERTEX
  5
30C
330
1D1
100
AcDbEntity
  8
0
  6
CONTINUOUS
 62
     7
100
AcDbVertex
100
AcDb2dVertex
 10
7.8417958283
 20
7.9192549552
 30
0.0
  0
VERTEX
  5
30D
330
1D1
100
AcDbEntity
  8
0
  6
CONTINUOUS
 62
     7
100
AcDbVertex
100
AcDb2dVertex
 10
7.8193221152
 20
7.9250351671
 30
0.0
  0
VERTEX
  5
30E
330
1D1
100
AcDbEntity
  8
0
  6
CONTINUOUS
 62
     7
100
AcDbVertex
100
AcDb2dVertex
 10
7.7960484646
 20
7.9290040064
 30
0.0
  0
VERTEX
  5
30F
330
1D1
100
AcDbEntity
  8
0
  6
CONTINUOUS
 62
     7
100
AcDbVertex
100
AcDb2dVertex
 10
7.7720355949
 20
7.9311511188
 30
0.0
  0
VERTEX
  5
310
330
1D1
100
AcDbEntity
  8
0
  6
CONTINUOUS
 62
     7
100
AcDbVertex
100
AcDb2dVertex
 10
7.7473461529
 20
7.9314709028
 30
0.0
  0
VERTEX
  5
311
330
1D1
100
AcDbEntity
  8
0
  6
CONTINUOUS
 62
     7
100
AcDbVertex
100
AcDb2dVertex
 10
7.7220445504
 20
7.9299625239
 30
0.0
  0
VERTEX
  5
312
330
1D1
100
AcDbEntity
  8
0
  6
CONTINUOUS
 62
     7
100
AcDbVertex
100
AcDb2dVertex
 10
7.6961967966
 20
7.9266299175
 30
0.0
  0
VERTEX
  5
313
330
1D1
100
AcDbEntity
  8
0
  6
CONTINUOUS
 62
     7
100
AcDbVertex
100
AcDb2dVertex
 10
7.6698703252
 20
7.921481778
 30
0.0
  0
VERTEX
  5
314
330
1D1
100
AcDbEntity
  8
0
  6
CONTINUOUS
 62
     7
100
AcDbVertex
100
AcDb2dVertex
 10
7.643133819
 20
7.9145315361
 30
0.0
  0
VERTEX
  5
315
330
1D1
100
AcDbEntity
  8
0
  6
CONTINUOUS
 62
     7
100
AcDbVertex
100
AcDb2dVertex
 10
7.6160570305
 20
7.9057973244
 30
0.0
  0
VERTEX
  5
316
330
1D1
100
AcDbEntity
  8
0
  6
CONTINUOUS
 62
     7
100
AcDbVertex
100
AcDb2dVertex
 10
7.5887105999
 20
7.8953019294
 30
0.0
  0
VERTEX
  5
317
330
1D1
100
AcDbEntity
  8
0
  6
CONTINUOUS
 62
     7
100
AcDbVertex
100
AcDb2dVertex
 10
7.561165871
 20
7.8830727323
 30
0.0
  0
VERTEX
  5
318
330
1D1
100
AcDbEntity
  8
0
  6
CONTINUOUS
 62
     7
100
AcDbVertex
100
AcDb2dVertex
 10
7.5334947048
 20
7.8691416377
 30
0.0
  0
VERTEX
  5
319
330
1D1
100
AcDbEntity
  8
0
  6
CONTINUOUS
 62
     7
100
AcDbVertex
100
AcDb2dVertex
 10
7.5057692922
 20
7.8535449904
 30
0.0
  0
VERTEX
  5
31A
330
1D1
100
AcDbEntity
  8
0
  6
CONTINUOUS
 62
     7
100
AcDbVertex
100
AcDb2dVertex
 10
7.4780619657
 20
7.8363234801
 30
0.0
  0
VERTEX
  5
31B
330
1D1
100
AcDbEntity
  8
0
  6
CONTINUOUS
 62
     7
100
AcDbVertex
100
AcDb2dVertex
 10
7.4504450105
 20
7.8175220358
 30
0.0
  0
VERTEX
  5
31C
330
1D1
100
AcDbEntity
  8
0
  6
CONTINUOUS
 62
     7
100
AcDbVertex
100
AcDb2dVertex
 10
7.4229904761
 20
7.7971897083
 30
0.0
  0
VERTEX
  5
31D
330
1D1
100
AcDbEntity
  8
0
  6
CONTINUOUS
 62
     7
100
AcDbVertex
100
AcDb2dVertex
 10
7.3957699882
 20
7.7753795424
 30
0.0
  0
VERTEX
  5
31E
330
1D1
100
AcDbEntity
  8
0
  6
CONTINUOUS
 62
     7
100
AcDbVertex
100
AcDb2dVertex
 10
7.368854562
 20
7.7521484382
 30
0.0
  0
VERTEX
  5
31F
330
1D1
100
AcDbEntity
  8
0
  6
CONTINUOUS
 62
     7
100
AcDbVertex
100
AcDb2dVertex
 10
7.3423144168
 20
7.7275570032
 30
0.0
  0
VERTEX
  5
320
330
1D1
100
AcDbEntity
  8
0
  6
CONTINUOUS
 62
     7
100
AcDbVertex
100
AcDb2dVertex
 10
7.3162187927
 20
7.7016693934
 30
0.0
  0
VERTEX
  5
321
330
1D1
100
AcDbEntity
  8
0
  6
CONTINUOUS
 62
     7
100
AcDbVertex
100
AcDb2dVertex
 10
7.2906357703
 20
7.6745531468
 30
0.0
  0
VERTEX
  5
322
330
1D1
100
AcDbEntity
  8
0
  6
CONTINUOUS
 62
     7
100
AcDbVertex
100
AcDb2dVertex
 10
7.2656320928
 20
7.6462790066
 30
0.0
  0
VERTEX
  5
323
330
1D1
100
AcDbEntity
  8
0
  6
CONTINUOUS
 62
     7
100
AcDbVertex
100
AcDb2dVertex
 10
7.2412729918
 20
7.6169207367
 30
0.0
  0
VERTEX
  5
324
330
1D1
100
AcDbEntity
  8
0
  6
CONTINUOUS
 62
     7
100
AcDbVertex
100
AcDb2dVertex
 10
7.2176220176
 20
7.5865549295
 30
0.0
  0
VERTEX
  5
325
330
1D1
100
AcDbEntity
  8
0
  6
CONTINUOUS
 62
     7
100
AcDbVertex
100
AcDb2dVertex
 10
7.1947408727
 20
7.5552608059
 30
0.0
  0
VERTEX
  5
326
330
1D1
100
AcDbEntity
  8
0
  6
CONTINUOUS
 62
     7
100
AcDbVertex
100
AcDb2dVertex
 10
7.1726892516
 20
7.5231200087
 30
0.0
  0
VERTEX
  5
327
330
1D1
100
AcDbEntity
  8
0
  6
CONTINUOUS
 62
     7
100
AcDbVertex
100
AcDb2dVertex
 10
7.1515246843
 20
7.4902163897
 30
0.0
  0
VERTEX
  5
328
330
1D1
100
AcDbEntity
  8
0
  6
CONTINUOUS
 62
     7
100
AcDbVertex
100
AcDb2dVertex
 10
7.1313023868
 20
7.4566357906
 30
0.0
  0
VERTEX
  5
329
330
1D1
100
AcDbEntity
  8
0
  6
CONTINUOUS
 62
     7
100
AcDbVertex
100
AcDb2dVertex
 10
7.1120751167
 20
7.4224658192
 30
0.0
  0
VERTEX
  5
32A
330
1D1
100
AcDbEntity
  8
0
  6
CONTINUOUS
 62
     7
100
AcDbVertex
100
AcDb2dVertex
 10
7.0938930359
 20
7.3877956213
 30
0.0
  0
VERTEX
  5
32B
330
1D1
100
AcDbEntity
  8
0
  6
CONTINUOUS
 62
     7
100
AcDbVertex
100
AcDb2dVertex
 10
7.0768035792
 20
7.3527156474
 30
0.0
  0
VERTEX
  5
32C
330
1D1
100
AcDbEntity
  8
0
  6
CONTINUOUS
 62
     7
100
AcDbVertex
100
AcDb2dVertex
 10
7.0608513312
 20
7.317317417
 30
0.0
  0
VERTEX
  5
32D
330
1D1
100
AcDbEntity
  8
0
  6
CONTINUOUS
 62
     7
100
AcDbVertex
100
AcDb2dVertex
 10
7.0460779094
 20
7.2816932803
 30
0.0
  0
VERTEX
  5
32E
330
1D1
100
AcDbEntity
  8
0
  6
CONTINUOUS
 62
     7
100
AcDbVertex
100
AcDb2dVertex
 10
7.0325218559
 20
7.2459361764
 30
0.0
  0
VERTEX
  5
32F
330
1D1
100
AcDbEntity
  8
0
  6
CONTINUOUS
 62
     7
100
AcDbVertex
100
AcDb2dVertex
 10
7.0202185371
 20
7.2101393916
 30
0.0
  0
VERTEX
  5
330
330
1D1
100
AcDbEntity
  8
0
  6
CONTINUOUS
 62
     7
100
AcDbVertex
100
AcDb2dVertex
 10
7.0092000508
 20
7.1743963156
 30
0.0
  0
VERTEX
  5
331
330
1D1
100
AcDbEntity
  8
0
  6
CONTINUOUS
 62
     7
100
AcDbVertex
100
AcDb2dVertex
 10
6.999495143
 20
7.1388001979
 30
0.0
  0
VERTEX
  5
332
330
1D1
100
AcDbEntity
  8
0
  6
CONTINUOUS
 62
     7
100
AcDbVertex
100
AcDb2dVertex
 10
6.9911291327
 20
7.1034439049
 30
0.0
  0
VERTEX
  5
333
330
1D1
100
AcDbEntity
  8
0
  6
CONTINUOUS
 62
     7
100
AcDbVertex
100
AcDb2dVertex
 10
6.9841238459
 20
7.0684196771
 30
0.0
  0
VERTEX
  5
334
330
1D1
100
AcDbEntity
  8
0
  6
CONTINUOUS
 62
     7
100
AcDbVertex
100
AcDb2dVertex
 10
6.9784975586
 20
7.0338188885
 30
0.0
  0
VERTEX
  5
335
330
1D1
100
AcDbEntity
  8
0
  6
CONTINUOUS
 62
     7
100
AcDbVertex
100
AcDb2dVertex
 10
6.9742649491
 20
6.9997318089
 30
0.0
  0
VERTEX
  5
336
330
1D1
100
AcDbEntity
  8
0
  6
CONTINUOUS
 62
     7
100
AcDbVertex
100
AcDb2dVertex
 10
6.9714370597
 20
6.9662473674
 30
0.0
  0
VERTEX
  5
337
330
1D1
100
AcDbEntity
  8
0
  6
CONTINUOUS
 62
     7
100
AcDbVertex
100
AcDb2dVertex
 10
6.9700212683
 20
6.9334529211
 30
0.0
  0
VERTEX
  5
338
330
1D1
100
AcDbEntity
  8
0
  6
CONTINUOUS
 62
     7
100
AcDbVertex
100
AcDb2dVertex
 10
6.9700212683
 20
6.901434027
 30
0.0
  0
VERTEX
  5
339
330
1D1
100
AcDbEntity
  8
0
  6
CONTINUOUS
 62
     7
100
AcDbVertex
100
AcDb2dVertex
 10
6.9714370597
 20
6.8702742188
 30
0.0
  0
VERTEX
  5
33A
330
1D1
100
AcDbEntity
  8
0
  6
CONTINUOUS
 62
     7
100
AcDbVertex
100
AcDb2dVertex
 10
6.9742649491
 20
6.8400547888
 30
0.0
  0
VERTEX
  5
33B
330
1D1
100
AcDbEntity
  8
0
  6
CONTINUOUS
 62
     7
100
AcDbVertex
100
AcDb2dVertex
 10
6.9784975586
 20
6.8108545761
 30
0.0
  0
VERTEX
  5
33C
330
1D1
100
AcDbEntity
  8
0
  6
CONTINUOUS
 62
     7
100
AcDbVertex
100
AcDb2dVertex
 10
6.9841238459
 20
6.7827497606
 30
0.0
  0
VERTEX
  5
33D
330
1D1
100
AcDbEntity
  8
0
  6
CONTINUOUS
 62
     7
100
AcDbVertex
100
AcDb2dVertex
 10
6.9911291327
 20
6.7558136648
 30
0.0
  0
VERTEX
  5
33E
330
1D1
100
AcDbEntity
  8
0
  6
CONTINUOUS
 62
     7
100
AcDbVertex
100
AcDb2dVertex
 10
6.999495143
 20
6.7301165616
 30
0.0
  0
VERTEX
  5
33F
330
1D1
100
AcDbEntity
  8
0
  6
CONTINUOUS
 62
     7
100
AcDbVertex
100
AcDb2dVertex
 10
7.0092000508
 20
6.705725492
 30
0.0
  0
VERTEX
  5
340
330
1D1
100
AcDbEntity
  8
0
  6
CONTINUOUS
 62
     7
100
AcDbVertex
100
AcDb2dVertex
 10
7.0202185371
 20
6.6827040895
 30
0.0
  0
VERTEX
  5
341
330
1D1
100
AcDbEntity
  8
0
  6
CONTINUOUS
 62
     7
100
AcDbVertex
100
AcDb2dVertex
 10
7.0325218559
 20
6.6611124142
 30
0.0
  0
VERTEX
  5
342
330
1D1
100
AcDbEntity
  8
0
  6
CONTINUOUS
 62
     7
100
AcDbVertex
100
AcDb2dVertex
 10
7.0460779094
 20
6.6410067965
 30
0.0
  0
VERTEX
  5
343
330
1D1
100
AcDbEntity
  8
0
  6
CONTINUOUS
 62
     7
100
AcDbVertex
100
AcDb2dVertex
 10
7.0608513312
 20
6.6224396895
 30
0.0
  0
VERTEX
  5
344
330
1D1
100
AcDbEntity
  8
0
  6
CONTINUOUS
 62
     7
100
AcDbVertex
100
AcDb2dVertex
 10
7.0768035792
 20
6.6054595327
 30
0.0
  0
VERTEX
  5
345
330
1D1
100
AcDbEntity
  8
0
  6
CONTINUOUS
 62
     7
100
AcDbVertex
100
AcDb2dVertex
 10
7.0938930359
 20
6.5901106254
 30
0.0
  0
VERTEX
  5
346
330
1D1
100
AcDbEntity
  8
0
  6
CONTINUOUS
 62
     7
100
AcDbVertex
100
AcDb2dVertex
 10
7.1120751167
 20
6.5764330112
 30
0.0
  0
VERTEX
  5
347
330
1D1
100
AcDbEntity
  8
0
  6
CONTINUOUS
 62
     7
100
AcDbVertex
100
AcDb2dVertex
 10
7.1288747034
 20
6.5658462306
 30
0.0
  0
SEQEND
  5
348
330
1D1
100
AcDbEntity
  8
0
  6
CONTINUOUS
 62
     7
  0
SPLINE
  5
1D2
330
1F
100
AcDbEntity
  8
0
  6
CONTINUOUS
 62
     7
100
AcDbSpline
210
0.0
220
0.0
230
1.0
 70
     8
 71
     3
 72
    29
 73
    25
 74
     0
 42
0.00000001
 43
0.00000001
 40
-0.15713835649848
 40
-0.1260613612896084
 40
-0.0631673630134331
 40
0.0
 40
0.0633023602787567
 40
0.1262276593336203
 40
0.1684518235531778
 40
0.2086660491148556
 40
0.2500651379023528
 40
0.2805421373724742
 40
0.3116364844367434
 40
0.3427388654848037
 40
0.3737946932179061
 40
0.4367595776968927
 40
0.5001583974319951
 40
0.563337460048075
 40
0.6262459080816639
 40
0.6685314124610273
 40
0.7087669916102476
 40
0.7501412804592513
 40
0.7806377318305712
 40
0.8117581114454415
 40
0.8428616435015199
 40
0.8739386387103915
 40
0.9368326369865668
 40
0.9999999999999999
 40
1.063302360278757
 40
1.12622765933362
 40
1.168451823553178
 10
7.542058394172221
 20
7.78946708850786
 30
0.0
 10
7.577909354081334
 20
7.820684820551072
 30
0.0
 10
7.628465498850921
 20
7.839260726455765
 30
0.0
 10
7.682472502788304
 20
7.8408580358224
 30
0.0
 10
7.72883294575087
 20
7.834198570760979
 30
0.0
 10
7.765967974864958
 20
7.823096534413059
 30
0.0
 10
7.794519685155624
 20
7.809454385263948
 30
0.0
 10
7.815508392339729
 20
7.795240305823571
 30
0.0
 10
7.829073518889039
 20
7.781446249623861
 30
0.0
 10
7.837497818382798
 20
7.767045446981317
 30
0.0
 10
7.840611587215402
 20
7.747466834396688
 30
0.0
 10
7.83061607955715
 20
7.722464378703967
 30
0.0
 10
7.794777978768038
 20
7.695391329251765
 30
0.0
 10
7.744222297773162
 20
7.67255721083844
 30
0.0
 10
7.69020905615284
 20
7.662144533232659
 30
0.0
 10
7.643837701329653
 20
7.660767711601932
 30
0.0
 10
7.60668759285779
 20
7.66683847798053
 30
0.0
 10
7.578134461923669
 20
7.678972454343262
 30
0.0
 10
7.557157877185689
 20
7.694311313308843
 30
0.0
 10
7.543610732727062
 20
7.711104617602665
 30
0.0
 10
7.535211391347512
 20
7.729810419474253
 30
0.0
 10
7.532123678009452
 20
7.756174644989626
 30
0.0
 10
7.542058394172221
 20
7.78946708850786
 30
0.0
 10
7.577909354081334
 20
7.820684820551072
 30
0.0
 10
7.628465498850921
 20
7.839260726455765
 30
0.0
  0
SPLINE
  5
1D3
330
1F
100
AcDbEntity
  8
0
  6
CONTINUOUS
 62
     7
100
AcDbSpline
210
0.0
220
0.0
230
1.0
 70
     8
 71
     3
 72
    29
 73
    25
 74
     0
 42
0.00000001
 43
0.00000001
 40
-0.1571383564983549
 40
-0.1260613612896092
 40
-0.0631673630134338
 40
0.0
 40
0.0633023602787891
 40
0.1262276593336262
 40
0.1684518235532059
 40
0.2086660491148847
 40
0.2500651379023541
 40
0.2805421373723891
 40
0.3116364844367411
 40
0.3427388654847709
 40
0.37379469321791
 40
0.4367595776969527
 40
0.5001583974319911
 40
0.5633374600480713
 40
0.6262459080816606
 40
0.6685314124610245
 40
0.7087669916102446
 40
0.7501412804592488
 40
0.7806377318306906
 40
0.811758111445445
 40
0.842861643501645
 40
0.8739386387103908
 40
0.9368326369865662
 40
1.0
 40
1.063302360278789
 40
1.126227659333626
 40
1.168451823553206
 10
8.516418132027706
 20
7.226981184693002
 30
0.0
 10
8.55226909193682
 20
7.258198916736215
 30
0.0
 10
8.602825236706401
 20
7.276774822640916
 30
0.0
 10
8.6568322406438
 20
7.278372132007541
 30
0.0
 10
8.70319268360636
 20
7.271712666946108
 30
0.0
 10
8.740327712720443
 20
7.260610630598191
 30
0.0
 10
8.768879423011095
 20
7.246968481449097
 30
0.0
 10
8.789868130195169
 20
7.232754402008719
 30
0.0
 10
8.8034332567445
 20
7.21896034580902
 30
0.0
 10
8.811857556238316
 20
7.204559543166463
 30
0.0
 10
8.814971325070863
 20
7.184980930581826
 30
0.0
 10
8.80497581741259
 20
7.159978474889107
 30
0.0
 10
8.769137716623506
 20
7.132905425436894
 30
0.0
 10
8.718582035628637
 20
7.110071307023582
 30
0.0
 10
8.664568794008318
 20
7.099658629417798
 30
0.0
 10
8.618197439185131
 20
7.098281807787074
 30
0.0
 10
8.581047330713265
 20
7.104352574165667
 30
0.0
 10
8.552494199779126
 20
7.116486550528424
 30
0.0
 10
8.531517615041114
 20
7.131825409493985
 30
0.0
 10
8.517970470582512
 20
7.148618713787853
 30
0.0
 10
8.50957112920302
 20
7.167324515659428
 30
0.0
 10
8.506483415864917
 20
7.19368874117479
 30
0.0
 10
8.516418132027706
 20
7.226981184693002
 30
0.0
 10
8.55226909193682
 20
7.258198916736215
 30
0.0
 10
8.602825236706401
 20
7.276774822640916
 30
0.0
  0
POLYLINE
  5
1D4
330
1F
100
AcDbEntity
  8
0
  6
CONTINUOUS
 62
     7
100
AcDb2dPolyline
 66
     1
 10
0.0
 20
0.0
 30
0.0
  0
VERTEX
  5
349
330
1D4
100
AcDbEntity
  8
0
  6
CONTINUOUS
 62
     7
100
AcDbVertex
100
AcDb2dVertex
 10
9.0159996572
 20
6.5480933699
 30
0.0
  0
VERTEX
  5
34A
330
1D4
100
AcDbEntity
  8
0
  6
CONTINUOUS
 62
     7
100
AcDbVertex
100
AcDb2dVertex
 10
9.015294824
 20
6.5303410213
 30
0.0
  0
VERTEX
  5
34B
330
1D4
100
AcDbEntity
  8
0
  6
CONTINUOUS
 62
     7
100
AcDbVertex
100
AcDb2dVertex
 10
9.0131865184
 20
6.5119308979
 30
0.0
  0
VERTEX
  5
34C
330
1D4
100
AcDbEntity
  8
0
  6
CONTINUOUS
 62
     7
100
AcDbVertex
100
AcDb2dVertex
 10
9.0096932683
 20
6.4930247884
 30
0.0
  0
VERTEX
  5
34D
330
1D4
100
AcDbEntity
  8
0
  6
CONTINUOUS
 62
     7
100
AcDbVertex
100
AcDb2dVertex
 10
9.0048457726
 20
6.4737888406
 30
0.0
  0
VERTEX
  5
34E
330
1D4
100
AcDbEntity
  8
0
  6
CONTINUOUS
 62
     7
100
AcDbVertex
100
AcDb2dVertex
 10
8.9986866311
 20
6.4543921004
 30
0.0
  0
VERTEX
  5
34F
330
1D4
100
AcDbEntity
  8
0
  6
CONTINUOUS
 62
     7
100
AcDbVertex
100
AcDb2dVertex
 10
8.9912699707
 20
6.4350050273
 30
0.0
  0
VERTEX
  5
350
330
1D4
100
AcDbEntity
  8
0
  6
CONTINUOUS
 62
     7
100
AcDbVertex
100
AcDb2dVertex
 10
8.9826609692
 20
6.4157979955
 30
0.0
  0
VERTEX
  5
351
330
1D4
100
AcDbEntity
  8
0
  6
CONTINUOUS
 62
     7
100
AcDbVertex
100
AcDb2dVertex
 10
8.9729352828
 20
6.396939797
 30
0.0
  0
VERTEX
  5
352
330
1D4
100
AcDbEntity
  8
0
  6
CONTINUOUS
 62
     7
100
AcDbVertex
100
AcDb2dVertex
 10
8.9621783813
 20
6.3785961585
 30
0.0
  0
VERTEX
  5
353
330
1D4
100
AcDbEntity
  8
0
  6
CONTINUOUS
 62
     7
100
AcDbVertex
100
AcDb2dVertex
 10
8.9504847966
 20
6.3609282845
 30
0.0
  0
VERTEX
  5
354
330
1D4
100
AcDbEntity
  8
0
  6
CONTINUOUS
 62
     7
100
AcDbVertex
100
AcDb2dVertex
 10
8.9379572924
 20
6.3440914408
 30
0.0
  0
VERTEX
  5
355
330
1D4
100
AcDbEntity
  8
0
  6
CONTINUOUS
 62
     7
100
AcDbVertex
100
AcDb2dVertex
 10
8.9247059609
 20
6.3282335903
 30
0.0
  0
VERTEX
  5
356
330
1D4
100
AcDbEntity
  8
0
  6
CONTINUOUS
 62
     7
100
AcDbVertex
100
AcDb2dVertex
 10
8.9108472551
 20
6.3134940923
 30
0.0
  0
VERTEX
  5
357
330
1D4
100
AcDbEntity
  8
0
  6
CONTINUOUS
 62
     7
100
AcDbVertex
100
AcDb2dVertex
 10
8.8965029661
 20
6.300002478
 30
0.0
  0
VERTEX
  5
358
330
1D4
100
AcDbEntity
  8
0
  6
CONTINUOUS
 62
     7
100
AcDbVertex
100
AcDb2dVertex
 10
8.8817991518
 20
6.2878773124
 30
0.0
  0
VERTEX
  5
359
330
1D4
100
AcDbEntity
  8
0
  6
CONTINUOUS
 62
     7
100
AcDbVertex
100
AcDb2dVertex
 10
8.8668650299
 20
6.2772251517
 30
0.0
  0
VERTEX
  5
35A
330
1D4
100
AcDbEntity
  8
0
  6
CONTINUOUS
 62
     7
100
AcDbVertex
100
AcDb2dVertex
 10
8.851831842
 20
6.2681396075
 30
0.0
  0
VERTEX
  5
35B
330
1D4
100
AcDbEntity
  8
0
  6
CONTINUOUS
 62
     7
100
AcDbVertex
100
AcDb2dVertex
 10
8.8368317003
 20
6.2607005239
 30
0.0
  0
VERTEX
  5
35C
330
1D4
100
AcDbEntity
  8
0
  6
CONTINUOUS
 62
     7
100
AcDbVertex
100
AcDb2dVertex
 10
8.8219964267
 20
6.2549732758
 30
0.0
  0
VERTEX
  5
35D
330
1D4
100
AcDbEntity
  8
0
  6
CONTINUOUS
 62
     7
100
AcDbVertex
100
AcDb2dVertex
 10
8.8074563939
 20
6.2510081946
 30
0.0
  0
VERTEX
  5
35E
330
1D4
100
AcDbEntity
  8
0
  6
CONTINUOUS
 62
     7
100
AcDbVertex
100
AcDb2dVertex
 10
8.7933393804
 20
6.2488401254
 30
0.0
  0
VERTEX
  5
35F
330
1D4
100
AcDbEntity
  8
0
  6
CONTINUOUS
 62
     7
100
AcDbVertex
100
AcDb2dVertex
 10
8.7797694469
 20
6.2484881214
 30
0.0
  0
VERTEX
  5
360
330
1D4
100
AcDbEntity
  8
0
  6
CONTINUOUS
 62
     7
100
AcDbVertex
100
AcDb2dVertex
 10
8.7668658466
 20
6.2499552759
 30
0.0
  0
VERTEX
  5
361
330
1D4
100
AcDbEntity
  8
0
  6
CONTINUOUS
 62
     7
100
AcDbVertex
100
AcDb2dVertex
 10
8.7547419767
 20
6.2532286957
 30
0.0
  0
VERTEX
  5
362
330
1D4
100
AcDbEntity
  8
0
  6
CONTINUOUS
 62
     7
100
AcDbVertex
100
AcDb2dVertex
 10
8.7435043823
 20
6.2582796136
 30
0.0
  0
VERTEX
  5
363
330
1D4
100
AcDbEntity
  8
0
  6
CONTINUOUS
 62
     7
100
AcDbVertex
100
AcDb2dVertex
 10
8.7332518196
 20
6.2650636422
 30
0.0
  0
VERTEX
  5
364
330
1D4
100
AcDbEntity
  8
0
  6
CONTINUOUS
 62
     7
100
AcDbVertex
100
AcDb2dVertex
 10
8.7240743887
 20
6.2735211631
 30
0.0
  0
VERTEX
  5
365
330
1D4
100
AcDbEntity
  8
0
  6
CONTINUOUS
 62
     7
100
AcDbVertex
100
AcDb2dVertex
 10
8.7160527411
 20
6.2835778512
 30
0.0
  0
VERTEX
  5
366
330
1D4
100
AcDbEntity
  8
0
  6
CONTINUOUS
 62
     7
100
AcDbVertex
100
AcDb2dVertex
 10
8.7092573713
 20
6.2951453281
 30
0.0
  0
VERTEX
  5
367
330
1D4
100
AcDbEntity
  8
0
  6
CONTINUOUS
 62
     7
100
AcDbVertex
100
AcDb2dVertex
 10
8.7037479973
 20
6.3081219384
 30
0.0
  0
VERTEX
  5
368
330
1D4
100
AcDbEntity
  8
0
  6
CONTINUOUS
 62
     7
100
AcDbVertex
100
AcDb2dVertex
 10
8.6995730356
 20
6.3223936432
 30
0.0
  0
VERTEX
  5
369
330
1D4
100
AcDbEntity
  8
0
  6
CONTINUOUS
 62
     7
100
AcDbVertex
100
AcDb2dVertex
 10
8.6967691761
 20
6.3378350221
 30
0.0
  0
VERTEX
  5
36A
330
1D4
100
AcDbEntity
  8
0
  6
CONTINUOUS
 62
     7
100
AcDbVertex
100
AcDb2dVertex
 10
8.695361059
 20
6.3543103758
 30
0.0
  0
VERTEX
  5
36B
330
1D4
100
AcDbEntity
  8
0
  6
CONTINUOUS
 62
     7
100
AcDbVertex
100
AcDb2dVertex
 10
8.695361059
 20
6.3716749184
 30
0.0
  0
VERTEX
  5
36C
330
1D4
100
AcDbEntity
  8
0
  6
CONTINUOUS
 62
     7
100
AcDbVertex
100
AcDb2dVertex
 10
8.6967691761
 20
6.3897760495
 30
0.0
  0
VERTEX
  5
36D
330
1D4
100
AcDbEntity
  8
0
  6
CONTINUOUS
 62
     7
100
AcDbVertex
100
AcDb2dVertex
 10
8.6995730356
 20
6.4084546957
 30
0.0
  0
VERTEX
  5
36E
330
1D4
100
AcDbEntity
  8
0
  6
CONTINUOUS
 62
     7
100
AcDbVertex
100
AcDb2dVertex
 10
8.7037479973
 20
6.4275467086
 30
0.0
  0
VERTEX
  5
36F
330
1D4
100
AcDbEntity
  8
0
  6
CONTINUOUS
 62
     7
100
AcDbVertex
100
AcDb2dVertex
 10
8.7092573713
 20
6.4468843067
 30
0.0
  0
VERTEX
  5
370
330
1D4
100
AcDbEntity
  8
0
  6
CONTINUOUS
 62
     7
100
AcDbVertex
100
AcDb2dVertex
 10
8.7160527411
 20
6.4662975506
 30
0.0
  0
VERTEX
  5
371
330
1D4
100
AcDbEntity
  8
0
  6
CONTINUOUS
 62
     7
100
AcDbVertex
100
AcDb2dVertex
 10
8.7240743887
 20
6.485615836
 30
0.0
  0
VERTEX
  5
372
330
1D4
100
AcDbEntity
  8
0
  6
CONTINUOUS
 62
     7
100
AcDbVertex
100
AcDb2dVertex
 10
8.7332518196
 20
6.504669393
 30
0.0
  0
VERTEX
  5
373
330
1D4
100
AcDbEntity
  8
0
  6
CONTINUOUS
 62
     7
100
AcDbVertex
100
AcDb2dVertex
 10
8.7435043823
 20
6.5232907784
 30
0.0
  0
VERTEX
  5
374
330
1D4
100
AcDbEntity
  8
0
  6
CONTINUOUS
 62
     7
100
AcDbVertex
100
AcDb2dVertex
 10
8.7547419767
 20
6.5413163468
 30
0.0
  0
VERTEX
  5
375
330
1D4
100
AcDbEntity
  8
0
  6
CONTINUOUS
 62
     7
100
AcDbVertex
100
AcDb2dVertex
 10
8.7668658466
 20
6.5585876887
 30
0.0
  0
VERTEX
  5
376
330
1D4
100
AcDbEntity
  8
0
  6
CONTINUOUS
 62
     7
100
AcDbVertex
100
AcDb2dVertex
 10
8.7797694469
 20
6.5749530231
 30
0.0
  0
VERTEX
  5
377
330
1D4
100
AcDbEntity
  8
0
  6
CONTINUOUS
 62
     7
100
AcDbVertex
100
AcDb2dVertex
 10
8.7933393804
 20
6.5902685308
 30
0.0
  0
VERTEX
  5
378
330
1D4
100
AcDbEntity
  8
0
  6
CONTINUOUS
 62
     7
100
AcDbVertex
100
AcDb2dVertex
 10
8.8074563939
 20
6.6043996185
 30
0.0
  0
VERTEX
  5
379
330
1D4
100
AcDbEntity
  8
0
  6
CONTINUOUS
 62
     7
100
AcDbVertex
100
AcDb2dVertex
 10
8.8219964267
 20
6.6172221017
 30
0.0
  0
VERTEX
  5
37A
330
1D4
100
AcDbEntity
  8
0
  6
CONTINUOUS
 62
     7
100
AcDbVertex
100
AcDb2dVertex
 10
8.8368317003
 20
6.6286232961
 30
0.0
  0
VERTEX
  5
37B
330
1D4
100
AcDbEntity
  8
0
  6
CONTINUOUS
 62
     7
100
AcDbVertex
100
AcDb2dVertex
 10
8.851831842
 20
6.6385030074
 30
0.0
  0
VERTEX
  5
37C
330
1D4
100
AcDbEntity
  8
0
  6
CONTINUOUS
 62
     7
100
AcDbVertex
100
AcDb2dVertex
 10
8.8668650299
 20
6.6467744125
 30
0.0
  0
VERTEX
  5
37D
330
1D4
100
AcDbEntity
  8
0
  6
CONTINUOUS
 62
     7
100
AcDbVertex
100
AcDb2dVertex
 10
8.8817991518
 20
6.6533648219
 30
0.0
  0
VERTEX
  5
37E
330
1D4
100
AcDbEntity
  8
0
  6
CONTINUOUS
 62
     7
100
AcDbVertex
100
AcDb2dVertex
 10
8.8965029661
 20
6.6582163188
 30
0.0
  0
VERTEX
  5
37F
330
1D4
100
AcDbEntity
  8
0
  6
CONTINUOUS
 62
     7
100
AcDbVertex
100
AcDb2dVertex
 10
8.9108472551
 20
6.6612862682
 30
0.0
  0
VERTEX
  5
380
330
1D4
100
AcDbEntity
  8
0
  6
CONTINUOUS
 62
     7
100
AcDbVertex
100
AcDb2dVertex
 10
8.9247059609
 20
6.6625476913
 30
0.0
  0
VERTEX
  5
381
330
1D4
100
AcDbEntity
  8
0
  6
CONTINUOUS
 62
     7
100
AcDbVertex
100
AcDb2dVertex
 10
8.9379572924
 20
6.6619895025
 30
0.0
  0
VERTEX
  5
382
330
1D4
100
AcDbEntity
  8
0
  6
CONTINUOUS
 62
     7
100
AcDbVertex
100
AcDb2dVertex
 10
8.9504847966
 20
6.6596166073
 30
0.0
  0
VERTEX
  5
383
330
1D4
100
AcDbEntity
  8
0
  6
CONTINUOUS
 62
     7
100
AcDbVertex
100
AcDb2dVertex
 10
8.9621783813
 20
6.6554498587
 30
0.0
  0
VERTEX
  5
384
330
1D4
100
AcDbEntity
  8
0
  6
CONTINUOUS
 62
     7
100
AcDbVertex
100
AcDb2dVertex
 10
8.9729352828
 20
6.6495258744
 30
0.0
  0
VERTEX
  5
385
330
1D4
100
AcDbEntity
  8
0
  6
CONTINUOUS
 62
     7
100
AcDbVertex
100
AcDb2dVertex
 10
8.9826609692
 20
6.6418967144
 30
0.0
  0
VERTEX
  5
386
330
1D4
100
AcDbEntity
  8
0
  6
CONTINUOUS
 62
     7
100
AcDbVertex
100
AcDb2dVertex
 10
8.9912699707
 20
6.6326294241
 30
0.0
  0
VERTEX
  5
387
330
1D4
100
AcDbEntity
  8
0
  6
CONTINUOUS
 62
     7
100
AcDbVertex
100
AcDb2dVertex
 10
8.9986866311
 20
6.6218054448
 30
0.0
  0
VERTEX
  5
388
330
1D4
100
AcDbEntity
  8
0
  6
CONTINUOUS
 62
     7
100
AcDbVertex
100
AcDb2dVertex
 10
9.0048457726
 20
6.6095198981
 30
0.0
  0
VERTEX
  5
389
330
1D4
100
AcDbEntity
  8
0
  6
CONTINUOUS
 62
     7
100
AcDbVertex
100
AcDb2dVertex
 10
9.0096932683
 20
6.5958807497
 30
0.0
  0
VERTEX
  5
38A
330
1D4
100
AcDbEntity
  8
0
  6
CONTINUOUS
 62
     7
100
AcDbVertex
100
AcDb2dVertex
 10
9.0131865184
 20
6.5810078609
 30
0.0
  0
VERTEX
  5
38B
330
1D4
100
AcDbEntity
  8
0
  6
CONTINUOUS
 62
     7
100
AcDbVertex
100
AcDb2dVertex
 10
9.015294824
 20
6.5650319353
 30
0.0
  0
VERTEX
  5
38C
330
1D4
100
AcDbEntity
  8
0
  6
CONTINUOUS
 62
     7
100
AcDbVertex
100
AcDb2dVertex
 10
9.0159996572
 20
6.5480933699
 30
0.0
  0
SEQEND
  5
38D
330
1D4
100
AcDbEntity
  8
0
  6
CONTINUOUS
 62
     7
  0
SPLINE
  5
1D5
330
1F
100
AcDbEntity
  8
0
  6
CONTINUOUS
 62
     7
100
AcDbSpline
210
0.0
220
0.0
230
1.0
 70
     8
 71
     3
 72
    11
 73
     7
 74
     0
 42
0.00000001
 43
0.00000001
 40
0.0
 40
0.0
 40
0.0
 40
0.0
 40
0.3283578863484253
 40
0.6217139668956376
 40
0.8792495294370506
 40
1.0
 40
1.0
 40
1.0
 40
1.0
 10
8.530809228857324
 20
7.167607597019047
 30
0.0
 10
8.531471376632632
 20
7.160811996090199
 30
0.0
 10
8.532725089539113
 20
7.147945181597335
 30
0.0
 10
8.54224723082417
 20
7.131221913770594
 30
0.0
 10
8.552417023786314
 20
7.119508064472383
 30
0.0
 10
8.560217354114805
 20
7.11429274584777
 30
0.0
 10
8.562707251904532
 20
7.112627994514264
 30
0.0
  0
SPLINE
  5
1D6
330
1F
100
AcDbEntity
  8
0
  6
CONTINUOUS
 62
     7
100
AcDbSpline
210
0.0
220
0.0
230
1.0
 70
     8
 71
     3
 72
     9
 73
     5
 74
     0
 42
0.00000001
 43
0.00000001
 40
0.0
 40
0.0
 40
0.0
 40
0.0
 40
0.4331833304968661
 40
1.0
 40
1.0
 40
1.0
 40
1.0
 10
8.779543056136822
 20
7.142162619965287
 30
0.0
 10
8.782437792603725
 20
7.145782842216521
 30
0.0
 10
8.78912026688911
 20
7.154140094207451
 30
0.0
 10
8.790088700250276
 20
7.162734786605594
 30
0.0
 10
8.79063762442269
 20
7.167606401526115
 30
0.0
  0
ARC
  5
1D7
330
1F
100
AcDbEntity
  8
0
  6
CONTINUOUS
 62
     7
100
AcDbCircle
 10
8.8901745282
 20
6.562606545
 30
0.0
 40
0.0846521063399443
100
AcDbArc
 50
350.1281585283
 51
122.5851473125
  0
POLYLINE
  5
1D8
330
1F
100
AcDbEntity
  8
0
  6
CONTINUOUS
 62
     7
100
AcDb2dPolyline
 66
     1
 10
0.0
 20
0.0
 30
0.0
  0
VERTEX
  5
38E
330
1D8
100
AcDbEntity
  8
0
  6
CONTINUOUS
 62
     7
100
AcDbVertex
100
AcDb2dVertex
 10
8.6955610758
 20
6.3757888695
 30
0.0
  0
VERTEX
  5
38F
330
1D8
100
AcDbEntity
  8
0
  6
CONTINUOUS
 62
     7
100
AcDbVertex
100
AcDb2dVertex
 10
8.6958989145
 20
6.3715339579
 30
0.0
  0
VERTEX
  5
390
330
1D8
100
AcDbEntity
  8
0
  6
CONTINUOUS
 62
     7
100
AcDbVertex
100
AcDb2dVertex
 10
8.6980340682
 20
6.3566719904
 30
0.0
  0
VERTEX
  5
391
330
1D8
100
AcDbEntity
  8
0
  6
CONTINUOUS
 62
     7
100
AcDbVertex
100
AcDb2dVertex
 10
8.7015683055
 20
6.3429497128
 30
0.0
  0
VERTEX
  5
392
330
1D8
100
AcDbEntity
  8
0
  6
CONTINUOUS
 62
     7
100
AcDbVertex
100
AcDb2dVertex
 10
8.7064653603
 20
6.3305079344
 30
0.0
  0
VERTEX
  5
393
330
1D8
100
AcDbEntity
  8
0
  6
CONTINUOUS
 62
     7
100
AcDbVertex
100
AcDb2dVertex
 10
8.7126749821
 20
6.3194743247
 30
0.0
  0
VERTEX
  5
394
330
1D8
100
AcDbEntity
  8
0
  6
CONTINUOUS
 62
     7
100
AcDbVertex
100
AcDb2dVertex
 10
8.7201334519
 20
6.3099621034
 30
0.0
  0
VERTEX
  5
395
330
1D8
100
AcDbEntity
  8
0
  6
CONTINUOUS
 62
     7
100
AcDbVertex
100
AcDb2dVertex
 10
8.7287642356
 20
6.3020688787
 30
0.0
  0
VERTEX
  5
396
330
1D8
100
AcDbEntity
  8
0
  6
CONTINUOUS
 62
     7
100
AcDbVertex
100
AcDb2dVertex
 10
8.7384787697
 20
6.2958756459
 30
0.0
  0
VERTEX
  5
397
330
1D8
100
AcDbEntity
  8
0
  6
CONTINUOUS
 62
     7
100
AcDbVertex
100
AcDb2dVertex
 10
8.74917737
 20
6.2914459559
 30
0.0
  0
VERTEX
  5
398
330
1D8
100
AcDbEntity
  8
0
  6
CONTINUOUS
 62
     7
100
AcDbVertex
100
AcDb2dVertex
 10
8.7607502543
 20
6.2888252633
 30
0.0
  0
VERTEX
  5
399
330
1D8
100
AcDbEntity
  8
0
  6
CONTINUOUS
 62
     7
100
AcDbVertex
100
AcDb2dVertex
 10
8.7730786692
 20
6.2880404599
 30
0.0
  0
VERTEX
  5
39A
330
1D8
100
AcDbEntity
  8
0
  6
CONTINUOUS
 62
     7
100
AcDbVertex
100
AcDb2dVertex
 10
8.7860361085
 20
6.289099599
 30
0.0
  0
VERTEX
  5
39B
330
1D8
100
AcDbEntity
  8
0
  6
CONTINUOUS
 62
     7
100
AcDbVertex
100
AcDb2dVertex
 10
8.7994896113
 20
6.2919918122
 30
0.0
  0
VERTEX
  5
39C
330
1D8
100
AcDbEntity
  8
0
  6
CONTINUOUS
 62
     7
100
AcDbVertex
100
AcDb2dVertex
 10
8.8133011264
 20
6.2966874216
 30
0.0
  0
VERTEX
  5
39D
330
1D8
100
AcDbEntity
  8
0
  6
CONTINUOUS
 62
     7
100
AcDbVertex
100
AcDb2dVertex
 10
8.8273289291
 20
6.3031382439
 30
0.0
  0
VERTEX
  5
39E
330
1D8
100
AcDbEntity
  8
0
  6
CONTINUOUS
 62
     7
100
AcDbVertex
100
AcDb2dVertex
 10
8.841429075
 20
6.3112780849
 30
0.0
  0
VERTEX
  5
39F
330
1D8
100
AcDbEntity
  8
0
  6
CONTINUOUS
 62
     7
100
AcDbVertex
100
AcDb2dVertex
 10
8.8554568777
 20
6.3210234189
 30
0.0
  0
VERTEX
  5
3A0
330
1D8
100
AcDbEntity
  8
0
  6
CONTINUOUS
 62
     7
100
AcDbVertex
100
AcDb2dVertex
 10
8.8692683929
 20
6.3322742454
 30
0.0
  0
VERTEX
  5
3A1
330
1D8
100
AcDbEntity
  8
0
  6
CONTINUOUS
 62
     7
100
AcDbVertex
100
AcDb2dVertex
 10
8.8827218957
 20
6.3449151158
 30
0.0
  0
VERTEX
  5
3A2
330
1D8
100
AcDbEntity
  8
0
  6
CONTINUOUS
 62
     7
100
AcDbVertex
100
AcDb2dVertex
 10
8.8956793349
 20
6.3588163177
 30
0.0
  0
VERTEX
  5
3A3
330
1D8
100
AcDbEntity
  8
0
  6
CONTINUOUS
 62
     7
100
AcDbVertex
100
AcDb2dVertex
 10
8.9080077498
 20
6.373835206
 30
0.0
  0
VERTEX
  5
3A4
330
1D8
100
AcDbEntity
  8
0
  6
CONTINUOUS
 62
     7
100
AcDbVertex
100
AcDb2dVertex
 10
8.9195806342
 20
6.3898176664
 30
0.0
  0
VERTEX
  5
3A5
330
1D8
100
AcDbEntity
  8
0
  6
CONTINUOUS
 62
     7
100
AcDbVertex
100
AcDb2dVertex
 10
8.9302792344
 20
6.4065996974
 30
0.0
  0
VERTEX
  5
3A6
330
1D8
100
AcDbEntity
  8
0
  6
CONTINUOUS
 62
     7
100
AcDbVertex
100
AcDb2dVertex
 10
8.9399937686
 20
6.4240090926
 30
0.0
  0
VERTEX
  5
3A7
330
1D8
100
AcDbEntity
  8
0
  6
CONTINUOUS
 62
     7
100
AcDbVertex
100
AcDb2dVertex
 10
8.9486245523
 20
6.441867208
 30
0.0
  0
VERTEX
  5
3A8
330
1D8
100
AcDbEntity
  8
0
  6
CONTINUOUS
 62
     7
100
AcDbVertex
100
AcDb2dVertex
 10
8.956083022
 20
6.4599907952
 30
0.0
  0
VERTEX
  5
3A9
330
1D8
100
AcDbEntity
  8
0
  6
CONTINUOUS
 62
     7
100
AcDbVertex
100
AcDb2dVertex
 10
8.9622926438
 20
6.4781938816
 30
0.0
  0
VERTEX
  5
3AA
330
1D8
100
AcDbEntity
  8
0
  6
CONTINUOUS
 62
     7
100
AcDbVertex
100
AcDb2dVertex
 10
8.9671896986
 20
6.4962896791
 30
0.0
  0
VERTEX
  5
3AB
330
1D8
100
AcDbEntity
  8
0
  6
CONTINUOUS
 62
     7
100
AcDbVertex
100
AcDb2dVertex
 10
8.9707239359
 20
6.5140925002
 30
0.0
  0
VERTEX
  5
3AC
330
1D8
100
AcDbEntity
  8
0
  6
CONTINUOUS
 62
     7
100
AcDbVertex
100
AcDb2dVertex
 10
8.9728590897
 20
6.5314196638
 30
0.0
  0
VERTEX
  5
3AD
330
1D8
100
AcDbEntity
  8
0
  6
CONTINUOUS
 62
     7
100
AcDbVertex
100
AcDb2dVertex
 10
8.9735732503
 20
6.5480933699
 30
0.0
  0
SEQEND
  5
3AE
330
1D8
100
AcDbEntity
  8
0
  6
CONTINUOUS
 62
     7
  0
SPLINE
  5
1D9
330
1F
100
AcDbEntity
  8
0
  6
CONTINUOUS
 62
     7
100
AcDbSpline
210
0.0
220
0.0
230
1.0
 70
     8
 71
     3
 72
    24
 73
    20
 74
     0
 42
0.00000001
 43
0.00000001
 40
0.0
 40
0.0
 40
0.0
 40
0.0
 40
0.0039119542939496
 40
0.0695474335732651
 40
0.1370000853798482
 40
0.2026898420380384
 40
0.2705676663567802
 40
0.3321646966821032
 40
0.3953539122826772
 40
0.4610709866575695
 40
0.5282252321368901
 40
0.604242014308975
 40
0.6820790294145187
 40
0.7504252026370489
 40
0.8205396932477768
 40
0.8772590037436663
 40
0.9355846943340511
 40
0.9923281526482789
 40
1.0
 40
1.0
 40
1.0
 40
1.0
 10
8.875997494572823
 20
6.644433740077782
 30
0.0
 10
8.876213195215067
 20
6.644146975193535
 30
0.0
 10
8.880047960388929
 20
6.639048817025081
 30
0.0
 10
8.885030758539342
 20
6.628127785017582
 30
0.0
 10
8.890517608244853
 20
6.612187569712645
 30
0.0
 10
8.892352554867207
 20
6.595829477788823
 30
0.0
 10
8.89078840196117
 20
6.580352309287382
 30
0.0
 10
8.886059853586664
 20
6.565931634613254
 30
0.0
 10
8.878665316956921
 20
6.552855099796369
 30
0.0
 10
8.868571773935612
 20
6.540953686418178
 30
0.0
 10
8.85560160039808
 20
6.530232068114436
 30
0.0
 10
8.839909752385086
 20
6.521350468789085
 30
0.0
 10
8.82265322477325
 20
6.515396833356805
 30
0.0
 10
8.805123889819553
 20
6.512753814293075
 30
0.0
 10
8.789258463187883
 20
6.513496475587515
 30
0.0
 10
8.774794244594107
 20
6.517205904048578
 30
0.0
 10
8.762567112246916
 20
6.523542551469184
 30
0.0
 10
8.754450176011764
 20
6.529357193574262
 30
0.0
 10
8.751011664641757
 20
6.533464150746861
 30
0.0
 10
8.75060213876782
 20
6.533953288354493
 30
0.0
  0
ARC
  5
1DA
330
1F
100
AcDbEntity
  8
0
  6
CONTINUOUS
 62
     7
100
AcDbCircle
 10
8.1001594898
 20
6.8915941432
 30
0.0
 40
1.131431230821881
100
AcDbArc
 50
122.5503389866
 51
177.4550375461
  0
SPLINE
  5
1DB
330
1F
100
AcDbEntity
  8
0
  6
CONTINUOUS
 62
     7
100
AcDbSpline
210
0.0
220
0.0
230
1.0
 70
     8
 71
     3
 72
    11
 73
     7
 74
     0
 42
0.00000001
 43
0.00000001
 40
0.0
 40
0.0
 40
0.0
 40
0.0
 40
0.3283578863457979
 40
0.6217139668919992
 40
0.8792495294340194
 40
1.0
 40
1.0
 40
1.0
 40
1.0
 10
7.556449491001845
 20
7.730093500833907
 30
0.0
 10
7.557111638777146
 20
7.723297899905109
 30
0.0
 10
7.55836535168361
 20
7.710431085412313
 30
0.0
 10
7.567887492968588
 20
7.693707817585609
 30
0.0
 10
7.578057285930745
 20
7.681993968287335
 30
0.0
 10
7.585857616259314
 20
7.676778649662657
 30
0.0
 10
7.588347514049105
 20
7.675113898329102
 30
0.0
  0
SPLINE
  5
1DC
330
1F
100
AcDbEntity
  8
0
  6
CONTINUOUS
 62
     7
100
AcDbSpline
210
0.0
220
0.0
230
1.0
 70
     8
 71
     3
 72
     9
 73
     5
 74
     0
 42
0.00000001
 43
0.00000001
 40
0.0
 40
0.0
 40
0.0
 40
0.0
 40
0.4331833304977961
 40
1.0
 40
1.0
 40
1.0
 40
1.0
 10
7.805183318281344
 20
7.704648523780144
 30
0.0
 10
7.808078054748251
 20
7.708268746031386
 30
0.0
 10
7.814760529033633
 20
7.71662599802232
 30
0.0
 10
7.8157289623948
 20
7.725220690420462
 30
0.0
 10
7.81627788656721
 20
7.730092305340975
 30
0.0
  0
ARC
  5
1DD
330
1F
100
AcDbEntity
  8
0
  6
CONTINUOUS
 62
     7
100
AcDbCircle
 10
8.7386880648
 20
6.6011077564
 30
0.0
 40
0.138972657854903
100
AcDbArc
 50
0.9756557822
 51
17.9453113354
  0
POLYLINE
  5
1DE
330
1F
100
AcDbEntity
  8
0
  6
CONTINUOUS
 62
     7
100
AcDb2dPolyline
 66
     1
 10
0.0
 20
0.0
 30
0.0
  0
VERTEX
  5
3AF
330
1DE
100
AcDbEntity
  8
0
  6
CONTINUOUS
 62
     7
100
AcDbVertex
100
AcDb2dVertex
 10
8.7789734817
 20
6.5739971501
 30
0.0
  0
VERTEX
  5
3B0
330
1DE
100
AcDbEntity
  8
0
  6
CONTINUOUS
 62
     7
100
AcDbVertex
100
AcDb2dVertex
 10
8.7841006702
 20
6.5695956791
 30
0.0
  0
VERTEX
  5
3B1
330
1DE
100
AcDbEntity
  8
0
  6
CONTINUOUS
 62
     7
100
AcDbVertex
100
AcDb2dVertex
 10
8.7946102917
 20
6.5618605321
 30
0.0
  0
VERTEX
  5
3B2
330
1DE
100
AcDbEntity
  8
0
  6
CONTINUOUS
 62
     7
100
AcDbVertex
100
AcDb2dVertex
 10
8.8052187207
 20
6.5557364164
 30
0.0
  0
VERTEX
  5
3B3
330
1DE
100
AcDbEntity
  8
0
  6
CONTINUOUS
 62
     7
100
AcDbVertex
100
AcDb2dVertex
 10
8.8157283421
 20
6.5513374128
 30
0.0
  0
VERTEX
  5
3B4
330
1DE
100
AcDbEntity
  8
0
  6
CONTINUOUS
 62
     7
100
AcDbVertex
100
AcDb2dVertex
 10
8.8259433818
 20
6.5487454663
 30
0.0
  0
VERTEX
  5
3B5
330
1DE
100
AcDbEntity
  8
0
  6
CONTINUOUS
 62
     7
100
AcDbVertex
100
AcDb2dVertex
 10
8.8356735527
 20
6.5480088601
 30
0.0
  0
VERTEX
  5
3B6
330
1DE
100
AcDbEntity
  8
0
  6
CONTINUOUS
 62
     7
100
AcDbVertex
100
AcDb2dVertex
 10
8.8447376003
 20
6.5491413157
 30
0.0
  0
VERTEX
  5
3B7
330
1DE
100
AcDbEntity
  8
0
  6
CONTINUOUS
 62
     7
100
AcDbVertex
100
AcDb2dVertex
 10
8.8529666784
 20
6.5521217375
 30
0.0
  0
VERTEX
  5
3B8
330
1DE
100
AcDbEntity
  8
0
  6
CONTINUOUS
 62
     7
100
AcDbVertex
100
AcDb2dVertex
 10
8.8602074949
 20
6.5568946061
 30
0.0
  0
VERTEX
  5
3B9
330
1DE
100
AcDbEntity
  8
0
  6
CONTINUOUS
 62
     7
100
AcDbVertex
100
AcDb2dVertex
 10
8.8663251671
 20
6.5633710118
 30
0.0
  0
VERTEX
  5
3BA
330
1DE
100
AcDbEntity
  8
0
  6
CONTINUOUS
 62
     7
100
AcDbVertex
100
AcDb2dVertex
 10
8.8712057344
 20
6.5714303115
 30
0.0
  0
VERTEX
  5
3BB
330
1DE
100
AcDbEntity
  8
0
  6
CONTINUOUS
 62
     7
100
AcDbVertex
100
AcDb2dVertex
 10
8.874758281
 20
6.5809223757
 30
0.0
  0
VERTEX
  5
3BC
330
1DE
100
AcDbEntity
  8
0
  6
CONTINUOUS
 62
     7
100
AcDbVertex
100
AcDb2dVertex
 10
8.8769166296
 20
6.5916703852
 30
0.0
  0
VERTEX
  5
3BD
330
1DE
100
AcDbEntity
  8
0
  6
CONTINUOUS
 62
     7
100
AcDbVertex
100
AcDb2dVertex
 10
8.8776405744
 20
6.6034741248
 30
0.0
  0
SEQEND
  5
3BE
330
1DE
100
AcDbEntity
  8
0
  6
CONTINUOUS
 62
     7
  0
ARC
  5
1DF
330
1F
100
AcDbEntity
  8
0
  6
CONTINUOUS
 62
     7
100
AcDbCircle
 10
8.8550190924
 20
6.6129721649
 30
0.0
 40
0.0747698342121978
100
AcDbArc
 50
236.7668694954
 51
278.344306843
  0
POLYLINE
  5
1E0
330
1F
100
AcDbEntity
  8
0
  6
CONTINUOUS
 62
     7
100
AcDb2dPolyline
 66
     1
 10
0.0
 20
0.0
 30
0.0
  0
VERTEX
  5
3BF
330
1E0
100
AcDbEntity
  8
0
  6
CONTINUOUS
 62
     7
100
AcDbVertex
100
AcDb2dVertex
 10
7.782982477
 20
7.6908761451
 30
0.0
  0
VERTEX
  5
3C0
330
1E0
100
AcDbEntity
  8
0
  6
CONTINUOUS
 62
     7
100
AcDbVertex
100
AcDb2dVertex
 10
7.7890184548
 20
7.6950470483
 30
0.0
  0
VERTEX
  5
3C1
330
1E0
100
AcDbEntity
  8
0
  6
CONTINUOUS
 62
     7
100
AcDbVertex
100
AcDb2dVertex
 10
7.7981892086
 20
7.7028371733
 30
0.0
  0
VERTEX
  5
3C2
330
1E0
100
AcDbEntity
  8
0
  6
CONTINUOUS
 62
     7
100
AcDbVertex
100
AcDb2dVertex
 10
7.8055963573
 20
7.7112294056
 30
0.0
  0
VERTEX
  5
3C3
330
1E0
100
AcDbEntity
  8
0
  6
CONTINUOUS
 62
     7
100
AcDbVertex
100
AcDb2dVertex
 10
7.8111230855
 20
7.7200913944
 30
0.0
  0
VERTEX
  5
3C4
330
1E0
100
AcDbEntity
  8
0
  6
CONTINUOUS
 62
     7
100
AcDbVertex
100
AcDb2dVertex
 10
7.8146822336
 20
7.7292833811
 30
0.0
  0
VERTEX
  5
3C5
330
1E0
100
AcDbEntity
  8
0
  6
CONTINUOUS
 62
     7
100
AcDbVertex
100
AcDb2dVertex
 10
7.8162176716
 20
7.7386604025
 30
0.0
  0
VERTEX
  5
3C6
330
1E0
100
AcDbEntity
  8
0
  6
CONTINUOUS
 62
     7
100
AcDbVertex
100
AcDb2dVertex
 10
7.8157051848
 20
7.7480745773
 30
0.0
  0
VERTEX
  5
3C7
330
1E0
100
AcDbEntity
  8
0
  6
CONTINUOUS
 62
     7
100
AcDbVertex
100
AcDb2dVertex
 10
7.8131528553
 20
7.7573774383
 30
0.0
  0
VERTEX
  5
3C8
330
1E0
100
AcDbEntity
  8
0
  6
CONTINUOUS
 62
     7
100
AcDbVertex
100
AcDb2dVertex
 10
7.8086009349
 20
7.766422274
 30
0.0
  0
VERTEX
  5
3C9
330
1E0
100
AcDbEntity
  8
0
  6
CONTINUOUS
 62
     7
100
AcDbVertex
100
AcDb2dVertex
 10
7.8021212102
 20
7.7750664419
 30
0.0
  0
VERTEX
  5
3CA
330
1E0
100
AcDbEntity
  8
0
  6
CONTINUOUS
 62
     7
100
AcDbVertex
100
AcDb2dVertex
 10
7.7938158703
 20
7.7831736182
 30
0.0
  0
VERTEX
  5
3CB
330
1E0
100
AcDbEntity
  8
0
  6
CONTINUOUS
 62
     7
100
AcDbVertex
100
AcDb2dVertex
 10
7.7838158953
 20
7.7906159479
 30
0.0
  0
VERTEX
  5
3CC
330
1E0
100
AcDbEntity
  8
0
  6
CONTINUOUS
 62
     7
100
AcDbVertex
100
AcDb2dVertex
 10
7.7782436515
 20
7.7940420369
 30
0.0
  0
SEQEND
  5
3CD
330
1E0
100
AcDbEntity
  8
0
  6
CONTINUOUS
 62
     7
  0
POLYLINE
  5
1E1
330
1F
100
AcDbEntity
  8
0
  6
CONTINUOUS
 62
     7
100
AcDb2dPolyline
 66
     1
 10
0.0
 20
0.0
 30
0.0
  0
VERTEX
  5
3CE
330
1E1
100
AcDbEntity
  8
0
  6
CONTINUOUS
 62
     7
100
AcDbVertex
100
AcDb2dVertex
 10
7.5944773887
 20
7.7940420369
 30
0.0
  0
VERTEX
  5
3CF
330
1E1
100
AcDbEntity
  8
0
  6
CONTINUOUS
 62
     7
100
AcDbVertex
100
AcDb2dVertex
 10
7.5837025854
 20
7.7869854928
 30
0.0
  0
VERTEX
  5
3D0
330
1E1
100
AcDbEntity
  8
0
  6
CONTINUOUS
 62
     7
100
AcDbVertex
100
AcDb2dVertex
 10
7.5745318315
 20
7.7791953677
 30
0.0
  0
VERTEX
  5
3D1
330
1E1
100
AcDbEntity
  8
0
  6
CONTINUOUS
 62
     7
100
AcDbVertex
100
AcDb2dVertex
 10
7.5671246829
 20
7.7708031355
 30
0.0
  0
VERTEX
  5
3D2
330
1E1
100
AcDbEntity
  8
0
  6
CONTINUOUS
 62
     7
100
AcDbVertex
100
AcDb2dVertex
 10
7.5615979546
 20
7.7619411466
 30
0.0
  0
VERTEX
  5
3D3
330
1E1
100
AcDbEntity
  8
0
  6
CONTINUOUS
 62
     7
100
AcDbVertex
100
AcDb2dVertex
 10
7.5580388065
 20
7.75274916
 30
0.0
  0
VERTEX
  5
3D4
330
1E1
100
AcDbEntity
  8
0
  6
CONTINUOUS
 62
     7
100
AcDbVertex
100
AcDb2dVertex
 10
7.5565033685
 20
7.7433721386
 30
0.0
  0
VERTEX
  5
3D5
330
1E1
100
AcDbEntity
  8
0
  6
CONTINUOUS
 62
     7
100
AcDbVertex
100
AcDb2dVertex
 10
7.5570158554
 20
7.7339579638
 30
0.0
  0
VERTEX
  5
3D6
330
1E1
100
AcDbEntity
  8
0
  6
CONTINUOUS
 62
     7
100
AcDbVertex
100
AcDb2dVertex
 10
7.5595681849
 20
7.7246551027
 30
0.0
  0
VERTEX
  5
3D7
330
1E1
100
AcDbEntity
  8
0
  6
CONTINUOUS
 62
     7
100
AcDbVertex
100
AcDb2dVertex
 10
7.5641201052
 20
7.7156102671
 30
0.0
  0
VERTEX
  5
3D8
330
1E1
100
AcDbEntity
  8
0
  6
CONTINUOUS
 62
     7
100
AcDbVertex
100
AcDb2dVertex
 10
7.5705998299
 20
7.7069660992
 30
0.0
  0
VERTEX
  5
3D9
330
1E1
100
AcDbEntity
  8
0
  6
CONTINUOUS
 62
     7
100
AcDbVertex
100
AcDb2dVertex
 10
7.5789051699
 20
7.6988589229
 30
0.0
  0
VERTEX
  5
3DA
330
1E1
100
AcDbEntity
  8
0
  6
CONTINUOUS
 62
     7
100
AcDbVertex
100
AcDb2dVertex
 10
7.5889051449
 20
7.6914165932
 30
0.0
  0
VERTEX
  5
3DB
330
1E1
100
AcDbEntity
  8
0
  6
CONTINUOUS
 62
     7
100
AcDbVertex
100
AcDb2dVertex
 10
7.6004420494
 20
7.68475648
 30
0.0
  0
VERTEX
  5
3DC
330
1E1
100
AcDbEntity
  8
0
  6
CONTINUOUS
 62
     7
100
AcDbVertex
100
AcDb2dVertex
 10
7.6133339395
 20
7.6789836173
 30
0.0
  0
VERTEX
  5
3DD
330
1E1
100
AcDbEntity
  8
0
  6
CONTINUOUS
 62
     7
100
AcDbVertex
100
AcDb2dVertex
 10
7.6273775024
 20
7.6741890466
 30
0.0
  0
VERTEX
  5
3DE
330
1E1
100
AcDbEntity
  8
0
  6
CONTINUOUS
 62
     7
100
AcDbVertex
100
AcDb2dVertex
 10
7.6423512627
 20
7.6704483811
 30
0.0
  0
VERTEX
  5
3DF
330
1E1
100
AcDbEntity
  8
0
  6
CONTINUOUS
 62
     7
100
AcDbVertex
100
AcDb2dVertex
 10
7.6580190753
 20
7.6678206134
 30
0.0
  0
VERTEX
  5
3E0
330
1E1
100
AcDbEntity
  8
0
  6
CONTINUOUS
 62
     7
100
AcDbVertex
100
AcDb2dVertex
 10
7.6741338494
 20
7.666347185
 30
0.0
  0
VERTEX
  5
3E1
330
1E1
100
AcDbEntity
  8
0
  6
CONTINUOUS
 62
     7
100
AcDbVertex
100
AcDb2dVertex
 10
7.6904414455
 20
7.6660513326
 30
0.0
  0
VERTEX
  5
3E2
330
1E1
100
AcDbEntity
  8
0
  6
CONTINUOUS
 62
     7
100
AcDbVertex
100
AcDb2dVertex
 10
7.7066846829
 20
7.6669377221
 30
0.0
  0
VERTEX
  5
3E3
330
1E1
100
AcDbEntity
  8
0
  6
CONTINUOUS
 62
     7
100
AcDbVertex
100
AcDb2dVertex
 10
7.7226073961
 20
7.6689923746
 30
0.0
  0
VERTEX
  5
3E4
330
1E1
100
AcDbEntity
  8
0
  6
CONTINUOUS
 62
     7
100
AcDbVertex
100
AcDb2dVertex
 10
7.7257156567
 20
7.6695381039
 30
0.0
  0
SEQEND
  5
3E5
330
1E1
100
AcDbEntity
  8
0
  6
CONTINUOUS
 62
     7
  0
POLYLINE
  5
1E2
330
1F
100
AcDbEntity
  8
0
  6
CONTINUOUS
 62
     7
100
AcDb2dPolyline
 66
     1
 10
0.0
 20
0.0
 30
0.0
  0
VERTEX
  5
3E6
330
1E2
100
AcDbEntity
  8
0
  6
CONTINUOUS
 62
     7
100
AcDbVertex
100
AcDb2dVertex
 10
7.7640865883
 20
7.7124767827
 30
0.0
  0
VERTEX
  5
3E7
330
1E2
100
AcDbEntity
  8
0
  6
CONTINUOUS
 62
     7
100
AcDbVertex
100
AcDb2dVertex
 10
7.7527789453
 20
7.7067848682
 30
0.0
  0
VERTEX
  5
3E8
330
1E2
100
AcDbEntity
  8
0
  6
CONTINUOUS
 62
     7
100
AcDbVertex
100
AcDb2dVertex
 10
7.7402340526
 20
7.7020348321
 30
0.0
  0
VERTEX
  5
3E9
330
1E2
100
AcDbEntity
  8
0
  6
CONTINUOUS
 62
     7
100
AcDbVertex
100
AcDb2dVertex
 10
7.726685598
 20
7.6983151587
 30
0.0
  0
VERTEX
  5
3EA
330
1E2
100
AcDbEntity
  8
0
  6
CONTINUOUS
 62
     7
100
AcDbVertex
100
AcDb2dVertex
 10
7.7123859635
 20
7.6956951384
 30
0.0
  0
VERTEX
  5
3EB
330
1E2
100
AcDbEntity
  8
0
  6
CONTINUOUS
 62
     7
100
AcDbVertex
100
AcDb2dVertex
 10
7.6976015242
 20
7.6942235773
 30
0.0
  0
VERTEX
  5
3EC
330
1E2
100
AcDbEntity
  8
0
  6
CONTINUOUS
 62
     7
100
AcDbVertex
100
AcDb2dVertex
 10
7.6826076862
 20
7.6939278877
 30
0.0
  0
VERTEX
  5
3ED
330
1E2
100
AcDbEntity
  8
0
  6
CONTINUOUS
 62
     7
100
AcDbVertex
100
AcDb2dVertex
 10
7.6676837565
 20
7.6948135778
 30
0.0
  0
VERTEX
  5
3EE
330
1E2
100
AcDbEntity
  8
0
  6
CONTINUOUS
 62
     7
100
AcDbVertex
100
AcDb2dVertex
 10
7.6531077395
 20
7.6968641489
 30
0.0
  0
VERTEX
  5
3EF
330
1E2
100
AcDbEntity
  8
0
  6
CONTINUOUS
 62
     7
100
AcDbVertex
100
AcDb2dVertex
 10
7.6391511589
 20
7.7000414026
 30
0.0
  0
VERTEX
  5
3F0
330
1E2
100
AcDbEntity
  8
0
  6
CONTINUOUS
 62
     7
100
AcDbVertex
100
AcDb2dVertex
 10
7.6260739994
 20
7.7042861529
 30
0.0
  0
VERTEX
  5
3F1
330
1E2
100
AcDbEntity
  8
0
  6
CONTINUOUS
 62
     7
100
AcDbVertex
100
AcDb2dVertex
 10
7.6141198637
 20
7.7095193279
 30
0.0
  0
VERTEX
  5
3F2
330
1E2
100
AcDbEntity
  8
0
  6
CONTINUOUS
 62
     7
100
AcDbVertex
100
AcDb2dVertex
 10
7.6035114348
 20
7.7156434436
 30
0.0
  0
VERTEX
  5
3F3
330
1E2
100
AcDbEntity
  8
0
  6
CONTINUOUS
 62
     7
100
AcDbVertex
100
AcDb2dVertex
 10
7.5944463275
 20
7.7225444192
 30
0.0
  0
VERTEX
  5
3F4
330
1E2
100
AcDbEntity
  8
0
  6
CONTINUOUS
 62
     7
100
AcDbVertex
100
AcDb2dVertex
 10
7.5870934078
 20
7.7300937027
 30
0.0
  0
VERTEX
  5
3F5
330
1E2
100
AcDbEntity
  8
0
  6
CONTINUOUS
 62
     7
100
AcDbVertex
100
AcDb2dVertex
 10
7.5815896465
 20
7.7381506652
 30
0.0
  0
VERTEX
  5
3F6
330
1E2
100
AcDbEntity
  8
0
  6
CONTINUOUS
 62
     7
100
AcDbVertex
100
AcDb2dVertex
 10
7.5780375684
 20
7.7465652207
 30
0.0
  0
VERTEX
  5
3F7
330
1E2
100
AcDbEntity
  8
0
  6
CONTINUOUS
 62
     7
100
AcDbVertex
100
AcDb2dVertex
 10
7.5765033419
 20
7.7551806219
 30
0.0
  0
VERTEX
  5
3F8
330
1E2
100
AcDbEntity
  8
0
  6
CONTINUOUS
 62
     7
100
AcDbVertex
100
AcDb2dVertex
 10
7.5770155467
 20
7.7638363803
 30
0.0
  0
VERTEX
  5
3F9
330
1E2
100
AcDbEntity
  8
0
  6
CONTINUOUS
 62
     7
100
AcDbVertex
100
AcDb2dVertex
 10
7.5795646416
 20
7.7723712554
 30
0.0
  0
VERTEX
  5
3FA
330
1E2
100
AcDbEntity
  8
0
  6
CONTINUOUS
 62
     7
100
AcDbVertex
100
AcDb2dVertex
 10
7.5841031416
 20
7.7806262587
 30
0.0
  0
VERTEX
  5
3FB
330
1E2
100
AcDbEntity
  8
0
  6
CONTINUOUS
 62
     7
100
AcDbVertex
100
AcDb2dVertex
 10
7.5905465031
 20
7.7884476151
 30
0.0
  0
VERTEX
  5
3FC
330
1E2
100
AcDbEntity
  8
0
  6
CONTINUOUS
 62
     7
100
AcDbVertex
100
AcDb2dVertex
 10
7.5987746984
 20
7.7956896275
 30
0.0
  0
VERTEX
  5
3FD
330
1E2
100
AcDbEntity
  8
0
  6
CONTINUOUS
 62
     7
100
AcDbVertex
100
AcDb2dVertex
 10
7.6086344518
 20
7.8022173909
 30
0.0
  0
VERTEX
  5
3FE
330
1E2
100
AcDbEntity
  8
0
  6
CONTINUOUS
 62
     7
100
AcDbVertex
100
AcDb2dVertex
 10
7.6199420949
 20
7.8079093054
 30
0.0
  0
VERTEX
  5
3FF
330
1E2
100
AcDbEntity
  8
0
  6
CONTINUOUS
 62
     7
100
AcDbVertex
100
AcDb2dVertex
 10
7.6324869875
 20
7.8126593415
 30
0.0
  0
VERTEX
  5
400
330
1E2
100
AcDbEntity
  8
0
  6
CONTINUOUS
 62
     7
100
AcDbVertex
100
AcDb2dVertex
 10
7.6460354422
 20
7.8163790149
 30
0.0
  0
VERTEX
  5
401
330
1E2
100
AcDbEntity
  8
0
  6
CONTINUOUS
 62
     7
100
AcDbVertex
100
AcDb2dVertex
 10
7.6603350767
 20
7.8189990351
 30
0.0
  0
VERTEX
  5
402
330
1E2
100
AcDbEntity
  8
0
  6
CONTINUOUS
 62
     7
100
AcDbVertex
100
AcDb2dVertex
 10
7.675119516
 20
7.8204705963
 30
0.0
  0
VERTEX
  5
403
330
1E2
100
AcDbEntity
  8
0
  6
CONTINUOUS
 62
     7
100
AcDbVertex
100
AcDb2dVertex
 10
7.6901133539
 20
7.8207662858
 30
0.0
  0
VERTEX
  5
404
330
1E2
100
AcDbEntity
  8
0
  6
CONTINUOUS
 62
     7
100
AcDbVertex
100
AcDb2dVertex
 10
7.7050372837
 20
7.8198805957
 30
0.0
  0
VERTEX
  5
405
330
1E2
100
AcDbEntity
  8
0
  6
CONTINUOUS
 62
     7
100
AcDbVertex
100
AcDb2dVertex
 10
7.7196133006
 20
7.8178300247
 30
0.0
  0
VERTEX
  5
406
330
1E2
100
AcDbEntity
  8
0
  6
CONTINUOUS
 62
     7
100
AcDbVertex
100
AcDb2dVertex
 10
7.7335698812
 20
7.8146527709
 30
0.0
  0
VERTEX
  5
407
330
1E2
100
AcDbEntity
  8
0
  6
CONTINUOUS
 62
     7
100
AcDbVertex
100
AcDb2dVertex
 10
7.7466470407
 20
7.8104080207
 30
0.0
  0
VERTEX
  5
408
330
1E2
100
AcDbEntity
  8
0
  6
CONTINUOUS
 62
     7
100
AcDbVertex
100
AcDb2dVertex
 10
7.7586011764
 20
7.8051748457
 30
0.0
  0
VERTEX
  5
409
330
1E2
100
AcDbEntity
  8
0
  6
CONTINUOUS
 62
     7
100
AcDbVertex
100
AcDb2dVertex
 10
7.7692096054
 20
7.79905073
 30
0.0
  0
VERTEX
  5
40A
330
1E2
100
AcDbEntity
  8
0
  6
CONTINUOUS
 62
     7
100
AcDbVertex
100
AcDb2dVertex
 10
7.7782747126
 20
7.7921497544
 30
0.0
  0
VERTEX
  5
40B
330
1E2
100
AcDbEntity
  8
0
  6
CONTINUOUS
 62
     7
100
AcDbVertex
100
AcDb2dVertex
 10
7.7856276324
 20
7.7846004709
 30
0.0
  0
VERTEX
  5
40C
330
1E2
100
AcDbEntity
  8
0
  6
CONTINUOUS
 62
     7
100
AcDbVertex
100
AcDb2dVertex
 10
7.7911313937
 20
7.7765435084
 30
0.0
  0
VERTEX
  5
40D
330
1E2
100
AcDbEntity
  8
0
  6
CONTINUOUS
 62
     7
100
AcDbVertex
100
AcDb2dVertex
 10
7.7946834718
 20
7.7681289529
 30
0.0
  0
VERTEX
  5
40E
330
1E2
100
AcDbEntity
  8
0
  6
CONTINUOUS
 62
     7
100
AcDbVertex
100
AcDb2dVertex
 10
7.7962176983
 20
7.7595135516
 30
0.0
  0
VERTEX
  5
40F
330
1E2
100
AcDbEntity
  8
0
  6
CONTINUOUS
 62
     7
100
AcDbVertex
100
AcDb2dVertex
 10
7.7957054934
 20
7.7508577932
 30
0.0
  0
VERTEX
  5
410
330
1E2
100
AcDbEntity
  8
0
  6
CONTINUOUS
 62
     7
100
AcDbVertex
100
AcDb2dVertex
 10
7.7931563986
 20
7.7423229181
 30
0.0
  0
VERTEX
  5
411
330
1E2
100
AcDbEntity
  8
0
  6
CONTINUOUS
 62
     7
100
AcDbVertex
100
AcDb2dVertex
 10
7.7886178986
 20
7.7340679148
 30
0.0
  0
VERTEX
  5
412
330
1E2
100
AcDbEntity
  8
0
  6
CONTINUOUS
 62
     7
100
AcDbVertex
100
AcDb2dVertex
 10
7.7821745371
 20
7.7262465584
 30
0.0
  0
VERTEX
  5
413
330
1E2
100
AcDbEntity
  8
0
  6
CONTINUOUS
 62
     7
100
AcDbVertex
100
AcDb2dVertex
 10
7.7739463418
 20
7.7190045461
 30
0.0
  0
VERTEX
  5
414
330
1E2
100
AcDbEntity
  8
0
  6
CONTINUOUS
 62
     7
100
AcDbVertex
100
AcDb2dVertex
 10
7.7640865883
 20
7.7124767827
 30
0.0
  0
SEQEND
  5
415
330
1E2
100
AcDbEntity
  8
0
  6
CONTINUOUS
 62
     7
  0
LINE
  5
1E3
330
1F
100
AcDbEntity
  8
0
  6
CONTINUOUS
 62
     7
100
AcDbLine
 10
7.5994010579
 20
7.7707983048
 30
0.0
 11
7.6630598024
 21
7.8075477158
 31
0.0
  0
LINE
  5
1E4
330
1F
100
AcDbEntity
  8
0
  6
CONTINUOUS
 62
     7
100
AcDbLine
 10
7.6227017755
 20
7.7205976758
 30
0.0
 11
7.5994010579
 21
7.7707983048
 31
0.0
  0
LINE
  5
1E5
330
1F
100
AcDbEntity
  8
0
  6
CONTINUOUS
 62
     7
100
AcDbLine
 10
7.7096612377
 20
7.7071464578
 30
0.0
 11
7.6227017755
 21
7.7205976758
 31
0.0
  0
LINE
  5
1E6
330
1F
100
AcDbEntity
  8
0
  6
CONTINUOUS
 62
     7
100
AcDbLine
 10
7.7733199823
 20
7.7438958688
 30
0.0
 11
7.7096612377
 21
7.7071464578
 31
0.0
  0
LINE
  5
1E7
330
1F
100
AcDbEntity
  8
0
  6
CONTINUOUS
 62
     7
100
AcDbLine
 10
7.7500192646
 20
7.7940964978
 30
0.0
 11
7.7733199823
 21
7.7438958688
 31
0.0
  0
LINE
  5
1E8
330
1F
100
AcDbEntity
  8
0
  6
CONTINUOUS
 62
     7
100
AcDbLine
 10
7.6630598024
 20
7.8075477158
 30
0.0
 11
7.7500192646
 21
7.7940964978
 31
0.0
  0
LINE
  5
1E9
330
1F
100
AcDbEntity
  8
0
  6
CONTINUOUS
 62
     7
100
AcDbLine
 10
7.6472959496
 20
7.7167933561
 30
0.0
 11
7.6630598024
 21
7.7258936346
 31
0.0
  0
LINE
  5
1EA
330
1F
100
AcDbEntity
  8
0
  6
CONTINUOUS
 62
     7
100
AcDbLine
 10
7.6630598024
 20
7.7258936346
 30
0.0
 11
7.7254250905
 21
7.7162467363
 31
0.0
  0
LINE
  5
1EB
330
1F
100
AcDbEntity
  8
0
  6
CONTINUOUS
 62
     7
100
AcDbLine
 10
7.7500192646
 20
7.7304446508
 30
0.0
 11
7.7500192646
 21
7.7940964978
 31
0.0
  0
LINE
  5
1EC
330
1F
100
AcDbEntity
  8
0
  6
CONTINUOUS
 62
     7
100
AcDbLine
 10
7.6630598024
 20
7.7258936346
 30
0.0
 11
7.6630598024
 21
7.8075477158
 31
0.0
  0
POLYLINE
  5
1ED
330
1F
100
AcDbEntity
  8
0
  6
CONTINUOUS
 62
     7
100
AcDb2dPolyline
 66
     1
 10
0.0
 20
0.0
 30
0.0
  0
VERTEX
  5
416
330
1ED
100
AcDbEntity
  8
0
  6
CONTINUOUS
 62
     7
100
AcDbVertex
100
AcDb2dVertex
 10
8.7526033893
 20
7.2315561331
 30
0.0
  0
VERTEX
  5
417
330
1ED
100
AcDbEntity
  8
0
  6
CONTINUOUS
 62
     7
100
AcDbVertex
100
AcDb2dVertex
 10
8.7581756331
 20
7.2281300441
 30
0.0
  0
VERTEX
  5
418
330
1ED
100
AcDbEntity
  8
0
  6
CONTINUOUS
 62
     7
100
AcDbVertex
100
AcDb2dVertex
 10
8.7681756081
 20
7.2206877144
 30
0.0
  0
VERTEX
  5
419
330
1ED
100
AcDbEntity
  8
0
  6
CONTINUOUS
 62
     7
100
AcDbVertex
100
AcDb2dVertex
 10
8.7764809481
 20
7.2125805381
 30
0.0
  0
VERTEX
  5
41A
330
1ED
100
AcDbEntity
  8
0
  6
CONTINUOUS
 62
     7
100
AcDbVertex
100
AcDb2dVertex
 10
8.7829606728
 20
7.2039363702
 30
0.0
  0
VERTEX
  5
41B
330
1ED
100
AcDbEntity
  8
0
  6
CONTINUOUS
 62
     7
100
AcDbVertex
100
AcDb2dVertex
 10
8.7875125931
 20
7.1948915345
 30
0.0
  0
VERTEX
  5
41C
330
1ED
100
AcDbEntity
  8
0
  6
CONTINUOUS
 62
     7
100
AcDbVertex
100
AcDb2dVertex
 10
8.7900649226
 20
7.1855886734
 30
0.0
  0
VERTEX
  5
41D
330
1ED
100
AcDbEntity
  8
0
  6
CONTINUOUS
 62
     7
100
AcDbVertex
100
AcDb2dVertex
 10
8.7905774095
 20
7.1761744986
 30
0.0
  0
VERTEX
  5
41E
330
1ED
100
AcDbEntity
  8
0
  6
CONTINUOUS
 62
     7
100
AcDbVertex
100
AcDb2dVertex
 10
8.7890419715
 20
7.1667974773
 30
0.0
  0
VERTEX
  5
41F
330
1ED
100
AcDbEntity
  8
0
  6
CONTINUOUS
 62
     7
100
AcDbVertex
100
AcDb2dVertex
 10
8.7854828234
 20
7.1576054906
 30
0.0
  0
VERTEX
  5
420
330
1ED
100
AcDbEntity
  8
0
  6
CONTINUOUS
 62
     7
100
AcDbVertex
100
AcDb2dVertex
 10
8.7799560951
 20
7.1487435017
 30
0.0
  0
VERTEX
  5
421
330
1ED
100
AcDbEntity
  8
0
  6
CONTINUOUS
 62
     7
100
AcDbVertex
100
AcDb2dVertex
 10
8.7725489465
 20
7.1403512695
 30
0.0
  0
VERTEX
  5
422
330
1ED
100
AcDbEntity
  8
0
  6
CONTINUOUS
 62
     7
100
AcDbVertex
100
AcDb2dVertex
 10
8.7633781926
 20
7.1325611445
 30
0.0
  0
VERTEX
  5
423
330
1ED
100
AcDbEntity
  8
0
  6
CONTINUOUS
 62
     7
100
AcDbVertex
100
AcDb2dVertex
 10
8.7554478394
 20
7.1271997201
 30
0.0
  0
SEQEND
  5
424
330
1ED
100
AcDbEntity
  8
0
  6
CONTINUOUS
 62
     7
  0
POLYLINE
  5
1EE
330
1F
100
AcDbEntity
  8
0
  6
CONTINUOUS
 62
     7
100
AcDb2dPolyline
 66
     1
 10
0.0
 20
0.0
 30
0.0
  0
VERTEX
  5
425
330
1EE
100
AcDbEntity
  8
0
  6
CONTINUOUS
 62
     7
100
AcDbVertex
100
AcDb2dVertex
 10
8.6992651231
 20
7.1069052049
 30
0.0
  0
VERTEX
  5
426
330
1EE
100
AcDbEntity
  8
0
  6
CONTINUOUS
 62
     7
100
AcDbVertex
100
AcDb2dVertex
 10
8.6969671339
 20
7.1065064708
 30
0.0
  0
VERTEX
  5
427
330
1EE
100
AcDbEntity
  8
0
  6
CONTINUOUS
 62
     7
100
AcDbVertex
100
AcDb2dVertex
 10
8.6810444207
 20
7.1044518183
 30
0.0
  0
VERTEX
  5
428
330
1EE
100
AcDbEntity
  8
0
  6
CONTINUOUS
 62
     7
100
AcDbVertex
100
AcDb2dVertex
 10
8.6648011833
 20
7.1035654288
 30
0.0
  0
VERTEX
  5
429
330
1EE
100
AcDbEntity
  8
0
  6
CONTINUOUS
 62
     7
100
AcDbVertex
100
AcDb2dVertex
 10
8.6484935873
 20
7.1038612812
 30
0.0
  0
VERTEX
  5
42A
330
1EE
100
AcDbEntity
  8
0
  6
CONTINUOUS
 62
     7
100
AcDbVertex
100
AcDb2dVertex
 10
8.6323788132
 20
7.1053347096
 30
0.0
  0
VERTEX
  5
42B
330
1EE
100
AcDbEntity
  8
0
  6
CONTINUOUS
 62
     7
100
AcDbVertex
100
AcDb2dVertex
 10
8.6167110006
 20
7.1079624773
 30
0.0
  0
VERTEX
  5
42C
330
1EE
100
AcDbEntity
  8
0
  6
CONTINUOUS
 62
     7
100
AcDbVertex
100
AcDb2dVertex
 10
8.6017372402
 20
7.1117031428
 30
0.0
  0
VERTEX
  5
42D
330
1EE
100
AcDbEntity
  8
0
  6
CONTINUOUS
 62
     7
100
AcDbVertex
100
AcDb2dVertex
 10
8.5876936773
 20
7.1164977135
 30
0.0
  0
VERTEX
  5
42E
330
1EE
100
AcDbEntity
  8
0
  6
CONTINUOUS
 62
     7
100
AcDbVertex
100
AcDb2dVertex
 10
8.5748017872
 20
7.1222705762
 30
0.0
  0
VERTEX
  5
42F
330
1EE
100
AcDbEntity
  8
0
  6
CONTINUOUS
 62
     7
100
AcDbVertex
100
AcDb2dVertex
 10
8.5632648827
 20
7.1289306894
 30
0.0
  0
VERTEX
  5
430
330
1EE
100
AcDbEntity
  8
0
  6
CONTINUOUS
 62
     7
100
AcDbVertex
100
AcDb2dVertex
 10
8.5532649077
 20
7.1363730191
 30
0.0
  0
VERTEX
  5
431
330
1EE
100
AcDbEntity
  8
0
  6
CONTINUOUS
 62
     7
100
AcDbVertex
100
AcDb2dVertex
 10
8.5449595678
 20
7.1444801954
 30
0.0
  0
VERTEX
  5
432
330
1EE
100
AcDbEntity
  8
0
  6
CONTINUOUS
 62
     7
100
AcDbVertex
100
AcDb2dVertex
 10
8.5384798431
 20
7.1531243632
 30
0.0
  0
VERTEX
  5
433
330
1EE
100
AcDbEntity
  8
0
  6
CONTINUOUS
 62
     7
100
AcDbVertex
100
AcDb2dVertex
 10
8.5339279227
 20
7.1621691989
 30
0.0
  0
VERTEX
  5
434
330
1EE
100
AcDbEntity
  8
0
  6
CONTINUOUS
 62
     7
100
AcDbVertex
100
AcDb2dVertex
 10
8.5313755932
 20
7.17147206
 30
0.0
  0
VERTEX
  5
435
330
1EE
100
AcDbEntity
  8
0
  6
CONTINUOUS
 62
     7
100
AcDbVertex
100
AcDb2dVertex
 10
8.5308631064
 20
7.1808862348
 30
0.0
  0
VERTEX
  5
436
330
1EE
100
AcDbEntity
  8
0
  6
CONTINUOUS
 62
     7
100
AcDbVertex
100
AcDb2dVertex
 10
8.5323985444
 20
7.1902632562
 30
0.0
  0
VERTEX
  5
437
330
1EE
100
AcDbEntity
  8
0
  6
CONTINUOUS
 62
     7
100
AcDbVertex
100
AcDb2dVertex
 10
8.5359576925
 20
7.1994552428
 30
0.0
  0
VERTEX
  5
438
330
1EE
100
AcDbEntity
  8
0
  6
CONTINUOUS
 62
     7
100
AcDbVertex
100
AcDb2dVertex
 10
8.5414844207
 20
7.2083172317
 30
0.0
  0
VERTEX
  5
439
330
1EE
100
AcDbEntity
  8
0
  6
CONTINUOUS
 62
     7
100
AcDbVertex
100
AcDb2dVertex
 10
8.5488915694
 20
7.2167094639
 30
0.0
  0
VERTEX
  5
43A
330
1EE
100
AcDbEntity
  8
0
  6
CONTINUOUS
 62
     7
100
AcDbVertex
100
AcDb2dVertex
 10
8.5580623232
 20
7.224499589
 30
0.0
  0
VERTEX
  5
43B
330
1EE
100
AcDbEntity
  8
0
  6
CONTINUOUS
 62
     7
100
AcDbVertex
100
AcDb2dVertex
 10
8.5688520541
 20
7.2315647519
 30
0.0
  0
SEQEND
  5
43C
330
1EE
100
AcDbEntity
  8
0
  6
CONTINUOUS
 62
     7
  0
POLYLINE
  5
1EF
330
1F
100
AcDbEntity
  8
0
  6
CONTINUOUS
 62
     7
100
AcDb2dPolyline
 66
     1
 10
0.0
 20
0.0
 30
0.0
  0
VERTEX
  5
43D
330
1EF
100
AcDbEntity
  8
0
  6
CONTINUOUS
 62
     7
100
AcDbVertex
100
AcDb2dVertex
 10
8.5829941897
 20
7.2397314871
 30
0.0
  0
VERTEX
  5
43E
330
1EF
100
AcDbEntity
  8
0
  6
CONTINUOUS
 62
     7
100
AcDbVertex
100
AcDb2dVertex
 10
8.5731344362
 20
7.2332037237
 30
0.0
  0
VERTEX
  5
43F
330
1EF
100
AcDbEntity
  8
0
  6
CONTINUOUS
 62
     7
100
AcDbVertex
100
AcDb2dVertex
 10
8.5649062409
 20
7.2259617113
 30
0.0
  0
VERTEX
  5
440
330
1EF
100
AcDbEntity
  8
0
  6
CONTINUOUS
 62
     7
100
AcDbVertex
100
AcDb2dVertex
 10
8.5584628794
 20
7.2181403549
 30
0.0
  0
VERTEX
  5
441
330
1EF
100
AcDbEntity
  8
0
  6
CONTINUOUS
 62
     7
100
AcDbVertex
100
AcDb2dVertex
 10
8.5539243794
 20
7.2098853516
 30
0.0
  0
VERTEX
  5
442
330
1EF
100
AcDbEntity
  8
0
  6
CONTINUOUS
 62
     7
100
AcDbVertex
100
AcDb2dVertex
 10
8.5513752846
 20
7.2013504765
 30
0.0
  0
VERTEX
  5
443
330
1EF
100
AcDbEntity
  8
0
  6
CONTINUOUS
 62
     7
100
AcDbVertex
100
AcDb2dVertex
 10
8.5508630797
 20
7.1926947181
 30
0.0
  0
VERTEX
  5
444
330
1EF
100
AcDbEntity
  8
0
  6
CONTINUOUS
 62
     7
100
AcDbVertex
100
AcDb2dVertex
 10
8.5523973062
 20
7.1840793168
 30
0.0
  0
VERTEX
  5
445
330
1EF
100
AcDbEntity
  8
0
  6
CONTINUOUS
 62
     7
100
AcDbVertex
100
AcDb2dVertex
 10
8.5559493843
 20
7.1756647614
 30
0.0
  0
VERTEX
  5
446
330
1EF
100
AcDbEntity
  8
0
  6
CONTINUOUS
 62
     7
100
AcDbVertex
100
AcDb2dVertex
 10
8.5614531456
 20
7.1676077989
 30
0.0
  0
VERTEX
  5
447
330
1EF
100
AcDbEntity
  8
0
  6
CONTINUOUS
 62
     7
100
AcDbVertex
100
AcDb2dVertex
 10
8.5688060654
 20
7.1600585154
 30
0.0
  0
VERTEX
  5
448
330
1EF
100
AcDbEntity
  8
0
  6
CONTINUOUS
 62
     7
100
AcDbVertex
100
AcDb2dVertex
 10
8.5778711726
 20
7.1531575397
 30
0.0
  0
VERTEX
  5
449
330
1EF
100
AcDbEntity
  8
0
  6
CONTINUOUS
 62
     7
100
AcDbVertex
100
AcDb2dVertex
 10
8.5884796016
 20
7.1470334241
 30
0.0
  0
VERTEX
  5
44A
330
1EF
100
AcDbEntity
  8
0
  6
CONTINUOUS
 62
     7
100
AcDbVertex
100
AcDb2dVertex
 10
8.6004337373
 20
7.141800249
 30
0.0
  0
VERTEX
  5
44B
330
1EF
100
AcDbEntity
  8
0
  6
CONTINUOUS
 62
     7
100
AcDbVertex
100
AcDb2dVertex
 10
8.6135108968
 20
7.1375554988
 30
0.0
  0
VERTEX
  5
44C
330
1EF
100
AcDbEntity
  8
0
  6
CONTINUOUS
 62
     7
100
AcDbVertex
100
AcDb2dVertex
 10
8.6274674774
 20
7.1343782451
 30
0.0
  0
VERTEX
  5
44D
330
1EF
100
AcDbEntity
  8
0
  6
CONTINUOUS
 62
     7
100
AcDbVertex
100
AcDb2dVertex
 10
8.6420434943
 20
7.132327674
 30
0.0
  0
VERTEX
  5
44E
330
1EF
100
AcDbEntity
  8
0
  6
CONTINUOUS
 62
     7
100
AcDbVertex
100
AcDb2dVertex
 10
8.6569674241
 20
7.1314419839
 30
0.0
  0
VERTEX
  5
44F
330
1EF
100
AcDbEntity
  8
0
  6
CONTINUOUS
 62
     7
100
AcDbVertex
100
AcDb2dVertex
 10
8.671961262
 20
7.1317376735
 30
0.0
  0
VERTEX
  5
450
330
1EF
100
AcDbEntity
  8
0
  6
CONTINUOUS
 62
     7
100
AcDbVertex
100
AcDb2dVertex
 10
8.6867457013
 20
7.1332092346
 30
0.0
  0
VERTEX
  5
451
330
1EF
100
AcDbEntity
  8
0
  6
CONTINUOUS
 62
     7
100
AcDbVertex
100
AcDb2dVertex
 10
8.7010453358
 20
7.1358292549
 30
0.0
  0
VERTEX
  5
452
330
1EF
100
AcDbEntity
  8
0
  6
CONTINUOUS
 62
     7
100
AcDbVertex
100
AcDb2dVertex
 10
8.7145937905
 20
7.1395489283
 30
0.0
  0
VERTEX
  5
453
330
1EF
100
AcDbEntity
  8
0
  6
CONTINUOUS
 62
     7
100
AcDbVertex
100
AcDb2dVertex
 10
8.7271386831
 20
7.1442989643
 30
0.0
  0
VERTEX
  5
454
330
1EF
100
AcDbEntity
  8
0
  6
CONTINUOUS
 62
     7
100
AcDbVertex
100
AcDb2dVertex
 10
8.7384463262
 20
7.1499908789
 30
0.0
  0
VERTEX
  5
455
330
1EF
100
AcDbEntity
  8
0
  6
CONTINUOUS
 62
     7
100
AcDbVertex
100
AcDb2dVertex
 10
8.7483060796
 20
7.1565186423
 30
0.0
  0
VERTEX
  5
456
330
1EF
100
AcDbEntity
  8
0
  6
CONTINUOUS
 62
     7
100
AcDbVertex
100
AcDb2dVertex
 10
8.7565342749
 20
7.1637606546
 30
0.0
  0
VERTEX
  5
457
330
1EF
100
AcDbEntity
  8
0
  6
CONTINUOUS
 62
     7
100
AcDbVertex
100
AcDb2dVertex
 10
8.7629776364
 20
7.171582011
 30
0.0
  0
VERTEX
  5
458
330
1EF
100
AcDbEntity
  8
0
  6
CONTINUOUS
 62
     7
100
AcDbVertex
100
AcDb2dVertex
 10
8.7675161364
 20
7.1798370143
 30
0.0
  0
VERTEX
  5
459
330
1EF
100
AcDbEntity
  8
0
  6
CONTINUOUS
 62
     7
100
AcDbVertex
100
AcDb2dVertex
 10
8.7700652313
 20
7.1883718894
 30
0.0
  0
VERTEX
  5
45A
330
1EF
100
AcDbEntity
  8
0
  6
CONTINUOUS
 62
     7
100
AcDbVertex
100
AcDb2dVertex
 10
8.7705774361
 20
7.1970276478
 30
0.0
  0
VERTEX
  5
45B
330
1EF
100
AcDbEntity
  8
0
  6
CONTINUOUS
 62
     7
100
AcDbVertex
100
AcDb2dVertex
 10
8.7690432096
 20
7.2056430491
 30
0.0
  0
VERTEX
  5
45C
330
1EF
100
AcDbEntity
  8
0
  6
CONTINUOUS
 62
     7
100
AcDbVertex
100
AcDb2dVertex
 10
8.7654911315
 20
7.2140576046
 30
0.0
  0
VERTEX
  5
45D
330
1EF
100
AcDbEntity
  8
0
  6
CONTINUOUS
 62
     7
100
AcDbVertex
100
AcDb2dVertex
 10
8.7599873702
 20
7.222114567
 30
0.0
  0
VERTEX
  5
45E
330
1EF
100
AcDbEntity
  8
0
  6
CONTINUOUS
 62
     7
100
AcDbVertex
100
AcDb2dVertex
 10
8.7526344505
 20
7.2296638505
 30
0.0
  0
VERTEX
  5
45F
330
1EF
100
AcDbEntity
  8
0
  6
CONTINUOUS
 62
     7
100
AcDbVertex
100
AcDb2dVertex
 10
8.7435693432
 20
7.2365648262
 30
0.0
  0
VERTEX
  5
460
330
1EF
100
AcDbEntity
  8
0
  6
CONTINUOUS
 62
     7
100
AcDbVertex
100
AcDb2dVertex
 10
8.7329609143
 20
7.2426889419
 30
0.0
  0
VERTEX
  5
461
330
1EF
100
AcDbEntity
  8
0
  6
CONTINUOUS
 62
     7
100
AcDbVertex
100
AcDb2dVertex
 10
8.7210067786
 20
7.2479221169
 30
0.0
  0
VERTEX
  5
462
330
1EF
100
AcDbEntity
  8
0
  6
CONTINUOUS
 62
     7
100
AcDbVertex
100
AcDb2dVertex
 10
8.7079296191
 20
7.2521668671
 30
0.0
  0
VERTEX
  5
463
330
1EF
100
AcDbEntity
  8
0
  6
CONTINUOUS
 62
     7
100
AcDbVertex
100
AcDb2dVertex
 10
8.6939730385
 20
7.2553441209
 30
0.0
  0
VERTEX
  5
464
330
1EF
100
AcDbEntity
  8
0
  6
CONTINUOUS
 62
     7
100
AcDbVertex
100
AcDb2dVertex
 10
8.6793970215
 20
7.2573946919
 30
0.0
  0
VERTEX
  5
465
330
1EF
100
AcDbEntity
  8
0
  6
CONTINUOUS
 62
     7
100
AcDbVertex
100
AcDb2dVertex
 10
8.6644730918
 20
7.258280382
 30
0.0
  0
VERTEX
  5
466
330
1EF
100
AcDbEntity
  8
0
  6
CONTINUOUS
 62
     7
100
AcDbVertex
100
AcDb2dVertex
 10
8.6494792538
 20
7.2579846924
 30
0.0
  0
VERTEX
  5
467
330
1EF
100
AcDbEntity
  8
0
  6
CONTINUOUS
 62
     7
100
AcDbVertex
100
AcDb2dVertex
 10
8.6346948145
 20
7.2565131313
 30
0.0
  0
VERTEX
  5
468
330
1EF
100
AcDbEntity
  8
0
  6
CONTINUOUS
 62
     7
100
AcDbVertex
100
AcDb2dVertex
 10
8.62039518
 20
7.253893111
 30
0.0
  0
VERTEX
  5
469
330
1EF
100
AcDbEntity
  8
0
  6
CONTINUOUS
 62
     7
100
AcDbVertex
100
AcDb2dVertex
 10
8.6068467254
 20
7.2501734376
 30
0.0
  0
VERTEX
  5
46A
330
1EF
100
AcDbEntity
  8
0
  6
CONTINUOUS
 62
     7
100
AcDbVertex
100
AcDb2dVertex
 10
8.5943018327
 20
7.2454234016
 30
0.0
  0
VERTEX
  5
46B
330
1EF
100
AcDbEntity
  8
0
  6
CONTINUOUS
 62
     7
100
AcDbVertex
100
AcDb2dVertex
 10
8.5829941897
 20
7.2397314871
 30
0.0
  0
SEQEND
  5
46C
330
1EF
100
AcDbEntity
  8
0
  6
CONTINUOUS
 62
     7
  0
LINE
  5
1F0
330
1F
100
AcDbEntity
  8
0
  6
CONTINUOUS
 62
     7
100
AcDbLine
 10
8.7243790025
 20
7.2316105939
 30
0.0
 11
8.6374195403
 21
7.2450618119
 31
0.0
  0
LINE
  5
1F1
330
1F
100
AcDbEntity
  8
0
  6
CONTINUOUS
 62
     7
100
AcDbLine
 10
8.6374195403
 20
7.2450618119
 30
0.0
 11
8.5737607957
 21
7.208312401
 31
0.0
  0
LINE
  5
1F2
330
1F
100
AcDbEntity
  8
0
  6
CONTINUOUS
 62
     7
100
AcDbLine
 10
8.5737607957
 20
7.208312401
 30
0.0
 11
8.5970615134
 21
7.158111772
 31
0.0
  0
LINE
  5
1F3
330
1F
100
AcDbEntity
  8
0
  6
CONTINUOUS
 62
     7
100
AcDbLine
 10
8.5970615134
 20
7.158111772
 30
0.0
 11
8.6840209756
 21
7.144660554
 31
0.0
  0
LINE
  5
1F4
330
1F
100
AcDbEntity
  8
0
  6
CONTINUOUS
 62
     7
100
AcDbLine
 10
8.6840209756
 20
7.144660554
 30
0.0
 11
8.7476797201
 21
7.181409965
 31
0.0
  0
LINE
  5
1F5
330
1F
100
AcDbEntity
  8
0
  6
CONTINUOUS
 62
     7
100
AcDbLine
 10
8.7476797201
 20
7.181409965
 30
0.0
 11
8.7243790025
 21
7.2316105939
 31
0.0
  0
LINE
  5
1F6
330
1F
100
AcDbEntity
  8
0
  6
CONTINUOUS
 62
     7
100
AcDbLine
 10
8.6374195403
 20
7.1634077308
 30
0.0
 11
8.6216556875
 21
7.1543074523
 31
0.0
  0
LINE
  5
1F7
330
1F
100
AcDbEntity
  8
0
  6
CONTINUOUS
 62
     7
100
AcDbLine
 10
8.6997848284
 20
7.1537608325
 30
0.0
 11
8.6374195403
 21
7.1634077308
 31
0.0
  0
LINE
  5
1F8
330
1F
100
AcDbEntity
  8
0
  6
CONTINUOUS
 62
     7
100
AcDbLine
 10
8.7243790025
 20
7.167958747
 30
0.0
 11
8.7243790025
 21
7.2316105939
 31
0.0
  0
LINE
  5
1F9
330
1F
100
AcDbEntity
  8
0
  6
CONTINUOUS
 62
     7
100
AcDbLine
 10
8.6374195403
 20
7.1634077308
 30
0.0
 11
8.6374195403
 21
7.2450618119
 31
0.0
  0
ENDSEC
  0
SECTION
  2
OBJECTS
  0
DICTIONARY
  5
C
330
0
100
AcDbDictionary
  3
ACAD_GROUP
350
D
  3
ACAD_LAYOUT
350
1A
  3
ACAD_MLEADERSTYLE
350
1FC
  3
ACAD_MLINESTYLE
350
17
  3
ACAD_PLOTSETTINGS
350
19
  3
ACAD_SCALELIST
350
6F
  3
ACAD_VISUALSTYLE
350
2A
  3
ACDBVARIABLEDICTIONARY
350
1FA
1001
ACAD
1000
TREAT_AS_HARD
1070
     0
  0
DICTIONARY
  5
D
102
{ACAD_REACTORS
330
C
102
}
330
C
100
AcDbDictionary
1001
ACAD
1000
TREAT_AS_HARD
1070
     0
  0
DICTIONARY
  5
1A
102
{ACAD_REACTORS
330
C
102
}
330
C
100
AcDbDictionary
1001
ACAD
1000
TREAT_AS_HARD
1070
     0
  0
DICTIONARY
  5
1FC
102
{ACAD_REACTORS
330
C
102
}
330
C
100
AcDbDictionary
1001
ACAD
1000
TREAT_AS_HARD
1070
     0
  0
DICTIONARY
  5
17
102
{ACAD_REACTORS
330
C
102
}
330
C
100
AcDbDictionary
  3
STANDARD
350
18
1001
ACAD
1000
TREAT_AS_HARD
1070
     0
  0
DICTIONARY
  5
19
102
{ACAD_REACTORS
330
C
102
}
330
C
100
AcDbDictionary
1001
ACAD
1000
TREAT_AS_HARD
1070
     0
  0
DICTIONARY
  5
6F
102
{ACAD_REACTORS
330
C
102
}
330
C
100
AcDbDictionary
  3
A0
350
70
  3
A1
350
71
  3
A2
350
72
  3
A3
350
73
  3
A4
350
74
  3
A5
350
75
  3
A6
350
76
  3
A7
350
77
  3
A8
350
78
  3
A9
350
79
  3
B0
350
7A
  3
B1
350
7B
  3
B2
350
7C
  3
B3
350
7D
  3
B4
350
7E
  3
B5
350
7F
  3
B6
350
80
  3
B7
350
81
  3
B8
350
82
  3
B9
350
83
  3
C0
350
84
  3
C1
350
85
  3
C2
350
86
  3
C3
350
87
  3
C4
350
88
  3
C5
350
89
  3
C6
350
8A
  3
C7
350
8B
  3
C8
350
8C
  3
C9
350
8D
  3
D0
350
8E
  3
D1
350
8F
  3
D2
350
90
1001
ACAD
1000
TREAT_AS_HARD
1070
     0
  0
DICTIONARY
  5
2A
102
{ACAD_REACTORS
330
C
102
}
330
C
100
AcDbDictionary
  3
2DWIREFRAME
350
2F
  3
3D_HIDDEN
350
31
  3
3DWIREFRAME
350
30
  3
BASIC
350
32
  3
BRIGHTEN
350
36
  3
COLORCHANGE
350
3A
  3
CONCEPTUAL
350
34
  3
DIM
350
35
  3
FACEPATTERN
350
39
  3
FLAT
350
2B
  3
FLATWITHEDGES
350
2C
  3
GOURAUD
350
2D
  3
GOURAUDWITHEDGES
350
2E
  3
LINEPATTERN
350
38
  3
REALISTIC
350
33
  3
THICKEN
350
37
1001
ACAD
1000
TREAT_AS_HARD
1070
     0
  0
DICTIONARY
  5
1FA
102
{ACAD_REACTORS
330
C
102
}
330
C
100
AcDbDictionary
  3
CANNOSCALE
350
1FD
  3
DIMASSOC
350
1FE
  3
HIDETEXT
350
1FF
1001
ACAD
1000
TREAT_AS_HARD
1070
     0
  0
MLINESTYLE
  5
18
102
{ACAD_REACTORS
330
17
102
}
330
17
100
AcDbMlineStyle
  2
Standard
 70
     0
  3

 62
   256
 51
90.0
 52
90.0
 71
     2
 49
0.5
 62
   256
  6
BYLAYER
 49
-0.5
 62
   256
  6
BYLAYER
  0
ACAD_PROXY_OBJECT
  5
70
102
{ACAD_REACTORS
330
6F
102
}
330
6F
100
AcDbZombieObject
 90
      499
 91
      502
 93
       41
310
903313A31580
  0
ACAD_PROXY_OBJECT
  5
71
102
{ACAD_REACTORS
330
6F
102
}
330
6F
100
AcDbZombieObject
 90
      499
 91
      502
 93
      105
310
903313A324000000000000004000
  0
ACAD_PROXY_OBJECT
  5
72
102
{ACAD_REACTORS
330
6F
102
}
330
6F
100
AcDbZombieObject
 90
      499
 91
      502
 93
      105
310
903313A344000000000000104000
  0
ACAD_PROXY_OBJECT
  5
73
102
{ACAD_REACTORS
330
6F
102
}
330
6F
100
AcDbZombieObject
 90
      499
 91
      502
 93
      105
310
903313A354000000000000144000
  0
ACAD_PROXY_OBJECT
  5
74
102
{ACAD_REACTORS
330
6F
102
}
330
6F
100
AcDbZombieObject
 90
      499
 91
      502
 93
      105
310
903313A384000000000000204000
  0
ACAD_PROXY_OBJECT
  5
75
102
{ACAD_REACTORS
330
6F
102
}
330
6F
100
AcDbZombieObject
 90
      499
 91
      502
 93
      113
310
904313A31304000000000000244000
  0
ACAD_PROXY_OBJECT
  5
76
102
{ACAD_REACTORS
330
6F
102
}
330
6F
100
AcDbZombieObject
 90
      499
 91
      502
 93
      113
310
904313A31364000000000000304000
  0
ACAD_PROXY_OBJECT
  5
77
102
{ACAD_REACTORS
330
6F
102
}
330
6F
100
AcDbZombieObject
 90
      499
 91
      502
 93
      113
310
904313A32304000000000000344000
  0
ACAD_PROXY_OBJECT
  5
78
102
{ACAD_REACTORS
330
6F
102
}
330
6F
100
AcDbZombieObject
 90
      499
 91
      502
 93
      113
310
904313A333040000000000003E4000
  0
ACAD_PROXY_OBJECT
  5
79
102
{ACAD_REACTORS
330
6F
102
}
330
6F
100
AcDbZombieObject
 90
      499
 91
      502
 93
      113
310
904313A34304000000000000444000
  0
ACAD_PROXY_OBJECT
  5
7A
102
{ACAD_REACTORS
330
6F
102
}
330
6F
100
AcDbZombieObject
 90
      499
 91
      502
 93
      113
310
904313A35304000000000000494000
  0
ACAD_PROXY_OBJECT
  5
7B
102
{ACAD_REACTORS
330
6F
102
}
330
6F
100
AcDbZombieObject
 90
      499
 91
      502
 93
      121
310
905313A3130304000000000000594000
  0
ACAD_PROXY_OBJECT
  5
7C
102
{ACAD_REACTORS
330
6F
102
}
330
6F
100
AcDbZombieObject
 90
      499
 91
      502
 93
      105
310
903323A310000000000000010100
  0
ACAD_PROXY_OBJECT
  5
7D
102
{ACAD_REACTORS
330
6F
102
}
330
6F
100
AcDbZombieObject
 90
      499
 91
      502
 93
      105
310
903343A310000000000000410100
  0
ACAD_PROXY_OBJECT
  5
7E
102
{ACAD_REACTORS
330
6F
102
}
330
6F
100
AcDbZombieObject
 90
      499
 91
      502
 93
      105
310
903383A310000000000000810100
  0
ACAD_PROXY_OBJECT
  5
7F
102
{ACAD_REACTORS
330
6F
102
}
330
6F
100
AcDbZombieObject
 90
      499
 91
      502
 93
      113
310
90431303A310000000000000910100
  0
ACAD_PROXY_OBJECT
  5
80
102
{ACAD_REACTORS
330
6F
102
}
330
6F
100
AcDbZombieObject
 90
      499
 91
      502
 93
      121
310
9053130303A310000000000001650100
  0
ACAD_PROXY_OBJECT
  5
81
102
{ACAD_REACTORS
330
6F
102
}
330
6F
100
AcDbZombieObject
 90
      499
 91
      502
 93
      257
310
90E312F31323822203D2031272D3022000000000000200FC000000000000284000
  0
ACAD_PROXY_OBJECT
  5
82
102
{ACAD_REACTORS
330
6F
102
}
330
6F
100
AcDbZombieObject
 90
      499
 91
      502
 93
      249
310
90D312F363422203D2031272D3022000000000000240FC000000000000284000
  0
ACAD_PROXY_OBJECT
  5
83
102
{ACAD_REACTORS
330
6F
102
}
330
6F
100
AcDbZombieObject
 90
      499
 91
      502
 93
      249
310
90D312F333222203D2031272D3022000000000000280FC000000000000284000
  0
ACAD_PROXY_OBJECT
  5
84
102
{ACAD_REACTORS
330
6F
102
}
330
6F
100
AcDbZombieObject
 90
      499
 91
      502
 93
      249
310
90D312F313622203D2031272D30220000000000002C0FC000000000000284000
  0
ACAD_PROXY_OBJECT
  5
85
102
{ACAD_REACTORS
330
6F
102
}
330
6F
100
AcDbZombieObject
 90
      499
 91
      502
 93
      249
310
90D332F333222203D2031272D30220000000000002E0FC000000000000284000
  0
ACAD_PROXY_OBJECT
  5
86
102
{ACAD_REACTORS
330
6F
102
}
330
6F
100
AcDbZombieObject
 90
      499
 91
      502
 93
      241
310
90C312F3822203D2031272D3022000000000000300FC000000000000284000
  0
ACAD_PROXY_OBJECT
  5
87
102
{ACAD_REACTORS
330
6F
102
}
330
6F
100
AcDbZombieObject
 90
      499
 91
      502
 93
      249
310
90D332F313622203D2031272D3022000000000000320FC000000000000284000
  0
ACAD_PROXY_OBJECT
  5
88
102
{ACAD_REACTORS
330
6F
102
}
330
6F
100
AcDbZombieObject
 90
      499
 91
      502
 93
      241
310
90C312F3422203D2031272D3022000000000000340FC000000000000284000
  0
ACAD_PROXY_OBJECT
  5
89
102
{ACAD_REACTORS
330
6F
102
}
330
6F
100
AcDbZombieObject
 90
      499
 91
      502
 93
      241
310
90C332F3822203D2031272D3022000000000000360FC000000000000284000
  0
ACAD_PROXY_OBJECT
  5
8A
102
{ACAD_REACTORS
330
6F
102
}
330
6F
100
AcDbZombieObject
 90
      499
 91
      502
 93
      241
310
90C312F3222203D2031272D3022000000000000380FC000000000000284000
  0
ACAD_PROXY_OBJECT
  5
8B
102
{ACAD_REACTORS
330
6F
102
}
330
6F
100
AcDbZombieObject
 90
      499
 91
      502
 93
      241
310
90C332F3422203D2031272D30220000000000003A0FC000000000000284000
  0
ACAD_PROXY_OBJECT
  5
8C
102
{ACAD_REACTORS
330
6F
102
}
330
6F
100
AcDbZombieObject
 90
      499
 91
      502
 93
      161
310
90A3122203D2031272D30224000000000000284000
  0
ACAD_PROXY_OBJECT
  5
8D
102
{ACAD_REACTORS
330
6F
102
}
330
6F
100
AcDbZombieObject
 90
      499
 91
      502
 93
      257
310
90E312D312F3222203D2031272D30220000000000003E0FC000000000000284000
  0
ACAD_PROXY_OBJECT
  5
8E
102
{ACAD_REACTORS
330
6F
102
}
330
6F
100
AcDbZombieObject
 90
      499
 91
      502
 93
      225
310
90A3322203D2031272D302200000000000002100000000000000284000
  0
ACAD_PROXY_OBJECT
  5
8F
102
{ACAD_REACTORS
330
6F
102
}
330
6F
100
AcDbZombieObject
 90
      499
 91
      502
 93
      225
310
90A3622203D2031272D302200000000000006100000000000000284000
  0
ACAD_PROXY_OBJECT
  5
90
102
{ACAD_REACTORS
330
6F
102
}
330
6F
100
AcDbZombieObject
 90
      499
 91
      502
 93
      249
310
90D31272D3022203D2031272D30220000000000000A100000000000000284000
  0
ACAD_PROXY_OBJECT
  5
2F
102
{ACAD_REACTORS
330
2A
102
}
330
2A
100
AcDbZombieObject
 90
      499
 91
      501
 93
      436
310
42CC9915DA5C99599C985B595049028333333333333E3BF0000000000000FB0107901411070040501600405405064090741402480A0340
1001
ACAD
1000
AcDbSavedByObjectVersion
1070
     0
  0
ACAD_PROXY_OBJECT
  5
31
102
{ACAD_REACTORS
330
2A
102
}
330
2A
100
AcDbZombieObject
 90
      499
 91
      501
 93
      500
310
424CD108121A5919195B90640502408333333333333E3BF0000000000000FB01079024090700405020000000000001110200405405064090740C02480A0340
1001
ACAD
1000
AcDbSavedByObjectVersion
1070
     0
  0
ACAD_PROXY_OBJECT
  5
30
102
{ACAD_REACTORS
330
2A
102
}
330
2A
100
AcDbZombieObject
 90
      499
 91
      501
 93
      436
310
42CCD915DA5C99599C985B595059028333333333333E3BF0000000000000FB0107901411070040501600405405064090741402480A0340
1001
ACAD
1000
AcDbSavedByObjectVersion
1070
     0
  0
ACAD_PROXY_OBJECT
  5
32
102
{ACAD_REACTORS
330
2A
102
}
330
2A
100
AcDbZombieObject
 90
      499
 91
      501
 93
      388
310
4150985CDA58D07406404333333333333E3BF0000000000000FB0107A41107004050150841D405064090741402480A0350
1001
ACAD
1000
AcDbSavedByObjectVersion
1070
     0
  0
ACAD_PROXY_OBJECT
  5
36
102
{ACAD_REACTORS
330
2A
102
}
330
2A
100
AcDbZombieObject
 90
      499
 91
      501
 93
      428
310
42109C9A59DA1D195B90C409028333333333333E3BF0000000000000FB010790141107004050150841D405064090741402480A029950
1001
ACAD
1000
AcDbSavedByObjectVersion
1070
     0
  0
ACAD_PROXY_OBJECT
  5
3A
102
{ACAD_REACTORS
330
2A
102
}
330
2A
100
AcDbZombieObject
 90
      499
 91
      501
 93
      452
310
42D0DBDB1BDC90DA185B99D95104090240C333333333333E3BF0000000000000FB0108901411070040501508421405064090741402480A0350
1001
ACAD
1000
AcDbSavedByObjectVersion
1070
     0
  0
ACAD_PROXY_OBJECT
  5
34
102
{ACAD_REACTORS
330
2A
102
}
330
2A
100
AcDbZombieObject
 90
      499
 91
      501
 93
      500
310
4290DBDB98D95C1D1D585B10940D028333333333333E3BF0000000000000FB0107902409070040501000000000000111010841D405064090740C02480A0340
1001
ACAD
1000
AcDbSavedByObjectVersion
1070
     0
  0
ACAD_PROXY_OBJECT
  5
35
102
{ACAD_REACTORS
330
2A
102
}
330
2A
100
AcDbZombieObject
 90
      499
 91
      501
 93
      412
310
40D11A5B50B409028333333333333E3BF0000000000000FB010790141107004050150841D405064090741402480A02677FFFFFD0
1001
ACAD
1000
AcDbSavedByObjectVersion
1070
     0
  0
ACAD_PROXY_OBJECT
  5
39
102
{ACAD_REACTORS
330
2A
102
}
330
2A
100
AcDbZombieObject
 90
      499
 91
      501
 93
      444
310
42D19858D95C185D1D195C9B90F409028333333333333E3BF0000000000000FB010790141107004050150841D405064090741402480A0350
1001
ACAD
1000
AcDbSavedByObjectVersion
1070
     0
  0
ACAD_PROXY_OBJECT
  5
2B
102
{ACAD_REACTORS
330
2A
102
}
330
2A
100
AcDbZombieObject
 90
      499
 91
      501
 93
      388
310
41119B185D240901404333333333333E3BF0000000000000F9010740A41107004050150841D405064090741402480A1B50
1001
ACAD
1000
AcDbSavedByObjectVersion
1070
     0
  0
ACAD_PROXY_OBJECT
  5
2C
102
{ACAD_REACTORS
330
2A
102
}
330
2A
100
AcDbZombieObject
 90
      499
 91
      501
 93
      476
310
43519B185D15DA5D1A115919D95CD0140901404333333333333E3BF0000000000000F9010740901411070040501600405405064090741402480A1B50
1001
ACAD
1000
AcDbSavedByObjectVersion
1070
     0
  0
ACAD_PROXY_OBJECT
  5
2D
102
{ACAD_REACTORS
330
2A
102
}
330
2A
100
AcDbZombieObject
 90
      499
 91
      501
 93
      412
310
41D1DBDD5C985D5910240902404333333333333E3BF0000000000000F9010740A411070040501641D405064090741402480A1B50
1001
ACAD
1000
AcDbSavedByObjectVersion
1070
     0
  0
ACAD_PROXY_OBJECT
  5
2E
102
{ACAD_REACTORS
330
2A
102
}
330
2A
100
AcDbZombieObject
 90
      499
 91
      501
 93
      500
310
4411DBDD5C985D5915DA5D1A115919D95CD0340902404333333333333E3BF0000000000000F9010740901411070040501600405405064090741402480A1B50
1001
ACAD
1000
AcDbSavedByObjectVersion
1070
     0
  0
ACAD_PROXY_OBJECT
  5
38
102
{ACAD_REACTORS
330
2A
102
}
330
2A
100
AcDbZombieObject
 90
      499
 91
      501
 93
      444
310
42D31A5B995C185D1D195C9B90E409028333333333333E3BF0000000000000FB010790141107004050750841D405064090741402483A0350
1001
ACAD
1000
AcDbSavedByObjectVersion
1070
     0
  0
ACAD_PROXY_OBJECT
  5
33
102
{ACAD_REACTORS
330
2A
102
}
330
2A
100
AcDbZombieObject
 90
      499
 91
      501
 93
      420
310
425499585B1A5CDD1A58D08409028333333333333E3BF0000000000000FB01079019070040501508421405064090741402480A1B40
1001
ACAD
1000
AcDbSavedByObjectVersion
1070
     0
  0
ACAD_PROXY_OBJECT
  5
37
102
{ACAD_REACTORS
330
2A
102
}
330
2A
100
AcDbZombieObject
 90
      499
 91
      501
 93
      412
310
41D51A1A58DAD95B90D409028333333333333E3BF0000000000000FB010790141107004050150C41D405064090741402480A0350
1001
ACAD
1000
AcDbSavedByObjectVersion
1070
     0
  0
DICTIONARYVAR
  5
1FD
102
{ACAD_REACTORS
330
1FA
102
}
330
1FA
100
DictionaryVariables
280
     0
  1
1:1
  0
DICTIONARYVAR
  5
1FE
102
{ACAD_REACTORS
330
1FA
102
}
330
1FA
100
DictionaryVariables
280
     0
  1
2
  0
DICTIONARYVAR
  5
1FF
102
{ACAD_REACTORS
330
1FA
102
}
330
1FA
100
DictionaryVariables
280
     0
  1
1
  0
ENDSEC
  0
EOF
