  0
SECTION
  2
HEADER
  9
$ACADVER
  1
AC1012
  9
$DWGCODEPAGE
  3
ansi_1252
  9
$INSBASE
 10
0.0
 20
0.0
 30
0.0
  9
$EXTMIN
 10
0.0
 20
0.0
 30
0.0
  9
$EXTMAX
 10
11.0
 20
8.5
 30
0.0
  9
$LIMMIN
 10
0.0
 20
0.0
  9
$LIMMAX
 10
11.0
 20
8.5
  9
$ORTHOMODE
 70
     0
  9
$REGENMODE
 70
     1
  9
$FILLMODE
 70
     1
  9
$QTEXTMODE
 70
     0
  9
$MIRRTEXT
 70
     1
  9
$DRAGMODE
 70
     2
  9
$LTSCALE
 40
1.0
  9
$OSMODE
 70
    37
  9
$ATTMODE
 70
     1
  9
$TEXTSIZE
 40
0.125
  9
$TRACEWID
 40
0.05
  9
$TEXTSTYLE
  7
STANDARD
  9
$CLAYER
  8
0
  9
$CELTYPE
  6
BYLAYER
  9
$CECOLOR
 62
   256
  9
$CELTSCALE
 40
1.0
  9
$DELOBJ
 70
     1
  9
$DISPSILH
 70
     0
  9
$DIMSCALE
 40
1.0
  9
$DIMASZ
 40
0.13
  9
$DIMEXO
 40
0.05
  9
$DIMDLI
 40
0.38
  9
$DIMRND
 40
0.0
  9
$DIMDLE
 40
0.0
  9
$DIMEXE
 40
0.125
  9
$DIMTP
 40
0.0
  9
$DIMTM
 40
0.0
  9
$DIMTXT
 40
0.125
  9
$DIMCEN
 40
0.09
  9
$DIMTSZ
 40
0.0
  9
$DIMTOL
 70
     0
  9
$DIMLIM
 70
     0
  9
$DIMTIH
 70
     1
  9
$DIMTOH
 70
     1
  9
$DIMSE1
 70
     0
  9
$DIMSE2
 70
     0
  9
$DIMTAD
 70
     0
  9
$DIMZIN
 70
     0
  9
$DIMBLK
  1

  9
$DIMASO
 70
     1
  9
$DIMSHO
 70
     1
  9
$DIMPOST
  1

  9
$DIMAPOST
  1

  9
$DIMALT
 70
     0
  9
$DIMALTD
 70
     2
  9
$DIMALTF
 40
25.4
  9
$DIMLFAC
 40
0.5
  9
$DIMTOFL
 70
     0
  9
$DIMTVP
 40
0.0
  9
$DIMTIX
 70
     0
  9
$DIMSOXD
 70
     0
  9
$DIMSAH
 70
     0
  9
$DIMBLK1
  1

  9
$DIMBLK2
  1

  9
$DIMSTYLE
  2
STANDARD
  9
$DIMCLRD
 70
     0
  9
$DIMCLRE
 70
     0
  9
$DIMCLRT
 70
     0
  9
$DIMTFAC
 40
1.0
  9
$DIMGAP
 40
0.06
  9
$DIMJUST
 70
     0
  9
$DIMSD1
 70
     0
  9
$DIMSD2
 70
     0
  9
$DIMTOLJ
 70
     1
  9
$DIMTZIN
 70
     0
  9
$DIMALTZ
 70
     0
  9
$DIMALTTZ
 70
     0
  9
$DIMFIT
 70
     3
  9
$DIMUPT
 70
     0
  9
$DIMUNIT
 70
     2
  9
$DIMDEC
 70
     3
  9
$DIMTDEC
 70
     3
  9
$DIMALTU
 70
     2
  9
$DIMALTTD
 70
     2
  9
$DIMTXSTY
  7
STANDARD
  9
$DIMAUNIT
 70
     0
  9
$LUNITS
 70
     2
  9
$LUPREC
 70
     2
  9
$SKETCHINC
 40
0.1
  9
$FILLETRAD
 40
0.5
  9
$AUNITS
 70
     0
  9
$AUPREC
 70
     2
  9
$MENU
  1
.
  9
$ELEVATION
 40
0.0
  9
$PELEVATION
 40
0.0
  9
$THICKNESS
 40
0.0
  9
$LIMCHECK
 70
     0
  9
$CHAMFERA
 40
0.5
  9
$CHAMFERB
 40
0.5
  9
$CHAMFERC
 40
1.0
  9
$CHAMFERD
 40
0.0
  9
$SKPOLY
 70
     0
  9
$TDCREATE
 40
2455783.993186343
  9
$TDUPDATE
 40
2455783.993186354
  9
$TDINDWG
 40
0.0000000116
  9
$TDUSRTIMER
 40
0.0000000116
  9
$USRTIMER
 70
     1
  9
$ANGBASE
 50
0.0
  9
$ANGDIR
 70
     0
  9
$PDMODE
 70
     0
  9
$PDSIZE
 40
-1.0
  9
$PLINEWID
 40
0.0
  9
$COORDS
 70
     1
  9
$SPLFRAME
 70
     0
  9
$SPLINETYPE
 70
     6
  9
$SPLINESEGS
 70
     8
  9
$ATTDIA
 70
     0
  9
$ATTREQ
 70
     1
  9
$HANDLING
 70
     1
  9
$HANDSEED
  5
446
  9
$SURFTAB1
 70
     6
  9
$SURFTAB2
 70
     6
  9
$SURFTYPE
 70
     6
  9
$SURFU
 70
     6
  9
$SURFV
 70
     6
  9
$UCSNAME
  2

  9
$UCSORG
 10
0.0
 20
0.0
 30
0.0
  9
$UCSXDIR
 10
1.0
 20
0.0
 30
0.0
  9
$UCSYDIR
 10
0.0
 20
1.0
 30
0.0
  9
$PUCSNAME
  2

  9
$PUCSORG
 10
0.0
 20
0.0
 30
0.0
  9
$PUCSXDIR
 10
1.0
 20
0.0
 30
0.0
  9
$PUCSYDIR
 10
0.0
 20
1.0
 30
0.0
  9
$USERI1
 70
     0
  9
$USERI2
 70
     0
  9
$USERI3
 70
     0
  9
$USERI4
 70
     0
  9
$USERI5
 70
     0
  9
$USERR1
 40
0.0
  9
$USERR2
 40
0.0
  9
$USERR3
 40
0.0
  9
$USERR4
 40
0.0
  9
$USERR5
 40
0.0
  9
$WORLDVIEW
 70
     1
  9
$SHADEDGE
 70
     3
  9
$SHADEDIF
 70
    70
  9
$TILEMODE
 70
     1
  9
$MAXACTVP
 70
    64
  9
$PINSBASE
 10
0.0
 20
0.0
 30
0.0
  9
$PLIMCHECK
 70
     0
  9
$PEXTMIN
 10
1.0000000000E+20
 20
1.0000000000E+20
 30
1.0000000000E+20
  9
$PEXTMAX
 10
-1.0000000000E+20
 20
-1.0000000000E+20
 30
-1.0000000000E+20
  9
$PLIMMIN
 10
0.0
 20
0.0
  9
$PLIMMAX
 10
12.0
 20
9.0
  9
$UNITMODE
 70
     0
  9
$VISRETAIN
 70
     1
  9
$PLINEGEN
 70
     0
  9
$PSLTSCALE
 70
     1
  9
$TREEDEPTH
 70
  3020
  9
$PICKSTYLE
 70
     1
  9
$CMLSTYLE
  2
STANDARD
  9
$CMLJUST
 70
     0
  9
$CMLSCALE
 40
1.0
  9
$SAVEIMAGES
 70
     1
  0
ENDSEC
  0
SECTION
  2
CLASSES
  0
CLASS
  1
ACDBDICTIONARYWDFLT
  2
AcDbDictionaryWithDefault
  3
ObjectDBX Classes
 90
    32768
280
     0
281
     0
  0
CLASS
  1
VISUALSTYLE
  2
AcDbVisualStyle
  3
ObjectDBX Classes
 90
     4095
280
     0
281
     0
  0
CLASS
  1
SCALE
  2
AcDbScale
  3
ObjectDBX Classes
 90
     1153
280
     0
281
     0
  0
CLASS
  1
DICTIONARYVAR
  2
AcDbDictionaryVar
  3
ObjectDBX Classes
 90
        0
280
     0
281
     0
  0
CLASS
  1
XRECORD
  2
AcDbXrecord
  3
AutoCAD 2000
 90
    32768
280
     0
281
     0
  0
CLASS
  1
LWPOLYLINE
  2
AcDbPolyline
  3
AutoCAD 2000
 90
    32768
280
     0
281
     1
  0
CLASS
  1
HATCH
  2
AcDbHatch
  3
AutoCAD 2000
 90
    32768
280
     0
281
     1
  0
CLASS
  1
ACDBPLACEHOLDER
  2
AcDbPlaceHolder
  3
ObjectDBX Classes
 90
        0
280
     0
281
     0
  0
CLASS
  1
LAYOUT
  2
AcDbLayout
  3
ObjectDBX Classes
 90
        0
280
     0
281
     0
  0
ENDSEC
  0
SECTION
  2
TABLES
  0
TABLE
  2
VPORT
  5
8
330
0
100
AcDbSymbolTable
 70
     1
  0
VPORT
  5
29
330
8
100
AcDbSymbolTableRecord
100
AcDbViewportTableRecord
  2
*ACTIVE
 70
     0
 10
0.0
 20
0.0
 11
1.0
 21
1.0
 12
5.5
 22
4.25
 13
0.0
 23
0.0
 14
0.5
 24
0.5
 15
0.5
 25
0.5
 16
0.0
 26
0.0
 36
1.0
 17
0.0
 27
0.0
 37
0.0
 40
8.5
 41
1.2941176471
 42
50.0
 43
0.0
 44
0.0
 50
0.0
 51
0.0
 71
     0
 72
  2000
 73
     1
 74
     3
 75
     0
 76
     0
 77
     0
 78
     0
  0
ENDTAB
  0
TABLE
  2
LTYPE
  5
5
330
0
100
AcDbSymbolTable
 70
     6
  0
LTYPE
  5
14
330
5
100
AcDbSymbolTableRecord
100
AcDbLinetypeTableRecord
  2
BYBLOCK
 70
     0
  3

 72
    65
 73
     0
 40
0.0
  0
LTYPE
  5
15
330
5
100
AcDbSymbolTableRecord
100
AcDbLinetypeTableRecord
  2
BYLAYER
 70
     0
  3

 72
    65
 73
     0
 40
0.0
  0
LTYPE
  5
16
330
5
100
AcDbSymbolTableRecord
100
AcDbLinetypeTableRecord
  2
CONTINUOUS
 70
     0
  3
Solid line
 72
    65
 73
     0
 40
0.0
  0
LTYPE
  5
3B
330
5
100
AcDbSymbolTableRecord
100
AcDbLinetypeTableRecord
  2
HIDDEN
 70
     0
  3
Hidden __ __ __ __ __ __ __ __ __ __ __ __ __ __
 72
    65
 73
     2
 40
0.075
 49
0.05
 74
     0
 49
-0.025
 74
     0
  0
LTYPE
  5
3C
330
5
100
AcDbSymbolTableRecord
100
AcDbLinetypeTableRecord
  2
PHANTOM
 70
     0
  3
Phantom ______  __  __  ______  __  __  ______
 72
    65
 73
     6
 40
0.5
 49
0.25
 74
     0
 49
-0.05
 74
     0
 49
0.05
 74
     0
 49
-0.05
 74
     0
 49
0.05
 74
     0
 49
-0.05
 74
     0
  0
LTYPE
  5
3D
330
5
100
AcDbSymbolTableRecord
100
AcDbLinetypeTableRecord
  2
CENTER
 70
     0
  3
Center ____ _ ____ _ ____ _ ____ _ ____ _ ____
 72
    65
 73
     4
 40
0.4
 49
0.25
 74
     0
 49
-0.05
 74
     0
 49
0.05
 74
     0
 49
-0.05
 74
     0
  0
LTYPE
  5
3E
330
5
100
AcDbSymbolTableRecord
100
AcDbLinetypeTableRecord
  2
CENTERX2
 70
     0
  3
Center (2x) ________  __  ________  __  _____
 72
    65
 73
     4
 40
0.8
 49
0.5
 74
     0
 49
-0.1
 74
     0
 49
0.1
 74
     0
 49
-0.1
 74
     0
  0
LTYPE
  5
3F
330
5
100
AcDbSymbolTableRecord
100
AcDbLinetypeTableRecord
  2
DOT2
 70
     0
  3
Dot (.5x) ........................................
 72
    65
 73
     2
 40
0.025
 49
0.0
 74
     0
 49
-0.025
 74
     0
  0
ENDTAB
  0
TABLE
  2
LAYER
  5
2
330
0
100
AcDbSymbolTable
 70
     2
  0
LAYER
  5
10
330
2
100
AcDbSymbolTableRecord
100
AcDbLayerTableRecord
  2
0
 70
     0
 62
     7
  6
CONTINUOUS
  0
LAYER
  5
40
330
2
100
AcDbSymbolTableRecord
100
AcDbLayerTableRecord
  2
FORMAT
 70
     0
 62
     7
  6
CONTINUOUS
  0
ENDTAB
  0
TABLE
  2
STYLE
  5
3
330
0
100
AcDbSymbolTable
 70
     4
  0
STYLE
  5
11
330
3
100
AcDbSymbolTableRecord
100
AcDbTextStyleTableRecord
  2
STANDARD
 70
     0
 40
0.0
 41
1.0
 50
0.0
 71
     0
 42
0.2
  3
txt
  4

  0
STYLE
  5
6E
330
3
100
AcDbSymbolTableRecord
100
AcDbTextStyleTableRecord
  2
SLDTEXTSTYLE0
 70
     0
 40
0.0
 41
0.75
 50
0.0
 71
     0
 42
0.2
  3
TXT
  4

  0
STYLE
  5
93
330
3
100
AcDbSymbolTableRecord
100
AcDbTextStyleTableRecord
  2
SLDTEXTSTYLE1
 70
     0
 40
0.0
 41
0.6875
 50
0.0
 71
     0
 42
0.2
  3
TXT
  4

  0
STYLE
  5
99
330
3
100
AcDbSymbolTableRecord
100
AcDbTextStyleTableRecord
  2
SLDTEXTSTYLE2
 70
     0
 40
0.0
 41
0.6944444444
 50
0.0
 71
     0
 42
0.2
  3
TXT
  4

  0
ENDTAB
  0
TABLE
  2
VIEW
  5
6
330
0
100
AcDbSymbolTable
 70
     0
  0
ENDTAB
  0
TABLE
  2
UCS
  5
7
330
0
100
AcDbSymbolTable
 70
     0
  0
ENDTAB
  0
TABLE
  2
APPID
  5
9
330
0
100
AcDbSymbolTable
 70
     1
  0
APPID
  5
12
330
9
100
AcDbSymbolTableRecord
100
AcDbRegAppTableRecord
  2
ACAD
 70
     0
  0
ENDTAB
  0
TABLE
  2
DIMSTYLE
  5
A
330
0
100
AcDbSymbolTable
 70
     1
  0
DIMSTYLE
105
27
330
A
100
AcDbSymbolTableRecord
100
AcDbDimStyleTableRecord
  2
STANDARD
 70
     0
  3

  4

  5

  6

  7

 40
1.0
 41
0.18
 42
0.0625
 43
0.38
 44
0.18
 45
0.0
 46
0.0
 47
0.0
 48
0.0
140
0.18
141
0.09
142
0.0
143
25.4
144
1.0
145
0.0
146
1.0
147
0.09
 71
     0
 72
     0
 73
     1
 74
     1
 75
     0
 76
     0
 77
     0
 78
     0
170
     0
171
     2
172
     0
173
     0
174
     0
175
     0
176
     0
177
     0
178
     0
270
     2
271
     4
272
     4
273
     2
274
     2
340
11
275
     0
280
     0
281
     0
282
     0
283
     1
284
     0
285
     0
286
     0
287
     3
288
     0
  0
ENDTAB
  0
TABLE
  2
BLOCK_RECORD
  5
1
330
0
100
AcDbSymbolTable
 70
     4
  0
BLOCK_RECORD
  5
1F
330
1
100
AcDbSymbolTableRecord
100
AcDbBlockTableRecord
  2
*MODEL_SPACE
  0
BLOCK_RECORD
  5
1B
330
1
100
AcDbSymbolTableRecord
100
AcDbBlockTableRecord
  2
*PAPER_SPACE
  0
BLOCK_RECORD
  5
A8
330
1
100
AcDbSymbolTableRecord
100
AcDbBlockTableRecord
  2
SW_NOTE_0
  0
BLOCK_RECORD
  5
AE
330
1
100
AcDbSymbolTableRecord
100
AcDbBlockTableRecord
  2
SW_NOTE_1
  0
BLOCK_RECORD
  5
C2
330
1
100
AcDbSymbolTableRecord
100
AcDbBlockTableRecord
  2
SW_NOTE_2
  0
ENDTAB
  0
ENDSEC
  0
SECTION
  2
BLOCKS
  0
BLOCK
  5
20
330
1F
100
AcDbEntity
  8
0
100
AcDbBlockBegin
  2
*MODEL_SPACE
 70
     0
 10
0.0
 20
0.0
 30
0.0
  3
*MODEL_SPACE
  1

  0
ENDBLK
  5
21
330
1F
100
AcDbEntity
  8
0
100
AcDbBlockEnd
  0
BLOCK
  5
1C
330
1B
100
AcDbEntity
 67
     1
  8
0
100
AcDbBlockBegin
  2
*PAPER_SPACE
 70
     0
 10
0.0
 20
0.0
 30
0.0
  3
*PAPER_SPACE
  1

  0
ENDBLK
  5
1D
330
1B
100
AcDbEntity
 67
     1
  8
0
100
AcDbBlockEnd
  0
BLOCK
  5
A9
330
A8
100
AcDbEntity
  8
0
100
AcDbBlockBegin
  2
SW_NOTE_0
 70
     0
 10
0.0
 20
0.0
 30
0.0
  3
SW_NOTE_0
  1

  0
MTEXT
  5
AB
330
A8
100
AcDbEntity
  8
0
  6
CONTINUOUS
 62
     0
100
AcDbMText
 10
0.0
 20
0.0773440644
 30
0.0
 40
0.06
 41
0.0
 71
     1
 72
     1
  1
INTERPRET GEOMETRIC
  7
SLDTEXTSTYLE0
  0
MTEXT
  5
AC
330
A8
100
AcDbEntity
  8
0
  6
CONTINUOUS
 62
     0
100
AcDbMText
 10
0.0
 20
-0.0220260102
 30
0.0
 40
0.06
 41
0.0
 71
     1
 72
     1
  1
TOLERANCING PER:
  7
SLDTEXTSTYLE0
  0
ENDBLK
  5
AA
330
A8
100
AcDbEntity
  8
0
100
AcDbBlockEnd
  0
BLOCK
  5
AF
330
AE
100
AcDbEntity
  8
0
100
AcDbBlockBegin
  2
SW_NOTE_1
 70
     0
 10
0.0
 20
0.0
 30
0.0
  3
SW_NOTE_1
  1

  0
MTEXT
  5
B1
330
AE
100
AcDbEntity
  8
0
  6
CONTINUOUS
 62
     0
100
AcDbMText
 10
0.0
 20
0.0837894031
 30
0.0
 40
0.065
 41
0.0
 71
     1
 72
     1
  1
DIMENSIONS ARE IN INCHES
  7
SLDTEXTSTYLE0
  0
MTEXT
  5
B2
330
AE
100
AcDbEntity
  8
0
  6
CONTINUOUS
 62
     0
100
AcDbMText
 10
0.0
 20
-0.0205806729
 30
0.0
 40
0.065
 41
0.0
 71
     1
 72
     1
  1
TOLERANCES:
  7
SLDTEXTSTYLE0
  0
MTEXT
  5
B3
330
AE
100
AcDbEntity
  8
0
  6
CONTINUOUS
 62
     0
100
AcDbMText
 10
0.0
 20
-0.1249507489
 30
0.0
 40
0.065
 41
0.0
 71
     1
 72
     1
  1
FRACTIONAL
  7
SLDTEXTSTYLE0
  0
MTEXT
  5
B4
330
AE
100
AcDbEntity
  8
0
  6
CONTINUOUS
 62
     0
100
AcDbMText
 10
0.5175850875
 20
-0.1249507489
 30
0.0
 40
0.065
 41
0.0
 71
     1
 72
     1
  1
%%p
  7
SLDTEXTSTYLE0
  0
MTEXT
  5
B5
330
AE
100
AcDbEntity
  8
0
  6
CONTINUOUS
 62
     0
100
AcDbMText
 10
0.0
 20
-0.2293208248
 30
0.0
 40
0.065
 41
0.0
 71
     1
 72
     1
  1
ANGULAR: MACH
  7
SLDTEXTSTYLE0
  0
MTEXT
  5
B6
330
AE
100
AcDbEntity
  8
0
  6
CONTINUOUS
 62
     0
100
AcDbMText
 10
0.7233732769
 20
-0.2293208248
 30
0.0
 40
0.065
 41
0.0
 71
     1
 72
     1
  1
%%p
  7
SLDTEXTSTYLE0
  0
MTEXT
  5
B7
330
AE
100
AcDbEntity
  8
0
  6
CONTINUOUS
 62
     0
100
AcDbMText
 10
0.7852857683
 20
-0.2293208248
 30
0.0
 40
0.065
 41
0.0
 71
     1
 72
     1
  1
     BEND 
  7
SLDTEXTSTYLE0
  0
MTEXT
  5
B8
330
AE
100
AcDbEntity
  8
0
  6
CONTINUOUS
 62
     0
100
AcDbMText
 10
1.14784136
 20
-0.2293208248
 30
0.0
 40
0.065
 41
0.0
 71
     1
 72
     1
  1
%%p
  7
SLDTEXTSTYLE0
  0
MTEXT
  5
B9
330
AE
100
AcDbEntity
  8
0
  6
CONTINUOUS
 62
     0
100
AcDbMText
 10
0.0
 20
-0.3336909008
 30
0.0
 40
0.065
 41
0.0
 71
     1
 72
     1
  1
TWO PLACE DECIMAL    
  7
SLDTEXTSTYLE0
  0
MTEXT
  5
BA
330
AE
100
AcDbEntity
  8
0
  6
CONTINUOUS
 62
     0
100
AcDbMText
 10
0.9794349188
 20
-0.3336909008
 30
0.0
 40
0.065
 41
0.0
 71
     1
 72
     1
  1
%%p
  7
SLDTEXTSTYLE0
  0
MTEXT
  5
BB
330
AE
100
AcDbEntity
  8
0
  6
CONTINUOUS
 62
     0
100
AcDbMText
 10
0.0
 20
-0.4380609768
 30
0.0
 40
0.065
 41
0.0
 71
     1
 72
     1
  1
THREE PLACE DECIMAL  
  7
SLDTEXTSTYLE0
  0
MTEXT
  5
BC
330
AE
100
AcDbEntity
  8
0
  6
CONTINUOUS
 62
     0
100
AcDbMText
 10
0.9738038639
 20
-0.4380609768
 30
0.0
 40
0.065
 41
0.0
 71
     1
 72
     1
  1
%%p
  7
SLDTEXTSTYLE0
  0
ENDBLK
  5
B0
330
AE
100
AcDbEntity
  8
0
100
AcDbBlockEnd
  0
BLOCK
  5
C3
330
C2
100
AcDbEntity
  8
0
100
AcDbBlockBegin
  2
SW_NOTE_2
 70
     0
 10
0.0
 20
0.0
 30
0.0
  3
SW_NOTE_2
  1

  0
MTEXT
  5
C5
330
C2
100
AcDbEntity
  8
0
  6
CONTINUOUS
 62
     0
100
AcDbMText
 10
0.0
 20
0.0773440644
 30
0.0
 40
0.06
 41
0.0
 71
     1
 72
     1
  1
THE INFORMATION CONTAINED IN THIS
  7
SLDTEXTSTYLE0
  0
MTEXT
  5
C6
330
C2
100
AcDbEntity
  8
0
  6
CONTINUOUS
 62
     0
100
AcDbMText
 10
0.0
 20
-0.0220260102
 30
0.0
 40
0.06
 41
0.0
 71
     1
 72
     1
  1
DRAWING IS THE SOLE PROPERTY OF
  7
SLDTEXTSTYLE0
  0
MTEXT
  5
C7
330
C2
100
AcDbEntity
  8
0
  6
CONTINUOUS
 62
     0
100
AcDbMText
 10
0.0
 20
-0.1213960848
 30
0.0
 40
0.06
 41
0.0
 71
     1
 72
     1
  1
Candy Controls.  ANY 
  7
SLDTEXTSTYLE0
  0
MTEXT
  5
C8
330
C2
100
AcDbEntity
  8
0
  6
CONTINUOUS
 62
     0
100
AcDbMText
 10
0.0
 20
-0.2207661593
 30
0.0
 40
0.06
 41
0.0
 71
     1
 72
     1
  1
REPRODUCTION IN PART OR AS A WHOLE
  7
SLDTEXTSTYLE0
  0
MTEXT
  5
C9
330
C2
100
AcDbEntity
  8
0
  6
CONTINUOUS
 62
     0
100
AcDbMText
 10
0.0
 20
-0.3201362339
 30
0.0
 40
0.06
 41
0.0
 71
     1
 72
     1
  1
WITHOUT THE WRITTEN PERMISSION OF
  7
SLDTEXTSTYLE0
  0
MTEXT
  5
CA
330
C2
100
AcDbEntity
  8
0
  6
CONTINUOUS
 62
     0
100
AcDbMText
 10
0.0
 20
-0.4195063085
 30
0.0
 40
0.06
 41
0.0
 71
     1
 72
     1
  1
Candy Controls IS 
  7
SLDTEXTSTYLE0
  0
MTEXT
  5
CB
330
C2
100
AcDbEntity
  8
0
  6
CONTINUOUS
 62
     0
100
AcDbMText
 10
0.0
 20
-0.518876383
 30
0.0
 40
0.06
 41
0.0
 71
     1
 72
     1
  1
PROHIBITED.
  7
SLDTEXTSTYLE0
  0
ENDBLK
  5
C4
330
C2
100
AcDbEntity
  8
0
100
AcDbBlockEnd
  0
ENDSEC
  0
SECTION
  2
ENTITIES
  0
LINE
  5
41
330
1F
100
AcDbEntity
  8
0
  6
CONTINUOUS
 62
     7
100
AcDbLine
 10
0.329927
 20
8.1920731707
 30
0.0
 11
10.629927
 21
8.1920731707
 31
0.0
  0
LINE
  5
42
330
1F
100
AcDbEntity
  8
0
  6
CONTINUOUS
 62
     7
100
AcDbLine
 10
0.329927
 20
8.1920731707
 30
0.0
 11
0.329927
 21
0.3920731707
 31
0.0
  0
LINE
  5
43
330
1F
100
AcDbEntity
  8
0
  6
CONTINUOUS
 62
     7
100
AcDbLine
 10
10.629927
 20
0.3920731707
 30
0.0
 11
0.329927
 21
0.3920731707
 31
0.0
  0
LINE
  5
44
330
1F
100
AcDbEntity
  8
0
  6
CONTINUOUS
 62
     7
100
AcDbLine
 10
10.629927
 20
0.3920731707
 30
0.0
 11
10.629927
 21
8.1920731707
 31
0.0
  0
LINE
  5
45
330
1F
100
AcDbEntity
  8
0
  6
CONTINUOUS
 62
     7
100
AcDbLine
 10
4.7981841288
 20
0.3920731707
 30
0.0
 11
4.7981841288
 21
2.3564211366
 31
0.0
  0
LINE
  5
46
330
1F
100
AcDbEntity
  8
0
  6
CONTINUOUS
 62
     7
100
AcDbLine
 10
2.8210345579
 20
2.3564211366
 30
0.0
 11
10.629927
 21
2.3564211366
 31
0.0
  0
LINE
  5
47
330
1F
100
AcDbEntity
  8
0
  6
CONTINUOUS
 62
     7
100
AcDbLine
 10
6.1796352514
 20
2.3564211366
 30
0.0
 11
6.1796352514
 21
0.3920731707
 31
0.0
  0
LINE
  5
48
330
1F
100
AcDbEntity
  8
0
  6
CONTINUOUS
 62
     7
100
AcDbLine
 10
7.8712070044
 20
2.3564211366
 30
0.0
 11
7.8712070044
 21
0.3920731707
 31
0.0
  0
LINE
  5
49
330
1F
100
AcDbEntity
  8
0
  6
CONTINUOUS
 62
     7
100
AcDbLine
 10
7.8712070044
 20
0.6049590101
 30
0.0
 11
10.629927
 21
0.6049590101
 31
0.0
  0
LINE
  5
4A
330
1F
100
AcDbEntity
  8
0
  6
CONTINUOUS
 62
     7
100
AcDbLine
 10
7.8712070044
 20
1.1119362457
 30
0.0
 11
10.629927
 21
1.1119362457
 31
0.0
  0
LINE
  5
4B
330
1F
100
AcDbEntity
  8
0
  6
CONTINUOUS
 62
     7
100
AcDbLine
 10
7.8712070044
 20
1.9892703708
 30
0.0
 11
10.629927
 21
1.9892703708
 31
0.0
  0
LINE
  5
4C
330
1F
100
AcDbEntity
  8
0
  6
CONTINUOUS
 62
     7
100
AcDbLine
 10
8.266751752
 20
1.1119362457
 30
0.0
 11
8.266751752
 21
0.6049590101
 31
0.0
  0
LINE
  5
4D
330
1F
100
AcDbEntity
  8
0
  6
CONTINUOUS
 62
     7
100
AcDbLine
 10
8.6943435176
 20
0.6049590101
 30
0.0
 11
8.6943435176
 21
0.3920731707
 31
0.0
  0
LINE
  5
4E
330
1F
100
AcDbEntity
  8
0
  6
CONTINUOUS
 62
     7
100
AcDbLine
 10
10.0579917045
 20
1.1119362457
 30
0.0
 11
10.0579917045
 21
0.6049590101
 31
0.0
  0
LINE
  5
4F
330
1F
100
AcDbEntity
  8
0
  6
CONTINUOUS
 62
     7
100
AcDbLine
 10
9.6662556631
 20
0.6049590101
 30
0.0
 11
9.6662556631
 21
0.3920731707
 31
0.0
  0
LINE
  5
50
330
1F
100
AcDbEntity
  8
0
  6
CONTINUOUS
 62
     7
100
AcDbLine
 10
2.8210345579
 20
0.5883479999
 30
0.0
 11
6.1796352514
 21
0.5883479999
 31
0.0
  0
LINE
  5
51
330
1F
100
AcDbEntity
  8
0
  6
CONTINUOUS
 62
     7
100
AcDbLine
 10
6.1796352514
 20
1.7939211366
 30
0.0
 11
7.8712070044
 21
1.7939211366
 31
0.0
  0
LINE
  5
52
330
1F
100
AcDbEntity
  8
0
  6
CONTINUOUS
 62
     7
100
AcDbLine
 10
6.1796352514
 20
1.9814211366
 30
0.0
 11
7.8712070044
 21
1.9814211366
 31
0.0
  0
LINE
  5
53
330
1F
100
AcDbEntity
  8
0
  6
CONTINUOUS
 62
     7
100
AcDbLine
 10
6.1796352514
 20
2.1689211366
 30
0.0
 11
7.8712070044
 21
2.1689211366
 31
0.0
  0
LINE
  5
54
330
1F
100
AcDbEntity
  8
0
  6
CONTINUOUS
 62
     7
100
AcDbLine
 10
7.8712070044
 20
1.2314211366
 30
0.0
 11
6.1796352514
 21
1.2314211366
 31
0.0
  0
LINE
  5
55
330
1F
100
AcDbEntity
  8
0
  6
CONTINUOUS
 62
     7
100
AcDbLine
 10
7.3921580388
 20
2.3564211366
 30
0.0
 11
7.3921580388
 21
1.2314211366
 31
0.0
  0
LINE
  5
56
330
1F
100
AcDbEntity
  8
0
  6
CONTINUOUS
 62
     7
100
AcDbLine
 10
6.9236308342
 20
2.3564211366
 30
0.0
 11
6.9236308342
 21
1.2314211366
 31
0.0
  0
LINE
  5
57
330
1F
100
AcDbEntity
  8
0
  6
CONTINUOUS
 62
     7
100
AcDbLine
 10
4.7981841288
 20
0.8557965305
 30
0.0
 11
6.1796352514
 21
0.8557965305
 31
0.0
  0
LINE
  5
58
330
1F
100
AcDbEntity
  8
0
  6
CONTINUOUS
 62
     7
100
AcDbLine
 10
4.7981841288
 20
1.1257965305
 30
0.0
 11
6.1796352514
 21
1.1257965305
 31
0.0
  0
LINE
  5
59
330
1F
100
AcDbEntity
  8
0
  6
CONTINUOUS
 62
     7
100
AcDbLine
 10
2.8210345579
 20
0.3920731707
 30
0.0
 11
2.8210345579
 21
2.3564211366
 31
0.0
  0
LINE
  5
5A
330
1F
100
AcDbEntity
  8
0
  6
CONTINUOUS
 62
     7
100
AcDbLine
 10
2.8210345579
 20
1.1064211366
 30
0.0
 11
4.7981841288
 21
1.1064211366
 31
0.0
  0
LINE
  5
5B
330
1F
100
AcDbEntity
  8
0
  6
CONTINUOUS
 62
     7
100
AcDbLine
 10
2.8210345579
 20
1.3564211366
 30
0.0
 11
4.7981841288
 21
1.3564211366
 31
0.0
  0
LINE
  5
5C
330
1F
100
AcDbEntity
  8
0
  6
CONTINUOUS
 62
     7
100
AcDbLine
 10
2.8210345579
 20
1.6064211366
 30
0.0
 11
4.7981841288
 21
1.6064211366
 31
0.0
  0
LINE
  5
5D
330
1F
100
AcDbEntity
  8
0
  6
CONTINUOUS
 62
     7
100
AcDbLine
 10
2.8210345579
 20
1.8564211366
 30
0.0
 11
4.7981841288
 21
1.8564211366
 31
0.0
  0
LINE
  5
5E
330
1F
100
AcDbEntity
  8
0
  6
CONTINUOUS
 62
     7
100
AcDbLine
 10
3.8190146875
 20
2.3564211366
 30
0.0
 11
3.8190146875
 21
0.5883479999
 31
0.0
  0
LINE
  5
5F
330
1F
100
AcDbEntity
  8
0
  6
CONTINUOUS
 62
     7
100
AcDbLine
 10
6.1796352514
 20
2.2020813496
 30
0.0
 11
4.7981841288
 21
2.2020813496
 31
0.0
  0
LINE
  5
60
330
1F
100
AcDbEntity
  8
0
  6
CONTINUOUS
 62
     7
100
AcDbLine
 10
7.8712070044
 20
1.6064211366
 30
0.0
 11
6.1796352514
 21
1.6064211366
 31
0.0
  0
LINE
  5
61
330
1F
100
AcDbEntity
  8
0
  6
CONTINUOUS
 62
     7
100
AcDbLine
 10
7.8712070044
 20
1.4189211366
 30
0.0
 11
6.1796352514
 21
1.4189211366
 31
0.0
  0
LINE
  5
62
330
1F
100
AcDbEntity
  8
0
  6
CONTINUOUS
 62
     7
100
AcDbLine
 10
2.8210345579
 20
2.1064211366
 30
0.0
 11
4.7981841288
 21
2.1064211366
 31
0.0
  0
LINE
  5
63
330
1F
100
AcDbEntity
  8
0
  6
CONTINUOUS
 62
     7
100
AcDbLine
 10
4.7981841288
 20
1.3957965305
 30
0.0
 11
6.1796352514
 21
1.3957965305
 31
0.0
  0
LINE
  5
64
330
1F
100
AcDbEntity
  8
0
  6
CONTINUOUS
 62
     7
100
AcDbLine
 10
2.8210345579
 20
0.8564211366
 30
0.0
 11
4.7981841288
 21
0.8564211366
 31
0.0
  0
LINE
  5
65
330
1F
100
AcDbEntity
  8
0
  6
CONTINUOUS
 62
     7
100
AcDbLine
 10
1.1838252943
 20
0.3920731707
 30
0.0
 11
1.1838252943
 21
1.3064211366
 31
0.0
  0
LINE
  5
66
330
1F
100
AcDbEntity
  8
0
  6
CONTINUOUS
 62
     7
100
AcDbLine
 10
2.8210345579
 20
1.3064211366
 30
0.0
 11
1.1838252943
 21
1.3064211366
 31
0.0
  0
LINE
  5
67
330
1F
100
AcDbEntity
  8
0
  6
CONTINUOUS
 62
     7
100
AcDbLine
 10
8.660927
 20
0.3920731707
 30
0.0
 11
8.660927
 21
0.3072739649
 31
0.0
  0
LINE
  5
68
330
1F
100
AcDbEntity
  8
0
  6
CONTINUOUS
 62
     7
100
AcDbLine
 10
6.692177
 20
0.3920731707
 30
0.0
 11
6.692177
 21
0.3072739649
 31
0.0
  0
LINE
  5
69
330
1F
100
AcDbEntity
  8
0
  6
CONTINUOUS
 62
     7
100
AcDbLine
 10
4.723427
 20
0.3920731707
 30
0.0
 11
4.723427
 21
0.3072739649
 31
0.0
  0
LINE
  5
6A
330
1F
100
AcDbEntity
  8
0
  6
CONTINUOUS
 62
     7
100
AcDbLine
 10
2.754677
 20
0.3920731707
 30
0.0
 11
2.754677
 21
0.3072739649
 31
0.0
  0
LINE
  5
6B
330
1F
100
AcDbEntity
  8
0
  6
CONTINUOUS
 62
     7
100
AcDbLine
 10
2.754677
 20
0.3920731707
 30
0.0
 11
2.7672319738
 21
0.3575
 31
0.0
  0
LINE
  5
6C
330
1F
100
AcDbEntity
  8
0
  6
CONTINUOUS
 62
     7
100
AcDbLine
 10
2.7672319738
 20
0.3575
 30
0.0
 11
2.7414258825
 21
0.3575
 31
0.0
  0
LINE
  5
6D
330
1F
100
AcDbEntity
  8
0
  6
CONTINUOUS
 62
     7
100
AcDbLine
 10
2.7414258825
 20
0.3575
 30
0.0
 11
2.754677
 21
0.3920731707
 31
0.0
  0
MTEXT
  5
91
330
1F
100
AcDbEntity
  8
0
  6
CONTINUOUS
 62
     7
100
AcDbMText
 10
4.9775846961
 20
0.5178452352
 30
0.0
 40
0.0625
 41
0.0
 71
     1
 72
     1
  1
DO NOT SCALE DRAWING
  7
SLDTEXTSTYLE0
  0
MTEXT
  5
92
330
1F
100
AcDbEntity
  8
0
  6
CONTINUOUS
 62
     7
100
AcDbMText
 10
8.9089811818
 20
0.9417064595
 30
0.0
 40
0.125
 41
0.0
 71
     1
 72
     1
  1
CL1-17
  7
SLDTEXTSTYLE0
  0
MTEXT
  5
94
330
1F
100
AcDbEntity
  8
0
  6
CONTINUOUS
 62
     7
100
AcDbMText
 10
9.7571278483
 20
0.5524239532
 30
0.0
 40
0.1
 41
0.0
 71
     1
 72
     1
  1
SHEET 1 OF 1
  7
SLDTEXTSTYLE1
  0
MTEXT
  5
95
330
1F
100
AcDbEntity
  8
0
  6
CONTINUOUS
 62
     7
100
AcDbMText
 10
4.8448077858
 20
2.3132954224
 30
0.0
 40
0.07
 41
0.0
 71
     1
 72
     1
  1
UNLESS OTHERWISE SPECIFIED:
  7
SLDTEXTSTYLE0
  0
MTEXT
  5
96
330
1F
100
AcDbEntity
  8
0
  6
CONTINUOUS
 62
     7
100
AcDbMText
 10
7.9586139647
 20
0.5520987879
 30
0.0
 40
0.1
 41
0.0
 71
     1
 72
     1
  1
SCALE: 2:1
  7
SLDTEXTSTYLE0
  0
MTEXT
  5
97
330
1F
100
AcDbEntity
  8
0
  6
CONTINUOUS
 62
     7
100
AcDbMText
 10
8.7023691647
 20
0.5486763345
 30
0.0
 40
0.1
 41
0.0
 71
     1
 72
     1
  1
WEIGHT: 
  7
SLDTEXTSTYLE0
  0
MTEXT
  5
98
330
1F
100
AcDbEntity
  8
0
  6
CONTINUOUS
 62
     7
100
AcDbMText
 10
10.2277580983
 20
1.081966299
 30
0.0
 40
0.1
 41
0.0
 71
     1
 72
     1
  1
REV
  7
SLDTEXTSTYLE0
  0
MTEXT
  5
9A
330
1F
100
AcDbEntity
  8
0
  6
CONTINUOUS
 62
     7
100
AcDbMText
 10
8.2984570898
 20
1.0858725293
 30
0.0
 40
0.1
 41
0.0
 71
     1
 72
     1
  1
DWG.  NO.
  7
SLDTEXTSTYLE2
  0
MTEXT
  5
9B
330
1F
100
AcDbEntity
  8
0
  6
CONTINUOUS
 62
     7
100
AcDbMText
 10
7.9598482632
 20
0.9442140768
 30
0.0
 40
0.25
 41
0.0
 71
     1
 72
     1
  1
A
  7
SLDTEXTSTYLE0
  0
MTEXT
  5
9C
330
1F
100
AcDbEntity
  8
0
  6
CONTINUOUS
 62
     7
100
AcDbMText
 10
7.9519581822
 20
1.0872713483
 30
0.0
 40
0.1
 41
0.0
 71
     1
 72
     1
  1
SIZE
  7
SLDTEXTSTYLE0
  0
MTEXT
  5
9D
330
1F
100
AcDbEntity
  8
0
  6
CONTINUOUS
 62
     7
100
AcDbMText
 10
7.9170704177
 20
1.9547881128
 30
0.0
 40
0.1
 41
0.0
 71
     1
 72
     1
  1
TITLE:
  7
SLDTEXTSTYLE0
  0
MTEXT
  5
9E
330
1F
100
AcDbEntity
  8
0
  6
CONTINUOUS
 62
     7
100
AcDbMText
 10
7.0363774929
 20
2.2906161274
 30
0.0
 40
0.065
 41
0.0
 71
     1
 72
     1
  1
NAME
  7
SLDTEXTSTYLE0
  0
MTEXT
  5
9F
330
1F
100
AcDbEntity
  8
0
  6
CONTINUOUS
 62
     7
100
AcDbMText
 10
7.5281510634
 20
2.2888799118
 30
0.0
 40
0.065
 41
0.0
 71
     1
 72
     1
  1
DATE
  7
SLDTEXTSTYLE0
  0
MTEXT
  5
A0
330
1F
100
AcDbEntity
  8
0
  6
CONTINUOUS
 62
     7
100
AcDbMText
 10
6.2277147029
 20
1.1876913145
 30
0.0
 40
0.065
 41
0.0
 71
     1
 72
     1
  1
COMMENTS:
  7
SLDTEXTSTYLE0
  0
MTEXT
  5
A1
330
1F
100
AcDbEntity
  8
0
  6
CONTINUOUS
 62
     7
100
AcDbMText
 10
6.2268411461
 20
1.3536101679
 30
0.0
 40
0.065
 41
0.0
 71
     1
 72
     1
  1
Q.A.
  7
SLDTEXTSTYLE0
  0
MTEXT
  5
A2
330
1F
100
AcDbEntity
  8
0
  6
CONTINUOUS
 62
     7
100
AcDbMText
 10
6.2284654509
 20
1.5395328424
 30
0.0
 40
0.065
 41
0.0
 71
     1
 72
     1
  1
MFG APPR.
  7
SLDTEXTSTYLE0
  0
MTEXT
  5
A3
330
1F
100
AcDbEntity
  8
0
  6
CONTINUOUS
 62
     7
100
AcDbMText
 10
6.2235171344
 20
1.7267501785
 30
0.0
 40
0.065
 41
0.0
 71
     1
 72
     1
  1
ENG APPR.
  7
SLDTEXTSTYLE0
  0
MTEXT
  5
A4
330
1F
100
AcDbEntity
  8
0
  6
CONTINUOUS
 62
     7
100
AcDbMText
 10
6.2264103951
 20
1.9092699088
 30
0.0
 40
0.065
 41
0.0
 71
     1
 72
     1
  1
CHECKED
  7
SLDTEXTSTYLE0
  0
MTEXT
  5
A5
330
1F
100
AcDbEntity
  8
0
  6
CONTINUOUS
 62
     7
100
AcDbMText
 10
6.2242794356
 20
2.1016301232
 30
0.0
 40
0.065
 41
0.0
 71
     1
 72
     1
  1
DRAWN
  7
SLDTEXTSTYLE0
  0
MTEXT
  5
A6
330
1F
100
AcDbEntity
  8
0
  6
CONTINUOUS
 62
     7
100
AcDbMText
 10
4.8208600979
 20
0.834523235
 30
0.0
 40
0.06
 41
0.0
 71
     1
 72
     1
  1
FINISH
  7
SLDTEXTSTYLE0
  0
MTEXT
  5
A7
330
1F
100
AcDbEntity
  8
0
  6
CONTINUOUS
 62
     7
100
AcDbMText
 10
4.8181240648
 20
1.1028217587
 30
0.0
 40
0.06
 41
0.0
 71
     1
 72
     1
  1
MATERIAL
  7
SLDTEXTSTYLE0
  0
INSERT
  5
AD
330
1F
100
AcDbEntity
  8
0
  6
CONTINUOUS
 62
     7
100
AcDbBlockReference
  2
SW_NOTE_0
 10
4.8231926633
 20
1.2646542947
 30
0.0
  0
INSERT
  5
BD
330
1F
100
AcDbEntity
  8
0
  6
CONTINUOUS
 62
     7
100
AcDbBlockReference
  2
SW_NOTE_1
 10
4.8353339353
 20
2.0049168724
 30
0.0
  0
MTEXT
  5
BE
330
1F
100
AcDbEntity
  8
0
  6
CONTINUOUS
 62
     7
100
AcDbMText
 10
3.5531400086
 20
0.5200091997
 30
0.0
 40
0.0625
 41
0.0
 71
     1
 72
     1
  1
APPLICATION
  7
SLDTEXTSTYLE0
  0
MTEXT
  5
BF
330
1F
100
AcDbEntity
  8
0
  6
CONTINUOUS
 62
     7
100
AcDbMText
 10
4.1005607758
 20
0.7502454275
 30
0.0
 40
0.0625
 41
0.0
 71
     1
 72
     1
  1
USED ON
  7
SLDTEXTSTYLE0
  0
MTEXT
  5
C0
330
1F
100
AcDbEntity
  8
0
  6
CONTINUOUS
 62
     7
100
AcDbMText
 10
3.1040019536
 20
0.7492094783
 30
0.0
 40
0.0625
 41
0.0
 71
     1
 72
     1
  1
NEXT ASSY
  7
SLDTEXTSTYLE0
  0
MTEXT
  5
C1
330
1F
100
AcDbEntity
  8
0
  6
CONTINUOUS
 62
     7
100
AcDbMText
 10
1.3712489489
 20
1.2496672684
 30
0.0
 40
0.06
 41
0.0
 71
     1
 72
     1
  1
PROPRIETARY AND CONFIDENTIAL
  7
SLDTEXTSTYLE0
  0
INSERT
  5
CC
330
1F
100
AcDbEntity
  8
0
  6
CONTINUOUS
 62
     7
100
AcDbBlockReference
  2
SW_NOTE_2
 10
1.2226209074
 20
1.0313492921
 30
0.0
  0
MTEXT
  5
CD
330
1F
100
AcDbEntity
  8
0
  6
CONTINUOUS
 62
     7
100
AcDbMText
 10
1.7387909509
 20
0.3105864247
 30
0.0
 40
0.09375
 41
0.0
 71
     1
 72
     1
  1
5
  7
SLDTEXTSTYLE0
  0
MTEXT
  5
CE
330
1F
100
AcDbEntity
  8
0
  6
CONTINUOUS
 62
     7
100
AcDbMText
 10
3.723800327
 20
0.3137237518
 30
0.0
 40
0.09375
 41
0.0
 71
     1
 72
     1
  1
4
  7
SLDTEXTSTYLE0
  0
MTEXT
  5
CF
330
1F
100
AcDbEntity
  8
0
  6
CONTINUOUS
 62
     7
100
AcDbMText
 10
5.6324457277
 20
0.3116191842
 30
0.0
 40
0.09375
 41
0.0
 71
     1
 72
     1
  1
3
  7
SLDTEXTSTYLE0
  0
MTEXT
  5
D0
330
1F
100
AcDbEntity
  8
0
  6
CONTINUOUS
 62
     7
100
AcDbMText
 10
7.6059721724
 20
0.3124391351
 30
0.0
 40
0.09375
 41
0.0
 71
     1
 72
     1
  1
2
  7
SLDTEXTSTYLE0
  0
MTEXT
  5
D1
330
1F
100
AcDbEntity
  8
0
  6
CONTINUOUS
 62
     7
100
AcDbMText
 10
9.6619921328
 20
0.301372012
 30
0.0
 40
0.09375
 41
0.0
 71
     1
 72
     1
  1
1
  7
SLDTEXTSTYLE0
  0
LINE
  5
D2
330
1F
100
AcDbEntity
  8
0
  6
CONTINUOUS
 62
     7
100
AcDbLine
 10
2.4511242924
 20
3.0657649006
 30
0.0
 11
4.2021479144
 21
3.0657649006
 31
0.0
  0
LINE
  5
D3
330
1F
100
AcDbEntity
  8
0
  6
CONTINUOUS
 62
     7
100
AcDbLine
 10
2.5457394058
 20
4.4437176565
 30
0.0
 11
2.4511242924
 21
4.4437176565
 31
0.0
  0
LINE
  5
D4
330
1F
100
AcDbEntity
  8
0
  6
CONTINUOUS
 62
     7
100
AcDbLine
 10
3.8685740514
 20
4.4437176565
 30
0.0
 11
2.7846858414
 21
4.4437176565
 31
0.0
  0
LINE
  5
D5
330
1F
100
AcDbEntity
  8
0
  6
CONTINUOUS
 62
     7
100
AcDbLine
 10
4.2021479144
 20
4.4437176565
 30
0.0
 11
4.1075204871
 21
4.4437176565
 31
0.0
  0
LINE
  5
D6
330
1F
100
AcDbEntity
  8
0
  6
CONTINUOUS
 62
     7
100
AcDbLine
 10
4.2021479144
 20
3.0657649006
 30
0.0
 11
4.2321479144
 21
3.0957649006
 31
0.0
  0
LINE
  5
D7
330
1F
100
AcDbEntity
  8
0
  6
CONTINUOUS
 62
     7
100
AcDbLine
 10
4.2321479144
 20
4.4137176565
 30
0.0
 11
4.2021479144
 21
4.4437176565
 31
0.0
  0
LINE
  5
D8
330
1F
100
AcDbEntity
  8
0
  6
CONTINUOUS
 62
     7
100
AcDbLine
 10
2.4511242924
 20
4.4437176565
 30
0.0
 11
2.4211242924
 21
4.4137176565
 31
0.0
  0
LINE
  5
D9
330
1F
100
AcDbEntity
  8
0
  6
CONTINUOUS
 62
     7
100
AcDbLine
 10
2.4211242924
 20
3.0957649006
 30
0.0
 11
2.4511242924
 21
3.0657649006
 31
0.0
  0
LINE
  5
DA
330
1F
100
AcDbEntity
  8
0
  6
CONTINUOUS
 62
     7
100
AcDbLine
 10
2.7493125543
 20
4.4380490795
 30
0.0
 11
2.7436439774
 21
4.4437176565
 31
0.0
  0
LINE
  5
DB
330
1F
100
AcDbEntity
  8
0
  6
CONTINUOUS
 62
     7
100
AcDbLine
 10
2.5867935837
 20
4.4437176565
 30
0.0
 11
2.5811261139
 21
4.4380501866
 31
0.0
  0
LINE
  5
DC
330
1F
100
AcDbEntity
  8
0
  6
CONTINUOUS
 62
     7
100
AcDbLine
 10
4.0721472
 20
4.4380490795
 30
0.0
 11
4.0664786231
 21
4.4437176565
 31
0.0
  0
LINE
  5
DD
330
1F
100
AcDbEntity
  8
0
  6
CONTINUOUS
 62
     7
100
AcDbLine
 10
3.9096282294
 20
4.4437176565
 30
0.0
 11
3.9039607595
 21
4.4380501866
 31
0.0
  0
LINE
  5
DE
330
1F
100
AcDbEntity
  8
0
  6
CONTINUOUS
 62
     7
100
AcDbLine
 10
4.2021479144
 20
3.0657649006
 30
0.0
 11
4.2021479144
 21
4.4437176565
 31
0.0
  0
LINE
  5
DF
330
1F
100
AcDbEntity
  8
0
  6
CONTINUOUS
 62
     7
100
AcDbLine
 10
2.4511242924
 20
4.4437176565
 30
0.0
 11
2.4511242924
 21
3.0657649006
 31
0.0
  0
POLYLINE
  5
E0
330
1F
100
AcDbEntity
  8
0
  6
CONTINUOUS
 62
     7
100
AcDb2dPolyline
 66
     1
 10
0.0
 20
0.0
 30
0.0
  0
VERTEX
  5
201
330
E0
100
AcDbEntity
  8
0
  6
CONTINUOUS
 62
     7
100
AcDbVertex
100
AcDb2dVertex
 10
2.7846858414
 20
4.4437151708
 30
0.0
  0
VERTEX
  5
202
330
E0
100
AcDbEntity
  8
0
  6
CONTINUOUS
 62
     7
100
AcDbVertex
100
AcDb2dVertex
 10
2.7846980809
 20
4.4437176425
 30
0.0
  0
VERTEX
  5
203
330
E0
100
AcDbEntity
  8
0
  6
CONTINUOUS
 62
     7
100
AcDbVertex
100
AcDb2dVertex
 10
2.7825122091
 20
4.4432686473
 30
0.0
  0
VERTEX
  5
204
330
E0
100
AcDbEntity
  8
0
  6
CONTINUOUS
 62
     7
100
AcDbVertex
100
AcDb2dVertex
 10
2.7759430103
 20
4.4420613048
 30
0.0
  0
VERTEX
  5
205
330
E0
100
AcDbEntity
  8
0
  6
CONTINUOUS
 62
     7
100
AcDbVertex
100
AcDb2dVertex
 10
2.7649904844
 20
4.4402789924
 30
0.0
  0
VERTEX
  5
206
330
E0
100
AcDbEntity
  8
0
  6
CONTINUOUS
 62
     7
100
AcDbVertex
100
AcDb2dVertex
 10
2.7496546314
 20
4.4380905438
 30
0.0
  0
VERTEX
  5
207
330
E0
100
AcDbEntity
  8
0
  6
CONTINUOUS
 62
     7
100
AcDbVertex
100
AcDb2dVertex
 10
2.7311981094
 20
4.4358533676
 30
0.0
  0
VERTEX
  5
208
330
E0
100
AcDbEntity
  8
0
  6
CONTINUOUS
 62
     7
100
AcDbVertex
100
AcDb2dVertex
 10
2.7109610437
 20
4.4340277914
 30
0.0
  0
VERTEX
  5
209
330
E0
100
AcDbEntity
  8
0
  6
CONTINUOUS
 62
     7
100
AcDbVertex
100
AcDb2dVertex
 10
2.6889434343
 20
4.4328412728
 30
0.0
  0
VERTEX
  5
20A
330
E0
100
AcDbEntity
  8
0
  6
CONTINUOUS
 62
     7
100
AcDbVertex
100
AcDb2dVertex
 10
2.6651452812
 20
4.4324298639
 30
0.0
  0
VERTEX
  5
20B
330
E0
100
AcDbEntity
  8
0
  6
CONTINUOUS
 62
     7
100
AcDbVertex
100
AcDb2dVertex
 10
2.6413908415
 20
4.4328407466
 30
0.0
  0
VERTEX
  5
20C
330
E0
100
AcDbEntity
  8
0
  6
CONTINUOUS
 62
     7
100
AcDbVertex
100
AcDb2dVertex
 10
2.619394494
 20
4.4340302486
 30
0.0
  0
VERTEX
  5
20D
330
E0
100
AcDbEntity
  8
0
  6
CONTINUOUS
 62
     7
100
AcDbVertex
100
AcDb2dVertex
 10
2.5991562388
 20
4.4358613551
 30
0.0
  0
VERTEX
  5
20E
330
E0
100
AcDbEntity
  8
0
  6
CONTINUOUS
 62
     7
100
AcDbVertex
100
AcDb2dVertex
 10
2.5806760759
 20
4.4381048206
 30
0.0
  0
VERTEX
  5
20F
330
E0
100
AcDbEntity
  8
0
  6
CONTINUOUS
 62
     7
100
AcDbVertex
100
AcDb2dVertex
 10
2.565365836
 20
4.4402907902
 30
0.0
  0
VERTEX
  5
210
330
E0
100
AcDbEntity
  8
0
  6
CONTINUOUS
 62
     7
100
AcDbVertex
100
AcDb2dVertex
 10
2.5544396444
 20
4.442069948
 30
0.0
  0
VERTEX
  5
211
330
E0
100
AcDbEntity
  8
0
  6
CONTINUOUS
 62
     7
100
AcDbVertex
100
AcDb2dVertex
 10
2.547897501
 20
4.4432733874
 30
0.0
  0
VERTEX
  5
212
330
E0
100
AcDbEntity
  8
0
  6
CONTINUOUS
 62
     7
100
AcDbVertex
100
AcDb2dVertex
 10
2.5457394058
 20
4.4437176565
 30
0.0
  0
VERTEX
  5
213
330
E0
100
AcDbEntity
  8
0
  6
CONTINUOUS
 62
     7
100
AcDbVertex
100
AcDb2dVertex
 10
2.5457394058
 20
4.4437176565
 30
0.0
  0
SEQEND
  5
214
330
E0
100
AcDbEntity
  8
0
  6
CONTINUOUS
 62
     7
  0
POLYLINE
  5
E1
330
1F
100
AcDbEntity
  8
0
  6
CONTINUOUS
 62
     7
100
AcDb2dPolyline
 66
     1
 10
0.0
 20
0.0
 30
0.0
  0
VERTEX
  5
215
330
E1
100
AcDbEntity
  8
0
  6
CONTINUOUS
 62
     7
100
AcDbVertex
100
AcDb2dVertex
 10
4.1075204871
 20
4.4437151708
 30
0.0
  0
VERTEX
  5
216
330
E1
100
AcDbEntity
  8
0
  6
CONTINUOUS
 62
     7
100
AcDbVertex
100
AcDb2dVertex
 10
4.1075327266
 20
4.4437176425
 30
0.0
  0
VERTEX
  5
217
330
E1
100
AcDbEntity
  8
0
  6
CONTINUOUS
 62
     7
100
AcDbVertex
100
AcDb2dVertex
 10
4.1053468548
 20
4.4432686473
 30
0.0
  0
VERTEX
  5
218
330
E1
100
AcDbEntity
  8
0
  6
CONTINUOUS
 62
     7
100
AcDbVertex
100
AcDb2dVertex
 10
4.0987776559
 20
4.4420613048
 30
0.0
  0
VERTEX
  5
219
330
E1
100
AcDbEntity
  8
0
  6
CONTINUOUS
 62
     7
100
AcDbVertex
100
AcDb2dVertex
 10
4.08782513
 20
4.4402789924
 30
0.0
  0
VERTEX
  5
21A
330
E1
100
AcDbEntity
  8
0
  6
CONTINUOUS
 62
     7
100
AcDbVertex
100
AcDb2dVertex
 10
4.0724892771
 20
4.4380905438
 30
0.0
  0
VERTEX
  5
21B
330
E1
100
AcDbEntity
  8
0
  6
CONTINUOUS
 62
     7
100
AcDbVertex
100
AcDb2dVertex
 10
4.054032755
 20
4.4358533676
 30
0.0
  0
VERTEX
  5
21C
330
E1
100
AcDbEntity
  8
0
  6
CONTINUOUS
 62
     7
100
AcDbVertex
100
AcDb2dVertex
 10
4.0337956893
 20
4.4340277914
 30
0.0
  0
VERTEX
  5
21D
330
E1
100
AcDbEntity
  8
0
  6
CONTINUOUS
 62
     7
100
AcDbVertex
100
AcDb2dVertex
 10
4.0117780799
 20
4.4328412728
 30
0.0
  0
VERTEX
  5
21E
330
E1
100
AcDbEntity
  8
0
  6
CONTINUOUS
 62
     7
100
AcDbVertex
100
AcDb2dVertex
 10
3.9879799269
 20
4.4324298639
 30
0.0
  0
VERTEX
  5
21F
330
E1
100
AcDbEntity
  8
0
  6
CONTINUOUS
 62
     7
100
AcDbVertex
100
AcDb2dVertex
 10
3.9642254872
 20
4.4328407466
 30
0.0
  0
VERTEX
  5
220
330
E1
100
AcDbEntity
  8
0
  6
CONTINUOUS
 62
     7
100
AcDbVertex
100
AcDb2dVertex
 10
3.9422291397
 20
4.4340302486
 30
0.0
  0
VERTEX
  5
221
330
E1
100
AcDbEntity
  8
0
  6
CONTINUOUS
 62
     7
100
AcDbVertex
100
AcDb2dVertex
 10
3.9219908845
 20
4.4358613551
 30
0.0
  0
VERTEX
  5
222
330
E1
100
AcDbEntity
  8
0
  6
CONTINUOUS
 62
     7
100
AcDbVertex
100
AcDb2dVertex
 10
3.9035107216
 20
4.4381048206
 30
0.0
  0
VERTEX
  5
223
330
E1
100
AcDbEntity
  8
0
  6
CONTINUOUS
 62
     7
100
AcDbVertex
100
AcDb2dVertex
 10
3.8882004817
 20
4.4402907902
 30
0.0
  0
VERTEX
  5
224
330
E1
100
AcDbEntity
  8
0
  6
CONTINUOUS
 62
     7
100
AcDbVertex
100
AcDb2dVertex
 10
3.8772742901
 20
4.442069948
 30
0.0
  0
VERTEX
  5
225
330
E1
100
AcDbEntity
  8
0
  6
CONTINUOUS
 62
     7
100
AcDbVertex
100
AcDb2dVertex
 10
3.8707321466
 20
4.4432733874
 30
0.0
  0
VERTEX
  5
226
330
E1
100
AcDbEntity
  8
0
  6
CONTINUOUS
 62
     7
100
AcDbVertex
100
AcDb2dVertex
 10
3.8685740514
 20
4.4437176565
 30
0.0
  0
VERTEX
  5
227
330
E1
100
AcDbEntity
  8
0
  6
CONTINUOUS
 62
     7
100
AcDbVertex
100
AcDb2dVertex
 10
3.8685740514
 20
4.4437176565
 30
0.0
  0
SEQEND
  5
228
330
E1
100
AcDbEntity
  8
0
  6
CONTINUOUS
 62
     7
  0
LINE
  5
E2
330
1F
100
AcDbEntity
  8
0
  6
CONTINUOUS
 62
     7
100
AcDbLine
 10
4.2321479144
 20
4.4137176565
 30
0.0
 11
4.2321479144
 21
3.0957649006
 31
0.0
  0
LINE
  5
E3
330
1F
100
AcDbEntity
  8
0
  6
CONTINUOUS
 62
     7
100
AcDbLine
 10
2.4211242924
 20
3.0957649006
 30
0.0
 11
2.4211242924
 21
4.4137176565
 31
0.0
  0
LINE
  5
E4
330
1F
100
AcDbEntity
  8
0
  6
CONTINUOUS
 62
     7
100
AcDbLine
 10
2.7436439774
 20
4.4437176565
 30
0.0
 11
2.5867935837
 21
4.4437176565
 31
0.0
  0
LINE
  5
E5
330
1F
100
AcDbEntity
  8
0
  6
CONTINUOUS
 62
     7
100
AcDbLine
 10
3.9096282294
 20
4.4437176565
 30
0.0
 11
4.0664786231
 21
4.4437176565
 31
0.0
  0
LINE
  5
E6
330
1F
100
AcDbEntity
  8
0
  6
HIDDEN
 62
     7
100
AcDbLine
 10
3.2266361034
 20
3.9422215935
 30
0.0
 11
3.2266361034
 21
3.5672609636
 31
0.0
  0
LINE
  5
E7
330
1F
100
AcDbEntity
  8
0
  6
HIDDEN
 62
     7
100
AcDbLine
 10
3.4266361034
 20
3.9422215935
 30
0.0
 11
3.4266361034
 21
3.5672609636
 31
0.0
  0
SPLINE
  5
E8
330
1F
100
AcDbEntity
  8
0
  6
HIDDEN
 62
     7
100
AcDbSpline
210
0.0
220
0.0
230
1.0
 70
     8
 71
     3
 72
    29
 73
    25
 74
     0
 42
0.00000001
 43
0.00000001
 40
0.0
 40
0.0
 40
0.0
 40
0.0
 40
0.0091805505789247
 40
0.053783549107357
 40
0.0996837907845556
 40
0.1445395384480176
 40
0.190433520014639
 40
0.2409229042393289
 40
0.2925630926555602
 40
0.3493611311346872
 40
0.4080063806176177
 40
0.4498973709648289
 40
0.4929491846903542
 40
0.5348702245419519
 40
0.5780636266093652
 40
0.6195140545262922
 40
0.661824561397965
 40
0.7111820122623778
 40
0.7616021764607953
 40
0.8185812479182838
 40
0.8774051351157472
 40
0.9307361426535795
 40
0.9861878833923516
 40
1.0
 40
1.0
 40
1.0
 40
1.0
 10
2.567001751814564
 20
3.912091826232925
 30
0.0
 10
2.566934840511082
 20
3.912133528869757
 30
0.0
 10
2.566542845788578
 20
3.91237784055855
 30
0.0
 10
2.56809740303769
 20
3.91140602762017
 30
0.0
 10
2.571422320380799
 20
3.909358101539101
 30
0.0
 10
2.576892792943096
 20
3.906086683349003
 30
0.0
 10
2.584231973922256
 20
3.901899589904417
 30
0.0
 10
2.593665193683832
 20
3.896884483759947
 30
0.0
 10
2.605524151255161
 20
3.891237981364133
 30
0.0
 10
2.619749075805163
 20
3.885541608257439
 30
0.0
 10
2.634742439663327
 20
3.881108889577739
 30
0.0
 10
2.64940387608569
 20
3.878453030515688
 30
0.0
 10
2.662834173483929
 20
3.877445989346141
 30
0.0
 10
2.676472055979796
 20
3.877944233490948
 30
0.0
 10
2.68960105169435
 20
3.87985703937827
 30
0.0
 10
2.702103661331926
 20
3.882917547819432
 30
0.0
 10
2.714332741153094
 20
3.886961115616946
 30
0.0
 10
2.726230030300189
 20
3.891845800483558
 30
0.0
 10
2.737832026031903
 20
3.897411850896522
 30
0.0
 10
2.748205594567043
 20
3.902991181606142
 30
0.0
 10
2.756399621857298
 20
3.907769094767167
 30
0.0
 10
2.761605312048924
 20
3.910945888137291
 30
0.0
 10
2.763798467069267
 20
3.912318062083727
 30
0.0
 10
2.7634811732811
 20
3.912119969877694
 30
0.0
 10
2.763417900761074
 20
3.912080467707968
 30
0.0
  0
SPLINE
  5
E9
330
1F
100
AcDbEntity
  8
0
  6
HIDDEN
 62
     7
100
AcDbSpline
210
0.0
220
0.0
230
1.0
 70
     8
 71
     3
 72
     9
 73
     5
 74
     0
 42
0.00000001
 43
0.00000001
 40
0.0
 40
0.0
 40
0.0
 40
0.0
 40
0.0461201524991423
 40
1.0
 40
1.0
 40
1.0
 40
1.0
 10
2.675792382252021
 20
3.878153580670738
 30
0.0
 10
2.675633307078607
 20
3.878131437028526
 30
0.0
 10
2.67218416034352
 20
3.87765130760544
 30
0.0
 10
2.668619263657308
 20
3.877663080272606
 30
0.0
 10
2.665218780549906
 20
3.877674309982567
 30
0.0
  0
SPLINE
  5
EA
330
1F
100
AcDbEntity
  8
0
  6
HIDDEN
 62
     7
100
AcDbSpline
210
0.0
220
0.0
230
1.0
 70
     8
 71
     3
 72
    48
 73
    44
 74
     0
 42
0.00000001
 43
0.00000001
 40
-0.0312499999999999
 40
-0.0312499999999999
 40
0.0
 40
0.0
 40
0.03125
 40
0.03125
 40
0.0625
 40
0.0625
 40
0.1250000000000001
 40
0.1250000000000001
 40
0.1875000000000001
 40
0.1875000000000001
 40
0.2500000000000002
 40
0.2500000000000002
 40
0.3125000000000002
 40
0.3125000000000002
 40
0.3750000000000003
 40
0.3750000000000003
 40
0.4375000000000003
 40
0.4375000000000003
 40
0.4687500000000003
 40
0.4687500000000003
 40
0.5000000000000003
 40
0.5000000000000003
 40
0.5625000000000004
 40
0.5625000000000004
 40
0.6250000000000007
 40
0.6250000000000007
 40
0.6875000000000009
 40
0.6875000000000009
 40
0.7187500000000008
 40
0.7187500000000008
 40
0.7500000000000007
 40
0.7500000000000007
 40
0.8125000000000004
 40
0.8125000000000004
 40
0.8750000000000003
 40
0.8750000000000003
 40
0.9062500000000002
 40
0.9062500000000002
 40
0.9375000000000001
 40
0.9375000000000001
 40
0.9687500000000001
 40
0.9687500000000001
 40
1.0
 40
1.0
 40
1.03125
 40
1.03125
 10
2.566793583699513
 20
3.748047106610713
 30
0.0
 10
2.566793583699513
 20
3.76143545042535
 30
0.0
 10
2.56746914347615
 20
3.767986235244919
 30
0.0
 10
2.570086141097703
 20
3.780821948325483
 30
0.0
 10
2.572062785500667
 20
3.787160452212101
 30
0.0
 10
2.579595736178339
 20
3.804963834147045
 30
0.0
 10
2.586870664981229
 20
3.815609100920545
 30
0.0
 10
2.604544622396091
 20
3.833239466710579
 30
0.0
 10
2.615051931785187
 20
3.840372734489632
 30
0.0
 10
2.638480356019683
 20
3.850315938446487
 30
0.0
 10
2.651672034057897
 20
3.853136758530993
 30
0.0
 10
2.678330209810683
 20
3.853195710872495
 30
0.0
 10
2.691458940500576
 20
3.850462362511755
 30
0.0
 10
2.71504947152008
 20
3.840578182892579
 30
0.0
 10
2.72559134515711
 20
3.833487495073259
 30
0.0
 10
2.743458354105081
 20
3.81576899606439
 30
0.0
 10
2.75061909407204
 20
3.805381851892251
 30
0.0
 10
2.758301400239719
 20
3.787386121116794
 30
0.0
 10
2.76024560955804
 20
3.781197745666751
 30
0.0
 10
2.76290535375541
 20
3.768429824850573
 30
0.0
 10
2.763618781463993
 20
3.76175355439189
 30
0.0
 10
2.763692360562858
 20
3.74180587417142
 30
0.0
 10
2.760976140040705
 20
3.728573915186213
 30
0.0
 10
2.75098796355244
 20
3.704762782667642
 30
0.0
 10
2.743746774603264
 20
3.694087114037744
 30
0.0
 10
2.725979402013106
 20
3.67629562600464
 30
0.0
 10
2.715602426782604
 20
3.66921062184738
 30
0.0
 10
2.697790912315196
 20
3.661638125923194
 30
0.0
 10
2.691604759391376
 20
3.659693092878761
 30
0.0
 10
2.678784027821775
 20
3.65703579484801
 30
0.0
 10
2.672059066735519
 20
3.656331927416947
 30
0.0
 10
2.652234018557243
 20
3.656285210001016
 30
0.0
 10
2.639013479656565
 20
3.659000497778893
 30
0.0
 10
2.615286872459479
 20
3.66895188846367
 30
0.0
 10
2.604708456143217
 20
3.676105090974589
 30
0.0
 10
2.591356399720483
 20
3.689386282019823
 30
0.0
 10
2.587358706175241
 20
3.694199428739903
 30
0.0
 10
2.580251505823571
 20
3.704660653703987
 30
0.0
 10
2.577122820981411
 20
3.710378317867434
 30
0.0
 10
2.572094436902656
 20
3.722232402956898
 30
0.0
 10
2.570154146560162
 20
3.728406079312457
 30
0.0
 10
2.567494374050029
 20
3.741296289598432
 30
0.0
 10
2.566793583699513
 20
3.748047106610713
 30
0.0
 10
2.566793583699513
 20
3.76143545042535
 30
0.0
  0
SPLINE
  5
EB
330
1F
100
AcDbEntity
  8
0
  6
HIDDEN
 62
     7
100
AcDbSpline
210
0.0
220
0.0
230
1.0
 70
     8
 71
     3
 72
    29
 73
    25
 74
     0
 42
0.00000001
 43
0.00000001
 40
0.0
 40
0.0
 40
0.0
 40
0.0
 40
0.0091805505789248
 40
0.053783549107357
 40
0.0996837907845556
 40
0.1445395384480178
 40
0.1904335200146391
 40
0.2409229042393288
 40
0.2925630926555601
 40
0.3493611311346868
 40
0.4080063806176173
 40
0.449897370964829
 40
0.4929491846903539
 40
0.5348702245419515
 40
0.5780636266093648
 40
0.6195140545262918
 40
0.6618245613979643
 40
0.7111820122623775
 40
0.7616021764607949
 40
0.8185812479182831
 40
0.8774051351157465
 40
0.930736142653579
 40
0.9861878833923512
 40
1.0
 40
1.0
 40
1.0
 40
1.0
 10
3.889836397483855
 20
3.912091826232925
 30
0.0
 10
3.889769486180374
 20
3.912133528869757
 30
0.0
 10
3.88937749145787
 20
3.91237784055855
 30
0.0
 10
3.890932048706982
 20
3.91140602762017
 30
0.0
 10
3.894256966050091
 20
3.909358101539101
 30
0.0
 10
3.899727438612387
 20
3.906086683349003
 30
0.0
 10
3.907066619591547
 20
3.901899589904417
 30
0.0
 10
3.916499839353124
 20
3.896884483759947
 30
0.0
 10
3.928358796924452
 20
3.891237981364133
 30
0.0
 10
3.942583721474455
 20
3.885541608257439
 30
0.0
 10
3.957577085332618
 20
3.881108889577739
 30
0.0
 10
3.972238521754982
 20
3.878453030515688
 30
0.0
 10
3.98566881915322
 20
3.877445989346142
 30
0.0
 10
3.999306701649087
 20
3.877944233490948
 30
0.0
 10
4.012435697363641
 20
3.87985703937827
 30
0.0
 10
4.024938307001218
 20
3.882917547819432
 30
0.0
 10
4.037167386822385
 20
3.886961115616946
 30
0.0
 10
4.049064675969481
 20
3.891845800483558
 30
0.0
 10
4.060666671701195
 20
3.897411850896522
 30
0.0
 10
4.071040240236335
 20
3.902991181606142
 30
0.0
 10
4.079234267526589
 20
3.907769094767167
 30
0.0
 10
4.084439957718215
 20
3.910945888137291
 30
0.0
 10
4.086633112738558
 20
3.912318062083727
 30
0.0
 10
4.086315818950392
 20
3.912119969877694
 30
0.0
 10
4.086252546430366
 20
3.912080467707968
 30
0.0
  0
SPLINE
  5
EC
330
1F
100
AcDbEntity
  8
0
  6
HIDDEN
 62
     7
100
AcDbSpline
210
0.0
220
0.0
230
1.0
 70
     8
 71
     3
 72
     9
 73
     5
 74
     0
 42
0.00000001
 43
0.00000001
 40
0.0
 40
0.0
 40
0.0
 40
0.0
 40
0.0461201524991047
 40
1.0
 40
1.0
 40
1.0
 40
1.0
 10
3.998627027921312
 20
3.878153580670738
 30
0.0
 10
3.998467952747899
 20
3.878131437028526
 30
0.0
 10
3.995018806012811
 20
3.87765130760544
 30
0.0
 10
3.991453909326599
 20
3.877663080272606
 30
0.0
 10
3.988053426219198
 20
3.877674309982567
 30
0.0
  0
SPLINE
  5
ED
330
1F
100
AcDbEntity
  8
0
  6
HIDDEN
 62
     7
100
AcDbSpline
210
0.0
220
0.0
230
1.0
 70
     8
 71
     3
 72
    48
 73
    44
 74
     0
 42
0.00000001
 43
0.00000001
 40
-0.0312499999999999
 40
-0.0312499999999999
 40
0.0
 40
0.0
 40
0.03125
 40
0.03125
 40
0.0625000000000001
 40
0.0625000000000001
 40
0.1250000000000003
 40
0.1250000000000003
 40
0.1875000000000005
 40
0.1875000000000005
 40
0.2500000000000007
 40
0.2500000000000007
 40
0.3125000000000009
 40
0.3125000000000009
 40
0.3750000000000012
 40
0.3750000000000012
 40
0.4375000000000013
 40
0.4375000000000013
 40
0.4687500000000013
 40
0.4687500000000013
 40
0.5000000000000012
 40
0.5000000000000012
 40
0.5625000000000011
 40
0.5625000000000011
 40
0.625000000000001
 40
0.625000000000001
 40
0.6875000000000009
 40
0.6875000000000009
 40
0.7187500000000007
 40
0.7187500000000007
 40
0.7500000000000004
 40
0.7500000000000004
 40
0.8125000000000002
 40
0.8125000000000002
 40
0.8750000000000002
 40
0.8750000000000002
 40
0.9062500000000002
 40
0.9062500000000002
 40
0.9375000000000001
 40
0.9375000000000001
 40
0.9687500000000001
 40
0.9687500000000001
 40
1.0
 40
1.0
 40
1.03125
 40
1.03125
 10
3.889628229368805
 20
3.748047106610713
 30
0.0
 10
3.889628229368805
 20
3.76143545042535
 30
0.0
 10
3.890303789145442
 20
3.767986235244919
 30
0.0
 10
3.892920786766995
 20
3.780821948325483
 30
0.0
 10
3.894897431169959
 20
3.787160452212101
 30
0.0
 10
3.902430381847631
 20
3.804963834147045
 30
0.0
 10
3.909705310650521
 20
3.815609100920545
 30
0.0
 10
3.927379268065382
 20
3.833239466710579
 30
0.0
 10
3.937886577454479
 20
3.840372734489632
 30
0.0
 10
3.961315001688974
 20
3.850315938446487
 30
0.0
 10
3.974506679727189
 20
3.853136758530993
 30
0.0
 10
4.001164855479974
 20
3.853195710872495
 30
0.0
 10
4.014293586169868
 20
3.850462362511755
 30
0.0
 10
4.037884117189371
 20
3.840578182892579
 30
0.0
 10
4.048425990826401
 20
3.833487495073258
 30
0.0
 10
4.066292999774372
 20
3.815768996064389
 30
0.0
 10
4.073453739741331
 20
3.805381851892251
 30
0.0
 10
4.08113604590901
 20
3.787386121116794
 30
0.0
 10
4.083080255227332
 20
3.781197745666751
 30
0.0
 10
4.085739999424701
 20
3.768429824850573
 30
0.0
 10
4.086453427133285
 20
3.76175355439189
 30
0.0
 10
4.086527006232149
 20
3.74180587417142
 30
0.0
 10
4.083810785709996
 20
3.728573915186213
 30
0.0
 10
4.073822609221731
 20
3.704762782667642
 30
0.0
 10
4.066581420272555
 20
3.694087114037743
 30
0.0
 10
4.048814047682398
 20
3.67629562600464
 30
0.0
 10
4.038437072451894
 20
3.66921062184738
 30
0.0
 10
4.020625557984487
 20
3.661638125923194
 30
0.0
 10
4.014439405060669
 20
3.659693092878761
 30
0.0
 10
4.001618673491067
 20
3.65703579484801
 30
0.0
 10
3.994893712404811
 20
3.656331927416947
 30
0.0
 10
3.975068664226534
 20
3.656285210001016
 30
0.0
 10
3.961848125325856
 20
3.659000497778893
 30
0.0
 10
3.93812151812877
 20
3.66895188846367
 30
0.0
 10
3.927543101812507
 20
3.676105090974589
 30
0.0
 10
3.914191045389774
 20
3.689386282019824
 30
0.0
 10
3.910193351844534
 20
3.694199428739903
 30
0.0
 10
3.903086151492862
 20
3.704660653703987
 30
0.0
 10
3.899957466650703
 20
3.710378317867434
 30
0.0
 10
3.894929082571947
 20
3.722232402956899
 30
0.0
 10
3.892988792229454
 20
3.728406079312458
 30
0.0
 10
3.890329019719321
 20
3.741296289598433
 30
0.0
 10
3.889628229368805
 20
3.748047106610713
 30
0.0
 10
3.889628229368805
 20
3.76143545042535
 30
0.0
  0
SPLINE
  5
EE
330
1F
100
AcDbEntity
  8
0
  6
HIDDEN
 62
     7
100
AcDbSpline
210
0.0
220
0.0
230
1.0
 70
     8
 71
     3
 72
    27
 73
    23
 74
     0
 42
0.00000001
 43
0.00000001
 40
0.0
 40
0.0
 40
0.0
 40
0.0
 40
0.0433168350520855
 40
0.0931314593312657
 40
0.1494822004276822
 40
0.212392360469263
 40
0.2758269426503631
 40
0.3323887473356775
 40
0.3820996044029386
 40
0.4249970232895266
 40
0.4679117456072244
 40
0.5176263000632785
 40
0.57417851869877
 40
0.6375904885900869
 40
0.7006069067099686
 40
0.7570002342180016
 40
0.8067934282188697
 40
0.8500245823290453
 40
0.8934418078632994
 40
0.943384935208059
 40
0.9998924997025072
 40
0.9999999999999999
 40
0.9999999999999999
 40
0.9999999999999999
 40
0.9999999999999999
 10
2.566793583699513
 20
4.417509461971039
 30
0.0
 10
2.567040467865171
 20
4.417434833843589
 30
0.0
 10
2.567571270325826
 20
4.417274382914794
 30
0.0
 10
2.572298174429014
 20
4.41617036492447
 30
0.0
 10
2.581179721088618
 20
4.414489825210468
 30
0.0
 10
2.594990474319211
 20
4.412103030351629
 30
0.0
 10
2.612455064566875
 20
4.409714955317001
 30
0.0
 10
2.631092663331423
 20
4.407998079475048
 30
0.0
 10
2.648697470159697
 20
4.406933616968872
 30
0.0
 10
2.665160060494021
 20
4.406521437790055
 30
0.0
 10
2.681624834138266
 20
4.406928049311741
 30
0.0
 10
2.699236704383945
 20
4.407988807382844
 30
0.0
 10
2.717880682467392
 20
4.409702452726901
 30
0.0
 10
2.735373800908548
 20
4.412091789840706
 30
0.0
 10
2.749196276816421
 20
4.414475867594703
 30
0.0
 10
2.758153703140721
 20
4.416177237044771
 30
0.0
 10
2.762723108069483
 20
4.417232561051651
 30
0.0
 10
2.76405299846658
 20
4.417636062629044
 30
0.0
 10
2.762805229977131
 20
4.417241680447415
 30
0.0
 10
2.757931841900813
 20
4.416159113443724
 30
0.0
 10
2.753197581777426
 20
4.415173749672832
 30
0.0
 10
2.748955883916336
 20
4.414465184265433
 30
0.0
 10
2.748947829809472
 20
4.414463838846288
 30
0.0
  0
SPLINE
  5
EF
330
1F
100
AcDbEntity
  8
0
  6
HIDDEN
 62
     7
100
AcDbSpline
210
0.0
220
0.0
230
1.0
 70
     8
 71
     3
 72
    23
 73
    19
 74
     0
 42
0.00000001
 43
0.00000001
 40
0.0
 40
0.0
 40
0.0
 40
0.0
 40
0.0282540292996255
 40
0.0590051234076159
 40
0.0922656478916503
 40
0.1280452319302338
 40
0.1663514695476522
 40
0.2071904090527751
 40
0.2505669024562799
 40
0.34826610601631
 40
0.4316427993197132
 40
0.5007609240955834
 40
0.6094990037229708
 40
0.7499998159002857
 40
0.8471102397714445
 40
0.9304193144471498
 40
0.9999947686239417
 40
1.0
 40
1.0
 40
1.0
 40
1.0
 10
3.889628229368805
 20
4.41750946197104
 30
0.0
 10
3.889703328556009
 20
4.417486201911058
 30
0.0
 10
3.889860164126675
 20
4.417437626088645
 30
0.0
 10
3.891208627467268
 20
4.417083782777512
 30
0.0
 10
3.893611867958349
 20
4.41653039366143
 30
0.0
 10
3.897360763845235
 20
4.41575229511461
 30
0.0
 10
3.902624720356184
 20
4.414753875939653
 30
0.0
 10
3.909587225884356
 20
4.413545806631586
 30
0.0
 10
3.921848582872698
 20
4.411489824871313
 30
0.0
 10
3.940702397755703
 20
4.409060114165953
 30
0.0
 10
3.965132184337702
 20
4.407180562362804
 30
0.0
 10
3.992067147307798
 20
4.406287129441522
 30
0.0
 10
4.025020364577621
 20
4.407905578932684
 30
0.0
 10
4.056062121919176
 20
4.411605388072939
 30
0.0
 10
4.075783115756137
 20
4.415139798152642
 30
0.0
 10
4.084721992117251
 20
4.416983851114797
 30
0.0
 10
4.086470641117107
 20
4.417508390300929
 30
0.0
 10
4.086478562926548
 20
4.417509448708451
 30
0.0
 10
4.086478563522144
 20
4.417509448788027
 30
0.0
  0
CIRCLE
  5
F0
330
1F
100
AcDbEntity
  8
0
  6
HIDDEN
 62
     7
100
AcDbCircle
 10
3.9880534262
 20
3.7547412785
 30
0.0
 40
0.0784251968503935
  0
POLYLINE
  5
F1
330
1F
100
AcDbEntity
  8
0
  6
HIDDEN
 62
     7
100
AcDb2dPolyline
 66
     1
 10
0.0
 20
0.0
 30
0.0
  0
VERTEX
  5
229
330
F1
100
AcDbEntity
  8
0
  6
HIDDEN
 62
     7
100
AcDbVertex
100
AcDb2dVertex
 10
4.0864786231
 20
3.7547412785
 30
0.0
  0
VERTEX
  5
22A
330
F1
100
AcDbEntity
  8
0
  6
HIDDEN
 62
     7
100
AcDbVertex
100
AcDb2dVertex
 10
4.0855618855
 20
3.7413390493
 30
0.0
  0
VERTEX
  5
22B
330
F1
100
AcDbEntity
  8
0
  6
HIDDEN
 62
     7
100
AcDbVertex
100
AcDb2dVertex
 10
4.0830765223
 20
3.7290872225
 30
0.0
  0
SEQEND
  5
22C
330
F1
100
AcDbEntity
  8
0
  6
HIDDEN
 62
     7
  0
ARC
  5
F2
330
1F
100
AcDbEntity
  8
0
  6
HIDDEN
 62
     7
100
AcDbCircle
 10
3.9880534262
 20
3.7547412785
 30
0.0
 40
0.0984251968503934
100
AcDbArc
 50
174.1565803205
 51
188.2361337575
  0
LINE
  5
F3
330
1F
100
AcDbEntity
  8
0
  6
HIDDEN
 62
     7
100
AcDbLine
 10
4.0864173577
 20
3.7582135046
 30
0.0
 11
4.0864786231
 21
3.7547412785
 31
0.0
  0
LINE
  5
F4
330
1F
100
AcDbEntity
  8
0
  6
HIDDEN
 62
     7
100
AcDbLine
 10
3.9880534262
 20
3.6865562439
 30
0.0
 11
3.9290034541
 21
3.7206487612
 31
0.0
  0
LINE
  5
F5
330
1F
100
AcDbEntity
  8
0
  6
HIDDEN
 62
     7
100
AcDbLine
 10
3.9290034541
 20
3.7888337958
 30
0.0
 11
3.9880534262
 21
3.8229263131
 31
0.0
  0
LINE
  5
F6
330
1F
100
AcDbEntity
  8
0
  6
HIDDEN
 62
     7
100
AcDbLine
 10
3.9880534262
 20
3.8229263131
 30
0.0
 11
4.0471033983
 21
3.7888337958
 31
0.0
  0
LINE
  5
F7
330
1F
100
AcDbEntity
  8
0
  6
HIDDEN
 62
     7
100
AcDbLine
 10
4.0471033983
 20
3.7888337958
 30
0.0
 11
4.0471033983
 21
3.7206487612
 31
0.0
  0
LINE
  5
F8
330
1F
100
AcDbEntity
  8
0
  6
HIDDEN
 62
     7
100
AcDbLine
 10
3.9290034541
 20
3.7206487612
 30
0.0
 11
3.9290034541
 21
3.7888337958
 31
0.0
  0
LINE
  5
F9
330
1F
100
AcDbEntity
  8
0
  6
HIDDEN
 62
     7
100
AcDbLine
 10
4.0471033983
 20
3.7206487612
 30
0.0
 11
3.9880534262
 21
3.6865562439
 31
0.0
  0
CIRCLE
  5
FA
330
1F
100
AcDbEntity
  8
0
  6
HIDDEN
 62
     7
100
AcDbCircle
 10
2.6652187805
 20
3.7547412785
 30
0.0
 40
0.0784251968503931
  0
LINE
  5
FB
330
1F
100
AcDbEntity
  8
0
  6
HIDDEN
 62
     7
100
AcDbLine
 10
2.7242687526
 20
3.7888337958
 30
0.0
 11
2.6652187805
 21
3.8229263131
 31
0.0
  0
LINE
  5
FC
330
1F
100
AcDbEntity
  8
0
  6
HIDDEN
 62
     7
100
AcDbLine
 10
2.6652187805
 20
3.8229263131
 30
0.0
 11
2.6061688085
 21
3.7888337958
 31
0.0
  0
LINE
  5
FD
330
1F
100
AcDbEntity
  8
0
  6
HIDDEN
 62
     7
100
AcDbLine
 10
2.6061688085
 20
3.7888337958
 30
0.0
 11
2.6061688085
 21
3.7206487612
 31
0.0
  0
LINE
  5
FE
330
1F
100
AcDbEntity
  8
0
  6
HIDDEN
 62
     7
100
AcDbLine
 10
2.7242687526
 20
3.7206487612
 30
0.0
 11
2.7242687526
 21
3.7888337958
 31
0.0
  0
LINE
  5
FF
330
1F
100
AcDbEntity
  8
0
  6
HIDDEN
 62
     7
100
AcDbLine
 10
2.6061688085
 20
3.7206487612
 30
0.0
 11
2.6652187805
 21
3.6865562439
 31
0.0
  0
LINE
  5
100
330
1F
100
AcDbEntity
  8
0
  6
HIDDEN
 62
     7
100
AcDbLine
 10
2.6652187805
 20
3.6865562439
 30
0.0
 11
2.7242687526
 21
3.7206487612
 31
0.0
  0
LINE
  5
101
330
1F
100
AcDbEntity
  8
0
  6
HIDDEN
 62
     7
100
AcDbLine
 10
2.5667935837
 20
4.4237176565
 30
0.0
 11
2.7636439774
 21
4.4237176565
 31
0.0
  0
LINE
  5
102
330
1F
100
AcDbEntity
  8
0
  6
HIDDEN
 62
     7
100
AcDbLine
 10
2.7636439774
 20
3.9322215935
 30
0.0
 11
2.5667935837
 21
3.9322215935
 31
0.0
  0
LINE
  5
103
330
1F
100
AcDbEntity
  8
0
  6
HIDDEN
 62
     7
100
AcDbLine
 10
2.5867935837
 20
3.9122215935
 30
0.0
 11
2.7436439774
 21
3.9122215935
 31
0.0
  0
LINE
  5
104
330
1F
100
AcDbEntity
  8
0
  6
HIDDEN
 62
     7
100
AcDbLine
 10
2.6652187805
 20
4.3437176565
 30
0.0
 11
2.6652187805
 21
4.4437176565
 31
0.0
  0
LINE
  5
105
330
1F
100
AcDbEntity
  8
0
  6
HIDDEN
 62
     7
100
AcDbLine
 10
2.7242687526
 20
4.3437176565
 30
0.0
 11
2.6652187805
 21
4.3437176565
 31
0.0
  0
LINE
  5
106
330
1F
100
AcDbEntity
  8
0
  6
HIDDEN
 62
     7
100
AcDbLine
 10
2.6652187805
 20
4.3437176565
 30
0.0
 11
2.6061688085
 21
4.3437176565
 31
0.0
  0
LINE
  5
107
330
1F
100
AcDbEntity
  8
0
  6
HIDDEN
 62
     7
100
AcDbLine
 10
2.7242687526
 20
4.3437176565
 30
0.0
 11
2.7242687526
 21
4.4437176565
 31
0.0
  0
LINE
  5
108
330
1F
100
AcDbEntity
  8
0
  6
HIDDEN
 62
     7
100
AcDbLine
 10
2.6061688085
 20
4.3437176565
 30
0.0
 11
2.6061688085
 21
4.4437176565
 31
0.0
  0
LINE
  5
109
330
1F
100
AcDbEntity
  8
0
  6
HIDDEN
 62
     7
100
AcDbLine
 10
4.0864786231
 20
4.4237176565
 30
0.0
 11
3.8896282294
 21
4.4237176565
 31
0.0
  0
LINE
  5
10A
330
1F
100
AcDbEntity
  8
0
  6
HIDDEN
 62
     7
100
AcDbLine
 10
3.8896282294
 20
3.9322215935
 30
0.0
 11
4.0864786231
 21
3.9322215935
 31
0.0
  0
LINE
  5
10B
330
1F
100
AcDbEntity
  8
0
  6
HIDDEN
 62
     7
100
AcDbLine
 10
4.0664786231
 20
3.9122215935
 30
0.0
 11
3.9096282294
 21
3.9122215935
 31
0.0
  0
LINE
  5
10C
330
1F
100
AcDbEntity
  8
0
  6
HIDDEN
 62
     7
100
AcDbLine
 10
3.9880534262
 20
4.3437176565
 30
0.0
 11
3.9880534262
 21
4.4437176565
 31
0.0
  0
LINE
  5
10D
330
1F
100
AcDbEntity
  8
0
  6
HIDDEN
 62
     7
100
AcDbLine
 10
3.9290034541
 20
4.3437176565
 30
0.0
 11
3.9880534262
 21
4.3437176565
 31
0.0
  0
LINE
  5
10E
330
1F
100
AcDbEntity
  8
0
  6
HIDDEN
 62
     7
100
AcDbLine
 10
3.9880534262
 20
4.3437176565
 30
0.0
 11
4.0471033983
 21
4.3437176565
 31
0.0
  0
LINE
  5
10F
330
1F
100
AcDbEntity
  8
0
  6
HIDDEN
 62
     7
100
AcDbLine
 10
3.9290034541
 20
4.3437176565
 30
0.0
 11
3.9290034541
 21
4.4437176565
 31
0.0
  0
LINE
  5
110
330
1F
100
AcDbEntity
  8
0
  6
HIDDEN
 62
     7
100
AcDbLine
 10
4.0471033983
 20
4.3437176565
 30
0.0
 11
4.0471033983
 21
4.4437176565
 31
0.0
  0
LINE
  5
111
330
1F
100
AcDbEntity
  8
0
  6
HIDDEN
 62
     7
100
AcDbLine
 10
4.2321479144
 20
3.9422215935
 30
0.0
 11
4.2021479144
 21
3.9122215935
 31
0.0
  0
LINE
  5
112
330
1F
100
AcDbEntity
  8
0
  6
HIDDEN
 62
     7
100
AcDbLine
 10
4.2021479144
 20
3.5972609636
 30
0.0
 11
4.2321479144
 21
3.5672609636
 31
0.0
  0
LINE
  5
113
330
1F
100
AcDbEntity
  8
0
  6
HIDDEN
 62
     7
100
AcDbLine
 10
2.4211242924
 20
3.5672609636
 30
0.0
 11
2.4511242924
 21
3.5972609636
 31
0.0
  0
LINE
  5
114
330
1F
100
AcDbEntity
  8
0
  6
HIDDEN
 62
     7
100
AcDbLine
 10
2.4511242924
 20
3.9122215935
 30
0.0
 11
2.4211242924
 21
3.9422215935
 31
0.0
  0
LINE
  5
115
330
1F
100
AcDbEntity
  8
0
  6
HIDDEN
 62
     7
100
AcDbLine
 10
3.4266361034
 20
3.9422215935
 30
0.0
 11
3.2266361034
 21
3.9422215935
 31
0.0
  0
LINE
  5
116
330
1F
100
AcDbEntity
  8
0
  6
HIDDEN
 62
     7
100
AcDbLine
 10
3.2266361034
 20
3.5672609636
 30
0.0
 11
3.4266361034
 21
3.5672609636
 31
0.0
  0
LINE
  5
117
330
1F
100
AcDbEntity
  8
0
  6
HIDDEN
 62
     7
100
AcDbLine
 10
2.5670017518
 20
3.9122215935
 30
0.0
 11
2.4511242924
 21
3.9122215935
 31
0.0
  0
LINE
  5
118
330
1F
100
AcDbEntity
  8
0
  6
HIDDEN
 62
     7
100
AcDbLine
 10
3.2266361034
 20
3.9122215935
 30
0.0
 11
2.7634179008
 21
3.9122215935
 31
0.0
  0
LINE
  5
119
330
1F
100
AcDbEntity
  8
0
  6
HIDDEN
 62
     7
100
AcDbLine
 10
2.4511242924
 20
3.5972609636
 30
0.0
 11
3.2266361034
 21
3.5972609636
 31
0.0
  0
LINE
  5
11A
330
1F
100
AcDbEntity
  8
0
  6
HIDDEN
 62
     7
100
AcDbLine
 10
3.8898363975
 20
3.9122215935
 30
0.0
 11
3.4266361034
 21
3.9122215935
 31
0.0
  0
LINE
  5
11B
330
1F
100
AcDbEntity
  8
0
  6
HIDDEN
 62
     7
100
AcDbLine
 10
4.2021479144
 20
3.9122215935
 30
0.0
 11
4.0862525464
 21
3.9122215935
 31
0.0
  0
LINE
  5
11C
330
1F
100
AcDbEntity
  8
0
  6
HIDDEN
 62
     7
100
AcDbLine
 10
3.4266361034
 20
3.5972609636
 30
0.0
 11
4.2021479144
 21
3.5972609636
 31
0.0
  0
LINE
  5
11D
330
1F
100
AcDbEntity
  8
0
  6
HIDDEN
 62
     7
100
AcDbLine
 10
2.545739373
 20
4.4437176595
 30
0.0
 11
2.5667935568
 21
4.4175094649
 31
0.0
  0
LINE
  5
11E
330
1F
100
AcDbEntity
  8
0
  6
HIDDEN
 62
     7
100
AcDbLine
 10
2.7636439162
 20
4.4175094487
 30
0.0
 11
2.7846980811
 21
4.4437176427
 31
0.0
  0
LINE
  5
11F
330
1F
100
AcDbEntity
  8
0
  6
HIDDEN
 62
     7
100
AcDbLine
 10
3.8685740187
 20
4.4437176595
 30
0.0
 11
3.8896282025
 21
4.4175094649
 31
0.0
  0
LINE
  5
120
330
1F
100
AcDbEntity
  8
0
  6
HIDDEN
 62
     7
100
AcDbLine
 10
4.0864785619
 20
4.4175094487
 30
0.0
 11
4.1075327268
 21
4.4437176427
 31
0.0
  0
LINE
  5
121
330
1F
100
AcDbEntity
  8
0
  6
HIDDEN
 62
     7
100
AcDbLine
 10
2.7636439774
 20
3.9120805407
 30
0.0
 11
2.7636439774
 21
4.4175071165
 31
0.0
  0
LINE
  5
122
330
1F
100
AcDbEntity
  8
0
  6
HIDDEN
 62
     7
100
AcDbLine
 10
2.5667935837
 20
4.417509462
 30
0.0
 11
2.5667935837
 21
3.9120920793
 31
0.0
  0
LINE
  5
123
330
1F
100
AcDbEntity
  8
0
  6
HIDDEN
 62
     7
100
AcDbLine
 10
4.0864786231
 20
3.9120805407
 30
0.0
 11
4.0864786231
 21
4.4175071165
 31
0.0
  0
LINE
  5
124
330
1F
100
AcDbEntity
  8
0
  6
HIDDEN
 62
     7
100
AcDbLine
 10
3.8896282294
 20
4.417509462
 30
0.0
 11
3.8896282294
 21
3.9120920793
 31
0.0
  0
LINE
  5
125
330
1F
100
AcDbEntity
  8
0
  6
HIDDEN
 62
     7
100
AcDbLine
 10
2.7636439774
 20
4.4237176565
 30
0.0
 11
2.7493125543
 21
4.4380490795
 31
0.0
  0
LINE
  5
126
330
1F
100
AcDbEntity
  8
0
  6
HIDDEN
 62
     7
100
AcDbLine
 10
2.5811261139
 20
4.4380501866
 30
0.0
 11
2.5667935837
 21
4.4237176565
 31
0.0
  0
LINE
  5
127
330
1F
100
AcDbEntity
  8
0
  6
HIDDEN
 62
     7
100
AcDbLine
 10
2.7636439774
 20
3.9322215935
 30
0.0
 11
2.7636439774
 21
4.4237176565
 31
0.0
  0
LINE
  5
128
330
1F
100
AcDbEntity
  8
0
  6
HIDDEN
 62
     7
100
AcDbLine
 10
2.5667935837
 20
4.4237176565
 30
0.0
 11
2.5667935837
 21
3.9322215935
 31
0.0
  0
LINE
  5
129
330
1F
100
AcDbEntity
  8
0
  6
HIDDEN
 62
     7
100
AcDbLine
 10
2.5667935837
 20
3.9322215935
 30
0.0
 11
2.5867935837
 21
3.9122215935
 31
0.0
  0
LINE
  5
12A
330
1F
100
AcDbEntity
  8
0
  6
HIDDEN
 62
     7
100
AcDbLine
 10
2.7436439774
 20
3.9122215935
 30
0.0
 11
2.7636439774
 21
3.9322215935
 31
0.0
  0
LINE
  5
12B
330
1F
100
AcDbEntity
  8
0
  6
HIDDEN
 62
     7
100
AcDbLine
 10
4.0864786231
 20
3.9322215935
 30
0.0
 11
4.0864786231
 21
4.4237176565
 31
0.0
  0
LINE
  5
12C
330
1F
100
AcDbEntity
  8
0
  6
HIDDEN
 62
     7
100
AcDbLine
 10
3.8896282294
 20
4.4237176565
 30
0.0
 11
3.8896282294
 21
3.9322215935
 31
0.0
  0
LINE
  5
12D
330
1F
100
AcDbEntity
  8
0
  6
HIDDEN
 62
     7
100
AcDbLine
 10
4.0864786231
 20
4.4237176565
 30
0.0
 11
4.0721472
 21
4.4380490795
 31
0.0
  0
LINE
  5
12E
330
1F
100
AcDbEntity
  8
0
  6
HIDDEN
 62
     7
100
AcDbLine
 10
3.9039607595
 20
4.4380501866
 30
0.0
 11
3.8896282294
 21
4.4237176565
 31
0.0
  0
LINE
  5
12F
330
1F
100
AcDbEntity
  8
0
  6
HIDDEN
 62
     7
100
AcDbLine
 10
3.8896282294
 20
3.9322215935
 30
0.0
 11
3.9096282294
 21
3.9122215935
 31
0.0
  0
LINE
  5
130
330
1F
100
AcDbEntity
  8
0
  6
HIDDEN
 62
     7
100
AcDbLine
 10
4.0664786231
 20
3.9122215935
 30
0.0
 11
4.0864786231
 21
3.9322215935
 31
0.0
  0
LINE
  5
131
330
1F
100
AcDbEntity
  8
0
  6
CONTINUOUS
 62
     7
100
AcDbLine
 10
8.9347818801
 20
3.6712369775
 30
0.0
 11
8.9398609843
 21
3.6763160817
 31
0.0
  0
LINE
  5
132
330
1F
100
AcDbEntity
  8
0
  6
CONTINUOUS
 62
     7
100
AcDbLine
 10
8.9398609843
 20
3.8331664754
 30
0.0
 11
8.9347818801
 21
3.8382455795
 31
0.0
  0
LINE
  5
133
330
1F
100
AcDbEntity
  8
0
  6
CONTINUOUS
 62
     7
100
AcDbLine
 10
8.3343889073
 20
4.4386385523
 30
0.0
 11
8.3293098032
 21
4.4437176565
 31
0.0
  0
LINE
  5
134
330
1F
100
AcDbEntity
  8
0
  6
CONTINUOUS
 62
     7
100
AcDbLine
 10
8.1724594095
 20
4.4437176565
 30
0.0
 11
8.1673803053
 21
4.4386385523
 31
0.0
  0
CIRCLE
  5
135
330
1F
100
AcDbEntity
  8
0
  6
CONTINUOUS
 62
     7
100
AcDbCircle
 10
8.2508846063
 20
3.7547412785
 30
0.0
 40
0.658976377952758
  0
CIRCLE
  5
136
330
1F
100
AcDbEntity
  8
0
  6
CONTINUOUS
 62
     7
100
AcDbCircle
 10
8.2508846063
 20
3.7547412785
 30
0.0
 40
0.6889763779527573
  0
CIRCLE
  5
137
330
1F
100
AcDbEntity
  8
0
  6
CONTINUOUS
 62
     7
100
AcDbCircle
 10
8.2508846063
 20
3.7547412785
 30
0.0
 40
0.1874803149606308
  0
CIRCLE
  5
138
330
1F
100
AcDbEntity
  8
0
  6
CONTINUOUS
 62
     7
100
AcDbCircle
 10
8.2508846063
 20
3.7547412785
 30
0.0
 40
0.1574803149606314
  0
LINE
  5
139
330
1F
100
AcDbEntity
  8
0
  6
CONTINUOUS
 62
     7
100
AcDbLine
 10
8.9398609843
 20
3.8331664754
 30
0.0
 11
8.9398609843
 21
3.6763160817
 31
0.0
  0
LINE
  5
13A
330
1F
100
AcDbEntity
  8
0
  6
CONTINUOUS
 62
     7
100
AcDbLine
 10
8.1724594095
 20
4.4437176565
 30
0.0
 11
8.3293098032
 21
4.4437176565
 31
0.0
  0
SPLINE
  5
13B
330
1F
100
AcDbEntity
  8
0
  6
HIDDEN
 62
     7
100
AcDbSpline
210
0.0
220
0.0
230
1.0
 70
     8
 71
     3
 72
    32
 73
    28
 74
     0
 42
0.00000001
 43
0.00000001
 40
0.0
 40
0.0
 40
0.0
 40
0.0
 40
0.0504049696667806
 40
0.1088671839856657
 40
0.175370202311486
 40
0.2499399981123275
 40
0.3240446417528032
 40
0.3903608108301737
 40
0.4489155019290179
 40
0.4997535115318704
 40
0.5508103332630188
 40
0.6095413396356948
 40
0.6759918465796663
 40
0.7501893583266784
 40
0.8246981690331163
 40
0.8911526490051432
 40
0.9495786642123712
 40
0.9758171368751236
 40
0.9881909143515524
 40
0.9941915577759588
 40
0.9971453534671236
 40
0.998610625469477
 40
0.9993403557951474
 40
0.9997044946421052
 40
0.9998863824997919
 40
0.9999772810388532
 40
1.0
 40
1.0
 40
1.0
 40
1.0
 10
8.152460913111714
 20
4.40665145788866
 30
0.0
 10
8.15269995565645
 20
4.406726188817944
 30
0.0
 10
8.15321625174531
 20
4.406887596430758
 30
0.0
 10
8.157890719997882
 20
4.408002156223557
 30
0.0
 10
8.166764423732175
 20
4.409698169030107
 30
0.0
 10
8.180584698203473
 20
4.412093000511488
 30
0.0
 10
8.19802990039514
 20
4.414475540443488
 30
0.0
 10
8.216596551068848
 20
4.416177434598105
 30
0.0
 10
8.234222990228785
 20
4.417232134243904
 30
0.0
 10
8.250796801302464
 20
4.417637390973812
 30
0.0
 10
8.267392138621174
 20
4.417236368991989
 30
0.0
 10
8.28507857332834
 20
4.416183586192764
 30
0.0
 10
8.303689480298546
 20
4.414481816988078
 30
0.0
 10
8.321159045137762
 20
4.412096672510054
 30
0.0
 10
8.334966685088277
 20
4.40970644470339
 30
0.0
 10
8.343899986859565
 20
4.407993447490909
 30
0.0
 10
8.347788995966367
 20
4.40707651702829
 30
0.0
 10
8.348965390592694
 20
4.406754412016933
 30
0.0
 10
8.349227789736686
 20
4.406676521212939
 30
0.0
 10
8.349289651636731
 20
4.406657401409154
 30
0.0
 10
8.349304734193932
 20
4.406652649614037
 30
0.0
 10
8.349308494259722
 20
4.406651456930036
 30
0.0
 10
8.349309451022291
 20
4.406651154056004
 30
0.0
 10
8.349309702006313
 20
4.406651075472581
 30
0.0
 10
8.349309770100213
 20
4.40665105464441
 30
0.0
 10
8.349309789605766
 20
4.406651048876694
 30
0.0
 10
8.349309794108233
 20
4.406651047626203
 30
0.0
 10
8.349309795008548
 20
4.406651047376155
 30
0.0
  0
SPLINE
  5
13C
330
1F
100
AcDbEntity
  8
0
  6
HIDDEN
 62
     7
100
AcDbSpline
210
0.0
220
0.0
230
1.0
 70
     8
 71
     3
 72
     9
 73
     5
 74
     0
 42
0.00000001
 43
0.00000001
 40
0.0
 40
0.0
 40
0.0
 40
0.0
 40
0.510995074366767
 40
1.0
 40
1.0
 40
1.0
 40
1.0
 10
8.282515249317965
 20
4.416251114713705
 30
0.0
 10
8.277249267224926
 20
4.416606321437982
 30
0.0
 10
8.266943919175214
 20
4.417301448929605
 30
0.0
 10
8.256158654079872
 20
4.417441148293827
 30
0.0
 10
8.25088460632399
 20
4.41750946197104
 30
0.0
  0
LINE
  5
13D
330
1F
100
AcDbEntity
  8
0
  6
HIDDEN
 62
     7
100
AcDbLine
 10
8.9198609843
 20
3.6563160817
 30
0.0
 11
8.9198609843
 21
3.8531664754
 31
0.0
  0
LINE
  5
13E
330
1F
100
AcDbEntity
  8
0
  6
HIDDEN
 62
     7
100
AcDbLine
 10
8.4283649213
 20
3.7547412785
 30
0.0
 11
8.4283649213
 21
3.6563160817
 31
0.0
  0
LINE
  5
13F
330
1F
100
AcDbEntity
  8
0
  6
HIDDEN
 62
     7
100
AcDbLine
 10
8.4283649213
 20
3.8531664754
 30
0.0
 11
8.4283649213
 21
3.7547412785
 31
0.0
  0
LINE
  5
140
330
1F
100
AcDbEntity
  8
0
  6
HIDDEN
 62
     7
100
AcDbLine
 10
8.4083649213
 20
3.7547412785
 30
0.0
 11
8.4083649213
 21
3.8331664754
 31
0.0
  0
LINE
  5
141
330
1F
100
AcDbEntity
  8
0
  6
HIDDEN
 62
     7
100
AcDbLine
 10
8.4083649213
 20
3.6763160817
 30
0.0
 11
8.4083649213
 21
3.7547412785
 31
0.0
  0
LINE
  5
142
330
1F
100
AcDbEntity
  8
0
  6
HIDDEN
 62
     7
100
AcDbLine
 10
8.8398609843
 20
3.7888337958
 30
0.0
 11
8.9398609843
 21
3.7888337958
 31
0.0
  0
LINE
  5
143
330
1F
100
AcDbEntity
  8
0
  6
HIDDEN
 62
     7
100
AcDbLine
 10
8.8398609843
 20
3.7206487612
 30
0.0
 11
8.9398609843
 21
3.7206487612
 31
0.0
  0
LINE
  5
144
330
1F
100
AcDbEntity
  8
0
  6
HIDDEN
 62
     7
100
AcDbLine
 10
8.8398609843
 20
3.7206487612
 30
0.0
 11
8.8398609843
 21
3.6865562439
 31
0.0
  0
LINE
  5
145
330
1F
100
AcDbEntity
  8
0
  6
HIDDEN
 62
     7
100
AcDbLine
 10
8.8398609843
 20
3.7888337958
 30
0.0
 11
8.8398609843
 21
3.7206487612
 31
0.0
  0
LINE
  5
146
330
1F
100
AcDbEntity
  8
0
  6
HIDDEN
 62
     7
100
AcDbLine
 10
8.8398609843
 20
3.8229263131
 30
0.0
 11
8.8398609843
 21
3.7888337958
 31
0.0
  0
LINE
  5
147
330
1F
100
AcDbEntity
  8
0
  6
HIDDEN
 62
     7
100
AcDbLine
 10
8.8398609843
 20
3.6865562439
 30
0.0
 11
8.9398609843
 21
3.6865562439
 31
0.0
  0
LINE
  5
148
330
1F
100
AcDbEntity
  8
0
  6
HIDDEN
 62
     7
100
AcDbLine
 10
8.8398609843
 20
3.8229263131
 30
0.0
 11
8.9398609843
 21
3.8229263131
 31
0.0
  0
LINE
  5
149
330
1F
100
AcDbEntity
  8
0
  6
HIDDEN
 62
     7
100
AcDbLine
 10
8.2508846063
 20
3.9122215935
 30
0.0
 11
8.1724594095
 21
3.9122215935
 31
0.0
  0
LINE
  5
14A
330
1F
100
AcDbEntity
  8
0
  6
HIDDEN
 62
     7
100
AcDbLine
 10
8.3293098032
 20
3.9122215935
 30
0.0
 11
8.2508846063
 21
3.9122215935
 31
0.0
  0
LINE
  5
14B
330
1F
100
AcDbEntity
  8
0
  6
HIDDEN
 62
     7
100
AcDbLine
 10
8.2508846063
 20
3.9322215935
 30
0.0
 11
8.3493098032
 21
3.9322215935
 31
0.0
  0
LINE
  5
14C
330
1F
100
AcDbEntity
  8
0
  6
HIDDEN
 62
     7
100
AcDbLine
 10
8.1524594095
 20
3.9322215935
 30
0.0
 11
8.2508846063
 21
3.9322215935
 31
0.0
  0
LINE
  5
14D
330
1F
100
AcDbEntity
  8
0
  6
HIDDEN
 62
     7
100
AcDbLine
 10
8.3493098032
 20
4.4237176565
 30
0.0
 11
8.1524594095
 21
4.4237176565
 31
0.0
  0
LINE
  5
14E
330
1F
100
AcDbEntity
  8
0
  6
HIDDEN
 62
     7
100
AcDbLine
 10
8.2849771236
 20
4.3437176565
 30
0.0
 11
8.3190696409
 21
4.3437176565
 31
0.0
  0
LINE
  5
14F
330
1F
100
AcDbEntity
  8
0
  6
HIDDEN
 62
     7
100
AcDbLine
 10
8.216792089
 20
4.3437176565
 30
0.0
 11
8.2849771236
 21
4.3437176565
 31
0.0
  0
LINE
  5
150
330
1F
100
AcDbEntity
  8
0
  6
HIDDEN
 62
     7
100
AcDbLine
 10
8.2849771236
 20
4.3437176565
 30
0.0
 11
8.2849771236
 21
4.4437176565
 31
0.0
  0
LINE
  5
151
330
1F
100
AcDbEntity
  8
0
  6
HIDDEN
 62
     7
100
AcDbLine
 10
8.216792089
 20
4.3437176565
 30
0.0
 11
8.216792089
 21
4.4437176565
 31
0.0
  0
LINE
  5
152
330
1F
100
AcDbEntity
  8
0
  6
HIDDEN
 62
     7
100
AcDbLine
 10
8.1826995718
 20
4.3437176565
 30
0.0
 11
8.216792089
 21
4.3437176565
 31
0.0
  0
LINE
  5
153
330
1F
100
AcDbEntity
  8
0
  6
HIDDEN
 62
     7
100
AcDbLine
 10
8.3190696409
 20
4.3437176565
 30
0.0
 11
8.3190696409
 21
4.4437176565
 31
0.0
  0
LINE
  5
154
330
1F
100
AcDbEntity
  8
0
  6
HIDDEN
 62
     7
100
AcDbLine
 10
8.1826995718
 20
4.3437176565
 30
0.0
 11
8.1826995718
 21
4.4437176565
 31
0.0
  0
LINE
  5
155
330
1F
100
AcDbEntity
  8
0
  6
HIDDEN
 62
     7
100
AcDbLine
 10
8.1266806109
 20
4.4324298622
 30
0.0
 11
8.152459422
 21
4.4066510477
 31
0.0
  0
LINE
  5
156
330
1F
100
AcDbEntity
  8
0
  6
HIDDEN
 62
     7
100
AcDbLine
 10
8.3493098056
 20
4.4066510453
 30
0.0
 11
8.3750886205
 21
4.4324298596
 31
0.0
  0
LINE
  5
157
330
1F
100
AcDbEntity
  8
0
  6
HIDDEN
 62
     7
100
AcDbLine
 10
8.3493098032
 20
3.87767431
 30
0.0
 11
8.3493098032
 21
4.4066497984
 31
0.0
  0
LINE
  5
158
330
1F
100
AcDbEntity
  8
0
  6
HIDDEN
 62
     7
100
AcDbLine
 10
8.1524594095
 20
4.4066523567
 30
0.0
 11
8.1524594095
 21
3.87777531
 31
0.0
  0
LINE
  5
159
330
1F
100
AcDbEntity
  8
0
  6
HIDDEN
 62
     7
100
AcDbLine
 10
8.3739781659
 20
3.6563160817
 30
0.0
 11
8.9328412593
 21
3.6563160817
 31
0.0
  0
LINE
  5
15A
330
1F
100
AcDbEntity
  8
0
  6
HIDDEN
 62
     7
100
AcDbLine
 10
8.9328004089
 20
3.8531664754
 30
0.0
 11
8.3739514177
 21
3.8531664754
 31
0.0
  0
LINE
  5
15B
330
1F
100
AcDbEntity
  8
0
  6
HIDDEN
 62
     7
100
AcDbLine
 10
8.9198609843
 20
3.6563160817
 30
0.0
 11
8.9347818801
 21
3.6712369775
 31
0.0
  0
LINE
  5
15C
330
1F
100
AcDbEntity
  8
0
  6
HIDDEN
 62
     7
100
AcDbLine
 10
8.9347818801
 20
3.8382455795
 30
0.0
 11
8.9198609843
 21
3.8531664754
 31
0.0
  0
LINE
  5
15D
330
1F
100
AcDbEntity
  8
0
  6
HIDDEN
 62
     7
100
AcDbLine
 10
8.4283649213
 20
3.6563160817
 30
0.0
 11
8.9198609843
 21
3.6563160817
 31
0.0
  0
LINE
  5
15E
330
1F
100
AcDbEntity
  8
0
  6
HIDDEN
 62
     7
100
AcDbLine
 10
8.9198609843
 20
3.8531664754
 30
0.0
 11
8.4283649213
 21
3.8531664754
 31
0.0
  0
LINE
  5
15F
330
1F
100
AcDbEntity
  8
0
  6
HIDDEN
 62
     7
100
AcDbLine
 10
8.4283649213
 20
3.8531664754
 30
0.0
 11
8.4083649213
 21
3.8331664754
 31
0.0
  0
LINE
  5
160
330
1F
100
AcDbEntity
  8
0
  6
HIDDEN
 62
     7
100
AcDbLine
 10
8.4083649213
 20
3.6763160817
 30
0.0
 11
8.4283649213
 21
3.6563160817
 31
0.0
  0
LINE
  5
161
330
1F
100
AcDbEntity
  8
0
  6
HIDDEN
 62
     7
100
AcDbLine
 10
8.1524594095
 20
3.9322215935
 30
0.0
 11
8.1724594095
 21
3.9122215935
 31
0.0
  0
LINE
  5
162
330
1F
100
AcDbEntity
  8
0
  6
HIDDEN
 62
     7
100
AcDbLine
 10
8.3293098032
 20
3.9122215935
 30
0.0
 11
8.3493098032
 21
3.9322215935
 31
0.0
  0
LINE
  5
163
330
1F
100
AcDbEntity
  8
0
  6
HIDDEN
 62
     7
100
AcDbLine
 10
8.3493098032
 20
4.4237176565
 30
0.0
 11
8.3343889073
 21
4.4386385523
 31
0.0
  0
LINE
  5
164
330
1F
100
AcDbEntity
  8
0
  6
HIDDEN
 62
     7
100
AcDbLine
 10
8.1673803053
 20
4.4386385523
 30
0.0
 11
8.1524594095
 21
4.4237176565
 31
0.0
  0
LINE
  5
165
330
1F
100
AcDbEntity
  8
0
  6
HIDDEN
 62
     7
100
AcDbLine
 10
8.3493098032
 20
3.9322215935
 30
0.0
 11
8.3493098032
 21
4.4237176565
 31
0.0
  0
LINE
  5
166
330
1F
100
AcDbEntity
  8
0
  6
HIDDEN
 62
     7
100
AcDbLine
 10
8.1524594095
 20
4.4237176565
 30
0.0
 11
8.1524594095
 21
3.9322215935
 31
0.0
  0
LINE
  5
167
330
1F
100
AcDbEntity
  8
0
  6
CONTINUOUS
 62
     7
100
AcDbLine
 10
2.4511242924
 20
5.983000761
 30
0.0
 11
4.2021479144
 21
5.983000761
 31
0.0
  0
LINE
  5
168
330
1F
100
AcDbEntity
  8
0
  6
CONTINUOUS
 62
     7
100
AcDbLine
 10
2.5667935837
 20
7.3609535169
 30
0.0
 11
2.4511242924
 21
7.3609535169
 31
0.0
  0
LINE
  5
169
330
1F
100
AcDbEntity
  8
0
  6
CONTINUOUS
 62
     7
100
AcDbLine
 10
3.8896282294
 20
7.3609535169
 30
0.0
 11
2.7633596222
 21
7.3609535169
 31
0.0
  0
LINE
  5
16A
330
1F
100
AcDbEntity
  8
0
  6
CONTINUOUS
 62
     7
100
AcDbLine
 10
4.2021479144
 20
7.3609535169
 30
0.0
 11
4.0861942679
 21
7.3609535169
 31
0.0
  0
LINE
  5
16B
330
1F
100
AcDbEntity
  8
0
  6
CONTINUOUS
 62
     7
100
AcDbLine
 10
2.4511242924
 20
7.3609535169
 30
0.0
 11
2.4211242924
 21
7.3309535169
 31
0.0
  0
LINE
  5
16C
330
1F
100
AcDbEntity
  8
0
  6
CONTINUOUS
 62
     7
100
AcDbLine
 10
2.4211242924
 20
6.013000761
 30
0.0
 11
2.4511242924
 21
5.983000761
 31
0.0
  0
LINE
  5
16D
330
1F
100
AcDbEntity
  8
0
  6
CONTINUOUS
 62
     7
100
AcDbLine
 10
4.2021479144
 20
5.983000761
 30
0.0
 11
4.2321479144
 21
6.013000761
 31
0.0
  0
LINE
  5
16E
330
1F
100
AcDbEntity
  8
0
  6
CONTINUOUS
 62
     7
100
AcDbLine
 10
4.2321479144
 20
7.3309535169
 30
0.0
 11
4.2021479144
 21
7.3609535169
 31
0.0
  0
LINE
  5
16F
330
1F
100
AcDbEntity
  8
0
  6
CONTINUOUS
 62
     7
100
AcDbLine
 10
4.0687703325
 20
7.3586618074
 30
0.0
 11
4.0664786231
 21
7.3609535169
 31
0.0
  0
LINE
  5
170
330
1F
100
AcDbEntity
  8
0
  6
CONTINUOUS
 62
     7
100
AcDbLine
 10
3.9096282294
 20
7.3609535169
 30
0.0
 11
3.9073346745
 21
7.358659962
 31
0.0
  0
LINE
  5
171
330
1F
100
AcDbEntity
  8
0
  6
CONTINUOUS
 62
     7
100
AcDbLine
 10
2.7459356868
 20
7.3586618074
 30
0.0
 11
2.7436439774
 21
7.3609535169
 31
0.0
  0
LINE
  5
172
330
1F
100
AcDbEntity
  8
0
  6
CONTINUOUS
 62
     7
100
AcDbLine
 10
2.5867935837
 20
7.3609535169
 30
0.0
 11
2.5845000288
 21
7.358659962
 31
0.0
  0
LINE
  5
173
330
1F
100
AcDbEntity
  8
0
  6
CONTINUOUS
 62
     7
100
AcDbLine
 10
4.2021479144
 20
5.983000761
 30
0.0
 11
4.2021479144
 21
7.3609535169
 31
0.0
  0
LINE
  5
174
330
1F
100
AcDbEntity
  8
0
  6
CONTINUOUS
 62
     7
100
AcDbLine
 10
2.4511242924
 20
7.3609535169
 30
0.0
 11
2.4511242924
 21
5.983000761
 31
0.0
  0
SPLINE
  5
175
330
1F
100
AcDbEntity
  8
0
  6
CONTINUOUS
 62
     7
100
AcDbSpline
210
0.0
220
0.0
230
1.0
 70
     8
 71
     3
 72
    29
 73
    25
 74
     0
 42
0.00000001
 43
0.00000001
 40
-0.1265666080907537
 40
-0.0840768004922756
 40
-0.042854313777651
 40
0.0
 40
0.0429484578353737
 40
0.0842255443718563
 40
0.1267098255604862
 40
0.1886972701519422
 40
0.2497701269929716
 40
0.2909744829676918
 40
0.3310757626115996
 40
0.3732807792692699
 40
0.415804277729218
 40
0.4571323456575441
 40
0.500159650002877
 40
0.5430076059328327
 40
0.5842364894428546
 40
0.6267442120620772
 40
0.6888014151288074
 40
0.7498391465088978
 40
0.791046864806052
 40
0.8311769260619698
 40
0.8734333919092463
 40
0.9159231995077244
 40
0.957145686222349
 40
1.0
 40
1.042948457835374
 40
1.084225544371856
 40
1.126709825560486
 10
2.548074484246573
 20
6.639465496428672
 30
0.0
 10
2.54453061547061
 20
6.672003452120216
 30
0.0
 10
2.548146578792375
 20
6.704542344269305
 30
0.0
 10
2.560243882335381
 20
6.734926770913883
 30
0.0
 10
2.58282815575624
 20
6.764666717369486
 30
0.0
 10
2.617710748384712
 20
6.790322671331315
 30
0.0
 10
2.660207366415109
 20
6.798088255356508
 30
0.0
 10
2.696626339608816
 20
6.793706443255445
 30
0.0
 10
2.725942795430476
 20
6.781068465149326
 30
0.0
 10
2.75062373676605
 20
6.7606275775625
 30
0.0
 10
2.770247255087274
 20
6.734892432323033
 30
0.0
 10
2.782318164759465
 20
6.704461192551922
 30
0.0
 10
2.785908367180611
 20
6.671884632486792
 30
0.0
 10
2.782330373531248
 20
6.639332134833716
 30
0.0
 10
2.770214910754814
 20
6.608984324583377
 30
0.0
 10
2.74757815239438
 20
6.579271134744213
 30
0.0
 10
2.712676452392127
 20
6.553623953702674
 30
0.0
 10
2.670168292790904
 20
6.545857740318647
 30
0.0
 10
2.633752674877891
 20
6.550274595224322
 30
0.0
 10
2.604427974328537
 20
6.562944064221514
 30
0.0
 10
2.579746835148206
 20
6.583401734850005
 30
0.0
 10
2.560129588311298
 20
6.609111166555858
 30
0.0
 10
2.548074484246573
 20
6.639465496428672
 30
0.0
 10
2.54453061547061
 20
6.672003452120216
 30
0.0
 10
2.548146578792375
 20
6.704542344269305
 30
0.0
  0
SPLINE
  5
176
330
1F
100
AcDbEntity
  8
0
  6
CONTINUOUS
 62
     7
100
AcDbSpline
210
0.0
220
0.0
230
1.0
 70
     8
 71
     3
 72
    29
 73
    25
 74
     0
 42
0.00000001
 43
0.00000001
 40
-0.1265666080907537
 40
-0.0840768004922755
 40
-0.042854313777651
 40
0.0
 40
0.0429484578354028
 40
0.0842255443718853
 40
0.1267098255604916
 40
0.188697270151973
 40
0.2497701269929717
 40
0.2909744829677476
 40
0.3310757626116557
 40
0.3732807792692823
 40
0.4158042777293575
 40
0.4571323456576832
 40
0.5001596500028935
 40
0.5430076059328552
 40
0.5842364894428771
 40
0.6267442120620671
 40
0.6888014151287459
 40
0.7498391465088977
 40
0.7910468648060524
 40
0.8311769260619701
 40
0.8734333919092463
 40
0.9159231995077245
 40
0.957145686222349
 40
1.0
 40
1.042948457835403
 40
1.084225544371885
 40
1.126709825560491
 10
3.870909129915865
 20
6.639465496428672
 30
0.0
 10
3.867365261139902
 20
6.672003452120224
 30
0.0
 10
3.870981224461665
 20
6.704542344269319
 30
0.0
 10
3.883078528004667
 20
6.734926770913901
 30
0.0
 10
3.905662801425544
 20
6.764666717369494
 30
0.0
 10
3.940545394054017
 20
6.790322671331306
 30
0.0
 10
3.983042012084422
 20
6.798088255356507
 30
0.0
 10
4.019460985278136
 20
6.793706443255449
 30
0.0
 10
4.048777441099805
 20
6.781068465149338
 30
0.0
 10
4.073458382435373
 20
6.760627577562466
 30
0.0
 10
4.093081900756586
 20
6.73489243232297
 30
0.0
 10
4.105152810428799
 20
6.704461192551866
 30
0.0
 10
4.108743012849904
 20
6.671884632486757
 30
0.0
 10
4.105165019200487
 20
6.639332134833718
 30
0.0
 10
4.093049556424061
 20
6.608984324583391
 30
0.0
 10
4.070412798063683
 20
6.579271134744212
 30
0.0
 10
4.035511098061444
 20
6.553623953702654
 30
0.0
 10
3.99300293846021
 20
6.545857740318651
 30
0.0
 10
3.956587320547183
 20
6.550274595224321
 30
0.0
 10
3.927262619997829
 20
6.562944064221514
 30
0.0
 10
3.902581480817498
 20
6.583401734850005
 30
0.0
 10
3.88296423398059
 20
6.609111166555858
 30
0.0
 10
3.870909129915865
 20
6.639465496428672
 30
0.0
 10
3.867365261139902
 20
6.672003452120224
 30
0.0
 10
3.870981224461665
 20
6.704542344269319
 30
0.0
  0
SPLINE
  5
177
330
1F
100
AcDbEntity
  8
0
  6
CONTINUOUS
 62
     7
100
AcDbSpline
210
0.0
220
0.0
230
1.0
 70
     8
 71
     3
 72
    26
 73
    22
 74
     0
 42
0.00000001
 43
0.00000001
 40
0.0
 40
0.0
 40
0.0
 40
0.0
 40
0.0159670158166979
 40
0.070083586154284
 40
0.1224491777100809
 40
0.1763144694008404
 40
0.2290320863892399
 40
0.2832557653270024
 40
0.3363541142785316
 40
0.3910012753941223
 40
0.4439134784956522
 40
0.4983879558291265
 40
0.550829147098387
 40
0.6047940175116955
 40
0.6572174037496943
 40
0.7111354610975508
 40
0.7640175973157601
 40
0.8184188251437158
 40
0.8715252143465289
 40
0.9261912186363184
 40
1.0
 40
1.0
 40
1.0
 40
1.0
 10
4.086194267851932
 20
7.360912994213082
 30
0.0
 10
4.086275413019035
 20
7.360924556244429
 30
0.0
 10
4.086631581283344
 20
7.360975305152636
 30
0.0
 10
4.084464314571641
 20
7.360665524529699
 30
0.0
 10
4.079675610804059
 20
7.360006064594554
 30
0.0
 10
4.072196328858634
 20
7.359040539399527
 30
0.0
 10
4.062330615560625
 20
7.357891916888124
 30
0.0
 10
4.050415272835885
 20
7.356692214092907
 30
0.0
 10
4.036586011729033
 20
7.355560501916304
 30
0.0
 10
4.021472508793375
 20
7.354644983206621
 30
0.0
 10
4.005267475412685
 20
7.354038173857739
 30
0.0
 10
3.988779369136241
 20
7.353819680727152
 30
0.0
 10
3.972171693288285
 20
7.354006647461068
 30
0.0
 10
3.956218375377208
 20
7.354570074947661
 30
0.0
 10
3.941029726887457
 20
7.355455097474883
 30
0.0
 10
3.927253122148831
 20
7.356551099961539
 30
0.0
 10
3.915033061743395
 20
7.357755010575346
 30
0.0
 10
3.904907041546086
 20
7.358918380874116
 30
0.0
 10
3.897102400942639
 20
7.359914920278126
 30
0.0
 10
3.891009871575137
 20
7.360753334730152
 30
0.0
 10
3.890132359926881
 20
7.360880474852224
 30
0.0
 10
3.889628229368805
 20
7.360953516869182
 30
0.0
  0
SPLINE
  5
178
330
1F
100
AcDbEntity
  8
0
  6
CONTINUOUS
 62
     7
100
AcDbSpline
210
0.0
220
0.0
230
1.0
 70
     8
 71
     3
 72
    26
 73
    22
 74
     0
 42
0.00000001
 43
0.00000001
 40
0.0
 40
0.0
 40
0.0
 40
0.0
 40
0.0159670158166979
 40
0.0700835861542841
 40
0.1224491777100811
 40
0.1763144694008405
 40
0.2290320863892404
 40
0.2832557653270026
 40
0.336354114278532
 40
0.3910012753941222
 40
0.4439134784956522
 40
0.4983879558291265
 40
0.550829147098387
 40
0.6047940175116955
 40
0.6572174037496938
 40
0.7111354610975503
 40
0.7640175973157601
 40
0.8184188251437154
 40
0.8715252143465284
 40
0.9261912186363184
 40
1.0
 40
1.0
 40
1.0
 40
1.0
 10
2.76335962218264
 20
7.360912994213082
 30
0.0
 10
2.763440767349743
 20
7.360924556244429
 30
0.0
 10
2.763796935614052
 20
7.360975305152636
 30
0.0
 10
2.76162966890235
 20
7.360665524529699
 30
0.0
 10
2.756840965134768
 20
7.360006064594554
 30
0.0
 10
2.749361683189341
 20
7.359040539399527
 30
0.0
 10
2.739495969891333
 20
7.357891916888124
 30
0.0
 10
2.727580627166593
 20
7.356692214092907
 30
0.0
 10
2.713751366059741
 20
7.355560501916304
 30
0.0
 10
2.698637863124083
 20
7.354644983206621
 30
0.0
 10
2.682432829743394
 20
7.354038173857739
 30
0.0
 10
2.665944723466949
 20
7.353819680727152
 30
0.0
 10
2.649337047618995
 20
7.354006647461068
 30
0.0
 10
2.633383729707917
 20
7.354570074947661
 30
0.0
 10
2.618195081218166
 20
7.355455097474882
 30
0.0
 10
2.60441847647954
 20
7.356551099961539
 30
0.0
 10
2.592198416074103
 20
7.357755010575346
 30
0.0
 10
2.582072395876795
 20
7.358918380874116
 30
0.0
 10
2.574267755273348
 20
7.359914920278126
 30
0.0
 10
2.568175225905846
 20
7.360753334730152
 30
0.0
 10
2.567297714257589
 20
7.360880474852222
 30
0.0
 10
2.566793583699513
 20
7.360953516869182
 30
0.0
  0
LINE
  5
179
330
1F
100
AcDbEntity
  8
0
  6
CONTINUOUS
 62
     7
100
AcDbLine
 10
2.5667935837
 20
6.6719771389
 30
0.0
 11
2.5675699386
 21
6.662315669
 31
0.0
  0
SPLINE
  5
17A
330
1F
100
AcDbEntity
  8
0
  6
CONTINUOUS
 62
     7
100
AcDbSpline
210
0.0
220
0.0
230
1.0
 70
     8
 71
     3
 72
     9
 73
     5
 74
     0
 42
0.00000001
 43
0.00000001
 40
0.0
 40
0.0
 40
0.0
 40
0.0
 40
0.6741302953693411
 40
1.0
 40
1.0
 40
1.0
 40
1.0
 10
2.763642748431218
 20
6.671881956687006
 30
0.0
 10
2.763527333427322
 20
6.677181202621039
 30
0.0
 10
2.763356127646055
 20
6.685042065677385
 30
0.0
 10
2.761196181450021
 20
6.692554787327111
 30
0.0
 10
2.760492320421101
 20
6.695002955712081
 30
0.0
  0
LINE
  5
17B
330
1F
100
AcDbEntity
  8
0
  6
CONTINUOUS
 62
     7
100
AcDbLine
 10
2.5678673174
 20
6.6853473145
 30
0.0
 11
2.5667935837
 21
6.6719771389
 31
0.0
  0
SPLINE
  5
17C
330
1F
100
AcDbEntity
  8
0
  6
CONTINUOUS
 62
     7
100
AcDbSpline
210
0.0
220
0.0
230
1.0
 70
     8
 71
     3
 72
    29
 73
    25
 74
     0
 42
0.00000001
 43
0.00000001
 40
-0.1251806158151321
 40
-0.0765586361353958
 40
-0.0348431099907844
 40
0.0
 40
0.0348724612372511
 40
0.0765497577209114
 40
0.1250663568659915
 40
0.1739524036256918
 40
0.2156718524950465
 40
0.2502566981909467
 40
0.3046663008440355
 40
0.3749691183041163
 40
0.4235605555854124
 40
0.4652461699169713
 40
0.5000598509120693
 40
0.554895689876083
 40
0.6249891208892434
 40
0.6738199859499132
 40
0.7155088923168291
 40
0.7500881274217026
 40
0.7501178804590486
 40
0.8045210574620307
 40
0.8748193841848679
 40
0.9234413638646042
 40
0.9651568900092156
 40
1.0
 40
1.034872461237251
 40
1.076549757720911
 40
1.125066356865992
 10
3.891362276397679
 20
6.694947327225029
 30
0.0
 10
3.88883804155981
 20
6.67197124698213
 30
0.0
 10
3.891364983380707
 20
6.649002025715026
 30
0.0
 10
3.900273602264652
 20
6.624602329751234
 30
0.0
 10
3.91737404502254
 20
6.601287849207109
 30
0.0
 10
3.94069639095545
 20
6.584172604924541
 30
0.0
 10
3.965133380931817
 20
6.575283680969234
 30
0.0
 10
3.992066655518173
 20
6.572322018319306
 30
0.0
 10
4.025020609013189
 20
6.577966473629967
 30
0.0
 10
4.056061919020816
 20
6.597634807182991
 30
0.0
 10
4.075783498610557
 20
6.624515612978955
 30
0.0
 10
4.084720879668158
 20
6.64892107740174
 30
0.0
 10
4.087728220705323
 20
6.675980438471055
 30
0.0
 10
4.082037397854995
 20
6.70903500787594
 30
0.0
 10
4.062274566473057
 20
6.740119878024106
 30
0.0
 10
4.035346683240684
 20
6.759804170463832
 30
0.0
 10
4.01093338680195
 20
6.768684162583274
 30
0.0
 10
3.995182959347506
 20
6.770401669482368
 30
0.0
 10
3.976861993960582
 20
6.770403383140686
 30
0.0
 10
3.951014419241203
 20
6.765964446036779
 30
0.0
 10
3.920002090989644
 20
6.746279290183463
 30
0.0
 10
3.900286429026893
 20
6.719373573143442
 30
0.0
 10
3.891362276397679
 20
6.694947327225029
 30
0.0
 10
3.88883804155981
 20
6.67197124698213
 30
0.0
 10
3.891364983380707
 20
6.649002025715026
 30
0.0
  0
LINE
  5
17D
330
1F
100
AcDbEntity
  8
0
  6
CONTINUOUS
 62
     7
100
AcDbLine
 10
2.4211242924
 20
6.013000761
 30
0.0
 11
2.4211242924
 21
7.3309535169
 31
0.0
  0
LINE
  5
17E
330
1F
100
AcDbEntity
  8
0
  6
CONTINUOUS
 62
     7
100
AcDbLine
 10
4.2321479144
 20
7.3309535169
 30
0.0
 11
4.2321479144
 21
6.013000761
 31
0.0
  0
LINE
  5
17F
330
1F
100
AcDbEntity
  8
0
  6
CONTINUOUS
 62
     7
100
AcDbLine
 10
3.9096282294
 20
7.3609535169
 30
0.0
 11
4.0664786231
 21
7.3609535169
 31
0.0
  0
LINE
  5
180
330
1F
100
AcDbEntity
  8
0
  6
CONTINUOUS
 62
     7
100
AcDbLine
 10
2.7436439774
 20
7.3609535169
 30
0.0
 11
2.5867935837
 21
7.3609535169
 31
0.0
  0
CIRCLE
  5
181
330
1F
100
AcDbEntity
  8
0
  6
CONTINUOUS
 62
     7
100
AcDbCircle
 10
2.6652187805
 20
6.6719771389
 30
0.0
 40
0.0784251968503931
  0
LINE
  5
182
330
1F
100
AcDbEntity
  8
0
  6
CONTINUOUS
 62
     7
100
AcDbLine
 10
2.6061688085
 20
6.6378846216
 30
0.0
 11
2.6061688085
 21
6.7060696562
 31
0.0
  0
LINE
  5
183
330
1F
100
AcDbEntity
  8
0
  6
CONTINUOUS
 62
     7
100
AcDbLine
 10
2.6652187805
 20
6.6037921043
 30
0.0
 11
2.6061688085
 21
6.6378846216
 31
0.0
  0
LINE
  5
184
330
1F
100
AcDbEntity
  8
0
  6
CONTINUOUS
 62
     7
100
AcDbLine
 10
2.7242687526
 20
6.6378846216
 30
0.0
 11
2.6652187805
 21
6.6037921043
 31
0.0
  0
LINE
  5
185
330
1F
100
AcDbEntity
  8
0
  6
CONTINUOUS
 62
     7
100
AcDbLine
 10
2.7242687526
 20
6.7060696562
 30
0.0
 11
2.7242687526
 21
6.6378846216
 31
0.0
  0
LINE
  5
186
330
1F
100
AcDbEntity
  8
0
  6
CONTINUOUS
 62
     7
100
AcDbLine
 10
2.6652187805
 20
6.7401621735
 30
0.0
 11
2.7242687526
 21
6.7060696562
 31
0.0
  0
LINE
  5
187
330
1F
100
AcDbEntity
  8
0
  6
CONTINUOUS
 62
     7
100
AcDbLine
 10
2.6061688085
 20
6.7060696562
 30
0.0
 11
2.6652187805
 21
6.7401621735
 31
0.0
  0
CIRCLE
  5
188
330
1F
100
AcDbEntity
  8
0
  6
CONTINUOUS
 62
     7
100
AcDbCircle
 10
2.6652187805
 20
6.6719771389
 30
0.0
 40
0.0984251968503935
  0
CIRCLE
  5
189
330
1F
100
AcDbEntity
  8
0
  6
CONTINUOUS
 62
     7
100
AcDbCircle
 10
3.9880534262
 20
6.6719771389
 30
0.0
 40
0.0784251968503931
  0
LINE
  5
18A
330
1F
100
AcDbEntity
  8
0
  6
CONTINUOUS
 62
     7
100
AcDbLine
 10
3.9880534262
 20
6.7401621735
 30
0.0
 11
3.9290034541
 21
6.7060696562
 31
0.0
  0
LINE
  5
18B
330
1F
100
AcDbEntity
  8
0
  6
CONTINUOUS
 62
     7
100
AcDbLine
 10
3.9290034541
 20
6.7060696562
 30
0.0
 11
3.9290034541
 21
6.6378846216
 31
0.0
  0
LINE
  5
18C
330
1F
100
AcDbEntity
  8
0
  6
CONTINUOUS
 62
     7
100
AcDbLine
 10
3.9290034541
 20
6.6378846216
 30
0.0
 11
3.9880534262
 21
6.6037921043
 31
0.0
  0
LINE
  5
18D
330
1F
100
AcDbEntity
  8
0
  6
CONTINUOUS
 62
     7
100
AcDbLine
 10
3.9880534262
 20
6.6037921043
 30
0.0
 11
4.0471033983
 21
6.6378846216
 31
0.0
  0
LINE
  5
18E
330
1F
100
AcDbEntity
  8
0
  6
CONTINUOUS
 62
     7
100
AcDbLine
 10
4.0471033983
 20
6.6378846216
 30
0.0
 11
4.0471033983
 21
6.7060696562
 31
0.0
  0
LINE
  5
18F
330
1F
100
AcDbEntity
  8
0
  6
CONTINUOUS
 62
     7
100
AcDbLine
 10
4.0471033983
 20
6.7060696562
 30
0.0
 11
3.9880534262
 21
6.7401621735
 31
0.0
  0
CIRCLE
  5
190
330
1F
100
AcDbEntity
  8
0
  6
CONTINUOUS
 62
     7
100
AcDbCircle
 10
3.9880534262
 20
6.6719771389
 30
0.0
 40
0.0984251968503931
  0
SPLINE
  5
191
330
1F
100
AcDbEntity
  8
0
  6
HIDDEN
 62
     7
100
AcDbSpline
210
0.0
220
0.0
230
1.0
 70
     8
 71
     3
 72
    24
 73
    20
 74
     0
 42
0.00000001
 43
0.00000001
 40
0.0
 40
0.0
 40
0.0
 40
0.0
 40
0.0202670491447463
 40
0.0807630315726412
 40
0.1491966189477535
 40
0.2255961098900579
 40
0.3026324706872741
 40
0.3713223783568761
 40
0.4316923435856114
 40
0.4837879186645486
 40
0.5359045074132565
 40
0.5962789628327879
 40
0.664957228991287
 40
0.7419661289232417
 40
0.8184946620279778
 40
0.8869799672840557
 40
0.9474499243075849
 40
0.9999507948296548
 40
1.0
 40
1.0
 40
1.0
 40
1.0
 10
2.567569938586291
 20
6.66231566904921
 30
0.0
 10
2.567694863083419
 20
6.660292281660961
 30
0.0
 10
2.56819268005883
 20
6.652229198655946
 30
0.0
 10
2.572391703866983
 20
6.637775428737657
 30
0.0
 10
2.581149948491128
 20
6.619200133572837
 30
0.0
 10
2.594998932025437
 20
6.601753162056802
 30
0.0
 10
2.612453052247789
 20
6.587933171222062
 30
0.0
 10
2.63109311140804
 20
6.578980176844355
 30
0.0
 10
2.648697368433548
 20
6.574457720808033
 30
0.0
 10
2.665160103452148
 20
6.573136918415868
 30
0.0
 10
2.681624750409634
 20
6.574438046264695
 30
0.0
 10
2.699237061749938
 20
6.578940491284124
 30
0.0
 10
2.717879081850083
 20
6.587870590443548
 30
0.0
 10
2.735380531637647
 20
6.601673749959324
 30
0.0
 10
2.749172538732181
 20
6.619122073179523
 30
0.0
 10
2.758228159416811
 20
6.637692867795433
 30
0.0
 10
2.762493702782378
 20
6.655303280742631
 30
0.0
 10
2.764059163151436
 20
6.666643264469733
 30
0.0
 10
2.763643137975655
 20
6.671877056035539
 30
0.0
 10
2.763642748431218
 20
6.671881956687006
 30
0.0
  0
SPLINE
  5
192
330
1F
100
AcDbEntity
  8
0
  6
HIDDEN
 62
     7
100
AcDbSpline
210
0.0
220
0.0
230
1.0
 70
     8
 71
     3
 72
    41
 73
    37
 74
     0
 42
0.00000001
 43
0.00000001
 40
0.0
 40
0.0
 40
0.0
 40
0.0
 40
0.0386583108844975
 40
0.1140500759864982
 40
0.1982312453115398
 40
0.2827656004752603
 40
0.3581618731967171
 40
0.4244494098450309
 40
0.4542184042229353
 40
0.468257137226327
 40
0.4750651981474373
 40
0.4784164422710543
 40
0.4800788741725137
 40
0.4809067934741241
 40
0.4813199290795073
 40
0.4815262908857939
 40
0.4816294202917256
 40
0.4816809721206265
 40
0.4817067448165902
 40
0.4817196303599541
 40
0.4817260729304824
 40
0.4817292941654577
 40
0.4817325153669078
 40
0.4817371890594372
 40
0.4817499676518142
 40
0.4817708511440368
 40
0.5092315180339283
 40
0.5389751843224322
 40
0.5709892638955578
 40
0.6052816748434572
 40
0.6807395782184275
 40
0.7653592895327099
 40
0.8495445954266891
 40
0.9248827381992837
 40
0.9914056813584434
 40
1.0
 40
1.0
 40
1.0
 40
1.0
 10
2.760492320421101
 20
6.695002955712081
 30
0.0
 10
2.759711681109509
 20
6.698433855739073
 30
0.0
 10
2.757408632404893
 20
6.708555726038828
 30
0.0
 10
2.749106411056155
 20
6.72475043818937
 30
0.0
 10
2.735438844937983
 20
6.742260507964438
 30
0.0
 10
2.717908326144675
 20
6.756057093075319
 30
0.0
 10
2.699295754371936
 20
6.764993001967639
 30
0.0
 10
2.684118623013442
 20
6.768881476495586
 30
0.0
 10
2.674168449694295
 20
6.77005792719433
 30
0.0
 10
2.669571175275859
 20
6.770320322039979
 30
0.0
 10
2.667370896003312
 20
6.770382184196836
 30
0.0
 10
2.666295665907477
 20
6.770397266868216
 30
0.0
 10
2.665764315166703
 20
6.770401026734447
 30
0.0
 10
2.665500209730275
 20
6.770401983780386
 30
0.0
 10
2.665368549980335
 20
6.77040223436545
 30
0.0
 10
2.665302818403881
 20
6.770402303021554
 30
0.0
 10
2.66526997719746
 20
6.770402323233861
 30
0.0
 10
2.665253562740573
 20
6.770402329816501
 30
0.0
 10
2.665245357048819
 20
6.77040233222762
 30
0.0
 10
2.665241254587129
 20
6.770402333213214
 30
0.0
 10
2.665239203452332
 20
6.770402333651031
 30
0.0
 10
2.665238031405798
 20
6.770402333885503
 30
0.0
 10
2.665237020260012
 20
6.770402334078756
 30
0.0
 10
2.665235139757511
 20
6.770402334417584
 30
0.0
 10
2.665231652656866
 20
6.77040233496151
 30
0.0
 10
2.662730712718133
 20
6.770402608405312
 30
0.0
 10
2.657523157513855
 20
6.770204634677852
 30
0.0
 10
2.649458602395623
 20
6.76925421162906
 30
0.0
 10
2.640898885952365
 20
6.767493094317099
 30
0.0
 10
2.628570018687108
 20
6.763751792624983
 30
0.0
 10
2.612547580005794
 20
6.756082327780815
 30
0.0
 10
2.595071161397474
 20
6.742269849585984
 30
0.0
 10
2.58115739637944
 20
6.724808733531667
 30
0.0
 10
2.572458261636517
 20
6.706186016084936
 30
0.0
 10
2.568411619205986
 20
6.69294447237542
 30
0.0
 10
2.567923198611202
 20
6.686127282996349
 30
0.0
 10
2.567867317417958
 20
6.685347314499641
 30
0.0
  0
LINE
  5
193
330
1F
100
AcDbEntity
  8
0
  6
HIDDEN
 62
     7
100
AcDbLine
 10
3.4266361034
 20
6.8594574539
 30
0.0
 11
3.4266361034
 21
6.484496824
 31
0.0
  0
LINE
  5
194
330
1F
100
AcDbEntity
  8
0
  6
HIDDEN
 62
     7
100
AcDbLine
 10
3.2266361034
 20
6.8594574539
 30
0.0
 11
3.2266361034
 21
6.484496824
 31
0.0
  0
SPLINE
  5
195
330
1F
100
AcDbEntity
  8
0
  6
HIDDEN
 62
     7
100
AcDbSpline
210
0.0
220
0.0
230
1.0
 70
     8
 71
     3
 72
    17
 73
    13
 74
     0
 42
0.00000001
 43
0.00000001
 40
0.0
 40
0.0
 40
0.0
 40
0.0
 40
0.0980585693341451
 40
0.1992539568990642
 40
0.2972482051898836
 40
0.3977079607101605
 40
0.5037274730366283
 40
0.6121433742256989
 40
0.7319381426136787
 40
0.8555775062244546
 40
0.9443693570964911
 40
1.0
 40
1.0
 40
1.0
 40
1.0
 10
3.889628229368805
 20
6.829457453877056
 30
0.0
 10
3.88984355558105
 20
6.829322418760241
 30
0.0
 10
3.890281096125497
 20
6.829048028857058
 30
0.0
 10
3.893767250691654
 20
6.82689087139957
 30
0.0
 10
3.899178487519046
 20
6.823643687027943
 30
0.0
 10
3.906585621741778
 20
6.81940004409172
 30
0.0
 10
3.916003227463353
 20
6.814373010943319
 30
0.0
 10
3.927731554940301
 20
6.808757373960478
 30
0.0
 10
3.941825136759186
 20
6.803030942567413
 30
0.0
 10
3.956755123588568
 20
6.798605789298924
 30
0.0
 10
3.969638883787481
 20
6.796004872893889
 30
0.0
 10
3.976867807743957
 20
6.795550181717121
 30
0.0
 10
3.979652344118355
 20
6.795375037514684
 30
0.0
  0
SPLINE
  5
196
330
1F
100
AcDbEntity
  8
0
  6
HIDDEN
 62
     7
100
AcDbSpline
210
0.0
220
0.0
230
1.0
 70
     8
 71
     3
 72
    18
 73
    14
 74
     0
 42
0.00000001
 43
0.00000001
 40
0.0
 40
0.0
 40
0.0
 40
0.0
 40
0.006981942650654
 40
0.099078013174635
 40
0.1868630438760031
 40
0.276480998042946
 40
0.3807117906592598
 40
0.4871698007622136
 40
0.6080008974013179
 40
0.7326976421509583
 40
0.8464517818777089
 40
0.9647361703273232
 40
1.0
 40
1.0
 40
1.0
 40
1.0
 10
3.997298627721543
 20
6.795309500058147
 30
0.0
 10
3.997647089485728
 20
6.795318499261015
 30
0.0
 10
4.002591973881113
 20
6.795446203423704
 30
0.0
 10
4.011701663857166
 20
6.797046741643102
 30
0.0
 10
4.024254946805757
 20
6.799931338851126
 30
0.0
 10
4.036488359098378
 20
6.803953860277338
 30
0.0
 10
4.048399030881824
 20
6.808783390938216
 30
0.0
 10
4.060044559322077
 20
6.814331013094579
 30
0.0
 10
4.07050689033937
 20
6.81992686542196
 30
0.0
 10
4.0788430743604
 20
6.824770505299626
 30
0.0
 10
4.084236682402795
 20
6.828055423500438
 30
0.0
 10
4.08657370000383
 20
6.829516849696765
 30
0.0
 10
4.086293673730514
 20
6.829341985253587
 30
0.0
 10
4.086229362995249
 20
6.829301825947178
 30
0.0
  0
SPLINE
  5
197
330
1F
100
AcDbEntity
  8
0
  6
HIDDEN
 62
     7
100
AcDbSpline
210
0.0
220
0.0
230
1.0
 70
     8
 71
     3
 72
    17
 73
    13
 74
     0
 42
0.00000001
 43
0.00000001
 40
0.0
 40
0.0
 40
0.0
 40
0.0
 40
0.0980585693341484
 40
0.199253956899071
 40
0.2972482051898938
 40
0.3977079607101745
 40
0.5037274730366462
 40
0.6121433742257204
 40
0.731938142613704
 40
0.8555775062244833
 40
0.9443693570965229
 40
1.0
 40
1.0
 40
1.0
 40
1.0
 10
2.566793583699513
 20
6.829457453877056
 30
0.0
 10
2.567008909911759
 20
6.829322418760241
 30
0.0
 10
2.567446450456205
 20
6.829048028857058
 30
0.0
 10
2.570932605022362
 20
6.82689087139957
 30
0.0
 10
2.576343841849754
 20
6.823643687027943
 30
0.0
 10
2.583750976072487
 20
6.81940004409172
 30
0.0
 10
2.593168581794061
 20
6.814373010943319
 30
0.0
 10
2.60489690927101
 20
6.808757373960478
 30
0.0
 10
2.618990491089895
 20
6.803030942567413
 30
0.0
 10
2.633920477919276
 20
6.798605789298924
 30
0.0
 10
2.646804238118188
 20
6.79600487289389
 30
0.0
 10
2.654033162074662
 20
6.795550181717121
 30
0.0
 10
2.656817698449058
 20
6.795375037514685
 30
0.0
  0
SPLINE
  5
198
330
1F
100
AcDbEntity
  8
0
  6
HIDDEN
 62
     7
100
AcDbSpline
210
0.0
220
0.0
230
1.0
 70
     8
 71
     3
 72
    18
 73
    14
 74
     0
 42
0.00000001
 43
0.00000001
 40
0.0
 40
0.0
 40
0.0
 40
0.0
 40
0.0069819426507111
 40
0.0990780131746866
 40
0.1868630438760506
 40
0.2764809980429879
 40
0.3807117906592948
 40
0.4871698007622423
 40
0.6080008974013401
 40
0.7326976421509723
 40
0.8464517818777165
 40
0.9647361703273243
 40
0.9999999999999999
 40
0.9999999999999999
 40
0.9999999999999999
 40
0.9999999999999999
 10
2.674463982052243
 20
6.795309500058147
 30
0.0
 10
2.67481244381643
 20
6.795318499261015
 30
0.0
 10
2.679757328211819
 20
6.795446203423702
 30
0.0
 10
2.688867018187874
 20
6.797046741643102
 30
0.0
 10
2.701420301136466
 20
6.799931338851126
 30
0.0
 10
2.713653713429086
 20
6.803953860277338
 30
0.0
 10
2.725564385212532
 20
6.808783390938216
 30
0.0
 10
2.737209913652786
 20
6.814331013094579
 30
0.0
 10
2.747672244670079
 20
6.81992686542196
 30
0.0
 10
2.756008428691108
 20
6.824770505299626
 30
0.0
 10
2.761402036733504
 20
6.828055423500438
 30
0.0
 10
2.763739054334537
 20
6.829516849696765
 30
0.0
 10
2.763459028061223
 20
6.829341985253587
 30
0.0
 10
2.763394717325958
 20
6.829301825947178
 30
0.0
  0
LINE
  5
199
330
1F
100
AcDbEntity
  8
0
  6
HIDDEN
 62
     7
100
AcDbLine
 10
4.0864786231
 20
7.3409535169
 30
0.0
 11
3.8896282294
 21
7.3409535169
 31
0.0
  0
LINE
  5
19A
330
1F
100
AcDbEntity
  8
0
  6
HIDDEN
 62
     7
100
AcDbLine
 10
3.8896282294
 20
6.8494574539
 30
0.0
 11
4.0864786231
 21
6.8494574539
 31
0.0
  0
LINE
  5
19B
330
1F
100
AcDbEntity
  8
0
  6
HIDDEN
 62
     7
100
AcDbLine
 10
4.0664786231
 20
6.8294574539
 30
0.0
 11
3.9096282294
 21
6.8294574539
 31
0.0
  0
LINE
  5
19C
330
1F
100
AcDbEntity
  8
0
  6
HIDDEN
 62
     7
100
AcDbLine
 10
3.9880534262
 20
7.2609535169
 30
0.0
 11
3.9880534262
 21
7.3609535169
 31
0.0
  0
LINE
  5
19D
330
1F
100
AcDbEntity
  8
0
  6
HIDDEN
 62
     7
100
AcDbLine
 10
3.9290034541
 20
7.2609535169
 30
0.0
 11
3.9880534262
 21
7.2609535169
 31
0.0
  0
LINE
  5
19E
330
1F
100
AcDbEntity
  8
0
  6
HIDDEN
 62
     7
100
AcDbLine
 10
3.9880534262
 20
7.2609535169
 30
0.0
 11
4.0471033983
 21
7.2609535169
 31
0.0
  0
LINE
  5
19F
330
1F
100
AcDbEntity
  8
0
  6
HIDDEN
 62
     7
100
AcDbLine
 10
3.9290034541
 20
7.2609535169
 30
0.0
 11
3.9290034541
 21
7.3609535169
 31
0.0
  0
LINE
  5
1A0
330
1F
100
AcDbEntity
  8
0
  6
HIDDEN
 62
     7
100
AcDbLine
 10
4.0471033983
 20
7.2609535169
 30
0.0
 11
4.0471033983
 21
7.3609535169
 31
0.0
  0
LINE
  5
1A1
330
1F
100
AcDbEntity
  8
0
  6
HIDDEN
 62
     7
100
AcDbLine
 10
2.5667935837
 20
7.3409535169
 30
0.0
 11
2.7636439774
 21
7.3409535169
 31
0.0
  0
LINE
  5
1A2
330
1F
100
AcDbEntity
  8
0
  6
HIDDEN
 62
     7
100
AcDbLine
 10
2.7636439774
 20
6.8494574539
 30
0.0
 11
2.5667935837
 21
6.8494574539
 31
0.0
  0
LINE
  5
1A3
330
1F
100
AcDbEntity
  8
0
  6
HIDDEN
 62
     7
100
AcDbLine
 10
2.5867935837
 20
6.8294574539
 30
0.0
 11
2.7436439774
 21
6.8294574539
 31
0.0
  0
LINE
  5
1A4
330
1F
100
AcDbEntity
  8
0
  6
HIDDEN
 62
     7
100
AcDbLine
 10
2.6652187805
 20
7.2609535169
 30
0.0
 11
2.6652187805
 21
7.3609535169
 31
0.0
  0
LINE
  5
1A5
330
1F
100
AcDbEntity
  8
0
  6
HIDDEN
 62
     7
100
AcDbLine
 10
2.6652187805
 20
7.2609535169
 30
0.0
 11
2.6061688085
 21
7.2609535169
 31
0.0
  0
LINE
  5
1A6
330
1F
100
AcDbEntity
  8
0
  6
HIDDEN
 62
     7
100
AcDbLine
 10
2.7242687526
 20
7.2609535169
 30
0.0
 11
2.6652187805
 21
7.2609535169
 31
0.0
  0
LINE
  5
1A7
330
1F
100
AcDbEntity
  8
0
  6
HIDDEN
 62
     7
100
AcDbLine
 10
2.7242687526
 20
7.2609535169
 30
0.0
 11
2.7242687526
 21
7.3609535169
 31
0.0
  0
LINE
  5
1A8
330
1F
100
AcDbEntity
  8
0
  6
HIDDEN
 62
     7
100
AcDbLine
 10
2.6061688085
 20
7.2609535169
 30
0.0
 11
2.6061688085
 21
7.3609535169
 31
0.0
  0
LINE
  5
1A9
330
1F
100
AcDbEntity
  8
0
  6
HIDDEN
 62
     7
100
AcDbLine
 10
4.2321479144
 20
6.8594574539
 30
0.0
 11
4.2021479144
 21
6.8294574539
 31
0.0
  0
LINE
  5
1AA
330
1F
100
AcDbEntity
  8
0
  6
HIDDEN
 62
     7
100
AcDbLine
 10
4.2021479144
 20
6.514496824
 30
0.0
 11
4.2321479144
 21
6.484496824
 31
0.0
  0
LINE
  5
1AB
330
1F
100
AcDbEntity
  8
0
  6
HIDDEN
 62
     7
100
AcDbLine
 10
3.4266361034
 20
6.8594574539
 30
0.0
 11
3.2266361034
 21
6.8594574539
 31
0.0
  0
LINE
  5
1AC
330
1F
100
AcDbEntity
  8
0
  6
HIDDEN
 62
     7
100
AcDbLine
 10
3.2266361034
 20
6.484496824
 30
0.0
 11
3.4266361034
 21
6.484496824
 31
0.0
  0
LINE
  5
1AD
330
1F
100
AcDbEntity
  8
0
  6
HIDDEN
 62
     7
100
AcDbLine
 10
2.4211242924
 20
6.484496824
 30
0.0
 11
2.4511242924
 21
6.514496824
 31
0.0
  0
LINE
  5
1AE
330
1F
100
AcDbEntity
  8
0
  6
HIDDEN
 62
     7
100
AcDbLine
 10
2.4511242924
 20
6.8294574539
 30
0.0
 11
2.4211242924
 21
6.8594574539
 31
0.0
  0
LINE
  5
1AF
330
1F
100
AcDbEntity
  8
0
  6
HIDDEN
 62
     7
100
AcDbLine
 10
3.8896282294
 20
6.8294574539
 30
0.0
 11
3.4266361034
 21
6.8294574539
 31
0.0
  0
LINE
  5
1B0
330
1F
100
AcDbEntity
  8
0
  6
HIDDEN
 62
     7
100
AcDbLine
 10
4.2021479144
 20
6.8294574539
 30
0.0
 11
4.086229363
 21
6.8294574539
 31
0.0
  0
LINE
  5
1B1
330
1F
100
AcDbEntity
  8
0
  6
HIDDEN
 62
     7
100
AcDbLine
 10
3.4266361034
 20
6.514496824
 30
0.0
 11
4.2021479144
 21
6.514496824
 31
0.0
  0
LINE
  5
1B2
330
1F
100
AcDbEntity
  8
0
  6
HIDDEN
 62
     7
100
AcDbLine
 10
2.5667935837
 20
6.8294574539
 30
0.0
 11
2.4511242924
 21
6.8294574539
 31
0.0
  0
LINE
  5
1B3
330
1F
100
AcDbEntity
  8
0
  6
HIDDEN
 62
     7
100
AcDbLine
 10
3.2266361034
 20
6.8294574539
 30
0.0
 11
2.7633947173
 21
6.8294574539
 31
0.0
  0
LINE
  5
1B4
330
1F
100
AcDbEntity
  8
0
  6
HIDDEN
 62
     7
100
AcDbLine
 10
2.4511242924
 20
6.514496824
 30
0.0
 11
3.2266361034
 21
6.514496824
 31
0.0
  0
LINE
  5
1B5
330
1F
100
AcDbEntity
  8
0
  6
HIDDEN
 62
     7
100
AcDbLine
 10
4.0864786231
 20
6.8293018652
 30
0.0
 11
4.0864786231
 21
7.3609535169
 31
0.0
  0
LINE
  5
1B6
330
1F
100
AcDbEntity
  8
0
  6
HIDDEN
 62
     7
100
AcDbLine
 10
3.8896282294
 20
7.3609535169
 30
0.0
 11
3.8896282294
 21
6.8294574539
 31
0.0
  0
LINE
  5
1B7
330
1F
100
AcDbEntity
  8
0
  6
HIDDEN
 62
     7
100
AcDbLine
 10
2.7636439774
 20
6.8293018652
 30
0.0
 11
2.7636439774
 21
7.3609535169
 31
0.0
  0
LINE
  5
1B8
330
1F
100
AcDbEntity
  8
0
  6
HIDDEN
 62
     7
100
AcDbLine
 10
2.5667935837
 20
7.3609535169
 30
0.0
 11
2.5667935837
 21
6.8294574539
 31
0.0
  0
LINE
  5
1B9
330
1F
100
AcDbEntity
  8
0
  6
HIDDEN
 62
     7
100
AcDbLine
 10
4.0864786231
 20
7.3409535169
 30
0.0
 11
4.0687703325
 21
7.3586618074
 31
0.0
  0
LINE
  5
1BA
330
1F
100
AcDbEntity
  8
0
  6
HIDDEN
 62
     7
100
AcDbLine
 10
3.9073346745
 20
7.358659962
 30
0.0
 11
3.8896282294
 21
7.3409535169
 31
0.0
  0
LINE
  5
1BB
330
1F
100
AcDbEntity
  8
0
  6
HIDDEN
 62
     7
100
AcDbLine
 10
4.0864786231
 20
6.8494574539
 30
0.0
 11
4.0864786231
 21
7.3409535169
 31
0.0
  0
LINE
  5
1BC
330
1F
100
AcDbEntity
  8
0
  6
HIDDEN
 62
     7
100
AcDbLine
 10
3.8896282294
 20
7.3409535169
 30
0.0
 11
3.8896282294
 21
6.8494574539
 31
0.0
  0
LINE
  5
1BD
330
1F
100
AcDbEntity
  8
0
  6
HIDDEN
 62
     7
100
AcDbLine
 10
3.8896282294
 20
6.8494574539
 30
0.0
 11
3.9096282294
 21
6.8294574539
 31
0.0
  0
LINE
  5
1BE
330
1F
100
AcDbEntity
  8
0
  6
HIDDEN
 62
     7
100
AcDbLine
 10
4.0664786231
 20
6.8294574539
 30
0.0
 11
4.0864786231
 21
6.8494574539
 31
0.0
  0
LINE
  5
1BF
330
1F
100
AcDbEntity
  8
0
  6
HIDDEN
 62
     7
100
AcDbLine
 10
2.7636439774
 20
7.3409535169
 30
0.0
 11
2.7459356868
 21
7.3586618074
 31
0.0
  0
LINE
  5
1C0
330
1F
100
AcDbEntity
  8
0
  6
HIDDEN
 62
     7
100
AcDbLine
 10
2.5845000288
 20
7.358659962
 30
0.0
 11
2.5667935837
 21
7.3409535169
 31
0.0
  0
LINE
  5
1C1
330
1F
100
AcDbEntity
  8
0
  6
HIDDEN
 62
     7
100
AcDbLine
 10
2.7636439774
 20
6.8494574539
 30
0.0
 11
2.7636439774
 21
7.3409535169
 31
0.0
  0
LINE
  5
1C2
330
1F
100
AcDbEntity
  8
0
  6
HIDDEN
 62
     7
100
AcDbLine
 10
2.5667935837
 20
7.3409535169
 30
0.0
 11
2.5667935837
 21
6.8494574539
 31
0.0
  0
LINE
  5
1C3
330
1F
100
AcDbEntity
  8
0
  6
HIDDEN
 62
     7
100
AcDbLine
 10
2.5667935837
 20
6.8494574539
 30
0.0
 11
2.5867935837
 21
6.8294574539
 31
0.0
  0
LINE
  5
1C4
330
1F
100
AcDbEntity
  8
0
  6
HIDDEN
 62
     7
100
AcDbLine
 10
2.7436439774
 20
6.8294574539
 30
0.0
 11
2.7636439774
 21
6.8494574539
 31
0.0
  0
LINE
  5
1C5
330
1F
100
AcDbEntity
  8
0
  6
CONTINUOUS
 62
     7
100
AcDbLine
 10
8.792699908
 20
5.9293131658
 30
0.0
 11
8.8139096637
 21
5.9415612778
 31
0.0
  0
LINE
  5
1C6
330
1F
100
AcDbEntity
  8
0
  6
CONTINUOUS
 62
     7
100
AcDbLine
 10
9.2798005965
 20
6.748595488
 30
0.0
 11
9.2798005965
 21
6.7730877314
 31
0.0
  0
LINE
  5
1C7
330
1F
100
AcDbEntity
  8
0
  6
CONTINUOUS
 62
     7
100
AcDbLine
 10
7.2099998571
 20
6.6099325157
 30
0.0
 11
8.4481605343
 21
5.8951575711
 31
0.0
  0
LINE
  5
1C8
330
1F
100
AcDbEntity
  8
0
  6
CONTINUOUS
 62
     7
100
AcDbLine
 10
9.1370809209
 20
7.0885319878
 30
0.0
 11
7.8989202437
 21
7.8033069323
 31
0.0
  0
LINE
  5
1C9
330
1F
100
AcDbEntity
  8
0
  6
CONTINUOUS
 62
     7
100
AcDbLine
 10
7.55438087
 20
7.7691513377
 30
0.0
 11
7.5331711143
 21
7.7569032257
 31
0.0
  0
LINE
  5
1CA
330
1F
100
AcDbEntity
  8
0
  6
CONTINUOUS
 62
     7
100
AcDbLine
 10
7.0672801815
 20
6.9498690154
 30
0.0
 11
7.0672801815
 21
6.9253767721
 31
0.0
  0
LINE
  5
1CB
330
1F
100
AcDbEntity
  8
0
  6
CONTINUOUS
 62
     7
100
AcDbLine
 10
8.7525794488
 20
6.5794909512
 30
0.0
 11
8.7667192859
 21
6.5713255432
 31
0.0
  0
LINE
  5
1CC
330
1F
100
AcDbEntity
  8
0
  6
CONTINUOUS
 62
     7
100
AcDbLine
 10
7.7754561477
 20
7.7056430355
 30
0.0
 11
7.7613117141
 21
7.7138110974
 31
0.0
  0
LINE
  5
1CD
330
1F
100
AcDbEntity
  8
0
  6
CONTINUOUS
 62
     7
100
AcDbLine
 10
7.6503837155
 20
7.7138110974
 30
0.0
 11
7.636239282
 21
7.7056430355
 31
0.0
  0
LINE
  5
1CE
330
1F
100
AcDbEntity
  8
0
  6
CONTINUOUS
 62
     7
100
AcDbLine
 10
7.8042729117
 20
7.6525770873
 30
0.0
 11
7.8042729117
 21
7.6654720003
 31
0.0
  0
LINE
  5
1CF
330
1F
100
AcDbEntity
  8
0
  6
CONTINUOUS
 62
     7
100
AcDbLine
 10
7.607422518
 20
7.6654720003
 30
0.0
 11
7.607422518
 21
7.6514721432
 31
0.0
  0
LINE
  5
1D0
330
1F
100
AcDbEntity
  8
0
  6
CONTINUOUS
 62
     7
100
AcDbLine
 10
8.710841496
 20
7.1656565678
 30
0.0
 11
8.6966970625
 21
7.1738246297
 31
0.0
  0
LINE
  5
1D1
330
1F
100
AcDbEntity
  8
0
  6
CONTINUOUS
 62
     7
100
AcDbLine
 10
8.5857690639
 20
7.1738246297
 30
0.0
 11
8.5716246303
 21
7.1656565678
 31
0.0
  0
LINE
  5
1D2
330
1F
100
AcDbEntity
  8
0
  6
CONTINUOUS
 62
     7
100
AcDbLine
 10
8.73965826
 20
7.1125906196
 30
0.0
 11
8.73965826
 21
7.1254855327
 31
0.0
  0
LINE
  5
1D3
330
1F
100
AcDbEntity
  8
0
  6
CONTINUOUS
 62
     7
100
AcDbLine
 10
8.5428078663
 20
7.1254855327
 30
0.0
 11
8.5428078663
 21
7.1114856756
 31
0.0
  0
POLYLINE
  5
1D4
330
1F
100
AcDbEntity
  8
0
  6
CONTINUOUS
 62
     7
100
AcDb2dPolyline
 66
     1
 10
0.0
 20
0.0
 30
0.0
  0
VERTEX
  5
22D
330
1D4
100
AcDbEntity
  8
0
  6
CONTINUOUS
 62
     7
100
AcDbVertex
100
AcDb2dVertex
 10
9.2798005965
 20
6.748595488
 30
0.0
  0
VERTEX
  5
22E
330
1D4
100
AcDbEntity
  8
0
  6
CONTINUOUS
 62
     7
100
AcDbVertex
100
AcDb2dVertex
 10
9.2791512302
 20
6.776618034
 30
0.0
  0
VERTEX
  5
22F
330
1D4
100
AcDbEntity
  8
0
  6
CONTINUOUS
 62
     7
100
AcDbVertex
100
AcDb2dVertex
 10
9.2772049411
 20
6.8038127337
 30
0.0
  0
VERTEX
  5
230
330
1D4
100
AcDbEntity
  8
0
  6
CONTINUOUS
 62
     7
100
AcDbVertex
100
AcDb2dVertex
 10
9.2739671539
 20
6.8301037906
 30
0.0
  0
VERTEX
  5
231
330
1D4
100
AcDbEntity
  8
0
  6
CONTINUOUS
 62
     7
100
AcDbVertex
100
AcDb2dVertex
 10
9.2694468928
 20
6.8554179269
 30
0.0
  0
VERTEX
  5
232
330
1D4
100
AcDbEntity
  8
0
  6
CONTINUOUS
 62
     7
100
AcDbVertex
100
AcDb2dVertex
 10
9.2636567567
 20
6.8796845875
 30
0.0
  0
VERTEX
  5
233
330
1D4
100
AcDbEntity
  8
0
  6
CONTINUOUS
 62
     7
100
AcDbVertex
100
AcDb2dVertex
 10
9.2566128838
 20
6.9028361368
 30
0.0
  0
VERTEX
  5
234
330
1D4
100
AcDbEntity
  8
0
  6
CONTINUOUS
 62
     7
100
AcDbVertex
100
AcDb2dVertex
 10
9.2483349064
 20
6.9248080473
 30
0.0
  0
VERTEX
  5
235
330
1D4
100
AcDbEntity
  8
0
  6
CONTINUOUS
 62
     7
100
AcDbVertex
100
AcDb2dVertex
 10
9.2388458969
 20
6.9455390794
 30
0.0
  0
VERTEX
  5
236
330
1D4
100
AcDbEntity
  8
0
  6
CONTINUOUS
 62
     7
100
AcDbVertex
100
AcDb2dVertex
 10
9.2281723029
 20
6.964971452
 30
0.0
  0
VERTEX
  5
237
330
1D4
100
AcDbEntity
  8
0
  6
CONTINUOUS
 62
     7
100
AcDbVertex
100
AcDb2dVertex
 10
9.2163438735
 20
6.9830510036
 30
0.0
  0
VERTEX
  5
238
330
1D4
100
AcDbEntity
  8
0
  6
CONTINUOUS
 62
     7
100
AcDbVertex
100
AcDb2dVertex
 10
9.2033935766
 20
6.9997273432
 30
0.0
  0
VERTEX
  5
239
330
1D4
100
AcDbEntity
  8
0
  6
CONTINUOUS
 62
     7
100
AcDbVertex
100
AcDb2dVertex
 10
9.1893575072
 20
7.0149539908
 30
0.0
  0
VERTEX
  5
23A
330
1D4
100
AcDbEntity
  8
0
  6
CONTINUOUS
 62
     7
100
AcDbVertex
100
AcDb2dVertex
 10
9.1742747862
 20
7.0286885071
 30
0.0
  0
VERTEX
  5
23B
330
1D4
100
AcDbEntity
  8
0
  6
CONTINUOUS
 62
     7
100
AcDbVertex
100
AcDb2dVertex
 10
9.1581874519
 20
7.0408926115
 30
0.0
  0
VERTEX
  5
23C
330
1D4
100
AcDbEntity
  8
0
  6
CONTINUOUS
 62
     7
100
AcDbVertex
100
AcDb2dVertex
 10
9.1411403426
 20
7.051532289
 30
0.0
  0
VERTEX
  5
23D
330
1D4
100
AcDbEntity
  8
0
  6
CONTINUOUS
 62
     7
100
AcDbVertex
100
AcDb2dVertex
 10
9.1231809716
 20
7.0605778849
 30
0.0
  0
VERTEX
  5
23E
330
1D4
100
AcDbEntity
  8
0
  6
CONTINUOUS
 62
     7
100
AcDbVertex
100
AcDb2dVertex
 10
9.104359395
 20
7.0680041875
 30
0.0
  0
VERTEX
  5
23F
330
1D4
100
AcDbEntity
  8
0
  6
CONTINUOUS
 62
     7
100
AcDbVertex
100
AcDb2dVertex
 10
9.0847280717
 20
7.0737904983
 30
0.0
  0
VERTEX
  5
240
330
1D4
100
AcDbEntity
  8
0
  6
CONTINUOUS
 62
     7
100
AcDbVertex
100
AcDb2dVertex
 10
9.0643417179
 20
7.0779206899
 30
0.0
  0
VERTEX
  5
241
330
1D4
100
AcDbEntity
  8
0
  6
CONTINUOUS
 62
     7
100
AcDbVertex
100
AcDb2dVertex
 10
9.043257154
 20
7.0803832507
 30
0.0
  0
VERTEX
  5
242
330
1D4
100
AcDbEntity
  8
0
  6
CONTINUOUS
 62
     7
100
AcDbVertex
100
AcDb2dVertex
 10
9.0215331463
 20
7.0811713171
 30
0.0
  0
VERTEX
  5
243
330
1D4
100
AcDbEntity
  8
0
  6
CONTINUOUS
 62
     7
100
AcDbVertex
100
AcDb2dVertex
 10
8.9992302438
 20
7.0802826925
 30
0.0
  0
VERTEX
  5
244
330
1D4
100
AcDbEntity
  8
0
  6
CONTINUOUS
 62
     7
100
AcDbVertex
100
AcDb2dVertex
 10
8.9764106084
 20
7.0777198539
 30
0.0
  0
VERTEX
  5
245
330
1D4
100
AcDbEntity
  8
0
  6
CONTINUOUS
 62
     7
100
AcDbVertex
100
AcDb2dVertex
 10
8.9531378427
 20
7.0734899441
 30
0.0
  0
VERTEX
  5
246
330
1D4
100
AcDbEntity
  8
0
  6
CONTINUOUS
 62
     7
100
AcDbVertex
100
AcDb2dVertex
 10
8.929476812
 20
7.0676047529
 30
0.0
  0
VERTEX
  5
247
330
1D4
100
AcDbEntity
  8
0
  6
CONTINUOUS
 62
     7
100
AcDbVertex
100
AcDb2dVertex
 10
8.9054934638
 20
7.0600806832
 30
0.0
  0
VERTEX
  5
248
330
1D4
100
AcDbEntity
  8
0
  6
CONTINUOUS
 62
     7
100
AcDbVertex
100
AcDb2dVertex
 10
8.8812546441
 20
7.050938706
 30
0.0
  0
VERTEX
  5
249
330
1D4
100
AcDbEntity
  8
0
  6
CONTINUOUS
 62
     7
100
AcDbVertex
100
AcDb2dVertex
 10
8.8568279108
 20
7.0402043016
 30
0.0
  0
VERTEX
  5
24A
330
1D4
100
AcDbEntity
  8
0
  6
CONTINUOUS
 62
     7
100
AcDbVertex
100
AcDb2dVertex
 10
8.8322813455
 20
7.0279073887
 30
0.0
  0
VERTEX
  5
24B
330
1D4
100
AcDbEntity
  8
0
  6
CONTINUOUS
 62
     7
100
AcDbVertex
100
AcDb2dVertex
 10
8.807683364
 20
7.014082241
 30
0.0
  0
VERTEX
  5
24C
330
1D4
100
AcDbEntity
  8
0
  6
CONTINUOUS
 62
     7
100
AcDbVertex
100
AcDb2dVertex
 10
8.7831025253
 20
6.9987673917
 30
0.0
  0
VERTEX
  5
24D
330
1D4
100
AcDbEntity
  8
0
  6
CONTINUOUS
 62
     7
100
AcDbVertex
100
AcDb2dVertex
 10
8.7586073404
 20
6.9820055261
 30
0.0
  0
VERTEX
  5
24E
330
1D4
100
AcDbEntity
  8
0
  6
CONTINUOUS
 62
     7
100
AcDbVertex
100
AcDb2dVertex
 10
8.734266082
 20
6.9638433624
 30
0.0
  0
VERTEX
  5
24F
330
1D4
100
AcDbEntity
  8
0
  6
CONTINUOUS
 62
     7
100
AcDbVertex
100
AcDb2dVertex
 10
8.7101465934
 20
6.9443315218
 30
0.0
  0
VERTEX
  5
250
330
1D4
100
AcDbEntity
  8
0
  6
CONTINUOUS
 62
     7
100
AcDbVertex
100
AcDb2dVertex
 10
8.6863161001
 20
6.9235243874
 30
0.0
  0
VERTEX
  5
251
330
1D4
100
AcDbEntity
  8
0
  6
CONTINUOUS
 62
     7
100
AcDbVertex
100
AcDb2dVertex
 10
8.6628410218
 20
6.9014799524
 30
0.0
  0
VERTEX
  5
252
330
1D4
100
AcDbEntity
  8
0
  6
CONTINUOUS
 62
     7
100
AcDbVertex
100
AcDb2dVertex
 10
8.6397867878
 20
6.8782596585
 30
0.0
  0
VERTEX
  5
253
330
1D4
100
AcDbEntity
  8
0
  6
CONTINUOUS
 62
     7
100
AcDbVertex
100
AcDb2dVertex
 10
8.6172176544
 20
6.853928225
 30
0.0
  0
VERTEX
  5
254
330
1D4
100
AcDbEntity
  8
0
  6
CONTINUOUS
 62
     7
100
AcDbVertex
100
AcDb2dVertex
 10
8.5951965259
 20
6.8285534677
 30
0.0
  0
VERTEX
  5
255
330
1D4
100
AcDbEntity
  8
0
  6
CONTINUOUS
 62
     7
100
AcDbVertex
100
AcDb2dVertex
 10
8.573784779
 20
6.8022061109
 30
0.0
  0
VERTEX
  5
256
330
1D4
100
AcDbEntity
  8
0
  6
CONTINUOUS
 62
     7
100
AcDbVertex
100
AcDb2dVertex
 10
8.5530420922
 20
6.7749595892
 30
0.0
  0
VERTEX
  5
257
330
1D4
100
AcDbEntity
  8
0
  6
CONTINUOUS
 62
     7
100
AcDbVertex
100
AcDb2dVertex
 10
8.533026279
 20
6.7468898436
 30
0.0
  0
VERTEX
  5
258
330
1D4
100
AcDbEntity
  8
0
  6
CONTINUOUS
 62
     7
100
AcDbVertex
100
AcDb2dVertex
 10
8.5137931271
 20
6.7180751096
 30
0.0
  0
VERTEX
  5
259
330
1D4
100
AcDbEntity
  8
0
  6
CONTINUOUS
 62
     7
100
AcDbVertex
100
AcDb2dVertex
 10
8.4953962427
 20
6.6885956989
 30
0.0
  0
VERTEX
  5
25A
330
1D4
100
AcDbEntity
  8
0
  6
CONTINUOUS
 62
     7
100
AcDbVertex
100
AcDb2dVertex
 10
8.4778869013
 20
6.6585337759
 30
0.0
  0
VERTEX
  5
25B
330
1D4
100
AcDbEntity
  8
0
  6
CONTINUOUS
 62
     7
100
AcDbVertex
100
AcDb2dVertex
 10
8.4613139045
 20
6.6279731287
 30
0.0
  0
VERTEX
  5
25C
330
1D4
100
AcDbEntity
  8
0
  6
CONTINUOUS
 62
     7
100
AcDbVertex
100
AcDb2dVertex
 10
8.4457234442
 20
6.5969989352
 30
0.0
  0
VERTEX
  5
25D
330
1D4
100
AcDbEntity
  8
0
  6
CONTINUOUS
 62
     7
100
AcDbVertex
100
AcDb2dVertex
 10
8.4311589739
 20
6.5656975262
 30
0.0
  0
VERTEX
  5
25E
330
1D4
100
AcDbEntity
  8
0
  6
CONTINUOUS
 62
     7
100
AcDbVertex
100
AcDb2dVertex
 10
8.4176610873
 20
6.5341561441
 30
0.0
  0
VERTEX
  5
25F
330
1D4
100
AcDbEntity
  8
0
  6
CONTINUOUS
 62
     7
100
AcDbVertex
100
AcDb2dVertex
 10
8.4052674055
 20
6.5024627005
 30
0.0
  0
VERTEX
  5
260
330
1D4
100
AcDbEntity
  8
0
  6
CONTINUOUS
 62
     7
100
AcDbVertex
100
AcDb2dVertex
 10
8.3940124719
 20
6.4707055307
 30
0.0
  0
VERTEX
  5
261
330
1D4
100
AcDbEntity
  8
0
  6
CONTINUOUS
 62
     7
100
AcDbVertex
100
AcDb2dVertex
 10
8.383927656
 20
6.4389731477
 30
0.0
  0
VERTEX
  5
262
330
1D4
100
AcDbEntity
  8
0
  6
CONTINUOUS
 62
     7
100
AcDbVertex
100
AcDb2dVertex
 10
8.375041066
 20
6.4073539952
 30
0.0
  0
VERTEX
  5
263
330
1D4
100
AcDbEntity
  8
0
  6
CONTINUOUS
 62
     7
100
AcDbVertex
100
AcDb2dVertex
 10
8.3673774704
 20
6.3759362016
 30
0.0
  0
VERTEX
  5
264
330
1D4
100
AcDbEntity
  8
0
  6
CONTINUOUS
 62
     7
100
AcDbVertex
100
AcDb2dVertex
 10
8.360958229
 20
6.3448073338
 30
0.0
  0
VERTEX
  5
265
330
1D4
100
AcDbEntity
  8
0
  6
CONTINUOUS
 62
     7
100
AcDbVertex
100
AcDb2dVertex
 10
8.3558012335
 20
6.3140541537
 30
0.0
  0
VERTEX
  5
266
330
1D4
100
AcDbEntity
  8
0
  6
CONTINUOUS
 62
     7
100
AcDbVertex
100
AcDb2dVertex
 10
8.3519208572
 20
6.2837623757
 30
0.0
  0
VERTEX
  5
267
330
1D4
100
AcDbEntity
  8
0
  6
CONTINUOUS
 62
     7
100
AcDbVertex
100
AcDb2dVertex
 10
8.3493279155
 20
6.2540164286
 30
0.0
  0
VERTEX
  5
268
330
1D4
100
AcDbEntity
  8
0
  6
CONTINUOUS
 62
     7
100
AcDbVertex
100
AcDb2dVertex
 10
8.3480296354
 20
6.2248992197
 30
0.0
  0
VERTEX
  5
269
330
1D4
100
AcDbEntity
  8
0
  6
CONTINUOUS
 62
     7
100
AcDbVertex
100
AcDb2dVertex
 10
8.3480296354
 20
6.1964919037
 30
0.0
  0
VERTEX
  5
26A
330
1D4
100
AcDbEntity
  8
0
  6
CONTINUOUS
 62
     7
100
AcDbVertex
100
AcDb2dVertex
 10
8.3493279155
 20
6.1688736571
 30
0.0
  0
VERTEX
  5
26B
330
1D4
100
AcDbEntity
  8
0
  6
CONTINUOUS
 62
     7
100
AcDbVertex
100
AcDb2dVertex
 10
8.3519208572
 20
6.1421214567
 30
0.0
  0
VERTEX
  5
26C
330
1D4
100
AcDbEntity
  8
0
  6
CONTINUOUS
 62
     7
100
AcDbVertex
100
AcDb2dVertex
 10
8.3558012335
 20
6.1163098659
 30
0.0
  0
VERTEX
  5
26D
330
1D4
100
AcDbEntity
  8
0
  6
CONTINUOUS
 62
     7
100
AcDbVertex
100
AcDb2dVertex
 10
8.360958229
 20
6.0915108261
 30
0.0
  0
VERTEX
  5
26E
330
1D4
100
AcDbEntity
  8
0
  6
CONTINUOUS
 62
     7
100
AcDbVertex
100
AcDb2dVertex
 10
8.3673774704
 20
6.0677934566
 30
0.0
  0
VERTEX
  5
26F
330
1D4
100
AcDbEntity
  8
0
  6
CONTINUOUS
 62
     7
100
AcDbVertex
100
AcDb2dVertex
 10
8.375041066
 20
6.0452238621
 30
0.0
  0
VERTEX
  5
270
330
1D4
100
AcDbEntity
  8
0
  6
CONTINUOUS
 62
     7
100
AcDbVertex
100
AcDb2dVertex
 10
8.383927656
 20
6.0238649481
 30
0.0
  0
VERTEX
  5
271
330
1D4
100
AcDbEntity
  8
0
  6
CONTINUOUS
 62
     7
100
AcDbVertex
100
AcDb2dVertex
 10
8.3940124719
 20
6.0037762457
 30
0.0
  0
VERTEX
  5
272
330
1D4
100
AcDbEntity
  8
0
  6
CONTINUOUS
 62
     7
100
AcDbVertex
100
AcDb2dVertex
 10
8.4052674055
 20
5.9850137457
 30
0.0
  0
VERTEX
  5
273
330
1D4
100
AcDbEntity
  8
0
  6
CONTINUOUS
 62
     7
100
AcDbVertex
100
AcDb2dVertex
 10
8.4176610873
 20
5.9676297425
 30
0.0
  0
VERTEX
  5
274
330
1D4
100
AcDbEntity
  8
0
  6
CONTINUOUS
 62
     7
100
AcDbVertex
100
AcDb2dVertex
 10
8.4311589739
 20
5.9516726885
 30
0.0
  0
VERTEX
  5
275
330
1D4
100
AcDbEntity
  8
0
  6
CONTINUOUS
 62
     7
100
AcDbVertex
100
AcDb2dVertex
 10
8.4457234442
 20
5.9371870589
 30
0.0
  0
VERTEX
  5
276
330
1D4
100
AcDbEntity
  8
0
  6
CONTINUOUS
 62
     7
100
AcDbVertex
100
AcDb2dVertex
 10
8.4613139045
 20
5.9242132277
 30
0.0
  0
VERTEX
  5
277
330
1D4
100
AcDbEntity
  8
0
  6
CONTINUOUS
 62
     7
100
AcDbVertex
100
AcDb2dVertex
 10
8.4778869013
 20
5.9127873553
 30
0.0
  0
VERTEX
  5
278
330
1D4
100
AcDbEntity
  8
0
  6
CONTINUOUS
 62
     7
100
AcDbVertex
100
AcDb2dVertex
 10
8.4953962427
 20
5.9029412877
 30
0.0
  0
VERTEX
  5
279
330
1D4
100
AcDbEntity
  8
0
  6
CONTINUOUS
 62
     7
100
AcDbVertex
100
AcDb2dVertex
 10
8.5137931271
 20
5.8947024676
 30
0.0
  0
VERTEX
  5
27A
330
1D4
100
AcDbEntity
  8
0
  6
CONTINUOUS
 62
     7
100
AcDbVertex
100
AcDb2dVertex
 10
8.533026279
 20
5.888093858
 30
0.0
  0
VERTEX
  5
27B
330
1D4
100
AcDbEntity
  8
0
  6
CONTINUOUS
 62
     7
100
AcDbVertex
100
AcDb2dVertex
 10
8.5530420922
 20
5.8831338785
 30
0.0
  0
VERTEX
  5
27C
330
1D4
100
AcDbEntity
  8
0
  6
CONTINUOUS
 62
     7
100
AcDbVertex
100
AcDb2dVertex
 10
8.573784779
 20
5.8798363532
 30
0.0
  0
VERTEX
  5
27D
330
1D4
100
AcDbEntity
  8
0
  6
CONTINUOUS
 62
     7
100
AcDbVertex
100
AcDb2dVertex
 10
8.5951965259
 20
5.8782104731
 30
0.0
  0
VERTEX
  5
27E
330
1D4
100
AcDbEntity
  8
0
  6
CONTINUOUS
 62
     7
100
AcDbVertex
100
AcDb2dVertex
 10
8.6172176544
 20
5.8782607697
 30
0.0
  0
VERTEX
  5
27F
330
1D4
100
AcDbEntity
  8
0
  6
CONTINUOUS
 62
     7
100
AcDbVertex
100
AcDb2dVertex
 10
8.6397867878
 20
5.8799871029
 30
0.0
  0
VERTEX
  5
280
330
1D4
100
AcDbEntity
  8
0
  6
CONTINUOUS
 62
     7
100
AcDbVertex
100
AcDb2dVertex
 10
8.6628410218
 20
5.883384661
 30
0.0
  0
VERTEX
  5
281
330
1D4
100
AcDbEntity
  8
0
  6
CONTINUOUS
 62
     7
100
AcDbVertex
100
AcDb2dVertex
 10
8.6863161001
 20
5.8884439744
 30
0.0
  0
VERTEX
  5
282
330
1D4
100
AcDbEntity
  8
0
  6
CONTINUOUS
 62
     7
100
AcDbVertex
100
AcDb2dVertex
 10
8.7101465934
 20
5.895150942
 30
0.0
  0
VERTEX
  5
283
330
1D4
100
AcDbEntity
  8
0
  6
CONTINUOUS
 62
     7
100
AcDbVertex
100
AcDb2dVertex
 10
8.734266082
 20
5.9034868702
 30
0.0
  0
VERTEX
  5
284
330
1D4
100
AcDbEntity
  8
0
  6
CONTINUOUS
 62
     7
100
AcDbVertex
100
AcDb2dVertex
 10
8.7586073404
 20
5.9134285253
 30
0.0
  0
VERTEX
  5
285
330
1D4
100
AcDbEntity
  8
0
  6
CONTINUOUS
 62
     7
100
AcDbVertex
100
AcDb2dVertex
 10
8.7831025253
 20
5.924948198
 30
0.0
  0
VERTEX
  5
286
330
1D4
100
AcDbEntity
  8
0
  6
CONTINUOUS
 62
     7
100
AcDbVertex
100
AcDb2dVertex
 10
8.807683364
 20
5.9380137811
 30
0.0
  0
VERTEX
  5
287
330
1D4
100
AcDbEntity
  8
0
  6
CONTINUOUS
 62
     7
100
AcDbVertex
100
AcDb2dVertex
 10
8.8322813455
 20
5.9525888584
 30
0.0
  0
VERTEX
  5
288
330
1D4
100
AcDbEntity
  8
0
  6
CONTINUOUS
 62
     7
100
AcDbVertex
100
AcDb2dVertex
 10
8.8568279108
 20
5.9686328065
 30
0.0
  0
VERTEX
  5
289
330
1D4
100
AcDbEntity
  8
0
  6
CONTINUOUS
 62
     7
100
AcDbVertex
100
AcDb2dVertex
 10
8.8812546441
 20
5.9861009081
 30
0.0
  0
VERTEX
  5
28A
330
1D4
100
AcDbEntity
  8
0
  6
CONTINUOUS
 62
     7
100
AcDbVertex
100
AcDb2dVertex
 10
8.9054934638
 20
6.0049444764
 30
0.0
  0
VERTEX
  5
28B
330
1D4
100
AcDbEntity
  8
0
  6
CONTINUOUS
 62
     7
100
AcDbVertex
100
AcDb2dVertex
 10
8.929476812
 20
6.0251109911
 30
0.0
  0
VERTEX
  5
28C
330
1D4
100
AcDbEntity
  8
0
  6
CONTINUOUS
 62
     7
100
AcDbVertex
100
AcDb2dVertex
 10
8.9531378427
 20
6.0465442444
 30
0.0
  0
VERTEX
  5
28D
330
1D4
100
AcDbEntity
  8
0
  6
CONTINUOUS
 62
     7
100
AcDbVertex
100
AcDb2dVertex
 10
8.9764106084
 20
6.069184498
 30
0.0
  0
VERTEX
  5
28E
330
1D4
100
AcDbEntity
  8
0
  6
CONTINUOUS
 62
     7
100
AcDbVertex
100
AcDb2dVertex
 10
8.9992302438
 20
6.0929686495
 30
0.0
  0
VERTEX
  5
28F
330
1D4
100
AcDbEntity
  8
0
  6
CONTINUOUS
 62
     7
100
AcDbVertex
100
AcDb2dVertex
 10
9.0215331463
 20
6.1178304082
 30
0.0
  0
VERTEX
  5
290
330
1D4
100
AcDbEntity
  8
0
  6
CONTINUOUS
 62
     7
100
AcDbVertex
100
AcDb2dVertex
 10
9.043257154
 20
6.1437004798
 30
0.0
  0
VERTEX
  5
291
330
1D4
100
AcDbEntity
  8
0
  6
CONTINUOUS
 62
     7
100
AcDbVertex
100
AcDb2dVertex
 10
9.0643417179
 20
6.17050676
 30
0.0
  0
VERTEX
  5
292
330
1D4
100
AcDbEntity
  8
0
  6
CONTINUOUS
 62
     7
100
AcDbVertex
100
AcDb2dVertex
 10
9.0847280717
 20
6.1981745347
 30
0.0
  0
VERTEX
  5
293
330
1D4
100
AcDbEntity
  8
0
  6
CONTINUOUS
 62
     7
100
AcDbVertex
100
AcDb2dVertex
 10
9.104359395
 20
6.2266266889
 30
0.0
  0
VERTEX
  5
294
330
1D4
100
AcDbEntity
  8
0
  6
CONTINUOUS
 62
     7
100
AcDbVertex
100
AcDb2dVertex
 10
9.1231809716
 20
6.2557839213
 30
0.0
  0
VERTEX
  5
295
330
1D4
100
AcDbEntity
  8
0
  6
CONTINUOUS
 62
     7
100
AcDbVertex
100
AcDb2dVertex
 10
9.1411403426
 20
6.2855649656
 30
0.0
  0
VERTEX
  5
296
330
1D4
100
AcDbEntity
  8
0
  6
CONTINUOUS
 62
     7
100
AcDbVertex
100
AcDb2dVertex
 10
9.1581874519
 20
6.3158868166
 30
0.0
  0
VERTEX
  5
297
330
1D4
100
AcDbEntity
  8
0
  6
CONTINUOUS
 62
     7
100
AcDbVertex
100
AcDb2dVertex
 10
9.1742747862
 20
6.3466649618
 30
0.0
  0
VERTEX
  5
298
330
1D4
100
AcDbEntity
  8
0
  6
CONTINUOUS
 62
     7
100
AcDbVertex
100
AcDb2dVertex
 10
9.1893575072
 20
6.3778136171
 30
0.0
  0
VERTEX
  5
299
330
1D4
100
AcDbEntity
  8
0
  6
CONTINUOUS
 62
     7
100
AcDbVertex
100
AcDb2dVertex
 10
9.2033935766
 20
6.4092459655
 30
0.0
  0
VERTEX
  5
29A
330
1D4
100
AcDbEntity
  8
0
  6
CONTINUOUS
 62
     7
100
AcDbVertex
100
AcDb2dVertex
 10
9.2163438735
 20
6.4408743995
 30
0.0
  0
VERTEX
  5
29B
330
1D4
100
AcDbEntity
  8
0
  6
CONTINUOUS
 62
     7
100
AcDbVertex
100
AcDb2dVertex
 10
9.2281723029
 20
6.472610765
 30
0.0
  0
VERTEX
  5
29C
330
1D4
100
AcDbEntity
  8
0
  6
CONTINUOUS
 62
     7
100
AcDbVertex
100
AcDb2dVertex
 10
9.2388458969
 20
6.504366607
 30
0.0
  0
VERTEX
  5
29D
330
1D4
100
AcDbEntity
  8
0
  6
CONTINUOUS
 62
     7
100
AcDbVertex
100
AcDb2dVertex
 10
9.2483349064
 20
6.5360534163
 30
0.0
  0
VERTEX
  5
29E
330
1D4
100
AcDbEntity
  8
0
  6
CONTINUOUS
 62
     7
100
AcDbVertex
100
AcDb2dVertex
 10
9.2566128838
 20
6.567582876
 30
0.0
  0
VERTEX
  5
29F
330
1D4
100
AcDbEntity
  8
0
  6
CONTINUOUS
 62
     7
100
AcDbVertex
100
AcDb2dVertex
 10
9.2636567567
 20
6.5988671079
 30
0.0
  0
VERTEX
  5
2A0
330
1D4
100
AcDbEntity
  8
0
  6
CONTINUOUS
 62
     7
100
AcDbVertex
100
AcDb2dVertex
 10
9.2694468928
 20
6.6298189173
 30
0.0
  0
VERTEX
  5
2A1
330
1D4
100
AcDbEntity
  8
0
  6
CONTINUOUS
 62
     7
100
AcDbVertex
100
AcDb2dVertex
 10
9.2739671539
 20
6.6603520359
 30
0.0
  0
VERTEX
  5
2A2
330
1D4
100
AcDbEntity
  8
0
  6
CONTINUOUS
 62
     7
100
AcDbVertex
100
AcDb2dVertex
 10
9.2772049411
 20
6.6903813624
 30
0.0
  0
VERTEX
  5
2A3
330
1D4
100
AcDbEntity
  8
0
  6
CONTINUOUS
 62
     7
100
AcDbVertex
100
AcDb2dVertex
 10
9.2791512302
 20
6.7198231996
 30
0.0
  0
VERTEX
  5
2A4
330
1D4
100
AcDbEntity
  8
0
  6
CONTINUOUS
 62
     7
100
AcDbVertex
100
AcDb2dVertex
 10
9.2798005965
 20
6.748595488
 30
0.0
  0
SEQEND
  5
2A5
330
1D4
100
AcDbEntity
  8
0
  6
CONTINUOUS
 62
     7
  0
POLYLINE
  5
1D5
330
1F
100
AcDbEntity
  8
0
  6
CONTINUOUS
 62
     7
100
AcDb2dPolyline
 66
     1
 10
0.0
 20
0.0
 30
0.0
  0
VERTEX
  5
2A6
330
1D5
100
AcDbEntity
  8
0
  6
CONTINUOUS
 62
     7
100
AcDbVertex
100
AcDb2dVertex
 10
8.792699908
 20
5.9293131658
 30
0.0
  0
VERTEX
  5
2A7
330
1D5
100
AcDbEntity
  8
0
  6
CONTINUOUS
 62
     7
100
AcDbVertex
100
AcDb2dVertex
 10
8.7800768624
 20
5.9222125419
 30
0.0
  0
VERTEX
  5
2A8
330
1D5
100
AcDbEntity
  8
0
  6
CONTINUOUS
 62
     7
100
AcDbVertex
100
AcDb2dVertex
 10
8.7550223961
 20
5.9092402657
 30
0.0
  0
VERTEX
  5
2A9
330
1D5
100
AcDbEntity
  8
0
  6
CONTINUOUS
 62
     7
100
AcDbVertex
100
AcDb2dVertex
 10
8.7300676338
 20
5.8978129519
 30
0.0
  0
VERTEX
  5
2AA
330
1D5
100
AcDbEntity
  8
0
  6
CONTINUOUS
 62
     7
100
AcDbVertex
100
AcDb2dVertex
 10
8.705278751
 20
5.8879609038
 30
0.0
  0
VERTEX
  5
2AB
330
1D5
100
AcDbEntity
  8
0
  6
CONTINUOUS
 62
     7
100
AcDbVertex
100
AcDb2dVertex
 10
8.6807214835
 20
5.8797102471
 30
0.0
  0
VERTEX
  5
2AC
330
1D5
100
AcDbEntity
  8
0
  6
CONTINUOUS
 62
     7
100
AcDbVertex
100
AcDb2dVertex
 10
8.6564609526
 20
5.8730828612
 30
0.0
  0
VERTEX
  5
2AD
330
1D5
100
AcDbEntity
  8
0
  6
CONTINUOUS
 62
     7
100
AcDbVertex
100
AcDb2dVertex
 10
8.632561493
 20
5.8680963206
 30
0.0
  0
VERTEX
  5
2AE
330
1D5
100
AcDbEntity
  8
0
  6
CONTINUOUS
 62
     7
100
AcDbVertex
100
AcDb2dVertex
 10
8.6090864817
 20
5.8647638489
 30
0.0
  0
VERTEX
  5
2AF
330
1D5
100
AcDbEntity
  8
0
  6
CONTINUOUS
 62
     7
100
AcDbVertex
100
AcDb2dVertex
 10
8.5860981703
 20
5.863094283
 30
0.0
  0
VERTEX
  5
2B0
330
1D5
100
AcDbEntity
  8
0
  6
CONTINUOUS
 62
     7
100
AcDbVertex
100
AcDb2dVertex
 10
8.5636575195
 20
5.8630920504
 30
0.0
  0
VERTEX
  5
2B1
330
1D5
100
AcDbEntity
  8
0
  6
CONTINUOUS
 62
     7
100
AcDbVertex
100
AcDb2dVertex
 10
8.541824038
 20
5.864757157
 30
0.0
  0
VERTEX
  5
2B2
330
1D5
100
AcDbEntity
  8
0
  6
CONTINUOUS
 62
     7
100
AcDbVertex
100
AcDb2dVertex
 10
8.5206556243
 20
5.8680851873
 30
0.0
  0
VERTEX
  5
2B3
330
1D5
100
AcDbEntity
  8
0
  6
CONTINUOUS
 62
     7
100
AcDbVertex
100
AcDb2dVertex
 10
8.5002084131
 20
5.8730673159
 30
0.0
  0
VERTEX
  5
2B4
330
1D5
100
AcDbEntity
  8
0
  6
CONTINUOUS
 62
     7
100
AcDbVertex
100
AcDb2dVertex
 10
8.4805366267
 20
5.879690331
 30
0.0
  0
VERTEX
  5
2B5
330
1D5
100
AcDbEntity
  8
0
  6
CONTINUOUS
 62
     7
100
AcDbVertex
100
AcDb2dVertex
 10
8.4616924314
 20
5.8879366698
 30
0.0
  0
VERTEX
  5
2B6
330
1D5
100
AcDbEntity
  8
0
  6
CONTINUOUS
 62
     7
100
AcDbVertex
100
AcDb2dVertex
 10
8.4437257983
 20
5.8977844642
 30
0.0
  0
VERTEX
  5
2B7
330
1D5
100
AcDbEntity
  8
0
  6
CONTINUOUS
 62
     7
100
AcDbVertex
100
AcDb2dVertex
 10
8.426684372
 20
5.9092075998
 30
0.0
  0
VERTEX
  5
2B8
330
1D5
100
AcDbEntity
  8
0
  6
CONTINUOUS
 62
     7
100
AcDbVertex
100
AcDb2dVertex
 10
8.410613343
 20
5.9221757845
 30
0.0
  0
VERTEX
  5
2B9
330
1D5
100
AcDbEntity
  8
0
  6
CONTINUOUS
 62
     7
100
AcDbVertex
100
AcDb2dVertex
 10
8.3955553289
 20
5.936654629
 30
0.0
  0
VERTEX
  5
2BA
330
1D5
100
AcDbEntity
  8
0
  6
CONTINUOUS
 62
     7
100
AcDbVertex
100
AcDb2dVertex
 10
8.3815502609
 20
5.9526057379
 30
0.0
  0
VERTEX
  5
2BB
330
1D5
100
AcDbEntity
  8
0
  6
CONTINUOUS
 62
     7
100
AcDbVertex
100
AcDb2dVertex
 10
8.3686352779
 20
5.9699868118
 30
0.0
  0
VERTEX
  5
2BC
330
1D5
100
AcDbEntity
  8
0
  6
CONTINUOUS
 62
     7
100
AcDbVertex
100
AcDb2dVertex
 10
8.3568446281
 20
5.9887517593
 30
0.0
  0
VERTEX
  5
2BD
330
1D5
100
AcDbEntity
  8
0
  6
CONTINUOUS
 62
     7
100
AcDbVertex
100
AcDb2dVertex
 10
8.3462095782
 20
6.0088508189
 30
0.0
  0
VERTEX
  5
2BE
330
1D5
100
AcDbEntity
  8
0
  6
CONTINUOUS
 62
     7
100
AcDbVertex
100
AcDb2dVertex
 10
8.3367583303
 20
6.0302306918
 30
0.0
  0
VERTEX
  5
2BF
330
1D5
100
AcDbEntity
  8
0
  6
CONTINUOUS
 62
     7
100
AcDbVertex
100
AcDb2dVertex
 10
8.3285159476
 20
6.0528346822
 30
0.0
  0
VERTEX
  5
2C0
330
1D5
100
AcDbEntity
  8
0
  6
CONTINUOUS
 62
     7
100
AcDbVertex
100
AcDb2dVertex
 10
8.3215042874
 20
6.0766028485
 30
0.0
  0
VERTEX
  5
2C1
330
1D5
100
AcDbEntity
  8
0
  6
CONTINUOUS
 62
     7
100
AcDbVertex
100
AcDb2dVertex
 10
8.3157419432
 20
6.1014721617
 30
0.0
  0
VERTEX
  5
2C2
330
1D5
100
AcDbEntity
  8
0
  6
CONTINUOUS
 62
     7
100
AcDbVertex
100
AcDb2dVertex
 10
8.3112441959
 20
6.1273766729
 30
0.0
  0
VERTEX
  5
2C3
330
1D5
100
AcDbEntity
  8
0
  6
CONTINUOUS
 62
     7
100
AcDbVertex
100
AcDb2dVertex
 10
8.3080229726
 20
6.1542476881
 30
0.0
  0
VERTEX
  5
2C4
330
1D5
100
AcDbEntity
  8
0
  6
CONTINUOUS
 62
     7
100
AcDbVertex
100
AcDb2dVertex
 10
8.3060868154
 20
6.18201395
 30
0.0
  0
VERTEX
  5
2C5
330
1D5
100
AcDbEntity
  8
0
  6
CONTINUOUS
 62
     7
100
AcDbVertex
100
AcDb2dVertex
 10
8.3054408587
 20
6.2106018276
 30
0.0
  0
VERTEX
  5
2C6
330
1D5
100
AcDbEntity
  8
0
  6
CONTINUOUS
 62
     7
100
AcDbVertex
100
AcDb2dVertex
 10
8.3060868154
 20
6.2399355109
 30
0.0
  0
VERTEX
  5
2C7
330
1D5
100
AcDbEntity
  8
0
  6
CONTINUOUS
 62
     7
100
AcDbVertex
100
AcDb2dVertex
 10
8.3080229726
 20
6.2699372123
 30
0.0
  0
VERTEX
  5
2C8
330
1D5
100
AcDbEntity
  8
0
  6
CONTINUOUS
 62
     7
100
AcDbVertex
100
AcDb2dVertex
 10
8.3112441959
 20
6.3005273727
 30
0.0
  0
VERTEX
  5
2C9
330
1D5
100
AcDbEntity
  8
0
  6
CONTINUOUS
 62
     7
100
AcDbVertex
100
AcDb2dVertex
 10
8.3157419432
 20
6.3316248725
 30
0.0
  0
VERTEX
  5
2CA
330
1D5
100
AcDbEntity
  8
0
  6
CONTINUOUS
 62
     7
100
AcDbVertex
100
AcDb2dVertex
 10
8.3215042874
 20
6.3631472467
 30
0.0
  0
VERTEX
  5
2CB
330
1D5
100
AcDbEntity
  8
0
  6
CONTINUOUS
 62
     7
100
AcDbVertex
100
AcDb2dVertex
 10
8.3285159476
 20
6.3950109036
 30
0.0
  0
VERTEX
  5
2CC
330
1D5
100
AcDbEntity
  8
0
  6
CONTINUOUS
 62
     7
100
AcDbVertex
100
AcDb2dVertex
 10
8.3367583303
 20
6.4271313465
 30
0.0
  0
VERTEX
  5
2CD
330
1D5
100
AcDbEntity
  8
0
  6
CONTINUOUS
 62
     7
100
AcDbVertex
100
AcDb2dVertex
 10
8.3462095782
 20
6.4594233978
 30
0.0
  0
VERTEX
  5
2CE
330
1D5
100
AcDbEntity
  8
0
  6
CONTINUOUS
 62
     7
100
AcDbVertex
100
AcDb2dVertex
 10
8.3568446281
 20
6.4918014248
 30
0.0
  0
VERTEX
  5
2CF
330
1D5
100
AcDbEntity
  8
0
  6
CONTINUOUS
 62
     7
100
AcDbVertex
100
AcDb2dVertex
 10
8.3686352779
 20
6.5241795668
 30
0.0
  0
VERTEX
  5
2D0
330
1D5
100
AcDbEntity
  8
0
  6
CONTINUOUS
 62
     7
100
AcDbVertex
100
AcDb2dVertex
 10
8.3815502609
 20
6.5564719627
 30
0.0
  0
VERTEX
  5
2D1
330
1D5
100
AcDbEntity
  8
0
  6
CONTINUOUS
 62
     7
100
AcDbVertex
100
AcDb2dVertex
 10
8.3955553289
 20
6.5885929789
 30
0.0
  0
VERTEX
  5
2D2
330
1D5
100
AcDbEntity
  8
0
  6
CONTINUOUS
 62
     7
100
AcDbVertex
100
AcDb2dVertex
 10
8.410613343
 20
6.6204574363
 30
0.0
  0
VERTEX
  5
2D3
330
1D5
100
AcDbEntity
  8
0
  6
CONTINUOUS
 62
     7
100
AcDbVertex
100
AcDb2dVertex
 10
8.426684372
 20
6.6519808361
 30
0.0
  0
VERTEX
  5
2D4
330
1D5
100
AcDbEntity
  8
0
  6
CONTINUOUS
 62
     7
100
AcDbVertex
100
AcDb2dVertex
 10
8.4437257983
 20
6.6830795838
 30
0.0
  0
VERTEX
  5
2D5
330
1D5
100
AcDbEntity
  8
0
  6
CONTINUOUS
 62
     7
100
AcDbVertex
100
AcDb2dVertex
 10
8.4616924314
 20
6.7136712112
 30
0.0
  0
VERTEX
  5
2D6
330
1D5
100
AcDbEntity
  8
0
  6
CONTINUOUS
 62
     7
100
AcDbVertex
100
AcDb2dVertex
 10
8.4805366267
 20
6.7436745948
 30
0.0
  0
VERTEX
  5
2D7
330
1D5
100
AcDbEntity
  8
0
  6
CONTINUOUS
 62
     7
100
AcDbVertex
100
AcDb2dVertex
 10
8.5002084131
 20
6.773010171
 30
0.0
  0
VERTEX
  5
2D8
330
1D5
100
AcDbEntity
  8
0
  6
CONTINUOUS
 62
     7
100
AcDbVertex
100
AcDb2dVertex
 10
8.5206556243
 20
6.8016001471
 30
0.0
  0
VERTEX
  5
2D9
330
1D5
100
AcDbEntity
  8
0
  6
CONTINUOUS
 62
     7
100
AcDbVertex
100
AcDb2dVertex
 10
8.541824038
 20
6.8293687077
 30
0.0
  0
VERTEX
  5
2DA
330
1D5
100
AcDbEntity
  8
0
  6
CONTINUOUS
 62
     7
100
AcDbVertex
100
AcDb2dVertex
 10
8.5636575195
 20
6.8562422155
 30
0.0
  0
VERTEX
  5
2DB
330
1D5
100
AcDbEntity
  8
0
  6
CONTINUOUS
 62
     7
100
AcDbVertex
100
AcDb2dVertex
 10
8.5860981703
 20
6.8821494067
 30
0.0
  0
VERTEX
  5
2DC
330
1D5
100
AcDbEntity
  8
0
  6
CONTINUOUS
 62
     7
100
AcDbVertex
100
AcDb2dVertex
 10
8.6090864817
 20
6.9070215803
 30
0.0
  0
VERTEX
  5
2DD
330
1D5
100
AcDbEntity
  8
0
  6
CONTINUOUS
 62
     7
100
AcDbVertex
100
AcDb2dVertex
 10
8.632561493
 20
6.9307927797
 30
0.0
  0
VERTEX
  5
2DE
330
1D5
100
AcDbEntity
  8
0
  6
CONTINUOUS
 62
     7
100
AcDbVertex
100
AcDb2dVertex
 10
8.6564609526
 20
6.9533999678
 30
0.0
  0
VERTEX
  5
2DF
330
1D5
100
AcDbEntity
  8
0
  6
CONTINUOUS
 62
     7
100
AcDbVertex
100
AcDb2dVertex
 10
8.6807214835
 20
6.9747831946
 30
0.0
  0
VERTEX
  5
2E0
330
1D5
100
AcDbEntity
  8
0
  6
CONTINUOUS
 62
     7
100
AcDbVertex
100
AcDb2dVertex
 10
8.705278751
 20
6.9948857555
 30
0.0
  0
VERTEX
  5
2E1
330
1D5
100
AcDbEntity
  8
0
  6
CONTINUOUS
 62
     7
100
AcDbVertex
100
AcDb2dVertex
 10
8.7300676338
 20
7.0136543422
 30
0.0
  0
VERTEX
  5
2E2
330
1D5
100
AcDbEntity
  8
0
  6
CONTINUOUS
 62
     7
100
AcDbVertex
100
AcDb2dVertex
 10
8.7550223961
 20
7.0310391837
 30
0.0
  0
VERTEX
  5
2E3
330
1D5
100
AcDbEntity
  8
0
  6
CONTINUOUS
 62
     7
100
AcDbVertex
100
AcDb2dVertex
 10
8.7800768624
 20
7.0469941786
 30
0.0
  0
VERTEX
  5
2E4
330
1D5
100
AcDbEntity
  8
0
  6
CONTINUOUS
 62
     7
100
AcDbVertex
100
AcDb2dVertex
 10
8.8051645928
 20
7.0614770171
 30
0.0
  0
VERTEX
  5
2E5
330
1D5
100
AcDbEntity
  8
0
  6
CONTINUOUS
 62
     7
100
AcDbVertex
100
AcDb2dVertex
 10
8.8302190591
 20
7.0744492933
 30
0.0
  0
VERTEX
  5
2E6
330
1D5
100
AcDbEntity
  8
0
  6
CONTINUOUS
 62
     7
100
AcDbVertex
100
AcDb2dVertex
 10
8.8551738214
 20
7.085876607
 30
0.0
  0
VERTEX
  5
2E7
330
1D5
100
AcDbEntity
  8
0
  6
CONTINUOUS
 62
     7
100
AcDbVertex
100
AcDb2dVertex
 10
8.8799627042
 20
7.0957286552
 30
0.0
  0
VERTEX
  5
2E8
330
1D5
100
AcDbEntity
  8
0
  6
CONTINUOUS
 62
     7
100
AcDbVertex
100
AcDb2dVertex
 10
8.9045199717
 20
7.1039793118
 30
0.0
  0
VERTEX
  5
2E9
330
1D5
100
AcDbEntity
  8
0
  6
CONTINUOUS
 62
     7
100
AcDbVertex
100
AcDb2dVertex
 10
8.9287805025
 20
7.1106066977
 30
0.0
  0
VERTEX
  5
2EA
330
1D5
100
AcDbEntity
  8
0
  6
CONTINUOUS
 62
     7
100
AcDbVertex
100
AcDb2dVertex
 10
8.9526799621
 20
7.1155932383
 30
0.0
  0
VERTEX
  5
2EB
330
1D5
100
AcDbEntity
  8
0
  6
CONTINUOUS
 62
     7
100
AcDbVertex
100
AcDb2dVertex
 10
8.9761549734
 20
7.1189257101
 30
0.0
  0
VERTEX
  5
2EC
330
1D5
100
AcDbEntity
  8
0
  6
CONTINUOUS
 62
     7
100
AcDbVertex
100
AcDb2dVertex
 10
8.9991432849
 20
7.1205952759
 30
0.0
  0
VERTEX
  5
2ED
330
1D5
100
AcDbEntity
  8
0
  6
CONTINUOUS
 62
     7
100
AcDbVertex
100
AcDb2dVertex
 10
9.0215839357
 20
7.1205975085
 30
0.0
  0
VERTEX
  5
2EE
330
1D5
100
AcDbEntity
  8
0
  6
CONTINUOUS
 62
     7
100
AcDbVertex
100
AcDb2dVertex
 10
9.0434174171
 20
7.1189324019
 30
0.0
  0
VERTEX
  5
2EF
330
1D5
100
AcDbEntity
  8
0
  6
CONTINUOUS
 62
     7
100
AcDbVertex
100
AcDb2dVertex
 10
9.0645858309
 20
7.1156043716
 30
0.0
  0
VERTEX
  5
2F0
330
1D5
100
AcDbEntity
  8
0
  6
CONTINUOUS
 62
     7
100
AcDbVertex
100
AcDb2dVertex
 10
9.0850330421
 20
7.1106222431
 30
0.0
  0
VERTEX
  5
2F1
330
1D5
100
AcDbEntity
  8
0
  6
CONTINUOUS
 62
     7
100
AcDbVertex
100
AcDb2dVertex
 10
9.1047048284
 20
7.1039992279
 30
0.0
  0
VERTEX
  5
2F2
330
1D5
100
AcDbEntity
  8
0
  6
CONTINUOUS
 62
     7
100
AcDbVertex
100
AcDb2dVertex
 10
9.1235490238
 20
7.0957528892
 30
0.0
  0
VERTEX
  5
2F3
330
1D5
100
AcDbEntity
  8
0
  6
CONTINUOUS
 62
     7
100
AcDbVertex
100
AcDb2dVertex
 10
9.1415156568
 20
7.0859050947
 30
0.0
  0
VERTEX
  5
2F4
330
1D5
100
AcDbEntity
  8
0
  6
CONTINUOUS
 62
     7
100
AcDbVertex
100
AcDb2dVertex
 10
9.1585570832
 20
7.0744819591
 30
0.0
  0
VERTEX
  5
2F5
330
1D5
100
AcDbEntity
  8
0
  6
CONTINUOUS
 62
     7
100
AcDbVertex
100
AcDb2dVertex
 10
9.1746281122
 20
7.0615137744
 30
0.0
  0
VERTEX
  5
2F6
330
1D5
100
AcDbEntity
  8
0
  6
CONTINUOUS
 62
     7
100
AcDbVertex
100
AcDb2dVertex
 10
9.1896861262
 20
7.04703493
 30
0.0
  0
VERTEX
  5
2F7
330
1D5
100
AcDbEntity
  8
0
  6
CONTINUOUS
 62
     7
100
AcDbVertex
100
AcDb2dVertex
 10
9.2036911942
 20
7.0310838211
 30
0.0
  0
VERTEX
  5
2F8
330
1D5
100
AcDbEntity
  8
0
  6
CONTINUOUS
 62
     7
100
AcDbVertex
100
AcDb2dVertex
 10
9.2166061772
 20
7.0137027471
 30
0.0
  0
VERTEX
  5
2F9
330
1D5
100
AcDbEntity
  8
0
  6
CONTINUOUS
 62
     7
100
AcDbVertex
100
AcDb2dVertex
 10
9.2283968271
 20
6.9949377997
 30
0.0
  0
VERTEX
  5
2FA
330
1D5
100
AcDbEntity
  8
0
  6
CONTINUOUS
 62
     7
100
AcDbVertex
100
AcDb2dVertex
 10
9.239031877
 20
6.97483874
 30
0.0
  0
VERTEX
  5
2FB
330
1D5
100
AcDbEntity
  8
0
  6
CONTINUOUS
 62
     7
100
AcDbVertex
100
AcDb2dVertex
 10
9.2484831248
 20
6.9534588672
 30
0.0
  0
VERTEX
  5
2FC
330
1D5
100
AcDbEntity
  8
0
  6
CONTINUOUS
 62
     7
100
AcDbVertex
100
AcDb2dVertex
 10
9.2567255075
 20
6.9308548768
 30
0.0
  0
VERTEX
  5
2FD
330
1D5
100
AcDbEntity
  8
0
  6
CONTINUOUS
 62
     7
100
AcDbVertex
100
AcDb2dVertex
 10
9.2637371678
 20
6.9070867105
 30
0.0
  0
VERTEX
  5
2FE
330
1D5
100
AcDbEntity
  8
0
  6
CONTINUOUS
 62
     7
100
AcDbVertex
100
AcDb2dVertex
 10
9.2694995119
 20
6.8822173973
 30
0.0
  0
VERTEX
  5
2FF
330
1D5
100
AcDbEntity
  8
0
  6
CONTINUOUS
 62
     7
100
AcDbVertex
100
AcDb2dVertex
 10
9.2739972593
 20
6.856312886
 30
0.0
  0
VERTEX
  5
300
330
1D5
100
AcDbEntity
  8
0
  6
CONTINUOUS
 62
     7
100
AcDbVertex
100
AcDb2dVertex
 10
9.2772184826
 20
6.8294418709
 30
0.0
  0
VERTEX
  5
301
330
1D5
100
AcDbEntity
  8
0
  6
CONTINUOUS
 62
     7
100
AcDbVertex
100
AcDb2dVertex
 10
9.2791546398
 20
6.801675609
 30
0.0
  0
VERTEX
  5
302
330
1D5
100
AcDbEntity
  8
0
  6
CONTINUOUS
 62
     7
100
AcDbVertex
100
AcDb2dVertex
 10
9.2798005965
 20
6.7730877314
 30
0.0
  0
VERTEX
  5
303
330
1D5
100
AcDbEntity
  8
0
  6
CONTINUOUS
 62
     7
100
AcDbVertex
100
AcDb2dVertex
 10
9.2798005965
 20
6.7730877314
 30
0.0
  0
SEQEND
  5
304
330
1D5
100
AcDbEntity
  8
0
  6
CONTINUOUS
 62
     7
  0
POLYLINE
  5
1D6
330
1F
100
AcDbEntity
  8
0
  6
CONTINUOUS
 62
     7
100
AcDb2dPolyline
 66
     1
 10
0.0
 20
0.0
 30
0.0
  0
VERTEX
  5
305
330
1D6
100
AcDbEntity
  8
0
  6
CONTINUOUS
 62
     7
100
AcDbVertex
100
AcDb2dVertex
 10
7.8989202437
 20
7.8033069323
 30
0.0
  0
VERTEX
  5
306
330
1D6
100
AcDbEntity
  8
0
  6
CONTINUOUS
 62
     7
100
AcDbVertex
100
AcDb2dVertex
 10
7.8853883466
 20
7.8105278337
 30
0.0
  0
VERTEX
  5
307
330
1D6
100
AcDbEntity
  8
0
  6
CONTINUOUS
 62
     7
100
AcDbVertex
100
AcDb2dVertex
 10
7.8665441513
 20
7.8187741724
 30
0.0
  0
VERTEX
  5
308
330
1D6
100
AcDbEntity
  8
0
  6
CONTINUOUS
 62
     7
100
AcDbVertex
100
AcDb2dVertex
 10
7.8468723649
 20
7.8253971876
 30
0.0
  0
VERTEX
  5
309
330
1D6
100
AcDbEntity
  8
0
  6
CONTINUOUS
 62
     7
100
AcDbVertex
100
AcDb2dVertex
 10
7.8264251537
 20
7.8303793162
 30
0.0
  0
VERTEX
  5
30A
330
1D6
100
AcDbEntity
  8
0
  6
CONTINUOUS
 62
     7
100
AcDbVertex
100
AcDb2dVertex
 10
7.80525674
 20
7.8337073464
 30
0.0
  0
VERTEX
  5
30B
330
1D6
100
AcDbEntity
  8
0
  6
CONTINUOUS
 62
     7
100
AcDbVertex
100
AcDb2dVertex
 10
7.7834232585
 20
7.835372453
 30
0.0
  0
VERTEX
  5
30C
330
1D6
100
AcDbEntity
  8
0
  6
CONTINUOUS
 62
     7
100
AcDbVertex
100
AcDb2dVertex
 10
7.7609826077
 20
7.8353702205
 30
0.0
  0
VERTEX
  5
30D
330
1D6
100
AcDbEntity
  8
0
  6
CONTINUOUS
 62
     7
100
AcDbVertex
100
AcDb2dVertex
 10
7.7379942963
 20
7.8337006546
 30
0.0
  0
VERTEX
  5
30E
330
1D6
100
AcDbEntity
  8
0
  6
CONTINUOUS
 62
     7
100
AcDbVertex
100
AcDb2dVertex
 10
7.714519285
 20
7.8303681828
 30
0.0
  0
VERTEX
  5
30F
330
1D6
100
AcDbEntity
  8
0
  6
CONTINUOUS
 62
     7
100
AcDbVertex
100
AcDb2dVertex
 10
7.6906198254
 20
7.8253816423
 30
0.0
  0
VERTEX
  5
310
330
1D6
100
AcDbEntity
  8
0
  6
CONTINUOUS
 62
     7
100
AcDbVertex
100
AcDb2dVertex
 10
7.6663592945
 20
7.8187542563
 30
0.0
  0
VERTEX
  5
311
330
1D6
100
AcDbEntity
  8
0
  6
CONTINUOUS
 62
     7
100
AcDbVertex
100
AcDb2dVertex
 10
7.641802027
 20
7.8105035997
 30
0.0
  0
VERTEX
  5
312
330
1D6
100
AcDbEntity
  8
0
  6
CONTINUOUS
 62
     7
100
AcDbVertex
100
AcDb2dVertex
 10
7.6170131442
 20
7.8006515515
 30
0.0
  0
VERTEX
  5
313
330
1D6
100
AcDbEntity
  8
0
  6
CONTINUOUS
 62
     7
100
AcDbVertex
100
AcDb2dVertex
 10
7.5920583819
 20
7.7892242378
 30
0.0
  0
VERTEX
  5
314
330
1D6
100
AcDbEntity
  8
0
  6
CONTINUOUS
 62
     7
100
AcDbVertex
100
AcDb2dVertex
 10
7.5670039156
 20
7.7762519616
 30
0.0
  0
VERTEX
  5
315
330
1D6
100
AcDbEntity
  8
0
  6
CONTINUOUS
 62
     7
100
AcDbVertex
100
AcDb2dVertex
 10
7.5419161852
 20
7.7617691231
 30
0.0
  0
VERTEX
  5
316
330
1D6
100
AcDbEntity
  8
0
  6
CONTINUOUS
 62
     7
100
AcDbVertex
100
AcDb2dVertex
 10
7.5168617189
 20
7.7458141282
 30
0.0
  0
VERTEX
  5
317
330
1D6
100
AcDbEntity
  8
0
  6
CONTINUOUS
 62
     7
100
AcDbVertex
100
AcDb2dVertex
 10
7.4919069566
 20
7.7284292867
 30
0.0
  0
VERTEX
  5
318
330
1D6
100
AcDbEntity
  8
0
  6
CONTINUOUS
 62
     7
100
AcDbVertex
100
AcDb2dVertex
 10
7.4671180738
 20
7.7096607
 30
0.0
  0
VERTEX
  5
319
330
1D6
100
AcDbEntity
  8
0
  6
CONTINUOUS
 62
     7
100
AcDbVertex
100
AcDb2dVertex
 10
7.4425608063
 20
7.6895581391
 30
0.0
  0
VERTEX
  5
31A
330
1D6
100
AcDbEntity
  8
0
  6
CONTINUOUS
 62
     7
100
AcDbVertex
100
AcDb2dVertex
 10
7.4183002755
 20
7.6681749123
 30
0.0
  0
VERTEX
  5
31B
330
1D6
100
AcDbEntity
  8
0
  6
CONTINUOUS
 62
     7
100
AcDbVertex
100
AcDb2dVertex
 10
7.3944008159
 20
7.6455677242
 30
0.0
  0
VERTEX
  5
31C
330
1D6
100
AcDbEntity
  8
0
  6
CONTINUOUS
 62
     7
100
AcDbVertex
100
AcDb2dVertex
 10
7.3709258046
 20
7.6217965248
 30
0.0
  0
VERTEX
  5
31D
330
1D6
100
AcDbEntity
  8
0
  6
CONTINUOUS
 62
     7
100
AcDbVertex
100
AcDb2dVertex
 10
7.3479374931
 20
7.5969243513
 30
0.0
  0
VERTEX
  5
31E
330
1D6
100
AcDbEntity
  8
0
  6
CONTINUOUS
 62
     7
100
AcDbVertex
100
AcDb2dVertex
 10
7.3254968423
 20
7.57101716
 30
0.0
  0
VERTEX
  5
31F
330
1D6
100
AcDbEntity
  8
0
  6
CONTINUOUS
 62
     7
100
AcDbVertex
100
AcDb2dVertex
 10
7.3036633609
 20
7.5441436522
 30
0.0
  0
VERTEX
  5
320
330
1D6
100
AcDbEntity
  8
0
  6
CONTINUOUS
 62
     7
100
AcDbVertex
100
AcDb2dVertex
 10
7.2824949471
 20
7.5163750916
 30
0.0
  0
VERTEX
  5
321
330
1D6
100
AcDbEntity
  8
0
  6
CONTINUOUS
 62
     7
100
AcDbVertex
100
AcDb2dVertex
 10
7.2620477359
 20
7.4877851155
 30
0.0
  0
VERTEX
  5
322
330
1D6
100
AcDbEntity
  8
0
  6
CONTINUOUS
 62
     7
100
AcDbVertex
100
AcDb2dVertex
 10
7.2423759496
 20
7.4584495393
 30
0.0
  0
VERTEX
  5
323
330
1D6
100
AcDbEntity
  8
0
  6
CONTINUOUS
 62
     7
100
AcDbVertex
100
AcDb2dVertex
 10
7.2235317542
 20
7.4284461557
 30
0.0
  0
VERTEX
  5
324
330
1D6
100
AcDbEntity
  8
0
  6
CONTINUOUS
 62
     7
100
AcDbVertex
100
AcDb2dVertex
 10
7.2055651212
 20
7.3978545283
 30
0.0
  0
VERTEX
  5
325
330
1D6
100
AcDbEntity
  8
0
  6
CONTINUOUS
 62
     7
100
AcDbVertex
100
AcDb2dVertex
 10
7.1885236948
 20
7.3667557806
 30
0.0
  0
VERTEX
  5
326
330
1D6
100
AcDbEntity
  8
0
  6
CONTINUOUS
 62
     7
100
AcDbVertex
100
AcDb2dVertex
 10
7.1724526658
 20
7.3352323808
 30
0.0
  0
VERTEX
  5
327
330
1D6
100
AcDbEntity
  8
0
  6
CONTINUOUS
 62
     7
100
AcDbVertex
100
AcDb2dVertex
 10
7.1573946518
 20
7.3033679234
 30
0.0
  0
VERTEX
  5
328
330
1D6
100
AcDbEntity
  8
0
  6
CONTINUOUS
 62
     7
100
AcDbVertex
100
AcDb2dVertex
 10
7.1433895838
 20
7.2712469072
 30
0.0
  0
VERTEX
  5
329
330
1D6
100
AcDbEntity
  8
0
  6
CONTINUOUS
 62
     7
100
AcDbVertex
100
AcDb2dVertex
 10
7.1304746008
 20
7.2389545113
 30
0.0
  0
VERTEX
  5
32A
330
1D6
100
AcDbEntity
  8
0
  6
CONTINUOUS
 62
     7
100
AcDbVertex
100
AcDb2dVertex
 10
7.1186839509
 20
7.2065763693
 30
0.0
  0
VERTEX
  5
32B
330
1D6
100
AcDbEntity
  8
0
  6
CONTINUOUS
 62
     7
100
AcDbVertex
100
AcDb2dVertex
 10
7.108048901
 20
7.1741983423
 30
0.0
  0
VERTEX
  5
32C
330
1D6
100
AcDbEntity
  8
0
  6
CONTINUOUS
 62
     7
100
AcDbVertex
100
AcDb2dVertex
 10
7.0985976532
 20
7.141906291
 30
0.0
  0
VERTEX
  5
32D
330
1D6
100
AcDbEntity
  8
0
  6
CONTINUOUS
 62
     7
100
AcDbVertex
100
AcDb2dVertex
 10
7.0903552705
 20
7.1097858481
 30
0.0
  0
VERTEX
  5
32E
330
1D6
100
AcDbEntity
  8
0
  6
CONTINUOUS
 62
     7
100
AcDbVertex
100
AcDb2dVertex
 10
7.0833436102
 20
7.0779221912
 30
0.0
  0
VERTEX
  5
32F
330
1D6
100
AcDbEntity
  8
0
  6
CONTINUOUS
 62
     7
100
AcDbVertex
100
AcDb2dVertex
 10
7.0775812661
 20
7.046399817
 30
0.0
  0
VERTEX
  5
330
330
1D6
100
AcDbEntity
  8
0
  6
CONTINUOUS
 62
     7
100
AcDbVertex
100
AcDb2dVertex
 10
7.0730835187
 20
7.0153023173
 30
0.0
  0
VERTEX
  5
331
330
1D6
100
AcDbEntity
  8
0
  6
CONTINUOUS
 62
     7
100
AcDbVertex
100
AcDb2dVertex
 10
7.0698622954
 20
6.9847121569
 30
0.0
  0
VERTEX
  5
332
330
1D6
100
AcDbEntity
  8
0
  6
CONTINUOUS
 62
     7
100
AcDbVertex
100
AcDb2dVertex
 10
7.0679261382
 20
6.9547104554
 30
0.0
  0
VERTEX
  5
333
330
1D6
100
AcDbEntity
  8
0
  6
CONTINUOUS
 62
     7
100
AcDbVertex
100
AcDb2dVertex
 10
7.0672801815
 20
6.9253767721
 30
0.0
  0
VERTEX
  5
334
330
1D6
100
AcDbEntity
  8
0
  6
CONTINUOUS
 62
     7
100
AcDbVertex
100
AcDb2dVertex
 10
7.0679261382
 20
6.8967888945
 30
0.0
  0
VERTEX
  5
335
330
1D6
100
AcDbEntity
  8
0
  6
CONTINUOUS
 62
     7
100
AcDbVertex
100
AcDb2dVertex
 10
7.0698622954
 20
6.8690226326
 30
0.0
  0
VERTEX
  5
336
330
1D6
100
AcDbEntity
  8
0
  6
CONTINUOUS
 62
     7
100
AcDbVertex
100
AcDb2dVertex
 10
7.0730835187
 20
6.8421516174
 30
0.0
  0
VERTEX
  5
337
330
1D6
100
AcDbEntity
  8
0
  6
CONTINUOUS
 62
     7
100
AcDbVertex
100
AcDb2dVertex
 10
7.0775812661
 20
6.8162471062
 30
0.0
  0
VERTEX
  5
338
330
1D6
100
AcDbEntity
  8
0
  6
CONTINUOUS
 62
     7
100
AcDbVertex
100
AcDb2dVertex
 10
7.0833436102
 20
6.791377793
 30
0.0
  0
VERTEX
  5
339
330
1D6
100
AcDbEntity
  8
0
  6
CONTINUOUS
 62
     7
100
AcDbVertex
100
AcDb2dVertex
 10
7.0903552705
 20
6.7676096267
 30
0.0
  0
VERTEX
  5
33A
330
1D6
100
AcDbEntity
  8
0
  6
CONTINUOUS
 62
     7
100
AcDbVertex
100
AcDb2dVertex
 10
7.0985976532
 20
6.7450056363
 30
0.0
  0
VERTEX
  5
33B
330
1D6
100
AcDbEntity
  8
0
  6
CONTINUOUS
 62
     7
100
AcDbVertex
100
AcDb2dVertex
 10
7.108048901
 20
6.7236257635
 30
0.0
  0
VERTEX
  5
33C
330
1D6
100
AcDbEntity
  8
0
  6
CONTINUOUS
 62
     7
100
AcDbVertex
100
AcDb2dVertex
 10
7.1186839509
 20
6.7035267038
 30
0.0
  0
VERTEX
  5
33D
330
1D6
100
AcDbEntity
  8
0
  6
CONTINUOUS
 62
     7
100
AcDbVertex
100
AcDb2dVertex
 10
7.1304746008
 20
6.6847617563
 30
0.0
  0
VERTEX
  5
33E
330
1D6
100
AcDbEntity
  8
0
  6
CONTINUOUS
 62
     7
100
AcDbVertex
100
AcDb2dVertex
 10
7.1433895838
 20
6.6673806824
 30
0.0
  0
VERTEX
  5
33F
330
1D6
100
AcDbEntity
  8
0
  6
CONTINUOUS
 62
     7
100
AcDbVertex
100
AcDb2dVertex
 10
7.1573946518
 20
6.6514295735
 30
0.0
  0
VERTEX
  5
340
330
1D6
100
AcDbEntity
  8
0
  6
CONTINUOUS
 62
     7
100
AcDbVertex
100
AcDb2dVertex
 10
7.1724526658
 20
6.636950729
 30
0.0
  0
VERTEX
  5
341
330
1D6
100
AcDbEntity
  8
0
  6
CONTINUOUS
 62
     7
100
AcDbVertex
100
AcDb2dVertex
 10
7.1885236948
 20
6.6239825444
 30
0.0
  0
VERTEX
  5
342
330
1D6
100
AcDbEntity
  8
0
  6
CONTINUOUS
 62
     7
100
AcDbVertex
100
AcDb2dVertex
 10
7.2055651212
 20
6.6125594087
 30
0.0
  0
VERTEX
  5
343
330
1D6
100
AcDbEntity
  8
0
  6
CONTINUOUS
 62
     7
100
AcDbVertex
100
AcDb2dVertex
 10
7.2099998571
 20
6.6099325157
 30
0.0
  0
SEQEND
  5
344
330
1D6
100
AcDbEntity
  8
0
  6
CONTINUOUS
 62
     7
  0
SPLINE
  5
1D7
330
1F
100
AcDbEntity
  8
0
  6
CONTINUOUS
 62
     7
100
AcDbSpline
210
0.0
220
0.0
230
1.0
 70
     8
 71
     3
 72
    29
 73
    25
 74
     0
 42
0.00000001
 43
0.00000001
 40
-0.1265666080907537
 40
-0.0840768004922756
 40
-0.042854313777651
 40
0.0
 40
0.0429484578353737
 40
0.0842255443718563
 40
0.1267098255604862
 40
0.1886972701519422
 40
0.2497701269929716
 40
0.2909744829676918
 40
0.3310757626115996
 40
0.3732807792692699
 40
0.415804277729218
 40
0.4571323456575441
 40
0.500159650002877
 40
0.5430076059328327
 40
0.5842364894428546
 40
0.6267442120620772
 40
0.6888014151288074
 40
0.7498391465088978
 40
0.791046864806052
 40
0.8311769260619698
 40
0.8734333919092463
 40
0.9159231995077244
 40
0.957145686222349
 40
1.0
 40
1.042948457835374
 40
1.084225544371856
 40
1.126709825560486
 10
7.600024985665686
 20
7.71592215343782
 30
0.0
 10
7.620526901138006
 20
7.731297523223417
 30
0.0
 10
7.646092244614266
 20
7.742456028433863
 30
0.0
 10
7.676131364106445
 20
7.748154433377235
 30
0.0
 10
7.713130174801387
 20
7.748337560727715
 30
0.0
 10
7.755937391618567
 20
7.741212839019619
 30
0.0
 10
7.791478135529442
 20
7.725814099018892
 30
0.0
 10
7.814131829388017
 20
7.7098348254475
 30
0.0
 10
7.825925294080545
 20
7.694504981476848
 30
0.0
 10
7.828923464838879
 20
7.678563122262376
 30
0.0
 10
7.824601892000908
 20
7.662419953758552
 30
0.0
 10
7.811619178083139
 20
7.646836741267279
 30
0.0
 10
7.791122728031178
 20
7.632718011789724
 30
0.0
 10
7.765574612623621
 20
7.620238472357648
 30
0.0
 10
7.735548544315015
 20
7.611029630904698
 30
0.0
 10
7.698531540948315
 20
7.605404809130055
 30
0.0
 10
7.655717016568992
 20
7.605824916283903
 30
0.0
 10
7.62016766651122
 20
7.618785249577432
 30
0.0
 10
7.59754112419915
 20
7.636134264759777
 30
0.0
 10
7.585764097026384
 20
7.65507640935349
 30
0.0
 10
7.582777653773251
 20
7.675979466318956
 30
0.0
 10
7.587085479006324
 20
7.696849504828463
 30
0.0
 10
7.600024985665686
 20
7.71592215343782
 30
0.0
 10
7.620526901138006
 20
7.731297523223417
 30
0.0
 10
7.646092244614266
 20
7.742456028433863
 30
0.0
  0
SPLINE
  5
1D8
330
1F
100
AcDbEntity
  8
0
  6
CONTINUOUS
 62
     7
100
AcDbSpline
210
0.0
220
0.0
230
1.0
 70
     8
 71
     3
 72
    29
 73
    25
 74
     0
 42
0.00000001
 43
0.00000001
 40
-0.1265666080907537
 40
-0.0840768004922755
 40
-0.042854313777651
 40
0.0
 40
0.0429484578354028
 40
0.0842255443718853
 40
0.1267098255604916
 40
0.188697270151973
 40
0.2497701269929717
 40
0.2909744829677476
 40
0.3310757626116557
 40
0.3732807792692823
 40
0.4158042777293575
 40
0.4571323456576832
 40
0.5001596500028935
 40
0.5430076059328552
 40
0.5842364894428771
 40
0.6267442120620671
 40
0.6888014151287459
 40
0.7498391465088977
 40
0.7910468648060524
 40
0.8311769260619701
 40
0.8734333919092463
 40
0.9159231995077245
 40
0.957145686222349
 40
1.0
 40
1.042948457835403
 40
1.084225544371885
 40
1.126709825560491
 10
8.535410334006945
 20
7.175935685775555
 30
0.0
 10
8.55591224947927
 20
7.191311055561155
 30
0.0
 10
8.581477592955533
 20
7.202469560771604
 30
0.0
 10
8.611516712447713
 20
7.208167965714979
 30
0.0
 10
8.64851552314266
 20
7.208351093065446
 30
0.0
 10
8.691322739959826
 20
7.201226371357345
 30
0.0
 10
8.726863483870716
 20
7.185827631356618
 30
0.0
 10
8.749517177729297
 20
7.169848357785225
 30
0.0
 10
8.761310642421838
 20
7.15451851381457
 30
0.0
 10
8.764308813180136
 20
7.138576654600089
 30
0.0
 10
8.759987240342136
 20
7.122433486096258
 30
0.0
 10
8.747004526424387
 20
7.106850273604975
 30
0.0
 10
8.726508076372411
 20
7.092731544127443
 30
0.0
 10
8.700959960964845
 20
7.080252004695405
 30
0.0
 10
8.670933892656251
 20
7.071043163242456
 30
0.0
 10
8.63391688928958
 20
7.065418341467784
 30
0.0
 10
8.591102364910254
 20
7.065838448621616
 30
0.0
 10
8.55555301485249
 20
7.078798781915163
 30
0.0
 10
8.532926472540408
 20
7.096147797097511
 30
0.0
 10
8.521149445367643
 20
7.115089941691227
 30
0.0
 10
8.518163002114509
 20
7.13599299865669
 30
0.0
 10
8.52247082734758
 20
7.156863037166198
 30
0.0
 10
8.535410334006945
 20
7.175935685775555
 30
0.0
 10
8.55591224947927
 20
7.191311055561155
 30
0.0
 10
8.581477592955533
 20
7.202469560771604
 30
0.0
  0
POLYLINE
  5
1D9
330
1F
100
AcDbEntity
  8
0
  6
CONTINUOUS
 62
     7
100
AcDb2dPolyline
 66
     1
 10
0.0
 20
0.0
 30
0.0
  0
VERTEX
  5
345
330
1D9
100
AcDbEntity
  8
0
  6
CONTINUOUS
 62
     7
100
AcDbVertex
100
AcDb2dVertex
 10
8.9464025331
 20
6.5561288828
 30
0.0
  0
VERTEX
  5
346
330
1D9
100
AcDbEntity
  8
0
  6
CONTINUOUS
 62
     7
100
AcDbVertex
100
AcDb2dVertex
 10
8.9457437699
 20
6.5405062104
 30
0.0
  0
VERTEX
  5
347
330
1D9
100
AcDbEntity
  8
0
  6
CONTINUOUS
 62
     7
100
AcDbVertex
100
AcDb2dVertex
 10
8.9437740275
 20
6.5242782114
 30
0.0
  0
VERTEX
  5
348
330
1D9
100
AcDbEntity
  8
0
  6
CONTINUOUS
 62
     7
100
AcDbVertex
100
AcDb2dVertex
 10
8.940512882
 20
6.5076061669
 30
0.0
  0
VERTEX
  5
349
330
1D9
100
AcDbEntity
  8
0
  6
CONTINUOUS
 62
     7
100
AcDbVertex
100
AcDb2dVertex
 10
8.9359927442
 20
6.4906557712
 30
0.0
  0
VERTEX
  5
34A
330
1D9
100
AcDbEntity
  8
0
  6
CONTINUOUS
 62
     7
100
AcDbVertex
100
AcDb2dVertex
 10
8.9302585373
 20
6.4735954849
 30
0.0
  0
VERTEX
  5
34B
330
1D9
100
AcDbEntity
  8
0
  6
CONTINUOUS
 62
     7
100
AcDbVertex
100
AcDb2dVertex
 10
8.9233672503
 20
6.4565948609
 30
0.0
  0
VERTEX
  5
34C
330
1D9
100
AcDbEntity
  8
0
  6
CONTINUOUS
 62
     7
100
AcDbVertex
100
AcDb2dVertex
 10
8.915387372
 20
6.4398228589
 30
0.0
  0
VERTEX
  5
34D
330
1D9
100
AcDbEntity
  8
0
  6
CONTINUOUS
 62
     7
100
AcDbVertex
100
AcDb2dVertex
 10
8.9063982099
 20
6.4234461667
 30
0.0
  0
VERTEX
  5
34E
330
1D9
100
AcDbEntity
  8
0
  6
CONTINUOUS
 62
     7
100
AcDbVertex
100
AcDb2dVertex
 10
8.8964891024
 20
6.4076275432
 30
0.0
  0
VERTEX
  5
34F
330
1D9
100
AcDbEntity
  8
0
  6
CONTINUOUS
 62
     7
100
AcDbVertex
100
AcDb2dVertex
 10
8.8857585308
 20
6.392524201
 30
0.0
  0
VERTEX
  5
350
330
1D9
100
AcDbEntity
  8
0
  6
CONTINUOUS
 62
     7
100
AcDbVertex
100
AcDb2dVertex
 10
8.8743131401
 20
6.3782862438
 30
0.0
  0
VERTEX
  5
351
330
1D9
100
AcDbEntity
  8
0
  6
CONTINUOUS
 62
     7
100
AcDbVertex
100
AcDb2dVertex
 10
8.8622666799
 20
6.3650551749
 30
0.0
  0
VERTEX
  5
352
330
1D9
100
AcDbEntity
  8
0
  6
CONTINUOUS
 62
     7
100
AcDbVertex
100
AcDb2dVertex
 10
8.8497388733
 20
6.3529624906
 30
0.0
  0
VERTEX
  5
353
330
1D9
100
AcDbEntity
  8
0
  6
CONTINUOUS
 62
     7
100
AcDbVertex
100
AcDb2dVertex
 10
8.8368542272
 20
6.3421283734
 30
0.0
  0
VERTEX
  5
354
330
1D9
100
AcDbEntity
  8
0
  6
CONTINUOUS
 62
     7
100
AcDbVertex
100
AcDb2dVertex
 10
8.8237407951
 20
6.3326604977
 30
0.0
  0
VERTEX
  5
355
330
1D9
100
AcDbEntity
  8
0
  6
CONTINUOUS
 62
     7
100
AcDbVertex
100
AcDb2dVertex
 10
8.8105289041
 20
6.3246529594
 30
0.0
  0
VERTEX
  5
356
330
1D9
100
AcDbEntity
  8
0
  6
CONTINUOUS
 62
     7
100
AcDbVertex
100
AcDb2dVertex
 10
8.7973498599
 20
6.3181853411
 30
0.0
  0
VERTEX
  5
357
330
1D9
100
AcDbEntity
  8
0
  6
CONTINUOUS
 62
     7
100
AcDbVertex
100
AcDb2dVertex
 10
8.7843346419
 20
6.3133219209
 30
0.0
  0
VERTEX
  5
358
330
1D9
100
AcDbEntity
  8
0
  6
CONTINUOUS
 62
     7
100
AcDbVertex
100
AcDb2dVertex
 10
8.771612601
 20
6.3101110335
 30
0.0
  0
VERTEX
  5
359
330
1D9
100
AcDbEntity
  8
0
  6
CONTINUOUS
 62
     7
100
AcDbVertex
100
AcDb2dVertex
 10
8.7593101747
 20
6.3085845904
 30
0.0
  0
VERTEX
  5
35A
330
1D9
100
AcDbEntity
  8
0
  6
CONTINUOUS
 62
     7
100
AcDbVertex
100
AcDb2dVertex
 10
8.74754963
 20
6.3087577618
 30
0.0
  0
VERTEX
  5
35B
330
1D9
100
AcDbEntity
  8
0
  6
CONTINUOUS
 62
     7
100
AcDbVertex
100
AcDb2dVertex
 10
8.7364478484
 20
6.3106288268
 30
0.0
  0
VERTEX
  5
35C
330
1D9
100
AcDbEntity
  8
0
  6
CONTINUOUS
 62
     7
100
AcDbVertex
100
AcDb2dVertex
 10
8.7261151645
 20
6.31417919
 30
0.0
  0
VERTEX
  5
35D
330
1D9
100
AcDbEntity
  8
0
  6
CONTINUOUS
 62
     7
100
AcDbVertex
100
AcDb2dVertex
 10
8.7166542691
 20
6.3193735661
 30
0.0
  0
VERTEX
  5
35E
330
1D9
100
AcDbEntity
  8
0
  6
CONTINUOUS
 62
     7
100
AcDbVertex
100
AcDb2dVertex
 10
8.7081591889
 20
6.3261603311
 30
0.0
  0
VERTEX
  5
35F
330
1D9
100
AcDbEntity
  8
0
  6
CONTINUOUS
 62
     7
100
AcDbVertex
100
AcDb2dVertex
 10
8.7007143517
 20
6.3344720352
 30
0.0
  0
VERTEX
  5
360
330
1D9
100
AcDbEntity
  8
0
  6
CONTINUOUS
 62
     7
100
AcDbVertex
100
AcDb2dVertex
 10
8.6943937477
 20
6.3442260729
 30
0.0
  0
VERTEX
  5
361
330
1D9
100
AcDbEntity
  8
0
  6
CONTINUOUS
 62
     7
100
AcDbVertex
100
AcDb2dVertex
 10
8.6892601939
 20
6.3553255041
 30
0.0
  0
VERTEX
  5
362
330
1D9
100
AcDbEntity
  8
0
  6
CONTINUOUS
 62
     7
100
AcDbVertex
100
AcDb2dVertex
 10
8.6853647099
 20
6.3676600178
 30
0.0
  0
VERTEX
  5
363
330
1D9
100
AcDbEntity
  8
0
  6
CONTINUOUS
 62
     7
100
AcDbVertex
100
AcDb2dVertex
 10
8.6827460107
 20
6.3811070279
 30
0.0
  0
VERTEX
  5
364
330
1D9
100
AcDbEntity
  8
0
  6
CONTINUOUS
 62
     7
100
AcDbVertex
100
AcDb2dVertex
 10
8.6814301222
 20
6.3955328921
 30
0.0
  0
VERTEX
  5
365
330
1D9
100
AcDbEntity
  8
0
  6
CONTINUOUS
 62
     7
100
AcDbVertex
100
AcDb2dVertex
 10
8.6814301222
 20
6.4107942397
 30
0.0
  0
VERTEX
  5
366
330
1D9
100
AcDbEntity
  8
0
  6
CONTINUOUS
 62
     7
100
AcDbVertex
100
AcDb2dVertex
 10
8.6827460107
 20
6.4267393965
 30
0.0
  0
VERTEX
  5
367
330
1D9
100
AcDbEntity
  8
0
  6
CONTINUOUS
 62
     7
100
AcDbVertex
100
AcDb2dVertex
 10
8.6853647099
 20
6.4432098924
 30
0.0
  0
VERTEX
  5
368
330
1D9
100
AcDbEntity
  8
0
  6
CONTINUOUS
 62
     7
100
AcDbVertex
100
AcDb2dVertex
 10
8.6892601939
 20
6.4600420362
 30
0.0
  0
VERTEX
  5
369
330
1D9
100
AcDbEntity
  8
0
  6
CONTINUOUS
 62
     7
100
AcDbVertex
100
AcDb2dVertex
 10
8.6943937477
 20
6.4770685424
 30
0.0
  0
VERTEX
  5
36A
330
1D9
100
AcDbEntity
  8
0
  6
CONTINUOUS
 62
     7
100
AcDbVertex
100
AcDb2dVertex
 10
8.7007143517
 20
6.4941201941
 30
0.0
  0
VERTEX
  5
36B
330
1D9
100
AcDbEntity
  8
0
  6
CONTINUOUS
 62
     7
100
AcDbVertex
100
AcDb2dVertex
 10
8.7081591889
 20
6.5110275242
 30
0.0
  0
VERTEX
  5
36C
330
1D9
100
AcDbEntity
  8
0
  6
CONTINUOUS
 62
     7
100
AcDbVertex
100
AcDb2dVertex
 10
8.7166542691
 20
6.5276225002
 30
0.0
  0
VERTEX
  5
36D
330
1D9
100
AcDbEntity
  8
0
  6
CONTINUOUS
 62
     7
100
AcDbVertex
100
AcDb2dVertex
 10
8.7261151645
 20
6.5437401936
 30
0.0
  0
VERTEX
  5
36E
330
1D9
100
AcDbEntity
  8
0
  6
CONTINUOUS
 62
     7
100
AcDbVertex
100
AcDb2dVertex
 10
8.7364478484
 20
6.5592204196
 30
0.0
  0
VERTEX
  5
36F
330
1D9
100
AcDbEntity
  8
0
  6
CONTINUOUS
 62
     7
100
AcDbVertex
100
AcDb2dVertex
 10
8.74754963
 20
6.5739093288
 30
0.0
  0
VERTEX
  5
370
330
1D9
100
AcDbEntity
  8
0
  6
CONTINUOUS
 62
     7
100
AcDbVertex
100
AcDb2dVertex
 10
8.7593101747
 20
6.5876609362
 30
0.0
  0
VERTEX
  5
371
330
1D9
100
AcDbEntity
  8
0
  6
CONTINUOUS
 62
     7
100
AcDbVertex
100
AcDb2dVertex
 10
8.771612601
 20
6.6003385721
 30
0.0
  0
VERTEX
  5
372
330
1D9
100
AcDbEntity
  8
0
  6
CONTINUOUS
 62
     7
100
AcDbVertex
100
AcDb2dVertex
 10
8.7843346419
 20
6.6118162404
 30
0.0
  0
VERTEX
  5
373
330
1D9
100
AcDbEntity
  8
0
  6
CONTINUOUS
 62
     7
100
AcDbVertex
100
AcDb2dVertex
 10
8.7973498599
 20
6.6219798711
 30
0.0
  0
VERTEX
  5
374
330
1D9
100
AcDbEntity
  8
0
  6
CONTINUOUS
 62
     7
100
AcDbVertex
100
AcDb2dVertex
 10
8.8105289041
 20
6.6307284533
 30
0.0
  0
VERTEX
  5
375
330
1D9
100
AcDbEntity
  8
0
  6
CONTINUOUS
 62
     7
100
AcDbVertex
100
AcDb2dVertex
 10
8.8237407951
 20
6.6379750396
 30
0.0
  0
VERTEX
  5
376
330
1D9
100
AcDbEntity
  8
0
  6
CONTINUOUS
 62
     7
100
AcDbVertex
100
AcDb2dVertex
 10
8.8368542272
 20
6.6436476104
 30
0.0
  0
VERTEX
  5
377
330
1D9
100
AcDbEntity
  8
0
  6
CONTINUOUS
 62
     7
100
AcDbVertex
100
AcDb2dVertex
 10
8.8497388733
 20
6.6476897889
 30
0.0
  0
VERTEX
  5
378
330
1D9
100
AcDbEntity
  8
0
  6
CONTINUOUS
 62
     7
100
AcDbVertex
100
AcDb2dVertex
 10
8.8622666799
 20
6.6500614023
 30
0.0
  0
VERTEX
  5
379
330
1D9
100
AcDbEntity
  8
0
  6
CONTINUOUS
 62
     7
100
AcDbVertex
100
AcDb2dVertex
 10
8.8743131401
 20
6.6507388803
 30
0.0
  0
VERTEX
  5
37A
330
1D9
100
AcDbEntity
  8
0
  6
CONTINUOUS
 62
     7
100
AcDbVertex
100
AcDb2dVertex
 10
8.8857585308
 20
6.6497154899
 30
0.0
  0
VERTEX
  5
37B
330
1D9
100
AcDbEntity
  8
0
  6
CONTINUOUS
 62
     7
100
AcDbVertex
100
AcDb2dVertex
 10
8.8964891024
 20
6.647001402
 30
0.0
  0
VERTEX
  5
37C
330
1D9
100
AcDbEntity
  8
0
  6
CONTINUOUS
 62
     7
100
AcDbVertex
100
AcDb2dVertex
 10
8.9063982099
 20
6.6426235904
 30
0.0
  0
VERTEX
  5
37D
330
1D9
100
AcDbEntity
  8
0
  6
CONTINUOUS
 62
     7
100
AcDbVertex
100
AcDb2dVertex
 10
8.915387372
 20
6.6366255638
 30
0.0
  0
VERTEX
  5
37E
330
1D9
100
AcDbEntity
  8
0
  6
CONTINUOUS
 62
     7
100
AcDbVertex
100
AcDb2dVertex
 10
8.9233672503
 20
6.6290669333
 30
0.0
  0
VERTEX
  5
37F
330
1D9
100
AcDbEntity
  8
0
  6
CONTINUOUS
 62
     7
100
AcDbVertex
100
AcDb2dVertex
 10
8.9302585373
 20
6.6200228198
 30
0.0
  0
VERTEX
  5
380
330
1D9
100
AcDbEntity
  8
0
  6
CONTINUOUS
 62
     7
100
AcDbVertex
100
AcDb2dVertex
 10
8.9359927442
 20
6.609583108
 30
0.0
  0
VERTEX
  5
381
330
1D9
100
AcDbEntity
  8
0
  6
CONTINUOUS
 62
     7
100
AcDbVertex
100
AcDb2dVertex
 10
8.940512882
 20
6.5978515523
 30
0.0
  0
VERTEX
  5
382
330
1D9
100
AcDbEntity
  8
0
  6
CONTINUOUS
 62
     7
100
AcDbVertex
100
AcDb2dVertex
 10
8.9437740275
 20
6.5849447462
 30
0.0
  0
VERTEX
  5
383
330
1D9
100
AcDbEntity
  8
0
  6
CONTINUOUS
 62
     7
100
AcDbVertex
100
AcDb2dVertex
 10
8.9457437699
 20
6.5709909634
 30
0.0
  0
VERTEX
  5
384
330
1D9
100
AcDbEntity
  8
0
  6
CONTINUOUS
 62
     7
100
AcDbVertex
100
AcDb2dVertex
 10
8.9464025331
 20
6.5561288828
 30
0.0
  0
SEQEND
  5
385
330
1D9
100
AcDbEntity
  8
0
  6
CONTINUOUS
 62
     7
  0
SPLINE
  5
1DA
330
1F
100
AcDbEntity
  8
0
  6
CONTINUOUS
 62
     7
100
AcDbSpline
210
0.0
220
0.0
230
1.0
 70
     8
 71
     3
 72
    11
 73
     7
 74
     0
 42
0.00000001
 43
0.00000001
 40
0.0
 40
0.0
 40
0.0
 40
0.0
 40
0.3609244414280837
 40
0.6836885001310492
 40
0.9673583384219804
 40
1.0
 40
1.0
 40
1.0
 40
1.0
 10
8.542815681926882
 20
7.116002346952963
 30
0.0
 10
8.543308130885542
 20
7.110899992215565
 30
0.0
 10
8.54424096239068
 20
7.101234752466919
 30
0.0
 10
8.551551306702807
 20
7.088731946600997
 30
0.0
 10
8.557962960373432
 20
7.080951627730547
 30
0.0
 10
8.562365541284713
 20
7.077902448636705
 30
0.0
 10
8.562819864179186
 20
7.077587789599291
 30
0.0
  0
SPLINE
  5
1DB
330
1F
100
AcDbEntity
  8
0
  6
CONTINUOUS
 62
     7
100
AcDbSpline
210
0.0
220
0.0
230
1.0
 70
     8
 71
     3
 72
     9
 73
     5
 74
     0
 42
0.00000001
 43
0.00000001
 40
0.0
 40
0.0
 40
0.0
 40
0.0
 40
0.4203800879194659
 40
1.0
 40
1.0
 40
1.0
 40
1.0
 10
8.73153474636962
 20
7.096930335939189
 30
0.0
 10
8.733610486052251
 20
7.099557796705374
 30
0.0
 10
8.738548254853114
 20
7.105807999418806
 30
0.0
 10
8.739248700567668
 20
7.112261121500159
 30
0.0
 10
8.739654692851156
 20
7.116001479553598
 30
0.0
  0
ARC
  5
1DC
330
1F
100
AcDbEntity
  8
0
  6
CONTINUOUS
 62
     7
100
AcDbCircle
 10
8.8372262741
 20
6.5674763397
 30
0.0
 40
0.0677075145804927
100
AcDbArc
 50
350.351969618
 51
120.615391097
  0
POLYLINE
  5
1DD
330
1F
100
AcDbEntity
  8
0
  6
CONTINUOUS
 62
     7
100
AcDb2dPolyline
 66
     1
 10
0.0
 20
0.0
 30
0.0
  0
VERTEX
  5
386
330
1DD
100
AcDbEntity
  8
0
  6
CONTINUOUS
 62
     7
100
AcDbVertex
100
AcDb2dVertex
 10
8.6817281449
 20
6.416116262
 30
0.0
  0
VERTEX
  5
387
330
1DD
100
AcDbEntity
  8
0
  6
CONTINUOUS
 62
     7
100
AcDbVertex
100
AcDb2dVertex
 10
8.6819180991
 20
6.4140345846
 30
0.0
  0
VERTEX
  5
388
330
1DD
100
AcDbEntity
  8
0
  6
CONTINUOUS
 62
     7
100
AcDbVertex
100
AcDb2dVertex
 10
8.6838687563
 20
6.4014207464
 30
0.0
  0
VERTEX
  5
389
330
1DD
100
AcDbEntity
  8
0
  6
CONTINUOUS
 62
     7
100
AcDbVertex
100
AcDb2dVertex
 10
8.687094431
 20
6.3898670474
 30
0.0
  0
VERTEX
  5
38A
330
1DD
100
AcDbEntity
  8
0
  6
CONTINUOUS
 62
     7
100
AcDbVertex
100
AcDb2dVertex
 10
8.691557305
 20
6.379508944
 30
0.0
  0
VERTEX
  5
38B
330
1DD
100
AcDbEntity
  8
0
  6
CONTINUOUS
 62
     7
100
AcDbVertex
100
AcDb2dVertex
 10
8.6972050552
 20
6.3704678756
 30
0.0
  0
VERTEX
  5
38C
330
1DD
100
AcDbEntity
  8
0
  6
CONTINUOUS
 62
     7
100
AcDbVertex
100
AcDb2dVertex
 10
8.7039714669
 20
6.3628498404
 30
0.0
  0
VERTEX
  5
38D
330
1DD
100
AcDbEntity
  8
0
  6
CONTINUOUS
 62
     7
100
AcDbVertex
100
AcDb2dVertex
 10
8.7117772102
 20
6.3567441529
 30
0.0
  0
VERTEX
  5
38E
330
1DD
100
AcDbEntity
  8
0
  6
CONTINUOUS
 62
     7
100
AcDbVertex
100
AcDb2dVertex
 10
8.7205307698
 20
6.3522223967
 30
0.0
  0
VERTEX
  5
38F
330
1DD
100
AcDbEntity
  8
0
  6
CONTINUOUS
 62
     7
100
AcDbVertex
100
AcDb2dVertex
 10
8.7301295182
 20
6.3493375853
 30
0.0
  0
VERTEX
  5
390
330
1DD
100
AcDbEntity
  8
0
  6
CONTINUOUS
 62
     7
100
AcDbVertex
100
AcDb2dVertex
 10
8.740460919
 20
6.3481235405
 30
0.0
  0
VERTEX
  5
391
330
1DD
100
AcDbEntity
  8
0
  6
CONTINUOUS
 62
     7
100
AcDbVertex
100
AcDb2dVertex
 10
8.7514038458
 20
6.3485944958
 30
0.0
  0
VERTEX
  5
392
330
1DD
100
AcDbEntity
  8
0
  6
CONTINUOUS
 62
     7
100
AcDbVertex
100
AcDb2dVertex
 10
8.7628300028
 20
6.3507449297
 30
0.0
  0
VERTEX
  5
393
330
1DD
100
AcDbEntity
  8
0
  6
CONTINUOUS
 62
     7
100
AcDbVertex
100
AcDb2dVertex
 10
8.7746054289
 20
6.3545496303
 30
0.0
  0
VERTEX
  5
394
330
1DD
100
AcDbEntity
  8
0
  6
CONTINUOUS
 62
     7
100
AcDbVertex
100
AcDb2dVertex
 10
8.7865920678
 20
6.359963991
 30
0.0
  0
VERTEX
  5
395
330
1DD
100
AcDbEntity
  8
0
  6
CONTINUOUS
 62
     7
100
AcDbVertex
100
AcDb2dVertex
 10
8.7986493873
 20
6.3669245334
 30
0.0
  0
VERTEX
  5
396
330
1DD
100
AcDbEntity
  8
0
  6
CONTINUOUS
 62
     7
100
AcDbVertex
100
AcDb2dVertex
 10
8.8106360263
 20
6.3753496515
 30
0.0
  0
VERTEX
  5
397
330
1DD
100
AcDbEntity
  8
0
  6
CONTINUOUS
 62
     7
100
AcDbVertex
100
AcDb2dVertex
 10
8.8224114524
 20
6.3851405684
 30
0.0
  0
VERTEX
  5
398
330
1DD
100
AcDbEntity
  8
0
  6
CONTINUOUS
 62
     7
100
AcDbVertex
100
AcDb2dVertex
 10
8.8338376094
 20
6.3961824946
 30
0.0
  0
VERTEX
  5
399
330
1DD
100
AcDbEntity
  8
0
  6
CONTINUOUS
 62
     7
100
AcDbVertex
100
AcDb2dVertex
 10
8.8447805362
 20
6.4083459737
 30
0.0
  0
VERTEX
  5
39A
330
1DD
100
AcDbEntity
  8
0
  6
CONTINUOUS
 62
     7
100
AcDbVertex
100
AcDb2dVertex
 10
8.8551119369
 20
6.4214883999
 30
0.0
  0
VERTEX
  5
39B
330
1DD
100
AcDbEntity
  8
0
  6
CONTINUOUS
 62
     7
100
AcDbVertex
100
AcDb2dVertex
 10
8.8647106854
 20
6.4354556903
 30
0.0
  0
VERTEX
  5
39C
330
1DD
100
AcDbEntity
  8
0
  6
CONTINUOUS
 62
     7
100
AcDbVertex
100
AcDb2dVertex
 10
8.873464245
 20
6.4500840913
 30
0.0
  0
VERTEX
  5
39D
330
1DD
100
AcDbEntity
  8
0
  6
CONTINUOUS
 62
     7
100
AcDbVertex
100
AcDb2dVertex
 10
8.8812699882
 20
6.4652020981
 30
0.0
  0
VERTEX
  5
39E
330
1DD
100
AcDbEntity
  8
0
  6
CONTINUOUS
 62
     7
100
AcDbVertex
100
AcDb2dVertex
 10
8.8880364
 20
6.480632466
 30
0.0
  0
VERTEX
  5
39F
330
1DD
100
AcDbEntity
  8
0
  6
CONTINUOUS
 62
     7
100
AcDbVertex
100
AcDb2dVertex
 10
8.8936841502
 20
6.4961942881
 30
0.0
  0
VERTEX
  5
3A0
330
1DD
100
AcDbEntity
  8
0
  6
CONTINUOUS
 62
     7
100
AcDbVertex
100
AcDb2dVertex
 10
8.8981470242
 20
6.5117051161
 30
0.0
  0
VERTEX
  5
3A1
330
1DD
100
AcDbEntity
  8
0
  6
CONTINUOUS
 62
     7
100
AcDbVertex
100
AcDb2dVertex
 10
8.9013726989
 20
6.5269830998
 30
0.0
  0
VERTEX
  5
3A2
330
1DD
100
AcDbEntity
  8
0
  6
CONTINUOUS
 62
     7
100
AcDbVertex
100
AcDb2dVertex
 10
8.9033233561
 20
6.5418491189
 30
0.0
  0
VERTEX
  5
3A3
330
1DD
100
AcDbEntity
  8
0
  6
CONTINUOUS
 62
     7
100
AcDbVertex
100
AcDb2dVertex
 10
8.9039761262
 20
6.5561288828
 30
0.0
  0
SEQEND
  5
3A4
330
1DD
100
AcDbEntity
  8
0
  6
CONTINUOUS
 62
     7
  0
SPLINE
  5
1DE
330
1F
100
AcDbEntity
  8
0
  6
CONTINUOUS
 62
     7
100
AcDbSpline
210
0.0
220
0.0
230
1.0
 70
     8
 71
     3
 72
    20
 73
    16
 74
     0
 42
0.00000001
 43
0.00000001
 40
0.0
 40
0.0
 40
0.0
 40
0.0
 40
0.0516609848462533
 40
0.1450149035456988
 40
0.2217228436503902
 40
0.3008560800494601
 40
0.3748388939386054
 40
0.4506086162410909
 40
0.5321874085958529
 40
0.6155829269303963
 40
0.7087411449261352
 40
0.8045446739554055
 40
0.8781507254014876
 40
0.953726633283167
 40
1.0
 40
1.0
 40
1.0
 40
1.0
 10
8.815710729530576
 20
6.63029817756249
 30
0.0
 10
8.816942259662078
 20
6.62765600029667
 30
0.0
 10
8.820399224792826
 20
6.620239279874212
 30
0.0
 10
8.822392243292597
 20
6.608495362261348
 30
0.0
 10
8.822106925762586
 20
6.595625441373583
 30
0.0
 10
8.819245271582702
 20
6.584305261326693
 30
0.0
 10
8.814179655380471
 20
6.573937993557471
 30
0.0
 10
8.807118158263325
 20
6.564588477408535
 30
0.0
 10
8.798012442971705
 20
6.556299617307076
 30
0.0
 10
8.786701588177708
 20
6.549227334571386
 30
0.0
 10
8.773493734616231
 20
6.544048684433692
 30
0.0
 10
8.759967288080535
 20
6.541698064089376
 30
0.0
 10
8.747319982381683
 20
6.542218742432998
 30
0.0
 10
8.737395627339339
 20
6.5443447903785
 30
0.0
 10
8.731863573195165
 20
6.547356312165357
 30
0.0
 10
8.729762725480196
 20
6.548499964866435
 30
0.0
  0
ARC
  5
1DF
330
1F
100
AcDbEntity
  8
0
  6
CONTINUOUS
 62
     7
100
AcDbCircle
 10
8.0762172377
 20
6.9054157111
 30
0.0
 40
1.009915877562063
100
AcDbArc
 50
122.5281707158
 51
177.4772058169
  0
SPLINE
  5
1E0
330
1F
100
AcDbEntity
  8
0
  6
CONTINUOUS
 62
     7
100
AcDbSpline
210
0.0
220
0.0
230
1.0
 70
     8
 71
     3
 72
    11
 73
     7
 74
     0
 42
0.00000001
 43
0.00000001
 40
0.0
 40
0.0
 40
0.0
 40
0.0
 40
0.3609244414244215
 40
0.6836885001257873
 40
0.9673583384171831
 40
1.0
 40
1.0
 40
1.0
 40
1.0
 10
7.607430333585623
 20
7.655988814615228
 30
0.0
 10
7.607922782544276
 20
7.650886459877873
 30
0.0
 10
7.6088556140494
 20
7.641221220129285
 30
0.0
 10
7.616165958361456
 20
7.62871841426339
 30
0.0
 10
7.622577612032112
 20
7.620938095392881
 30
0.0
 10
7.626980192943474
 20
7.617888916298979
 30
0.0
 10
7.627434515838015
 20
7.617574257261517
 30
0.0
  0
SPLINE
  5
1E1
330
1F
100
AcDbEntity
  8
0
  6
CONTINUOUS
 62
     7
100
AcDbSpline
210
0.0
220
0.0
230
1.0
 70
     8
 71
     3
 72
     9
 73
     5
 74
     0
 42
0.00000001
 43
0.00000001
 40
0.0
 40
0.0
 40
0.0
 40
0.0
 40
0.420380087918666
 40
1.0
 40
1.0
 40
1.0
 40
1.0
 10
7.796149398028373
 20
7.636916803601469
 30
0.0
 10
7.798225137710999
 20
7.639544264367649
 30
0.0
 10
7.803162906511856
 20
7.645794467081075
 30
0.0
 10
7.80386335222641
 20
7.652247589162423
 30
0.0
 10
7.804269344509897
 20
7.655987947215864
 30
0.0
  0
POLYLINE
  5
1E2
330
1F
100
AcDbEntity
  8
0
  6
CONTINUOUS
 62
     7
100
AcDb2dPolyline
 66
     1
 10
0.0
 20
0.0
 30
0.0
  0
VERTEX
  5
3A5
330
1E2
100
AcDbEntity
  8
0
  6
CONTINUOUS
 62
     7
100
AcDbVertex
100
AcDb2dVertex
 10
8.8080434503
 20
6.6115096378
 30
0.0
  0
VERTEX
  5
3A6
330
1E2
100
AcDbEntity
  8
0
  6
CONTINUOUS
 62
     7
100
AcDbVertex
100
AcDb2dVertex
 10
8.8073935413
 20
6.6216600815
 30
0.0
  0
VERTEX
  5
3A7
330
1E2
100
AcDbEntity
  8
0
  6
CONTINUOUS
 62
     7
100
AcDbVertex
100
AcDb2dVertex
 10
8.8064931457
 20
6.6274405298
 30
0.0
  0
SEQEND
  5
3A8
330
1E2
100
AcDbEntity
  8
0
  6
CONTINUOUS
 62
     7
  0
POLYLINE
  5
1E3
330
1F
100
AcDbEntity
  8
0
  6
CONTINUOUS
 62
     7
100
AcDb2dPolyline
 66
     1
 10
0.0
 20
0.0
 30
0.0
  0
VERTEX
  5
3A9
330
1E3
100
AcDbEntity
  8
0
  6
CONTINUOUS
 62
     7
100
AcDbVertex
100
AcDb2dVertex
 10
8.7525794488
 20
6.5794909512
 30
0.0
  0
VERTEX
  5
3AA
330
1E3
100
AcDbEntity
  8
0
  6
CONTINUOUS
 62
     7
100
AcDbVertex
100
AcDb2dVertex
 10
8.7547125394
 20
6.5783065352
 30
0.0
  0
VERTEX
  5
3AB
330
1E3
100
AcDbEntity
  8
0
  6
CONTINUOUS
 62
     7
100
AcDbVertex
100
AcDb2dVertex
 10
8.7631465986
 20
6.5745620158
 30
0.0
  0
VERTEX
  5
3AC
330
1E3
100
AcDbEntity
  8
0
  6
CONTINUOUS
 62
     7
100
AcDbVertex
100
AcDb2dVertex
 10
8.7713331839
 20
6.5724338863
 30
0.0
  0
VERTEX
  5
3AD
330
1E3
100
AcDbEntity
  8
0
  6
CONTINUOUS
 62
     7
100
AcDbVertex
100
AcDb2dVertex
 10
8.7790804088
 20
6.5719720282
 30
0.0
  0
VERTEX
  5
3AE
330
1E3
100
AcDbEntity
  8
0
  6
CONTINUOUS
 62
     7
100
AcDbVertex
100
AcDb2dVertex
 10
8.786206685
 20
6.5731872671
 30
0.0
  0
VERTEX
  5
3AF
330
1E3
100
AcDbEntity
  8
0
  6
CONTINUOUS
 62
     7
100
AcDbVertex
100
AcDb2dVertex
 10
8.7925449785
 20
6.5760511188
 30
0.0
  0
VERTEX
  5
3B0
330
1E3
100
AcDbEntity
  8
0
  6
CONTINUOUS
 62
     7
100
AcDbVertex
100
AcDb2dVertex
 10
8.7979467251
 20
6.580496457
 30
0.0
  0
VERTEX
  5
3B1
330
1E3
100
AcDbEntity
  8
0
  6
CONTINUOUS
 62
     7
100
AcDbVertex
100
AcDb2dVertex
 10
8.8022853124
 20
6.5864190868
 30
0.0
  0
VERTEX
  5
3B2
330
1E3
100
AcDbEntity
  8
0
  6
CONTINUOUS
 62
     7
100
AcDbVertex
100
AcDb2dVertex
 10
8.8054590477
 20
6.5936801868
 30
0.0
  0
VERTEX
  5
3B3
330
1E3
100
AcDbEntity
  8
0
  6
CONTINUOUS
 62
     7
100
AcDbVertex
100
AcDb2dVertex
 10
8.8073935413
 20
6.6021095629
 30
0.0
  0
VERTEX
  5
3B4
330
1E3
100
AcDbEntity
  8
0
  6
CONTINUOUS
 62
     7
100
AcDbVertex
100
AcDb2dVertex
 10
8.8080434503
 20
6.6115096378
 30
0.0
  0
SEQEND
  5
3B5
330
1E3
100
AcDbEntity
  8
0
  6
CONTINUOUS
 62
     7
  0
ARC
  5
1E4
330
1F
100
AcDbEntity
  8
0
  6
CONTINUOUS
 62
     7
100
AcDbCircle
 10
8.7982782479
 20
6.6208144962
 30
0.0
 40
0.0586951833435306
100
AcDbArc
 50
237.4744602103
 51
277.1078684002
  0
ARC
  5
1E5
330
1F
100
AcDbEntity
  8
0
  6
CONTINUOUS
 62
     7
100
AcDbCircle
 10
7.7600341486
 20
7.6654709054
 30
0.0
 40
0.0430306645004733
100
AcDbArc
 50
290.9855661758
 51
68.9983055364
  0
POLYLINE
  5
1E6
330
1F
100
AcDbEntity
  8
0
  6
CONTINUOUS
 62
     7
100
AcDb2dPolyline
 66
     1
 10
0.0
 20
0.0
 30
0.0
  0
VERTEX
  5
3B6
330
1E6
100
AcDbEntity
  8
0
  6
CONTINUOUS
 62
     7
100
AcDbVertex
100
AcDb2dVertex
 10
7.636239282
 20
7.7056430355
 30
0.0
  0
VERTEX
  5
3B7
330
1E6
100
AcDbEntity
  8
0
  6
CONTINUOUS
 62
     7
100
AcDbVertex
100
AcDb2dVertex
 10
7.6274220149
 20
7.6998045046
 30
0.0
  0
VERTEX
  5
3B8
330
1E6
100
AcDbEntity
  8
0
  6
CONTINUOUS
 62
     7
100
AcDbVertex
100
AcDb2dVertex
 10
7.6200543615
 20
7.6933198946
 30
0.0
  0
VERTEX
  5
3B9
330
1E6
100
AcDbEntity
  8
0
  6
CONTINUOUS
 62
     7
100
AcDbVertex
100
AcDb2dVertex
 10
7.6142848759
 20
7.6863165311
 30
0.0
  0
VERTEX
  5
3BA
330
1E6
100
AcDbEntity
  8
0
  6
CONTINUOUS
 62
     7
100
AcDbVertex
100
AcDb2dVertex
 10
7.6102210328
 20
7.6789248734
 30
0.0
  0
VERTEX
  5
3BB
330
1E6
100
AcDbEntity
  8
0
  6
CONTINUOUS
 62
     7
100
AcDbVertex
100
AcDb2dVertex
 10
7.6079385338
 20
7.6712826142
 30
0.0
  0
VERTEX
  5
3BC
330
1E6
100
AcDbEntity
  8
0
  6
CONTINUOUS
 62
     7
100
AcDbVertex
100
AcDb2dVertex
 10
7.6074798977
 20
7.6635321142
 30
0.0
  0
VERTEX
  5
3BD
330
1E6
100
AcDbEntity
  8
0
  6
CONTINUOUS
 62
     7
100
AcDbVertex
100
AcDb2dVertex
 10
7.6088536678
 20
7.6558177506
 30
0.0
  0
VERTEX
  5
3BE
330
1E6
100
AcDbEntity
  8
0
  6
CONTINUOUS
 62
     7
100
AcDbVertex
100
AcDb2dVertex
 10
7.6120342535
 20
7.6482832274
 30
0.0
  0
VERTEX
  5
3BF
330
1E6
100
AcDbEntity
  8
0
  6
CONTINUOUS
 62
     7
100
AcDbVertex
100
AcDb2dVertex
 10
7.6169624065
 20
7.6410688986
 30
0.0
  0
VERTEX
  5
3C0
330
1E6
100
AcDbEntity
  8
0
  6
CONTINUOUS
 62
     7
100
AcDbVertex
100
AcDb2dVertex
 10
7.6235463246
 20
7.6343091533
 30
0.0
  0
VERTEX
  5
3C1
330
1E6
100
AcDbEntity
  8
0
  6
CONTINUOUS
 62
     7
100
AcDbVertex
100
AcDb2dVertex
 10
7.6316633619
 20
7.6281299129
 30
0.0
  0
VERTEX
  5
3C2
330
1E6
100
AcDbEntity
  8
0
  6
CONTINUOUS
 62
     7
100
AcDbVertex
100
AcDb2dVertex
 10
7.6411623134
 20
7.622646285
 30
0.0
  0
VERTEX
  5
3C3
330
1E6
100
AcDbEntity
  8
0
  6
CONTINUOUS
 62
     7
100
AcDbVertex
100
AcDb2dVertex
 10
7.6518662314
 20
7.6179604191
 30
0.0
  0
VERTEX
  5
3C4
330
1E6
100
AcDbEntity
  8
0
  6
CONTINUOUS
 62
     7
100
AcDbVertex
100
AcDb2dVertex
 10
7.6635757224
 20
7.6141596041
 30
0.0
  0
VERTEX
  5
3C5
330
1E6
100
AcDbEntity
  8
0
  6
CONTINUOUS
 62
     7
100
AcDbVertex
100
AcDb2dVertex
 10
7.6760726606
 20
7.6113146419
 30
0.0
  0
VERTEX
  5
3C6
330
1E6
100
AcDbEntity
  8
0
  6
CONTINUOUS
 62
     7
100
AcDbVertex
100
AcDb2dVertex
 10
7.6891242517
 20
7.6094785289
 30
0.0
  0
VERTEX
  5
3C7
330
1E6
100
AcDbEntity
  8
0
  6
CONTINUOUS
 62
     7
100
AcDbVertex
100
AcDb2dVertex
 10
7.7024873693
 20
7.6086854682
 30
0.0
  0
VERTEX
  5
3C8
330
1E6
100
AcDbEntity
  8
0
  6
CONTINUOUS
 62
     7
100
AcDbVertex
100
AcDb2dVertex
 10
7.7159130838
 20
7.6089502333
 30
0.0
  0
VERTEX
  5
3C9
330
1E6
100
AcDbEntity
  8
0
  6
CONTINUOUS
 62
     7
100
AcDbVertex
100
AcDb2dVertex
 10
7.7256377608
 20
7.609812742
 30
0.0
  0
SEQEND
  5
3CA
330
1E6
100
AcDbEntity
  8
0
  6
CONTINUOUS
 62
     7
  0
POLYLINE
  5
1E7
330
1F
100
AcDbEntity
  8
0
  6
CONTINUOUS
 62
     7
100
AcDb2dPolyline
 66
     1
 10
0.0
 20
0.0
 30
0.0
  0
VERTEX
  5
3CB
330
1E7
100
AcDbEntity
  8
0
  6
CONTINUOUS
 62
     7
100
AcDbVertex
100
AcDb2dVertex
 10
7.7613027033
 20
7.6497893331
 30
0.0
  0
VERTEX
  5
3CC
330
1E7
100
AcDbEntity
  8
0
  6
CONTINUOUS
 62
     7
100
AcDbVertex
100
AcDb2dVertex
 10
7.7521876301
 20
7.6452776823
 30
0.0
  0
VERTEX
  5
3CD
330
1E7
100
AcDbEntity
  8
0
  6
CONTINUOUS
 62
     7
100
AcDbVertex
100
AcDb2dVertex
 10
7.7419863885
 20
7.6416221496
 30
0.0
  0
VERTEX
  5
3CE
330
1E7
100
AcDbEntity
  8
0
  6
CONTINUOUS
 62
     7
100
AcDbVertex
100
AcDb2dVertex
 10
7.730938087
 20
7.6389084177
 30
0.0
  0
VERTEX
  5
3CF
330
1E7
100
AcDbEntity
  8
0
  6
CONTINUOUS
 62
     7
100
AcDbVertex
100
AcDb2dVertex
 10
7.7193016884
 20
7.6372000941
 30
0.0
  0
VERTEX
  5
3D0
330
1E7
100
AcDbEntity
  8
0
  6
CONTINUOUS
 62
     7
100
AcDbVertex
100
AcDb2dVertex
 10
7.7073499402
 20
7.6365372206
 30
0.0
  0
VERTEX
  5
3D1
330
1E7
100
AcDbEntity
  8
0
  6
CONTINUOUS
 62
     7
100
AcDbVertex
100
AcDb2dVertex
 10
7.695362981
 20
7.6369353343
 30
0.0
  0
VERTEX
  5
3D2
330
1E7
100
AcDbEntity
  8
0
  6
CONTINUOUS
 62
     7
100
AcDbVertex
100
AcDb2dVertex
 10
7.6836217751
 20
7.6383851037
 30
0.0
  0
VERTEX
  5
3D3
330
1E7
100
AcDbEntity
  8
0
  6
CONTINUOUS
 62
     7
100
AcDbVertex
100
AcDb2dVertex
 10
7.6724015264
 20
7.6408525475
 30
0.0
  0
VERTEX
  5
3D4
330
1E7
100
AcDbEntity
  8
0
  6
CONTINUOUS
 62
     7
100
AcDbVertex
100
AcDb2dVertex
 10
7.661965228
 20
7.6442798309
 30
0.0
  0
VERTEX
  5
3D5
330
1E7
100
AcDbEntity
  8
0
  6
CONTINUOUS
 62
     7
100
AcDbVertex
100
AcDb2dVertex
 10
7.6525574979
 20
7.6485866213
 30
0.0
  0
VERTEX
  5
3D6
330
1E7
100
AcDbEntity
  8
0
  6
CONTINUOUS
 62
     7
100
AcDbVertex
100
AcDb2dVertex
 10
7.6443988453
 20
7.6536719712
 30
0.0
  0
VERTEX
  5
3D7
330
1E7
100
AcDbEntity
  8
0
  6
CONTINUOUS
 62
     7
100
AcDbVertex
100
AcDb2dVertex
 10
7.6376805022
 20
7.6594166842
 30
0.0
  0
VERTEX
  5
3D8
330
1E7
100
AcDbEntity
  8
0
  6
CONTINUOUS
 62
     7
100
AcDbVertex
100
AcDb2dVertex
 10
7.6325599407
 20
7.6656861092
 30
0.0
  0
VERTEX
  5
3D9
330
1E7
100
AcDbEntity
  8
0
  6
CONTINUOUS
 62
     7
100
AcDbVertex
100
AcDb2dVertex
 10
7.6291571825
 20
7.6723332962
 30
0.0
  0
VERTEX
  5
3DA
330
1E7
100
AcDbEntity
  8
0
  6
CONTINUOUS
 62
     7
100
AcDbVertex
100
AcDb2dVertex
 10
7.6275519854
 20
7.6792024407
 30
0.0
  0
VERTEX
  5
3DB
330
1E7
100
AcDbEntity
  8
0
  6
CONTINUOUS
 62
     7
100
AcDbVertex
100
AcDb2dVertex
 10
7.6277819739
 20
7.6861325358
 30
0.0
  0
VERTEX
  5
3DC
330
1E7
100
AcDbEntity
  8
0
  6
CONTINUOUS
 62
     7
100
AcDbVertex
100
AcDb2dVertex
 10
7.6298417572
 20
7.6929611459
 30
0.0
  0
VERTEX
  5
3DD
330
1E7
100
AcDbEntity
  8
0
  6
CONTINUOUS
 62
     7
100
AcDbVertex
100
AcDb2dVertex
 10
7.6336830556
 20
7.6995282143
 30
0.0
  0
VERTEX
  5
3DE
330
1E7
100
AcDbEntity
  8
0
  6
CONTINUOUS
 62
     7
100
AcDbVertex
100
AcDb2dVertex
 10
7.6392158326
 20
7.7056798144
 30
0.0
  0
VERTEX
  5
3DF
330
1E7
100
AcDbEntity
  8
0
  6
CONTINUOUS
 62
     7
100
AcDbVertex
100
AcDb2dVertex
 10
7.6463104043
 20
7.7112717579
 30
0.0
  0
VERTEX
  5
3E0
330
1E7
100
AcDbEntity
  8
0
  6
CONTINUOUS
 62
     7
100
AcDbVertex
100
AcDb2dVertex
 10
7.6548004802
 20
7.7161729743
 30
0.0
  0
VERTEX
  5
3E1
330
1E7
100
AcDbEntity
  8
0
  6
CONTINUOUS
 62
     7
100
AcDbVertex
100
AcDb2dVertex
 10
7.66448706
 20
7.7202685834
 30
0.0
  0
VERTEX
  5
3E2
330
1E7
100
AcDbEntity
  8
0
  6
CONTINUOUS
 62
     7
100
AcDbVertex
100
AcDb2dVertex
 10
7.6751430985
 20
7.7234625876
 30
0.0
  0
VERTEX
  5
3E3
330
1E7
100
AcDbEntity
  8
0
  6
CONTINUOUS
 62
     7
100
AcDbVertex
100
AcDb2dVertex
 10
7.6865188271
 20
7.725680122
 30
0.0
  0
VERTEX
  5
3E4
330
1E7
100
AcDbEntity
  8
0
  6
CONTINUOUS
 62
     7
100
AcDbVertex
100
AcDb2dVertex
 10
7.6983476086
 20
7.7268692096
 30
0.0
  0
VERTEX
  5
3E5
330
1E7
100
AcDbEntity
  8
0
  6
CONTINUOUS
 62
     7
100
AcDbVertex
100
AcDb2dVertex
 10
7.7103521861
 20
7.7270019791
 30
0.0
  0
VERTEX
  5
3E6
330
1E7
100
AcDbEntity
  8
0
  6
CONTINUOUS
 62
     7
100
AcDbVertex
100
AcDb2dVertex
 10
7.7222511827
 20
7.7260753185
 30
0.0
  0
VERTEX
  5
3E7
330
1E7
100
AcDbEntity
  8
0
  6
CONTINUOUS
 62
     7
100
AcDbVertex
100
AcDb2dVertex
 10
7.7337656958
 20
7.724110948
 30
0.0
  0
VERTEX
  5
3E8
330
1E7
100
AcDbEntity
  8
0
  6
CONTINUOUS
 62
     7
100
AcDbVertex
100
AcDb2dVertex
 10
7.7446258352
 20
7.7211549108
 30
0.0
  0
VERTEX
  5
3E9
330
1E7
100
AcDbEntity
  8
0
  6
CONTINUOUS
 62
     7
100
AcDbVertex
100
AcDb2dVertex
 10
7.7545770483
 20
7.7172764939
 30
0.0
  0
VERTEX
  5
3EA
330
1E7
100
AcDbEntity
  8
0
  6
CONTINUOUS
 62
     7
100
AcDbVertex
100
AcDb2dVertex
 10
7.7633860871
 20
7.712566604
 30
0.0
  0
VERTEX
  5
3EB
330
1E7
100
AcDbEntity
  8
0
  6
CONTINUOUS
 62
     7
100
AcDbVertex
100
AcDb2dVertex
 10
7.7708464752
 20
7.707135637
 30
0.0
  0
VERTEX
  5
3EC
330
1E7
100
AcDbEntity
  8
0
  6
CONTINUOUS
 62
     7
100
AcDbVertex
100
AcDb2dVertex
 10
7.7767833475
 20
7.7011108902
 30
0.0
  0
VERTEX
  5
3ED
330
1E7
100
AcDbEntity
  8
0
  6
CONTINUOUS
 62
     7
100
AcDbVertex
100
AcDb2dVertex
 10
7.7810575487
 20
7.6946335785
 30
0.0
  0
VERTEX
  5
3EE
330
1E7
100
AcDbEntity
  8
0
  6
CONTINUOUS
 62
     7
100
AcDbVertex
100
AcDb2dVertex
 10
7.7835688951
 20
7.6878555246
 30
0.0
  0
VERTEX
  5
3EF
330
1E7
100
AcDbEntity
  8
0
  6
CONTINUOUS
 62
     7
100
AcDbVertex
100
AcDb2dVertex
 10
7.7842585229
 20
7.6809356004
 30
0.0
  0
VERTEX
  5
3F0
330
1E7
100
AcDbEntity
  8
0
  6
CONTINUOUS
 62
     7
100
AcDbVertex
100
AcDb2dVertex
 10
7.7831102678
 20
7.6740360029
 30
0.0
  0
VERTEX
  5
3F1
330
1E7
100
AcDbEntity
  8
0
  6
CONTINUOUS
 62
     7
100
AcDbVertex
100
AcDb2dVertex
 10
7.780151044
 20
7.6673184531
 30
0.0
  0
VERTEX
  5
3F2
330
1E7
100
AcDbEntity
  8
0
  6
CONTINUOUS
 62
     7
100
AcDbVertex
100
AcDb2dVertex
 10
7.7754502131
 20
7.6609404044
 30
0.0
  0
VERTEX
  5
3F3
330
1E7
100
AcDbEntity
  8
0
  6
CONTINUOUS
 62
     7
100
AcDbVertex
100
AcDb2dVertex
 10
7.7691179587
 20
7.6550513529
 30
0.0
  0
VERTEX
  5
3F4
330
1E7
100
AcDbEntity
  8
0
  6
CONTINUOUS
 62
     7
100
AcDbVertex
100
AcDb2dVertex
 10
7.7613027033
 20
7.6497893331
 30
0.0
  0
SEQEND
  5
3F5
330
1E7
100
AcDbEntity
  8
0
  6
CONTINUOUS
 62
     7
  0
LINE
  5
1E8
330
1F
100
AcDbEntity
  8
0
  6
CONTINUOUS
 62
     7
100
AcDbLine
 10
7.639986029
 20
7.6919905509
 30
0.0
 11
7.6882001293
 21
7.7198239585
 31
0.0
  0
LINE
  5
1E9
330
1F
100
AcDbEntity
  8
0
  6
CONTINUOUS
 62
     7
100
AcDbLine
 10
7.6576336145
 20
7.6539694089
 30
0.0
 11
7.639986029
 21
7.6919905509
 31
0.0
  0
LINE
  5
1EA
330
1F
100
AcDbEntity
  8
0
  6
CONTINUOUS
 62
     7
100
AcDbLine
 10
7.7234953004
 20
7.6437816746
 30
0.0
 11
7.6576336145
 21
7.6539694089
 31
0.0
  0
LINE
  5
1EB
330
1F
100
AcDbEntity
  8
0
  6
CONTINUOUS
 62
     7
100
AcDbLine
 10
7.7717094007
 20
7.6716150823
 30
0.0
 11
7.7234953004
 21
7.6437816746
 31
0.0
  0
LINE
  5
1EC
330
1F
100
AcDbEntity
  8
0
  6
CONTINUOUS
 62
     7
100
AcDbLine
 10
7.7540618152
 20
7.7096362243
 30
0.0
 11
7.7717094007
 21
7.6716150823
 31
0.0
  0
LINE
  5
1ED
330
1F
100
AcDbEntity
  8
0
  6
CONTINUOUS
 62
     7
100
AcDbLine
 10
7.6882001293
 20
7.7198239585
 30
0.0
 11
7.7540618152
 21
7.7096362243
 31
0.0
  0
LINE
  5
1EE
330
1F
100
AcDbEntity
  8
0
  6
CONTINUOUS
 62
     7
100
AcDbLine
 10
7.7540618152
 20
7.661427348
 30
0.0
 11
7.7540618152
 21
7.7096362243
 31
0.0
  0
LINE
  5
1EF
330
1F
100
AcDbEntity
  8
0
  6
CONTINUOUS
 62
     7
100
AcDbLine
 10
7.6882001293
 20
7.649241265
 30
0.0
 11
7.6882001293
 21
7.7198239585
 31
0.0
  0
POLYLINE
  5
1F0
330
1F
100
AcDbEntity
  8
0
  6
CONTINUOUS
 62
     7
100
AcDb2dPolyline
 66
     1
 10
0.0
 20
0.0
 30
0.0
  0
VERTEX
  5
3F6
330
1F0
100
AcDbEntity
  8
0
  6
CONTINUOUS
 62
     7
100
AcDbVertex
100
AcDb2dVertex
 10
8.710841496
 20
7.1656565678
 30
0.0
  0
VERTEX
  5
3F7
330
1F0
100
AcDbEntity
  8
0
  6
CONTINUOUS
 62
     7
100
AcDbVertex
100
AcDb2dVertex
 10
8.7154174161
 20
7.1628276201
 30
0.0
  0
VERTEX
  5
3F8
330
1F0
100
AcDbEntity
  8
0
  6
CONTINUOUS
 62
     7
100
AcDbVertex
100
AcDb2dVertex
 10
8.7235344534
 20
7.1566483797
 30
0.0
  0
VERTEX
  5
3F9
330
1F0
100
AcDbEntity
  8
0
  6
CONTINUOUS
 62
     7
100
AcDbVertex
100
AcDb2dVertex
 10
8.7301183715
 20
7.1498886345
 30
0.0
  0
VERTEX
  5
3FA
330
1F0
100
AcDbEntity
  8
0
  6
CONTINUOUS
 62
     7
100
AcDbVertex
100
AcDb2dVertex
 10
8.7350465245
 20
7.1426743056
 30
0.0
  0
VERTEX
  5
3FB
330
1F0
100
AcDbEntity
  8
0
  6
CONTINUOUS
 62
     7
100
AcDbVertex
100
AcDb2dVertex
 10
8.7382271102
 20
7.1351397824
 30
0.0
  0
VERTEX
  5
3FC
330
1F0
100
AcDbEntity
  8
0
  6
CONTINUOUS
 62
     7
100
AcDbVertex
100
AcDb2dVertex
 10
8.7396008803
 20
7.1274254188
 30
0.0
  0
VERTEX
  5
3FD
330
1F0
100
AcDbEntity
  8
0
  6
CONTINUOUS
 62
     7
100
AcDbVertex
100
AcDb2dVertex
 10
8.7391422442
 20
7.1196749189
 30
0.0
  0
VERTEX
  5
3FE
330
1F0
100
AcDbEntity
  8
0
  6
CONTINUOUS
 62
     7
100
AcDbVertex
100
AcDb2dVertex
 10
8.7368597452
 20
7.1120326596
 30
0.0
  0
VERTEX
  5
3FF
330
1F0
100
AcDbEntity
  8
0
  6
CONTINUOUS
 62
     7
100
AcDbVertex
100
AcDb2dVertex
 10
8.7327959021
 20
7.1046410019
 30
0.0
  0
VERTEX
  5
400
330
1F0
100
AcDbEntity
  8
0
  6
CONTINUOUS
 62
     7
100
AcDbVertex
100
AcDb2dVertex
 10
8.7270264165
 20
7.0976376384
 30
0.0
  0
VERTEX
  5
401
330
1F0
100
AcDbEntity
  8
0
  6
CONTINUOUS
 62
     7
100
AcDbVertex
100
AcDb2dVertex
 10
8.7196587631
 20
7.0911530285
 30
0.0
  0
VERTEX
  5
402
330
1F0
100
AcDbEntity
  8
0
  6
CONTINUOUS
 62
     7
100
AcDbVertex
100
AcDb2dVertex
 10
8.7108301873
 20
7.0853079681
 30
0.0
  0
VERTEX
  5
403
330
1F0
100
AcDbEntity
  8
0
  6
CONTINUOUS
 62
     7
100
AcDbVertex
100
AcDb2dVertex
 10
8.7064991649
 20
7.0829544493
 30
0.0
  0
SEQEND
  5
404
330
1F0
100
AcDbEntity
  8
0
  6
CONTINUOUS
 62
     7
  0
POLYLINE
  5
1F1
330
1F
100
AcDbEntity
  8
0
  6
CONTINUOUS
 62
     7
100
AcDb2dPolyline
 66
     1
 10
0.0
 20
0.0
 30
0.0
  0
VERTEX
  5
405
330
1F1
100
AcDbEntity
  8
0
  6
CONTINUOUS
 62
     7
100
AcDbVertex
100
AcDb2dVertex
 10
8.6675073758
 20
7.0707277928
 30
0.0
  0
VERTEX
  5
406
330
1F1
100
AcDbEntity
  8
0
  6
CONTINUOUS
 62
     7
100
AcDbVertex
100
AcDb2dVertex
 10
8.6645366479
 20
7.0702814242
 30
0.0
  0
VERTEX
  5
407
330
1F1
100
AcDbEntity
  8
0
  6
CONTINUOUS
 62
     7
100
AcDbVertex
100
AcDb2dVertex
 10
8.6512984322
 20
7.0689637656
 30
0.0
  0
VERTEX
  5
408
330
1F1
100
AcDbEntity
  8
0
  6
CONTINUOUS
 62
     7
100
AcDbVertex
100
AcDb2dVertex
 10
8.6378727177
 20
7.0686990006
 30
0.0
  0
VERTEX
  5
409
330
1F1
100
AcDbEntity
  8
0
  6
CONTINUOUS
 62
     7
100
AcDbVertex
100
AcDb2dVertex
 10
8.6245096001
 20
7.0694920612
 30
0.0
  0
VERTEX
  5
40A
330
1F1
100
AcDbEntity
  8
0
  6
CONTINUOUS
 62
     7
100
AcDbVertex
100
AcDb2dVertex
 10
8.611458009
 20
7.0713281743
 30
0.0
  0
VERTEX
  5
40B
330
1F1
100
AcDbEntity
  8
0
  6
CONTINUOUS
 62
     7
100
AcDbVertex
100
AcDb2dVertex
 10
8.5989610707
 20
7.0741731364
 30
0.0
  0
VERTEX
  5
40C
330
1F1
100
AcDbEntity
  8
0
  6
CONTINUOUS
 62
     7
100
AcDbVertex
100
AcDb2dVertex
 10
8.5872515798
 20
7.0779739514
 30
0.0
  0
VERTEX
  5
40D
330
1F1
100
AcDbEntity
  8
0
  6
CONTINUOUS
 62
     7
100
AcDbVertex
100
AcDb2dVertex
 10
8.5765476617
 20
7.0826598173
 30
0.0
  0
VERTEX
  5
40E
330
1F1
100
AcDbEntity
  8
0
  6
CONTINUOUS
 62
     7
100
AcDbVertex
100
AcDb2dVertex
 10
8.5670487103
 20
7.0881434453
 30
0.0
  0
VERTEX
  5
40F
330
1F1
100
AcDbEntity
  8
0
  6
CONTINUOUS
 62
     7
100
AcDbVertex
100
AcDb2dVertex
 10
8.558931673
 20
7.0943226856
 30
0.0
  0
VERTEX
  5
410
330
1F1
100
AcDbEntity
  8
0
  6
CONTINUOUS
 62
     7
100
AcDbVertex
100
AcDb2dVertex
 10
8.5523477549
 20
7.1010824309
 30
0.0
  0
VERTEX
  5
411
330
1F1
100
AcDbEntity
  8
0
  6
CONTINUOUS
 62
     7
100
AcDbVertex
100
AcDb2dVertex
 10
8.5474196019
 20
7.1082967598
 30
0.0
  0
VERTEX
  5
412
330
1F1
100
AcDbEntity
  8
0
  6
CONTINUOUS
 62
     7
100
AcDbVertex
100
AcDb2dVertex
 10
8.5442390162
 20
7.1158312829
 30
0.0
  0
VERTEX
  5
413
330
1F1
100
AcDbEntity
  8
0
  6
CONTINUOUS
 62
     7
100
AcDbVertex
100
AcDb2dVertex
 10
8.542865246
 20
7.1235456465
 30
0.0
  0
VERTEX
  5
414
330
1F1
100
AcDbEntity
  8
0
  6
CONTINUOUS
 62
     7
100
AcDbVertex
100
AcDb2dVertex
 10
8.5433238822
 20
7.1312961465
 30
0.0
  0
VERTEX
  5
415
330
1F1
100
AcDbEntity
  8
0
  6
CONTINUOUS
 62
     7
100
AcDbVertex
100
AcDb2dVertex
 10
8.5456063811
 20
7.1389384058
 30
0.0
  0
VERTEX
  5
416
330
1F1
100
AcDbEntity
  8
0
  6
CONTINUOUS
 62
     7
100
AcDbVertex
100
AcDb2dVertex
 10
8.5496702243
 20
7.1463300635
 30
0.0
  0
VERTEX
  5
417
330
1F1
100
AcDbEntity
  8
0
  6
CONTINUOUS
 62
     7
100
AcDbVertex
100
AcDb2dVertex
 10
8.5554397098
 20
7.153333427
 30
0.0
  0
VERTEX
  5
418
330
1F1
100
AcDbEntity
  8
0
  6
CONTINUOUS
 62
     7
100
AcDbVertex
100
AcDb2dVertex
 10
8.5628073632
 20
7.1598180369
 30
0.0
  0
VERTEX
  5
419
330
1F1
100
AcDbEntity
  8
0
  6
CONTINUOUS
 62
     7
100
AcDbVertex
100
AcDb2dVertex
 10
8.571635939
 20
7.1656630972
 30
0.0
  0
SEQEND
  5
41A
330
1F1
100
AcDbEntity
  8
0
  6
CONTINUOUS
 62
     7
  0
POLYLINE
  5
1F2
330
1F
100
AcDbEntity
  8
0
  6
CONTINUOUS
 62
     7
100
AcDb2dPolyline
 66
     1
 10
0.0
 20
0.0
 30
0.0
  0
VERTEX
  5
41B
330
1F2
100
AcDbEntity
  8
0
  6
CONTINUOUS
 62
     7
100
AcDbVertex
100
AcDb2dVertex
 10
8.5857780747
 20
7.1738298324
 30
0.0
  0
VERTEX
  5
41C
330
1F2
100
AcDbEntity
  8
0
  6
CONTINUOUS
 62
     7
100
AcDbVertex
100
AcDb2dVertex
 10
8.5779628193
 20
7.1685678126
 30
0.0
  0
VERTEX
  5
41D
330
1F2
100
AcDbEntity
  8
0
  6
CONTINUOUS
 62
     7
100
AcDbVertex
100
AcDb2dVertex
 10
8.5716305649
 20
7.1626787611
 30
0.0
  0
VERTEX
  5
41E
330
1F2
100
AcDbEntity
  8
0
  6
CONTINUOUS
 62
     7
100
AcDbVertex
100
AcDb2dVertex
 10
8.566929734
 20
7.1563007125
 30
0.0
  0
VERTEX
  5
41F
330
1F2
100
AcDbEntity
  8
0
  6
CONTINUOUS
 62
     7
100
AcDbVertex
100
AcDb2dVertex
 10
8.5639705102
 20
7.1495831626
 30
0.0
  0
VERTEX
  5
420
330
1F2
100
AcDbEntity
  8
0
  6
CONTINUOUS
 62
     7
100
AcDbVertex
100
AcDb2dVertex
 10
8.5628222551
 20
7.1426835651
 30
0.0
  0
VERTEX
  5
421
330
1F2
100
AcDbEntity
  8
0
  6
CONTINUOUS
 62
     7
100
AcDbVertex
100
AcDb2dVertex
 10
8.5635118829
 20
7.1357636409
 30
0.0
  0
VERTEX
  5
422
330
1F2
100
AcDbEntity
  8
0
  6
CONTINUOUS
 62
     7
100
AcDbVertex
100
AcDb2dVertex
 10
8.5660232293
 20
7.128985587
 30
0.0
  0
VERTEX
  5
423
330
1F2
100
AcDbEntity
  8
0
  6
CONTINUOUS
 62
     7
100
AcDbVertex
100
AcDb2dVertex
 10
8.5702974305
 20
7.1225082753
 30
0.0
  0
VERTEX
  5
424
330
1F2
100
AcDbEntity
  8
0
  6
CONTINUOUS
 62
     7
100
AcDbVertex
100
AcDb2dVertex
 10
8.5762343028
 20
7.1164835285
 30
0.0
  0
VERTEX
  5
425
330
1F2
100
AcDbEntity
  8
0
  6
CONTINUOUS
 62
     7
100
AcDbVertex
100
AcDb2dVertex
 10
8.5836946909
 20
7.1110525615
 30
0.0
  0
VERTEX
  5
426
330
1F2
100
AcDbEntity
  8
0
  6
CONTINUOUS
 62
     7
100
AcDbVertex
100
AcDb2dVertex
 10
8.5925037297
 20
7.1063426716
 30
0.0
  0
VERTEX
  5
427
330
1F2
100
AcDbEntity
  8
0
  6
CONTINUOUS
 62
     7
100
AcDbVertex
100
AcDb2dVertex
 10
8.6024549428
 20
7.1024642547
 30
0.0
  0
VERTEX
  5
428
330
1F2
100
AcDbEntity
  8
0
  6
CONTINUOUS
 62
     7
100
AcDbVertex
100
AcDb2dVertex
 10
8.6133150822
 20
7.0995082175
 30
0.0
  0
VERTEX
  5
429
330
1F2
100
AcDbEntity
  8
0
  6
CONTINUOUS
 62
     7
100
AcDbVertex
100
AcDb2dVertex
 10
8.6248295953
 20
7.097543847
 30
0.0
  0
VERTEX
  5
42A
330
1F2
100
AcDbEntity
  8
0
  6
CONTINUOUS
 62
     7
100
AcDbVertex
100
AcDb2dVertex
 10
8.6367285919
 20
7.0966171864
 30
0.0
  0
VERTEX
  5
42B
330
1F2
100
AcDbEntity
  8
0
  6
CONTINUOUS
 62
     7
100
AcDbVertex
100
AcDb2dVertex
 10
8.6487331694
 20
7.096749956
 30
0.0
  0
VERTEX
  5
42C
330
1F2
100
AcDbEntity
  8
0
  6
CONTINUOUS
 62
     7
100
AcDbVertex
100
AcDb2dVertex
 10
8.6605619509
 20
7.0979390435
 30
0.0
  0
VERTEX
  5
42D
330
1F2
100
AcDbEntity
  8
0
  6
CONTINUOUS
 62
     7
100
AcDbVertex
100
AcDb2dVertex
 10
8.6719376795
 20
7.1001565779
 30
0.0
  0
VERTEX
  5
42E
330
1F2
100
AcDbEntity
  8
0
  6
CONTINUOUS
 62
     7
100
AcDbVertex
100
AcDb2dVertex
 10
8.682593718
 20
7.1033505821
 30
0.0
  0
VERTEX
  5
42F
330
1F2
100
AcDbEntity
  8
0
  6
CONTINUOUS
 62
     7
100
AcDbVertex
100
AcDb2dVertex
 10
8.6922802978
 20
7.1074461912
 30
0.0
  0
VERTEX
  5
430
330
1F2
100
AcDbEntity
  8
0
  6
CONTINUOUS
 62
     7
100
AcDbVertex
100
AcDb2dVertex
 10
8.7007703737
 20
7.1123474076
 30
0.0
  0
VERTEX
  5
431
330
1F2
100
AcDbEntity
  8
0
  6
CONTINUOUS
 62
     7
100
AcDbVertex
100
AcDb2dVertex
 10
8.7078649454
 20
7.1179393511
 30
0.0
  0
VERTEX
  5
432
330
1F2
100
AcDbEntity
  8
0
  6
CONTINUOUS
 62
     7
100
AcDbVertex
100
AcDb2dVertex
 10
8.7133977224
 20
7.1240909512
 30
0.0
  0
VERTEX
  5
433
330
1F2
100
AcDbEntity
  8
0
  6
CONTINUOUS
 62
     7
100
AcDbVertex
100
AcDb2dVertex
 10
8.7172390208
 20
7.1306580196
 30
0.0
  0
VERTEX
  5
434
330
1F2
100
AcDbEntity
  8
0
  6
CONTINUOUS
 62
     7
100
AcDbVertex
100
AcDb2dVertex
 10
8.7192988041
 20
7.1374866297
 30
0.0
  0
VERTEX
  5
435
330
1F2
100
AcDbEntity
  8
0
  6
CONTINUOUS
 62
     7
100
AcDbVertex
100
AcDb2dVertex
 10
8.7195287926
 20
7.1444167248
 30
0.0
  0
VERTEX
  5
436
330
1F2
100
AcDbEntity
  8
0
  6
CONTINUOUS
 62
     7
100
AcDbVertex
100
AcDb2dVertex
 10
8.7179235955
 20
7.1512858693
 30
0.0
  0
VERTEX
  5
437
330
1F2
100
AcDbEntity
  8
0
  6
CONTINUOUS
 62
     7
100
AcDbVertex
100
AcDb2dVertex
 10
8.7145208373
 20
7.1579330563
 30
0.0
  0
VERTEX
  5
438
330
1F2
100
AcDbEntity
  8
0
  6
CONTINUOUS
 62
     7
100
AcDbVertex
100
AcDb2dVertex
 10
8.7094002758
 20
7.1642024813
 30
0.0
  0
VERTEX
  5
439
330
1F2
100
AcDbEntity
  8
0
  6
CONTINUOUS
 62
     7
100
AcDbVertex
100
AcDb2dVertex
 10
8.7026819327
 20
7.1699471943
 30
0.0
  0
VERTEX
  5
43A
330
1F2
100
AcDbEntity
  8
0
  6
CONTINUOUS
 62
     7
100
AcDbVertex
100
AcDb2dVertex
 10
8.6945232801
 20
7.1750325442
 30
0.0
  0
VERTEX
  5
43B
330
1F2
100
AcDbEntity
  8
0
  6
CONTINUOUS
 62
     7
100
AcDbVertex
100
AcDb2dVertex
 10
8.68511555
 20
7.1793393346
 30
0.0
  0
VERTEX
  5
43C
330
1F2
100
AcDbEntity
  8
0
  6
CONTINUOUS
 62
     7
100
AcDbVertex
100
AcDb2dVertex
 10
8.6746792516
 20
7.182766618
 30
0.0
  0
VERTEX
  5
43D
330
1F2
100
AcDbEntity
  8
0
  6
CONTINUOUS
 62
     7
100
AcDbVertex
100
AcDb2dVertex
 10
8.6634590029
 20
7.1852340618
 30
0.0
  0
VERTEX
  5
43E
330
1F2
100
AcDbEntity
  8
0
  6
CONTINUOUS
 62
     7
100
AcDbVertex
100
AcDb2dVertex
 10
8.651717797
 20
7.1866838312
 30
0.0
  0
VERTEX
  5
43F
330
1F2
100
AcDbEntity
  8
0
  6
CONTINUOUS
 62
     7
100
AcDbVertex
100
AcDb2dVertex
 10
8.6397308378
 20
7.1870819449
 30
0.0
  0
VERTEX
  5
440
330
1F2
100
AcDbEntity
  8
0
  6
CONTINUOUS
 62
     7
100
AcDbVertex
100
AcDb2dVertex
 10
8.6277790896
 20
7.1864190714
 30
0.0
  0
VERTEX
  5
441
330
1F2
100
AcDbEntity
  8
0
  6
CONTINUOUS
 62
     7
100
AcDbVertex
100
AcDb2dVertex
 10
8.616142691
 20
7.1847107478
 30
0.0
  0
VERTEX
  5
442
330
1F2
100
AcDbEntity
  8
0
  6
CONTINUOUS
 62
     7
100
AcDbVertex
100
AcDb2dVertex
 10
8.6050943895
 20
7.1819970159
 30
0.0
  0
VERTEX
  5
443
330
1F2
100
AcDbEntity
  8
0
  6
CONTINUOUS
 62
     7
100
AcDbVertex
100
AcDb2dVertex
 10
8.5948931479
 20
7.1783414832
 30
0.0
  0
VERTEX
  5
444
330
1F2
100
AcDbEntity
  8
0
  6
CONTINUOUS
 62
     7
100
AcDbVertex
100
AcDb2dVertex
 10
8.5857780747
 20
7.1738298324
 30
0.0
  0
SEQEND
  5
445
330
1F2
100
AcDbEntity
  8
0
  6
CONTINUOUS
 62
     7
  0
LINE
  5
1F3
330
1F
100
AcDbEntity
  8
0
  6
CONTINUOUS
 62
     7
100
AcDbLine
 10
8.6894471635
 20
7.1696497566
 30
0.0
 11
8.6235854776
 21
7.1798374909
 31
0.0
  0
LINE
  5
1F4
330
1F
100
AcDbEntity
  8
0
  6
CONTINUOUS
 62
     7
100
AcDbLine
 10
8.6235854776
 20
7.1798374909
 30
0.0
 11
8.5753713773
 21
7.1520040832
 31
0.0
  0
LINE
  5
1F5
330
1F
100
AcDbEntity
  8
0
  6
CONTINUOUS
 62
     7
100
AcDbLine
 10
8.5753713773
 20
7.1520040832
 30
0.0
 11
8.5930189628
 21
7.1139829413
 31
0.0
  0
LINE
  5
1F6
330
1F
100
AcDbEntity
  8
0
  6
CONTINUOUS
 62
     7
100
AcDbLine
 10
8.5930189628
 20
7.1139829413
 30
0.0
 11
8.6588806487
 21
7.103795207
 31
0.0
  0
LINE
  5
1F7
330
1F
100
AcDbEntity
  8
0
  6
CONTINUOUS
 62
     7
100
AcDbLine
 10
8.6588806487
 20
7.103795207
 30
0.0
 11
8.707094749
 21
7.1316286146
 31
0.0
  0
LINE
  5
1F8
330
1F
100
AcDbEntity
  8
0
  6
CONTINUOUS
 62
     7
100
AcDbLine
 10
8.707094749
 20
7.1316286146
 30
0.0
 11
8.6894471635
 21
7.1696497566
 31
0.0
  0
LINE
  5
1F9
330
1F
100
AcDbEntity
  8
0
  6
CONTINUOUS
 62
     7
100
AcDbLine
 10
8.6894471635
 20
7.1214408804
 30
0.0
 11
8.6894471635
 21
7.1696497566
 31
0.0
  0
LINE
  5
1FA
330
1F
100
AcDbEntity
  8
0
  6
CONTINUOUS
 62
     7
100
AcDbLine
 10
8.6235854776
 20
7.1092547973
 30
0.0
 11
8.6235854776
 21
7.1798374909
 31
0.0
  0
ENDSEC
  0
SECTION
  2
OBJECTS
  0
DICTIONARY
  5
C
330
0
100
AcDbDictionary
  3
ACAD_GROUP
350
D
  3
ACAD_LAYOUT
350
1A
  3
ACAD_MLEADERSTYLE
350
1FD
  3
ACAD_MLINESTYLE
350
17
  3
ACAD_PLOTSETTINGS
350
19
  3
ACAD_SCALELIST
350
6F
  3
ACAD_VISUALSTYLE
350
2A
  3
ACDBVARIABLEDICTIONARY
350
1FB
1001
ACAD
1000
TREAT_AS_HARD
1070
     0
  0
DICTIONARY
  5
D
102
{ACAD_REACTORS
330
C
102
}
330
C
100
AcDbDictionary
1001
ACAD
1000
TREAT_AS_HARD
1070
     0
  0
DICTIONARY
  5
1A
102
{ACAD_REACTORS
330
C
102
}
330
C
100
AcDbDictionary
1001
ACAD
1000
TREAT_AS_HARD
1070
     0
  0
DICTIONARY
  5
1FD
102
{ACAD_REACTORS
330
C
102
}
330
C
100
AcDbDictionary
1001
ACAD
1000
TREAT_AS_HARD
1070
     0
  0
DICTIONARY
  5
17
102
{ACAD_REACTORS
330
C
102
}
330
C
100
AcDbDictionary
  3
STANDARD
350
18
1001
ACAD
1000
TREAT_AS_HARD
1070
     0
  0
DICTIONARY
  5
19
102
{ACAD_REACTORS
330
C
102
}
330
C
100
AcDbDictionary
1001
ACAD
1000
TREAT_AS_HARD
1070
     0
  0
DICTIONARY
  5
6F
102
{ACAD_REACTORS
330
C
102
}
330
C
100
AcDbDictionary
  3
A0
350
70
  3
A1
350
71
  3
A2
350
72
  3
A3
350
73
  3
A4
350
74
  3
A5
350
75
  3
A6
350
76
  3
A7
350
77
  3
A8
350
78
  3
A9
350
79
  3
B0
350
7A
  3
B1
350
7B
  3
B2
350
7C
  3
B3
350
7D
  3
B4
350
7E
  3
B5
350
7F
  3
B6
350
80
  3
B7
350
81
  3
B8
350
82
  3
B9
350
83
  3
C0
350
84
  3
C1
350
85
  3
C2
350
86
  3
C3
350
87
  3
C4
350
88
  3
C5
350
89
  3
C6
350
8A
  3
C7
350
8B
  3
C8
350
8C
  3
C9
350
8D
  3
D0
350
8E
  3
D1
350
8F
  3
D2
350
90
1001
ACAD
1000
TREAT_AS_HARD
1070
     0
  0
DICTIONARY
  5
2A
102
{ACAD_REACTORS
330
C
102
}
330
C
100
AcDbDictionary
  3
2DWIREFRAME
350
2F
  3
3D_HIDDEN
350
31
  3
3DWIREFRAME
350
30
  3
BASIC
350
32
  3
BRIGHTEN
350
36
  3
COLORCHANGE
350
3A
  3
CONCEPTUAL
350
34
  3
DIM
350
35
  3
FACEPATTERN
350
39
  3
FLAT
350
2B
  3
FLATWITHEDGES
350
2C
  3
GOURAUD
350
2D
  3
GOURAUDWITHEDGES
350
2E
  3
LINEPATTERN
350
38
  3
REALISTIC
350
33
  3
THICKEN
350
37
1001
ACAD
1000
TREAT_AS_HARD
1070
     0
  0
DICTIONARY
  5
1FB
102
{ACAD_REACTORS
330
C
102
}
330
C
100
AcDbDictionary
  3
CANNOSCALE
350
1FE
  3
DIMASSOC
350
1FF
  3
HIDETEXT
350
200
1001
ACAD
1000
TREAT_AS_HARD
1070
     0
  0
MLINESTYLE
  5
18
102
{ACAD_REACTORS
330
17
102
}
330
17
100
AcDbMlineStyle
  2
Standard
 70
     0
  3

 62
   256
 51
90.0
 52
90.0
 71
     2
 49
0.5
 62
   256
  6
BYLAYER
 49
-0.5
 62
   256
  6
BYLAYER
  0
ACAD_PROXY_OBJECT
  5
70
102
{ACAD_REACTORS
330
6F
102
}
330
6F
100
AcDbZombieObject
 90
      499
 91
      502
 93
       41
310
903313A31580
  0
ACAD_PROXY_OBJECT
  5
71
102
{ACAD_REACTORS
330
6F
102
}
330
6F
100
AcDbZombieObject
 90
      499
 91
      502
 93
      105
310
903313A324000000000000004000
  0
ACAD_PROXY_OBJECT
  5
72
102
{ACAD_REACTORS
330
6F
102
}
330
6F
100
AcDbZombieObject
 90
      499
 91
      502
 93
      105
310
903313A344000000000000104000
  0
ACAD_PROXY_OBJECT
  5
73
102
{ACAD_REACTORS
330
6F
102
}
330
6F
100
AcDbZombieObject
 90
      499
 91
      502
 93
      105
310
903313A354000000000000144000
  0
ACAD_PROXY_OBJECT
  5
74
102
{ACAD_REACTORS
330
6F
102
}
330
6F
100
AcDbZombieObject
 90
      499
 91
      502
 93
      105
310
903313A384000000000000204000
  0
ACAD_PROXY_OBJECT
  5
75
102
{ACAD_REACTORS
330
6F
102
}
330
6F
100
AcDbZombieObject
 90
      499
 91
      502
 93
      113
310
904313A31304000000000000244000
  0
ACAD_PROXY_OBJECT
  5
76
102
{ACAD_REACTORS
330
6F
102
}
330
6F
100
AcDbZombieObject
 90
      499
 91
      502
 93
      113
310
904313A31364000000000000304000
  0
ACAD_PROXY_OBJECT
  5
77
102
{ACAD_REACTORS
330
6F
102
}
330
6F
100
AcDbZombieObject
 90
      499
 91
      502
 93
      113
310
904313A32304000000000000344000
  0
ACAD_PROXY_OBJECT
  5
78
102
{ACAD_REACTORS
330
6F
102
}
330
6F
100
AcDbZombieObject
 90
      499
 91
      502
 93
      113
310
904313A333040000000000003E4000
  0
ACAD_PROXY_OBJECT
  5
79
102
{ACAD_REACTORS
330
6F
102
}
330
6F
100
AcDbZombieObject
 90
      499
 91
      502
 93
      113
310
904313A34304000000000000444000
  0
ACAD_PROXY_OBJECT
  5
7A
102
{ACAD_REACTORS
330
6F
102
}
330
6F
100
AcDbZombieObject
 90
      499
 91
      502
 93
      113
310
904313A35304000000000000494000
  0
ACAD_PROXY_OBJECT
  5
7B
102
{ACAD_REACTORS
330
6F
102
}
330
6F
100
AcDbZombieObject
 90
      499
 91
      502
 93
      121
310
905313A3130304000000000000594000
  0
ACAD_PROXY_OBJECT
  5
7C
102
{ACAD_REACTORS
330
6F
102
}
330
6F
100
AcDbZombieObject
 90
      499
 91
      502
 93
      105
310
903323A310000000000000010100
  0
ACAD_PROXY_OBJECT
  5
7D
102
{ACAD_REACTORS
330
6F
102
}
330
6F
100
AcDbZombieObject
 90
      499
 91
      502
 93
      105
310
903343A310000000000000410100
  0
ACAD_PROXY_OBJECT
  5
7E
102
{ACAD_REACTORS
330
6F
102
}
330
6F
100
AcDbZombieObject
 90
      499
 91
      502
 93
      105
310
903383A310000000000000810100
  0
ACAD_PROXY_OBJECT
  5
7F
102
{ACAD_REACTORS
330
6F
102
}
330
6F
100
AcDbZombieObject
 90
      499
 91
      502
 93
      113
310
90431303A310000000000000910100
  0
ACAD_PROXY_OBJECT
  5
80
102
{ACAD_REACTORS
330
6F
102
}
330
6F
100
AcDbZombieObject
 90
      499
 91
      502
 93
      121
310
9053130303A310000000000001650100
  0
ACAD_PROXY_OBJECT
  5
81
102
{ACAD_REACTORS
330
6F
102
}
330
6F
100
AcDbZombieObject
 90
      499
 91
      502
 93
      257
310
90E312F31323822203D2031272D3022000000000000200FC000000000000284000
  0
ACAD_PROXY_OBJECT
  5
82
102
{ACAD_REACTORS
330
6F
102
}
330
6F
100
AcDbZombieObject
 90
      499
 91
      502
 93
      249
310
90D312F363422203D2031272D3022000000000000240FC000000000000284000
  0
ACAD_PROXY_OBJECT
  5
83
102
{ACAD_REACTORS
330
6F
102
}
330
6F
100
AcDbZombieObject
 90
      499
 91
      502
 93
      249
310
90D312F333222203D2031272D3022000000000000280FC000000000000284000
  0
ACAD_PROXY_OBJECT
  5
84
102
{ACAD_REACTORS
330
6F
102
}
330
6F
100
AcDbZombieObject
 90
      499
 91
      502
 93
      249
310
90D312F313622203D2031272D30220000000000002C0FC000000000000284000
  0
ACAD_PROXY_OBJECT
  5
85
102
{ACAD_REACTORS
330
6F
102
}
330
6F
100
AcDbZombieObject
 90
      499
 91
      502
 93
      249
310
90D332F333222203D2031272D30220000000000002E0FC000000000000284000
  0
ACAD_PROXY_OBJECT
  5
86
102
{ACAD_REACTORS
330
6F
102
}
330
6F
100
AcDbZombieObject
 90
      499
 91
      502
 93
      241
310
90C312F3822203D2031272D3022000000000000300FC000000000000284000
  0
ACAD_PROXY_OBJECT
  5
87
102
{ACAD_REACTORS
330
6F
102
}
330
6F
100
AcDbZombieObject
 90
      499
 91
      502
 93
      249
310
90D332F313622203D2031272D3022000000000000320FC000000000000284000
  0
ACAD_PROXY_OBJECT
  5
88
102
{ACAD_REACTORS
330
6F
102
}
330
6F
100
AcDbZombieObject
 90
      499
 91
      502
 93
      241
310
90C312F3422203D2031272D3022000000000000340FC000000000000284000
  0
ACAD_PROXY_OBJECT
  5
89
102
{ACAD_REACTORS
330
6F
102
}
330
6F
100
AcDbZombieObject
 90
      499
 91
      502
 93
      241
310
90C332F3822203D2031272D3022000000000000360FC000000000000284000
  0
ACAD_PROXY_OBJECT
  5
8A
102
{ACAD_REACTORS
330
6F
102
}
330
6F
100
AcDbZombieObject
 90
      499
 91
      502
 93
      241
310
90C312F3222203D2031272D3022000000000000380FC000000000000284000
  0
ACAD_PROXY_OBJECT
  5
8B
102
{ACAD_REACTORS
330
6F
102
}
330
6F
100
AcDbZombieObject
 90
      499
 91
      502
 93
      241
310
90C332F3422203D2031272D30220000000000003A0FC000000000000284000
  0
ACAD_PROXY_OBJECT
  5
8C
102
{ACAD_REACTORS
330
6F
102
}
330
6F
100
AcDbZombieObject
 90
      499
 91
      502
 93
      161
310
90A3122203D2031272D30224000000000000284000
  0
ACAD_PROXY_OBJECT
  5
8D
102
{ACAD_REACTORS
330
6F
102
}
330
6F
100
AcDbZombieObject
 90
      499
 91
      502
 93
      257
310
90E312D312F3222203D2031272D30220000000000003E0FC000000000000284000
  0
ACAD_PROXY_OBJECT
  5
8E
102
{ACAD_REACTORS
330
6F
102
}
330
6F
100
AcDbZombieObject
 90
      499
 91
      502
 93
      225
310
90A3322203D2031272D302200000000000002100000000000000284000
  0
ACAD_PROXY_OBJECT
  5
8F
102
{ACAD_REACTORS
330
6F
102
}
330
6F
100
AcDbZombieObject
 90
      499
 91
      502
 93
      225
310
90A3622203D2031272D302200000000000006100000000000000284000
  0
ACAD_PROXY_OBJECT
  5
90
102
{ACAD_REACTORS
330
6F
102
}
330
6F
100
AcDbZombieObject
 90
      499
 91
      502
 93
      249
310
90D31272D3022203D2031272D30220000000000000A100000000000000284000
  0
ACAD_PROXY_OBJECT
  5
2F
102
{ACAD_REACTORS
330
2A
102
}
330
2A
100
AcDbZombieObject
 90
      499
 91
      501
 93
      436
310
42CC9915DA5C99599C985B595049028333333333333E3BF0000000000000FB0107901411070040501600405405064090741402480A0340
1001
ACAD
1000
AcDbSavedByObjectVersion
1070
     0
  0
ACAD_PROXY_OBJECT
  5
31
102
{ACAD_REACTORS
330
2A
102
}
330
2A
100
AcDbZombieObject
 90
      499
 91
      501
 93
      500
310
424CD108121A5919195B90640502408333333333333E3BF0000000000000FB01079024090700405020000000000001110200405405064090740C02480A0340
1001
ACAD
1000
AcDbSavedByObjectVersion
1070
     0
  0
ACAD_PROXY_OBJECT
  5
30
102
{ACAD_REACTORS
330
2A
102
}
330
2A
100
AcDbZombieObject
 90
      499
 91
      501
 93
      436
310
42CCD915DA5C99599C985B595059028333333333333E3BF0000000000000FB0107901411070040501600405405064090741402480A0340
1001
ACAD
1000
AcDbSavedByObjectVersion
1070
     0
  0
ACAD_PROXY_OBJECT
  5
32
102
{ACAD_REACTORS
330
2A
102
}
330
2A
100
AcDbZombieObject
 90
      499
 91
      501
 93
      388
310
4150985CDA58D07406404333333333333E3BF0000000000000FB0107A41107004050150841D405064090741402480A0350
1001
ACAD
1000
AcDbSavedByObjectVersion
1070
     0
  0
ACAD_PROXY_OBJECT
  5
36
102
{ACAD_REACTORS
330
2A
102
}
330
2A
100
AcDbZombieObject
 90
      499
 91
      501
 93
      428
310
42109C9A59DA1D195B90C409028333333333333E3BF0000000000000FB010790141107004050150841D405064090741402480A029950
1001
ACAD
1000
AcDbSavedByObjectVersion
1070
     0
  0
ACAD_PROXY_OBJECT
  5
3A
102
{ACAD_REACTORS
330
2A
102
}
330
2A
100
AcDbZombieObject
 90
      499
 91
      501
 93
      452
310
42D0DBDB1BDC90DA185B99D95104090240C333333333333E3BF0000000000000FB0108901411070040501508421405064090741402480A0350
1001
ACAD
1000
AcDbSavedByObjectVersion
1070
     0
  0
ACAD_PROXY_OBJECT
  5
34
102
{ACAD_REACTORS
330
2A
102
}
330
2A
100
AcDbZombieObject
 90
      499
 91
      501
 93
      500
310
4290DBDB98D95C1D1D585B10940D028333333333333E3BF0000000000000FB0107902409070040501000000000000111010841D405064090740C02480A0340
1001
ACAD
1000
AcDbSavedByObjectVersion
1070
     0
  0
ACAD_PROXY_OBJECT
  5
35
102
{ACAD_REACTORS
330
2A
102
}
330
2A
100
AcDbZombieObject
 90
      499
 91
      501
 93
      412
310
40D11A5B50B409028333333333333E3BF0000000000000FB010790141107004050150841D405064090741402480A02677FFFFFD0
1001
ACAD
1000
AcDbSavedByObjectVersion
1070
     0
  0
ACAD_PROXY_OBJECT
  5
39
102
{ACAD_REACTORS
330
2A
102
}
330
2A
100
AcDbZombieObject
 90
      499
 91
      501
 93
      444
310
42D19858D95C185D1D195C9B90F409028333333333333E3BF0000000000000FB010790141107004050150841D405064090741402480A0350
1001
ACAD
1000
AcDbSavedByObjectVersion
1070
     0
  0
ACAD_PROXY_OBJECT
  5
2B
102
{ACAD_REACTORS
330
2A
102
}
330
2A
100
AcDbZombieObject
 90
      499
 91
      501
 93
      388
310
41119B185D240901404333333333333E3BF0000000000000F9010740A41107004050150841D405064090741402480A1B50
1001
ACAD
1000
AcDbSavedByObjectVersion
1070
     0
  0
ACAD_PROXY_OBJECT
  5
2C
102
{ACAD_REACTORS
330
2A
102
}
330
2A
100
AcDbZombieObject
 90
      499
 91
      501
 93
      476
310
43519B185D15DA5D1A115919D95CD0140901404333333333333E3BF0000000000000F9010740901411070040501600405405064090741402480A1B50
1001
ACAD
1000
AcDbSavedByObjectVersion
1070
     0
  0
ACAD_PROXY_OBJECT
  5
2D
102
{ACAD_REACTORS
330
2A
102
}
330
2A
100
AcDbZombieObject
 90
      499
 91
      501
 93
      412
310
41D1DBDD5C985D5910240902404333333333333E3BF0000000000000F9010740A411070040501641D405064090741402480A1B50
1001
ACAD
1000
AcDbSavedByObjectVersion
1070
     0
  0
ACAD_PROXY_OBJECT
  5
2E
102
{ACAD_REACTORS
330
2A
102
}
330
2A
100
AcDbZombieObject
 90
      499
 91
      501
 93
      500
310
4411DBDD5C985D5915DA5D1A115919D95CD0340902404333333333333E3BF0000000000000F9010740901411070040501600405405064090741402480A1B50
1001
ACAD
1000
AcDbSavedByObjectVersion
1070
     0
  0
ACAD_PROXY_OBJECT
  5
38
102
{ACAD_REACTORS
330
2A
102
}
330
2A
100
AcDbZombieObject
 90
      499
 91
      501
 93
      444
310
42D31A5B995C185D1D195C9B90E409028333333333333E3BF0000000000000FB010790141107004050750841D405064090741402483A0350
1001
ACAD
1000
AcDbSavedByObjectVersion
1070
     0
  0
ACAD_PROXY_OBJECT
  5
33
102
{ACAD_REACTORS
330
2A
102
}
330
2A
100
AcDbZombieObject
 90
      499
 91
      501
 93
      420
310
425499585B1A5CDD1A58D08409028333333333333E3BF0000000000000FB01079019070040501508421405064090741402480A1B40
1001
ACAD
1000
AcDbSavedByObjectVersion
1070
     0
  0
ACAD_PROXY_OBJECT
  5
37
102
{ACAD_REACTORS
330
2A
102
}
330
2A
100
AcDbZombieObject
 90
      499
 91
      501
 93
      412
310
41D51A1A58DAD95B90D409028333333333333E3BF0000000000000FB010790141107004050150C41D405064090741402480A0350
1001
ACAD
1000
AcDbSavedByObjectVersion
1070
     0
  0
DICTIONARYVAR
  5
1FE
102
{ACAD_REACTORS
330
1FB
102
}
330
1FB
100
DictionaryVariables
280
     0
  1
1:1
  0
DICTIONARYVAR
  5
1FF
102
{ACAD_REACTORS
330
1FB
102
}
330
1FB
100
DictionaryVariables
280
     0
  1
2
  0
DICTIONARYVAR
  5
200
102
{ACAD_REACTORS
330
1FB
102
}
330
1FB
100
DictionaryVariables
280
     0
  1
1
  0
ENDSEC
  0
EOF
