  0
SECTION
  2
HEADER
  9
$ACADVER
  1
AC1015
  9
$ACADMAINTVER
 70
     6
  9
$DWGCODEPAGE
  3
ANSI_1252
  9
$INSBASE
 10
0.0
 20
0.0
 30
0.0
  9
$EXTMIN
 10
0.0
 20
0.0
 30
0.0
  9
$EXTMAX
 10
17.0
 20
11.0
 30
0.0
  9
$LIMMIN
 10
0.0
 20
0.0
  9
$LIMMAX
 10
17.0
 20
11.0
  9
$ORTHOMODE
 70
     0
  9
$REGENMODE
 70
     1
  9
$FILLMODE
 70
     1
  9
$QTEXTMODE
 70
     0
  9
$MIRRTEXT
 70
     1
  9
$LTSCALE
 40
1.0
  9
$ATTMODE
 70
     1
  9
$TEXTSIZE
 40
0.125
  9
$TRACEWID
 40
0.05
  9
$TEXTSTYLE
  7
Standard
  9
$CLAYER
  8
0
  9
$CELTYPE
  6
ByLayer
  9
$CECOLOR
 62
   256
  9
$CELTSCALE
 40
1.0
  9
$DISPSILH
 70
     0
  9
$DIMSCALE
 40
1.0
  9
$DIMASZ
 40
0.13
  9
$DIMEXO
 40
0.05
  9
$DIMDLI
 40
0.38
  9
$DIMRND
 40
0.0
  9
$DIMDLE
 40
0.0
  9
$DIMEXE
 40
0.125
  9
$DIMTP
 40
0.0
  9
$DIMTM
 40
0.0
  9
$DIMTXT
 40
0.125
  9
$DIMCEN
 40
0.09
  9
$DIMTSZ
 40
0.0
  9
$DIMTOL
 70
     0
  9
$DIMLIM
 70
     0
  9
$DIMTIH
 70
     1
  9
$DIMTOH
 70
     1
  9
$DIMSE1
 70
     0
  9
$DIMSE2
 70
     0
  9
$DIMTAD
 70
     0
  9
$DIMZIN
 70
     0
  9
$DIMBLK
  1

  9
$DIMASO
 70
     1
  9
$DIMSHO
 70
     1
  9
$DIMPOST
  1

  9
$DIMAPOST
  1

  9
$DIMALT
 70
     0
  9
$DIMALTD
 70
     2
  9
$DIMALTF
 40
25.4
  9
$DIMLFAC
 40
4.0
  9
$DIMTOFL
 70
     0
  9
$DIMTVP
 40
0.0
  9
$DIMTIX
 70
     0
  9
$DIMSOXD
 70
     0
  9
$DIMSAH
 70
     0
  9
$DIMBLK1
  1

  9
$DIMBLK2
  1

  9
$DIMSTYLE
  2
Standard
  9
$DIMCLRD
 70
     0
  9
$DIMCLRE
 70
     0
  9
$DIMCLRT
 70
     0
  9
$DIMTFAC
 40
1.0
  9
$DIMGAP
 40
0.06
  9
$DIMJUST
 70
     0
  9
$DIMSD1
 70
     0
  9
$DIMSD2
 70
     0
  9
$DIMTOLJ
 70
     1
  9
$DIMTZIN
 70
     0
  9
$DIMALTZ
 70
     0
  9
$DIMALTTZ
 70
     0
  9
$DIMUPT
 70
     0
  9
$DIMDEC
 70
     3
  9
$DIMTDEC
 70
     3
  9
$DIMALTU
 70
     2
  9
$DIMALTTD
 70
     2
  9
$DIMTXSTY
  7
Standard
  9
$DIMAUNIT
 70
     0
  9
$DIMADEC
 70
     2
  9
$DIMALTRND
 40
0.0
  9
$DIMAZIN
 70
     0
  9
$DIMDSEP
 70
    46
  9
$DIMATFIT
 70
     3
  9
$DIMFRAC
 70
     0
  9
$DIMLDRBLK
  1

  9
$DIMLUNIT
 70
     2
  9
$DIMLWD
 70
    -2
  9
$DIMLWE
 70
    -2
  9
$DIMTMOVE
 70
     0
  9
$LUNITS
 70
     2
  9
$LUPREC
 70
     2
  9
$SKETCHINC
 40
0.1
  9
$FILLETRAD
 40
0.5
  9
$AUNITS
 70
     0
  9
$AUPREC
 70
     2
  9
$MENU
  1
.
  9
$ELEVATION
 40
0.0
  9
$PELEVATION
 40
0.0
  9
$THICKNESS
 40
0.0
  9
$LIMCHECK
 70
     0
  9
$CHAMFERA
 40
0.5
  9
$CHAMFERB
 40
0.5
  9
$CHAMFERC
 40
1.0
  9
$CHAMFERD
 40
0.0
  9
$SKPOLY
 70
     0
  9
$TDCREATE
 40
2455506.24802912
  9
$TDUCREATE
 40
2455506.456362454
  9
$TDUPDATE
 40
2455506.248029132
  9
$TDUUPDATE
 40
2455506.456362465
  9
$TDINDWG
 40
0.0000000116
  9
$TDUSRTIMER
 40
0.0000000116
  9
$USRTIMER
 70
     1
  9
$ANGBASE
 50
0.0
  9
$ANGDIR
 70
     0
  9
$PDMODE
 70
     0
  9
$PDSIZE
 40
-1.0
  9
$PLINEWID
 40
0.0
  9
$SPLFRAME
 70
     0
  9
$SPLINETYPE
 70
     6
  9
$SPLINESEGS
 70
     8
  9
$HANDSEED
  5
365
  9
$SURFTAB1
 70
     6
  9
$SURFTAB2
 70
     6
  9
$SURFTYPE
 70
     6
  9
$SURFU
 70
     6
  9
$SURFV
 70
     6
  9
$UCSBASE
  2

  9
$UCSNAME
  2

  9
$UCSORG
 10
0.0
 20
0.0
 30
0.0
  9
$UCSXDIR
 10
1.0
 20
0.0
 30
0.0
  9
$UCSYDIR
 10
0.0
 20
1.0
 30
0.0
  9
$UCSORTHOREF
  2

  9
$UCSORTHOVIEW
 70
     0
  9
$UCSORGTOP
 10
0.0
 20
0.0
 30
0.0
  9
$UCSORGBOTTOM
 10
0.0
 20
0.0
 30
0.0
  9
$UCSORGLEFT
 10
0.0
 20
0.0
 30
0.0
  9
$UCSORGRIGHT
 10
0.0
 20
0.0
 30
0.0
  9
$UCSORGFRONT
 10
0.0
 20
0.0
 30
0.0
  9
$UCSORGBACK
 10
0.0
 20
0.0
 30
0.0
  9
$PUCSBASE
  2

  9
$PUCSNAME
  2

  9
$PUCSORG
 10
0.0
 20
0.0
 30
0.0
  9
$PUCSXDIR
 10
1.0
 20
0.0
 30
0.0
  9
$PUCSYDIR
 10
0.0
 20
1.0
 30
0.0
  9
$PUCSORTHOREF
  2

  9
$PUCSORTHOVIEW
 70
     0
  9
$PUCSORGTOP
 10
0.0
 20
0.0
 30
0.0
  9
$PUCSORGBOTTOM
 10
0.0
 20
0.0
 30
0.0
  9
$PUCSORGLEFT
 10
0.0
 20
0.0
 30
0.0
  9
$PUCSORGRIGHT
 10
0.0
 20
0.0
 30
0.0
  9
$PUCSORGFRONT
 10
0.0
 20
0.0
 30
0.0
  9
$PUCSORGBACK
 10
0.0
 20
0.0
 30
0.0
  9
$USERI1
 70
     0
  9
$USERI2
 70
     0
  9
$USERI3
 70
     0
  9
$USERI4
 70
     0
  9
$USERI5
 70
     0
  9
$USERR1
 40
0.0
  9
$USERR2
 40
0.0
  9
$USERR3
 40
0.0
  9
$USERR4
 40
0.0
  9
$USERR5
 40
0.0
  9
$WORLDVIEW
 70
     1
  9
$SHADEDGE
 70
     3
  9
$SHADEDIF
 70
    70
  9
$TILEMODE
 70
     1
  9
$MAXACTVP
 70
    64
  9
$PINSBASE
 10
0.0
 20
0.0
 30
0.0
  9
$PLIMCHECK
 70
     0
  9
$PEXTMIN
 10
1.0000000000E+20
 20
1.0000000000E+20
 30
1.0000000000E+20
  9
$PEXTMAX
 10
-1.0000000000E+20
 20
-1.0000000000E+20
 30
-1.0000000000E+20
  9
$PLIMMIN
 10
0.0
 20
0.0
  9
$PLIMMAX
 10
12.0
 20
9.0
  9
$UNITMODE
 70
     0
  9
$VISRETAIN
 70
     1
  9
$PLINEGEN
 70
     0
  9
$PSLTSCALE
 70
     1
  9
$TREEDEPTH
 70
  3020
  9
$CMLSTYLE
  2
Standard
  9
$CMLJUST
 70
     0
  9
$CMLSCALE
 40
1.0
  9
$PROXYGRAPHICS
 70
     1
  9
$MEASUREMENT
 70
     0
  9
$CELWEIGHT
370
    -1
  9
$ENDCAPS
280
     0
  9
$JOINSTYLE
280
     0
  9
$LWDISPLAY
290
     1
  9
$INSUNITS
 70
     1
  9
$HYPERLINKBASE
  1

  9
$STYLESHEET
  1

  9
$XEDIT
290
     1
  9
$CEPSNTYPE
380
     0
  9
$PSTYLEMODE
290
     1
  9
$FINGERPRINTGUID
  2
{AD5DE0E4-A4C7-46A5-8F03-C25E87A41CF1}
  9
$VERSIONGUID
  2
{FAEB1C32-E019-11D5-929B-00C0DF256EC4}
  9
$EXTNAMES
290
     1
  9
$PSVPSCALE
 40
0.0
  9
$OLESTARTUP
290
     0
  0
ENDSEC
  0
SECTION
  2
CLASSES
  0
CLASS
  1
ACDBDICTIONARYWDFLT
  2
AcDbDictionaryWithDefault
  3
ObjectDBX Classes
 90
        0
280
     0
281
     0
  0
CLASS
  1
VISUALSTYLE
  2
AcDbVisualStyle
  3
ObjectDBX Classes
 90
     4095
280
     0
281
     0
  0
CLASS
  1
SCALE
  2
AcDbScale
  3
ObjectDBX Classes
 90
     1153
280
     0
281
     0
  0
CLASS
  1
DICTIONARYVAR
  2
AcDbDictionaryVar
  3
ObjectDBX Classes
 90
        0
280
     0
281
     0
  0
CLASS
  1
ACDBPLACEHOLDER
  2
AcDbPlaceHolder
  3
ObjectDBX Classes
 90
        0
280
     0
281
     0
  0
CLASS
  1
LAYOUT
  2
AcDbLayout
  3
ObjectDBX Classes
 90
        0
280
     0
281
     0
  0
ENDSEC
  0
SECTION
  2
TABLES
  0
TABLE
  2
VPORT
  5
8
330
0
100
AcDbSymbolTable
 70
     1
  0
VPORT
  5
29
330
8
100
AcDbSymbolTableRecord
100
AcDbViewportTableRecord
  2
*Active
 70
     0
 10
0.0
 20
0.0
 11
1.0
 21
1.0
 12
8.5
 22
5.5
 13
0.0
 23
0.0
 14
0.5
 24
0.5
 15
0.5
 25
0.5
 16
0.0
 26
0.0
 36
1.0
 17
0.0
 27
0.0
 37
0.0
 40
11.0
 41
1.5454545455
 42
50.0
 43
0.0
 44
0.0
 50
0.0
 51
0.0
 71
     0
 72
  2000
 73
     1
 74
     3
 75
     0
 76
     0
 77
     0
 78
     0
281
     0
 65
     1
110
0.0
120
0.0
130
0.0
111
1.0
121
0.0
131
0.0
112
0.0
122
1.0
132
0.0
 79
     0
146
0.0
  0
ENDTAB
  0
TABLE
  2
LTYPE
  5
5
330
0
100
AcDbSymbolTable
 70
     6
  0
LTYPE
  5
14
330
5
100
AcDbSymbolTableRecord
100
AcDbLinetypeTableRecord
  2
ByBlock
 70
     0
  3

 72
    65
 73
     0
 40
0.0
  0
LTYPE
  5
15
330
5
100
AcDbSymbolTableRecord
100
AcDbLinetypeTableRecord
  2
ByLayer
 70
     0
  3

 72
    65
 73
     0
 40
0.0
  0
LTYPE
  5
16
330
5
100
AcDbSymbolTableRecord
100
AcDbLinetypeTableRecord
  2
Continuous
 70
     0
  3
Solid line
 72
    65
 73
     0
 40
0.0
  0
LTYPE
  5
3B
330
5
100
AcDbSymbolTableRecord
100
AcDbLinetypeTableRecord
  2
HIDDEN
 70
     0
  3
Hidden __ __ __ __ __ __ __ __ __ __ __ __ __ __
 72
    65
 73
     2
 40
0.075
 49
0.05
 74
     0
 49
-0.025
 74
     0
  0
LTYPE
  5
3C
330
5
100
AcDbSymbolTableRecord
100
AcDbLinetypeTableRecord
  2
PHANTOM
 70
     0
  3
Phantom ______  __  __  ______  __  __  ______
 72
    65
 73
     6
 40
0.5
 49
0.25
 74
     0
 49
-0.05
 74
     0
 49
0.05
 74
     0
 49
-0.05
 74
     0
 49
0.05
 74
     0
 49
-0.05
 74
     0
  0
LTYPE
  5
3D
330
5
100
AcDbSymbolTableRecord
100
AcDbLinetypeTableRecord
  2
CENTER
 70
     0
  3
Center ____ _ ____ _ ____ _ ____ _ ____ _ ____
 72
    65
 73
     4
 40
0.4
 49
0.25
 74
     0
 49
-0.05
 74
     0
 49
0.05
 74
     0
 49
-0.05
 74
     0
  0
LTYPE
  5
3E
330
5
100
AcDbSymbolTableRecord
100
AcDbLinetypeTableRecord
  2
CENTERX2
 70
     0
  3
Center (2x) ________  __  ________  __  _____
 72
    65
 73
     4
 40
0.8
 49
0.5
 74
     0
 49
-0.1
 74
     0
 49
0.1
 74
     0
 49
-0.1
 74
     0
  0
LTYPE
  5
3F
330
5
100
AcDbSymbolTableRecord
100
AcDbLinetypeTableRecord
  2
DOT2
 70
     0
  3
Dot (.5x) ........................................
 72
    65
 73
     2
 40
0.025
 49
0.0
 74
     0
 49
-0.025
 74
     0
  0
ENDTAB
  0
TABLE
  2
LAYER
  5
2
330
0
100
AcDbSymbolTable
 70
     2
  0
LAYER
  5
10
330
2
100
AcDbSymbolTableRecord
100
AcDbLayerTableRecord
  2
0
 70
     0
 62
     7
  6
Continuous
370
    -3
390
F
  0
LAYER
  5
40
330
2
100
AcDbSymbolTableRecord
100
AcDbLayerTableRecord
  2
FORMAT
 70
     0
 62
     7
  6
Continuous
370
    -3
390
F
  0
ENDTAB
  0
TABLE
  2
STYLE
  5
3
330
0
100
AcDbSymbolTable
 70
     4
  0
STYLE
  5
11
330
3
100
AcDbSymbolTableRecord
100
AcDbTextStyleTableRecord
  2
Standard
 70
     0
 40
0.0
 41
1.0
 50
0.0
 71
     0
 42
0.2
  3
txt
  4

  0
STYLE
  5
8D
330
3
100
AcDbSymbolTableRecord
100
AcDbTextStyleTableRecord
  2
SLDTEXTSTYLE0
 70
     0
 40
0.0
 41
0.75
 50
0.0
 71
     0
 42
0.2
  3
TXT
  4

  0
STYLE
  5
FA
330
3
100
AcDbSymbolTableRecord
100
AcDbTextStyleTableRecord
  2
SLDTEXTSTYLE1
 70
     0
 40
0.0
 41
0.6944444444
 50
0.0
 71
     0
 42
0.2
  3
TXT
  4

  0
STYLE
  5
100
330
3
100
AcDbSymbolTableRecord
100
AcDbTextStyleTableRecord
  2
SLDTEXTSTYLE2
 70
     0
 40
0.0
 41
0.6875
 50
0.0
 71
     0
 42
0.2
  3
TXT
  4

  0
ENDTAB
  0
TABLE
  2
VIEW
  5
6
330
0
100
AcDbSymbolTable
 70
     0
  0
ENDTAB
  0
TABLE
  2
UCS
  5
7
330
0
100
AcDbSymbolTable
 70
     0
  0
ENDTAB
  0
TABLE
  2
APPID
  5
9
330
0
100
AcDbSymbolTable
 70
     1
  0
APPID
  5
12
330
9
100
AcDbSymbolTableRecord
100
AcDbRegAppTableRecord
  2
ACAD
 70
     0
  0
ENDTAB
  0
TABLE
  2
DIMSTYLE
  5
A
330
0
100
AcDbSymbolTable
 70
     2
100
AcDbDimStyleTable
  0
DIMSTYLE
105
27
330
A
100
AcDbSymbolTableRecord
100
AcDbDimStyleTableRecord
  2
Standard
 70
     0
340
11
  0
DIMSTYLE
105
166
330
A
100
AcDbSymbolTableRecord
100
AcDbDimStyleTableRecord
  2
SLDDIMSTYLE0
 70
     0
 41
0.13
 44
0.0
 45
0.000000001
140
0.0
146
0.13
147
0.0
173
     1
271
     0
272
     0
340
11
  0
ENDTAB
  0
TABLE
  2
BLOCK_RECORD
  5
1
330
0
100
AcDbSymbolTable
 70
    14
  0
BLOCK_RECORD
  5
1F
330
1
100
AcDbSymbolTableRecord
100
AcDbBlockTableRecord
  2
*Model_Space
340
22
  0
BLOCK_RECORD
  5
1B
330
1
100
AcDbSymbolTableRecord
100
AcDbBlockTableRecord
  2
*Paper_Space
340
1E
  0
BLOCK_RECORD
  5
23
330
1
100
AcDbSymbolTableRecord
100
AcDbBlockTableRecord
  2
*Paper_Space0
340
26
  0
BLOCK_RECORD
  5
C8
330
1
100
AcDbSymbolTableRecord
100
AcDbBlockTableRecord
  2
SW_NOTE_0
340
0
102
{BLKREFS
331
D2
102
}
  0
BLOCK_RECORD
  5
D7
330
1
100
AcDbSymbolTableRecord
100
AcDbBlockTableRecord
  2
SW_NOTE_1
340
0
102
{BLKREFS
331
E6
102
}
  0
BLOCK_RECORD
  5
E7
330
1
100
AcDbSymbolTableRecord
100
AcDbBlockTableRecord
  2
SW_NOTE_2
340
0
102
{BLKREFS
331
EC
102
}
  0
BLOCK_RECORD
  5
168
330
1
100
AcDbSymbolTableRecord
100
AcDbBlockTableRecord
  2
SW_CENTERMARKSYMBOL_0
340
0
102
{BLKREFS
331
173
102
}
  0
BLOCK_RECORD
  5
174
330
1
100
AcDbSymbolTableRecord
100
AcDbBlockTableRecord
  2
SW_CENTERMARKSYMBOL_1
340
0
102
{BLKREFS
331
17F
102
}
  0
BLOCK_RECORD
  5
180
330
1
100
AcDbSymbolTableRecord
100
AcDbBlockTableRecord
  2
SW_CENTERMARKSYMBOL_2
340
0
102
{BLKREFS
331
18B
102
}
  0
BLOCK_RECORD
  5
18C
330
1
100
AcDbSymbolTableRecord
100
AcDbBlockTableRecord
  2
SW_CENTERMARKSYMBOL_3
340
0
102
{BLKREFS
331
197
102
}
  0
BLOCK_RECORD
  5
198
330
1
100
AcDbSymbolTableRecord
100
AcDbBlockTableRecord
  2
SW_CENTERMARKSYMBOL_4
340
0
102
{BLKREFS
331
1A3
102
}
  0
BLOCK_RECORD
  5
1A4
330
1
100
AcDbSymbolTableRecord
100
AcDbBlockTableRecord
  2
SW_CENTERMARKSYMBOL_5
340
0
102
{BLKREFS
331
1AF
102
}
  0
BLOCK_RECORD
  5
1B0
330
1
100
AcDbSymbolTableRecord
100
AcDbBlockTableRecord
  2
SW_CENTERMARKSYMBOL_6
340
0
102
{BLKREFS
331
1BB
102
}
  0
BLOCK_RECORD
  5
2FE
330
1
100
AcDbSymbolTableRecord
100
AcDbBlockTableRecord
  2
SW_CENTERMARKSYMBOL_7
340
0
102
{BLKREFS
331
309
102
}
  0
BLOCK_RECORD
  5
30A
330
1
100
AcDbSymbolTableRecord
100
AcDbBlockTableRecord
  2
SW_CENTERMARKSYMBOL_8
340
0
102
{BLKREFS
331
315
102
}
  0
BLOCK_RECORD
  5
316
330
1
100
AcDbSymbolTableRecord
100
AcDbBlockTableRecord
  2
SW_CENTERMARKSYMBOL_9
340
0
102
{BLKREFS
331
321
102
}
  0
ENDTAB
  0
ENDSEC
  0
SECTION
  2
BLOCKS
  0
BLOCK
  5
20
330
1F
100
AcDbEntity
  8
0
100
AcDbBlockBegin
  2
*Model_Space
 70
     0
 10
0.0
 20
0.0
 30
0.0
  3
*Model_Space
  1

  0
ENDBLK
  5
21
330
1F
100
AcDbEntity
  8
0
100
AcDbBlockEnd
  0
BLOCK
  5
1C
330
1B
100
AcDbEntity
 67
     1
  8
0
100
AcDbBlockBegin
  2
*Paper_Space
 70
     0
 10
0.0
 20
0.0
 30
0.0
  3
*Paper_Space
  1

  0
ENDBLK
  5
1D
330
1B
100
AcDbEntity
 67
     1
  8
0
100
AcDbBlockEnd
  0
BLOCK
  5
24
330
23
100
AcDbEntity
  8
0
100
AcDbBlockBegin
  2
*Paper_Space0
 70
     0
 10
0.0
 20
0.0
 30
0.0
  3
*Paper_Space0
  1

  0
ENDBLK
  5
25
330
23
100
AcDbEntity
  8
0
100
AcDbBlockEnd
  0
BLOCK
  5
C9
330
C8
100
AcDbEntity
  8
0
100
AcDbBlockBegin
  2
SW_NOTE_0
 70
     0
 10
0.0
 20
0.0
 30
0.0
  3
SW_NOTE_0
  1

  0
MTEXT
  5
CB
330
C8
100
AcDbEntity
  8
0
  6
Continuous
 62
     0
370
     0
100
AcDbMText
 10
0.0
 20
0.0773440644
 30
0.0
 40
0.06
 41
0.0
 71
     1
 72
     1
  1
THE INFORMATION CONTAINED IN THIS
  7
SLDTEXTSTYLE0
 73
     1
 44
1.0
  0
MTEXT
  5
CC
330
C8
100
AcDbEntity
  8
0
  6
Continuous
 62
     0
370
     0
100
AcDbMText
 10
0.0
 20
-0.0220260102
 30
0.0
 40
0.06
 41
0.0
 71
     1
 72
     1
  1
DRAWING IS THE SOLE PROPERTY OF
  7
SLDTEXTSTYLE0
 73
     1
 44
1.0
  0
MTEXT
  5
CD
330
C8
100
AcDbEntity
  8
0
  6
Continuous
 62
     0
370
     0
100
AcDbMText
 10
0.0
 20
-0.1213960848
 30
0.0
 40
0.06
 41
0.0
 71
     1
 72
     1
  1
<INSERT COMPANY NAME HERE>.  ANY 
  7
SLDTEXTSTYLE0
 73
     1
 44
1.0
  0
MTEXT
  5
CE
330
C8
100
AcDbEntity
  8
0
  6
Continuous
 62
     0
370
     0
100
AcDbMText
 10
0.0
 20
-0.2207661593
 30
0.0
 40
0.06
 41
0.0
 71
     1
 72
     1
  1
REPRODUCTION IN PART OR AS A WHOLE
  7
SLDTEXTSTYLE0
 73
     1
 44
1.0
  0
MTEXT
  5
CF
330
C8
100
AcDbEntity
  8
0
  6
Continuous
 62
     0
370
     0
100
AcDbMText
 10
0.0
 20
-0.3201362339
 30
0.0
 40
0.06
 41
0.0
 71
     1
 72
     1
  1
WITHOUT THE WRITTEN PERMISSION OF
  7
SLDTEXTSTYLE0
 73
     1
 44
1.0
  0
MTEXT
  5
D0
330
C8
100
AcDbEntity
  8
0
  6
Continuous
 62
     0
370
     0
100
AcDbMText
 10
0.0
 20
-0.4195063085
 30
0.0
 40
0.06
 41
0.0
 71
     1
 72
     1
  1
<INSERT COMPANY NAME HERE> IS 
  7
SLDTEXTSTYLE0
 73
     1
 44
1.0
  0
MTEXT
  5
D1
330
C8
100
AcDbEntity
  8
0
  6
Continuous
 62
     0
370
     0
100
AcDbMText
 10
0.0
 20
-0.518876383
 30
0.0
 40
0.06
 41
0.0
 71
     1
 72
     1
  1
PROHIBITED.
  7
SLDTEXTSTYLE0
 73
     1
 44
1.0
  0
ENDBLK
  5
CA
330
C8
100
AcDbEntity
  8
0
100
AcDbBlockEnd
  0
BLOCK
  5
D8
330
D7
100
AcDbEntity
  8
0
100
AcDbBlockBegin
  2
SW_NOTE_1
 70
     0
 10
0.0
 20
0.0
 30
0.0
  3
SW_NOTE_1
  1

  0
MTEXT
  5
DA
330
D7
100
AcDbEntity
  8
0
  6
Continuous
 62
     0
370
     0
100
AcDbMText
 10
0.0
 20
0.0837894031
 30
0.0
 40
0.065
 41
0.0
 71
     1
 72
     1
  1
DIMENSIONS ARE IN INCHES
  7
SLDTEXTSTYLE0
 73
     1
 44
1.0
  0
MTEXT
  5
DB
330
D7
100
AcDbEntity
  8
0
  6
Continuous
 62
     0
370
     0
100
AcDbMText
 10
0.0
 20
-0.0205806729
 30
0.0
 40
0.065
 41
0.0
 71
     1
 72
     1
  1
TOLERANCES:
  7
SLDTEXTSTYLE0
 73
     1
 44
1.0
  0
MTEXT
  5
DC
330
D7
100
AcDbEntity
  8
0
  6
Continuous
 62
     0
370
     0
100
AcDbMText
 10
0.0
 20
-0.1249507489
 30
0.0
 40
0.065
 41
0.0
 71
     1
 72
     1
  1
FRACTIONAL
  7
SLDTEXTSTYLE0
 73
     1
 44
1.0
  0
MTEXT
  5
DD
330
D7
100
AcDbEntity
  8
0
  6
Continuous
 62
     0
370
     0
100
AcDbMText
 10
0.5175850875
 20
-0.1249507489
 30
0.0
 40
0.065
 41
0.0
 71
     1
 72
     1
  1
%%p
  7
SLDTEXTSTYLE0
 73
     1
 44
1.0
  0
MTEXT
  5
DE
330
D7
100
AcDbEntity
  8
0
  6
Continuous
 62
     0
370
     0
100
AcDbMText
 10
0.0
 20
-0.2293208248
 30
0.0
 40
0.065
 41
0.0
 71
     1
 72
     1
  1
ANGULAR: MACH
  7
SLDTEXTSTYLE0
 73
     1
 44
1.0
  0
MTEXT
  5
DF
330
D7
100
AcDbEntity
  8
0
  6
Continuous
 62
     0
370
     0
100
AcDbMText
 10
0.7233732769
 20
-0.2293208248
 30
0.0
 40
0.065
 41
0.0
 71
     1
 72
     1
  1
%%p
  7
SLDTEXTSTYLE0
 73
     1
 44
1.0
  0
MTEXT
  5
E0
330
D7
100
AcDbEntity
  8
0
  6
Continuous
 62
     0
370
     0
100
AcDbMText
 10
0.7852857683
 20
-0.2293208248
 30
0.0
 40
0.065
 41
0.0
 71
     1
 72
     1
  1
     BEND 
  7
SLDTEXTSTYLE0
 73
     1
 44
1.0
  0
MTEXT
  5
E1
330
D7
100
AcDbEntity
  8
0
  6
Continuous
 62
     0
370
     0
100
AcDbMText
 10
1.14784136
 20
-0.2293208248
 30
0.0
 40
0.065
 41
0.0
 71
     1
 72
     1
  1
%%p
  7
SLDTEXTSTYLE0
 73
     1
 44
1.0
  0
MTEXT
  5
E2
330
D7
100
AcDbEntity
  8
0
  6
Continuous
 62
     0
370
     0
100
AcDbMText
 10
0.0
 20
-0.3336909008
 30
0.0
 40
0.065
 41
0.0
 71
     1
 72
     1
  1
TWO PLACE DECIMAL    
  7
SLDTEXTSTYLE0
 73
     1
 44
1.0
  0
MTEXT
  5
E3
330
D7
100
AcDbEntity
  8
0
  6
Continuous
 62
     0
370
     0
100
AcDbMText
 10
0.9794349188
 20
-0.3336909008
 30
0.0
 40
0.065
 41
0.0
 71
     1
 72
     1
  1
%%p
  7
SLDTEXTSTYLE0
 73
     1
 44
1.0
  0
MTEXT
  5
E4
330
D7
100
AcDbEntity
  8
0
  6
Continuous
 62
     0
370
     0
100
AcDbMText
 10
0.0
 20
-0.4380609768
 30
0.0
 40
0.065
 41
0.0
 71
     1
 72
     1
  1
THREE PLACE DECIMAL  
  7
SLDTEXTSTYLE0
 73
     1
 44
1.0
  0
MTEXT
  5
E5
330
D7
100
AcDbEntity
  8
0
  6
Continuous
 62
     0
370
     0
100
AcDbMText
 10
0.9738038639
 20
-0.4380609768
 30
0.0
 40
0.065
 41
0.0
 71
     1
 72
     1
  1
%%p
  7
SLDTEXTSTYLE0
 73
     1
 44
1.0
  0
ENDBLK
  5
D9
330
D7
100
AcDbEntity
  8
0
100
AcDbBlockEnd
  0
BLOCK
  5
E8
330
E7
100
AcDbEntity
  8
0
100
AcDbBlockBegin
  2
SW_NOTE_2
 70
     0
 10
0.0
 20
0.0
 30
0.0
  3
SW_NOTE_2
  1

  0
MTEXT
  5
EA
330
E7
100
AcDbEntity
  8
0
  6
Continuous
 62
     0
370
     0
100
AcDbMText
 10
0.0
 20
0.0773440644
 30
0.0
 40
0.06
 41
0.0
 71
     1
 72
     1
  1
INTERPRET GEOMETRIC
  7
SLDTEXTSTYLE0
 73
     1
 44
1.0
  0
MTEXT
  5
EB
330
E7
100
AcDbEntity
  8
0
  6
Continuous
 62
     0
370
     0
100
AcDbMText
 10
0.0
 20
-0.0220260102
 30
0.0
 40
0.06
 41
0.0
 71
     1
 72
     1
  1
TOLERANCING PER:
  7
SLDTEXTSTYLE0
 73
     1
 44
1.0
  0
ENDBLK
  5
E9
330
E7
100
AcDbEntity
  8
0
100
AcDbBlockEnd
  0
BLOCK
  5
169
330
168
100
AcDbEntity
  8
0
100
AcDbBlockBegin
  2
SW_CENTERMARKSYMBOL_0
 70
     0
 10
0.0
 20
0.0
 30
0.0
  3
SW_CENTERMARKSYMBOL_0
  1

  0
LINE
  5
16B
330
168
100
AcDbEntity
  8
0
  6
Continuous
 62
     0
370
     0
100
AcDbLine
 10
0.0
 20
0.0
 30
0.0
 11
0.0
 21
0.025
 31
0.0
  0
LINE
  5
16C
330
168
100
AcDbEntity
  8
0
  6
Continuous
 62
     0
370
     0
100
AcDbLine
 10
0.0
 20
0.0
 30
0.0
 11
-0.025
 21
0.0
 31
0.0
  0
LINE
  5
16D
330
168
100
AcDbEntity
  8
0
  6
Continuous
 62
     0
370
     0
100
AcDbLine
 10
0.0
 20
0.0
 30
0.0
 11
0.0
 21
-0.025
 31
0.0
  0
LINE
  5
16E
330
168
100
AcDbEntity
  8
0
  6
Continuous
 62
     0
370
     0
100
AcDbLine
 10
0.0
 20
0.0
 30
0.0
 11
0.025
 21
0.0
 31
0.0
  0
LINE
  5
16F
330
168
100
AcDbEntity
  8
0
  6
Continuous
 62
     0
370
     0
100
AcDbLine
 10
0.0
 20
0.05
 30
0.0
 11
0.0
 21
0.8375
 31
0.0
  0
LINE
  5
170
330
168
100
AcDbEntity
  8
0
  6
Continuous
 62
     0
370
     0
100
AcDbLine
 10
-0.05
 20
0.0
 30
0.0
 11
-0.8375
 21
0.0
 31
0.0
  0
LINE
  5
171
330
168
100
AcDbEntity
  8
0
  6
Continuous
 62
     0
370
     0
100
AcDbLine
 10
0.0
 20
-0.05
 30
0.0
 11
0.0
 21
-0.8375
 31
0.0
  0
LINE
  5
172
330
168
100
AcDbEntity
  8
0
  6
Continuous
 62
     0
370
     0
100
AcDbLine
 10
0.05
 20
0.0
 30
0.0
 11
0.8375
 21
0.0
 31
0.0
  0
ENDBLK
  5
16A
330
168
100
AcDbEntity
  8
0
100
AcDbBlockEnd
  0
BLOCK
  5
175
330
174
100
AcDbEntity
  8
0
100
AcDbBlockBegin
  2
SW_CENTERMARKSYMBOL_1
 70
     0
 10
0.0
 20
0.0
 30
0.0
  3
SW_CENTERMARKSYMBOL_1
  1

  0
LINE
  5
177
330
174
100
AcDbEntity
  8
0
  6
Continuous
 62
     0
370
     0
100
AcDbLine
 10
0.0
 20
0.0
 30
0.0
 11
0.0
 21
0.025
 31
0.0
  0
LINE
  5
178
330
174
100
AcDbEntity
  8
0
  6
Continuous
 62
     0
370
     0
100
AcDbLine
 10
0.0
 20
0.0
 30
0.0
 11
-0.025
 21
0.0
 31
0.0
  0
LINE
  5
179
330
174
100
AcDbEntity
  8
0
  6
Continuous
 62
     0
370
     0
100
AcDbLine
 10
0.0
 20
0.0
 30
0.0
 11
0.0
 21
-0.025
 31
0.0
  0
LINE
  5
17A
330
174
100
AcDbEntity
  8
0
  6
Continuous
 62
     0
370
     0
100
AcDbLine
 10
0.0
 20
0.0
 30
0.0
 11
0.025
 21
0.0
 31
0.0
  0
LINE
  5
17B
330
174
100
AcDbEntity
  8
0
  6
Continuous
 62
     0
370
     0
100
AcDbLine
 10
0.0
 20
0.05
 30
0.0
 11
0.0
 21
0.0640625
 31
0.0
  0
LINE
  5
17C
330
174
100
AcDbEntity
  8
0
  6
Continuous
 62
     0
370
     0
100
AcDbLine
 10
-0.05
 20
0.0
 30
0.0
 11
-0.0640625
 21
0.0
 31
0.0
  0
LINE
  5
17D
330
174
100
AcDbEntity
  8
0
  6
Continuous
 62
     0
370
     0
100
AcDbLine
 10
0.0
 20
-0.05
 30
0.0
 11
0.0
 21
-0.0640625
 31
0.0
  0
LINE
  5
17E
330
174
100
AcDbEntity
  8
0
  6
Continuous
 62
     0
370
     0
100
AcDbLine
 10
0.05
 20
0.0
 30
0.0
 11
0.0640625
 21
0.0
 31
0.0
  0
ENDBLK
  5
176
330
174
100
AcDbEntity
  8
0
100
AcDbBlockEnd
  0
BLOCK
  5
181
330
180
100
AcDbEntity
  8
0
100
AcDbBlockBegin
  2
SW_CENTERMARKSYMBOL_2
 70
     0
 10
0.0
 20
0.0
 30
0.0
  3
SW_CENTERMARKSYMBOL_2
  1

  0
LINE
  5
183
330
180
100
AcDbEntity
  8
0
  6
Continuous
 62
     0
370
     0
100
AcDbLine
 10
0.0
 20
0.0
 30
0.0
 11
0.0
 21
0.025
 31
0.0
  0
LINE
  5
184
330
180
100
AcDbEntity
  8
0
  6
Continuous
 62
     0
370
     0
100
AcDbLine
 10
0.0
 20
0.0
 30
0.0
 11
-0.025
 21
0.0
 31
0.0
  0
LINE
  5
185
330
180
100
AcDbEntity
  8
0
  6
Continuous
 62
     0
370
     0
100
AcDbLine
 10
0.0
 20
0.0
 30
0.0
 11
0.0
 21
-0.025
 31
0.0
  0
LINE
  5
186
330
180
100
AcDbEntity
  8
0
  6
Continuous
 62
     0
370
     0
100
AcDbLine
 10
0.0
 20
0.0
 30
0.0
 11
0.025
 21
0.0
 31
0.0
  0
LINE
  5
187
330
180
100
AcDbEntity
  8
0
  6
Continuous
 62
     0
370
     0
100
AcDbLine
 10
0.0
 20
0.05
 30
0.0
 11
0.0
 21
0.0640625
 31
0.0
  0
LINE
  5
188
330
180
100
AcDbEntity
  8
0
  6
Continuous
 62
     0
370
     0
100
AcDbLine
 10
-0.05
 20
0.0
 30
0.0
 11
-0.0640625
 21
0.0
 31
0.0
  0
LINE
  5
189
330
180
100
AcDbEntity
  8
0
  6
Continuous
 62
     0
370
     0
100
AcDbLine
 10
0.0
 20
-0.05
 30
0.0
 11
0.0
 21
-0.0640625
 31
0.0
  0
LINE
  5
18A
330
180
100
AcDbEntity
  8
0
  6
Continuous
 62
     0
370
     0
100
AcDbLine
 10
0.05
 20
0.0
 30
0.0
 11
0.0640625
 21
0.0
 31
0.0
  0
ENDBLK
  5
182
330
180
100
AcDbEntity
  8
0
100
AcDbBlockEnd
  0
BLOCK
  5
18D
330
18C
100
AcDbEntity
  8
0
100
AcDbBlockBegin
  2
SW_CENTERMARKSYMBOL_3
 70
     0
 10
0.0
 20
0.0
 30
0.0
  3
SW_CENTERMARKSYMBOL_3
  1

  0
LINE
  5
18F
330
18C
100
AcDbEntity
  8
0
  6
Continuous
 62
     0
370
     0
100
AcDbLine
 10
0.0
 20
0.0
 30
0.0
 11
0.0
 21
0.025
 31
0.0
  0
LINE
  5
190
330
18C
100
AcDbEntity
  8
0
  6
Continuous
 62
     0
370
     0
100
AcDbLine
 10
0.0
 20
0.0
 30
0.0
 11
-0.025
 21
0.0
 31
0.0
  0
LINE
  5
191
330
18C
100
AcDbEntity
  8
0
  6
Continuous
 62
     0
370
     0
100
AcDbLine
 10
0.0
 20
0.0
 30
0.0
 11
0.0
 21
-0.025
 31
0.0
  0
LINE
  5
192
330
18C
100
AcDbEntity
  8
0
  6
Continuous
 62
     0
370
     0
100
AcDbLine
 10
0.0
 20
0.0
 30
0.0
 11
0.025
 21
0.0
 31
0.0
  0
LINE
  5
193
330
18C
100
AcDbEntity
  8
0
  6
Continuous
 62
     0
370
     0
100
AcDbLine
 10
0.0
 20
0.05
 30
0.0
 11
0.0
 21
0.0640625
 31
0.0
  0
LINE
  5
194
330
18C
100
AcDbEntity
  8
0
  6
Continuous
 62
     0
370
     0
100
AcDbLine
 10
-0.05
 20
0.0
 30
0.0
 11
-0.0640625
 21
0.0
 31
0.0
  0
LINE
  5
195
330
18C
100
AcDbEntity
  8
0
  6
Continuous
 62
     0
370
     0
100
AcDbLine
 10
0.0
 20
-0.05
 30
0.0
 11
0.0
 21
-0.0640625
 31
0.0
  0
LINE
  5
196
330
18C
100
AcDbEntity
  8
0
  6
Continuous
 62
     0
370
     0
100
AcDbLine
 10
0.05
 20
0.0
 30
0.0
 11
0.0640625
 21
0.0
 31
0.0
  0
ENDBLK
  5
18E
330
18C
100
AcDbEntity
  8
0
100
AcDbBlockEnd
  0
BLOCK
  5
199
330
198
100
AcDbEntity
  8
0
100
AcDbBlockBegin
  2
SW_CENTERMARKSYMBOL_4
 70
     0
 10
0.0
 20
0.0
 30
0.0
  3
SW_CENTERMARKSYMBOL_4
  1

  0
LINE
  5
19B
330
198
100
AcDbEntity
  8
0
  6
Continuous
 62
     0
370
     0
100
AcDbLine
 10
0.0
 20
0.0
 30
0.0
 11
0.0
 21
0.025
 31
0.0
  0
LINE
  5
19C
330
198
100
AcDbEntity
  8
0
  6
Continuous
 62
     0
370
     0
100
AcDbLine
 10
0.0
 20
0.0
 30
0.0
 11
-0.025
 21
0.0
 31
0.0
  0
LINE
  5
19D
330
198
100
AcDbEntity
  8
0
  6
Continuous
 62
     0
370
     0
100
AcDbLine
 10
0.0
 20
0.0
 30
0.0
 11
0.0
 21
-0.025
 31
0.0
  0
LINE
  5
19E
330
198
100
AcDbEntity
  8
0
  6
Continuous
 62
     0
370
     0
100
AcDbLine
 10
0.0
 20
0.0
 30
0.0
 11
0.025
 21
0.0
 31
0.0
  0
LINE
  5
19F
330
198
100
AcDbEntity
  8
0
  6
Continuous
 62
     0
370
     0
100
AcDbLine
 10
0.0
 20
0.05
 30
0.0
 11
0.0
 21
0.0640625
 31
0.0
  0
LINE
  5
1A0
330
198
100
AcDbEntity
  8
0
  6
Continuous
 62
     0
370
     0
100
AcDbLine
 10
-0.05
 20
0.0
 30
0.0
 11
-0.0640625
 21
0.0
 31
0.0
  0
LINE
  5
1A1
330
198
100
AcDbEntity
  8
0
  6
Continuous
 62
     0
370
     0
100
AcDbLine
 10
0.0
 20
-0.05
 30
0.0
 11
0.0
 21
-0.0640625
 31
0.0
  0
LINE
  5
1A2
330
198
100
AcDbEntity
  8
0
  6
Continuous
 62
     0
370
     0
100
AcDbLine
 10
0.05
 20
0.0
 30
0.0
 11
0.0640625
 21
0.0
 31
0.0
  0
ENDBLK
  5
19A
330
198
100
AcDbEntity
  8
0
100
AcDbBlockEnd
  0
BLOCK
  5
1A5
330
1A4
100
AcDbEntity
  8
0
100
AcDbBlockBegin
  2
SW_CENTERMARKSYMBOL_5
 70
     0
 10
0.0
 20
0.0
 30
0.0
  3
SW_CENTERMARKSYMBOL_5
  1

  0
LINE
  5
1A7
330
1A4
100
AcDbEntity
  8
0
  6
Continuous
 62
     0
370
     0
100
AcDbLine
 10
0.0
 20
0.0
 30
0.0
 11
0.0
 21
0.025
 31
0.0
  0
LINE
  5
1A8
330
1A4
100
AcDbEntity
  8
0
  6
Continuous
 62
     0
370
     0
100
AcDbLine
 10
0.0
 20
0.0
 30
0.0
 11
-0.025
 21
0.0
 31
0.0
  0
LINE
  5
1A9
330
1A4
100
AcDbEntity
  8
0
  6
Continuous
 62
     0
370
     0
100
AcDbLine
 10
0.0
 20
0.0
 30
0.0
 11
0.0
 21
-0.025
 31
0.0
  0
LINE
  5
1AA
330
1A4
100
AcDbEntity
  8
0
  6
Continuous
 62
     0
370
     0
100
AcDbLine
 10
0.0
 20
0.0
 30
0.0
 11
0.025
 21
0.0
 31
0.0
  0
LINE
  5
1AB
330
1A4
100
AcDbEntity
  8
0
  6
Continuous
 62
     0
370
     0
100
AcDbLine
 10
0.0
 20
0.05
 30
0.0
 11
0.0
 21
0.0640625
 31
0.0
  0
LINE
  5
1AC
330
1A4
100
AcDbEntity
  8
0
  6
Continuous
 62
     0
370
     0
100
AcDbLine
 10
-0.05
 20
0.0
 30
0.0
 11
-0.0640625
 21
0.0
 31
0.0
  0
LINE
  5
1AD
330
1A4
100
AcDbEntity
  8
0
  6
Continuous
 62
     0
370
     0
100
AcDbLine
 10
0.0
 20
-0.05
 30
0.0
 11
0.0
 21
-0.0640625
 31
0.0
  0
LINE
  5
1AE
330
1A4
100
AcDbEntity
  8
0
  6
Continuous
 62
     0
370
     0
100
AcDbLine
 10
0.05
 20
0.0
 30
0.0
 11
0.0640625
 21
0.0
 31
0.0
  0
ENDBLK
  5
1A6
330
1A4
100
AcDbEntity
  8
0
100
AcDbBlockEnd
  0
BLOCK
  5
1B1
330
1B0
100
AcDbEntity
  8
0
100
AcDbBlockBegin
  2
SW_CENTERMARKSYMBOL_6
 70
     0
 10
0.0
 20
0.0
 30
0.0
  3
SW_CENTERMARKSYMBOL_6
  1

  0
LINE
  5
1B3
330
1B0
100
AcDbEntity
  8
0
  6
Continuous
 62
     0
370
     0
100
AcDbLine
 10
0.0
 20
0.0
 30
0.0
 11
0.0
 21
0.025
 31
0.0
  0
LINE
  5
1B4
330
1B0
100
AcDbEntity
  8
0
  6
Continuous
 62
     0
370
     0
100
AcDbLine
 10
0.0
 20
0.0
 30
0.0
 11
-0.025
 21
0.0
 31
0.0
  0
LINE
  5
1B5
330
1B0
100
AcDbEntity
  8
0
  6
Continuous
 62
     0
370
     0
100
AcDbLine
 10
0.0
 20
0.0
 30
0.0
 11
0.0
 21
-0.025
 31
0.0
  0
LINE
  5
1B6
330
1B0
100
AcDbEntity
  8
0
  6
Continuous
 62
     0
370
     0
100
AcDbLine
 10
0.0
 20
0.0
 30
0.0
 11
0.025
 21
0.0
 31
0.0
  0
LINE
  5
1B7
330
1B0
100
AcDbEntity
  8
0
  6
Continuous
 62
     0
370
     0
100
AcDbLine
 10
0.0
 20
0.05
 30
0.0
 11
0.0
 21
0.0640625
 31
0.0
  0
LINE
  5
1B8
330
1B0
100
AcDbEntity
  8
0
  6
Continuous
 62
     0
370
     0
100
AcDbLine
 10
-0.05
 20
0.0
 30
0.0
 11
-0.0640625
 21
0.0
 31
0.0
  0
LINE
  5
1B9
330
1B0
100
AcDbEntity
  8
0
  6
Continuous
 62
     0
370
     0
100
AcDbLine
 10
0.0
 20
-0.05
 30
0.0
 11
0.0
 21
-0.0640625
 31
0.0
  0
LINE
  5
1BA
330
1B0
100
AcDbEntity
  8
0
  6
Continuous
 62
     0
370
     0
100
AcDbLine
 10
0.05
 20
0.0
 30
0.0
 11
0.0640625
 21
0.0
 31
0.0
  0
ENDBLK
  5
1B2
330
1B0
100
AcDbEntity
  8
0
100
AcDbBlockEnd
  0
BLOCK
  5
2FF
330
2FE
100
AcDbEntity
  8
0
100
AcDbBlockBegin
  2
SW_CENTERMARKSYMBOL_7
 70
     0
 10
0.0
 20
0.0
 30
0.0
  3
SW_CENTERMARKSYMBOL_7
  1

  0
LINE
  5
301
330
2FE
100
AcDbEntity
  8
0
  6
Continuous
 62
     0
370
     0
100
AcDbLine
 10
0.0
 20
0.0
 30
0.0
 11
0.0
 21
0.025
 31
0.0
  0
LINE
  5
302
330
2FE
100
AcDbEntity
  8
0
  6
Continuous
 62
     0
370
     0
100
AcDbLine
 10
0.0
 20
0.0
 30
0.0
 11
-0.025
 21
0.0
 31
0.0
  0
LINE
  5
303
330
2FE
100
AcDbEntity
  8
0
  6
Continuous
 62
     0
370
     0
100
AcDbLine
 10
0.0
 20
0.0
 30
0.0
 11
0.0
 21
-0.025
 31
0.0
  0
LINE
  5
304
330
2FE
100
AcDbEntity
  8
0
  6
Continuous
 62
     0
370
     0
100
AcDbLine
 10
0.0
 20
0.0
 30
0.0
 11
0.025
 21
0.0
 31
0.0
  0
LINE
  5
305
330
2FE
100
AcDbEntity
  8
0
  6
Continuous
 62
     0
370
     0
100
AcDbLine
 10
0.0
 20
0.05
 30
0.0
 11
0.0
 21
0.0938976378
 31
0.0
  0
LINE
  5
306
330
2FE
100
AcDbEntity
  8
0
  6
Continuous
 62
     0
370
     0
100
AcDbLine
 10
-0.05
 20
0.0
 30
0.0
 11
-0.0938976378
 21
0.0
 31
0.0
  0
LINE
  5
307
330
2FE
100
AcDbEntity
  8
0
  6
Continuous
 62
     0
370
     0
100
AcDbLine
 10
0.0
 20
-0.05
 30
0.0
 11
0.0
 21
-0.0938976378
 31
0.0
  0
LINE
  5
308
330
2FE
100
AcDbEntity
  8
0
  6
Continuous
 62
     0
370
     0
100
AcDbLine
 10
0.05
 20
0.0
 30
0.0
 11
0.0938976378
 21
0.0
 31
0.0
  0
ENDBLK
  5
300
330
2FE
100
AcDbEntity
  8
0
100
AcDbBlockEnd
  0
BLOCK
  5
30B
330
30A
100
AcDbEntity
  8
0
100
AcDbBlockBegin
  2
SW_CENTERMARKSYMBOL_8
 70
     0
 10
0.0
 20
0.0
 30
0.0
  3
SW_CENTERMARKSYMBOL_8
  1

  0
LINE
  5
30D
330
30A
100
AcDbEntity
  8
0
  6
Continuous
 62
     0
370
     0
100
AcDbLine
 10
0.0
 20
0.0
 30
0.0
 11
0.0
 21
0.025
 31
0.0
  0
LINE
  5
30E
330
30A
100
AcDbEntity
  8
0
  6
Continuous
 62
     0
370
     0
100
AcDbLine
 10
0.0
 20
0.0
 30
0.0
 11
-0.025
 21
0.0
 31
0.0
  0
LINE
  5
30F
330
30A
100
AcDbEntity
  8
0
  6
Continuous
 62
     0
370
     0
100
AcDbLine
 10
0.0
 20
0.0
 30
0.0
 11
0.0
 21
-0.025
 31
0.0
  0
LINE
  5
310
330
30A
100
AcDbEntity
  8
0
  6
Continuous
 62
     0
370
     0
100
AcDbLine
 10
0.0
 20
0.0
 30
0.0
 11
0.025
 21
0.0
 31
0.0
  0
LINE
  5
311
330
30A
100
AcDbEntity
  8
0
  6
Continuous
 62
     0
370
     0
100
AcDbLine
 10
0.0
 20
0.05
 30
0.0
 11
0.0
 21
0.0938976378
 31
0.0
  0
LINE
  5
312
330
30A
100
AcDbEntity
  8
0
  6
Continuous
 62
     0
370
     0
100
AcDbLine
 10
-0.05
 20
0.0
 30
0.0
 11
-0.0938976378
 21
0.0
 31
0.0
  0
LINE
  5
313
330
30A
100
AcDbEntity
  8
0
  6
Continuous
 62
     0
370
     0
100
AcDbLine
 10
0.0
 20
-0.05
 30
0.0
 11
0.0
 21
-0.0938976378
 31
0.0
  0
LINE
  5
314
330
30A
100
AcDbEntity
  8
0
  6
Continuous
 62
     0
370
     0
100
AcDbLine
 10
0.05
 20
0.0
 30
0.0
 11
0.0938976378
 21
0.0
 31
0.0
  0
ENDBLK
  5
30C
330
30A
100
AcDbEntity
  8
0
100
AcDbBlockEnd
  0
BLOCK
  5
317
330
316
100
AcDbEntity
  8
0
100
AcDbBlockBegin
  2
SW_CENTERMARKSYMBOL_9
 70
     0
 10
0.0
 20
0.0
 30
0.0
  3
SW_CENTERMARKSYMBOL_9
  1

  0
LINE
  5
319
330
316
100
AcDbEntity
  8
0
  6
Continuous
 62
     0
370
     0
100
AcDbLine
 10
0.0
 20
0.0
 30
0.0
 11
0.0
 21
0.025
 31
0.0
  0
LINE
  5
31A
330
316
100
AcDbEntity
  8
0
  6
Continuous
 62
     0
370
     0
100
AcDbLine
 10
0.0
 20
0.0
 30
0.0
 11
-0.025
 21
0.0
 31
0.0
  0
LINE
  5
31B
330
316
100
AcDbEntity
  8
0
  6
Continuous
 62
     0
370
     0
100
AcDbLine
 10
0.0
 20
0.0
 30
0.0
 11
0.0
 21
-0.025
 31
0.0
  0
LINE
  5
31C
330
316
100
AcDbEntity
  8
0
  6
Continuous
 62
     0
370
     0
100
AcDbLine
 10
0.0
 20
0.0
 30
0.0
 11
0.025
 21
0.0
 31
0.0
  0
LINE
  5
31D
330
316
100
AcDbEntity
  8
0
  6
Continuous
 62
     0
370
     0
100
AcDbLine
 10
0.0
 20
0.05
 30
0.0
 11
0.0
 21
0.088976378
 31
0.0
  0
LINE
  5
31E
330
316
100
AcDbEntity
  8
0
  6
Continuous
 62
     0
370
     0
100
AcDbLine
 10
-0.05
 20
0.0
 30
0.0
 11
-0.088976378
 21
0.0
 31
0.0
  0
LINE
  5
31F
330
316
100
AcDbEntity
  8
0
  6
Continuous
 62
     0
370
     0
100
AcDbLine
 10
0.0
 20
-0.05
 30
0.0
 11
0.0
 21
-0.088976378
 31
0.0
  0
LINE
  5
320
330
316
100
AcDbEntity
  8
0
  6
Continuous
 62
     0
370
     0
100
AcDbLine
 10
0.05
 20
0.0
 30
0.0
 11
0.088976378
 21
0.0
 31
0.0
  0
ENDBLK
  5
318
330
316
100
AcDbEntity
  8
0
100
AcDbBlockEnd
  0
ENDSEC
  0
SECTION
  2
ENTITIES
  0
LINE
  5
41
330
1F
100
AcDbEntity
  8
0
  6
Continuous
 62
     7
370
     0
100
AcDbLine
 10
0.6262516046
 20
10.6420731707
 30
0.0
 11
16.3762516046
 21
10.6420731707
 31
0.0
  0
LINE
  5
42
330
1F
100
AcDbEntity
  8
0
  6
Continuous
 62
     7
370
     0
100
AcDbLine
 10
0.6262516046
 20
10.6420731707
 30
0.0
 11
0.6262516046
 21
0.3920731707
 31
0.0
  0
LINE
  5
43
330
1F
100
AcDbEntity
  8
0
  6
Continuous
 62
     7
370
     0
100
AcDbLine
 10
16.3762516046
 20
0.3920731707
 30
0.0
 11
0.6262516046
 21
0.3920731707
 31
0.0
  0
LINE
  5
44
330
1F
100
AcDbEntity
  8
0
  6
Continuous
 62
     7
370
     0
100
AcDbLine
 10
16.3762516046
 20
0.3920731707
 30
0.0
 11
16.3762516046
 21
10.6420731707
 31
0.0
  0
LINE
  5
45
330
1F
100
AcDbEntity
  8
0
  6
Continuous
 62
     7
370
     0
100
AcDbLine
 10
16.3762516046
 20
8.0752921748
 30
0.0
 11
16.5012516046
 21
8.0752921748
 31
0.0
  0
LINE
  5
46
330
1F
100
AcDbEntity
  8
0
  6
Continuous
 62
     7
370
     0
100
AcDbLine
 10
16.3762516046
 20
5.5127921748
 30
0.0
 11
16.5012516046
 21
5.5127921748
 31
0.0
  0
LINE
  5
47
330
1F
100
AcDbEntity
  8
0
  6
Continuous
 62
     7
370
     0
100
AcDbLine
 10
16.3762516046
 20
5.5127921748
 30
0.0
 11
16.4434330337
 21
5.5368018253
 31
0.0
  0
LINE
  5
48
330
1F
100
AcDbEntity
  8
0
  6
Continuous
 62
     7
370
     0
100
AcDbLine
 10
16.3762516046
 20
5.5127921748
 30
0.0
 11
16.4434330337
 21
5.4902136493
 31
0.0
  0
LINE
  5
49
330
1F
100
AcDbEntity
  8
0
  6
Continuous
 62
     7
370
     0
100
AcDbLine
 10
16.4434330337
 20
5.5368018253
 30
0.0
 11
16.4434330337
 21
5.4902136493
 31
0.0
  0
LINE
  5
4A
330
1F
100
AcDbEntity
  8
0
  6
Continuous
 62
     7
370
     0
100
AcDbLine
 10
16.3762516046
 20
5.5127921748
 30
0.0
 11
16.4434330337
 21
5.5218303331
 31
0.0
  0
LINE
  5
4B
330
1F
100
AcDbEntity
  8
0
  6
Continuous
 62
     7
370
     0
100
AcDbLine
 10
16.3762516046
 20
5.5127921748
 30
0.0
 11
16.4434330337
 21
5.5024840548
 31
0.0
  0
LINE
  5
4C
330
1F
100
AcDbEntity
  8
0
  6
Continuous
 62
     7
370
     0
100
AcDbLine
 10
16.3762516046
 20
2.9502921748
 30
0.0
 11
16.5012516046
 21
2.9502921748
 31
0.0
  0
LINE
  5
4D
330
1F
100
AcDbEntity
  8
0
  6
Continuous
 62
     7
370
     0
100
AcDbLine
 10
0.6262516046
 20
2.9545731707
 30
0.0
 11
0.5012516046
 21
2.9545731707
 31
0.0
  0
LINE
  5
4E
330
1F
100
AcDbEntity
  8
0
  6
Continuous
 62
     7
370
     0
100
AcDbLine
 10
0.6262516046
 20
5.5170731707
 30
0.0
 11
0.5590701755
 21
5.5067650507
 31
0.0
  0
LINE
  5
4F
330
1F
100
AcDbEntity
  8
0
  6
Continuous
 62
     7
370
     0
100
AcDbLine
 10
0.6262516046
 20
5.5170731707
 30
0.0
 11
0.5590701755
 21
5.5261113291
 31
0.0
  0
LINE
  5
50
330
1F
100
AcDbEntity
  8
0
  6
Continuous
 62
     7
370
     0
100
AcDbLine
 10
0.5590701755
 20
5.5410828212
 30
0.0
 11
0.5590701755
 21
5.4944946453
 31
0.0
  0
LINE
  5
51
330
1F
100
AcDbEntity
  8
0
  6
Continuous
 62
     7
370
     0
100
AcDbLine
 10
0.6262516046
 20
5.5170731707
 30
0.0
 11
0.5590701755
 21
5.4944946453
 31
0.0
  0
LINE
  5
52
330
1F
100
AcDbEntity
  8
0
  6
Continuous
 62
     7
370
     0
100
AcDbLine
 10
0.6262516046
 20
5.5170731707
 30
0.0
 11
0.5590701755
 21
5.5410828212
 31
0.0
  0
LINE
  5
53
330
1F
100
AcDbEntity
  8
0
  6
Continuous
 62
     7
370
     0
100
AcDbLine
 10
0.6262516046
 20
5.5170731707
 30
0.0
 11
0.5012516046
 21
5.5170731707
 31
0.0
  0
LINE
  5
54
330
1F
100
AcDbEntity
  8
0
  6
Continuous
 62
     7
370
     0
100
AcDbLine
 10
0.6262516046
 20
8.0795731707
 30
0.0
 11
0.5012516046
 21
8.0795731707
 31
0.0
  0
LINE
  5
55
330
1F
100
AcDbEntity
  8
0
  6
Continuous
 62
     7
370
     0
100
AcDbLine
 10
10.5445087334
 20
0.3920731707
 30
0.0
 11
10.5445087334
 21
2.3564211366
 31
0.0
  0
LINE
  5
56
330
1F
100
AcDbEntity
  8
0
  6
Continuous
 62
     7
370
     0
100
AcDbLine
 10
8.5673591625
 20
2.3564211366
 30
0.0
 11
16.3762516046
 21
2.3564211366
 31
0.0
  0
LINE
  5
57
330
1F
100
AcDbEntity
  8
0
  6
Continuous
 62
     7
370
     0
100
AcDbLine
 10
11.925959856
 20
2.3564211366
 30
0.0
 11
11.925959856
 21
0.3920731707
 31
0.0
  0
LINE
  5
58
330
1F
100
AcDbEntity
  8
0
  6
Continuous
 62
     7
370
     0
100
AcDbLine
 10
13.617531609
 20
2.3564211366
 30
0.0
 11
13.617531609
 21
0.3920731707
 31
0.0
  0
LINE
  5
59
330
1F
100
AcDbEntity
  8
0
  6
Continuous
 62
     7
370
     0
100
AcDbLine
 10
13.617531609
 20
0.6049590101
 30
0.0
 11
16.3762516046
 21
0.6049590101
 31
0.0
  0
LINE
  5
5A
330
1F
100
AcDbEntity
  8
0
  6
Continuous
 62
     7
370
     0
100
AcDbLine
 10
13.617531609
 20
1.1119362457
 30
0.0
 11
16.3762516046
 21
1.1119362457
 31
0.0
  0
LINE
  5
5B
330
1F
100
AcDbEntity
  8
0
  6
Continuous
 62
     7
370
     0
100
AcDbLine
 10
13.617531609
 20
1.9892703708
 30
0.0
 11
16.3762516046
 21
1.9892703708
 31
0.0
  0
LINE
  5
5C
330
1F
100
AcDbEntity
  8
0
  6
Continuous
 62
     7
370
     0
100
AcDbLine
 10
14.0130763566
 20
1.1119362457
 30
0.0
 11
14.0130763566
 21
0.6049590101
 31
0.0
  0
LINE
  5
5D
330
1F
100
AcDbEntity
  8
0
  6
Continuous
 62
     7
370
     0
100
AcDbLine
 10
14.4406681222
 20
0.6049590101
 30
0.0
 11
14.4406681222
 21
0.3920731707
 31
0.0
  0
LINE
  5
5E
330
1F
100
AcDbEntity
  8
0
  6
Continuous
 62
     7
370
     0
100
AcDbLine
 10
15.8043163091
 20
1.1119362457
 30
0.0
 11
15.8043163091
 21
0.6049590101
 31
0.0
  0
LINE
  5
5F
330
1F
100
AcDbEntity
  8
0
  6
Continuous
 62
     7
370
     0
100
AcDbLine
 10
15.4125802677
 20
0.6049590101
 30
0.0
 11
15.4125802677
 21
0.3920731707
 31
0.0
  0
LINE
  5
60
330
1F
100
AcDbEntity
  8
0
  6
Continuous
 62
     7
370
     0
100
AcDbLine
 10
8.5673591625
 20
0.5883479999
 30
0.0
 11
11.925959856
 21
0.5883479999
 31
0.0
  0
LINE
  5
61
330
1F
100
AcDbEntity
  8
0
  6
Continuous
 62
     7
370
     0
100
AcDbLine
 10
11.925959856
 20
1.7939211366
 30
0.0
 11
13.617531609
 21
1.7939211366
 31
0.0
  0
LINE
  5
62
330
1F
100
AcDbEntity
  8
0
  6
Continuous
 62
     7
370
     0
100
AcDbLine
 10
11.925959856
 20
1.9814211366
 30
0.0
 11
13.617531609
 21
1.9814211366
 31
0.0
  0
LINE
  5
63
330
1F
100
AcDbEntity
  8
0
  6
Continuous
 62
     7
370
     0
100
AcDbLine
 10
11.925959856
 20
2.1689211366
 30
0.0
 11
13.617531609
 21
2.1689211366
 31
0.0
  0
LINE
  5
64
330
1F
100
AcDbEntity
  8
0
  6
Continuous
 62
     7
370
     0
100
AcDbLine
 10
13.617531609
 20
1.2314211366
 30
0.0
 11
11.925959856
 21
1.2314211366
 31
0.0
  0
LINE
  5
65
330
1F
100
AcDbEntity
  8
0
  6
Continuous
 62
     7
370
     0
100
AcDbLine
 10
13.1384826434
 20
2.3564211366
 30
0.0
 11
13.1384826434
 21
1.2314211366
 31
0.0
  0
LINE
  5
66
330
1F
100
AcDbEntity
  8
0
  6
Continuous
 62
     7
370
     0
100
AcDbLine
 10
12.6699554388
 20
2.3564211366
 30
0.0
 11
12.6699554388
 21
1.2314211366
 31
0.0
  0
LINE
  5
67
330
1F
100
AcDbEntity
  8
0
  6
Continuous
 62
     7
370
     0
100
AcDbLine
 10
10.5445087334
 20
0.8557965305
 30
0.0
 11
11.925959856
 21
0.8557965305
 31
0.0
  0
LINE
  5
68
330
1F
100
AcDbEntity
  8
0
  6
Continuous
 62
     7
370
     0
100
AcDbLine
 10
10.5445087334
 20
1.1257965305
 30
0.0
 11
11.925959856
 21
1.1257965305
 31
0.0
  0
LINE
  5
69
330
1F
100
AcDbEntity
  8
0
  6
Continuous
 62
     7
370
     0
100
AcDbLine
 10
8.5673591625
 20
0.3920731707
 30
0.0
 11
8.5673591625
 21
2.3564211366
 31
0.0
  0
LINE
  5
6A
330
1F
100
AcDbEntity
  8
0
  6
Continuous
 62
     7
370
     0
100
AcDbLine
 10
8.5673591625
 20
1.1064211366
 30
0.0
 11
10.5445087334
 21
1.1064211366
 31
0.0
  0
LINE
  5
6B
330
1F
100
AcDbEntity
  8
0
  6
Continuous
 62
     7
370
     0
100
AcDbLine
 10
8.5673591625
 20
1.3564211366
 30
0.0
 11
10.5445087334
 21
1.3564211366
 31
0.0
  0
LINE
  5
6C
330
1F
100
AcDbEntity
  8
0
  6
Continuous
 62
     7
370
     0
100
AcDbLine
 10
8.5673591625
 20
1.6064211366
 30
0.0
 11
10.5445087334
 21
1.6064211366
 31
0.0
  0
LINE
  5
6D
330
1F
100
AcDbEntity
  8
0
  6
Continuous
 62
     7
370
     0
100
AcDbLine
 10
8.5673591625
 20
1.8564211366
 30
0.0
 11
10.5445087334
 21
1.8564211366
 31
0.0
  0
LINE
  5
6E
330
1F
100
AcDbEntity
  8
0
  6
Continuous
 62
     7
370
     0
100
AcDbLine
 10
9.5653392922
 20
2.3564211366
 30
0.0
 11
9.5653392922
 21
0.5883479999
 31
0.0
  0
LINE
  5
6F
330
1F
100
AcDbEntity
  8
0
  6
Continuous
 62
     7
370
     0
100
AcDbLine
 10
11.925959856
 20
2.2020813496
 30
0.0
 11
10.5445087334
 21
2.2020813496
 31
0.0
  0
LINE
  5
70
330
1F
100
AcDbEntity
  8
0
  6
Continuous
 62
     7
370
     0
100
AcDbLine
 10
13.617531609
 20
1.6064211366
 30
0.0
 11
11.925959856
 21
1.6064211366
 31
0.0
  0
LINE
  5
71
330
1F
100
AcDbEntity
  8
0
  6
Continuous
 62
     7
370
     0
100
AcDbLine
 10
13.617531609
 20
1.4189211366
 30
0.0
 11
11.925959856
 21
1.4189211366
 31
0.0
  0
LINE
  5
72
330
1F
100
AcDbEntity
  8
0
  6
Continuous
 62
     7
370
     0
100
AcDbLine
 10
8.5673591625
 20
2.1064211366
 30
0.0
 11
10.5445087334
 21
2.1064211366
 31
0.0
  0
LINE
  5
73
330
1F
100
AcDbEntity
  8
0
  6
Continuous
 62
     7
370
     0
100
AcDbLine
 10
10.5445087334
 20
1.3957965305
 30
0.0
 11
11.925959856
 21
1.3957965305
 31
0.0
  0
LINE
  5
74
330
1F
100
AcDbEntity
  8
0
  6
Continuous
 62
     7
370
     0
100
AcDbLine
 10
8.5673591625
 20
0.8564211366
 30
0.0
 11
10.5445087334
 21
0.8564211366
 31
0.0
  0
LINE
  5
75
330
1F
100
AcDbEntity
  8
0
  6
Continuous
 62
     7
370
     0
100
AcDbLine
 10
6.9301498989
 20
0.3920731707
 30
0.0
 11
6.9301498989
 21
1.3064211366
 31
0.0
  0
LINE
  5
76
330
1F
100
AcDbEntity
  8
0
  6
Continuous
 62
     7
370
     0
100
AcDbLine
 10
8.5673591625
 20
1.3064211366
 30
0.0
 11
6.9301498989
 21
1.3064211366
 31
0.0
  0
LINE
  5
77
330
1F
100
AcDbEntity
  8
0
  6
Continuous
 62
     7
370
     0
100
AcDbLine
 10
14.4072516046
 20
0.3920731707
 30
0.0
 11
14.4072516046
 21
0.3072739649
 31
0.0
  0
LINE
  5
78
330
1F
100
AcDbEntity
  8
0
  6
Continuous
 62
     7
370
     0
100
AcDbLine
 10
12.4385016046
 20
0.3920731707
 30
0.0
 11
12.4385016046
 21
0.3072739649
 31
0.0
  0
LINE
  5
79
330
1F
100
AcDbEntity
  8
0
  6
Continuous
 62
     7
370
     0
100
AcDbLine
 10
10.4697516046
 20
0.3920731707
 30
0.0
 11
10.4697516046
 21
0.3072739649
 31
0.0
  0
LINE
  5
7A
330
1F
100
AcDbEntity
  8
0
  6
Continuous
 62
     7
370
     0
100
AcDbLine
 10
8.5010016046
 20
0.3920731707
 30
0.0
 11
8.5010016046
 21
0.3072739649
 31
0.0
  0
LINE
  5
7B
330
1F
100
AcDbEntity
  8
0
  6
Continuous
 62
     7
370
     0
100
AcDbLine
 10
6.5322516046
 20
0.3920731707
 30
0.0
 11
6.5322516046
 21
0.3072739649
 31
0.0
  0
LINE
  5
7C
330
1F
100
AcDbEntity
  8
0
  6
Continuous
 62
     7
370
     0
100
AcDbLine
 10
4.5635016046
 20
0.3920731707
 30
0.0
 11
4.5635016046
 21
0.3072739649
 31
0.0
  0
LINE
  5
7D
330
1F
100
AcDbEntity
  8
0
  6
Continuous
 62
     7
370
     0
100
AcDbLine
 10
2.5947516046
 20
0.3920731707
 30
0.0
 11
2.5947516046
 21
0.3072739649
 31
0.0
  0
LINE
  5
7E
330
1F
100
AcDbEntity
  8
0
  6
Continuous
 62
     7
370
     0
100
AcDbLine
 10
2.5947516046
 20
10.6420731707
 30
0.0
 11
2.5947516046
 21
10.7268723765
 31
0.0
  0
LINE
  5
7F
330
1F
100
AcDbEntity
  8
0
  6
Continuous
 62
     7
370
     0
100
AcDbLine
 10
4.5635016046
 20
10.6420731707
 30
0.0
 11
4.5635016046
 21
10.7268723765
 31
0.0
  0
LINE
  5
80
330
1F
100
AcDbEntity
  8
0
  6
Continuous
 62
     7
370
     0
100
AcDbLine
 10
6.5322516046
 20
10.6420731707
 30
0.0
 11
6.5322516046
 21
10.7268723765
 31
0.0
  0
LINE
  5
81
330
1F
100
AcDbEntity
  8
0
  6
Continuous
 62
     7
370
     0
100
AcDbLine
 10
8.5010016046
 20
10.6420731707
 30
0.0
 11
8.5010016046
 21
10.7268723765
 31
0.0
  0
LINE
  5
82
330
1F
100
AcDbEntity
  8
0
  6
Continuous
 62
     7
370
     0
100
AcDbLine
 10
10.4697516046
 20
10.6420731707
 30
0.0
 11
10.4697516046
 21
10.7268723765
 31
0.0
  0
LINE
  5
83
330
1F
100
AcDbEntity
  8
0
  6
Continuous
 62
     7
370
     0
100
AcDbLine
 10
12.4385016046
 20
10.6420731707
 30
0.0
 11
12.4385016046
 21
10.7268723765
 31
0.0
  0
LINE
  5
84
330
1F
100
AcDbEntity
  8
0
  6
Continuous
 62
     7
370
     0
100
AcDbLine
 10
14.4072516046
 20
10.6420731707
 30
0.0
 11
14.4072516046
 21
10.7268723765
 31
0.0
  0
LINE
  5
85
330
1F
100
AcDbEntity
  8
0
  6
Continuous
 62
     7
370
     0
100
AcDbLine
 10
8.5010016046
 20
10.6420731707
 30
0.0
 11
8.4877504872
 21
10.6840054626
 31
0.0
  0
LINE
  5
86
330
1F
100
AcDbEntity
  8
0
  6
Continuous
 62
     7
370
     0
100
AcDbLine
 10
8.5010016046
 20
10.6420731707
 30
0.0
 11
8.5135565785
 21
10.6840054626
 31
0.0
  0
LINE
  5
87
330
1F
100
AcDbEntity
  8
0
  6
Continuous
 62
     7
370
     0
100
AcDbLine
 10
8.5135565785
 20
10.6840054626
 30
0.0
 11
8.4877504872
 21
10.6840054626
 31
0.0
  0
LINE
  5
88
330
1F
100
AcDbEntity
  8
0
  6
Continuous
 62
     7
370
     0
100
AcDbLine
 10
8.4939630647
 20
10.6840054626
 30
0.0
 11
8.5010016046
 21
10.6420731707
 31
0.0
  0
LINE
  5
89
330
1F
100
AcDbEntity
  8
0
  6
Continuous
 62
     7
370
     0
100
AcDbLine
 10
8.5059103292
 20
10.6840054626
 30
0.0
 11
8.5010016046
 21
10.6420731707
 31
0.0
  0
LINE
  5
8A
330
1F
100
AcDbEntity
  8
0
  6
Continuous
 62
     7
370
     0
100
AcDbLine
 10
8.5010016046
 20
0.3920731707
 30
0.0
 11
8.5135565785
 21
0.3575
 31
0.0
  0
LINE
  5
8B
330
1F
100
AcDbEntity
  8
0
  6
Continuous
 62
     7
370
     0
100
AcDbLine
 10
8.5135565785
 20
0.3575
 30
0.0
 11
8.4877504872
 21
0.3575
 31
0.0
  0
LINE
  5
8C
330
1F
100
AcDbEntity
  8
0
  6
Continuous
 62
     7
370
     0
100
AcDbLine
 10
8.4877504872
 20
0.3575
 30
0.0
 11
8.5010016046
 21
0.3920731707
 31
0.0
  0
MTEXT
  5
B0
330
1F
100
AcDbEntity
  8
0
  6
Continuous
 62
     7
370
     0
100
AcDbMText
 10
16.4913158734
 20
9.4910002143
 30
0.0
 40
0.09375
 41
0.0
 71
     1
 72
     1
  1
D
  7
SLDTEXTSTYLE0
 73
     1
 44
1.0
  0
MTEXT
  5
B1
330
1F
100
AcDbEntity
  8
0
  6
Continuous
 62
     7
370
     0
100
AcDbMText
 10
16.4711826244
 20
6.9050796101
 30
0.0
 40
0.09375
 41
0.0
 71
     1
 72
     1
  1
C
  7
SLDTEXTSTYLE0
 73
     1
 44
1.0
  0
MTEXT
  5
B2
330
1F
100
AcDbEntity
  8
0
  6
Continuous
 62
     7
370
     0
100
AcDbMText
 10
16.5114787596
 20
4.3790880757
 30
0.0
 40
0.09375
 41
0.0
 71
     1
 72
     1
  1
B
  7
SLDTEXTSTYLE0
 73
     1
 44
1.0
  0
MTEXT
  5
B3
330
1F
100
AcDbEntity
  8
0
  6
Continuous
 62
     7
370
     0
100
AcDbMText
 10
16.4820809255
 20
1.7726256602
 30
0.0
 40
0.09375
 41
0.0
 71
     1
 72
     1
  1
A
  7
SLDTEXTSTYLE0
 73
     1
 44
1.0
  0
MTEXT
  5
B4
330
1F
100
AcDbEntity
  8
0
  6
Continuous
 62
     7
370
     0
100
AcDbMText
 10
0.4260099495
 20
1.7558500975
 30
0.0
 40
0.09375
 41
0.0
 71
     1
 72
     1
  1
A
  7
SLDTEXTSTYLE0
 73
     1
 44
1.0
  0
MTEXT
  5
B5
330
1F
100
AcDbEntity
  8
0
  6
Continuous
 62
     7
370
     0
100
AcDbMText
 10
0.4264017314
 20
4.3932455017
 30
0.0
 40
0.09375
 41
0.0
 71
     1
 72
     1
  1
B
  7
SLDTEXTSTYLE0
 73
     1
 44
1.0
  0
MTEXT
  5
B6
330
1F
100
AcDbEntity
  8
0
  6
Continuous
 62
     7
370
     0
100
AcDbMText
 10
0.427314415
 20
6.9103438243
 30
0.0
 40
0.09375
 41
0.0
 71
     1
 72
     1
  1
C
  7
SLDTEXTSTYLE0
 73
     1
 44
1.0
  0
MTEXT
  5
B7
330
1F
100
AcDbEntity
  8
0
  6
Continuous
 62
     7
370
     0
100
AcDbMText
 10
0.42861048
 20
9.4575473632
 30
0.0
 40
0.09375
 41
0.0
 71
     1
 72
     1
  1
D
  7
SLDTEXTSTYLE0
 73
     1
 44
1.0
  0
MTEXT
  5
B8
330
1F
100
AcDbEntity
  8
0
  6
Continuous
 62
     7
370
     0
100
AcDbMText
 10
15.4083167374
 20
0.301372012
 30
0.0
 40
0.09375
 41
0.0
 71
     1
 72
     1
  1
1
  7
SLDTEXTSTYLE0
 73
     1
 44
1.0
  0
MTEXT
  5
B9
330
1F
100
AcDbEntity
  8
0
  6
Continuous
 62
     7
370
     0
100
AcDbMText
 10
13.352296777
 20
0.3124391351
 30
0.0
 40
0.09375
 41
0.0
 71
     1
 72
     1
  1
2
  7
SLDTEXTSTYLE0
 73
     1
 44
1.0
  0
MTEXT
  5
BA
330
1F
100
AcDbEntity
  8
0
  6
Continuous
 62
     7
370
     0
100
AcDbMText
 10
11.3787703324
 20
0.3116191842
 30
0.0
 40
0.09375
 41
0.0
 71
     1
 72
     1
  1
3
  7
SLDTEXTSTYLE0
 73
     1
 44
1.0
  0
MTEXT
  5
BB
330
1F
100
AcDbEntity
  8
0
  6
Continuous
 62
     7
370
     0
100
AcDbMText
 10
9.4701249316
 20
0.3137237518
 30
0.0
 40
0.09375
 41
0.0
 71
     1
 72
     1
  1
4
  7
SLDTEXTSTYLE0
 73
     1
 44
1.0
  0
MTEXT
  5
BC
330
1F
100
AcDbEntity
  8
0
  6
Continuous
 62
     7
370
     0
100
AcDbMText
 10
7.4851155555
 20
0.3105864247
 30
0.0
 40
0.09375
 41
0.0
 71
     1
 72
     1
  1
5
  7
SLDTEXTSTYLE0
 73
     1
 44
1.0
  0
MTEXT
  5
BD
330
1F
100
AcDbEntity
  8
0
  6
Continuous
 62
     7
370
     0
100
AcDbMText
 10
5.5188252386
 20
0.3136554184
 30
0.0
 40
0.09375
 41
0.0
 71
     1
 72
     1
  1
6
  7
SLDTEXTSTYLE0
 73
     1
 44
1.0
  0
MTEXT
  5
BE
330
1F
100
AcDbEntity
  8
0
  6
Continuous
 62
     7
370
     0
100
AcDbMText
 10
3.5574266754
 20
0.3132610152
 30
0.0
 40
0.09375
 41
0.0
 71
     1
 72
     1
  1
7
  7
SLDTEXTSTYLE0
 73
     1
 44
1.0
  0
MTEXT
  5
BF
330
1F
100
AcDbEntity
  8
0
  6
Continuous
 62
     7
370
     0
100
AcDbMText
 10
1.5267744527
 20
0.3129627523
 30
0.0
 40
0.09375
 41
0.0
 71
     1
 72
     1
  1
8
  7
SLDTEXTSTYLE0
 73
     1
 44
1.0
  0
MTEXT
  5
C0
330
1F
100
AcDbEntity
  8
0
  6
Continuous
 62
     7
370
     0
100
AcDbMText
 10
1.5090888689
 20
10.8314982566
 30
0.0
 40
0.09375
 41
0.0
 71
     1
 72
     1
  1
8
  7
SLDTEXTSTYLE0
 73
     1
 44
1.0
  0
MTEXT
  5
C1
330
1F
100
AcDbEntity
  8
0
  6
Continuous
 62
     7
370
     0
100
AcDbMText
 10
3.5509870273
 20
10.8286572975
 30
0.0
 40
0.09375
 41
0.0
 71
     1
 72
     1
  1
7
  7
SLDTEXTSTYLE0
 73
     1
 44
1.0
  0
MTEXT
  5
C2
330
1F
100
AcDbEntity
  8
0
  6
Continuous
 62
     7
370
     0
100
AcDbMText
 10
5.4986876861
 20
10.8367485308
 30
0.0
 40
0.09375
 41
0.0
 71
     1
 72
     1
  1
6
  7
SLDTEXTSTYLE0
 73
     1
 44
1.0
  0
MTEXT
  5
C3
330
1F
100
AcDbEntity
  8
0
  6
Continuous
 62
     7
370
     0
100
AcDbMText
 10
7.4786946819
 20
10.8372850881
 30
0.0
 40
0.09375
 41
0.0
 71
     1
 72
     1
  1
5
  7
SLDTEXTSTYLE0
 73
     1
 44
1.0
  0
MTEXT
  5
C4
330
1F
100
AcDbEntity
  8
0
  6
Continuous
 62
     7
370
     0
100
AcDbMText
 10
9.464298725
 20
10.8356557449
 30
0.0
 40
0.09375
 41
0.0
 71
     1
 72
     1
  1
4
  7
SLDTEXTSTYLE0
 73
     1
 44
1.0
  0
MTEXT
  5
C5
330
1F
100
AcDbEntity
  8
0
  6
Continuous
 62
     7
370
     0
100
AcDbMText
 10
11.432728105
 20
10.8295222638
 30
0.0
 40
0.09375
 41
0.0
 71
     1
 72
     1
  1
3
  7
SLDTEXTSTYLE0
 73
     1
 44
1.0
  0
MTEXT
  5
C6
330
1F
100
AcDbEntity
  8
0
  6
Continuous
 62
     7
370
     0
100
AcDbMText
 10
13.4009949841
 20
10.8362021378
 30
0.0
 40
0.09375
 41
0.0
 71
     1
 72
     1
  1
2
  7
SLDTEXTSTYLE0
 73
     1
 44
1.0
  0
MTEXT
  5
C7
330
1F
100
AcDbEntity
  8
0
  6
Continuous
 62
     7
370
     0
100
AcDbMText
 10
15.4273970005
 20
10.8300686568
 30
0.0
 40
0.09375
 41
0.0
 71
     1
 72
     1
  1
1
  7
SLDTEXTSTYLE0
 73
     1
 44
1.0
  0
INSERT
  5
D2
330
1F
100
AcDbEntity
  8
0
  6
Continuous
 62
     7
370
     0
100
AcDbBlockReference
  2
SW_NOTE_0
 10
6.968945512
 20
1.0313492921
 30
0.0
  0
MTEXT
  5
D3
330
1F
100
AcDbEntity
  8
0
  6
Continuous
 62
     7
370
     0
100
AcDbMText
 10
7.1175735535
 20
1.2496672684
 30
0.0
 40
0.06
 41
0.0
 71
     1
 72
     1
  1
PROPRIETARY AND CONFIDENTIAL
  7
SLDTEXTSTYLE0
 73
     1
 44
1.0
  0
MTEXT
  5
D4
330
1F
100
AcDbEntity
  8
0
  6
Continuous
 62
     7
370
     0
100
AcDbMText
 10
8.8503265582
 20
0.7492094783
 30
0.0
 40
0.0625
 41
0.0
 71
     1
 72
     1
  1
NEXT ASSY
  7
SLDTEXTSTYLE0
 73
     1
 44
1.0
  0
MTEXT
  5
D5
330
1F
100
AcDbEntity
  8
0
  6
Continuous
 62
     7
370
     0
100
AcDbMText
 10
9.8468853805
 20
0.7502454275
 30
0.0
 40
0.0625
 41
0.0
 71
     1
 72
     1
  1
USED ON
  7
SLDTEXTSTYLE0
 73
     1
 44
1.0
  0
MTEXT
  5
D6
330
1F
100
AcDbEntity
  8
0
  6
Continuous
 62
     7
370
     0
100
AcDbMText
 10
9.2994646132
 20
0.5200091997
 30
0.0
 40
0.0625
 41
0.0
 71
     1
 72
     1
  1
APPLICATION
  7
SLDTEXTSTYLE0
 73
     1
 44
1.0
  0
INSERT
  5
E6
330
1F
100
AcDbEntity
  8
0
  6
Continuous
 62
     7
370
     0
100
AcDbBlockReference
  2
SW_NOTE_1
 10
10.5816585399
 20
2.0049168724
 30
0.0
  0
INSERT
  5
EC
330
1F
100
AcDbEntity
  8
0
  6
Continuous
 62
     7
370
     0
100
AcDbBlockReference
  2
SW_NOTE_2
 10
10.5695172679
 20
1.2646542947
 30
0.0
  0
MTEXT
  5
ED
330
1F
100
AcDbEntity
  8
0
  6
Continuous
 62
     7
370
     0
100
AcDbMText
 10
10.5644486694
 20
1.1028217587
 30
0.0
 40
0.06
 41
0.0
 71
     1
 72
     1
  1
MATERIAL
  7
SLDTEXTSTYLE0
 73
     1
 44
1.0
  0
MTEXT
  5
EE
330
1F
100
AcDbEntity
  8
0
  6
Continuous
 62
     7
370
     0
100
AcDbMText
 10
10.5671847025
 20
0.834523235
 30
0.0
 40
0.06
 41
0.0
 71
     1
 72
     1
  1
FINISH
  7
SLDTEXTSTYLE0
 73
     1
 44
1.0
  0
MTEXT
  5
EF
330
1F
100
AcDbEntity
  8
0
  6
Continuous
 62
     7
370
     0
100
AcDbMText
 10
11.9706040402
 20
2.1016301232
 30
0.0
 40
0.065
 41
0.0
 71
     1
 72
     1
  1
DRAWN
  7
SLDTEXTSTYLE0
 73
     1
 44
1.0
  0
MTEXT
  5
F0
330
1F
100
AcDbEntity
  8
0
  6
Continuous
 62
     7
370
     0
100
AcDbMText
 10
11.9727349997
 20
1.9092699088
 30
0.0
 40
0.065
 41
0.0
 71
     1
 72
     1
  1
CHECKED
  7
SLDTEXTSTYLE0
 73
     1
 44
1.0
  0
MTEXT
  5
F1
330
1F
100
AcDbEntity
  8
0
  6
Continuous
 62
     7
370
     0
100
AcDbMText
 10
11.969841739
 20
1.7267501785
 30
0.0
 40
0.065
 41
0.0
 71
     1
 72
     1
  1
ENG APPR.
  7
SLDTEXTSTYLE0
 73
     1
 44
1.0
  0
MTEXT
  5
F2
330
1F
100
AcDbEntity
  8
0
  6
Continuous
 62
     7
370
     0
100
AcDbMText
 10
11.9747900555
 20
1.5395328424
 30
0.0
 40
0.065
 41
0.0
 71
     1
 72
     1
  1
MFG APPR.
  7
SLDTEXTSTYLE0
 73
     1
 44
1.0
  0
MTEXT
  5
F3
330
1F
100
AcDbEntity
  8
0
  6
Continuous
 62
     7
370
     0
100
AcDbMText
 10
11.9731657507
 20
1.3536101679
 30
0.0
 40
0.065
 41
0.0
 71
     1
 72
     1
  1
Q.A.
  7
SLDTEXTSTYLE0
 73
     1
 44
1.0
  0
MTEXT
  5
F4
330
1F
100
AcDbEntity
  8
0
  6
Continuous
 62
     7
370
     0
100
AcDbMText
 10
11.9740393075
 20
1.1876913145
 30
0.0
 40
0.065
 41
0.0
 71
     1
 72
     1
  1
COMMENTS:
  7
SLDTEXTSTYLE0
 73
     1
 44
1.0
  0
MTEXT
  5
F5
330
1F
100
AcDbEntity
  8
0
  6
Continuous
 62
     7
370
     0
100
AcDbMText
 10
13.274475668
 20
2.2888799118
 30
0.0
 40
0.065
 41
0.0
 71
     1
 72
     1
  1
DATE
  7
SLDTEXTSTYLE0
 73
     1
 44
1.0
  0
MTEXT
  5
F6
330
1F
100
AcDbEntity
  8
0
  6
Continuous
 62
     7
370
     0
100
AcDbMText
 10
12.7827020976
 20
2.2906161274
 30
0.0
 40
0.065
 41
0.0
 71
     1
 72
     1
  1
NAME
  7
SLDTEXTSTYLE0
 73
     1
 44
1.0
  0
MTEXT
  5
F7
330
1F
100
AcDbEntity
  8
0
  6
Continuous
 62
     7
370
     0
100
AcDbMText
 10
13.6633950223
 20
1.9547881128
 30
0.0
 40
0.1
 41
0.0
 71
     1
 72
     1
  1
TITLE:
  7
SLDTEXTSTYLE0
 73
     1
 44
1.0
  0
MTEXT
  5
F8
330
1F
100
AcDbEntity
  8
0
  6
Continuous
 62
     7
370
     0
100
AcDbMText
 10
13.6982827868
 20
1.0872713483
 30
0.0
 40
0.1
 41
0.0
 71
     1
 72
     1
  1
SIZE
  7
SLDTEXTSTYLE0
 73
     1
 44
1.0
  0
MTEXT
  5
F9
330
1F
100
AcDbEntity
  8
0
  6
Continuous
 62
     7
370
     0
100
AcDbMText
 10
13.7061728678
 20
0.9442140768
 30
0.0
 40
0.25
 41
0.0
 71
     1
 72
     1
  1
B
  7
SLDTEXTSTYLE0
 73
     1
 44
1.0
  0
MTEXT
  5
FB
330
1F
100
AcDbEntity
  8
0
  6
Continuous
 62
     7
370
     0
100
AcDbMText
 10
14.0447816944
 20
1.0858725293
 30
0.0
 40
0.1
 41
0.0
 71
     1
 72
     1
  1
DWG.  NO.
  7
SLDTEXTSTYLE1
 73
     1
 44
1.0
  0
MTEXT
  5
FC
330
1F
100
AcDbEntity
  8
0
  6
Continuous
 62
     7
370
     0
100
AcDbMText
 10
15.974082703
 20
1.081966299
 30
0.0
 40
0.1
 41
0.0
 71
     1
 72
     1
  1
REV
  7
SLDTEXTSTYLE0
 73
     1
 44
1.0
  0
MTEXT
  5
FD
330
1F
100
AcDbEntity
  8
0
  6
Continuous
 62
     7
370
     0
100
AcDbMText
 10
14.4486937693
 20
0.5486763345
 30
0.0
 40
0.1
 41
0.0
 71
     1
 72
     1
  1
WEIGHT: 
  7
SLDTEXTSTYLE0
 73
     1
 44
1.0
  0
MTEXT
  5
FE
330
1F
100
AcDbEntity
  8
0
  6
Continuous
 62
     7
370
     0
100
AcDbMText
 10
13.7049385694
 20
0.5520987879
 30
0.0
 40
0.1
 41
0.0
 71
     1
 72
     1
  1
SCALE: 1:4
  7
SLDTEXTSTYLE0
 73
     1
 44
1.0
  0
MTEXT
  5
FF
330
1F
100
AcDbEntity
  8
0
  6
Continuous
 62
     7
370
     0
100
AcDbMText
 10
10.5911323904
 20
2.3132954224
 30
0.0
 40
0.07
 41
0.0
 71
     1
 72
     1
  1
UNLESS OTHERWISE SPECIFIED:
  7
SLDTEXTSTYLE0
 73
     1
 44
1.0
  0
MTEXT
  5
101
330
1F
100
AcDbEntity
  8
0
  6
Continuous
 62
     7
370
     0
100
AcDbMText
 10
15.5034524529
 20
0.5524239532
 30
0.0
 40
0.1
 41
0.0
 71
     1
 72
     1
  1
SHEET 1 OF 1
  7
SLDTEXTSTYLE2
 73
     1
 44
1.0
  0
MTEXT
  5
102
330
1F
100
AcDbEntity
  8
FORMAT
 62
     7
100
AcDbMText
 10
14.2087852314
 20
0.9500621419
 30
0.0
 40
0.25
 41
0.0
 71
     1
 72
     1
  1
PH 20000
  7
SLDTEXTSTYLE0
 73
     1
 44
1.0
  0
MTEXT
  5
103
330
1F
100
AcDbEntity
  8
0
  6
Continuous
 62
     7
370
     0
100
AcDbMText
 10
10.7239093007
 20
0.5178452352
 30
0.0
 40
0.0625
 41
0.0
 71
     1
 72
     1
  1
DO NOT SCALE DRAWING
  7
SLDTEXTSTYLE0
 73
     1
 44
1.0
  0
LINE
  5
104
330
1F
100
AcDbEntity
  8
0
  6
Continuous
 62
     7
370
    15
100
AcDbLine
 10
4.4962451112
 20
4.6877771954
 30
0.0
 11
4.4962451112
 21
4.6736134352
 31
0.0
  0
LINE
  5
105
330
1F
100
AcDbEntity
  8
0
  6
Continuous
 62
     7
370
    15
100
AcDbLine
 10
4.4999951112
 20
4.6915271954
 30
0.0
 11
4.4962451112
 21
4.6877771954
 31
0.0
  0
LINE
  5
106
330
1F
100
AcDbEntity
  8
0
  6
Continuous
 62
     7
370
    15
100
AcDbLine
 10
4.4962451112
 20
4.2712614474
 30
0.0
 11
4.4999951112
 21
4.2675114474
 31
0.0
  0
LINE
  5
107
330
1F
100
AcDbEntity
  8
0
  6
Continuous
 62
     7
370
    15
100
AcDbLine
 10
4.4962451112
 20
4.2854252075
 30
0.0
 11
4.4962451112
 21
4.2712614474
 31
0.0
  0
CIRCLE
  5
108
330
1F
100
AcDbEntity
  8
0
  6
Continuous
 62
     7
370
    15
100
AcDbCircle
 10
5.2852214892
 20
4.4795193214
 30
0.0
 40
0.46875
  0
CIRCLE
  5
109
330
1F
100
AcDbEntity
  8
0
  6
Continuous
 62
     7
370
    15
100
AcDbCircle
 10
5.2852214892
 20
4.4795193214
 30
0.0
 40
0.21875
  0
CIRCLE
  5
10A
330
1F
100
AcDbEntity
  8
0
  6
Continuous
 62
     7
370
    15
100
AcDbCircle
 10
4.8945964892
 20
4.4795193214
 30
0.0
 40
0.0390624999999991
  0
CIRCLE
  5
10B
330
1F
100
AcDbEntity
  8
0
  6
Continuous
 62
     7
370
    15
100
AcDbCircle
 10
5.4805339892
 20
4.141228148
 30
0.0
 40
0.0390625000000009
  0
CIRCLE
  5
10C
330
1F
100
AcDbEntity
  8
0
  6
Continuous
 62
     7
370
    15
100
AcDbCircle
 10
5.0899089892
 20
4.141228148
 30
0.0
 40
0.0390625
  0
CIRCLE
  5
10D
330
1F
100
AcDbEntity
  8
0
  6
Continuous
 62
     7
370
    15
100
AcDbCircle
 10
5.6758464892
 20
4.4795193214
 30
0.0
 40
0.0390625
  0
CIRCLE
  5
10E
330
1F
100
AcDbEntity
  8
0
  6
Continuous
 62
     7
370
    15
100
AcDbCircle
 10
5.4805339892
 20
4.8178104947
 30
0.0
 40
0.0390625
  0
CIRCLE
  5
10F
330
1F
100
AcDbEntity
  8
0
  6
Continuous
 62
     7
370
    15
100
AcDbCircle
 10
5.0899089892
 20
4.8178104947
 30
0.0
 40
0.0390625
  0
CIRCLE
  5
110
330
1F
100
AcDbEntity
  8
0
  6
Continuous
 62
     7
370
    15
100
AcDbCircle
 10
5.2852214892
 20
4.4795193214
 30
0.0
 40
0.7999999999999998
  0
CIRCLE
  5
111
330
1F
100
AcDbEntity
  8
0
  6
Continuous
 62
     7
370
    15
100
AcDbCircle
 10
5.2852214892
 20
4.4795193214
 30
0.0
 40
0.8125
  0
LINE
  5
112
330
1F
100
AcDbEntity
  8
0
  6
Continuous
 62
     7
370
    15
100
AcDbLine
 10
4.4998649409
 20
4.6877771954
 30
0.0
 11
4.4962451112
 21
4.6877771954
 31
0.0
  0
LINE
  5
113
330
1F
100
AcDbEntity
  8
0
  6
Continuous
 62
     7
370
    15
100
AcDbLine
 10
4.4999951112
 20
4.6915271954
 30
0.0
 11
4.5008689464
 21
4.6915271954
 31
0.0
  0
LINE
  5
114
330
1F
100
AcDbEntity
  8
0
  6
Continuous
 62
     7
370
    15
100
AcDbLine
 10
4.4999951112
 20
4.2675114474
 30
0.0
 11
4.5008689464
 21
4.2675114474
 31
0.0
  0
LINE
  5
115
330
1F
100
AcDbEntity
  8
0
  6
Continuous
 62
     7
370
    15
100
AcDbLine
 10
4.4998649409
 20
4.2712614474
 30
0.0
 11
4.4962451112
 21
4.2712614474
 31
0.0
  0
LINE
  5
116
330
1F
100
AcDbEntity
  8
0
  6
HIDDEN
 62
     7
370
     0
100
AcDbLine
 10
4.5602214892
 20
4.3560941245
 30
0.0
 11
4.629119127
 21
4.3560941245
 31
0.0
  0
LINE
  5
117
330
1F
100
AcDbEntity
  8
0
  6
HIDDEN
 62
     7
370
     0
100
AcDbLine
 10
4.4913238514
 20
4.3560941245
 30
0.0
 11
4.5602214892
 21
4.3560941245
 31
0.0
  0
LINE
  5
118
330
1F
100
AcDbEntity
  8
0
  6
HIDDEN
 62
     7
370
     0
100
AcDbLine
 10
4.8528473062
 20
5.0959133742
 30
0.0
 11
4.9675956722
 21
5.1621633742
 31
0.0
  0
LINE
  5
119
330
1F
100
AcDbEntity
  8
0
  6
HIDDEN
 62
     7
370
     0
100
AcDbLine
 10
5.8171701424
 20
5.012360473
 30
0.0
 11
5.9023395006
 21
4.9108595843
 31
0.0
  0
LINE
  5
11A
330
1F
100
AcDbEntity
  8
0
  6
HIDDEN
 62
     7
370
     0
100
AcDbLine
 10
4.9675956722
 20
3.7968752686
 30
0.0
 11
4.8528473062
 21
3.8631252686
 31
0.0
  0
LINE
  5
11B
330
1F
100
AcDbEntity
  8
0
  6
HIDDEN
 62
     7
370
     0
100
AcDbLine
 10
5.9023395006
 20
4.0481790585
 30
0.0
 11
5.8171701424
 21
3.9466781698
 31
0.0
  0
LINE
  5
11C
330
1F
100
AcDbEntity
  8
0
  6
HIDDEN
 62
     7
370
     0
100
AcDbLine
 10
4.629119127
 20
4.6029445182
 30
0.0
 11
4.4913238514
 21
4.6029445182
 31
0.0
  0
LINE
  5
11D
330
1F
100
AcDbEntity
  8
0
  6
HIDDEN
 62
     7
370
     0
100
AcDbLine
 10
4.5602214892
 20
4.6127870379
 30
0.0
 11
4.6241978671
 21
4.6127870379
 31
0.0
  0
LINE
  5
11E
330
1F
100
AcDbEntity
  8
0
  6
HIDDEN
 62
     7
370
     0
100
AcDbLine
 10
4.4962451112
 20
4.6127870379
 30
0.0
 11
4.5602214892
 21
4.6127870379
 31
0.0
  0
LINE
  5
11F
330
1F
100
AcDbEntity
  8
0
  6
HIDDEN
 62
     7
370
     0
100
AcDbLine
 10
4.5602214892
 20
4.6877771954
 30
0.0
 11
4.4998649409
 21
4.6877771954
 31
0.0
  0
LINE
  5
120
330
1F
100
AcDbEntity
  8
0
  6
HIDDEN
 62
     7
370
     0
100
AcDbLine
 10
4.6241978671
 20
4.6877771954
 30
0.0
 11
4.5602214892
 21
4.6877771954
 31
0.0
  0
LINE
  5
121
330
1F
100
AcDbEntity
  8
0
  6
HIDDEN
 62
     7
370
     0
100
AcDbLine
 10
4.5602214892
 20
4.6915271954
 30
0.0
 11
4.6204478671
 21
4.6915271954
 31
0.0
  0
LINE
  5
122
330
1F
100
AcDbEntity
  8
0
  6
HIDDEN
 62
     7
370
     0
100
AcDbLine
 10
4.5008689464
 20
4.6915271954
 30
0.0
 11
4.5602214892
 21
4.6915271954
 31
0.0
  0
LINE
  5
123
330
1F
100
AcDbEntity
  8
0
  6
HIDDEN
 62
     7
370
     0
100
AcDbLine
 10
4.5602214892
 20
4.2066945182
 30
0.0
 11
4.5995915679
 21
4.2066945182
 31
0.0
  0
LINE
  5
124
330
1F
100
AcDbEntity
  8
0
  6
HIDDEN
 62
     7
370
     0
100
AcDbLine
 10
4.5208514104
 20
4.2066945182
 30
0.0
 11
4.5602214892
 21
4.2066945182
 31
0.0
  0
LINE
  5
125
330
1F
100
AcDbEntity
  8
0
  6
HIDDEN
 62
     7
370
     0
100
AcDbLine
 10
4.5602214892
 20
4.2029445182
 30
0.0
 11
4.5246014104
 21
4.2029445182
 31
0.0
  0
LINE
  5
126
330
1F
100
AcDbEntity
  8
0
  6
HIDDEN
 62
     7
370
     0
100
AcDbLine
 10
4.5958415679
 20
4.2029445182
 30
0.0
 11
4.5602214892
 21
4.2029445182
 31
0.0
  0
LINE
  5
127
330
1F
100
AcDbEntity
  8
0
  6
HIDDEN
 62
     7
370
     0
100
AcDbLine
 10
4.5602214892
 20
4.671842156
 30
0.0
 11
4.5897490482
 21
4.671842156
 31
0.0
  0
LINE
  5
128
330
1F
100
AcDbEntity
  8
0
  6
HIDDEN
 62
     7
370
     0
100
AcDbLine
 10
4.5602214892
 20
4.671842156
 30
0.0
 11
4.5602214892
 21
4.6915271954
 31
0.0
  0
LINE
  5
129
330
1F
100
AcDbEntity
  8
0
  6
HIDDEN
 62
     7
370
     0
100
AcDbLine
 10
4.5306939301
 20
4.671842156
 30
0.0
 11
4.5602214892
 21
4.671842156
 31
0.0
  0
LINE
  5
12A
330
1F
100
AcDbEntity
  8
0
  6
HIDDEN
 62
     7
370
     0
100
AcDbLine
 10
4.5897490482
 20
4.671842156
 30
0.0
 11
4.5897490482
 21
4.6915271954
 31
0.0
  0
LINE
  5
12B
330
1F
100
AcDbEntity
  8
0
  6
HIDDEN
 62
     7
370
     0
100
AcDbLine
 10
4.5306939301
 20
4.671842156
 30
0.0
 11
4.5306939301
 21
4.6915271954
 31
0.0
  0
LINE
  5
12C
330
1F
100
AcDbEntity
  8
0
  6
HIDDEN
 62
     7
370
     0
100
AcDbLine
 10
4.5602214892
 20
4.2675114474
 30
0.0
 11
4.6204478671
 21
4.2675114474
 31
0.0
  0
LINE
  5
12D
330
1F
100
AcDbEntity
  8
0
  6
HIDDEN
 62
     7
370
     0
100
AcDbLine
 10
4.5008689464
 20
4.2675114474
 30
0.0
 11
4.5602214892
 21
4.2675114474
 31
0.0
  0
LINE
  5
12E
330
1F
100
AcDbEntity
  8
0
  6
HIDDEN
 62
     7
370
     0
100
AcDbLine
 10
4.5602214892
 20
4.2712614474
 30
0.0
 11
4.4998649409
 21
4.2712614474
 31
0.0
  0
LINE
  5
12F
330
1F
100
AcDbEntity
  8
0
  6
HIDDEN
 62
     7
370
     0
100
AcDbLine
 10
4.6241978671
 20
4.2712614474
 30
0.0
 11
4.5602214892
 21
4.2712614474
 31
0.0
  0
LINE
  5
130
330
1F
100
AcDbEntity
  8
0
  6
HIDDEN
 62
     7
370
     0
100
AcDbLine
 10
4.5602214892
 20
4.3462516049
 30
0.0
 11
4.6241978671
 21
4.3462516049
 31
0.0
  0
LINE
  5
131
330
1F
100
AcDbEntity
  8
0
  6
HIDDEN
 62
     7
370
     0
100
AcDbLine
 10
4.4962451112
 20
4.3462516049
 30
0.0
 11
4.5602214892
 21
4.3462516049
 31
0.0
  0
LINE
  5
132
330
1F
100
AcDbEntity
  8
0
  6
HIDDEN
 62
     7
370
     0
100
AcDbLine
 10
4.5602214892
 20
4.7523441245
 30
0.0
 11
4.5995915679
 21
4.7523441245
 31
0.0
  0
LINE
  5
133
330
1F
100
AcDbEntity
  8
0
  6
HIDDEN
 62
     7
370
     0
100
AcDbLine
 10
4.5208514104
 20
4.7523441245
 30
0.0
 11
4.5602214892
 21
4.7523441245
 31
0.0
  0
LINE
  5
134
330
1F
100
AcDbEntity
  8
0
  6
HIDDEN
 62
     7
370
     0
100
AcDbLine
 10
4.5602214892
 20
4.7560941245
 30
0.0
 11
4.5246014104
 21
4.7560941245
 31
0.0
  0
LINE
  5
135
330
1F
100
AcDbEntity
  8
0
  6
HIDDEN
 62
     7
370
     0
100
AcDbLine
 10
4.5958415679
 20
4.7560941245
 30
0.0
 11
4.5602214892
 21
4.7560941245
 31
0.0
  0
LINE
  5
136
330
1F
100
AcDbEntity
  8
0
  6
HIDDEN
 62
     7
370
     0
100
AcDbLine
 10
4.5602214892
 20
4.2871964867
 30
0.0
 11
4.5897490482
 21
4.2871964867
 31
0.0
  0
LINE
  5
137
330
1F
100
AcDbEntity
  8
0
  6
HIDDEN
 62
     7
370
     0
100
AcDbLine
 10
4.5602214892
 20
4.2871964867
 30
0.0
 11
4.5602214892
 21
4.2675114474
 31
0.0
  0
LINE
  5
138
330
1F
100
AcDbEntity
  8
0
  6
HIDDEN
 62
     7
370
     0
100
AcDbLine
 10
4.5306939301
 20
4.2871964867
 30
0.0
 11
4.5602214892
 21
4.2871964867
 31
0.0
  0
LINE
  5
139
330
1F
100
AcDbEntity
  8
0
  6
HIDDEN
 62
     7
370
     0
100
AcDbLine
 10
4.5897490482
 20
4.2871964867
 30
0.0
 11
4.5897490482
 21
4.2675114474
 31
0.0
  0
LINE
  5
13A
330
1F
100
AcDbEntity
  8
0
  6
HIDDEN
 62
     7
370
     0
100
AcDbLine
 10
4.5306939301
 20
4.2871964867
 30
0.0
 11
4.5306939301
 21
4.2675114474
 31
0.0
  0
LINE
  5
13B
330
1F
100
AcDbEntity
  8
0
  6
HIDDEN
 62
     7
370
     0
100
AcDbLine
 10
5.3379589892
 20
4.6919710721
 30
0.0
 11
5.3379589892
 21
4.9453669688
 31
0.0
  0
LINE
  5
13C
330
1F
100
AcDbEntity
  8
0
  6
HIDDEN
 62
     7
370
     0
100
AcDbLine
 10
5.2324839892
 20
4.9452932135
 30
0.0
 11
5.2324839892
 21
4.6918811733
 31
0.0
  0
LINE
  5
13D
330
1F
100
AcDbEntity
  8
0
  6
HIDDEN
 62
     7
370
     0
100
AcDbLine
 10
4.4913238514
 20
4.3560941245
 30
0.0
 11
4.4913238514
 21
4.3065038675
 31
0.0
  0
LINE
  5
13E
330
1F
100
AcDbEntity
  8
0
  6
HIDDEN
 62
     7
370
     0
100
AcDbLine
 10
4.629119127
 20
4.0008153752
 30
0.0
 11
4.629119127
 21
4.3560941245
 31
0.0
  0
LINE
  5
13F
330
1F
100
AcDbEntity
  8
0
  6
HIDDEN
 62
     7
370
     0
100
AcDbLine
 10
4.5183907805
 20
4.7483112149
 30
0.0
 11
4.5183907805
 21
4.3560941245
 31
0.0
  0
LINE
  5
140
330
1F
100
AcDbEntity
  8
0
  6
HIDDEN
 62
     7
370
     0
100
AcDbLine
 10
4.6020521978
 20
4.3560941245
 30
0.0
 11
4.6020521978
 21
4.9190086885
 31
0.0
  0
LINE
  5
141
330
1F
100
AcDbEntity
  8
0
  6
HIDDEN
 62
     7
370
     0
100
AcDbLine
 10
4.8229409163
 20
5.1477127609
 30
0.0
 11
4.8528473062
 21
5.0959133742
 31
0.0
  0
LINE
  5
142
330
1F
100
AcDbEntity
  8
0
  6
HIDDEN
 62
     7
370
     0
100
AcDbLine
 10
4.9675956722
 20
5.1621633742
 30
0.0
 11
4.9376984051
 21
5.2139469598
 31
0.0
  0
LINE
  5
143
330
1F
100
AcDbEntity
  8
0
  6
HIDDEN
 62
     7
370
     0
100
AcDbLine
 10
5.8629893899
 20
5.0508073867
 30
0.0
 11
5.8171701424
 21
5.012360473
 31
0.0
  0
LINE
  5
144
330
1F
100
AcDbEntity
  8
0
  6
HIDDEN
 62
     7
370
     0
100
AcDbLine
 10
5.9023395006
 20
4.9108595843
 30
0.0
 11
5.9481447712
 21
4.94929477
 31
0.0
  0
LINE
  5
145
330
1F
100
AcDbEntity
  8
0
  6
HIDDEN
 62
     7
370
     0
100
AcDbLine
 10
4.9376892823
 20
3.7450758819
 30
0.0
 11
4.9675956722
 21
3.7968752686
 31
0.0
  0
LINE
  5
146
330
1F
100
AcDbEntity
  8
0
  6
HIDDEN
 62
     7
370
     0
100
AcDbLine
 10
4.8528473062
 20
3.8631252686
 30
0.0
 11
4.8229500391
 21
3.811341683
 31
0.0
  0
LINE
  5
147
330
1F
100
AcDbEntity
  8
0
  6
HIDDEN
 62
     7
370
     0
100
AcDbLine
 10
5.9481576727
 20
4.0097330473
 30
0.0
 11
5.9023395006
 21
4.0481790585
 31
0.0
  0
LINE
  5
148
330
1F
100
AcDbEntity
  8
0
  6
HIDDEN
 62
     7
370
     0
100
AcDbLine
 10
5.8171701424
 20
3.9466781698
 30
0.0
 11
5.862975413
 21
3.9082429841
 31
0.0
  0
LINE
  5
149
330
1F
100
AcDbEntity
  8
0
  6
HIDDEN
 62
     7
370
     0
100
AcDbLine
 10
4.629119127
 20
4.6029445182
 30
0.0
 11
4.629119127
 21
4.9583817864
 31
0.0
  0
LINE
  5
14A
330
1F
100
AcDbEntity
  8
0
  6
HIDDEN
 62
     7
370
     0
100
AcDbLine
 10
4.4913238514
 20
4.6525641525
 30
0.0
 11
4.4913238514
 21
4.6029445182
 31
0.0
  0
LINE
  5
14B
330
1F
100
AcDbEntity
  8
0
  6
HIDDEN
 62
     7
370
     0
100
AcDbLine
 10
4.8528473062
 20
5.0959133742
 30
0.0
 11
4.9301249972
 21
5.0945644871
 31
0.0
  0
LINE
  5
14C
330
1F
100
AcDbEntity
  8
0
  6
HIDDEN
 62
     7
370
     0
100
AcDbLine
 10
4.9301249972
 20
5.0945644871
 30
0.0
 11
4.9675956722
 21
5.1621633742
 31
0.0
  0
LINE
  5
14D
330
1F
100
AcDbEntity
  8
0
  6
HIDDEN
 62
     7
370
     0
100
AcDbLine
 10
5.8171701424
 20
5.012360473
 30
0.0
 11
5.8292608781
 21
4.936022572
 31
0.0
  0
LINE
  5
14E
330
1F
100
AcDbEntity
  8
0
  6
HIDDEN
 62
     7
370
     0
100
AcDbLine
 10
5.8292608781
 20
4.936022572
 30
0.0
 11
5.9023395006
 21
4.9108595843
 31
0.0
  0
LINE
  5
14F
330
1F
100
AcDbEntity
  8
0
  6
HIDDEN
 62
     7
370
     0
100
AcDbLine
 10
5.9023395006
 20
4.0481790585
 30
0.0
 11
5.8292608781
 21
4.0230160708
 31
0.0
  0
LINE
  5
150
330
1F
100
AcDbEntity
  8
0
  6
HIDDEN
 62
     7
370
     0
100
AcDbLine
 10
5.8292608781
 20
4.0230160708
 30
0.0
 11
5.8171701424
 21
3.9466781698
 31
0.0
  0
LINE
  5
151
330
1F
100
AcDbEntity
  8
0
  6
HIDDEN
 62
     7
370
     0
100
AcDbLine
 10
4.9675956722
 20
3.7968752686
 30
0.0
 11
4.9301249972
 21
3.8644741557
 31
0.0
  0
LINE
  5
152
330
1F
100
AcDbEntity
  8
0
  6
HIDDEN
 62
     7
370
     0
100
AcDbLine
 10
4.9301249972
 20
3.8644741557
 30
0.0
 11
4.8528473062
 21
3.8631252686
 31
0.0
  0
LINE
  5
153
330
1F
100
AcDbEntity
  8
0
  6
HIDDEN
 62
     7
370
     0
100
AcDbLine
 10
4.6020521978
 20
4.0400876503
 30
0.0
 11
4.6020521978
 21
4.3560941245
 31
0.0
  0
LINE
  5
154
330
1F
100
AcDbEntity
  8
0
  6
HIDDEN
 62
     7
370
     0
100
AcDbLine
 10
4.5183907805
 20
4.3560941245
 30
0.0
 11
4.5183907805
 21
4.2107335024
 31
0.0
  0
LINE
  5
155
330
1F
100
AcDbEntity
  8
0
  6
HIDDEN
 62
     7
370
     0
100
AcDbLine
 10
4.4913238514
 20
4.3065038675
 30
0.0
 11
4.4913238514
 21
4.3064744903
 31
0.0
  0
LINE
  5
156
330
1F
100
AcDbEntity
  8
0
  6
HIDDEN
 62
     7
370
     0
100
AcDbLine
 10
4.629119127
 20
4.0006568564
 30
0.0
 11
4.629119127
 21
4.0008153752
 31
0.0
  0
LINE
  5
157
330
1F
100
AcDbEntity
  8
0
  6
HIDDEN
 62
     7
370
     0
100
AcDbLine
 10
4.6241978671
 20
4.6127870379
 30
0.0
 11
4.6241978671
 21
4.6877771954
 31
0.0
  0
LINE
  5
158
330
1F
100
AcDbEntity
  8
0
  6
HIDDEN
 62
     7
370
     0
100
AcDbLine
 10
4.4962451112
 20
4.6736134352
 30
0.0
 11
4.4962451112
 21
4.6127870379
 31
0.0
  0
LINE
  5
159
330
1F
100
AcDbEntity
  8
0
  6
HIDDEN
 62
     7
370
     0
100
AcDbLine
 10
4.6241978671
 20
4.6877771954
 30
0.0
 11
4.6204478671
 21
4.6915271954
 31
0.0
  0
LINE
  5
15A
330
1F
100
AcDbEntity
  8
0
  6
HIDDEN
 62
     7
370
     0
100
AcDbLine
 10
4.5208514104
 20
4.3462516049
 30
0.0
 11
4.5208514104
 21
4.2066945182
 31
0.0
  0
LINE
  5
15B
330
1F
100
AcDbEntity
  8
0
  6
HIDDEN
 62
     7
370
     0
100
AcDbLine
 10
4.5995915679
 20
4.2066945182
 30
0.0
 11
4.5995915679
 21
4.3462516049
 31
0.0
  0
LINE
  5
15C
330
1F
100
AcDbEntity
  8
0
  6
HIDDEN
 62
     7
370
     0
100
AcDbLine
 10
4.5208514104
 20
4.2066945182
 30
0.0
 11
4.5246014104
 21
4.2029445182
 31
0.0
  0
LINE
  5
15D
330
1F
100
AcDbEntity
  8
0
  6
HIDDEN
 62
     7
370
     0
100
AcDbLine
 10
4.5958415679
 20
4.2029445182
 30
0.0
 11
4.5995915679
 21
4.2066945182
 31
0.0
  0
LINE
  5
15E
330
1F
100
AcDbEntity
  8
0
  6
HIDDEN
 62
     7
370
     0
100
AcDbLine
 10
4.6204478671
 20
4.2675114474
 30
0.0
 11
4.6241978671
 21
4.2712614474
 31
0.0
  0
LINE
  5
15F
330
1F
100
AcDbEntity
  8
0
  6
HIDDEN
 62
     7
370
     0
100
AcDbLine
 10
4.4962451112
 20
4.3462516049
 30
0.0
 11
4.4962451112
 21
4.2854252075
 31
0.0
  0
LINE
  5
160
330
1F
100
AcDbEntity
  8
0
  6
HIDDEN
 62
     7
370
     0
100
AcDbLine
 10
4.6241978671
 20
4.2712614474
 30
0.0
 11
4.6241978671
 21
4.3462516049
 31
0.0
  0
LINE
  5
161
330
1F
100
AcDbEntity
  8
0
  6
HIDDEN
 62
     7
370
     0
100
AcDbLine
 10
4.5995915679
 20
4.3462516049
 30
0.0
 11
4.5995915679
 21
4.7523441245
 31
0.0
  0
LINE
  5
162
330
1F
100
AcDbEntity
  8
0
  6
HIDDEN
 62
     7
370
     0
100
AcDbLine
 10
4.5208514104
 20
4.7523441245
 30
0.0
 11
4.5208514104
 21
4.3462516049
 31
0.0
  0
LINE
  5
163
330
1F
100
AcDbEntity
  8
0
  6
HIDDEN
 62
     7
370
     0
100
AcDbLine
 10
4.5995915679
 20
4.7523441245
 30
0.0
 11
4.5958415679
 21
4.7560941245
 31
0.0
  0
LINE
  5
164
330
1F
100
AcDbEntity
  8
0
  6
HIDDEN
 62
     7
370
     0
100
AcDbLine
 10
4.5246014104
 20
4.7560941245
 30
0.0
 11
4.5208514104
 21
4.7523441245
 31
0.0
  0
MTEXT
  5
165
330
1F
100
AcDbEntity
  8
0
  6
Continuous
 62
     7
370
     0
100
AcDbMText
 10
6.0108640751
 20
5.391778969
 30
0.0
 40
0.125
 41
0.0
 71
     1
 72
     1
  1
3/8-16 Tapped Hole
  7
SLDTEXTSTYLE0
 73
     1
 44
1.0
  0
LEADER
  5
167
330
1F
100
AcDbEntity
  8
0
  6
Continuous
 62
     7
370
     0
100
AcDbLeader
  3
SLDDIMSTYLE0
 76
     3
 10
5.4805339892
 20
4.8646854947
 30
0.0
 10
5.7411352245
 20
5.3311183789
 30
0.0
 10
5.9911352245
 20
5.3311183789
 30
0.0
  0
INSERT
  5
173
330
1F
100
AcDbEntity
  8
0
  6
Continuous
 62
     7
370
     0
100
AcDbBlockReference
  2
SW_CENTERMARKSYMBOL_0
 10
5.2852214892
 20
4.4795193214
 30
0.0
  0
INSERT
  5
17F
330
1F
100
AcDbEntity
  8
0
  6
Continuous
 62
     7
370
     0
100
AcDbBlockReference
  2
SW_CENTERMARKSYMBOL_1
 10
5.4805339892
 20
4.8178104947
 30
0.0
  0
INSERT
  5
18B
330
1F
100
AcDbEntity
  8
0
  6
Continuous
 62
     7
370
     0
100
AcDbBlockReference
  2
SW_CENTERMARKSYMBOL_2
 10
4.8945964892
 20
4.4795193214
 30
0.0
  0
INSERT
  5
197
330
1F
100
AcDbEntity
  8
0
  6
Continuous
 62
     7
370
     0
100
AcDbBlockReference
  2
SW_CENTERMARKSYMBOL_3
 10
5.4805339892
 20
4.141228148
 30
0.0
  0
INSERT
  5
1A3
330
1F
100
AcDbEntity
  8
0
  6
Continuous
 62
     7
370
     0
100
AcDbBlockReference
  2
SW_CENTERMARKSYMBOL_4
 10
5.0899089892
 20
4.141228148
 30
0.0
  0
INSERT
  5
1AF
330
1F
100
AcDbEntity
  8
0
  6
Continuous
 62
     7
370
     0
100
AcDbBlockReference
  2
SW_CENTERMARKSYMBOL_5
 10
5.0899089892
 20
4.8178104947
 30
0.0
  0
INSERT
  5
1BB
330
1F
100
AcDbEntity
  8
0
  6
Continuous
 62
     7
370
     0
100
AcDbBlockReference
  2
SW_CENTERMARKSYMBOL_6
 10
5.6758464892
 20
4.4795193214
 30
0.0
  0
CIRCLE
  5
1BC
330
1F
100
AcDbEntity
  8
0
  6
HIDDEN
 62
     7
370
     0
100
AcDbCircle
 10
5.4805339892
 20
4.8178104947
 30
0.0
 40
0.046875
  0
CIRCLE
  5
1BD
330
1F
100
AcDbEntity
  8
0
  6
HIDDEN
 62
     7
370
     0
100
AcDbCircle
 10
4.8945964892
 20
4.4795193214
 30
0.0
 40
0.046875
  0
CIRCLE
  5
1BE
330
1F
100
AcDbEntity
  8
0
  6
HIDDEN
 62
     7
370
     0
100
AcDbCircle
 10
5.4805339892
 20
4.141228148
 30
0.0
 40
0.046875
  0
CIRCLE
  5
1BF
330
1F
100
AcDbEntity
  8
0
  6
HIDDEN
 62
     7
370
     0
100
AcDbCircle
 10
5.0899089892
 20
4.141228148
 30
0.0
 40
0.046875
  0
CIRCLE
  5
1C0
330
1F
100
AcDbEntity
  8
0
  6
HIDDEN
 62
     7
370
     0
100
AcDbCircle
 10
5.0899089892
 20
4.8178104947
 30
0.0
 40
0.046875
  0
CIRCLE
  5
1C1
330
1F
100
AcDbEntity
  8
0
  6
HIDDEN
 62
     7
370
     0
100
AcDbCircle
 10
5.6758464892
 20
4.4795193214
 30
0.0
 40
0.046875
  0
LINE
  5
1C2
330
1F
100
AcDbEntity
  8
0
  6
HIDDEN
 62
     7
370
     0
100
AcDbLine
 10
5.2227214892
 20
4.6891506943
 30
0.0
 11
5.2227214892
 21
4.9440839697
 31
0.0
  0
LINE
  5
1C3
330
1F
100
AcDbEntity
  8
0
  6
HIDDEN
 62
     7
370
     0
100
AcDbLine
 10
5.3477214892
 20
4.6891506943
 30
0.0
 11
5.3477214892
 21
4.9440839697
 31
0.0
  0
LINE
  5
1C4
330
1F
100
AcDbEntity
  8
0
  6
HIDDEN
 62
     7
370
     0
100
AcDbLine
 10
5.2227214892
 20
4.6891506943
 30
0.0
 11
5.2227214892
 21
4.9440839697
 31
0.0
  0
LINE
  5
1C5
330
1F
100
AcDbEntity
  8
0
  6
HIDDEN
 62
     7
370
     0
100
AcDbLine
 10
5.3477214892
 20
4.6891506943
 30
0.0
 11
5.3477214892
 21
4.9440839697
 31
0.0
  0
LINE
  5
1C6
330
1F
100
AcDbEntity
  8
0
  6
Continuous
 62
     7
370
    15
100
AcDbLine
 10
10.6155089538
 20
5.2920193214
 30
0.0
 11
10.6030089538
 21
5.2795193214
 31
0.0
  0
LINE
  5
1C7
330
1F
100
AcDbEntity
  8
0
  6
Continuous
 62
     7
370
    15
100
AcDbLine
 10
10.6030089538
 20
3.6795193214
 30
0.0
 11
10.6155089538
 21
3.6670193214
 31
0.0
  0
LINE
  5
1C8
330
1F
100
AcDbEntity
  8
0
  6
Continuous
 62
     7
370
    15
100
AcDbLine
 10
11.1855089538
 20
5.2920193214
 30
0.0
 11
10.6155089538
 21
5.2920193214
 31
0.0
  0
LINE
  5
1C9
330
1F
100
AcDbEntity
  8
0
  6
Continuous
 62
     7
370
    15
100
AcDbLine
 10
10.6155089538
 20
3.6670193214
 30
0.0
 11
11.1855089538
 21
3.6670193214
 31
0.0
  0
LINE
  5
1CA
330
1F
100
AcDbEntity
  8
0
  6
Continuous
 62
     7
370
    15
100
AcDbLine
 10
11.1855089538
 20
3.6670193214
 30
0.0
 11
11.1980089538
 21
3.6795193214
 31
0.0
  0
LINE
  5
1CB
330
1F
100
AcDbEntity
  8
0
  6
Continuous
 62
     7
370
    15
100
AcDbLine
 10
11.1980089538
 20
5.2795193214
 30
0.0
 11
11.1855089538
 21
5.2920193214
 31
0.0
  0
LINE
  5
1CC
330
1F
100
AcDbEntity
  8
0
  6
Continuous
 62
     7
370
    15
100
AcDbLine
 10
10.4465628046
 20
4.9482693214
 30
0.0
 11
10.3942589538
 21
4.9482693214
 31
0.0
  0
LINE
  5
1CD
330
1F
100
AcDbEntity
  8
0
  6
Continuous
 62
     7
370
    15
100
AcDbLine
 10
10.6030089538
 20
4.9482693214
 30
0.0
 11
10.5513642261
 21
4.9482693214
 31
0.0
  0
LINE
  5
1CE
330
1F
100
AcDbEntity
  8
0
  6
Continuous
 62
     7
370
    15
100
AcDbLine
 10
10.3942589538
 20
4.0107693214
 30
0.0
 11
10.6030089538
 21
4.0107693214
 31
0.0
  0
LINE
  5
1CF
330
1F
100
AcDbEntity
  8
0
  6
Continuous
 62
     7
370
    15
100
AcDbLine
 10
11.2503128046
 20
4.9482693214
 30
0.0
 11
11.1980089538
 21
4.9482693214
 31
0.0
  0
LINE
  5
1D0
330
1F
100
AcDbEntity
  8
0
  6
Continuous
 62
     7
370
    15
100
AcDbLine
 10
11.4067589538
 20
4.9482693214
 30
0.0
 11
11.3551142261
 21
4.9482693214
 31
0.0
  0
LINE
  5
1D1
330
1F
100
AcDbEntity
  8
0
  6
Continuous
 62
     7
370
    15
100
AcDbLine
 10
11.1980089538
 20
4.0107693214
 30
0.0
 11
11.4067589538
 21
4.0107693214
 31
0.0
  0
LINE
  5
1D2
330
1F
100
AcDbEntity
  8
0
  6
Continuous
 62
     7
370
    15
100
AcDbLine
 10
10.6155089538
 20
5.2920193214
 30
0.0
 11
10.6155089538
 21
3.6670193214
 31
0.0
  0
LINE
  5
1D3
330
1F
100
AcDbEntity
  8
0
  6
Continuous
 62
     7
370
    15
100
AcDbLine
 10
10.6030089538
 20
3.6795193214
 30
0.0
 11
10.6030089538
 21
5.2795193214
 31
0.0
  0
SPLINE
  5
1D4
330
1F
100
AcDbEntity
  8
0
  6
Continuous
 62
     7
370
    15
100
AcDbSpline
210
0.0
220
0.0
230
1.0
 70
     8
 71
     3
 72
    98
 73
    94
 74
     0
 42
0.00000001
 43
0.00000001
 40
-0.0078124999999998
 40
-0.0078124999999998
 40
0.0
 40
0.0
 40
0.062500000000001
 40
0.062500000000001
 40
0.1250000000000019
 40
0.1250000000000019
 40
0.1562500000000026
 40
0.1562500000000026
 40
0.1875000000000032
 40
0.1875000000000032
 40
0.2187500000000039
 40
0.2187500000000039
 40
0.2343750000000042
 40
0.2343750000000042
 40
0.2500000000000045
 40
0.2500000000000045
 40
0.2656250000000048
 40
0.2656250000000048
 40
0.2734375000000049
 40
0.2734375000000049
 40
0.2812500000000051
 40
0.2812500000000051
 40
0.2851562500000051
 40
0.2851562500000051
 40
0.2890625000000051
 40
0.2890625000000051
 40
0.2929687500000051
 40
0.2929687500000051
 40
0.2968750000000051
 40
0.2968750000000051
 40
0.3046875000000051
 40
0.3046875000000051
 40
0.3125000000000051
 40
0.3125000000000051
 40
0.3281250000000051
 40
0.3281250000000051
 40
0.343750000000005
 40
0.343750000000005
 40
0.3750000000000049
 40
0.3750000000000049
 40
0.4062500000000049
 40
0.4062500000000049
 40
0.4375000000000048
 40
0.4375000000000048
 40
0.5000000000000048
 40
0.5000000000000048
 40
0.5625000000000049
 40
0.5625000000000049
 40
0.593750000000005
 40
0.593750000000005
 40
0.6250000000000051
 40
0.6250000000000051
 40
0.6562500000000053
 40
0.6562500000000053
 40
0.6875000000000054
 40
0.6875000000000054
 40
0.7187500000000057
 40
0.7187500000000057
 40
0.7343750000000056
 40
0.7343750000000056
 40
0.7500000000000054
 40
0.7500000000000054
 40
0.7656250000000053
 40
0.7656250000000053
 40
0.7734375000000052
 40
0.7734375000000052
 40
0.7812500000000051
 40
0.7812500000000051
 40
0.796875000000005
 40
0.796875000000005
 40
0.8125000000000048
 40
0.8125000000000048
 40
0.8203125000000047
 40
0.8203125000000047
 40
0.8281250000000046
 40
0.8281250000000046
 40
0.843750000000004
 40
0.843750000000004
 40
0.8593750000000034
 40
0.8593750000000034
 40
0.8750000000000029
 40
0.8750000000000029
 40
0.9062500000000022
 40
0.9062500000000022
 40
0.9375000000000014
 40
0.9375000000000014
 40
0.9687500000000008
 40
0.9687500000000008
 40
0.9843750000000003
 40
0.9843750000000003
 40
0.9921875000000002
 40
0.9921875000000002
 40
1.0
 40
1.0
 40
1.062500000000001
 40
1.062500000000001
 10
10.83161131602188
 20
4.848114776745109
 30
0.0
 10
10.83161131602188
 20
4.83182084759562
 30
0.0
 10
10.83275121434818
 20
4.817304072270205
 30
0.0
 10
10.83668128739608
 20
4.788141458179855
 30
0.0
 10
10.8394772977478
 20
4.773496113076923
 30
0.0
 10
10.84481734316355
 20
4.751429455521343
 30
0.0
 10
10.84679129610238
 20
4.744057817998159
 30
0.0
 10
10.85116429759518
 20
4.729289255197651
 30
0.0
 10
10.85355593021402
 20
4.721913873572435
 30
0.0
 10
10.85881896651361
 20
4.707283365371797
 30
0.0
 10
10.86169390393367
 20
4.700000653123378
 30
0.0
 10
10.86653543817132
 20
4.689267368435136
 30
0.0
 10
10.86823445463873
 20
4.685731412072625
 30
0.0
 10
10.87186821823594
 20
4.678781223056687
 30
0.0
 10
10.8738006175362
 20
4.67536564155469
 30
0.0
 10
10.87803430403524
 20
4.668733296121546
 30
0.0
 10
10.88032473720077
 20
4.665510308512219
 30
0.0
 10
10.8843050947745
 20
4.660979334838149
 30
0.0
 10
10.88573578081092
 20
4.659512886755931
 30
0.0
 10
10.88880700384955
 20
4.656845304976169
 30
0.0
 10
10.89047384703665
 20
4.655622197037082
 30
0.0
 10
10.89315235178127
 20
4.654158714103721
 30
0.0
 10
10.89407450077705
 20
4.653732526483527
 30
0.0
 10
10.89599215349699
 20
4.653034598887293
 30
0.0
 10
10.89700060358036
 20
4.652761344244449
 30
0.0
 10
10.89903360885369
 20
4.652423862952458
 30
0.0
 10
10.90005726381917
 20
4.65235708161571
 30
0.0
 10
10.90211952800352
 20
4.652436732363408
 30
0.0
 10
10.90315520932355
 20
4.652585949981376
 30
0.0
 10
10.90614867490165
 20
4.653312151642782
 30
0.0
 10
10.90805523700957
 20
4.654180365350203
 30
0.0
 10
10.91152399872663
 20
4.656309052329671
 30
0.0
 10
10.91313355598725
 20
4.657588042989167
 30
0.0
 10
10.91760663017668
 20
4.661722721440415
 30
0.0
 10
10.92012356305383
 20
4.664833364242743
 30
0.0
 10
10.92475618358351
 20
4.671352588366739
 30
0.0
 10
10.92685940972858
 20
4.674785704824209
 30
0.0
 10
10.93268604021646
 20
4.68518839042016
 30
0.0
 10
10.93598668345045
 20
4.692323222213513
 30
0.0
 10
10.94201383676248
 20
4.706755565766588
 30
0.0
 10
10.94472052319941
 20
4.71406089738745
 30
0.0
 10
10.94969847776742
 20
4.728776671918386
 30
0.0
 10
10.95197125009567
 20
4.736209294193186
 30
0.0
 10
10.95816090872231
 20
4.758429219800296
 30
0.0
 10
10.96147489962508
 20
4.773158383310353
 30
0.0
 10
10.96653157763826
 20
4.802431540605911
 30
0.0
 10
10.96827192666476
 20
4.816976041823676
 30
0.0
 10
10.9693875904517
 20
4.838677856676118
 30
0.0
 10
10.96950718668564
 20
4.845892935414231
 30
0.0
 10
10.9691306159428
 20
4.860294750538589
 30
0.0
 10
10.96862935598541
 20
4.867506832296677
 30
0.0
 10
10.96687712723262
 20
4.881621733335705
 30
0.0
 10
10.96562936707225
 20
4.888554447672874
 30
0.0
 10
10.96218538730718
 20
4.902142978836397
 30
0.0
 10
10.95999522511067
 20
4.908799728406208
 30
0.0
 10
10.95427843295581
 20
4.921780763807502
 30
0.0
 10
10.95081162376883
 20
4.927979817438387
 30
0.0
 10
10.94429473438723
 20
4.936633585138424
 30
0.0
 10
10.94190359939009
 20
4.939398212630922
 30
0.0
 10
10.93669312929632
 20
4.944525913411037
 30
0.0
 10
10.93386369958803
 20
4.946906304270209
 30
0.0
 10
10.92762598297319
 20
4.951208595999605
 30
0.0
 10
10.92418814232985
 20
4.953134550864359
 30
0.0
 10
10.91874391329172
 20
4.95543158797189
 30
0.0
 10
10.91687262551474
 20
4.956105191087957
 30
0.0
 10
10.91300320304057
 20
4.957247376049585
 30
0.0
 10
10.91100207627409
 20
4.957713907331947
 30
0.0
 10
10.90499538461275
 20
4.958737465051555
 30
0.0
 10
10.900904910791
 20
4.958942840225585
 30
0.0
 10
10.89265582005212
 20
4.95833051857504
 30
0.0
 10
10.88868344767545
 20
4.957531699070881
 30
0.0
 10
10.88292605679658
 20
4.95567692183451
 30
0.0
 10
10.88105750800082
 20
4.954952274864622
 30
0.0
 10
10.87747755995534
 20
4.953340222747271
 30
0.0
 10
10.87575473608647
 20
4.952449140706723
 30
0.0
 10
10.87076546194225
 20
4.949546538654487
 30
0.0
 10
10.867656693272
 20
4.947284236088255
 30
0.0
 10
10.86203388546987
 20
4.942415136540522
 30
0.0
 10
10.85949142957728
 20
4.93979645038563
 30
0.0
 10
10.85482956831434
 20
4.934258199100033
 30
0.0
 10
10.852700877124
 20
4.931319652710134
 30
0.0
 10
10.84695273215962
 20
4.922274617220931
 30
0.0
 10
10.84393501921337
 20
4.915936811210605
 30
0.0
 10
10.83900435028495
 20
4.902788758283855
 30
0.0
 10
10.83709585871646
 20
4.895939131286233
 30
0.0
 10
10.83419833158527
 20
4.882076637226706
 30
0.0
 10
10.8332000883853
 20
4.875047922082459
 30
0.0
 10
10.83222926614534
 20
4.864369410106304
 30
0.0
 10
10.83199433864233
 20
4.860787257212268
 30
0.0
 10
10.83176259441102
 20
4.855380879351955
 30
0.0
 10
10.83170548756214
 20
4.853573225841889
 30
0.0
 10
10.83162984794183
 20
4.849946971192642
 30
0.0
 10
10.83161131602188
 20
4.848114776745109
 30
0.0
 10
10.83161131602188
 20
4.83182084759562
 30
0.0
  0
LINE
  5
1D5
330
1F
100
AcDbEntity
  8
0
  6
Continuous
 62
     7
370
    15
100
AcDbLine
 10
11.1855089538
 20
3.6670193214
 30
0.0
 11
11.1855089538
 21
5.2920193214
 31
0.0
  0
SPLINE
  5
1D6
330
1F
100
AcDbEntity
  8
0
  6
Continuous
 62
     7
370
    15
100
AcDbSpline
210
0.0
220
0.0
230
1.0
 70
     8
 71
     3
 72
    84
 73
    80
 74
     0
 42
0.00000001
 43
0.00000001
 40
-0.0312500000000001
 40
-0.0312500000000001
 40
0.0
 40
0.0
 40
0.0624999999999982
 40
0.0624999999999982
 40
0.0937499999999971
 40
0.0937499999999971
 40
0.109374999999997
 40
0.109374999999997
 40
0.1249999999999969
 40
0.1249999999999969
 40
0.1562499999999967
 40
0.1562499999999967
 40
0.1718749999999967
 40
0.1718749999999967
 40
0.1874999999999968
 40
0.1874999999999968
 40
0.2031249999999968
 40
0.2031249999999968
 40
0.2187499999999969
 40
0.2187499999999969
 40
0.2343749999999969
 40
0.2343749999999969
 40
0.2421874999999969
 40
0.2421874999999969
 40
0.2499999999999969
 40
0.2499999999999969
 40
0.2656249999999966
 40
0.2656249999999966
 40
0.2812499999999963
 40
0.2812499999999963
 40
0.3124999999999955
 40
0.3124999999999955
 40
0.3281249999999953
 40
0.3281249999999953
 40
0.3437499999999951
 40
0.3437499999999951
 40
0.3749999999999954
 40
0.3749999999999954
 40
0.4062499999999958
 40
0.4062499999999958
 40
0.4374999999999962
 40
0.4374999999999962
 40
0.4999999999999966
 40
0.4999999999999966
 40
0.5624999999999973
 40
0.5624999999999973
 40
0.6249999999999981
 40
0.6249999999999981
 40
0.6562499999999986
 40
0.6562499999999986
 40
0.687499999999999
 40
0.687499999999999
 40
0.7031249999999991
 40
0.7031249999999991
 40
0.7187499999999992
 40
0.7187499999999992
 40
0.7343749999999993
 40
0.7343749999999993
 40
0.7499999999999994
 40
0.7499999999999994
 40
0.7656249999999996
 40
0.7656249999999996
 40
0.7812499999999997
 40
0.7812499999999997
 40
0.7968749999999998
 40
0.7968749999999998
 40
0.8124999999999999
 40
0.8124999999999999
 40
0.8437499999999999
 40
0.8437499999999999
 40
0.8749999999999999
 40
0.8749999999999999
 40
0.9062499999999999
 40
0.9062499999999999
 40
0.9374999999999999
 40
0.9374999999999999
 40
0.9687499999999999
 40
0.9687499999999999
 40
1.0
 40
1.0
 40
1.062499999999998
 40
1.062499999999998
 10
10.85867824515574
 20
4.116886960169515
 30
0.0
 10
10.85867824515574
 20
4.104428987511618
 30
0.0
 10
10.85929418675668
 20
4.096289277134007
 30
0.0
 10
10.86141313279817
 20
4.084358255807826
 30
0.0
 10
10.86232106429815
 20
4.080428008470407
 30
0.0
 10
10.86406762348047
 20
4.074613032333899
 30
0.0
 10
10.86471437471755
 20
4.072688166716739
 30
0.0
 10
10.86615976450666
 20
4.06886827146837
 30
0.0
 10
10.86696246712945
 20
4.066964631168426
 30
0.0
 10
10.86961526666371
 20
4.061373513841952
 30
0.0
 10
10.87169083780209
 20
4.057818674964968
 30
0.0
 10
10.87547040521423
 20
4.052840395428685
 30
0.0
 10
10.87684253026143
 20
4.051240561300063
 30
0.0
 10
10.87988480020093
 20
4.048194966710819
 30
0.0
 10
10.88154826787456
 20
4.046760023108918
 30
0.0
 10
10.88514329666506
 20
4.044200446303862
 30
0.0
 10
10.88711166062273
 20
4.043053843859246
 30
0.0
 10
10.89126612239399
 20
4.041225558522868
 30
0.0
 10
10.89345616383236
 20
4.040533424566521
 30
0.0
 10
10.89811312038251
 20
4.039710094690916
 30
0.0
 10
10.90044526189422
 20
4.039604270847883
 30
0.0
 10
10.90394892731636
 20
4.039900404172953
 30
0.0
 10
10.90512727189652
 20
4.040078204327216
 30
0.0
 10
10.90741452591208
 20
4.04057328239449
 30
0.0
 10
10.90852881788306
 20
4.040889644565458
 30
0.0
 10
10.91179206345134
 20
4.042026088011033
 30
0.0
 10
10.91386273474801
 20
4.043040446880774
 30
0.0
 10
10.91764615299061
 20
4.045374070919643
 30
0.0
 10
10.91939109685976
 20
4.046704778764841
 30
0.0
 10
10.92426476211569
 20
4.051080366125335
 30
0.0
 10
10.92689891299864
 20
4.054359016741655
 30
0.0
 10
10.93029580190154
 20
4.059619966098515
 30
0.0
 10
10.93133425073456
 20
4.061440364095986
 30
0.0
 10
10.93321779881821
 20
4.065126114117819
 30
0.0
 10
10.93406703862236
 20
4.066996799627227
 30
0.0
 10
10.93638474440288
 20
4.072681039254787
 30
0.0
 10
10.93762569580082
 20
4.076566165532322
 30
0.0
 10
10.93964338287301
 20
4.084494557035711
 30
0.0
 10
10.94042011883228
 20
4.088556659843952
 30
0.0
 10
10.94156703001255
 20
4.096702611720408
 30
0.0
 10
10.94194038536804
 20
4.100792122840041
 30
0.0
 10
10.94255802147784
 20
4.113110720785354
 30
0.0
 10
10.94230836318631
 20
4.121389908635379
 30
0.0
 10
10.94068560364855
 20
4.138082770729596
 30
0.0
 10
10.93930033710993
 20
4.146534444255293
 30
0.0
 10
10.93539032680349
 20
4.163205270666524
 30
0.0
 10
10.93288755028577
 20
4.171465349143519
 30
0.0
 10
10.92788008729316
 20
4.183624552068423
 30
0.0
 10
10.92599290900203
 20
4.187642752693846
 30
0.0
 10
10.92164237769625
 20
4.19534334430371
 30
0.0
 10
10.91919699754537
 20
4.19905840589764
 30
0.0
 10
10.91461667352442
 20
4.204146436049189
 30
0.0
 10
10.91296703931852
 20
4.205719062145413
 30
0.0
 10
10.90926683070626
 20
4.208444618300748
 30
0.0
 10
10.9071987572319
 20
4.20959782039157
 30
0.0
 10
10.90269146061992
 20
4.210966540229921
 30
0.0
 10
10.90028451537268
 20
4.211138469559343
 30
0.0
 10
10.89562638573235
 20
4.210325807097818
 30
0.0
 10
10.89343040690882
 20
4.209373391614197
 30
0.0
 10
10.88951678571868
 20
4.206930040995664
 30
0.0
 10
10.88774451399632
 20
4.205420452875854
 30
0.0
 10
10.88455065547188
 20
4.202184192533361
 30
0.0
 10
10.88311578517584
 20
4.20044842537198
 30
0.0
 10
10.88045254654889
 20
4.196829717476821
 30
0.0
 10
10.87922186590744
 20
4.194937201636127
 30
0.0
 10
10.87694741278161
 20
4.191104194088434
 30
0.0
 10
10.87589985808281
 20
4.189158698354176
 30
0.0
 10
10.87295852979448
 20
4.183260022967922
 30
0.0
 10
10.87126276948546
 20
4.179245858223202
 30
0.0
 10
10.86823576381598
 20
4.171115666388517
 30
0.0
 10
10.86690775267244
 20
4.16699846507755
 30
0.0
 10
10.86455609200809
 20
4.158685606165012
 30
0.0
 10
10.8635354899182
 20
4.154493588422728
 30
0.0
 10
10.86179138122335
 20
4.146135326432065
 30
0.0
 10
10.86106466420715
 20
4.141956778595262
 30
0.0
 10
10.85989047803916
 20
4.133602788702229
 30
0.0
 10
10.85944313683536
 20
4.129427329917193
 30
0.0
 10
10.85883706835113
 20
4.121079248198564
 30
0.0
 10
10.85867824515574
 20
4.116886960169515
 30
0.0
 10
10.85867824515574
 20
4.104428987511618
 30
0.0
  0
SPLINE
  5
1D7
330
1F
100
AcDbEntity
  8
0
  6
Continuous
 62
     7
370
    15
100
AcDbSpline
210
0.0
220
0.0
230
1.0
 70
     8
 71
     3
 72
    86
 73
    82
 74
     0
 42
0.00000001
 43
0.00000001
 40
-0.062499999999999
 40
-0.062499999999999
 40
0.0
 40
0.0
 40
0.0624999999999989
 40
0.0624999999999989
 40
0.1249999999999978
 40
0.1249999999999978
 40
0.1562499999999972
 40
0.1562499999999972
 40
0.1874999999999964
 40
0.1874999999999964
 40
0.2187499999999956
 40
0.2187499999999956
 40
0.2343749999999953
 40
0.2343749999999953
 40
0.249999999999995
 40
0.249999999999995
 40
0.2578124999999949
 40
0.2578124999999949
 40
0.2656249999999948
 40
0.2656249999999948
 40
0.2734374999999946
 40
0.2734374999999946
 40
0.2812499999999945
 40
0.2812499999999945
 40
0.2968749999999946
 40
0.2968749999999946
 40
0.3124999999999947
 40
0.3124999999999947
 40
0.3281249999999949
 40
0.3281249999999949
 40
0.3437499999999951
 40
0.3437499999999951
 40
0.3749999999999953
 40
0.3749999999999953
 40
0.437499999999996
 40
0.437499999999996
 40
0.4687499999999962
 40
0.4687499999999962
 40
0.4999999999999963
 40
0.4999999999999963
 40
0.562499999999997
 40
0.562499999999997
 40
0.5937499999999978
 40
0.5937499999999978
 40
0.6249999999999986
 40
0.6249999999999986
 40
0.6562499999999993
 40
0.6562499999999993
 40
0.6718749999999997
 40
0.6718749999999997
 40
0.6875000000000001
 40
0.6875000000000001
 40
0.7031250000000004
 40
0.7031250000000004
 40
0.7187500000000009
 40
0.7187500000000009
 40
0.7343750000000012
 40
0.7343750000000012
 40
0.7500000000000016
 40
0.7500000000000016
 40
0.7578125000000018
 40
0.7578125000000018
 40
0.765625000000002
 40
0.765625000000002
 40
0.7812500000000019
 40
0.7812500000000019
 40
0.7968750000000019
 40
0.7968750000000019
 40
0.8125000000000018
 40
0.8125000000000018
 40
0.8281250000000018
 40
0.8281250000000018
 40
0.8437500000000017
 40
0.8437500000000017
 40
0.8750000000000014
 40
0.8750000000000014
 40
0.9062500000000012
 40
0.9062500000000012
 40
0.937500000000001
 40
0.937500000000001
 40
1.0
 40
1.0
 40
1.062499999999999
 40
1.062499999999999
 10
11.10575501680928
 20
4.854664992527922
 30
0.0
 10
11.10575501680928
 20
4.837943687817965
 30
0.0
 10
11.10512789037741
 20
4.829610404500305
 30
0.0
 10
11.10279381927121
 20
4.812980845795858
 30
0.0
 10
11.10109029770611
 20
4.804683910464085
 30
0.0
 10
11.09760222502745
 20
4.792290918333811
 30
0.0
 10
11.09628185754251
 20
4.788168993789478
 30
0.0
 10
11.09323887574183
 20
4.779957967090803
 30
0.0
 10
11.09152255020852
 20
4.77588330671278
 30
0.0
 10
11.08758584188884
 20
4.767971047825478
 30
0.0
 10
11.08536242829008
 20
4.764096054746651
 30
0.0
 10
11.08135736578376
 20
4.758639679054139
 30
0.0
 10
11.07991811472517
 20
4.75689397411757
 30
0.0
 10
11.0767110420171
 20
4.753637299022316
 30
0.0
 10
11.07497558013968
 20
4.752154729785119
 30
0.0
 10
11.07205018404045
 20
4.750314734213315
 30
0.0
 10
11.07100825887103
 20
4.749762381485898
 30
0.0
 10
11.06885060496726
 20
4.748873293148553
 30
0.0
 10
11.06773222530645
 20
4.748532524840602
 30
0.0
 10
11.06539644692375
 20
4.748111186963452
 30
0.0
 10
11.06422273775642
 20
4.748040179548411
 30
0.0
 10
11.06188274386868
 20
4.74817940495278
 30
0.0
 10
11.06070241568026
 20
4.748395052950076
 30
0.0
 10
11.05733268932476
 20
4.749397217056719
 30
0.0
 10
11.05525404029083
 20
4.750541287811811
 30
0.0
 10
11.05155173360762
 20
4.753245337003289
 30
0.0
 10
11.04987331197074
 20
4.754837219632464
 30
0.0
 10
11.04683990301645
 20
4.758191164815987
 30
0.0
 10
11.04547046288361
 20
4.75996588381447
 30
0.0
 10
11.04292447666775
 20
4.763640763192882
 30
0.0
 10
11.04174567309187
 20
4.76554903300924
 30
0.0
 10
11.03845695040375
 20
4.771359330684389
 30
0.0
 10
11.03659473657819
 20
4.775325219376379
 30
0.0
 10
11.03161766660429
 20
4.787375026568603
 30
0.0
 10
11.02910607517613
 20
4.795609111559275
 30
0.0
 10
11.02615474672888
 20
4.808125916226664
 30
0.0
 10
11.02531674196616
 20
4.812322488638526
 30
0.0
 10
11.02393105951551
 20
4.820661665455874
 30
0.0
 10
11.02338020677452
 20
4.824818049435382
 30
0.0
 10
11.0221488774479
 20
4.837247222380606
 30
0.0
 10
11.02187980122393
 20
4.845479790497628
 30
0.0
 10
11.02245568420772
 20
4.857751223520636
 30
0.0
 10
11.0228129843684
 20
4.861828849974237
 30
0.0
 10
11.02392363738427
 20
4.869959876226899
 30
0.0
 10
11.02468118903534
 20
4.874024213701761
 30
0.0
 10
11.02665575704739
 20
4.881957343175737
 30
0.0
 10
11.02787254939012
 20
4.885845245532685
 30
0.0
 10
11.03014625062911
 20
4.891535110184595
 30
0.0
 10
11.0309795034168
 20
4.893407919593904
 30
0.0
 10
11.03282707516713
 20
4.897098721467944
 30
0.0
 10
11.0338460545523
 20
4.898923781265989
 30
0.0
 10
11.03607650617285
 20
4.902454823254828
 30
0.0
 10
11.03728853751224
 20
4.904164502174501
 30
0.0
 10
11.0399530627078
 20
4.90744876714767
 30
0.0
 10
11.04141660991177
 20
4.909033042595641
 30
0.0
 10
11.04457882778528
 20
4.911952969496646
 30
0.0
 10
11.04627924776665
 20
4.913295287715715
 30
0.0
 10
11.04998826090469
 20
4.915680768170724
 30
0.0
 10
11.05202979280531
 20
4.916735170768973
 30
0.0
 10
11.05524891099345
 20
4.917940397864581
 30
0.0
 10
11.05634931195021
 20
4.918281701014073
 30
0.0
 10
11.05861075764951
 20
4.918830767943191
 30
0.0
 10
11.05978157810867
 20
4.919038876398493
 30
0.0
 10
11.06328263167734
 20
4.919426924730042
 30
0.0
 10
11.06562872728655
 20
4.919381583920782
 30
0.0
 10
11.07030500883941
 20
4.918675617238874
 30
0.0
 10
11.07252719518593
 20
4.918034173083059
 30
0.0
 10
11.07677893619546
 20
4.916269336950565
 30
0.0
 10
11.0787419518198
 20
4.915172445403564
 30
0.0
 10
11.08237954379042
 20
4.912680221524544
 30
0.0
 10
11.08407440785554
 20
4.911266153847472
 30
0.0
 10
11.08716183773858
 20
4.908266195345616
 30
0.0
 10
11.08856195819463
 20
4.906678556608623
 30
0.0
 10
11.09243047475813
 20
4.901708227102289
 30
0.0
 10
11.09458187452345
 20
4.898090745446781
 30
0.0
 10
11.09816213740314
 20
4.890680770419369
 30
0.0
 10
11.09960833568379
 20
4.886865945404006
 30
0.0
 10
11.10199810960531
 20
4.879062191215063
 30
0.0
 10
11.10294077821553
 20
4.87506202869924
 30
0.0
 10
11.10513353576505
 20
4.862903765355318
 30
0.0
 10
11.10575501680928
 20
4.854664992527922
 30
0.0
 10
11.10575501680928
 20
4.837943687817965
 30
0.0
  0
SPLINE
  5
1D8
330
1F
100
AcDbEntity
  8
0
  6
Continuous
 62
     7
370
    15
100
AcDbSpline
210
0.0
220
0.0
230
1.0
 70
     8
 71
     3
 72
   104
 73
   100
 74
     0
 42
0.00000001
 43
0.00000001
 40
-0.0078125000000002
 40
-0.0078125000000002
 40
0.0
 40
0.0
 40
0.0624999999999987
 40
0.0624999999999987
 40
0.0781249999999983
 40
0.0781249999999983
 40
0.093749999999998
 40
0.093749999999998
 40
0.1249999999999975
 40
0.1249999999999975
 40
0.1562499999999971
 40
0.1562499999999971
 40
0.1718749999999968
 40
0.1718749999999968
 40
0.1874999999999964
 40
0.1874999999999964
 40
0.1953124999999961
 40
0.1953124999999961
 40
0.2031249999999958
 40
0.2031249999999958
 40
0.2187499999999952
 40
0.2187499999999952
 40
0.2343749999999945
 40
0.2343749999999945
 40
0.2421874999999942
 40
0.2421874999999942
 40
0.2499999999999939
 40
0.2499999999999939
 40
0.2656249999999935
 40
0.2656249999999935
 40
0.2812499999999931
 40
0.2812499999999931
 40
0.2968749999999926
 40
0.2968749999999926
 40
0.3124999999999922
 40
0.3124999999999922
 40
0.3437499999999915
 40
0.3437499999999915
 40
0.3593749999999913
 40
0.3593749999999913
 40
0.3749999999999911
 40
0.3749999999999911
 40
0.4374999999999907
 40
0.4374999999999907
 40
0.4687499999999906
 40
0.4687499999999906
 40
0.4999999999999905
 40
0.4999999999999905
 40
0.5624999999999905
 40
0.5624999999999905
 40
0.5937499999999905
 40
0.5937499999999905
 40
0.6249999999999905
 40
0.6249999999999905
 40
0.6562499999999905
 40
0.6562499999999905
 40
0.6718749999999905
 40
0.6718749999999905
 40
0.6796874999999905
 40
0.6796874999999905
 40
0.6874999999999906
 40
0.6874999999999906
 40
0.6953124999999906
 40
0.6953124999999906
 40
0.6992187499999906
 40
0.6992187499999906
 40
0.7031249999999907
 40
0.7031249999999907
 40
0.7070312499999907
 40
0.7070312499999907
 40
0.7109374999999907
 40
0.7109374999999907
 40
0.7187499999999909
 40
0.7187499999999909
 40
0.726562499999991
 40
0.726562499999991
 40
0.7343749999999912
 40
0.7343749999999912
 40
0.7499999999999916
 40
0.7499999999999916
 40
0.765624999999992
 40
0.765624999999992
 40
0.7812499999999925
 40
0.7812499999999925
 40
0.8124999999999934
 40
0.8124999999999934
 40
0.8437499999999944
 40
0.8437499999999944
 40
0.8749999999999954
 40
0.8749999999999954
 40
0.9374999999999976
 40
0.9374999999999976
 40
0.9687499999999989
 40
0.9687499999999989
 40
0.9843749999999994
 40
0.9843749999999994
 40
0.9921874999999998
 40
0.9921874999999998
 40
1.0
 40
1.0
 40
1.062499999999999
 40
1.062499999999999
 10
11.13282194594314
 20
4.11455773514056
 30
0.0
 10
11.13282194594314
 20
4.098146842427464
 30
0.0
 10
11.13168186824888
 20
4.083931419860579
 30
0.0
 10
11.12809021666407
 20
4.06668966071655
 30
0.0
 10
11.12726033065808
 20
4.063268015260472
 30
0.0
 10
11.12534022159052
 20
4.056481594735722
 30
0.0
 10
11.12424615132462
 20
4.053106417768307
 30
0.0
 10
11.12052703725768
 20
4.043158216646683
 30
0.0
 10
11.11748061903409
 20
4.03676038759597
 30
0.0
 10
11.10978962842482
 20
4.024665743013743
 30
0.0
 10
11.10524378663983
 20
4.019086513488729
 30
0.0
 10
11.09675913751681
 20
4.011739374325489
 30
0.0
 10
11.09368498012371
 20
4.009503797981007
 30
0.0
 10
11.08703613503129
 20
4.005632321628173
 30
0.0
 10
11.08339742703292
 20
4.003971653683686
 30
0.0
 10
11.07770106867545
 20
4.002135060719836
 30
0.0
 10
11.07575782968942
 20
4.001627246403732
 30
0.0
 10
11.07177453063558
 20
4.000837761631005
 30
0.0
 10
11.06971844400375
 20
4.000556265688059
 30
0.0
 10
11.06359334897248
 20
4.000098686730046
 30
0.0
 10
11.05951974640482
 20
4.000289961890241
 30
0.0
 10
11.0514127439375
 20
4.001665970984475
 30
0.0
 10
11.04757396951762
 20
4.00281538798068
 30
0.0
 10
11.04208542720218
 20
4.005125907819252
 30
0.0
 10
11.04031170275947
 20
4.005991832515947
 30
0.0
 10
11.03692772329704
 20
4.0078605678695
 30
0.0
 10
11.03530662086462
 20
4.008867894344096
 30
0.0
 10
11.03063043680401
 20
4.012084889337745
 30
0.0
 10
11.0277398157815
 20
4.01451092016987
 30
0.0
 10
11.02248968487006
 20
4.019681910212044
 30
0.0
 10
11.0201297184631
 20
4.022417985976731
 30
0.0
 10
11.01582251136991
 20
4.028135064064038
 30
0.0
 10
11.0138764393577
 20
4.031116664274289
 30
0.0
 10
11.01032987788509
 20
4.037294165941115
 30
0.0
 10
11.00874201807771
 20
4.040471315327311
 30
0.0
 10
11.00448588813878
 20
4.050119635994579
 30
0.0
 10
11.00228998424787
 20
4.056755569471711
 30
0.0
 10
10.99969300152406
 20
4.066963485778621
 30
0.0
 10
10.99894557338953
 20
4.070408905061488
 30
0.0
 10
10.99766052100888
 20
4.077380450322866
 30
0.0
 10
10.99712271885939
 20
4.080912272166469
 30
0.0
 10
10.99492589717866
 20
4.098588497083394
 30
0.0
 10
10.9946704851499
 20
4.112915142636588
 30
0.0
 10
10.99577876286743
 20
4.134693382384704
 30
0.0
 10
10.99640493544025
 20
4.142000743616377
 30
0.0
 10
10.99811198795087
 20
4.156712292595929
 30
0.0
 10
10.99919658120305
 20
4.164135652285624
 30
0.0
 10
11.00305930576818
 20
4.186397771538817
 30
0.0
 10
11.00641808912698
 20
4.20120176200135
 30
0.0
 10
11.01261367264287
 20
4.223337284260402
 30
0.0
 10
11.01487493899644
 20
4.230703317288938
 30
0.0
 10
11.01986160093984
 20
4.245389173271828
 30
0.0
 10
11.02258234338238
 20
4.252710232311907
 30
0.0
 10
11.02868703828106
 20
4.267251643205173
 30
0.0
 10
11.03204053490101
 20
4.274448915262669
 30
0.0
 10
11.03793540163173
 20
4.284855874965623
 30
0.0
 10
11.04003577107831
 20
4.288239560216414
 30
0.0
 10
11.04353657504681
 20
4.293086529153311
 30
0.0
 10
11.0447627797252
 20
4.294663482725131
 30
0.0
 10
11.04738767004194
 20
4.297703226603272
 30
0.0
 10
11.04879292331143
 20
4.299172898241635
 30
0.0
 10
11.05180946627986
 20
4.301866975212101
 30
0.0
 10
11.05344284231702
 20
4.303110192511205
 30
0.0
 10
11.05607227497445
 20
4.304629169454942
 30
0.0
 10
11.05697769103916
 20
4.305077546932848
 30
0.0
 10
11.05886106777553
 20
4.305828829544802
 30
0.0
 10
11.05985074905841
 20
4.30613384701744
 30
0.0
 10
11.06186026455931
 20
4.306544538866694
 30
0.0
 10
11.06287450943326
 20
4.306651164709741
 30
0.0
 10
11.06492315332444
 20
4.306654643757547
 30
0.0
 10
11.06596027404599
 20
4.306548124863749
 30
0.0
 10
11.0689632670342
 20
4.305940748421697
 30
0.0
 10
11.07088904898035
 20
4.305140599154239
 30
0.0
 10
11.07439666680702
 20
4.303116590549386
 30
0.0
 10
11.07602428831963
 20
4.30187875095557
 30
0.0
 10
11.07903945697749
 20
4.29918888051916
 30
0.0
 10
11.08042157767151
 20
4.297744847004354
 30
0.0
 10
11.08433196901666
 20
4.293228127550911
 30
0.0
 10
11.08663375788321
 20
4.289967085908319
 30
0.0
 10
11.09089359165505
 20
4.283230987372615
 30
0.0
 10
11.09282336552972
 20
4.279788066587321
 30
0.0
 10
11.09644003272223
 20
4.272817445967139
 30
0.0
 10
11.09812400620799
 20
4.26928854965671
 30
0.0
 10
11.10291103992768
 20
4.258616067640929
 30
0.0
 10
11.10575416483544
 20
4.251388718758538
 30
0.0
 10
11.11098216717242
 20
4.236810016469468
 30
0.0
 10
11.1133669038013
 20
4.229436678409844
 30
0.0
 10
11.11771390906875
 20
4.214719085000228
 30
0.0
 10
11.11967705999371
 20
4.207371691182573
 30
0.0
 10
11.12498922771438
 20
4.185374085047051
 30
0.0
 10
11.1277726192406
 20
4.170769910048762
 30
0.0
 10
11.1307076448314
 20
4.148951923478155
 30
0.0
 10
11.13147600415267
 20
4.141693534475543
 30
0.0
 10
11.13226865571141
 20
4.130822968050234
 30
0.0
 10
11.13247265472266
 20
4.127202253599488
 30
0.0
 10
11.13268012845384
 20
4.121774535934009
 30
0.0
 10
11.13273284515255
 20
4.119965853285684
 30
0.0
 10
11.13280375337402
 20
4.116349425290135
 30
0.0
 10
11.13282194594314
 20
4.11455773514056
 30
0.0
 10
11.13282194594314
 20
4.098146842427464
 30
0.0
  0
SPLINE
  5
1D9
330
1F
100
AcDbEntity
  8
0
  6
Continuous
 62
     7
370
    15
100
AcDbSpline
210
0.0
220
0.0
230
1.0
 70
     8
 71
     3
 72
    84
 73
    80
 74
     0
 42
0.00000001
 43
0.00000001
 40
-0.0312500000000002
 40
-0.0312500000000002
 40
0.0
 40
0.0
 40
0.0624999999999978
 40
0.0624999999999978
 40
0.0937499999999969
 40
0.0937499999999969
 40
0.1093749999999965
 40
0.1093749999999965
 40
0.1249999999999961
 40
0.1249999999999961
 40
0.1562499999999946
 40
0.1562499999999946
 40
0.1718749999999941
 40
0.1718749999999941
 40
0.1874999999999934
 40
0.1874999999999934
 40
0.2031249999999929
 40
0.2031249999999929
 40
0.2187499999999923
 40
0.2187499999999923
 40
0.2343749999999917
 40
0.2343749999999917
 40
0.2421874999999915
 40
0.2421874999999915
 40
0.2499999999999913
 40
0.2499999999999913
 40
0.2656249999999909
 40
0.2656249999999909
 40
0.2812499999999905
 40
0.2812499999999905
 40
0.3124999999999899
 40
0.3124999999999899
 40
0.3281249999999897
 40
0.3281249999999897
 40
0.3437499999999895
 40
0.3437499999999895
 40
0.3749999999999899
 40
0.3749999999999899
 40
0.4062499999999903
 40
0.4062499999999903
 40
0.4374999999999907
 40
0.4374999999999907
 40
0.499999999999992
 40
0.499999999999992
 40
0.5624999999999932
 40
0.5624999999999932
 40
0.6249999999999946
 40
0.6249999999999946
 40
0.6562499999999951
 40
0.6562499999999951
 40
0.6874999999999957
 40
0.6874999999999957
 40
0.7031249999999961
 40
0.7031249999999961
 40
0.7187499999999964
 40
0.7187499999999964
 40
0.7343749999999968
 40
0.7343749999999968
 40
0.7499999999999971
 40
0.7499999999999971
 40
0.7656249999999974
 40
0.7656249999999974
 40
0.7812499999999978
 40
0.7812499999999978
 40
0.7968749999999981
 40
0.7968749999999981
 40
0.8124999999999984
 40
0.8124999999999984
 40
0.8437499999999988
 40
0.8437499999999988
 40
0.874999999999999
 40
0.874999999999999
 40
0.9062499999999992
 40
0.9062499999999992
 40
0.9374999999999994
 40
0.9374999999999994
 40
0.9687499999999998
 40
0.9687499999999998
 40
1.0
 40
1.0
 40
1.062499999999998
 40
1.062499999999998
 10
10.69526289082503
 20
4.842151682620311
 30
0.0
 10
10.69526289082503
 20
4.854609655278207
 30
0.0
 10
10.69587883242597
 20
4.862749365655819
 30
0.0
 10
10.69799777846746
 20
4.874680386982
 30
0.0
 10
10.69890570996744
 20
4.878610634319418
 30
0.0
 10
10.70065226914976
 20
4.884425610455926
 30
0.0
 10
10.70129902038684
 20
4.886350476073088
 30
0.0
 10
10.70274441017595
 20
4.890170371321457
 30
0.0
 10
10.70354711279874
 20
4.8920740116214
 30
0.0
 10
10.706199912333
 20
4.897665128947875
 30
0.0
 10
10.70827548347138
 20
4.901219967824858
 30
0.0
 10
10.71205505088352
 20
4.90619824736114
 30
0.0
 10
10.71342717593072
 20
4.907798081489762
 30
0.0
 10
10.71646944587022
 20
4.910843676079007
 30
0.0
 10
10.71813291354385
 20
4.912278619680907
 30
0.0
 10
10.72172794233435
 20
4.914838196485963
 30
0.0
 10
10.72369630629202
 20
4.91598479893058
 30
0.0
 10
10.72785076806328
 20
4.917813084266958
 30
0.0
 10
10.73004080950165
 20
4.918505218223306
 30
0.0
 10
10.7346977660518
 20
4.91932854809891
 30
0.0
 10
10.73702990756351
 20
4.919434371941942
 30
0.0
 10
10.74053357298565
 20
4.919138238616872
 30
0.0
 10
10.74171191756582
 20
4.91896043846261
 30
0.0
 10
10.74399917158137
 20
4.918465360395335
 30
0.0
 10
10.74511346355236
 20
4.918148998224368
 30
0.0
 10
10.74837670912063
 20
4.917012554778792
 30
0.0
 10
10.7504473804173
 20
4.915998195909052
 30
0.0
 10
10.7542307986599
 20
4.913664571870182
 30
0.0
 10
10.75597574252906
 20
4.912333864024984
 30
0.0
 10
10.76084940778498
 20
4.907958276664491
 30
0.0
 10
10.76348355866793
 20
4.90467962604817
 30
0.0
 10
10.76688044757083
 20
4.899418676691311
 30
0.0
 10
10.76791889640385
 20
4.897598278693839
 30
0.0
 10
10.7698024444875
 20
4.893912528672006
 30
0.0
 10
10.77065168429165
 20
4.892041843162598
 30
0.0
 10
10.77296939007217
 20
4.886357603535039
 30
0.0
 10
10.77421034147011
 20
4.882472477257504
 30
0.0
 10
10.7762280285423
 20
4.874544085754113
 30
0.0
 10
10.77700476450157
 20
4.870481982945874
 30
0.0
 10
10.77815167568184
 20
4.862336031069417
 30
0.0
 10
10.77852503103732
 20
4.858246519949784
 30
0.0
 10
10.77914266714713
 20
4.845927922004472
 30
0.0
 10
10.7788930088556
 20
4.837648734154447
 30
0.0
 10
10.77727024931784
 20
4.820955872060229
 30
0.0
 10
10.77588498277922
 20
4.812504198534532
 30
0.0
 10
10.77197497247278
 20
4.795833372123301
 30
0.0
 10
10.76947219595506
 20
4.787573293646306
 30
0.0
 10
10.76446473296245
 20
4.775414090721402
 30
0.0
 10
10.76257755467133
 20
4.771395890095979
 30
0.0
 10
10.75822702336554
 20
4.763695298486115
 30
0.0
 10
10.75578164321466
 20
4.759980236892186
 30
0.0
 10
10.75120131919371
 20
4.754892206740636
 30
0.0
 10
10.74955168498781
 20
4.753319580644412
 30
0.0
 10
10.74585147637555
 20
4.750594024489078
 30
0.0
 10
10.74378340290118
 20
4.749440822398255
 30
0.0
 10
10.73927610628921
 20
4.748072102559904
 30
0.0
 10
10.73686916104196
 20
4.747900173230483
 30
0.0
 10
10.73221103140164
 20
4.748712835692008
 30
0.0
 10
10.73001505257811
 20
4.749665251175629
 30
0.0
 10
10.72610143138797
 20
4.752108601794163
 30
0.0
 10
10.72432915966561
 20
4.753618189913972
 30
0.0
 10
10.72113530114117
 20
4.756854450256465
 30
0.0
 10
10.71970043084514
 20
4.758590217417846
 30
0.0
 10
10.71703719221818
 20
4.762208925313005
 30
0.0
 10
10.71580651157673
 20
4.764101441153699
 30
0.0
 10
10.71353205845091
 20
4.767934448701392
 30
0.0
 10
10.7124845037521
 20
4.76987994443565
 30
0.0
 10
10.70954317546377
 20
4.775778619821904
 30
0.0
 10
10.70784741515475
 20
4.779792784566625
 30
0.0
 10
10.70482040948527
 20
4.787922976401309
 30
0.0
 10
10.70349239834173
 20
4.792040177712276
 30
0.0
 10
10.70114073767738
 20
4.800353036624815
 30
0.0
 10
10.70012013558749
 20
4.804545054367098
 30
0.0
 10
10.69837602689264
 20
4.812903316357761
 30
0.0
 10
10.69764930987645
 20
4.817081864194564
 30
0.0
 10
10.69647512370846
 20
4.825435854087597
 30
0.0
 10
10.69602778250465
 20
4.829611312872633
 30
0.0
 10
10.69542171402042
 20
4.837959394591262
 30
0.0
 10
10.69526289082503
 20
4.842151682620311
 30
0.0
 10
10.69526289082503
 20
4.854609655278207
 30
0.0
  0
SPLINE
  5
1DA
330
1F
100
AcDbEntity
  8
0
  6
Continuous
 62
     7
370
    15
100
AcDbSpline
210
0.0
220
0.0
230
1.0
 70
     8
 71
     3
 72
    98
 73
    94
 74
     0
 42
0.00000001
 43
0.00000001
 40
-0.0078125000000002
 40
-0.0078125000000002
 40
0.0
 40
0.0
 40
0.0625000000000012
 40
0.0625000000000012
 40
0.1250000000000025
 40
0.1250000000000025
 40
0.1562500000000031
 40
0.1562500000000031
 40
0.1875000000000037
 40
0.1875000000000037
 40
0.2187500000000043
 40
0.2187500000000043
 40
0.2343750000000046
 40
0.2343750000000046
 40
0.2500000000000049
 40
0.2500000000000049
 40
0.2656250000000052
 40
0.2656250000000052
 40
0.2734375000000051
 40
0.2734375000000051
 40
0.2812500000000051
 40
0.2812500000000051
 40
0.2851562500000051
 40
0.2851562500000051
 40
0.2890625000000051
 40
0.2890625000000051
 40
0.292968750000005
 40
0.292968750000005
 40
0.296875000000005
 40
0.296875000000005
 40
0.3046875000000048
 40
0.3046875000000048
 40
0.3125000000000046
 40
0.3125000000000046
 40
0.3281250000000043
 40
0.3281250000000043
 40
0.343750000000004
 40
0.343750000000004
 40
0.3750000000000031
 40
0.3750000000000031
 40
0.4062500000000023
 40
0.4062500000000023
 40
0.4375000000000014
 40
0.4375000000000014
 40
0.4999999999999998
 40
0.4999999999999998
 40
0.5624999999999983
 40
0.5624999999999983
 40
0.5937499999999977
 40
0.5937499999999977
 40
0.6249999999999969
 40
0.6249999999999969
 40
0.6562499999999962
 40
0.6562499999999962
 40
0.6874999999999954
 40
0.6874999999999954
 40
0.7187499999999948
 40
0.7187499999999948
 40
0.7343749999999947
 40
0.7343749999999947
 40
0.7499999999999944
 40
0.7499999999999944
 40
0.7656249999999943
 40
0.7656249999999943
 40
0.7734374999999944
 40
0.7734374999999944
 40
0.7812499999999944
 40
0.7812499999999944
 40
0.7968749999999944
 40
0.7968749999999944
 40
0.8124999999999944
 40
0.8124999999999944
 40
0.8203124999999946
 40
0.8203124999999946
 40
0.8281249999999947
 40
0.8281249999999947
 40
0.8437499999999951
 40
0.8437499999999951
 40
0.8593749999999956
 40
0.8593749999999956
 40
0.874999999999996
 40
0.874999999999996
 40
0.9062499999999969
 40
0.9062499999999969
 40
0.9374999999999979
 40
0.9374999999999979
 40
0.9687499999999988
 40
0.9687499999999988
 40
0.9843749999999993
 40
0.9843749999999993
 40
0.9921874999999998
 40
0.9921874999999998
 40
1.0
 40
1.0
 40
1.062500000000001
 40
1.062500000000001
 10
10.66819596169117
 20
4.110923866044717
 30
0.0
 10
10.66819596169117
 20
4.127217795194206
 30
0.0
 10
10.66933586001747
 20
4.14173457051962
 30
0.0
 10
10.67326593306537
 20
4.17089718460997
 30
0.0
 10
10.67606194341709
 20
4.185542529712905
 30
0.0
 10
10.68140198883284
 20
4.207609187268484
 30
0.0
 10
10.68337594177168
 20
4.214980824791668
 30
0.0
 10
10.68774894326447
 20
4.229749387592176
 30
0.0
 10
10.69014057588331
 20
4.237124769217392
 30
0.0
 10
10.6954036121829
 20
4.251755277418029
 30
0.0
 10
10.69827854960296
 20
4.259037989666449
 30
0.0
 10
10.70312008384062
 20
4.269771274354691
 30
0.0
 10
10.70481910030803
 20
4.273307230717203
 30
0.0
 10
10.70845286390523
 20
4.28025741973314
 30
0.0
 10
10.71038526320549
 20
4.283673001235137
 30
0.0
 10
10.71461894970453
 20
4.290305346668281
 30
0.0
 10
10.71690938287007
 20
4.293528334277608
 30
0.0
 10
10.72088974044379
 20
4.298059307951679
 30
0.0
 10
10.72232042648021
 20
4.299525756033895
 30
0.0
 10
10.72539164951885
 20
4.302193337813658
 30
0.0
 10
10.72705849270594
 20
4.303416445752745
 30
0.0
 10
10.72973699745056
 20
4.304879928686106
 30
0.0
 10
10.73065914644634
 20
4.305306116306299
 30
0.0
 10
10.73257679916628
 20
4.306004043902534
 30
0.0
 10
10.73358524924965
 20
4.306277298545377
 30
0.0
 10
10.73561825452298
 20
4.306614779837369
 30
0.0
 10
10.73664190948846
 20
4.306681561174115
 30
0.0
 10
10.73870417367281
 20
4.306601910426417
 30
0.0
 10
10.73973985499284
 20
4.30645269280845
 30
0.0
 10
10.74273332057095
 20
4.305726491147043
 30
0.0
 10
10.74463988267886
 20
4.304858277439622
 30
0.0
 10
10.74810864439593
 20
4.302729590460153
 30
0.0
 10
10.74971820165654
 20
4.301450599800658
 30
0.0
 10
10.75419127584598
 20
4.297315921349409
 30
0.0
 10
10.75670820872313
 20
4.294205278547081
 30
0.0
 10
10.7613408292528
 20
4.287686054423085
 30
0.0
 10
10.76344405539787
 20
4.284252937965616
 30
0.0
 10
10.76927068588575
 20
4.273850252369664
 30
0.0
 10
10.77257132911974
 20
4.266715420576311
 30
0.0
 10
10.77859848243177
 20
4.252283077023236
 30
0.0
 10
10.78130516886871
 20
4.244977745402374
 30
0.0
 10
10.78628312343671
 20
4.230261970871439
 30
0.0
 10
10.78855589576496
 20
4.222829348596639
 30
0.0
 10
10.7947455543916
 20
4.200609422989528
 30
0.0
 10
10.79805954529437
 20
4.185880259479472
 30
0.0
 10
10.80311622330755
 20
4.156607102183914
 30
0.0
 10
10.80485657233405
 20
4.142062600966149
 30
0.0
 10
10.80597223612099
 20
4.120360786113706
 30
0.0
 10
10.80609183235493
 20
4.113145707375594
 30
0.0
 10
10.80571526161209
 20
4.098743892251236
 30
0.0
 10
10.8052140016547
 20
4.091531810493148
 30
0.0
 10
10.80346177290191
 20
4.077416909454119
 30
0.0
 10
10.80221401274154
 20
4.070484195116951
 30
0.0
 10
10.79877003297647
 20
4.056895663953427
 30
0.0
 10
10.79657987077996
 20
4.050238914383617
 30
0.0
 10
10.7908630786251
 20
4.037257878982323
 30
0.0
 10
10.78739626943812
 20
4.031058825351438
 30
0.0
 10
10.78087938005653
 20
4.022405057651402
 30
0.0
 10
10.77848824505938
 20
4.019640430158904
 30
0.0
 10
10.77327777496561
 20
4.014512729378788
 30
0.0
 10
10.77044834525732
 20
4.012132338519616
 30
0.0
 10
10.76421062864248
 20
4.007830046790221
 30
0.0
 10
10.76077278799914
 20
4.005904091925466
 30
0.0
 10
10.75532855896101
 20
4.003607054817936
 30
0.0
 10
10.75345727118403
 20
4.002933451701869
 30
0.0
 10
10.74958784870986
 20
4.00179126674024
 30
0.0
 10
10.74758672194338
 20
4.001324735457878
 30
0.0
 10
10.74158003028204
 20
4.000301177738271
 30
0.0
 10
10.73748955646029
 20
4.000095802564241
 30
0.0
 10
10.72924046572141
 20
4.000708124214786
 30
0.0
 10
10.72526809334474
 20
4.001506943718946
 30
0.0
 10
10.71951070246588
 20
4.003361720955316
 30
0.0
 10
10.71764215367011
 20
4.004086367925204
 30
0.0
 10
10.71406220562463
 20
4.005698420042555
 30
0.0
 10
10.71233938175576
 20
4.006589502083103
 30
0.0
 10
10.70735010761154
 20
4.009492104135339
 30
0.0
 10
10.70424133894129
 20
4.011754406701572
 30
0.0
 10
10.69861853113916
 20
4.016623506249305
 30
0.0
 10
10.69607607524657
 20
4.019242192404196
 30
0.0
 10
10.69141421398363
 20
4.024780443689792
 30
0.0
 10
10.68928552279329
 20
4.027718990079693
 30
0.0
 10
10.68353737782891
 20
4.036764025568894
 30
0.0
 10
10.68051966488266
 20
4.043101831579222
 30
0.0
 10
10.67558899595424
 20
4.056249884505972
 30
0.0
 10
10.67368050438575
 20
4.063099511503593
 30
0.0
 10
10.67078297725456
 20
4.076962005563121
 30
0.0
 10
10.66978473405458
 20
4.083990720707368
 30
0.0
 10
10.66881391181463
 20
4.094669232683521
 30
0.0
 10
10.66857898431162
 20
4.098251385577558
 30
0.0
 10
10.66834724008031
 20
4.103657763437871
 30
0.0
 10
10.66829013323143
 20
4.105465416947936
 30
0.0
 10
10.66821449361112
 20
4.109091671597183
 30
0.0
 10
10.66819596169117
 20
4.110923866044717
 30
0.0
 10
10.66819596169117
 20
4.127217795194206
 30
0.0
  0
SPLINE
  5
1DB
330
1F
100
AcDbEntity
  8
0
  6
Continuous
 62
     7
370
    15
100
AcDbSpline
210
0.0
220
0.0
230
1.0
 70
     8
 71
     3
 72
    88
 73
    84
 74
     0
 42
0.00000001
 43
0.00000001
 40
-0.0312499999999993
 40
-0.0312499999999993
 40
0.0
 40
0.0
 40
0.0312499999999998
 40
0.0312499999999998
 40
0.0468749999999996
 40
0.0468749999999996
 40
0.0624999999999995
 40
0.0624999999999995
 40
0.0937499999999992
 40
0.0937499999999992
 40
0.124999999999999
 40
0.124999999999999
 40
0.1562499999999987
 40
0.1562499999999987
 40
0.1718749999999986
 40
0.1718749999999986
 40
0.1874999999999985
 40
0.2031249999999983
 40
0.2031249999999983
 40
0.2187499999999982
 40
0.2187499999999982
 40
0.249999999999998
 40
0.249999999999998
 40
0.2812499999999977
 40
0.2812499999999977
 40
0.3124999999999974
 40
0.3124999999999974
 40
0.3281249999999975
 40
0.3281249999999975
 40
0.3437499999999976
 40
0.3437499999999976
 40
0.3749999999999977
 40
0.3749999999999977
 40
0.4062499999999978
 40
0.4062499999999978
 40
0.4218749999999981
 40
0.4218749999999981
 40
0.4374999999999983
 40
0.4374999999999983
 40
0.4687499999999987
 40
0.4687499999999987
 40
0.4999999999999991
 40
0.4999999999999991
 40
0.5312499999999996
 40
0.5312499999999996
 40
0.5468749999999998
 40
0.5468749999999998
 40
0.5625
 40
0.5781250000000002
 40
0.5781250000000002
 40
0.5937500000000003
 40
0.5937500000000003
 40
0.625000000000001
 40
0.625000000000001
 40
0.6562500000000017
 40
0.6562500000000017
 40
0.6875000000000023
 40
0.6875000000000023
 40
0.7031250000000027
 40
0.7031250000000027
 40
0.718750000000003
 40
0.718750000000003
 40
0.7500000000000031
 40
0.7500000000000031
 40
0.7812500000000033
 40
0.7812500000000033
 40
0.7968750000000032
 40
0.7968750000000032
 40
0.8125000000000031
 40
0.8125000000000031
 40
0.8437500000000028
 40
0.8437500000000028
 40
0.8750000000000024
 40
0.8750000000000024
 40
0.9062500000000021
 40
0.9062500000000021
 40
0.9218750000000017
 40
0.9218750000000017
 40
0.9375000000000013
 40
0.9375000000000013
 40
0.9687500000000007
 40
0.9687500000000007
 40
1.0
 40
1.0
 40
1.03125
 40
1.03125
 10
10.89613021265093
 20
3.811341682996196
 30
0.0
 10
10.90488769498338
 20
3.811341682996196
 30
0.0
 10
10.90919289967543
 20
3.811096026355605
 30
0.0
 10
10.91554499713087
 20
3.810376831019467
 30
0.0
 10
10.91764461415984
 20
3.81007825988847
 30
0.0
 10
10.92180756235672
 20
3.809361830676053
 30
0.0
 10
10.92387615984816
 20
3.80894203667727
 30
0.0
 10
10.92989273682517
 20
3.807531636362603
 30
0.0
 10
10.93369723077059
 20
3.806385256769987
 30
0.0
 10
10.94089739255481
 20
3.803698493475917
 30
0.0
 10
10.94430506260472
 20
3.8021448181751
 30
0.0
 10
10.95041359802303
 20
3.798784408139404
 30
0.0
 10
10.95315533304267
 20
3.796965493157258
 30
0.0
 10
10.95678771741758
 20
3.794036642559449
 30
0.0
 10
10.95791496529523
 20
3.793027689814947
 30
0.0
 10
10.95995846571291
 20
3.790988702416423
 30
0.0
 10
10.96180495993566
 20
3.788917877626397
 30
0.0
 10
10.96326310953285
 20
3.786787573069414
 30
0.0
 10
10.96452427302757
 20
3.784628466524626
 30
0.0
 10
10.96505845484812
 20
3.783528523253274
 30
0.0
 10
10.9663353280957
 20
3.780232906257678
 30
0.0
 10
10.96675660437651
 20
3.778053034113253
 30
0.0
 10
10.96676128384686
 20
3.773730189376422
 30
0.0
 10
10.96633093910615
 20
3.771565475784519
 30
0.0
 10
10.96464033107106
 20
3.767433537316794
 30
0.0
 10
10.9633894561439
 20
3.765454018098841
 30
0.0
 10
10.96090105643402
 20
3.762607826533515
 30
0.0
 10
10.95996280278675
 20
3.76167504583423
 30
0.0
 10
10.95791243068363
 20
3.759884640935759
 30
0.0
 10
10.95679958478025
 20
3.759024560129397
 30
0.0
 10
10.95320416767105
 20
3.756544289067585
 30
0.0
 10
10.95046725021904
 20
3.755023214789095
 30
0.0
 10
10.94428539649204
 20
3.752238770612636
 30
0.0
 10
10.94093839683447
 20
3.751019757566658
 30
0.0
 10
10.93555948522443
 20
3.749431827806661
 30
0.0
 10
10.93370575598105
 20
3.748942688534563
 30
0.0
 10
10.92987397076442
 20
3.748044565413427
 30
0.0
 10
10.92788834297687
 20
3.747634714504875
 30
0.0
 10
10.92186987623683
 20
3.746550302363896
 30
0.0
 10
10.91774043707716
 20
3.746009477822171
 30
0.0
 10
10.9092493228616
 20
3.745278732825487
 30
0.0
 10
10.9048572914713
 20
3.745092358238471
 30
0.0
 10
10.89620869406544
 20
3.745091011497215
 30
0.0
 10
10.89190969709383
 20
3.745269995649108
 30
0.0
 10
10.88549998490603
 20
3.745816571850949
 30
0.0
 10
10.88337042413856
 20
3.746046168814586
 30
0.0
 10
10.87921858344536
 20
3.746589995306629
 30
0.0
 10
10.87514960674573
 20
3.747220214090376
 30
0.0
 10
10.87124362296967
 20
3.748023225916841
 30
0.0
 10
10.86742012563163
 20
3.748915462238823
 30
0.0
 10
10.8655402391079
 20
3.749409056373007
 30
0.0
 10
10.8601022413272
 20
3.751010353077748
 30
0.0
 10
10.85676524117564
 20
3.752228213300469
 30
0.0
 10
10.85065157330315
 20
3.754973665574323
 30
0.0
 10
10.84785211035158
 20
3.756520681822771
 30
0.0
 10
10.84303656594324
 20
3.759836956417786
 30
0.0
 10
10.84099884584435
 20
3.761609356892998
 30
0.0
 10
10.83850058045429
 20
3.764451531732133
 30
0.0
 10
10.83775844114578
 20
3.765435416507405
 30
0.0
 10
10.83649186352456
 20
3.767432240886607
 30
0.0
 10
10.83596504953737
 20
3.768446045098197
 30
0.0
 10
10.83469638259088
 20
3.771534077231335
 30
0.0
 10
10.8342632570047
 20
3.773654657383485
 30
0.0
 10
10.83425471381505
 20
3.778028009145682
 30
0.0
 10
10.83468122998199
 20
3.780216845020768
 30
0.0
 10
10.83593832909644
 20
3.783480130185744
 30
0.0
 10
10.83646101322047
 20
3.784565660298234
 30
0.0
 10
10.83771798488376
 20
3.786731134573985
 30
0.0
 10
10.8384565615524
 20
3.787815346966986
 30
0.0
 10
10.84094726078066
 20
3.790989586509522
 30
0.0
 10
10.84297950255531
 20
3.793021384127673
 30
0.0
 10
10.84777837308583
 20
3.796904235137303
 30
0.0
 10
10.85057288444919
 20
3.798764883731323
 30
0.0
 10
10.8566793160435
 20
3.802128586532803
 30
0.0
 10
10.8600104401265
 20
3.803652483996577
 30
0.0
 10
10.86543345262145
 20
3.805683404611544
 30
0.0
 10
10.86731487597336
 20
3.806317328312303
 30
0.0
 10
10.87113859961655
 20
3.807469261727787
 30
0.0
 10
10.8730908657471
 20
3.807991286929746
 30
0.0
 10
10.87906701331285
 20
3.809395601815152
 30
0.0
 10
10.88322982645522
 20
3.81011988657635
 30
0.0
 10
10.89179878806518
 20
3.811095983980548
 30
0.0
 10
10.89613021265093
 20
3.811341682996196
 30
0.0
 10
10.90488769498338
 20
3.811341682996196
 30
0.0
  0
SPLINE
  5
1DC
330
1F
100
AcDbEntity
  8
0
  6
Continuous
 62
     7
370
    15
100
AcDbSpline
210
0.0
220
0.0
230
1.0
 70
     8
 71
     3
 72
    88
 73
    84
 74
     0
 42
0.00000001
 43
0.00000001
 40
-0.0312499999999998
 40
-0.0312499999999998
 40
0.0
 40
0.0
 40
0.0312500000000013
 40
0.0312500000000013
 40
0.046875000000002
 40
0.046875000000002
 40
0.0625000000000027
 40
0.0625000000000027
 40
0.0937500000000042
 40
0.0937500000000042
 40
0.1250000000000058
 40
0.1250000000000058
 40
0.1562500000000074
 40
0.1562500000000074
 40
0.1718750000000079
 40
0.1718750000000079
 40
0.1875000000000083
 40
0.2031250000000087
 40
0.2031250000000087
 40
0.2187500000000092
 40
0.2187500000000092
 40
0.2500000000000092
 40
0.2500000000000092
 40
0.2812500000000092
 40
0.2812500000000092
 40
0.3125000000000091
 40
0.3125000000000091
 40
0.3281250000000089
 40
0.3281250000000089
 40
0.3437500000000086
 40
0.3437500000000086
 40
0.3750000000000082
 40
0.3750000000000082
 40
0.4062500000000078
 40
0.4062500000000078
 40
0.4218750000000074
 40
0.4218750000000074
 40
0.437500000000007
 40
0.437500000000007
 40
0.4687500000000064
 40
0.4687500000000064
 40
0.5000000000000057
 40
0.5000000000000057
 40
0.531250000000005
 40
0.531250000000005
 40
0.5468750000000047
 40
0.5468750000000047
 40
0.5625000000000043
 40
0.5781250000000039
 40
0.5781250000000039
 40
0.5937500000000036
 40
0.5937500000000036
 40
0.6250000000000031
 40
0.6250000000000031
 40
0.6562500000000028
 40
0.6562500000000028
 40
0.6875000000000023
 40
0.6875000000000023
 40
0.7031250000000022
 40
0.7031250000000022
 40
0.7187500000000021
 40
0.7187500000000021
 40
0.7500000000000018
 40
0.7500000000000018
 40
0.7812500000000014
 40
0.7812500000000014
 40
0.7968750000000013
 40
0.7968750000000013
 40
0.8125000000000012
 40
0.8125000000000012
 40
0.8437500000000009
 40
0.8437500000000009
 40
0.8750000000000006
 40
0.8750000000000006
 40
0.9062500000000003
 40
0.9062500000000003
 40
0.9218750000000003
 40
0.9218750000000003
 40
0.9375000000000002
 40
0.9375000000000002
 40
0.9687500000000002
 40
0.9687500000000002
 40
1.0
 40
1.0
 40
1.031250000000001
 40
1.031250000000001
 10
10.89613021265093
 20
5.213946959793625
 30
0.0
 10
10.90488769498338
 20
5.213946959793625
 30
0.0
 10
10.90919289967543
 20
5.213762775829325
 30
0.0
 10
10.91554499713087
 20
5.213219075893648
 30
0.0
 10
10.91764461415984
 20
5.212992891923649
 30
0.0
 10
10.92180756235672
 20
5.21244752456272
 30
0.0
 10
10.92387615984816
 20
5.212126838080029
 30
0.0
 10
10.92989273682517
 20
5.211042792125203
 30
0.0
 10
10.93369723077059
 20
5.210154164394618
 30
0.0
 10
10.94089739255481
 20
5.208033367636361
 30
0.0
 10
10.94430506260472
 20
5.206789957575455
 30
0.0
 10
10.95041359802303
 20
5.204040644825863
 30
0.0
 10
10.95315533304267
 20
5.202525514972883
 30
0.0
 10
10.95678771741758
 20
5.200023513895589
 30
0.0
 10
10.95791496529523
 20
5.199151723199184
 30
0.0
 10
10.95995846557691
 20
5.197367452000928
 30
0.0
 10
10.96180495993566
 20
5.19553335702197
 30
0.0
 10
10.96326310953285
 20
5.193597662968781
 30
0.0
 10
10.96452427302757
 20
5.191609013705262
 30
0.0
 10
10.96505845484812
 20
5.190582515379383
 30
0.0
 10
10.9663353280957
 20
5.187463781837061
 30
0.0
 10
10.96675660437651
 20
5.185343983454426
 30
0.0
 10
10.96676128384686
 20
5.181021799593285
 30
0.0
 10
10.96633093910615
 20
5.178795746151907
 30
0.0
 10
10.96464033107106
 20
5.174429604561324
 30
0.0
 10
10.9633894561439
 20
5.172278536637539
 30
0.0
 10
10.96090105643402
 20
5.169107427799442
 30
0.0
 10
10.95996280278675
 20
5.168054335457801
 30
0.0
 10
10.95791243068363
 20
5.166008356431405
 30
0.0
 10
10.95679958478025
 20
5.165012888226924
 30
0.0
 10
10.95320416767105
 20
5.162109927010047
 30
0.0
 10
10.95046725021904
 20
5.160284930924274
 30
0.0
 10
10.94428539649204
 20
5.156881831143266
 30
0.0
 10
10.94093839683447
 20
5.155358279739111
 30
0.0
 10
10.93555948522443
 20
5.153346909799923
 30
0.0
 10
10.93370575598105
 20
5.152722104965471
 30
0.0
 10
10.92987397076442
 20
5.151567803423511
 30
0.0
 10
10.92788834297687
 20
5.151037149023808
 30
0.0
 10
10.92186987623683
 20
5.149626273566255
 30
0.0
 10
10.91774043707716
 20
5.148912993457681
 30
0.0
 10
10.9092493228616
 20
5.14794643555823
 30
0.0
 10
10.9048572914713
 20
5.147697857993582
 30
0.0
 10
10.89620869406544
 20
5.147696066572954
 30
0.0
 10
10.89190969709383
 20
5.147934830444953
 30
0.0
 10
10.88549998490603
 20
5.148657859594999
 30
0.0
 10
10.88337042413856
 20
5.148960930670412
 30
0.0
 10
10.87921858275518
 20
5.149675340575526
 30
0.0
 10
10.87514960674573
 20
5.150500341633862
 30
0.0
 10
10.87124362296967
 20
5.151540234416471
 30
0.0
 10
10.86742012563163
 20
5.152687247833256
 30
0.0
 10
10.8655402391079
 20
5.153317941787575
 30
0.0
 10
10.8601022413272
 20
5.155346609757631
 30
0.0
 10
10.85676524117564
 20
5.156868437808012
 30
0.0
 10
10.85065157330315
 20
5.160224852477491
 30
0.0
 10
10.84785211035158
 20
5.162081950475664
 30
0.0
 10
10.84303656594324
 20
5.165964076044474
 30
0.0
 10
10.84099884584435
 20
5.167993958203138
 30
0.0
 10
10.83850058045429
 20
5.171162095054839
 30
0.0
 10
10.83775844114578
 20
5.172245015274632
 30
0.0
 10
10.83649186352456
 20
5.174413026189175
 30
0.0
 10
10.83596504953737
 20
5.175499269452113
 30
0.0
 10
10.83469638259088
 20
5.178763025838185
 30
0.0
 10
10.8342632570047
 20
5.180945330799648
 30
0.0
 10
10.83425471381505
 20
5.185319889105338
 30
0.0
 10
10.83468122998199
 20
5.187447933575878
 30
0.0
 10
10.83593832909644
 20
5.190537035870612
 30
0.0
 10
10.83646101322047
 20
5.191550664064894
 30
0.0
 10
10.83771798488376
 20
5.193546155136042
 30
0.0
 10
10.8384565615524
 20
5.194531737910269
 30
0.0
 10
10.84094726078066
 20
5.197380756809162
 30
0.0
 10
10.84297950255531
 20
5.19915554685903
 30
0.0
 10
10.84777837308583
 20
5.202473839513243
 30
0.0
 10
10.85057288444919
 20
5.204024476339138
 30
0.0
 10
10.8566793160435
 20
5.206776870263157
 30
0.0
 10
10.8600104401265
 20
5.20799675105621
 30
0.0
 10
10.86543345262145
 20
5.209600301056925
 30
0.0
 10
10.86731487597336
 20
5.210096567937986
 30
0.0
 10
10.87113859961655
 20
5.210992851237409
 30
0.0
 10
10.8730908657471
 20
5.211396048253086
 30
0.0
 10
10.87906701331285
 20
5.212475521390963
 30
0.0
 10
10.88322982645522
 20
5.21302480533488
 30
0.0
 10
10.89179878806518
 20
5.213762768114254
 30
0.0
 10
10.89613021265093
 20
5.213946959793625
 30
0.0
 10
10.90488769498338
 20
5.213946959793625
 30
0.0
  0
LINE
  5
1DD
330
1F
100
AcDbEntity
  8
0
  6
Continuous
 62
     7
370
    15
100
AcDbLine
 10
11.1980089538
 20
5.2795193214
 30
0.0
 11
11.1980089538
 21
3.6795193214
 31
0.0
  0
LINE
  5
1DE
330
1F
100
AcDbEntity
  8
0
  6
Continuous
 62
     7
370
    15
100
AcDbLine
 10
10.3942589538
 20
4.9482693214
 30
0.0
 11
10.3942589538
 21
4.0107693214
 31
0.0
  0
SPLINE
  5
1DF
330
1F
100
AcDbEntity
  8
0
  6
Continuous
 62
     7
370
    15
100
AcDbSpline
210
0.0
220
0.0
230
1.0
 70
     8
 71
     3
 72
    12
 73
     8
 74
     0
 42
0.00000001
 43
0.00000001
 40
0.0
 40
0.0
 40
0.0
 40
0.0
 40
0.2139121792891407
 40
0.4277914641127772
 40
0.642523492566453
 40
0.857818981481512
 40
1.0
 40
1.0
 40
1.0
 40
1.0
 10
10.49863395381715
 20
4.945293213529014
 30
0.0
 10
10.4927278927829
 20
4.945360338157178
 30
0.0
 10
10.48091667892223
 20
4.945494577091377
 30
0.0
 10
10.46512579333086
 20
4.94643676306687
 30
0.0
 10
10.45329255347166
 20
4.947459205907106
 30
0.0
 10
10.44653935676279
 20
4.948196167391337
 30
0.0
 10
10.44655613234389
 20
4.948195365300088
 30
0.0
 10
10.44656280458433
 20
4.9481950462801
 30
0.0
  0
LINE
  5
1E0
330
1F
100
AcDbEntity
  8
0
  6
Continuous
 62
     7
370
    15
100
AcDbLine
 10
10.4956729438
 20
4.9453484818
 30
0.0
 11
10.5103715173
 21
4.9454414233
 31
0.0
  0
SPLINE
  5
1E1
330
1F
100
AcDbEntity
  8
0
  6
Continuous
 62
     7
370
    15
100
AcDbSpline
210
0.0
220
0.0
230
1.0
 70
     8
 71
     3
 72
    13
 73
     9
 74
     0
 42
0.00000001
 43
0.00000001
 40
0.0
 40
0.0
 40
0.0
 40
0.0
 40
0.0005226674602086
 40
0.2139842838409849
 40
0.4274066674752637
 40
0.6419839403364866
 40
0.857132469014534
 40
1.0
 40
1.0
 40
1.0
 40
1.0
 10
10.55136422606442
 20
4.94826853072736
 30
0.0
 10
10.55136663499312
 20
4.948268794242213
 30
0.0
 10
10.55235286987593
 20
4.948376679353537
 30
0.0
 10
10.54890114333909
 20
4.947986966731048
 30
0.0
 10
10.54080009094331
 20
4.947155465044833
 30
0.0
 10
10.52724309957515
 20
4.946092466751719
 30
0.0
 10
10.51244313925164
 20
4.945398777554143
 30
0.0
 10
10.50257276168544
 20
4.945323323662213
 30
0.0
 10
10.49863395381715
 20
4.945293213529014
 30
0.0
  0
LINE
  5
1E2
330
1F
100
AcDbEntity
  8
0
  6
Continuous
 62
     7
370
    15
100
AcDbLine
 10
11.4067589538
 20
4.9482693214
 30
0.0
 11
11.4067589538
 21
4.0107693214
 31
0.0
  0
SPLINE
  5
1E3
330
1F
100
AcDbEntity
  8
0
  6
Continuous
 62
     7
370
    15
100
AcDbSpline
210
0.0
220
0.0
230
1.0
 70
     8
 71
     3
 72
    12
 73
     8
 74
     0
 42
0.00000001
 43
0.00000001
 40
0.0
 40
0.0
 40
0.0
 40
0.0
 40
0.2139121792891407
 40
0.4277914641127772
 40
0.642523492566453
 40
0.857818981481512
 40
1.0
 40
1.0
 40
1.0
 40
1.0
 10
11.30238395381715
 20
4.945293213529014
 30
0.0
 10
11.2964778927829
 20
4.945360338157178
 30
0.0
 10
11.28466667892223
 20
4.945494577091377
 30
0.0
 10
11.26887579333086
 20
4.94643676306687
 30
0.0
 10
11.25704255347166
 20
4.947459205907106
 30
0.0
 10
11.25028935676279
 20
4.948196167391337
 30
0.0
 10
11.25030613234389
 20
4.948195365300086
 30
0.0
 10
11.25031280458433
 20
4.9481950462801
 30
0.0
  0
LINE
  5
1E4
330
1F
100
AcDbEntity
  8
0
  6
Continuous
 62
     7
370
    15
100
AcDbLine
 10
11.2994229438
 20
4.9453484818
 30
0.0
 11
11.3141215173
 21
4.9454414233
 31
0.0
  0
SPLINE
  5
1E5
330
1F
100
AcDbEntity
  8
0
  6
Continuous
 62
     7
370
    15
100
AcDbSpline
210
0.0
220
0.0
230
1.0
 70
     8
 71
     3
 72
    13
 73
     9
 74
     0
 42
0.00000001
 43
0.00000001
 40
0.0
 40
0.0
 40
0.0
 40
0.0
 40
0.000522667460209
 40
0.2139842838409851
 40
0.4274066674752639
 40
0.6419839403364868
 40
0.857132469014534
 40
1.0
 40
1.0
 40
1.0
 40
1.0
 10
11.35511422606442
 20
4.948268530727359
 30
0.0
 10
11.35511663499311
 20
4.948268794242213
 30
0.0
 10
11.35610286987592
 20
4.948376679353531
 30
0.0
 10
11.3526511433391
 20
4.947986966731051
 30
0.0
 10
11.34455009094331
 20
4.947155465044833
 30
0.0
 10
11.33099309957515
 20
4.946092466751719
 30
0.0
 10
11.31619313925164
 20
4.945398777554143
 30
0.0
 10
11.30632276168544
 20
4.945323323662213
 30
0.0
 10
11.30238395381715
 20
4.945293213529014
 30
0.0
  0
ARC
  5
1E6
330
1F
100
AcDbEntity
  8
0
  6
Continuous
 62
     7
370
    15
100
AcDbCircle
 10
10.90050782
 20
3.916625241
 30
0.0
 40
0.1199011383092772
100
AcDbArc
 50
250.5509383127
 51
289.4667611535
  0
ARC
  5
1E7
330
1F
100
AcDbEntity
  8
0
  6
Continuous
 62
     7
370
    15
100
AcDbCircle
 10
10.8986582852
 20
5.050761993
 30
0.0
 40
0.1114167523830748
100
AcDbArc
 50
89.0482546614
 51
110.029740419
  0
ARC
  5
1E8
330
1F
100
AcDbEntity
  8
0
  6
Continuous
 62
     7
370
    15
100
AcDbCircle
 10
10.9020737637
 20
5.0490458935
 30
0.0
 40
0.1131283036422329
100
AcDbArc
 50
70.1614020678
 51
90.7925502023
  0
LINE
  5
1E9
330
1F
100
AcDbEntity
  8
0
  6
Continuous
 62
     7
370
    15
100
AcDbLine
 10
10.865412413
 20
4.6915271954
 30
0.0
 11
10.9358465604
 21
4.6915271954
 31
0.0
  0
LINE
  5
1EA
330
1F
100
AcDbEntity
  8
0
  6
Continuous
 62
     7
370
    15
100
AcDbLine
 10
10.9337389796
 20
4.6877771954
 30
0.0
 11
10.86686032
 21
4.6877771954
 31
0.0
  0
LINE
  5
1EB
330
1F
100
AcDbEntity
  8
0
  6
Continuous
 62
     7
370
    15
100
AcDbLine
 10
10.889689151
 20
4.2066945182
 30
0.0
 11
10.9113720958
 21
4.2066945182
 31
0.0
  0
LINE
  5
1EC
330
1F
100
AcDbEntity
  8
0
  6
Continuous
 62
     7
370
    15
100
AcDbLine
 10
10.9157897947
 20
4.2029445182
 30
0.0
 11
10.8858440645
 21
4.2029445182
 31
0.0
  0
LINE
  5
1ED
330
1F
100
AcDbEntity
  8
0
  6
Continuous
 62
     7
370
    15
100
AcDbLine
 10
10.7019970851
 20
4.2675114474
 30
0.0
 11
10.7724312275
 21
4.2675114474
 31
0.0
  0
LINE
  5
1EE
330
1F
100
AcDbEntity
  8
0
  6
Continuous
 62
     7
370
    15
100
AcDbLine
 10
10.7703236459
 20
4.2712614474
 30
0.0
 11
10.7034449629
 21
4.2712614474
 31
0.0
  0
LINE
  5
1EF
330
1F
100
AcDbEntity
  8
0
  6
Continuous
 62
     7
370
    15
100
AcDbLine
 10
10.7262738061
 20
4.7523441245
 30
0.0
 11
10.7479567374
 21
4.7523441245
 31
0.0
  0
LINE
  5
1F0
330
1F
100
AcDbEntity
  8
0
  6
Continuous
 62
     7
370
    15
100
AcDbLine
 10
10.7523744122
 20
4.7560941245
 30
0.0
 11
10.7224287305
 21
4.7560941245
 31
0.0
  0
LINE
  5
1F1
330
1F
100
AcDbEntity
  8
0
  6
Continuous
 62
     7
370
    15
100
AcDbLine
 10
11.0973061659
 20
4.2712614474
 30
0.0
 11
11.0305437425
 21
4.2712614474
 31
0.0
  0
LINE
  5
1F2
330
1F
100
AcDbEntity
  8
0
  6
Continuous
 62
     7
370
    15
100
AcDbLine
 10
11.0289734443
 20
4.2675114474
 30
0.0
 11
11.0993074299
 21
4.2675114474
 31
0.0
  0
LINE
  5
1F3
330
1F
100
AcDbEntity
  8
0
  6
Continuous
 62
     7
370
    15
100
AcDbLine
 10
11.0532329832
 20
4.7523441245
 30
0.0
 11
11.0746986944
 21
4.7523441245
 31
0.0
  0
LINE
  5
1F4
330
1F
100
AcDbEntity
  8
0
  6
Continuous
 62
     7
370
    15
100
AcDbLine
 10
11.0791910915
 20
4.7560941245
 30
0.0
 11
11.0491382622
 21
4.7560941245
 31
0.0
  0
SPLINE
  5
1F5
330
1F
100
AcDbEntity
  8
0
  6
HIDDEN
 62
     7
370
     0
100
AcDbSpline
210
0.0
220
0.0
230
1.0
 70
     8
 71
     3
 72
    88
 73
    84
 74
     0
 42
0.00000001
 43
0.00000001
 40
-0.0312499999999994
 40
-0.0312499999999994
 40
0.0
 40
0.0
 40
0.0312499999999985
 40
0.0312499999999985
 40
0.0468749999999977
 40
0.0468749999999977
 40
0.0624999999999969
 40
0.0624999999999969
 40
0.0937499999999954
 40
0.0937499999999954
 40
0.124999999999994
 40
0.124999999999994
 40
0.1562499999999925
 40
0.1562499999999925
 40
0.1718749999999921
 40
0.1718749999999921
 40
0.1874999999999917
 40
0.2031249999999913
 40
0.2031249999999913
 40
0.2187499999999908
 40
0.2187499999999908
 40
0.2499999999999901
 40
0.2499999999999901
 40
0.2812499999999893
 40
0.2812499999999893
 40
0.3124999999999885
 40
0.3124999999999885
 40
0.3281249999999885
 40
0.3281249999999885
 40
0.3437499999999885
 40
0.3437499999999885
 40
0.3749999999999889
 40
0.3749999999999889
 40
0.4062499999999893
 40
0.4062499999999893
 40
0.4218749999999896
 40
0.4218749999999896
 40
0.43749999999999
 40
0.43749999999999
 40
0.4687499999999908
 40
0.4687499999999908
 40
0.4999999999999918
 40
0.4999999999999918
 40
0.5312499999999927
 40
0.5312499999999927
 40
0.5468749999999931
 40
0.5468749999999931
 40
0.5624999999999934
 40
0.5781249999999938
 40
0.5781249999999938
 40
0.5937499999999941
 40
0.5937499999999941
 40
0.6249999999999951
 40
0.6249999999999951
 40
0.6562499999999962
 40
0.6562499999999962
 40
0.6874999999999972
 40
0.6874999999999972
 40
0.703124999999998
 40
0.703124999999998
 40
0.7187499999999989
 40
0.7187499999999989
 40
0.7500000000000004
 40
0.7500000000000004
 40
0.7812500000000014
 40
0.7812500000000014
 40
0.7968750000000017
 40
0.7968750000000017
 40
0.8125000000000018
 40
0.8125000000000018
 40
0.8437500000000017
 40
0.8437500000000017
 40
0.8750000000000016
 40
0.8750000000000016
 40
0.9062500000000016
 40
0.9062500000000016
 40
0.9218750000000013
 40
0.9218750000000013
 40
0.9375000000000011
 40
0.9375000000000011
 40
0.9687500000000006
 40
0.9687500000000006
 40
1.0
 40
1.0
 40
1.031249999999998
 40
1.031249999999998
 10
10.89613021265093
 20
3.908242984110344
 30
0.0
 10
10.90488769498338
 20
3.908242984110344
 30
0.0
 10
10.90919289967543
 20
3.908549447770979
 30
0.0
 10
10.91554499713087
 20
3.909451752946437
 30
0.0
 10
10.91764461415984
 20
3.909826874815678
 30
0.0
 10
10.92180756235672
 20
3.910729983689597
 30
0.0
 10
10.92387615984816
 20
3.911260444500634
 30
0.0
 10
10.92989273682517
 20
3.913050186662851
 30
0.0
 10
10.93369723077059
 20
3.914513437493204
 30
0.0
 10
10.94089739255481
 20
3.917986204277956
 30
0.0
 10
10.94430506260472
 20
3.920013752326255
 30
0.0
 10
10.95041359802303
 20
3.924467285001441
 30
0.0
 10
10.95315533304267
 20
3.926908572727744
 30
0.0
 10
10.95678771741758
 20
3.930910436812864
 30
0.0
 10
10.95791496529523
 20
3.932300267173322
 30
0.0
 10
10.95995846557691
 20
3.935134525512628
 30
0.0
 10
10.96180495993566
 20
3.938038012967627
 30
0.0
 10
10.96326310953285
 20
3.94108052600412
 30
0.0
 10
10.96452427302757
 20
3.944194632277276
 30
0.0
 10
10.96505845484812
 20
3.945796324628374
 30
0.0
 10
10.9663353280957
 20
3.95064435835913
 30
0.0
 10
10.96675660437651
 20
3.953915802883655
 30
0.0
 10
10.96676128384686
 20
3.960538033741778
 30
0.0
 10
10.96633093910615
 20
3.963924320480984
 30
0.0
 10
10.96464033107106
 20
3.970521143450767
 30
0.0
 10
10.9633894561439
 20
3.97374902083522
 30
0.0
 10
10.96090105643402
 20
3.978479121590475
 30
0.0
 10
10.95996280278675
 20
3.98004503788487
 30
0.0
 10
10.95791243068363
 20
3.983078725506733
 30
0.0
 10
10.95679958478025
 20
3.984550402620066
 30
0.0
 10
10.95320416767105
 20
3.988831063858086
 30
0.0
 10
10.95046725021904
 20
3.991507091982778
 30
0.0
 10
10.94428539649204
 20
3.996476617156196
 30
0.0
 10
10.94093839683447
 20
3.998690561739399
 30
0.0
 10
10.93555948522443
 20
4.001604929682146
 30
0.0
 10
10.93370575598105
 20
4.002508607710086
 30
0.0
 10
10.92987397076442
 20
4.004175927514032
 30
0.0
 10
10.92788834297687
 20
4.004941228197577
 30
0.0
 10
10.92186987623683
 20
4.006973884372929
 30
0.0
 10
10.91774043707716
 20
4.007998584877545
 30
0.0
 10
10.9092493228616
 20
4.009386307704569
 30
0.0
 10
10.9048572914713
 20
4.009742584754301
 30
0.0
 10
10.89620869406544
 20
4.009745153752336
 30
0.0
 10
10.89190969709383
 20
4.009402955132905
 30
0.0
 10
10.88549998490603
 20
4.008364896919391
 30
0.0
 10
10.88337042413856
 20
4.007929582285959
 30
0.0
 10
10.87921858275518
 20
4.00690241076131
 30
0.0
 10
10.87514960674573
 20
4.005715362036767
 30
0.0
 10
10.87124362296967
 20
4.004215705457504
 30
0.0
 10
10.86742012563163
 20
4.002558998282271
 30
0.0
 10
10.8655402391079
 20
4.00164686403187
 30
0.0
 10
10.8601022413272
 20
3.998707546475437
 30
0.0
 10
10.85676524117564
 20
3.996496016903297
 30
0.0
 10
10.85065157330315
 20
3.991594979184916
 30
0.0
 10
10.84785211035158
 20
3.988872200828275
 30
0.0
 10
10.84303656594324
 20
3.983147911391774
 30
0.0
 10
10.84099884584435
 20
3.980139638954577
 30
0.0
 10
10.83850058045429
 20
3.975414504146622
 30
0.0
 10
10.83775844114578
 20
3.973794486264848
 30
0.0
 10
10.83649186352456
 20
3.970540507680257
 30
0.0
 10
10.83596504953737
 20
3.968904894865018
 30
0.0
 10
10.83469638259088
 20
3.963973928905988
 30
0.0
 10
10.8342632570047
 20
3.960654820759163
 30
0.0
 10
10.83425471381505
 20
3.953953085098057
 30
0.0
 10
10.83468122998199
 20
3.950668723414639
 30
0.0
 10
10.83593832909644
 20
3.945867153932533
 30
0.0
 10
10.83646101322047
 20
3.94428578915608
 30
0.0
 10
10.83771798488376
 20
3.941161387852989
 30
0.0
 10
10.8384565615524
 20
3.939612435559577
 30
0.0
 10
10.84094726078066
 20
3.935119045704741
 30
0.0
 10
10.84297950255531
 20
3.932298409378169
 30
0.0
 10
10.84777837308583
 20
3.92699152857378
 30
0.0
 10
10.85057288444919
 20
3.924493381917112
 30
0.0
 10
10.8566793160435
 20
3.920035045044878
 30
0.0
 10
10.8600104401265
 20
3.918046013679059
 30
0.0
 10
10.86543345262145
 20
3.915420450707204
 30
0.0
 10
10.86731487597336
 20
3.914605760810188
 30
0.0
 10
10.87113859961655
 20
3.913131611012211
 30
0.0
 10
10.8730908657471
 20
3.912466948429671
 30
0.0
 10
10.87906701331285
 20
3.910684809606737
 30
0.0
 10
10.88322982645522
 20
3.909774144560467
 30
0.0
 10
10.89179878806518
 20
3.908549473279451
 30
0.0
 10
10.89613021265093
 20
3.908242984110344
 30
0.0
 10
10.90488769498338
 20
3.908242984110344
 30
0.0
  0
SPLINE
  5
1F6
330
1F
100
AcDbEntity
  8
0
  6
HIDDEN
 62
     7
370
     0
100
AcDbSpline
210
0.0
220
0.0
230
1.0
 70
     8
 71
     3
 72
    88
 73
    84
 74
     0
 42
0.00000001
 43
0.00000001
 40
-0.0312499999999997
 40
-0.0312499999999997
 40
0.0
 40
0.0
 40
0.0312500000000003
 40
0.0312500000000003
 40
0.0468750000000004
 40
0.0468750000000004
 40
0.0625000000000006
 40
0.0625000000000006
 40
0.0937500000000011
 40
0.0937500000000011
 40
0.1250000000000016
 40
0.1250000000000016
 40
0.1562500000000022
 40
0.1562500000000022
 40
0.1718750000000022
 40
0.1718750000000022
 40
0.1875000000000022
 40
0.2031250000000022
 40
0.2031250000000022
 40
0.2187500000000022
 40
0.2187500000000022
 40
0.2500000000000018
 40
0.2500000000000018
 40
0.2812500000000014
 40
0.2812500000000014
 40
0.3125000000000011
 40
0.3125000000000011
 40
0.3281250000000012
 40
0.3281250000000012
 40
0.3437500000000014
 40
0.3437500000000014
 40
0.3750000000000013
 40
0.3750000000000013
 40
0.4062500000000013
 40
0.4062500000000013
 40
0.4218750000000012
 40
0.4218750000000012
 40
0.437500000000001
 40
0.437500000000001
 40
0.468750000000001
 40
0.468750000000001
 40
0.5000000000000009
 40
0.5000000000000009
 40
0.531250000000001
 40
0.531250000000001
 40
0.5468750000000009
 40
0.5468750000000009
 40
0.5625000000000008
 40
0.5781250000000008
 40
0.5781250000000008
 40
0.5937500000000007
 40
0.5937500000000007
 40
0.6250000000000003
 40
0.6250000000000003
 40
0.6562500000000001
 40
0.6562500000000001
 40
0.6874999999999999
 40
0.6874999999999999
 40
0.7031249999999997
 40
0.7031249999999997
 40
0.7187499999999994
 40
0.7187499999999994
 40
0.7499999999999999
 40
0.7499999999999999
 40
0.7812500000000003
 40
0.7812500000000003
 40
0.7968750000000004
 40
0.7968750000000004
 40
0.8125000000000006
 40
0.8125000000000006
 40
0.8437500000000007
 40
0.8437500000000007
 40
0.8750000000000007
 40
0.8750000000000007
 40
0.9062500000000008
 40
0.9062500000000008
 40
0.9218750000000007
 40
0.9218750000000007
 40
0.9375000000000007
 40
0.9375000000000007
 40
0.9687500000000003
 40
0.9687500000000003
 40
1.0
 40
1.0
 40
1.03125
 40
1.03125
 10
10.89613021265093
 20
4.949294769966226
 30
0.0
 10
10.90488769498338
 20
4.949294769966226
 30
0.0
 10
10.90919289967543
 20
4.949646860319197
 30
0.0
 10
10.91554499713087
 20
4.95067942295417
 30
0.0
 10
10.91764461415984
 20
4.951108272543161
 30
0.0
 10
10.92180756235672
 20
4.95213834817596
 30
0.0
 10
10.92387615984816
 20
4.952742369281063
 30
0.0
 10
10.92989273682517
 20
4.954774340525655
 30
0.0
 10
10.93369723077059
 20
4.956428901798592
 30
0.0
 10
10.94089739255481
 20
4.960321744339931
 30
0.0
 10
10.94430506260472
 20
4.962579579688186
 30
0.0
 10
10.95041359802303
 20
4.967486685390336
 30
0.0
 10
10.95315533304267
 20
4.970153450702148
 30
0.0
 10
10.95678771741758
 20
4.97447213411126
 30
0.0
 10
10.95791496529523
 20
4.975963769874482
 30
0.0
 10
10.95995846557691
 20
4.978987087352261
 30
0.0
 10
10.96180495993566
 20
4.982066280265226
 30
0.0
 10
10.96326310953285
 20
4.985253238510838
 30
0.0
 10
10.96452427302757
 20
4.988493862814416
 30
0.0
 10
10.96505845484812
 20
4.990150068001669
 30
0.0
 10
10.9663353280957
 20
4.995129389442495
 30
0.0
 10
10.96675660437651
 20
4.998445422346963
 30
0.0
 10
10.96676128384686
 20
5.005068143724999
 30
0.0
 10
10.96633093910615
 20
5.008408902359544
 30
0.0
 10
10.96464033107106
 20
5.014831893401457
 30
0.0
 10
10.9633894561439
 20
5.017932442670496
 30
0.0
 10
10.96090105643402
 20
5.022421380988484
 30
0.0
 10
10.95996280278675
 20
5.023897998709569
 30
0.0
 10
10.95791243068363
 20
5.026741992262336
 30
0.0
 10
10.95679958478025
 20
5.028113181166385
 30
0.0
 10
10.95320416767105
 20
5.032080110274581
 30
0.0
 10
10.95046725021904
 20
5.034530559367546
 30
0.0
 10
10.94428539649204
 20
5.039040901524475
 30
0.0
 10
10.94093839683447
 20
5.041028809455109
 30
0.0
 10
10.93555948522443
 20
5.043628888579724
 30
0.0
 10
10.93370575598105
 20
5.044431871937323
 30
0.0
 10
10.92987397076442
 20
5.045909049149544
 30
0.0
 10
10.92788834297687
 20
5.046584686196226
 30
0.0
 10
10.92186987623683
 20
5.048375032418552
 30
0.0
 10
10.91774043707716
 20
5.049271731710839
 30
0.0
 10
10.9092493228616
 20
5.050484427787561
 30
0.0
 10
10.9048572914713
 20
5.050794536095438
 30
0.0
 10
10.89620869406544
 20
5.050796775040348
 30
0.0
 10
10.89190969709383
 20
5.050498946555127
 30
0.0
 10
10.88549998490603
 20
5.049591856519108
 30
0.0
 10
10.88337042413856
 20
5.049211076369857
 30
0.0
 10
10.87921858344536
 20
5.048310515927177
 30
0.0
 10
10.87514960674573
 20
5.047268040471616
 30
0.0
 10
10.87124362296967
 20
5.045944203380921
 30
0.0
 10
10.86742012563163
 20
5.044476598695124
 30
0.0
 10
10.8655402391079
 20
5.043666223660201
 30
0.0
 10
10.8601022413272
 20
5.041044112680941
 30
0.0
 10
10.85676524117564
 20
5.039058196298104
 30
0.0
 10
10.85065157330315
 20
5.034610631487302
 30
0.0
 10
10.84785211035158
 20
5.03211800423921
 30
0.0
 10
10.84303656594324
 20
5.026813704786024
 30
0.0
 10
10.84099884584435
 20
5.023996542257522
 30
0.0
 10
10.83850058045429
 20
5.019513345321123
 30
0.0
 10
10.83775844114578
 20
5.017966834239935
 30
0.0
 10
10.83649186352456
 20
5.01483991495797
 30
0.0
 10
10.83596504953737
 20
5.01325806837691
 30
0.0
 10
10.83469638259088
 20
5.008457529737925
 30
0.0
 10
10.8342632570047
 20
5.005184235423425
 30
0.0
 10
10.83425471381505
 20
4.998483395291714
 30
0.0
 10
10.83468122998199
 20
4.995153912574379
 30
0.0
 10
10.83593832909644
 20
4.990223059828385
 30
0.0
 10
10.83646101322047
 20
4.988588327492582
 30
0.0
 10
10.83771798488376
 20
4.985337760031666
 30
0.0
 10
10.8384565615524
 20
4.983715602152576
 30
0.0
 10
10.84094726078066
 20
4.978980824690361
 30
0.0
 10
10.84297950255531
 20
4.975969430356271
 30
0.0
 10
10.84777837308583
 20
4.970243518985085
 30
0.0
 10
10.85057288444919
 20
4.967515273162113
 30
0.0
 10
10.8566793160435
 20
4.962603206214055
 30
0.0
 10
10.8600104401265
 20
4.96038852540629
 30
0.0
 10
10.86543345262145
 20
4.957445756340498
 30
0.0
 10
10.86731487597336
 20
4.956528893807778
 30
0.0
 10
10.87113859961655
 20
4.954864993540239
 30
0.0
 10
10.8730908657471
 20
4.954112133445838
 30
0.0
 10
10.87906701331285
 20
4.952088888242526
 30
0.0
 10
10.88322982645522
 20
4.95104833282983
 30
0.0
 10
10.89179878806518
 20
4.949646911553253
 30
0.0
 10
10.89613021265093
 20
4.949294769966226
 30
0.0
 10
10.90488769498338
 20
4.949294769966226
 30
0.0
  0
LINE
  5
1F7
330
1F
100
AcDbEntity
  8
0
  6
HIDDEN
 62
     7
370
     0
100
AcDbLine
 10
10.8059912373
 20
4.3560941245
 30
0.0
 11
10.6681959617
 21
4.3560941245
 31
0.0
  0
LINE
  5
1F8
330
1F
100
AcDbEntity
  8
0
  6
HIDDEN
 62
     7
370
     0
100
AcDbLine
 10
10.9694065916
 20
4.6029445182
 30
0.0
 11
10.831611316
 21
4.6029445182
 31
0.0
  0
LINE
  5
1F9
330
1F
100
AcDbEntity
  8
0
  6
HIDDEN
 62
     7
370
     0
100
AcDbLine
 10
10.9950266704
 20
4.3560941245
 30
0.0
 11
11.1328219459
 21
4.3560941245
 31
0.0
  0
LINE
  5
1FA
330
1F
100
AcDbEntity
  8
0
  6
HIDDEN
 62
     7
370
     0
100
AcDbLine
 10
10.8998839538
 20
4.4795193214
 30
0.0
 11
10.8998839538
 21
4.9482693214
 31
0.0
  0
LINE
  5
1FB
330
1F
100
AcDbEntity
  8
0
  6
HIDDEN
 62
     7
370
     0
100
AcDbLine
 10
10.8998839538
 20
4.0107693214
 30
0.0
 11
10.8998839538
 21
4.4795193214
 31
0.0
  0
LINE
  5
1FC
330
1F
100
AcDbEntity
  8
0
  6
HIDDEN
 62
     7
370
     0
100
AcDbLine
 10
10.9011339538
 20
4.4795193214
 30
0.0
 11
10.9011339538
 21
4.9482693214
 31
0.0
  0
LINE
  5
1FD
330
1F
100
AcDbEntity
  8
0
  6
HIDDEN
 62
     7
370
     0
100
AcDbLine
 10
10.9011339538
 20
4.0107693214
 30
0.0
 11
10.9011339538
 21
4.4795193214
 31
0.0
  0
LWPOLYLINE
  5
1FE
330
1F
100
AcDbEntity
  8
0
  6
HIDDEN
 62
     7
370
     0
100
AcDbPolyline
 90
       17
 70
   128
 43
0.0
 10
10.9005089538
 20
3.8631252686
 10
10.8898817065
 20
3.8626963085
 10
10.8795296992
 20
3.8614205382
 10
10.8697210437
 20
3.8593309994
 10
10.8607097788
 20
3.8564818101
 10
10.8527292917
 20
3.8529467628
 10
10.8459862727
 20
3.8488174133
 10
10.8406553625
 20
3.8442007097
 10
10.8368746289
 20
3.839216222
 10
10.8347419909
 20
3.8339930461
 10
10.8343126827
 20
3.8286664593
 10
10.8355978231
 20
3.8233744175
 10
10.8385641277
 20
3.8182539817
 10
10.8431347708
 20
3.8134377686
 10
10.8491913751
 20
3.8090505155
 10
10.8565770777
 20
3.80520585
 10
10.8605844963
 20
3.803565915
  0
LWPOLYLINE
  5
1FF
330
1F
100
AcDbEntity
  8
0
  6
HIDDEN
 62
     7
370
     0
100
AcDbPolyline
 90
       17
 70
   128
 43
0.0
 10
10.9404660675
 20
3.8035782533
 10
10.9444408299
 20
3.80520585
 10
10.9518265325
 20
3.8090505155
 10
10.9578831368
 20
3.8134377686
 10
10.9624537799
 20
3.8182539817
 10
10.9654200845
 20
3.8233744175
 10
10.9667052249
 20
3.8286664593
 10
10.9662759167
 20
3.8339930461
 10
10.9641432787
 20
3.839216222
 10
10.9603625451
 20
3.8442007097
 10
10.9550316349
 20
3.8488174133
 10
10.948288616
 20
3.8529467628
 10
10.9403081288
 20
3.8564818101
 10
10.931296864
 20
3.8593309994
 10
10.9214882084
 20
3.8614205382
 10
10.9111362012
 20
3.8626963085
 10
10.9005089538
 20
3.8631252686
  0
LWPOLYLINE
  5
200
330
1F
100
AcDbEntity
  8
0
  6
HIDDEN
 62
     7
370
     0
100
AcDbPolyline
 90
       32
 70
   128
 43
0.0
 10
10.8604971716
 20
5.1554396989
 10
10.8527292917
 20
5.1519848684
 10
10.8459862727
 20
5.147855519
 10
10.8406553625
 20
5.1432388153
 10
10.8368746289
 20
5.1382543277
 10
10.8347419909
 20
5.1330311518
 10
10.8343126827
 20
5.127704565
 10
10.8355978231
 20
5.1224125231
 10
10.8385641277
 20
5.1172920873
 10
10.8431347708
 20
5.1124758742
 10
10.8491913751
 20
5.1080886212
 10
10.8565770777
 20
5.1042439557
 10
10.8651005928
 20
5.1010414526
 10
10.8745411659
 20
5.0985640552
 10
10.8846542911
 20
5.0968759265
 10
10.8951780436
 20
5.0960207884
 10
10.905839864
 20
5.0960207884
 10
10.9163636166
 20
5.0968759265
 10
10.9264767417
 20
5.0985640552
 10
10.9359173148
 20
5.1010414526
 10
10.9444408299
 20
5.1042439557
 10
10.9518265325
 20
5.1080886212
 10
10.9578831368
 20
5.1124758742
 10
10.9624537799
 20
5.1172920873
 10
10.9654200845
 20
5.1224125231
 10
10.9667052249
 20
5.127704565
 10
10.9662759167
 20
5.1330311518
 10
10.9641432787
 20
5.1382543277
 10
10.9603625451
 20
5.1432388153
 10
10.9550316349
 20
5.147855519
 10
10.948288616
 20
5.1519848684
 10
10.9404663059
 20
5.1554602994
  0
ARC
  5
201
330
1F
100
AcDbEntity
  8
0
  6
HIDDEN
 62
     7
370
     0
100
AcDbCircle
 10
10.4986395024
 20
4.9136059944
 30
0.0
 40
0.2216992138935045
100
AcDbArc
 50
256.4234228081
 51
283.759891379
  0
ARC
  5
202
330
1F
100
AcDbEntity
  8
0
  6
HIDDEN
 62
     7
370
     0
100
AcDbCircle
 10
11.3023895024
 20
4.9136059944
 30
0.0
 40
0.2216992138935028
100
AcDbArc
 50
256.4234228081
 51
283.759891379
  0
LWPOLYLINE
  5
203
330
1F
100
AcDbEntity
  8
0
  6
HIDDEN
 62
     7
370
     0
100
AcDbPolyline
 90
       40
 70
   128
 43
0.0
 10
10.9005089538
 20
4.9108595843
 10
10.8898817065
 20
4.9115167892
 10
10.8795296992
 20
4.9134713827
 10
10.8697210437
 20
4.9166727419
 10
10.8607097788
 20
4.9210379532
 10
10.8527292917
 20
4.9264539599
 10
10.8459862727
 20
4.9327804903
 10
10.8406553625
 20
4.9398536907
 10
10.8368746289
 20
4.9474903687
 10
10.8347419909
 20
4.9554927386
 10
10.8343126827
 20
4.963653543
 10
10.8355978231
 20
4.9717614215
 10
10.8385641277
 20
4.9796063842
 10
10.8431347708
 20
4.9869852508
 10
10.8491913751
 20
4.9937069125
 10
10.8565770777
 20
4.9995972817
 10
10.8651005928
 20
5.0045038011
 10
10.8745411659
 20
5.0082993942
 10
10.8846542911
 20
5.0108857573
 10
10.8951780436
 20
5.012195905
 10
10.905839864
 20
5.012195905
 10
10.9163636166
 20
5.0108857573
 10
10.9264767417
 20
5.0082993942
 10
10.9359173148
 20
5.0045038011
 10
10.9444408299
 20
4.9995972817
 10
10.9518265325
 20
4.9937069125
 10
10.9578831368
 20
4.9869852508
 10
10.9624537799
 20
4.9796063842
 10
10.9654200845
 20
4.9717614215
 10
10.9667052249
 20
4.963653543
 10
10.9662759167
 20
4.9554927386
 10
10.9641432787
 20
4.9474903687
 10
10.9603625451
 20
4.9398536907
 10
10.9550316349
 20
4.9327804903
 10
10.948288616
 20
4.9264539599
 10
10.9403081288
 20
4.9210379532
 10
10.931296864
 20
4.9166727419
 10
10.9214882084
 20
4.9134713827
 10
10.9111362012
 20
4.9115167892
 10
10.9005089538
 20
4.9108595843
  0
LWPOLYLINE
  5
204
330
1F
100
AcDbEntity
  8
0
  6
HIDDEN
 62
     7
370
     0
100
AcDbPolyline
 90
       40
 70
   128
 43
0.0
 10
10.9005089538
 20
3.9466781698
 10
10.8898817065
 20
3.9473353747
 10
10.8795296992
 20
3.9492899682
 10
10.8697210437
 20
3.9524913274
 10
10.8607097788
 20
3.9568565386
 10
10.8527292917
 20
3.9622725454
 10
10.8459862727
 20
3.9685990758
 10
10.8406553625
 20
3.9756722761
 10
10.8368746289
 20
3.9833089542
 10
10.8347419909
 20
3.991311324
 10
10.8343126827
 20
3.9994721285
 10
10.8355978231
 20
4.007580007
 10
10.8385641277
 20
4.0154249697
 10
10.8431347708
 20
4.0228038363
 10
10.8491913751
 20
4.029525498
 10
10.8565770777
 20
4.0354158672
 10
10.8651005928
 20
4.0403223865
 10
10.8745411659
 20
4.0441179797
 10
10.8846542911
 20
4.0467043428
 10
10.8951780436
 20
4.0480144904
 10
10.905839864
 20
4.0480144904
 10
10.9163636166
 20
4.0467043428
 10
10.9264767417
 20
4.0441179797
 10
10.9359173148
 20
4.0403223865
 10
10.9444408299
 20
4.0354158672
 10
10.9518265325
 20
4.029525498
 10
10.9578831368
 20
4.0228038363
 10
10.9624537799
 20
4.0154249697
 10
10.9654200845
 20
4.007580007
 10
10.9667052249
 20
3.9994721285
 10
10.9662759167
 20
3.991311324
 10
10.9641432787
 20
3.9833089542
 10
10.9603625451
 20
3.9756722761
 10
10.9550316349
 20
3.9685990758
 10
10.948288616
 20
3.9622725454
 10
10.9403081288
 20
3.9568565386
 10
10.931296864
 20
3.9524913274
 10
10.9214882084
 20
3.9492899682
 10
10.9111362012
 20
3.9473353747
 10
10.9005089538
 20
3.9466781698
  0
LINE
  5
205
330
1F
100
AcDbEntity
  8
0
  6
HIDDEN
 62
     7
370
     0
100
AcDbLine
 10
10.8402825759
 20
4.6915271954
 30
0.0
 11
10.865412413
 21
4.6915271954
 31
0.0
  0
LINE
  5
206
330
1F
100
AcDbEntity
  8
0
  6
HIDDEN
 62
     7
370
     0
100
AcDbLine
 10
10.9358465604
 20
4.6915271954
 30
0.0
 11
10.9607353318
 21
4.6915271954
 31
0.0
  0
LINE
  5
207
330
1F
100
AcDbEntity
  8
0
  6
HIDDEN
 62
     7
370
     0
100
AcDbLine
 10
10.9644853318
 20
4.6877771954
 30
0.0
 11
10.9337389796
 21
4.6877771954
 31
0.0
  0
LINE
  5
208
330
1F
100
AcDbEntity
  8
0
  6
HIDDEN
 62
     7
370
     0
100
AcDbLine
 10
10.86686032
 20
4.6877771954
 30
0.0
 11
10.8365325759
 21
4.6877771954
 31
0.0
  0
LINE
  5
209
330
1F
100
AcDbEntity
  8
0
  6
HIDDEN
 62
     7
370
     0
100
AcDbLine
 10
10.8365325759
 20
4.6127870379
 30
0.0
 11
10.9644853318
 21
4.6127870379
 31
0.0
  0
LINE
  5
20A
330
1F
100
AcDbEntity
  8
0
  6
HIDDEN
 62
     7
370
     0
100
AcDbLine
 10
10.8611388751
 20
4.2066945182
 30
0.0
 11
10.889689151
 21
4.2066945182
 31
0.0
  0
LINE
  5
20B
330
1F
100
AcDbEntity
  8
0
  6
HIDDEN
 62
     7
370
     0
100
AcDbLine
 10
10.9113720958
 20
4.2066945182
 30
0.0
 11
10.9398790326
 21
4.2066945182
 31
0.0
  0
LINE
  5
20C
330
1F
100
AcDbEntity
  8
0
  6
HIDDEN
 62
     7
370
     0
100
AcDbLine
 10
10.9361290326
 20
4.2029445182
 30
0.0
 11
10.9157897947
 21
4.2029445182
 31
0.0
  0
LINE
  5
20D
330
1F
100
AcDbEntity
  8
0
  6
HIDDEN
 62
     7
370
     0
100
AcDbLine
 10
10.8858440645
 20
4.2029445182
 30
0.0
 11
10.8648888751
 21
4.2029445182
 31
0.0
  0
LINE
  5
20E
330
1F
100
AcDbEntity
  8
0
  6
HIDDEN
 62
     7
370
     0
100
AcDbLine
 10
10.8664134655
 20
4.671842156
 30
0.0
 11
10.8834612096
 21
4.671842156
 31
0.0
  0
LINE
  5
20F
330
1F
100
AcDbEntity
  8
0
  6
HIDDEN
 62
     7
370
     0
100
AcDbLine
 10
10.917556698
 20
4.671842156
 30
0.0
 11
10.9346044422
 21
4.671842156
 31
0.0
  0
LINE
  5
210
330
1F
100
AcDbEntity
  8
0
  6
HIDDEN
 62
     7
370
     0
100
AcDbLine
 10
10.917556698
 20
4.671842156
 30
0.0
 11
10.917556698
 21
4.6915271954
 31
0.0
  0
LINE
  5
211
330
1F
100
AcDbEntity
  8
0
  6
HIDDEN
 62
     7
370
     0
100
AcDbLine
 10
10.8834612096
 20
4.671842156
 30
0.0
 11
10.917556698
 21
4.671842156
 31
0.0
  0
LINE
  5
212
330
1F
100
AcDbEntity
  8
0
  6
HIDDEN
 62
     7
370
     0
100
AcDbLine
 10
10.8834612096
 20
4.671842156
 30
0.0
 11
10.8834612096
 21
4.6915271954
 31
0.0
  0
LINE
  5
213
330
1F
100
AcDbEntity
  8
0
  6
HIDDEN
 62
     7
370
     0
100
AcDbLine
 10
10.8664134655
 20
4.671842156
 30
0.0
 11
10.8664134655
 21
4.6915271954
 31
0.0
  0
LINE
  5
214
330
1F
100
AcDbEntity
  8
0
  6
HIDDEN
 62
     7
370
     0
100
AcDbLine
 10
10.9346044422
 20
4.671842156
 30
0.0
 11
10.9346044422
 21
4.6915271954
 31
0.0
  0
LINE
  5
215
330
1F
100
AcDbEntity
  8
0
  6
HIDDEN
 62
     7
370
     0
100
AcDbLine
 10
10.6768675759
 20
4.2675114474
 30
0.0
 11
10.7019970851
 21
4.2675114474
 31
0.0
  0
LINE
  5
216
330
1F
100
AcDbEntity
  8
0
  6
HIDDEN
 62
     7
370
     0
100
AcDbLine
 10
10.7724312275
 20
4.2675114474
 30
0.0
 11
10.7973203318
 21
4.2675114474
 31
0.0
  0
LINE
  5
217
330
1F
100
AcDbEntity
  8
0
  6
HIDDEN
 62
     7
370
     0
100
AcDbLine
 10
10.8010703318
 20
4.2712614474
 30
0.0
 11
10.7703236459
 21
4.2712614474
 31
0.0
  0
LINE
  5
218
330
1F
100
AcDbEntity
  8
0
  6
HIDDEN
 62
     7
370
     0
100
AcDbLine
 10
10.7034449629
 20
4.2712614474
 30
0.0
 11
10.6731175759
 21
4.2712614474
 31
0.0
  0
LINE
  5
219
330
1F
100
AcDbEntity
  8
0
  6
HIDDEN
 62
     7
370
     0
100
AcDbLine
 10
10.6731175759
 20
4.3462516049
 30
0.0
 11
10.8010703318
 21
4.3462516049
 31
0.0
  0
LINE
  5
21A
330
1F
100
AcDbEntity
  8
0
  6
HIDDEN
 62
     7
370
     0
100
AcDbLine
 10
10.6977238751
 20
4.7523441245
 30
0.0
 11
10.7262738061
 21
4.7523441245
 31
0.0
  0
LINE
  5
21B
330
1F
100
AcDbEntity
  8
0
  6
HIDDEN
 62
     7
370
     0
100
AcDbLine
 10
10.7479567374
 20
4.7523441245
 30
0.0
 11
10.7764640326
 21
4.7523441245
 31
0.0
  0
LINE
  5
21C
330
1F
100
AcDbEntity
  8
0
  6
HIDDEN
 62
     7
370
     0
100
AcDbLine
 10
10.7727140326
 20
4.7560941245
 30
0.0
 11
10.7523744122
 21
4.7560941245
 31
0.0
  0
LINE
  5
21D
330
1F
100
AcDbEntity
  8
0
  6
HIDDEN
 62
     7
370
     0
100
AcDbLine
 10
10.7224287305
 20
4.7560941245
 30
0.0
 11
10.7014738751
 21
4.7560941245
 31
0.0
  0
LINE
  5
21E
330
1F
100
AcDbEntity
  8
0
  6
HIDDEN
 62
     7
370
     0
100
AcDbLine
 10
10.7200462096
 20
4.2871964867
 30
0.0
 11
10.754141698
 21
4.2871964867
 31
0.0
  0
LINE
  5
21F
330
1F
100
AcDbEntity
  8
0
  6
HIDDEN
 62
     7
370
     0
100
AcDbLine
 10
10.7200462096
 20
4.2871964867
 30
0.0
 11
10.7200462096
 21
4.2675114474
 31
0.0
  0
LINE
  5
220
330
1F
100
AcDbEntity
  8
0
  6
HIDDEN
 62
     7
370
     0
100
AcDbLine
 10
10.7029984655
 20
4.2871964867
 30
0.0
 11
10.7200462096
 21
4.2871964867
 31
0.0
  0
LINE
  5
221
330
1F
100
AcDbEntity
  8
0
  6
HIDDEN
 62
     7
370
     0
100
AcDbLine
 10
10.754141698
 20
4.2871964867
 30
0.0
 11
10.754141698
 21
4.2675114474
 31
0.0
  0
LINE
  5
222
330
1F
100
AcDbEntity
  8
0
  6
HIDDEN
 62
     7
370
     0
100
AcDbLine
 10
10.754141698
 20
4.2871964867
 30
0.0
 11
10.7711894422
 21
4.2871964867
 31
0.0
  0
LINE
  5
223
330
1F
100
AcDbEntity
  8
0
  6
HIDDEN
 62
     7
370
     0
100
AcDbLine
 10
10.7029984655
 20
4.2871964867
 30
0.0
 11
10.7029984655
 21
4.2675114474
 31
0.0
  0
LINE
  5
224
330
1F
100
AcDbEntity
  8
0
  6
HIDDEN
 62
     7
370
     0
100
AcDbLine
 10
10.7711894422
 20
4.2871964867
 30
0.0
 11
10.7711894422
 21
4.2675114474
 31
0.0
  0
LINE
  5
225
330
1F
100
AcDbEntity
  8
0
  6
HIDDEN
 62
     7
370
     0
100
AcDbLine
 10
10.9999475759
 20
4.3462516049
 30
0.0
 11
11.1279003318
 21
4.3462516049
 31
0.0
  0
LINE
  5
226
330
1F
100
AcDbEntity
  8
0
  6
HIDDEN
 62
     7
370
     0
100
AcDbLine
 10
11.1279003318
 20
4.2712614474
 30
0.0
 11
11.0973061659
 21
4.2712614474
 31
0.0
  0
LINE
  5
227
330
1F
100
AcDbEntity
  8
0
  6
HIDDEN
 62
     7
370
     0
100
AcDbLine
 10
11.0305437425
 20
4.2712614474
 30
0.0
 11
10.9999475759
 21
4.2712614474
 31
0.0
  0
LINE
  5
228
330
1F
100
AcDbEntity
  8
0
  6
HIDDEN
 62
     7
370
     0
100
AcDbLine
 10
11.0036975759
 20
4.2675114474
 30
0.0
 11
11.0289734443
 21
4.2675114474
 31
0.0
  0
LINE
  5
229
330
1F
100
AcDbEntity
  8
0
  6
HIDDEN
 62
     7
370
     0
100
AcDbLine
 10
11.0993074299
 20
4.2675114474
 30
0.0
 11
11.1241503318
 21
4.2675114474
 31
0.0
  0
LINE
  5
22A
330
1F
100
AcDbEntity
  8
0
  6
HIDDEN
 62
     7
370
     0
100
AcDbLine
 10
11.0245538751
 20
4.7523441245
 30
0.0
 11
11.0532329832
 21
4.7523441245
 31
0.0
  0
LINE
  5
22B
330
1F
100
AcDbEntity
  8
0
  6
HIDDEN
 62
     7
370
     0
100
AcDbLine
 10
11.0746986944
 20
4.7523441245
 30
0.0
 11
11.1032940326
 21
4.7523441245
 31
0.0
  0
LINE
  5
22C
330
1F
100
AcDbEntity
  8
0
  6
HIDDEN
 62
     7
370
     0
100
AcDbLine
 10
11.0995440326
 20
4.7560941245
 30
0.0
 11
11.0791910915
 21
4.7560941245
 31
0.0
  0
LINE
  5
22D
330
1F
100
AcDbEntity
  8
0
  6
HIDDEN
 62
     7
370
     0
100
AcDbLine
 10
11.0491382622
 20
4.7560941245
 30
0.0
 11
11.0283038751
 21
4.7560941245
 31
0.0
  0
LINE
  5
22E
330
1F
100
AcDbEntity
  8
0
  6
HIDDEN
 62
     7
370
     0
100
AcDbLine
 10
11.0298284655
 20
4.2871964867
 30
0.0
 11
11.0468762096
 21
4.2871964867
 31
0.0
  0
LINE
  5
22F
330
1F
100
AcDbEntity
  8
0
  6
HIDDEN
 62
     7
370
     0
100
AcDbLine
 10
11.0468762096
 20
4.2871964867
 30
0.0
 11
11.080971698
 21
4.2871964867
 31
0.0
  0
LINE
  5
230
330
1F
100
AcDbEntity
  8
0
  6
HIDDEN
 62
     7
370
     0
100
AcDbLine
 10
11.0468762096
 20
4.2871964867
 30
0.0
 11
11.0468762096
 21
4.2675114474
 31
0.0
  0
LINE
  5
231
330
1F
100
AcDbEntity
  8
0
  6
HIDDEN
 62
     7
370
     0
100
AcDbLine
 10
11.080971698
 20
4.2871964867
 30
0.0
 11
11.080971698
 21
4.2675114474
 31
0.0
  0
LINE
  5
232
330
1F
100
AcDbEntity
  8
0
  6
HIDDEN
 62
     7
370
     0
100
AcDbLine
 10
11.080971698
 20
4.2871964867
 30
0.0
 11
11.0980194422
 21
4.2871964867
 31
0.0
  0
LINE
  5
233
330
1F
100
AcDbEntity
  8
0
  6
HIDDEN
 62
     7
370
     0
100
AcDbLine
 10
11.0298284655
 20
4.2871964867
 30
0.0
 11
11.0298284655
 21
4.2675114474
 31
0.0
  0
LINE
  5
234
330
1F
100
AcDbEntity
  8
0
  6
HIDDEN
 62
     7
370
     0
100
AcDbLine
 10
11.0980194422
 20
4.2871964867
 30
0.0
 11
11.0980194422
 21
4.2675114474
 31
0.0
  0
LINE
  5
235
330
1F
100
AcDbEntity
  8
0
  6
HIDDEN
 62
     7
370
     0
100
AcDbLine
 10
10.6681959617
 20
4.3560941245
 30
0.0
 11
10.6681959617
 21
4.1127343026
 31
0.0
  0
LINE
  5
236
330
1F
100
AcDbEntity
  8
0
  6
HIDDEN
 62
     7
370
     0
100
AcDbLine
 10
10.8059912373
 20
4.113192808
 30
0.0
 11
10.8059912373
 21
4.3560941245
 31
0.0
  0
LINE
  5
237
330
1F
100
AcDbEntity
  8
0
  6
HIDDEN
 62
     7
370
     0
100
AcDbLine
 10
10.9694065916
 20
4.6029445182
 30
0.0
 11
10.9694065916
 21
4.8458458348
 31
0.0
  0
LINE
  5
238
330
1F
100
AcDbEntity
  8
0
  6
HIDDEN
 62
     7
370
     0
100
AcDbLine
 10
10.831611316
 20
4.8463043402
 30
0.0
 11
10.831611316
 21
4.6029445182
 31
0.0
  0
LINE
  5
239
330
1F
100
AcDbEntity
  8
0
  6
HIDDEN
 62
     7
370
     0
100
AcDbLine
 10
10.9950266704
 20
4.3560941245
 30
0.0
 11
10.9950266704
 21
4.1129670977
 31
0.0
  0
LINE
  5
23A
330
1F
100
AcDbEntity
  8
0
  6
HIDDEN
 62
     7
370
     0
100
AcDbLine
 10
11.1328219459
 20
4.1127343026
 30
0.0
 11
11.1328219459
 21
4.3560941245
 31
0.0
  0
LINE
  5
23B
330
1F
100
AcDbEntity
  8
0
  6
HIDDEN
 62
     7
370
     0
100
AcDbLine
 10
10.6952628908
 20
4.8463043402
 30
0.0
 11
10.6952628908
 21
4.3560941245
 31
0.0
  0
LINE
  5
23C
330
1F
100
AcDbEntity
  8
0
  6
HIDDEN
 62
     7
370
     0
100
AcDbLine
 10
10.7789243081
 20
4.3560941245
 30
0.0
 11
10.7789243081
 21
4.8461592371
 31
0.0
  0
LINE
  5
23D
330
1F
100
AcDbEntity
  8
0
  6
HIDDEN
 62
     7
370
     0
100
AcDbLine
 10
10.9423396625
 20
4.1128794057
 30
0.0
 11
10.9423396625
 21
4.6029445182
 31
0.0
  0
LINE
  5
23E
330
1F
100
AcDbEntity
  8
0
  6
HIDDEN
 62
     7
370
     0
100
AcDbLine
 10
10.8586782452
 20
4.6029445182
 30
0.0
 11
10.8586782452
 21
4.1127343026
 31
0.0
  0
LINE
  5
23F
330
1F
100
AcDbEntity
  8
0
  6
HIDDEN
 62
     7
370
     0
100
AcDbLine
 10
11.0220935995
 20
4.8461897269
 30
0.0
 11
11.0220935995
 21
4.3560941245
 31
0.0
  0
LINE
  5
240
330
1F
100
AcDbEntity
  8
0
  6
HIDDEN
 62
     7
370
     0
100
AcDbLine
 10
11.1057550168
 20
4.3560941245
 30
0.0
 11
11.1057550168
 21
4.8463043402
 31
0.0
  0
LINE
  5
241
330
1F
100
AcDbEntity
  8
0
  6
HIDDEN
 62
     7
370
     0
100
AcDbLine
 10
10.8998839538
 20
4.0107693214
 30
0.0
 11
10.9011339538
 21
4.0107693214
 31
0.0
  0
LINE
  5
242
330
1F
100
AcDbEntity
  8
0
  6
HIDDEN
 62
     7
370
     0
100
AcDbLine
 10
10.9011339538
 20
4.9482693214
 30
0.0
 11
10.8998839538
 21
4.9482693214
 31
0.0
  0
LINE
  5
243
330
1F
100
AcDbEntity
  8
0
  6
HIDDEN
 62
     7
370
     0
100
AcDbLine
 10
10.9667589538
 20
3.7758887482
 30
0.0
 11
10.9667589538
 21
3.8300002686
 31
0.0
  0
LINE
  5
244
330
1F
100
AcDbEntity
  8
0
  6
HIDDEN
 62
     7
370
     0
100
AcDbLine
 10
10.8342589538
 20
3.8300002686
 30
0.0
 11
10.8342589538
 21
3.7758757994
 31
0.0
  0
LINE
  5
245
330
1F
100
AcDbEntity
  8
0
  6
HIDDEN
 62
     7
370
     0
100
AcDbLine
 10
10.8342589538
 20
5.1831628434
 30
0.0
 11
10.8342589538
 21
5.1290383742
 31
0.0
  0
LINE
  5
246
330
1F
100
AcDbEntity
  8
0
  6
HIDDEN
 62
     7
370
     0
100
AcDbLine
 10
10.9667589538
 20
5.1290383742
 30
0.0
 11
10.9667589538
 21
5.1831498946
 31
0.0
  0
LINE
  5
247
330
1F
100
AcDbEntity
  8
0
  6
HIDDEN
 62
     7
370
     0
100
AcDbLine
 10
10.8821582298
 20
5.0972094824
 30
0.0
 11
10.9005089538
 21
5.0945644871
 31
0.0
  0
LINE
  5
248
330
1F
100
AcDbEntity
  8
0
  6
HIDDEN
 62
     7
370
     0
100
AcDbLine
 10
10.9005089538
 20
5.0945644871
 30
0.0
 11
10.9188596778
 21
5.0972094824
 31
0.0
  0
LINE
  5
249
330
1F
100
AcDbEntity
  8
0
  6
HIDDEN
 62
     7
370
     0
100
AcDbLine
 10
10.9188596778
 20
3.8618291604
 30
0.0
 11
10.9005089538
 21
3.8644741557
 31
0.0
  0
LINE
  5
24A
330
1F
100
AcDbEntity
  8
0
  6
HIDDEN
 62
     7
370
     0
100
AcDbLine
 10
10.9005089538
 20
3.8644741557
 30
0.0
 11
10.8821582298
 21
3.8618291604
 31
0.0
  0
LINE
  5
24B
330
1F
100
AcDbEntity
  8
0
  6
HIDDEN
 62
     7
370
     0
100
AcDbLine
 10
10.3942589538
 20
4.4404568214
 30
0.0
 11
10.8998839538
 21
4.4404568214
 31
0.0
  0
LINE
  5
24C
330
1F
100
AcDbEntity
  8
0
  6
HIDDEN
 62
     7
370
     0
100
AcDbLine
 10
10.8998839538
 20
4.5185818214
 30
0.0
 11
10.3942589538
 21
4.5185818214
 31
0.0
  0
LINE
  5
24D
330
1F
100
AcDbEntity
  8
0
  6
HIDDEN
 62
     7
370
     0
100
AcDbLine
 10
10.9011339538
 20
4.4404568214
 30
0.0
 11
11.4067589538
 21
4.4404568214
 31
0.0
  0
LINE
  5
24E
330
1F
100
AcDbEntity
  8
0
  6
HIDDEN
 62
     7
370
     0
100
AcDbLine
 10
11.4067589538
 20
4.5185818214
 30
0.0
 11
10.9011339538
 21
4.5185818214
 31
0.0
  0
LINE
  5
24F
330
1F
100
AcDbEntity
  8
0
  6
HIDDEN
 62
     7
370
     0
100
AcDbLine
 10
10.3942589538
 20
4.7787479947
 30
0.0
 11
10.8998839538
 21
4.7787479947
 31
0.0
  0
LINE
  5
250
330
1F
100
AcDbEntity
  8
0
  6
HIDDEN
 62
     7
370
     0
100
AcDbLine
 10
10.8998839538
 20
4.8568729947
 30
0.0
 11
10.3942589538
 21
4.8568729947
 31
0.0
  0
LINE
  5
251
330
1F
100
AcDbEntity
  8
0
  6
HIDDEN
 62
     7
370
     0
100
AcDbLine
 10
10.3942589538
 20
4.102165648
 30
0.0
 11
10.8998839538
 21
4.102165648
 31
0.0
  0
LINE
  5
252
330
1F
100
AcDbEntity
  8
0
  6
HIDDEN
 62
     7
370
     0
100
AcDbLine
 10
10.8998839538
 20
4.180290648
 30
0.0
 11
10.3942589538
 21
4.180290648
 31
0.0
  0
LINE
  5
253
330
1F
100
AcDbEntity
  8
0
  6
HIDDEN
 62
     7
370
     0
100
AcDbLine
 10
10.9011339538
 20
4.7787479947
 30
0.0
 11
11.4067589538
 21
4.7787479947
 31
0.0
  0
LINE
  5
254
330
1F
100
AcDbEntity
  8
0
  6
HIDDEN
 62
     7
370
     0
100
AcDbLine
 10
11.4067589538
 20
4.8568729947
 30
0.0
 11
10.9011339538
 21
4.8568729947
 31
0.0
  0
LINE
  5
255
330
1F
100
AcDbEntity
  8
0
  6
HIDDEN
 62
     7
370
     0
100
AcDbLine
 10
10.9011339538
 20
4.102165648
 30
0.0
 11
11.4067589538
 21
4.102165648
 31
0.0
  0
LINE
  5
256
330
1F
100
AcDbEntity
  8
0
  6
HIDDEN
 62
     7
370
     0
100
AcDbLine
 10
11.4067589538
 20
4.180290648
 30
0.0
 11
10.9011339538
 21
4.180290648
 31
0.0
  0
LINE
  5
257
330
1F
100
AcDbEntity
  8
0
  6
HIDDEN
 62
     7
370
     0
100
AcDbLine
 10
10.3942589538
 20
4.2607693214
 30
0.0
 11
10.8998839538
 21
4.2607693214
 31
0.0
  0
LINE
  5
258
330
1F
100
AcDbEntity
  8
0
  6
HIDDEN
 62
     7
370
     0
100
AcDbLine
 10
10.4465967757
 20
4.6982693214
 30
0.0
 11
10.3942589538
 21
4.6982693214
 31
0.0
  0
LINE
  5
259
330
1F
100
AcDbEntity
  8
0
  6
HIDDEN
 62
     7
370
     0
100
AcDbLine
 10
10.8998839538
 20
4.6982693214
 30
0.0
 11
10.5513714538
 21
4.6982693214
 31
0.0
  0
LINE
  5
25A
330
1F
100
AcDbEntity
  8
0
  6
HIDDEN
 62
     7
370
     0
100
AcDbLine
 10
10.9011339538
 20
4.2607693214
 30
0.0
 11
11.4067589538
 21
4.2607693214
 31
0.0
  0
LINE
  5
25B
330
1F
100
AcDbEntity
  8
0
  6
HIDDEN
 62
     7
370
     0
100
AcDbLine
 10
11.2503467757
 20
4.6982693214
 30
0.0
 11
10.9011339538
 21
4.6982693214
 31
0.0
  0
LINE
  5
25C
330
1F
100
AcDbEntity
  8
0
  6
HIDDEN
 62
     7
370
     0
100
AcDbLine
 10
11.4067589538
 20
4.6982693214
 30
0.0
 11
11.3551214538
 21
4.6982693214
 31
0.0
  0
LINE
  5
25D
330
1F
100
AcDbEntity
  8
0
  6
HIDDEN
 62
     7
370
     0
100
AcDbLine
 10
10.5513714538
 20
4.6982693214
 30
0.0
 11
10.5513714538
 21
4.9482693214
 31
0.0
  0
LINE
  5
25E
330
1F
100
AcDbEntity
  8
0
  6
HIDDEN
 62
     7
370
     0
100
AcDbLine
 10
10.4458964538
 20
4.9482693214
 30
0.0
 11
10.4458964538
 21
4.6981018808
 31
0.0
  0
LINE
  5
25F
330
1F
100
AcDbEntity
  8
0
  6
HIDDEN
 62
     7
370
     0
100
AcDbLine
 10
11.3551214538
 20
4.6982693214
 30
0.0
 11
11.3551214538
 21
4.9482693214
 31
0.0
  0
LINE
  5
260
330
1F
100
AcDbEntity
  8
0
  6
HIDDEN
 62
     7
370
     0
100
AcDbLine
 10
11.2496464538
 20
4.9482693214
 30
0.0
 11
11.2496464538
 21
4.6981018808
 31
0.0
  0
LINE
  5
261
330
1F
100
AcDbEntity
  8
0
  6
HIDDEN
 62
     7
370
     0
100
AcDbLine
 10
10.8342589538
 20
5.0017826818
 30
0.0
 11
10.8342589538
 21
4.9616100287
 31
0.0
  0
LINE
  5
262
330
1F
100
AcDbEntity
  8
0
  6
HIDDEN
 62
     7
370
     0
100
AcDbLine
 10
10.9667589538
 20
4.9616100287
 30
0.0
 11
10.9667589538
 21
5.0017730709
 31
0.0
  0
LINE
  5
263
330
1F
100
AcDbEntity
  8
0
  6
HIDDEN
 62
     7
370
     0
100
AcDbLine
 10
10.9667589538
 20
3.9572655841
 30
0.0
 11
10.9667589538
 21
3.9974286141
 31
0.0
  0
LINE
  5
264
330
1F
100
AcDbEntity
  8
0
  6
HIDDEN
 62
     7
370
     0
100
AcDbLine
 10
10.8342589538
 20
3.9974286141
 30
0.0
 11
10.8342589538
 21
3.957255962
 31
0.0
  0
LINE
  5
265
330
1F
100
AcDbEntity
  8
0
  6
HIDDEN
 62
     7
370
     0
100
AcDbLine
 10
10.9644853318
 20
4.6877771954
 30
0.0
 11
10.9607353318
 21
4.6915271954
 31
0.0
  0
LINE
  5
266
330
1F
100
AcDbEntity
  8
0
  6
HIDDEN
 62
     7
370
     0
100
AcDbLine
 10
10.8402825759
 20
4.6915271954
 30
0.0
 11
10.8365325759
 21
4.6877771954
 31
0.0
  0
LINE
  5
267
330
1F
100
AcDbEntity
  8
0
  6
HIDDEN
 62
     7
370
     0
100
AcDbLine
 10
10.9644853318
 20
4.6127870379
 30
0.0
 11
10.9644853318
 21
4.6877771954
 31
0.0
  0
LINE
  5
268
330
1F
100
AcDbEntity
  8
0
  6
HIDDEN
 62
     7
370
     0
100
AcDbLine
 10
10.8365325759
 20
4.6877771954
 30
0.0
 11
10.8365325759
 21
4.6127870379
 31
0.0
  0
LINE
  5
269
330
1F
100
AcDbEntity
  8
0
  6
HIDDEN
 62
     7
370
     0
100
AcDbLine
 10
10.8611388751
 20
4.6127870379
 30
0.0
 11
10.8611388751
 21
4.2066945182
 31
0.0
  0
LINE
  5
26A
330
1F
100
AcDbEntity
  8
0
  6
HIDDEN
 62
     7
370
     0
100
AcDbLine
 10
10.9398790326
 20
4.2066945182
 30
0.0
 11
10.9398790326
 21
4.6127870379
 31
0.0
  0
LINE
  5
26B
330
1F
100
AcDbEntity
  8
0
  6
HIDDEN
 62
     7
370
     0
100
AcDbLine
 10
10.8611388751
 20
4.2066945182
 30
0.0
 11
10.8648888751
 21
4.2029445182
 31
0.0
  0
LINE
  5
26C
330
1F
100
AcDbEntity
  8
0
  6
HIDDEN
 62
     7
370
     0
100
AcDbLine
 10
10.9361290326
 20
4.2029445182
 30
0.0
 11
10.9398790326
 21
4.2066945182
 31
0.0
  0
LINE
  5
26D
330
1F
100
AcDbEntity
  8
0
  6
HIDDEN
 62
     7
370
     0
100
AcDbLine
 10
10.6731175759
 20
4.2712614474
 30
0.0
 11
10.6768675759
 21
4.2675114474
 31
0.0
  0
LINE
  5
26E
330
1F
100
AcDbEntity
  8
0
  6
HIDDEN
 62
     7
370
     0
100
AcDbLine
 10
10.7973203318
 20
4.2675114474
 30
0.0
 11
10.8010703318
 21
4.2712614474
 31
0.0
  0
LINE
  5
26F
330
1F
100
AcDbEntity
  8
0
  6
HIDDEN
 62
     7
370
     0
100
AcDbLine
 10
10.6731175759
 20
4.3462516049
 30
0.0
 11
10.6731175759
 21
4.2712614474
 31
0.0
  0
LINE
  5
270
330
1F
100
AcDbEntity
  8
0
  6
HIDDEN
 62
     7
370
     0
100
AcDbLine
 10
10.8010703318
 20
4.2712614474
 30
0.0
 11
10.8010703318
 21
4.3462516049
 31
0.0
  0
LINE
  5
271
330
1F
100
AcDbEntity
  8
0
  6
HIDDEN
 62
     7
370
     0
100
AcDbLine
 10
10.7764640326
 20
4.3462516049
 30
0.0
 11
10.7764640326
 21
4.7523441245
 31
0.0
  0
LINE
  5
272
330
1F
100
AcDbEntity
  8
0
  6
HIDDEN
 62
     7
370
     0
100
AcDbLine
 10
10.6977238751
 20
4.7523441245
 30
0.0
 11
10.6977238751
 21
4.3462516049
 31
0.0
  0
LINE
  5
273
330
1F
100
AcDbEntity
  8
0
  6
HIDDEN
 62
     7
370
     0
100
AcDbLine
 10
10.7764640326
 20
4.7523441245
 30
0.0
 11
10.7727140326
 21
4.7560941245
 31
0.0
  0
LINE
  5
274
330
1F
100
AcDbEntity
  8
0
  6
HIDDEN
 62
     7
370
     0
100
AcDbLine
 10
10.7014738751
 20
4.7560941245
 30
0.0
 11
10.6977238751
 21
4.7523441245
 31
0.0
  0
LINE
  5
275
330
1F
100
AcDbEntity
  8
0
  6
HIDDEN
 62
     7
370
     0
100
AcDbLine
 10
10.9999475759
 20
4.3462516049
 30
0.0
 11
10.9999475759
 21
4.2712614474
 31
0.0
  0
LINE
  5
276
330
1F
100
AcDbEntity
  8
0
  6
HIDDEN
 62
     7
370
     0
100
AcDbLine
 10
11.1279003318
 20
4.2712614474
 30
0.0
 11
11.1279003318
 21
4.3462516049
 31
0.0
  0
LINE
  5
277
330
1F
100
AcDbEntity
  8
0
  6
HIDDEN
 62
     7
370
     0
100
AcDbLine
 10
10.9999475759
 20
4.2712614474
 30
0.0
 11
11.0036975759
 21
4.2675114474
 31
0.0
  0
LINE
  5
278
330
1F
100
AcDbEntity
  8
0
  6
HIDDEN
 62
     7
370
     0
100
AcDbLine
 10
11.1241503318
 20
4.2675114474
 30
0.0
 11
11.1279003318
 21
4.2712614474
 31
0.0
  0
LINE
  5
279
330
1F
100
AcDbEntity
  8
0
  6
HIDDEN
 62
     7
370
     0
100
AcDbLine
 10
11.1032940326
 20
4.7523441245
 30
0.0
 11
11.0995440326
 21
4.7560941245
 31
0.0
  0
LINE
  5
27A
330
1F
100
AcDbEntity
  8
0
  6
HIDDEN
 62
     7
370
     0
100
AcDbLine
 10
11.0283038751
 20
4.7560941245
 30
0.0
 11
11.0245538751
 21
4.7523441245
 31
0.0
  0
LINE
  5
27B
330
1F
100
AcDbEntity
  8
0
  6
HIDDEN
 62
     7
370
     0
100
AcDbLine
 10
11.1032940326
 20
4.3462516049
 30
0.0
 11
11.1032940326
 21
4.7523441245
 31
0.0
  0
LINE
  5
27C
330
1F
100
AcDbEntity
  8
0
  6
HIDDEN
 62
     7
370
     0
100
AcDbLine
 10
11.0245538751
 20
4.7523441245
 30
0.0
 11
11.0245538751
 21
4.3462516049
 31
0.0
  0
MTEXT
  5
27D
330
1F
100
AcDbEntity
  8
0
  6
Continuous
 62
     7
370
     0
100
AcDbMText
 10
8.0785587617
 20
5.6947823269
 30
0.0
 40
0.125
 41
0.0
 71
     1
 72
     1
  1
1/2-13 Tapped Hole
  7
SLDTEXTSTYLE0
 73
     1
 44
1.0
  0
LEADER
  5
27E
330
1F
100
AcDbEntity
  8
0
  6
Continuous
 62
     7
370
     0
100
AcDbLeader
  3
SLDDIMSTYLE0
 76
     3
 10
10.4986339538
 20
4.6918170336
 30
0.0
 10
9.9379503551
 20
5.6340901037
 30
0.0
 10
9.6879503551
 20
5.6340901037
 30
0.0
  0
LINE
  5
27F
330
1F
100
AcDbEntity
  8
0
  6
HIDDEN
 62
     7
370
     0
100
AcDbLine
 10
10.4361339538
 20
4.6982693214
 30
0.0
 11
10.4361339538
 21
4.9482693214
 31
0.0
  0
LINE
  5
280
330
1F
100
AcDbEntity
  8
0
  6
HIDDEN
 62
     7
370
     0
100
AcDbLine
 10
10.5611339538
 20
4.6982693214
 30
0.0
 11
10.5611339538
 21
4.9482693214
 31
0.0
  0
LINE
  5
281
330
1F
100
AcDbEntity
  8
0
  6
HIDDEN
 62
     7
370
     0
100
AcDbLine
 10
11.2398839538
 20
4.6982693214
 30
0.0
 11
11.2398839538
 21
4.9482693214
 31
0.0
  0
LINE
  5
282
330
1F
100
AcDbEntity
  8
0
  6
HIDDEN
 62
     7
370
     0
100
AcDbLine
 10
11.3648839538
 20
4.6982693214
 30
0.0
 11
11.3648839538
 21
4.9482693214
 31
0.0
  0
LINE
  5
283
330
1F
100
AcDbEntity
  8
0
  6
HIDDEN
 62
     7
370
     0
100
AcDbLine
 10
10.3942589538
 20
4.8646854947
 30
0.0
 11
10.8998839538
 21
4.8646854947
 31
0.0
  0
LINE
  5
284
330
1F
100
AcDbEntity
  8
0
  6
HIDDEN
 62
     7
370
     0
100
AcDbLine
 10
10.9011339538
 20
4.8646854947
 30
0.0
 11
11.4067589538
 21
4.8646854947
 31
0.0
  0
LINE
  5
285
330
1F
100
AcDbEntity
  8
0
  6
HIDDEN
 62
     7
370
     0
100
AcDbLine
 10
10.3942589538
 20
4.7709354947
 30
0.0
 11
10.8998839538
 21
4.7709354947
 31
0.0
  0
LINE
  5
286
330
1F
100
AcDbEntity
  8
0
  6
HIDDEN
 62
     7
370
     0
100
AcDbLine
 10
10.9011339538
 20
4.7709354947
 30
0.0
 11
11.4067589538
 21
4.7709354947
 31
0.0
  0
LINE
  5
287
330
1F
100
AcDbEntity
  8
0
  6
HIDDEN
 62
     7
370
     0
100
AcDbLine
 10
10.3942589538
 20
4.5263943214
 30
0.0
 11
10.8998839538
 21
4.5263943214
 31
0.0
  0
LINE
  5
288
330
1F
100
AcDbEntity
  8
0
  6
HIDDEN
 62
     7
370
     0
100
AcDbLine
 10
10.9011339538
 20
4.5263943214
 30
0.0
 11
11.4067589538
 21
4.5263943214
 31
0.0
  0
LINE
  5
289
330
1F
100
AcDbEntity
  8
0
  6
HIDDEN
 62
     7
370
     0
100
AcDbLine
 10
10.3942589538
 20
4.4326443214
 30
0.0
 11
10.8998839538
 21
4.4326443214
 31
0.0
  0
LINE
  5
28A
330
1F
100
AcDbEntity
  8
0
  6
HIDDEN
 62
     7
370
     0
100
AcDbLine
 10
10.9011339538
 20
4.4326443214
 30
0.0
 11
11.4067589538
 21
4.4326443214
 31
0.0
  0
LINE
  5
28B
330
1F
100
AcDbEntity
  8
0
  6
HIDDEN
 62
     7
370
     0
100
AcDbLine
 10
10.3942589538
 20
4.188103148
 30
0.0
 11
10.8998839538
 21
4.188103148
 31
0.0
  0
LINE
  5
28C
330
1F
100
AcDbEntity
  8
0
  6
HIDDEN
 62
     7
370
     0
100
AcDbLine
 10
10.9011339538
 20
4.188103148
 30
0.0
 11
11.4067589538
 21
4.188103148
 31
0.0
  0
LINE
  5
28D
330
1F
100
AcDbEntity
  8
0
  6
HIDDEN
 62
     7
370
     0
100
AcDbLine
 10
10.3942589538
 20
4.094353148
 30
0.0
 11
10.8998839538
 21
4.094353148
 31
0.0
  0
LINE
  5
28E
330
1F
100
AcDbEntity
  8
0
  6
HIDDEN
 62
     7
370
     0
100
AcDbLine
 10
10.9011339538
 20
4.094353148
 30
0.0
 11
11.4067589538
 21
4.094353148
 31
0.0
  0
LINE
  5
28F
330
1F
100
AcDbEntity
  8
0
  6
HIDDEN
 62
     7
370
     0
100
AcDbLine
 10
10.3942589538
 20
4.188103148
 30
0.0
 11
10.8998839538
 21
4.188103148
 31
0.0
  0
LINE
  5
290
330
1F
100
AcDbEntity
  8
0
  6
HIDDEN
 62
     7
370
     0
100
AcDbLine
 10
10.9011339538
 20
4.188103148
 30
0.0
 11
11.4067589538
 21
4.188103148
 31
0.0
  0
LINE
  5
291
330
1F
100
AcDbEntity
  8
0
  6
HIDDEN
 62
     7
370
     0
100
AcDbLine
 10
10.3942589538
 20
4.094353148
 30
0.0
 11
10.8998839538
 21
4.094353148
 31
0.0
  0
LINE
  5
292
330
1F
100
AcDbEntity
  8
0
  6
HIDDEN
 62
     7
370
     0
100
AcDbLine
 10
10.9011339538
 20
4.094353148
 30
0.0
 11
11.4067589538
 21
4.094353148
 31
0.0
  0
LINE
  5
293
330
1F
100
AcDbEntity
  8
0
  6
HIDDEN
 62
     7
370
     0
100
AcDbLine
 10
10.3942589538
 20
4.8646854947
 30
0.0
 11
10.8998839538
 21
4.8646854947
 31
0.0
  0
LINE
  5
294
330
1F
100
AcDbEntity
  8
0
  6
HIDDEN
 62
     7
370
     0
100
AcDbLine
 10
10.9011339538
 20
4.8646854947
 30
0.0
 11
11.4067589538
 21
4.8646854947
 31
0.0
  0
LINE
  5
295
330
1F
100
AcDbEntity
  8
0
  6
HIDDEN
 62
     7
370
     0
100
AcDbLine
 10
10.3942589538
 20
4.7709354947
 30
0.0
 11
10.8998839538
 21
4.7709354947
 31
0.0
  0
LINE
  5
296
330
1F
100
AcDbEntity
  8
0
  6
HIDDEN
 62
     7
370
     0
100
AcDbLine
 10
10.9011339538
 20
4.7709354947
 30
0.0
 11
11.4067589538
 21
4.7709354947
 31
0.0
  0
LINE
  5
297
330
1F
100
AcDbEntity
  8
0
  6
HIDDEN
 62
     7
370
     0
100
AcDbLine
 10
10.3942589538
 20
4.5263943214
 30
0.0
 11
10.8998839538
 21
4.5263943214
 31
0.0
  0
LINE
  5
298
330
1F
100
AcDbEntity
  8
0
  6
HIDDEN
 62
     7
370
     0
100
AcDbLine
 10
10.9011339538
 20
4.5263943214
 30
0.0
 11
11.4067589538
 21
4.5263943214
 31
0.0
  0
LINE
  5
299
330
1F
100
AcDbEntity
  8
0
  6
HIDDEN
 62
     7
370
     0
100
AcDbLine
 10
10.3942589538
 20
4.4326443214
 30
0.0
 11
10.8998839538
 21
4.4326443214
 31
0.0
  0
LINE
  5
29A
330
1F
100
AcDbEntity
  8
0
  6
HIDDEN
 62
     7
370
     0
100
AcDbLine
 10
10.9011339538
 20
4.4326443214
 30
0.0
 11
11.4067589538
 21
4.4326443214
 31
0.0
  0
LINE
  5
29B
330
1F
100
AcDbEntity
  8
0
  6
Continuous
 62
     7
370
    15
100
AcDbLine
 10
4.4727214892
 20
7.7688454288
 30
0.0
 11
4.4852214892
 21
7.7563454288
 31
0.0
  0
LINE
  5
29C
330
1F
100
AcDbEntity
  8
0
  6
Continuous
 62
     7
370
    15
100
AcDbLine
 10
6.0852214892
 20
7.7563454288
 30
0.0
 11
6.0977214892
 21
7.7688454288
 31
0.0
  0
LINE
  5
29D
330
1F
100
AcDbEntity
  8
0
  6
Continuous
 62
     7
370
    15
100
AcDbLine
 10
4.4727214892
 20
8.3388454288
 30
0.0
 11
4.4727214892
 21
7.7688454288
 31
0.0
  0
LINE
  5
29E
330
1F
100
AcDbEntity
  8
0
  6
Continuous
 62
     7
370
    15
100
AcDbLine
 10
6.0977214892
 20
7.7688454288
 30
0.0
 11
6.0977214892
 21
8.3388454288
 31
0.0
  0
LINE
  5
29F
330
1F
100
AcDbEntity
  8
0
  6
Continuous
 62
     7
370
    15
100
AcDbLine
 10
6.0977214892
 20
8.3388454288
 30
0.0
 11
6.0852214892
 21
8.3513454288
 31
0.0
  0
LINE
  5
2A0
330
1F
100
AcDbEntity
  8
0
  6
Continuous
 62
     7
370
    15
100
AcDbLine
 10
4.4852214892
 20
8.3513454288
 30
0.0
 11
4.4727214892
 21
8.3388454288
 31
0.0
  0
LINE
  5
2A1
330
1F
100
AcDbEntity
  8
0
  6
Continuous
 62
     7
370
    15
100
AcDbLine
 10
4.8164714892
 20
7.7563454288
 30
0.0
 11
4.8164714892
 21
7.5475954288
 31
0.0
  0
LINE
  5
2A2
330
1F
100
AcDbEntity
  8
0
  6
Continuous
 62
     7
370
    15
100
AcDbLine
 10
5.7539714892
 20
7.5475954288
 30
0.0
 11
5.7539714892
 21
7.7563454288
 31
0.0
  0
LINE
  5
2A3
330
1F
100
AcDbEntity
  8
0
  6
Continuous
 62
     7
370
    15
100
AcDbLine
 10
4.8164714892
 20
8.5600954288
 30
0.0
 11
4.8164714892
 21
8.3513454288
 31
0.0
  0
LINE
  5
2A4
330
1F
100
AcDbEntity
  8
0
  6
Continuous
 62
     7
370
    15
100
AcDbLine
 10
5.7539714892
 20
8.3513454288
 30
0.0
 11
5.7539714892
 21
8.5600954288
 31
0.0
  0
LINE
  5
2A5
330
1F
100
AcDbEntity
  8
0
  6
Continuous
 62
     7
370
    15
100
AcDbLine
 10
5.2852214892
 20
7.7688454288
 30
0.0
 11
6.0977214892
 21
7.7688454288
 31
0.0
  0
LINE
  5
2A6
330
1F
100
AcDbEntity
  8
0
  6
Continuous
 62
     7
370
    15
100
AcDbLine
 10
4.4727214892
 20
7.7688454288
 30
0.0
 11
5.2852214892
 21
7.7688454288
 31
0.0
  0
LINE
  5
2A7
330
1F
100
AcDbEntity
  8
0
  6
Continuous
 62
     7
370
    15
100
AcDbLine
 10
5.2852214892
 20
7.7563454288
 30
0.0
 11
4.4852214892
 21
7.7563454288
 31
0.0
  0
LINE
  5
2A8
330
1F
100
AcDbEntity
  8
0
  6
Continuous
 62
     7
370
    15
100
AcDbLine
 10
6.0852214892
 20
7.7563454288
 30
0.0
 11
5.2852214892
 21
7.7563454288
 31
0.0
  0
LINE
  5
2A9
330
1F
100
AcDbEntity
  8
0
  6
Continuous
 62
     7
370
    15
100
AcDbLine
 10
6.0977214892
 20
8.3388454288
 30
0.0
 11
4.4727214892
 21
8.3388454288
 31
0.0
  0
SPLINE
  5
2AA
330
1F
100
AcDbEntity
  8
0
  6
Continuous
 62
     7
370
    15
100
AcDbSpline
210
0.0
220
0.0
230
1.0
 70
     8
 71
     3
 72
    84
 73
    80
 74
     0
 42
0.00000001
 43
0.00000001
 40
-0.0312500000000001
 40
-0.0312500000000001
 40
0.0
 40
0.0
 40
0.0624999999999982
 40
0.0624999999999982
 40
0.0937499999999971
 40
0.0937499999999971
 40
0.109374999999997
 40
0.109374999999997
 40
0.1249999999999969
 40
0.1249999999999969
 40
0.1562499999999967
 40
0.1562499999999967
 40
0.1718749999999967
 40
0.1718749999999967
 40
0.1874999999999968
 40
0.1874999999999968
 40
0.2031249999999968
 40
0.2031249999999968
 40
0.2187499999999969
 40
0.2187499999999969
 40
0.2343749999999969
 40
0.2343749999999969
 40
0.2421874999999969
 40
0.2421874999999969
 40
0.2499999999999969
 40
0.2499999999999969
 40
0.2656249999999966
 40
0.2656249999999966
 40
0.2812499999999963
 40
0.2812499999999963
 40
0.3124999999999955
 40
0.3124999999999955
 40
0.3281249999999953
 40
0.3281249999999953
 40
0.3437499999999951
 40
0.3437499999999951
 40
0.3749999999999954
 40
0.3749999999999954
 40
0.4062499999999958
 40
0.4062499999999958
 40
0.4374999999999962
 40
0.4374999999999962
 40
0.4999999999999966
 40
0.4999999999999966
 40
0.5624999999999973
 40
0.5624999999999973
 40
0.6249999999999981
 40
0.6249999999999981
 40
0.6562499999999986
 40
0.6562499999999986
 40
0.687499999999999
 40
0.687499999999999
 40
0.7031249999999991
 40
0.7031249999999991
 40
0.7187499999999992
 40
0.7187499999999992
 40
0.7343749999999993
 40
0.7343749999999993
 40
0.7499999999999994
 40
0.7499999999999994
 40
0.7656249999999996
 40
0.7656249999999996
 40
0.7812499999999997
 40
0.7812499999999997
 40
0.7968749999999998
 40
0.7968749999999998
 40
0.8124999999999999
 40
0.8124999999999999
 40
0.8437499999999999
 40
0.8437499999999999
 40
0.8749999999999999
 40
0.8749999999999999
 40
0.9062499999999999
 40
0.9062499999999999
 40
0.9374999999999999
 40
0.9374999999999999
 40
0.9687499999999999
 40
0.9687499999999999
 40
1.0
 40
1.0
 40
1.062499999999998
 40
1.062499999999998
 10
4.558120616639208
 20
8.0120147201793
 30
0.0
 10
4.564423234205088
 20
8.0120147201793
 30
0.0
 10
4.568720728589299
 20
8.012630661780237
 30
0.0
 10
4.575274609863041
 20
8.014749607821729
 30
0.0
 10
4.577476969627305
 20
8.015657539321715
 30
0.0
 10
4.580798228738611
 20
8.01740409850403
 30
0.0
 10
4.581908226470794
 20
8.018050849741114
 30
0.0
 10
4.584131730936743
 20
8.019496239530225
 30
0.0
 10
4.585250366660441
 20
8.020298942153017
 30
0.0
 10
4.58856582624219
 20
8.022951741687274
 30
0.0
 10
4.590714484841916
 20
8.025027312825655
 30
0.0
 10
4.593770019281834
 20
8.028806880237793
 30
0.0
 10
4.59476021321053
 20
8.030179005284998
 30
0.0
 10
4.596658659063497
 20
8.033221275224495
 30
0.0
 10
4.597560285042777
 20
8.034884742898127
 30
0.0
 10
4.599177745007778
 20
8.038479771688626
 30
0.0
 10
4.599907463667341
 20
8.040448135646288
 30
0.0
 10
4.601075302994457
 20
8.044602597417555
 30
0.0
 10
4.601519893504499
 20
8.046792638855921
 30
0.0
 10
4.602049231510335
 20
8.051449595406071
 30
0.0
 10
4.60211750482094
 20
8.053781736917786
 30
0.0
 10
4.601926917691136
 20
8.057285402339923
 30
0.0
 10
4.601812503852271
 20
8.058463746920086
 30
0.0
 10
4.601494415383566
 20
8.060751000935642
 30
0.0
 10
4.60129133265043
 20
8.061865292906628
 30
0.0
 10
4.60056337720705
 20
8.065128538474909
 30
0.0
 10
4.599915461390276
 20
8.067199209771575
 30
0.0
 10
4.598434723792169
 20
8.070982628014173
 30
0.0
 10
4.597594567123473
 20
8.072727571883329
 30
0.0
 10
4.594853355119658
 20
8.077601237139257
 30
0.0
 10
4.59282579269478
 20
8.080235388022205
 30
0.0
 10
4.589631818301848
 20
8.083632276925101
 30
0.0
 10
4.588535878501353
 20
8.084670725758123
 30
0.0
 10
4.586337289597892
 20
8.086554273841772
 30
0.0
 10
4.585231317364385
 20
8.087403513645924
 30
0.0
 10
4.581902110432051
 20
8.089721219426444
 30
0.0
 10
4.579668009429153
 20
8.090962170824378
 30
0.0
 10
4.575198676763893
 20
8.09297985789657
 30
0.0
 10
4.572953350912605
 20
8.093756593855845
 30
0.0
 10
4.568542292947777
 20
8.094903505036116
 30
0.0
 10
4.566372845785448
 20
8.095276860391598
 30
0.0
 10
4.55997212554016
 20
8.095894496501405
 30
0.0
 10
4.55584841279765
 20
8.095644838209875
 30
0.0
 10
4.547886529541565
 20
8.094022078672111
 30
0.0
 10
4.544033253371428
 20
8.092636812133494
 30
0.0
 10
4.536766847523752
 20
8.08872680182705
 30
0.0
 10
4.533333812866817
 20
8.08622402530933
 30
0.0
 10
4.528503870177032
 20
8.081216562316722
 30
0.0
 10
4.526946292316226
 20
8.079329384025598
 30
0.0
 10
4.524026888844531
 20
8.074978852719815
 30
0.0
 10
4.522652839984303
 20
8.072533472568932
 30
0.0
 10
4.520807151924077
 20
8.06795314854798
 30
0.0
 10
4.520243214664412
 20
8.066303514342085
 30
0.0
 10
4.519273156856999
 20
8.062603305729825
 30
0.0
 10
4.518867028473908
 20
8.060535232255459
 30
0.0
 10
4.518386317923106
 20
8.056027935643487
 30
0.0
 10
4.518326350460722
 20
8.053620990396238
 30
0.0
 10
4.518611231432547
 20
8.048962860755914
 30
0.0
 10
4.518945359750832
 20
8.04676688193238
 30
0.0
 10
4.519811132494502
 20
8.04285326074224
 30
0.0
 10
4.5203495917987
 20
8.041080989019887
 30
0.0
 10
4.521517072912554
 20
8.037887130495442
 30
0.0
 10
4.522149144559141
 20
8.03645226019941
 30
0.0
 10
4.523482323868934
 20
8.033789021572455
 30
0.0
 10
4.524187021064192
 20
8.032558340931006
 30
0.0
 10
4.525631363594202
 20
8.03028388780518
 30
0.0
 10
4.526372756218832
 20
8.029236333106368
 30
0.0
 10
4.528647340978242
 20
8.026295004818047
 30
0.0
 10
4.530230549340684
 20
8.024599244509025
 30
0.0
 10
4.533514992265708
 20
8.021572238839543
 30
0.0
 10
4.535216599349603
 20
8.020244227696
 30
0.0
 10
4.538734819791665
 20
8.01789256703165
 30
0.0
 10
4.540550139913888
 20
8.016871964941767
 30
0.0
 10
4.544254379643827
 20
8.01512785624691
 30
0.0
 10
4.546148436676445
 20
8.014401139230717
 30
0.0
 10
4.55002138060546
 20
8.013226953062729
 30
0.0
 10
4.552000267486842
 20
8.012779611858926
 30
0.0
 10
4.556044914978053
 20
8.012173543374695
 30
0.0
 10
4.558120616639208
 20
8.0120147201793
 30
0.0
 10
4.564423234205088
 20
8.0120147201793
 30
0.0
  0
SPLINE
  5
2AB
330
1F
100
AcDbEntity
  8
0
  6
Continuous
 62
     7
370
    15
100
AcDbSpline
210
0.0
220
0.0
230
1.0
 70
     8
 71
     3
 72
   104
 73
   100
 74
     0
 42
0.00000001
 43
0.00000001
 40
-0.0078125000000002
 40
-0.0078125000000002
 40
0.0
 40
0.0
 40
0.0624999999999987
 40
0.0624999999999987
 40
0.0781249999999983
 40
0.0781249999999983
 40
0.093749999999998
 40
0.093749999999998
 40
0.1249999999999975
 40
0.1249999999999975
 40
0.1562499999999971
 40
0.1562499999999971
 40
0.1718749999999968
 40
0.1718749999999968
 40
0.1874999999999964
 40
0.1874999999999964
 40
0.1953124999999961
 40
0.1953124999999961
 40
0.2031249999999958
 40
0.2031249999999958
 40
0.2187499999999952
 40
0.2187499999999952
 40
0.2343749999999945
 40
0.2343749999999945
 40
0.2421874999999942
 40
0.2421874999999942
 40
0.2499999999999939
 40
0.2499999999999939
 40
0.2656249999999935
 40
0.2656249999999935
 40
0.2812499999999931
 40
0.2812499999999931
 40
0.2968749999999926
 40
0.2968749999999926
 40
0.3124999999999922
 40
0.3124999999999922
 40
0.3437499999999915
 40
0.3437499999999915
 40
0.3593749999999913
 40
0.3593749999999913
 40
0.3749999999999911
 40
0.3749999999999911
 40
0.4374999999999907
 40
0.4374999999999907
 40
0.4687499999999906
 40
0.4687499999999906
 40
0.4999999999999905
 40
0.4999999999999905
 40
0.5624999999999905
 40
0.5624999999999905
 40
0.5937499999999905
 40
0.5937499999999905
 40
0.6249999999999905
 40
0.6249999999999905
 40
0.6562499999999905
 40
0.6562499999999905
 40
0.6718749999999905
 40
0.6718749999999905
 40
0.6796874999999905
 40
0.6796874999999905
 40
0.6874999999999906
 40
0.6874999999999906
 40
0.6953124999999906
 40
0.6953124999999906
 40
0.6992187499999906
 40
0.6992187499999906
 40
0.7031249999999907
 40
0.7031249999999907
 40
0.7070312499999907
 40
0.7070312499999907
 40
0.7109374999999907
 40
0.7109374999999907
 40
0.7187499999999909
 40
0.7187499999999909
 40
0.726562499999991
 40
0.726562499999991
 40
0.7343749999999912
 40
0.7343749999999912
 40
0.7499999999999916
 40
0.7499999999999916
 40
0.765624999999992
 40
0.765624999999992
 40
0.7812499999999925
 40
0.7812499999999925
 40
0.8124999999999934
 40
0.8124999999999934
 40
0.8437499999999944
 40
0.8437499999999944
 40
0.8749999999999954
 40
0.8749999999999954
 40
0.9374999999999976
 40
0.9374999999999976
 40
0.9687499999999989
 40
0.9687499999999989
 40
0.9843749999999994
 40
0.9843749999999994
 40
0.9921874999999998
 40
0.9921874999999998
 40
1.0
 40
1.0
 40
1.062499999999999
 40
1.062499999999999
 10
4.559298995737116
 20
8.286158420966702
 30
0.0
 10
4.567601436553582
 20
8.286158420966702
 30
0.0
 10
4.575347236246001
 20
8.285018343272442
 30
0.0
 10
4.585404471424602
 20
8.281426691687633
 30
0.0
 10
4.587434413598275
 20
8.280596805681647
 30
0.0
 10
4.591527727833976
 20
8.278676696614083
 30
0.0
 10
4.593597637213511
 20
8.277582626348188
 30
0.0
 10
4.599797310924326
 20
8.27386351228124
 30
0.0
 10
4.60391876312258
 20
8.270817094057652
 30
0.0
 10
4.61193321494259
 20
8.263126103448384
 30
0.0
 10
4.615748875165234
 20
8.258580261663392
 30
0.0
 10
4.620881894908757
 20
8.25009561254037
 30
0.0
 10
4.622464133195885
 20
8.247021455147273
 30
0.0
 10
4.625226779645843
 20
8.240372610054854
 30
0.0
 10
4.626424895237911
 20
8.236733902056486
 30
0.0
 10
4.627755832820604
 20
8.23103754369901
 30
0.0
 10
4.628125108780035
 20
8.229094304712985
 30
0.0
 10
4.628700009854241
 20
8.225111005659144
 30
0.0
 10
4.628905500528994
 20
8.223054919027314
 30
0.0
 10
4.629239593280928
 20
8.216929823996043
 30
0.0
 10
4.62909940010108
 20
8.212856221428387
 30
0.0
 10
4.628096576937205
 20
8.204749218961064
 30
0.0
 10
4.627260080108042
 20
8.200910444541181
 30
0.0
 10
4.625594290934792
 20
8.195421902225744
 30
0.0
 10
4.62497207665831
 20
8.193648177783029
 30
0.0
 10
4.623635826032618
 20
8.190264198320607
 30
0.0
 10
4.622918529155058
 20
8.188643095888184
 30
0.0
 10
4.620640261470605
 20
8.183966911827575
 30
0.0
 10
4.618938272885286
 20
8.181076290805066
 30
0.0
 10
4.615359045985376
 20
8.175826159893624
 30
0.0
 10
4.613487534686664
 20
8.17346619348667
 30
0.0
 10
4.609632569278007
 20
8.169158986393471
 30
0.0
 10
4.607648656319117
 20
8.167212914381262
 30
0.0
 10
4.603600774538804
 20
8.163666352908653
 30
0.0
 10
4.601549330804481
 20
8.162078493101273
 30
0.0
 10
4.595416989933881
 20
8.157822363162344
 30
0.0
 10
4.591326813453722
 20
8.155626459271437
 30
0.0
 10
4.585243187549057
 20
8.153029476547626
 30
0.0
 10
4.583223553647069
 20
8.152282048413095
 30
0.0
 10
4.579206784929403
 20
8.150996996032449
 30
0.0
 10
4.577206631878987
 20
8.150459193882954
 30
0.0
 10
4.567370639527363
 20
8.148262372202224
 30
0.0
 10
4.559951086372271
 20
8.148006960173461
 30
0.0
 10
4.549479547617201
 20
8.149115237890989
 30
0.0
 10
4.546098854842071
 20
8.149741410463811
 30
0.0
 10
4.539556228426553
 20
8.151448462974436
 30
0.0
 10
4.536386596446984
 20
8.152533056226613
 30
0.0
 10
4.527268173871655
 20
8.156395780791748
 30
0.0
 10
4.521717091754884
 20
8.159754564150541
 30
0.0
 10
4.51412625604726
 20
8.165950147666436
 30
0.0
 10
4.511719072531324
 20
8.168211414020002
 30
0.0
 10
4.507147928261341
 20
8.1731980759634
 30
0.0
 10
4.504983760196355
 20
8.175918818405947
 30
0.0
 10
4.500902861697322
 20
8.182023513304623
 30
0.0
 10
4.498994068263931
 20
8.185377009924574
 30
0.0
 10
4.49637727936131
 20
8.19127187665529
 30
0.0
 10
4.495551092534711
 20
8.193372246101873
 30
0.0
 10
4.494397980365955
 20
8.19687305007037
 30
0.0
 10
4.494028084964042
 20
8.198099254748767
 30
0.0
 10
4.493324026347918
 20
8.200724145065502
 30
0.0
 10
4.492988363920527
 20
8.202129398334995
 30
0.0
 10
4.492379890247189
 20
8.20514594130343
 30
0.0
 10
4.492102869513077
 20
8.206779317340583
 30
0.0
 10
4.491767045824365
 20
8.209408749998014
 30
0.0
 10
4.491668425266394
 20
8.210314166062723
 30
0.0
 10
4.491503648278703
 20
8.212197542799098
 30
0.0
 10
4.491437027579376
 20
8.213187224081974
 30
0.0
 10
4.491347431905791
 20
8.21519673958287
 30
0.0
 10
4.491324234847085
 20
8.21621098445683
 30
0.0
 10
4.491323477305427
 20
8.218259628348008
 30
0.0
 10
4.491346651349306
 20
8.219296749069553
 30
0.0
 10
4.491479150133254
 20
8.222299742057768
 30
0.0
 10
4.491653983879919
 20
8.224225524003915
 30
0.0
 10
4.492101447327125
 20
8.22773314183058
 30
0.0
 10
4.492377255505578
 20
8.229360763343198
 30
0.0
 10
4.492984729599677
 20
8.232375932001053
 30
0.0
 10
4.49331450047104
 20
8.233758052695078
 30
0.0
 10
4.494360316640287
 20
8.237668444040223
 30
0.0
 10
4.495134012026355
 20
8.23997023290677
 30
0.0
 10
4.496780520267511
 20
8.244230066678611
 30
0.0
 10
4.497645058682314
 20
8.24615984055328
 30
0.0
 10
4.499445730634939
 20
8.249776507745795
 30
0.0
 10
4.500382098096608
 20
8.251460481231558
 30
0.0
 10
4.503292853613257
 20
8.256247514951246
 30
0.0
 10
4.505368501440135
 20
8.259090639858998
 30
0.0
 10
4.509781970166125
 20
8.264318642195985
 30
0.0
 10
4.512126982110115
 20
8.266703378824863
 30
0.0
 10
4.51704359312391
 20
8.271050384092318
 30
0.0
 10
4.5196152596225
 20
8.273013535017272
 30
0.0
 10
4.527673632396798
 20
8.278325702737941
 30
0.0
 10
4.533502515934164
 20
8.281109094264165
 30
0.0
 10
4.542965275739174
 20
8.284044119854961
 30
0.0
 10
4.546239713133839
 20
8.284812479176235
 30
0.0
 10
4.551339262529283
 20
8.285605130734979
 30
0.0
 10
4.553070455147799
 20
8.285809129746225
 30
0.0
 10
4.555715513042922
 20
8.286016603477407
 30
0.0
 10
4.556605246249132
 20
8.286069320176114
 30
0.0
 10
4.558401048868059
 20
8.286140228397587
 30
0.0
 10
4.559298995737116
 20
8.286158420966702
 30
0.0
 10
4.567601436553582
 20
8.286158420966702
 30
0.0
  0
SPLINE
  5
2AC
330
1F
100
AcDbEntity
  8
0
  6
Continuous
 62
     7
370
    15
100
AcDbSpline
210
0.0
220
0.0
230
1.0
 70
     8
 71
     3
 72
    98
 73
    94
 74
     0
 42
0.00000001
 43
0.00000001
 40
-0.0078125000000002
 40
-0.0078125000000002
 40
0.0
 40
0.0
 40
0.0625000000000012
 40
0.0625000000000012
 40
0.1250000000000025
 40
0.1250000000000025
 40
0.1562500000000031
 40
0.1562500000000031
 40
0.1875000000000037
 40
0.1875000000000037
 40
0.2187500000000043
 40
0.2187500000000043
 40
0.2343750000000046
 40
0.2343750000000046
 40
0.2500000000000049
 40
0.2500000000000049
 40
0.2656250000000052
 40
0.2656250000000052
 40
0.2734375000000051
 40
0.2734375000000051
 40
0.2812500000000051
 40
0.2812500000000051
 40
0.2851562500000051
 40
0.2851562500000051
 40
0.2890625000000051
 40
0.2890625000000051
 40
0.292968750000005
 40
0.292968750000005
 40
0.296875000000005
 40
0.296875000000005
 40
0.3046875000000048
 40
0.3046875000000048
 40
0.3125000000000046
 40
0.3125000000000046
 40
0.3281250000000043
 40
0.3281250000000043
 40
0.343750000000004
 40
0.343750000000004
 40
0.3750000000000031
 40
0.3750000000000031
 40
0.4062500000000023
 40
0.4062500000000023
 40
0.4375000000000014
 40
0.4375000000000014
 40
0.4999999999999998
 40
0.4999999999999998
 40
0.5624999999999983
 40
0.5624999999999983
 40
0.5937499999999977
 40
0.5937499999999977
 40
0.6249999999999969
 40
0.6249999999999969
 40
0.6562499999999962
 40
0.6562499999999962
 40
0.6874999999999954
 40
0.6874999999999954
 40
0.7187499999999948
 40
0.7187499999999948
 40
0.7343749999999947
 40
0.7343749999999947
 40
0.7499999999999944
 40
0.7499999999999944
 40
0.7656249999999943
 40
0.7656249999999943
 40
0.7734374999999944
 40
0.7734374999999944
 40
0.7812499999999944
 40
0.7812499999999944
 40
0.7968749999999944
 40
0.7968749999999944
 40
0.8124999999999944
 40
0.8124999999999944
 40
0.8203124999999946
 40
0.8203124999999946
 40
0.8281249999999947
 40
0.8281249999999947
 40
0.8437499999999951
 40
0.8437499999999951
 40
0.8593749999999956
 40
0.8593749999999956
 40
0.874999999999996
 40
0.874999999999996
 40
0.9062499999999969
 40
0.9062499999999969
 40
0.9374999999999979
 40
0.9374999999999979
 40
0.9687499999999988
 40
0.9687499999999988
 40
0.9843749999999993
 40
0.9843749999999993
 40
0.9921874999999998
 40
0.9921874999999998
 40
1.0
 40
1.0
 40
1.062500000000001
 40
1.062500000000001
 10
4.561137407798572
 20
7.821532436714732
 30
0.0
 10
4.552894140061933
 20
7.821532436714732
 30
0.0
 10
4.546093425721927
 20
7.822672335041034
 30
0.0
 10
4.533449443409518
 20
7.826602408088933
 30
0.0
 10
4.527607270335658
 20
7.829398418440655
 30
0.0
 10
4.519530636980664
 20
7.834738463856404
 30
0.0
 10
4.516953156128221
 20
7.836712416795239
 30
0.0
 10
4.51202563564506
 20
7.841085418288033
 30
0.0
 10
4.509683267739687
 20
7.843477050906877
 30
0.0
 10
4.505261110627598
 20
7.848740087206467
 30
0.0
 10
4.503173392957943
 20
7.851615024626522
 30
0.0
 10
4.500252856114741
 20
7.856456558864179
 30
0.0
 10
4.499317104551412
 20
7.85815557533159
 30
0.0
 10
4.497526229154707
 20
7.861789338928793
 30
0.0
 10
4.496670843927275
 20
7.863721738229051
 30
0.0
 10
4.495053169758862
 20
7.867955424728089
 30
0.0
 10
4.49428962454323
 20
7.870245857893632
 30
0.0
 10
4.493242375509551
 20
7.874226215467353
 30
0.0
 10
4.492908144698456
 20
7.875656901503771
 30
0.0
 10
4.49230685634626
 20
7.878728124542409
 30
0.0
 10
4.492034862022279
 20
7.880394967729508
 30
0.0
 10
4.49171182817105
 20
7.883073472474122
 30
0.0
 10
4.491618227580028
 20
7.883995621469906
 30
0.0
 10
4.491465338888168
 20
7.885913274189845
 30
0.0
 10
4.491405716235367
 20
7.886921724273217
 30
0.0
 10
4.491332139606986
 20
7.888954729546549
 30
0.0
 10
4.491317615695917
 20
7.889978384512028
 30
0.0
 10
4.491334960339054
 20
7.892040648696377
 30
0.0
 10
4.491367438683769
 20
7.893076330016408
 30
0.0
 10
4.491525988535732
 20
7.896069795594511
 30
0.0
 10
4.491716002008891
 20
7.897976357702422
 30
0.0
 10
4.49218754950137
 20
7.901445119419489
 30
0.0
 10
4.492473245831134
 20
7.903054676680101
 30
0.0
 10
4.493409542633381
 20
7.907527750869541
 30
0.0
 10
4.494129721090352
 20
7.910044683746691
 30
0.0
 10
4.495685247010794
 20
7.914677304276368
 30
0.0
 10
4.49652631444366
 20
7.916780530421435
 30
0.0
 10
4.499150474222159
 20
7.922607160909315
 30
0.0
 10
4.501048712545032
 20
7.9259078041433
 30
0.0
 10
4.505108591541003
 20
7.931934957455336
 30
0.0
 10
4.507271681573926
 20
7.934641643892268
 30
0.0
 10
4.511861012278551
 20
7.939619598460279
 30
0.0
 10
4.51429487345206
 20
7.941892370788523
 30
0.0
 10
4.521931980293787
 20
7.948082029415168
 30
0.0
 10
4.527473109638212
 20
7.951396020317931
 30
0.0
 10
4.539477428483194
 20
7.956452698331111
 30
0.0
 10
4.545940169104126
 20
7.958193047357619
 30
0.0
 10
4.556369095928071
 20
7.959308711144553
 30
0.0
 10
4.559968169013604
 20
7.959428307378497
 30
0.0
 10
4.567424807645372
 20
7.959051736635654
 30
0.0
 10
4.571297705634627
 20
7.958550476678265
 30
0.0
 10
4.579151288960086
 20
7.95679824792547
 30
0.0
 10
4.583146664336921
 20
7.955550487765103
 30
0.0
 10
4.591241634733097
 20
7.952106508000034
 30
0.0
 10
4.595341992246174
 20
7.949916345803524
 30
0.0
 10
4.603590940650757
 20
7.94419955364866
 30
0.0
 10
4.607661271553258
 20
7.940732744461687
 30
0.0
 10
4.613496170573772
 20
7.934215855080089
 30
0.0
 10
4.615387645255614
 20
7.931824720082948
 30
0.0
 10
4.618937133628711
 20
7.926614249989175
 30
0.0
 10
4.620606859532349
 20
7.923784820280888
 30
0.0
 10
4.623653332505465
 20
7.917547103666045
 30
0.0
 10
4.625033312762416
 20
7.914109263022705
 30
0.0
 10
4.626689291404603
 20
7.908665033984574
 30
0.0
 10
4.62717691874349
 20
7.90679374620759
 30
0.0
 10
4.628005654261305
 20
7.902924323733423
 30
0.0
 10
4.628345270825811
 20
7.900923196966941
 30
0.0
 10
4.629091217243701
 20
7.894916505305601
 30
0.0
 10
4.629241700374878
 20
7.890826031483853
 30
0.0
 10
4.628794622588035
 20
7.882576940744974
 30
0.0
 10
4.628211025972798
 20
7.878604568368301
 30
0.0
 10
4.626866894333112
 20
7.872847177489438
 30
0.0
 10
4.626343091453132
 20
7.870978628693676
 30
0.0
 10
4.62518286176662
 20
7.867398680648195
 30
0.0
 10
4.624543769811844
 20
7.865675856779326
 30
0.0
 10
4.622472429266759
 20
7.860686582635106
 30
0.0
 10
4.620871389746136
 20
7.857577813964858
 30
0.0
 10
4.617469638297755
 20
7.851955006162725
 30
0.0
 10
4.615660108369251
 20
7.849412550270137
 30
0.0
 10
4.611886482479202
 20
7.844750689007194
 30
0.0
 10
4.609909863380512
 20
7.842621997816852
 30
0.0
 10
4.603916621145215
 20
7.836873852852472
 30
0.0
 10
4.599833978736563
 20
7.833856139906225
 30
0.0
 10
4.591637140535289
 20
7.828925470977804
 30
0.0
 10
4.587500060653529
 20
7.827016979409314
 30
0.0
 10
4.579411134080594
 20
7.824119452278122
 30
0.0
 10
4.575447533093751
 20
7.82312120907815
 30
0.0
 10
4.569635657560798
 20
7.822150386838194
 30
0.0
 10
4.567720560968682
 20
7.821915459335183
 30
0.0
 10
4.564882345451775
 20
7.821683715103875
 30
0.0
 10
4.563942009820984
 20
7.821626608254991
 30
0.0
 10
4.562072979507303
 20
7.821550968634687
 30
0.0
 10
4.561137407798572
 20
7.821532436714732
 30
0.0
 10
4.552894140061933
 20
7.821532436714732
 30
0.0
  0
SPLINE
  5
2AD
330
1F
100
AcDbEntity
  8
0
  6
Continuous
 62
     7
370
    15
100
AcDbSpline
210
0.0
220
0.0
230
1.0
 70
     8
 71
     3
 72
    88
 73
    84
 74
     0
 42
0.00000001
 43
0.00000001
 40
-0.0312499999999993
 40
-0.0312499999999993
 40
0.0
 40
0.0
 40
0.0312499999999998
 40
0.0312499999999998
 40
0.0468749999999996
 40
0.0468749999999996
 40
0.0624999999999995
 40
0.0624999999999995
 40
0.0937499999999992
 40
0.0937499999999992
 40
0.124999999999999
 40
0.124999999999999
 40
0.1562499999999987
 40
0.1562499999999987
 40
0.1718749999999986
 40
0.1718749999999986
 40
0.1874999999999985
 40
0.2031249999999983
 40
0.2031249999999983
 40
0.2187499999999982
 40
0.2187499999999982
 40
0.249999999999998
 40
0.249999999999998
 40
0.2812499999999977
 40
0.2812499999999977
 40
0.3124999999999974
 40
0.3124999999999974
 40
0.3281249999999975
 40
0.3281249999999975
 40
0.3437499999999976
 40
0.3437499999999976
 40
0.3749999999999977
 40
0.3749999999999977
 40
0.4062499999999978
 40
0.4062499999999978
 40
0.4218749999999981
 40
0.4218749999999981
 40
0.4374999999999983
 40
0.4374999999999983
 40
0.4687499999999987
 40
0.4687499999999987
 40
0.4999999999999991
 40
0.4999999999999991
 40
0.5312499999999996
 40
0.5312499999999996
 40
0.5468749999999998
 40
0.5468749999999998
 40
0.5625
 40
0.5781250000000002
 40
0.5781250000000002
 40
0.5937500000000003
 40
0.5937500000000003
 40
0.625000000000001
 40
0.625000000000001
 40
0.6562500000000017
 40
0.6562500000000017
 40
0.6875000000000023
 40
0.6875000000000023
 40
0.7031250000000027
 40
0.7031250000000027
 40
0.718750000000003
 40
0.718750000000003
 40
0.7500000000000031
 40
0.7500000000000031
 40
0.7812500000000033
 40
0.7812500000000033
 40
0.7968750000000032
 40
0.7968750000000032
 40
0.8125000000000031
 40
0.8125000000000031
 40
0.8437500000000028
 40
0.8437500000000028
 40
0.8750000000000024
 40
0.8750000000000024
 40
0.9062500000000021
 40
0.9062500000000021
 40
0.9218750000000017
 40
0.9218750000000017
 40
0.9375000000000013
 40
0.9375000000000013
 40
0.9687500000000007
 40
0.9687500000000007
 40
1.0
 40
1.0
 40
1.03125
 40
1.03125
 10
4.822950039097557
 20
8.049466687674489
 30
0.0
 10
4.822950039097557
 20
8.058224170006945
 30
0.0
 10
4.823304546347867
 20
8.062529374698991
 30
0.0
 10
4.824347584577231
 20
8.068881472154438
 30
0.0
 10
4.824781139452013
 20
8.0709810891834
 30
0.0
 10
4.825824506035938
 20
8.07514403738028
 30
0.0
 10
4.826437171068353
 20
8.07721263487172
 30
0.0
 10
4.828503214517356
 20
8.08322921184873
 30
0.0
 10
4.830191176002672
 20
8.08703370579415
 30
0.0
 10
4.834191264672305
 20
8.094233867578378
 30
0.0
 10
4.836524045792219
 20
8.09764153762828
 30
0.0
 10
4.841638812343042
 20
8.103750073046593
 30
0.0
 10
4.844438484654567
 20
8.106491808066236
 30
0.0
 10
4.849018519326605
 20
8.110124192441146
 30
0.0
 10
4.850607695651737
 20
8.111251440318798
 30
0.0
 10
4.853845207398855
 20
8.113294940736472
 30
0.0
 10
4.857158626197996
 20
8.115141434959222
 30
0.0
 10
4.860623705072782
 20
8.116599584556413
 30
0.0
 10
4.864166560192856
 20
8.117860748051134
 30
0.0
 10
4.865986910906202
 20
8.118394929871688
 30
0.0
 10
4.871490839566137
 20
8.119671803119266
 30
0.0
 10
4.875197121669204
 20
8.120093079400077
 30
0.0
 10
4.88268374527311
 20
8.120097758870429
 30
0.0
 10
4.886503968355336
 20
8.119667414129712
 30
0.0
 10
4.893931130187238
 20
8.117976806094628
 30
0.0
 10
4.897557845430273
 20
8.116725931167464
 30
0.0
 10
4.90286277597929
 20
8.114237531457587
 30
0.0
 10
4.904617323460973
 20
8.113299277810311
 30
0.0
 10
4.908013507294355
 20
8.111248905707198
 30
0.0
 10
4.909659542851087
 20
8.110136059803812
 30
0.0
 10
4.914443578896308
 20
8.106540642694616
 30
0.0
 10
4.917429095503235
 20
8.103803725242601
 30
0.0
 10
4.922966256247346
 20
8.097621871515607
 30
0.0
 10
4.925429299384213
 20
8.09427487185803
 30
0.0
 10
4.928668621010261
 20
8.088895960247996
 30
0.0
 10
4.929672488179404
 20
8.087042231004613
 30
0.0
 10
4.931523892417109
 20
8.083210445787982
 30
0.0
 10
4.93237326687052
 20
8.081224818000438
 30
0.0
 10
4.934628491162449
 20
8.075206351260395
 30
0.0
 10
4.935764361282583
 20
8.071076912100729
 30
0.0
 10
4.937302342029997
 20
8.062585797885164
 30
0.0
 10
4.937696978095709
 20
8.05819376649486
 30
0.0
 10
4.937699824191499
 20
8.049545169089003
 30
0.0
 10
4.937320786871681
 20
8.04524617211739
 30
0.0
 10
4.936170338805593
 20
8.038836459929595
 30
0.0
 10
4.935687824602886
 20
8.036706899162125
 30
0.0
 10
4.934548913024957
 20
8.032555058468926
 30
0.0
 10
4.933232430578586
 20
8.028486081769293
 30
0.0
 10
4.931568046728479
 20
8.024580097993228
 30
0.0
 10
4.929728456837911
 20
8.020756600655195
 30
0.0
 10
4.928715217483065
 20
8.018876714131459
 30
0.0
 10
4.925448204402315
 20
8.01343871635076
 30
0.0
 10
4.922987816805795
 20
8.0101017161992
 30
0.0
 10
4.917527075370566
 20
8.003988048326711
 30
0.0
 10
4.914489513064771
 20
8.001188585375148
 30
0.0
 10
4.908092168550272
 20
7.996373040966799
 30
0.0
 10
4.90472496663734
 20
7.994335320867915
 30
0.0
 10
4.899425786900564
 20
7.991837055477851
 30
0.0
 10
4.897607292199892
 20
7.991094916169339
 30
0.0
 10
4.893951021736801
 20
7.989828338548127
 30
0.0
 10
4.892111415921808
 20
7.98930152456093
 30
0.0
 10
4.886559878482339
 20
7.988032857614442
 30
0.0
 10
4.882815652246748
 20
7.987599732028259
 30
0.0
 10
4.875239391598832
 20
7.98759118883862
 30
0.0
 10
4.871518412521311
 20
7.988017705005554
 30
0.0
 10
4.866067365870032
 20
7.989274804120006
 30
0.0
 10
4.86427019774572
 20
7.989797488244037
 30
0.0
 10
4.860715765975504
 20
7.991054459907327
 30
0.0
 10
4.858951742698529
 20
7.991793036575965
 30
0.0
 10
4.853829330987769
 20
7.994283735804228
 30
0.0
 10
4.850606921059899
 20
7.996315977578869
 30
0.0
 10
4.844533521669947
 20
8.00111484810939
 30
0.0
 10
4.841668754525629
 20
8.00390935947275
 30
0.0
 10
4.836548529061826
 20
8.01001579106706
 30
0.0
 10
4.834260109442401
 20
8.013346915150066
 30
0.0
 10
4.831235936829502
 20
8.018769927645014
 30
0.0
 10
4.830296901175483
 20
8.020651350996925
 30
0.0
 10
4.828596893299582
 20
8.024475074640112
 30
0.0
 10
4.827829930097632
 20
8.026427340770661
 30
0.0
 10
4.825772680307042
 20
8.032403488336412
 30
0.0
 10
4.82472025583943
 20
8.036566301478787
 30
0.0
 10
4.823304579721715
 20
8.045135263088747
 30
0.0
 10
4.822950039097557
 20
8.049466687674489
 30
0.0
 10
4.822950039097557
 20
8.058224170006945
 30
0.0
  0
SPLINE
  5
2AE
330
1F
100
AcDbEntity
  8
0
  6
Continuous
 62
     7
370
    15
100
AcDbSpline
210
0.0
220
0.0
230
1.0
 70
     8
 71
     3
 72
    88
 73
    84
 74
     0
 42
0.00000001
 43
0.00000001
 40
-0.0312499999999994
 40
-0.0312499999999994
 40
0.0
 40
0.0
 40
0.0312499999999985
 40
0.0312499999999985
 40
0.0468749999999977
 40
0.0468749999999977
 40
0.0624999999999969
 40
0.0624999999999969
 40
0.0937499999999954
 40
0.0937499999999954
 40
0.124999999999994
 40
0.124999999999994
 40
0.1562499999999925
 40
0.1562499999999925
 40
0.1718749999999921
 40
0.1718749999999921
 40
0.1874999999999917
 40
0.2031249999999913
 40
0.2031249999999913
 40
0.2187499999999908
 40
0.2187499999999908
 40
0.2499999999999901
 40
0.2499999999999901
 40
0.2812499999999893
 40
0.2812499999999893
 40
0.3124999999999885
 40
0.3124999999999885
 40
0.3281249999999885
 40
0.3281249999999885
 40
0.3437499999999885
 40
0.3437499999999885
 40
0.3749999999999889
 40
0.3749999999999889
 40
0.4062499999999893
 40
0.4062499999999893
 40
0.4218749999999896
 40
0.4218749999999896
 40
0.43749999999999
 40
0.43749999999999
 40
0.4687499999999908
 40
0.4687499999999908
 40
0.4999999999999918
 40
0.4999999999999918
 40
0.5312499999999927
 40
0.5312499999999927
 40
0.5468749999999931
 40
0.5468749999999931
 40
0.5624999999999934
 40
0.5781249999999938
 40
0.5781249999999938
 40
0.5937499999999941
 40
0.5937499999999941
 40
0.6249999999999951
 40
0.6249999999999951
 40
0.6562499999999962
 40
0.6562499999999962
 40
0.6874999999999972
 40
0.6874999999999972
 40
0.703124999999998
 40
0.703124999999998
 40
0.7187499999999989
 40
0.7187499999999989
 40
0.7500000000000004
 40
0.7500000000000004
 40
0.7812500000000014
 40
0.7812500000000014
 40
0.7968750000000017
 40
0.7968750000000017
 40
0.8125000000000018
 40
0.8125000000000018
 40
0.8437500000000017
 40
0.8437500000000017
 40
0.8750000000000016
 40
0.8750000000000016
 40
0.9062500000000016
 40
0.9062500000000016
 40
0.9218750000000013
 40
0.9218750000000013
 40
0.9375000000000011
 40
0.9375000000000011
 40
0.9687500000000006
 40
0.9687500000000006
 40
1.0
 40
1.0
 40
1.031249999999998
 40
1.031249999999998
 10
5.862975412954619
 20
8.049466687674489
 30
0.0
 10
5.862975412954619
 20
8.058224170006945
 30
0.0
 10
5.863278897056837
 20
8.062529374698991
 30
0.0
 10
5.864168287887562
 20
8.068881472154438
 30
0.0
 10
5.864537609066118
 20
8.0709810891834
 30
0.0
 10
5.865424332814928
 20
8.07514403738028
 30
0.0
 10
5.865944137365997
 20
8.07721263487172
 30
0.0
 10
5.867691875210631
 20
8.08322921184873
 30
0.0
 10
5.869113950157232
 20
8.08703370579415
 30
0.0
 10
5.872454503587728
 20
8.094233867578378
 30
0.0
 10
5.874389658260005
 20
8.09764153762828
 30
0.0
 10
5.878587186007202
 20
8.103750073046593
 30
0.0
 10
5.88086462557865
 20
8.106491808066236
 30
0.0
 10
5.884544295029237
 20
8.110124192441146
 30
0.0
 10
5.885813877087295
 20
8.111251440318798
 30
0.0
 10
5.888384077894895
 20
8.11329494060047
 30
0.0
 10
5.890998809145386
 20
8.115141434959222
 30
0.0
 10
5.893698454221456
 20
8.116599584556413
 30
0.0
 10
5.896439969421683
 20
8.117860748051134
 30
0.0
 10
5.897839302667271
 20
8.118394929871688
 30
0.0
 10
5.9020405990173
 20
8.119671803119266
 30
0.0
 10
5.904830943138822
 20
8.120093079400077
 30
0.0
 10
5.910388152696417
 20
8.120097758870429
 30
0.0
 10
5.913183354201283
 20
8.119667414129712
 30
0.0
 10
5.918542232356615
 20
8.117976806094628
 30
0.0
 10
5.921121450722563
 20
8.116725931167464
 30
0.0
 10
5.924845593765141
 20
8.114237531457587
 30
0.0
 10
5.92606887740248
 20
8.113299277810311
 30
0.0
 10
5.928421823161216
 20
8.111248905707198
 30
0.0
 10
5.929554668482338
 20
8.110136059803812
 30
0.0
 10
5.932827997794727
 20
8.106540642694616
 30
0.0
 10
5.934844393055279
 20
8.103803725242601
 30
0.0
 10
5.93854805314075
 20
8.097621871515607
 30
0.0
 10
5.940176249591683
 20
8.09427487185803
 30
0.0
 10
5.942302557427808
 20
8.088895960247996
 30
0.0
 10
5.942958585279815
 20
8.087042231004613
 30
0.0
 10
5.944164556864671
 20
8.083210445787982
 30
0.0
 10
5.944715673542984
 20
8.081224818000438
 30
0.0
 10
5.946175226615404
 20
8.075206351260395
 30
0.0
 10
5.946905076593541
 20
8.071076912100729
 30
0.0
 10
5.947891787485826
 20
8.062585797885164
 30
0.0
 10
5.948143858457736
 20
8.05819376649486
 30
0.0
 10
5.948145678958314
 20
8.049545169089003
 30
0.0
 10
5.94790359483801
 20
8.04524617211739
 30
0.0
 10
5.947165549146648
 20
8.038836459929595
 30
0.0
 10
5.946855652564791
 20
8.036706899162125
 30
0.0
 10
5.946122316819005
 20
8.032555057778744
 30
0.0
 10
5.945273068977032
 20
8.028486081769293
 30
0.0
 10
5.944193239482058
 20
8.02458009799323
 30
0.0
 10
5.942995116802501
 20
8.020756600655195
 30
0.0
 10
5.942333074304806
 20
8.018876714131459
 30
0.0
 10
5.940188794027216
 20
8.01343871635076
 30
0.0
 10
5.938562194015306
 20
8.0101017161992
 30
0.0
 10
5.934910203531553
 20
8.003988048326711
 30
0.0
 10
5.932859222777094
 20
8.001188585375148
 30
0.0
 10
5.928482442627956
 20
7.996373040966799
 30
0.0
 10
5.926152260422508
 20
7.994335320867915
 30
0.0
 10
5.922433071701091
 20
7.991837055477851
 30
0.0
 10
5.921148356055463
 20
7.991094916169339
 30
0.0
 10
5.918546963222448
 20
7.989828338548127
 30
0.0
 10
5.917229116777438
 20
7.98930152456093
 30
0.0
 10
5.91322398443156
 20
7.988032857614442
 30
0.0
 10
5.910485442594256
 20
7.987599732028259
 30
0.0
 10
5.904862928017155
 20
7.98759118883862
 30
0.0
 10
5.90206120424135
 20
7.988017705005554
 30
0.0
 10
5.897900931393218
 20
7.989274804120006
 30
0.0
 10
5.896519817952564
 20
7.989797488244037
 30
0.0
 10
5.893770021497317
 20
7.991054459907327
 30
0.0
 10
5.892395961299368
 20
7.991793036575965
 30
0.0
 10
5.888380448129128
 20
7.994283735804228
 30
0.0
 10
5.88581995247055
 20
7.996315977578869
 30
0.0
 10
5.880941455956167
 20
8.00111484810939
 30
0.0
 10
5.878611613201093
 20
8.00390935947275
 30
0.0
 10
5.874409894782333
 20
8.01001579106706
 30
0.0
 10
5.872511768848565
 20
8.013346915150066
 30
0.0
 10
5.869986560418012
 20
8.018769927645014
 30
0.0
 10
5.869199205612602
 20
8.020651350996925
 30
0.0
 10
5.867769569384408
 20
8.024475074640112
 30
0.0
 10
5.867122293155895
 20
8.026427340770661
 30
0.0
 10
5.865382075291935
 20
8.032403488336412
 30
0.0
 10
5.864486042452786
 20
8.036566301478787
 30
0.0
 10
5.863278944583429
 20
8.045135263088747
 30
0.0
 10
5.862975412954619
 20
8.049466687674489
 30
0.0
 10
5.862975412954619
 20
8.058224170006945
 30
0.0
  0
LINE
  5
2AF
330
1F
100
AcDbEntity
  8
0
  6
Continuous
 62
     7
370
    15
100
AcDbLine
 10
4.4852214892
 20
8.3513454288
 30
0.0
 11
6.0852214892
 21
8.3513454288
 31
0.0
  0
ARC
  5
2B0
330
1F
100
AcDbEntity
  8
0
  6
Continuous
 62
     7
370
    15
100
AcDbCircle
 10
4.9175675428
 20
8.0506749806
 30
0.0
 40
0.0647978454062286
100
AcDbArc
 50
177.195495331
 51
248.980004841
  0
ARC
  5
2B1
330
1F
100
AcDbEntity
  8
0
  6
Continuous
 62
     7
370
    15
100
AcDbCircle
 10
4.9177577624
 20
8.0568201897
 30
0.0
 40
0.0649785851678687
100
AcDbArc
 50
109.8763300244
 51
182.6239542792
  0
ARC
  5
2B2
330
1F
100
AcDbEntity
  8
0
  6
Continuous
 62
     7
370
    15
100
AcDbCircle
 10
5.8159163635
 20
8.0538485636
 30
0.0
 40
0.087113519056366
100
AcDbArc
 50
320.6978280906
 51
39.2674205299
  0
LINE
  5
2B3
330
1F
100
AcDbEntity
  8
0
  6
Continuous
 62
     7
370
    15
100
AcDbLine
 10
5.2852214892
 20
7.5475954288
 30
0.0
 11
5.7539714892
 21
7.5475954288
 31
0.0
  0
LINE
  5
2B4
330
1F
100
AcDbEntity
  8
0
  6
Continuous
 62
     7
370
    15
100
AcDbLine
 10
4.8164714892
 20
7.5475954288
 30
0.0
 11
5.2852214892
 21
7.5475954288
 31
0.0
  0
LINE
  5
2B5
330
1F
100
AcDbEntity
  8
0
  6
Continuous
 62
     7
370
    15
100
AcDbLine
 10
5.2852214892
 20
8.5600954288
 30
0.0
 11
5.7539714892
 21
8.5600954288
 31
0.0
  0
LINE
  5
2B6
330
1F
100
AcDbEntity
  8
0
  6
Continuous
 62
     7
370
    15
100
AcDbLine
 10
4.8164714892
 20
8.5600954288
 30
0.0
 11
5.2852214892
 21
8.5600954288
 31
0.0
  0
CIRCLE
  5
2B7
330
1F
100
AcDbEntity
  8
0
  6
Continuous
 62
     7
370
    15
100
AcDbCircle
 10
4.5602214892
 20
8.0538454288
 30
0.0
 40
0.0356200787401573
  0
CIRCLE
  5
2B8
330
1F
100
AcDbEntity
  8
0
  6
Continuous
 62
     7
370
    15
100
AcDbCircle
 10
4.5602214892
 20
8.0538454288
 30
0.0
 40
0.0393700787401574
  0
CIRCLE
  5
2B9
330
1F
100
AcDbEntity
  8
0
  6
Continuous
 62
     7
370
    15
100
AcDbCircle
 10
4.5602214892
 20
7.8904304288
 30
0.0
 40
0.0602263779527572
  0
CIRCLE
  5
2BA
330
1F
100
AcDbEntity
  8
0
  6
Continuous
 62
     7
370
    15
100
AcDbCircle
 10
4.5602214892
 20
7.8904304288
 30
0.0
 40
0.0639763779527565
  0
LINE
  5
2BB
330
1F
100
AcDbEntity
  8
0
  6
Continuous
 62
     7
370
    15
100
AcDbLine
 10
4.5897490482
 20
7.8733826847
 30
0.0
 11
4.5602214892
 21
7.8563349405
 31
0.0
  0
LINE
  5
2BC
330
1F
100
AcDbEntity
  8
0
  6
Continuous
 62
     7
370
    15
100
AcDbLine
 10
4.5897490482
 20
7.907478173
 30
0.0
 11
4.5897490482
 21
7.8733826847
 31
0.0
  0
LINE
  5
2BD
330
1F
100
AcDbEntity
  8
0
  6
Continuous
 62
     7
370
    15
100
AcDbLine
 10
4.5602214892
 20
7.9245259172
 30
0.0
 11
4.5897490482
 21
7.907478173
 31
0.0
  0
LINE
  5
2BE
330
1F
100
AcDbEntity
  8
0
  6
Continuous
 62
     7
370
    15
100
AcDbLine
 10
4.5306939301
 20
7.907478173
 30
0.0
 11
4.5602214892
 21
7.9245259172
 31
0.0
  0
LINE
  5
2BF
330
1F
100
AcDbEntity
  8
0
  6
Continuous
 62
     7
370
    15
100
AcDbLine
 10
4.5306939301
 20
7.8733826847
 30
0.0
 11
4.5306939301
 21
7.907478173
 31
0.0
  0
LINE
  5
2C0
330
1F
100
AcDbEntity
  8
0
  6
Continuous
 62
     7
370
    15
100
AcDbLine
 10
4.5602214892
 20
7.8563349405
 30
0.0
 11
4.5306939301
 21
7.8733826847
 31
0.0
  0
CIRCLE
  5
2C1
330
1F
100
AcDbEntity
  8
0
  6
Continuous
 62
     7
370
    15
100
AcDbCircle
 10
4.5602214892
 20
8.2172604288
 30
0.0
 40
0.0602263779527554
  0
CIRCLE
  5
2C2
330
1F
100
AcDbEntity
  8
0
  6
Continuous
 62
     7
370
    15
100
AcDbCircle
 10
4.5602214892
 20
8.2172604288
 30
0.0
 40
0.0639763779527556
  0
LINE
  5
2C3
330
1F
100
AcDbEntity
  8
0
  6
Continuous
 62
     7
370
    15
100
AcDbLine
 10
4.5897490482
 20
8.2002126847
 30
0.0
 11
4.5602214892
 21
8.1831649405
 31
0.0
  0
LINE
  5
2C4
330
1F
100
AcDbEntity
  8
0
  6
Continuous
 62
     7
370
    15
100
AcDbLine
 10
4.5897490482
 20
8.234308173
 30
0.0
 11
4.5897490482
 21
8.2002126847
 31
0.0
  0
LINE
  5
2C5
330
1F
100
AcDbEntity
  8
0
  6
Continuous
 62
     7
370
    15
100
AcDbLine
 10
4.5602214892
 20
8.2513559172
 30
0.0
 11
4.5897490482
 21
8.234308173
 31
0.0
  0
LINE
  5
2C6
330
1F
100
AcDbEntity
  8
0
  6
Continuous
 62
     7
370
    15
100
AcDbLine
 10
4.5306939301
 20
8.234308173
 30
0.0
 11
4.5602214892
 21
8.2513559172
 31
0.0
  0
LINE
  5
2C7
330
1F
100
AcDbEntity
  8
0
  6
Continuous
 62
     7
370
    15
100
AcDbLine
 10
4.5306939301
 20
8.2002126847
 30
0.0
 11
4.5306939301
 21
8.234308173
 31
0.0
  0
LINE
  5
2C8
330
1F
100
AcDbEntity
  8
0
  6
Continuous
 62
     7
370
    15
100
AcDbLine
 10
4.5602214892
 20
8.1831649405
 30
0.0
 11
4.5306939301
 21
8.2002126847
 31
0.0
  0
LINE
  5
2C9
330
1F
100
AcDbEntity
  8
0
  6
HIDDEN
 62
     7
370
     0
100
AcDbLine
 10
5.8631921511
 20
8.0575418484
 30
0.0
 11
5.8631028296
 21
8.0521905473
 31
0.0
  0
LINE
  5
2CA
330
1F
100
AcDbEntity
  8
0
  6
HIDDEN
 62
     7
370
     0
100
AcDbLine
 10
5.903230872
 20
7.9881662986
 30
0.0
 11
5.9076322601
 21
7.9876254269
 31
0.0
  0
LINE
  5
2CB
330
1F
100
AcDbEntity
  8
0
  6
HIDDEN
 62
     7
370
     0
100
AcDbLine
 10
4.8789855524
 20
8.1198859328
 30
0.0
 11
4.8742015562
 21
8.1197223856
 31
0.0
  0
LINE
  5
2CC
330
1F
100
AcDbEntity
  8
0
  6
HIDDEN
 62
     7
370
     0
100
AcDbLine
 10
4.8232011342
 20
8.0574260405
 30
0.0
 11
4.8230986601
 21
8.0521977917
 31
0.0
  0
LINE
  5
2CD
330
1F
100
AcDbEntity
  8
0
  6
HIDDEN
 62
     7
370
     0
100
AcDbLine
 10
4.874033785
 20
7.988081289
 30
0.0
 11
4.8789747803
 21
7.9876254269
 31
0.0
  0
LWPOLYLINE
  5
2CE
330
1F
100
AcDbEntity
  8
0
  6
HIDDEN
 62
     7
370
     0
100
AcDbPolyline
 90
       24
 70
   128
 43
0.0
 10
4.8943249619
 20
7.990189088
 10
4.9033057956
 20
7.9880784659
 10
4.9125317146
 20
7.9876491577
 10
4.9216977999
 20
7.9889342981
 10
4.9305666548
 20
7.9919006028
 10
4.9389085807
 20
7.9964712458
 10
4.9465075259
 20
8.0025278501
 10
4.9531666818
 20
8.0099135527
 10
4.9587135798
 20
8.0184370679
 10
4.9630045581
 20
8.0278776409
 10
4.9659284827
 20
8.0379907661
 10
4.9674096254
 20
8.0485145187
 10
4.9674096254
 20
8.059176339
 10
4.9659284827
 20
8.0697000916
 10
4.9630045581
 20
8.0798132167
 10
4.9587135798
 20
8.0892537898
 10
4.9531666818
 20
8.0977773049
 10
4.9465075259
 20
8.1051630076
 10
4.9389085807
 20
8.1112196118
 10
4.9305666548
 20
8.1157902549
 10
4.9216977999
 20
8.1187565595
 10
4.9125317146
 20
8.1200417
 10
4.9033057956
 20
8.1196123917
 10
4.8956656237
 20
8.1179279138
  0
LWPOLYLINE
  5
2CF
330
1F
100
AcDbEntity
  8
0
  6
HIDDEN
 62
     7
370
     0
100
AcDbPolyline
 90
       15
 70
   128
 43
0.0
 10
5.8171701424
 20
8.0538454288
 10
5.8177216028
 20
8.0432181815
 10
5.8193617015
 20
8.0328661743
 10
5.8220479608
 20
8.0230575187
 10
5.8257108079
 20
8.0140462538
 10
5.8302553772
 20
8.0060657667
 10
5.8355639665
 20
7.9993227477
 10
5.8414990863
 20
7.9939918375
 10
5.8479070201
 20
7.9902111039
 10
5.8546218056
 20
7.9880784659
 10
5.8614695336
 20
7.9876491577
 10
5.8682728515
 20
7.9889342981
 10
5.8748555568
 20
7.9919006028
 10
5.8810471611
 20
7.9964712458
 10
5.8833262157
 20
7.9986699715
  0
LWPOLYLINE
  5
2D0
330
1F
100
AcDbEntity
  8
0
  6
HIDDEN
 62
     7
370
     0
100
AcDbPolyline
 90
       15
 70
   128
 43
0.0
 10
5.8833596706
 20
8.1089862597
 10
5.8810471611
 20
8.1112196118
 10
5.8748555568
 20
8.1157902549
 10
5.8682728515
 20
8.1187565595
 10
5.8614695336
 20
8.1200417
 10
5.8546218056
 20
8.1196123917
 10
5.8479070201
 20
8.1174797537
 10
5.8414990863
 20
8.1136990201
 10
5.8355639665
 20
8.10836811
 10
5.8302553772
 20
8.101625091
 10
5.8257108079
 20
8.0936446038
 10
5.8220479608
 20
8.084633339
 10
5.8193617015
 20
8.0748246834
 10
5.8177216028
 20
8.0644726762
 10
5.8171701424
 20
8.0538454288
  0
LINE
  5
2D1
330
1F
100
AcDbEntity
  8
0
  6
HIDDEN
 62
     7
370
     0
100
AcDbLine
 10
5.7539714892
 20
8.0544704288
 30
0.0
 11
4.8164714892
 21
8.0544704288
 31
0.0
  0
LINE
  5
2D2
330
1F
100
AcDbEntity
  8
0
  6
HIDDEN
 62
     7
370
     0
100
AcDbLine
 10
5.7539714892
 20
8.0532204288
 30
0.0
 11
4.8164714892
 21
8.0532204288
 31
0.0
  0
SPLINE
  5
2D3
330
1F
100
AcDbEntity
  8
0
  6
HIDDEN
 62
     7
370
     0
100
AcDbSpline
210
0.0
220
0.0
230
1.0
 70
     8
 71
     3
 72
    84
 73
    80
 74
     0
 42
0.00000001
 43
0.00000001
 40
-0.0312499999999998
 40
-0.0312499999999998
 40
0.0
 40
0.0
 40
0.0312499999999998
 40
0.0312499999999998
 40
0.0468749999999997
 40
0.0468749999999997
 40
0.0624999999999996
 40
0.0624999999999996
 40
0.0937499999999991
 40
0.0937499999999991
 40
0.1249999999999987
 40
0.1249999999999987
 40
0.1562499999999983
 40
0.1562499999999983
 40
0.1874999999999978
 40
0.1874999999999978
 40
0.2031249999999976
 40
0.2031249999999976
 40
0.2187499999999974
 40
0.2187499999999974
 40
0.2499999999999976
 40
0.2499999999999976
 40
0.2812499999999977
 40
0.2812499999999977
 40
0.3124999999999979
 40
0.3124999999999979
 40
0.328124999999998
 40
0.328124999999998
 40
0.3437499999999981
 40
0.3437499999999981
 40
0.3749999999999977
 40
0.3749999999999977
 40
0.4062499999999973
 40
0.4062499999999973
 40
0.437499999999997
 40
0.437499999999997
 40
0.4687499999999967
 40
0.4687499999999967
 40
0.4843749999999965
 40
0.4843749999999965
 40
0.4999999999999963
 40
0.4999999999999963
 40
0.531249999999996
 40
0.531249999999996
 40
0.5624999999999957
 40
0.5624999999999957
 40
0.5781249999999957
 40
0.5781249999999957
 40
0.5937499999999957
 40
0.5937499999999957
 40
0.6249999999999959
 40
0.6249999999999959
 40
0.6562499999999962
 40
0.6562499999999962
 40
0.6874999999999964
 40
0.6874999999999964
 40
0.7187499999999967
 40
0.7187499999999967
 40
0.7343749999999971
 40
0.7343749999999971
 40
0.7499999999999976
 40
0.7499999999999976
 40
0.7812499999999984
 40
0.7812499999999984
 40
0.8124999999999993
 40
0.8124999999999993
 40
0.8437500000000002
 40
0.8437500000000002
 40
0.8593750000000003
 40
0.8593750000000003
 40
0.8750000000000004
 40
0.8750000000000004
 40
0.9062500000000004
 40
0.9062500000000004
 40
0.9375000000000003
 40
0.9375000000000003
 40
0.9687500000000002
 40
0.9687500000000002
 40
1.0
 40
1.0
 40
1.03125
 40
1.03125
 10
5.281723586395318
 20
7.704707928840716
 30
0.0
 10
5.288719391927017
 20
7.704707928840716
 30
0.0
 10
5.292156324626974
 20
7.704363391289953
 30
0.0
 10
5.297224582030731
 20
7.703352695290713
 30
0.0
 10
5.298899372472135
 20
7.702932858791407
 30
0.0
 10
5.302219172465476
 20
7.701923732241332
 30
0.0
 10
5.303865719409026
 20
7.701332566519969
 30
0.0
 10
5.30865121135094
 20
7.699343714884249
 30
0.0
 10
5.311675364526629
 20
7.697722868808534
 30
0.0
 10
5.317398295656426
 20
7.693895915225813
 30
0.0
 10
5.320097481352967
 20
7.691677434757812
 30
0.0
 10
5.324941617367189
 20
7.686831475376356
 30
0.0
 10
5.327119801693251
 20
7.684185090499561
 30
0.0
 10
5.330975024664045
 20
7.678425428515957
 30
0.0
 10
5.332604684853623
 20
7.675376815101427
 30
0.0
 10
5.334580397832503
 20
7.670622174132139
 30
0.0
 10
5.335162589287636
 20
7.669003323310979
 30
0.0
 10
5.336170937994026
 20
7.665695830091868
 30
0.0
 10
5.336598734849184
 20
7.663997039144014
 30
0.0
 10
5.33761872439062
 20
7.658887143455027
 30
0.0
 10
5.337956822790647
 20
7.655456904443532
 30
0.0
 10
5.337961134976444
 20
7.648549802520783
 30
0.0
 10
5.337615649545509
 20
7.645040515757797
 30
0.0
 10
5.336264391124307
 20
7.638266637507724
 30
0.0
 10
5.335264796650621
 20
7.634972938163325
 30
0.0
 10
5.333274441393693
 20
7.630172297272184
 30
0.0
 10
5.332526525957347
 20
7.628594097392443
 30
0.0
 10
5.330897849588182
 20
7.62555283098609
 30
0.0
 10
5.330013761719415
 20
7.624080761564967
 30
0.0
 10
5.327155792876883
 20
7.619806670666866
 30
0.0
 10
5.324961010692055
 20
7.617128462278925
 30
0.0
 10
5.320073195120164
 20
7.612239448521266
 30
0.0
 10
5.317424972899028
 20
7.610066402747016
 30
0.0
 10
5.311725087381566
 20
7.606247665920177
 30
0.0
 10
5.308636416498529
 20
7.604590391626009
 30
0.0
 10
5.302269612274027
 20
7.601945552558913
 30
0.0
 10
5.298981899951829
 20
7.600942216498768
 30
0.0
 10
5.293890631766516
 20
7.59992155050351
 30
0.0
 10
5.292156387676064
 20
7.599661969977744
 30
0.0
 10
5.288695560578752
 20
7.599318757321032
 30
0.0
 10
5.286968151077177
 20
7.599233658923945
 30
0.0
 10
5.281794718856185
 20
7.599231482672436
 30
0.0
 10
5.278357410546782
 20
7.599565038325258
 30
0.0
 10
5.271506907031807
 20
7.600927792081638
 30
0.0
 10
5.268204557510957
 20
7.601935526596646
 30
0.0
 10
5.26343984579828
 20
7.603910468442899
 30
0.0
 10
5.261882464281983
 20
7.60464677252099
 30
0.0
 10
5.258830307239366
 20
7.606278590985919
 30
0.0
 10
5.257334874369485
 20
7.607175909259014
 30
0.0
 10
5.253038540178975
 20
7.610049370261044
 30
0.0
 10
5.250391634888236
 20
7.612221880274456
 30
0.0
 10
5.245525472034324
 20
7.617080715656694
 30
0.0
 10
5.243307296464702
 20
7.619780391763947
 30
0.0
 10
5.23949239004529
 20
7.625478023694139
 30
0.0
 10
5.237866698174683
 20
7.628500816027717
 30
0.0
 10
5.235198471824462
 20
7.634911803705687
 30
0.0
 10
5.234187859201378
 20
7.638235196470537
 30
0.0
 10
5.233173679617313
 20
7.643296879961619
 30
0.0
 10
5.232917713338376
 20
7.64500201136276
 30
0.0
 10
5.232573198472445
 20
7.648448881592199
 30
0.0
 10
5.232484973555914
 20
7.650201023070872
 30
0.0
 10
5.232482045270969
 20
7.65542047800681
 30
0.0
 10
5.232821149277457
 20
7.658852508432338
 30
0.0
 10
5.234165244108796
 20
7.665623944160449
 30
0.0
 10
5.235187096867784
 20
7.668990084382147
 30
0.0
 10
5.237826048050926
 20
7.675353782938937
 30
0.0
 10
5.239443589533799
 20
7.678382150703904
 30
0.0
 10
5.242323300163485
 20
7.682694639114124
 30
0.0
 10
5.24336076936236
 20
7.68409341028674
 30
0.0
 10
5.245544181243636
 20
7.686754290550901
 30
0.0
 10
5.246695138217262
 20
7.688024470949846
 30
0.0
 10
5.25032359095048
 20
7.691657954079339
 30
0.0
 10
5.252993808411425
 20
7.693858447520005
 30
0.0
 10
5.258746374920323
 20
7.697712071151831
 30
0.0
 10
5.261771936753324
 20
7.699332633781817
 30
0.0
 10
5.268118395387024
 20
7.701975870028289
 30
0.0
 10
5.271476240319471
 20
7.703003078340876
 30
0.0
 10
5.278275275966895
 20
7.704363303384741
 30
0.0
 10
5.281723586395318
 20
7.704707928840716
 30
0.0
 10
5.288719391927017
 20
7.704707928840716
 30
0.0
  0
SPLINE
  5
2D4
330
1F
100
AcDbEntity
  8
0
  6
HIDDEN
 62
     7
370
     0
100
AcDbSpline
210
0.0
220
0.0
230
1.0
 70
     8
 71
     3
 72
    84
 73
    80
 74
     0
 42
0.00000001
 43
0.00000001
 40
-0.0312499999999994
 40
-0.0312499999999994
 40
0.0
 40
0.0
 40
0.0312500000000001
 40
0.0312500000000001
 40
0.0468750000000001
 40
0.0468750000000001
 40
0.0625000000000001
 40
0.0625000000000001
 40
0.09375
 40
0.09375
 40
0.1249999999999999
 40
0.1249999999999999
 40
0.1562499999999998
 40
0.1562499999999998
 40
0.1874999999999997
 40
0.1874999999999997
 40
0.2031249999999997
 40
0.2031249999999997
 40
0.2187499999999996
 40
0.2187499999999996
 40
0.2500000000000001
 40
0.2500000000000001
 40
0.2812500000000007
 40
0.2812500000000007
 40
0.3125000000000012
 40
0.3125000000000012
 40
0.3281250000000014
 40
0.3281250000000014
 40
0.3437500000000016
 40
0.3437500000000016
 40
0.3750000000000016
 40
0.3750000000000016
 40
0.4062500000000014
 40
0.4062500000000014
 40
0.4375000000000013
 40
0.4375000000000013
 40
0.4687500000000012
 40
0.4687500000000012
 40
0.4843750000000012
 40
0.4843750000000012
 40
0.5000000000000011
 40
0.5000000000000011
 40
0.5312500000000011
 40
0.5312500000000011
 40
0.562500000000001
 40
0.562500000000001
 40
0.578125000000001
 40
0.578125000000001
 40
0.5937500000000011
 40
0.5937500000000011
 40
0.6250000000000009
 40
0.6250000000000009
 40
0.6562500000000008
 40
0.6562500000000008
 40
0.6875000000000006
 40
0.6875000000000006
 40
0.7187500000000004
 40
0.7187500000000004
 40
0.7343750000000007
 40
0.7343750000000007
 40
0.7500000000000009
 40
0.7500000000000009
 40
0.7812500000000013
 40
0.7812500000000013
 40
0.8125000000000019
 40
0.8125000000000019
 40
0.8437500000000023
 40
0.8437500000000023
 40
0.8593750000000022
 40
0.8593750000000022
 40
0.8750000000000022
 40
0.8750000000000022
 40
0.9062500000000017
 40
0.9062500000000017
 40
0.9375000000000012
 40
0.9375000000000012
 40
0.9687500000000006
 40
0.9687500000000006
 40
1.0
 40
1.0
 40
1.03125
 40
1.03125
 10
5.281723586395318
 20
8.508457928840716
 30
0.0
 10
5.288719391927017
 20
8.508457928840716
 30
0.0
 10
5.292156324626974
 20
8.508113391289953
 30
0.0
 10
5.297224582030731
 20
8.507102695290712
 30
0.0
 10
5.298899372472135
 20
8.506682858791407
 30
0.0
 10
5.302219172465476
 20
8.505673732241332
 30
0.0
 10
5.303865719409026
 20
8.505082566519969
 30
0.0
 10
5.30865121135094
 20
8.50309371488425
 30
0.0
 10
5.311675364526629
 20
8.501472868808534
 30
0.0
 10
5.317398295656426
 20
8.497645915225812
 30
0.0
 10
5.320097481352967
 20
8.495427434757813
 30
0.0
 10
5.324941617367189
 20
8.490581475376356
 30
0.0
 10
5.327119801693251
 20
8.487935090499562
 30
0.0
 10
5.330975024664045
 20
8.482175428515957
 30
0.0
 10
5.332604684853623
 20
8.479126815101427
 30
0.0
 10
5.334580397832503
 20
8.474372174132139
 30
0.0
 10
5.335162589287636
 20
8.472753323310979
 30
0.0
 10
5.336170937994026
 20
8.469445830091868
 30
0.0
 10
5.336598734849184
 20
8.467747039144013
 30
0.0
 10
5.33761872439062
 20
8.462637143455026
 30
0.0
 10
5.337956822790647
 20
8.459206904443532
 30
0.0
 10
5.337961134976444
 20
8.452299802520782
 30
0.0
 10
5.337615649545509
 20
8.448790515757798
 30
0.0
 10
5.336264391124307
 20
8.442016637507724
 30
0.0
 10
5.335264796650621
 20
8.438722938163325
 30
0.0
 10
5.333274441393693
 20
8.433922297272183
 30
0.0
 10
5.332526525957347
 20
8.432344097392443
 30
0.0
 10
5.330897849588182
 20
8.429302830986089
 30
0.0
 10
5.330013761719415
 20
8.427830761564966
 30
0.0
 10
5.327155792876883
 20
8.423556670666866
 30
0.0
 10
5.324961010692055
 20
8.420878462278926
 30
0.0
 10
5.320073195120164
 20
8.415989448521268
 30
0.0
 10
5.317424972899028
 20
8.413816402747017
 30
0.0
 10
5.311725087381566
 20
8.409997665920177
 30
0.0
 10
5.308636416498529
 20
8.408340391626009
 30
0.0
 10
5.302269612274027
 20
8.405695552558914
 30
0.0
 10
5.298981899951829
 20
8.404692216498768
 30
0.0
 10
5.293890631766516
 20
8.40367155050351
 30
0.0
 10
5.292156387676064
 20
8.403411969977743
 30
0.0
 10
5.288695560578752
 20
8.403068757321032
 30
0.0
 10
5.286968151077177
 20
8.402983658923944
 30
0.0
 10
5.281794718856185
 20
8.402981482672438
 30
0.0
 10
5.278357410546782
 20
8.403315038325257
 30
0.0
 10
5.271506907031807
 20
8.404677792081639
 30
0.0
 10
5.268204557510957
 20
8.405685526596647
 30
0.0
 10
5.26343984579828
 20
8.407660468442899
 30
0.0
 10
5.261882464281983
 20
8.40839677252099
 30
0.0
 10
5.258830307239366
 20
8.410028590985918
 30
0.0
 10
5.257334874369485
 20
8.410925909259014
 30
0.0
 10
5.253038540178975
 20
8.413799370261044
 30
0.0
 10
5.250391634888236
 20
8.415971880274457
 30
0.0
 10
5.245525472034324
 20
8.420830715656693
 30
0.0
 10
5.243307296464702
 20
8.423530391763947
 30
0.0
 10
5.23949239004529
 20
8.42922802369414
 30
0.0
 10
5.237866698174683
 20
8.432250816027718
 30
0.0
 10
5.235198471824462
 20
8.438661803705687
 30
0.0
 10
5.234187859201378
 20
8.441985196470537
 30
0.0
 10
5.233173679617313
 20
8.44704687996162
 30
0.0
 10
5.232917713338376
 20
8.44875201136276
 30
0.0
 10
5.232573198472445
 20
8.4521988815922
 30
0.0
 10
5.232484973555914
 20
8.453951023070873
 30
0.0
 10
5.232482045270969
 20
8.45917047800681
 30
0.0
 10
5.232821149277457
 20
8.462602508432338
 30
0.0
 10
5.234165244108796
 20
8.469373944160449
 30
0.0
 10
5.235187096867784
 20
8.472740084382147
 30
0.0
 10
5.237826048050926
 20
8.479103782938937
 30
0.0
 10
5.239443589533799
 20
8.482132150703903
 30
0.0
 10
5.242323300163485
 20
8.486444639114124
 30
0.0
 10
5.24336076936236
 20
8.487843410286741
 30
0.0
 10
5.245544181243636
 20
8.4905042905509
 30
0.0
 10
5.246695138217262
 20
8.491774470949846
 30
0.0
 10
5.25032359095048
 20
8.495407954079338
 30
0.0
 10
5.252993808411425
 20
8.497608447520006
 30
0.0
 10
5.258746374920323
 20
8.501462071151831
 30
0.0
 10
5.261771936753324
 20
8.503082633781817
 30
0.0
 10
5.268118395387024
 20
8.505725870028291
 30
0.0
 10
5.271476240319471
 20
8.506753078340875
 30
0.0
 10
5.278275275966895
 20
8.508113303384743
 30
0.0
 10
5.281723586395318
 20
8.508457928840716
 30
0.0
 10
5.288719391927017
 20
8.508457928840716
 30
0.0
  0
CIRCLE
  5
2D5
330
1F
100
AcDbEntity
  8
0
  6
HIDDEN
 62
     7
370
     0
100
AcDbCircle
 10
4.5602214892
 20
7.8904300745
 30
0.0
 40
0.0418307086614176
  0
CIRCLE
  5
2D6
330
1F
100
AcDbEntity
  8
0
  6
HIDDEN
 62
     7
370
     0
100
AcDbCircle
 10
4.5602214892
 20
8.2172607832
 30
0.0
 40
0.0418307086614167
  0
CIRCLE
  5
2D7
330
1F
100
AcDbEntity
  8
0
  6
HIDDEN
 62
     7
370
     0
100
AcDbCircle
 10
4.5602214892
 20
8.0538454288
 30
0.0
 40
0.068897637795275
  0
CIRCLE
  5
2D8
330
1F
100
AcDbEntity
  8
0
  6
HIDDEN
 62
     7
370
     0
100
AcDbCircle
 10
4.5602214892
 20
8.0538454288
 30
0.0
 40
0.0639763779527556
  0
LINE
  5
2D9
330
1F
100
AcDbEntity
  8
0
  6
HIDDEN
 62
     7
370
     0
100
AcDbLine
 10
4.5897490482
 20
8.0367976847
 30
0.0
 11
4.5602214892
 21
8.0197499405
 31
0.0
  0
LINE
  5
2DA
330
1F
100
AcDbEntity
  8
0
  6
HIDDEN
 62
     7
370
     0
100
AcDbLine
 10
4.5602214892
 20
8.0197499405
 30
0.0
 11
4.5306939301
 21
8.0367976847
 31
0.0
  0
LINE
  5
2DB
330
1F
100
AcDbEntity
  8
0
  6
HIDDEN
 62
     7
370
     0
100
AcDbLine
 10
4.5897490482
 20
8.070893173
 30
0.0
 11
4.5897490482
 21
8.0367976847
 31
0.0
  0
LINE
  5
2DC
330
1F
100
AcDbEntity
  8
0
  6
HIDDEN
 62
     7
370
     0
100
AcDbLine
 10
4.5306939301
 20
8.0367976847
 30
0.0
 11
4.5306939301
 21
8.070893173
 31
0.0
  0
LINE
  5
2DD
330
1F
100
AcDbEntity
  8
0
  6
HIDDEN
 62
     7
370
     0
100
AcDbLine
 10
4.5306939301
 20
8.070893173
 30
0.0
 11
4.5602214892
 21
8.0879409172
 31
0.0
  0
LINE
  5
2DE
330
1F
100
AcDbEntity
  8
0
  6
HIDDEN
 62
     7
370
     0
100
AcDbLine
 10
4.5602214892
 20
8.0879409172
 30
0.0
 11
4.5897490482
 21
8.070893173
 31
0.0
  0
CIRCLE
  5
2DF
330
1F
100
AcDbEntity
  8
0
  6
HIDDEN
 62
     7
370
     0
100
AcDbCircle
 10
4.5602214892
 20
8.0538454288
 30
0.0
 40
0.0602263779527554
  0
CIRCLE
  5
2E0
330
1F
100
AcDbEntity
  8
0
  6
HIDDEN
 62
     7
370
     0
100
AcDbCircle
 10
4.5602214892
 20
7.8904304288
 30
0.0
 40
0.0393700787401574
  0
CIRCLE
  5
2E1
330
1F
100
AcDbEntity
  8
0
  6
HIDDEN
 62
     7
370
     0
100
AcDbCircle
 10
4.5602214892
 20
7.8904304288
 30
0.0
 40
0.0356200787401582
  0
CIRCLE
  5
2E2
330
1F
100
AcDbEntity
  8
0
  6
HIDDEN
 62
     7
370
     0
100
AcDbCircle
 10
4.5602214892
 20
8.2172604288
 30
0.0
 40
0.0393700787401574
  0
CIRCLE
  5
2E3
330
1F
100
AcDbEntity
  8
0
  6
HIDDEN
 62
     7
370
     0
100
AcDbCircle
 10
4.5602214892
 20
8.2172604288
 30
0.0
 40
0.0356200787401573
  0
LINE
  5
2E4
330
1F
100
AcDbEntity
  8
0
  6
HIDDEN
 62
     7
370
     0
100
AcDbLine
 10
4.8789727123
 20
7.9875954288
 30
0.0
 11
4.9102214892
 21
7.9875954288
 31
0.0
  0
LINE
  5
2E5
330
1F
100
AcDbEntity
  8
0
  6
HIDDEN
 62
     7
370
     0
100
AcDbLine
 10
4.9102214892
 20
8.1200954288
 30
0.0
 11
4.8789801883
 21
8.1200954288
 31
0.0
  0
LINE
  5
2E6
330
1F
100
AcDbEntity
  8
0
  6
HIDDEN
 62
     7
370
     0
100
AcDbLine
 10
5.9076192568
 20
8.1200954288
 30
0.0
 11
5.8597548215
 21
8.1200954288
 31
0.0
  0
LINE
  5
2E7
330
1F
100
AcDbEntity
  8
0
  6
HIDDEN
 62
     7
370
     0
100
AcDbLine
 10
5.8597548215
 20
7.9875954288
 30
0.0
 11
5.907630724
 21
7.9875954288
 31
0.0
  0
LINE
  5
2E8
330
1F
100
AcDbEntity
  8
0
  6
HIDDEN
 62
     7
370
     0
100
AcDbLine
 10
5.7539714892
 20
8.0532204288
 30
0.0
 11
5.7539714892
 21
8.0544704288
 31
0.0
  0
LINE
  5
2E9
330
1F
100
AcDbEntity
  8
0
  6
HIDDEN
 62
     7
370
     0
100
AcDbLine
 10
4.8164714892
 20
8.0544704288
 30
0.0
 11
4.8164714892
 21
8.0532204288
 31
0.0
  0
LINE
  5
2EA
330
1F
100
AcDbEntity
  8
0
  6
HIDDEN
 62
     7
370
     0
100
AcDbLine
 10
5.1289714892
 20
7.5475954288
 30
0.0
 11
5.1289714892
 21
8.0532204288
 31
0.0
  0
LINE
  5
2EB
330
1F
100
AcDbEntity
  8
0
  6
HIDDEN
 62
     7
370
     0
100
AcDbLine
 10
5.0508464892
 20
8.0532204288
 30
0.0
 11
5.0508464892
 21
7.5475954288
 31
0.0
  0
LINE
  5
2EC
330
1F
100
AcDbEntity
  8
0
  6
HIDDEN
 62
     7
370
     0
100
AcDbLine
 10
5.5195964892
 20
7.5475954288
 30
0.0
 11
5.5195964892
 21
8.0532204288
 31
0.0
  0
LINE
  5
2ED
330
1F
100
AcDbEntity
  8
0
  6
HIDDEN
 62
     7
370
     0
100
AcDbLine
 10
5.4414714892
 20
8.0532204288
 30
0.0
 11
5.4414714892
 21
7.5475954288
 31
0.0
  0
LINE
  5
2EE
330
1F
100
AcDbEntity
  8
0
  6
HIDDEN
 62
     7
370
     0
100
AcDbLine
 10
5.1289714892
 20
8.0544704288
 30
0.0
 11
5.1289714892
 21
8.5600954288
 31
0.0
  0
LINE
  5
2EF
330
1F
100
AcDbEntity
  8
0
  6
HIDDEN
 62
     7
370
     0
100
AcDbLine
 10
5.0508464892
 20
8.5600954288
 30
0.0
 11
5.0508464892
 21
8.0544704288
 31
0.0
  0
LINE
  5
2F0
330
1F
100
AcDbEntity
  8
0
  6
HIDDEN
 62
     7
370
     0
100
AcDbLine
 10
5.5195964892
 20
8.0544704288
 30
0.0
 11
5.5195964892
 21
8.5600954288
 31
0.0
  0
LINE
  5
2F1
330
1F
100
AcDbEntity
  8
0
  6
HIDDEN
 62
     7
370
     0
100
AcDbLine
 10
5.4414714892
 20
8.5600954288
 30
0.0
 11
5.4414714892
 21
8.0544704288
 31
0.0
  0
LINE
  5
2F2
330
1F
100
AcDbEntity
  8
0
  6
HIDDEN
 62
     7
370
     0
100
AcDbLine
 10
5.5039714892
 20
7.5475954288
 30
0.0
 11
5.5039714892
 21
8.0532204288
 31
0.0
  0
LINE
  5
2F3
330
1F
100
AcDbEntity
  8
0
  6
HIDDEN
 62
     7
370
     0
100
AcDbLine
 10
5.0664714892
 20
8.0532204288
 30
0.0
 11
5.0664714892
 21
7.5475954288
 31
0.0
  0
LINE
  5
2F4
330
1F
100
AcDbEntity
  8
0
  6
HIDDEN
 62
     7
370
     0
100
AcDbLine
 10
5.5039714892
 20
8.0544704288
 30
0.0
 11
5.5039714892
 21
8.5600954288
 31
0.0
  0
LINE
  5
2F5
330
1F
100
AcDbEntity
  8
0
  6
HIDDEN
 62
     7
370
     0
100
AcDbLine
 10
5.0664714892
 20
8.5600954288
 30
0.0
 11
5.0664714892
 21
8.0544704288
 31
0.0
  0
LINE
  5
2F6
330
1F
100
AcDbEntity
  8
0
  6
HIDDEN
 62
     7
370
     0
100
AcDbLine
 10
5.7149089892
 20
7.5475954288
 30
0.0
 11
5.7149089892
 21
8.0532204288
 31
0.0
  0
LINE
  5
2F7
330
1F
100
AcDbEntity
  8
0
  6
HIDDEN
 62
     7
370
     0
100
AcDbLine
 10
5.6367839892
 20
8.0532204288
 30
0.0
 11
5.6367839892
 21
7.5475954288
 31
0.0
  0
LINE
  5
2F8
330
1F
100
AcDbEntity
  8
0
  6
HIDDEN
 62
     7
370
     0
100
AcDbLine
 10
4.9336589892
 20
7.5475954288
 30
0.0
 11
4.9336589892
 21
8.0532204288
 31
0.0
  0
LINE
  5
2F9
330
1F
100
AcDbEntity
  8
0
  6
HIDDEN
 62
     7
370
     0
100
AcDbLine
 10
4.8555339892
 20
8.0532204288
 30
0.0
 11
4.8555339892
 21
7.5475954288
 31
0.0
  0
LINE
  5
2FA
330
1F
100
AcDbEntity
  8
0
  6
HIDDEN
 62
     7
370
     0
100
AcDbLine
 10
5.7149089892
 20
8.0544704288
 30
0.0
 11
5.7149089892
 21
8.5600954288
 31
0.0
  0
LINE
  5
2FB
330
1F
100
AcDbEntity
  8
0
  6
HIDDEN
 62
     7
370
     0
100
AcDbLine
 10
5.6367839892
 20
8.5600954288
 30
0.0
 11
5.6367839892
 21
8.0544704288
 31
0.0
  0
LINE
  5
2FC
330
1F
100
AcDbEntity
  8
0
  6
HIDDEN
 62
     7
370
     0
100
AcDbLine
 10
4.9336589892
 20
8.0544704288
 30
0.0
 11
4.9336589892
 21
8.5600954288
 31
0.0
  0
LINE
  5
2FD
330
1F
100
AcDbEntity
  8
0
  6
HIDDEN
 62
     7
370
     0
100
AcDbLine
 10
4.8555339892
 20
8.5600954288
 30
0.0
 11
4.8555339892
 21
8.0544704288
 31
0.0
  0
INSERT
  5
309
330
1F
100
AcDbEntity
  8
0
  6
Continuous
 62
     7
370
     0
100
AcDbBlockReference
  2
SW_CENTERMARKSYMBOL_7
 10
4.5602214892
 20
8.2172607832
 30
0.0
  0
INSERT
  5
315
330
1F
100
AcDbEntity
  8
0
  6
Continuous
 62
     7
370
     0
100
AcDbBlockReference
  2
SW_CENTERMARKSYMBOL_8
 10
4.5602214892
 20
7.8904300745
 30
0.0
  0
INSERT
  5
321
330
1F
100
AcDbEntity
  8
0
  6
Continuous
 62
     7
370
     0
100
AcDbBlockReference
  2
SW_CENTERMARKSYMBOL_9
 10
4.5602214892
 20
8.0538454288
 30
0.0
  0
LINE
  5
322
330
1F
100
AcDbEntity
  8
0
  6
HIDDEN
 62
     7
370
     0
100
AcDbLine
 10
5.4336589892
 20
7.5475954288
 30
0.0
 11
5.4336589892
 21
8.0532204288
 31
0.0
  0
LINE
  5
323
330
1F
100
AcDbEntity
  8
0
  6
HIDDEN
 62
     7
370
     0
100
AcDbLine
 10
5.4336589892
 20
8.0544704288
 30
0.0
 11
5.4336589892
 21
8.5600954288
 31
0.0
  0
LINE
  5
324
330
1F
100
AcDbEntity
  8
0
  6
HIDDEN
 62
     7
370
     0
100
AcDbLine
 10
5.5274089892
 20
7.5475954288
 30
0.0
 11
5.5274089892
 21
8.0532204288
 31
0.0
  0
LINE
  5
325
330
1F
100
AcDbEntity
  8
0
  6
HIDDEN
 62
     7
370
     0
100
AcDbLine
 10
5.5274089892
 20
8.0544704288
 30
0.0
 11
5.5274089892
 21
8.5600954288
 31
0.0
  0
LINE
  5
326
330
1F
100
AcDbEntity
  8
0
  6
HIDDEN
 62
     7
370
     0
100
AcDbLine
 10
4.8477214892
 20
7.5475954288
 30
0.0
 11
4.8477214892
 21
8.0532204288
 31
0.0
  0
LINE
  5
327
330
1F
100
AcDbEntity
  8
0
  6
HIDDEN
 62
     7
370
     0
100
AcDbLine
 10
4.8477214892
 20
8.0544704288
 30
0.0
 11
4.8477214892
 21
8.5600954288
 31
0.0
  0
LINE
  5
328
330
1F
100
AcDbEntity
  8
0
  6
HIDDEN
 62
     7
370
     0
100
AcDbLine
 10
4.9414714892
 20
7.5475954288
 30
0.0
 11
4.9414714892
 21
8.0532204288
 31
0.0
  0
LINE
  5
329
330
1F
100
AcDbEntity
  8
0
  6
HIDDEN
 62
     7
370
     0
100
AcDbLine
 10
4.9414714892
 20
8.0544704288
 30
0.0
 11
4.9414714892
 21
8.5600954288
 31
0.0
  0
LINE
  5
32A
330
1F
100
AcDbEntity
  8
0
  6
HIDDEN
 62
     7
370
     0
100
AcDbLine
 10
5.4336589892
 20
7.5475954288
 30
0.0
 11
5.4336589892
 21
8.0532204288
 31
0.0
  0
LINE
  5
32B
330
1F
100
AcDbEntity
  8
0
  6
HIDDEN
 62
     7
370
     0
100
AcDbLine
 10
5.4336589892
 20
8.0544704288
 30
0.0
 11
5.4336589892
 21
8.5600954288
 31
0.0
  0
LINE
  5
32C
330
1F
100
AcDbEntity
  8
0
  6
HIDDEN
 62
     7
370
     0
100
AcDbLine
 10
5.5274089892
 20
7.5475954288
 30
0.0
 11
5.5274089892
 21
8.0532204288
 31
0.0
  0
LINE
  5
32D
330
1F
100
AcDbEntity
  8
0
  6
HIDDEN
 62
     7
370
     0
100
AcDbLine
 10
5.5274089892
 20
8.0544704288
 30
0.0
 11
5.5274089892
 21
8.5600954288
 31
0.0
  0
LINE
  5
32E
330
1F
100
AcDbEntity
  8
0
  6
HIDDEN
 62
     7
370
     0
100
AcDbLine
 10
5.0430339892
 20
7.5475954288
 30
0.0
 11
5.0430339892
 21
8.0532204288
 31
0.0
  0
LINE
  5
32F
330
1F
100
AcDbEntity
  8
0
  6
HIDDEN
 62
     7
370
     0
100
AcDbLine
 10
5.0430339892
 20
8.0544704288
 30
0.0
 11
5.0430339892
 21
8.5600954288
 31
0.0
  0
LINE
  5
330
330
1F
100
AcDbEntity
  8
0
  6
HIDDEN
 62
     7
370
     0
100
AcDbLine
 10
5.1367839892
 20
7.5475954288
 30
0.0
 11
5.1367839892
 21
8.0532204288
 31
0.0
  0
LINE
  5
331
330
1F
100
AcDbEntity
  8
0
  6
HIDDEN
 62
     7
370
     0
100
AcDbLine
 10
5.1367839892
 20
8.0544704288
 30
0.0
 11
5.1367839892
 21
8.5600954288
 31
0.0
  0
LINE
  5
332
330
1F
100
AcDbEntity
  8
0
  6
HIDDEN
 62
     7
370
     0
100
AcDbLine
 10
5.0430339892
 20
7.5475954288
 30
0.0
 11
5.0430339892
 21
8.0532204288
 31
0.0
  0
LINE
  5
333
330
1F
100
AcDbEntity
  8
0
  6
HIDDEN
 62
     7
370
     0
100
AcDbLine
 10
5.0430339892
 20
8.0544704288
 30
0.0
 11
5.0430339892
 21
8.5600954288
 31
0.0
  0
LINE
  5
334
330
1F
100
AcDbEntity
  8
0
  6
HIDDEN
 62
     7
370
     0
100
AcDbLine
 10
5.1367839892
 20
7.5475954288
 30
0.0
 11
5.1367839892
 21
8.0532204288
 31
0.0
  0
LINE
  5
335
330
1F
100
AcDbEntity
  8
0
  6
HIDDEN
 62
     7
370
     0
100
AcDbLine
 10
5.1367839892
 20
8.0544704288
 30
0.0
 11
5.1367839892
 21
8.5600954288
 31
0.0
  0
LINE
  5
336
330
1F
100
AcDbEntity
  8
0
  6
HIDDEN
 62
     7
370
     0
100
AcDbLine
 10
5.6289714892
 20
7.5475954288
 30
0.0
 11
5.6289714892
 21
8.0532204288
 31
0.0
  0
LINE
  5
337
330
1F
100
AcDbEntity
  8
0
  6
HIDDEN
 62
     7
370
     0
100
AcDbLine
 10
5.6289714892
 20
8.0544704288
 30
0.0
 11
5.6289714892
 21
8.5600954288
 31
0.0
  0
LINE
  5
338
330
1F
100
AcDbEntity
  8
0
  6
HIDDEN
 62
     7
370
     0
100
AcDbLine
 10
5.7227214892
 20
7.5475954288
 30
0.0
 11
5.7227214892
 21
8.0532204288
 31
0.0
  0
LINE
  5
339
330
1F
100
AcDbEntity
  8
0
  6
HIDDEN
 62
     7
370
     0
100
AcDbLine
 10
5.7227214892
 20
8.0544704288
 30
0.0
 11
5.7227214892
 21
8.5600954288
 31
0.0
  0
CIRCLE
  5
33A
330
1F
100
AcDbEntity
  8
0
  6
HIDDEN
 62
     7
370
     0
100
AcDbCircle
 10
5.2852214892
 20
7.6519704288
 30
0.0
 40
0.0625
  0
CIRCLE
  5
33B
330
1F
100
AcDbEntity
  8
0
  6
HIDDEN
 62
     7
370
     0
100
AcDbCircle
 10
5.2852214892
 20
8.4557204288
 30
0.0
 40
0.0625
  0
LINE
  5
33C
330
1F
100
AcDbEntity
  8
0
  6
Continuous
 62
     7
370
    15
100
AcDbLine
 10
12.2394451239
 20
9.1786169892
 30
0.0
 11
12.2394451239
 21
9.1684118878
 31
0.0
  0
LINE
  5
33D
330
1F
100
AcDbEntity
  8
0
  6
Continuous
 62
     7
370
    15
100
AcDbLine
 10
12.805038609
 20
8.1886690779
 30
0.0
 11
12.8138760072
 21
8.1835656979
 31
0.0
  0
LINE
  5
33E
330
1F
100
AcDbEntity
  8
0
  6
Continuous
 62
     7
370
    15
100
AcDbLine
 10
13.2201863687
 20
8.1432864931
 30
0.0
 11
13.623237234
 21
8.3759628049
 31
0.0
  0
LINE
  5
33F
330
1F
100
AcDbEntity
  8
0
  6
Continuous
 62
     7
370
    15
100
AcDbLine
 10
12.8108032637
 20
9.7832922063
 30
0.0
 11
12.4077523984
 21
9.5506158944
 31
0.0
  0
LINE
  5
340
330
1F
100
AcDbEntity
  8
0
  6
Continuous
 62
     7
370
    15
100
AcDbLine
 10
12.8918779612
 20
8.3506756421
 30
0.0
 11
13.0394865018
 21
8.4358882388
 31
0.0
  0
LINE
  5
341
330
1F
100
AcDbEntity
  8
0
  6
Continuous
 62
     7
370
    15
100
AcDbLine
 10
12.5707745958
 20
9.2478090473
 30
0.0
 11
12.4231660553
 21
9.1625964506
 31
0.0
  0
LINE
  5
342
330
1F
100
AcDbEntity
  8
0
  6
Continuous
 62
     7
370
    15
100
AcDbLine
 10
13.7915445086
 20
8.7479617102
 30
0.0
 11
13.7915445086
 21
8.7581668116
 31
0.0
  0
LINE
  5
343
330
1F
100
AcDbEntity
  8
0
  6
Continuous
 62
     7
370
    15
100
AcDbLine
 10
13.2259510234
 20
9.7379096215
 30
0.0
 11
13.2171136252
 21
9.7430130015
 31
0.0
  0
LWPOLYLINE
  5
344
330
1F
100
AcDbEntity
  8
0
  6
Continuous
 62
     7
370
    15
100
AcDbPolyline
 90
      136
 70
   128
 43
0.0
 10
12.8051305488
 20
9.4950812925
 10
12.7788118578
 20
9.5095673712
 10
12.7525501672
 20
9.5226073198
 10
12.7264023541
 20
9.5341728967
 10
12.7004250486
 20
9.5442390535
 10
12.674674512
 20
9.552783989
 10
12.6492065141
 20
9.5597891968
 10
12.6240762129
 20
9.5652395053
 10
12.5993380351
 20
9.5691231103
 10
12.575045558
 20
9.5714316007
 10
12.5512513938
 20
9.5721599769
 10
12.5280070754
 20
9.5713066613
 10
12.5053629446
 20
9.5688735022
 10
12.4833680438
 20
9.564865769
 10
12.4620700089
 20
9.5592921418
 10
12.4415149667
 20
9.5521646917
 10
12.4217474349
 20
9.5434988553
 10
12.4028102255
 20
9.5333134007
 10
12.3847443524
 20
9.5216303874
 10
12.3675889422
 20
9.5084751182
 10
12.3513811497
 20
9.4938760846
 10
12.3361560773
 20
9.4778649047
 10
12.3219466992
 20
9.4604762551
 10
12.3087837897
 20
9.441747796
 10
12.2966958568
 20
9.4217200888
 10
12.2857090802
 20
9.4004365092
 10
12.2758472548
 20
9.3779431527
 10
12.2671317392
 20
9.3542887349
 10
12.2595814093
 20
9.3295244859
 10
12.2532126172
 20
9.3037040397
 10
12.2480391566
 20
9.2768833175
 10
12.2440722318
 20
9.249120407
 10
12.2413204344
 20
9.2204754367
 10
12.2397897241
 20
9.191010445
 10
12.2394834162
 20
9.1607892465
 10
12.2404021741
 20
9.1298772938
 10
12.2425440078
 20
9.0983415351
 10
12.2459042787
 20
9.06625027
 10
12.2504757092
 20
9.0336730009
 10
12.2562483986
 20
9.0006802829
 10
12.2632098444
 20
8.967343571
 10
12.2713449699
 20
8.933735065
 10
12.280636156
 20
8.8999275535
 10
12.2910632802
 20
8.865994256
 10
12.3026037597
 20
8.8320086645
 10
12.3152326003
 20
8.7980443842
 10
12.3289224507
 20
8.7641749741
 10
12.3436436618
 20
8.7304737879
 10
12.3593643508
 20
8.6970138149
 10
12.3760504701
 20
8.6638675218
 10
12.3936658813
 20
8.6311066963
 10
12.4121724333
 20
8.5988022908
 10
12.4315300451
 20
8.5670242696
 10
12.4516967925
 20
8.5358414568
 10
12.4726289986
 20
8.5053213875
 10
12.494281329
 20
8.4755301612
 10
12.5166068897
 20
8.4465322992
 10
12.5395573283
 20
8.4183906044
 10
12.5630829394
 20
8.3911660254
 10
12.5871327717
 20
8.3649175246
 10
12.6116547387
 20
8.3397019504
 10
12.6365957312
 20
8.3155739141
 10
12.6619017325
 20
8.2925856717
 10
12.6875179356
 20
8.2707870106
 10
12.7133888615
 20
8.2502251418
 10
12.7394584793
 20
8.2309445977
 10
12.7656703283
 20
8.2129871358
 10
12.7919676393
 20
8.1963916479
 10
12.8182934583
 20
8.1811940761
 10
12.8445907693
 20
8.167427335
 10
12.8708026183
 20
8.1551212403
 10
12.8968722362
 20
8.1443024442
 10
12.922743162
 20
8.1349943778
 10
12.9483593651
 20
8.1272172004
 10
12.9736653664
 20
8.1209877556
 10
12.9986063589
 20
8.1163195349
 10
13.0231283259
 20
8.1132226487
 10
13.0471781582
 20
8.1117038041
 10
13.0707037693
 20
8.1117662907
 10
13.0936542079
 20
8.1134099731
 10
13.1159797686
 20
8.1166312915
 10
13.137632099
 20
8.1214232691
 10
13.1585643052
 20
8.1277755277
 10
13.1787310525
 20
8.1356743096
 10
13.1980886643
 20
8.1451025079
 10
13.2165952163
 20
8.1560397032
 10
13.2342106275
 20
8.1684622079
 10
13.2508967468
 20
8.1823431177
 10
13.2666174358
 20
8.1976523696
 10
13.2813386469
 20
8.2143568072
 10
13.2950284974
 20
8.2324202524
 10
13.3076573379
 20
8.2518035838
 10
13.3191978174
 20
8.2724648213
 10
13.3296249416
 20
8.2943592175
 10
13.3389161277
 20
8.3174393538
 10
13.3470512532
 20
8.3416552439
 10
13.3540126991
 20
8.3669544415
 10
13.3597853884
 20
8.3932821542
 10
13.3643568189
 20
8.420581362
 10
13.3677170898
 20
8.4487929409
 10
13.3698589236
 20
8.477855791
 10
13.3707776814
 20
8.5077069685
 10
13.3704713735
 20
8.5382818225
 10
13.3689406632
 20
8.5695141346
 10
13.3661888658
 20
8.6013362627
 10
13.3622219411
 20
8.633679287
 10
13.3570484804
 20
8.6664731597
 10
13.3506796884
 20
8.6996468567
 10
13.3431293584
 20
8.7331285311
 10
13.3344138428
 20
8.7668456691
 10
13.3245520174
 20
8.8007252468
 10
13.3135652408
 20
8.8346938886
 10
13.3014773079
 20
8.868678026
 10
13.2883143984
 20
8.902604057
 10
13.2741050203
 20
8.9363985053
 10
13.258879948
 20
8.9699881796
 10
13.2426721554
 20
9.0033003322
 10
13.2255167452
 20
9.0362628164
 10
13.2074508721
 20
9.0688042428
 10
13.1885136627
 20
9.1008541339
 10
13.1687461309
 20
9.1323430768
 10
13.1481910888
 20
9.1632028734
 10
13.1268930538
 20
9.1933666883
 10
13.104898153
 20
9.2227691934
 10
13.0822540222
 20
9.2513467094
 10
13.0590097038
 20
9.2790373438
 10
13.0352155396
 20
9.3057811249
 10
13.0109230625
 20
9.3315201314
 10
12.9861848847
 20
9.3561986186
 10
12.9610545836
 20
9.3797631383
 10
12.9355865856
 20
9.4021626549
 10
12.909836049
 20
9.4233486562
 10
12.8838587436
 20
9.4432752579
 10
12.8577109304
 20
9.4618993035
 10
12.8314492398
 20
9.4791804574
 10
12.8051305488
 20
9.4950812925
  0
LWPOLYLINE
  5
345
330
1F
100
AcDbEntity
  8
0
  6
Continuous
 62
     7
370
    15
100
AcDbPolyline
 90
       70
 70
   128
 43
0.0
 10
12.8139693836
 20
9.5103906034
 10
12.840502901
 20
9.4943652233
 10
12.8669797945
 20
9.476958229
 10
12.8933435611
 20
9.458206768
 10
12.9195379393
 20
9.4381508567
 10
12.9455070288
 20
9.4168332956
 10
12.9711954104
 20
9.3942995774
 10
12.9965482637
 20
9.3705977901
 10
13.0215114844
 20
9.3457785146
 10
13.0460317999
 20
9.3198947164
 10
13.0700568825
 20
9.293001633
 10
13.0935354614
 20
9.2651566554
 10
13.1164174322
 20
9.2364192063
 10
13.1386539637
 20
9.2068506128
 10
13.1601976019
 20
9.1765139759
 10
13.1810023717
 20
9.1454740353
 10
13.2010238745
 20
9.113797032
 10
13.2202193836
 20
9.0815505662
 10
13.2385479347
 20
9.0488034535
 10
13.2559704137
 20
9.0156255779
 10
13.2724496403
 20
8.9820877427
 10
13.2879504469
 20
8.9482615193
 10
13.3024397541
 20
8.9142190945
 10
13.3158866408
 20
8.8800331166
 10
13.3282624109
 20
8.8457765403
 10
13.3395406537
 20
8.8115224707
 10
13.3496973009
 20
8.7773440078
 10
13.3587106777
 20
8.7433140902
 10
13.3665615492
 20
8.7095053393
 10
13.3732331611
 20
8.6759899048
 10
13.378711276
 20
8.6428393104
 10
13.3829842032
 20
8.6101243009
 10
13.3860428241
 20
8.5779146921
 10
13.3878806114
 20
8.5462792206
 10
13.3884936433
 20
8.5152853983
 10
13.3878806114
 20
8.4849993675
 10
13.3860428241
 20
8.4554857602
 10
13.3829842032
 20
8.4268075598
 10
13.378711276
 20
8.3990259671
 10
13.3732331611
 20
8.3722002694
 10
13.3665615492
 20
8.3463877142
 10
13.3587106777
 20
8.3216433866
 10
13.3496973009
 20
8.2980200923
 10
13.3395406537
 20
8.2755682447
 10
13.3282624109
 20
8.2543357571
 10
13.3158866408
 20
8.2343679406
 10
13.3024397541
 20
8.2157074078
 10
13.2879504469
 20
8.1983939809
 10
13.2724496403
 20
8.1824646079
 10
13.2559704137
 20
8.1679532827
 10
13.2385479347
 20
8.1548909733
 10
13.2202193836
 20
8.1433055552
 10
13.2010238745
 20
8.1332217524
 10
13.1810023717
 20
8.1246610842
 10
13.1601976019
 20
8.1176418195
 10
13.1386539637
 20
8.1121789378
 10
13.1164174322
 20
8.1082840971
 10
13.0935354614
 20
8.1059656092
 10
13.0700568825
 20
8.1052284219
 10
13.0460317999
 20
8.1060741083
 10
13.0215114844
 20
8.1085008638
 10
12.9965482637
 20
8.1125035095
 10
12.9711954104
 20
8.1180735036
 10
12.9455070288
 20
8.1251989593
 10
12.9195379393
 20
8.1338646708
 10
12.8933435611
 20
8.1440521448
 10
12.8669797945
 20
8.1557396408
 10
12.840502901
 20
8.1689022171
 10
12.8139693836
 20
8.1835117841
 10
12.8138760072
 20
8.1835656979
  0
LWPOLYLINE
  5
346
330
1F
100
AcDbEntity
  8
0
  6
Continuous
 62
     7
370
    15
100
AcDbPolyline
 90
       35
 70
   128
 43
0.0
 10
12.2394451239
 20
9.1786169892
 10
12.2400581557
 20
9.2089030199
 10
12.2418959431
 20
9.2384166273
 10
12.244954564
 20
9.2670948277
 10
12.2492274912
 20
9.2948764204
 10
12.254705606
 20
9.321702118
 10
12.261377218
 20
9.3475146733
 10
12.2692280894
 20
9.3722590009
 10
12.2782414663
 20
9.3958822952
 10
12.2883981135
 20
9.4183341428
 10
12.2996763563
 20
9.4395666304
 10
12.3120521263
 20
9.4595344468
 10
12.3254990131
 20
9.4781949797
 10
12.3399883202
 20
9.4955084065
 10
12.3554891268
 20
9.5114377796
 10
12.3719683534
 20
9.5259491048
 10
12.3893908325
 20
9.5390114142
 10
12.4077193836
 20
9.5505968322
 10
12.4269148926
 20
9.560680635
 10
12.4469363955
 20
9.5692413032
 10
12.4677411652
 20
9.5762605679
 10
12.4892848034
 20
9.5817234497
 10
12.5115213349
 20
9.5856182904
 10
12.5344033058
 20
9.5879367783
 10
12.5578818847
 20
9.5886739656
 10
12.5819069673
 20
9.5878282792
 10
12.6064272827
 20
9.5854015237
 10
12.6313905035
 20
9.581398878
 10
12.6567433568
 20
9.5758288839
 10
12.6824317384
 20
9.5687034281
 10
12.7084008279
 20
9.5600377167
 10
12.734595206
 20
9.5498502427
 10
12.7609589727
 20
9.5381627467
 10
12.7874358662
 20
9.5250001704
 10
12.8139693836
 20
9.5103906034
  0
LWPOLYLINE
  5
347
330
1F
100
AcDbEntity
  8
0
  6
Continuous
 62
     7
370
    15
100
AcDbPolyline
 90
       70
 70
   128
 43
0.0
 10
13.623237234
 20
8.3759628049
 10
13.6232702488
 20
8.3759818671
 10
13.6415987999
 20
8.3875672851
 10
13.659021279
 20
8.4006295946
 10
13.6755005056
 20
8.4151409198
 10
13.6910013122
 20
8.4310702928
 10
13.7054906194
 20
8.4483837196
 10
13.7189375061
 20
8.4670442525
 10
13.7313132761
 20
8.4870120689
 10
13.7425915189
 20
8.5082445565
 10
13.7527481662
 20
8.5306964042
 10
13.761761543
 20
8.5543196984
 10
13.7696124145
 20
8.579064026
 10
13.7762840264
 20
8.6048765813
 10
13.7817621413
 20
8.631702279
 10
13.7860350685
 20
8.6594838717
 10
13.7890936894
 20
8.6881620721
 10
13.7909314767
 20
8.7176756794
 10
13.7915445086
 20
8.7479617102
 10
13.7909314767
 20
8.7789555325
 10
13.7890936894
 20
8.8105910039
 10
13.7860350685
 20
8.8428006128
 10
13.7817621413
 20
8.8755156222
 10
13.7762840264
 20
8.9086662167
 10
13.7696124145
 20
8.9421816512
 10
13.761761543
 20
8.975990402
 10
13.7527481662
 20
9.0100203197
 10
13.7425915189
 20
9.0441987826
 10
13.7313132761
 20
9.0784528522
 10
13.7189375061
 20
9.1127094285
 10
13.7054906194
 20
9.1468954064
 10
13.6910013122
 20
9.1809378311
 10
13.6755005056
 20
9.2147640546
 10
13.659021279
 20
9.2483018898
 10
13.6415987999
 20
9.2814797654
 10
13.6232702488
 20
9.314226878
 10
13.6040747398
 20
9.3464733439
 10
13.5840532369
 20
9.3781503472
 10
13.5632484672
 20
9.4091902877
 10
13.541704829
 20
9.4395269247
 10
13.5194682975
 20
9.4690955182
 10
13.4965863267
 20
9.4978329673
 10
13.4731077477
 20
9.5256779448
 10
13.4490826652
 20
9.5525710283
 10
13.4245623497
 20
9.5784548264
 10
13.3995991289
 20
9.6032741019
 10
13.3742462756
 20
9.6269758892
 10
13.3485578941
 20
9.6495096075
 10
13.3225888045
 20
9.6708271686
 10
13.2963944264
 20
9.6908830798
 10
13.2700306598
 20
9.7096345409
 10
13.2435537662
 20
9.7270415351
 10
13.2170202488
 20
9.7430669153
 10
13.1904867315
 20
9.7576764822
 10
13.1640098379
 20
9.7708390585
 10
13.1376460713
 20
9.7825265545
 10
13.1114516932
 20
9.7927140286
 10
13.0854826036
 20
9.80137974
 10
13.0597942221
 20
9.8085051958
 10
13.0344413688
 20
9.8140751899
 10
13.009478148
 20
9.8180778356
 10
12.9849578325
 20
9.820504591
 10
12.96093275
 20
9.8213502775
 10
12.937454171
 20
9.8206130902
 10
12.9145722002
 20
9.8182946023
 10
12.8923356687
 20
9.8143997615
 10
12.8707920305
 20
9.8089368798
 10
12.8499872608
 20
9.8019176151
 10
12.8299657579
 20
9.7933569469
 10
12.8108032637
 20
9.7832922063
  0
SPLINE
  5
348
330
1F
100
AcDbEntity
  8
0
  6
Continuous
 62
     7
370
    15
100
AcDbSpline
210
0.0
220
0.0
230
1.0
 70
     8
 71
     3
 72
    88
 73
    84
 74
     0
 42
0.00000001
 43
0.00000001
 40
-0.0312499999999994
 40
-0.0312499999999994
 40
0.0
 40
0.0
 40
0.0312499999999985
 40
0.0312499999999985
 40
0.0468749999999977
 40
0.0468749999999977
 40
0.0624999999999969
 40
0.0624999999999969
 40
0.0937499999999954
 40
0.0937499999999954
 40
0.124999999999994
 40
0.124999999999994
 40
0.1562499999999925
 40
0.1562499999999925
 40
0.1718749999999921
 40
0.1718749999999921
 40
0.1874999999999917
 40
0.2031249999999913
 40
0.2031249999999913
 40
0.2187499999999908
 40
0.2187499999999908
 40
0.2499999999999901
 40
0.2499999999999901
 40
0.2812499999999893
 40
0.2812499999999893
 40
0.3124999999999885
 40
0.3124999999999885
 40
0.3281249999999885
 40
0.3281249999999885
 40
0.3437499999999885
 40
0.3437499999999885
 40
0.3749999999999889
 40
0.3749999999999889
 40
0.4062499999999893
 40
0.4062499999999893
 40
0.4218749999999896
 40
0.4218749999999896
 40
0.43749999999999
 40
0.43749999999999
 40
0.4687499999999908
 40
0.4687499999999908
 40
0.4999999999999918
 40
0.4999999999999918
 40
0.5312499999999927
 40
0.5312499999999927
 40
0.5468749999999931
 40
0.5468749999999931
 40
0.5624999999999934
 40
0.5781249999999938
 40
0.5781249999999938
 40
0.5937499999999941
 40
0.5937499999999941
 40
0.6249999999999951
 40
0.6249999999999951
 40
0.6562499999999962
 40
0.6562499999999962
 40
0.6874999999999972
 40
0.6874999999999972
 40
0.703124999999998
 40
0.703124999999998
 40
0.7187499999999989
 40
0.7187499999999989
 40
0.7500000000000004
 40
0.7500000000000004
 40
0.7812500000000014
 40
0.7812500000000014
 40
0.7968750000000017
 40
0.7968750000000017
 40
0.8125000000000018
 40
0.8125000000000018
 40
0.8437500000000017
 40
0.8437500000000017
 40
0.8750000000000016
 40
0.8750000000000016
 40
0.9062500000000016
 40
0.9062500000000016
 40
0.9218750000000013
 40
0.9218750000000013
 40
0.9375000000000011
 40
0.9375000000000011
 40
0.9687500000000006
 40
0.9687500000000006
 40
1.0
 40
1.0
 40
1.031249999999998
 40
1.031249999999998
 10
13.42712477115431
 20
8.262764830305317
 30
0.0
 10
13.4209322960109
 20
8.259189990497635
 30
0.0
 10
13.41810265224542
 20
8.25755894512565
 30
0.0
 10
13.41423993534745
 20
8.255339709236939
 30
0.0
 10
13.41301643141817
 20
8.254638180962502
 30
0.0
 10
13.41069979089425
 20
8.253314309646381
 30
0.0
 10
13.40960462890346
 20
8.252690856335617
 30
0.0
 10
13.40658610380516
 20
8.250982829052251
 30
0.0
 10
13.40490147917547
 20
8.250044126453037
 30
0.0
 10
13.40217232393582
 20
8.248577019560093
 30
0.0
 10
13.4011310983269
 20
8.24805163256797
 30
0.0
 10
13.39977981184376
 20
8.247481146969687
 30
0.0
 10
13.39945150538386
 20
8.247425710606358
 30
0.0
 10
13.39948494098152
 20
8.247708585926869
 30
0.0
 10
13.39958558644568
 20
8.247865043436693
 30
0.0
 10
13.39995801995922
 20
8.24829599954476
 30
0.0
 10
13.40050124547493
 20
8.248845725160537
 30
0.0
 10
13.40137911534685
 20
8.249632832576255
 30
0.0
 10
13.40242588207636
 20
8.250541717763051
 30
0.0
 10
13.40303763651575
 20
8.251060296243642
 30
0.0
 10
13.40510551592256
 20
8.252782702593489
 30
0.0
 10
13.40678069985781
 20
8.254142974087305
 30
0.0
 10
13.41070693153524
 20
8.257279910188954
 30
0.0
 10
13.41298773715853
 20
8.25907960738949
 30
0.0
 10
13.41797247664765
 20
8.262968779831837
 30
0.0
 10
13.42068076158779
 20
8.265062238272654
 30
0.0
 10
13.42507369269646
 20
8.268420123143176
 30
0.0
 10
13.4266021303682
 20
8.269582407307546
 30
0.0
 10
13.42971574628803
 20
8.271936025267873
 30
0.0
 10
13.43130368978133
 20
8.273129545849391
 30
0.0
 10
13.43616062695429
 20
8.276756357997108
 30
0.0
 10
13.43952172660644
 20
8.279235564255602
 30
0.0
 10
13.44651184045875
 20
8.284304993071196
 30
0.0
 10
13.45002983536481
 20
8.286814391618899
 30
0.0
 10
13.45533682692948
 20
8.290521818037787
 30
0.0
 10
13.45711149319076
 20
8.291748614594134
 30
0.0
 10
13.46067372518706
 20
8.294181917035079
 30
0.0
 10
13.46246747440101
 20
8.295392389529596
 30
0.0
 10
13.46775523292025
 20
8.298913103302976
 30
0.0
 10
13.47119126922134
 20
8.301137539177287
 30
0.0
 10
13.477893103626
 20
8.305333999374895
 30
0.0
 10
13.48117697989884
 20
8.30731486276044
 30
0.0
 10
13.48729374906058
 20
8.310846609855476
 30
0.0
 10
13.49016241964842
 20
8.312420878436884
 30
0.0
 10
13.49417289348868
 20
8.314491005297379
 30
0.0
 10
13.49545959037381
 20
8.31513134951739
 30
0.0
 10
13.49787683889168
 20
8.31628677116468
 30
0.0
 10
13.50015353051248
 20
8.317325136359424
 30
0.0
 10
13.50215192336932
 20
8.318135834757896
 30
0.0
 10
13.50400834359348
 20
8.318832911394402
 30
0.0
 10
13.50486948936272
 20
8.319125742289417
 30
0.0
 10
13.50719849934448
 20
8.319820786201937
 30
0.0
 10
13.50840793488177
 20
8.320041143768245
 30
0.0
 10
13.51014860365644
 20
8.320025627800257
 30
0.0
 10
13.51067786049361
 20
8.319782338944108
 30
0.0
 10
13.51098811367664
 20
8.318860567167778
 30
0.0
 10
13.51078131173785
 20
8.31818718538599
 30
0.0
 10
13.50991798857094
 20
8.316866909959382
 30
0.0
 10
13.50953432916365
 20
8.316371469655952
 30
0.0
 10
13.50859047227576
 20
8.315293384568191
 30
0.0
 10
13.5080311278607
 20
8.314710837822313
 30
0.0
 10
13.50609615462031
 20
8.31283728913595
 30
0.0
 10
13.50446597915568
 20
8.311421789381276
 30
0.0
 10
13.50049630191822
 20
8.308248169322967
 30
0.0
 10
13.49821359156341
 20
8.306535923347035
 30
0.0
 10
13.49438293111246
 20
8.303800333196893
 30
0.0
 10
13.49303674294447
 20
8.3028594986472
 30
0.0
 10
13.49020353003721
 20
8.300917674605358
 30
0.0
 10
13.48870967018266
 20
8.299912298796254
 30
0.0
 10
13.48410908327584
 20
8.296865697831693
 30
0.0
 10
13.4808615274926
 20
8.294778168533533
 30
0.0
 10
13.47401859563112
 20
8.290477387422504
 30
0.0
 10
13.47039513008477
 20
8.2882478691127
 30
0.0
 10
13.46310616730904
 20
8.28382994345978
 30
0.0
 10
13.45940852916166
 20
8.281620862516837
 30
0.0
 10
13.45378828824687
 20
8.278294087823816
 30
0.0
 10
13.45190117711434
 20
8.277182257055745
 30
0.0
 10
13.44818649072528
 20
8.275001277389858
 30
0.0
 10
13.4463483366952
 20
8.273925851094146
 30
0.0
 10
13.44089204237374
 20
8.270741538327949
 30
0.0
 10
13.43731489807523
 20
8.268664430182163
 30
0.0
 10
13.43040218012412
 20
8.264659293462088
 30
0.0
 10
13.42712477115431
 20
8.262764830305317
 30
0.0
 10
13.4209322960109
 20
8.259189990497635
 30
0.0
  0
SPLINE
  5
349
330
1F
100
AcDbEntity
  8
0
  6
Continuous
 62
     7
370
    15
100
AcDbSpline
210
0.0
220
0.0
230
1.0
 70
     8
 71
     3
 72
    88
 73
    84
 74
     0
 42
0.00000001
 43
0.00000001
 40
-0.0312499999999997
 40
-0.0312499999999997
 40
0.0
 40
0.0
 40
0.0312500000000003
 40
0.0312500000000003
 40
0.0468750000000004
 40
0.0468750000000004
 40
0.0625000000000006
 40
0.0625000000000006
 40
0.0937500000000011
 40
0.0937500000000011
 40
0.1250000000000016
 40
0.1250000000000016
 40
0.1562500000000022
 40
0.1562500000000022
 40
0.1718750000000022
 40
0.1718750000000022
 40
0.1875000000000022
 40
0.2031250000000022
 40
0.2031250000000022
 40
0.2187500000000022
 40
0.2187500000000022
 40
0.2500000000000018
 40
0.2500000000000018
 40
0.2812500000000014
 40
0.2812500000000014
 40
0.3125000000000011
 40
0.3125000000000011
 40
0.3281250000000012
 40
0.3281250000000012
 40
0.3437500000000014
 40
0.3437500000000014
 40
0.3750000000000013
 40
0.3750000000000013
 40
0.4062500000000013
 40
0.4062500000000013
 40
0.4218750000000012
 40
0.4218750000000012
 40
0.437500000000001
 40
0.437500000000001
 40
0.468750000000001
 40
0.468750000000001
 40
0.5000000000000009
 40
0.5000000000000009
 40
0.531250000000001
 40
0.531250000000001
 40
0.5468750000000009
 40
0.5468750000000009
 40
0.5625000000000008
 40
0.5781250000000008
 40
0.5781250000000008
 40
0.5937500000000007
 40
0.5937500000000007
 40
0.6250000000000003
 40
0.6250000000000003
 40
0.6562500000000001
 40
0.6562500000000001
 40
0.6874999999999999
 40
0.6874999999999999
 40
0.7031249999999997
 40
0.7031249999999997
 40
0.7187499999999994
 40
0.7187499999999994
 40
0.7499999999999999
 40
0.7499999999999999
 40
0.7812500000000003
 40
0.7812500000000003
 40
0.7968750000000004
 40
0.7968750000000004
 40
0.8125000000000006
 40
0.8125000000000006
 40
0.8437500000000007
 40
0.8437500000000007
 40
0.8750000000000007
 40
0.8750000000000007
 40
0.9062500000000008
 40
0.9062500000000008
 40
0.9218750000000007
 40
0.9218750000000007
 40
0.9375000000000007
 40
0.9375000000000007
 40
0.9687500000000003
 40
0.9687500000000003
 40
1.0
 40
1.0
 40
1.03125
 40
1.03125
 10
13.48734860194585
 20
9.078059623252512
 30
0.0
 10
13.48115612680244
 20
9.07448478344483
 30
0.0
 10
13.47793574118253
 20
9.073116564600413
 30
0.0
 10
13.47292500328596
 20
9.071666427659157
 30
0.0
 10
13.47122447652785
 20
9.071284149678085
 30
0.0
 10
13.46776081376504
 20
9.070726113746344
 30
0.0
 10
13.46599252617092
 20
9.070551312557313
 30
0.0
 10
13.46070645224164
 20
9.070350103282212
 30
0.0
 10
13.45717192668075
 20
9.070635538543266
 30
0.0
 10
13.45007251207338
 20
9.07203433768127
 30
0.0
 10
13.44648862690923
 20
9.07316483578527
 30
0.0
 10
13.43958336440791
 20
9.076170953183187
 30
0.0
 10
13.43622428131402
 20
9.078049258579473
 30
0.0
 10
13.43132086117832
 20
9.081440815959226
 30
0.0
 10
13.42971183758968
 20
9.082667372671189
 30
0.0
 10
13.42660877784076
 20
9.085259062835535
 30
0.0
 10
13.4236022814306
 20
9.088001469977735
 30
0.0
 10
13.42078400017351
 20
9.091040265430575
 30
0.0
 10
13.41806029529601
 20
9.094229104680139
 30
0.0
 10
13.41673903148726
 20
9.095908102798116
 30
0.0
 10
13.41297601638186
 20
9.101103814673694
 30
0.0
 10
13.41074263231287
 20
9.104756862680171
 30
0.0
 10
13.40681019622468
 20
9.112430911645802
 30
0.0
 10
13.40509962357087
 20
9.116497606924446
 30
0.0
 10
13.40235927724136
 20
9.124704435621183
 30
0.0
 10
13.40131269756121
 20
9.128861562665096
 30
0.0
 10
13.40023566819717
 20
9.135180269529792
 30
0.0
 10
13.39995886991434
 20
9.1373117782986
 30
0.0
 10
13.39958506339881
 20
9.14152374942852
 30
0.0
 10
13.3994862405577
 20
9.143608966764058
 30
0.0
 10
13.39944960988367
 20
9.149804600410098
 30
0.0
 10
13.39976900122738
 20
9.153855553013095
 30
0.0
 10
13.40113439658445
 20
9.161797121026842
 30
0.0
 10
13.4021592935678
 20
9.165561186218548
 30
0.0
 10
13.40419438149395
 20
9.170900812756356
 30
0.0
 10
13.4049564291683
 20
9.172629960272095
 30
0.0
 10
13.40665292719294
 20
9.17598506882268
 30
0.0
 10
13.40759172044397
 20
9.177615882870118
 30
0.0
 10
13.41061116533136
 20
9.182248210264552
 30
0.0
 10
13.41290717165125
 20
9.185026253224581
 30
0.0
 10
13.4180660916043
 20
9.189970502491107
 30
0.0
 10
13.42095457942758
 20
9.192141920108133
 30
0.0
 10
13.42706849587791
 20
9.19567504453656
 30
0.0
 10
13.43031691569299
 20
9.197066318580822
 30
0.0
 10
13.43548151025603
 20
9.198577126591779
 30
0.0
 10
13.43725242313892
 20
9.198982468498272
 30
0.0
 10
13.44081346089018
 20
9.199580977228104
 30
0.0
 10
13.44441300070268
 20
9.199973728954728
 30
0.0
 10
13.44808666564015
 20
9.199960877154592
 30
0.0
 10
13.45179684331653
 20
9.199742212293001
 30
0.0
 10
13.45368001075525
 20
9.199528133189165
 30
0.0
 10
13.45930880003292
 20
9.19857726717762
 30
0.0
 10
13.46300871893596
 20
9.197544121676492
 30
0.0
 10
13.47029622246245
 20
9.194696765301437
 30
0.0
 10
13.47391995175824
 20
9.192855003292571
 30
0.0
 10
13.48077383110634
 20
9.188498615500622
 30
0.0
 10
13.48402345220097
 20
9.185985932213873
 30
0.0
 10
13.48862373649479
 20
9.181709135482595
 30
0.0
 10
13.49011888334112
 20
9.180189104718194
 30
0.0
 10
13.49296102397783
 20
9.177029158887617
 30
0.0
 10
13.49431070452519
 20
9.175388457813376
 30
0.0
 10
13.49814975448486
 20
9.170288135714122
 30
0.0
 10
13.50043106920888
 20
9.166651989601439
 30
0.0
 10
13.50441358300098
 20
9.158888398613913
 30
0.0
 10
13.5060550850459
 20
9.15487390987433
 30
0.0
 10
13.50799899225527
 20
9.148699167710024
 30
0.0
 10
13.50856102076156
 20
9.146613166332026
 30
0.0
 10
13.50951028744647
 20
9.14238474348347
 30
0.0
 10
13.50989795202851
 20
9.140233411388767
 30
0.0
 10
13.51077274168306
 20
9.13382883998338
 30
0.0
 10
13.51098552237698
 20
9.12958793925894
 30
0.0
 10
13.51068871062896
 20
9.121166007885357
 30
0.0
 10
13.51016623641711
 20
9.116958440022795
 30
0.0
 10
13.50843704381951
 20
9.108960438239531
 30
0.0
 10
13.50723360699241
 20
9.105127233544392
 30
0.0
 10
13.50491724144933
 20
9.099634160475544
 30
0.0
 10
13.50405751758264
 20
9.097845803536442
 30
0.0
 10
13.50220473997642
 20
9.094435027806727
 30
0.0
 10
13.50120764898452
 20
9.09280204928604
 30
0.0
 10
13.49800921473304
 20
9.088117428446251
 30
0.0
 10
13.49558979399979
 20
9.085265919926993
 30
0.0
 10
13.49023522352735
 20
9.080216960228988
 30
0.0
 10
13.48734860194585
 20
9.078059623252512
 30
0.0
 10
13.48115612680244
 20
9.07448478344483
 30
0.0
  0
SPLINE
  5
34A
330
1F
100
AcDbEntity
  8
0
  6
Continuous
 62
     7
370
    15
100
AcDbSpline
210
0.0
220
0.0
230
1.0
 70
     8
 71
     3
 72
    88
 73
    84
 74
     0
 42
0.00000001
 43
0.00000001
 40
-0.0312499999999998
 40
-0.0312499999999998
 40
0.0
 40
0.0
 40
0.0312500000000013
 40
0.0312500000000013
 40
0.046875000000002
 40
0.046875000000002
 40
0.0625000000000027
 40
0.0625000000000027
 40
0.0937500000000042
 40
0.0937500000000042
 40
0.1250000000000058
 40
0.1250000000000058
 40
0.1562500000000074
 40
0.1562500000000074
 40
0.1718750000000079
 40
0.1718750000000079
 40
0.1875000000000083
 40
0.2031250000000087
 40
0.2031250000000087
 40
0.2187500000000092
 40
0.2187500000000092
 40
0.2500000000000092
 40
0.2500000000000092
 40
0.2812500000000092
 40
0.2812500000000092
 40
0.3125000000000091
 40
0.3125000000000091
 40
0.3281250000000089
 40
0.3281250000000089
 40
0.3437500000000086
 40
0.3437500000000086
 40
0.3750000000000082
 40
0.3750000000000082
 40
0.4062500000000078
 40
0.4062500000000078
 40
0.4218750000000074
 40
0.4218750000000074
 40
0.437500000000007
 40
0.437500000000007
 40
0.4687500000000064
 40
0.4687500000000064
 40
0.5000000000000057
 40
0.5000000000000057
 40
0.531250000000005
 40
0.531250000000005
 40
0.5468750000000047
 40
0.5468750000000047
 40
0.5625000000000043
 40
0.5781250000000039
 40
0.5781250000000039
 40
0.5937500000000036
 40
0.5937500000000036
 40
0.6250000000000031
 40
0.6250000000000031
 40
0.6562500000000028
 40
0.6562500000000028
 40
0.6875000000000023
 40
0.6875000000000023
 40
0.7031250000000022
 40
0.7031250000000022
 40
0.7187500000000021
 40
0.7187500000000021
 40
0.7500000000000018
 40
0.7500000000000018
 40
0.7812500000000014
 40
0.7812500000000014
 40
0.7968750000000013
 40
0.7968750000000013
 40
0.8125000000000012
 40
0.8125000000000012
 40
0.8437500000000009
 40
0.8437500000000009
 40
0.8750000000000006
 40
0.8750000000000006
 40
0.9062500000000003
 40
0.9062500000000003
 40
0.9218750000000003
 40
0.9218750000000003
 40
0.9375000000000002
 40
0.9375000000000002
 40
0.9687500000000002
 40
0.9687500000000002
 40
1.0
 40
1.0
 40
1.031250000000001
 40
1.031250000000001
 10
12.77285512442359
 20
9.706627242140385
 30
0.0
 10
12.76666264928019
 20
9.703052402332705
 30
0.0
 10
12.76334263925237
 20
9.701303805568378
 30
0.0
 10
12.75804184296462
 20
9.698734033052947
 30
0.0
 10
12.75622106799884
 20
9.697886311250501
 30
0.0
 10
12.75246981180391
 20
9.69620788597202
 30
0.0
 10
12.75053341241713
 20
9.69537507217065
 30
0.0
 10
12.74468490309465
 20
9.692954194723026
 30
0.0
 10
12.74069592385717
 20
9.691425362893566
 30
0.0
 10
12.73254509593956
 20
9.688520748099819
 30
0.0
 10
12.72835931873653
 20
9.687139801312863
 30
0.0
 10
12.72017376638449
 20
9.684633236170782
 30
0.0
 10
12.71613137992365
 20
9.683491316131354
 30
0.0
 10
12.71015006213857
 20
9.681935763330833
 30
0.0
 10
12.70817326399255
 20
9.681444797615415
 30
0.0
 10
12.70433503714877
 20
9.680535298349211
 30
0.0
 10
12.7005897829972
 20
9.679692281173434
 30
0.0
 10
12.69702908535386
 20
9.678976809816236
 30
0.0
 10
12.69356254232071
 20
9.678324565121073
 30
0.0
 10
12.69186765262604
 20
9.67802871596725
 30
0.0
 10
12.68700068924794
 20
9.677249331224798
 30
0.0
 10
12.68405753971441
 20
9.676873540019976
 30
0.0
 10
12.6787601187093
 20
9.676398616195316
 30
0.0
 10
12.67638815463531
 20
9.676301595361616
 30
0.0
 10
12.67242741156947
 20
9.676403176978829
 30
0.0
 10
12.67081747323699
 20
9.67659736428389
 30
0.0
 10
12.66895853210236
 20
9.677112718081764
 30
0.0
 10
12.66843044221893
 20
9.677323682895295
 30
0.0
 10
12.66758314731906
 20
9.67781613087142
 30
0.0
 10
12.66726139697336
 20
9.678097569399196
 30
0.0
 10
12.66659347899665
 20
9.679048091624264
 30
0.0
 10
12.66654176840667
 20
9.67982220133609
 30
0.0
 10
12.66725020027959
 20
9.681681377991708
 30
0.0
 10
12.66799957919377
 20
9.682737246523073
 30
0.0
 10
12.66968536650967
 20
9.684513083648477
 30
0.0
 10
12.67034169497935
 20
9.685137414232468
 30
0.0
 10
12.67184662020123
 20
9.686454405609654
 30
0.0
 10
12.67269939045769
 20
9.687149893477816
 30
0.0
 10
12.67549368280289
 20
9.689298270518684
 30
0.0
 10
12.67768086046104
 20
9.690824525040759
 30
0.0
 10
12.68269373850129
 20
9.694073632697988
 30
0.0
 10
12.68554571810167
 20
9.695809936247537
 30
0.0
 10
12.69165936902106
 20
9.699339923005768
 30
0.0
 10
12.69494283382262
 20
9.701149115568981
 30
0.0
 10
12.70021663779054
 20
9.70392793717611
 30
0.0
 10
12.7020336580344
 20
9.704865054303882
 30
0.0
 10
12.70570514377211
 20
9.706718492530735
 30
0.0
 10
12.70943371960746
 20
9.708561623572322
 30
0.0
 10
12.71327585808423
 20
9.710381595977958
 30
0.0
 10
12.71717625315262
 20
9.712188063341587
 30
0.0
 10
12.71916603131301
 20
9.71308913082062
 30
0.0
 10
12.72514692993498
 20
9.715732547230475
 30
0.0
 10
12.72912220777882
 20
9.717404656883799
 30
0.0
 10
12.73705712673498
 20
9.720555823277342
 30
0.0
 10
12.74105793653219
 20
9.722048105512608
 30
0.0
 10
12.74875563863351
 20
9.724705680159833
 30
0.0
 10
12.75247237918276
 20
9.725881144355965
 30
0.0
 10
12.75785293207349
 20
9.727401534454906
 30
0.0
 10
12.7596231426946
 20
9.727869750722585
 30
0.0
 10
12.76303423534736
 20
9.72870488248591
 30
0.0
 10
12.76467797371775
 20
9.729073029691197
 30
0.0
 10
12.76942884736228
 20
9.730031148990129
 30
0.0
 10
12.77235748211498
 20
9.730476032441224
 30
0.0
 10
12.77772025577317
 20
9.73095914922555
 30
0.0
 10
12.78007461082459
 20
9.73098943288567
 30
0.0
 10
12.78311128942683
 20
9.730732467824383
 30
0.0
 10
12.78404183954113
 20
9.730596217907845
 30
0.0
 10
12.78573578451493
 20
9.730221522326627
 30
0.0
 10
12.78650115013868
 20
9.729981474731952
 30
0.0
 10
12.78849482265298
 20
9.72912346523824
 30
0.0
 10
12.78944132152527
 20
9.728367112908009
 30
0.0
 10
12.79057302950805
 20
9.726505476345118
 30
0.0
 10
12.79074926962155
 20
9.725388431600349
 30
0.0
 10
12.79030148238319
 20
9.722909035352146
 30
0.0
 10
12.78968829327231
 20
9.721539547621349
 30
0.0
 10
12.78816653064739
 20
9.719300015113516
 30
0.0
 10
12.78755636007702
 20
9.71852147196177
 30
0.0
 10
12.7861590349795
 20
9.71693826346368
 30
0.0
 10
12.78536941064483
 20
9.71612948480236
 30
0.0
 10
12.78273094754134
 20
9.713655095653081
 30
0.0
 10
12.78060301440178
 20
9.711933483646778
 30
0.0
 10
12.77564209577593
 20
9.708404167968876
 30
0.0
 10
12.77285512442359
 20
9.706627242140385
 30
0.0
 10
12.76666264928019
 20
9.703052402332705
 30
0.0
  0
LWPOLYLINE
  5
34B
330
1F
100
AcDbEntity
  8
0
  6
Continuous
 62
     7
370
    15
100
AcDbPolyline
 90
       54
 70
   128
 43
0.0
 10
13.0394865018
 20
8.4358882388
 10
13.0412858798
 20
8.43694307
 10
13.0550256874
 20
8.4461358944
 10
13.0678358687
 20
8.4568007962
 10
13.0796687689
 20
8.4688981012
 10
13.0904803689
 20
8.4823828068
 10
13.1002304488
 20
8.4972047489
 10
13.1088827377
 20
8.5133087889
 10
13.1164050485
 20
8.5306350188
 10
13.1227693977
 20
8.5491189837
 10
13.1279521096
 20
8.5686919223
 10
13.131933904
 20
8.5892810218
 10
13.1346999685
 20
8.6108096894
 10
13.1362400132
 20
8.6331978371
 10
13.1365483088
 20
8.6563621795
 10
13.1356237086
 20
8.6802165437
 10
13.1334696522
 20
8.70467219
 10
13.1300941527
 20
8.7296381416
 10
13.1255097673
 20
8.7550215237
 10
13.1197335501
 20
8.7807279084
 10
13.1127869892
 20
8.8066616663
 10
13.104695926
 20
8.832726322
 10
13.09549046
 20
8.8588249133
 10
13.085204836
 20
8.8848603518
 10
13.0738773173
 20
8.9107357839
 10
13.061550043
 20
8.9363549513
 10
13.0482688713
 20
8.9616225491
 10
13.034083209
 20
8.98644458
 10
13.0190458279
 20
9.0107287046
 10
13.0032126678
 20
9.0343845843
 10
12.9866426293
 20
9.0573242176
 10
12.9693973539
 20
9.0794622676
 10
12.9515409951
 20
9.1007163793
 10
12.93313998
 20
9.1210074861
 10
12.9142627613
 20
9.1402601036
 10
12.8949795636
 20
9.1584026108
 10
12.8753621217
 20
9.1753675166
 10
12.8554834137
 20
9.1910917102
 10
12.8354173898
 20
9.2055166966
 10
12.8152386968
 20
9.2185888141
 10
12.7950224008
 20
9.2302594333
 10
12.7748437079
 20
9.2404851389
 10
12.7547776839
 20
9.2492278905
 10
12.7348989759
 20
9.2564551646
 10
12.715281534
 20
9.2621400752
 10
12.6959983363
 20
9.2662614741
 10
12.6771211177
 20
9.2688040293
 10
12.6587201025
 20
9.2697582825
 10
12.6408637438
 20
9.2691206837
 10
12.6236184684
 20
9.2668936048
 10
12.6070484298
 20
9.2630853308
 10
12.5912152698
 20
9.2577100287
 10
12.5761778886
 20
9.2507876948
 10
12.5707745958
 20
9.2478090473
  0
LWPOLYLINE
  5
34C
330
1F
100
AcDbEntity
  8
0
  6
Continuous
 62
     7
370
    15
100
AcDbPolyline
 90
      104
 70
   128
 43
0.0
 10
12.6575220082
 20
8.3738825408
 10
12.6777289013
 20
8.3629292838
 10
12.6978606233
 20
8.3534406419
 10
12.7178422831
 20
8.3454519134
 10
12.7375995474
 20
8.3389928168
 10
12.7570589181
 20
8.3340873805
 10
12.7761480049
 20
8.3307538529
 10
12.7947957953
 20
8.3290046351
 10
12.8129329181
 20
8.3288462343
 10
12.8304919021
 20
8.3302792396
 10
12.8474074268
 20
8.3332983203
 10
12.8636165652
 20
8.3378922451
 10
12.8790590184
 20
8.3440439243
 10
12.8936773393
 20
8.3517304733
 10
12.9074171469
 20
8.3609232977
 10
12.9202273281
 20
8.3715881995
 10
12.9320602283
 20
8.3836855046
 10
12.9428718283
 20
8.3971702101
 10
12.9526219082
 20
8.4119921522
 10
12.9612741971
 20
8.4280961922
 10
12.9687965079
 20
8.4454224221
 10
12.9751608572
 20
8.4639063871
 10
12.980343569
 20
8.4834793256
 10
12.9843253635
 20
8.5040684251
 10
12.987091428
 20
8.5255970927
 10
12.9886314726
 20
8.5479852404
 10
12.9889397682
 20
8.5711495828
 10
12.9880151681
 20
8.595003947
 10
12.9858611116
 20
8.6194595933
 10
12.9824856121
 20
8.644425545
 10
12.9779012267
 20
8.6698089271
 10
12.9721250096
 20
8.6955153117
 10
12.9651784486
 20
8.7214490696
 10
12.9570873854
 20
8.7475137253
 10
12.9478819194
 20
8.7736123166
 10
12.9375962954
 20
8.7996477551
 10
12.9262687767
 20
8.8255231872
 10
12.9139415024
 20
8.8511423547
 10
12.9006603307
 20
8.8764099524
 10
12.8864746684
 20
8.9012319834
 10
12.8714372873
 20
8.9255161079
 10
12.8556041272
 20
8.9491719876
 10
12.8390340887
 20
8.9721116209
 10
12.8217888133
 20
8.9942496709
 10
12.8039324546
 20
9.0155037826
 10
12.7855314394
 20
9.0357948894
 10
12.7666542207
 20
9.0550475069
 10
12.747371023
 20
9.0731900142
 10
12.7277535811
 20
9.0901549199
 10
12.7078748731
 20
9.1058791135
 10
12.6878088492
 20
9.1203041
 10
12.6676301562
 20
9.1333762174
 10
12.6474138603
 20
9.1450468366
 10
12.6272351673
 20
9.1552725422
 10
12.6071691433
 20
9.1640152939
 10
12.5872904354
 20
9.1712425679
 10
12.5676729934
 20
9.1769274785
 10
12.5483897958
 20
9.1810488774
 10
12.5295125771
 20
9.1835914326
 10
12.5111115619
 20
9.1845456858
 10
12.4932552032
 20
9.183908087
 10
12.4760099278
 20
9.1816810082
 10
12.4594398892
 20
9.1778727342
 10
12.4436067292
 20
9.172497432
 10
12.428569348
 20
9.1655750982
 10
12.4143836858
 20
9.1571314842
 10
12.4011025141
 20
9.1471980009
 10
12.3887752397
 20
9.1358116015
 10
12.377447721
 20
9.1230146441
 10
12.3671620971
 20
9.1088547342
 10
12.357956631
 20
9.0933845477
 10
12.3498655679
 20
9.0766616347
 10
12.3429190069
 20
9.0587482055
 10
12.3371427897
 20
9.0397108991
 10
12.3325584043
 20
9.0196205358
 10
12.3291829049
 20
8.9985518528
 10
12.3270288484
 20
8.9765832272
 10
12.3261042482
 20
8.9537963836
 10
12.3264125439
 20
8.9302760906
 10
12.3279525885
 20
8.9061098453
 10
12.330718653
 20
8.8813875476
 10
12.3347004474
 20
8.8562011661
 10
12.3398831593
 20
8.8306443958
 10
12.3462475085
 20
8.8048123096
 10
12.3537698193
 20
8.7788010046
 10
12.3624221083
 20
8.7527072444
 10
12.3721721882
 20
8.7266280997
 10
12.3829837882
 20
8.7006605864
 10
12.3948166884
 20
8.6749013056
 10
12.4076268696
 20
8.6494460834
 10
12.4213666772
 20
8.6243896149
 10
12.4359849981
 20
8.5998251117
 10
12.4514274513
 20
8.5758439556
 10
12.4676365897
 20
8.5525353579
 10
12.4845521144
 20
8.5299860282
 10
12.5021110984
 20
8.5082798514
 10
12.5202482212
 20
8.487497576
 10
12.5388960115
 20
8.4677165134
 10
12.5579850984
 20
8.4490102504
 10
12.577444469
 20
8.4314483756
 10
12.5972017334
 20
8.4150962203
 10
12.6171833932
 20
8.4000146155
 10
12.6373151152
 20
8.3862596659
 10
12.6575220082
 20
8.3738825408
  0
LWPOLYLINE
  5
34D
330
1F
100
AcDbEntity
  8
0
  6
Continuous
 62
     7
370
    15
100
AcDbPolyline
 90
       71
 70
   128
 43
0.0
 10
12.6575220082
 20
8.935254349
 10
12.6713873814
 20
8.9265309746
 10
12.6851411188
 20
8.9164397062
 10
12.6986724833
 20
8.9050617927
 10
12.7118725284
 20
8.8924888423
 10
12.7246349751
 20
8.8788220852
 10
12.7368570676
 20
8.8641715578
 10
12.7484404009
 20
8.8486552178
 10
12.7592917127
 20
8.8323979935
 10
12.7693236347
 20
8.8155307786
 10
12.7784553958
 20
8.7981893779
 10
12.7866134723
 20
8.7805134142
 10
12.7937321802
 20
8.7626452039
 10
12.799754204
 20
8.7447286115
 10
12.8046310577
 20
8.7269078908
 10
12.8083234759
 20
8.7093265236
 10
12.8108017293
 20
8.692126065
 10
12.8120458645
 20
8.6754450027
 10
12.8120458645
 20
8.659417643
 10
12.8108017293
 20
8.6441730288
 10
12.8083234759
 20
8.6298339006
 10
12.8046310577
 20
8.6165157087
 10
12.799754204
 20
8.6043256835
 10
12.7937321802
 20
8.5933619717
 10
12.7866134723
 20
8.5837128467
 10
12.7784553958
 20
8.5754559977
 10
12.7693236347
 20
8.5686579039
 10
12.7592917127
 20
8.5633732995
 10
12.7484404009
 20
8.5596447332
 10
12.7368570676
 20
8.5575022251
 10
12.7246349751
 20
8.5569630254
 10
12.7118725284
 20
8.5580314755
 10
12.6986724833
 20
8.5606989728
 10
12.6851411188
 20
8.5649440402
 10
12.6713873814
 20
8.570732499
 10
12.6575220082
 20
8.5780177438
 10
12.643656635
 20
8.5867411181
 10
12.6299028977
 20
8.5968323865
 10
12.6163715331
 20
8.6082103
 10
12.6031714881
 20
8.6207832504
 10
12.5904090414
 20
8.6344500076
 10
12.5781869489
 20
8.6491005349
 10
12.5666036156
 20
8.6646168749
 10
12.5557523038
 20
8.6808740992
 10
12.5457203818
 20
8.6977413142
 10
12.5365886207
 20
8.7150827149
 10
12.5284305442
 20
8.7327586786
 10
12.5213118362
 20
8.7506268888
 10
12.5152898125
 20
8.7685434812
 10
12.5104129587
 20
8.786364202
 10
12.5067205406
 20
8.8039455691
 10
12.5042422872
 20
8.8211460278
 10
12.5029981519
 20
8.83782709
 10
12.5029981519
 20
8.8538544497
 10
12.5042422872
 20
8.8690990639
 10
12.5067205406
 20
8.8834381921
 10
12.5104129587
 20
8.896756384
 10
12.5152898125
 20
8.9089464093
 10
12.5213118362
 20
8.9199101211
 10
12.5284305442
 20
8.929559246
 10
12.5365886207
 20
8.9378160951
 10
12.5457203818
 20
8.9446141889
 10
12.5557523038
 20
8.9498987932
 10
12.5666036156
 20
8.9536273595
 10
12.5781869489
 20
8.9557698677
 10
12.5904090414
 20
8.9563090673
 10
12.6031714881
 20
8.9552406172
 10
12.6163715331
 20
8.9525731199
 10
12.6299028977
 20
8.9483280525
 10
12.643656635
 20
8.9425395938
 10
12.6575220082
 20
8.935254349
  0
LWPOLYLINE
  5
34E
330
1F
100
AcDbEntity
  8
0
  6
Continuous
 62
     7
370
    15
100
AcDbPolyline
 90
       30
 70
   128
 43
0.0
 10
12.7680074428
 20
8.969082712
 10
12.7686532148
 20
8.9755666399
 10
12.7705603353
 20
8.981001794
 10
12.7736396294
 20
8.9851340326
 10
12.7777471127
 20
8.9877701368
 10
12.7826907239
 20
8.9887868452
 10
12.7882393053
 20
8.9881366178
 10
12.7941334112
 20
8.9858498585
 10
12.80009744
 20
8.9820334935
 10
12.8058525202
 20
8.9768659718
 10
12.8111295506
 20
8.9705889211
 10
12.8156817833
 20
8.9634958492
 10
12.8192963608
 20
8.9559184204
 10
12.8218042695
 20
8.9482109466
 10
12.8230882425
 20
8.9407338209
 10
12.8230882425
 20
8.9338366654
 10
12.8218042695
 20
8.9278419833
 10
12.8192963608
 20
8.9230300793
 10
12.8156817833
 20
8.9196259528
 10
12.8111295506
 20
8.9177887769
 10
12.8058525202
 20
8.9176044558
 10
12.80009744
 20
8.9190816083
 10
12.7941334112
 20
8.9221511644
 10
12.7882393053
 20
8.9266695949
 10
12.7826907239
 20
8.9324256232
 10
12.7777471127
 20
8.9391501037
 10
12.7736396294
 20
8.9465286072
 10
12.7705603353
 20
8.954216123
 10
12.7686532148
 20
8.9618531916
 10
12.7680074428
 20
8.969082712
  0
LWPOLYLINE
  5
34F
330
1F
100
AcDbEntity
  8
0
  6
Continuous
 62
     7
370
    15
100
AcDbPolyline
 90
       30
 70
   128
 43
0.0
 10
12.3536870632
 20
8.9320362266
 10
12.3543328352
 20
8.9385201545
 10
12.3562399557
 20
8.9439553086
 10
12.3593192498
 20
8.9480875472
 10
12.3634267331
 20
8.9507236514
 10
12.3683703443
 20
8.9517403599
 10
12.3739189256
 20
8.9510901325
 10
12.3798130316
 20
8.9488033731
 10
12.3857770604
 20
8.9449870082
 10
12.3915321406
 20
8.9398194865
 10
12.396809171
 20
8.9335424358
 10
12.4013614037
 20
8.9264493639
 10
12.4049759812
 20
8.918871935
 10
12.4074838899
 20
8.9111644613
 10
12.4087678629
 20
8.9036873356
 10
12.4087678629
 20
8.89679018
 10
12.4074838899
 20
8.8907954979
 10
12.4049759812
 20
8.885983594
 10
12.4013614037
 20
8.8825794675
 10
12.396809171
 20
8.8807422915
 10
12.3915321406
 20
8.8805579705
 10
12.3857770604
 20
8.882035123
 10
12.3798130316
 20
8.8851046791
 10
12.3739189256
 20
8.8896231096
 10
12.3683703443
 20
8.8953791379
 10
12.3634267331
 20
8.9021036184
 10
12.3593192498
 20
8.9094821218
 10
12.3562399557
 20
8.9171696377
 10
12.3543328352
 20
8.9248067063
 10
12.3536870632
 20
8.9320362266
  0
LWPOLYLINE
  5
350
330
1F
100
AcDbEntity
  8
0
  6
Continuous
 62
     7
370
    15
100
AcDbPolyline
 90
       30
 70
   128
 43
0.0
 10
12.7680074428
 20
8.4166256133
 10
12.7686532148
 20
8.4231095412
 10
12.7705603353
 20
8.4285446953
 10
12.7736396294
 20
8.4326769339
 10
12.7777471127
 20
8.4353130381
 10
12.7826907239
 20
8.4363297465
 10
12.7882393053
 20
8.4356795191
 10
12.7941334112
 20
8.4333927598
 10
12.80009744
 20
8.4295763948
 10
12.8058525202
 20
8.4244088732
 10
12.8111295506
 20
8.4181318224
 10
12.8156817833
 20
8.4110387506
 10
12.8192963608
 20
8.4034613217
 10
12.8218042695
 20
8.3957538479
 10
12.8230882425
 20
8.3882767222
 10
12.8230882425
 20
8.3813795667
 10
12.8218042695
 20
8.3753848846
 10
12.8192963608
 20
8.3705729806
 10
12.8156817833
 20
8.3671688541
 10
12.8111295506
 20
8.3653316782
 10
12.8058525202
 20
8.3651473571
 10
12.80009744
 20
8.3666245097
 10
12.7941334112
 20
8.3696940657
 10
12.7882393053
 20
8.3742124962
 10
12.7826907239
 20
8.3799685245
 10
12.7777471127
 20
8.386693005
 10
12.7736396294
 20
8.3940715085
 10
12.7705603353
 20
8.4017590244
 10
12.7686532148
 20
8.4093960929
 10
12.7680074428
 20
8.4166256133
  0
LWPOLYLINE
  5
351
330
1F
100
AcDbEntity
  8
0
  6
Continuous
 62
     7
370
    15
100
AcDbPolyline
 90
       30
 70
   128
 43
0.0
 10
12.4917938564
 20
8.5760803226
 10
12.4924396284
 20
8.5825642505
 10
12.4943467489
 20
8.5879994046
 10
12.497426043
 20
8.5921316432
 10
12.5015335263
 20
8.5947677474
 10
12.5064771375
 20
8.5957844559
 10
12.5120257189
 20
8.5951342285
 10
12.5179198248
 20
8.5928474691
 10
12.5238838536
 20
8.5890311041
 10
12.5296389338
 20
8.5838635825
 10
12.5349159642
 20
8.5775865318
 10
12.5394681969
 20
8.5704934599
 10
12.5430827744
 20
8.562916031
 10
12.5455906831
 20
8.5552085573
 10
12.5468746561
 20
8.5477314316
 10
12.5468746561
 20
8.540834276
 10
12.5455906831
 20
8.5348395939
 10
12.5430827744
 20
8.53002769
 10
12.5394681969
 20
8.5266235635
 10
12.5349159642
 20
8.5247863875
 10
12.5296389338
 20
8.5246020665
 10
12.5238838536
 20
8.526079219
 10
12.5179198248
 20
8.529148775
 10
12.5120257189
 20
8.5336672056
 10
12.5064771375
 20
8.5394232338
 10
12.5015335263
 20
8.5461477143
 10
12.497426043
 20
8.5535262178
 10
12.4943467489
 20
8.5612137337
 10
12.4924396284
 20
8.5688508022
 10
12.4917938564
 20
8.5760803226
  0
LWPOLYLINE
  5
352
330
1F
100
AcDbEntity
  8
0
  6
Continuous
 62
     7
370
    15
100
AcDbPolyline
 90
       30
 70
   128
 43
0.0
 10
12.4917938564
 20
9.1285374213
 10
12.4924396284
 20
9.1350213492
 10
12.4943467489
 20
9.1404565033
 10
12.497426043
 20
9.1445887419
 10
12.5015335263
 20
9.1472248461
 10
12.5064771375
 20
9.1482415546
 10
12.5120257189
 20
9.1475913272
 10
12.5179198248
 20
9.1453045678
 10
12.5238838536
 20
9.1414882028
 10
12.5296389338
 20
9.1363206812
 10
12.5349159642
 20
9.1300436305
 10
12.5394681969
 20
9.1229505586
 10
12.5430827744
 20
9.1153731297
 10
12.5455906831
 20
9.1076656559
 10
12.5468746561
 20
9.1001885303
 10
12.5468746561
 20
9.0932913747
 10
12.5455906831
 20
9.0872966926
 10
12.5430827744
 20
9.0824847887
 10
12.5394681969
 20
9.0790806621
 10
12.5349159642
 20
9.0772434862
 10
12.5296389338
 20
9.0770591652
 10
12.5238838536
 20
9.0785363177
 10
12.5179198248
 20
9.0816058737
 10
12.5120257189
 20
9.0861243043
 10
12.5064771375
 20
9.0918803325
 10
12.5015335263
 20
9.098604813
 10
12.497426043
 20
9.1059833165
 10
12.4943467489
 20
9.1136708324
 10
12.4924396284
 20
9.1213079009
 10
12.4917938564
 20
9.1285374213
  0
LWPOLYLINE
  5
353
330
1F
100
AcDbEntity
  8
0
  6
Continuous
 62
     7
370
    15
100
AcDbPolyline
 90
       30
 70
   128
 43
0.0
 10
12.906114236
 20
8.613126808
 10
12.906760008
 20
8.6196107358
 10
12.9086671285
 20
8.62504589
 10
12.9117464226
 20
8.6291781286
 10
12.9158539059
 20
8.6318142327
 10
12.9207975171
 20
8.6328309412
 10
12.9263460985
 20
8.6321807138
 10
12.9322402044
 20
8.6298939545
 10
12.9382042332
 20
8.6260775895
 10
12.9439593134
 20
8.6209100678
 10
12.9492363438
 20
8.6146330171
 10
12.9537885765
 20
8.6075399452
 10
12.957403154
 20
8.5999625163
 10
12.9599110627
 20
8.5922550426
 10
12.9611950357
 20
8.5847779169
 10
12.9611950357
 20
8.5778807613
 10
12.9599110627
 20
8.5718860793
 10
12.957403154
 20
8.5670741753
 10
12.9537885765
 20
8.5636700488
 10
12.9492363438
 20
8.5618328729
 10
12.9439593134
 20
8.5616485518
 10
12.9382042332
 20
8.5631257043
 10
12.9322402044
 20
8.5661952604
 10
12.9263460985
 20
8.5707136909
 10
12.9207975171
 20
8.5764697192
 10
12.9158539059
 20
8.5831941997
 10
12.9117464226
 20
8.5905727032
 10
12.9086671285
 20
8.598260219
 10
12.906760008
 20
8.6058972876
 10
12.906114236
 20
8.613126808
  0
SPLINE
  5
354
330
1F
100
AcDbEntity
  8
0
  6
Continuous
 62
     7
370
    15
100
AcDbSpline
210
0.0
220
0.0
230
1.0
 70
     8
 71
     3
 72
    80
 73
    76
 74
     0
 42
0.00000001
 43
0.00000001
 40
-0.0312500000000001
 40
-0.0312500000000001
 40
0.0
 40
0.0
 40
0.0312499999999998
 40
0.0312499999999998
 40
0.0468749999999998
 40
0.0468749999999998
 40
0.0624999999999997
 40
0.0624999999999997
 40
0.0937499999999996
 40
0.0937499999999996
 40
0.1249999999999995
 40
0.1249999999999995
 40
0.1562499999999994
 40
0.1562499999999994
 40
0.1874999999999993
 40
0.1874999999999993
 40
0.2187499999999992
 40
0.2187499999999992
 40
0.2499999999999991
 40
0.2499999999999991
 40
0.2812499999999989
 40
0.2812499999999989
 40
0.3124999999999988
 40
0.3124999999999988
 40
0.3281249999999987
 40
0.3281249999999987
 40
0.3437499999999984
 40
0.3437499999999984
 40
0.3749999999999981
 40
0.3749999999999981
 40
0.4062499999999978
 40
0.4062499999999978
 40
0.4218749999999979
 40
0.4218749999999979
 40
0.437499999999998
 40
0.437499999999998
 40
0.4687499999999982
 40
0.4687499999999982
 40
0.4999999999999983
 40
0.4999999999999983
 40
0.5312499999999986
 40
0.5312499999999986
 40
0.5624999999999987
 40
0.5624999999999987
 40
0.5937499999999989
 40
0.5937499999999989
 40
0.624999999999999
 40
0.624999999999999
 40
0.6562499999999992
 40
0.6562499999999992
 40
0.6874999999999993
 40
0.6874999999999993
 40
0.7031249999999994
 40
0.7031249999999994
 40
0.7187499999999994
 40
0.7187499999999994
 40
0.7499999999999994
 40
0.7499999999999994
 40
0.7812499999999996
 40
0.7812499999999996
 40
0.7968749999999996
 40
0.7968749999999996
 40
0.8124999999999997
 40
0.8124999999999997
 40
0.8437499999999997
 40
0.8437499999999997
 40
0.8749999999999998
 40
0.8749999999999998
 40
0.9062499999999998
 40
0.9062499999999998
 40
0.9374999999999999
 40
0.9374999999999999
 40
0.9687499999999999
 40
0.9687499999999999
 40
1.0
 40
1.0
 40
1.03125
 40
1.03125
 10
12.69156951812309
 20
9.19966997028587
 30
0.0
 10
12.69650095117481
 20
9.202516825989603
 30
0.0
 10
12.69916721259445
 20
9.203808409420116
 30
0.0
 10
12.70345493247801
 20
9.205553607280924
 30
0.0
 10
12.70493258658973
 20
9.20610302163066
 30
0.0
 10
12.70798692361447
 20
9.207134659520923
 30
0.0
 10
12.70956824211004
 20
9.207617614524043
 30
0.0
 10
12.71435882439193
 20
9.20893121811196
 30
0.0
 10
12.71764545658297
 20
9.209639742776497
 30
0.0
 10
12.72440364607366
 20
9.210710469845845
 30
0.0
 10
12.72789449749677
 20
9.211069509445647
 30
0.0
 10
12.73476891499081
 20
9.211385868375254
 30
0.0
 10
12.73818789261068
 20
9.211351016872118
 30
0.0
 10
12.7449896382992
 20
9.210867002645648
 30
0.0
 10
12.74831454562606
 20
9.210418472098864
 30
0.0
 10
12.75466125045334
 20
9.209126096823887
 30
0.0
 10
12.75773002979277
 20
9.208272648906913
 30
0.0
 10
12.76350318008768
 20
9.206168942551033
 30
0.0
 10
12.76616135327804
 20
9.204939583612157
 30
0.0
 10
12.7710322129732
 20
9.2021311393416
 30
0.0
 10
12.77326243144989
 20
9.200531907670218
 30
0.0
 10
12.7770944847837
 20
9.19709915680386
 30
0.0
 10
12.77871556275575
 20
9.195261160187584
 30
0.0
 10
12.78070201757641
 20
9.19232792696115
 30
0.0
 10
12.78129153940734
 20
9.191315242491065
 30
0.0
 10
12.78229606101223
 20
9.189270795094348
 30
0.0
 10
12.78271383411109
 20
9.188236433810676
 30
0.0
 10
12.7837195507443
 20
9.185100625091446
 30
0.0
 10
12.78406234826629
 20
9.182965847479519
 30
0.0
 10
12.78406519992688
 20
9.178626543876296
 30
0.0
 10
12.78372545620981
 20
9.176492658772807
 30
0.0
 10
12.78272425866204
 20
9.173356070764179
 30
0.0
 10
12.7823079827034
 20
9.17232129732566
 30
0.0
 10
12.78130637705883
 20
9.17027575211365
 30
0.0
 10
12.78071829405971
 20
9.16926242884857
 30
0.0
 10
12.77873628875623
 20
9.166327476709812
 30
0.0
 10
12.77711824431576
 20
9.164488336233363
 30
0.0
 10
12.77329276567403
 20
9.161053426700658
 30
0.0
 10
12.77106479152301
 20
9.15945213442612
 30
0.0
 10
12.76619754214904
 20
9.156640007315444
 30
0.0
 10
12.76354137742894
 20
9.155409257201727
 30
0.0
 10
12.75777324784125
 20
9.153303153073326
 30
0.0
 10
12.75470419816248
 20
9.152447741847306
 30
0.0
 10
12.74835820344325
 20
9.151152389014387
 30
0.0
 10
12.74503268321098
 20
9.150702423875186
 30
0.0
 10
12.73823327109117
 20
9.150215648387517
 30
0.0
 10
12.73481462101766
 20
9.150179195760266
 30
0.0
 10
12.72793918007114
 20
9.150492202104445
 30
0.0
 10
12.7244475341912
 20
9.150849490546019
 30
0.0
 10
12.71768990851268
 20
9.151916108599973
 30
0.0
 10
12.7144029537674
 20
9.152622490070149
 30
0.0
 10
12.70961105109488
 20
9.15393305838221
 30
0.0
 10
12.70802905980918
 20
9.154415054259694
 30
0.0
 10
12.70497322471956
 20
9.155444904849253
 30
0.0
 10
12.70349483828521
 20
9.155993453660361
 30
0.0
 10
12.69920492756767
 20
9.1577361472348
 30
0.0
 10
12.69653721634265
 20
9.159026191379562
 30
0.0
 10
12.6916026554508
 20
9.161870154216466
 30
0.0
 10
12.68941653203369
 20
9.163377834719203
 30
0.0
 10
12.68654751197085
 20
9.165761353272421
 30
0.0
 10
12.68565967657218
 20
9.166576604699516
 30
0.0
 10
12.68402402511165
 20
9.16825059776708
 30
0.0
 10
12.68327507584565
 20
9.169112050539344
 30
0.0
 10
12.68128847102298
 20
9.171708610130265
 30
0.0
 10
12.6802899354426
 20
9.173472428206345
 30
0.0
 10
12.67893789150359
 20
9.17708033010604
 30
0.0
 10
12.67859148324126
 20
9.178934859827407
 30
0.0
 10
12.67858610606624
 20
9.18258677251539
 30
0.0
 10
12.6789162175619
 20
9.18440291483402
 30
0.0
 10
12.68025939822224
 20
9.188033881364273
 30
0.0
 10
12.68126692322452
 20
9.18981882106004
 30
0.0
 10
12.68388710724991
 20
9.193259136489102
 30
0.0
 10
12.68551651928236
 20
9.194938078832703
 30
0.0
 10
12.68937359349251
 20
9.198154657215293
 30
0.0
 10
12.69156951812309
 20
9.19966997028587
 30
0.0
 10
12.69650095117481
 20
9.202516825989603
 30
0.0
  0
LWPOLYLINE
  5
355
330
1F
100
AcDbEntity
  8
0
  6
Continuous
 62
     7
370
    15
100
AcDbPolyline
 90
       36
 70
   128
 43
0.0
 10
13.2259510234
 20
9.7379096215
 10
13.2390219931
 20
9.7301870514
 10
13.2653193041
 20
9.7135915635
 10
13.2915311531
 20
9.6956341016
 10
13.317600771
 20
9.6763535576
 10
13.3434716968
 20
9.6557916888
 10
13.3690878999
 20
9.6339930276
 10
13.3943939012
 20
9.6110047852
 10
13.4193348937
 20
9.5868767489
 10
13.4438568607
 20
9.5616611747
 10
13.467906693
 20
9.5354126739
 10
13.4914323041
 20
9.5081880949
 10
13.5143827427
 20
9.4800464001
 10
13.5367083034
 20
9.4510485381
 10
13.5583606338
 20
9.4212573118
 10
13.57929284
 20
9.3907372425
 10
13.5994595873
 20
9.3595544297
 10
13.6188171991
 20
9.3277764085
 10
13.6373237511
 20
9.2954720031
 10
13.6549391623
 20
9.2627111775
 10
13.6716252816
 20
9.2295648845
 10
13.6873459706
 20
9.1961049114
 10
13.7020671817
 20
9.1624037252
 10
13.7157570322
 20
9.1285343152
 10
13.7283858727
 20
9.0945700349
 10
13.7399263522
 20
9.0605844433
 10
13.7503534764
 20
9.0266511458
 10
13.7596446625
 20
8.9928436343
 10
13.767779788
 20
8.9592351283
 10
13.7747412339
 20
8.9258984164
 10
13.7805139232
 20
8.8929056985
 10
13.7850853537
 20
8.8603284294
 10
13.7884456246
 20
8.8282371642
 10
13.7905874584
 20
8.7967014055
 10
13.7915062162
 20
8.7657894528
 10
13.7915445086
 20
8.7581668116
  0
ARC
  5
356
330
1F
100
AcDbEntity
  8
0
  6
Continuous
 62
     7
370
    15
100
AcDbCircle
 10
13.4066088802
 20
9.1164746681
 30
0.0
 40
0.071114558712611
100
AcDbArc
 50
319.2178625162
 51
83.6122409806
  0
LWPOLYLINE
  5
357
330
1F
100
AcDbEntity
  8
0
  6
HIDDEN
 62
     7
370
     0
100
AcDbPolyline
 90
       17
 70
   128
 43
0.0
 10
13.478428787
 20
9.3855784128
 10
13.4809518479
 20
9.3694745382
 10
13.4881369174
 20
9.3529092685
 10
13.4988901338
 20
9.3384045157
 10
13.5115744174
 20
9.3281684971
 10
13.524258701
 20
9.3237595536
 10
13.5350119174
 20
9.325848907
 10
13.5421969869
 20
9.334118472
 10
13.5447200478
 20
9.3473092825
 10
13.5421969869
 20
9.3634131571
 10
13.5350119174
 20
9.3799784268
 10
13.524258701
 20
9.3944831796
 10
13.5115744174
 20
9.4047191982
 10
13.4988901338
 20
9.4091281417
 10
13.4881369174
 20
9.4070387883
 10
13.4809518479
 20
9.3987692233
 10
13.478428787
 20
9.3855784128
  0
LWPOLYLINE
  5
358
330
1F
100
AcDbEntity
  8
0
  6
HIDDEN
 62
     7
370
     0
100
AcDbPolyline
 90
       17
 70
   128
 43
0.0
 10
13.0641084074
 20
9.3485319274
 10
13.0666314683
 20
9.3324280529
 10
13.0738165378
 20
9.3158627831
 10
13.0845697542
 20
9.3013580304
 10
13.0972540378
 20
9.2911220118
 10
13.1099383214
 20
9.2867130683
 10
13.1206915378
 20
9.2888024216
 10
13.1278766073
 20
9.2970719867
 10
13.1303996682
 20
9.3102627972
 10
13.1278766073
 20
9.3263666718
 10
13.1206915378
 20
9.3429319415
 10
13.1099383214
 20
9.3574366942
 10
13.0972540378
 20
9.3676727129
 10
13.0845697542
 20
9.3720816564
 10
13.0738165378
 20
9.369992303
 10
13.0666314683
 20
9.3617227379
 10
13.0641084074
 20
9.3485319274
  0
LWPOLYLINE
  5
359
330
1F
100
AcDbEntity
  8
0
  6
HIDDEN
 62
     7
370
     0
100
AcDbPolyline
 90
       17
 70
   128
 43
0.0
 10
13.478428787
 20
8.8331213141
 10
13.4809518479
 20
8.8170174395
 10
13.4881369174
 20
8.8004521698
 10
13.4988901338
 20
8.785947417
 10
13.5115744174
 20
8.7757113984
 10
13.524258701
 20
8.7713024549
 10
13.5350119174
 20
8.7733918083
 10
13.5421969869
 20
8.7816613734
 10
13.5447200478
 20
8.7948521838
 10
13.5421969869
 20
8.8109560584
 10
13.5350119174
 20
8.8275213281
 10
13.524258701
 20
8.8420260809
 10
13.5115744174
 20
8.8522620995
 10
13.4988901338
 20
8.856671043
 10
13.4881369174
 20
8.8545816896
 10
13.4809518479
 20
8.8463121246
 10
13.478428787
 20
8.8331213141
  0
LWPOLYLINE
  5
35A
330
1F
100
AcDbEntity
  8
0
  6
HIDDEN
 62
     7
370
     0
100
AcDbPolyline
 90
       17
 70
   128
 43
0.0
 10
13.2022152006
 20
8.9925760234
 10
13.2047382615
 20
8.9764721489
 10
13.211923331
 20
8.9599068791
 10
13.2226765474
 20
8.9454021264
 10
13.235360831
 20
8.9351661077
 10
13.2480451146
 20
8.9307571643
 10
13.258798331
 20
8.9328465176
 10
13.2659834005
 20
8.9411160827
 10
13.2685064614
 20
8.9543068932
 10
13.2659834005
 20
8.9704107677
 10
13.258798331
 20
8.9869760375
 10
13.2480451146
 20
9.0014807902
 10
13.235360831
 20
9.0117168089
 10
13.2226765474
 20
9.0161257523
 10
13.211923331
 20
9.014036399
 10
13.2047382615
 20
9.0057668339
 10
13.2022152006
 20
8.9925760234
  0
LWPOLYLINE
  5
35B
330
1F
100
AcDbEntity
  8
0
  6
HIDDEN
 62
     7
370
     0
100
AcDbPolyline
 90
       17
 70
   128
 43
0.0
 10
13.2022152006
 20
9.5450331221
 10
13.2047382615
 20
9.5289292475
 10
13.211923331
 20
9.5123639778
 10
13.2226765474
 20
9.4978592251
 10
13.235360831
 20
9.4876232064
 10
13.2480451146
 20
9.483214263
 10
13.258798331
 20
9.4853036163
 10
13.2659834005
 20
9.4935731814
 10
13.2685064614
 20
9.5067639919
 10
13.2659834005
 20
9.5228678664
 10
13.258798331
 20
9.5394331362
 10
13.2480451146
 20
9.5539378889
 10
13.235360831
 20
9.5641739075
 10
13.2226765474
 20
9.568582851
 10
13.211923331
 20
9.5664934977
 10
13.2047382615
 20
9.5582239326
 10
13.2022152006
 20
9.5450331221
  0
LWPOLYLINE
  5
35C
330
1F
100
AcDbEntity
  8
0
  6
HIDDEN
 62
     7
370
     0
100
AcDbPolyline
 90
       17
 70
   128
 43
0.0
 10
13.6165355802
 20
9.0296225088
 10
13.6190586411
 20
9.0135186342
 10
13.6262437106
 20
8.9969533645
 10
13.636996927
 20
8.9824486117
 10
13.6496812106
 20
8.9722125931
 10
13.6623654942
 20
8.9678036496
 10
13.6731187106
 20
8.969893003
 10
13.6803037801
 20
8.978162568
 10
13.682826841
 20
8.9913533785
 10
13.6803037801
 20
9.0074572531
 10
13.6731187106
 20
9.0240225228
 10
13.6623654942
 20
9.0385272756
 10
13.6496812106
 20
9.0487632942
 10
13.636996927
 20
9.0531722377
 10
13.6262437106
 20
9.0510828843
 10
13.6190586411
 20
9.0428133192
 10
13.6165355802
 20
9.0296225088
  0
LWPOLYLINE
  5
35D
330
1F
100
AcDbEntity
  8
0
  6
HIDDEN
 62
     7
370
     0
100
AcDbPolyline
 90
       17
 70
   128
 43
0.0
 10
13.2554691801
 20
9.3261988544
 10
13.2419208831
 20
9.3144935036
 10
13.2371633539
 20
9.3006861009
 10
13.2419208831
 20
9.2868786982
 10
13.2554691801
 20
9.2751733474
 10
13.2757456394
 20
9.2673520821
 10
13.2996633539
 20
9.2646056189
 10
13.3235810684
 20
9.2673520821
 10
13.3438575277
 20
9.2751733474
 10
13.3574058247
 20
9.2868786982
 10
13.3621633539
 20
9.3006861009
 10
13.3574058247
 20
9.3144935036
 10
13.3438575277
 20
9.3261988544
 10
13.3235810684
 20
9.3340201197
 10
13.2996633539
 20
9.3367665829
 10
13.2757456394
 20
9.3340201197
 10
13.2554691801
 20
9.3261988544
  0
LWPOLYLINE
  5
35E
330
1F
100
AcDbEntity
  8
0
  6
HIDDEN
 62
     7
370
     0
100
AcDbPolyline
 90
       17
 70
   128
 43
0.0
 10
12.6871321047
 20
8.9981048445
 10
12.6735838077
 20
8.9863994937
 10
12.6688262785
 20
8.972592091
 10
12.6735838077
 20
8.9587846883
 10
12.6871321047
 20
8.9470793375
 10
12.707408564
 20
8.9392580721
 10
12.7313262785
 20
8.936511609
 10
12.755243993
 20
8.9392580721
 10
12.7755204523
 20
8.9470793375
 10
12.7890687493
 20
8.9587846883
 10
12.7938262785
 20
8.972592091
 10
12.7890687493
 20
8.9863994937
 10
12.7755204523
 20
8.9981048445
 10
12.755243993
 20
9.0059261098
 10
12.7313262785
 20
9.008672573
 10
12.707408564
 20
9.0059261098
 10
12.6871321047
 20
8.9981048445
  0
ENDSEC
  0
SECTION
  2
OBJECTS
  0
DICTIONARY
  5
C
330
0
100
AcDbDictionary
281
     1
  3
ACAD_GROUP
350
D
  3
ACAD_LAYOUT
350
1A
  3
ACAD_MLEADERSTYLE
350
361
  3
ACAD_MLINESTYLE
350
17
  3
ACAD_PLOTSETTINGS
350
19
  3
ACAD_PLOTSTYLENAME
350
E
  3
ACAD_SCALELIST
350
8E
  3
ACAD_VISUALSTYLE
350
2A
  3
AcDbVariableDictionary
350
35F
  0
DICTIONARY
  5
D
102
{ACAD_REACTORS
330
C
102
}
330
C
100
AcDbDictionary
281
     1
  0
DICTIONARY
  5
1A
102
{ACAD_REACTORS
330
C
102
}
330
C
100
AcDbDictionary
281
     1
  3
Layout1
350
1E
  3
Layout2
350
26
  3
Model
350
22
  0
DICTIONARY
  5
361
102
{ACAD_REACTORS
330
C
102
}
330
C
100
AcDbDictionary
281
     1
  0
DICTIONARY
  5
17
102
{ACAD_REACTORS
330
C
102
}
330
C
100
AcDbDictionary
281
     1
  3
Standard
350
18
  0
DICTIONARY
  5
19
102
{ACAD_REACTORS
330
C
102
}
330
C
100
AcDbDictionary
281
     1
  0
ACDBDICTIONARYWDFLT
  5
E
102
{ACAD_REACTORS
330
C
102
}
330
C
100
AcDbDictionary
281
     1
  3
Normal
350
F
100
AcDbDictionaryWithDefault
340
F
  0
DICTIONARY
  5
8E
102
{ACAD_REACTORS
330
C
102
}
330
C
100
AcDbDictionary
281
     1
  3
A0
350
8F
  3
A1
350
90
  3
A2
350
91
  3
A3
350
92
  3
A4
350
93
  3
A5
350
94
  3
A6
350
95
  3
A7
350
96
  3
A8
350
97
  3
A9
350
98
  3
B0
350
99
  3
B1
350
9A
  3
B2
350
9B
  3
B3
350
9C
  3
B4
350
9D
  3
B5
350
9E
  3
B6
350
9F
  3
B7
350
A0
  3
B8
350
A1
  3
B9
350
A2
  3
C0
350
A3
  3
C1
350
A4
  3
C2
350
A5
  3
C3
350
A6
  3
C4
350
A7
  3
C5
350
A8
  3
C6
350
A9
  3
C7
350
AA
  3
C8
350
AB
  3
C9
350
AC
  3
D0
350
AD
  3
D1
350
AE
  3
D2
350
AF
  0
DICTIONARY
  5
2A
102
{ACAD_REACTORS
330
C
102
}
330
C
100
AcDbDictionary
281
     1
  3
2dWireframe
350
2F
  3
3D Hidden
350
31
  3
3dWireframe
350
30
  3
Basic
350
32
  3
Brighten
350
36
  3
ColorChange
350
3A
  3
Conceptual
350
34
  3
Dim
350
35
  3
Facepattern
350
39
  3
Flat
350
2B
  3
FlatWithEdges
350
2C
  3
Gouraud
350
2D
  3
GouraudWithEdges
350
2E
  3
Linepattern
350
38
  3
Realistic
350
33
  3
Thicken
350
37
  0
DICTIONARY
  5
35F
102
{ACAD_REACTORS
330
C
102
}
330
C
100
AcDbDictionary
281
     1
  3
CANNOSCALE
350
362
  3
DIMASSOC
350
363
  3
HIDETEXT
350
364
  0
LAYOUT
  5
1E
102
{ACAD_REACTORS
330
1A
102
}
330
1A
100
AcDbPlotSettings
  1

  2
none_device
  4

  6

 40
0.0
 41
0.0
 42
0.0
 43
0.0
 44
0.0
 45
0.0
 46
0.0
 47
0.0
 48
0.0
 49
0.0
140
0.0
141
0.0
142
1.0
143
1.0
 70
   688
 72
     0
 73
     0
 74
     5
  7

 75
    16
147
1.0
148
0.0
149
0.0
100
AcDbLayout
  1
Layout1
 70
     1
 71
     1
 10
0.0
 20
0.0
 11
12.0
 21
9.0
 12
0.0
 22
0.0
 32
0.0
 14
1.0000000000E+20
 24
1.0000000000E+20
 34
1.0000000000E+20
 15
-1.0000000000E+20
 25
-1.0000000000E+20
 35
-1.0000000000E+20
146
0.0
 13
0.0
 23
0.0
 33
0.0
 16
1.0
 26
0.0
 36
0.0
 17
0.0
 27
1.0
 37
0.0
 76
     0
330
1B
  0
LAYOUT
  5
26
102
{ACAD_REACTORS
330
1A
102
}
330
1A
100
AcDbPlotSettings
  1

  2
none_device
  4

  6

 40
0.0
 41
0.0
 42
0.0
 43
0.0
 44
0.0
 45
0.0
 46
0.0
 47
0.0
 48
0.0
 49
0.0
140
0.0
141
0.0
142
1.0
143
1.0
 70
   688
 72
     0
 73
     0
 74
     5
  7

 75
    16
147
1.0
148
0.0
149
0.0
100
AcDbLayout
  1
Layout2
 70
     1
 71
     2
 10
0.0
 20
0.0
 11
0.0
 21
0.0
 12
0.0
 22
0.0
 32
0.0
 14
0.0
 24
0.0
 34
0.0
 15
0.0
 25
0.0
 35
0.0
146
0.0
 13
0.0
 23
0.0
 33
0.0
 16
1.0
 26
0.0
 36
0.0
 17
0.0
 27
1.0
 37
0.0
 76
     0
330
23
  0
LAYOUT
  5
22
102
{ACAD_REACTORS
330
1A
102
}
330
1A
100
AcDbPlotSettings
  1

  2
none_device
  4

  6

 40
0.0
 41
0.0
 42
0.0
 43
0.0
 44
0.0
 45
0.0
 46
0.0
 47
0.0
 48
0.0
 49
0.0
140
0.0
141
0.0
142
1.0
143
1.0
 70
  1712
 72
     0
 73
     0
 74
     0
  7

 75
     0
147
1.0
148
0.0
149
0.0
100
AcDbLayout
  1
Model
 70
     1
 71
     0
 10
0.0
 20
0.0
 11
17.0
 21
11.0
 12
0.0
 22
0.0
 32
0.0
 14
0.0
 24
0.0
 34
0.0
 15
17.0
 25
11.0
 35
0.0
146
0.0
 13
0.0
 23
0.0
 33
0.0
 16
1.0
 26
0.0
 36
0.0
 17
0.0
 27
1.0
 37
0.0
 76
     0
330
1F
331
29
  0
MLINESTYLE
  5
18
102
{ACAD_REACTORS
330
17
102
}
330
17
100
AcDbMlineStyle
  2
Standard
 70
     0
  3

 62
   256
 51
90.0
 52
90.0
 71
     2
 49
0.5
 62
   256
  6
BYLAYER
 49
-0.5
 62
   256
  6
BYLAYER
  0
ACDBPLACEHOLDER
  5
F
102
{ACAD_REACTORS
330
E
102
}
330
E
  0
SCALE
  5
8F
102
{ACAD_REACTORS
330
8E
102
}
330
8E
100
AcDbScale
 70
     0
300
1:1
140
1.0
141
1.0
290
     1
  0
SCALE
  5
90
102
{ACAD_REACTORS
330
8E
102
}
330
8E
100
AcDbScale
 70
     0
300
1:2
140
1.0
141
2.0
290
     0
  0
SCALE
  5
91
102
{ACAD_REACTORS
330
8E
102
}
330
8E
100
AcDbScale
 70
     0
300
1:4
140
1.0
141
4.0
290
     0
  0
SCALE
  5
92
102
{ACAD_REACTORS
330
8E
102
}
330
8E
100
AcDbScale
 70
     0
300
1:5
140
1.0
141
5.0
290
     0
  0
SCALE
  5
93
102
{ACAD_REACTORS
330
8E
102
}
330
8E
100
AcDbScale
 70
     0
300
1:8
140
1.0
141
8.0
290
     0
  0
SCALE
  5
94
102
{ACAD_REACTORS
330
8E
102
}
330
8E
100
AcDbScale
 70
     0
300
1:10
140
1.0
141
10.0
290
     0
  0
SCALE
  5
95
102
{ACAD_REACTORS
330
8E
102
}
330
8E
100
AcDbScale
 70
     0
300
1:16
140
1.0
141
16.0
290
     0
  0
SCALE
  5
96
102
{ACAD_REACTORS
330
8E
102
}
330
8E
100
AcDbScale
 70
     0
300
1:20
140
1.0
141
20.0
290
     0
  0
SCALE
  5
97
102
{ACAD_REACTORS
330
8E
102
}
330
8E
100
AcDbScale
 70
     0
300
1:30
140
1.0
141
30.0
290
     0
  0
SCALE
  5
98
102
{ACAD_REACTORS
330
8E
102
}
330
8E
100
AcDbScale
 70
     0
300
1:40
140
1.0
141
40.0
290
     0
  0
SCALE
  5
99
102
{ACAD_REACTORS
330
8E
102
}
330
8E
100
AcDbScale
 70
     0
300
1:50
140
1.0
141
50.0
290
     0
  0
SCALE
  5
9A
102
{ACAD_REACTORS
330
8E
102
}
330
8E
100
AcDbScale
 70
     0
300
1:100
140
1.0
141
100.0
290
     0
  0
SCALE
  5
9B
102
{ACAD_REACTORS
330
8E
102
}
330
8E
100
AcDbScale
 70
     0
300
2:1
140
2.0
141
1.0
290
     0
  0
SCALE
  5
9C
102
{ACAD_REACTORS
330
8E
102
}
330
8E
100
AcDbScale
 70
     0
300
4:1
140
4.0
141
1.0
290
     0
  0
SCALE
  5
9D
102
{ACAD_REACTORS
330
8E
102
}
330
8E
100
AcDbScale
 70
     0
300
8:1
140
8.0
141
1.0
290
     0
  0
SCALE
  5
9E
102
{ACAD_REACTORS
330
8E
102
}
330
8E
100
AcDbScale
 70
     0
300
10:1
140
10.0
141
1.0
290
     0
  0
SCALE
  5
9F
102
{ACAD_REACTORS
330
8E
102
}
330
8E
100
AcDbScale
 70
     0
300
100:1
140
100.0
141
1.0
290
     0
  0
SCALE
  5
A0
102
{ACAD_REACTORS
330
8E
102
}
330
8E
100
AcDbScale
 70
     0
300
1/128" = 1'-0"
140
0.0078125
141
12.0
290
     0
  0
SCALE
  5
A1
102
{ACAD_REACTORS
330
8E
102
}
330
8E
100
AcDbScale
 70
     0
300
1/64" = 1'-0"
140
0.015625
141
12.0
290
     0
  0
SCALE
  5
A2
102
{ACAD_REACTORS
330
8E
102
}
330
8E
100
AcDbScale
 70
     0
300
1/32" = 1'-0"
140
0.03125
141
12.0
290
     0
  0
SCALE
  5
A3
102
{ACAD_REACTORS
330
8E
102
}
330
8E
100
AcDbScale
 70
     0
300
1/16" = 1'-0"
140
0.0625
141
12.0
290
     0
  0
SCALE
  5
A4
102
{ACAD_REACTORS
330
8E
102
}
330
8E
100
AcDbScale
 70
     0
300
3/32" = 1'-0"
140
0.09375
141
12.0
290
     0
  0
SCALE
  5
A5
102
{ACAD_REACTORS
330
8E
102
}
330
8E
100
AcDbScale
 70
     0
300
1/8" = 1'-0"
140
0.125
141
12.0
290
     0
  0
SCALE
  5
A6
102
{ACAD_REACTORS
330
8E
102
}
330
8E
100
AcDbScale
 70
     0
300
3/16" = 1'-0"
140
0.1875
141
12.0
290
     0
  0
SCALE
  5
A7
102
{ACAD_REACTORS
330
8E
102
}
330
8E
100
AcDbScale
 70
     0
300
1/4" = 1'-0"
140
0.25
141
12.0
290
     0
  0
SCALE
  5
A8
102
{ACAD_REACTORS
330
8E
102
}
330
8E
100
AcDbScale
 70
     0
300
3/8" = 1'-0"
140
0.375
141
12.0
290
     0
  0
SCALE
  5
A9
102
{ACAD_REACTORS
330
8E
102
}
330
8E
100
AcDbScale
 70
     0
300
1/2" = 1'-0"
140
0.5
141
12.0
290
     0
  0
SCALE
  5
AA
102
{ACAD_REACTORS
330
8E
102
}
330
8E
100
AcDbScale
 70
     0
300
3/4" = 1'-0"
140
0.75
141
12.0
290
     0
  0
SCALE
  5
AB
102
{ACAD_REACTORS
330
8E
102
}
330
8E
100
AcDbScale
 70
     0
300
1" = 1'-0"
140
1.0
141
12.0
290
     0
  0
SCALE
  5
AC
102
{ACAD_REACTORS
330
8E
102
}
330
8E
100
AcDbScale
 70
     0
300
1-1/2" = 1'-0"
140
1.5
141
12.0
290
     0
  0
SCALE
  5
AD
102
{ACAD_REACTORS
330
8E
102
}
330
8E
100
AcDbScale
 70
     0
300
3" = 1'-0"
140
3.0
141
12.0
290
     0
  0
SCALE
  5
AE
102
{ACAD_REACTORS
330
8E
102
}
330
8E
100
AcDbScale
 70
     0
300
6" = 1'-0"
140
6.0
141
12.0
290
     0
  0
SCALE
  5
AF
102
{ACAD_REACTORS
330
8E
102
}
330
8E
100
AcDbScale
 70
     0
300
1'-0" = 1'-0"
140
12.0
141
12.0
290
     0
  0
VISUALSTYLE
  5
2F
102
{ACAD_REACTORS
330
2A
102
}
330
2A
100
AcDbVisualStyle
  2
2dWireframe
 70
     4
 71
     0
 72
     2
 73
     0
 90
        0
 40
-0.6
 41
-30.0
 62
     5
 63
     7
 74
     1
 91
        4
 64
     7
 65
   257
 75
     1
175
     1
 42
1.0
 92
        0
 66
   257
 43
1.0
 76
     1
 77
     6
 78
     2
 67
     7
 79
     5
170
     0
171
     0
290
     0
174
     0
 93
        1
 44
0.0
173
     0
291
     0
 45
0.0
1001
ACAD
1000
AcDbSavedByObjectVersion
1070
     0
  0
VISUALSTYLE
  5
31
102
{ACAD_REACTORS
330
2A
102
}
330
2A
100
AcDbVisualStyle
  2
3D Hidden
 70
     6
 71
     1
 72
     2
 73
     2
 90
        0
 40
-0.6
 41
-30.0
 62
     5
 63
     7
 74
     2
 91
        2
 64
     7
 65
   257
 75
     2
175
     1
 42
40.0
 92
        0
 66
   257
 43
1.0
 76
     1
 77
     6
 78
     2
 67
     7
 79
     3
170
     0
171
     0
290
     0
174
     0
 93
        1
 44
0.0
173
     0
291
     0
 45
0.0
1001
ACAD
1000
AcDbSavedByObjectVersion
1070
     0
  0
VISUALSTYLE
  5
30
102
{ACAD_REACTORS
330
2A
102
}
330
2A
100
AcDbVisualStyle
  2
3dWireframe
 70
     5
 71
     0
 72
     2
 73
     0
 90
        0
 40
-0.6
 41
-30.0
 62
     5
 63
     7
 74
     1
 91
        4
 64
     7
 65
   257
 75
     1
175
     1
 42
1.0
 92
        0
 66
   257
 43
1.0
 76
     1
 77
     6
 78
     2
 67
     7
 79
     5
170
     0
171
     0
290
     0
174
     0
 93
        1
 44
0.0
173
     0
291
     0
 45
0.0
1001
ACAD
1000
AcDbSavedByObjectVersion
1070
     0
  0
VISUALSTYLE
  5
32
102
{ACAD_REACTORS
330
2A
102
}
330
2A
100
AcDbVisualStyle
  2
Basic
 70
     7
 71
     1
 72
     0
 73
     1
 90
        0
 40
-0.6
 41
-30.0
 62
     5
 63
     7
 74
     0
 91
        4
 64
     7
 65
   257
 75
     1
175
     1
 42
1.0
 92
        8
 66
     7
 43
1.0
 76
     1
 77
     6
 78
     2
 67
     7
 79
     5
170
     0
171
     0
290
     0
174
     0
 93
        1
 44
0.0
173
     0
291
     1
 45
0.0
1001
ACAD
1000
AcDbSavedByObjectVersion
1070
     0
  0
VISUALSTYLE
  5
36
102
{ACAD_REACTORS
330
2A
102
}
330
2A
100
AcDbVisualStyle
  2
Brighten
 70
    12
 71
     2
 72
     2
 73
     0
 90
        0
 40
-0.6
 41
-30.0
 62
     5
 63
     7
 74
     1
 91
        4
 64
     7
 65
   257
 75
     1
175
     1
 42
1.0
 92
        8
 66
     7
 43
1.0
 76
     1
 77
     6
 78
     2
 67
     7
 79
     5
170
     0
171
     0
290
     0
174
     0
 93
        1
 44
50.0
173
     0
291
     1
 45
0.0
1001
ACAD
1000
AcDbSavedByObjectVersion
1070
     0
  0
VISUALSTYLE
  5
3A
102
{ACAD_REACTORS
330
2A
102
}
330
2A
100
AcDbVisualStyle
  2
ColorChange
 70
    16
 71
     2
 72
     2
 73
     3
 90
        0
 40
-0.6
 41
-30.0
 62
     5
 63
     8
 74
     1
 91
        4
 64
     7
 65
   257
 75
     1
175
     1
 42
1.0
 92
        8
 66
     8
 43
1.0
 76
     1
 77
     6
 78
     2
 67
     7
 79
     5
170
     0
171
     0
290
     0
174
     0
 93
        1
 44
0.0
173
     0
291
     1
 45
0.0
1001
ACAD
1000
AcDbSavedByObjectVersion
1070
     0
  0
VISUALSTYLE
  5
34
102
{ACAD_REACTORS
330
2A
102
}
330
2A
100
AcDbVisualStyle
  2
Conceptual
 70
     9
 71
     3
 72
     2
 73
     0
 90
        0
 40
-0.6
 41
-30.0
 62
     5
 63
     7
 74
     2
 91
        2
 64
     7
 65
   257
 75
     1
175
     1
 42
40.0
 92
        8
 66
     7
 43
1.0
 76
     1
 77
     6
 78
     2
 67
     7
 79
     3
170
     0
171
     0
290
     0
174
     0
 93
        1
 44
0.0
173
     0
291
     0
 45
0.0
1001
ACAD
1000
AcDbSavedByObjectVersion
1070
     0
  0
VISUALSTYLE
  5
35
102
{ACAD_REACTORS
330
2A
102
}
330
2A
100
AcDbVisualStyle
  2
Dim
 70
    11
 71
     2
 72
     2
 73
     0
 90
        0
 40
-0.6
 41
-30.0
 62
     5
 63
     7
 74
     1
 91
        4
 64
     7
 65
   257
 75
     1
175
     1
 42
1.0
 92
        8
 66
     7
 43
1.0
 76
     1
 77
     6
 78
     2
 67
     7
 79
     5
170
     0
171
     0
290
     0
174
     0
 93
        1
 44
-50.0
173
     0
291
     1
 45
0.0
1001
ACAD
1000
AcDbSavedByObjectVersion
1070
     0
  0
VISUALSTYLE
  5
39
102
{ACAD_REACTORS
330
2A
102
}
330
2A
100
AcDbVisualStyle
  2
Facepattern
 70
    15
 71
     2
 72
     2
 73
     0
 90
        0
 40
-0.6
 41
-30.0
 62
     5
 63
     7
 74
     1
 91
        4
 64
     7
 65
   257
 75
     1
175
     1
 42
1.0
 92
        8
 66
     7
 43
1.0
 76
     1
 77
     6
 78
     2
 67
     7
 79
     5
170
     0
171
     0
290
     0
174
     0
 93
        1
 44
0.0
173
     0
291
     1
 45
0.0
1001
ACAD
1000
AcDbSavedByObjectVersion
1070
     0
  0
VISUALSTYLE
  5
2B
102
{ACAD_REACTORS
330
2A
102
}
330
2A
100
AcDbVisualStyle
  2
Flat
 70
     0
 71
     2
 72
     1
 73
     1
 90
        2
 40
-0.6
 41
30.0
 62
     5
 63
     7
 74
     0
 91
        4
 64
     7
 65
   257
 75
     1
175
     1
 42
1.0
 92
        8
 66
     7
 43
1.0
 76
     1
 77
     6
 78
     2
 67
     7
 79
     5
170
     0
171
     0
290
     0
174
     0
 93
       13
 44
0.0
173
     0
291
     1
 45
0.0
1001
ACAD
1000
AcDbSavedByObjectVersion
1070
     0
  0
VISUALSTYLE
  5
2C
102
{ACAD_REACTORS
330
2A
102
}
330
2A
100
AcDbVisualStyle
  2
FlatWithEdges
 70
     1
 71
     2
 72
     1
 73
     1
 90
        2
 40
-0.6
 41
30.0
 62
     5
 63
     7
 74
     1
 91
        4
 64
     7
 65
   257
 75
     1
175
     1
 42
1.0
 92
        0
 66
   257
 43
1.0
 76
     1
 77
     6
 78
     2
 67
     7
 79
     5
170
     0
171
     0
290
     0
174
     0
 93
       13
 44
0.0
173
     0
291
     1
 45
0.0
1001
ACAD
1000
AcDbSavedByObjectVersion
1070
     0
  0
VISUALSTYLE
  5
2D
102
{ACAD_REACTORS
330
2A
102
}
330
2A
100
AcDbVisualStyle
  2
Gouraud
 70
     2
 71
     2
 72
     2
 73
     1
 90
        2
 40
-0.6
 41
30.0
 62
     5
 63
     7
 74
     0
 91
        4
 64
     7
 65
   257
 75
     1
175
     1
 42
1.0
 92
        0
 66
     7
 43
1.0
 76
     1
 77
     6
 78
     2
 67
     7
 79
     5
170
     0
171
     0
290
     0
174
     0
 93
       13
 44
0.0
173
     0
291
     1
 45
0.0
1001
ACAD
1000
AcDbSavedByObjectVersion
1070
     0
  0
VISUALSTYLE
  5
2E
102
{ACAD_REACTORS
330
2A
102
}
330
2A
100
AcDbVisualStyle
  2
GouraudWithEdges
 70
     3
 71
     2
 72
     2
 73
     1
 90
        2
 40
-0.6
 41
30.0
 62
     5
 63
     7
 74
     1
 91
        4
 64
     7
 65
   257
 75
     1
175
     1
 42
1.0
 92
        0
 66
   257
 43
1.0
 76
     1
 77
     6
 78
     2
 67
     7
 79
     5
170
     0
171
     0
290
     0
174
     0
 93
       13
 44
0.0
173
     0
291
     1
 45
0.0
1001
ACAD
1000
AcDbSavedByObjectVersion
1070
     0
  0
VISUALSTYLE
  5
38
102
{ACAD_REACTORS
330
2A
102
}
330
2A
100
AcDbVisualStyle
  2
Linepattern
 70
    14
 71
     2
 72
     2
 73
     0
 90
        0
 40
-0.6
 41
-30.0
 62
     5
 63
     7
 74
     1
 91
        4
 64
     7
 65
   257
 75
     7
175
     7
 42
1.0
 92
        8
 66
     7
 43
1.0
 76
     1
 77
     6
 78
     2
 67
     7
 79
     5
170
     0
171
     0
290
     0
174
     0
 93
        1
 44
0.0
173
     0
291
     1
 45
0.0
1001
ACAD
1000
AcDbSavedByObjectVersion
1070
     0
  0
VISUALSTYLE
  5
33
102
{ACAD_REACTORS
330
2A
102
}
330
2A
100
AcDbVisualStyle
  2
Realistic
 70
     8
 71
     2
 72
     2
 73
     0
 90
        0
 40
-0.6
 41
-30.0
 62
     5
 63
     7
 74
     1
 91
        0
 64
     7
 65
   257
 75
     1
175
     1
 42
1.0
 92
        8
 66
     8
 43
1.0
 76
     1
 77
     6
 78
     2
 67
     7
 79
     5
170
     0
171
     0
290
     0
174
     0
 93
       13
 44
0.0
173
     0
291
     0
 45
0.0
1001
ACAD
1000
AcDbSavedByObjectVersion
1070
     0
  0
VISUALSTYLE
  5
37
102
{ACAD_REACTORS
330
2A
102
}
330
2A
100
AcDbVisualStyle
  2
Thicken
 70
    13
 71
     2
 72
     2
 73
     0
 90
        0
 40
-0.6
 41
-30.0
 62
     5
 63
     7
 74
     1
 91
        4
 64
     7
 65
   257
 75
     1
175
     1
 42
1.0
 92
       12
 66
     7
 43
1.0
 76
     1
 77
     6
 78
     2
 67
     7
 79
     5
170
     0
171
     0
290
     0
174
     0
 93
        1
 44
0.0
173
     0
291
     1
 45
0.0
1001
ACAD
1000
AcDbSavedByObjectVersion
1070
     0
  0
DICTIONARYVAR
  5
362
102
{ACAD_REACTORS
330
35F
102
}
330
35F
100
DictionaryVariables
280
     0
  1
1:1
  0
DICTIONARYVAR
  5
363
102
{ACAD_REACTORS
330
35F
102
}
330
35F
100
DictionaryVariables
280
     0
  1
2
  0
DICTIONARYVAR
  5
364
102
{ACAD_REACTORS
330
35F
102
}
330
35F
100
DictionaryVariables
280
     0
  1
1
  0
ENDSEC
  0
EOF
