  0
SECTION
  2
HEADER
  9
$ACADVER
  1
AC1012
  9
$DWGCODEPAGE
  3
ansi_1252
  9
$INSBASE
 10
0.0
 20
0.0
 30
0.0
  9
$EXTMIN
 10
0.0
 20
0.0
 30
0.0
  9
$EXTMAX
 10
11.0
 20
8.5
 30
0.0
  9
$LIMMIN
 10
0.0
 20
0.0
  9
$LIMMAX
 10
11.0
 20
8.5
  9
$ORTHOMODE
 70
     0
  9
$REGENMODE
 70
     1
  9
$FILLMODE
 70
     1
  9
$QTEXTMODE
 70
     0
  9
$MIRRTEXT
 70
     1
  9
$DRAGMODE
 70
     2
  9
$LTSCALE
 40
1.0
  9
$OSMODE
 70
    37
  9
$ATTMODE
 70
     1
  9
$TEXTSIZE
 40
0.125
  9
$TRACEWID
 40
0.05
  9
$TEXTSTYLE
  7
STANDARD
  9
$CLAYER
  8
0
  9
$CELTYPE
  6
BYLAYER
  9
$CECOLOR
 62
   256
  9
$CELTSCALE
 40
1.0
  9
$DELOBJ
 70
     1
  9
$DISPSILH
 70
     0
  9
$DIMSCALE
 40
1.0
  9
$DIMASZ
 40
0.13
  9
$DIMEXO
 40
0.05
  9
$DIMDLI
 40
0.38
  9
$DIMRND
 40
0.0
  9
$DIMDLE
 40
0.0
  9
$DIMEXE
 40
0.125
  9
$DIMTP
 40
0.0
  9
$DIMTM
 40
0.0
  9
$DIMTXT
 40
0.125
  9
$DIMCEN
 40
0.09
  9
$DIMTSZ
 40
0.0
  9
$DIMTOL
 70
     0
  9
$DIMLIM
 70
     0
  9
$DIMTIH
 70
     1
  9
$DIMTOH
 70
     1
  9
$DIMSE1
 70
     0
  9
$DIMSE2
 70
     0
  9
$DIMTAD
 70
     0
  9
$DIMZIN
 70
     0
  9
$DIMBLK
  1

  9
$DIMASO
 70
     1
  9
$DIMSHO
 70
     1
  9
$DIMPOST
  1

  9
$DIMAPOST
  1

  9
$DIMALT
 70
     0
  9
$DIMALTD
 70
     2
  9
$DIMALTF
 40
25.4
  9
$DIMLFAC
 40
2.0
  9
$DIMTOFL
 70
     0
  9
$DIMTVP
 40
0.0
  9
$DIMTIX
 70
     0
  9
$DIMSOXD
 70
     0
  9
$DIMSAH
 70
     0
  9
$DIMBLK1
  1

  9
$DIMBLK2
  1

  9
$DIMSTYLE
  2
STANDARD
  9
$DIMCLRD
 70
     0
  9
$DIMCLRE
 70
     0
  9
$DIMCLRT
 70
     0
  9
$DIMTFAC
 40
1.0
  9
$DIMGAP
 40
0.06
  9
$DIMJUST
 70
     0
  9
$DIMSD1
 70
     0
  9
$DIMSD2
 70
     0
  9
$DIMTOLJ
 70
     1
  9
$DIMTZIN
 70
     0
  9
$DIMALTZ
 70
     0
  9
$DIMALTTZ
 70
     0
  9
$DIMFIT
 70
     3
  9
$DIMUPT
 70
     0
  9
$DIMUNIT
 70
     2
  9
$DIMDEC
 70
     3
  9
$DIMTDEC
 70
     3
  9
$DIMALTU
 70
     2
  9
$DIMALTTD
 70
     2
  9
$DIMTXSTY
  7
STANDARD
  9
$DIMAUNIT
 70
     0
  9
$LUNITS
 70
     2
  9
$LUPREC
 70
     2
  9
$SKETCHINC
 40
0.1
  9
$FILLETRAD
 40
0.5
  9
$AUNITS
 70
     0
  9
$AUPREC
 70
     2
  9
$MENU
  1
.
  9
$ELEVATION
 40
0.0
  9
$PELEVATION
 40
0.0
  9
$THICKNESS
 40
0.0
  9
$LIMCHECK
 70
     0
  9
$CHAMFERA
 40
0.5
  9
$CHAMFERB
 40
0.5
  9
$CHAMFERC
 40
1.0
  9
$CHAMFERD
 40
0.0
  9
$SKPOLY
 70
     0
  9
$TDCREATE
 40
2455784.022893738
  9
$TDUPDATE
 40
2455784.02289375
  9
$TDINDWG
 40
0.0000000116
  9
$TDUSRTIMER
 40
0.0000000116
  9
$USRTIMER
 70
     1
  9
$ANGBASE
 50
0.0
  9
$ANGDIR
 70
     0
  9
$PDMODE
 70
     0
  9
$PDSIZE
 40
-1.0
  9
$PLINEWID
 40
0.0
  9
$COORDS
 70
     1
  9
$SPLFRAME
 70
     0
  9
$SPLINETYPE
 70
     6
  9
$SPLINESEGS
 70
     8
  9
$ATTDIA
 70
     0
  9
$ATTREQ
 70
     1
  9
$HANDLING
 70
     1
  9
$HANDSEED
  5
684
  9
$SURFTAB1
 70
     6
  9
$SURFTAB2
 70
     6
  9
$SURFTYPE
 70
     6
  9
$SURFU
 70
     6
  9
$SURFV
 70
     6
  9
$UCSNAME
  2

  9
$UCSORG
 10
0.0
 20
0.0
 30
0.0
  9
$UCSXDIR
 10
1.0
 20
0.0
 30
0.0
  9
$UCSYDIR
 10
0.0
 20
1.0
 30
0.0
  9
$PUCSNAME
  2

  9
$PUCSORG
 10
0.0
 20
0.0
 30
0.0
  9
$PUCSXDIR
 10
1.0
 20
0.0
 30
0.0
  9
$PUCSYDIR
 10
0.0
 20
1.0
 30
0.0
  9
$USERI1
 70
     0
  9
$USERI2
 70
     0
  9
$USERI3
 70
     0
  9
$USERI4
 70
     0
  9
$USERI5
 70
     0
  9
$USERR1
 40
0.0
  9
$USERR2
 40
0.0
  9
$USERR3
 40
0.0
  9
$USERR4
 40
0.0
  9
$USERR5
 40
0.0
  9
$WORLDVIEW
 70
     1
  9
$SHADEDGE
 70
     3
  9
$SHADEDIF
 70
    70
  9
$TILEMODE
 70
     1
  9
$MAXACTVP
 70
    64
  9
$PINSBASE
 10
0.0
 20
0.0
 30
0.0
  9
$PLIMCHECK
 70
     0
  9
$PEXTMIN
 10
1.0000000000E+20
 20
1.0000000000E+20
 30
1.0000000000E+20
  9
$PEXTMAX
 10
-1.0000000000E+20
 20
-1.0000000000E+20
 30
-1.0000000000E+20
  9
$PLIMMIN
 10
0.0
 20
0.0
  9
$PLIMMAX
 10
12.0
 20
9.0
  9
$UNITMODE
 70
     0
  9
$VISRETAIN
 70
     1
  9
$PLINEGEN
 70
     0
  9
$PSLTSCALE
 70
     1
  9
$TREEDEPTH
 70
  3020
  9
$PICKSTYLE
 70
     1
  9
$CMLSTYLE
  2
STANDARD
  9
$CMLJUST
 70
     0
  9
$CMLSCALE
 40
1.0
  9
$SAVEIMAGES
 70
     1
  0
ENDSEC
  0
SECTION
  2
CLASSES
  0
CLASS
  1
ACDBDICTIONARYWDFLT
  2
AcDbDictionaryWithDefault
  3
ObjectDBX Classes
 90
    32768
280
     0
281
     0
  0
CLASS
  1
VISUALSTYLE
  2
AcDbVisualStyle
  3
ObjectDBX Classes
 90
     4095
280
     0
281
     0
  0
CLASS
  1
SCALE
  2
AcDbScale
  3
ObjectDBX Classes
 90
     1153
280
     0
281
     0
  0
CLASS
  1
DICTIONARYVAR
  2
AcDbDictionaryVar
  3
ObjectDBX Classes
 90
        0
280
     0
281
     0
  0
CLASS
  1
XRECORD
  2
AcDbXrecord
  3
AutoCAD 2000
 90
    32768
280
     0
281
     0
  0
CLASS
  1
LWPOLYLINE
  2
AcDbPolyline
  3
AutoCAD 2000
 90
    32768
280
     0
281
     1
  0
CLASS
  1
HATCH
  2
AcDbHatch
  3
AutoCAD 2000
 90
    32768
280
     0
281
     1
  0
CLASS
  1
ACDBPLACEHOLDER
  2
AcDbPlaceHolder
  3
ObjectDBX Classes
 90
        0
280
     0
281
     0
  0
CLASS
  1
LAYOUT
  2
AcDbLayout
  3
ObjectDBX Classes
 90
        0
280
     0
281
     0
  0
ENDSEC
  0
SECTION
  2
TABLES
  0
TABLE
  2
VPORT
  5
8
330
0
100
AcDbSymbolTable
 70
     1
  0
VPORT
  5
29
330
8
100
AcDbSymbolTableRecord
100
AcDbViewportTableRecord
  2
*ACTIVE
 70
     0
 10
0.0
 20
0.0
 11
1.0
 21
1.0
 12
5.5
 22
4.25
 13
0.0
 23
0.0
 14
0.5
 24
0.5
 15
0.5
 25
0.5
 16
0.0
 26
0.0
 36
1.0
 17
0.0
 27
0.0
 37
0.0
 40
8.5
 41
1.2941176471
 42
50.0
 43
0.0
 44
0.0
 50
0.0
 51
0.0
 71
     0
 72
  2000
 73
     1
 74
     3
 75
     0
 76
     0
 77
     0
 78
     0
  0
ENDTAB
  0
TABLE
  2
LTYPE
  5
5
330
0
100
AcDbSymbolTable
 70
     6
  0
LTYPE
  5
14
330
5
100
AcDbSymbolTableRecord
100
AcDbLinetypeTableRecord
  2
BYBLOCK
 70
     0
  3

 72
    65
 73
     0
 40
0.0
  0
LTYPE
  5
15
330
5
100
AcDbSymbolTableRecord
100
AcDbLinetypeTableRecord
  2
BYLAYER
 70
     0
  3

 72
    65
 73
     0
 40
0.0
  0
LTYPE
  5
16
330
5
100
AcDbSymbolTableRecord
100
AcDbLinetypeTableRecord
  2
CONTINUOUS
 70
     0
  3
Solid line
 72
    65
 73
     0
 40
0.0
  0
LTYPE
  5
3B
330
5
100
AcDbSymbolTableRecord
100
AcDbLinetypeTableRecord
  2
HIDDEN
 70
     0
  3
Hidden __ __ __ __ __ __ __ __ __ __ __ __ __ __
 72
    65
 73
     2
 40
0.075
 49
0.05
 74
     0
 49
-0.025
 74
     0
  0
LTYPE
  5
3C
330
5
100
AcDbSymbolTableRecord
100
AcDbLinetypeTableRecord
  2
PHANTOM
 70
     0
  3
Phantom ______  __  __  ______  __  __  ______
 72
    65
 73
     6
 40
0.5
 49
0.25
 74
     0
 49
-0.05
 74
     0
 49
0.05
 74
     0
 49
-0.05
 74
     0
 49
0.05
 74
     0
 49
-0.05
 74
     0
  0
LTYPE
  5
3D
330
5
100
AcDbSymbolTableRecord
100
AcDbLinetypeTableRecord
  2
CENTER
 70
     0
  3
Center ____ _ ____ _ ____ _ ____ _ ____ _ ____
 72
    65
 73
     4
 40
0.4
 49
0.25
 74
     0
 49
-0.05
 74
     0
 49
0.05
 74
     0
 49
-0.05
 74
     0
  0
LTYPE
  5
3E
330
5
100
AcDbSymbolTableRecord
100
AcDbLinetypeTableRecord
  2
CENTERX2
 70
     0
  3
Center (2x) ________  __  ________  __  _____
 72
    65
 73
     4
 40
0.8
 49
0.5
 74
     0
 49
-0.1
 74
     0
 49
0.1
 74
     0
 49
-0.1
 74
     0
  0
LTYPE
  5
3F
330
5
100
AcDbSymbolTableRecord
100
AcDbLinetypeTableRecord
  2
DOT2
 70
     0
  3
Dot (.5x) ........................................
 72
    65
 73
     2
 40
0.025
 49
0.0
 74
     0
 49
-0.025
 74
     0
  0
ENDTAB
  0
TABLE
  2
LAYER
  5
2
330
0
100
AcDbSymbolTable
 70
     2
  0
LAYER
  5
10
330
2
100
AcDbSymbolTableRecord
100
AcDbLayerTableRecord
  2
0
 70
     0
 62
     7
  6
CONTINUOUS
  0
LAYER
  5
40
330
2
100
AcDbSymbolTableRecord
100
AcDbLayerTableRecord
  2
FORMAT
 70
     0
 62
     7
  6
CONTINUOUS
  0
ENDTAB
  0
TABLE
  2
STYLE
  5
3
330
0
100
AcDbSymbolTable
 70
     4
  0
STYLE
  5
11
330
3
100
AcDbSymbolTableRecord
100
AcDbTextStyleTableRecord
  2
STANDARD
 70
     0
 40
0.0
 41
1.0
 50
0.0
 71
     0
 42
0.2
  3
txt
  4

  0
STYLE
  5
6E
330
3
100
AcDbSymbolTableRecord
100
AcDbTextStyleTableRecord
  2
SLDTEXTSTYLE0
 70
     0
 40
0.0
 41
0.75
 50
0.0
 71
     0
 42
0.2
  3
TXT
  4

  0
STYLE
  5
93
330
3
100
AcDbSymbolTableRecord
100
AcDbTextStyleTableRecord
  2
SLDTEXTSTYLE1
 70
     0
 40
0.0
 41
0.6875
 50
0.0
 71
     0
 42
0.2
  3
TXT
  4

  0
STYLE
  5
99
330
3
100
AcDbSymbolTableRecord
100
AcDbTextStyleTableRecord
  2
SLDTEXTSTYLE2
 70
     0
 40
0.0
 41
0.6944444444
 50
0.0
 71
     0
 42
0.2
  3
TXT
  4

  0
ENDTAB
  0
TABLE
  2
VIEW
  5
6
330
0
100
AcDbSymbolTable
 70
     0
  0
ENDTAB
  0
TABLE
  2
UCS
  5
7
330
0
100
AcDbSymbolTable
 70
     0
  0
ENDTAB
  0
TABLE
  2
APPID
  5
9
330
0
100
AcDbSymbolTable
 70
     1
  0
APPID
  5
12
330
9
100
AcDbSymbolTableRecord
100
AcDbRegAppTableRecord
  2
ACAD
 70
     0
  0
ENDTAB
  0
TABLE
  2
DIMSTYLE
  5
A
330
0
100
AcDbSymbolTable
 70
     1
  0
DIMSTYLE
105
27
330
A
100
AcDbSymbolTableRecord
100
AcDbDimStyleTableRecord
  2
STANDARD
 70
     0
  3

  4

  5

  6

  7

 40
1.0
 41
0.18
 42
0.0625
 43
0.38
 44
0.18
 45
0.0
 46
0.0
 47
0.0
 48
0.0
140
0.18
141
0.09
142
0.0
143
25.4
144
1.0
145
0.0
146
1.0
147
0.09
 71
     0
 72
     0
 73
     1
 74
     1
 75
     0
 76
     0
 77
     0
 78
     0
170
     0
171
     2
172
     0
173
     0
174
     0
175
     0
176
     0
177
     0
178
     0
270
     2
271
     4
272
     4
273
     2
274
     2
340
11
275
     0
280
     0
281
     0
282
     0
283
     1
284
     0
285
     0
286
     0
287
     3
288
     0
  0
ENDTAB
  0
TABLE
  2
BLOCK_RECORD
  5
1
330
0
100
AcDbSymbolTable
 70
     4
  0
BLOCK_RECORD
  5
1F
330
1
100
AcDbSymbolTableRecord
100
AcDbBlockTableRecord
  2
*MODEL_SPACE
  0
BLOCK_RECORD
  5
1B
330
1
100
AcDbSymbolTableRecord
100
AcDbBlockTableRecord
  2
*PAPER_SPACE
  0
BLOCK_RECORD
  5
A8
330
1
100
AcDbSymbolTableRecord
100
AcDbBlockTableRecord
  2
SW_NOTE_0
  0
BLOCK_RECORD
  5
AE
330
1
100
AcDbSymbolTableRecord
100
AcDbBlockTableRecord
  2
SW_NOTE_1
  0
BLOCK_RECORD
  5
C2
330
1
100
AcDbSymbolTableRecord
100
AcDbBlockTableRecord
  2
SW_NOTE_2
  0
ENDTAB
  0
ENDSEC
  0
SECTION
  2
BLOCKS
  0
BLOCK
  5
20
330
1F
100
AcDbEntity
  8
0
100
AcDbBlockBegin
  2
*MODEL_SPACE
 70
     0
 10
0.0
 20
0.0
 30
0.0
  3
*MODEL_SPACE
  1

  0
ENDBLK
  5
21
330
1F
100
AcDbEntity
  8
0
100
AcDbBlockEnd
  0
BLOCK
  5
1C
330
1B
100
AcDbEntity
 67
     1
  8
0
100
AcDbBlockBegin
  2
*PAPER_SPACE
 70
     0
 10
0.0
 20
0.0
 30
0.0
  3
*PAPER_SPACE
  1

  0
ENDBLK
  5
1D
330
1B
100
AcDbEntity
 67
     1
  8
0
100
AcDbBlockEnd
  0
BLOCK
  5
A9
330
A8
100
AcDbEntity
  8
0
100
AcDbBlockBegin
  2
SW_NOTE_0
 70
     0
 10
0.0
 20
0.0
 30
0.0
  3
SW_NOTE_0
  1

  0
MTEXT
  5
AB
330
A8
100
AcDbEntity
  8
0
  6
CONTINUOUS
 62
     0
100
AcDbMText
 10
0.0
 20
0.0773440644
 30
0.0
 40
0.06
 41
0.0
 71
     1
 72
     1
  1
INTERPRET GEOMETRIC
  7
SLDTEXTSTYLE0
  0
MTEXT
  5
AC
330
A8
100
AcDbEntity
  8
0
  6
CONTINUOUS
 62
     0
100
AcDbMText
 10
0.0
 20
-0.0220260102
 30
0.0
 40
0.06
 41
0.0
 71
     1
 72
     1
  1
TOLERANCING PER:
  7
SLDTEXTSTYLE0
  0
ENDBLK
  5
AA
330
A8
100
AcDbEntity
  8
0
100
AcDbBlockEnd
  0
BLOCK
  5
AF
330
AE
100
AcDbEntity
  8
0
100
AcDbBlockBegin
  2
SW_NOTE_1
 70
     0
 10
0.0
 20
0.0
 30
0.0
  3
SW_NOTE_1
  1

  0
MTEXT
  5
B1
330
AE
100
AcDbEntity
  8
0
  6
CONTINUOUS
 62
     0
100
AcDbMText
 10
0.0
 20
0.0837894031
 30
0.0
 40
0.065
 41
0.0
 71
     1
 72
     1
  1
DIMENSIONS ARE IN INCHES
  7
SLDTEXTSTYLE0
  0
MTEXT
  5
B2
330
AE
100
AcDbEntity
  8
0
  6
CONTINUOUS
 62
     0
100
AcDbMText
 10
0.0
 20
-0.0205806729
 30
0.0
 40
0.065
 41
0.0
 71
     1
 72
     1
  1
TOLERANCES:
  7
SLDTEXTSTYLE0
  0
MTEXT
  5
B3
330
AE
100
AcDbEntity
  8
0
  6
CONTINUOUS
 62
     0
100
AcDbMText
 10
0.0
 20
-0.1249507489
 30
0.0
 40
0.065
 41
0.0
 71
     1
 72
     1
  1
FRACTIONAL
  7
SLDTEXTSTYLE0
  0
MTEXT
  5
B4
330
AE
100
AcDbEntity
  8
0
  6
CONTINUOUS
 62
     0
100
AcDbMText
 10
0.5175850875
 20
-0.1249507489
 30
0.0
 40
0.065
 41
0.0
 71
     1
 72
     1
  1
%%p
  7
SLDTEXTSTYLE0
  0
MTEXT
  5
B5
330
AE
100
AcDbEntity
  8
0
  6
CONTINUOUS
 62
     0
100
AcDbMText
 10
0.0
 20
-0.2293208248
 30
0.0
 40
0.065
 41
0.0
 71
     1
 72
     1
  1
ANGULAR: MACH
  7
SLDTEXTSTYLE0
  0
MTEXT
  5
B6
330
AE
100
AcDbEntity
  8
0
  6
CONTINUOUS
 62
     0
100
AcDbMText
 10
0.7233732769
 20
-0.2293208248
 30
0.0
 40
0.065
 41
0.0
 71
     1
 72
     1
  1
%%p
  7
SLDTEXTSTYLE0
  0
MTEXT
  5
B7
330
AE
100
AcDbEntity
  8
0
  6
CONTINUOUS
 62
     0
100
AcDbMText
 10
0.7852857683
 20
-0.2293208248
 30
0.0
 40
0.065
 41
0.0
 71
     1
 72
     1
  1
     BEND 
  7
SLDTEXTSTYLE0
  0
MTEXT
  5
B8
330
AE
100
AcDbEntity
  8
0
  6
CONTINUOUS
 62
     0
100
AcDbMText
 10
1.14784136
 20
-0.2293208248
 30
0.0
 40
0.065
 41
0.0
 71
     1
 72
     1
  1
%%p
  7
SLDTEXTSTYLE0
  0
MTEXT
  5
B9
330
AE
100
AcDbEntity
  8
0
  6
CONTINUOUS
 62
     0
100
AcDbMText
 10
0.0
 20
-0.3336909008
 30
0.0
 40
0.065
 41
0.0
 71
     1
 72
     1
  1
TWO PLACE DECIMAL    
  7
SLDTEXTSTYLE0
  0
MTEXT
  5
BA
330
AE
100
AcDbEntity
  8
0
  6
CONTINUOUS
 62
     0
100
AcDbMText
 10
0.9794349188
 20
-0.3336909008
 30
0.0
 40
0.065
 41
0.0
 71
     1
 72
     1
  1
%%p
  7
SLDTEXTSTYLE0
  0
MTEXT
  5
BB
330
AE
100
AcDbEntity
  8
0
  6
CONTINUOUS
 62
     0
100
AcDbMText
 10
0.0
 20
-0.4380609768
 30
0.0
 40
0.065
 41
0.0
 71
     1
 72
     1
  1
THREE PLACE DECIMAL  
  7
SLDTEXTSTYLE0
  0
MTEXT
  5
BC
330
AE
100
AcDbEntity
  8
0
  6
CONTINUOUS
 62
     0
100
AcDbMText
 10
0.9738038639
 20
-0.4380609768
 30
0.0
 40
0.065
 41
0.0
 71
     1
 72
     1
  1
%%p
  7
SLDTEXTSTYLE0
  0
ENDBLK
  5
B0
330
AE
100
AcDbEntity
  8
0
100
AcDbBlockEnd
  0
BLOCK
  5
C3
330
C2
100
AcDbEntity
  8
0
100
AcDbBlockBegin
  2
SW_NOTE_2
 70
     0
 10
0.0
 20
0.0
 30
0.0
  3
SW_NOTE_2
  1

  0
MTEXT
  5
C5
330
C2
100
AcDbEntity
  8
0
  6
CONTINUOUS
 62
     0
100
AcDbMText
 10
0.0
 20
0.0773440644
 30
0.0
 40
0.06
 41
0.0
 71
     1
 72
     1
  1
THE INFORMATION CONTAINED IN THIS
  7
SLDTEXTSTYLE0
  0
MTEXT
  5
C6
330
C2
100
AcDbEntity
  8
0
  6
CONTINUOUS
 62
     0
100
AcDbMText
 10
0.0
 20
-0.0220260102
 30
0.0
 40
0.06
 41
0.0
 71
     1
 72
     1
  1
DRAWING IS THE SOLE PROPERTY OF
  7
SLDTEXTSTYLE0
  0
MTEXT
  5
C7
330
C2
100
AcDbEntity
  8
0
  6
CONTINUOUS
 62
     0
100
AcDbMText
 10
0.0
 20
-0.1213960848
 30
0.0
 40
0.06
 41
0.0
 71
     1
 72
     1
  1
Candy Controls.  ANY 
  7
SLDTEXTSTYLE0
  0
MTEXT
  5
C8
330
C2
100
AcDbEntity
  8
0
  6
CONTINUOUS
 62
     0
100
AcDbMText
 10
0.0
 20
-0.2207661593
 30
0.0
 40
0.06
 41
0.0
 71
     1
 72
     1
  1
REPRODUCTION IN PART OR AS A WHOLE
  7
SLDTEXTSTYLE0
  0
MTEXT
  5
C9
330
C2
100
AcDbEntity
  8
0
  6
CONTINUOUS
 62
     0
100
AcDbMText
 10
0.0
 20
-0.3201362339
 30
0.0
 40
0.06
 41
0.0
 71
     1
 72
     1
  1
WITHOUT THE WRITTEN PERMISSION OF
  7
SLDTEXTSTYLE0
  0
MTEXT
  5
CA
330
C2
100
AcDbEntity
  8
0
  6
CONTINUOUS
 62
     0
100
AcDbMText
 10
0.0
 20
-0.4195063085
 30
0.0
 40
0.06
 41
0.0
 71
     1
 72
     1
  1
Candy Controls IS 
  7
SLDTEXTSTYLE0
  0
MTEXT
  5
CB
330
C2
100
AcDbEntity
  8
0
  6
CONTINUOUS
 62
     0
100
AcDbMText
 10
0.0
 20
-0.518876383
 30
0.0
 40
0.06
 41
0.0
 71
     1
 72
     1
  1
PROHIBITED.
  7
SLDTEXTSTYLE0
  0
ENDBLK
  5
C4
330
C2
100
AcDbEntity
  8
0
100
AcDbBlockEnd
  0
ENDSEC
  0
SECTION
  2
ENTITIES
  0
LINE
  5
41
330
1F
100
AcDbEntity
  8
0
  6
CONTINUOUS
 62
     7
100
AcDbLine
 10
0.329927
 20
8.1920731707
 30
0.0
 11
10.629927
 21
8.1920731707
 31
0.0
  0
LINE
  5
42
330
1F
100
AcDbEntity
  8
0
  6
CONTINUOUS
 62
     7
100
AcDbLine
 10
0.329927
 20
8.1920731707
 30
0.0
 11
0.329927
 21
0.3920731707
 31
0.0
  0
LINE
  5
43
330
1F
100
AcDbEntity
  8
0
  6
CONTINUOUS
 62
     7
100
AcDbLine
 10
10.629927
 20
0.3920731707
 30
0.0
 11
0.329927
 21
0.3920731707
 31
0.0
  0
LINE
  5
44
330
1F
100
AcDbEntity
  8
0
  6
CONTINUOUS
 62
     7
100
AcDbLine
 10
10.629927
 20
0.3920731707
 30
0.0
 11
10.629927
 21
8.1920731707
 31
0.0
  0
LINE
  5
45
330
1F
100
AcDbEntity
  8
0
  6
CONTINUOUS
 62
     7
100
AcDbLine
 10
4.7981841288
 20
0.3920731707
 30
0.0
 11
4.7981841288
 21
2.3564211366
 31
0.0
  0
LINE
  5
46
330
1F
100
AcDbEntity
  8
0
  6
CONTINUOUS
 62
     7
100
AcDbLine
 10
2.8210345579
 20
2.3564211366
 30
0.0
 11
10.629927
 21
2.3564211366
 31
0.0
  0
LINE
  5
47
330
1F
100
AcDbEntity
  8
0
  6
CONTINUOUS
 62
     7
100
AcDbLine
 10
6.1796352514
 20
2.3564211366
 30
0.0
 11
6.1796352514
 21
0.3920731707
 31
0.0
  0
LINE
  5
48
330
1F
100
AcDbEntity
  8
0
  6
CONTINUOUS
 62
     7
100
AcDbLine
 10
7.8712070044
 20
2.3564211366
 30
0.0
 11
7.8712070044
 21
0.3920731707
 31
0.0
  0
LINE
  5
49
330
1F
100
AcDbEntity
  8
0
  6
CONTINUOUS
 62
     7
100
AcDbLine
 10
7.8712070044
 20
0.6049590101
 30
0.0
 11
10.629927
 21
0.6049590101
 31
0.0
  0
LINE
  5
4A
330
1F
100
AcDbEntity
  8
0
  6
CONTINUOUS
 62
     7
100
AcDbLine
 10
7.8712070044
 20
1.1119362457
 30
0.0
 11
10.629927
 21
1.1119362457
 31
0.0
  0
LINE
  5
4B
330
1F
100
AcDbEntity
  8
0
  6
CONTINUOUS
 62
     7
100
AcDbLine
 10
7.8712070044
 20
1.9892703708
 30
0.0
 11
10.629927
 21
1.9892703708
 31
0.0
  0
LINE
  5
4C
330
1F
100
AcDbEntity
  8
0
  6
CONTINUOUS
 62
     7
100
AcDbLine
 10
8.266751752
 20
1.1119362457
 30
0.0
 11
8.266751752
 21
0.6049590101
 31
0.0
  0
LINE
  5
4D
330
1F
100
AcDbEntity
  8
0
  6
CONTINUOUS
 62
     7
100
AcDbLine
 10
8.6943435176
 20
0.6049590101
 30
0.0
 11
8.6943435176
 21
0.3920731707
 31
0.0
  0
LINE
  5
4E
330
1F
100
AcDbEntity
  8
0
  6
CONTINUOUS
 62
     7
100
AcDbLine
 10
10.0579917045
 20
1.1119362457
 30
0.0
 11
10.0579917045
 21
0.6049590101
 31
0.0
  0
LINE
  5
4F
330
1F
100
AcDbEntity
  8
0
  6
CONTINUOUS
 62
     7
100
AcDbLine
 10
9.6662556631
 20
0.6049590101
 30
0.0
 11
9.6662556631
 21
0.3920731707
 31
0.0
  0
LINE
  5
50
330
1F
100
AcDbEntity
  8
0
  6
CONTINUOUS
 62
     7
100
AcDbLine
 10
2.8210345579
 20
0.5883479999
 30
0.0
 11
6.1796352514
 21
0.5883479999
 31
0.0
  0
LINE
  5
51
330
1F
100
AcDbEntity
  8
0
  6
CONTINUOUS
 62
     7
100
AcDbLine
 10
6.1796352514
 20
1.7939211366
 30
0.0
 11
7.8712070044
 21
1.7939211366
 31
0.0
  0
LINE
  5
52
330
1F
100
AcDbEntity
  8
0
  6
CONTINUOUS
 62
     7
100
AcDbLine
 10
6.1796352514
 20
1.9814211366
 30
0.0
 11
7.8712070044
 21
1.9814211366
 31
0.0
  0
LINE
  5
53
330
1F
100
AcDbEntity
  8
0
  6
CONTINUOUS
 62
     7
100
AcDbLine
 10
6.1796352514
 20
2.1689211366
 30
0.0
 11
7.8712070044
 21
2.1689211366
 31
0.0
  0
LINE
  5
54
330
1F
100
AcDbEntity
  8
0
  6
CONTINUOUS
 62
     7
100
AcDbLine
 10
7.8712070044
 20
1.2314211366
 30
0.0
 11
6.1796352514
 21
1.2314211366
 31
0.0
  0
LINE
  5
55
330
1F
100
AcDbEntity
  8
0
  6
CONTINUOUS
 62
     7
100
AcDbLine
 10
7.3921580388
 20
2.3564211366
 30
0.0
 11
7.3921580388
 21
1.2314211366
 31
0.0
  0
LINE
  5
56
330
1F
100
AcDbEntity
  8
0
  6
CONTINUOUS
 62
     7
100
AcDbLine
 10
6.9236308342
 20
2.3564211366
 30
0.0
 11
6.9236308342
 21
1.2314211366
 31
0.0
  0
LINE
  5
57
330
1F
100
AcDbEntity
  8
0
  6
CONTINUOUS
 62
     7
100
AcDbLine
 10
4.7981841288
 20
0.8557965305
 30
0.0
 11
6.1796352514
 21
0.8557965305
 31
0.0
  0
LINE
  5
58
330
1F
100
AcDbEntity
  8
0
  6
CONTINUOUS
 62
     7
100
AcDbLine
 10
4.7981841288
 20
1.1257965305
 30
0.0
 11
6.1796352514
 21
1.1257965305
 31
0.0
  0
LINE
  5
59
330
1F
100
AcDbEntity
  8
0
  6
CONTINUOUS
 62
     7
100
AcDbLine
 10
2.8210345579
 20
0.3920731707
 30
0.0
 11
2.8210345579
 21
2.3564211366
 31
0.0
  0
LINE
  5
5A
330
1F
100
AcDbEntity
  8
0
  6
CONTINUOUS
 62
     7
100
AcDbLine
 10
2.8210345579
 20
1.1064211366
 30
0.0
 11
4.7981841288
 21
1.1064211366
 31
0.0
  0
LINE
  5
5B
330
1F
100
AcDbEntity
  8
0
  6
CONTINUOUS
 62
     7
100
AcDbLine
 10
2.8210345579
 20
1.3564211366
 30
0.0
 11
4.7981841288
 21
1.3564211366
 31
0.0
  0
LINE
  5
5C
330
1F
100
AcDbEntity
  8
0
  6
CONTINUOUS
 62
     7
100
AcDbLine
 10
2.8210345579
 20
1.6064211366
 30
0.0
 11
4.7981841288
 21
1.6064211366
 31
0.0
  0
LINE
  5
5D
330
1F
100
AcDbEntity
  8
0
  6
CONTINUOUS
 62
     7
100
AcDbLine
 10
2.8210345579
 20
1.8564211366
 30
0.0
 11
4.7981841288
 21
1.8564211366
 31
0.0
  0
LINE
  5
5E
330
1F
100
AcDbEntity
  8
0
  6
CONTINUOUS
 62
     7
100
AcDbLine
 10
3.8190146875
 20
2.3564211366
 30
0.0
 11
3.8190146875
 21
0.5883479999
 31
0.0
  0
LINE
  5
5F
330
1F
100
AcDbEntity
  8
0
  6
CONTINUOUS
 62
     7
100
AcDbLine
 10
6.1796352514
 20
2.2020813496
 30
0.0
 11
4.7981841288
 21
2.2020813496
 31
0.0
  0
LINE
  5
60
330
1F
100
AcDbEntity
  8
0
  6
CONTINUOUS
 62
     7
100
AcDbLine
 10
7.8712070044
 20
1.6064211366
 30
0.0
 11
6.1796352514
 21
1.6064211366
 31
0.0
  0
LINE
  5
61
330
1F
100
AcDbEntity
  8
0
  6
CONTINUOUS
 62
     7
100
AcDbLine
 10
7.8712070044
 20
1.4189211366
 30
0.0
 11
6.1796352514
 21
1.4189211366
 31
0.0
  0
LINE
  5
62
330
1F
100
AcDbEntity
  8
0
  6
CONTINUOUS
 62
     7
100
AcDbLine
 10
2.8210345579
 20
2.1064211366
 30
0.0
 11
4.7981841288
 21
2.1064211366
 31
0.0
  0
LINE
  5
63
330
1F
100
AcDbEntity
  8
0
  6
CONTINUOUS
 62
     7
100
AcDbLine
 10
4.7981841288
 20
1.3957965305
 30
0.0
 11
6.1796352514
 21
1.3957965305
 31
0.0
  0
LINE
  5
64
330
1F
100
AcDbEntity
  8
0
  6
CONTINUOUS
 62
     7
100
AcDbLine
 10
2.8210345579
 20
0.8564211366
 30
0.0
 11
4.7981841288
 21
0.8564211366
 31
0.0
  0
LINE
  5
65
330
1F
100
AcDbEntity
  8
0
  6
CONTINUOUS
 62
     7
100
AcDbLine
 10
1.1838252943
 20
0.3920731707
 30
0.0
 11
1.1838252943
 21
1.3064211366
 31
0.0
  0
LINE
  5
66
330
1F
100
AcDbEntity
  8
0
  6
CONTINUOUS
 62
     7
100
AcDbLine
 10
2.8210345579
 20
1.3064211366
 30
0.0
 11
1.1838252943
 21
1.3064211366
 31
0.0
  0
LINE
  5
67
330
1F
100
AcDbEntity
  8
0
  6
CONTINUOUS
 62
     7
100
AcDbLine
 10
8.660927
 20
0.3920731707
 30
0.0
 11
8.660927
 21
0.3072739649
 31
0.0
  0
LINE
  5
68
330
1F
100
AcDbEntity
  8
0
  6
CONTINUOUS
 62
     7
100
AcDbLine
 10
6.692177
 20
0.3920731707
 30
0.0
 11
6.692177
 21
0.3072739649
 31
0.0
  0
LINE
  5
69
330
1F
100
AcDbEntity
  8
0
  6
CONTINUOUS
 62
     7
100
AcDbLine
 10
4.723427
 20
0.3920731707
 30
0.0
 11
4.723427
 21
0.3072739649
 31
0.0
  0
LINE
  5
6A
330
1F
100
AcDbEntity
  8
0
  6
CONTINUOUS
 62
     7
100
AcDbLine
 10
2.754677
 20
0.3920731707
 30
0.0
 11
2.754677
 21
0.3072739649
 31
0.0
  0
LINE
  5
6B
330
1F
100
AcDbEntity
  8
0
  6
CONTINUOUS
 62
     7
100
AcDbLine
 10
2.754677
 20
0.3920731707
 30
0.0
 11
2.7672319738
 21
0.3575
 31
0.0
  0
LINE
  5
6C
330
1F
100
AcDbEntity
  8
0
  6
CONTINUOUS
 62
     7
100
AcDbLine
 10
2.7672319738
 20
0.3575
 30
0.0
 11
2.7414258825
 21
0.3575
 31
0.0
  0
LINE
  5
6D
330
1F
100
AcDbEntity
  8
0
  6
CONTINUOUS
 62
     7
100
AcDbLine
 10
2.7414258825
 20
0.3575
 30
0.0
 11
2.754677
 21
0.3920731707
 31
0.0
  0
MTEXT
  5
91
330
1F
100
AcDbEntity
  8
0
  6
CONTINUOUS
 62
     7
100
AcDbMText
 10
4.9775846961
 20
0.5178452352
 30
0.0
 40
0.0625
 41
0.0
 71
     1
 72
     1
  1
DO NOT SCALE DRAWING
  7
SLDTEXTSTYLE0
  0
MTEXT
  5
92
330
1F
100
AcDbEntity
  8
0
  6
CONTINUOUS
 62
     7
100
AcDbMText
 10
8.8364985458
 20
0.9417064595
 30
0.0
 40
0.125
 41
0.0
 71
     1
 72
     1
  1
CL5-C68
  7
SLDTEXTSTYLE0
  0
MTEXT
  5
94
330
1F
100
AcDbEntity
  8
0
  6
CONTINUOUS
 62
     7
100
AcDbMText
 10
9.7571278483
 20
0.5524239532
 30
0.0
 40
0.1
 41
0.0
 71
     1
 72
     1
  1
SHEET 1 OF 1
  7
SLDTEXTSTYLE1
  0
MTEXT
  5
95
330
1F
100
AcDbEntity
  8
0
  6
CONTINUOUS
 62
     7
100
AcDbMText
 10
4.8448077858
 20
2.3132954224
 30
0.0
 40
0.07
 41
0.0
 71
     1
 72
     1
  1
UNLESS OTHERWISE SPECIFIED:
  7
SLDTEXTSTYLE0
  0
MTEXT
  5
96
330
1F
100
AcDbEntity
  8
0
  6
CONTINUOUS
 62
     7
100
AcDbMText
 10
7.9586139647
 20
0.5520987879
 30
0.0
 40
0.1
 41
0.0
 71
     1
 72
     1
  1
SCALE: 1:2
  7
SLDTEXTSTYLE0
  0
MTEXT
  5
97
330
1F
100
AcDbEntity
  8
0
  6
CONTINUOUS
 62
     7
100
AcDbMText
 10
8.7023691647
 20
0.5486763345
 30
0.0
 40
0.1
 41
0.0
 71
     1
 72
     1
  1
WEIGHT: 
  7
SLDTEXTSTYLE0
  0
MTEXT
  5
98
330
1F
100
AcDbEntity
  8
0
  6
CONTINUOUS
 62
     7
100
AcDbMText
 10
10.2277580983
 20
1.081966299
 30
0.0
 40
0.1
 41
0.0
 71
     1
 72
     1
  1
REV
  7
SLDTEXTSTYLE0
  0
MTEXT
  5
9A
330
1F
100
AcDbEntity
  8
0
  6
CONTINUOUS
 62
     7
100
AcDbMText
 10
8.2984570898
 20
1.0858725293
 30
0.0
 40
0.1
 41
0.0
 71
     1
 72
     1
  1
DWG.  NO.
  7
SLDTEXTSTYLE2
  0
MTEXT
  5
9B
330
1F
100
AcDbEntity
  8
0
  6
CONTINUOUS
 62
     7
100
AcDbMText
 10
7.9598482632
 20
0.9442140768
 30
0.0
 40
0.25
 41
0.0
 71
     1
 72
     1
  1
A
  7
SLDTEXTSTYLE0
  0
MTEXT
  5
9C
330
1F
100
AcDbEntity
  8
0
  6
CONTINUOUS
 62
     7
100
AcDbMText
 10
7.9519581822
 20
1.0872713483
 30
0.0
 40
0.1
 41
0.0
 71
     1
 72
     1
  1
SIZE
  7
SLDTEXTSTYLE0
  0
MTEXT
  5
9D
330
1F
100
AcDbEntity
  8
0
  6
CONTINUOUS
 62
     7
100
AcDbMText
 10
7.9170704177
 20
1.9547881128
 30
0.0
 40
0.1
 41
0.0
 71
     1
 72
     1
  1
TITLE:
  7
SLDTEXTSTYLE0
  0
MTEXT
  5
9E
330
1F
100
AcDbEntity
  8
0
  6
CONTINUOUS
 62
     7
100
AcDbMText
 10
7.0363774929
 20
2.2906161274
 30
0.0
 40
0.065
 41
0.0
 71
     1
 72
     1
  1
NAME
  7
SLDTEXTSTYLE0
  0
MTEXT
  5
9F
330
1F
100
AcDbEntity
  8
0
  6
CONTINUOUS
 62
     7
100
AcDbMText
 10
7.5281510634
 20
2.2888799118
 30
0.0
 40
0.065
 41
0.0
 71
     1
 72
     1
  1
DATE
  7
SLDTEXTSTYLE0
  0
MTEXT
  5
A0
330
1F
100
AcDbEntity
  8
0
  6
CONTINUOUS
 62
     7
100
AcDbMText
 10
6.2277147029
 20
1.1876913145
 30
0.0
 40
0.065
 41
0.0
 71
     1
 72
     1
  1
COMMENTS:
  7
SLDTEXTSTYLE0
  0
MTEXT
  5
A1
330
1F
100
AcDbEntity
  8
0
  6
CONTINUOUS
 62
     7
100
AcDbMText
 10
6.2268411461
 20
1.3536101679
 30
0.0
 40
0.065
 41
0.0
 71
     1
 72
     1
  1
Q.A.
  7
SLDTEXTSTYLE0
  0
MTEXT
  5
A2
330
1F
100
AcDbEntity
  8
0
  6
CONTINUOUS
 62
     7
100
AcDbMText
 10
6.2284654509
 20
1.5395328424
 30
0.0
 40
0.065
 41
0.0
 71
     1
 72
     1
  1
MFG APPR.
  7
SLDTEXTSTYLE0
  0
MTEXT
  5
A3
330
1F
100
AcDbEntity
  8
0
  6
CONTINUOUS
 62
     7
100
AcDbMText
 10
6.2235171344
 20
1.7267501785
 30
0.0
 40
0.065
 41
0.0
 71
     1
 72
     1
  1
ENG APPR.
  7
SLDTEXTSTYLE0
  0
MTEXT
  5
A4
330
1F
100
AcDbEntity
  8
0
  6
CONTINUOUS
 62
     7
100
AcDbMText
 10
6.2264103951
 20
1.9092699088
 30
0.0
 40
0.065
 41
0.0
 71
     1
 72
     1
  1
CHECKED
  7
SLDTEXTSTYLE0
  0
MTEXT
  5
A5
330
1F
100
AcDbEntity
  8
0
  6
CONTINUOUS
 62
     7
100
AcDbMText
 10
6.2242794356
 20
2.1016301232
 30
0.0
 40
0.065
 41
0.0
 71
     1
 72
     1
  1
DRAWN
  7
SLDTEXTSTYLE0
  0
MTEXT
  5
A6
330
1F
100
AcDbEntity
  8
0
  6
CONTINUOUS
 62
     7
100
AcDbMText
 10
4.8208600979
 20
0.834523235
 30
0.0
 40
0.06
 41
0.0
 71
     1
 72
     1
  1
FINISH
  7
SLDTEXTSTYLE0
  0
MTEXT
  5
A7
330
1F
100
AcDbEntity
  8
0
  6
CONTINUOUS
 62
     7
100
AcDbMText
 10
4.8181240648
 20
1.1028217587
 30
0.0
 40
0.06
 41
0.0
 71
     1
 72
     1
  1
MATERIAL
  7
SLDTEXTSTYLE0
  0
INSERT
  5
AD
330
1F
100
AcDbEntity
  8
0
  6
CONTINUOUS
 62
     7
100
AcDbBlockReference
  2
SW_NOTE_0
 10
4.8231926633
 20
1.2646542947
 30
0.0
  0
INSERT
  5
BD
330
1F
100
AcDbEntity
  8
0
  6
CONTINUOUS
 62
     7
100
AcDbBlockReference
  2
SW_NOTE_1
 10
4.8353339353
 20
2.0049168724
 30
0.0
  0
MTEXT
  5
BE
330
1F
100
AcDbEntity
  8
0
  6
CONTINUOUS
 62
     7
100
AcDbMText
 10
3.5531400086
 20
0.5200091997
 30
0.0
 40
0.0625
 41
0.0
 71
     1
 72
     1
  1
APPLICATION
  7
SLDTEXTSTYLE0
  0
MTEXT
  5
BF
330
1F
100
AcDbEntity
  8
0
  6
CONTINUOUS
 62
     7
100
AcDbMText
 10
4.1005607758
 20
0.7502454275
 30
0.0
 40
0.0625
 41
0.0
 71
     1
 72
     1
  1
USED ON
  7
SLDTEXTSTYLE0
  0
MTEXT
  5
C0
330
1F
100
AcDbEntity
  8
0
  6
CONTINUOUS
 62
     7
100
AcDbMText
 10
3.1040019536
 20
0.7492094783
 30
0.0
 40
0.0625
 41
0.0
 71
     1
 72
     1
  1
NEXT ASSY
  7
SLDTEXTSTYLE0
  0
MTEXT
  5
C1
330
1F
100
AcDbEntity
  8
0
  6
CONTINUOUS
 62
     7
100
AcDbMText
 10
1.3712489489
 20
1.2496672684
 30
0.0
 40
0.06
 41
0.0
 71
     1
 72
     1
  1
PROPRIETARY AND CONFIDENTIAL
  7
SLDTEXTSTYLE0
  0
INSERT
  5
CC
330
1F
100
AcDbEntity
  8
0
  6
CONTINUOUS
 62
     7
100
AcDbBlockReference
  2
SW_NOTE_2
 10
1.2226209074
 20
1.0313492921
 30
0.0
  0
MTEXT
  5
CD
330
1F
100
AcDbEntity
  8
0
  6
CONTINUOUS
 62
     7
100
AcDbMText
 10
1.7387909509
 20
0.3105864247
 30
0.0
 40
0.09375
 41
0.0
 71
     1
 72
     1
  1
5
  7
SLDTEXTSTYLE0
  0
MTEXT
  5
CE
330
1F
100
AcDbEntity
  8
0
  6
CONTINUOUS
 62
     7
100
AcDbMText
 10
3.723800327
 20
0.3137237518
 30
0.0
 40
0.09375
 41
0.0
 71
     1
 72
     1
  1
4
  7
SLDTEXTSTYLE0
  0
MTEXT
  5
CF
330
1F
100
AcDbEntity
  8
0
  6
CONTINUOUS
 62
     7
100
AcDbMText
 10
5.6324457277
 20
0.3116191842
 30
0.0
 40
0.09375
 41
0.0
 71
     1
 72
     1
  1
3
  7
SLDTEXTSTYLE0
  0
MTEXT
  5
D0
330
1F
100
AcDbEntity
  8
0
  6
CONTINUOUS
 62
     7
100
AcDbMText
 10
7.6059721724
 20
0.3124391351
 30
0.0
 40
0.09375
 41
0.0
 71
     1
 72
     1
  1
2
  7
SLDTEXTSTYLE0
  0
MTEXT
  5
D1
330
1F
100
AcDbEntity
  8
0
  6
CONTINUOUS
 62
     7
100
AcDbMText
 10
9.6619921328
 20
0.301372012
 30
0.0
 40
0.09375
 41
0.0
 71
     1
 72
     1
  1
1
  7
SLDTEXTSTYLE0
  0
LINE
  5
D2
330
1F
100
AcDbEntity
  8
0
  6
CONTINUOUS
 62
     7
100
AcDbLine
 10
3.6078500141
 20
3.0893869478
 30
0.0
 11
3.8506321664
 21
3.0893869478
 31
0.0
  0
LINE
  5
D3
330
1F
100
AcDbEntity
  8
0
  6
CONTINUOUS
 62
     7
100
AcDbLine
 10
3.3856912215
 20
3.0893869478
 30
0.0
 11
3.581603295
 21
3.0893869478
 31
0.0
  0
LINE
  5
D4
330
1F
100
AcDbEntity
  8
0
  6
CONTINUOUS
 62
     7
100
AcDbLine
 10
3.581603295
 20
4.427969625
 30
0.0
 11
3.3856912215
 21
4.427969625
 31
0.0
  0
LINE
  5
D5
330
1F
100
AcDbEntity
  8
0
  6
CONTINUOUS
 62
     7
100
AcDbLine
 10
3.8506321664
 20
4.427969625
 30
0.0
 11
3.6078500141
 21
4.427969625
 31
0.0
  0
LINE
  5
D6
330
1F
100
AcDbEntity
  8
0
  6
CONTINUOUS
 62
     7
100
AcDbLine
 10
3.8506321664
 20
3.0893869478
 30
0.0
 11
3.8581321664
 21
3.0968869478
 31
0.0
  0
LINE
  5
D7
330
1F
100
AcDbEntity
  8
0
  6
CONTINUOUS
 62
     7
100
AcDbLine
 10
3.8581321664
 20
4.420469625
 30
0.0
 11
3.8506321664
 21
4.427969625
 31
0.0
  0
LINE
  5
D8
330
1F
100
AcDbEntity
  8
0
  6
CONTINUOUS
 62
     7
100
AcDbLine
 10
3.673466812
 20
3.7685208061
 30
0.0
 11
3.673466812
 21
3.7488357667
 31
0.0
  0
LINE
  5
D9
330
1F
100
AcDbEntity
  8
0
  6
CONTINUOUS
 62
     7
100
AcDbLine
 10
3.7915770483
 20
3.7488357667
 30
0.0
 11
3.7915770483
 21
3.7685208061
 31
0.0
  0
LINE
  5
DA
330
1F
100
AcDbEntity
  8
0
  6
CONTINUOUS
 62
     7
100
AcDbLine
 10
2.7951400404
 20
3.0968869478
 30
0.0
 11
2.8026400404
 21
3.0893869478
 31
0.0
  0
LINE
  5
DB
330
1F
100
AcDbEntity
  8
0
  6
CONTINUOUS
 62
     7
100
AcDbLine
 10
3.2675809853
 20
4.427969625
 30
0.0
 11
3.0716689118
 21
4.427969625
 31
0.0
  0
LINE
  5
DC
330
1F
100
AcDbEntity
  8
0
  6
CONTINUOUS
 62
     7
100
AcDbLine
 10
2.8026400404
 20
3.0893869478
 30
0.0
 11
3.2675809853
 21
3.0893869478
 31
0.0
  0
LINE
  5
DD
330
1F
100
AcDbEntity
  8
0
  6
CONTINUOUS
 62
     7
100
AcDbLine
 10
3.2675809853
 20
3.6602530895
 30
0.0
 11
3.306951064
 21
3.6602530895
 31
0.0
  0
LINE
  5
DE
330
1F
100
AcDbEntity
  8
0
  6
CONTINUOUS
 62
     7
100
AcDbLine
 10
3.306951064
 20
3.8571034832
 30
0.0
 11
3.2675809853
 21
3.8571034832
 31
0.0
  0
LINE
  5
DF
330
1F
100
AcDbEntity
  8
0
  6
CONTINUOUS
 62
     7
100
AcDbLine
 10
3.3463211428
 20
3.6602530895
 30
0.0
 11
3.3856912215
 21
3.6602530895
 31
0.0
  0
LINE
  5
E0
330
1F
100
AcDbEntity
  8
0
  6
CONTINUOUS
 62
     7
100
AcDbLine
 10
3.3856912215
 20
3.8571034832
 30
0.0
 11
3.3463211428
 21
3.8571034832
 31
0.0
  0
LINE
  5
E1
330
1F
100
AcDbEntity
  8
0
  6
CONTINUOUS
 62
     7
100
AcDbLine
 10
3.2675809853
 20
4.1819066328
 30
0.0
 11
3.306951064
 21
4.1819066328
 31
0.0
  0
LINE
  5
E2
330
1F
100
AcDbEntity
  8
0
  6
CONTINUOUS
 62
     7
100
AcDbLine
 10
3.306951064
 20
4.3787570265
 30
0.0
 11
3.2675809853
 21
4.3787570265
 31
0.0
  0
LINE
  5
E3
330
1F
100
AcDbEntity
  8
0
  6
CONTINUOUS
 62
     7
100
AcDbLine
 10
3.3463211428
 20
4.1819066328
 30
0.0
 11
3.3856912215
 21
4.1819066328
 31
0.0
  0
LINE
  5
E4
330
1F
100
AcDbEntity
  8
0
  6
CONTINUOUS
 62
     7
100
AcDbLine
 10
3.3856912215
 20
4.3787570265
 30
0.0
 11
3.3463211428
 21
4.3787570265
 31
0.0
  0
LINE
  5
E5
330
1F
100
AcDbEntity
  8
0
  6
CONTINUOUS
 62
     7
100
AcDbLine
 10
3.2675809853
 20
3.1385995462
 30
0.0
 11
3.306951064
 21
3.1385995462
 31
0.0
  0
LINE
  5
E6
330
1F
100
AcDbEntity
  8
0
  6
CONTINUOUS
 62
     7
100
AcDbLine
 10
3.306951064
 20
3.3354499399
 30
0.0
 11
3.2675809853
 21
3.3354499399
 31
0.0
  0
LINE
  5
E7
330
1F
100
AcDbEntity
  8
0
  6
CONTINUOUS
 62
     7
100
AcDbLine
 10
3.3463211428
 20
3.1385995462
 30
0.0
 11
3.3856912215
 21
3.1385995462
 31
0.0
  0
LINE
  5
E8
330
1F
100
AcDbEntity
  8
0
  6
CONTINUOUS
 62
     7
100
AcDbLine
 10
3.3856912215
 20
3.3354499399
 30
0.0
 11
3.3463211428
 21
3.3354499399
 31
0.0
  0
LINE
  5
E9
330
1F
100
AcDbEntity
  8
0
  6
CONTINUOUS
 62
     7
100
AcDbLine
 10
3.306951064
 20
3.113993247
 30
0.0
 11
3.3463211428
 21
3.113993247
 31
0.0
  0
LINE
  5
EA
330
1F
100
AcDbEntity
  8
0
  6
CONTINUOUS
 62
     7
100
AcDbLine
 10
3.3463211428
 20
4.4033633258
 30
0.0
 11
3.306951064
 21
4.4033633258
 31
0.0
  0
LINE
  5
EB
330
1F
100
AcDbEntity
  8
0
  6
CONTINUOUS
 62
     7
100
AcDbLine
 10
3.3856912215
 20
4.427969625
 30
0.0
 11
3.3856912215
 21
3.0893869478
 31
0.0
  0
SPLINE
  5
EC
330
1F
100
AcDbEntity
  8
0
  6
CONTINUOUS
 62
     7
100
AcDbSpline
210
0.0
220
0.0
230
1.0
 70
     8
 71
     3
 72
    82
 73
    78
 74
     0
 42
0.00000001
 43
0.00000001
 40
-0.0312500000000007
 40
-0.0312500000000007
 40
0.0
 40
0.0
 40
0.0312499999999994
 40
0.0312499999999994
 40
0.0468749999999991
 40
0.0468749999999991
 40
0.0624999999999988
 40
0.0624999999999988
 40
0.0781249999999985
 40
0.0781249999999985
 40
0.0937499999999983
 40
0.0937499999999983
 40
0.1249999999999976
 40
0.1249999999999976
 40
0.156249999999997
 40
0.156249999999997
 40
0.1874999999999963
 40
0.1874999999999963
 40
0.2187499999999957
 40
0.2187499999999957
 40
0.249999999999995
 40
0.249999999999995
 40
0.2812499999999943
 40
0.2812499999999943
 40
0.3124999999999937
 40
0.3124999999999937
 40
0.3749999999999927
 40
0.3749999999999927
 40
0.4062499999999922
 40
0.4062499999999922
 40
0.421874999999992
 40
0.421874999999992
 40
0.4374999999999917
 40
0.4374999999999917
 40
0.4531249999999915
 40
0.4531249999999915
 40
0.4687499999999912
 40
0.4687499999999912
 40
0.484374999999991
 40
0.484374999999991
 40
0.4999999999999907
 40
0.4999999999999907
 40
0.5156249999999907
 40
0.5156249999999907
 40
0.5312499999999907
 40
0.5312499999999907
 40
0.5468749999999908
 40
0.5468749999999908
 40
0.5624999999999908
 40
0.5624999999999908
 40
0.5937499999999912
 40
0.5937499999999912
 40
0.6249999999999918
 40
0.6249999999999918
 40
0.6562499999999922
 40
0.6562499999999922
 40
0.6874999999999928
 40
0.6874999999999928
 40
0.7187499999999932
 40
0.7187499999999932
 40
0.7499999999999937
 40
0.7499999999999937
 40
0.8124999999999951
 40
0.8124999999999951
 40
0.843749999999996
 40
0.843749999999996
 40
0.8749999999999968
 40
0.8749999999999968
 40
0.9062499999999977
 40
0.9062499999999977
 40
0.9218749999999981
 40
0.9218749999999981
 40
0.9374999999999986
 40
0.9374999999999986
 40
0.9687499999999993
 40
0.9687499999999993
 40
1.0
 40
1.0
 40
1.031249999999999
 40
1.031249999999999
 10
3.740124155569792
 20
4.34120897959004
 30
0.0
 10
3.724919704742621
 20
4.34120897959004
 30
0.0
 10
3.717491723385153
 20
4.340719733145918
 30
0.0
 10
3.70659817178512
 20
4.339271908556931
 30
0.0
 10
3.702983961357712
 20
4.338662802885296
 30
0.0
 10
3.696002108093532
 20
4.337223297142809
 30
0.0
 10
3.692628345885374
 20
4.336394282581846
 30
0.0
 10
3.686103505292029
 20
4.334520461158722
 30
0.0
 10
3.682952486449479
 20
4.333475611852402
 30
0.0
 10
3.6768702055327
 20
4.331163420213021
 30
0.0
 10
3.673948971304437
 20
4.329897660266106
 30
0.0
 10
3.665708386604557
 20
4.325855164627838
 30
0.0
 10
3.66083266052421
 20
4.322808500326889
 30
0.0
 10
3.652219955012434
 20
4.31598850558245
 30
0.0
 10
3.648612756271496
 20
4.312317973262193
 30
0.0
 10
3.642602972617657
 20
4.304463808197601
 30
0.0
 10
3.640196896248614
 20
4.300248592752748
 30
0.0
 10
3.636612191310798
 20
4.291543887855307
 30
0.0
 10
3.635408989831095
 20
4.287033520689065
 30
0.0
 10
3.634064231013149
 20
4.277693582881998
 30
0.0
 10
3.633932622635446
 20
4.272867801631974
 30
0.0
 10
3.634654210401045
 20
4.263151873826972
 30
0.0
 10
3.635501601458218
 20
4.258229682759685
 30
0.0
 10
3.638124916271672
 20
4.248260814680447
 30
0.0
 10
3.639914317259659
 20
4.243194911099997
 30
0.0
 10
3.64654268157694
 20
4.228208726733076
 30
0.0
 10
3.652603431406185
 20
4.218354302882503
 30
0.0
 10
3.664704068972915
 20
4.204135521992933
 30
0.0
 10
3.669164528150257
 20
4.199599183040338
 30
0.0
 10
3.676626534551351
 20
4.193212895333907
 30
0.0
 10
3.679243609698721
 20
4.191154602400772
 30
0.0
 10
3.684781805642982
 20
4.187212906021871
 30
0.0
 10
3.687700659788326
 20
4.185334039691173
 30
0.0
 10
3.693755046870899
 20
4.181878560085705
 30
0.0
 10
3.69690481648279
 20
4.180290883057515
 30
0.0
 10
3.703490358000393
 20
4.177452020322225
 30
0.0
 10
3.706958316186672
 20
4.176192354488641
 30
0.0
 10
3.714053494805098
 20
4.174144031852069
 30
0.0
 10
3.717675800284429
 20
4.173351924861779
 30
0.0
 10
3.725083633503
 20
4.172280372868979
 30
0.0
 10
3.728909669614586
 20
4.172003900734098
 30
0.0
 10
3.736457076898325
 20
4.172019667193497
 30
0.0
 10
3.74019418005066
 20
4.172303335005709
 30
0.0
 10
3.7475982943154
 20
4.173396812100077
 30
0.0
 10
3.751289967978743
 20
4.174217190545047
 30
0.0
 10
3.758368693366398
 20
4.17628857628728
 30
0.0
 10
3.761782447511538
 20
4.177539824678874
 30
0.0
 10
3.768390737579015
 20
4.180411091755292
 30
0.0
 10
3.771584707414516
 20
4.182034694069952
 30
0.0
 10
3.780642162203522
 20
4.187244290222142
 30
0.0
 10
3.786086503021508
 20
4.191201039173629
 30
0.0
 10
3.796074903640446
 20
4.199784215737433
 30
0.0
 10
3.80054886710034
 20
4.204364101039441
 30
0.0
 10
3.808495038516762
 20
4.213736040883246
 30
0.0
 10
3.811999982067607
 20
4.218561237438762
 30
0.0
 10
3.818173146326784
 20
4.228417024085566
 30
0.0
 10
3.820838237616423
 20
4.233458740991055
 30
0.0
 10
3.825229304542064
 20
4.24345614131776
 30
0.0
 10
3.826977241004041
 20
4.248444227958701
 30
0.0
 10
3.829572746572587
 20
4.258384981703161
 30
0.0
 10
3.830421156706797
 20
4.263374909320776
 30
0.0
 10
3.831458967290489
 20
4.277966791146359
 30
0.0
 10
3.830226383886556
 20
4.287179291444324
 30
0.0
 10
3.824853972774203
 20
4.300234819800862
 30
0.0
 10
3.822444632780141
 20
4.304456582348687
 30
0.0
 10
3.816447293215922
 20
4.312299139361732
 30
0.0
 10
3.812847140784201
 20
4.315966452599168
 30
0.0
 10
3.804245215362449
 20
4.322785194669843
 30
0.0
 10
3.799349834848211
 20
4.325842990323862
 30
0.0
 10
3.791183762145371
 20
4.329856582408191
 30
0.0
 10
3.788318146915923
 20
4.331102763797558
 30
0.0
 10
3.782279791636598
 20
4.33340940481371
 30
0.0
 10
3.779079353508712
 20
4.334477248255818
 30
0.0
 10
3.769210691014275
 20
4.337321077146012
 30
0.0
 10
3.762296205946234
 20
4.338749749113805
 30
0.0
 10
3.74777268148516
 20
4.340700511512673
 30
0.0
 10
3.740124155569792
 20
4.34120897959004
 30
0.0
 10
3.724919704742621
 20
4.34120897959004
 30
0.0
  0
SPLINE
  5
ED
330
1F
100
AcDbEntity
  8
0
  6
CONTINUOUS
 62
     7
100
AcDbSpline
210
0.0
220
0.0
230
1.0
 70
     8
 71
     3
 72
    70
 73
    66
 74
     0
 42
0.00000001
 43
0.00000001
 40
-0.0312500000000002
 40
-0.0312500000000002
 40
0.0
 40
0.0
 40
0.0312499999999995
 40
0.0312499999999995
 40
0.0468749999999993
 40
0.0468749999999993
 40
0.0624999999999991
 40
0.0624999999999991
 40
0.0937499999999989
 40
0.0937499999999989
 40
0.1249999999999987
 40
0.1249999999999987
 40
0.1874999999999986
 40
0.1874999999999986
 40
0.2187499999999987
 40
0.2187499999999987
 40
0.2499999999999988
 40
0.2499999999999988
 40
0.2812499999999989
 40
0.2812499999999989
 40
0.312499999999999
 40
0.312499999999999
 40
0.3437499999999991
 40
0.3437499999999991
 40
0.3749999999999992
 40
0.3749999999999992
 40
0.4062499999999993
 40
0.4062499999999993
 40
0.4374999999999994
 40
0.4374999999999994
 40
0.4687499999999996
 40
0.4687499999999996
 40
0.4999999999999997
 40
0.4999999999999997
 40
0.5312499999999997
 40
0.5312499999999997
 40
0.5624999999999998
 40
0.5624999999999998
 40
0.5937499999999998
 40
0.5937499999999998
 40
0.6249999999999999
 40
0.6249999999999999
 40
0.6562499999999999
 40
0.6562499999999999
 40
0.6875
 40
0.6875
 40
0.71875
 40
0.71875
 40
0.7500000000000001
 40
0.7500000000000001
 40
0.7812500000000001
 40
0.7812500000000001
 40
0.8125000000000002
 40
0.8125000000000002
 40
0.8750000000000002
 40
0.8750000000000002
 40
0.90625
 40
0.90625
 40
0.9374999999999999
 40
0.9374999999999999
 40
0.9531249999999999
 40
0.9531249999999999
 40
0.9687499999999998
 40
0.9687499999999998
 40
1.0
 40
1.0
 40
1.03125
 40
1.03125
 10
3.727982931000973
 20
3.299609700277549
 30
0.0
 10
3.737060929311439
 20
3.299609700277549
 30
0.0
 10
3.741455206826084
 20
3.299060948005104
 30
0.0
 10
3.747854012919789
 20
3.297514358493494
 30
0.0
 10
3.749952973284829
 20
3.296874861202153
 30
0.0
 10
3.753957793053385
 20
3.295415236318949
 30
0.0
 10
3.755882535746481
 20
3.294591084788789
 30
0.0
 10
3.761448561520205
 20
3.291870161773503
 30
0.0
 10
3.764869715194917
 20
3.289723906200833
 30
0.0
 10
3.770978198348401
 20
3.285110076324786
 30
0.0
 10
3.773712579480693
 20
3.28261842296715
 30
0.0
 10
3.781094577582726
 20
3.27470219102161
 30
0.0
 10
3.784713156177821
 20
3.269110429358875
 30
0.0
 10
3.788557780750054
 20
3.260464170823651
 30
0.0
 10
3.789562705902228
 20
3.25753226653841
 30
0.0
 10
3.790980213012971
 20
3.25174124470457
 30
0.0
 10
3.79140306736006
 20
3.248861549312534
 30
0.0
 10
3.791664457491063
 20
3.243135431233652
 30
0.0
 10
3.791498074717095
 20
3.240266036406692
 30
0.0
 10
3.790539027709216
 20
3.234688187337034
 30
0.0
 10
3.789753492282366
 20
3.231984211335899
 30
0.0
 10
3.787536138396338
 20
3.226744054952615
 30
0.0
 10
3.786105300148323
 20
3.224207760972207
 30
0.0
 10
3.782496590634194
 20
3.219310864060327
 30
0.0
 10
3.780318427419884
 20
3.21696543332046
 30
0.0
 10
3.775298816693755
 20
3.212663793251907
 30
0.0
 10
3.77242210342195
 20
3.210670461440217
 30
0.0
 10
3.765926317003334
 20
3.207100955677688
 30
0.0
 10
3.762399317819606
 20
3.205570700066771
 30
0.0
 10
3.754747583124274
 20
3.203026578977318
 30
0.0
 10
3.75054636697202
 20
3.202004486872358
 30
0.0
 10
3.741951382576862
 20
3.200638860437009
 30
0.0
 10
3.737538655355536
 20
3.200275329594031
 30
0.0
 10
3.72846510836389
 20
3.200226609342893
 30
0.0
 10
3.724020174147757
 20
3.20054344511783
 30
0.0
 10
3.715335926959656
 20
3.201828902865965
 30
0.0
 10
3.71112378851879
 20
3.202804450517832
 30
0.0
 10
3.703340418180432
 20
3.205295803539545
 30
0.0
 10
3.699681200615748
 20
3.206840597499035
 30
0.0
 10
3.693143935799119
 20
3.210341748791121
 30
0.0
 10
3.690209759977913
 20
3.212319766077506
 30
0.0
 10
3.685058847303089
 20
3.216633333500304
 30
0.0
 10
3.682873369157856
 20
3.218936154565011
 30
0.0
 10
3.679182378316286
 20
3.223818912511548
 30
0.0
 10
3.677680085523803
 20
3.226408479102469
 30
0.0
 10
3.675381348569934
 20
3.23170529470883
 30
0.0
 10
3.674568794537598
 20
3.234431007522337
 30
0.0
 10
3.673567085908191
 20
3.240036867306207
 30
0.0
 10
3.673384614990748
 20
3.242906734127082
 30
0.0
 10
3.673616692507625
 20
3.248651244212335
 30
0.0
 10
3.674027597838877
 20
3.251543940361853
 30
0.0
 10
3.675429618677923
 20
3.257368748208178
 30
0.0
 10
3.676429802237112
 20
3.260313893664681
 30
0.0
 10
3.680243550277623
 20
3.268960046355569
 30
0.0
 10
3.683841713251892
 20
3.274560708781893
 30
0.0
 10
3.691225741625709
 20
3.282517892154734
 30
0.0
 10
3.693963936466943
 20
3.285024267025281
 30
0.0
 10
3.700089431355632
 20
3.289668626215619
 30
0.0
 10
3.703523877415388
 20
3.291829246435408
 30
0.0
 10
3.709091348326393
 20
3.294559793329642
 30
0.0
 10
3.711017510066888
 20
3.295387498025589
 30
0.0
 10
3.715027681642266
 20
3.296854487446933
 30
0.0
 10
3.717130971967272
 20
3.297498055008236
 30
0.0
 10
3.7235556151844
 20
3.299057037142476
 30
0.0
 10
3.727982931000973
 20
3.299609700277549
 30
0.0
 10
3.737060929311439
 20
3.299609700277549
 30
0.0
  0
LINE
  5
EE
330
1F
100
AcDbEntity
  8
0
  6
CONTINUOUS
 62
     7
100
AcDbLine
 10
3.6078500141
 20
3.7488357667
 30
0.0
 11
3.6078500141
 21
3.0893869478
 31
0.0
  0
LINE
  5
EF
330
1F
100
AcDbEntity
  8
0
  6
CONTINUOUS
 62
     7
100
AcDbLine
 10
3.8506321664
 20
3.7488357667
 30
0.0
 11
3.6078500141
 21
3.7488357667
 31
0.0
  0
LINE
  5
F0
330
1F
100
AcDbEntity
  8
0
  6
CONTINUOUS
 62
     7
100
AcDbLine
 10
3.8506321664
 20
3.7685208061
 30
0.0
 11
3.8506321664
 21
4.427969625
 31
0.0
  0
LINE
  5
F1
330
1F
100
AcDbEntity
  8
0
  6
CONTINUOUS
 62
     7
100
AcDbLine
 10
3.8506321664
 20
3.0893869478
 30
0.0
 11
3.8506321664
 21
3.7488357667
 31
0.0
  0
LINE
  5
F2
330
1F
100
AcDbEntity
  8
0
  6
CONTINUOUS
 62
     7
100
AcDbLine
 10
3.8506321664
 20
3.7685208061
 30
0.0
 11
3.6078500141
 21
3.7685208061
 31
0.0
  0
LINE
  5
F3
330
1F
100
AcDbEntity
  8
0
  6
CONTINUOUS
 62
     7
100
AcDbLine
 10
3.6078500141
 20
4.427969625
 30
0.0
 11
3.6078500141
 21
3.7685208061
 31
0.0
  0
LINE
  5
F4
330
1F
100
AcDbEntity
  8
0
  6
CONTINUOUS
 62
     7
100
AcDbLine
 10
3.581603295
 20
4.3531076047
 30
0.0
 11
3.6078500141
 21
4.3531076047
 31
0.0
  0
LINE
  5
F5
330
1F
100
AcDbEntity
  8
0
  6
CONTINUOUS
 62
     7
100
AcDbLine
 10
3.581603295
 20
3.0893869478
 30
0.0
 11
3.581603295
 21
4.427969625
 31
0.0
  0
LINE
  5
F6
330
1F
100
AcDbEntity
  8
0
  6
CONTINUOUS
 62
     7
100
AcDbLine
 10
3.6078500141
 20
3.164248968
 30
0.0
 11
3.581603295
 21
3.164248968
 31
0.0
  0
LINE
  5
F7
330
1F
100
AcDbEntity
  8
0
  6
CONTINUOUS
 62
     7
100
AcDbLine
 10
3.8581321664
 20
3.7488357667
 30
0.0
 11
3.8581321664
 21
3.0968869478
 31
0.0
  0
LINE
  5
F8
330
1F
100
AcDbEntity
  8
0
  6
CONTINUOUS
 62
     7
100
AcDbLine
 10
3.8581321664
 20
4.420469625
 30
0.0
 11
3.8581321664
 21
3.7685208061
 31
0.0
  0
LINE
  5
F9
330
1F
100
AcDbEntity
  8
0
  6
CONTINUOUS
 62
     7
100
AcDbLine
 10
3.8506321664
 20
3.7685208061
 30
0.0
 11
3.8581321664
 21
3.7685208061
 31
0.0
  0
LINE
  5
FA
330
1F
100
AcDbEntity
  8
0
  6
CONTINUOUS
 62
     7
100
AcDbLine
 10
3.8506321664
 20
3.7488357667
 30
0.0
 11
3.8581321664
 21
3.7488357667
 31
0.0
  0
LINE
  5
FB
330
1F
100
AcDbEntity
  8
0
  6
CONTINUOUS
 62
     7
100
AcDbLine
 10
3.6078500141
 20
3.7685208061
 30
0.0
 11
3.6078500141
 21
3.7488357667
 31
0.0
  0
LINE
  5
FC
330
1F
100
AcDbEntity
  8
0
  6
CONTINUOUS
 62
     7
100
AcDbLine
 10
3.8581321664
 20
3.7685208061
 30
0.0
 11
3.8581321664
 21
3.7488357667
 31
0.0
  0
LINE
  5
FD
330
1F
100
AcDbEntity
  8
0
  6
CONTINUOUS
 62
     7
100
AcDbLine
 10
3.7325219302
 20
4.2163554517
 30
0.0
 11
3.8102794882
 21
4.2163554517
 31
0.0
  0
LINE
  5
FE
330
1F
100
AcDbEntity
  8
0
  6
CONTINUOUS
 62
     7
100
AcDbLine
 10
3.6550376157
 20
4.2163554517
 30
0.0
 11
3.7325219302
 21
4.2163554517
 31
0.0
  0
CIRCLE
  5
FF
330
1F
100
AcDbEntity
  8
0
  6
CONTINUOUS
 62
     7
100
AcDbCircle
 10
2.9207502766
 20
4.1866621084
 30
0.0
 40
0.0492125984251963
  0
LINE
  5
100
330
1F
100
AcDbEntity
  8
0
  6
CONTINUOUS
 62
     7
100
AcDbLine
 10
2.8026400404
 20
3.0893869478
 30
0.0
 11
2.8026400404
 21
4.4278972496
 31
0.0
  0
LINE
  5
101
330
1F
100
AcDbEntity
  8
0
  6
CONTINUOUS
 62
     7
100
AcDbLine
 10
2.7951400404
 20
4.4203964293
 30
0.0
 11
2.7951400404
 21
3.0968869478
 31
0.0
  0
LINE
  5
102
330
1F
100
AcDbEntity
  8
0
  6
CONTINUOUS
 62
     7
100
AcDbLine
 10
2.8026400404
 20
4.4278972496
 30
0.0
 11
2.7951400404
 21
4.4203964293
 31
0.0
  0
LINE
  5
103
330
1F
100
AcDbEntity
  8
0
  6
CONTINUOUS
 62
     7
100
AcDbLine
 10
3.2675809853
 20
4.427969625
 30
0.0
 11
3.2675809853
 21
3.0893869478
 31
0.0
  0
SPLINE
  5
104
330
1F
100
AcDbEntity
  8
0
  6
CONTINUOUS
 62
     7
100
AcDbSpline
210
0.0
220
0.0
230
1.0
 70
     8
 71
     3
 72
    70
 73
    66
 74
     0
 42
0.00000001
 43
0.00000001
 40
-0.0312499999999999
 40
-0.0312499999999999
 40
0.0
 40
0.0
 40
0.0312500000000004
 40
0.0312500000000004
 40
0.0468750000000006
 40
0.0468750000000006
 40
0.0625000000000008
 40
0.0625000000000008
 40
0.0937500000000008
 40
0.0937500000000008
 40
0.1250000000000008
 40
0.1250000000000008
 40
0.1875000000000011
 40
0.1875000000000011
 40
0.2187500000000011
 40
0.2187500000000011
 40
0.2500000000000012
 40
0.2500000000000012
 40
0.2812500000000012
 40
0.2812500000000012
 40
0.3125000000000012
 40
0.3125000000000012
 40
0.3437500000000012
 40
0.3437500000000012
 40
0.3750000000000012
 40
0.3750000000000012
 40
0.4062500000000012
 40
0.4062500000000012
 40
0.4375000000000012
 40
0.4375000000000012
 40
0.4687500000000013
 40
0.4687500000000013
 40
0.5000000000000012
 40
0.5000000000000012
 40
0.5312500000000013
 40
0.5312500000000013
 40
0.5625000000000012
 40
0.5625000000000012
 40
0.5937500000000012
 40
0.5937500000000012
 40
0.6250000000000011
 40
0.6250000000000011
 40
0.6562500000000011
 40
0.6562500000000011
 40
0.6875000000000011
 40
0.6875000000000011
 40
0.718750000000001
 40
0.718750000000001
 40
0.750000000000001
 40
0.750000000000001
 40
0.781250000000001
 40
0.781250000000001
 40
0.8125000000000009
 40
0.8125000000000009
 40
0.8750000000000007
 40
0.8750000000000007
 40
0.9062500000000004
 40
0.9062500000000004
 40
0.9375000000000002
 40
0.9375000000000002
 40
0.9531250000000002
 40
0.9531250000000002
 40
0.9687500000000001
 40
0.9687500000000001
 40
1.0
 40
1.0
 40
1.03125
 40
1.03125
 10
2.925289275768132
 20
4.24571722646217
 30
0.0
 10
2.916211277457666
 20
4.24571722646217
 30
0.0
 10
2.911816999943021
 20
4.245201480185036
 30
0.0
 10
2.905418193849316
 20
4.243734192956054
 30
0.0
 10
2.903319233484276
 20
4.24312592230447
 30
0.0
 10
2.899314413715719
 20
4.24173031453728
 30
0.0
 10
2.897389671022624
 20
4.240939165326925
 30
0.0
 10
2.8918236452489
 20
4.238310886677592
 30
0.0
 10
2.888402491574189
 20
4.236217017734315
 30
0.0
 10
2.882294008420704
 20
4.231641922463784
 30
0.0
 10
2.879559627288412
 20
4.229137804069828
 30
0.0
 10
2.872177629186379
 20
4.221036434103942
 30
0.0
 10
2.868559050591284
 20
4.215129458680313
 30
0.0
 10
2.864714426019051
 20
4.205614475132221
 30
0.0
 10
2.863709500866877
 20
4.202325592476665
 30
0.0
 10
2.862291993756134
 20
4.195696708402413
 30
0.0
 10
2.861869139409044
 20
4.192334402205279
 30
0.0
 10
2.861607749278042
 20
4.185511153781323
 30
0.0
 10
2.86177413205201
 20
4.182021407139486
 30
0.0
 10
2.862733179059889
 20
4.17509758819178
 30
0.0
 10
2.863518714486738
 20
4.171670508640835
 30
0.0
 10
2.865736068372768
 20
4.164898913342704
 30
0.0
 10
2.867166906620783
 20
4.161554163110813
 30
0.0
 10
2.870775616134911
 20
4.154974259512781
 30
0.0
 10
2.872953779349221
 20
4.151758048282304
 30
0.0
 10
2.87797339007535
 20
4.145760561459734
 30
0.0
 10
2.880850103347155
 20
4.142928353872104
 30
0.0
 10
2.887345889765771
 20
4.137786633449835
 30
0.0
 10
2.890872888949498
 20
4.135544374961733
 30
0.0
 10
2.898524623644831
 20
4.131783138694297
 30
0.0
 10
2.902725839797085
 20
4.130251560324727
 30
0.0
 10
2.911320824192242
 20
4.128197455113386
 30
0.0
 10
2.915733551413568
 20
4.127645813003828
 30
0.0
 10
2.924807098405215
 20
4.127572068198911
 30
0.0
 10
2.929252032621347
 20
4.128053088005386
 30
0.0
 10
2.937936279809449
 20
4.129988142412206
 30
0.0
 10
2.942148418250314
 20
4.13145184694104
 30
0.0
 10
2.949931788588672
 20
4.135140338298859
 30
0.0
 10
2.953591006153357
 20
4.13740708797721
 30
0.0
 10
2.960128270969986
 20
4.142458668335605
 30
0.0
 10
2.963062446791192
 20
4.145274963149984
 30
0.0
 10
2.968213359466016
 20
4.151300104742943
 30
0.0
 10
2.970398837611249
 20
4.154463697687198
 30
0.0
 10
2.974089828452819
 20
4.161037716299469
 30
0.0
 10
2.975592121245302
 20
4.164459645582444
 30
0.0
 10
2.97789085819917
 20
4.171315082200336
 30
0.0
 10
2.978703412231507
 20
4.174774041182308
 30
0.0
 10
2.979705120860914
 20
4.181740888101769
 30
0.0
 10
2.979887591778357
 20
4.185234953204088
 30
0.0
 10
2.97965551426148
 20
4.192087216125878
 30
0.0
 10
2.979244608930228
 20
4.195468013331767
 30
0.0
 10
2.977842588091181
 20
4.202141089126868
 30
0.0
 10
2.976842404531993
 20
4.20544691429647
 30
0.0
 10
2.973028656491481
 20
4.214968168969624
 30
0.0
 10
2.969430493517213
 20
4.220888962362494
 30
0.0
 10
2.962046465143397
 20
4.229036219639863
 30
0.0
 10
2.959308270302162
 20
4.231556139395708
 30
0.0
 10
2.953182775413473
 20
4.236162875237421
 30
0.0
 10
2.949748329353718
 20
4.238271109857168
 30
0.0
 10
2.944180858442713
 20
4.24090906302368
 30
0.0
 10
2.942254696702217
 20
4.241703721835447
 30
0.0
 10
2.938244525126839
 20
4.243106510795212
 30
0.0
 10
2.936141234801833
 20
4.243718700396726
 30
0.0
 10
2.929716591584705
 20
4.24519781907404
 30
0.0
 10
2.925289275768132
 20
4.24571722646217
 30
0.0
 10
2.916211277457666
 20
4.24571722646217
 30
0.0
  0
LINE
  5
105
330
1F
100
AcDbEntity
  8
0
  6
CONTINUOUS
 62
     7
100
AcDbLine
 10
2.8026400404
 20
4.4278972496
 30
0.0
 11
3.0454221926
 21
4.4278972496
 31
0.0
  0
LINE
  5
106
330
1F
100
AcDbEntity
  8
0
  6
CONTINUOUS
 62
     7
100
AcDbLine
 10
3.0454221926
 20
3.4510995462
 30
0.0
 11
3.0716689118
 21
3.4510995462
 31
0.0
  0
LINE
  5
107
330
1F
100
AcDbEntity
  8
0
  6
CONTINUOUS
 62
     7
100
AcDbLine
 10
3.0454221926
 20
4.4278972496
 30
0.0
 11
3.0454221926
 21
3.4510995462
 31
0.0
  0
LINE
  5
108
330
1F
100
AcDbEntity
  8
0
  6
CONTINUOUS
 62
     7
100
AcDbLine
 10
3.0716689118
 20
3.4510995462
 30
0.0
 11
3.0716689118
 21
4.427969625
 31
0.0
  0
LINE
  5
109
330
1F
100
AcDbEntity
  8
0
  6
CONTINUOUS
 62
     7
100
AcDbLine
 10
3.3463211428
 20
3.8456746916
 30
0.0
 11
3.306951064
 21
3.8456746916
 31
0.0
  0
LINE
  5
10A
330
1F
100
AcDbEntity
  8
0
  6
CONTINUOUS
 62
     7
100
AcDbLine
 10
3.3463211428
 20
3.6716818812
 30
0.0
 11
3.306951064
 21
3.6716818812
 31
0.0
  0
LINE
  5
10B
330
1F
100
AcDbEntity
  8
0
  6
CONTINUOUS
 62
     7
100
AcDbLine
 10
3.306951064
 20
3.8456746916
 30
0.0
 11
3.306951064
 21
3.6716818812
 31
0.0
  0
LINE
  5
10C
330
1F
100
AcDbEntity
  8
0
  6
CONTINUOUS
 62
     7
100
AcDbLine
 10
3.3463211428
 20
3.8456746916
 30
0.0
 11
3.3463211428
 21
3.6716818812
 31
0.0
  0
LINE
  5
10D
330
1F
100
AcDbEntity
  8
0
  6
CONTINUOUS
 62
     7
100
AcDbLine
 10
3.3463211428
 20
3.1500283379
 30
0.0
 11
3.306951064
 21
3.1500283379
 31
0.0
  0
LINE
  5
10E
330
1F
100
AcDbEntity
  8
0
  6
CONTINUOUS
 62
     7
100
AcDbLine
 10
3.306951064
 20
3.6716818812
 30
0.0
 11
3.306951064
 21
3.1500283379
 31
0.0
  0
LINE
  5
10F
330
1F
100
AcDbEntity
  8
0
  6
CONTINUOUS
 62
     7
100
AcDbLine
 10
3.3463211428
 20
3.6716818812
 30
0.0
 11
3.3463211428
 21
3.1500283379
 31
0.0
  0
LINE
  5
110
330
1F
100
AcDbEntity
  8
0
  6
CONTINUOUS
 62
     7
100
AcDbLine
 10
3.3463211428
 20
4.3673282349
 30
0.0
 11
3.306951064
 21
4.3673282349
 31
0.0
  0
LINE
  5
111
330
1F
100
AcDbEntity
  8
0
  6
CONTINUOUS
 62
     7
100
AcDbLine
 10
3.306951064
 20
4.3673282349
 30
0.0
 11
3.306951064
 21
3.8456746916
 31
0.0
  0
LINE
  5
112
330
1F
100
AcDbEntity
  8
0
  6
CONTINUOUS
 62
     7
100
AcDbLine
 10
3.3463211428
 20
4.3673282349
 30
0.0
 11
3.3463211428
 21
3.8456746916
 31
0.0
  0
LINE
  5
113
330
1F
100
AcDbEntity
  8
0
  6
CONTINUOUS
 62
     7
100
AcDbLine
 10
3.306951064
 20
3.1500283379
 30
0.0
 11
3.306951064
 21
3.113993247
 31
0.0
  0
LINE
  5
114
330
1F
100
AcDbEntity
  8
0
  6
CONTINUOUS
 62
     7
100
AcDbLine
 10
3.3463211428
 20
3.1500283379
 30
0.0
 11
3.3463211428
 21
3.113993247
 31
0.0
  0
LINE
  5
115
330
1F
100
AcDbEntity
  8
0
  6
CONTINUOUS
 62
     7
100
AcDbLine
 10
3.306951064
 20
4.4033633258
 30
0.0
 11
3.306951064
 21
4.3673282349
 31
0.0
  0
LINE
  5
116
330
1F
100
AcDbEntity
  8
0
  6
CONTINUOUS
 62
     7
100
AcDbLine
 10
3.3463211428
 20
4.4033633258
 30
0.0
 11
3.3463211428
 21
4.3673282349
 31
0.0
  0
LINE
  5
117
330
1F
100
AcDbEntity
  8
0
  6
CONTINUOUS
 62
     8
100
AcDbLine
 10
3.7325219302
 20
4.2065129321
 30
0.0
 11
3.6626013801
 21
4.2065129321
 31
0.0
  0
LINE
  5
118
330
1F
100
AcDbEntity
  8
0
  6
CONTINUOUS
 62
     8
100
AcDbLine
 10
3.8022259914
 20
4.2065129321
 30
0.0
 11
3.7325219302
 21
4.2065129321
 31
0.0
  0
LINE
  5
119
330
1F
100
AcDbEntity
  8
0
  6
HIDDEN
 62
     7
100
AcDbLine
 10
3.8506321664
 20
3.7685208061
 30
0.0
 11
3.8506321664
 21
3.7488357667
 31
0.0
  0
LINE
  5
11A
330
1F
100
AcDbEntity
  8
0
  6
HIDDEN
 62
     7
100
AcDbLine
 10
3.7325219302
 20
4.0982452155
 30
0.0
 11
3.830947127
 21
4.0982452155
 31
0.0
  0
LINE
  5
11B
330
1F
100
AcDbEntity
  8
0
  6
HIDDEN
 62
     7
100
AcDbLine
 10
3.6340967333
 20
4.0982452155
 30
0.0
 11
3.7325219302
 21
4.0982452155
 31
0.0
  0
SPLINE
  5
11C
330
1F
100
AcDbEntity
  8
0
  6
HIDDEN
 62
     7
100
AcDbSpline
210
0.0
220
0.0
230
1.0
 70
     8
 71
     3
 72
     8
 73
     4
 74
     0
 42
0.00000001
 43
0.00000001
 40
0.0
 40
0.0
 40
0.0
 40
0.0
 40
1.0
 40
1.0
 40
1.0
 40
1.0
 10
3.691361048934251
 20
3.768520806077087
 30
0.0
 10
3.691748048646058
 20
3.76195912628706
 30
0.0
 10
3.691748048646058
 20
3.755397446497034
 30
0.0
 10
3.691361048934251
 20
3.748835766707008
 30
0.0
  0
LINE
  5
11D
330
1F
100
AcDbEntity
  8
0
  6
HIDDEN
 62
     7
100
AcDbLine
 10
3.8102794882
 20
4.2163554517
 30
0.0
 11
3.8211046073
 21
4.2163554517
 31
0.0
  0
LINE
  5
11E
330
1F
100
AcDbEntity
  8
0
  6
HIDDEN
 62
     7
100
AcDbLine
 10
3.643939253
 20
4.2163554517
 30
0.0
 11
3.6550376157
 21
4.2163554517
 31
0.0
  0
LINE
  5
11F
330
1F
100
AcDbEntity
  8
0
  6
HIDDEN
 62
     7
100
AcDbLine
 10
3.7915291545
 20
3.3403711998
 30
0.0
 11
3.6735147059
 21
3.3403711998
 31
0.0
  0
LINE
  5
120
330
1F
100
AcDbEntity
  8
0
  6
HIDDEN
 62
     7
100
AcDbLine
 10
3.7817345286
 20
3.3305286801
 30
0.0
 11
3.6833093317
 21
3.3305286801
 31
0.0
  0
LINE
  5
121
330
1F
100
AcDbEntity
  8
0
  6
HIDDEN
 62
     7
100
AcDbLine
 10
3.7325219302
 20
4.1376152943
 30
0.0
 11
3.7817345286
 21
4.1376152943
 31
0.0
  0
LINE
  5
122
330
1F
100
AcDbEntity
  8
0
  6
HIDDEN
 62
     7
100
AcDbLine
 10
3.7325219302
 20
4.1376152943
 30
0.0
 11
3.7325219302
 21
4.2163554517
 31
0.0
  0
LINE
  5
123
330
1F
100
AcDbEntity
  8
0
  6
HIDDEN
 62
     7
100
AcDbLine
 10
3.6833093317
 20
4.1376152943
 30
0.0
 11
3.7325219302
 21
4.1376152943
 31
0.0
  0
LINE
  5
124
330
1F
100
AcDbEntity
  8
0
  6
HIDDEN
 62
     7
100
AcDbLine
 10
3.6833093317
 20
4.1376152943
 30
0.0
 11
3.6833093317
 21
4.2163554517
 31
0.0
  0
LINE
  5
125
330
1F
100
AcDbEntity
  8
0
  6
HIDDEN
 62
     7
100
AcDbLine
 10
3.7817345286
 20
4.1376152943
 30
0.0
 11
3.7817345286
 21
4.2163554517
 31
0.0
  0
POLYLINE
  5
126
330
1F
100
AcDbEntity
  8
0
  6
HIDDEN
 62
     7
100
AcDb2dPolyline
 66
     1
 10
0.0
 20
0.0
 30
0.0
  0
VERTEX
  5
2AF
330
126
100
AcDbEntity
  8
0
  6
HIDDEN
 62
     7
100
AcDbVertex
100
AcDb2dVertex
 10
2.9798053947
 20
4.1866621084
 30
0.0
  0
VERTEX
  5
2B0
330
126
100
AcDbEntity
  8
0
  6
HIDDEN
 62
     7
100
AcDbVertex
100
AcDb2dVertex
 10
2.9797575009
 20
4.1890400182
 30
0.0
  0
VERTEX
  5
2B1
330
126
100
AcDbEntity
  8
0
  6
HIDDEN
 62
     7
100
AcDbVertex
100
AcDb2dVertex
 10
2.9797550288
 20
4.1891005908
 30
0.0
  0
SEQEND
  5
2B2
330
126
100
AcDbEntity
  8
0
  6
HIDDEN
 62
     7
  0
ARC
  5
127
330
1F
100
AcDbEntity
  8
0
  6
HIDDEN
 62
     7
100
AcDbCircle
 10
2.9207502766
 20
4.1866621084
 30
0.0
 40
0.0590551181102371
100
AcDbArc
 50
73.970136539
 51
91.2462981609
  0
CIRCLE
  5
128
330
1F
100
AcDbEntity
  8
0
  6
HIDDEN
 62
     7
100
AcDbCircle
 10
2.9207502766
 20
4.1866621084
 30
0.0
 40
0.0984251968503944
  0
LINE
  5
129
330
1F
100
AcDbEntity
  8
0
  6
HIDDEN
 62
     7
100
AcDbLine
 10
2.8715376782
 20
4.1582492014
 30
0.0
 11
2.9207502766
 21
4.1298362945
 31
0.0
  0
LINE
  5
12A
330
1F
100
AcDbEntity
  8
0
  6
HIDDEN
 62
     7
100
AcDbLine
 10
2.9207502766
 20
4.1298362945
 30
0.0
 11
2.969962875
 21
4.1582492014
 31
0.0
  0
LINE
  5
12B
330
1F
100
AcDbEntity
  8
0
  6
HIDDEN
 62
     7
100
AcDbLine
 10
2.969962875
 20
4.1582492014
 30
0.0
 11
2.969962875
 21
4.2150750153
 31
0.0
  0
LINE
  5
12C
330
1F
100
AcDbEntity
  8
0
  6
HIDDEN
 62
     7
100
AcDbLine
 10
2.8715376782
 20
4.2150750153
 30
0.0
 11
2.8715376782
 21
4.1582492014
 31
0.0
  0
LINE
  5
12D
330
1F
100
AcDbEntity
  8
0
  6
HIDDEN
 62
     7
100
AcDbLine
 10
2.9207502766
 20
4.2434879222
 30
0.0
 11
2.8715376782
 21
4.2150750153
 31
0.0
  0
LINE
  5
12E
330
1F
100
AcDbEntity
  8
0
  6
HIDDEN
 62
     7
100
AcDbLine
 10
2.969962875
 20
4.2150750153
 30
0.0
 11
2.9207502766
 21
4.2434879222
 31
0.0
  0
CIRCLE
  5
12F
330
1F
100
AcDbEntity
  8
0
  6
HIDDEN
 62
     7
100
AcDbCircle
 10
2.9207502766
 20
4.1866621084
 30
0.0
 40
0.0885826771653537
  0
LINE
  5
130
330
1F
100
AcDbEntity
  8
0
  6
HIDDEN
 62
     7
100
AcDbLine
 10
2.8026400404
 20
3.5719296057
 30
0.0
 11
2.9619111578
 21
3.5719296057
 31
0.0
  0
POLYLINE
  5
131
330
1F
100
AcDbEntity
  8
0
  6
HIDDEN
 62
     7
100
AcDb2dPolyline
 66
     1
 10
0.0
 20
0.0
 30
0.0
  0
VERTEX
  5
2B3
330
131
100
AcDbEntity
  8
0
  6
HIDDEN
 62
     7
100
AcDbVertex
100
AcDb2dVertex
 10
2.9619111578
 20
3.5719296057
 30
0.0
  0
VERTEX
  5
2B4
330
131
100
AcDbEntity
  8
0
  6
HIDDEN
 62
     7
100
AcDbVertex
100
AcDb2dVertex
 10
2.9619111578
 20
3.5719296057
 30
0.0
  0
SEQEND
  5
2B5
330
131
100
AcDbEntity
  8
0
  6
HIDDEN
 62
     7
  0
LINE
  5
132
330
1F
100
AcDbEntity
  8
0
  6
HIDDEN
 62
     7
100
AcDbLine
 10
3.0454221926
 20
3.9454269671
 30
0.0
 11
2.8026400404
 21
3.9454269671
 31
0.0
  0
LINE
  5
133
330
1F
100
AcDbEntity
  8
0
  6
HIDDEN
 62
     7
100
AcDbLine
 10
3.3463211428
 20
3.1500283379
 30
0.0
 11
3.306951064
 21
3.1500283379
 31
0.0
  0
LINE
  5
134
330
1F
100
AcDbEntity
  8
0
  6
HIDDEN
 62
     7
100
AcDbLine
 10
3.3463211428
 20
4.3673282349
 30
0.0
 11
3.306951064
 21
4.3673282349
 31
0.0
  0
ARC
  5
135
330
1F
100
AcDbEntity
  8
0
  6
HIDDEN
 62
     7
100
AcDbCircle
 10
2.7951400404
 20
3.7585536934
 30
0.0
 40
0.2502821522309708
100
AcDbArc
 50
270.0
 51
311.7846280018
  0
LINE
  5
136
330
1F
100
AcDbEntity
  8
0
  6
HIDDEN
 62
     7
100
AcDbLine
 10
2.8026400404
 20
3.5719296057
 30
0.0
 11
2.7951400404
 21
3.5644195984
 31
0.0
  0
LINE
  5
137
330
1F
100
AcDbEntity
  8
0
  6
HIDDEN
 62
     7
100
AcDbLine
 10
2.7951400404
 20
3.9529369744
 30
0.0
 11
2.8026400404
 21
3.9454269671
 31
0.0
  0
LINE
  5
138
330
1F
100
AcDbEntity
  8
0
  6
HIDDEN
 62
     7
100
AcDbLine
 10
3.3463211428
 20
3.6716818812
 30
0.0
 11
3.306951064
 21
3.6716818812
 31
0.0
  0
LINE
  5
139
330
1F
100
AcDbEntity
  8
0
  6
HIDDEN
 62
     7
100
AcDbLine
 10
3.3463211428
 20
3.8456746916
 30
0.0
 11
3.306951064
 21
3.8456746916
 31
0.0
  0
LINE
  5
13A
330
1F
100
AcDbEntity
  8
0
  6
HIDDEN
 62
     7
100
AcDbLine
 10
3.830947127
 20
4.0982452155
 30
0.0
 11
3.830947127
 21
4.2731728481
 31
0.0
  0
LINE
  5
13B
330
1F
100
AcDbEntity
  8
0
  6
HIDDEN
 62
     7
100
AcDbLine
 10
3.6340967333
 20
4.2731348112
 30
0.0
 11
3.6340967333
 21
4.0982452155
 31
0.0
  0
LINE
  5
13C
330
1F
100
AcDbEntity
  8
0
  6
HIDDEN
 62
     7
100
AcDbLine
 10
3.673466812
 20
4.0982452155
 30
0.0
 11
3.673466812
 21
3.7685208061
 31
0.0
  0
LINE
  5
13D
330
1F
100
AcDbEntity
  8
0
  6
HIDDEN
 62
     7
100
AcDbLine
 10
3.7915770483
 20
3.7685208061
 30
0.0
 11
3.7915770483
 21
4.0982452155
 31
0.0
  0
LINE
  5
13E
330
1F
100
AcDbEntity
  8
0
  6
HIDDEN
 62
     7
100
AcDbLine
 10
3.673466812
 20
3.7488357667
 30
0.0
 11
3.673466812
 21
3.2441648038
 31
0.0
  0
LINE
  5
13F
330
1F
100
AcDbEntity
  8
0
  6
HIDDEN
 62
     7
100
AcDbLine
 10
3.7915770483
 20
3.244165036
 30
0.0
 11
3.7915770483
 21
3.7488357667
 31
0.0
  0
LINE
  5
140
330
1F
100
AcDbEntity
  8
0
  6
HIDDEN
 62
     7
100
AcDbLine
 10
3.8581321664
 20
3.9531861604
 30
0.0
 11
3.8506321664
 21
3.9456861604
 31
0.0
  0
LINE
  5
141
330
1F
100
AcDbEntity
  8
0
  6
HIDDEN
 62
     7
100
AcDbLine
 10
3.8506321664
 20
3.5716704124
 30
0.0
 11
3.8581321664
 21
3.5641704124
 31
0.0
  0
LINE
  5
142
330
1F
100
AcDbEntity
  8
0
  6
HIDDEN
 62
     7
100
AcDbLine
 10
3.581603295
 20
3.9456861604
 30
0.0
 11
3.3856912215
 21
3.9456861604
 31
0.0
  0
LINE
  5
143
330
1F
100
AcDbEntity
  8
0
  6
HIDDEN
 62
     7
100
AcDbLine
 10
3.3856912215
 20
3.5716704124
 30
0.0
 11
3.581603295
 21
3.5716704124
 31
0.0
  0
LINE
  5
144
330
1F
100
AcDbEntity
  8
0
  6
HIDDEN
 62
     7
100
AcDbLine
 10
3.8506321664
 20
3.9456861604
 30
0.0
 11
3.6078500141
 21
3.9456861604
 31
0.0
  0
LINE
  5
145
330
1F
100
AcDbEntity
  8
0
  6
HIDDEN
 62
     7
100
AcDbLine
 10
3.6078500141
 20
3.5716704124
 30
0.0
 11
3.8506321664
 21
3.5716704124
 31
0.0
  0
ARC
  5
146
330
1F
100
AcDbEntity
  8
0
  6
HIDDEN
 62
     7
100
AcDbCircle
 10
3.643939253
 20
4.2065129321
 30
0.0
 40
0.0098425196850394
100
AcDbArc
 50
90.0
 51
180.0
  0
ARC
  5
147
330
1F
100
AcDbEntity
  8
0
  6
HIDDEN
 62
     7
100
AcDbCircle
 10
3.8211046073
 20
4.2065129321
 30
0.0
 40
0.0098425196850398
100
AcDbArc
 50
0.0
 51
90.0
  0
LINE
  5
148
330
1F
100
AcDbEntity
  8
0
  6
HIDDEN
 62
     7
100
AcDbLine
 10
3.830947127
 20
4.0982452155
 30
0.0
 11
3.830947127
 21
4.2065129321
 31
0.0
  0
LINE
  5
149
330
1F
100
AcDbEntity
  8
0
  6
HIDDEN
 62
     7
100
AcDbLine
 10
3.6340967333
 20
4.2065129321
 30
0.0
 11
3.6340967333
 21
4.0982452155
 31
0.0
  0
LINE
  5
14A
330
1F
100
AcDbEntity
  8
0
  6
HIDDEN
 62
     7
100
AcDbLine
 10
3.673466812
 20
4.0982452155
 30
0.0
 11
3.673466812
 21
3.7685208061
 31
0.0
  0
LINE
  5
14B
330
1F
100
AcDbEntity
  8
0
  6
HIDDEN
 62
     7
100
AcDbLine
 10
3.673466812
 20
3.7488357667
 30
0.0
 11
3.673466812
 21
3.3403711998
 31
0.0
  0
LINE
  5
14C
330
1F
100
AcDbEntity
  8
0
  6
HIDDEN
 62
     7
100
AcDbLine
 10
3.7915770483
 20
3.3403711998
 30
0.0
 11
3.7915770483
 21
3.7488357667
 31
0.0
  0
LINE
  5
14D
330
1F
100
AcDbEntity
  8
0
  6
HIDDEN
 62
     7
100
AcDbLine
 10
3.7915770483
 20
3.7685208061
 30
0.0
 11
3.7915770483
 21
4.0982452155
 31
0.0
  0
ARC
  5
14E
330
1F
100
AcDbEntity
  8
0
  6
HIDDEN
 62
     7
100
AcDbCircle
 10
3.7817345286
 20
3.3403711998
 30
0.0
 40
0.0098425196850394
100
AcDbArc
 50
270.0
 51
0.0
  0
ARC
  5
14F
330
1F
100
AcDbEntity
  8
0
  6
HIDDEN
 62
     7
100
AcDbCircle
 10
3.6833093317
 20
3.3403711998
 30
0.0
 40
0.0098425196850394
100
AcDbArc
 50
180.0
 51
270.0
  0
LINE
  5
150
330
1F
100
AcDbEntity
  8
0
  6
HIDDEN
 62
     7
100
AcDbLine
 10
3.3463211428
 20
3.9850562391
 30
0.0
 11
3.306951064
 21
3.9850562391
 31
0.0
  0
LINE
  5
151
330
1F
100
AcDbEntity
  8
0
  6
HIDDEN
 62
     7
100
AcDbLine
 10
3.306951064
 20
3.5323003336
 30
0.0
 11
3.3463211428
 21
3.5323003336
 31
0.0
  0
LINE
  5
152
330
1F
100
AcDbEntity
  8
0
  6
HIDDEN
 62
     7
100
AcDbLine
 10
3.0716689118
 20
3.5716704124
 30
0.0
 11
3.2675809853
 21
3.5716704124
 31
0.0
  0
LINE
  5
153
330
1F
100
AcDbEntity
  8
0
  6
HIDDEN
 62
     7
100
AcDbLine
 10
3.2675809853
 20
3.9456861604
 30
0.0
 11
3.0716689118
 21
3.9456861604
 31
0.0
  0
LINE
  5
154
330
1F
100
AcDbEntity
  8
0
  6
HIDDEN
 62
     7
100
AcDbLine
 10
2.9619111578
 20
3.5716704124
 30
0.0
 11
3.0454221926
 21
3.5716704124
 31
0.0
  0
LINE
  5
155
330
1F
100
AcDbEntity
  8
0
  6
HIDDEN
 62
     7
100
AcDbLine
 10
3.8309004459
 20
4.2065129321
 30
0.0
 11
3.6341434144
 21
4.2065129321
 31
0.0
  0
ARC
  5
156
330
1F
100
AcDbEntity
  8
0
  6
CONTINUOUS
 62
     7
100
AcDbCircle
 10
7.7343181072
 20
4.2065129321
 30
0.0
 40
0.0098425196850389
100
AcDbArc
 50
90.0
 51
180.0
  0
LINE
  5
157
330
1F
100
AcDbEntity
  8
0
  6
CONTINUOUS
 62
     7
100
AcDbLine
 10
7.7244755875
 20
4.2065129321
 30
0.0
 11
7.7244755875
 21
4.1720116153
 31
0.0
  0
LINE
  5
158
330
1F
100
AcDbEntity
  8
0
  6
CONTINUOUS
 62
     7
100
AcDbLine
 10
7.7638456663
 20
3.7685208061
 30
0.0
 11
7.7638456663
 21
3.7488357667
 31
0.0
  0
LINE
  5
159
330
1F
100
AcDbEntity
  8
0
  6
CONTINUOUS
 62
     7
100
AcDbLine
 10
7.8819559025
 20
3.7488357667
 30
0.0
 11
7.8819559025
 21
3.7685208061
 31
0.0
  0
ARC
  5
15A
330
1F
100
AcDbEntity
  8
0
  6
CONTINUOUS
 62
     7
100
AcDbCircle
 10
8.698719252
 20
4.2752447855
 30
0.0
 40
0.0098425196850398
100
AcDbArc
 50
0.0
 51
90.0
  0
LINE
  5
15B
330
1F
100
AcDbEntity
  8
0
  6
CONTINUOUS
 62
     7
100
AcDbLine
 10
8.698719252
 20
4.2850873052
 30
0.0
 11
8.6642179353
 21
4.2850873052
 31
0.0
  0
LINE
  5
15C
330
1F
100
AcDbEntity
  8
0
  6
CONTINUOUS
 62
     7
100
AcDbLine
 10
8.5012913516
 20
3.7685208061
 30
0.0
 11
8.5012913516
 21
3.7488357667
 31
0.0
  0
LINE
  5
15D
330
1F
100
AcDbEntity
  8
0
  6
CONTINUOUS
 62
     7
100
AcDbLine
 10
8.5012913516
 20
3.7685208061
 30
0.0
 11
8.4451432943
 21
3.7685208061
 31
0.0
  0
ARC
  5
15E
330
1F
100
AcDbEntity
  8
0
  6
CONTINUOUS
 62
     7
100
AcDbCircle
 10
8.2508846063
 20
3.7586782864
 30
0.0
 40
0.1945078740157494
100
AcDbArc
 50
2.9005292714
 51
177.0994707286
  0
LINE
  5
15F
330
1F
100
AcDbEntity
  8
0
  6
CONTINUOUS
 62
     7
100
AcDbLine
 10
7.5891664634
 20
3.7685208061
 30
0.0
 11
8.0566259183
 21
3.7685208061
 31
0.0
  0
ARC
  5
160
330
1F
100
AcDbEntity
  8
0
  6
CONTINUOUS
 62
     7
100
AcDbCircle
 10
8.2508846063
 20
3.7586782864
 30
0.0
 40
0.6617913385826755
100
AcDbArc
 50
180.8521653225
 51
179.1478346775
  0
LINE
  5
161
330
1F
100
AcDbEntity
  8
0
  6
CONTINUOUS
 62
     7
100
AcDbLine
 10
7.5891664634
 20
3.7488357667
 30
0.0
 11
8.0566259183
 21
3.7488357667
 31
0.0
  0
ARC
  5
162
330
1F
100
AcDbEntity
  8
0
  6
CONTINUOUS
 62
     7
100
AcDbCircle
 10
8.2508846063
 20
3.7586782864
 30
0.0
 40
0.1945078740157494
100
AcDbArc
 50
182.9005292714
 51
357.0994707286
  0
LINE
  5
163
330
1F
100
AcDbEntity
  8
0
  6
CONTINUOUS
 62
     7
100
AcDbLine
 10
8.4451432943
 20
3.7488357667
 30
0.0
 11
8.5012913516
 21
3.7488357667
 31
0.0
  0
LINE
  5
164
330
1F
100
AcDbEntity
  8
0
  6
CONTINUOUS
 62
     7
100
AcDbLine
 10
7.5816656431
 20
3.7685208061
 30
0.0
 11
7.5891664634
 21
3.7685208061
 31
0.0
  0
ARC
  5
165
330
1F
100
AcDbEntity
  8
0
  6
CONTINUOUS
 62
     7
100
AcDbCircle
 10
8.2508846063
 20
3.7586782864
 30
0.0
 40
0.669291338582676
100
AcDbArc
 50
180.8426153658
 51
179.1573846342
  0
LINE
  5
166
330
1F
100
AcDbEntity
  8
0
  6
CONTINUOUS
 62
     7
100
AcDbLine
 10
7.5816656431
 20
3.7488357667
 30
0.0
 11
7.5891664634
 21
3.7488357667
 31
0.0
  0
SPLINE
  5
167
330
1F
100
AcDbEntity
  8
0
  6
CONTINUOUS
 62
     7
100
AcDbSpline
210
0.0
220
0.0
230
1.0
 70
     8
 71
     3
 72
     8
 73
     4
 74
     0
 42
0.00000001
 43
0.00000001
 40
0.0
 40
0.0
 40
0.0
 40
0.0
 40
1.0
 40
1.0
 40
1.0
 40
1.0
 10
8.437633287042594
 20
3.768520806077087
 30
0.0
 10
8.437979117932814
 20
3.76195912628706
 30
0.0
 10
8.437979117932814
 20
3.755397446497034
 30
0.0
 10
8.437633287042594
 20
3.748835766707008
 30
0.0
  0
LINE
  5
168
330
1F
100
AcDbEntity
  8
0
  6
CONTINUOUS
 62
     7
100
AcDbLine
 10
8.0566259183
 20
3.7488357667
 30
0.0
 11
8.0641359256
 21
3.7488357667
 31
0.0
  0
ARC
  5
169
330
1F
100
AcDbEntity
  8
0
  6
CONTINUOUS
 62
     7
100
AcDbCircle
 10
8.2508846063
 20
3.7586782864
 30
0.0
 40
0.1870078740157477
100
AcDbArc
 50
183.0169613098
 51
356.9830386902
  0
LINE
  5
16A
330
1F
100
AcDbEntity
  8
0
  6
CONTINUOUS
 62
     7
100
AcDbLine
 10
8.437633287
 20
3.7488357667
 30
0.0
 11
8.4451432943
 21
3.7488357667
 31
0.0
  0
LINE
  5
16B
330
1F
100
AcDbEntity
  8
0
  6
CONTINUOUS
 62
     7
100
AcDbLine
 10
8.0566259183
 20
3.7685208061
 30
0.0
 11
8.0641359256
 21
3.7685208061
 31
0.0
  0
ARC
  5
16C
330
1F
100
AcDbEntity
  8
0
  6
CONTINUOUS
 62
     7
100
AcDbCircle
 10
8.2508846063
 20
3.7586782864
 30
0.0
 40
0.1870078740157477
100
AcDbArc
 50
3.0169613098
 51
176.9830386902
  0
LINE
  5
16D
330
1F
100
AcDbEntity
  8
0
  6
CONTINUOUS
 62
     7
100
AcDbLine
 10
8.437633287
 20
3.7685208061
 30
0.0
 11
8.4451432943
 21
3.7685208061
 31
0.0
  0
LINE
  5
16E
330
1F
100
AcDbEntity
  8
0
  6
CONTINUOUS
 62
     7
100
AcDbLine
 10
8.0638767323
 20
3.7586782864
 30
0.0
 11
8.0641359256
 21
3.7488357667
 31
0.0
  0
POLYLINE
  5
16F
330
1F
100
AcDbEntity
  8
0
  6
CONTINUOUS
 62
     7
100
AcDb2dPolyline
 66
     1
 10
0.0
 20
0.0
 30
0.0
  0
VERTEX
  5
2B6
330
16F
100
AcDbEntity
  8
0
  6
CONTINUOUS
 62
     7
100
AcDbVertex
100
AcDb2dVertex
 10
8.437633287
 20
3.7488357667
 30
0.0
  0
VERTEX
  5
2B7
330
16F
100
AcDbEntity
  8
0
  6
CONTINUOUS
 62
     7
100
AcDbVertex
100
AcDb2dVertex
 10
8.4378924803
 20
3.7586782864
 30
0.0
  0
VERTEX
  5
2B8
330
16F
100
AcDbEntity
  8
0
  6
CONTINUOUS
 62
     7
100
AcDbVertex
100
AcDb2dVertex
 10
8.437633287
 20
3.7685208061
 30
0.0
  0
SEQEND
  5
2B9
330
16F
100
AcDbEntity
  8
0
  6
CONTINUOUS
 62
     7
  0
LINE
  5
170
330
1F
100
AcDbEntity
  8
0
  6
CONTINUOUS
 62
     7
100
AcDbLine
 10
8.0641359256
 20
3.7685208061
 30
0.0
 11
8.0638767323
 21
3.7586782864
 31
0.0
  0
LINE
  5
171
330
1F
100
AcDbEntity
  8
0
  6
CONTINUOUS
 62
     7
100
AcDbLine
 10
7.5816656431
 20
3.7488357667
 30
0.0
 11
7.5816656431
 21
3.7685208061
 31
0.0
  0
LINE
  5
172
330
1F
100
AcDbEntity
  8
0
  6
CONTINUOUS
 62
     7
100
AcDbLine
 10
7.7343181072
 20
4.2163554517
 30
0.0
 11
7.7625378973
 21
4.2163554517
 31
0.0
  0
LINE
  5
173
330
1F
100
AcDbEntity
  8
0
  6
CONTINUOUS
 62
     7
100
AcDbLine
 10
8.7085617717
 20
4.2470249954
 30
0.0
 11
8.7085617717
 21
4.2752447855
 31
0.0
  0
LINE
  5
174
330
1F
100
AcDbEntity
  8
0
  6
CONTINUOUS
 62
     8
100
AcDbLine
 10
7.7534964018
 20
4.2065129321
 30
0.0
 11
7.7244755875
 21
4.2065129321
 31
0.0
  0
LINE
  5
175
330
1F
100
AcDbEntity
  8
0
  6
CONTINUOUS
 62
     8
100
AcDbLine
 10
8.698719252
 20
4.2850873052
 30
0.0
 11
8.698719252
 21
4.256066491
 31
0.0
  0
LINE
  5
176
330
1F
100
AcDbEntity
  8
0
  6
HIDDEN
 62
     7
100
AcDbLine
 10
7.7244755875
 20
4.0982452155
 30
0.0
 11
7.9213259812
 21
4.0982452155
 31
0.0
  0
LINE
  5
177
330
1F
100
AcDbEntity
  8
0
  6
HIDDEN
 62
     7
100
AcDbLine
 10
8.5584633465
 20
3.164248968
 30
0.0
 11
8.5584633465
 21
4.3531076047
 31
0.0
  0
LINE
  5
178
330
1F
100
AcDbEntity
  8
0
  6
HIDDEN
 62
     7
100
AcDbLine
 10
7.7625378973
 20
4.2163554517
 30
0.0
 11
7.9114834608
 21
4.2163554517
 31
0.0
  0
LINE
  5
179
330
1F
100
AcDbEntity
  8
0
  6
HIDDEN
 62
     7
100
AcDbLine
 10
7.8819559025
 20
3.3403711998
 30
0.0
 11
7.7640371638
 21
3.3403711998
 31
0.0
  0
LINE
  5
17A
330
1F
100
AcDbEntity
  8
0
  6
HIDDEN
 62
     7
100
AcDbLine
 10
7.8721133828
 20
3.3305286801
 30
0.0
 11
7.7736932137
 21
3.3305286801
 31
0.0
  0
LINE
  5
17B
330
1F
100
AcDbEntity
  8
0
  6
HIDDEN
 62
     7
100
AcDbLine
 10
7.8513136913
 20
4.1376152943
 30
0.0
 11
7.8797265983
 21
4.1376152943
 31
0.0
  0
LINE
  5
17C
330
1F
100
AcDbEntity
  8
0
  6
HIDDEN
 62
     7
100
AcDbLine
 10
7.7944878774
 20
4.1376152943
 30
0.0
 11
7.8513136913
 21
4.1376152943
 31
0.0
  0
LINE
  5
17D
330
1F
100
AcDbEntity
  8
0
  6
HIDDEN
 62
     7
100
AcDbLine
 10
7.8513136913
 20
4.1376152943
 30
0.0
 11
7.8513136913
 21
4.2163554517
 31
0.0
  0
LINE
  5
17E
330
1F
100
AcDbEntity
  8
0
  6
HIDDEN
 62
     7
100
AcDbLine
 10
7.7944878774
 20
4.1376152943
 30
0.0
 11
7.7944878774
 21
4.2163554517
 31
0.0
  0
LINE
  5
17F
330
1F
100
AcDbEntity
  8
0
  6
HIDDEN
 62
     7
100
AcDbLine
 10
7.7660749705
 20
4.1376152943
 30
0.0
 11
7.7944878774
 21
4.1376152943
 31
0.0
  0
LINE
  5
180
330
1F
100
AcDbEntity
  8
0
  6
HIDDEN
 62
     7
100
AcDbLine
 10
7.8797265983
 20
4.1376152943
 30
0.0
 11
7.8797265983
 21
4.2163554517
 31
0.0
  0
LINE
  5
181
330
1F
100
AcDbEntity
  8
0
  6
HIDDEN
 62
     7
100
AcDbLine
 10
7.7660749705
 20
4.1376152943
 30
0.0
 11
7.7660749705
 21
4.2163554517
 31
0.0
  0
LINE
  5
182
330
1F
100
AcDbEntity
  8
0
  6
HIDDEN
 62
     7
100
AcDbLine
 10
8.7085617717
 20
4.2470249954
 30
0.0
 11
8.7085617717
 21
4.0980794312
 31
0.0
  0
LINE
  5
183
330
1F
100
AcDbEntity
  8
0
  6
HIDDEN
 62
     7
100
AcDbLine
 10
8.5904515355
 20
4.0882369115
 30
0.0
 11
8.5904515355
 21
4.2850873052
 31
0.0
  0
LINE
  5
184
330
1F
100
AcDbEntity
  8
0
  6
HIDDEN
 62
     7
100
AcDbLine
 10
7.8325775197
 20
4.1276069902
 30
0.0
 11
7.8325775197
 21
4.2455257289
 31
0.0
  0
LINE
  5
185
330
1F
100
AcDbEntity
  8
0
  6
HIDDEN
 62
     7
100
AcDbLine
 10
7.822735
 20
4.1374495099
 30
0.0
 11
7.822735
 21
4.2358747068
 31
0.0
  0
LINE
  5
186
330
1F
100
AcDbEntity
  8
0
  6
HIDDEN
 62
     7
100
AcDbLine
 10
8.6298216142
 20
4.1582492014
 30
0.0
 11
8.7085617717
 21
4.1582492014
 31
0.0
  0
LINE
  5
187
330
1F
100
AcDbEntity
  8
0
  6
HIDDEN
 62
     7
100
AcDbLine
 10
8.6298216142
 20
4.2150750153
 30
0.0
 11
8.7085617717
 21
4.2150750153
 31
0.0
  0
LINE
  5
188
330
1F
100
AcDbEntity
  8
0
  6
HIDDEN
 62
     7
100
AcDbLine
 10
8.6298216142
 20
4.2150750153
 30
0.0
 11
8.6298216142
 21
4.2434879222
 31
0.0
  0
LINE
  5
189
330
1F
100
AcDbEntity
  8
0
  6
HIDDEN
 62
     7
100
AcDbLine
 10
8.6298216142
 20
4.1298362945
 30
0.0
 11
8.6298216142
 21
4.1582492014
 31
0.0
  0
LINE
  5
18A
330
1F
100
AcDbEntity
  8
0
  6
HIDDEN
 62
     7
100
AcDbLine
 10
8.6298216142
 20
4.1582492014
 30
0.0
 11
8.6298216142
 21
4.2150750153
 31
0.0
  0
LINE
  5
18B
330
1F
100
AcDbEntity
  8
0
  6
HIDDEN
 62
     7
100
AcDbLine
 10
8.6298216142
 20
4.1298362945
 30
0.0
 11
8.7085617717
 21
4.1298362945
 31
0.0
  0
LINE
  5
18C
330
1F
100
AcDbEntity
  8
0
  6
HIDDEN
 62
     7
100
AcDbLine
 10
8.6298216142
 20
4.2434879222
 30
0.0
 11
8.7085617717
 21
4.2434879222
 31
0.0
  0
CIRCLE
  5
18D
330
1F
100
AcDbEntity
  8
0
  6
HIDDEN
 62
     7
100
AcDbCircle
 10
8.7725381496
 20
3.7586782864
 30
0.0
 40
0.0984251968503944
  0
CIRCLE
  5
18E
330
1F
100
AcDbEntity
  8
0
  6
HIDDEN
 62
     7
100
AcDbCircle
 10
8.2508846063
 20
3.2370247431
 30
0.0
 40
0.0984251968503944
  0
CIRCLE
  5
18F
330
1F
100
AcDbEntity
  8
0
  6
HIDDEN
 62
     7
100
AcDbCircle
 10
8.2508846063
 20
4.2803318297
 30
0.0
 40
0.0984251968503944
  0
CIRCLE
  5
190
330
1F
100
AcDbEntity
  8
0
  6
HIDDEN
 62
     7
100
AcDbCircle
 10
7.729231063
 20
3.7586782864
 30
0.0
 40
0.0984251968503935
  0
LINE
  5
191
330
1F
100
AcDbEntity
  8
0
  6
HIDDEN
 62
     7
100
AcDbLine
 10
8.1638882012
 20
4.3673282349
 30
0.0
 11
7.6422346579
 21
3.8456746916
 31
0.0
  0
ARC
  5
192
330
1F
100
AcDbEntity
  8
0
  6
HIDDEN
 62
     7
100
AcDbCircle
 10
8.2508846063
 20
4.2803318297
 30
0.0
 40
0.1230314960629928
100
AcDbArc
 50
45.0
 51
135.0
  0
LINE
  5
193
330
1F
100
AcDbEntity
  8
0
  6
HIDDEN
 62
     7
100
AcDbLine
 10
8.8595345548
 20
3.8456746916
 30
0.0
 11
8.3378810115
 21
4.3673282349
 31
0.0
  0
ARC
  5
194
330
1F
100
AcDbEntity
  8
0
  6
HIDDEN
 62
     7
100
AcDbCircle
 10
8.7725381496
 20
3.7586782864
 30
0.0
 40
0.1230314960629934
100
AcDbArc
 50
315.0
 51
45.0
  0
LINE
  5
195
330
1F
100
AcDbEntity
  8
0
  6
HIDDEN
 62
     7
100
AcDbLine
 10
8.3378810115
 20
3.1500283379
 30
0.0
 11
8.8595345548
 21
3.6716818812
 31
0.0
  0
ARC
  5
196
330
1F
100
AcDbEntity
  8
0
  6
HIDDEN
 62
     7
100
AcDbCircle
 10
8.2508846063
 20
3.2370247431
 30
0.0
 40
0.1230314960629931
100
AcDbArc
 50
225.0
 51
315.0
  0
LINE
  5
197
330
1F
100
AcDbEntity
  8
0
  6
HIDDEN
 62
     7
100
AcDbLine
 10
7.6422346579
 20
3.6716818812
 30
0.0
 11
8.1638882012
 21
3.1500283379
 31
0.0
  0
ARC
  5
198
330
1F
100
AcDbEntity
  8
0
  6
HIDDEN
 62
     7
100
AcDbCircle
 10
7.729231063
 20
3.7586782864
 30
0.0
 40
0.1230314960629924
100
AcDbArc
 50
135.0
 51
225.0
  0
CIRCLE
  5
199
330
1F
100
AcDbEntity
  8
0
  6
HIDDEN
 62
     7
100
AcDbCircle
 10
8.2508846063
 20
3.7586782864
 30
0.0
 40
0.2263779527559056
  0
CIRCLE
  5
19A
330
1F
100
AcDbEntity
  8
0
  6
HIDDEN
 62
     7
100
AcDbCircle
 10
8.2508846063
 20
3.7586782864
 30
0.0
 40
0.6692913385826773
  0
LINE
  5
19B
330
1F
100
AcDbEntity
  8
0
  6
HIDDEN
 62
     7
100
AcDbLine
 10
7.656455288
 20
3.4510995462
 30
0.0
 11
8.8453139247
 21
3.4510995462
 31
0.0
  0
LINE
  5
19C
330
1F
100
AcDbEntity
  8
0
  6
HIDDEN
 62
     7
100
AcDbLine
 10
8.2410420866
 20
3.9454269671
 30
0.0
 11
8.2410420866
 21
4.4278972496
 31
0.0
  0
LINE
  5
19D
330
1F
100
AcDbEntity
  8
0
  6
HIDDEN
 62
     7
100
AcDbLine
 10
8.260727126
 20
3.9454269671
 30
0.0
 11
8.260727126
 21
4.4278972496
 31
0.0
  0
LINE
  5
19E
330
1F
100
AcDbEntity
  8
0
  6
HIDDEN
 62
     7
100
AcDbLine
 10
8.2410420866
 20
3.5082715411
 30
0.0
 11
8.2410420866
 21
3.5719296057
 31
0.0
  0
LINE
  5
19F
330
1F
100
AcDbEntity
  8
0
  6
HIDDEN
 62
     7
100
AcDbLine
 10
8.260727126
 20
3.5082715411
 30
0.0
 11
8.2410420866
 21
3.5082715411
 31
0.0
  0
LINE
  5
1A0
330
1F
100
AcDbEntity
  8
0
  6
HIDDEN
 62
     7
100
AcDbLine
 10
8.260727126
 20
3.5719296057
 30
0.0
 11
8.260727126
 21
3.5082715411
 31
0.0
  0
POLYLINE
  5
1A1
330
1F
100
AcDbEntity
  8
0
  6
HIDDEN
 62
     7
100
AcDb2dPolyline
 66
     1
 10
0.0
 20
0.0
 30
0.0
  0
VERTEX
  5
2BA
330
1A1
100
AcDbEntity
  8
0
  6
HIDDEN
 62
     7
100
AcDbVertex
100
AcDb2dVertex
 10
8.0566259183
 20
3.7488357667
 30
0.0
  0
VERTEX
  5
2BB
330
1A1
100
AcDbEntity
  8
0
  6
HIDDEN
 62
     7
100
AcDbVertex
100
AcDb2dVertex
 10
8.0563767323
 20
3.7586782864
 30
0.0
  0
VERTEX
  5
2BC
330
1A1
100
AcDbEntity
  8
0
  6
HIDDEN
 62
     7
100
AcDbVertex
100
AcDb2dVertex
 10
8.0566259183
 20
3.7685208061
 30
0.0
  0
SEQEND
  5
2BD
330
1A1
100
AcDbEntity
  8
0
  6
HIDDEN
 62
     7
  0
POLYLINE
  5
1A2
330
1F
100
AcDbEntity
  8
0
  6
HIDDEN
 62
     7
100
AcDb2dPolyline
 66
     1
 10
0.0
 20
0.0
 30
0.0
  0
VERTEX
  5
2BE
330
1A2
100
AcDbEntity
  8
0
  6
HIDDEN
 62
     7
100
AcDbVertex
100
AcDb2dVertex
 10
8.4451432943
 20
3.7685208061
 30
0.0
  0
VERTEX
  5
2BF
330
1A2
100
AcDbEntity
  8
0
  6
HIDDEN
 62
     7
100
AcDbVertex
100
AcDb2dVertex
 10
8.4453924803
 20
3.7586782864
 30
0.0
  0
VERTEX
  5
2C0
330
1A2
100
AcDbEntity
  8
0
  6
HIDDEN
 62
     7
100
AcDbVertex
100
AcDb2dVertex
 10
8.4451432943
 20
3.7488357667
 30
0.0
  0
SEQEND
  5
2C1
330
1A2
100
AcDbEntity
  8
0
  6
HIDDEN
 62
     7
  0
POLYLINE
  5
1A3
330
1F
100
AcDbEntity
  8
0
  6
HIDDEN
 62
     7
100
AcDb2dPolyline
 66
     1
 10
0.0
 20
0.0
 30
0.0
  0
VERTEX
  5
2C2
330
1A3
100
AcDbEntity
  8
0
  6
HIDDEN
 62
     7
100
AcDbVertex
100
AcDb2dVertex
 10
7.5891664634
 20
3.7685208061
 30
0.0
  0
VERTEX
  5
2C3
330
1A3
100
AcDbEntity
  8
0
  6
HIDDEN
 62
     7
100
AcDbVertex
100
AcDb2dVertex
 10
7.5891115669
 20
3.7537568905
 30
0.0
  0
VERTEX
  5
2C4
330
1A3
100
AcDbEntity
  8
0
  6
HIDDEN
 62
     7
100
AcDbVertex
100
AcDb2dVertex
 10
7.5891664634
 20
3.7488357667
 30
0.0
  0
SEQEND
  5
2C5
330
1A3
100
AcDbEntity
  8
0
  6
HIDDEN
 62
     7
  0
LINE
  5
1A4
330
1F
100
AcDbEntity
  8
0
  6
HIDDEN
 62
     7
100
AcDbLine
 10
7.9213259812
 20
4.0982452155
 30
0.0
 11
7.9213259812
 21
4.3412089796
 31
0.0
  0
LINE
  5
1A5
330
1F
100
AcDbEntity
  8
0
  6
HIDDEN
 62
     7
100
AcDbLine
 10
7.7244755875
 20
4.1722017572
 30
0.0
 11
7.7244755875
 21
4.0982452155
 31
0.0
  0
LINE
  5
1A6
330
1F
100
AcDbEntity
  8
0
  6
HIDDEN
 62
     7
100
AcDbLine
 10
7.7638456663
 20
4.0982452155
 30
0.0
 11
7.7638456663
 21
3.7685208061
 31
0.0
  0
LINE
  5
1A7
330
1F
100
AcDbEntity
  8
0
  6
HIDDEN
 62
     7
100
AcDbLine
 10
7.8819559025
 20
3.7685208061
 30
0.0
 11
7.8819559025
 21
4.0982452155
 31
0.0
  0
LINE
  5
1A8
330
1F
100
AcDbEntity
  8
0
  6
HIDDEN
 62
     7
100
AcDbLine
 10
7.7638456663
 20
3.7488357667
 30
0.0
 11
7.7638456663
 21
3.2996097003
 31
0.0
  0
LINE
  5
1A9
330
1F
100
AcDbEntity
  8
0
  6
HIDDEN
 62
     7
100
AcDbLine
 10
7.8819559025
 20
3.2002640497
 30
0.0
 11
7.8819559025
 21
3.7488357667
 31
0.0
  0
ARC
  5
1AA
330
1F
100
AcDbEntity
  8
0
  6
HIDDEN
 62
     7
100
AcDbCircle
 10
7.9114834615
 20
4.2065129321
 30
0.0
 40
0.0098425196850389
100
AcDbArc
 50
0.0
 51
90.0
  0
LINE
  5
1AB
330
1F
100
AcDbEntity
  8
0
  6
HIDDEN
 62
     7
100
AcDbLine
 10
7.9213259812
 20
4.0982452155
 30
0.0
 11
7.9213259812
 21
4.2065129321
 31
0.0
  0
LINE
  5
1AC
330
1F
100
AcDbEntity
  8
0
  6
HIDDEN
 62
     7
100
AcDbLine
 10
7.7244755875
 20
4.1720116153
 30
0.0
 11
7.7244755875
 21
4.0982452155
 31
0.0
  0
LINE
  5
1AD
330
1F
100
AcDbEntity
  8
0
  6
HIDDEN
 62
     7
100
AcDbLine
 10
7.7638456663
 20
4.0982452155
 30
0.0
 11
7.7638456663
 21
3.7685208061
 31
0.0
  0
LINE
  5
1AE
330
1F
100
AcDbEntity
  8
0
  6
HIDDEN
 62
     7
100
AcDbLine
 10
7.7638456663
 20
3.7488357667
 30
0.0
 11
7.7638456663
 21
3.3403711998
 31
0.0
  0
LINE
  5
1AF
330
1F
100
AcDbEntity
  8
0
  6
HIDDEN
 62
     7
100
AcDbLine
 10
7.8819559025
 20
3.3403711998
 30
0.0
 11
7.8819559025
 21
3.7488357667
 31
0.0
  0
LINE
  5
1B0
330
1F
100
AcDbEntity
  8
0
  6
HIDDEN
 62
     7
100
AcDbLine
 10
7.8819559025
 20
3.7685208061
 30
0.0
 11
7.8819559025
 21
4.0982452155
 31
0.0
  0
ARC
  5
1B1
330
1F
100
AcDbEntity
  8
0
  6
HIDDEN
 62
     7
100
AcDbCircle
 10
7.8721133828
 20
3.3403711998
 30
0.0
 40
0.0098425196850394
100
AcDbArc
 50
270.0
 51
0.0
  0
ARC
  5
1B2
330
1F
100
AcDbEntity
  8
0
  6
HIDDEN
 62
     7
100
AcDbCircle
 10
7.7736881859
 20
3.3403711998
 30
0.0
 40
0.0098425196850394
100
AcDbArc
 50
180.0
 51
270.0
  0
ARC
  5
1B3
330
1F
100
AcDbEntity
  8
0
  6
HIDDEN
 62
     7
100
AcDbCircle
 10
8.698719252
 20
4.0980794312
 30
0.0
 40
0.0098425196850407
100
AcDbArc
 50
270.0
 51
0.0
  0
LINE
  5
1B4
330
1F
100
AcDbEntity
  8
0
  6
HIDDEN
 62
     7
100
AcDbLine
 10
8.5904515355
 20
4.0882369115
 30
0.0
 11
8.698719252
 21
4.0882369115
 31
0.0
  0
LINE
  5
1B5
330
1F
100
AcDbEntity
  8
0
  6
HIDDEN
 62
     7
100
AcDbLine
 10
8.6642179353
 20
4.2850873052
 30
0.0
 11
8.5904515355
 21
4.2850873052
 31
0.0
  0
LINE
  5
1B6
330
1F
100
AcDbEntity
  8
0
  6
HIDDEN
 62
     7
100
AcDbLine
 10
8.5904515355
 20
4.2457172265
 30
0.0
 11
7.8325775197
 21
4.2457172265
 31
0.0
  0
LINE
  5
1B7
330
1F
100
AcDbEntity
  8
0
  6
HIDDEN
 62
     7
100
AcDbLine
 10
7.8325775197
 20
4.1276069902
 30
0.0
 11
8.5904515355
 21
4.1276069902
 31
0.0
  0
ARC
  5
1B8
330
1F
100
AcDbEntity
  8
0
  6
HIDDEN
 62
     7
100
AcDbCircle
 10
7.8325775197
 20
4.1374495099
 30
0.0
 40
0.0098425196850398
100
AcDbArc
 50
180.0
 51
270.0
  0
ARC
  5
1B9
330
1F
100
AcDbEntity
  8
0
  6
HIDDEN
 62
     7
100
AcDbCircle
 10
7.8325775197
 20
4.2358747068
 30
0.0
 40
0.0098425196850398
100
AcDbArc
 50
90.0
 51
180.0
  0
LINE
  5
1BA
330
1F
100
AcDbEntity
  8
0
  6
HIDDEN
 62
     7
100
AcDbLine
 10
8.5904515355
 20
4.0882369115
 30
0.0
 11
8.8334152995
 21
4.0882369115
 31
0.0
  0
LINE
  5
1BB
330
1F
100
AcDbEntity
  8
0
  6
HIDDEN
 62
     7
100
AcDbLine
 10
8.6644080772
 20
4.2850873052
 30
0.0
 11
8.5904515355
 21
4.2850873052
 31
0.0
  0
LINE
  5
1BC
330
1F
100
AcDbEntity
  8
0
  6
HIDDEN
 62
     7
100
AcDbLine
 10
8.5904515355
 20
4.2457172265
 30
0.0
 11
8.260727126
 21
4.2457172265
 31
0.0
  0
LINE
  5
1BD
330
1F
100
AcDbEntity
  8
0
  6
HIDDEN
 62
     7
100
AcDbLine
 10
8.260727126
 20
4.1276069902
 30
0.0
 11
8.5904515355
 21
4.1276069902
 31
0.0
  0
LINE
  5
1BE
330
1F
100
AcDbEntity
  8
0
  6
HIDDEN
 62
     7
100
AcDbLine
 10
8.2410420866
 20
4.2457172265
 30
0.0
 11
7.7918160202
 21
4.2457172265
 31
0.0
  0
LINE
  5
1BF
330
1F
100
AcDbEntity
  8
0
  6
HIDDEN
 62
     7
100
AcDbLine
 10
7.6924703696
 20
4.1276069902
 30
0.0
 11
8.2410420866
 21
4.1276069902
 31
0.0
  0
LINE
  5
1C0
330
1F
100
AcDbEntity
  8
0
  6
HIDDEN
 62
     7
100
AcDbLine
 10
7.7244755875
 20
4.2065129321
 30
0.0
 11
7.921139301
 21
4.2065129321
 31
0.0
  0
LINE
  5
1C1
330
1F
100
AcDbEntity
  8
0
  6
HIDDEN
 62
     7
100
AcDbLine
 10
8.698719252
 20
4.2850873052
 30
0.0
 11
8.698719252
 21
4.0884235917
 31
0.0
  0
LINE
  5
1C2
330
1F
100
AcDbEntity
  8
0
  6
CONTINUOUS
 62
     7
100
AcDbLine
 10
3.8581321664
 20
7.3337684775
 30
0.0
 11
3.8506321664
 21
7.3412684775
 31
0.0
  0
LINE
  5
1C3
330
1F
100
AcDbEntity
  8
0
  6
CONTINUOUS
 62
     7
100
AcDbLine
 10
3.3856912215
 20
6.0026858003
 30
0.0
 11
3.581603295
 21
6.0026858003
 31
0.0
  0
LINE
  5
1C4
330
1F
100
AcDbEntity
  8
0
  6
CONTINUOUS
 62
     7
100
AcDbLine
 10
3.8506321664
 20
7.3412684775
 30
0.0
 11
3.3856912215
 21
7.3412684775
 31
0.0
  0
LINE
  5
1C5
330
1F
100
AcDbEntity
  8
0
  6
CONTINUOUS
 62
     7
100
AcDbLine
 10
2.8616951585
 20
6.6818196586
 30
0.0
 11
2.8616951585
 21
6.6621346192
 31
0.0
  0
LINE
  5
1C6
330
1F
100
AcDbEntity
  8
0
  6
CONTINUOUS
 62
     7
100
AcDbLine
 10
2.9798053947
 20
6.6621346192
 30
0.0
 11
2.9798053947
 21
6.6818196586
 31
0.0
  0
LINE
  5
1C7
330
1F
100
AcDbEntity
  8
0
  6
CONTINUOUS
 62
     7
100
AcDbLine
 10
3.0454221926
 20
7.3412684775
 30
0.0
 11
2.8026400404
 21
7.3412684775
 31
0.0
  0
LINE
  5
1C8
330
1F
100
AcDbEntity
  8
0
  6
CONTINUOUS
 62
     7
100
AcDbLine
 10
3.2675809853
 20
7.3412684775
 30
0.0
 11
3.0716689118
 21
7.3412684775
 31
0.0
  0
LINE
  5
1C9
330
1F
100
AcDbEntity
  8
0
  6
CONTINUOUS
 62
     7
100
AcDbLine
 10
3.0716689118
 20
6.0026858003
 30
0.0
 11
3.2675809853
 21
6.0026858003
 31
0.0
  0
LINE
  5
1CA
330
1F
100
AcDbEntity
  8
0
  6
CONTINUOUS
 62
     7
100
AcDbLine
 10
2.8026400404
 20
6.0026858003
 30
0.0
 11
3.0454221926
 21
6.0026858003
 31
0.0
  0
LINE
  5
1CB
330
1F
100
AcDbEntity
  8
0
  6
CONTINUOUS
 62
     7
100
AcDbLine
 10
2.8026400404
 20
7.3412684775
 30
0.0
 11
2.7951400404
 21
7.3337684775
 31
0.0
  0
LINE
  5
1CC
330
1F
100
AcDbEntity
  8
0
  6
CONTINUOUS
 62
     7
100
AcDbLine
 10
2.7951400404
 20
6.0101858003
 30
0.0
 11
2.8026400404
 21
6.0026858003
 31
0.0
  0
LINE
  5
1CD
330
1F
100
AcDbEntity
  8
0
  6
CONTINUOUS
 62
     7
100
AcDbLine
 10
3.2675809853
 20
6.5735519421
 30
0.0
 11
3.306951064
 21
6.5735519421
 31
0.0
  0
LINE
  5
1CE
330
1F
100
AcDbEntity
  8
0
  6
CONTINUOUS
 62
     7
100
AcDbLine
 10
3.306951064
 20
6.7704023358
 30
0.0
 11
3.2675809853
 21
6.7704023358
 31
0.0
  0
LINE
  5
1CF
330
1F
100
AcDbEntity
  8
0
  6
CONTINUOUS
 62
     7
100
AcDbLine
 10
3.3463211428
 20
6.5735519421
 30
0.0
 11
3.3856912215
 21
6.5735519421
 31
0.0
  0
LINE
  5
1D0
330
1F
100
AcDbEntity
  8
0
  6
CONTINUOUS
 62
     7
100
AcDbLine
 10
3.3856912215
 20
6.7704023358
 30
0.0
 11
3.3463211428
 21
6.7704023358
 31
0.0
  0
LINE
  5
1D1
330
1F
100
AcDbEntity
  8
0
  6
CONTINUOUS
 62
     7
100
AcDbLine
 10
3.2675809853
 20
7.0952054854
 30
0.0
 11
3.306951064
 21
7.0952054854
 31
0.0
  0
LINE
  5
1D2
330
1F
100
AcDbEntity
  8
0
  6
CONTINUOUS
 62
     7
100
AcDbLine
 10
3.306951064
 20
7.2920558791
 30
0.0
 11
3.2675809853
 21
7.2920558791
 31
0.0
  0
LINE
  5
1D3
330
1F
100
AcDbEntity
  8
0
  6
CONTINUOUS
 62
     7
100
AcDbLine
 10
3.3463211428
 20
7.0952054854
 30
0.0
 11
3.3856912215
 21
7.0952054854
 31
0.0
  0
LINE
  5
1D4
330
1F
100
AcDbEntity
  8
0
  6
CONTINUOUS
 62
     7
100
AcDbLine
 10
3.3856912215
 20
7.2920558791
 30
0.0
 11
3.3463211428
 21
7.2920558791
 31
0.0
  0
LINE
  5
1D5
330
1F
100
AcDbEntity
  8
0
  6
CONTINUOUS
 62
     7
100
AcDbLine
 10
3.2675809853
 20
6.0518983988
 30
0.0
 11
3.306951064
 21
6.0518983988
 31
0.0
  0
LINE
  5
1D6
330
1F
100
AcDbEntity
  8
0
  6
CONTINUOUS
 62
     7
100
AcDbLine
 10
3.306951064
 20
6.2487487925
 30
0.0
 11
3.2675809853
 21
6.2487487925
 31
0.0
  0
LINE
  5
1D7
330
1F
100
AcDbEntity
  8
0
  6
CONTINUOUS
 62
     7
100
AcDbLine
 10
3.3463211428
 20
6.0518983988
 30
0.0
 11
3.3856912215
 21
6.0518983988
 31
0.0
  0
LINE
  5
1D8
330
1F
100
AcDbEntity
  8
0
  6
CONTINUOUS
 62
     7
100
AcDbLine
 10
3.3856912215
 20
6.2487487925
 30
0.0
 11
3.3463211428
 21
6.2487487925
 31
0.0
  0
LINE
  5
1D9
330
1F
100
AcDbEntity
  8
0
  6
CONTINUOUS
 62
     7
100
AcDbLine
 10
3.3463211428
 20
7.3166621783
 30
0.0
 11
3.306951064
 21
7.3166621783
 31
0.0
  0
LINE
  5
1DA
330
1F
100
AcDbEntity
  8
0
  6
CONTINUOUS
 62
     7
100
AcDbLine
 10
3.306951064
 20
6.0272920995
 30
0.0
 11
3.3463211428
 21
6.0272920995
 31
0.0
  0
LINE
  5
1DB
330
1F
100
AcDbEntity
  8
0
  6
CONTINUOUS
 62
     7
100
AcDbLine
 10
3.8581321664
 20
7.3337684775
 30
0.0
 11
3.8581321664
 21
6.010258996
 31
0.0
  0
LINE
  5
1DC
330
1F
100
AcDbEntity
  8
0
  6
CONTINUOUS
 62
     7
100
AcDbLine
 10
3.8506321664
 20
6.0027581757
 30
0.0
 11
3.8581321664
 21
6.010258996
 31
0.0
  0
LINE
  5
1DD
330
1F
100
AcDbEntity
  8
0
  6
CONTINUOUS
 62
     7
100
AcDbLine
 10
3.8506321664
 20
6.0027581757
 30
0.0
 11
3.8506321664
 21
7.3412684775
 31
0.0
  0
LINE
  5
1DE
330
1F
100
AcDbEntity
  8
0
  6
CONTINUOUS
 62
     7
100
AcDbLine
 10
3.3856912215
 20
7.3412684775
 30
0.0
 11
3.3856912215
 21
6.0026858003
 31
0.0
  0
SPLINE
  5
1DF
330
1F
100
AcDbEntity
  8
0
  6
CONTINUOUS
 62
     7
100
AcDbSpline
210
0.0
220
0.0
230
1.0
 70
     8
 71
     3
 72
    82
 73
    78
 74
     0
 42
0.00000001
 43
0.00000001
 40
-0.0312500000000007
 40
-0.0312500000000007
 40
0.0
 40
0.0
 40
0.0312499999999994
 40
0.0312499999999994
 40
0.0468749999999991
 40
0.0468749999999991
 40
0.0624999999999988
 40
0.0624999999999988
 40
0.0781249999999985
 40
0.0781249999999985
 40
0.0937499999999983
 40
0.0937499999999983
 40
0.1249999999999976
 40
0.1249999999999976
 40
0.156249999999997
 40
0.156249999999997
 40
0.1874999999999963
 40
0.1874999999999963
 40
0.2187499999999957
 40
0.2187499999999957
 40
0.249999999999995
 40
0.249999999999995
 40
0.2812499999999943
 40
0.2812499999999943
 40
0.3124999999999937
 40
0.3124999999999937
 40
0.3749999999999927
 40
0.3749999999999927
 40
0.4062499999999922
 40
0.4062499999999922
 40
0.421874999999992
 40
0.421874999999992
 40
0.4374999999999917
 40
0.4374999999999917
 40
0.4531249999999915
 40
0.4531249999999915
 40
0.4687499999999912
 40
0.4687499999999912
 40
0.484374999999991
 40
0.484374999999991
 40
0.4999999999999907
 40
0.4999999999999907
 40
0.5156249999999907
 40
0.5156249999999907
 40
0.5312499999999907
 40
0.5312499999999907
 40
0.5468749999999908
 40
0.5468749999999908
 40
0.5624999999999908
 40
0.5624999999999908
 40
0.5937499999999912
 40
0.5937499999999912
 40
0.6249999999999918
 40
0.6249999999999918
 40
0.6562499999999922
 40
0.6562499999999922
 40
0.6874999999999928
 40
0.6874999999999928
 40
0.7187499999999932
 40
0.7187499999999932
 40
0.7499999999999937
 40
0.7499999999999937
 40
0.8124999999999951
 40
0.8124999999999951
 40
0.843749999999996
 40
0.843749999999996
 40
0.8749999999999968
 40
0.8749999999999968
 40
0.9062499999999977
 40
0.9062499999999977
 40
0.9218749999999981
 40
0.9218749999999981
 40
0.9374999999999986
 40
0.9374999999999986
 40
0.9687499999999993
 40
0.9687499999999993
 40
1.0
 40
1.0
 40
1.031249999999999
 40
1.031249999999999
 10
3.740124155569792
 20
6.342418513806935
 30
0.0
 10
3.724919704742621
 20
6.342418513806935
 30
0.0
 10
3.717491723385153
 20
6.341549486155189
 30
0.0
 10
3.70659817178512
 20
6.339016348897596
 30
0.0
 10
3.702983961357712
 20
6.337954802766977
 30
0.0
 10
3.696002108093532
 20
6.335467657691834
 30
0.0
 10
3.692628345885374
 20
6.33404440200897
 30
0.0
 10
3.686103505292029
 20
6.330861181084898
 30
0.0
 10
3.682952486449479
 20
6.329101116807201
 30
0.0
 10
3.6768702055327
 20
6.325254334001886
 30
0.0
 10
3.673948971304437
 20
6.323170709806153
 30
0.0
 10
3.665708386604557
 20
6.316607340818372
 30
0.0
 10
3.66083266052421
 20
6.311773027124953
 30
0.0
 10
3.652219955012434
 20
6.301308526795569
 30
0.0
 10
3.648612756271496
 20
6.29583702443917
 30
0.0
 10
3.642602972617657
 20
6.28452849356575
 30
0.0
 10
3.640196896248614
 20
6.278650619653065
 30
0.0
 10
3.636612191310798
 20
6.266935908589621
 30
0.0
 10
3.635408989831095
 20
6.261066099264871
 30
0.0
 10
3.634064231013149
 20
6.249330409216516
 30
0.0
 10
3.633932622635446
 20
6.243472633392936
 30
0.0
 10
3.634654210401045
 20
6.232075594912386
 30
0.0
 10
3.635501601458218
 20
6.226495347869618
 30
0.0
 10
3.638124916271672
 20
6.215562227063333
 30
0.0
 10
3.639914317259659
 20
6.210191680294685
 30
0.0
 10
3.64654268157694
 20
6.19480090780334
 30
0.0
 10
3.652603431406185
 20
6.185342819648233
 30
0.0
 10
3.664704068972915
 20
6.172417559503022
 30
0.0
 10
3.669164528150257
 20
6.168418582813165
 30
0.0
 10
3.676626534551351
 20
6.162920698342719
 30
0.0
 10
3.679243609698721
 20
6.161172129692942
 30
0.0
 10
3.684781805642982
 20
6.157860808564039
 30
0.0
 10
3.687700659788326
 20
6.156302081383817
 30
0.0
 10
3.693755046870899
 20
6.153462505439109
 30
0.0
 10
3.69690481648279
 20
6.152172329573175
 30
0.0
 10
3.703490358000393
 20
6.149882529431183
 30
0.0
 10
3.706958316186672
 20
6.148876182491457
 30
0.0
 10
3.714053494805098
 20
6.147247854408088
 30
0.0
 10
3.717675800284429
 20
6.14662284454732
 30
0.0
 10
3.725083633503
 20
6.14577881592811
 30
0.0
 10
3.728909669614586
 20
6.145562062640093
 30
0.0
 10
3.736457076898325
 20
6.145574442381347
 30
0.0
 10
3.74019418005066
 20
6.145796847103695
 30
0.0
 10
3.7475982943154
 20
6.146658259789336
 30
0.0
 10
3.751289967978743
 20
6.147305750311093
 30
0.0
 10
3.758368693366398
 20
6.148952959112715
 30
0.0
 10
3.761782447511538
 20
6.149952895536062
 30
0.0
 10
3.768390737579015
 20
6.152269779132773
 30
0.0
 10
3.771584707414516
 20
6.153589925976252
 30
0.0
 10
3.780642162203522
 20
6.157873749992549
 30
0.0
 10
3.786086503021508
 20
6.161186527872185
 30
0.0
 10
3.796074903640446
 20
6.168580139420949
 30
0.0
 10
3.80054886710034
 20
6.172622375803019
 30
0.0
 10
3.808495038516762
 20
6.181147774575432
 30
0.0
 10
3.811999982067607
 20
6.185658852753824
 30
0.0
 10
3.818173146326784
 20
6.195171809217118
 30
0.0
 10
3.820838237616423
 20
6.200187126776321
 30
0.0
 10
3.825229304542064
 20
6.210465788028904
 30
0.0
 10
3.826977241004041
 20
6.215759336908715
 30
0.0
 10
3.829572746572587
 20
6.226669852822134
 30
0.0
 10
3.830421156706797
 20
6.232331263440499
 30
0.0
 10
3.831458967290489
 20
6.24946622876228
 30
0.0
 10
3.830226383886556
 20
6.26106288876577
 30
0.0
 10
3.824853972774203
 20
6.278631678312004
 30
0.0
 10
3.822444632780141
 20
6.284518501599345
 30
0.0
 10
3.816447293215922
 20
6.295809496599784
 30
0.0
 10
3.812847140784201
 20
6.301275401019383
 30
0.0
 10
3.804245215362449
 20
6.311736559986664
 30
0.0
 10
3.799349834848211
 20
6.316588451197501
 30
0.0
 10
3.791183762145371
 20
6.323103585501155
 30
0.0
 10
3.788318146915923
 20
6.325154241250601
 30
0.0
 10
3.782279791636598
 20
6.328990191357083
 30
0.0
 10
3.779079353508712
 20
6.330788126603009
 30
0.0
 10
3.769210691014275
 20
6.335618135126877
 30
0.0
 10
3.762296205946234
 20
6.338103126004108
 30
0.0
 10
3.74777268148516
 20
6.341515510541861
 30
0.0
 10
3.740124155569792
 20
6.342418513806935
 30
0.0
 10
3.724919704742621
 20
6.342418513806935
 30
0.0
  0
LINE
  5
1E0
330
1F
100
AcDbEntity
  8
0
  6
CONTINUOUS
 62
     7
100
AcDbLine
 10
3.8506321664
 20
6.0027581757
 30
0.0
 11
3.6078500141
 21
6.0027581757
 31
0.0
  0
LINE
  5
1E1
330
1F
100
AcDbEntity
  8
0
  6
CONTINUOUS
 62
     7
100
AcDbLine
 10
3.6078500141
 20
6.9795558791
 30
0.0
 11
3.6078500141
 21
6.0027581757
 31
0.0
  0
LINE
  5
1E2
330
1F
100
AcDbEntity
  8
0
  6
CONTINUOUS
 62
     7
100
AcDbLine
 10
3.581603295
 20
6.9795558791
 30
0.0
 11
3.6078500141
 21
6.9795558791
 31
0.0
  0
LINE
  5
1E3
330
1F
100
AcDbEntity
  8
0
  6
CONTINUOUS
 62
     7
100
AcDbLine
 10
3.581603295
 20
6.0026858003
 30
0.0
 11
3.581603295
 21
6.9795558791
 31
0.0
  0
LINE
  5
1E4
330
1F
100
AcDbEntity
  8
0
  6
CONTINUOUS
 62
     7
100
AcDbLine
 10
3.7817345286
 20
6.21558041
 30
0.0
 11
3.7817345286
 21
6.2724062239
 31
0.0
  0
LINE
  5
1E5
330
1F
100
AcDbEntity
  8
0
  6
CONTINUOUS
 62
     7
100
AcDbLine
 10
3.7817345286
 20
6.2724062239
 30
0.0
 11
3.7325219302
 21
6.3008191309
 31
0.0
  0
LINE
  5
1E6
330
1F
100
AcDbEntity
  8
0
  6
CONTINUOUS
 62
     7
100
AcDbLine
 10
3.7325219302
 20
6.3008191309
 30
0.0
 11
3.6833093317
 21
6.2724062239
 31
0.0
  0
LINE
  5
1E7
330
1F
100
AcDbEntity
  8
0
  6
CONTINUOUS
 62
     7
100
AcDbLine
 10
3.6833093317
 20
6.2724062239
 30
0.0
 11
3.6833093317
 21
6.21558041
 31
0.0
  0
LINE
  5
1E8
330
1F
100
AcDbEntity
  8
0
  6
CONTINUOUS
 62
     7
100
AcDbLine
 10
3.6833093317
 20
6.21558041
 30
0.0
 11
3.7325219302
 21
6.1871675031
 31
0.0
  0
LINE
  5
1E9
330
1F
100
AcDbEntity
  8
0
  6
CONTINUOUS
 62
     7
100
AcDbLine
 10
3.7325219302
 20
6.1871675031
 30
0.0
 11
3.7817345286
 21
6.21558041
 31
0.0
  0
CIRCLE
  5
1EA
330
1F
100
AcDbEntity
  8
0
  6
CONTINUOUS
 62
     7
100
AcDbCircle
 10
3.7325219302
 20
6.243993317
 30
0.0
 40
0.0885826771653546
  0
CIRCLE
  5
1EB
330
1F
100
AcDbEntity
  8
0
  6
CONTINUOUS
 62
     7
100
AcDbCircle
 10
3.7325219302
 20
6.243993317
 30
0.0
 40
0.0984251968503944
  0
LINE
  5
1EC
330
1F
100
AcDbEntity
  8
0
  6
CONTINUOUS
 62
     7
100
AcDbLine
 10
2.9207502766
 20
7.1296543043
 30
0.0
 11
2.8429927186
 21
7.1296543043
 31
0.0
  0
LINE
  5
1ED
330
1F
100
AcDbEntity
  8
0
  6
CONTINUOUS
 62
     7
100
AcDbLine
 10
2.998234591
 20
7.1296543043
 30
0.0
 11
2.9207502766
 21
7.1296543043
 31
0.0
  0
LINE
  5
1EE
330
1F
100
AcDbEntity
  8
0
  6
CONTINUOUS
 62
     7
100
AcDbLine
 10
3.2675809853
 20
7.3412684775
 30
0.0
 11
3.2675809853
 21
6.0026858003
 31
0.0
  0
SPLINE
  5
1EF
330
1F
100
AcDbEntity
  8
0
  6
CONTINUOUS
 62
     7
100
AcDbSpline
210
0.0
220
0.0
230
1.0
 70
     8
 71
     3
 72
    82
 73
    78
 74
     0
 42
0.00000001
 43
0.00000001
 40
-0.0312499999999996
 40
-0.0312499999999996
 40
0.0
 40
0.0
 40
0.03125
 40
0.03125
 40
0.0468750000000001
 40
0.0468750000000001
 40
0.0625000000000002
 40
0.0625000000000002
 40
0.0781250000000002
 40
0.0781250000000002
 40
0.0937500000000003
 40
0.0937500000000003
 40
0.1250000000000002
 40
0.1250000000000002
 40
0.1562500000000002
 40
0.1562500000000002
 40
0.1875000000000002
 40
0.1875000000000002
 40
0.2187500000000002
 40
0.2187500000000002
 40
0.2500000000000002
 40
0.2500000000000002
 40
0.2812500000000002
 40
0.2812500000000002
 40
0.3125000000000002
 40
0.3125000000000002
 40
0.3750000000000002
 40
0.3750000000000002
 40
0.4062500000000002
 40
0.4062500000000002
 40
0.4218750000000003
 40
0.4218750000000003
 40
0.4375000000000003
 40
0.4375000000000003
 40
0.4531250000000004
 40
0.4531250000000004
 40
0.4687500000000005
 40
0.4687500000000005
 40
0.4843750000000006
 40
0.4843750000000006
 40
0.5000000000000007
 40
0.5000000000000007
 40
0.5156250000000008
 40
0.5156250000000008
 40
0.5312500000000008
 40
0.5312500000000008
 40
0.5468750000000009
 40
0.5468750000000009
 40
0.5625000000000009
 40
0.5625000000000009
 40
0.5937500000000008
 40
0.5937500000000008
 40
0.6250000000000008
 40
0.6250000000000008
 40
0.6562500000000007
 40
0.6562500000000007
 40
0.6875000000000007
 40
0.6875000000000007
 40
0.7187500000000006
 40
0.7187500000000006
 40
0.7500000000000004
 40
0.7500000000000004
 40
0.8125000000000007
 40
0.8125000000000007
 40
0.8437500000000008
 40
0.8437500000000008
 40
0.8750000000000008
 40
0.8750000000000008
 40
0.9062500000000009
 40
0.9062500000000009
 40
0.9218750000000008
 40
0.9218750000000008
 40
0.9375000000000007
 40
0.9375000000000007
 40
0.9687500000000004
 40
0.9687500000000004
 40
1.0
 40
1.0
 40
1.03125
 40
1.03125
 10
2.913148051199313
 20
7.25450783211442
 30
0.0
 10
2.928352502026485
 20
7.25450783211442
 30
0.0
 10
2.935780483383952
 20
7.254018585670298
 30
0.0
 10
2.946674034983984
 20
7.252570761081311
 30
0.0
 10
2.950288245411393
 20
7.251961655409676
 30
0.0
 10
2.957270098675572
 20
7.250522149667189
 30
0.0
 10
2.960643860883732
 20
7.249693135106226
 30
0.0
 10
2.967168701477077
 20
7.247819313683102
 30
0.0
 10
2.970319720319626
 20
7.246774464376784
 30
0.0
 10
2.976402001236405
 20
7.244462272737401
 30
0.0
 10
2.979323235464669
 20
7.243196512790485
 30
0.0
 10
2.987563820164548
 20
7.239154017152218
 30
0.0
 10
2.992439546244895
 20
7.23610735285127
 30
0.0
 10
3.001052251756672
 20
7.22928735810683
 30
0.0
 10
3.004659450497609
 20
7.225616825786574
 30
0.0
 10
3.010669234151448
 20
7.217762660721982
 30
0.0
 10
3.013075310520491
 20
7.213547445277128
 30
0.0
 10
3.016660015458307
 20
7.204842740379688
 30
0.0
 10
3.01786321693801
 20
7.200332373213446
 30
0.0
 10
3.019207975755956
 20
7.190992435406377
 30
0.0
 10
3.019339584133659
 20
7.186166654156355
 30
0.0
 10
3.01861799636806
 20
7.176450726351352
 30
0.0
 10
3.017770605310887
 20
7.171528535284065
 30
0.0
 10
3.015147290497433
 20
7.161559667204827
 30
0.0
 10
3.013357889509446
 20
7.156493763624378
 30
0.0
 10
3.006729525192165
 20
7.141507579257456
 30
0.0
 10
3.00066877536292
 20
7.131653155406884
 30
0.0
 10
2.98856813779619
 20
7.117434374517315
 30
0.0
 10
2.984107678618848
 20
7.112898035564719
 30
0.0
 10
2.976645672217754
 20
7.106511747858289
 30
0.0
 10
2.974028597070383
 20
7.104453454925152
 30
0.0
 10
2.968490401126123
 20
7.100511758546251
 30
0.0
 10
2.965571546980779
 20
7.098632892215554
 30
0.0
 10
2.959517159898206
 20
7.095177412610086
 30
0.0
 10
2.956367390286315
 20
7.093589735581896
 30
0.0
 10
2.949781848768712
 20
7.090750872846606
 30
0.0
 10
2.946313890582434
 20
7.089491207013022
 30
0.0
 10
2.939218711964006
 20
7.08744288437645
 30
0.0
 10
2.935596406484676
 20
7.08665077738616
 30
0.0
 10
2.928188573266105
 20
7.08557922539336
 30
0.0
 10
2.924362537154519
 20
7.08530275325848
 30
0.0
 10
2.91681512987078
 20
7.085318519717878
 30
0.0
 10
2.913078026718445
 20
7.08560218753009
 30
0.0
 10
2.905673912453705
 20
7.086695664624457
 30
0.0
 10
2.901982238790362
 20
7.087516043069427
 30
0.0
 10
2.894903513402707
 20
7.08958742881166
 30
0.0
 10
2.891489759257567
 20
7.090838677203255
 30
0.0
 10
2.88488146919009
 20
7.093709944279672
 30
0.0
 10
2.88168749935459
 20
7.095333546594333
 30
0.0
 10
2.872630044565582
 20
7.100543142746523
 30
0.0
 10
2.867185703747596
 20
7.10449989169801
 30
0.0
 10
2.857197303128658
 20
7.113083068261814
 30
0.0
 10
2.852723339668764
 20
7.117662953563823
 30
0.0
 10
2.844777168252343
 20
7.127034893407627
 30
0.0
 10
2.841272224701497
 20
7.131860089963144
 30
0.0
 10
2.835099060442321
 20
7.141715876609947
 30
0.0
 10
2.832433969152682
 20
7.146757593515436
 30
0.0
 10
2.828042902227041
 20
7.156754993842141
 30
0.0
 10
2.826294965765064
 20
7.161743080483081
 30
0.0
 10
2.823699460196518
 20
7.171683834227542
 30
0.0
 10
2.822851050062308
 20
7.176673761845156
 30
0.0
 10
2.821813239478616
 20
7.19126564367074
 30
0.0
 10
2.823045822882549
 20
7.200478143968705
 30
0.0
 10
2.828418233994902
 20
7.213533672325243
 30
0.0
 10
2.830827573988965
 20
7.217755434873067
 30
0.0
 10
2.836824913553184
 20
7.225597991886112
 30
0.0
 10
2.840425065984904
 20
7.229265305123549
 30
0.0
 10
2.849026991406656
 20
7.236084047194223
 30
0.0
 10
2.853922371920894
 20
7.239141842848242
 30
0.0
 10
2.862088444623734
 20
7.243155434932572
 30
0.0
 10
2.864954059853182
 20
7.244401616321938
 30
0.0
 10
2.870992415132506
 20
7.246708257338091
 30
0.0
 10
2.874192853260392
 20
7.247776100780199
 30
0.0
 10
2.88406151575483
 20
7.250619929670393
 30
0.0
 10
2.890976000822871
 20
7.252048601638186
 30
0.0
 10
2.905499525283945
 20
7.253999364037053
 30
0.0
 10
2.913148051199313
 20
7.25450783211442
 30
0.0
 10
2.928352502026485
 20
7.25450783211442
 30
0.0
  0
SPLINE
  5
1F0
330
1F
100
AcDbEntity
  8
0
  6
CONTINUOUS
 62
     7
100
AcDbSpline
210
0.0
220
0.0
230
1.0
 70
     8
 71
     3
 72
    70
 73
    66
 74
     0
 42
0.00000001
 43
0.00000001
 40
-0.0312499999999999
 40
-0.0312499999999999
 40
0.0
 40
0.0
 40
0.0312500000000004
 40
0.0312500000000004
 40
0.0468750000000006
 40
0.0468750000000006
 40
0.0625000000000008
 40
0.0625000000000008
 40
0.0937500000000008
 40
0.0937500000000008
 40
0.1250000000000008
 40
0.1250000000000008
 40
0.1875000000000011
 40
0.1875000000000011
 40
0.2187500000000011
 40
0.2187500000000011
 40
0.2500000000000012
 40
0.2500000000000012
 40
0.2812500000000012
 40
0.2812500000000012
 40
0.3125000000000012
 40
0.3125000000000012
 40
0.3437500000000012
 40
0.3437500000000012
 40
0.3750000000000012
 40
0.3750000000000012
 40
0.4062500000000012
 40
0.4062500000000012
 40
0.4375000000000012
 40
0.4375000000000012
 40
0.4687500000000013
 40
0.4687500000000013
 40
0.5000000000000012
 40
0.5000000000000012
 40
0.5312500000000013
 40
0.5312500000000013
 40
0.5625000000000012
 40
0.5625000000000012
 40
0.5937500000000012
 40
0.5937500000000012
 40
0.6250000000000011
 40
0.6250000000000011
 40
0.6562500000000011
 40
0.6562500000000011
 40
0.6875000000000011
 40
0.6875000000000011
 40
0.718750000000001
 40
0.718750000000001
 40
0.750000000000001
 40
0.750000000000001
 40
0.781250000000001
 40
0.781250000000001
 40
0.8125000000000009
 40
0.8125000000000009
 40
0.8750000000000007
 40
0.8750000000000007
 40
0.9062500000000004
 40
0.9062500000000004
 40
0.9375000000000002
 40
0.9375000000000002
 40
0.9531250000000002
 40
0.9531250000000002
 40
0.9687500000000001
 40
0.9687500000000001
 40
1.0
 40
1.0
 40
1.03125
 40
1.03125
 10
2.925289275768132
 20
6.212908552801929
 30
0.0
 10
2.916211277457666
 20
6.21290855280193
 30
0.0
 10
2.911816999943021
 20
6.212359800529485
 30
0.0
 10
2.905418193849316
 20
6.210813211017875
 30
0.0
 10
2.903319233484276
 20
6.210173713726534
 30
0.0
 10
2.899314413715719
 20
6.20871408884333
 30
0.0
 10
2.897389671022624
 20
6.20788993731317
 30
0.0
 10
2.8918236452489
 20
6.205169014297884
 30
0.0
 10
2.888402491574189
 20
6.203022758725214
 30
0.0
 10
2.882294008420704
 20
6.198408928849166
 30
0.0
 10
2.879559627288412
 20
6.195917275491531
 30
0.0
 10
2.872177629186379
 20
6.188001043545991
 30
0.0
 10
2.868559050591284
 20
6.182409281883255
 30
0.0
 10
2.864714426019051
 20
6.173763023348032
 30
0.0
 10
2.863709500866877
 20
6.170831119062791
 30
0.0
 10
2.862291993756134
 20
6.165040097228951
 30
0.0
 10
2.861869139409044
 20
6.162160401836914
 30
0.0
 10
2.861607749278042
 20
6.156434283758033
 30
0.0
 10
2.86177413205201
 20
6.153564888931072
 30
0.0
 10
2.862733179059889
 20
6.147987039861414
 30
0.0
 10
2.863518714486738
 20
6.145283063860279
 30
0.0
 10
2.865736068372768
 20
6.140042907476994
 30
0.0
 10
2.867166906620783
 20
6.137506613496587
 30
0.0
 10
2.870775616134911
 20
6.132609716584707
 30
0.0
 10
2.872953779349221
 20
6.130264285844841
 30
0.0
 10
2.87797339007535
 20
6.125962645776288
 30
0.0
 10
2.880850103347155
 20
6.123969313964596
 30
0.0
 10
2.887345889765771
 20
6.120399808202068
 30
0.0
 10
2.890872888949498
 20
6.118869552591151
 30
0.0
 10
2.898524623644831
 20
6.116325431501698
 30
0.0
 10
2.902725839797085
 20
6.115303339396737
 30
0.0
 10
2.911320824192242
 20
6.113937712961389
 30
0.0
 10
2.915733551413568
 20
6.113574182118411
 30
0.0
 10
2.924807098405215
 20
6.113525461867273
 30
0.0
 10
2.929252032621347
 20
6.11384229764221
 30
0.0
 10
2.937936279809449
 20
6.115127755390345
 30
0.0
 10
2.942148418250314
 20
6.116103303042213
 30
0.0
 10
2.949931788588672
 20
6.118594656063925
 30
0.0
 10
2.953591006153357
 20
6.120139450023414
 30
0.0
 10
2.960128270969986
 20
6.123640601315501
 30
0.0
 10
2.963062446791192
 20
6.125618618601886
 30
0.0
 10
2.968213359466016
 20
6.129932186024685
 30
0.0
 10
2.970398837611249
 20
6.132235007089393
 30
0.0
 10
2.974089828452819
 20
6.137117765035929
 30
0.0
 10
2.975592121245302
 20
6.139707331626849
 30
0.0
 10
2.97789085819917
 20
6.145004147233211
 30
0.0
 10
2.978703412231507
 20
6.147729860046717
 30
0.0
 10
2.979705120860914
 20
6.153335719830587
 30
0.0
 10
2.979887591778357
 20
6.156205586651462
 30
0.0
 10
2.97965551426148
 20
6.161950096736716
 30
0.0
 10
2.979244608930228
 20
6.164842792886234
 30
0.0
 10
2.977842588091181
 20
6.170667600732558
 30
0.0
 10
2.976842404531993
 20
6.173612746189061
 30
0.0
 10
2.973028656491481
 20
6.182258898879949
 30
0.0
 10
2.969430493517213
 20
6.187859561306273
 30
0.0
 10
2.962046465143397
 20
6.195816744679115
 30
0.0
 10
2.959308270302162
 20
6.198323119549662
 30
0.0
 10
2.953182775413473
 20
6.202967478739999
 30
0.0
 10
2.949748329353718
 20
6.205128098959788
 30
0.0
 10
2.944180858442713
 20
6.207858645854023
 30
0.0
 10
2.942254696702217
 20
6.20868635054997
 30
0.0
 10
2.938244525126839
 20
6.210153339971314
 30
0.0
 10
2.936141234801833
 20
6.210796907532617
 30
0.0
 10
2.929716591584705
 20
6.212355889666856
 30
0.0
 10
2.925289275768132
 20
6.212908552801929
 30
0.0
 10
2.916211277457666
 20
6.21290855280193
 30
0.0
  0
LINE
  5
1F1
330
1F
100
AcDbEntity
  8
0
  6
CONTINUOUS
 62
     7
100
AcDbLine
 10
3.0716689118
 20
7.2664064573
 30
0.0
 11
3.0454221926
 21
7.2664064573
 31
0.0
  0
LINE
  5
1F2
330
1F
100
AcDbEntity
  8
0
  6
CONTINUOUS
 62
     7
100
AcDbLine
 10
3.0454221926
 20
7.3412684775
 30
0.0
 11
3.0454221926
 21
6.6818196586
 31
0.0
  0
LINE
  5
1F3
330
1F
100
AcDbEntity
  8
0
  6
CONTINUOUS
 62
     7
100
AcDbLine
 10
2.8026400404
 20
6.6818196586
 30
0.0
 11
3.0454221926
 21
6.6818196586
 31
0.0
  0
LINE
  5
1F4
330
1F
100
AcDbEntity
  8
0
  6
CONTINUOUS
 62
     7
100
AcDbLine
 10
2.8026400404
 20
6.6818196586
 30
0.0
 11
2.8026400404
 21
7.3412684775
 31
0.0
  0
LINE
  5
1F5
330
1F
100
AcDbEntity
  8
0
  6
CONTINUOUS
 62
     7
100
AcDbLine
 10
2.8026400404
 20
6.0026858003
 30
0.0
 11
2.8026400404
 21
6.6621346192
 31
0.0
  0
LINE
  5
1F6
330
1F
100
AcDbEntity
  8
0
  6
CONTINUOUS
 62
     7
100
AcDbLine
 10
2.8026400404
 20
6.6621346192
 30
0.0
 11
3.0454221926
 21
6.6621346192
 31
0.0
  0
LINE
  5
1F7
330
1F
100
AcDbEntity
  8
0
  6
CONTINUOUS
 62
     7
100
AcDbLine
 10
3.0454221926
 20
6.6621346192
 30
0.0
 11
3.0454221926
 21
6.0026858003
 31
0.0
  0
LINE
  5
1F8
330
1F
100
AcDbEntity
  8
0
  6
CONTINUOUS
 62
     7
100
AcDbLine
 10
3.0454221926
 20
6.0775478206
 30
0.0
 11
3.0716689118
 21
6.0775478206
 31
0.0
  0
LINE
  5
1F9
330
1F
100
AcDbEntity
  8
0
  6
CONTINUOUS
 62
     7
100
AcDbLine
 10
3.0716689118
 20
6.0026858003
 30
0.0
 11
3.0716689118
 21
7.3412684775
 31
0.0
  0
LINE
  5
1FA
330
1F
100
AcDbEntity
  8
0
  6
CONTINUOUS
 62
     7
100
AcDbLine
 10
2.8026400404
 20
6.6818196586
 30
0.0
 11
2.7951400404
 21
6.6818196586
 31
0.0
  0
LINE
  5
1FB
330
1F
100
AcDbEntity
  8
0
  6
CONTINUOUS
 62
     7
100
AcDbLine
 10
2.7951400404
 20
6.6621346192
 30
0.0
 11
2.7951400404
 21
6.0101858003
 31
0.0
  0
LINE
  5
1FC
330
1F
100
AcDbEntity
  8
0
  6
CONTINUOUS
 62
     7
100
AcDbLine
 10
2.7951400404
 20
7.3337684775
 30
0.0
 11
2.7951400404
 21
6.6818196586
 31
0.0
  0
LINE
  5
1FD
330
1F
100
AcDbEntity
  8
0
  6
CONTINUOUS
 62
     7
100
AcDbLine
 10
2.8026400404
 20
6.6621346192
 30
0.0
 11
2.7951400404
 21
6.6621346192
 31
0.0
  0
LINE
  5
1FE
330
1F
100
AcDbEntity
  8
0
  6
CONTINUOUS
 62
     7
100
AcDbLine
 10
3.3463211428
 20
6.7589735441
 30
0.0
 11
3.306951064
 21
6.7589735441
 31
0.0
  0
LINE
  5
1FF
330
1F
100
AcDbEntity
  8
0
  6
CONTINUOUS
 62
     7
100
AcDbLine
 10
3.3463211428
 20
6.5849807338
 30
0.0
 11
3.306951064
 21
6.5849807338
 31
0.0
  0
LINE
  5
200
330
1F
100
AcDbEntity
  8
0
  6
CONTINUOUS
 62
     7
100
AcDbLine
 10
3.3463211428
 20
6.7589735441
 30
0.0
 11
3.3463211428
 21
6.5849807338
 31
0.0
  0
LINE
  5
201
330
1F
100
AcDbEntity
  8
0
  6
CONTINUOUS
 62
     7
100
AcDbLine
 10
3.306951064
 20
6.7589735441
 30
0.0
 11
3.306951064
 21
6.5849807338
 31
0.0
  0
LINE
  5
202
330
1F
100
AcDbEntity
  8
0
  6
CONTINUOUS
 62
     7
100
AcDbLine
 10
3.3463211428
 20
7.2806270874
 30
0.0
 11
3.306951064
 21
7.2806270874
 31
0.0
  0
LINE
  5
203
330
1F
100
AcDbEntity
  8
0
  6
CONTINUOUS
 62
     7
100
AcDbLine
 10
3.3463211428
 20
7.2806270874
 30
0.0
 11
3.3463211428
 21
6.7589735441
 31
0.0
  0
LINE
  5
204
330
1F
100
AcDbEntity
  8
0
  6
CONTINUOUS
 62
     7
100
AcDbLine
 10
3.306951064
 20
7.2806270874
 30
0.0
 11
3.306951064
 21
6.7589735441
 31
0.0
  0
LINE
  5
205
330
1F
100
AcDbEntity
  8
0
  6
CONTINUOUS
 62
     7
100
AcDbLine
 10
3.3463211428
 20
6.0633271904
 30
0.0
 11
3.306951064
 21
6.0633271904
 31
0.0
  0
LINE
  5
206
330
1F
100
AcDbEntity
  8
0
  6
CONTINUOUS
 62
     7
100
AcDbLine
 10
3.3463211428
 20
6.5849807338
 30
0.0
 11
3.3463211428
 21
6.0633271904
 31
0.0
  0
LINE
  5
207
330
1F
100
AcDbEntity
  8
0
  6
CONTINUOUS
 62
     7
100
AcDbLine
 10
3.306951064
 20
6.5849807338
 30
0.0
 11
3.306951064
 21
6.0633271904
 31
0.0
  0
LINE
  5
208
330
1F
100
AcDbEntity
  8
0
  6
CONTINUOUS
 62
     7
100
AcDbLine
 10
3.0454221926
 20
6.6818196586
 30
0.0
 11
3.0454221926
 21
6.6621346192
 31
0.0
  0
LINE
  5
209
330
1F
100
AcDbEntity
  8
0
  6
CONTINUOUS
 62
     7
100
AcDbLine
 10
3.3463211428
 20
7.3166621783
 30
0.0
 11
3.3463211428
 21
7.2806270874
 31
0.0
  0
LINE
  5
20A
330
1F
100
AcDbEntity
  8
0
  6
CONTINUOUS
 62
     7
100
AcDbLine
 10
3.306951064
 20
7.3166621783
 30
0.0
 11
3.306951064
 21
7.2806270874
 31
0.0
  0
LINE
  5
20B
330
1F
100
AcDbEntity
  8
0
  6
CONTINUOUS
 62
     7
100
AcDbLine
 10
3.3463211428
 20
6.0633271904
 30
0.0
 11
3.3463211428
 21
6.0272920995
 31
0.0
  0
LINE
  5
20C
330
1F
100
AcDbEntity
  8
0
  6
CONTINUOUS
 62
     7
100
AcDbLine
 10
3.306951064
 20
6.0633271904
 30
0.0
 11
3.306951064
 21
6.0272920995
 31
0.0
  0
LINE
  5
20D
330
1F
100
AcDbEntity
  8
0
  6
CONTINUOUS
 62
     7
100
AcDbLine
 10
2.7951400404
 20
6.6818196586
 30
0.0
 11
2.7951400404
 21
6.6621346192
 31
0.0
  0
LINE
  5
20E
330
1F
100
AcDbEntity
  8
0
  6
CONTINUOUS
 62
     8
100
AcDbLine
 10
2.9207502766
 20
7.1198117846
 30
0.0
 11
2.9906708267
 21
7.1198117846
 31
0.0
  0
LINE
  5
20F
330
1F
100
AcDbEntity
  8
0
  6
CONTINUOUS
 62
     8
100
AcDbLine
 10
2.8510462154
 20
7.1198117846
 30
0.0
 11
2.9207502766
 21
7.1198117846
 31
0.0
  0
CIRCLE
  5
210
330
1F
100
AcDbEntity
  8
0
  6
HIDDEN
 62
     7
100
AcDbCircle
 10
3.7325219302
 20
6.243993317
 30
0.0
 40
0.059055118110237
  0
LINE
  5
211
330
1F
100
AcDbEntity
  8
0
  6
HIDDEN
 62
     7
100
AcDbLine
 10
3.6078500141
 20
6.4852284582
 30
0.0
 11
3.8506321664
 21
6.4852284582
 31
0.0
  0
LINE
  5
212
330
1F
100
AcDbEntity
  8
0
  6
HIDDEN
 62
     7
100
AcDbLine
 10
3.8506321664
 20
6.8587258196
 30
0.0
 11
3.6913610489
 21
6.8587258196
 31
0.0
  0
POLYLINE
  5
213
330
1F
100
AcDbEntity
  8
0
  6
HIDDEN
 62
     7
100
AcDb2dPolyline
 66
     1
 10
0.0
 20
0.0
 30
0.0
  0
VERTEX
  5
2C6
330
213
100
AcDbEntity
  8
0
  6
HIDDEN
 62
     7
100
AcDbVertex
100
AcDb2dVertex
 10
3.6913610489
 20
6.8587258196
 30
0.0
  0
VERTEX
  5
2C7
330
213
100
AcDbEntity
  8
0
  6
HIDDEN
 62
     7
100
AcDbVertex
100
AcDb2dVertex
 10
3.6913610489
 20
6.8587258196
 30
0.0
  0
SEQEND
  5
2C8
330
213
100
AcDbEntity
  8
0
  6
HIDDEN
 62
     7
  0
ARC
  5
214
330
1F
100
AcDbEntity
  8
0
  6
HIDDEN
 62
     7
100
AcDbCircle
 10
3.8581321664
 20
6.6721017319
 30
0.0
 40
0.2502821522309713
100
AcDbArc
 50
90.0
 51
131.7846280018
  0
LINE
  5
215
330
1F
100
AcDbEntity
  8
0
  6
HIDDEN
 62
     7
100
AcDbLine
 10
3.8506321664
 20
6.8587258196
 30
0.0
 11
3.8581321664
 21
6.8662358269
 31
0.0
  0
LINE
  5
216
330
1F
100
AcDbEntity
  8
0
  6
HIDDEN
 62
     7
100
AcDbLine
 10
3.8581321664
 20
6.4777184509
 30
0.0
 11
3.8506321664
 21
6.4852284582
 31
0.0
  0
CIRCLE
  5
217
330
1F
100
AcDbEntity
  8
0
  6
HIDDEN
 62
     7
100
AcDbCircle
 10
3.7325219302
 20
6.243993317
 30
0.0
 40
0.0492125984251963
  0
LINE
  5
218
330
1F
100
AcDbEntity
  8
0
  6
HIDDEN
 62
     7
100
AcDbLine
 10
2.9207502766
 20
7.0115440681
 30
0.0
 11
2.8223250798
 21
7.0115440681
 31
0.0
  0
LINE
  5
219
330
1F
100
AcDbEntity
  8
0
  6
HIDDEN
 62
     7
100
AcDbLine
 10
3.0191754735
 20
7.0115440681
 30
0.0
 11
2.9207502766
 21
7.0115440681
 31
0.0
  0
LINE
  5
21A
330
1F
100
AcDbEntity
  8
0
  6
HIDDEN
 62
     7
100
AcDbLine
 10
2.8429927186
 20
7.1296543043
 30
0.0
 11
2.8321675994
 21
7.1296543043
 31
0.0
  0
LINE
  5
21B
330
1F
100
AcDbEntity
  8
0
  6
HIDDEN
 62
     7
100
AcDbLine
 10
3.0093329538
 20
7.1296543043
 30
0.0
 11
2.998234591
 21
7.1296543043
 31
0.0
  0
LINE
  5
21C
330
1F
100
AcDbEntity
  8
0
  6
HIDDEN
 62
     7
100
AcDbLine
 10
2.8617430523
 20
6.2536700523
 30
0.0
 11
2.9797575009
 21
6.2536700523
 31
0.0
  0
LINE
  5
21D
330
1F
100
AcDbEntity
  8
0
  6
HIDDEN
 62
     7
100
AcDbLine
 10
2.8715376782
 20
6.2438275326
 30
0.0
 11
2.969962875
 21
6.2438275326
 31
0.0
  0
LINE
  5
21E
330
1F
100
AcDbEntity
  8
0
  6
HIDDEN
 62
     7
100
AcDbLine
 10
2.9207502766
 20
7.0509141468
 30
0.0
 11
2.9207502766
 21
7.1296543043
 31
0.0
  0
LINE
  5
21F
330
1F
100
AcDbEntity
  8
0
  6
HIDDEN
 62
     7
100
AcDbLine
 10
2.969962875
 20
7.0509141468
 30
0.0
 11
2.9207502766
 21
7.0509141468
 31
0.0
  0
LINE
  5
220
330
1F
100
AcDbEntity
  8
0
  6
HIDDEN
 62
     7
100
AcDbLine
 10
2.9207502766
 20
7.0509141468
 30
0.0
 11
2.8715376782
 21
7.0509141468
 31
0.0
  0
LINE
  5
221
330
1F
100
AcDbEntity
  8
0
  6
HIDDEN
 62
     7
100
AcDbLine
 10
2.969962875
 20
7.0509141468
 30
0.0
 11
2.969962875
 21
7.1296543043
 31
0.0
  0
LINE
  5
222
330
1F
100
AcDbEntity
  8
0
  6
HIDDEN
 62
     7
100
AcDbLine
 10
2.8715376782
 20
7.0509141468
 30
0.0
 11
2.8715376782
 21
7.1296543043
 31
0.0
  0
LINE
  5
223
330
1F
100
AcDbEntity
  8
0
  6
HIDDEN
 62
     7
100
AcDbLine
 10
2.8026400404
 20
6.6818196586
 30
0.0
 11
2.8026400404
 21
6.6621346192
 31
0.0
  0
SPLINE
  5
224
330
1F
100
AcDbEntity
  8
0
  6
HIDDEN
 62
     7
100
AcDbSpline
210
0.0
220
0.0
230
1.0
 70
     8
 71
     3
 72
     8
 73
     4
 74
     0
 42
0.00000001
 43
0.00000001
 40
0.0
 40
0.0
 40
0.0
 40
0.0
 40
1.0
 40
1.0
 40
1.0
 40
1.0
 10
2.961911157834854
 20
6.681819658601465
 30
0.0
 10
2.961524158123047
 20
6.675257978811439
 30
0.0
 10
2.961524158123047
 20
6.668696299021413
 30
0.0
 10
2.961911157834854
 20
6.662134619231386
 30
0.0
  0
LINE
  5
225
330
1F
100
AcDbEntity
  8
0
  6
HIDDEN
 62
     7
100
AcDbLine
 10
3.3463211428
 20
7.2806270874
 30
0.0
 11
3.306951064
 21
7.2806270874
 31
0.0
  0
LINE
  5
226
330
1F
100
AcDbEntity
  8
0
  6
HIDDEN
 62
     7
100
AcDbLine
 10
3.3463211428
 20
6.0633271904
 30
0.0
 11
3.306951064
 21
6.0633271904
 31
0.0
  0
LINE
  5
227
330
1F
100
AcDbEntity
  8
0
  6
HIDDEN
 62
     7
100
AcDbLine
 10
3.3463211428
 20
6.5849807338
 30
0.0
 11
3.306951064
 21
6.5849807338
 31
0.0
  0
LINE
  5
228
330
1F
100
AcDbEntity
  8
0
  6
HIDDEN
 62
     7
100
AcDbLine
 10
3.3463211428
 20
6.7589735441
 30
0.0
 11
3.306951064
 21
6.7589735441
 31
0.0
  0
LINE
  5
229
330
1F
100
AcDbEntity
  8
0
  6
HIDDEN
 62
     7
100
AcDbLine
 10
3.6913610489
 20
6.8589850129
 30
0.0
 11
3.6078500141
 21
6.8589850129
 31
0.0
  0
LINE
  5
22A
330
1F
100
AcDbEntity
  8
0
  6
HIDDEN
 62
     7
100
AcDbLine
 10
3.581603295
 20
6.8589850129
 30
0.0
 11
3.3856912215
 21
6.8589850129
 31
0.0
  0
LINE
  5
22B
330
1F
100
AcDbEntity
  8
0
  6
HIDDEN
 62
     7
100
AcDbLine
 10
3.3856912215
 20
6.4849692649
 30
0.0
 11
3.581603295
 21
6.4849692649
 31
0.0
  0
LINE
  5
22C
330
1F
100
AcDbEntity
  8
0
  6
HIDDEN
 62
     7
100
AcDbLine
 10
3.0191754735
 20
7.0115440681
 30
0.0
 11
3.0191754735
 21
7.1198117846
 31
0.0
  0
LINE
  5
22D
330
1F
100
AcDbEntity
  8
0
  6
HIDDEN
 62
     7
100
AcDbLine
 10
2.8223250798
 20
7.1198117846
 30
0.0
 11
2.8223250798
 21
7.0115440681
 31
0.0
  0
ARC
  5
22E
330
1F
100
AcDbEntity
  8
0
  6
HIDDEN
 62
     7
100
AcDbCircle
 10
2.8321675994
 20
7.1198117846
 30
0.0
 40
0.0098425196850407
100
AcDbArc
 50
90.0
 51
180.0
  0
ARC
  5
22F
330
1F
100
AcDbEntity
  8
0
  6
HIDDEN
 62
     7
100
AcDbCircle
 10
3.0093329538
 20
7.1198117846
 30
0.0
 40
0.0098425196850407
100
AcDbArc
 50
0.0
 51
90.0
  0
LINE
  5
230
330
1F
100
AcDbEntity
  8
0
  6
HIDDEN
 62
     7
100
AcDbLine
 10
2.8616951585
 20
7.0115440681
 30
0.0
 11
2.8616951585
 21
6.6818196586
 31
0.0
  0
LINE
  5
231
330
1F
100
AcDbEntity
  8
0
  6
HIDDEN
 62
     7
100
AcDbLine
 10
2.8616951585
 20
6.6621346192
 30
0.0
 11
2.8616951585
 21
6.2536700523
 31
0.0
  0
LINE
  5
232
330
1F
100
AcDbEntity
  8
0
  6
HIDDEN
 62
     7
100
AcDbLine
 10
2.9798053947
 20
6.2536700523
 30
0.0
 11
2.9798053947
 21
6.6621346192
 31
0.0
  0
LINE
  5
233
330
1F
100
AcDbEntity
  8
0
  6
HIDDEN
 62
     7
100
AcDbLine
 10
2.9798053947
 20
6.6818196586
 30
0.0
 11
2.9798053947
 21
7.0115440681
 31
0.0
  0
ARC
  5
234
330
1F
100
AcDbEntity
  8
0
  6
HIDDEN
 62
     7
100
AcDbCircle
 10
2.969962875
 20
6.2536700523
 30
0.0
 40
0.0098425196850398
100
AcDbArc
 50
270.0
 51
0.0
  0
ARC
  5
235
330
1F
100
AcDbEntity
  8
0
  6
HIDDEN
 62
     7
100
AcDbCircle
 10
2.8715376782
 20
6.2536700523
 30
0.0
 40
0.0098425196850398
100
AcDbArc
 50
180.0
 51
270.0
  0
LINE
  5
236
330
1F
100
AcDbEntity
  8
0
  6
HIDDEN
 62
     7
100
AcDbLine
 10
3.0191754735
 20
7.0115440681
 30
0.0
 11
3.0191754735
 21
7.1864336637
 31
0.0
  0
LINE
  5
237
330
1F
100
AcDbEntity
  8
0
  6
HIDDEN
 62
     7
100
AcDbLine
 10
2.8223250798
 20
7.1864717006
 30
0.0
 11
2.8223250798
 21
7.0115440681
 31
0.0
  0
LINE
  5
238
330
1F
100
AcDbEntity
  8
0
  6
HIDDEN
 62
     7
100
AcDbLine
 10
2.8616951585
 20
6.6621346192
 30
0.0
 11
2.8616951585
 21
6.1574638885
 31
0.0
  0
LINE
  5
239
330
1F
100
AcDbEntity
  8
0
  6
HIDDEN
 62
     7
100
AcDbLine
 10
2.9798053947
 20
6.1574636563
 30
0.0
 11
2.9798053947
 21
6.6621346192
 31
0.0
  0
LINE
  5
23A
330
1F
100
AcDbEntity
  8
0
  6
HIDDEN
 62
     7
100
AcDbLine
 10
2.8616951585
 20
7.0115440681
 30
0.0
 11
2.8616951585
 21
6.6818196586
 31
0.0
  0
LINE
  5
23B
330
1F
100
AcDbEntity
  8
0
  6
HIDDEN
 62
     7
100
AcDbLine
 10
2.9798053947
 20
6.6818196586
 30
0.0
 11
2.9798053947
 21
7.0115440681
 31
0.0
  0
LINE
  5
23C
330
1F
100
AcDbEntity
  8
0
  6
HIDDEN
 62
     7
100
AcDbLine
 10
3.3463211428
 20
6.8983550917
 30
0.0
 11
3.306951064
 21
6.8983550917
 31
0.0
  0
LINE
  5
23D
330
1F
100
AcDbEntity
  8
0
  6
HIDDEN
 62
     7
100
AcDbLine
 10
3.306951064
 20
6.4455991862
 30
0.0
 11
3.3463211428
 21
6.4455991862
 31
0.0
  0
LINE
  5
23E
330
1F
100
AcDbEntity
  8
0
  6
HIDDEN
 62
     7
100
AcDbLine
 10
2.8026400404
 20
6.8589850129
 30
0.0
 11
2.7951400404
 21
6.8664850129
 31
0.0
  0
LINE
  5
23F
330
1F
100
AcDbEntity
  8
0
  6
HIDDEN
 62
     7
100
AcDbLine
 10
2.7951400404
 20
6.4774692649
 30
0.0
 11
2.8026400404
 21
6.4849692649
 31
0.0
  0
LINE
  5
240
330
1F
100
AcDbEntity
  8
0
  6
HIDDEN
 62
     7
100
AcDbLine
 10
3.0716689118
 20
6.4849692649
 30
0.0
 11
3.2675809853
 21
6.4849692649
 31
0.0
  0
LINE
  5
241
330
1F
100
AcDbEntity
  8
0
  6
HIDDEN
 62
     7
100
AcDbLine
 10
3.2675809853
 20
6.8589850129
 30
0.0
 11
3.0716689118
 21
6.8589850129
 31
0.0
  0
LINE
  5
242
330
1F
100
AcDbEntity
  8
0
  6
HIDDEN
 62
     7
100
AcDbLine
 10
2.8026400404
 20
6.4849692649
 30
0.0
 11
3.0454221926
 21
6.4849692649
 31
0.0
  0
LINE
  5
243
330
1F
100
AcDbEntity
  8
0
  6
HIDDEN
 62
     7
100
AcDbLine
 10
3.0454221926
 20
6.8589850129
 30
0.0
 11
2.8026400404
 21
6.8589850129
 31
0.0
  0
LINE
  5
244
330
1F
100
AcDbEntity
  8
0
  6
HIDDEN
 62
     7
100
AcDbLine
 10
2.8223717609
 20
7.1198117846
 30
0.0
 11
3.0191287923
 21
7.1198117846
 31
0.0
  0
LINE
  5
245
330
1F
100
AcDbEntity
  8
0
  6
CONTINUOUS
 62
     7
100
AcDbLine
 10
8.5441384766
 20
6.0920903793
 30
0.0
 11
8.5494409155
 21
6.0951524073
 31
0.0
  0
LINE
  5
246
330
1F
100
AcDbEntity
  8
0
  6
CONTINUOUS
 62
     7
100
AcDbLine
 10
9.0173220026
 20
6.9056340393
 30
0.0
 11
9.0173220026
 21
6.9117571001
 31
0.0
  0
LINE
  5
247
330
1F
100
AcDbEntity
  8
0
  6
CONTINUOUS
 62
     7
100
AcDbLine
 10
8.1526728455
 20
6.0916834204
 30
0.0
 11
8.2094430849
 21
6.0589106588
 31
0.0
  0
LINE
  5
248
330
1F
100
AcDbEntity
  8
0
  6
CONTINUOUS
 62
     7
100
AcDbLine
 10
8.0377701787
 20
6.158015318
 30
0.0
 11
8.0991327869
 21
6.1225914383
 31
0.0
  0
LINE
  5
249
330
1F
100
AcDbEntity
  8
0
  6
CONTINUOUS
 62
     7
100
AcDbLine
 10
7.88068019
 20
6.2487014382
 30
0.0
 11
8.0192109456
 21
6.1687293352
 31
0.0
  0
LINE
  5
24A
330
1F
100
AcDbEntity
  8
0
  6
CONTINUOUS
 62
     7
100
AcDbLine
 10
8.878680032
 20
7.2181886635
 30
0.0
 11
8.549917137
 21
7.407979443
 31
0.0
  0
SPLINE
  5
24B
330
1F
100
AcDbEntity
  8
0
  6
CONTINUOUS
 62
     7
100
AcDbSpline
210
0.0
220
0.0
230
1.0
 70
     8
 71
     3
 72
    29
 73
    25
 74
     0
 42
0.00000001
 43
0.00000001
 40
0.0
 40
0.0
 40
0.0
 40
0.0
 40
0.0322358790966516
 40
0.0785861225075805
 40
0.125253101597718
 40
0.1719759299998917
 40
0.2186257946579336
 40
0.2651747243722863
 40
0.3116324941343332
 40
0.3580268766091808
 40
0.4043935388214496
 40
0.450771560815308
 40
0.4971897818469712
 40
0.5436882002345799
 40
0.5903078287083057
 40
0.6370854736614961
 40
0.6840448832382952
 40
0.7311779435087753
 40
0.7783931279108174
 40
0.8254266291433752
 40
0.871905552728364
 40
0.9174267832115222
 40
0.9617831454093771
 40
1.0
 40
1.0
 40
1.0
 40
1.0
 10
8.239246534395807
 20
6.912333978700356
 30
0.0
 10
8.237715882248265
 20
6.913717049618709
 30
0.0
 10
8.233984387387444
 20
6.91708876410804
 30
0.0
 10
8.226857967900823
 20
6.921772548170627
 30
0.0
 10
8.218139878000692
 20
6.926430053448323
 30
0.0
 10
8.20855778086051
 20
6.930388483432883
 30
0.0
 10
8.198311008454173
 20
6.933626225727464
 30
0.0
 10
8.187533441202325
 20
6.936102904380348
 30
0.0
 10
8.176373786019498
 20
6.937797746332813
 30
0.0
 10
8.164977186533845
 20
6.938695300328668
 30
0.0
 10
8.153490912995496
 20
6.938788000490404
 30
0.0
 10
8.14206297418719
 20
6.938075233407599
 30
0.0
 10
8.130840236361403
 20
6.936563605815697
 30
0.0
 10
8.119966488551974
 20
6.934266386423824
 30
0.0
 10
8.109580277314178
 20
6.931202301793439
 30
0.0
 10
8.09981530768679
 20
6.927394518945782
 30
0.0
 10
8.09080127646733
 20
6.922869987082803
 30
0.0
 10
8.082667866721062
 20
6.917660918693693
 30
0.0
 10
8.075549374822684
 20
6.911812086086644
 30
0.0
 10
8.069587701699843
 20
6.905391193973749
 30
0.0
 10
8.064899595912854
 20
6.898500927562087
 30
0.0
 10
8.061631362360522
 20
6.891280715047971
 30
0.0
 10
8.059731075997371
 20
6.884179585526288
 30
0.0
 10
8.059616122398712
 20
6.879507514969907
 30
0.0
 10
8.059562919130926
 20
6.877345169259823
 30
0.0
  0
LINE
  5
24C
330
1F
100
AcDbEntity
  8
0
  6
CONTINUOUS
 62
     7
100
AcDbLine
 10
8.0594895499
 20
6.8777332718
 30
0.0
 11
8.0594895499
 21
6.8708752322
 31
0.0
  0
SPLINE
  5
24D
330
1F
100
AcDbEntity
  8
0
  6
CONTINUOUS
 62
     7
100
AcDbSpline
210
0.0
220
0.0
230
1.0
 70
     8
 71
     3
 72
    18
 73
    14
 74
     0
 42
0.00000001
 43
0.00000001
 40
0.0
 40
0.0
 40
0.0
 40
0.0
 40
0.0895633997519441
 40
0.1871890354672419
 40
0.2871237609464564
 40
0.3878612396077155
 40
0.4883928911162722
 40
0.5885645430577848
 40
0.6884861617752345
 40
0.7883716691557827
 40
0.8884406194758693
 40
0.9889103527320553
 40
1.0
 40
1.0
 40
1.0
 40
1.0
 10
7.548543681266132
 20
7.232060111772499
 30
0.0
 10
7.547928215280399
 20
7.230047208885066
 30
0.0
 10
7.546641880856385
 20
7.225840207464491
 30
0.0
 10
7.545977001047209
 20
7.218731018306046
 30
0.0
 10
7.546237262265032
 20
7.210992311646957
 30
0.0
 10
7.547545275747026
 20
7.202882337031942
 30
0.0
 10
7.549822163527598
 20
7.194640581231284
 30
0.0
 10
7.553001499497914
 20
7.186458454585781
 30
0.0
 10
7.557002170330706
 20
7.178518771882328
 30
0.0
 10
7.561723555545805
 20
7.170952718607276
 30
0.0
 10
7.567117773059812
 20
7.164037091385696
 30
0.0
 10
7.571182682290251
 20
7.159431813356556
 30
0.0
 10
7.573513787068527
 20
7.157456245930902
 30
0.0
 10
7.573745512357913
 20
7.157259863109469
 30
0.0
  0
LINE
  5
24E
330
1F
100
AcDbEntity
  8
0
  6
CONTINUOUS
 62
     7
100
AcDbLine
 10
8.1539940843
 20
7.635646426
 30
0.0
 11
8.1538382039
 21
7.6355564382
 31
0.0
  0
SPLINE
  5
24F
330
1F
100
AcDbEntity
  8
0
  6
CONTINUOUS
 62
     7
100
AcDbSpline
210
0.0
220
0.0
230
1.0
 70
     8
 71
     3
 72
    23
 73
    19
 74
     0
 42
0.00000001
 43
0.00000001
 40
0.0
 40
0.0
 40
0.0
 40
0.0
 40
0.0134414506924712
 40
0.0858204294448721
 40
0.1582289901771983
 40
0.2307124328267749
 40
0.3033356549278565
 40
0.3761618633156613
 40
0.4492454911492614
 40
0.5113282218182197
 40
0.550375881956454
 40
0.6239606860356703
 40
0.697552378949246
 40
0.7705317408208184
 40
0.8422526569991995
 40
0.9122255948981292
 40
0.9804551552652018
 40
1.0
 40
1.0
 40
1.0
 40
1.0
 10
8.25914394164224
 20
7.575101098700767
 30
0.0
 10
8.258832766162557
 20
7.575735558157145
 30
0.0
 10
8.256845985575398
 20
7.579786429172303
 30
0.0
 10
8.252461031292453
 20
7.586943662571386
 30
0.0
 10
8.246043631241607
 20
7.596386009131157
 30
0.0
 10
8.23898754688217
 20
7.605197365803236
 30
0.0
 10
8.231462804915068
 20
7.61329524122181
 30
0.0
 10
8.22353222797855
 20
7.620561418837474
 30
0.0
 10
8.215713238904225
 20
7.626569654519465
 30
0.0
 10
8.209021919800808
 20
7.630831701448039
 30
0.0
 10
8.202248860914134
 20
7.634490015707578
 30
0.0
 10
8.194975851673115
 20
7.637635783525726
 30
0.0
 10
8.186386815775732
 20
7.640112231324535
 30
0.0
 10
8.177968659679834
 20
7.641256685645343
 30
0.0
 10
8.169871689786309
 20
7.641063964421926
 30
0.0
 10
8.16233769979416
 20
7.639436567225449
 30
0.0
 10
8.156895312134509
 20
7.637464877692453
 30
0.0
 10
8.154255755272214
 20
7.635689848621592
 30
0.0
 10
8.153668001598664
 20
7.635294600513109
 30
0.0
  0
LINE
  5
250
330
1F
100
AcDbEntity
  8
0
  6
CONTINUOUS
 62
     7
100
AcDbLine
 10
8.1548404125
 20
7.6360523813
 30
0.0
 11
8.1376376931
 21
7.6459832999
 31
0.0
  0
LINE
  5
251
330
1F
100
AcDbEntity
  8
0
  6
CONTINUOUS
 62
     7
100
AcDbLine
 10
8.3093105993
 20
7.5468786407
 30
0.0
 11
8.282660473
 21
7.5622634311
 31
0.0
  0
LINE
  5
252
330
1F
100
AcDbEntity
  8
0
  6
CONTINUOUS
 62
     7
100
AcDbLine
 10
8.466400588
 20
7.4561925205
 30
0.0
 11
8.3278698324
 21
7.5361646235
 31
0.0
  0
LINE
  5
253
330
1F
100
AcDbEntity
  8
0
  6
CONTINUOUS
 62
     7
100
AcDbLine
 10
7.468400746
 20
6.4867052952
 30
0.0
 11
7.797163641
 21
6.2969145157
 31
0.0
  0
LINE
  5
254
330
1F
100
AcDbEntity
  8
0
  6
CONTINUOUS
 62
     7
100
AcDbLine
 10
7.3297587754
 20
6.7992599194
 30
0.0
 11
7.3297587754
 21
6.7931368585
 31
0.0
  0
POLYLINE
  5
255
330
1F
100
AcDbEntity
  8
0
  6
CONTINUOUS
 62
     7
100
AcDb2dPolyline
 66
     1
 10
0.0
 20
0.0
 30
0.0
  0
VERTEX
  5
2C9
330
255
100
AcDbEntity
  8
0
  6
CONTINUOUS
 62
     7
100
AcDbVertex
100
AcDb2dVertex
 10
8.0814594732
 20
6.3573352819
 30
0.0
  0
VERTEX
  5
2CA
330
255
100
AcDbEntity
  8
0
  6
CONTINUOUS
 62
     7
100
AcDbVertex
100
AcDb2dVertex
 10
8.0823140359
 20
6.3322497966
 30
0.0
  0
VERTEX
  5
2CB
330
255
100
AcDbEntity
  8
0
  6
CONTINUOUS
 62
     7
100
AcDbVertex
100
AcDb2dVertex
 10
8.0842166266
 20
6.3078447561
 30
0.0
  0
VERTEX
  5
2CC
330
255
100
AcDbEntity
  8
0
  6
CONTINUOUS
 62
     7
100
AcDbVertex
100
AcDb2dVertex
 10
8.0871629761
 20
6.2841749235
 30
0.0
  0
VERTEX
  5
2CD
330
255
100
AcDbEntity
  8
0
  6
CONTINUOUS
 62
     7
100
AcDbVertex
100
AcDb2dVertex
 10
8.091146473
 20
6.2612934121
 30
0.0
  0
VERTEX
  5
2CE
330
255
100
AcDbEntity
  8
0
  6
CONTINUOUS
 62
     7
100
AcDbVertex
100
AcDb2dVertex
 10
8.0961581785
 20
6.2392515664
 30
0.0
  0
VERTEX
  5
2CF
330
255
100
AcDbEntity
  8
0
  6
CONTINUOUS
 62
     7
100
AcDbVertex
100
AcDb2dVertex
 10
8.1021868469
 20
6.2180988468
 30
0.0
  0
VERTEX
  5
2D0
330
255
100
AcDbEntity
  8
0
  6
CONTINUOUS
 62
     7
100
AcDbVertex
100
AcDb2dVertex
 10
8.1092189501
 20
6.1978827183
 30
0.0
  0
VERTEX
  5
2D1
330
255
100
AcDbEntity
  8
0
  6
CONTINUOUS
 62
     7
100
AcDbVertex
100
AcDb2dVertex
 10
8.1172387088
 20
6.1786485445
 30
0.0
  0
VERTEX
  5
2D2
330
255
100
AcDbEntity
  8
0
  6
CONTINUOUS
 62
     7
100
AcDbVertex
100
AcDb2dVertex
 10
8.1262281271
 20
6.1604394854
 30
0.0
  0
VERTEX
  5
2D3
330
255
100
AcDbEntity
  8
0
  6
CONTINUOUS
 62
     7
100
AcDbVertex
100
AcDb2dVertex
 10
8.1361670334
 20
6.143296401
 30
0.0
  0
VERTEX
  5
2D4
330
255
100
AcDbEntity
  8
0
  6
CONTINUOUS
 62
     7
100
AcDbVertex
100
AcDb2dVertex
 10
8.1470331255
 20
6.1272577589
 30
0.0
  0
VERTEX
  5
2D5
330
255
100
AcDbEntity
  8
0
  6
CONTINUOUS
 62
     7
100
AcDbVertex
100
AcDb2dVertex
 10
8.1588020208
 20
6.1123595488
 30
0.0
  0
VERTEX
  5
2D6
330
255
100
AcDbEntity
  8
0
  6
CONTINUOUS
 62
     7
100
AcDbVertex
100
AcDb2dVertex
 10
8.1714473106
 20
6.0986352012
 30
0.0
  0
VERTEX
  5
2D7
330
255
100
AcDbEntity
  8
0
  6
CONTINUOUS
 62
     7
100
AcDbVertex
100
AcDb2dVertex
 10
8.1849406199
 20
6.0861155125
 30
0.0
  0
VERTEX
  5
2D8
330
255
100
AcDbEntity
  8
0
  6
CONTINUOUS
 62
     7
100
AcDbVertex
100
AcDb2dVertex
 10
8.1992516707
 20
6.0748285759
 30
0.0
  0
VERTEX
  5
2D9
330
255
100
AcDbEntity
  8
0
  6
CONTINUOUS
 62
     7
100
AcDbVertex
100
AcDb2dVertex
 10
8.21434835
 20
6.0647997186
 30
0.0
  0
VERTEX
  5
2DA
330
255
100
AcDbEntity
  8
0
  6
CONTINUOUS
 62
     7
100
AcDbVertex
100
AcDb2dVertex
 10
8.2301967819
 20
6.0560514445
 30
0.0
  0
VERTEX
  5
2DB
330
255
100
AcDbEntity
  8
0
  6
CONTINUOUS
 62
     7
100
AcDbVertex
100
AcDb2dVertex
 10
8.2467614038
 20
6.0486033841
 30
0.0
  0
VERTEX
  5
2DC
330
255
100
AcDbEntity
  8
0
  6
CONTINUOUS
 62
     7
100
AcDbVertex
100
AcDb2dVertex
 10
8.2640050458
 20
6.0424722504
 30
0.0
  0
VERTEX
  5
2DD
330
255
100
AcDbEntity
  8
0
  6
CONTINUOUS
 62
     7
100
AcDbVertex
100
AcDb2dVertex
 10
8.2818890144
 20
6.0376718012
 30
0.0
  0
VERTEX
  5
2DE
330
255
100
AcDbEntity
  8
0
  6
CONTINUOUS
 62
     7
100
AcDbVertex
100
AcDb2dVertex
 10
8.3003731794
 20
6.0342128083
 30
0.0
  0
VERTEX
  5
2DF
330
255
100
AcDbEntity
  8
0
  6
CONTINUOUS
 62
     7
100
AcDbVertex
100
AcDb2dVertex
 10
8.3194160635
 20
6.0321030334
 30
0.0
  0
VERTEX
  5
2E0
330
255
100
AcDbEntity
  8
0
  6
CONTINUOUS
 62
     7
100
AcDbVertex
100
AcDb2dVertex
 10
8.3389749361
 20
6.0313472108
 30
0.0
  0
VERTEX
  5
2E1
330
255
100
AcDbEntity
  8
0
  6
CONTINUOUS
 62
     7
100
AcDbVertex
100
AcDb2dVertex
 10
8.3590059083
 20
6.0319470364
 30
0.0
  0
VERTEX
  5
2E2
330
255
100
AcDbEntity
  8
0
  6
CONTINUOUS
 62
     7
100
AcDbVertex
100
AcDb2dVertex
 10
8.3794640321
 20
6.0339011643
 30
0.0
  0
VERTEX
  5
2E3
330
255
100
AcDbEntity
  8
0
  6
CONTINUOUS
 62
     7
100
AcDbVertex
100
AcDb2dVertex
 10
8.400303401
 20
6.0372052095
 30
0.0
  0
VERTEX
  5
2E4
330
255
100
AcDbEntity
  8
0
  6
CONTINUOUS
 62
     7
100
AcDbVertex
100
AcDb2dVertex
 10
8.421477253
 20
6.0418517581
 30
0.0
  0
VERTEX
  5
2E5
330
255
100
AcDbEntity
  8
0
  6
CONTINUOUS
 62
     7
100
AcDbVertex
100
AcDb2dVertex
 10
8.4429380755
 20
6.0478303835
 30
0.0
  0
VERTEX
  5
2E6
330
255
100
AcDbEntity
  8
0
  6
CONTINUOUS
 62
     7
100
AcDbVertex
100
AcDb2dVertex
 10
8.4646377119
 20
6.0551276701
 30
0.0
  0
VERTEX
  5
2E7
330
255
100
AcDbEntity
  8
0
  6
CONTINUOUS
 62
     7
100
AcDbVertex
100
AcDb2dVertex
 10
8.4865274698
 20
6.0637272433
 30
0.0
  0
VERTEX
  5
2E8
330
255
100
AcDbEntity
  8
0
  6
CONTINUOUS
 62
     7
100
AcDbVertex
100
AcDb2dVertex
 10
8.5085582303
 20
6.0736098063
 30
0.0
  0
VERTEX
  5
2E9
330
255
100
AcDbEntity
  8
0
  6
CONTINUOUS
 62
     7
100
AcDbVertex
100
AcDb2dVertex
 10
8.5306805579
 20
6.0847531834
 30
0.0
  0
VERTEX
  5
2EA
330
255
100
AcDbEntity
  8
0
  6
CONTINUOUS
 62
     7
100
AcDbVertex
100
AcDb2dVertex
 10
8.5528448117
 20
6.0971323696
 30
0.0
  0
VERTEX
  5
2EB
330
255
100
AcDbEntity
  8
0
  6
CONTINUOUS
 62
     7
100
AcDbVertex
100
AcDb2dVertex
 10
8.5750012568
 20
6.110719587
 30
0.0
  0
VERTEX
  5
2EC
330
255
100
AcDbEntity
  8
0
  6
CONTINUOUS
 62
     7
100
AcDbVertex
100
AcDb2dVertex
 10
8.5971001756
 20
6.1254843467
 30
0.0
  0
VERTEX
  5
2ED
330
255
100
AcDbEntity
  8
0
  6
CONTINUOUS
 62
     7
100
AcDbVertex
100
AcDb2dVertex
 10
8.6190919799
 20
6.1413935178
 30
0.0
  0
VERTEX
  5
2EE
330
255
100
AcDbEntity
  8
0
  6
CONTINUOUS
 62
     7
100
AcDbVertex
100
AcDb2dVertex
 10
8.6409273216
 20
6.1584114013
 30
0.0
  0
VERTEX
  5
2EF
330
255
100
AcDbEntity
  8
0
  6
CONTINUOUS
 62
     7
100
AcDbVertex
100
AcDb2dVertex
 10
8.6625572038
 20
6.1764998102
 30
0.0
  0
VERTEX
  5
2F0
330
255
100
AcDbEntity
  8
0
  6
CONTINUOUS
 62
     7
100
AcDbVertex
100
AcDb2dVertex
 10
8.6839330906
 20
6.1956181555
 30
0.0
  0
VERTEX
  5
2F1
330
255
100
AcDbEntity
  8
0
  6
CONTINUOUS
 62
     7
100
AcDbVertex
100
AcDb2dVertex
 10
8.7050070161
 20
6.215723537
 30
0.0
  0
VERTEX
  5
2F2
330
255
100
AcDbEntity
  8
0
  6
CONTINUOUS
 62
     7
100
AcDbVertex
100
AcDb2dVertex
 10
8.7257316919
 20
6.2367708397
 30
0.0
  0
VERTEX
  5
2F3
330
255
100
AcDbEntity
  8
0
  6
CONTINUOUS
 62
     7
100
AcDbVertex
100
AcDb2dVertex
 10
8.7460606134
 20
6.258712835
 30
0.0
  0
VERTEX
  5
2F4
330
255
100
AcDbEntity
  8
0
  6
CONTINUOUS
 62
     7
100
AcDbVertex
100
AcDb2dVertex
 10
8.7659481639
 20
6.2815002866
 30
0.0
  0
VERTEX
  5
2F5
330
255
100
AcDbEntity
  8
0
  6
CONTINUOUS
 62
     7
100
AcDbVertex
100
AcDb2dVertex
 10
8.7853497173
 20
6.3050820611
 30
0.0
  0
VERTEX
  5
2F6
330
255
100
AcDbEntity
  8
0
  6
CONTINUOUS
 62
     7
100
AcDbVertex
100
AcDb2dVertex
 10
8.8042217378
 20
6.3294052429
 30
0.0
  0
VERTEX
  5
2F7
330
255
100
AcDbEntity
  8
0
  6
CONTINUOUS
 62
     7
100
AcDbVertex
100
AcDb2dVertex
 10
8.822521878
 20
6.3544152523
 30
0.0
  0
VERTEX
  5
2F8
330
255
100
AcDbEntity
  8
0
  6
CONTINUOUS
 62
     7
100
AcDbVertex
100
AcDb2dVertex
 10
8.8402090738
 20
6.3800559688
 30
0.0
  0
VERTEX
  5
2F9
330
255
100
AcDbEntity
  8
0
  6
CONTINUOUS
 62
     7
100
AcDbVertex
100
AcDb2dVertex
 10
8.8572436363
 20
6.4062698565
 30
0.0
  0
VERTEX
  5
2FA
330
255
100
AcDbEntity
  8
0
  6
CONTINUOUS
 62
     7
100
AcDbVertex
100
AcDb2dVertex
 10
8.8735873413
 20
6.4329980933
 30
0.0
  0
VERTEX
  5
2FB
330
255
100
AcDbEntity
  8
0
  6
CONTINUOUS
 62
     7
100
AcDbVertex
100
AcDb2dVertex
 10
8.8892035146
 20
6.460180703
 30
0.0
  0
VERTEX
  5
2FC
330
255
100
AcDbEntity
  8
0
  6
CONTINUOUS
 62
     7
100
AcDbVertex
100
AcDb2dVertex
 10
8.9040571147
 20
6.4877566899
 30
0.0
  0
VERTEX
  5
2FD
330
255
100
AcDbEntity
  8
0
  6
CONTINUOUS
 62
     7
100
AcDbVertex
100
AcDb2dVertex
 10
8.9181148112
 20
6.5156641753
 30
0.0
  0
VERTEX
  5
2FE
330
255
100
AcDbEntity
  8
0
  6
CONTINUOUS
 62
     7
100
AcDbVertex
100
AcDb2dVertex
 10
8.9313450597
 20
6.543840537
 30
0.0
  0
VERTEX
  5
2FF
330
255
100
AcDbEntity
  8
0
  6
CONTINUOUS
 62
     7
100
AcDbVertex
100
AcDb2dVertex
 10
8.9437181724
 20
6.5722225491
 30
0.0
  0
VERTEX
  5
300
330
255
100
AcDbEntity
  8
0
  6
CONTINUOUS
 62
     7
100
AcDbVertex
100
AcDb2dVertex
 10
8.955206385
 20
6.6007465247
 30
0.0
  0
VERTEX
  5
301
330
255
100
AcDbEntity
  8
0
  6
CONTINUOUS
 62
     7
100
AcDbVertex
100
AcDb2dVertex
 10
8.9657839187
 20
6.6293484579
 30
0.0
  0
VERTEX
  5
302
330
255
100
AcDbEntity
  8
0
  6
CONTINUOUS
 62
     7
100
AcDbVertex
100
AcDb2dVertex
 10
8.9754270384
 20
6.657964168
 30
0.0
  0
VERTEX
  5
303
330
255
100
AcDbEntity
  8
0
  6
CONTINUOUS
 62
     7
100
AcDbVertex
100
AcDb2dVertex
 10
8.9841141055
 20
6.6865294436
 30
0.0
  0
VERTEX
  5
304
330
255
100
AcDbEntity
  8
0
  6
CONTINUOUS
 62
     7
100
AcDbVertex
100
AcDb2dVertex
 10
8.9918256271
 20
6.7149801862
 30
0.0
  0
VERTEX
  5
305
330
255
100
AcDbEntity
  8
0
  6
CONTINUOUS
 62
     7
100
AcDbVertex
100
AcDb2dVertex
 10
8.9985442988
 20
6.7432525544
 30
0.0
  0
VERTEX
  5
306
330
255
100
AcDbEntity
  8
0
  6
CONTINUOUS
 62
     7
100
AcDbVertex
100
AcDb2dVertex
 10
9.0042550446
 20
6.771283107
 30
0.0
  0
VERTEX
  5
307
330
255
100
AcDbEntity
  8
0
  6
CONTINUOUS
 62
     7
100
AcDbVertex
100
AcDb2dVertex
 10
9.0089450499
 20
6.7990089457
 30
0.0
  0
VERTEX
  5
308
330
255
100
AcDbEntity
  8
0
  6
CONTINUOUS
 62
     7
100
AcDbVertex
100
AcDb2dVertex
 10
9.0126037908
 20
6.8263678555
 30
0.0
  0
VERTEX
  5
309
330
255
100
AcDbEntity
  8
0
  6
CONTINUOUS
 62
     7
100
AcDbVertex
100
AcDb2dVertex
 10
9.0152230572
 20
6.8532984451
 30
0.0
  0
VERTEX
  5
30A
330
255
100
AcDbEntity
  8
0
  6
CONTINUOUS
 62
     7
100
AcDbVertex
100
AcDb2dVertex
 10
9.0167969717
 20
6.8797402842
 30
0.0
  0
VERTEX
  5
30B
330
255
100
AcDbEntity
  8
0
  6
CONTINUOUS
 62
     7
100
AcDbVertex
100
AcDb2dVertex
 10
9.0173220026
 20
6.9056340393
 30
0.0
  0
VERTEX
  5
30C
330
255
100
AcDbEntity
  8
0
  6
CONTINUOUS
 62
     7
100
AcDbVertex
100
AcDb2dVertex
 10
9.0167969717
 20
6.9309216066
 30
0.0
  0
VERTEX
  5
30D
330
255
100
AcDbEntity
  8
0
  6
CONTINUOUS
 62
     7
100
AcDbVertex
100
AcDb2dVertex
 10
9.0152230572
 20
6.9555462427
 30
0.0
  0
VERTEX
  5
30E
330
255
100
AcDbEntity
  8
0
  6
CONTINUOUS
 62
     7
100
AcDbVertex
100
AcDb2dVertex
 10
9.0126037908
 20
6.9794526917
 30
0.0
  0
VERTEX
  5
30F
330
255
100
AcDbEntity
  8
0
  6
CONTINUOUS
 62
     7
100
AcDbVertex
100
AcDb2dVertex
 10
9.0089450499
 20
7.0025873093
 30
0.0
  0
VERTEX
  5
310
330
255
100
AcDbEntity
  8
0
  6
CONTINUOUS
 62
     7
100
AcDbVertex
100
AcDb2dVertex
 10
9.0042550446
 20
7.024898183
 30
0.0
  0
VERTEX
  5
311
330
255
100
AcDbEntity
  8
0
  6
CONTINUOUS
 62
     7
100
AcDbVertex
100
AcDb2dVertex
 10
8.9985442988
 20
7.046335249
 30
0.0
  0
VERTEX
  5
312
330
255
100
AcDbEntity
  8
0
  6
CONTINUOUS
 62
     7
100
AcDbVertex
100
AcDb2dVertex
 10
8.9918256271
 20
7.0668504039
 30
0.0
  0
VERTEX
  5
313
330
255
100
AcDbEntity
  8
0
  6
CONTINUOUS
 62
     7
100
AcDbVertex
100
AcDb2dVertex
 10
8.9841141055
 20
7.0863976132
 30
0.0
  0
VERTEX
  5
314
330
255
100
AcDbEntity
  8
0
  6
CONTINUOUS
 62
     7
100
AcDbVertex
100
AcDb2dVertex
 10
8.9754270384
 20
7.1049330145
 30
0.0
  0
VERTEX
  5
315
330
255
100
AcDbEntity
  8
0
  6
CONTINUOUS
 62
     7
100
AcDbVertex
100
AcDb2dVertex
 10
8.9657839187
 20
7.1224150157
 30
0.0
  0
VERTEX
  5
316
330
255
100
AcDbEntity
  8
0
  6
CONTINUOUS
 62
     7
100
AcDbVertex
100
AcDb2dVertex
 10
8.955206385
 20
7.1388043884
 30
0.0
  0
VERTEX
  5
317
330
255
100
AcDbEntity
  8
0
  6
CONTINUOUS
 62
     7
100
AcDbVertex
100
AcDb2dVertex
 10
8.9437181724
 20
7.154064356
 30
0.0
  0
VERTEX
  5
318
330
255
100
AcDbEntity
  8
0
  6
CONTINUOUS
 62
     7
100
AcDbVertex
100
AcDb2dVertex
 10
8.9313450597
 20
7.1681606764
 30
0.0
  0
VERTEX
  5
319
330
255
100
AcDbEntity
  8
0
  6
CONTINUOUS
 62
     7
100
AcDbVertex
100
AcDb2dVertex
 10
8.9181148112
 20
7.1810617183
 30
0.0
  0
VERTEX
  5
31A
330
255
100
AcDbEntity
  8
0
  6
CONTINUOUS
 62
     7
100
AcDbVertex
100
AcDb2dVertex
 10
8.9040571147
 20
7.1927385328
 30
0.0
  0
VERTEX
  5
31B
330
255
100
AcDbEntity
  8
0
  6
CONTINUOUS
 62
     7
100
AcDbVertex
100
AcDb2dVertex
 10
8.8892035146
 20
7.203164918
 30
0.0
  0
VERTEX
  5
31C
330
255
100
AcDbEntity
  8
0
  6
CONTINUOUS
 62
     7
100
AcDbVertex
100
AcDb2dVertex
 10
8.8735873413
 20
7.2123174778
 30
0.0
  0
VERTEX
  5
31D
330
255
100
AcDbEntity
  8
0
  6
CONTINUOUS
 62
     7
100
AcDbVertex
100
AcDb2dVertex
 10
8.8572436363
 20
7.2201756745
 30
0.0
  0
VERTEX
  5
31E
330
255
100
AcDbEntity
  8
0
  6
CONTINUOUS
 62
     7
100
AcDbVertex
100
AcDb2dVertex
 10
8.8402090738
 20
7.2267218749
 30
0.0
  0
VERTEX
  5
31F
330
255
100
AcDbEntity
  8
0
  6
CONTINUOUS
 62
     7
100
AcDbVertex
100
AcDb2dVertex
 10
8.822521878
 20
7.2319413899
 30
0.0
  0
VERTEX
  5
320
330
255
100
AcDbEntity
  8
0
  6
CONTINUOUS
 62
     7
100
AcDbVertex
100
AcDb2dVertex
 10
8.8042217378
 20
7.2358225071
 30
0.0
  0
VERTEX
  5
321
330
255
100
AcDbEntity
  8
0
  6
CONTINUOUS
 62
     7
100
AcDbVertex
100
AcDb2dVertex
 10
8.7853497173
 20
7.2383565178
 30
0.0
  0
VERTEX
  5
322
330
255
100
AcDbEntity
  8
0
  6
CONTINUOUS
 62
     7
100
AcDbVertex
100
AcDb2dVertex
 10
8.7659481639
 20
7.2395377356
 30
0.0
  0
VERTEX
  5
323
330
255
100
AcDbEntity
  8
0
  6
CONTINUOUS
 62
     7
100
AcDbVertex
100
AcDb2dVertex
 10
8.7460606134
 20
7.2393635101
 30
0.0
  0
VERTEX
  5
324
330
255
100
AcDbEntity
  8
0
  6
CONTINUOUS
 62
     7
100
AcDbVertex
100
AcDb2dVertex
 10
8.7257316919
 20
7.2378342322
 30
0.0
  0
VERTEX
  5
325
330
255
100
AcDbEntity
  8
0
  6
CONTINUOUS
 62
     7
100
AcDbVertex
100
AcDb2dVertex
 10
8.7050070161
 20
7.2349533336
 30
0.0
  0
VERTEX
  5
326
330
255
100
AcDbEntity
  8
0
  6
CONTINUOUS
 62
     7
100
AcDbVertex
100
AcDb2dVertex
 10
8.6839330906
 20
7.2307272786
 30
0.0
  0
VERTEX
  5
327
330
255
100
AcDbEntity
  8
0
  6
CONTINUOUS
 62
     7
100
AcDbVertex
100
AcDb2dVertex
 10
8.6625572038
 20
7.2251655503
 30
0.0
  0
VERTEX
  5
328
330
255
100
AcDbEntity
  8
0
  6
CONTINUOUS
 62
     7
100
AcDbVertex
100
AcDb2dVertex
 10
8.6409273216
 20
7.2182806288
 30
0.0
  0
VERTEX
  5
329
330
255
100
AcDbEntity
  8
0
  6
CONTINUOUS
 62
     7
100
AcDbVertex
100
AcDb2dVertex
 10
8.6190919799
 20
7.2100879634
 30
0.0
  0
VERTEX
  5
32A
330
255
100
AcDbEntity
  8
0
  6
CONTINUOUS
 62
     7
100
AcDbVertex
100
AcDb2dVertex
 10
8.5971001756
 20
7.2006059378
 30
0.0
  0
VERTEX
  5
32B
330
255
100
AcDbEntity
  8
0
  6
CONTINUOUS
 62
     7
100
AcDbVertex
100
AcDb2dVertex
 10
8.5750012568
 20
7.189855829
 30
0.0
  0
VERTEX
  5
32C
330
255
100
AcDbEntity
  8
0
  6
CONTINUOUS
 62
     7
100
AcDbVertex
100
AcDb2dVertex
 10
8.5528448117
 20
7.1778617594
 30
0.0
  0
VERTEX
  5
32D
330
255
100
AcDbEntity
  8
0
  6
CONTINUOUS
 62
     7
100
AcDbVertex
100
AcDb2dVertex
 10
8.5306805579
 20
7.1646506428
 30
0.0
  0
VERTEX
  5
32E
330
255
100
AcDbEntity
  8
0
  6
CONTINUOUS
 62
     7
100
AcDbVertex
100
AcDb2dVertex
 10
8.5085582303
 20
7.1502521242
 30
0.0
  0
VERTEX
  5
32F
330
255
100
AcDbEntity
  8
0
  6
CONTINUOUS
 62
     7
100
AcDbVertex
100
AcDb2dVertex
 10
8.4865274698
 20
7.1346985125
 30
0.0
  0
VERTEX
  5
330
330
255
100
AcDbEntity
  8
0
  6
CONTINUOUS
 62
     7
100
AcDbVertex
100
AcDb2dVertex
 10
8.4646377119
 20
7.1180247092
 30
0.0
  0
VERTEX
  5
331
330
255
100
AcDbEntity
  8
0
  6
CONTINUOUS
 62
     7
100
AcDbVertex
100
AcDb2dVertex
 10
8.4429380755
 20
7.1002681288
 30
0.0
  0
VERTEX
  5
332
330
255
100
AcDbEntity
  8
0
  6
CONTINUOUS
 62
     7
100
AcDbVertex
100
AcDb2dVertex
 10
8.421477253
 20
7.081468616
 30
0.0
  0
VERTEX
  5
333
330
255
100
AcDbEntity
  8
0
  6
CONTINUOUS
 62
     7
100
AcDbVertex
100
AcDb2dVertex
 10
8.400303401
 20
7.0616683555
 30
0.0
  0
VERTEX
  5
334
330
255
100
AcDbEntity
  8
0
  6
CONTINUOUS
 62
     7
100
AcDbVertex
100
AcDb2dVertex
 10
8.3794640321
 20
7.0409117775
 30
0.0
  0
VERTEX
  5
335
330
255
100
AcDbEntity
  8
0
  6
CONTINUOUS
 62
     7
100
AcDbVertex
100
AcDb2dVertex
 10
8.3590059083
 20
7.0192454584
 30
0.0
  0
VERTEX
  5
336
330
255
100
AcDbEntity
  8
0
  6
CONTINUOUS
 62
     7
100
AcDbVertex
100
AcDb2dVertex
 10
8.3389749361
 20
6.9967180158
 30
0.0
  0
VERTEX
  5
337
330
255
100
AcDbEntity
  8
0
  6
CONTINUOUS
 62
     7
100
AcDbVertex
100
AcDb2dVertex
 10
8.3194160635
 20
6.9733799996
 30
0.0
  0
VERTEX
  5
338
330
255
100
AcDbEntity
  8
0
  6
CONTINUOUS
 62
     7
100
AcDbVertex
100
AcDb2dVertex
 10
8.3003731794
 20
6.9492837787
 30
0.0
  0
VERTEX
  5
339
330
255
100
AcDbEntity
  8
0
  6
CONTINUOUS
 62
     7
100
AcDbVertex
100
AcDb2dVertex
 10
8.2818890144
 20
6.9244834232
 30
0.0
  0
VERTEX
  5
33A
330
255
100
AcDbEntity
  8
0
  6
CONTINUOUS
 62
     7
100
AcDbVertex
100
AcDb2dVertex
 10
8.2640050458
 20
6.8990345833
 30
0.0
  0
VERTEX
  5
33B
330
255
100
AcDbEntity
  8
0
  6
CONTINUOUS
 62
     7
100
AcDbVertex
100
AcDb2dVertex
 10
8.2467614038
 20
6.8729943643
 30
0.0
  0
VERTEX
  5
33C
330
255
100
AcDbEntity
  8
0
  6
CONTINUOUS
 62
     7
100
AcDbVertex
100
AcDb2dVertex
 10
8.2301967819
 20
6.8464211986
 30
0.0
  0
VERTEX
  5
33D
330
255
100
AcDbEntity
  8
0
  6
CONTINUOUS
 62
     7
100
AcDbVertex
100
AcDb2dVertex
 10
8.21434835
 20
6.8193747145
 30
0.0
  0
VERTEX
  5
33E
330
255
100
AcDbEntity
  8
0
  6
CONTINUOUS
 62
     7
100
AcDbVertex
100
AcDb2dVertex
 10
8.1992516707
 20
6.7919156023
 30
0.0
  0
VERTEX
  5
33F
330
255
100
AcDbEntity
  8
0
  6
CONTINUOUS
 62
     7
100
AcDbVertex
100
AcDb2dVertex
 10
8.1849406199
 20
6.7641054782
 30
0.0
  0
VERTEX
  5
340
330
255
100
AcDbEntity
  8
0
  6
CONTINUOUS
 62
     7
100
AcDbVertex
100
AcDb2dVertex
 10
8.1714473106
 20
6.7360067461
 30
0.0
  0
VERTEX
  5
341
330
255
100
AcDbEntity
  8
0
  6
CONTINUOUS
 62
     7
100
AcDbVertex
100
AcDb2dVertex
 10
8.1588020208
 20
6.7076824576
 30
0.0
  0
VERTEX
  5
342
330
255
100
AcDbEntity
  8
0
  6
CONTINUOUS
 62
     7
100
AcDbVertex
100
AcDb2dVertex
 10
8.1470331255
 20
6.6791961703
 30
0.0
  0
VERTEX
  5
343
330
255
100
AcDbEntity
  8
0
  6
CONTINUOUS
 62
     7
100
AcDbVertex
100
AcDb2dVertex
 10
8.1361670334
 20
6.6506118053
 30
0.0
  0
VERTEX
  5
344
330
255
100
AcDbEntity
  8
0
  6
CONTINUOUS
 62
     7
100
AcDbVertex
100
AcDb2dVertex
 10
8.1262281271
 20
6.6219935039
 30
0.0
  0
VERTEX
  5
345
330
255
100
AcDbEntity
  8
0
  6
CONTINUOUS
 62
     7
100
AcDbVertex
100
AcDb2dVertex
 10
8.1172387088
 20
6.5934054835
 30
0.0
  0
VERTEX
  5
346
330
255
100
AcDbEntity
  8
0
  6
CONTINUOUS
 62
     7
100
AcDbVertex
100
AcDb2dVertex
 10
8.1092189501
 20
6.5649118934
 30
0.0
  0
VERTEX
  5
347
330
255
100
AcDbEntity
  8
0
  6
CONTINUOUS
 62
     7
100
AcDbVertex
100
AcDb2dVertex
 10
8.1021868469
 20
6.5365766713
 30
0.0
  0
VERTEX
  5
348
330
255
100
AcDbEntity
  8
0
  6
CONTINUOUS
 62
     7
100
AcDbVertex
100
AcDb2dVertex
 10
8.0961581785
 20
6.5084633993
 30
0.0
  0
VERTEX
  5
349
330
255
100
AcDbEntity
  8
0
  6
CONTINUOUS
 62
     7
100
AcDbVertex
100
AcDb2dVertex
 10
8.091146473
 20
6.4806351616
 30
0.0
  0
VERTEX
  5
34A
330
255
100
AcDbEntity
  8
0
  6
CONTINUOUS
 62
     7
100
AcDbVertex
100
AcDb2dVertex
 10
8.0871629761
 20
6.4531544026
 30
0.0
  0
VERTEX
  5
34B
330
255
100
AcDbEntity
  8
0
  6
CONTINUOUS
 62
     7
100
AcDbVertex
100
AcDb2dVertex
 10
8.0842166266
 20
6.4260827873
 30
0.0
  0
VERTEX
  5
34C
330
255
100
AcDbEntity
  8
0
  6
CONTINUOUS
 62
     7
100
AcDbVertex
100
AcDb2dVertex
 10
8.0823140359
 20
6.3994810623
 30
0.0
  0
VERTEX
  5
34D
330
255
100
AcDbEntity
  8
0
  6
CONTINUOUS
 62
     7
100
AcDbVertex
100
AcDb2dVertex
 10
8.0814594732
 20
6.3734089199
 30
0.0
  0
SEQEND
  5
34E
330
255
100
AcDbEntity
  8
0
  6
CONTINUOUS
 62
     7
  0
LINE
  5
256
330
1F
100
AcDbEntity
  8
0
  6
CONTINUOUS
 62
     7
100
AcDbLine
 10
8.0708522915
 20
6.3734085851
 30
0.0
 11
8.0814594732
 21
6.3734089199
 31
0.0
  0
POLYLINE
  5
257
330
1F
100
AcDbEntity
  8
0
  6
CONTINUOUS
 62
     7
100
AcDb2dPolyline
 66
     1
 10
0.0
 20
0.0
 30
0.0
  0
VERTEX
  5
34F
330
257
100
AcDbEntity
  8
0
  6
CONTINUOUS
 62
     7
100
AcDbVertex
100
AcDb2dVertex
 10
8.0708522915
 20
6.3734085851
 30
0.0
  0
VERTEX
  5
350
330
257
100
AcDbEntity
  8
0
  6
CONTINUOUS
 62
     7
100
AcDbVertex
100
AcDb2dVertex
 10
8.0717128791
 20
6.3997756305
 30
0.0
  0
VERTEX
  5
351
330
257
100
AcDbEntity
  8
0
  6
CONTINUOUS
 62
     7
100
AcDbVertex
100
AcDb2dVertex
 10
8.0736334957
 20
6.4266785247
 30
0.0
  0
VERTEX
  5
352
330
257
100
AcDbEntity
  8
0
  6
CONTINUOUS
 62
     7
100
AcDbVertex
100
AcDb2dVertex
 10
8.0766098311
 20
6.4540568929
 30
0.0
  0
VERTEX
  5
353
330
257
100
AcDbEntity
  8
0
  6
CONTINUOUS
 62
     7
100
AcDbVertex
100
AcDb2dVertex
 10
8.080635206
 20
6.4818492936
 30
0.0
  0
VERTEX
  5
354
330
257
100
AcDbEntity
  8
0
  6
CONTINUOUS
 62
     7
100
AcDbVertex
100
AcDb2dVertex
 10
8.0857005868
 20
6.5099933559
 30
0.0
  0
VERTEX
  5
355
330
257
100
AcDbEntity
  8
0
  6
CONTINUOUS
 62
     7
100
AcDbVertex
100
AcDb2dVertex
 10
8.0917946059
 20
6.53842592
 30
0.0
  0
VERTEX
  5
356
330
257
100
AcDbEntity
  8
0
  6
CONTINUOUS
 62
     7
100
AcDbVertex
100
AcDb2dVertex
 10
8.0989035873
 20
6.5670831785
 30
0.0
  0
VERTEX
  5
357
330
257
100
AcDbEntity
  8
0
  6
CONTINUOUS
 62
     7
100
AcDbVertex
100
AcDb2dVertex
 10
8.1070115772
 20
6.5959008196
 30
0.0
  0
VERTEX
  5
358
330
257
100
AcDbEntity
  8
0
  6
CONTINUOUS
 62
     7
100
AcDbVertex
100
AcDb2dVertex
 10
8.11610038
 20
6.6248141719
 30
0.0
  0
VERTEX
  5
359
330
257
100
AcDbEntity
  8
0
  6
CONTINUOUS
 62
     7
100
AcDbVertex
100
AcDb2dVertex
 10
8.1261495989
 20
6.6537583488
 30
0.0
  0
VERTEX
  5
35A
330
257
100
AcDbEntity
  8
0
  6
CONTINUOUS
 62
     7
100
AcDbVertex
100
AcDb2dVertex
 10
8.1371366818
 20
6.682668395
 30
0.0
  0
VERTEX
  5
35B
330
257
100
AcDbEntity
  8
0
  6
CONTINUOUS
 62
     7
100
AcDbVertex
100
AcDb2dVertex
 10
8.1490369718
 20
6.7114794313
 30
0.0
  0
VERTEX
  5
35C
330
257
100
AcDbEntity
  8
0
  6
CONTINUOUS
 62
     7
100
AcDbVertex
100
AcDb2dVertex
 10
8.1618237628
 20
6.7401268011
 30
0.0
  0
VERTEX
  5
35D
330
257
100
AcDbEntity
  8
0
  6
CONTINUOUS
 62
     7
100
AcDbVertex
100
AcDb2dVertex
 10
8.1754683589
 20
6.7685462149
 30
0.0
  0
VERTEX
  5
35E
330
257
100
AcDbEntity
  8
0
  6
CONTINUOUS
 62
     7
100
AcDbVertex
100
AcDb2dVertex
 10
8.1899401395
 20
6.7966738948
 30
0.0
  0
VERTEX
  5
35F
330
257
100
AcDbEntity
  8
0
  6
CONTINUOUS
 62
     7
100
AcDbVertex
100
AcDb2dVertex
 10
8.2052066275
 20
6.8244467176
 30
0.0
  0
VERTEX
  5
360
330
257
100
AcDbEntity
  8
0
  6
CONTINUOUS
 62
     7
100
AcDbVertex
100
AcDb2dVertex
 10
8.2212335624
 20
6.8518023565
 30
0.0
  0
VERTEX
  5
361
330
257
100
AcDbEntity
  8
0
  6
CONTINUOUS
 62
     7
100
AcDbVertex
100
AcDb2dVertex
 10
8.237984977
 20
6.8786794209
 30
0.0
  0
VERTEX
  5
362
330
257
100
AcDbEntity
  8
0
  6
CONTINUOUS
 62
     7
100
AcDbVertex
100
AcDb2dVertex
 10
8.2554232784
 20
6.9050175941
 30
0.0
  0
VERTEX
  5
363
330
257
100
AcDbEntity
  8
0
  6
CONTINUOUS
 62
     7
100
AcDbVertex
100
AcDb2dVertex
 10
8.2735093321
 20
6.9307577689
 30
0.0
  0
VERTEX
  5
364
330
257
100
AcDbEntity
  8
0
  6
CONTINUOUS
 62
     7
100
AcDbVertex
100
AcDb2dVertex
 10
8.2922025501
 20
6.9558421801
 30
0.0
  0
VERTEX
  5
365
330
257
100
AcDbEntity
  8
0
  6
CONTINUOUS
 62
     7
100
AcDbVertex
100
AcDb2dVertex
 10
8.3114609815
 20
6.9802145341
 30
0.0
  0
VERTEX
  5
366
330
257
100
AcDbEntity
  8
0
  6
CONTINUOUS
 62
     7
100
AcDbVertex
100
AcDb2dVertex
 10
8.3312414074
 20
7.0038201353
 30
0.0
  0
VERTEX
  5
367
330
257
100
AcDbEntity
  8
0
  6
CONTINUOUS
 62
     7
100
AcDbVertex
100
AcDb2dVertex
 10
8.3514994371
 20
7.0266060087
 30
0.0
  0
VERTEX
  5
368
330
257
100
AcDbEntity
  8
0
  6
CONTINUOUS
 62
     7
100
AcDbVertex
100
AcDb2dVertex
 10
8.3721896082
 20
7.0485210192
 30
0.0
  0
VERTEX
  5
369
330
257
100
AcDbEntity
  8
0
  6
CONTINUOUS
 62
     7
100
AcDbVertex
100
AcDb2dVertex
 10
8.3932654886
 20
7.0695159856
 30
0.0
  0
VERTEX
  5
36A
330
257
100
AcDbEntity
  8
0
  6
CONTINUOUS
 62
     7
100
AcDbVertex
100
AcDb2dVertex
 10
8.4146797805
 20
7.089543792
 30
0.0
  0
VERTEX
  5
36B
330
257
100
AcDbEntity
  8
0
  6
CONTINUOUS
 62
     7
100
AcDbVertex
100
AcDb2dVertex
 10
8.4363844266
 20
7.1085594924
 30
0.0
  0
VERTEX
  5
36C
330
257
100
AcDbEntity
  8
0
  6
CONTINUOUS
 62
     7
100
AcDbVertex
100
AcDb2dVertex
 10
8.4583307181
 20
7.1265204126
 30
0.0
  0
VERTEX
  5
36D
330
257
100
AcDbEntity
  8
0
  6
CONTINUOUS
 62
     7
100
AcDbVertex
100
AcDb2dVertex
 10
8.4804694039
 20
7.1433862453
 30
0.0
  0
VERTEX
  5
36E
330
257
100
AcDbEntity
  8
0
  6
CONTINUOUS
 62
     7
100
AcDbVertex
100
AcDb2dVertex
 10
8.502750801
 20
7.1591191406
 30
0.0
  0
VERTEX
  5
36F
330
257
100
AcDbEntity
  8
0
  6
CONTINUOUS
 62
     7
100
AcDbVertex
100
AcDb2dVertex
 10
8.5251249064
 20
7.1736837914
 30
0.0
  0
VERTEX
  5
370
330
257
100
AcDbEntity
  8
0
  6
CONTINUOUS
 62
     7
100
AcDbVertex
100
AcDb2dVertex
 10
8.5475415087
 20
7.1870475121
 30
0.0
  0
VERTEX
  5
371
330
257
100
AcDbEntity
  8
0
  6
CONTINUOUS
 62
     7
100
AcDbVertex
100
AcDb2dVertex
 10
8.5699503015
 20
7.1991803124
 30
0.0
  0
VERTEX
  5
372
330
257
100
AcDbEntity
  8
0
  6
CONTINUOUS
 62
     7
100
AcDbVertex
100
AcDb2dVertex
 10
8.5923009957
 20
7.2100549642
 30
0.0
  0
VERTEX
  5
373
330
257
100
AcDbEntity
  8
0
  6
CONTINUOUS
 62
     7
100
AcDbVertex
100
AcDb2dVertex
 10
8.6145434325
 20
7.2196470631
 30
0.0
  0
VERTEX
  5
374
330
257
100
AcDbEntity
  8
0
  6
CONTINUOUS
 62
     7
100
AcDbVertex
100
AcDb2dVertex
 10
8.6366276962
 20
7.2279350826
 30
0.0
  0
VERTEX
  5
375
330
257
100
AcDbEntity
  8
0
  6
CONTINUOUS
 62
     7
100
AcDbVertex
100
AcDb2dVertex
 10
8.6585042262
 20
7.2349004232
 30
0.0
  0
VERTEX
  5
376
330
257
100
AcDbEntity
  8
0
  6
CONTINUOUS
 62
     7
100
AcDbVertex
100
AcDb2dVertex
 10
8.6801239277
 20
7.2405274535
 30
0.0
  0
VERTEX
  5
377
330
257
100
AcDbEntity
  8
0
  6
CONTINUOUS
 62
     7
100
AcDbVertex
100
AcDb2dVertex
 10
8.7014382827
 20
7.2448035454
 30
0.0
  0
VERTEX
  5
378
330
257
100
AcDbEntity
  8
0
  6
CONTINUOUS
 62
     7
100
AcDbVertex
100
AcDb2dVertex
 10
8.722399458
 20
7.2477191028
 30
0.0
  0
VERTEX
  5
379
330
257
100
AcDbEntity
  8
0
  6
CONTINUOUS
 62
     7
100
AcDbVertex
100
AcDb2dVertex
 10
8.7429604135
 20
7.2492675825
 30
0.0
  0
VERTEX
  5
37A
330
257
100
AcDbEntity
  8
0
  6
CONTINUOUS
 62
     7
100
AcDbVertex
100
AcDb2dVertex
 10
8.7630750069
 20
7.2494455096
 30
0.0
  0
VERTEX
  5
37B
330
257
100
AcDbEntity
  8
0
  6
CONTINUOUS
 62
     7
100
AcDbVertex
100
AcDb2dVertex
 10
8.7826980976
 20
7.2482524847
 30
0.0
  0
VERTEX
  5
37C
330
257
100
AcDbEntity
  8
0
  6
CONTINUOUS
 62
     7
100
AcDbVertex
100
AcDb2dVertex
 10
8.8017856482
 20
7.2456911853
 30
0.0
  0
VERTEX
  5
37D
330
257
100
AcDbEntity
  8
0
  6
CONTINUOUS
 62
     7
100
AcDbVertex
100
AcDb2dVertex
 10
8.8202948231
 20
7.2417673592
 30
0.0
  0
VERTEX
  5
37E
330
257
100
AcDbEntity
  8
0
  6
CONTINUOUS
 62
     7
100
AcDbVertex
100
AcDb2dVertex
 10
8.8381840845
 20
7.2364898123
 30
0.0
  0
VERTEX
  5
37F
330
257
100
AcDbEntity
  8
0
  6
CONTINUOUS
 62
     7
100
AcDbVertex
100
AcDb2dVertex
 10
8.8554132861
 20
7.2298703882
 30
0.0
  0
VERTEX
  5
380
330
257
100
AcDbEntity
  8
0
  6
CONTINUOUS
 62
     7
100
AcDbVertex
100
AcDb2dVertex
 10
8.8719437626
 20
7.2219239419
 30
0.0
  0
VERTEX
  5
381
330
257
100
AcDbEntity
  8
0
  6
CONTINUOUS
 62
     7
100
AcDbVertex
100
AcDb2dVertex
 10
8.8877384169
 20
7.2126683067
 30
0.0
  0
VERTEX
  5
382
330
257
100
AcDbEntity
  8
0
  6
CONTINUOUS
 62
     7
100
AcDbVertex
100
AcDb2dVertex
 10
8.9027618031
 20
7.2021242537
 30
0.0
  0
VERTEX
  5
383
330
257
100
AcDbEntity
  8
0
  6
CONTINUOUS
 62
     7
100
AcDbVertex
100
AcDb2dVertex
 10
8.9169802062
 20
7.1903154456
 30
0.0
  0
VERTEX
  5
384
330
257
100
AcDbEntity
  8
0
  6
CONTINUOUS
 62
     7
100
AcDbVertex
100
AcDb2dVertex
 10
8.9303617179
 20
7.1772683832
 30
0.0
  0
VERTEX
  5
385
330
257
100
AcDbEntity
  8
0
  6
CONTINUOUS
 62
     7
100
AcDbVertex
100
AcDb2dVertex
 10
8.9428763077
 20
7.1630123464
 30
0.0
  0
VERTEX
  5
386
330
257
100
AcDbEntity
  8
0
  6
CONTINUOUS
 62
     7
100
AcDbVertex
100
AcDb2dVertex
 10
8.9544958909
 20
7.147579328
 30
0.0
  0
VERTEX
  5
387
330
257
100
AcDbEntity
  8
0
  6
CONTINUOUS
 62
     7
100
AcDbVertex
100
AcDb2dVertex
 10
8.9651943911
 20
7.1310039623
 30
0.0
  0
VERTEX
  5
388
330
257
100
AcDbEntity
  8
0
  6
CONTINUOUS
 62
     7
100
AcDbVertex
100
AcDb2dVertex
 10
8.9749477992
 20
7.1133234473
 30
0.0
  0
VERTEX
  5
389
330
257
100
AcDbEntity
  8
0
  6
CONTINUOUS
 62
     7
100
AcDbVertex
100
AcDb2dVertex
 10
8.9837342268
 20
7.0945774609
 30
0.0
  0
VERTEX
  5
38A
330
257
100
AcDbEntity
  8
0
  6
CONTINUOUS
 62
     7
100
AcDbVertex
100
AcDb2dVertex
 10
8.9915339558
 20
7.0748080722
 30
0.0
  0
VERTEX
  5
38B
330
257
100
AcDbEntity
  8
0
  6
CONTINUOUS
 62
     7
100
AcDbVertex
100
AcDb2dVertex
 10
8.9983294823
 20
7.054059647
 30
0.0
  0
VERTEX
  5
38C
330
257
100
AcDbEntity
  8
0
  6
CONTINUOUS
 62
     7
100
AcDbVertex
100
AcDb2dVertex
 10
9.004105556
 20
7.0323787483
 30
0.0
  0
VERTEX
  5
38D
330
257
100
AcDbEntity
  8
0
  6
CONTINUOUS
 62
     7
100
AcDbVertex
100
AcDb2dVertex
 10
9.0088492144
 20
7.0098140316
 30
0.0
  0
VERTEX
  5
38E
330
257
100
AcDbEntity
  8
0
  6
CONTINUOUS
 62
     7
100
AcDbVertex
100
AcDb2dVertex
 10
9.012549812
 20
6.9864161358
 30
0.0
  0
VERTEX
  5
38F
330
257
100
AcDbEntity
  8
0
  6
CONTINUOUS
 62
     7
100
AcDbVertex
100
AcDb2dVertex
 10
9.0151990439
 20
6.9622375698
 30
0.0
  0
VERTEX
  5
390
330
257
100
AcDbEntity
  8
0
  6
CONTINUOUS
 62
     7
100
AcDbVertex
100
AcDb2dVertex
 10
9.016790965
 20
6.9373325943
 30
0.0
  0
VERTEX
  5
391
330
257
100
AcDbEntity
  8
0
  6
CONTINUOUS
 62
     7
100
AcDbVertex
100
AcDb2dVertex
 10
9.0173220026
 20
6.9117571001
 30
0.0
  0
SEQEND
  5
392
330
257
100
AcDbEntity
  8
0
  6
CONTINUOUS
 62
     7
  0
POLYLINE
  5
258
330
1F
100
AcDbEntity
  8
0
  6
CONTINUOUS
 62
     7
100
AcDb2dPolyline
 66
     1
 10
0.0
 20
0.0
 30
0.0
  0
VERTEX
  5
393
330
258
100
AcDbEntity
  8
0
  6
CONTINUOUS
 62
     7
100
AcDbVertex
100
AcDb2dVertex
 10
8.5441384766
 20
6.0920903793
 30
0.0
  0
VERTEX
  5
394
330
258
100
AcDbEntity
  8
0
  6
CONTINUOUS
 62
     7
100
AcDbVertex
100
AcDb2dVertex
 10
8.5251249064
 20
6.0815517378
 30
0.0
  0
VERTEX
  5
395
330
258
100
AcDbEntity
  8
0
  6
CONTINUOUS
 62
     7
100
AcDbVertex
100
AcDb2dVertex
 10
8.502750801
 20
6.0702837964
 30
0.0
  0
VERTEX
  5
396
330
258
100
AcDbEntity
  8
0
  6
CONTINUOUS
 62
     7
100
AcDbVertex
100
AcDb2dVertex
 10
8.4804694039
 20
6.0602911382
 30
0.0
  0
VERTEX
  5
397
330
258
100
AcDbEntity
  8
0
  6
CONTINUOUS
 62
     7
100
AcDbVertex
100
AcDb2dVertex
 10
8.4583307181
 20
6.0515961883
 30
0.0
  0
VERTEX
  5
398
330
258
100
AcDbEntity
  8
0
  6
CONTINUOUS
 62
     7
100
AcDbVertex
100
AcDb2dVertex
 10
8.4363844266
 20
6.0442184596
 30
0.0
  0
VERTEX
  5
399
330
258
100
AcDbEntity
  8
0
  6
CONTINUOUS
 62
     7
100
AcDbVertex
100
AcDb2dVertex
 10
8.4146797805
 20
6.0381745091
 30
0.0
  0
VERTEX
  5
39A
330
258
100
AcDbEntity
  8
0
  6
CONTINUOUS
 62
     7
100
AcDbVertex
100
AcDb2dVertex
 10
8.3932654886
 20
6.0334779003
 30
0.0
  0
VERTEX
  5
39B
330
258
100
AcDbEntity
  8
0
  6
CONTINUOUS
 62
     7
100
AcDbVertex
100
AcDb2dVertex
 10
8.3721896082
 20
6.0301391733
 30
0.0
  0
VERTEX
  5
39C
330
258
100
AcDbEntity
  8
0
  6
CONTINUOUS
 62
     7
100
AcDbVertex
100
AcDb2dVertex
 10
8.3514994371
 20
6.0281658206
 30
0.0
  0
VERTEX
  5
39D
330
258
100
AcDbEntity
  8
0
  6
CONTINUOUS
 62
     7
100
AcDbVertex
100
AcDb2dVertex
 10
8.3312414074
 20
6.0275622708
 30
0.0
  0
VERTEX
  5
39E
330
258
100
AcDbEntity
  8
0
  6
CONTINUOUS
 62
     7
100
AcDbVertex
100
AcDb2dVertex
 10
8.3114609815
 20
6.0283298784
 30
0.0
  0
VERTEX
  5
39F
330
258
100
AcDbEntity
  8
0
  6
CONTINUOUS
 62
     7
100
AcDbVertex
100
AcDb2dVertex
 10
8.2922025501
 20
6.0304669207
 30
0.0
  0
VERTEX
  5
3A0
330
258
100
AcDbEntity
  8
0
  6
CONTINUOUS
 62
     7
100
AcDbVertex
100
AcDb2dVertex
 10
8.2735093321
 20
6.0339686019
 30
0.0
  0
VERTEX
  5
3A1
330
258
100
AcDbEntity
  8
0
  6
CONTINUOUS
 62
     7
100
AcDbVertex
100
AcDb2dVertex
 10
8.2554232784
 20
6.0388270636
 30
0.0
  0
VERTEX
  5
3A2
330
258
100
AcDbEntity
  8
0
  6
CONTINUOUS
 62
     7
100
AcDbVertex
100
AcDb2dVertex
 10
8.237984977
 20
6.0450314026
 30
0.0
  0
VERTEX
  5
3A3
330
258
100
AcDbEntity
  8
0
  6
CONTINUOUS
 62
     7
100
AcDbVertex
100
AcDb2dVertex
 10
8.2212335624
 20
6.0525676953
 30
0.0
  0
VERTEX
  5
3A4
330
258
100
AcDbEntity
  8
0
  6
CONTINUOUS
 62
     7
100
AcDbVertex
100
AcDb2dVertex
 10
8.2052066275
 20
6.0614190291
 30
0.0
  0
VERTEX
  5
3A5
330
258
100
AcDbEntity
  8
0
  6
CONTINUOUS
 62
     7
100
AcDbVertex
100
AcDb2dVertex
 10
8.1899401395
 20
6.07156554
 30
0.0
  0
VERTEX
  5
3A6
330
258
100
AcDbEntity
  8
0
  6
CONTINUOUS
 62
     7
100
AcDbVertex
100
AcDb2dVertex
 10
8.1754683589
 20
6.0829844577
 30
0.0
  0
VERTEX
  5
3A7
330
258
100
AcDbEntity
  8
0
  6
CONTINUOUS
 62
     7
100
AcDbVertex
100
AcDb2dVertex
 10
8.1618237628
 20
6.0956501561
 30
0.0
  0
VERTEX
  5
3A8
330
258
100
AcDbEntity
  8
0
  6
CONTINUOUS
 62
     7
100
AcDbVertex
100
AcDb2dVertex
 10
8.1490369718
 20
6.1095342113
 30
0.0
  0
VERTEX
  5
3A9
330
258
100
AcDbEntity
  8
0
  6
CONTINUOUS
 62
     7
100
AcDbVertex
100
AcDb2dVertex
 10
8.1371366818
 20
6.1246054653
 30
0.0
  0
VERTEX
  5
3AA
330
258
100
AcDbEntity
  8
0
  6
CONTINUOUS
 62
     7
100
AcDbVertex
100
AcDb2dVertex
 10
8.1261495989
 20
6.1408300955
 30
0.0
  0
VERTEX
  5
3AB
330
258
100
AcDbEntity
  8
0
  6
CONTINUOUS
 62
     7
100
AcDbVertex
100
AcDb2dVertex
 10
8.11610038
 20
6.1581716913
 30
0.0
  0
VERTEX
  5
3AC
330
258
100
AcDbEntity
  8
0
  6
CONTINUOUS
 62
     7
100
AcDbVertex
100
AcDb2dVertex
 10
8.1070115772
 20
6.1765913351
 30
0.0
  0
VERTEX
  5
3AD
330
258
100
AcDbEntity
  8
0
  6
CONTINUOUS
 62
     7
100
AcDbVertex
100
AcDb2dVertex
 10
8.0989035873
 20
6.1960476904
 30
0.0
  0
VERTEX
  5
3AE
330
258
100
AcDbEntity
  8
0
  6
CONTINUOUS
 62
     7
100
AcDbVertex
100
AcDb2dVertex
 10
8.0917946059
 20
6.2164970936
 30
0.0
  0
VERTEX
  5
3AF
330
258
100
AcDbEntity
  8
0
  6
CONTINUOUS
 62
     7
100
AcDbVertex
100
AcDb2dVertex
 10
8.0857005868
 20
6.2378936531
 30
0.0
  0
VERTEX
  5
3B0
330
258
100
AcDbEntity
  8
0
  6
CONTINUOUS
 62
     7
100
AcDbVertex
100
AcDb2dVertex
 10
8.080635206
 20
6.2601893513
 30
0.0
  0
VERTEX
  5
3B1
330
258
100
AcDbEntity
  8
0
  6
CONTINUOUS
 62
     7
100
AcDbVertex
100
AcDb2dVertex
 10
8.0766098311
 20
6.283334153
 30
0.0
  0
VERTEX
  5
3B2
330
258
100
AcDbEntity
  8
0
  6
CONTINUOUS
 62
     7
100
AcDbVertex
100
AcDb2dVertex
 10
8.0736334957
 20
6.3072761175
 30
0.0
  0
VERTEX
  5
3B3
330
258
100
AcDbEntity
  8
0
  6
CONTINUOUS
 62
     7
100
AcDbVertex
100
AcDb2dVertex
 10
8.0717128791
 20
6.3319615149
 30
0.0
  0
VERTEX
  5
3B4
330
258
100
AcDbEntity
  8
0
  6
CONTINUOUS
 62
     7
100
AcDbVertex
100
AcDb2dVertex
 10
8.0708522915
 20
6.3573349471
 30
0.0
  0
SEQEND
  5
3B5
330
258
100
AcDbEntity
  8
0
  6
CONTINUOUS
 62
     7
  0
LINE
  5
259
330
1F
100
AcDbEntity
  8
0
  6
CONTINUOUS
 62
     7
100
AcDbLine
 10
8.0708522915
 20
6.3573349471
 30
0.0
 11
8.0814594732
 21
6.3573352819
 31
0.0
  0
POLYLINE
  5
25A
330
1F
100
AcDbEntity
  8
0
  6
CONTINUOUS
 62
     7
100
AcDb2dPolyline
 66
     1
 10
0.0
 20
0.0
 30
0.0
  0
VERTEX
  5
3B6
330
25A
100
AcDbEntity
  8
0
  6
CONTINUOUS
 62
     7
100
AcDbVertex
100
AcDb2dVertex
 10
8.549917137
 20
7.407979443
 30
0.0
  0
VERTEX
  5
3B7
330
25A
100
AcDbEntity
  8
0
  6
CONTINUOUS
 62
     7
100
AcDbVertex
100
AcDb2dVertex
 10
8.543963632
 20
7.4112961691
 30
0.0
  0
VERTEX
  5
3B8
330
25A
100
AcDbEntity
  8
0
  6
CONTINUOUS
 62
     7
100
AcDbVertex
100
AcDb2dVertex
 10
8.5275160175
 20
7.4192855419
 30
0.0
  0
VERTEX
  5
3B9
330
25A
100
AcDbEntity
  8
0
  6
CONTINUOUS
 62
     7
100
AcDbVertex
100
AcDb2dVertex
 10
8.510371724
 20
7.4259562851
 30
0.0
  0
VERTEX
  5
3BA
330
25A
100
AcDbEntity
  8
0
  6
CONTINUOUS
 62
     7
100
AcDbVertex
100
AcDb2dVertex
 10
8.4925690071
 20
7.4312935137
 30
0.0
  0
VERTEX
  5
3BB
330
25A
100
AcDbEntity
  8
0
  6
CONTINUOUS
 62
     7
100
AcDbVertex
100
AcDb2dVertex
 10
8.4741475917
 20
7.4352853182
 30
0.0
  0
VERTEX
  5
3BC
330
25A
100
AcDbEntity
  8
0
  6
CONTINUOUS
 62
     7
100
AcDbVertex
100
AcDb2dVertex
 10
8.4551485831
 20
7.4379227913
 30
0.0
  0
VERTEX
  5
3BD
330
25A
100
AcDbEntity
  8
0
  6
CONTINUOUS
 62
     7
100
AcDbVertex
100
AcDb2dVertex
 10
8.4356143755
 20
7.4392000479
 30
0.0
  0
VERTEX
  5
3BE
330
25A
100
AcDbEntity
  8
0
  6
CONTINUOUS
 62
     7
100
AcDbVertex
100
AcDb2dVertex
 10
8.4155885575
 20
7.4391142378
 30
0.0
  0
VERTEX
  5
3BF
330
25A
100
AcDbEntity
  8
0
  6
CONTINUOUS
 62
     7
100
AcDbVertex
100
AcDb2dVertex
 10
8.3951158143
 20
7.4376655526
 30
0.0
  0
VERTEX
  5
3C0
330
25A
100
AcDbEntity
  8
0
  6
CONTINUOUS
 62
     7
100
AcDbVertex
100
AcDb2dVertex
 10
8.3742418288
 20
7.4348572248
 30
0.0
  0
VERTEX
  5
3C1
330
25A
100
AcDbEntity
  8
0
  6
CONTINUOUS
 62
     7
100
AcDbVertex
100
AcDb2dVertex
 10
8.3530131789
 20
7.4306955208
 30
0.0
  0
VERTEX
  5
3C2
330
25A
100
AcDbEntity
  8
0
  6
CONTINUOUS
 62
     7
100
AcDbVertex
100
AcDb2dVertex
 10
8.3314772341
 20
7.4251897272
 30
0.0
  0
VERTEX
  5
3C3
330
25A
100
AcDbEntity
  8
0
  6
CONTINUOUS
 62
     7
100
AcDbVertex
100
AcDb2dVertex
 10
8.3096820495
 20
7.4183521294
 30
0.0
  0
VERTEX
  5
3C4
330
25A
100
AcDbEntity
  8
0
  6
CONTINUOUS
 62
     7
100
AcDbVertex
100
AcDb2dVertex
 10
8.2876762587
 20
7.4101979848
 30
0.0
  0
VERTEX
  5
3C5
330
25A
100
AcDbEntity
  8
0
  6
CONTINUOUS
 62
     7
100
AcDbVertex
100
AcDb2dVertex
 10
8.2655089651
 20
7.4007454885
 30
0.0
  0
VERTEX
  5
3C6
330
25A
100
AcDbEntity
  8
0
  6
CONTINUOUS
 62
     7
100
AcDbVertex
100
AcDb2dVertex
 10
8.2432296327
 20
7.3900157328
 30
0.0
  0
VERTEX
  5
3C7
330
25A
100
AcDbEntity
  8
0
  6
CONTINUOUS
 62
     7
100
AcDbVertex
100
AcDb2dVertex
 10
8.2208879754
 20
7.3780326598
 30
0.0
  0
VERTEX
  5
3C8
330
25A
100
AcDbEntity
  8
0
  6
CONTINUOUS
 62
     7
100
AcDbVertex
100
AcDb2dVertex
 10
8.1985338462
 20
7.3648230086
 30
0.0
  0
VERTEX
  5
3C9
330
25A
100
AcDbEntity
  8
0
  6
CONTINUOUS
 62
     7
100
AcDbVertex
100
AcDb2dVertex
 10
8.1762171258
 20
7.3504162549
 30
0.0
  0
VERTEX
  5
3CA
330
25A
100
AcDbEntity
  8
0
  6
CONTINUOUS
 62
     7
100
AcDbVertex
100
AcDb2dVertex
 10
8.1539876116
 20
7.334844546
 30
0.0
  0
VERTEX
  5
3CB
330
25A
100
AcDbEntity
  8
0
  6
CONTINUOUS
 62
     7
100
AcDbVertex
100
AcDb2dVertex
 10
8.1318949063
 20
7.3181426284
 30
0.0
  0
VERTEX
  5
3CC
330
25A
100
AcDbEntity
  8
0
  6
CONTINUOUS
 62
     7
100
AcDbVertex
100
AcDb2dVertex
 10
8.1099883075
 20
7.3003477705
 30
0.0
  0
VERTEX
  5
3CD
330
25A
100
AcDbEntity
  8
0
  6
CONTINUOUS
 62
     7
100
AcDbVertex
100
AcDb2dVertex
 10
8.0883166972
 20
7.2814996798
 30
0.0
  0
VERTEX
  5
3CE
330
25A
100
AcDbEntity
  8
0
  6
CONTINUOUS
 62
     7
100
AcDbVertex
100
AcDb2dVertex
 10
8.0669284333
 20
7.2616404135
 30
0.0
  0
VERTEX
  5
3CF
330
25A
100
AcDbEntity
  8
0
  6
CONTINUOUS
 62
     7
100
AcDbVertex
100
AcDb2dVertex
 10
8.0458712414
 20
7.2408142857
 30
0.0
  0
VERTEX
  5
3D0
330
25A
100
AcDbEntity
  8
0
  6
CONTINUOUS
 62
     7
100
AcDbVertex
100
AcDb2dVertex
 10
8.0251921084
 20
7.2190677673
 30
0.0
  0
VERTEX
  5
3D1
330
25A
100
AcDbEntity
  8
0
  6
CONTINUOUS
 62
     7
100
AcDbVertex
100
AcDb2dVertex
 10
8.0049371774
 20
7.1964493836
 30
0.0
  0
VERTEX
  5
3D2
330
25A
100
AcDbEntity
  8
0
  6
CONTINUOUS
 62
     7
100
AcDbVertex
100
AcDb2dVertex
 10
7.9851516452
 20
7.1730096048
 30
0.0
  0
VERTEX
  5
3D3
330
25A
100
AcDbEntity
  8
0
  6
CONTINUOUS
 62
     7
100
AcDbVertex
100
AcDb2dVertex
 10
7.9658796609
 20
7.1488007344
 30
0.0
  0
VERTEX
  5
3D4
330
25A
100
AcDbEntity
  8
0
  6
CONTINUOUS
 62
     7
100
AcDbVertex
100
AcDb2dVertex
 10
7.947164228
 20
7.1238767917
 30
0.0
  0
VERTEX
  5
3D5
330
25A
100
AcDbEntity
  8
0
  6
CONTINUOUS
 62
     7
100
AcDbVertex
100
AcDb2dVertex
 10
7.9290471079
 20
7.0982933919
 30
0.0
  0
VERTEX
  5
3D6
330
25A
100
AcDbEntity
  8
0
  6
CONTINUOUS
 62
     7
100
AcDbVertex
100
AcDb2dVertex
 10
7.9115687269
 20
7.0721076215
 30
0.0
  0
VERTEX
  5
3D7
330
25A
100
AcDbEntity
  8
0
  6
CONTINUOUS
 62
     7
100
AcDbVertex
100
AcDb2dVertex
 10
7.8947680861
 20
7.0453779111
 30
0.0
  0
VERTEX
  5
3D8
330
25A
100
AcDbEntity
  8
0
  6
CONTINUOUS
 62
     7
100
AcDbVertex
100
AcDb2dVertex
 10
7.8786826744
 20
7.0181639054
 30
0.0
  0
VERTEX
  5
3D9
330
25A
100
AcDbEntity
  8
0
  6
CONTINUOUS
 62
     7
100
AcDbVertex
100
AcDb2dVertex
 10
7.8633483846
 20
6.9905263292
 30
0.0
  0
VERTEX
  5
3DA
330
25A
100
AcDbEntity
  8
0
  6
CONTINUOUS
 62
     7
100
AcDbVertex
100
AcDb2dVertex
 10
7.8487994335
 20
6.9625268529
 30
0.0
  0
VERTEX
  5
3DB
330
25A
100
AcDbEntity
  8
0
  6
CONTINUOUS
 62
     7
100
AcDbVertex
100
AcDb2dVertex
 10
7.8350682855
 20
6.9342279543
 30
0.0
  0
VERTEX
  5
3DC
330
25A
100
AcDbEntity
  8
0
  6
CONTINUOUS
 62
     7
100
AcDbVertex
100
AcDb2dVertex
 10
7.8221855801
 20
6.9056927792
 30
0.0
  0
VERTEX
  5
3DD
330
25A
100
AcDbEntity
  8
0
  6
CONTINUOUS
 62
     7
100
AcDbVertex
100
AcDb2dVertex
 10
7.8101800638
 20
6.8769850008
 30
0.0
  0
VERTEX
  5
3DE
330
25A
100
AcDbEntity
  8
0
  6
CONTINUOUS
 62
     7
100
AcDbVertex
100
AcDb2dVertex
 10
7.7990785254
 20
6.8481686773
 30
0.0
  0
VERTEX
  5
3DF
330
25A
100
AcDbEntity
  8
0
  6
CONTINUOUS
 62
     7
100
AcDbVertex
100
AcDb2dVertex
 10
7.7889057369
 20
6.8193081093
 30
0.0
  0
VERTEX
  5
3E0
330
25A
100
AcDbEntity
  8
0
  6
CONTINUOUS
 62
     7
100
AcDbVertex
100
AcDb2dVertex
 10
7.7796843978
 20
6.790467696
 30
0.0
  0
VERTEX
  5
3E1
330
25A
100
AcDbEntity
  8
0
  6
CONTINUOUS
 62
     7
100
AcDbVertex
100
AcDb2dVertex
 10
7.7714350844
 20
6.7617117916
 30
0.0
  0
VERTEX
  5
3E2
330
25A
100
AcDbEntity
  8
0
  6
CONTINUOUS
 62
     7
100
AcDbVertex
100
AcDb2dVertex
 10
7.7641762043
 20
6.7331045617
 30
0.0
  0
VERTEX
  5
3E3
330
25A
100
AcDbEntity
  8
0
  6
CONTINUOUS
 62
     7
100
AcDbVertex
100
AcDb2dVertex
 10
7.7579239547
 20
6.7047098404
 30
0.0
  0
VERTEX
  5
3E4
330
25A
100
AcDbEntity
  8
0
  6
CONTINUOUS
 62
     7
100
AcDbVertex
100
AcDb2dVertex
 10
7.752692287
 20
6.6765909872
 30
0.0
  0
VERTEX
  5
3E5
330
25A
100
AcDbEntity
  8
0
  6
CONTINUOUS
 62
     7
100
AcDbVertex
100
AcDb2dVertex
 10
7.748492875
 20
6.6488107464
 30
0.0
  0
VERTEX
  5
3E6
330
25A
100
AcDbEntity
  8
0
  6
CONTINUOUS
 62
     7
100
AcDbVertex
100
AcDb2dVertex
 10
7.7453350892
 20
6.6214311066
 30
0.0
  0
VERTEX
  5
3E7
330
25A
100
AcDbEntity
  8
0
  6
CONTINUOUS
 62
     7
100
AcDbVertex
100
AcDb2dVertex
 10
7.7432259759
 20
6.5945131624
 30
0.0
  0
VERTEX
  5
3E8
330
25A
100
AcDbEntity
  8
0
  6
CONTINUOUS
 62
     7
100
AcDbVertex
100
AcDb2dVertex
 10
7.7421702414
 20
6.5681169782
 30
0.0
  0
VERTEX
  5
3E9
330
25A
100
AcDbEntity
  8
0
  6
CONTINUOUS
 62
     7
100
AcDbVertex
100
AcDb2dVertex
 10
7.7421702414
 20
6.5423014544
 30
0.0
  0
VERTEX
  5
3EA
330
25A
100
AcDbEntity
  8
0
  6
CONTINUOUS
 62
     7
100
AcDbVertex
100
AcDb2dVertex
 10
7.7432259759
 20
6.5171241954
 30
0.0
  0
VERTEX
  5
3EB
330
25A
100
AcDbEntity
  8
0
  6
CONTINUOUS
 62
     7
100
AcDbVertex
100
AcDb2dVertex
 10
7.7453350892
 20
6.4926413815
 30
0.0
  0
VERTEX
  5
3EC
330
25A
100
AcDbEntity
  8
0
  6
CONTINUOUS
 62
     7
100
AcDbVertex
100
AcDb2dVertex
 10
7.748492875
 20
6.4689076435
 30
0.0
  0
VERTEX
  5
3ED
330
25A
100
AcDbEntity
  8
0
  6
CONTINUOUS
 62
     7
100
AcDbVertex
100
AcDb2dVertex
 10
7.752692287
 20
6.4459759407
 30
0.0
  0
VERTEX
  5
3EE
330
25A
100
AcDbEntity
  8
0
  6
CONTINUOUS
 62
     7
100
AcDbVertex
100
AcDb2dVertex
 10
7.7579239547
 20
6.4238974425
 30
0.0
  0
VERTEX
  5
3EF
330
25A
100
AcDbEntity
  8
0
  6
CONTINUOUS
 62
     7
100
AcDbVertex
100
AcDb2dVertex
 10
7.7641762043
 20
6.4027214148
 30
0.0
  0
VERTEX
  5
3F0
330
25A
100
AcDbEntity
  8
0
  6
CONTINUOUS
 62
     7
100
AcDbVertex
100
AcDb2dVertex
 10
7.7714350844
 20
6.3824951096
 30
0.0
  0
VERTEX
  5
3F1
330
25A
100
AcDbEntity
  8
0
  6
CONTINUOUS
 62
     7
100
AcDbVertex
100
AcDb2dVertex
 10
7.7796843978
 20
6.3632636596
 30
0.0
  0
VERTEX
  5
3F2
330
25A
100
AcDbEntity
  8
0
  6
CONTINUOUS
 62
     7
100
AcDbVertex
100
AcDb2dVertex
 10
7.7889057369
 20
6.3450699778
 30
0.0
  0
VERTEX
  5
3F3
330
25A
100
AcDbEntity
  8
0
  6
CONTINUOUS
 62
     7
100
AcDbVertex
100
AcDb2dVertex
 10
7.7990785254
 20
6.3279546614
 30
0.0
  0
VERTEX
  5
3F4
330
25A
100
AcDbEntity
  8
0
  6
CONTINUOUS
 62
     7
100
AcDbVertex
100
AcDb2dVertex
 10
7.8101800638
 20
6.3119559013
 30
0.0
  0
VERTEX
  5
3F5
330
25A
100
AcDbEntity
  8
0
  6
CONTINUOUS
 62
     7
100
AcDbVertex
100
AcDb2dVertex
 10
7.8221855801
 20
6.2971093971
 30
0.0
  0
VERTEX
  5
3F6
330
25A
100
AcDbEntity
  8
0
  6
CONTINUOUS
 62
     7
100
AcDbVertex
100
AcDb2dVertex
 10
7.8350682855
 20
6.283448277
 30
0.0
  0
VERTEX
  5
3F7
330
25A
100
AcDbEntity
  8
0
  6
CONTINUOUS
 62
     7
100
AcDbVertex
100
AcDb2dVertex
 10
7.8487994335
 20
6.2710030244
 30
0.0
  0
VERTEX
  5
3F8
330
25A
100
AcDbEntity
  8
0
  6
CONTINUOUS
 62
     7
100
AcDbVertex
100
AcDb2dVertex
 10
7.8633483846
 20
6.2598014095
 30
0.0
  0
VERTEX
  5
3F9
330
25A
100
AcDbEntity
  8
0
  6
CONTINUOUS
 62
     7
100
AcDbVertex
100
AcDb2dVertex
 10
7.8786826744
 20
6.2498684275
 30
0.0
  0
VERTEX
  5
3FA
330
25A
100
AcDbEntity
  8
0
  6
CONTINUOUS
 62
     7
100
AcDbVertex
100
AcDb2dVertex
 10
7.88068019
 20
6.2487014382
 30
0.0
  0
SEQEND
  5
3FB
330
25A
100
AcDbEntity
  8
0
  6
CONTINUOUS
 62
     7
  0
SPLINE
  5
25B
330
1F
100
AcDbEntity
  8
0
  6
CONTINUOUS
 62
     7
100
AcDbSpline
210
0.0
220
0.0
230
1.0
 70
     8
 71
     3
 72
    82
 73
    78
 74
     0
 42
0.00000001
 43
0.00000001
 40
-0.0312500000000007
 40
-0.0312500000000007
 40
0.0
 40
0.0
 40
0.0312499999999994
 40
0.0312499999999994
 40
0.0468749999999991
 40
0.0468749999999991
 40
0.0624999999999988
 40
0.0624999999999988
 40
0.0781249999999985
 40
0.0781249999999985
 40
0.0937499999999983
 40
0.0937499999999983
 40
0.1249999999999976
 40
0.1249999999999976
 40
0.156249999999997
 40
0.156249999999997
 40
0.1874999999999963
 40
0.1874999999999963
 40
0.2187499999999957
 40
0.2187499999999957
 40
0.249999999999995
 40
0.249999999999995
 40
0.2812499999999943
 40
0.2812499999999943
 40
0.3124999999999937
 40
0.3124999999999937
 40
0.3749999999999927
 40
0.3749999999999927
 40
0.4062499999999922
 40
0.4062499999999922
 40
0.421874999999992
 40
0.421874999999992
 40
0.4374999999999917
 40
0.4374999999999917
 40
0.4531249999999915
 40
0.4531249999999915
 40
0.4687499999999912
 40
0.4687499999999912
 40
0.484374999999991
 40
0.484374999999991
 40
0.4999999999999907
 40
0.4999999999999907
 40
0.5156249999999907
 40
0.5156249999999907
 40
0.5312499999999907
 40
0.5312499999999907
 40
0.5468749999999908
 40
0.5468749999999908
 40
0.5624999999999908
 40
0.5624999999999908
 40
0.5937499999999912
 40
0.5937499999999912
 40
0.6249999999999918
 40
0.6249999999999918
 40
0.6562499999999922
 40
0.6562499999999922
 40
0.6874999999999928
 40
0.6874999999999928
 40
0.7187499999999932
 40
0.7187499999999932
 40
0.7499999999999937
 40
0.7499999999999937
 40
0.8124999999999951
 40
0.8124999999999951
 40
0.843749999999996
 40
0.843749999999996
 40
0.8749999999999968
 40
0.8749999999999968
 40
0.9062499999999977
 40
0.9062499999999977
 40
0.9218749999999981
 40
0.9218749999999981
 40
0.9374999999999986
 40
0.9374999999999986
 40
0.9687499999999993
 40
0.9687499999999993
 40
1.0
 40
1.0
 40
1.031249999999999
 40
1.031249999999999
 10
8.232887456026695
 20
7.024792397107382
 30
0.0
 10
8.222136285742586
 20
7.030998915602938
 30
0.0
 10
8.216269414408604
 20
7.033276817419453
 30
0.0
 10
8.206775311668494
 20
7.035507364597777
 30
0.0
 10
8.203469052499136
 20
7.036052012877465
 30
0.0
 10
8.196773459562358
 20
7.036711355802683
 30
0.0
 10
8.193381455682141
 20
7.036830636254716
 30
0.0
 10
8.186516819551
 20
7.03666464729086
 30
0.0
 10
8.183044159373702
 20
7.036379278484941
 30
0.0
 10
8.176023251084978
 20
7.035403819042566
 30
0.0
 10
8.172484281754489
 20
7.03471219020041
 30
0.0
 10
8.162016305713575
 20
7.032095973786213
 30
0.0
 10
8.155150270743952
 20
7.029625152748681
 30
0.0
 10
8.141660649127578
 20
7.023300438547737
 30
0.0
 10
8.135241038017284
 20
7.019542282809621
 30
0.0
 10
8.122995140376338
 20
7.010966066384812
 30
0.0
 10
8.117137502957116
 20
7.00610696910458
 30
0.0
 10
8.106319182154431
 20
6.995680520825332
 30
0.0
 10
8.101317808251196
 20
6.990092693707811
 30
0.0
 10
8.092068534156873
 20
6.978224633034917
 30
0.0
 10
8.087833399973013
 20
6.971946740918804
 30
0.0
 10
8.08028471638025
 20
6.959066416954933
 30
0.0
 10
8.076938081818454
 20
6.952423459122268
 30
0.0
 10
8.071062161650579
 20
6.938749679483585
 30
0.0
 10
8.068529909184656
 20
6.931690442746699
 30
0.0
 10
8.062333950945252
 20
6.910465310643715
 30
0.0
 10
8.05993166997705
 20
6.896083918783858
 30
0.0
 10
8.059348573759886
 20
6.874258030943426
 30
0.0
 10
8.059674891156185
 20
6.867100749020372
 30
0.0
 10
8.061063735092423
 20
6.856595804453697
 30
0.0
 10
8.061677861926377
 20
6.853133050766316
 30
0.0
 10
8.06325250020917
 20
6.846302086042757
 30
0.0
 10
8.064214255209482
 20
6.842940148145898
 30
0.0
 10
8.066487469965299
 20
6.836488056242532
 30
0.0
 10
8.067802401313317
 20
6.833379249400848
 30
0.0
 10
8.070839949170237
 20
6.827438251655095
 30
0.0
 10
8.072580571175319
 20
6.824583253592816
 30
0.0
 10
8.076446218260392
 20
6.819349743746701
 30
0.0
 10
8.078565626317497
 20
6.816969184713187
 30
0.0
 10
8.083206937060089
 20
6.812725775308007
 30
0.0
 10
8.085759085419854
 20
6.810849741496415
 30
0.0
 10
8.091104662089553
 20
6.807786786649726
 30
0.0
 10
8.093904456957905
 20
6.806583698840989
 30
0.0
 10
8.099749067114598
 20
6.804805810194198
 30
0.0
 10
8.102817319534564
 20
6.804233034770375
 30
0.0
 10
8.108987486771989
 20
6.803707238665897
 30
0.0
 10
8.112108437303027
 20
6.803743603859174
 30
0.0
 10
8.11841948812424
 20
6.804336341081962
 30
0.0
 10
8.121611450639014
 20
6.804897176488752
 30
0.0
 10
8.131045159351945
 20
6.807202408917615
 30
0.0
 10
8.13723737736669
 20
6.809563143282024
 30
0.0
 10
8.149528316041138
 20
6.815512453819313
 30
0.0
 10
8.15555017869933
 20
6.819075884337943
 30
0.0
 10
8.167197337676646
 20
6.826964898662959
 30
0.0
 10
8.172865520999528
 20
6.831315576811666
 30
0.0
 10
8.183957283332898
 20
6.840726545565642
 30
0.0
 10
8.1893881525122
 20
6.845802685076492
 30
0.0
 10
8.199761216785186
 20
6.856369310339826
 30
0.0
 10
8.204740298819988
 20
6.861889620025025
 30
0.0
 10
8.214290498196737
 20
6.873400872106005
 30
0.0
 10
8.218893636595192
 20
6.879440037972878
 30
0.0
 10
8.231743729670935
 20
6.897925828858402
 30
0.0
 10
8.23907223851522
 20
6.910685160524384
 30
0.0
 10
8.247696380411734
 20
6.930710223404541
 30
0.0
 10
8.250155332429875
 20
6.937543992322901
 30
0.0
 10
8.25389851208609
 20
6.951004928482841
 30
0.0
 10
8.255217797968731
 20
6.957700240589007
 30
0.0
 10
8.256532474616584
 20
6.971049650141218
 30
0.0
 10
8.25650172303524
 20
6.977525340939378
 30
0.0
 10
8.255334333297855
 20
6.986795530924219
 30
0.0
 10
8.254758069923154
 20
6.989819930641193
 30
0.0
 10
8.253200734290518
 20
6.995734128677046
 30
0.0
 10
8.252209014992047
 20
6.998646422712381
 30
0.0
 10
8.248646148601408
 20
7.006968582189423
 30
0.0
 10
8.245514023221858
 20
7.011972055362223
 30
0.0
 10
8.237657260835364
 20
7.02088644327497
 30
0.0
 10
8.232887456026695
 20
7.024792397107382
 30
0.0
 10
8.222136285742586
 20
7.030998915602938
 30
0.0
  0
SPLINE
  5
25C
330
1F
100
AcDbEntity
  8
0
  6
CONTINUOUS
 62
     7
100
AcDbSpline
210
0.0
220
0.0
230
1.0
 70
     8
 71
     3
 72
    12
 73
     8
 74
     0
 42
0.00000001
 43
0.00000001
 40
0.0
 40
0.0
 40
0.0
 40
0.0
 40
0.1748618081352209
 40
0.3560801745244803
 40
0.708596568330426
 40
0.9643679500557377
 40
1.0
 40
1.0
 40
1.0
 40
1.0
 10
8.116156472272584
 20
6.1131032318726
 30
0.0
 10
8.118044177856557
 20
6.112008585087513
 30
0.0
 10
8.121888210701462
 20
6.109779499031312
 30
0.0
 10
8.130469804895586
 20
6.10472491858711
 30
0.0
 10
8.140532319760275
 20
6.098774993693412
 30
0.0
 10
8.148712857334731
 20
6.093952715106616
 30
0.0
 10
8.152244704592805
 20
6.091936457721983
 30
0.0
 10
8.15267656964386
 20
6.091689915039153
 30
0.0
  0
SPLINE
  5
25D
330
1F
100
AcDbEntity
  8
0
  6
CONTINUOUS
 62
     7
100
AcDbSpline
210
0.0
220
0.0
230
1.0
 70
     8
 71
     3
 72
    13
 73
     9
 74
     0
 42
0.00000001
 43
0.00000001
 40
0.0
 40
0.0
 40
0.0
 40
0.0
 40
0.0180636778028525
 40
0.2686898598749646
 40
0.4564017491510109
 40
0.6488542465973347
 40
0.82148906282029
 40
1.0
 40
1.0
 40
1.0
 40
1.0
 10
8.099134694636525
 20
6.122594767373014
 30
0.0
 10
8.099138782868001
 20
6.122590953799246
 30
0.0
 10
8.099199593648306
 20
6.122534228440635
 30
0.0
 10
8.100513567311271
 20
6.121845185336049
 30
0.0
 10
8.103103450022537
 20
6.120447989482679
 30
0.0
 10
8.106537204720118
 20
6.118565695116856
 30
0.0
 10
8.110851127973454
 20
6.116150418938909
 30
0.0
 10
8.114368404643614
 20
6.114130229602716
 30
0.0
 10
8.116156472272584
 20
6.1131032318726
 30
0.0
  0
POLYLINE
  5
25E
330
1F
100
AcDbEntity
  8
0
  6
CONTINUOUS
 62
     7
100
AcDb2dPolyline
 66
     1
 10
0.0
 20
0.0
 30
0.0
  0
VERTEX
  5
3FC
330
25E
100
AcDbEntity
  8
0
  6
CONTINUOUS
 62
     7
100
AcDbVertex
100
AcDb2dVertex
 10
7.8991793853
 20
6.4564396063
 30
0.0
  0
VERTEX
  5
3FD
330
25E
100
AcDbEntity
  8
0
  6
CONTINUOUS
 62
     7
100
AcDbVertex
100
AcDb2dVertex
 10
7.9000374989
 20
6.4311107345
 30
0.0
  0
VERTEX
  5
3FE
330
25E
100
AcDbEntity
  8
0
  6
CONTINUOUS
 62
     7
100
AcDbVertex
100
AcDb2dVertex
 10
7.9019518782
 20
6.4064673517
 30
0.0
  0
VERTEX
  5
3FF
330
25E
100
AcDbEntity
  8
0
  6
CONTINUOUS
 62
     7
100
AcDbVertex
100
AcDb2dVertex
 10
7.9049182424
 20
6.382564565
 30
0.0
  0
VERTEX
  5
400
330
25E
100
AcDbEntity
  8
0
  6
CONTINUOUS
 62
     7
100
AcDbVertex
100
AcDb2dVertex
 10
7.908929958
 20
6.3594558256
 30
0.0
  0
VERTEX
  5
401
330
25E
100
AcDbEntity
  8
0
  6
CONTINUOUS
 62
     7
100
AcDbVertex
100
AcDb2dVertex
 10
7.9139780542
 20
6.337192809
 30
0.0
  0
VERTEX
  5
402
330
25E
100
AcDbEntity
  8
0
  6
CONTINUOUS
 62
     7
100
AcDbVertex
100
AcDb2dVertex
 10
7.9200512425
 20
6.3158252993
 30
0.0
  0
VERTEX
  5
403
330
25E
100
AcDbEntity
  8
0
  6
CONTINUOUS
 62
     7
100
AcDbVertex
100
AcDb2dVertex
 10
7.927135942
 20
6.2954010785
 30
0.0
  0
VERTEX
  5
404
330
25E
100
AcDbEntity
  8
0
  6
CONTINUOUS
 62
     7
100
AcDbVertex
100
AcDb2dVertex
 10
7.9352163101
 20
6.2759658188
 30
0.0
  0
VERTEX
  5
405
330
25E
100
AcDbEntity
  8
0
  6
CONTINUOUS
 62
     7
100
AcDbVertex
100
AcDb2dVertex
 10
7.9442742775
 20
6.2575629812
 30
0.0
  0
VERTEX
  5
406
330
25E
100
AcDbEntity
  8
0
  6
CONTINUOUS
 62
     7
100
AcDbVertex
100
AcDb2dVertex
 10
7.9542895889
 20
6.2402337178
 30
0.0
  0
VERTEX
  5
407
330
25E
100
AcDbEntity
  8
0
  6
CONTINUOUS
 62
     7
100
AcDbVertex
100
AcDb2dVertex
 10
7.9652398482
 20
6.2240167802
 30
0.0
  0
VERTEX
  5
408
330
25E
100
AcDbEntity
  8
0
  6
CONTINUOUS
 62
     7
100
AcDbVertex
100
AcDb2dVertex
 10
7.9771005685
 20
6.2089484324
 30
0.0
  0
VERTEX
  5
409
330
25E
100
AcDbEntity
  8
0
  6
CONTINUOUS
 62
     7
100
AcDbVertex
100
AcDb2dVertex
 10
7.9898452272
 20
6.1950623701
 30
0.0
  0
VERTEX
  5
40A
330
25E
100
AcDbEntity
  8
0
  6
CONTINUOUS
 62
     7
100
AcDbVertex
100
AcDb2dVertex
 10
8.0034453246
 20
6.1823896452
 30
0.0
  0
VERTEX
  5
40B
330
25E
100
AcDbEntity
  8
0
  6
CONTINUOUS
 62
     7
100
AcDbVertex
100
AcDb2dVertex
 10
8.0178704485
 20
6.1709585962
 30
0.0
  0
VERTEX
  5
40C
330
25E
100
AcDbEntity
  8
0
  6
CONTINUOUS
 62
     7
100
AcDbVertex
100
AcDb2dVertex
 10
8.0330883416
 20
6.1607947851
 30
0.0
  0
VERTEX
  5
40D
330
25E
100
AcDbEntity
  8
0
  6
CONTINUOUS
 62
     7
100
AcDbVertex
100
AcDb2dVertex
 10
8.0377701787
 20
6.158015318
 30
0.0
  0
SEQEND
  5
40E
330
25E
100
AcDbEntity
  8
0
  6
CONTINUOUS
 62
     7
  0
LINE
  5
25F
330
1F
100
AcDbEntity
  8
0
  6
CONTINUOUS
 62
     7
100
AcDbLine
 10
8.0708522915
 20
6.3573349471
 30
0.0
 11
7.8991793853
 21
6.4564396063
 31
0.0
  0
LINE
  5
260
330
1F
100
AcDbEntity
  8
0
  6
CONTINUOUS
 62
     7
100
AcDbLine
 10
8.0708522915
 20
6.3734085851
 30
0.0
 11
7.8991793853
 21
6.4725132443
 31
0.0
  0
POLYLINE
  5
261
330
1F
100
AcDbEntity
  8
0
  6
CONTINUOUS
 62
     7
100
AcDb2dPolyline
 66
     1
 10
0.0
 20
0.0
 30
0.0
  0
VERTEX
  5
40F
330
261
100
AcDbEntity
  8
0
  6
CONTINUOUS
 62
     7
100
AcDbVertex
100
AcDb2dVertex
 10
8.5898796652
 20
7.3485850078
 30
0.0
  0
VERTEX
  5
410
330
261
100
AcDbEntity
  8
0
  6
CONTINUOUS
 62
     7
100
AcDbVertex
100
AcDb2dVertex
 10
8.5697655732
 20
7.3483038696
 30
0.0
  0
VERTEX
  5
411
330
261
100
AcDbEntity
  8
0
  6
CONTINUOUS
 62
     7
100
AcDbVertex
100
AcDb2dVertex
 10
8.5492101094
 20
7.3466572044
 30
0.0
  0
VERTEX
  5
412
330
261
100
AcDbEntity
  8
0
  6
CONTINUOUS
 62
     7
100
AcDbVertex
100
AcDb2dVertex
 10
8.5282592396
 20
7.3436486946
 30
0.0
  0
VERTEX
  5
413
330
261
100
AcDbEntity
  8
0
  6
CONTINUOUS
 62
     7
100
AcDbVertex
100
AcDb2dVertex
 10
8.506959814
 20
7.3392850678
 30
0.0
  0
VERTEX
  5
414
330
261
100
AcDbEntity
  8
0
  6
CONTINUOUS
 62
     7
100
AcDbVertex
100
AcDb2dVertex
 10
8.485359462
 20
7.3335760818
 30
0.0
  0
VERTEX
  5
415
330
261
100
AcDbEntity
  8
0
  6
CONTINUOUS
 62
     7
100
AcDbVertex
100
AcDb2dVertex
 10
8.4635064862
 20
7.326534503
 30
0.0
  0
VERTEX
  5
416
330
261
100
AcDbEntity
  8
0
  6
CONTINUOUS
 62
     7
100
AcDbVertex
100
AcDb2dVertex
 10
8.4414497537
 20
7.3181760777
 30
0.0
  0
VERTEX
  5
417
330
261
100
AcDbEntity
  8
0
  6
CONTINUOUS
 62
     7
100
AcDbVertex
100
AcDb2dVertex
 10
8.4192385877
 20
7.3085194969
 30
0.0
  0
VERTEX
  5
418
330
261
100
AcDbEntity
  8
0
  6
CONTINUOUS
 62
     7
100
AcDbVertex
100
AcDb2dVertex
 10
8.3969226565
 20
7.2975863545
 30
0.0
  0
VERTEX
  5
419
330
261
100
AcDbEntity
  8
0
  6
CONTINUOUS
 62
     7
100
AcDbVertex
100
AcDb2dVertex
 10
8.3745518626
 20
7.2854010991
 30
0.0
  0
VERTEX
  5
41A
330
261
100
AcDbEntity
  8
0
  6
CONTINUOUS
 62
     7
100
AcDbVertex
100
AcDb2dVertex
 10
8.3521762314
 20
7.2719909792
 30
0.0
  0
VERTEX
  5
41B
330
261
100
AcDbEntity
  8
0
  6
CONTINUOUS
 62
     7
100
AcDbVertex
100
AcDb2dVertex
 10
8.3298457989
 20
7.2573859824
 30
0.0
  0
VERTEX
  5
41C
330
261
100
AcDbEntity
  8
0
  6
CONTINUOUS
 62
     7
100
AcDbVertex
100
AcDb2dVertex
 10
8.3076105003
 20
7.2416187681
 30
0.0
  0
VERTEX
  5
41D
330
261
100
AcDbEntity
  8
0
  6
CONTINUOUS
 62
     7
100
AcDbVertex
100
AcDb2dVertex
 10
8.2855200577
 20
7.2247245948
 30
0.0
  0
VERTEX
  5
41E
330
261
100
AcDbEntity
  8
0
  6
CONTINUOUS
 62
     7
100
AcDbVertex
100
AcDb2dVertex
 10
8.2636238696
 20
7.206741241
 30
0.0
  0
VERTEX
  5
41F
330
261
100
AcDbEntity
  8
0
  6
CONTINUOUS
 62
     7
100
AcDbVertex
100
AcDb2dVertex
 10
8.2419709
 20
7.187708921
 30
0.0
  0
VERTEX
  5
420
330
261
100
AcDbEntity
  8
0
  6
CONTINUOUS
 62
     7
100
AcDbVertex
100
AcDb2dVertex
 10
8.2206095689
 20
7.1676701944
 30
0.0
  0
VERTEX
  5
421
330
261
100
AcDbEntity
  8
0
  6
CONTINUOUS
 62
     7
100
AcDbVertex
100
AcDb2dVertex
 10
8.1995876442
 20
7.1466698718
 30
0.0
  0
VERTEX
  5
422
330
261
100
AcDbEntity
  8
0
  6
CONTINUOUS
 62
     7
100
AcDbVertex
100
AcDb2dVertex
 10
8.1789521351
 20
7.1247549137
 30
0.0
  0
VERTEX
  5
423
330
261
100
AcDbEntity
  8
0
  6
CONTINUOUS
 62
     7
100
AcDbVertex
100
AcDb2dVertex
 10
8.1587491862
 20
7.101974326
 30
0.0
  0
VERTEX
  5
424
330
261
100
AcDbEntity
  8
0
  6
CONTINUOUS
 62
     7
100
AcDbVertex
100
AcDb2dVertex
 10
8.1390239753
 20
7.0783790506
 30
0.0
  0
VERTEX
  5
425
330
261
100
AcDbEntity
  8
0
  6
CONTINUOUS
 62
     7
100
AcDbVertex
100
AcDb2dVertex
 10
8.1198206115
 20
7.0540218507
 30
0.0
  0
VERTEX
  5
426
330
261
100
AcDbEntity
  8
0
  6
CONTINUOUS
 62
     7
100
AcDbVertex
100
AcDb2dVertex
 10
8.1011820373
 20
7.0289571937
 30
0.0
  0
VERTEX
  5
427
330
261
100
AcDbEntity
  8
0
  6
CONTINUOUS
 62
     7
100
AcDbVertex
100
AcDb2dVertex
 10
8.0831499318
 20
7.0032411289
 30
0.0
  0
VERTEX
  5
428
330
261
100
AcDbEntity
  8
0
  6
CONTINUOUS
 62
     7
100
AcDbVertex
100
AcDb2dVertex
 10
8.0657646184
 20
6.9769311622
 30
0.0
  0
VERTEX
  5
429
330
261
100
AcDbEntity
  8
0
  6
CONTINUOUS
 62
     7
100
AcDbVertex
100
AcDb2dVertex
 10
8.0490649739
 20
6.9500861276
 30
0.0
  0
VERTEX
  5
42A
330
261
100
AcDbEntity
  8
0
  6
CONTINUOUS
 62
     7
100
AcDbVertex
100
AcDb2dVertex
 10
8.0330883416
 20
6.9227660557
 30
0.0
  0
VERTEX
  5
42B
330
261
100
AcDbEntity
  8
0
  6
CONTINUOUS
 62
     7
100
AcDbVertex
100
AcDb2dVertex
 10
8.0178704485
 20
6.8950320392
 30
0.0
  0
VERTEX
  5
42C
330
261
100
AcDbEntity
  8
0
  6
CONTINUOUS
 62
     7
100
AcDbVertex
100
AcDb2dVertex
 10
8.0034453246
 20
6.8669460966
 30
0.0
  0
VERTEX
  5
42D
330
261
100
AcDbEntity
  8
0
  6
CONTINUOUS
 62
     7
100
AcDbVertex
100
AcDb2dVertex
 10
7.9898452272
 20
6.8385710333
 30
0.0
  0
VERTEX
  5
42E
330
261
100
AcDbEntity
  8
0
  6
CONTINUOUS
 62
     7
100
AcDbVertex
100
AcDb2dVertex
 10
7.9771005685
 20
6.8099703014
 30
0.0
  0
VERTEX
  5
42F
330
261
100
AcDbEntity
  8
0
  6
CONTINUOUS
 62
     7
100
AcDbVertex
100
AcDb2dVertex
 10
7.9652398482
 20
6.7812078574
 30
0.0
  0
VERTEX
  5
430
330
261
100
AcDbEntity
  8
0
  6
CONTINUOUS
 62
     7
100
AcDbVertex
100
AcDb2dVertex
 10
7.9542895889
 20
6.7523480194
 30
0.0
  0
VERTEX
  5
431
330
261
100
AcDbEntity
  8
0
  6
CONTINUOUS
 62
     7
100
AcDbVertex
100
AcDb2dVertex
 10
7.9442742775
 20
6.7234553237
 30
0.0
  0
VERTEX
  5
432
330
261
100
AcDbEntity
  8
0
  6
CONTINUOUS
 62
     7
100
AcDbVertex
100
AcDb2dVertex
 10
7.9352163101
 20
6.6945943795
 30
0.0
  0
VERTEX
  5
433
330
261
100
AcDbEntity
  8
0
  6
CONTINUOUS
 62
     7
100
AcDbVertex
100
AcDb2dVertex
 10
7.927135942
 20
6.6658297255
 30
0.0
  0
VERTEX
  5
434
330
261
100
AcDbEntity
  8
0
  6
CONTINUOUS
 62
     7
100
AcDbVertex
100
AcDb2dVertex
 10
7.9200512425
 20
6.6372256847
 30
0.0
  0
VERTEX
  5
435
330
261
100
AcDbEntity
  8
0
  6
CONTINUOUS
 62
     7
100
AcDbVertex
100
AcDb2dVertex
 10
7.9139780542
 20
6.6088462212
 30
0.0
  0
VERTEX
  5
436
330
261
100
AcDbEntity
  8
0
  6
CONTINUOUS
 62
     7
100
AcDbVertex
100
AcDb2dVertex
 10
7.908929958
 20
6.5807547967
 30
0.0
  0
VERTEX
  5
437
330
261
100
AcDbEntity
  8
0
  6
CONTINUOUS
 62
     7
100
AcDbVertex
100
AcDb2dVertex
 10
7.9049182424
 20
6.553014229
 30
0.0
  0
VERTEX
  5
438
330
261
100
AcDbEntity
  8
0
  6
CONTINUOUS
 62
     7
100
AcDbVertex
100
AcDb2dVertex
 10
7.9019518782
 20
6.5256865511
 30
0.0
  0
VERTEX
  5
439
330
261
100
AcDbEntity
  8
0
  6
CONTINUOUS
 62
     7
100
AcDbVertex
100
AcDb2dVertex
 10
7.9000374989
 20
6.498832873
 30
0.0
  0
VERTEX
  5
43A
330
261
100
AcDbEntity
  8
0
  6
CONTINUOUS
 62
     7
100
AcDbVertex
100
AcDb2dVertex
 10
7.8991793853
 20
6.4725132443
 30
0.0
  0
SEQEND
  5
43B
330
261
100
AcDbEntity
  8
0
  6
CONTINUOUS
 62
     7
  0
LINE
  5
262
330
1F
100
AcDbEntity
  8
0
  6
CONTINUOUS
 62
     7
100
AcDbLine
 10
8.5713204321
 20
7.3592990251
 30
0.0
 11
8.5898796652
 21
7.3485850078
 31
0.0
  0
POLYLINE
  5
263
330
1F
100
AcDbEntity
  8
0
  6
CONTINUOUS
 62
     7
100
AcDb2dPolyline
 66
     1
 10
0.0
 20
0.0
 30
0.0
  0
VERTEX
  5
43C
330
263
100
AcDbEntity
  8
0
  6
CONTINUOUS
 62
     7
100
AcDbVertex
100
AcDb2dVertex
 10
8.028619216
 20
6.1635951856
 30
0.0
  0
VERTEX
  5
43D
330
263
100
AcDbEntity
  8
0
  6
CONTINUOUS
 62
     7
100
AcDbVertex
100
AcDb2dVertex
 10
8.0163650597
 20
6.1704004115
 30
0.0
  0
VERTEX
  5
43E
330
263
100
AcDbEntity
  8
0
  6
CONTINUOUS
 62
     7
100
AcDbVertex
100
AcDb2dVertex
 10
8.0011211903
 20
6.1803677102
 30
0.0
  0
VERTEX
  5
43F
330
263
100
AcDbEntity
  8
0
  6
CONTINUOUS
 62
     7
100
AcDbVertex
100
AcDb2dVertex
 10
7.9866592037
 20
6.1915941517
 30
0.0
  0
VERTEX
  5
440
330
263
100
AcDbEntity
  8
0
  6
CONTINUOUS
 62
     7
100
AcDbVertex
100
AcDb2dVertex
 10
7.9730111594
 20
6.2040548491
 30
0.0
  0
VERTEX
  5
441
330
263
100
AcDbEntity
  8
0
  6
CONTINUOUS
 62
     7
100
AcDbVertex
100
AcDb2dVertex
 10
7.9602073122
 20
6.2177221796
 30
0.0
  0
VERTEX
  5
442
330
263
100
AcDbEntity
  8
0
  6
CONTINUOUS
 62
     7
100
AcDbVertex
100
AcDb2dVertex
 10
7.9482760458
 20
6.2325658454
 30
0.0
  0
VERTEX
  5
443
330
263
100
AcDbEntity
  8
0
  6
CONTINUOUS
 62
     7
100
AcDbVertex
100
AcDb2dVertex
 10
7.9372438093
 20
6.2485529413
 30
0.0
  0
VERTEX
  5
444
330
263
100
AcDbEntity
  8
0
  6
CONTINUOUS
 62
     7
100
AcDbVertex
100
AcDb2dVertex
 10
7.927135059
 20
6.2656480269
 30
0.0
  0
VERTEX
  5
445
330
263
100
AcDbEntity
  8
0
  6
CONTINUOUS
 62
     7
100
AcDbVertex
100
AcDb2dVertex
 10
7.9179722039
 20
6.283813206
 30
0.0
  0
VERTEX
  5
446
330
263
100
AcDbEntity
  8
0
  6
CONTINUOUS
 62
     7
100
AcDbVertex
100
AcDb2dVertex
 10
7.9097755563
 20
6.30300821
 30
0.0
  0
VERTEX
  5
447
330
263
100
AcDbEntity
  8
0
  6
CONTINUOUS
 62
     7
100
AcDbVertex
100
AcDb2dVertex
 10
7.9025632864
 20
6.3231904874
 30
0.0
  0
VERTEX
  5
448
330
263
100
AcDbEntity
  8
0
  6
CONTINUOUS
 62
     7
100
AcDbVertex
100
AcDb2dVertex
 10
7.8963513824
 20
6.3443152984
 30
0.0
  0
VERTEX
  5
449
330
263
100
AcDbEntity
  8
0
  6
CONTINUOUS
 62
     7
100
AcDbVertex
100
AcDb2dVertex
 10
7.8911536148
 20
6.3663358132
 30
0.0
  0
VERTEX
  5
44A
330
263
100
AcDbEntity
  8
0
  6
CONTINUOUS
 62
     7
100
AcDbVertex
100
AcDb2dVertex
 10
7.886981506
 20
6.3892032171
 30
0.0
  0
VERTEX
  5
44B
330
263
100
AcDbEntity
  8
0
  6
CONTINUOUS
 62
     7
100
AcDbVertex
100
AcDb2dVertex
 10
7.8838443048
 20
6.4128668175
 30
0.0
  0
VERTEX
  5
44C
330
263
100
AcDbEntity
  8
0
  6
CONTINUOUS
 62
     7
100
AcDbVertex
100
AcDb2dVertex
 10
7.8817489657
 20
6.437274157
 30
0.0
  0
VERTEX
  5
44D
330
263
100
AcDbEntity
  8
0
  6
CONTINUOUS
 62
     7
100
AcDbVertex
100
AcDb2dVertex
 10
7.8807001336
 20
6.4623711295
 30
0.0
  0
VERTEX
  5
44E
330
263
100
AcDbEntity
  8
0
  6
CONTINUOUS
 62
     7
100
AcDbVertex
100
AcDb2dVertex
 10
7.8807001336
 20
6.4881021001
 30
0.0
  0
VERTEX
  5
44F
330
263
100
AcDbEntity
  8
0
  6
CONTINUOUS
 62
     7
100
AcDbVertex
100
AcDb2dVertex
 10
7.8817489657
 20
6.5144100283
 30
0.0
  0
VERTEX
  5
450
330
263
100
AcDbEntity
  8
0
  6
CONTINUOUS
 62
     7
100
AcDbVertex
100
AcDb2dVertex
 10
7.8838443048
 20
6.5412365949
 30
0.0
  0
VERTEX
  5
451
330
263
100
AcDbEntity
  8
0
  6
CONTINUOUS
 62
     7
100
AcDbVertex
100
AcDb2dVertex
 10
7.886981506
 20
6.5685223307
 30
0.0
  0
VERTEX
  5
452
330
263
100
AcDbEntity
  8
0
  6
CONTINUOUS
 62
     7
100
AcDbVertex
100
AcDb2dVertex
 10
7.8911536148
 20
6.5962067488
 30
0.0
  0
VERTEX
  5
453
330
263
100
AcDbEntity
  8
0
  6
CONTINUOUS
 62
     7
100
AcDbVertex
100
AcDb2dVertex
 10
7.8963513824
 20
6.6242284785
 30
0.0
  0
VERTEX
  5
454
330
263
100
AcDbEntity
  8
0
  6
CONTINUOUS
 62
     7
100
AcDbVertex
100
AcDb2dVertex
 10
7.9025632864
 20
6.6525254011
 30
0.0
  0
VERTEX
  5
455
330
263
100
AcDbEntity
  8
0
  6
CONTINUOUS
 62
     7
100
AcDbVertex
100
AcDb2dVertex
 10
7.9097755563
 20
6.6810347881
 30
0.0
  0
VERTEX
  5
456
330
263
100
AcDbEntity
  8
0
  6
CONTINUOUS
 62
     7
100
AcDbVertex
100
AcDb2dVertex
 10
7.9179722039
 20
6.7096934401
 30
0.0
  0
VERTEX
  5
457
330
263
100
AcDbEntity
  8
0
  6
CONTINUOUS
 62
     7
100
AcDbVertex
100
AcDb2dVertex
 10
7.927135059
 20
6.7384378265
 30
0.0
  0
VERTEX
  5
458
330
263
100
AcDbEntity
  8
0
  6
CONTINUOUS
 62
     7
100
AcDbVertex
100
AcDb2dVertex
 10
7.9372438093
 20
6.7672042268
 30
0.0
  0
VERTEX
  5
459
330
263
100
AcDbEntity
  8
0
  6
CONTINUOUS
 62
     7
100
AcDbVertex
100
AcDb2dVertex
 10
7.9482760458
 20
6.7959288717
 30
0.0
  0
VERTEX
  5
45A
330
263
100
AcDbEntity
  8
0
  6
CONTINUOUS
 62
     7
100
AcDbVertex
100
AcDb2dVertex
 10
7.9602073122
 20
6.8245480846
 30
0.0
  0
VERTEX
  5
45B
330
263
100
AcDbEntity
  8
0
  6
CONTINUOUS
 62
     7
100
AcDbVertex
100
AcDb2dVertex
 10
7.9730111594
 20
6.8529984223
 30
0.0
  0
VERTEX
  5
45C
330
263
100
AcDbEntity
  8
0
  6
CONTINUOUS
 62
     7
100
AcDbVertex
100
AcDb2dVertex
 10
7.9866592037
 20
6.8812168163
 30
0.0
  0
VERTEX
  5
45D
330
263
100
AcDbEntity
  8
0
  6
CONTINUOUS
 62
     7
100
AcDbVertex
100
AcDb2dVertex
 10
8.0011211903
 20
6.909140712
 30
0.0
  0
VERTEX
  5
45E
330
263
100
AcDbEntity
  8
0
  6
CONTINUOUS
 62
     7
100
AcDbVertex
100
AcDb2dVertex
 10
8.0163650597
 20
6.9367082078
 30
0.0
  0
VERTEX
  5
45F
330
263
100
AcDbEntity
  8
0
  6
CONTINUOUS
 62
     7
100
AcDbVertex
100
AcDb2dVertex
 10
8.0323570195
 20
6.9638581922
 30
0.0
  0
VERTEX
  5
460
330
263
100
AcDbEntity
  8
0
  6
CONTINUOUS
 62
     7
100
AcDbVertex
100
AcDb2dVertex
 10
8.0490616188
 20
6.990530479
 30
0.0
  0
VERTEX
  5
461
330
263
100
AcDbEntity
  8
0
  6
CONTINUOUS
 62
     7
100
AcDbVertex
100
AcDb2dVertex
 10
8.0664418266
 20
7.0166659414
 30
0.0
  0
VERTEX
  5
462
330
263
100
AcDbEntity
  8
0
  6
CONTINUOUS
 62
     7
100
AcDbVertex
100
AcDb2dVertex
 10
8.0844591148
 20
7.0422066421
 30
0.0
  0
VERTEX
  5
463
330
263
100
AcDbEntity
  8
0
  6
CONTINUOUS
 62
     7
100
AcDbVertex
100
AcDb2dVertex
 10
8.1030735425
 20
7.0670959626
 30
0.0
  0
VERTEX
  5
464
330
263
100
AcDbEntity
  8
0
  6
CONTINUOUS
 62
     7
100
AcDbVertex
100
AcDb2dVertex
 10
8.1222438453
 20
7.0912787283
 30
0.0
  0
VERTEX
  5
465
330
263
100
AcDbEntity
  8
0
  6
CONTINUOUS
 62
     7
100
AcDbVertex
100
AcDb2dVertex
 10
8.1419275266
 20
7.1147013309
 30
0.0
  0
VERTEX
  5
466
330
263
100
AcDbEntity
  8
0
  6
CONTINUOUS
 62
     7
100
AcDbVertex
100
AcDb2dVertex
 10
8.1620809516
 20
7.1373118473
 30
0.0
  0
VERTEX
  5
467
330
263
100
AcDbEntity
  8
0
  6
CONTINUOUS
 62
     7
100
AcDbVertex
100
AcDb2dVertex
 10
8.1826594442
 20
7.1590601545
 30
0.0
  0
VERTEX
  5
468
330
263
100
AcDbEntity
  8
0
  6
CONTINUOUS
 62
     7
100
AcDbVertex
100
AcDb2dVertex
 10
8.2036173861
 20
7.1798980408
 30
0.0
  0
VERTEX
  5
469
330
263
100
AcDbEntity
  8
0
  6
CONTINUOUS
 62
     7
100
AcDbVertex
100
AcDb2dVertex
 10
8.2249083178
 20
7.1997793129
 30
0.0
  0
VERTEX
  5
46A
330
263
100
AcDbEntity
  8
0
  6
CONTINUOUS
 62
     7
100
AcDbVertex
100
AcDb2dVertex
 10
8.2464850415
 20
7.218659898
 30
0.0
  0
VERTEX
  5
46B
330
263
100
AcDbEntity
  8
0
  6
CONTINUOUS
 62
     7
100
AcDbVertex
100
AcDb2dVertex
 10
8.268299726
 20
7.2364979418
 30
0.0
  0
VERTEX
  5
46C
330
263
100
AcDbEntity
  8
0
  6
CONTINUOUS
 62
     7
100
AcDbVertex
100
AcDb2dVertex
 10
8.2903040125
 20
7.2532539007
 30
0.0
  0
VERTEX
  5
46D
330
263
100
AcDbEntity
  8
0
  6
CONTINUOUS
 62
     7
100
AcDbVertex
100
AcDb2dVertex
 10
8.3124491221
 20
7.2688906303
 30
0.0
  0
VERTEX
  5
46E
330
263
100
AcDbEntity
  8
0
  6
CONTINUOUS
 62
     7
100
AcDbVertex
100
AcDb2dVertex
 10
8.3346859634
 20
7.2833734671
 30
0.0
  0
VERTEX
  5
46F
330
263
100
AcDbEntity
  8
0
  6
CONTINUOUS
 62
     7
100
AcDbVertex
100
AcDb2dVertex
 10
8.3569652419
 20
7.2966703056
 30
0.0
  0
VERTEX
  5
470
330
263
100
AcDbEntity
  8
0
  6
CONTINUOUS
 62
     7
100
AcDbVertex
100
AcDb2dVertex
 10
8.3792375689
 20
7.3087516693
 30
0.0
  0
VERTEX
  5
471
330
263
100
AcDbEntity
  8
0
  6
CONTINUOUS
 62
     7
100
AcDbVertex
100
AcDb2dVertex
 10
8.4014535712
 20
7.3195907764
 30
0.0
  0
VERTEX
  5
472
330
263
100
AcDbEntity
  8
0
  6
CONTINUOUS
 62
     7
100
AcDbVertex
100
AcDb2dVertex
 10
8.4235640003
 20
7.3291635986
 30
0.0
  0
VERTEX
  5
473
330
263
100
AcDbEntity
  8
0
  6
CONTINUOUS
 62
     7
100
AcDbVertex
100
AcDb2dVertex
 10
8.445519842
 20
7.337448915
 30
0.0
  0
VERTEX
  5
474
330
263
100
AcDbEntity
  8
0
  6
CONTINUOUS
 62
     7
100
AcDbVertex
100
AcDb2dVertex
 10
8.4672724245
 20
7.3444283588
 30
0.0
  0
VERTEX
  5
475
330
263
100
AcDbEntity
  8
0
  6
CONTINUOUS
 62
     7
100
AcDbVertex
100
AcDb2dVertex
 10
8.4887735268
 20
7.3500864578
 30
0.0
  0
VERTEX
  5
476
330
263
100
AcDbEntity
  8
0
  6
CONTINUOUS
 62
     7
100
AcDbVertex
100
AcDb2dVertex
 10
8.5099754852
 20
7.3544106693
 30
0.0
  0
VERTEX
  5
477
330
263
100
AcDbEntity
  8
0
  6
CONTINUOUS
 62
     7
100
AcDbVertex
100
AcDb2dVertex
 10
8.5308312994
 20
7.3573914073
 30
0.0
  0
VERTEX
  5
478
330
263
100
AcDbEntity
  8
0
  6
CONTINUOUS
 62
     7
100
AcDbVertex
100
AcDb2dVertex
 10
8.5512947361
 20
7.3590220642
 30
0.0
  0
VERTEX
  5
479
330
263
100
AcDbEntity
  8
0
  6
CONTINUOUS
 62
     7
100
AcDbVertex
100
AcDb2dVertex
 10
8.5713204321
 20
7.3592990251
 30
0.0
  0
SEQEND
  5
47A
330
263
100
AcDbEntity
  8
0
  6
CONTINUOUS
 62
     7
  0
LINE
  5
264
330
1F
100
AcDbEntity
  8
0
  6
CONTINUOUS
 62
     7
100
AcDbLine
 10
8.7264291669
 20
6.7457419988
 30
0.0
 11
8.7264291669
 21
6.7296683607
 31
0.0
  0
LINE
  5
265
330
1F
100
AcDbEntity
  8
0
  6
CONTINUOUS
 62
     7
100
AcDbLine
 10
8.7264291669
 20
6.7457419988
 30
0.0
 11
8.6867264949
 21
6.7228221341
 31
0.0
  0
POLYLINE
  5
266
330
1F
100
AcDbEntity
  8
0
  6
CONTINUOUS
 62
     7
100
AcDb2dPolyline
 66
     1
 10
0.0
 20
0.0
 30
0.0
  0
VERTEX
  5
47B
330
266
100
AcDbEntity
  8
0
  6
CONTINUOUS
 62
     7
100
AcDbVertex
100
AcDb2dVertex
 10
8.4120032237
 20
6.5642277654
 30
0.0
  0
VERTEX
  5
47C
330
266
100
AcDbEntity
  8
0
  6
CONTINUOUS
 62
     7
100
AcDbVertex
100
AcDb2dVertex
 10
8.4131735706
 20
6.5790365027
 30
0.0
  0
VERTEX
  5
47D
330
266
100
AcDbEntity
  8
0
  6
CONTINUOUS
 62
     7
100
AcDbVertex
100
AcDb2dVertex
 10
8.4154322154
 20
6.5942963422
 30
0.0
  0
VERTEX
  5
47E
330
266
100
AcDbEntity
  8
0
  6
CONTINUOUS
 62
     7
100
AcDbVertex
100
AcDb2dVertex
 10
8.4187611096
 20
6.6098853433
 30
0.0
  0
VERTEX
  5
47F
330
266
100
AcDbEntity
  8
0
  6
CONTINUOUS
 62
     7
100
AcDbVertex
100
AcDb2dVertex
 10
8.423133652
 20
6.6256789351
 30
0.0
  0
VERTEX
  5
480
330
266
100
AcDbEntity
  8
0
  6
CONTINUOUS
 62
     7
100
AcDbVertex
100
AcDb2dVertex
 10
8.4285149019
 20
6.6415509116
 30
0.0
  0
VERTEX
  5
481
330
266
100
AcDbEntity
  8
0
  6
CONTINUOUS
 62
     7
100
AcDbVertex
100
AcDb2dVertex
 10
8.434861858
 20
6.6573744408
 30
0.0
  0
VERTEX
  5
482
330
266
100
AcDbEntity
  8
0
  6
CONTINUOUS
 62
     7
100
AcDbVertex
100
AcDb2dVertex
 10
8.442123802
 20
6.6730230775
 30
0.0
  0
VERTEX
  5
483
330
266
100
AcDbEntity
  8
0
  6
CONTINUOUS
 62
     7
100
AcDbVertex
100
AcDb2dVertex
 10
8.4502427042
 20
6.6883717743
 30
0.0
  0
VERTEX
  5
484
330
266
100
AcDbEntity
  8
0
  6
CONTINUOUS
 62
     7
100
AcDbVertex
100
AcDb2dVertex
 10
8.4591536867
 20
6.7032978804
 30
0.0
  0
VERTEX
  5
485
330
266
100
AcDbEntity
  8
0
  6
CONTINUOUS
 62
     7
100
AcDbVertex
100
AcDb2dVertex
 10
8.4687855424
 20
6.7176821221
 30
0.0
  0
VERTEX
  5
486
330
266
100
AcDbEntity
  8
0
  6
CONTINUOUS
 62
     7
100
AcDbVertex
100
AcDb2dVertex
 10
8.4790613035
 20
6.7314095556
 30
0.0
  0
VERTEX
  5
487
330
266
100
AcDbEntity
  8
0
  6
CONTINUOUS
 62
     7
100
AcDbVertex
100
AcDb2dVertex
 10
8.4898988569
 20
6.7443704855
 30
0.0
  0
VERTEX
  5
488
330
266
100
AcDbEntity
  8
0
  6
CONTINUOUS
 62
     7
100
AcDbVertex
100
AcDb2dVertex
 10
8.5012116003
 20
6.7564613419
 30
0.0
  0
VERTEX
  5
489
330
266
100
AcDbEntity
  8
0
  6
CONTINUOUS
 62
     7
100
AcDbVertex
100
AcDb2dVertex
 10
8.512909134
 20
6.7675855071
 30
0.0
  0
VERTEX
  5
48A
330
266
100
AcDbEntity
  8
0
  6
CONTINUOUS
 62
     7
100
AcDbVertex
100
AcDb2dVertex
 10
8.5248979837
 20
6.7776540886
 30
0.0
  0
VERTEX
  5
48B
330
266
100
AcDbEntity
  8
0
  6
CONTINUOUS
 62
     7
100
AcDbVertex
100
AcDb2dVertex
 10
8.537082347
 20
6.7865866287
 30
0.0
  0
VERTEX
  5
48C
330
266
100
AcDbEntity
  8
0
  6
CONTINUOUS
 62
     7
100
AcDbVertex
100
AcDb2dVertex
 10
8.5493648593
 20
6.7943117481
 30
0.0
  0
VERTEX
  5
48D
330
266
100
AcDbEntity
  8
0
  6
CONTINUOUS
 62
     7
100
AcDbVertex
100
AcDb2dVertex
 10
8.5616473716
 20
6.8007677156
 30
0.0
  0
VERTEX
  5
48E
330
266
100
AcDbEntity
  8
0
  6
CONTINUOUS
 62
     7
100
AcDbVertex
100
AcDb2dVertex
 10
8.5738317349
 20
6.8059029419
 30
0.0
  0
VERTEX
  5
48F
330
266
100
AcDbEntity
  8
0
  6
CONTINUOUS
 62
     7
100
AcDbVertex
100
AcDb2dVertex
 10
8.5858205846
 20
6.8096763916
 30
0.0
  0
VERTEX
  5
490
330
266
100
AcDbEntity
  8
0
  6
CONTINUOUS
 62
     7
100
AcDbVertex
100
AcDb2dVertex
 10
8.5975181184
 20
6.8120579114
 30
0.0
  0
VERTEX
  5
491
330
266
100
AcDbEntity
  8
0
  6
CONTINUOUS
 62
     7
100
AcDbVertex
100
AcDb2dVertex
 10
8.6088308617
 20
6.8130284705
 30
0.0
  0
VERTEX
  5
492
330
266
100
AcDbEntity
  8
0
  6
CONTINUOUS
 62
     7
100
AcDbVertex
100
AcDb2dVertex
 10
8.6196684152
 20
6.8125803134
 30
0.0
  0
VERTEX
  5
493
330
266
100
AcDbEntity
  8
0
  6
CONTINUOUS
 62
     7
100
AcDbVertex
100
AcDb2dVertex
 10
8.6299441763
 20
6.8107170211
 30
0.0
  0
VERTEX
  5
494
330
266
100
AcDbEntity
  8
0
  6
CONTINUOUS
 62
     7
100
AcDbVertex
100
AcDb2dVertex
 10
8.6395760319
 20
6.8074534833
 30
0.0
  0
VERTEX
  5
495
330
266
100
AcDbEntity
  8
0
  6
CONTINUOUS
 62
     7
100
AcDbVertex
100
AcDb2dVertex
 10
8.6484870145
 20
6.8028157786
 30
0.0
  0
VERTEX
  5
496
330
266
100
AcDbEntity
  8
0
  6
CONTINUOUS
 62
     7
100
AcDbVertex
100
AcDb2dVertex
 10
8.6566059166
 20
6.7968409667
 30
0.0
  0
VERTEX
  5
497
330
266
100
AcDbEntity
  8
0
  6
CONTINUOUS
 62
     7
100
AcDbVertex
100
AcDb2dVertex
 10
8.6638678607
 20
6.7895767921
 30
0.0
  0
VERTEX
  5
498
330
266
100
AcDbEntity
  8
0
  6
CONTINUOUS
 62
     7
100
AcDbVertex
100
AcDb2dVertex
 10
8.6702148168
 20
6.7810813025
 30
0.0
  0
VERTEX
  5
499
330
266
100
AcDbEntity
  8
0
  6
CONTINUOUS
 62
     7
100
AcDbVertex
100
AcDb2dVertex
 10
8.6755960667
 20
6.7714223848
 30
0.0
  0
VERTEX
  5
49A
330
266
100
AcDbEntity
  8
0
  6
CONTINUOUS
 62
     7
100
AcDbVertex
100
AcDb2dVertex
 10
8.6799686091
 20
6.7606772231
 30
0.0
  0
VERTEX
  5
49B
330
266
100
AcDbEntity
  8
0
  6
CONTINUOUS
 62
     7
100
AcDbVertex
100
AcDb2dVertex
 10
8.6832975032
 20
6.7489316813
 30
0.0
  0
VERTEX
  5
49C
330
266
100
AcDbEntity
  8
0
  6
CONTINUOUS
 62
     7
100
AcDbVertex
100
AcDb2dVertex
 10
8.6855561481
 20
6.7362796177
 30
0.0
  0
VERTEX
  5
49D
330
266
100
AcDbEntity
  8
0
  6
CONTINUOUS
 62
     7
100
AcDbVertex
100
AcDb2dVertex
 10
8.6867264949
 20
6.7228221341
 30
0.0
  0
SEQEND
  5
49E
330
266
100
AcDbEntity
  8
0
  6
CONTINUOUS
 62
     7
  0
LINE
  5
267
330
1F
100
AcDbEntity
  8
0
  6
CONTINUOUS
 62
     7
100
AcDbLine
 10
8.0814594732
 20
6.3734089199
 30
0.0
 11
8.4120032237
 21
6.5642277654
 31
0.0
  0
LINE
  5
268
330
1F
100
AcDbEntity
  8
0
  6
CONTINUOUS
 62
     7
100
AcDbLine
 10
8.0814594732
 20
6.3573352819
 30
0.0
 11
8.4120032237
 21
6.5481541274
 31
0.0
  0
POLYLINE
  5
269
330
1F
100
AcDbEntity
  8
0
  6
CONTINUOUS
 62
     7
100
AcDb2dPolyline
 66
     1
 10
0.0
 20
0.0
 30
0.0
  0
VERTEX
  5
49F
330
269
100
AcDbEntity
  8
0
  6
CONTINUOUS
 62
     7
100
AcDbVertex
100
AcDb2dVertex
 10
8.6867264949
 20
6.706748496
 30
0.0
  0
VERTEX
  5
4A0
330
269
100
AcDbEntity
  8
0
  6
CONTINUOUS
 62
     7
100
AcDbVertex
100
AcDb2dVertex
 10
8.6855561481
 20
6.6919397588
 30
0.0
  0
VERTEX
  5
4A1
330
269
100
AcDbEntity
  8
0
  6
CONTINUOUS
 62
     7
100
AcDbVertex
100
AcDb2dVertex
 10
8.6832975032
 20
6.6766799193
 30
0.0
  0
VERTEX
  5
4A2
330
269
100
AcDbEntity
  8
0
  6
CONTINUOUS
 62
     7
100
AcDbVertex
100
AcDb2dVertex
 10
8.6799686091
 20
6.6610909181
 30
0.0
  0
VERTEX
  5
4A3
330
269
100
AcDbEntity
  8
0
  6
CONTINUOUS
 62
     7
100
AcDbVertex
100
AcDb2dVertex
 10
8.6755960667
 20
6.6452973264
 30
0.0
  0
VERTEX
  5
4A4
330
269
100
AcDbEntity
  8
0
  6
CONTINUOUS
 62
     7
100
AcDbVertex
100
AcDb2dVertex
 10
8.6702148168
 20
6.6294253498
 30
0.0
  0
VERTEX
  5
4A5
330
269
100
AcDbEntity
  8
0
  6
CONTINUOUS
 62
     7
100
AcDbVertex
100
AcDb2dVertex
 10
8.6638678607
 20
6.6136018207
 30
0.0
  0
VERTEX
  5
4A6
330
269
100
AcDbEntity
  8
0
  6
CONTINUOUS
 62
     7
100
AcDbVertex
100
AcDb2dVertex
 10
8.6566059166
 20
6.5979531839
 30
0.0
  0
VERTEX
  5
4A7
330
269
100
AcDbEntity
  8
0
  6
CONTINUOUS
 62
     7
100
AcDbVertex
100
AcDb2dVertex
 10
8.6484870145
 20
6.5826044872
 30
0.0
  0
VERTEX
  5
4A8
330
269
100
AcDbEntity
  8
0
  6
CONTINUOUS
 62
     7
100
AcDbVertex
100
AcDb2dVertex
 10
8.6395760319
 20
6.567678381
 30
0.0
  0
VERTEX
  5
4A9
330
269
100
AcDbEntity
  8
0
  6
CONTINUOUS
 62
     7
100
AcDbVertex
100
AcDb2dVertex
 10
8.6299441763
 20
6.5532941394
 30
0.0
  0
VERTEX
  5
4AA
330
269
100
AcDbEntity
  8
0
  6
CONTINUOUS
 62
     7
100
AcDbVertex
100
AcDb2dVertex
 10
8.6196684152
 20
6.5395667059
 30
0.0
  0
VERTEX
  5
4AB
330
269
100
AcDbEntity
  8
0
  6
CONTINUOUS
 62
     7
100
AcDbVertex
100
AcDb2dVertex
 10
8.6088308617
 20
6.5266057759
 30
0.0
  0
VERTEX
  5
4AC
330
269
100
AcDbEntity
  8
0
  6
CONTINUOUS
 62
     7
100
AcDbVertex
100
AcDb2dVertex
 10
8.5975181184
 20
6.5145149196
 30
0.0
  0
VERTEX
  5
4AD
330
269
100
AcDbEntity
  8
0
  6
CONTINUOUS
 62
     7
100
AcDbVertex
100
AcDb2dVertex
 10
8.5858205846
 20
6.5033907543
 30
0.0
  0
VERTEX
  5
4AE
330
269
100
AcDbEntity
  8
0
  6
CONTINUOUS
 62
     7
100
AcDbVertex
100
AcDb2dVertex
 10
8.5738317349
 20
6.4933221729
 30
0.0
  0
VERTEX
  5
4AF
330
269
100
AcDbEntity
  8
0
  6
CONTINUOUS
 62
     7
100
AcDbVertex
100
AcDb2dVertex
 10
8.5616473716
 20
6.4843896327
 30
0.0
  0
VERTEX
  5
4B0
330
269
100
AcDbEntity
  8
0
  6
CONTINUOUS
 62
     7
100
AcDbVertex
100
AcDb2dVertex
 10
8.5493648593
 20
6.4766645134
 30
0.0
  0
VERTEX
  5
4B1
330
269
100
AcDbEntity
  8
0
  6
CONTINUOUS
 62
     7
100
AcDbVertex
100
AcDb2dVertex
 10
8.537082347
 20
6.4702085459
 30
0.0
  0
VERTEX
  5
4B2
330
269
100
AcDbEntity
  8
0
  6
CONTINUOUS
 62
     7
100
AcDbVertex
100
AcDb2dVertex
 10
8.5248979837
 20
6.4650733196
 30
0.0
  0
VERTEX
  5
4B3
330
269
100
AcDbEntity
  8
0
  6
CONTINUOUS
 62
     7
100
AcDbVertex
100
AcDb2dVertex
 10
8.512909134
 20
6.4612998698
 30
0.0
  0
VERTEX
  5
4B4
330
269
100
AcDbEntity
  8
0
  6
CONTINUOUS
 62
     7
100
AcDbVertex
100
AcDb2dVertex
 10
8.5012116003
 20
6.4589183501
 30
0.0
  0
VERTEX
  5
4B5
330
269
100
AcDbEntity
  8
0
  6
CONTINUOUS
 62
     7
100
AcDbVertex
100
AcDb2dVertex
 10
8.4898988569
 20
6.4579477909
 30
0.0
  0
VERTEX
  5
4B6
330
269
100
AcDbEntity
  8
0
  6
CONTINUOUS
 62
     7
100
AcDbVertex
100
AcDb2dVertex
 10
8.4790613035
 20
6.4583959481
 30
0.0
  0
VERTEX
  5
4B7
330
269
100
AcDbEntity
  8
0
  6
CONTINUOUS
 62
     7
100
AcDbVertex
100
AcDb2dVertex
 10
8.4687855424
 20
6.4602592403
 30
0.0
  0
VERTEX
  5
4B8
330
269
100
AcDbEntity
  8
0
  6
CONTINUOUS
 62
     7
100
AcDbVertex
100
AcDb2dVertex
 10
8.4591536867
 20
6.4635227782
 30
0.0
  0
VERTEX
  5
4B9
330
269
100
AcDbEntity
  8
0
  6
CONTINUOUS
 62
     7
100
AcDbVertex
100
AcDb2dVertex
 10
8.4502427042
 20
6.4681604829
 30
0.0
  0
VERTEX
  5
4BA
330
269
100
AcDbEntity
  8
0
  6
CONTINUOUS
 62
     7
100
AcDbVertex
100
AcDb2dVertex
 10
8.442123802
 20
6.4741352947
 30
0.0
  0
VERTEX
  5
4BB
330
269
100
AcDbEntity
  8
0
  6
CONTINUOUS
 62
     7
100
AcDbVertex
100
AcDb2dVertex
 10
8.434861858
 20
6.4813994693
 30
0.0
  0
VERTEX
  5
4BC
330
269
100
AcDbEntity
  8
0
  6
CONTINUOUS
 62
     7
100
AcDbVertex
100
AcDb2dVertex
 10
8.4285149019
 20
6.489894959
 30
0.0
  0
VERTEX
  5
4BD
330
269
100
AcDbEntity
  8
0
  6
CONTINUOUS
 62
     7
100
AcDbVertex
100
AcDb2dVertex
 10
8.423133652
 20
6.4995538766
 30
0.0
  0
VERTEX
  5
4BE
330
269
100
AcDbEntity
  8
0
  6
CONTINUOUS
 62
     7
100
AcDbVertex
100
AcDb2dVertex
 10
8.4187611096
 20
6.5102990384
 30
0.0
  0
VERTEX
  5
4BF
330
269
100
AcDbEntity
  8
0
  6
CONTINUOUS
 62
     7
100
AcDbVertex
100
AcDb2dVertex
 10
8.4154322154
 20
6.5220445801
 30
0.0
  0
VERTEX
  5
4C0
330
269
100
AcDbEntity
  8
0
  6
CONTINUOUS
 62
     7
100
AcDbVertex
100
AcDb2dVertex
 10
8.4131735706
 20
6.5346966438
 30
0.0
  0
VERTEX
  5
4C1
330
269
100
AcDbEntity
  8
0
  6
CONTINUOUS
 62
     7
100
AcDbVertex
100
AcDb2dVertex
 10
8.4120032237
 20
6.5481541274
 30
0.0
  0
SEQEND
  5
4C2
330
269
100
AcDbEntity
  8
0
  6
CONTINUOUS
 62
     7
  0
LINE
  5
26A
330
1F
100
AcDbEntity
  8
0
  6
CONTINUOUS
 62
     7
100
AcDbLine
 10
8.6867264949
 20
6.706748496
 30
0.0
 11
8.7264291669
 21
6.7296683607
 31
0.0
  0
LINE
  5
26B
330
1F
100
AcDbEntity
  8
0
  6
CONTINUOUS
 62
     7
100
AcDbLine
 10
8.5713204321
 20
7.3483736374
 30
0.0
 11
8.5713204321
 21
7.3592990251
 31
0.0
  0
LINE
  5
26C
330
1F
100
AcDbEntity
  8
0
  6
CONTINUOUS
 62
     7
100
AcDbLine
 10
8.4120032237
 20
6.5481541274
 30
0.0
 11
8.4120102999
 21
6.5542812732
 31
0.0
  0
LINE
  5
26D
330
1F
100
AcDbEntity
  8
0
  6
CONTINUOUS
 62
     7
100
AcDbLine
 10
8.4033919135
 20
6.5592565618
 30
0.0
 11
8.4120102999
 21
6.5542812732
 31
0.0
  0
LINE
  5
26E
330
1F
100
AcDbEntity
  8
0
  6
CONTINUOUS
 62
     7
100
AcDbLine
 10
7.9131010726
 20
6.4644764253
 30
0.0
 11
7.8991793853
 21
6.4564396063
 31
0.0
  0
LINE
  5
26F
330
1F
100
AcDbEntity
  8
0
  6
CONTINUOUS
 62
     7
100
AcDbLine
 10
8.676112817
 20
6.7228180491
 30
0.0
 11
8.6867264949
 21
6.7228221341
 31
0.0
  0
POLYLINE
  5
270
330
1F
100
AcDbEntity
  8
0
  6
CONTINUOUS
 62
     7
100
AcDb2dPolyline
 66
     1
 10
0.0
 20
0.0
 30
0.0
  0
VERTEX
  5
4C3
330
270
100
AcDbEntity
  8
0
  6
CONTINUOUS
 62
     7
100
AcDbVertex
100
AcDb2dVertex
 10
8.676112817
 20
6.7228180491
 30
0.0
  0
VERTEX
  5
4C4
330
270
100
AcDbEntity
  8
0
  6
CONTINUOUS
 62
     7
100
AcDbVertex
100
AcDb2dVertex
 10
8.674965925
 20
6.7357233784
 30
0.0
  0
VERTEX
  5
4C5
330
270
100
AcDbEntity
  8
0
  6
CONTINUOUS
 62
     7
100
AcDbVertex
100
AcDb2dVertex
 10
8.6727757754
 20
6.7478542705
 30
0.0
  0
VERTEX
  5
4C6
330
270
100
AcDbEntity
  8
0
  6
CONTINUOUS
 62
     7
100
AcDbVertex
100
AcDb2dVertex
 10
8.6695598229
 20
6.7591140468
 30
0.0
  0
VERTEX
  5
4C7
330
270
100
AcDbEntity
  8
0
  6
CONTINUOUS
 62
     7
100
AcDbVertex
100
AcDb2dVertex
 10
8.6653436975
 20
6.7694129713
 30
0.0
  0
VERTEX
  5
4C8
330
270
100
AcDbEntity
  8
0
  6
CONTINUOUS
 62
     7
100
AcDbVertex
100
AcDb2dVertex
 10
8.6601609999
 20
6.7786689654
 30
0.0
  0
VERTEX
  5
4C9
330
270
100
AcDbEntity
  8
0
  6
CONTINUOUS
 62
     7
100
AcDbVertex
100
AcDb2dVertex
 10
8.6540530344
 20
6.7868082625
 30
0.0
  0
VERTEX
  5
4CA
330
270
100
AcDbEntity
  8
0
  6
CONTINUOUS
 62
     7
100
AcDbVertex
100
AcDb2dVertex
 10
8.647068479
 20
6.7937659954
 30
0.0
  0
VERTEX
  5
4CB
330
270
100
AcDbEntity
  8
0
  6
CONTINUOUS
 62
     7
100
AcDbVertex
100
AcDb2dVertex
 10
8.6392629981
 20
6.7994867137
 30
0.0
  0
VERTEX
  5
4CC
330
270
100
AcDbEntity
  8
0
  6
CONTINUOUS
 62
     7
100
AcDbVertex
100
AcDb2dVertex
 10
8.6306987982
 20
6.8039248255
 30
0.0
  0
VERTEX
  5
4CD
330
270
100
AcDbEntity
  8
0
  6
CONTINUOUS
 62
     7
100
AcDbVertex
100
AcDb2dVertex
 10
8.6214441327
 20
6.8070449608
 30
0.0
  0
VERTEX
  5
4CE
330
270
100
AcDbEntity
  8
0
  6
CONTINUOUS
 62
     7
100
AcDbVertex
100
AcDb2dVertex
 10
8.6115727579
 20
6.8088222531
 30
0.0
  0
VERTEX
  5
4CF
330
270
100
AcDbEntity
  8
0
  6
CONTINUOUS
 62
     7
100
AcDbVertex
100
AcDb2dVertex
 10
8.6011633447
 20
6.8092425383
 30
0.0
  0
VERTEX
  5
4D0
330
270
100
AcDbEntity
  8
0
  6
CONTINUOUS
 62
     7
100
AcDbVertex
100
AcDb2dVertex
 10
8.5902988522
 20
6.8083024668
 30
0.0
  0
VERTEX
  5
4D1
330
270
100
AcDbEntity
  8
0
  6
CONTINUOUS
 62
     7
100
AcDbVertex
100
AcDb2dVertex
 10
8.5790658662
 20
6.8060095306
 30
0.0
  0
VERTEX
  5
4D2
330
270
100
AcDbEntity
  8
0
  6
CONTINUOUS
 62
     7
100
AcDbVertex
100
AcDb2dVertex
 10
8.5675539093
 20
6.8023820035
 30
0.0
  0
VERTEX
  5
4D3
330
270
100
AcDbEntity
  8
0
  6
CONTINUOUS
 62
     7
100
AcDbVertex
100
AcDb2dVertex
 10
8.5558547274
 20
6.7974487955
 30
0.0
  0
VERTEX
  5
4D4
330
270
100
AcDbEntity
  8
0
  6
CONTINUOUS
 62
     7
100
AcDbVertex
100
AcDb2dVertex
 10
8.5466652259
 20
6.7927226849
 30
0.0
  0
SEQEND
  5
4D5
330
270
100
AcDbEntity
  8
0
  6
CONTINUOUS
 62
     7
  0
LINE
  5
271
330
1F
100
AcDbEntity
  8
0
  6
CONTINUOUS
 62
     7
100
AcDbLine
 10
8.676112817
 20
6.7228180491
 30
0.0
 11
8.5634911298
 21
6.7878331652
 31
0.0
  0
SPLINE
  5
272
330
1F
100
AcDbEntity
  8
0
  6
CONTINUOUS
 62
     7
100
AcDbSpline
210
0.0
220
0.0
230
1.0
 70
     8
 71
     3
 72
     8
 73
     4
 74
     0
 42
0.00000001
 43
0.00000001
 40
0.0
 40
0.0
 40
0.0
 40
0.0
 40
1.0
 40
1.0
 40
1.0
 40
1.0
 10
8.563491129780186
 20
6.787833165192906
 30
0.0
 10
8.56400931926834
 20
6.782458480569874
 30
0.0
 10
8.56400931926834
 20
6.777100601226792
 30
0.0
 10
8.563491129780186
 20
6.771759527163659
 30
0.0
  0
LINE
  5
273
330
1F
100
AcDbEntity
  8
0
  6
CONTINUOUS
 62
     7
100
AcDbLine
 10
8.676112817
 20
6.706744411
 30
0.0
 11
8.5634911298
 21
6.7717595272
 31
0.0
  0
POLYLINE
  5
274
330
1F
100
AcDbEntity
  8
0
  6
CONTINUOUS
 62
     7
100
AcDb2dPolyline
 66
     1
 10
0.0
 20
0.0
 30
0.0
  0
VERTEX
  5
4D6
330
274
100
AcDbEntity
  8
0
  6
CONTINUOUS
 62
     7
100
AcDbVertex
100
AcDb2dVertex
 10
8.4120102999
 20
6.5542812732
 30
0.0
  0
VERTEX
  5
4D7
330
274
100
AcDbEntity
  8
0
  6
CONTINUOUS
 62
     7
100
AcDbVertex
100
AcDb2dVertex
 10
8.413157192
 20
6.5413759439
 30
0.0
  0
VERTEX
  5
4D8
330
274
100
AcDbEntity
  8
0
  6
CONTINUOUS
 62
     7
100
AcDbVertex
100
AcDb2dVertex
 10
8.4153473415
 20
6.5292450518
 30
0.0
  0
VERTEX
  5
4D9
330
274
100
AcDbEntity
  8
0
  6
CONTINUOUS
 62
     7
100
AcDbVertex
100
AcDb2dVertex
 10
8.418563294
 20
6.5179852754
 30
0.0
  0
VERTEX
  5
4DA
330
274
100
AcDbEntity
  8
0
  6
CONTINUOUS
 62
     7
100
AcDbVertex
100
AcDb2dVertex
 10
8.4227794195
 20
6.507686351
 30
0.0
  0
VERTEX
  5
4DB
330
274
100
AcDbEntity
  8
0
  6
CONTINUOUS
 62
     7
100
AcDbVertex
100
AcDb2dVertex
 10
8.427962117
 20
6.4984303568
 30
0.0
  0
VERTEX
  5
4DC
330
274
100
AcDbEntity
  8
0
  6
CONTINUOUS
 62
     7
100
AcDbVertex
100
AcDb2dVertex
 10
8.4340700825
 20
6.4902910598
 30
0.0
  0
VERTEX
  5
4DD
330
274
100
AcDbEntity
  8
0
  6
CONTINUOUS
 62
     7
100
AcDbVertex
100
AcDb2dVertex
 10
8.4410546379
 20
6.4833333269
 30
0.0
  0
VERTEX
  5
4DE
330
274
100
AcDbEntity
  8
0
  6
CONTINUOUS
 62
     7
100
AcDbVertex
100
AcDb2dVertex
 10
8.4488601188
 20
6.4776126085
 30
0.0
  0
VERTEX
  5
4DF
330
274
100
AcDbEntity
  8
0
  6
CONTINUOUS
 62
     7
100
AcDbVertex
100
AcDb2dVertex
 10
8.4574243188
 20
6.4731744968
 30
0.0
  0
VERTEX
  5
4E0
330
274
100
AcDbEntity
  8
0
  6
CONTINUOUS
 62
     7
100
AcDbVertex
100
AcDb2dVertex
 10
8.4666789842
 20
6.4700543615
 30
0.0
  0
VERTEX
  5
4E1
330
274
100
AcDbEntity
  8
0
  6
CONTINUOUS
 62
     7
100
AcDbVertex
100
AcDb2dVertex
 10
8.476550359
 20
6.4682770692
 30
0.0
  0
VERTEX
  5
4E2
330
274
100
AcDbEntity
  8
0
  6
CONTINUOUS
 62
     7
100
AcDbVertex
100
AcDb2dVertex
 10
8.4869597722
 20
6.467856784
 30
0.0
  0
VERTEX
  5
4E3
330
274
100
AcDbEntity
  8
0
  6
CONTINUOUS
 62
     7
100
AcDbVertex
100
AcDb2dVertex
 10
8.4978242647
 20
6.4687968555
 30
0.0
  0
VERTEX
  5
4E4
330
274
100
AcDbEntity
  8
0
  6
CONTINUOUS
 62
     7
100
AcDbVertex
100
AcDb2dVertex
 10
8.5090572507
 20
6.4710897917
 30
0.0
  0
VERTEX
  5
4E5
330
274
100
AcDbEntity
  8
0
  6
CONTINUOUS
 62
     7
100
AcDbVertex
100
AcDb2dVertex
 10
8.5205692076
 20
6.4747173188
 30
0.0
  0
VERTEX
  5
4E6
330
274
100
AcDbEntity
  8
0
  6
CONTINUOUS
 62
     7
100
AcDbVertex
100
AcDb2dVertex
 10
8.5322683895
 20
6.4796505268
 30
0.0
  0
VERTEX
  5
4E7
330
274
100
AcDbEntity
  8
0
  6
CONTINUOUS
 62
     7
100
AcDbVertex
100
AcDb2dVertex
 10
8.5440615585
 20
6.4858500999
 30
0.0
  0
VERTEX
  5
4E8
330
274
100
AcDbEntity
  8
0
  6
CONTINUOUS
 62
     7
100
AcDbVertex
100
AcDb2dVertex
 10
8.5558547274
 20
6.4932666298
 30
0.0
  0
VERTEX
  5
4E9
330
274
100
AcDbEntity
  8
0
  6
CONTINUOUS
 62
     7
100
AcDbVertex
100
AcDb2dVertex
 10
8.5675539093
 20
6.5018410098
 30
0.0
  0
VERTEX
  5
4EA
330
274
100
AcDbEntity
  8
0
  6
CONTINUOUS
 62
     7
100
AcDbVertex
100
AcDb2dVertex
 10
8.5790658662
 20
6.5115049052
 30
0.0
  0
VERTEX
  5
4EB
330
274
100
AcDbEntity
  8
0
  6
CONTINUOUS
 62
     7
100
AcDbVertex
100
AcDb2dVertex
 10
8.5902988522
 20
6.5221812985
 30
0.0
  0
VERTEX
  5
4EC
330
274
100
AcDbEntity
  8
0
  6
CONTINUOUS
 62
     7
100
AcDbVertex
100
AcDb2dVertex
 10
8.6011633447
 20
6.533785103
 30
0.0
  0
VERTEX
  5
4ED
330
274
100
AcDbEntity
  8
0
  6
CONTINUOUS
 62
     7
100
AcDbVertex
100
AcDb2dVertex
 10
8.6115727579
 20
6.5462238409
 30
0.0
  0
VERTEX
  5
4EE
330
274
100
AcDbEntity
  8
0
  6
CONTINUOUS
 62
     7
100
AcDbVertex
100
AcDb2dVertex
 10
8.6214441327
 20
6.55939838
 30
0.0
  0
VERTEX
  5
4EF
330
274
100
AcDbEntity
  8
0
  6
CONTINUOUS
 62
     7
100
AcDbVertex
100
AcDb2dVertex
 10
8.6306987982
 20
6.5732037245
 30
0.0
  0
VERTEX
  5
4F0
330
274
100
AcDbEntity
  8
0
  6
CONTINUOUS
 62
     7
100
AcDbVertex
100
AcDb2dVertex
 10
8.6392629981
 20
6.5875298511
 30
0.0
  0
VERTEX
  5
4F1
330
274
100
AcDbEntity
  8
0
  6
CONTINUOUS
 62
     7
100
AcDbVertex
100
AcDb2dVertex
 10
8.647068479
 20
6.6022625859
 30
0.0
  0
VERTEX
  5
4F2
330
274
100
AcDbEntity
  8
0
  6
CONTINUOUS
 62
     7
100
AcDbVertex
100
AcDb2dVertex
 10
8.6540530344
 20
6.6172845148
 30
0.0
  0
VERTEX
  5
4F3
330
274
100
AcDbEntity
  8
0
  6
CONTINUOUS
 62
     7
100
AcDbVertex
100
AcDb2dVertex
 10
8.6601609999
 20
6.6324759187
 30
0.0
  0
VERTEX
  5
4F4
330
274
100
AcDbEntity
  8
0
  6
CONTINUOUS
 62
     7
100
AcDbVertex
100
AcDb2dVertex
 10
8.6653436975
 20
6.6477157281
 30
0.0
  0
VERTEX
  5
4F5
330
274
100
AcDbEntity
  8
0
  6
CONTINUOUS
 62
     7
100
AcDbVertex
100
AcDb2dVertex
 10
8.6695598229
 20
6.6628824874
 30
0.0
  0
VERTEX
  5
4F6
330
274
100
AcDbEntity
  8
0
  6
CONTINUOUS
 62
     7
100
AcDbVertex
100
AcDb2dVertex
 10
8.6727757754
 20
6.6778553234
 30
0.0
  0
VERTEX
  5
4F7
330
274
100
AcDbEntity
  8
0
  6
CONTINUOUS
 62
     7
100
AcDbVertex
100
AcDb2dVertex
 10
8.674965925
 20
6.6925149084
 30
0.0
  0
VERTEX
  5
4F8
330
274
100
AcDbEntity
  8
0
  6
CONTINUOUS
 62
     7
100
AcDbVertex
100
AcDb2dVertex
 10
8.676112817
 20
6.706744411
 30
0.0
  0
SEQEND
  5
4F9
330
274
100
AcDbEntity
  8
0
  6
CONTINUOUS
 62
     7
  0
ARC
  5
275
330
1F
100
AcDbEntity
  8
0
  6
CONTINUOUS
 62
     7
100
AcDbCircle
 10
8.1947015155
 20
6.840230921
 30
0.0
 40
0.3132126070666497
100
AcDbArc
 50
316.861458159
 51
343.1439183737
  0
LINE
  5
276
330
1F
100
AcDbEntity
  8
0
  6
CONTINUOUS
 62
     7
100
AcDbLine
 10
8.676112817
 20
6.706744411
 30
0.0
 11
8.6867264949
 21
6.706748496
 31
0.0
  0
LINE
  5
277
330
1F
100
AcDbEntity
  8
0
  6
CONTINUOUS
 62
     7
100
AcDbLine
 10
8.7264291669
 20
6.7296683607
 30
0.0
 11
8.7119590609
 21
6.7373885844
 31
0.0
  0
POLYLINE
  5
278
330
1F
100
AcDbEntity
  8
0
  6
CONTINUOUS
 62
     7
100
AcDb2dPolyline
 66
     1
 10
0.0
 20
0.0
 30
0.0
  0
VERTEX
  5
4FA
330
278
100
AcDbEntity
  8
0
  6
CONTINUOUS
 62
     7
100
AcDbVertex
100
AcDb2dVertex
 10
8.5951470382
 20
6.7695585983
 30
0.0
  0
VERTEX
  5
4FB
330
278
100
AcDbEntity
  8
0
  6
CONTINUOUS
 62
     7
100
AcDbVertex
100
AcDb2dVertex
 10
8.5836716115
 20
6.770630225
 30
0.0
  0
VERTEX
  5
4FC
330
278
100
AcDbEntity
  8
0
  6
CONTINUOUS
 62
     7
100
AcDbVertex
100
AcDb2dVertex
 10
8.5634911298
 20
6.7717595272
 30
0.0
  0
SEQEND
  5
4FD
330
278
100
AcDbEntity
  8
0
  6
CONTINUOUS
 62
     7
  0
LINE
  5
279
330
1F
100
AcDbEntity
  8
0
  6
CONTINUOUS
 62
     7
100
AcDbLine
 10
8.1726223496
 20
6.8540830447
 30
0.0
 11
8.212804268
 21
6.8772795724
 31
0.0
  0
LINE
  5
27A
330
1F
100
AcDbEntity
  8
0
  6
CONTINUOUS
 62
     7
100
AcDbLine
 10
8.212804268
 20
6.8772795724
 30
0.0
 11
8.1980966651
 21
6.9089666185
 31
0.0
  0
LINE
  5
27B
330
1F
100
AcDbEntity
  8
0
  6
CONTINUOUS
 62
     7
100
AcDbLine
 10
8.1980966651
 20
6.9089666185
 30
0.0
 11
8.1432071439
 21
6.9174571369
 31
0.0
  0
LINE
  5
27C
330
1F
100
AcDbEntity
  8
0
  6
CONTINUOUS
 62
     7
100
AcDbLine
 10
8.1432071439
 20
6.9174571369
 30
0.0
 11
8.1030252255
 21
6.8942606092
 31
0.0
  0
LINE
  5
27D
330
1F
100
AcDbEntity
  8
0
  6
CONTINUOUS
 62
     7
100
AcDbLine
 10
8.1030252255
 20
6.8942606092
 30
0.0
 11
8.1177328284
 21
6.8625735631
 31
0.0
  0
LINE
  5
27E
330
1F
100
AcDbEntity
  8
0
  6
CONTINUOUS
 62
     7
100
AcDbLine
 10
8.1177328284
 20
6.8625735631
 30
0.0
 11
8.1726223496
 21
6.8540830447
 31
0.0
  0
LINE
  5
27F
330
1F
100
AcDbEntity
  8
0
  6
CONTINUOUS
 62
     7
100
AcDbLine
 10
8.1980966651
 20
6.868789054
 30
0.0
 11
8.1980966651
 21
6.9089666185
 31
0.0
  0
LINE
  5
280
330
1F
100
AcDbEntity
  8
0
  6
CONTINUOUS
 62
     7
100
AcDbLine
 10
8.1432071439
 20
6.8586330998
 30
0.0
 11
8.1432071439
 21
6.9174571369
 31
0.0
  0
ARC
  5
281
330
1F
100
AcDbEntity
  8
0
  6
CONTINUOUS
 62
     7
100
AcDbCircle
 10
8.2436276739
 20
7.2586762245
 30
0.0
 40
0.1247709781531312
100
AcDbArc
 50
96.6652337366
 51
150.0505562866
  0
ARC
  5
282
330
1F
100
AcDbEntity
  8
0
  6
CONTINUOUS
 62
     7
100
AcDbCircle
 10
7.8504150669
 20
6.5890518636
 30
0.0
 40
0.1190896919570842
100
AcDbArc
 50
148.5578500789
 51
204.7231626837
  0
POLYLINE
  5
283
330
1F
100
AcDbEntity
  8
0
  6
CONTINUOUS
 62
     7
100
AcDb2dPolyline
 66
     1
 10
0.0
 20
0.0
 30
0.0
  0
VERTEX
  5
4FE
330
283
100
AcDbEntity
  8
0
  6
CONTINUOUS
 62
     7
100
AcDbVertex
100
AcDb2dVertex
 10
8.5055439071
 20
7.4275562553
 30
0.0
  0
VERTEX
  5
4FF
330
283
100
AcDbEntity
  8
0
  6
CONTINUOUS
 62
     7
100
AcDbVertex
100
AcDb2dVertex
 10
8.4947195383
 20
7.4368089533
 30
0.0
  0
VERTEX
  5
500
330
283
100
AcDbEntity
  8
0
  6
CONTINUOUS
 62
     7
100
AcDbVertex
100
AcDb2dVertex
 10
8.4799711392
 20
7.4476956436
 30
0.0
  0
VERTEX
  5
501
330
283
100
AcDbEntity
  8
0
  6
CONTINUOUS
 62
     7
100
AcDbVertex
100
AcDb2dVertex
 10
8.4644457943
 20
7.4573078925
 30
0.0
  0
VERTEX
  5
502
330
283
100
AcDbEntity
  8
0
  6
CONTINUOUS
 62
     7
100
AcDbVertex
100
AcDb2dVertex
 10
8.4481781467
 20
7.4656242513
 30
0.0
  0
VERTEX
  5
503
330
283
100
AcDbEntity
  8
0
  6
CONTINUOUS
 62
     7
100
AcDbVertex
100
AcDb2dVertex
 10
8.4312044957
 20
7.4726261629
 30
0.0
  0
VERTEX
  5
504
330
283
100
AcDbEntity
  8
0
  6
CONTINUOUS
 62
     7
100
AcDbVertex
100
AcDb2dVertex
 10
8.4135627164
 20
7.4782980034
 30
0.0
  0
VERTEX
  5
505
330
283
100
AcDbEntity
  8
0
  6
CONTINUOUS
 62
     7
100
AcDbVertex
100
AcDb2dVertex
 10
8.3952921744
 20
7.4826271167
 30
0.0
  0
VERTEX
  5
506
330
283
100
AcDbEntity
  8
0
  6
CONTINUOUS
 62
     7
100
AcDbVertex
100
AcDb2dVertex
 10
8.3764336384
 20
7.4856038427
 30
0.0
  0
VERTEX
  5
507
330
283
100
AcDbEntity
  8
0
  6
CONTINUOUS
 62
     7
100
AcDbVertex
100
AcDb2dVertex
 10
8.3570291891
 20
7.4872215393
 30
0.0
  0
VERTEX
  5
508
330
283
100
AcDbEntity
  8
0
  6
CONTINUOUS
 62
     7
100
AcDbVertex
100
AcDb2dVertex
 10
8.3371221256
 20
7.4874765968
 30
0.0
  0
VERTEX
  5
509
330
283
100
AcDbEntity
  8
0
  6
CONTINUOUS
 62
     7
100
AcDbVertex
100
AcDb2dVertex
 10
8.3167568682
 20
7.4863684461
 30
0.0
  0
VERTEX
  5
50A
330
283
100
AcDbEntity
  8
0
  6
CONTINUOUS
 62
     7
100
AcDbVertex
100
AcDb2dVertex
 10
8.2959788598
 20
7.4838995597
 30
0.0
  0
VERTEX
  5
50B
330
283
100
AcDbEntity
  8
0
  6
CONTINUOUS
 62
     7
100
AcDbVertex
100
AcDb2dVertex
 10
8.2748344643
 20
7.4800754469
 30
0.0
  0
VERTEX
  5
50C
330
283
100
AcDbEntity
  8
0
  6
CONTINUOUS
 62
     7
100
AcDbVertex
100
AcDb2dVertex
 10
8.253370863
 20
7.4749046406
 30
0.0
  0
VERTEX
  5
50D
330
283
100
AcDbEntity
  8
0
  6
CONTINUOUS
 62
     7
100
AcDbVertex
100
AcDb2dVertex
 10
8.2316359497
 20
7.4683986791
 30
0.0
  0
VERTEX
  5
50E
330
283
100
AcDbEntity
  8
0
  6
CONTINUOUS
 62
     7
100
AcDbVertex
100
AcDb2dVertex
 10
8.2096782234
 20
7.4605720795
 30
0.0
  0
VERTEX
  5
50F
330
283
100
AcDbEntity
  8
0
  6
CONTINUOUS
 62
     7
100
AcDbVertex
100
AcDb2dVertex
 10
8.1875466805
 20
7.4514423062
 30
0.0
  0
VERTEX
  5
510
330
283
100
AcDbEntity
  8
0
  6
CONTINUOUS
 62
     7
100
AcDbVertex
100
AcDb2dVertex
 10
8.165290705
 20
7.4410297311
 30
0.0
  0
VERTEX
  5
511
330
283
100
AcDbEntity
  8
0
  6
CONTINUOUS
 62
     7
100
AcDbVertex
100
AcDb2dVertex
 10
8.1429599587
 20
7.429357589
 30
0.0
  0
VERTEX
  5
512
330
283
100
AcDbEntity
  8
0
  6
CONTINUOUS
 62
     7
100
AcDbVertex
100
AcDb2dVertex
 10
8.1206042703
 20
7.4164519248
 30
0.0
  0
VERTEX
  5
513
330
283
100
AcDbEntity
  8
0
  6
CONTINUOUS
 62
     7
100
AcDbVertex
100
AcDb2dVertex
 10
8.0982735241
 20
7.4023415361
 30
0.0
  0
VERTEX
  5
514
330
283
100
AcDbEntity
  8
0
  6
CONTINUOUS
 62
     7
100
AcDbVertex
100
AcDb2dVertex
 10
8.0760175486
 20
7.3870579088
 30
0.0
  0
VERTEX
  5
515
330
283
100
AcDbEntity
  8
0
  6
CONTINUOUS
 62
     7
100
AcDbVertex
100
AcDb2dVertex
 10
8.0538860056
 20
7.3706351465
 30
0.0
  0
VERTEX
  5
516
330
283
100
AcDbEntity
  8
0
  6
CONTINUOUS
 62
     7
100
AcDbVertex
100
AcDb2dVertex
 10
8.0319282794
 20
7.353109895
 30
0.0
  0
VERTEX
  5
517
330
283
100
AcDbEntity
  8
0
  6
CONTINUOUS
 62
     7
100
AcDbVertex
100
AcDb2dVertex
 10
8.0101933661
 20
7.3345212598
 30
0.0
  0
VERTEX
  5
518
330
283
100
AcDbEntity
  8
0
  6
CONTINUOUS
 62
     7
100
AcDbVertex
100
AcDb2dVertex
 10
7.9887297648
 20
7.3149107195
 30
0.0
  0
VERTEX
  5
519
330
283
100
AcDbEntity
  8
0
  6
CONTINUOUS
 62
     7
100
AcDbVertex
100
AcDb2dVertex
 10
7.9675853692
 20
7.2943220329
 30
0.0
  0
VERTEX
  5
51A
330
283
100
AcDbEntity
  8
0
  6
CONTINUOUS
 62
     7
100
AcDbVertex
100
AcDb2dVertex
 10
7.9468073608
 20
7.2728011414
 30
0.0
  0
VERTEX
  5
51B
330
283
100
AcDbEntity
  8
0
  6
CONTINUOUS
 62
     7
100
AcDbVertex
100
AcDb2dVertex
 10
7.9264421035
 20
7.2503960665
 30
0.0
  0
VERTEX
  5
51C
330
283
100
AcDbEntity
  8
0
  6
CONTINUOUS
 62
     7
100
AcDbVertex
100
AcDb2dVertex
 10
7.9065350399
 20
7.2271568027
 30
0.0
  0
VERTEX
  5
51D
330
283
100
AcDbEntity
  8
0
  6
CONTINUOUS
 62
     7
100
AcDbVertex
100
AcDb2dVertex
 10
7.8871305907
 20
7.2031352058
 30
0.0
  0
VERTEX
  5
51E
330
283
100
AcDbEntity
  8
0
  6
CONTINUOUS
 62
     7
100
AcDbVertex
100
AcDb2dVertex
 10
7.8682720547
 20
7.1783848775
 30
0.0
  0
VERTEX
  5
51F
330
283
100
AcDbEntity
  8
0
  6
CONTINUOUS
 62
     7
100
AcDbVertex
100
AcDb2dVertex
 10
7.8500015126
 20
7.1529610455
 30
0.0
  0
VERTEX
  5
520
330
283
100
AcDbEntity
  8
0
  6
CONTINUOUS
 62
     7
100
AcDbVertex
100
AcDb2dVertex
 10
7.8323597333
 20
7.1269204401
 30
0.0
  0
VERTEX
  5
521
330
283
100
AcDbEntity
  8
0
  6
CONTINUOUS
 62
     7
100
AcDbVertex
100
AcDb2dVertex
 10
7.8153860824
 20
7.1003211683
 30
0.0
  0
VERTEX
  5
522
330
283
100
AcDbEntity
  8
0
  6
CONTINUOUS
 62
     7
100
AcDbVertex
100
AcDb2dVertex
 10
7.7991184347
 20
7.0732225833
 30
0.0
  0
VERTEX
  5
523
330
283
100
AcDbEntity
  8
0
  6
CONTINUOUS
 62
     7
100
AcDbVertex
100
AcDb2dVertex
 10
7.7835930898
 20
7.0456851527
 30
0.0
  0
VERTEX
  5
524
330
283
100
AcDbEntity
  8
0
  6
CONTINUOUS
 62
     7
100
AcDbVertex
100
AcDb2dVertex
 10
7.7688446908
 20
7.0177703233
 30
0.0
  0
VERTEX
  5
525
330
283
100
AcDbEntity
  8
0
  6
CONTINUOUS
 62
     7
100
AcDbVertex
100
AcDb2dVertex
 10
7.754906147
 20
6.9895403841
 30
0.0
  0
VERTEX
  5
526
330
283
100
AcDbEntity
  8
0
  6
CONTINUOUS
 62
     7
100
AcDbVertex
100
AcDb2dVertex
 10
7.741808561
 20
6.9610583269
 30
0.0
  0
VERTEX
  5
527
330
283
100
AcDbEntity
  8
0
  6
CONTINUOUS
 62
     7
100
AcDbVertex
100
AcDb2dVertex
 10
7.7295811584
 20
6.9323877065
 30
0.0
  0
VERTEX
  5
528
330
283
100
AcDbEntity
  8
0
  6
CONTINUOUS
 62
     7
100
AcDbVertex
100
AcDb2dVertex
 10
7.7182512234
 20
6.9035924981
 30
0.0
  0
VERTEX
  5
529
330
283
100
AcDbEntity
  8
0
  6
CONTINUOUS
 62
     7
100
AcDbVertex
100
AcDb2dVertex
 10
7.7078440375
 20
6.8747369552
 30
0.0
  0
VERTEX
  5
52A
330
283
100
AcDbEntity
  8
0
  6
CONTINUOUS
 62
     7
100
AcDbVertex
100
AcDb2dVertex
 10
7.6983828233
 20
6.8458854658
 30
0.0
  0
VERTEX
  5
52B
330
283
100
AcDbEntity
  8
0
  6
CONTINUOUS
 62
     7
100
AcDbVertex
100
AcDb2dVertex
 10
7.6898886923
 20
6.8171024088
 30
0.0
  0
VERTEX
  5
52C
330
283
100
AcDbEntity
  8
0
  6
CONTINUOUS
 62
     7
100
AcDbVertex
100
AcDb2dVertex
 10
7.6823805983
 20
6.7884520105
 30
0.0
  0
VERTEX
  5
52D
330
283
100
AcDbEntity
  8
0
  6
CONTINUOUS
 62
     7
100
AcDbVertex
100
AcDb2dVertex
 10
7.6758752949
 20
6.7599982011
 30
0.0
  0
VERTEX
  5
52E
330
283
100
AcDbEntity
  8
0
  6
CONTINUOUS
 62
     7
100
AcDbVertex
100
AcDb2dVertex
 10
7.6703872978
 20
6.7318044722
 30
0.0
  0
VERTEX
  5
52F
330
283
100
AcDbEntity
  8
0
  6
CONTINUOUS
 62
     7
100
AcDbVertex
100
AcDb2dVertex
 10
7.665928853
 20
6.703933735
 30
0.0
  0
VERTEX
  5
530
330
283
100
AcDbEntity
  8
0
  6
CONTINUOUS
 62
     7
100
AcDbVertex
100
AcDb2dVertex
 10
7.662509909
 20
6.67644818
 30
0.0
  0
VERTEX
  5
531
330
283
100
AcDbEntity
  8
0
  6
CONTINUOUS
 62
     7
100
AcDbVertex
100
AcDb2dVertex
 10
7.6601380948
 20
6.6494091383
 30
0.0
  0
VERTEX
  5
532
330
283
100
AcDbEntity
  8
0
  6
CONTINUOUS
 62
     7
100
AcDbVertex
100
AcDb2dVertex
 10
7.6588187028
 20
6.6228769445
 30
0.0
  0
VERTEX
  5
533
330
283
100
AcDbEntity
  8
0
  6
CONTINUOUS
 62
     7
100
AcDbVertex
100
AcDb2dVertex
 10
7.6585546771
 20
6.5969108023
 30
0.0
  0
VERTEX
  5
534
330
283
100
AcDbEntity
  8
0
  6
CONTINUOUS
 62
     7
100
AcDbVertex
100
AcDb2dVertex
 10
7.6593466068
 20
6.5715686524
 30
0.0
  0
VERTEX
  5
535
330
283
100
AcDbEntity
  8
0
  6
CONTINUOUS
 62
     7
100
AcDbVertex
100
AcDb2dVertex
 10
7.661192725
 20
6.546907043
 30
0.0
  0
VERTEX
  5
536
330
283
100
AcDbEntity
  8
0
  6
CONTINUOUS
 62
     7
100
AcDbVertex
100
AcDb2dVertex
 10
7.664088912
 20
6.5229810037
 30
0.0
  0
VERTEX
  5
537
330
283
100
AcDbEntity
  8
0
  6
CONTINUOUS
 62
     7
100
AcDbVertex
100
AcDb2dVertex
 10
7.6680287055
 20
6.499843923
 30
0.0
  0
VERTEX
  5
538
330
283
100
AcDbEntity
  8
0
  6
CONTINUOUS
 62
     7
100
AcDbVertex
100
AcDb2dVertex
 10
7.6730033142
 20
6.4775474288
 30
0.0
  0
VERTEX
  5
539
330
283
100
AcDbEntity
  8
0
  6
CONTINUOUS
 62
     7
100
AcDbVertex
100
AcDb2dVertex
 10
7.6790016377
 20
6.4561412731
 30
0.0
  0
VERTEX
  5
53A
330
283
100
AcDbEntity
  8
0
  6
CONTINUOUS
 62
     7
100
AcDbVertex
100
AcDb2dVertex
 10
7.6860102916
 20
6.4356732215
 30
0.0
  0
VERTEX
  5
53B
330
283
100
AcDbEntity
  8
0
  6
CONTINUOUS
 62
     7
100
AcDbVertex
100
AcDb2dVertex
 10
7.6940136367
 20
6.4161889462
 30
0.0
  0
VERTEX
  5
53C
330
283
100
AcDbEntity
  8
0
  6
CONTINUOUS
 62
     7
100
AcDbVertex
100
AcDb2dVertex
 10
7.7029938144
 20
6.3977319244
 30
0.0
  0
VERTEX
  5
53D
330
283
100
AcDbEntity
  8
0
  6
CONTINUOUS
 62
     7
100
AcDbVertex
100
AcDb2dVertex
 10
7.7129307865
 20
6.3803433407
 30
0.0
  0
VERTEX
  5
53E
330
283
100
AcDbEntity
  8
0
  6
CONTINUOUS
 62
     7
100
AcDbVertex
100
AcDb2dVertex
 10
7.7238023797
 20
6.364061996
 30
0.0
  0
VERTEX
  5
53F
330
283
100
AcDbEntity
  8
0
  6
CONTINUOUS
 62
     7
100
AcDbVertex
100
AcDb2dVertex
 10
7.7355843352
 20
6.3489242202
 30
0.0
  0
VERTEX
  5
540
330
283
100
AcDbEntity
  8
0
  6
CONTINUOUS
 62
     7
100
AcDbVertex
100
AcDb2dVertex
 10
7.7482503629
 20
6.3349637918
 30
0.0
  0
VERTEX
  5
541
330
283
100
AcDbEntity
  8
0
  6
CONTINUOUS
 62
     7
100
AcDbVertex
100
AcDb2dVertex
 10
7.7617721999
 20
6.3222118618
 30
0.0
  0
VERTEX
  5
542
330
283
100
AcDbEntity
  8
0
  6
CONTINUOUS
 62
     7
100
AcDbVertex
100
AcDb2dVertex
 10
7.7761196737
 20
6.3106968847
 30
0.0
  0
VERTEX
  5
543
330
283
100
AcDbEntity
  8
0
  6
CONTINUOUS
 62
     7
100
AcDbVertex
100
AcDb2dVertex
 10
7.7912607695
 20
6.3004445551
 30
0.0
  0
VERTEX
  5
544
330
283
100
AcDbEntity
  8
0
  6
CONTINUOUS
 62
     7
100
AcDbVertex
100
AcDb2dVertex
 10
7.8071617015
 20
6.2914777499
 30
0.0
  0
VERTEX
  5
545
330
283
100
AcDbEntity
  8
0
  6
CONTINUOUS
 62
     7
100
AcDbVertex
100
AcDb2dVertex
 10
7.8237869887
 20
6.2838164775
 30
0.0
  0
VERTEX
  5
546
330
283
100
AcDbEntity
  8
0
  6
CONTINUOUS
 62
     7
100
AcDbVertex
100
AcDb2dVertex
 10
7.8410995333
 20
6.2774778332
 30
0.0
  0
VERTEX
  5
547
330
283
100
AcDbEntity
  8
0
  6
CONTINUOUS
 62
     7
100
AcDbVertex
100
AcDb2dVertex
 10
7.8415368709
 20
6.2773377033
 30
0.0
  0
SEQEND
  5
548
330
283
100
AcDbEntity
  8
0
  6
CONTINUOUS
 62
     7
  0
SPLINE
  5
284
330
1F
100
AcDbEntity
  8
0
  6
CONTINUOUS
 62
     7
100
AcDbSpline
210
0.0
220
0.0
230
1.0
 70
     8
 71
     3
 72
    22
 73
    18
 74
     0
 42
0.00000001
 43
0.00000001
 40
0.0
 40
0.0
 40
0.0
 40
0.0
 40
0.0284586632331162
 40
0.1644063621330087
 40
0.2520077303238905
 40
0.3413994109083103
 40
0.4044759368837395
 40
0.469024579859232
 40
0.5196176284925983
 40
0.5715936369185103
 40
0.6222341841473855
 40
0.6744961591833271
 40
0.7232184822232549
 40
0.7729608030911003
 40
0.8511631959621784
 40
0.9315429376379665
 40
1.0
 40
1.0
 40
1.0
 40
1.0
 10
8.282615016599888
 20
7.562185869649785
 30
0.0
 10
8.2812528433952
 20
7.563004099142153
 30
0.0
 10
8.273383536978972
 20
7.567731030028827
 30
0.0
 10
8.259002774268358
 20
7.575279457834482
 30
0.0
 10
8.240497277635436
 20
7.584780735488767
 30
0.0
 10
8.225520994989317
 20
7.592260904601255
 30
0.0
 10
8.211797550013744
 20
7.599138728278717
 30
0.0
 10
8.200606482641657
 20
7.604842206968803
 30
0.0
 10
8.19054939610929
 20
7.61013496310828
 30
0.0
 10
8.18197531107921
 20
7.614839751949756
 30
0.0
 10
8.174294498196017
 20
7.61929614986037
 30
0.0
 10
8.16797449872778
 20
7.623227868346198
 30
0.0
 10
8.162956739074675
 20
7.626614374464146
 30
0.0
 10
8.158453113172255
 20
7.629957132766957
 30
0.0
 10
8.155152757372074
 20
7.632865123082047
 30
0.0
 10
8.153380741337626
 20
7.635012782112804
 30
0.0
 10
8.15397861380422
 20
7.635179617942761
 30
0.0
 10
8.154253603535388
 20
7.635256353605619
 30
0.0
  0
SPLINE
  5
285
330
1F
100
AcDbEntity
  8
0
  6
CONTINUOUS
 62
     7
100
AcDbSpline
210
0.0
220
0.0
230
1.0
 70
     8
 71
     3
 72
    70
 73
    66
 74
     0
 42
0.00000001
 43
0.00000001
 40
-0.0312499999999999
 40
-0.0312499999999999
 40
0.0
 40
0.0
 40
0.0312500000000004
 40
0.0312500000000004
 40
0.0468750000000006
 40
0.0468750000000006
 40
0.0625000000000008
 40
0.0625000000000008
 40
0.0937500000000008
 40
0.0937500000000008
 40
0.1250000000000008
 40
0.1250000000000008
 40
0.1875000000000011
 40
0.1875000000000011
 40
0.2187500000000011
 40
0.2187500000000011
 40
0.2500000000000012
 40
0.2500000000000012
 40
0.2812500000000012
 40
0.2812500000000012
 40
0.3125000000000012
 40
0.3125000000000012
 40
0.3437500000000012
 40
0.3437500000000012
 40
0.3750000000000012
 40
0.3750000000000012
 40
0.4062500000000012
 40
0.4062500000000012
 40
0.4375000000000012
 40
0.4375000000000012
 40
0.4687500000000013
 40
0.4687500000000013
 40
0.5000000000000012
 40
0.5000000000000012
 40
0.5312500000000013
 40
0.5312500000000013
 40
0.5625000000000012
 40
0.5625000000000012
 40
0.5937500000000012
 40
0.5937500000000012
 40
0.6250000000000011
 40
0.6250000000000011
 40
0.6562500000000011
 40
0.6562500000000011
 40
0.6875000000000011
 40
0.6875000000000011
 40
0.718750000000001
 40
0.718750000000001
 40
0.750000000000001
 40
0.750000000000001
 40
0.781250000000001
 40
0.781250000000001
 40
0.8125000000000009
 40
0.8125000000000009
 40
0.8750000000000007
 40
0.8750000000000007
 40
0.9062500000000004
 40
0.9062500000000004
 40
0.9375000000000002
 40
0.9375000000000002
 40
0.9531250000000002
 40
0.9531250000000002
 40
0.9687500000000001
 40
0.9687500000000001
 40
1.0
 40
1.0
 40
1.03125
 40
1.03125
 10
7.565134815313773
 20
7.226571894949872
 30
0.0
 10
7.558715701148842
 20
7.23027757067976
 30
0.0
 10
7.555220451266784
 20
7.231426201796878
 30
0.0
 10
7.549602208155055
 20
7.232208796380627
 30
0.0
 10
7.547665826176237
 20
7.232307877315074
 30
0.0
 10
7.543801880307557
 20
7.232207265491064
 30
0.0
 10
7.541858118561529
 20
7.232010525649128
 30
0.0
 10
7.535998360877476
 20
7.231025811352418
 30
0.0
 10
7.532061608045011
 20
7.229836500481619
 30
0.0
 10
7.524479787791823
 20
7.226710872004998
 30
0.0
 10
7.520784423365281
 20
7.224765239600635
 30
0.0
 10
7.50996694115849
 20
7.217932063969579
 30
0.0
 10
7.503454247105143
 20
7.212303316130114
 30
0.0
 10
7.494621858956852
 20
7.202573897279981
 30
0.0
 10
7.491838100165281
 20
7.199101789668442
 30
0.0
 10
7.486740900466186
 20
7.191903748835999
 30
0.0
 10
7.484405645150445
 20
7.188155396124705
 30
0.0
 10
7.480171837492827
 20
7.180353211204134
 30
0.0
 10
7.478260519340526
 20
7.176264473918391
 30
0.0
 10
7.474994533081683
 20
7.167942505681557
 30
0.0
 10
7.473637990742303
 20
7.163719722644579
 30
0.0
 10
7.471500546598305
 20
7.155146252783147
 30
0.0
 10
7.47071887135363
 20
7.150795728247266
 30
0.0
 10
7.469807985309241
 20
7.141950945380117
 30
0.0
 10
7.469689709307647
 20
7.137478228251395
 30
0.0
 10
7.470197391228312
 20
7.128776063111464
 30
0.0
 10
7.470822036249133
 20
7.124475477872878
 30
0.0
 10
7.472891229144706
 20
7.116168360212512
 30
0.0
 10
7.474303140065333
 20
7.112273072727229
 30
0.0
 10
7.477914768281731
 20
7.105039880126887
 30
0.0
 10
7.480162748453806
 20
7.101657108265661
 30
0.0
 10
7.48527467649081
 20
7.095913885788327
 30
0.0
 10
7.488137890708296
 20
7.093513759578389
 30
0.0
 10
7.494519406895544
 20
7.089729797447898
 30
0.0
 10
7.497886486746681
 20
7.088437463224313
 30
0.0
 10
7.504936132713522
 20
7.086997298262472
 30
0.0
 10
7.508604380728361
 20
7.086871283259413
 30
0.0
 10
7.515869707291082
 20
7.087722864054752
 30
0.0
 10
7.519549499129199
 20
7.0887106413859
 30
0.0
 10
7.526647731232043
 20
7.091596109058123
 30
0.0
 10
7.530121176288919
 20
7.093505420920358
 30
0.0
 10
7.536813574346353
 20
7.098083387200324
 30
0.0
 10
7.539987281153696
 20
7.100714489807164
 30
0.0
 10
7.546049837061955
 20
7.106568928468129
 30
0.0
 10
7.548943218579621
 20
7.109806902957474
 30
0.0
 10
7.55431408530182
 20
7.116628474605167
 30
0.0
 10
7.556816017782163
 20
7.120233814954662
 30
0.0
 10
7.561488274214345
 20
7.127801962969844
 30
0.0
 10
7.563646602927582
 20
7.131752015632893
 30
0.0
 10
7.567544481377515
 20
7.139786835262005
 30
0.0
 10
7.569299372494597
 20
7.143895937680888
 30
0.0
 10
7.572426755179187
 20
7.15229479718914
 30
0.0
 10
7.573802050925927
 20
7.15660463766319
 30
0.0
 10
7.577219077023646
 20
7.169465312698987
 30
0.0
 10
7.578635057965517
 20
7.178054879981152
 30
0.0
 10
7.579040339751998
 20
7.190969792910638
 30
0.0
 10
7.578876418278711
 20
7.195168264861821
 30
0.0
 10
7.577829097182549
 20
7.203326150802788
 30
0.0
 10
7.576928366293059
 20
7.207331539159246
 30
0.0
 10
7.574922358083088
 20
7.212872820103668
 30
0.0
 10
7.574145631658046
 20
7.214645830903796
 30
0.0
 10
7.572347330311136
 20
7.218027064673648
 30
0.0
 10
7.57131515044627
 20
7.2196482209981
 30
0.0
 10
7.567874608499603
 20
7.224114930013054
 30
0.0
 10
7.565134815313773
 20
7.226571894949872
 30
0.0
 10
7.558715701148842
 20
7.23027757067976
 30
0.0
  0
POLYLINE
  5
286
330
1F
100
AcDbEntity
  8
0
  6
CONTINUOUS
 62
     7
100
AcDb2dPolyline
 66
     1
 10
0.0
 20
0.0
 30
0.0
  0
VERTEX
  5
549
330
286
100
AcDbEntity
  8
0
  6
CONTINUOUS
 62
     7
100
AcDbVertex
100
AcDb2dVertex
 10
7.5729263569
 20
6.4627265682
 30
0.0
  0
VERTEX
  5
54A
330
286
100
AcDbEntity
  8
0
  6
CONTINUOUS
 62
     7
100
AcDbVertex
100
AcDb2dVertex
 10
7.5631549783
 20
6.4802106059
 30
0.0
  0
VERTEX
  5
54B
330
286
100
AcDbEntity
  8
0
  6
CONTINUOUS
 62
     7
100
AcDbVertex
100
AcDb2dVertex
 10
7.5543370365
 20
6.4987505379
 30
0.0
  0
VERTEX
  5
54C
330
286
100
AcDbEntity
  8
0
  6
CONTINUOUS
 62
     7
100
AcDbVertex
100
AcDb2dVertex
 10
7.5464920791
 20
6.5183052648
 30
0.0
  0
VERTEX
  5
54D
330
286
100
AcDbEntity
  8
0
  6
CONTINUOUS
 62
     7
100
AcDbVertex
100
AcDb2dVertex
 10
7.5396374969
 20
6.5388314378
 30
0.0
  0
VERTEX
  5
54E
330
286
100
AcDbEntity
  8
0
  6
CONTINUOUS
 62
     7
100
AcDbVertex
100
AcDb2dVertex
 10
7.5337884849
 20
6.5602835544
 30
0.0
  0
VERTEX
  5
54F
330
286
100
AcDbEntity
  8
0
  6
CONTINUOUS
 62
     7
100
AcDbVertex
100
AcDb2dVertex
 10
7.5289580094
 20
6.5826140596
 30
0.0
  0
VERTEX
  5
550
330
286
100
AcDbEntity
  8
0
  6
CONTINUOUS
 62
     7
100
AcDbVertex
100
AcDb2dVertex
 10
7.5251567785
 20
6.6057734513
 30
0.0
  0
VERTEX
  5
551
330
286
100
AcDbEntity
  8
0
  6
CONTINUOUS
 62
     7
100
AcDbVertex
100
AcDb2dVertex
 10
7.5223932187
 20
6.6297103897
 30
0.0
  0
VERTEX
  5
552
330
286
100
AcDbEntity
  8
0
  6
CONTINUOUS
 62
     7
100
AcDbVertex
100
AcDb2dVertex
 10
7.5206734564
 20
6.6543718114
 30
0.0
  0
VERTEX
  5
553
330
286
100
AcDbEntity
  8
0
  6
CONTINUOUS
 62
     7
100
AcDbVertex
100
AcDb2dVertex
 10
7.5200013038
 20
6.6797030472
 30
0.0
  0
VERTEX
  5
554
330
286
100
AcDbEntity
  8
0
  6
CONTINUOUS
 62
     7
100
AcDbVertex
100
AcDb2dVertex
 10
7.5203782511
 20
6.7056479427
 30
0.0
  0
VERTEX
  5
555
330
286
100
AcDbEntity
  8
0
  6
CONTINUOUS
 62
     7
100
AcDbVertex
100
AcDb2dVertex
 10
7.5218034625
 20
6.7321489833
 30
0.0
  0
VERTEX
  5
556
330
286
100
AcDbEntity
  8
0
  6
CONTINUOUS
 62
     7
100
AcDbVertex
100
AcDb2dVertex
 10
7.5242737787
 20
6.7591474217
 30
0.0
  0
VERTEX
  5
557
330
286
100
AcDbEntity
  8
0
  6
CONTINUOUS
 62
     7
100
AcDbVertex
100
AcDb2dVertex
 10
7.5277837235
 20
6.7865834077
 30
0.0
  0
VERTEX
  5
558
330
286
100
AcDbEntity
  8
0
  6
CONTINUOUS
 62
     7
100
AcDbVertex
100
AcDb2dVertex
 10
7.5323255161
 20
6.8143961212
 30
0.0
  0
VERTEX
  5
559
330
286
100
AcDbEntity
  8
0
  6
CONTINUOUS
 62
     7
100
AcDbVertex
100
AcDb2dVertex
 10
7.5378890881
 20
6.8425239071
 30
0.0
  0
VERTEX
  5
55A
330
286
100
AcDbEntity
  8
0
  6
CONTINUOUS
 62
     7
100
AcDbVertex
100
AcDb2dVertex
 10
7.5444621064
 20
6.8709044118
 30
0.0
  0
VERTEX
  5
55B
330
286
100
AcDbEntity
  8
0
  6
CONTINUOUS
 62
     7
100
AcDbVertex
100
AcDb2dVertex
 10
7.5520299998
 20
6.8994747215
 30
0.0
  0
VERTEX
  5
55C
330
286
100
AcDbEntity
  8
0
  6
CONTINUOUS
 62
     7
100
AcDbVertex
100
AcDb2dVertex
 10
7.5605759919
 20
6.9281715014
 30
0.0
  0
VERTEX
  5
55D
330
286
100
AcDbEntity
  8
0
  6
CONTINUOUS
 62
     7
100
AcDbVertex
100
AcDb2dVertex
 10
7.5700811379
 20
6.9569311367
 30
0.0
  0
VERTEX
  5
55E
330
286
100
AcDbEntity
  8
0
  6
CONTINUOUS
 62
     7
100
AcDbVertex
100
AcDb2dVertex
 10
7.5805243668
 20
6.9856898731
 30
0.0
  0
VERTEX
  5
55F
330
286
100
AcDbEntity
  8
0
  6
CONTINUOUS
 62
     7
100
AcDbVertex
100
AcDb2dVertex
 10
7.5918825281
 20
7.0143839582
 30
0.0
  0
VERTEX
  5
560
330
286
100
AcDbEntity
  8
0
  6
CONTINUOUS
 62
     7
100
AcDbVertex
100
AcDb2dVertex
 10
7.6041304431
 20
7.0429497831
 30
0.0
  0
VERTEX
  5
561
330
286
100
AcDbEntity
  8
0
  6
CONTINUOUS
 62
     7
100
AcDbVertex
100
AcDb2dVertex
 10
7.6172409606
 20
7.071324023
 30
0.0
  0
VERTEX
  5
562
330
286
100
AcDbEntity
  8
0
  6
CONTINUOUS
 62
     7
100
AcDbVertex
100
AcDb2dVertex
 10
7.6311850172
 20
7.0994437781
 30
0.0
  0
VERTEX
  5
563
330
286
100
AcDbEntity
  8
0
  6
CONTINUOUS
 62
     7
100
AcDbVertex
100
AcDb2dVertex
 10
7.6459317017
 20
7.1272467125
 30
0.0
  0
VERTEX
  5
564
330
286
100
AcDbEntity
  8
0
  6
CONTINUOUS
 62
     7
100
AcDbVertex
100
AcDb2dVertex
 10
7.6614483238
 20
7.1546711927
 30
0.0
  0
VERTEX
  5
565
330
286
100
AcDbEntity
  8
0
  6
CONTINUOUS
 62
     7
100
AcDbVertex
100
AcDb2dVertex
 10
7.6777004862
 20
7.1816564242
 30
0.0
  0
VERTEX
  5
566
330
286
100
AcDbEntity
  8
0
  6
CONTINUOUS
 62
     7
100
AcDbVertex
100
AcDb2dVertex
 10
7.6946521612
 20
7.2081425861
 30
0.0
  0
VERTEX
  5
567
330
286
100
AcDbEntity
  8
0
  6
CONTINUOUS
 62
     7
100
AcDbVertex
100
AcDb2dVertex
 10
7.7122657703
 20
7.2340709641
 30
0.0
  0
VERTEX
  5
568
330
286
100
AcDbEntity
  8
0
  6
CONTINUOUS
 62
     7
100
AcDbVertex
100
AcDb2dVertex
 10
7.7305022677
 20
7.25938408
 30
0.0
  0
VERTEX
  5
569
330
286
100
AcDbEntity
  8
0
  6
CONTINUOUS
 62
     7
100
AcDbVertex
100
AcDb2dVertex
 10
7.7493212268
 20
7.2840258199
 30
0.0
  0
VERTEX
  5
56A
330
286
100
AcDbEntity
  8
0
  6
CONTINUOUS
 62
     7
100
AcDbVertex
100
AcDb2dVertex
 10
7.7686809297
 20
7.3079415581
 30
0.0
  0
VERTEX
  5
56B
330
286
100
AcDbEntity
  8
0
  6
CONTINUOUS
 62
     7
100
AcDbVertex
100
AcDb2dVertex
 10
7.7885384599
 20
7.331078278
 30
0.0
  0
VERTEX
  5
56C
330
286
100
AcDbEntity
  8
0
  6
CONTINUOUS
 62
     7
100
AcDbVertex
100
AcDb2dVertex
 10
7.8088497973
 20
7.3533846903
 30
0.0
  0
VERTEX
  5
56D
330
286
100
AcDbEntity
  8
0
  6
CONTINUOUS
 62
     7
100
AcDbVertex
100
AcDb2dVertex
 10
7.8295699157
 20
7.3748113463
 30
0.0
  0
VERTEX
  5
56E
330
286
100
AcDbEntity
  8
0
  6
CONTINUOUS
 62
     7
100
AcDbVertex
100
AcDb2dVertex
 10
7.8506528829
 20
7.3953107472
 30
0.0
  0
VERTEX
  5
56F
330
286
100
AcDbEntity
  8
0
  6
CONTINUOUS
 62
     7
100
AcDbVertex
100
AcDb2dVertex
 10
7.872051962
 20
7.4148374501
 30
0.0
  0
VERTEX
  5
570
330
286
100
AcDbEntity
  8
0
  6
CONTINUOUS
 62
     7
100
AcDbVertex
100
AcDb2dVertex
 10
7.8937197157
 20
7.4333481683
 30
0.0
  0
VERTEX
  5
571
330
286
100
AcDbEntity
  8
0
  6
CONTINUOUS
 62
     7
100
AcDbVertex
100
AcDb2dVertex
 10
7.915608111
 20
7.4508018671
 30
0.0
  0
VERTEX
  5
572
330
286
100
AcDbEntity
  8
0
  6
CONTINUOUS
 62
     7
100
AcDbVertex
100
AcDb2dVertex
 10
7.9376686257
 20
7.4671598553
 30
0.0
  0
VERTEX
  5
573
330
286
100
AcDbEntity
  8
0
  6
CONTINUOUS
 62
     7
100
AcDbVertex
100
AcDb2dVertex
 10
7.9598523561
 20
7.4823858706
 30
0.0
  0
VERTEX
  5
574
330
286
100
AcDbEntity
  8
0
  6
CONTINUOUS
 62
     7
100
AcDbVertex
100
AcDb2dVertex
 10
7.9821101253
 20
7.4964461598
 30
0.0
  0
VERTEX
  5
575
330
286
100
AcDbEntity
  8
0
  6
CONTINUOUS
 62
     7
100
AcDbVertex
100
AcDb2dVertex
 10
8.0043925924
 20
7.5093095543
 30
0.0
  0
VERTEX
  5
576
330
286
100
AcDbEntity
  8
0
  6
CONTINUOUS
 62
     7
100
AcDbVertex
100
AcDb2dVertex
 10
8.0266503616
 20
7.5209475384
 30
0.0
  0
VERTEX
  5
577
330
286
100
AcDbEntity
  8
0
  6
CONTINUOUS
 62
     7
100
AcDbVertex
100
AcDb2dVertex
 10
8.048834092
 20
7.531334313
 30
0.0
  0
VERTEX
  5
578
330
286
100
AcDbEntity
  8
0
  6
CONTINUOUS
 62
     7
100
AcDbVertex
100
AcDb2dVertex
 10
8.0708946067
 20
7.5404468529
 30
0.0
  0
VERTEX
  5
579
330
286
100
AcDbEntity
  8
0
  6
CONTINUOUS
 62
     7
100
AcDbVertex
100
AcDb2dVertex
 10
8.092783002
 20
7.5482649573
 30
0.0
  0
VERTEX
  5
57A
330
286
100
AcDbEntity
  8
0
  6
CONTINUOUS
 62
     7
100
AcDbVertex
100
AcDb2dVertex
 10
8.1144507557
 20
7.5547712952
 30
0.0
  0
VERTEX
  5
57B
330
286
100
AcDbEntity
  8
0
  6
CONTINUOUS
 62
     7
100
AcDbVertex
100
AcDb2dVertex
 10
8.1358498348
 20
7.5599514431
 30
0.0
  0
VERTEX
  5
57C
330
286
100
AcDbEntity
  8
0
  6
CONTINUOUS
 62
     7
100
AcDbVertex
100
AcDb2dVertex
 10
8.1569328019
 20
7.5637939179
 30
0.0
  0
VERTEX
  5
57D
330
286
100
AcDbEntity
  8
0
  6
CONTINUOUS
 62
     7
100
AcDbVertex
100
AcDb2dVertex
 10
8.1776529204
 20
7.5662902014
 30
0.0
  0
VERTEX
  5
57E
330
286
100
AcDbEntity
  8
0
  6
CONTINUOUS
 62
     7
100
AcDbVertex
100
AcDb2dVertex
 10
8.1979642577
 20
7.5674347601
 30
0.0
  0
VERTEX
  5
57F
330
286
100
AcDbEntity
  8
0
  6
CONTINUOUS
 62
     7
100
AcDbVertex
100
AcDb2dVertex
 10
8.217821788
 20
7.5672250565
 30
0.0
  0
VERTEX
  5
580
330
286
100
AcDbEntity
  8
0
  6
CONTINUOUS
 62
     7
100
AcDbVertex
100
AcDb2dVertex
 10
8.2371814909
 20
7.5656615556
 30
0.0
  0
VERTEX
  5
581
330
286
100
AcDbEntity
  8
0
  6
CONTINUOUS
 62
     7
100
AcDbVertex
100
AcDb2dVertex
 10
8.25600045
 20
7.5627477234
 30
0.0
  0
VERTEX
  5
582
330
286
100
AcDbEntity
  8
0
  6
CONTINUOUS
 62
     7
100
AcDbVertex
100
AcDb2dVertex
 10
8.2742369474
 20
7.5584900192
 30
0.0
  0
VERTEX
  5
583
330
286
100
AcDbEntity
  8
0
  6
CONTINUOUS
 62
     7
100
AcDbVertex
100
AcDb2dVertex
 10
8.2918505565
 20
7.5528978814
 30
0.0
  0
VERTEX
  5
584
330
286
100
AcDbEntity
  8
0
  6
CONTINUOUS
 62
     7
100
AcDbVertex
100
AcDb2dVertex
 10
8.3088022315
 20
7.5459837068
 30
0.0
  0
VERTEX
  5
585
330
286
100
AcDbEntity
  8
0
  6
CONTINUOUS
 62
     7
100
AcDbVertex
100
AcDb2dVertex
 10
8.3250543939
 20
7.5377628226
 30
0.0
  0
VERTEX
  5
586
330
286
100
AcDbEntity
  8
0
  6
CONTINUOUS
 62
     7
100
AcDbVertex
100
AcDb2dVertex
 10
8.3278698324
 20
7.5361646235
 30
0.0
  0
SEQEND
  5
587
330
286
100
AcDbEntity
  8
0
  6
CONTINUOUS
 62
     7
  0
POLYLINE
  5
287
330
1F
100
AcDbEntity
  8
0
  6
CONTINUOUS
 62
     7
100
AcDb2dPolyline
 66
     1
 10
0.0
 20
0.0
 30
0.0
  0
VERTEX
  5
588
330
287
100
AcDbEntity
  8
0
  6
CONTINUOUS
 62
     7
100
AcDbVertex
100
AcDb2dVertex
 10
8.318461562
 20
7.5412987731
 30
0.0
  0
VERTEX
  5
589
330
287
100
AcDbEntity
  8
0
  6
CONTINUOUS
 62
     7
100
AcDbVertex
100
AcDb2dVertex
 10
8.3046174918
 20
7.5495129733
 30
0.0
  0
VERTEX
  5
58A
330
287
100
AcDbEntity
  8
0
  6
CONTINUOUS
 62
     7
100
AcDbVertex
100
AcDb2dVertex
 10
8.28820814
 20
7.5576131174
 30
0.0
  0
VERTEX
  5
58B
330
287
100
AcDbEntity
  8
0
  6
CONTINUOUS
 62
     7
100
AcDbVertex
100
AcDb2dVertex
 10
8.2710977076
 20
7.5643930757
 30
0.0
  0
VERTEX
  5
58C
330
287
100
AcDbEntity
  8
0
  6
CONTINUOUS
 62
     7
100
AcDbVertex
100
AcDb2dVertex
 10
8.2533244567
 20
7.5698376869
 30
0.0
  0
VERTEX
  5
58D
330
287
100
AcDbEntity
  8
0
  6
CONTINUOUS
 62
     7
100
AcDbVertex
100
AcDb2dVertex
 10
8.2349281317
 20
7.573934776
 30
0.0
  0
VERTEX
  5
58E
330
287
100
AcDbEntity
  8
0
  6
CONTINUOUS
 62
     7
100
AcDbVertex
100
AcDb2dVertex
 10
8.2159498702
 20
7.5766751809
 30
0.0
  0
VERTEX
  5
58F
330
287
100
AcDbEntity
  8
0
  6
CONTINUOUS
 62
     7
100
AcDbVertex
100
AcDb2dVertex
 10
8.1964321111
 20
7.5780527737
 30
0.0
  0
VERTEX
  5
590
330
287
100
AcDbEntity
  8
0
  6
CONTINUOUS
 62
     7
100
AcDbVertex
100
AcDb2dVertex
 10
8.1764184999
 20
7.5780644738
 30
0.0
  0
VERTEX
  5
591
330
287
100
AcDbEntity
  8
0
  6
CONTINUOUS
 62
     7
100
AcDbVertex
100
AcDb2dVertex
 10
8.1559537907
 20
7.576710255
 30
0.0
  0
VERTEX
  5
592
330
287
100
AcDbEntity
  8
0
  6
CONTINUOUS
 62
     7
100
AcDbVertex
100
AcDb2dVertex
 10
8.1350837464
 20
7.5739931457
 30
0.0
  0
VERTEX
  5
593
330
287
100
AcDbEntity
  8
0
  6
CONTINUOUS
 62
     7
100
AcDbVertex
100
AcDb2dVertex
 10
8.1138550363
 20
7.5699192217
 30
0.0
  0
VERTEX
  5
594
330
287
100
AcDbEntity
  8
0
  6
CONTINUOUS
 62
     7
100
AcDbVertex
100
AcDb2dVertex
 10
8.0923151319
 20
7.5644975932
 30
0.0
  0
VERTEX
  5
595
330
287
100
AcDbEntity
  8
0
  6
CONTINUOUS
 62
     7
100
AcDbVertex
100
AcDb2dVertex
 10
8.0705122004
 20
7.557740384
 30
0.0
  0
VERTEX
  5
596
330
287
100
AcDbEntity
  8
0
  6
CONTINUOUS
 62
     7
100
AcDbVertex
100
AcDb2dVertex
 10
8.0484949972
 20
7.5496627043
 30
0.0
  0
VERTEX
  5
597
330
287
100
AcDbEntity
  8
0
  6
CONTINUOUS
 62
     7
100
AcDbVertex
100
AcDb2dVertex
 10
8.026312757
 20
7.5402826175
 30
0.0
  0
VERTEX
  5
598
330
287
100
AcDbEntity
  8
0
  6
CONTINUOUS
 62
     7
100
AcDbVertex
100
AcDb2dVertex
 10
8.0040150834
 20
7.5296210991
 30
0.0
  0
VERTEX
  5
599
330
287
100
AcDbEntity
  8
0
  6
CONTINUOUS
 62
     7
100
AcDbVertex
100
AcDb2dVertex
 10
7.9816518382
 20
7.5177019903
 30
0.0
  0
SEQEND
  5
59A
330
287
100
AcDbEntity
  8
0
  6
CONTINUOUS
 62
     7
  0
LINE
  5
288
330
1F
100
AcDbEntity
  8
0
  6
CONTINUOUS
 62
     7
100
AcDbLine
 10
7.809978932
 20
7.6168066495
 30
0.0
 11
7.9816518382
 21
7.5177019903
 31
0.0
  0
POLYLINE
  5
289
330
1F
100
AcDbEntity
  8
0
  6
CONTINUOUS
 62
     7
100
AcDb2dPolyline
 66
     1
 10
0.0
 20
0.0
 30
0.0
  0
VERTEX
  5
59B
330
289
100
AcDbEntity
  8
0
  6
CONTINUOUS
 62
     7
100
AcDbVertex
100
AcDb2dVertex
 10
7.809978932
 20
7.6168066495
 30
0.0
  0
VERTEX
  5
59C
330
289
100
AcDbEntity
  8
0
  6
CONTINUOUS
 62
     7
100
AcDbVertex
100
AcDb2dVertex
 10
7.8323820024
 20
7.628745892
 30
0.0
  0
VERTEX
  5
59D
330
289
100
AcDbEntity
  8
0
  6
CONTINUOUS
 62
     7
100
AcDbVertex
100
AcDb2dVertex
 10
7.8547191778
 20
7.6394230118
 30
0.0
  0
VERTEX
  5
59E
330
289
100
AcDbEntity
  8
0
  6
CONTINUOUS
 62
     7
100
AcDbVertex
100
AcDb2dVertex
 10
7.87694033
 20
7.6488140475
 30
0.0
  0
VERTEX
  5
59F
330
289
100
AcDbEntity
  8
0
  6
CONTINUOUS
 62
     7
100
AcDbVertex
100
AcDb2dVertex
 10
7.8989955908
 20
7.6568979242
 30
0.0
  0
VERTEX
  5
5A0
330
289
100
AcDbEntity
  8
0
  6
CONTINUOUS
 62
     7
100
AcDbVertex
100
AcDb2dVertex
 10
7.9208354647
 20
7.6636565003
 30
0.0
  0
VERTEX
  5
5A1
330
289
100
AcDbEntity
  8
0
  6
CONTINUOUS
 62
     7
100
AcDbVertex
100
AcDb2dVertex
 10
7.9424109394
 20
7.6690746084
 30
0.0
  0
VERTEX
  5
5A2
330
289
100
AcDbEntity
  8
0
  6
CONTINUOUS
 62
     7
100
AcDbVertex
100
AcDb2dVertex
 10
7.9636735959
 20
7.6731400894
 30
0.0
  0
VERTEX
  5
5A3
330
289
100
AcDbEntity
  8
0
  6
CONTINUOUS
 62
     7
100
AcDbVertex
100
AcDb2dVertex
 10
7.9845757171
 20
7.6758438197
 30
0.0
  0
VERTEX
  5
5A4
330
289
100
AcDbEntity
  8
0
  6
CONTINUOUS
 62
     7
100
AcDbVertex
100
AcDb2dVertex
 10
8.0050703954
 20
7.6771797316
 30
0.0
  0
VERTEX
  5
5A5
330
289
100
AcDbEntity
  8
0
  6
CONTINUOUS
 62
     7
100
AcDbVertex
100
AcDb2dVertex
 10
8.0251116373
 20
7.6771448272
 30
0.0
  0
VERTEX
  5
5A6
330
289
100
AcDbEntity
  8
0
  6
CONTINUOUS
 62
     7
100
AcDbVertex
100
AcDb2dVertex
 10
8.0446544668
 20
7.6757391847
 30
0.0
  0
VERTEX
  5
5A7
330
289
100
AcDbEntity
  8
0
  6
CONTINUOUS
 62
     7
100
AcDbVertex
100
AcDb2dVertex
 10
8.0636550266
 20
7.6729659587
 30
0.0
  0
VERTEX
  5
5A8
330
289
100
AcDbEntity
  8
0
  6
CONTINUOUS
 62
     7
100
AcDbVertex
100
AcDb2dVertex
 10
8.0820706762
 20
7.6688313728
 30
0.0
  0
VERTEX
  5
5A9
330
289
100
AcDbEntity
  8
0
  6
CONTINUOUS
 62
     7
100
AcDbVertex
100
AcDb2dVertex
 10
8.099860088
 20
7.6633447056
 30
0.0
  0
VERTEX
  5
5AA
330
289
100
AcDbEntity
  8
0
  6
CONTINUOUS
 62
     7
100
AcDbVertex
100
AcDb2dVertex
 10
8.1169833395
 20
7.6565182701
 30
0.0
  0
VERTEX
  5
5AB
330
289
100
AcDbEntity
  8
0
  6
CONTINUOUS
 62
     7
100
AcDbVertex
100
AcDb2dVertex
 10
8.1334020032
 20
7.6483673861
 30
0.0
  0
VERTEX
  5
5AC
330
289
100
AcDbEntity
  8
0
  6
CONTINUOUS
 62
     7
100
AcDbVertex
100
AcDb2dVertex
 10
8.1376376931
 20
7.6459832999
 30
0.0
  0
SEQEND
  5
5AD
330
289
100
AcDbEntity
  8
0
  6
CONTINUOUS
 62
     7
  0
POLYLINE
  5
28A
330
1F
100
AcDbEntity
  8
0
  6
CONTINUOUS
 62
     7
100
AcDb2dPolyline
 66
     1
 10
0.0
 20
0.0
 30
0.0
  0
VERTEX
  5
5AE
330
28A
100
AcDbEntity
  8
0
  6
CONTINUOUS
 62
     7
100
AcDbVertex
100
AcDb2dVertex
 10
7.468400746
 20
6.4867052952
 30
0.0
  0
VERTEX
  5
5AF
330
28A
100
AcDbEntity
  8
0
  6
CONTINUOUS
 62
     7
100
AcDbVertex
100
AcDb2dVertex
 10
7.4617440986
 20
6.4907040964
 30
0.0
  0
VERTEX
  5
5B0
330
28A
100
AcDbEntity
  8
0
  6
CONTINUOUS
 62
     7
100
AcDbVertex
100
AcDb2dVertex
 10
7.4465987521
 20
6.5010496581
 30
0.0
  0
VERTEX
  5
5B1
330
28A
100
AcDbEntity
  8
0
  6
CONTINUOUS
 62
     7
100
AcDbVertex
100
AcDb2dVertex
 10
7.4322532723
 20
6.512663835
 30
0.0
  0
VERTEX
  5
5B2
330
28A
100
AcDbEntity
  8
0
  6
CONTINUOUS
 62
     7
100
AcDbVertex
100
AcDb2dVertex
 10
7.4187398531
 20
6.525520563
 30
0.0
  0
VERTEX
  5
5B3
330
28A
100
AcDbEntity
  8
0
  6
CONTINUOUS
 62
     7
100
AcDbVertex
100
AcDb2dVertex
 10
7.4060888207
 20
6.5395909894
 30
0.0
  0
VERTEX
  5
5B4
330
28A
100
AcDbEntity
  8
0
  6
CONTINUOUS
 62
     7
100
AcDbVertex
100
AcDb2dVertex
 10
7.3943285662
 20
6.5548435379
 30
0.0
  0
VERTEX
  5
5B5
330
28A
100
AcDbEntity
  8
0
  6
CONTINUOUS
 62
     7
100
AcDbVertex
100
AcDb2dVertex
 10
7.3834854815
 20
6.5712439792
 30
0.0
  0
VERTEX
  5
5B6
330
28A
100
AcDbEntity
  8
0
  6
CONTINUOUS
 62
     7
100
AcDbVertex
100
AcDb2dVertex
 10
7.3735839003
 20
6.5887555081
 30
0.0
  0
VERTEX
  5
5B7
330
28A
100
AcDbEntity
  8
0
  6
CONTINUOUS
 62
     7
100
AcDbVertex
100
AcDb2dVertex
 10
7.3646460434
 20
6.6073388256
 30
0.0
  0
VERTEX
  5
5B8
330
28A
100
AcDbEntity
  8
0
  6
CONTINUOUS
 62
     7
100
AcDbVertex
100
AcDb2dVertex
 10
7.3566919689
 20
6.6269522278
 30
0.0
  0
VERTEX
  5
5B9
330
28A
100
AcDbEntity
  8
0
  6
CONTINUOUS
 62
     7
100
AcDbVertex
100
AcDb2dVertex
 10
7.3497395271
 20
6.6475516989
 30
0.0
  0
VERTEX
  5
5BA
330
28A
100
AcDbEntity
  8
0
  6
CONTINUOUS
 62
     7
100
AcDbVertex
100
AcDb2dVertex
 10
7.3438043202
 20
6.6690910103
 30
0.0
  0
VERTEX
  5
5BB
330
28A
100
AcDbEntity
  8
0
  6
CONTINUOUS
 62
     7
100
AcDbVertex
100
AcDb2dVertex
 10
7.338899668
 20
6.6915218242
 30
0.0
  0
VERTEX
  5
5BC
330
28A
100
AcDbEntity
  8
0
  6
CONTINUOUS
 62
     7
100
AcDbVertex
100
AcDb2dVertex
 10
7.3350365774
 20
6.7147938021
 30
0.0
  0
VERTEX
  5
5BD
330
28A
100
AcDbEntity
  8
0
  6
CONTINUOUS
 62
     7
100
AcDbVertex
100
AcDb2dVertex
 10
7.3322237176
 20
6.7388547178
 30
0.0
  0
VERTEX
  5
5BE
330
28A
100
AcDbEntity
  8
0
  6
CONTINUOUS
 62
     7
100
AcDbVertex
100
AcDb2dVertex
 10
7.3304674013
 20
6.7636505746
 30
0.0
  0
VERTEX
  5
5BF
330
28A
100
AcDbEntity
  8
0
  6
CONTINUOUS
 62
     7
100
AcDbVertex
100
AcDb2dVertex
 10
7.3297715699
 20
6.7891257265
 30
0.0
  0
VERTEX
  5
5C0
330
28A
100
AcDbEntity
  8
0
  6
CONTINUOUS
 62
     7
100
AcDbVertex
100
AcDb2dVertex
 10
7.330137785
 20
6.815223003
 30
0.0
  0
VERTEX
  5
5C1
330
28A
100
AcDbEntity
  8
0
  6
CONTINUOUS
 62
     7
100
AcDbVertex
100
AcDb2dVertex
 10
7.3315652247
 20
6.8418838374
 30
0.0
  0
VERTEX
  5
5C2
330
28A
100
AcDbEntity
  8
0
  6
CONTINUOUS
 62
     7
100
AcDbVertex
100
AcDb2dVertex
 10
7.3340506856
 20
6.8690483985
 30
0.0
  0
VERTEX
  5
5C3
330
28A
100
AcDbEntity
  8
0
  6
CONTINUOUS
 62
     7
100
AcDbVertex
100
AcDb2dVertex
 10
7.33758859
 20
6.8966557244
 30
0.0
  0
VERTEX
  5
5C4
330
28A
100
AcDbEntity
  8
0
  6
CONTINUOUS
 62
     7
100
AcDbVertex
100
AcDb2dVertex
 10
7.3421709981
 20
6.9246438597
 30
0.0
  0
VERTEX
  5
5C5
330
28A
100
AcDbEntity
  8
0
  6
CONTINUOUS
 62
     7
100
AcDbVertex
100
AcDb2dVertex
 10
7.3477876263
 20
6.9529499944
 30
0.0
  0
VERTEX
  5
5C6
330
28A
100
AcDbEntity
  8
0
  6
CONTINUOUS
 62
     7
100
AcDbVertex
100
AcDb2dVertex
 10
7.35442587
 20
6.9815106048
 30
0.0
  0
VERTEX
  5
5C7
330
28A
100
AcDbEntity
  8
0
  6
CONTINUOUS
 62
     7
100
AcDbVertex
100
AcDb2dVertex
 10
7.3620708318
 20
7.010261596
 30
0.0
  0
VERTEX
  5
5C8
330
28A
100
AcDbEntity
  8
0
  6
CONTINUOUS
 62
     7
100
AcDbVertex
100
AcDb2dVertex
 10
7.3707053551
 20
7.0391384462
 30
0.0
  0
VERTEX
  5
5C9
330
28A
100
AcDbEntity
  8
0
  6
CONTINUOUS
 62
     7
100
AcDbVertex
100
AcDb2dVertex
 10
7.3803100627
 20
7.0680763509
 30
0.0
  0
VERTEX
  5
5CA
330
28A
100
AcDbEntity
  8
0
  6
CONTINUOUS
 62
     7
100
AcDbVertex
100
AcDb2dVertex
 10
7.3908634
 20
7.0970103685
 30
0.0
  0
VERTEX
  5
5CB
330
28A
100
AcDbEntity
  8
0
  6
CONTINUOUS
 62
     7
100
AcDbVertex
100
AcDb2dVertex
 10
7.4023416836
 20
7.1258755664
 30
0.0
  0
VERTEX
  5
5CC
330
28A
100
AcDbEntity
  8
0
  6
CONTINUOUS
 62
     7
100
AcDbVertex
100
AcDb2dVertex
 10
7.4147191542
 20
7.1546071662
 30
0.0
  0
VERTEX
  5
5CD
330
28A
100
AcDbEntity
  8
0
  6
CONTINUOUS
 62
     7
100
AcDbVertex
100
AcDb2dVertex
 10
7.4279680347
 20
7.1831406894
 30
0.0
  0
VERTEX
  5
5CE
330
28A
100
AcDbEntity
  8
0
  6
CONTINUOUS
 62
     7
100
AcDbVertex
100
AcDb2dVertex
 10
7.4420585925
 20
7.2114121021
 30
0.0
  0
VERTEX
  5
5CF
330
28A
100
AcDbEntity
  8
0
  6
CONTINUOUS
 62
     7
100
AcDbVertex
100
AcDb2dVertex
 10
7.4569592061
 20
7.2393579585
 30
0.0
  0
VERTEX
  5
5D0
330
28A
100
AcDbEntity
  8
0
  6
CONTINUOUS
 62
     7
100
AcDbVertex
100
AcDb2dVertex
 10
7.4726364359
 20
7.2669155435
 30
0.0
  0
VERTEX
  5
5D1
330
28A
100
AcDbEntity
  8
0
  6
CONTINUOUS
 62
     7
100
AcDbVertex
100
AcDb2dVertex
 10
7.4890550996
 20
7.2940230132
 30
0.0
  0
VERTEX
  5
5D2
330
28A
100
AcDbEntity
  8
0
  6
CONTINUOUS
 62
     7
100
AcDbVertex
100
AcDb2dVertex
 10
7.5061783511
 20
7.3206195339
 30
0.0
  0
VERTEX
  5
5D3
330
28A
100
AcDbEntity
  8
0
  6
CONTINUOUS
 62
     7
100
AcDbVertex
100
AcDb2dVertex
 10
7.5239677628
 20
7.3466454188
 30
0.0
  0
VERTEX
  5
5D4
330
28A
100
AcDbEntity
  8
0
  6
CONTINUOUS
 62
     7
100
AcDbVertex
100
AcDb2dVertex
 10
7.5423834125
 20
7.3720422613
 30
0.0
  0
VERTEX
  5
5D5
330
28A
100
AcDbEntity
  8
0
  6
CONTINUOUS
 62
     7
100
AcDbVertex
100
AcDb2dVertex
 10
7.5613839723
 20
7.3967530666
 30
0.0
  0
VERTEX
  5
5D6
330
28A
100
AcDbEntity
  8
0
  6
CONTINUOUS
 62
     7
100
AcDbVertex
100
AcDb2dVertex
 10
7.5809268018
 20
7.4207223797
 30
0.0
  0
VERTEX
  5
5D7
330
28A
100
AcDbEntity
  8
0
  6
CONTINUOUS
 62
     7
100
AcDbVertex
100
AcDb2dVertex
 10
7.6009680436
 20
7.4438964095
 30
0.0
  0
VERTEX
  5
5D8
330
28A
100
AcDbEntity
  8
0
  6
CONTINUOUS
 62
     7
100
AcDbVertex
100
AcDb2dVertex
 10
7.6214627219
 20
7.4662231495
 30
0.0
  0
VERTEX
  5
5D9
330
28A
100
AcDbEntity
  8
0
  6
CONTINUOUS
 62
     7
100
AcDbVertex
100
AcDb2dVertex
 10
7.6423648432
 20
7.4876524947
 30
0.0
  0
VERTEX
  5
5DA
330
28A
100
AcDbEntity
  8
0
  6
CONTINUOUS
 62
     7
100
AcDbVertex
100
AcDb2dVertex
 10
7.6636274997
 20
7.5081363543
 30
0.0
  0
VERTEX
  5
5DB
330
28A
100
AcDbEntity
  8
0
  6
CONTINUOUS
 62
     7
100
AcDbVertex
100
AcDb2dVertex
 10
7.6852029743
 20
7.527628759
 30
0.0
  0
VERTEX
  5
5DC
330
28A
100
AcDbEntity
  8
0
  6
CONTINUOUS
 62
     7
100
AcDbVertex
100
AcDb2dVertex
 10
7.7070428483
 20
7.5460859646
 30
0.0
  0
VERTEX
  5
5DD
330
28A
100
AcDbEntity
  8
0
  6
CONTINUOUS
 62
     7
100
AcDbVertex
100
AcDb2dVertex
 10
7.7290981091
 20
7.5634665501
 30
0.0
  0
VERTEX
  5
5DE
330
28A
100
AcDbEntity
  8
0
  6
CONTINUOUS
 62
     7
100
AcDbVertex
100
AcDb2dVertex
 10
7.7513192613
 20
7.5797315105
 30
0.0
  0
VERTEX
  5
5DF
330
28A
100
AcDbEntity
  8
0
  6
CONTINUOUS
 62
     7
100
AcDbVertex
100
AcDb2dVertex
 10
7.7736564367
 20
7.5948443446
 30
0.0
  0
VERTEX
  5
5E0
330
28A
100
AcDbEntity
  8
0
  6
CONTINUOUS
 62
     7
100
AcDbVertex
100
AcDb2dVertex
 10
7.7960595071
 20
7.6087711366
 30
0.0
  0
SEQEND
  5
5E1
330
28A
100
AcDbEntity
  8
0
  6
CONTINUOUS
 62
     7
  0
LINE
  5
28B
330
1F
100
AcDbEntity
  8
0
  6
CONTINUOUS
 62
     7
100
AcDbLine
 10
7.7960595071
 20
7.6087711366
 30
0.0
 11
7.9677324133
 21
7.5096664774
 31
0.0
  0
POLYLINE
  5
28C
330
1F
100
AcDbEntity
  8
0
  6
CONTINUOUS
 62
     7
100
AcDb2dPolyline
 66
     1
 10
0.0
 20
0.0
 30
0.0
  0
VERTEX
  5
5E2
330
28C
100
AcDbEntity
  8
0
  6
CONTINUOUS
 62
     7
100
AcDbVertex
100
AcDb2dVertex
 10
7.9677324133
 20
7.5096664774
 30
0.0
  0
VERTEX
  5
5E3
330
28C
100
AcDbEntity
  8
0
  6
CONTINUOUS
 62
     7
100
AcDbVertex
100
AcDb2dVertex
 10
7.9453691681
 20
7.4957655328
 30
0.0
  0
VERTEX
  5
5E4
330
28C
100
AcDbEntity
  8
0
  6
CONTINUOUS
 62
     7
100
AcDbVertex
100
AcDb2dVertex
 10
7.9230714944
 20
7.4806827052
 30
0.0
  0
VERTEX
  5
5E5
330
28C
100
AcDbEntity
  8
0
  6
CONTINUOUS
 62
     7
100
AcDbVertex
100
AcDb2dVertex
 10
7.9008892542
 20
7.4644517226
 30
0.0
  0
VERTEX
  5
5E6
330
28C
100
AcDbEntity
  8
0
  6
CONTINUOUS
 62
     7
100
AcDbVertex
100
AcDb2dVertex
 10
7.8788720511
 20
7.4471088806
 30
0.0
  0
VERTEX
  5
5E7
330
28C
100
AcDbEntity
  8
0
  6
CONTINUOUS
 62
     7
100
AcDbVertex
100
AcDb2dVertex
 10
7.8570691196
 20
7.428692961
 30
0.0
  0
VERTEX
  5
5E8
330
28C
100
AcDbEntity
  8
0
  6
CONTINUOUS
 62
     7
100
AcDbVertex
100
AcDb2dVertex
 10
7.8355292152
 20
7.4092451452
 30
0.0
  0
VERTEX
  5
5E9
330
28C
100
AcDbEntity
  8
0
  6
CONTINUOUS
 62
     7
100
AcDbVertex
100
AcDb2dVertex
 10
7.8143005051
 20
7.3888089223
 30
0.0
  0
VERTEX
  5
5EA
330
28C
100
AcDbEntity
  8
0
  6
CONTINUOUS
 62
     7
100
AcDbVertex
100
AcDb2dVertex
 10
7.7934304608
 20
7.3674299914
 30
0.0
  0
VERTEX
  5
5EB
330
28C
100
AcDbEntity
  8
0
  6
CONTINUOUS
 62
     7
100
AcDbVertex
100
AcDb2dVertex
 10
7.7729657516
 20
7.3451561598
 30
0.0
  0
VERTEX
  5
5EC
330
28C
100
AcDbEntity
  8
0
  6
CONTINUOUS
 62
     7
100
AcDbVertex
100
AcDb2dVertex
 10
7.7529521403
 20
7.322037236
 30
0.0
  0
VERTEX
  5
5ED
330
28C
100
AcDbEntity
  8
0
  6
CONTINUOUS
 62
     7
100
AcDbVertex
100
AcDb2dVertex
 10
7.7334343813
 20
7.2981249183
 30
0.0
  0
VERTEX
  5
5EE
330
28C
100
AcDbEntity
  8
0
  6
CONTINUOUS
 62
     7
100
AcDbVertex
100
AcDb2dVertex
 10
7.7144561198
 20
7.273472679
 30
0.0
  0
VERTEX
  5
5EF
330
28C
100
AcDbEntity
  8
0
  6
CONTINUOUS
 62
     7
100
AcDbVertex
100
AcDb2dVertex
 10
7.6960597948
 20
7.2481356452
 30
0.0
  0
VERTEX
  5
5F0
330
28C
100
AcDbEntity
  8
0
  6
CONTINUOUS
 62
     7
100
AcDbVertex
100
AcDb2dVertex
 10
7.6782865439
 20
7.2221704753
 30
0.0
  0
VERTEX
  5
5F1
330
28C
100
AcDbEntity
  8
0
  6
CONTINUOUS
 62
     7
100
AcDbVertex
100
AcDb2dVertex
 10
7.6611761115
 20
7.1956352323
 30
0.0
  0
VERTEX
  5
5F2
330
28C
100
AcDbEntity
  8
0
  6
CONTINUOUS
 62
     7
100
AcDbVertex
100
AcDb2dVertex
 10
7.6447667597
 20
7.1685892538
 30
0.0
  0
VERTEX
  5
5F3
330
28C
100
AcDbEntity
  8
0
  6
CONTINUOUS
 62
     7
100
AcDbVertex
100
AcDb2dVertex
 10
7.6290951829
 20
7.1410930199
 30
0.0
  0
VERTEX
  5
5F4
330
28C
100
AcDbEntity
  8
0
  6
CONTINUOUS
 62
     7
100
AcDbVertex
100
AcDb2dVertex
 10
7.6141964256
 20
7.1132080172
 30
0.0
  0
VERTEX
  5
5F5
330
28C
100
AcDbEntity
  8
0
  6
CONTINUOUS
 62
     7
100
AcDbVertex
100
AcDb2dVertex
 10
7.6001038043
 20
7.0849966019
 30
0.0
  0
VERTEX
  5
5F6
330
28C
100
AcDbEntity
  8
0
  6
CONTINUOUS
 62
     7
100
AcDbVertex
100
AcDb2dVertex
 10
7.5868488327
 20
7.0565218599
 30
0.0
  0
VERTEX
  5
5F7
330
28C
100
AcDbEntity
  8
0
  6
CONTINUOUS
 62
     7
100
AcDbVertex
100
AcDb2dVertex
 10
7.5744611515
 20
7.0278474661
 30
0.0
  0
VERTEX
  5
5F8
330
28C
100
AcDbEntity
  8
0
  6
CONTINUOUS
 62
     7
100
AcDbVertex
100
AcDb2dVertex
 10
7.5629684617
 20
6.9990375419
 30
0.0
  0
VERTEX
  5
5F9
330
28C
100
AcDbEntity
  8
0
  6
CONTINUOUS
 62
     7
100
AcDbVertex
100
AcDb2dVertex
 10
7.5523964633
 20
6.9701565115
 30
0.0
  0
VERTEX
  5
5FA
330
28C
100
AcDbEntity
  8
0
  6
CONTINUOUS
 62
     7
100
AcDbVertex
100
AcDb2dVertex
 10
7.5427687972
 20
6.9412689585
 30
0.0
  0
VERTEX
  5
5FB
330
28C
100
AcDbEntity
  8
0
  6
CONTINUOUS
 62
     7
100
AcDbVertex
100
AcDb2dVertex
 10
7.5341069926
 20
6.9124394808
 30
0.0
  0
VERTEX
  5
5FC
330
28C
100
AcDbEntity
  8
0
  6
CONTINUOUS
 62
     7
100
AcDbVertex
100
AcDb2dVertex
 10
7.5264304189
 20
6.8837325466
 30
0.0
  0
VERTEX
  5
5FD
330
28C
100
AcDbEntity
  8
0
  6
CONTINUOUS
 62
     7
100
AcDbVertex
100
AcDb2dVertex
 10
7.5197562425
 20
6.8552123498
 30
0.0
  0
VERTEX
  5
5FE
330
28C
100
AcDbEntity
  8
0
  6
CONTINUOUS
 62
     7
100
AcDbVertex
100
AcDb2dVertex
 10
7.5140993881
 20
6.8269426671
 30
0.0
  0
VERTEX
  5
5FF
330
28C
100
AcDbEntity
  8
0
  6
CONTINUOUS
 62
     7
100
AcDbVertex
100
AcDb2dVertex
 10
7.5094725053
 20
6.7989867147
 30
0.0
  0
VERTEX
  5
600
330
28C
100
AcDbEntity
  8
0
  6
CONTINUOUS
 62
     7
100
AcDbVertex
100
AcDb2dVertex
 10
7.5058859409
 20
6.7714070074
 30
0.0
  0
VERTEX
  5
601
330
28C
100
AcDbEntity
  8
0
  6
CONTINUOUS
 62
     7
100
AcDbVertex
100
AcDb2dVertex
 10
7.5033477149
 20
6.7442652186
 30
0.0
  0
VERTEX
  5
602
330
28C
100
AcDbEntity
  8
0
  6
CONTINUOUS
 62
     7
100
AcDbVertex
100
AcDb2dVertex
 10
7.5018635035
 20
6.7176220423
 30
0.0
  0
VERTEX
  5
603
330
28C
100
AcDbEntity
  8
0
  6
CONTINUOUS
 62
     7
100
AcDbVertex
100
AcDb2dVertex
 10
7.5014366255
 20
6.6915370579
 30
0.0
  0
VERTEX
  5
604
330
28C
100
AcDbEntity
  8
0
  6
CONTINUOUS
 62
     7
100
AcDbVertex
100
AcDb2dVertex
 10
7.5020680356
 20
6.6660685961
 30
0.0
  0
VERTEX
  5
605
330
28C
100
AcDbEntity
  8
0
  6
CONTINUOUS
 62
     7
100
AcDbVertex
100
AcDb2dVertex
 10
7.5037563217
 20
6.6412736092
 30
0.0
  0
VERTEX
  5
606
330
28C
100
AcDbEntity
  8
0
  6
CONTINUOUS
 62
     7
100
AcDbVertex
100
AcDb2dVertex
 10
7.5064977086
 20
6.6172075435
 30
0.0
  0
VERTEX
  5
607
330
28C
100
AcDbEntity
  8
0
  6
CONTINUOUS
 62
     7
100
AcDbVertex
100
AcDb2dVertex
 10
7.510286066
 20
6.5939242151
 30
0.0
  0
VERTEX
  5
608
330
28C
100
AcDbEntity
  8
0
  6
CONTINUOUS
 62
     7
100
AcDbVertex
100
AcDb2dVertex
 10
7.5151129225
 20
6.5714756901
 30
0.0
  0
VERTEX
  5
609
330
28C
100
AcDbEntity
  8
0
  6
CONTINUOUS
 62
     7
100
AcDbVertex
100
AcDb2dVertex
 10
7.5209674842
 20
6.5499121674
 30
0.0
  0
VERTEX
  5
60A
330
28C
100
AcDbEntity
  8
0
  6
CONTINUOUS
 62
     7
100
AcDbVertex
100
AcDb2dVertex
 10
7.5278366592
 20
6.5292818673
 30
0.0
  0
VERTEX
  5
60B
330
28C
100
AcDbEntity
  8
0
  6
CONTINUOUS
 62
     7
100
AcDbVertex
100
AcDb2dVertex
 10
7.5357050869
 20
6.5096309228
 30
0.0
  0
VERTEX
  5
60C
330
28C
100
AcDbEntity
  8
0
  6
CONTINUOUS
 62
     7
100
AcDbVertex
100
AcDb2dVertex
 10
7.5445551719
 20
6.4910032772
 30
0.0
  0
VERTEX
  5
60D
330
28C
100
AcDbEntity
  8
0
  6
CONTINUOUS
 62
     7
100
AcDbVertex
100
AcDb2dVertex
 10
7.5543671238
 20
6.4734405854
 30
0.0
  0
SEQEND
  5
60E
330
28C
100
AcDbEntity
  8
0
  6
CONTINUOUS
 62
     7
  0
LINE
  5
28D
330
1F
100
AcDbEntity
  8
0
  6
CONTINUOUS
 62
     7
100
AcDbLine
 10
7.5543671238
 20
6.4734405854
 30
0.0
 11
7.5729263569
 21
6.4627265682
 31
0.0
  0
ARC
  5
28E
330
1F
100
AcDbEntity
  8
0
  6
CONTINUOUS
 62
     7
100
AcDbCircle
 10
7.7501612248
 20
6.6201839563
 30
0.0
 40
0.0569338808940217
100
AcDbArc
 50
176.72665029
 51
216.3411539556
  0
ARC
  5
28F
330
1F
100
AcDbEntity
  8
0
  6
CONTINUOUS
 62
     7
100
AcDbCircle
 10
7.8421993592
 20
6.6177107276
 30
0.0
 40
0.1489891273858702
100
AcDbArc
 50
121.1540230343
 51
177.7981652186
  0
LINE
  5
290
330
1F
100
AcDbEntity
  8
0
  6
CONTINUOUS
 62
     7
100
AcDbLine
 10
8.0621849904
 20
7.2623273613
 30
0.0
 11
8.0622198941
 21
7.259802529
 31
0.0
  0
POLYLINE
  5
291
330
1F
100
AcDbEntity
  8
0
  6
CONTINUOUS
 62
     7
100
AcDb2dPolyline
 66
     1
 10
0.0
 20
0.0
 30
0.0
  0
VERTEX
  5
60F
330
291
100
AcDbEntity
  8
0
  6
CONTINUOUS
 62
     7
100
AcDbVertex
100
AcDb2dVertex
 10
8.1692940679
 20
7.3918553679
 30
0.0
  0
VERTEX
  5
610
330
291
100
AcDbEntity
  8
0
  6
CONTINUOUS
 62
     7
100
AcDbVertex
100
AcDb2dVertex
 10
8.1665806766
 20
7.3921946025
 30
0.0
  0
VERTEX
  5
611
330
291
100
AcDbEntity
  8
0
  6
CONTINUOUS
 62
     7
100
AcDbVertex
100
AcDb2dVertex
 10
8.1589100903
 20
7.3921770827
 30
0.0
  0
VERTEX
  5
612
330
291
100
AcDbEntity
  8
0
  6
CONTINUOUS
 62
     7
100
AcDbVertex
100
AcDb2dVertex
 10
8.1508282716
 20
7.3908002245
 30
0.0
  0
VERTEX
  5
613
330
291
100
AcDbEntity
  8
0
  6
CONTINUOUS
 62
     7
100
AcDbVertex
100
AcDb2dVertex
 10
8.1424577326
 20
7.3880848995
 30
0.0
  0
VERTEX
  5
614
330
291
100
AcDbEntity
  8
0
  6
CONTINUOUS
 62
     7
100
AcDbVertex
100
AcDb2dVertex
 10
8.133925362
 20
7.3840722694
 30
0.0
  0
VERTEX
  5
615
330
291
100
AcDbEntity
  8
0
  6
CONTINUOUS
 62
     7
100
AcDbVertex
100
AcDb2dVertex
 10
8.1253605021
 20
7.3788231615
 30
0.0
  0
VERTEX
  5
616
330
291
100
AcDbEntity
  8
0
  6
CONTINUOUS
 62
     7
100
AcDbVertex
100
AcDb2dVertex
 10
8.1168929872
 20
7.3724171469
 30
0.0
  0
VERTEX
  5
617
330
291
100
AcDbEntity
  8
0
  6
CONTINUOUS
 62
     7
100
AcDbVertex
100
AcDb2dVertex
 10
8.1086511763
 20
7.3649513344
 30
0.0
  0
VERTEX
  5
618
330
291
100
AcDbEntity
  8
0
  6
CONTINUOUS
 62
     7
100
AcDbVertex
100
AcDb2dVertex
 10
8.1007600068
 20
7.3565388979
 30
0.0
  0
VERTEX
  5
619
330
291
100
AcDbEntity
  8
0
  6
CONTINUOUS
 62
     7
100
AcDbVertex
100
AcDb2dVertex
 10
8.0933391009
 20
7.3473073615
 30
0.0
  0
VERTEX
  5
61A
330
291
100
AcDbEntity
  8
0
  6
CONTINUOUS
 62
     7
100
AcDbVertex
100
AcDb2dVertex
 10
8.0865009519
 20
7.3373966658
 30
0.0
  0
VERTEX
  5
61B
330
291
100
AcDbEntity
  8
0
  6
CONTINUOUS
 62
     7
100
AcDbVertex
100
AcDb2dVertex
 10
8.0803492192
 20
7.326957047
 30
0.0
  0
VERTEX
  5
61C
330
291
100
AcDbEntity
  8
0
  6
CONTINUOUS
 62
     7
100
AcDbVertex
100
AcDb2dVertex
 10
8.0749771567
 20
7.3161467589
 30
0.0
  0
VERTEX
  5
61D
330
291
100
AcDbEntity
  8
0
  6
CONTINUOUS
 62
     7
100
AcDbVertex
100
AcDb2dVertex
 10
8.0704661995
 20
7.3051296745
 30
0.0
  0
VERTEX
  5
61E
330
291
100
AcDbEntity
  8
0
  6
CONTINUOUS
 62
     7
100
AcDbVertex
100
AcDb2dVertex
 10
8.066884729
 20
7.2940728016
 30
0.0
  0
VERTEX
  5
61F
330
291
100
AcDbEntity
  8
0
  6
CONTINUOUS
 62
     7
100
AcDbVertex
100
AcDb2dVertex
 10
8.0642870368
 20
7.2831437511
 30
0.0
  0
VERTEX
  5
620
330
291
100
AcDbEntity
  8
0
  6
CONTINUOUS
 62
     7
100
AcDbVertex
100
AcDb2dVertex
 10
8.0627125011
 20
7.2725081963
 30
0.0
  0
VERTEX
  5
621
330
291
100
AcDbEntity
  8
0
  6
CONTINUOUS
 62
     7
100
AcDbVertex
100
AcDb2dVertex
 10
8.0621849904
 20
7.2623273613
 30
0.0
  0
SEQEND
  5
622
330
291
100
AcDbEntity
  8
0
  6
CONTINUOUS
 62
     7
  0
LINE
  5
292
330
1F
100
AcDbEntity
  8
0
  6
CONTINUOUS
 62
     7
100
AcDbLine
 10
8.0981052161
 20
7.3219577299
 30
0.0
 11
8.0586336104
 21
7.2535909035
 31
0.0
  0
LINE
  5
293
330
1F
100
AcDbEntity
  8
0
  6
CONTINUOUS
 62
     7
100
AcDbLine
 10
7.7687211124
 20
6.7514477287
 30
0.0
 11
7.7292404582
 21
6.68306523
 31
0.0
  0
LINE
  5
294
330
1F
100
AcDbEntity
  8
0
  6
CONTINUOUS
 62
     7
100
AcDbLine
 10
7.9677324133
 20
7.4875024726
 30
0.0
 11
7.9677324133
 21
7.5096664774
 31
0.0
  0
LINE
  5
295
330
1F
100
AcDbEntity
  8
0
  6
CONTINUOUS
 62
     7
100
AcDbLine
 10
7.9816518382
 20
7.4961688779
 30
0.0
 11
7.9816518382
 21
7.5177019903
 31
0.0
  0
LINE
  5
296
330
1F
100
AcDbEntity
  8
0
  6
CONTINUOUS
 62
     7
100
AcDbLine
 10
7.5543671238
 20
6.4734405854
 30
0.0
 11
7.563832688
 21
6.4789049393
 31
0.0
  0
LINE
  5
297
330
1F
100
AcDbEntity
  8
0
  6
CONTINUOUS
 62
     7
100
AcDbLine
 10
7.809978932
 20
7.6168066495
 30
0.0
 11
7.8046756311
 21
7.613743454
 31
0.0
  0
POLYLINE
  5
298
330
1F
100
AcDbEntity
  8
0
  6
CONTINUOUS
 62
     7
100
AcDb2dPolyline
 66
     1
 10
0.0
 20
0.0
 30
0.0
  0
VERTEX
  5
623
330
298
100
AcDbEntity
  8
0
  6
CONTINUOUS
 62
     7
100
AcDbVertex
100
AcDb2dVertex
 10
7.7907562063
 20
7.6057079411
 30
0.0
  0
VERTEX
  5
624
330
298
100
AcDbEntity
  8
0
  6
CONTINUOUS
 62
     7
100
AcDbVertex
100
AcDb2dVertex
 10
7.7686055037
 20
7.5919337953
 30
0.0
  0
VERTEX
  5
625
330
298
100
AcDbEntity
  8
0
  6
CONTINUOUS
 62
     7
100
AcDbVertex
100
AcDb2dVertex
 10
7.7465201227
 20
7.5769871347
 30
0.0
  0
VERTEX
  5
626
330
298
100
AcDbEntity
  8
0
  6
CONTINUOUS
 62
     7
100
AcDbVertex
100
AcDb2dVertex
 10
7.7245496214
 20
7.5609014987
 30
0.0
  0
VERTEX
  5
627
330
298
100
AcDbEntity
  8
0
  6
CONTINUOUS
 62
     7
100
AcDbVertex
100
AcDb2dVertex
 10
7.7027432999
 20
7.5437129821
 30
0.0
  0
VERTEX
  5
628
330
298
100
AcDbEntity
  8
0
  6
CONTINUOUS
 62
     7
100
AcDbVertex
100
AcDb2dVertex
 10
7.6811500901
 20
7.5254601548
 30
0.0
  0
VERTEX
  5
629
330
298
100
AcDbEntity
  8
0
  6
CONTINUOUS
 62
     7
100
AcDbVertex
100
AcDb2dVertex
 10
7.6598184455
 20
7.5061839748
 30
0.0
  0
VERTEX
  5
62A
330
298
100
AcDbEntity
  8
0
  6
CONTINUOUS
 62
     7
100
AcDbVertex
100
AcDb2dVertex
 10
7.6387962328
 20
7.4859276964
 30
0.0
  0
VERTEX
  5
62B
330
298
100
AcDbEntity
  8
0
  6
CONTINUOUS
 62
     7
100
AcDbVertex
100
AcDb2dVertex
 10
7.6181306243
 20
7.4647367733
 30
0.0
  0
VERTEX
  5
62C
330
298
100
AcDbEntity
  8
0
  6
CONTINUOUS
 62
     7
100
AcDbVertex
100
AcDb2dVertex
 10
7.5978679922
 20
7.4426587563
 30
0.0
  0
VERTEX
  5
62D
330
298
100
AcDbEntity
  8
0
  6
CONTINUOUS
 62
     7
100
AcDbVertex
100
AcDb2dVertex
 10
7.5780538042
 20
7.4197431869
 30
0.0
  0
VERTEX
  5
62E
330
298
100
AcDbEntity
  8
0
  6
CONTINUOUS
 62
     7
100
AcDbVertex
100
AcDb2dVertex
 10
7.558732522
 20
7.396041486
 30
0.0
  0
VERTEX
  5
62F
330
298
100
AcDbEntity
  8
0
  6
CONTINUOUS
 62
     7
100
AcDbVertex
100
AcDb2dVertex
 10
7.5399475012
 20
7.3716068384
 30
0.0
  0
VERTEX
  5
630
330
298
100
AcDbEntity
  8
0
  6
CONTINUOUS
 62
     7
100
AcDbVertex
100
AcDb2dVertex
 10
7.5217408939
 20
7.3464940738
 30
0.0
  0
VERTEX
  5
631
330
298
100
AcDbEntity
  8
0
  6
CONTINUOUS
 62
     7
100
AcDbVertex
100
AcDb2dVertex
 10
7.5041535545
 20
7.3207595433
 30
0.0
  0
VERTEX
  5
632
330
298
100
AcDbEntity
  8
0
  6
CONTINUOUS
 62
     7
100
AcDbVertex
100
AcDb2dVertex
 10
7.4872249477
 20
7.2944609934
 30
0.0
  0
VERTEX
  5
633
330
298
100
AcDbEntity
  8
0
  6
CONTINUOUS
 62
     7
100
AcDbVertex
100
AcDb2dVertex
 10
7.47099306
 20
7.2676574361
 30
0.0
  0
VERTEX
  5
634
330
298
100
AcDbEntity
  8
0
  6
CONTINUOUS
 62
     7
100
AcDbVertex
100
AcDb2dVertex
 10
7.4554943147
 20
7.2404090166
 30
0.0
  0
VERTEX
  5
635
330
298
100
AcDbEntity
  8
0
  6
CONTINUOUS
 62
     7
100
AcDbVertex
100
AcDb2dVertex
 10
7.4407634896
 20
7.2127768784
 30
0.0
  0
VERTEX
  5
636
330
298
100
AcDbEntity
  8
0
  6
CONTINUOUS
 62
     7
100
AcDbVertex
100
AcDb2dVertex
 10
7.4268336399
 20
7.184823026
 30
0.0
  0
VERTEX
  5
637
330
298
100
AcDbEntity
  8
0
  6
CONTINUOUS
 62
     7
100
AcDbVertex
100
AcDb2dVertex
 10
7.413736023
 20
7.1566101858
 30
0.0
  0
VERTEX
  5
638
330
298
100
AcDbEntity
  8
0
  6
CONTINUOUS
 62
     7
100
AcDbVertex
100
AcDb2dVertex
 10
7.401500029
 20
7.1282016653
 30
0.0
  0
VERTEX
  5
639
330
298
100
AcDbEntity
  8
0
  6
CONTINUOUS
 62
     7
100
AcDbVertex
100
AcDb2dVertex
 10
7.3901531146
 20
7.0996612113
 30
0.0
  0
VERTEX
  5
63A
330
298
100
AcDbEntity
  8
0
  6
CONTINUOUS
 62
     7
100
AcDbVertex
100
AcDb2dVertex
 10
7.3797207415
 20
7.0710528664
 30
0.0
  0
VERTEX
  5
63B
330
298
100
AcDbEntity
  8
0
  6
CONTINUOUS
 62
     7
100
AcDbVertex
100
AcDb2dVertex
 10
7.3702263192
 20
7.0424408257
 30
0.0
  0
VERTEX
  5
63C
330
298
100
AcDbEntity
  8
0
  6
CONTINUOUS
 62
     7
100
AcDbVertex
100
AcDb2dVertex
 10
7.3616911524
 20
7.0138892925
 30
0.0
  0
VERTEX
  5
63D
330
298
100
AcDbEntity
  8
0
  6
CONTINUOUS
 62
     7
100
AcDbVertex
100
AcDb2dVertex
 10
7.3541343934
 20
6.9854623343
 30
0.0
  0
VERTEX
  5
63E
330
298
100
AcDbEntity
  8
0
  6
CONTINUOUS
 62
     7
100
AcDbVertex
100
AcDb2dVertex
 10
7.3475729991
 20
6.9572237393
 30
0.0
  0
VERTEX
  5
63F
330
298
100
AcDbEntity
  8
0
  6
CONTINUOUS
 62
     7
100
AcDbVertex
100
AcDb2dVertex
 10
7.3420216927
 20
6.9292368726
 30
0.0
  0
VERTEX
  5
640
330
298
100
AcDbEntity
  8
0
  6
CONTINUOUS
 62
     7
100
AcDbVertex
100
AcDb2dVertex
 10
7.337492931
 20
6.901564535
 30
0.0
  0
VERTEX
  5
641
330
298
100
AcDbEntity
  8
0
  6
CONTINUOUS
 62
     7
100
AcDbVertex
100
AcDb2dVertex
 10
7.3339968762
 20
6.8742688209
 30
0.0
  0
VERTEX
  5
642
330
298
100
AcDbEntity
  8
0
  6
CONTINUOUS
 62
     7
100
AcDbVertex
100
AcDb2dVertex
 10
7.3315413731
 20
6.8474109801
 30
0.0
  0
VERTEX
  5
643
330
298
100
AcDbEntity
  8
0
  6
CONTINUOUS
 62
     7
100
AcDbVertex
100
AcDb2dVertex
 10
7.3301319318
 20
6.8210512796
 30
0.0
  0
VERTEX
  5
644
330
298
100
AcDbEntity
  8
0
  6
CONTINUOUS
 62
     7
100
AcDbVertex
100
AcDb2dVertex
 10
7.3297587754
 20
6.7992599194
 30
0.0
  0
SEQEND
  5
645
330
298
100
AcDbEntity
  8
0
  6
CONTINUOUS
 62
     7
  0
LINE
  5
299
330
1F
100
AcDbEntity
  8
0
  6
CONTINUOUS
 62
     7
100
AcDbLine
 10
7.7960595071
 20
7.6087711366
 30
0.0
 11
7.7907562063
 21
7.6057079411
 31
0.0
  0
POLYLINE
  5
29A
330
1F
100
AcDbEntity
  8
0
  6
CONTINUOUS
 62
     7
100
AcDb2dPolyline
 66
     1
 10
0.0
 20
0.0
 30
0.0
  0
VERTEX
  5
646
330
29A
100
AcDbEntity
  8
0
  6
CONTINUOUS
 62
     7
100
AcDbVertex
100
AcDb2dVertex
 10
7.7292404582
 20
6.68306523
 30
0.0
  0
VERTEX
  5
647
330
29A
100
AcDbEntity
  8
0
  6
CONTINUOUS
 62
     7
100
AcDbVertex
100
AcDb2dVertex
 10
7.7227396779
 20
6.6709122277
 30
0.0
  0
VERTEX
  5
648
330
29A
100
AcDbEntity
  8
0
  6
CONTINUOUS
 62
     7
100
AcDbVertex
100
AcDb2dVertex
 10
7.7170942448
 20
6.6584653237
 30
0.0
  0
VERTEX
  5
649
330
29A
100
AcDbEntity
  8
0
  6
CONTINUOUS
 62
     7
100
AcDbVertex
100
AcDb2dVertex
 10
7.7123751536
 20
6.6458810451
 30
0.0
  0
VERTEX
  5
64A
330
29A
100
AcDbEntity
  8
0
  6
CONTINUOUS
 62
     7
100
AcDbVertex
100
AcDb2dVertex
 10
7.7086417496
 20
6.6333176464
 30
0.0
  0
VERTEX
  5
64B
330
29A
100
AcDbEntity
  8
0
  6
CONTINUOUS
 62
     7
100
AcDbVertex
100
AcDb2dVertex
 10
7.7059409826
 20
6.6209331196
 30
0.0
  0
VERTEX
  5
64C
330
29A
100
AcDbEntity
  8
0
  6
CONTINUOUS
 62
     7
100
AcDbVertex
100
AcDb2dVertex
 10
7.7043068162
 20
6.6088832074
 30
0.0
  0
VERTEX
  5
64D
330
29A
100
AcDbEntity
  8
0
  6
CONTINUOUS
 62
     7
100
AcDbVertex
100
AcDb2dVertex
 10
7.7037598011
 20
6.5973194444
 30
0.0
  0
VERTEX
  5
64E
330
29A
100
AcDbEntity
  8
0
  6
CONTINUOUS
 62
     7
100
AcDbVertex
100
AcDb2dVertex
 10
7.7043068162
 20
6.5863872516
 30
0.0
  0
VERTEX
  5
64F
330
29A
100
AcDbEntity
  8
0
  6
CONTINUOUS
 62
     7
100
AcDbVertex
100
AcDb2dVertex
 10
7.7059409826
 20
6.5762241078
 30
0.0
  0
VERTEX
  5
650
330
29A
100
AcDbEntity
  8
0
  6
CONTINUOUS
 62
     7
100
AcDbVertex
100
AcDb2dVertex
 10
7.7086417496
 20
6.5669578202
 30
0.0
  0
VERTEX
  5
651
330
29A
100
AcDbEntity
  8
0
  6
CONTINUOUS
 62
     7
100
AcDbVertex
100
AcDb2dVertex
 10
7.7123751536
 20
6.558704918
 30
0.0
  0
VERTEX
  5
652
330
29A
100
AcDbEntity
  8
0
  6
CONTINUOUS
 62
     7
100
AcDbVertex
100
AcDb2dVertex
 10
7.7170942448
 20
6.551569186
 30
0.0
  0
VERTEX
  5
653
330
29A
100
AcDbEntity
  8
0
  6
CONTINUOUS
 62
     7
100
AcDbVertex
100
AcDb2dVertex
 10
7.7227396779
 20
6.5456403603
 30
0.0
  0
VERTEX
  5
654
330
29A
100
AcDbEntity
  8
0
  6
CONTINUOUS
 62
     7
100
AcDbVertex
100
AcDb2dVertex
 10
7.7292404582
 20
6.5409929993
 30
0.0
  0
SEQEND
  5
655
330
29A
100
AcDbEntity
  8
0
  6
CONTINUOUS
 62
     7
  0
LINE
  5
29B
330
1F
100
AcDbEntity
  8
0
  6
CONTINUOUS
 62
     7
100
AcDbLine
 10
8.2343095539
 20
7.3853777811
 30
0.0
 11
8.2211367122
 21
7.3929823008
 31
0.0
  0
POLYLINE
  5
29C
330
1F
100
AcDbEntity
  8
0
  6
CONTINUOUS
 62
     7
100
AcDb2dPolyline
 66
     1
 10
0.0
 20
0.0
 30
0.0
  0
VERTEX
  5
656
330
29C
100
AcDbEntity
  8
0
  6
CONTINUOUS
 62
     7
100
AcDbVertex
100
AcDb2dVertex
 10
8.2211367122
 20
7.3929823008
 30
0.0
  0
VERTEX
  5
657
330
29C
100
AcDbEntity
  8
0
  6
CONTINUOUS
 62
     7
100
AcDbVertex
100
AcDb2dVertex
 10
8.2138623356
 20
7.3962897538
 30
0.0
  0
VERTEX
  5
658
330
29C
100
AcDbEntity
  8
0
  6
CONTINUOUS
 62
     7
100
AcDbVertex
100
AcDb2dVertex
 10
8.2059058423
 20
7.3982157057
 30
0.0
  0
VERTEX
  5
659
330
29C
100
AcDbEntity
  8
0
  6
CONTINUOUS
 62
     7
100
AcDbVertex
100
AcDb2dVertex
 10
8.1973672897
 20
7.3987359366
 30
0.0
  0
VERTEX
  5
65A
330
29C
100
AcDbEntity
  8
0
  6
CONTINUOUS
 62
     7
100
AcDbVertex
100
AcDb2dVertex
 10
8.1883540553
 20
7.3978439041
 30
0.0
  0
VERTEX
  5
65B
330
29C
100
AcDbEntity
  8
0
  6
CONTINUOUS
 62
     7
100
AcDbVertex
100
AcDb2dVertex
 10
8.1789794855
 20
7.3955508263
 30
0.0
  0
VERTEX
  5
65C
330
29C
100
AcDbEntity
  8
0
  6
CONTINUOUS
 62
     7
100
AcDbVertex
100
AcDb2dVertex
 10
8.1693614711
 20
7.3918855398
 30
0.0
  0
VERTEX
  5
65D
330
29C
100
AcDbEntity
  8
0
  6
CONTINUOUS
 62
     7
100
AcDbVertex
100
AcDb2dVertex
 10
8.1596209642
 20
7.3868941377
 30
0.0
  0
VERTEX
  5
65E
330
29C
100
AcDbEntity
  8
0
  6
CONTINUOUS
 62
     7
100
AcDbVertex
100
AcDb2dVertex
 10
8.1498804572
 20
7.3806393899
 30
0.0
  0
VERTEX
  5
65F
330
29C
100
AcDbEntity
  8
0
  6
CONTINUOUS
 62
     7
100
AcDbVertex
100
AcDb2dVertex
 10
8.1402624428
 20
7.3731999533
 30
0.0
  0
VERTEX
  5
660
330
29C
100
AcDbEntity
  8
0
  6
CONTINUOUS
 62
     7
100
AcDbVertex
100
AcDb2dVertex
 10
8.1308878731
 20
7.3646693833
 30
0.0
  0
VERTEX
  5
661
330
29C
100
AcDbEntity
  8
0
  6
CONTINUOUS
 62
     7
100
AcDbVertex
100
AcDb2dVertex
 10
8.1218746386
 20
7.3551549567
 30
0.0
  0
VERTEX
  5
662
330
29C
100
AcDbEntity
  8
0
  6
CONTINUOUS
 62
     7
100
AcDbVertex
100
AcDb2dVertex
 10
8.1133360861
 20
7.344776323
 30
0.0
  0
VERTEX
  5
663
330
29C
100
AcDbEntity
  8
0
  6
CONTINUOUS
 62
     7
100
AcDbVertex
100
AcDb2dVertex
 10
8.1053795928
 20
7.3336639994
 30
0.0
  0
VERTEX
  5
664
330
29C
100
AcDbEntity
  8
0
  6
CONTINUOUS
 62
     7
100
AcDbVertex
100
AcDb2dVertex
 10
8.0981052161
 20
7.3219577299
 30
0.0
  0
SEQEND
  5
665
330
29C
100
AcDbEntity
  8
0
  6
CONTINUOUS
 62
     7
  0
LINE
  5
29D
330
1F
100
AcDbEntity
  8
0
  6
CONTINUOUS
 62
     7
100
AcDbLine
 10
7.7292404582
 20
6.5409929993
 30
0.0
 11
7.7424208763
 21
6.5333816324
 31
0.0
  0
LINE
  5
29E
330
1F
100
AcDbEntity
  8
0
  6
CONTINUOUS
 62
     7
100
AcDbLine
 10
7.8046756311
 20
7.613743454
 30
0.0
 11
7.8046756311
 21
7.6037971541
 31
0.0
  0
ARC
  5
29F
330
1F
100
AcDbEntity
  8
0
  6
CONTINUOUS
 62
     8
100
AcDbCircle
 10
8.1576256798
 20
6.9700008819
 30
0.0
 40
0.1355773301962866
100
AcDbArc
 50
242.6210914727
 51
278.6688613327
  0
POLYLINE
  5
2A0
330
1F
100
AcDbEntity
  8
0
  6
CONTINUOUS
 62
     8
100
AcDb2dPolyline
 66
     1
 10
0.0
 20
0.0
 30
0.0
  0
VERTEX
  5
666
330
2A0
100
AcDbEntity
  8
0
  6
CONTINUOUS
 62
     8
100
AcDbVertex
100
AcDb2dVertex
 10
8.2373097255
 20
6.9084489621
 30
0.0
  0
VERTEX
  5
667
330
2A0
100
AcDbEntity
  8
0
  6
CONTINUOUS
 62
     8
100
AcDbVertex
100
AcDb2dVertex
 10
8.2346295955
 20
6.9113389363
 30
0.0
  0
VERTEX
  5
668
330
2A0
100
AcDbEntity
  8
0
  6
CONTINUOUS
 62
     8
100
AcDbVertex
100
AcDb2dVertex
 10
8.2281921096
 20
6.9169007447
 30
0.0
  0
VERTEX
  5
669
330
2A0
100
AcDbEntity
  8
0
  6
CONTINUOUS
 62
     8
100
AcDbVertex
100
AcDb2dVertex
 10
8.2205521585
 20
6.9219298989
 30
0.0
  0
VERTEX
  5
66A
330
2A0
100
AcDbEntity
  8
0
  6
CONTINUOUS
 62
     8
100
AcDbVertex
100
AcDb2dVertex
 10
8.2118404639
 20
6.9263403488
 30
0.0
  0
VERTEX
  5
66B
330
2A0
100
AcDbEntity
  8
0
  6
CONTINUOUS
 62
     8
100
AcDbVertex
100
AcDb2dVertex
 10
8.2022060853
 20
6.9300566303
 30
0.0
  0
VERTEX
  5
66C
330
2A0
100
AcDbEntity
  8
0
  6
CONTINUOUS
 62
     8
100
AcDbVertex
100
AcDb2dVertex
 10
8.1918138697
 20
6.9330151569
 30
0.0
  0
VERTEX
  5
66D
330
2A0
100
AcDbEntity
  8
0
  6
CONTINUOUS
 62
     8
100
AcDbVertex
100
AcDb2dVertex
 10
8.1808416307
 20
6.9351653073
 30
0.0
  0
VERTEX
  5
66E
330
2A0
100
AcDbEntity
  8
0
  6
CONTINUOUS
 62
     8
100
AcDbVertex
100
AcDb2dVertex
 10
8.1694771063
 20
6.9364702918
 30
0.0
  0
VERTEX
  5
66F
330
2A0
100
AcDbEntity
  8
0
  6
CONTINUOUS
 62
     8
100
AcDbVertex
100
AcDb2dVertex
 10
8.1579147468
 20
6.9369077818
 30
0.0
  0
VERTEX
  5
670
330
2A0
100
AcDbEntity
  8
0
  6
CONTINUOUS
 62
     8
100
AcDbVertex
100
AcDb2dVertex
 10
8.1463523872
 20
6.9364702918
 30
0.0
  0
VERTEX
  5
671
330
2A0
100
AcDbEntity
  8
0
  6
CONTINUOUS
 62
     8
100
AcDbVertex
100
AcDb2dVertex
 10
8.1349878628
 20
6.9351653073
 30
0.0
  0
VERTEX
  5
672
330
2A0
100
AcDbEntity
  8
0
  6
CONTINUOUS
 62
     8
100
AcDbVertex
100
AcDb2dVertex
 10
8.1240156238
 20
6.9330151569
 30
0.0
  0
VERTEX
  5
673
330
2A0
100
AcDbEntity
  8
0
  6
CONTINUOUS
 62
     8
100
AcDbVertex
100
AcDb2dVertex
 10
8.1136234082
 20
6.9300566303
 30
0.0
  0
VERTEX
  5
674
330
2A0
100
AcDbEntity
  8
0
  6
CONTINUOUS
 62
     8
100
AcDbVertex
100
AcDb2dVertex
 10
8.1039890296
 20
6.9263403488
 30
0.0
  0
VERTEX
  5
675
330
2A0
100
AcDbEntity
  8
0
  6
CONTINUOUS
 62
     8
100
AcDbVertex
100
AcDb2dVertex
 10
8.095277335
 20
6.9219298989
 30
0.0
  0
VERTEX
  5
676
330
2A0
100
AcDbEntity
  8
0
  6
CONTINUOUS
 62
     8
100
AcDbVertex
100
AcDb2dVertex
 10
8.0876373839
 20
6.9169007447
 30
0.0
  0
VERTEX
  5
677
330
2A0
100
AcDbEntity
  8
0
  6
CONTINUOUS
 62
     8
100
AcDbVertex
100
AcDb2dVertex
 10
8.081199898
 20
6.9113389363
 30
0.0
  0
VERTEX
  5
678
330
2A0
100
AcDbEntity
  8
0
  6
CONTINUOUS
 62
     8
100
AcDbVertex
100
AcDb2dVertex
 10
8.0760750244
 20
6.9053396379
 30
0.0
  0
VERTEX
  5
679
330
2A0
100
AcDbEntity
  8
0
  6
CONTINUOUS
 62
     8
100
AcDbVertex
100
AcDb2dVertex
 10
8.0723504511
 20
6.8990054992
 30
0.0
  0
VERTEX
  5
67A
330
2A0
100
AcDbEntity
  8
0
  6
CONTINUOUS
 62
     8
100
AcDbVertex
100
AcDb2dVertex
 10
8.0700899067
 20
6.8924448989
 30
0.0
  0
VERTEX
  5
67B
330
2A0
100
AcDbEntity
  8
0
  6
CONTINUOUS
 62
     8
100
AcDbVertex
100
AcDb2dVertex
 10
8.0693320696
 20
6.8857700908
 30
0.0
  0
VERTEX
  5
67C
330
2A0
100
AcDbEntity
  8
0
  6
CONTINUOUS
 62
     8
100
AcDbVertex
100
AcDb2dVertex
 10
8.0700899067
 20
6.8790952827
 30
0.0
  0
VERTEX
  5
67D
330
2A0
100
AcDbEntity
  8
0
  6
CONTINUOUS
 62
     8
100
AcDbVertex
100
AcDb2dVertex
 10
8.0723504511
 20
6.8725346824
 30
0.0
  0
VERTEX
  5
67E
330
2A0
100
AcDbEntity
  8
0
  6
CONTINUOUS
 62
     8
100
AcDbVertex
100
AcDb2dVertex
 10
8.0760750244
 20
6.8662005437
 30
0.0
  0
VERTEX
  5
67F
330
2A0
100
AcDbEntity
  8
0
  6
CONTINUOUS
 62
     8
100
AcDbVertex
100
AcDb2dVertex
 10
8.081199898
 20
6.8602012453
 30
0.0
  0
VERTEX
  5
680
330
2A0
100
AcDbEntity
  8
0
  6
CONTINUOUS
 62
     8
100
AcDbVertex
100
AcDb2dVertex
 10
8.0876373839
 20
6.8546394369
 30
0.0
  0
VERTEX
  5
681
330
2A0
100
AcDbEntity
  8
0
  6
CONTINUOUS
 62
     8
100
AcDbVertex
100
AcDb2dVertex
 10
8.095277335
 20
6.8496102827
 30
0.0
  0
VERTEX
  5
682
330
2A0
100
AcDbEntity
  8
0
  6
CONTINUOUS
 62
     8
100
AcDbVertex
100
AcDb2dVertex
 10
8.095277335
 20
6.8496102827
 30
0.0
  0
SEQEND
  5
683
330
2A0
100
AcDbEntity
  8
0
  6
CONTINUOUS
 62
     8
  0
ARC
  5
2A1
330
1F
100
AcDbEntity
  8
0
  6
CONTINUOUS
 62
     8
100
AcDbCircle
 10
8.1069920517
 20
6.8814153213
 30
0.0
 40
0.0476696974195356
100
AcDbArc
 50
184.8234110902
 51
246.9367950154
  0
ARC
  5
2A2
330
1F
100
AcDbEntity
  8
0
  6
CONTINUOUS
 62
     8
100
AcDbCircle
 10
8.1548253264
 20
6.9618168712
 30
0.0
 40
0.1409400990412527
100
AcDbArc
 50
241.8431889591
 51
271.3110628282
  0
ARC
  5
2A3
330
1F
100
AcDbEntity
  8
0
  6
CONTINUOUS
 62
     8
100
AcDbCircle
 10
7.6104068828
 20
7.2081893795
 30
0.0
 40
0.0605109620282697
100
AcDbArc
 50
157.3141960121
 51
233.4361602497
  0
ARC
  5
2A4
330
1F
100
AcDbEntity
  8
0
  6
CONTINUOUS
 62
     8
100
AcDbCircle
 10
8.12569392
 20
7.5080663962
 30
0.0
 40
0.1451367042796284
100
AcDbArc
 50
29.2106274402
 51
57.721189749
  0
ARC
  5
2A5
330
1F
100
AcDbEntity
  8
0
  6
CONTINUOUS
 62
     8
100
AcDbCircle
 10
8.1742934281
 20
7.5897362092
 30
0.0
 40
0.0501977226957929
100
AcDbArc
 50
54.8367758945
 51
113.8527656764
  0
LINE
  5
2A6
330
1F
100
AcDbEntity
  8
0
  6
CONTINUOUS
 62
     8
100
AcDbLine
 10
8.1204911273
 20
7.3090346185
 30
0.0
 11
8.0981052161
 21
7.3219577299
 31
0.0
  0
LINE
  5
2A7
330
1F
100
AcDbEntity
  8
0
  6
CONTINUOUS
 62
     8
100
AcDbLine
 10
7.751629943
 20
6.6701400555
 30
0.0
 11
7.7292404582
 21
6.68306523
 31
0.0
  0
LINE
  5
2A8
330
1F
100
AcDbEntity
  8
0
  6
CONTINUOUS
 62
     8
100
AcDbLine
 10
7.7424207865
 20
6.5333841578
 30
0.0
 11
7.7292404582
 21
6.5409929993
 31
0.0
  0
ENDSEC
  0
SECTION
  2
OBJECTS
  0
DICTIONARY
  5
C
330
0
100
AcDbDictionary
  3
ACAD_GROUP
350
D
  3
ACAD_LAYOUT
350
1A
  3
ACAD_MLEADERSTYLE
350
2AB
  3
ACAD_MLINESTYLE
350
17
  3
ACAD_PLOTSETTINGS
350
19
  3
ACAD_SCALELIST
350
6F
  3
ACAD_VISUALSTYLE
350
2A
  3
ACDBVARIABLEDICTIONARY
350
2A9
1001
ACAD
1000
TREAT_AS_HARD
1070
     0
  0
DICTIONARY
  5
D
102
{ACAD_REACTORS
330
C
102
}
330
C
100
AcDbDictionary
1001
ACAD
1000
TREAT_AS_HARD
1070
     0
  0
DICTIONARY
  5
1A
102
{ACAD_REACTORS
330
C
102
}
330
C
100
AcDbDictionary
1001
ACAD
1000
TREAT_AS_HARD
1070
     0
  0
DICTIONARY
  5
2AB
102
{ACAD_REACTORS
330
C
102
}
330
C
100
AcDbDictionary
1001
ACAD
1000
TREAT_AS_HARD
1070
     0
  0
DICTIONARY
  5
17
102
{ACAD_REACTORS
330
C
102
}
330
C
100
AcDbDictionary
  3
STANDARD
350
18
1001
ACAD
1000
TREAT_AS_HARD
1070
     0
  0
DICTIONARY
  5
19
102
{ACAD_REACTORS
330
C
102
}
330
C
100
AcDbDictionary
1001
ACAD
1000
TREAT_AS_HARD
1070
     0
  0
DICTIONARY
  5
6F
102
{ACAD_REACTORS
330
C
102
}
330
C
100
AcDbDictionary
  3
A0
350
70
  3
A1
350
71
  3
A2
350
72
  3
A3
350
73
  3
A4
350
74
  3
A5
350
75
  3
A6
350
76
  3
A7
350
77
  3
A8
350
78
  3
A9
350
79
  3
B0
350
7A
  3
B1
350
7B
  3
B2
350
7C
  3
B3
350
7D
  3
B4
350
7E
  3
B5
350
7F
  3
B6
350
80
  3
B7
350
81
  3
B8
350
82
  3
B9
350
83
  3
C0
350
84
  3
C1
350
85
  3
C2
350
86
  3
C3
350
87
  3
C4
350
88
  3
C5
350
89
  3
C6
350
8A
  3
C7
350
8B
  3
C8
350
8C
  3
C9
350
8D
  3
D0
350
8E
  3
D1
350
8F
  3
D2
350
90
1001
ACAD
1000
TREAT_AS_HARD
1070
     0
  0
DICTIONARY
  5
2A
102
{ACAD_REACTORS
330
C
102
}
330
C
100
AcDbDictionary
  3
2DWIREFRAME
350
2F
  3
3D_HIDDEN
350
31
  3
3DWIREFRAME
350
30
  3
BASIC
350
32
  3
BRIGHTEN
350
36
  3
COLORCHANGE
350
3A
  3
CONCEPTUAL
350
34
  3
DIM
350
35
  3
FACEPATTERN
350
39
  3
FLAT
350
2B
  3
FLATWITHEDGES
350
2C
  3
GOURAUD
350
2D
  3
GOURAUDWITHEDGES
350
2E
  3
LINEPATTERN
350
38
  3
REALISTIC
350
33
  3
THICKEN
350
37
1001
ACAD
1000
TREAT_AS_HARD
1070
     0
  0
DICTIONARY
  5
2A9
102
{ACAD_REACTORS
330
C
102
}
330
C
100
AcDbDictionary
  3
CANNOSCALE
350
2AC
  3
DIMASSOC
350
2AD
  3
HIDETEXT
350
2AE
1001
ACAD
1000
TREAT_AS_HARD
1070
     0
  0
MLINESTYLE
  5
18
102
{ACAD_REACTORS
330
17
102
}
330
17
100
AcDbMlineStyle
  2
Standard
 70
     0
  3

 62
   256
 51
90.0
 52
90.0
 71
     2
 49
0.5
 62
   256
  6
BYLAYER
 49
-0.5
 62
   256
  6
BYLAYER
  0
ACAD_PROXY_OBJECT
  5
70
102
{ACAD_REACTORS
330
6F
102
}
330
6F
100
AcDbZombieObject
 90
      499
 91
      502
 93
       41
310
903313A31580
  0
ACAD_PROXY_OBJECT
  5
71
102
{ACAD_REACTORS
330
6F
102
}
330
6F
100
AcDbZombieObject
 90
      499
 91
      502
 93
      105
310
903313A324000000000000004000
  0
ACAD_PROXY_OBJECT
  5
72
102
{ACAD_REACTORS
330
6F
102
}
330
6F
100
AcDbZombieObject
 90
      499
 91
      502
 93
      105
310
903313A344000000000000104000
  0
ACAD_PROXY_OBJECT
  5
73
102
{ACAD_REACTORS
330
6F
102
}
330
6F
100
AcDbZombieObject
 90
      499
 91
      502
 93
      105
310
903313A354000000000000144000
  0
ACAD_PROXY_OBJECT
  5
74
102
{ACAD_REACTORS
330
6F
102
}
330
6F
100
AcDbZombieObject
 90
      499
 91
      502
 93
      105
310
903313A384000000000000204000
  0
ACAD_PROXY_OBJECT
  5
75
102
{ACAD_REACTORS
330
6F
102
}
330
6F
100
AcDbZombieObject
 90
      499
 91
      502
 93
      113
310
904313A31304000000000000244000
  0
ACAD_PROXY_OBJECT
  5
76
102
{ACAD_REACTORS
330
6F
102
}
330
6F
100
AcDbZombieObject
 90
      499
 91
      502
 93
      113
310
904313A31364000000000000304000
  0
ACAD_PROXY_OBJECT
  5
77
102
{ACAD_REACTORS
330
6F
102
}
330
6F
100
AcDbZombieObject
 90
      499
 91
      502
 93
      113
310
904313A32304000000000000344000
  0
ACAD_PROXY_OBJECT
  5
78
102
{ACAD_REACTORS
330
6F
102
}
330
6F
100
AcDbZombieObject
 90
      499
 91
      502
 93
      113
310
904313A333040000000000003E4000
  0
ACAD_PROXY_OBJECT
  5
79
102
{ACAD_REACTORS
330
6F
102
}
330
6F
100
AcDbZombieObject
 90
      499
 91
      502
 93
      113
310
904313A34304000000000000444000
  0
ACAD_PROXY_OBJECT
  5
7A
102
{ACAD_REACTORS
330
6F
102
}
330
6F
100
AcDbZombieObject
 90
      499
 91
      502
 93
      113
310
904313A35304000000000000494000
  0
ACAD_PROXY_OBJECT
  5
7B
102
{ACAD_REACTORS
330
6F
102
}
330
6F
100
AcDbZombieObject
 90
      499
 91
      502
 93
      121
310
905313A3130304000000000000594000
  0
ACAD_PROXY_OBJECT
  5
7C
102
{ACAD_REACTORS
330
6F
102
}
330
6F
100
AcDbZombieObject
 90
      499
 91
      502
 93
      105
310
903323A310000000000000010100
  0
ACAD_PROXY_OBJECT
  5
7D
102
{ACAD_REACTORS
330
6F
102
}
330
6F
100
AcDbZombieObject
 90
      499
 91
      502
 93
      105
310
903343A310000000000000410100
  0
ACAD_PROXY_OBJECT
  5
7E
102
{ACAD_REACTORS
330
6F
102
}
330
6F
100
AcDbZombieObject
 90
      499
 91
      502
 93
      105
310
903383A310000000000000810100
  0
ACAD_PROXY_OBJECT
  5
7F
102
{ACAD_REACTORS
330
6F
102
}
330
6F
100
AcDbZombieObject
 90
      499
 91
      502
 93
      113
310
90431303A310000000000000910100
  0
ACAD_PROXY_OBJECT
  5
80
102
{ACAD_REACTORS
330
6F
102
}
330
6F
100
AcDbZombieObject
 90
      499
 91
      502
 93
      121
310
9053130303A310000000000001650100
  0
ACAD_PROXY_OBJECT
  5
81
102
{ACAD_REACTORS
330
6F
102
}
330
6F
100
AcDbZombieObject
 90
      499
 91
      502
 93
      257
310
90E312F31323822203D2031272D3022000000000000200FC000000000000284000
  0
ACAD_PROXY_OBJECT
  5
82
102
{ACAD_REACTORS
330
6F
102
}
330
6F
100
AcDbZombieObject
 90
      499
 91
      502
 93
      249
310
90D312F363422203D2031272D3022000000000000240FC000000000000284000
  0
ACAD_PROXY_OBJECT
  5
83
102
{ACAD_REACTORS
330
6F
102
}
330
6F
100
AcDbZombieObject
 90
      499
 91
      502
 93
      249
310
90D312F333222203D2031272D3022000000000000280FC000000000000284000
  0
ACAD_PROXY_OBJECT
  5
84
102
{ACAD_REACTORS
330
6F
102
}
330
6F
100
AcDbZombieObject
 90
      499
 91
      502
 93
      249
310
90D312F313622203D2031272D30220000000000002C0FC000000000000284000
  0
ACAD_PROXY_OBJECT
  5
85
102
{ACAD_REACTORS
330
6F
102
}
330
6F
100
AcDbZombieObject
 90
      499
 91
      502
 93
      249
310
90D332F333222203D2031272D30220000000000002E0FC000000000000284000
  0
ACAD_PROXY_OBJECT
  5
86
102
{ACAD_REACTORS
330
6F
102
}
330
6F
100
AcDbZombieObject
 90
      499
 91
      502
 93
      241
310
90C312F3822203D2031272D3022000000000000300FC000000000000284000
  0
ACAD_PROXY_OBJECT
  5
87
102
{ACAD_REACTORS
330
6F
102
}
330
6F
100
AcDbZombieObject
 90
      499
 91
      502
 93
      249
310
90D332F313622203D2031272D3022000000000000320FC000000000000284000
  0
ACAD_PROXY_OBJECT
  5
88
102
{ACAD_REACTORS
330
6F
102
}
330
6F
100
AcDbZombieObject
 90
      499
 91
      502
 93
      241
310
90C312F3422203D2031272D3022000000000000340FC000000000000284000
  0
ACAD_PROXY_OBJECT
  5
89
102
{ACAD_REACTORS
330
6F
102
}
330
6F
100
AcDbZombieObject
 90
      499
 91
      502
 93
      241
310
90C332F3822203D2031272D3022000000000000360FC000000000000284000
  0
ACAD_PROXY_OBJECT
  5
8A
102
{ACAD_REACTORS
330
6F
102
}
330
6F
100
AcDbZombieObject
 90
      499
 91
      502
 93
      241
310
90C312F3222203D2031272D3022000000000000380FC000000000000284000
  0
ACAD_PROXY_OBJECT
  5
8B
102
{ACAD_REACTORS
330
6F
102
}
330
6F
100
AcDbZombieObject
 90
      499
 91
      502
 93
      241
310
90C332F3422203D2031272D30220000000000003A0FC000000000000284000
  0
ACAD_PROXY_OBJECT
  5
8C
102
{ACAD_REACTORS
330
6F
102
}
330
6F
100
AcDbZombieObject
 90
      499
 91
      502
 93
      161
310
90A3122203D2031272D30224000000000000284000
  0
ACAD_PROXY_OBJECT
  5
8D
102
{ACAD_REACTORS
330
6F
102
}
330
6F
100
AcDbZombieObject
 90
      499
 91
      502
 93
      257
310
90E312D312F3222203D2031272D30220000000000003E0FC000000000000284000
  0
ACAD_PROXY_OBJECT
  5
8E
102
{ACAD_REACTORS
330
6F
102
}
330
6F
100
AcDbZombieObject
 90
      499
 91
      502
 93
      225
310
90A3322203D2031272D302200000000000002100000000000000284000
  0
ACAD_PROXY_OBJECT
  5
8F
102
{ACAD_REACTORS
330
6F
102
}
330
6F
100
AcDbZombieObject
 90
      499
 91
      502
 93
      225
310
90A3622203D2031272D302200000000000006100000000000000284000
  0
ACAD_PROXY_OBJECT
  5
90
102
{ACAD_REACTORS
330
6F
102
}
330
6F
100
AcDbZombieObject
 90
      499
 91
      502
 93
      249
310
90D31272D3022203D2031272D30220000000000000A100000000000000284000
  0
ACAD_PROXY_OBJECT
  5
2F
102
{ACAD_REACTORS
330
2A
102
}
330
2A
100
AcDbZombieObject
 90
      499
 91
      501
 93
      436
310
42CC9915DA5C99599C985B595049028333333333333E3BF0000000000000FB0107901411070040501600405405064090741402480A0340
1001
ACAD
1000
AcDbSavedByObjectVersion
1070
     0
  0
ACAD_PROXY_OBJECT
  5
31
102
{ACAD_REACTORS
330
2A
102
}
330
2A
100
AcDbZombieObject
 90
      499
 91
      501
 93
      500
310
424CD108121A5919195B90640502408333333333333E3BF0000000000000FB01079024090700405020000000000001110200405405064090740C02480A0340
1001
ACAD
1000
AcDbSavedByObjectVersion
1070
     0
  0
ACAD_PROXY_OBJECT
  5
30
102
{ACAD_REACTORS
330
2A
102
}
330
2A
100
AcDbZombieObject
 90
      499
 91
      501
 93
      436
310
42CCD915DA5C99599C985B595059028333333333333E3BF0000000000000FB0107901411070040501600405405064090741402480A0340
1001
ACAD
1000
AcDbSavedByObjectVersion
1070
     0
  0
ACAD_PROXY_OBJECT
  5
32
102
{ACAD_REACTORS
330
2A
102
}
330
2A
100
AcDbZombieObject
 90
      499
 91
      501
 93
      388
310
4150985CDA58D07406404333333333333E3BF0000000000000FB0107A41107004050150841D405064090741402480A0350
1001
ACAD
1000
AcDbSavedByObjectVersion
1070
     0
  0
ACAD_PROXY_OBJECT
  5
36
102
{ACAD_REACTORS
330
2A
102
}
330
2A
100
AcDbZombieObject
 90
      499
 91
      501
 93
      428
310
42109C9A59DA1D195B90C409028333333333333E3BF0000000000000FB010790141107004050150841D405064090741402480A029950
1001
ACAD
1000
AcDbSavedByObjectVersion
1070
     0
  0
ACAD_PROXY_OBJECT
  5
3A
102
{ACAD_REACTORS
330
2A
102
}
330
2A
100
AcDbZombieObject
 90
      499
 91
      501
 93
      452
310
42D0DBDB1BDC90DA185B99D95104090240C333333333333E3BF0000000000000FB0108901411070040501508421405064090741402480A0350
1001
ACAD
1000
AcDbSavedByObjectVersion
1070
     0
  0
ACAD_PROXY_OBJECT
  5
34
102
{ACAD_REACTORS
330
2A
102
}
330
2A
100
AcDbZombieObject
 90
      499
 91
      501
 93
      500
310
4290DBDB98D95C1D1D585B10940D028333333333333E3BF0000000000000FB0107902409070040501000000000000111010841D405064090740C02480A0340
1001
ACAD
1000
AcDbSavedByObjectVersion
1070
     0
  0
ACAD_PROXY_OBJECT
  5
35
102
{ACAD_REACTORS
330
2A
102
}
330
2A
100
AcDbZombieObject
 90
      499
 91
      501
 93
      412
310
40D11A5B50B409028333333333333E3BF0000000000000FB010790141107004050150841D405064090741402480A02677FFFFFD0
1001
ACAD
1000
AcDbSavedByObjectVersion
1070
     0
  0
ACAD_PROXY_OBJECT
  5
39
102
{ACAD_REACTORS
330
2A
102
}
330
2A
100
AcDbZombieObject
 90
      499
 91
      501
 93
      444
310
42D19858D95C185D1D195C9B90F409028333333333333E3BF0000000000000FB010790141107004050150841D405064090741402480A0350
1001
ACAD
1000
AcDbSavedByObjectVersion
1070
     0
  0
ACAD_PROXY_OBJECT
  5
2B
102
{ACAD_REACTORS
330
2A
102
}
330
2A
100
AcDbZombieObject
 90
      499
 91
      501
 93
      388
310
41119B185D240901404333333333333E3BF0000000000000F9010740A41107004050150841D405064090741402480A1B50
1001
ACAD
1000
AcDbSavedByObjectVersion
1070
     0
  0
ACAD_PROXY_OBJECT
  5
2C
102
{ACAD_REACTORS
330
2A
102
}
330
2A
100
AcDbZombieObject
 90
      499
 91
      501
 93
      476
310
43519B185D15DA5D1A115919D95CD0140901404333333333333E3BF0000000000000F9010740901411070040501600405405064090741402480A1B50
1001
ACAD
1000
AcDbSavedByObjectVersion
1070
     0
  0
ACAD_PROXY_OBJECT
  5
2D
102
{ACAD_REACTORS
330
2A
102
}
330
2A
100
AcDbZombieObject
 90
      499
 91
      501
 93
      412
310
41D1DBDD5C985D5910240902404333333333333E3BF0000000000000F9010740A411070040501641D405064090741402480A1B50
1001
ACAD
1000
AcDbSavedByObjectVersion
1070
     0
  0
ACAD_PROXY_OBJECT
  5
2E
102
{ACAD_REACTORS
330
2A
102
}
330
2A
100
AcDbZombieObject
 90
      499
 91
      501
 93
      500
310
4411DBDD5C985D5915DA5D1A115919D95CD0340902404333333333333E3BF0000000000000F9010740901411070040501600405405064090741402480A1B50
1001
ACAD
1000
AcDbSavedByObjectVersion
1070
     0
  0
ACAD_PROXY_OBJECT
  5
38
102
{ACAD_REACTORS
330
2A
102
}
330
2A
100
AcDbZombieObject
 90
      499
 91
      501
 93
      444
310
42D31A5B995C185D1D195C9B90E409028333333333333E3BF0000000000000FB010790141107004050750841D405064090741402483A0350
1001
ACAD
1000
AcDbSavedByObjectVersion
1070
     0
  0
ACAD_PROXY_OBJECT
  5
33
102
{ACAD_REACTORS
330
2A
102
}
330
2A
100
AcDbZombieObject
 90
      499
 91
      501
 93
      420
310
425499585B1A5CDD1A58D08409028333333333333E3BF0000000000000FB01079019070040501508421405064090741402480A1B40
1001
ACAD
1000
AcDbSavedByObjectVersion
1070
     0
  0
ACAD_PROXY_OBJECT
  5
37
102
{ACAD_REACTORS
330
2A
102
}
330
2A
100
AcDbZombieObject
 90
      499
 91
      501
 93
      412
310
41D51A1A58DAD95B90D409028333333333333E3BF0000000000000FB010790141107004050150C41D405064090741402480A0350
1001
ACAD
1000
AcDbSavedByObjectVersion
1070
     0
  0
DICTIONARYVAR
  5
2AC
102
{ACAD_REACTORS
330
2A9
102
}
330
2A9
100
DictionaryVariables
280
     0
  1
1:1
  0
DICTIONARYVAR
  5
2AD
102
{ACAD_REACTORS
330
2A9
102
}
330
2A9
100
DictionaryVariables
280
     0
  1
2
  0
DICTIONARYVAR
  5
2AE
102
{ACAD_REACTORS
330
2A9
102
}
330
2A9
100
DictionaryVariables
280
     0
  1
1
  0
ENDSEC
  0
EOF
