  0
SECTION
  2
HEADER
  9
$ACADVER
  1
AC1012
  9
$DWGCODEPAGE
  3
ansi_1252
  9
$INSBASE
 10
0.0
 20
0.0
 30
0.0
  9
$EXTMIN
 10
0.0
 20
0.0
 30
0.0
  9
$EXTMAX
 10
11.0
 20
8.5
 30
0.0
  9
$LIMMIN
 10
0.0
 20
0.0
  9
$LIMMAX
 10
11.0
 20
8.5
  9
$ORTHOMODE
 70
     0
  9
$REGENMODE
 70
     1
  9
$FILLMODE
 70
     1
  9
$QTEXTMODE
 70
     0
  9
$MIRRTEXT
 70
     1
  9
$DRAGMODE
 70
     2
  9
$LTSCALE
 40
1.0
  9
$OSMODE
 70
    37
  9
$ATTMODE
 70
     1
  9
$TEXTSIZE
 40
0.125
  9
$TRACEWID
 40
0.05
  9
$TEXTSTYLE
  7
STANDARD
  9
$CLAYER
  8
0
  9
$CELTYPE
  6
BYLAYER
  9
$CECOLOR
 62
   256
  9
$CELTSCALE
 40
1.0
  9
$DELOBJ
 70
     1
  9
$DISPSILH
 70
     0
  9
$DIMSCALE
 40
1.0
  9
$DIMASZ
 40
0.13
  9
$DIMEXO
 40
0.05
  9
$DIMDLI
 40
0.38
  9
$DIMRND
 40
0.0
  9
$DIMDLE
 40
0.0
  9
$DIMEXE
 40
0.125
  9
$DIMTP
 40
0.0
  9
$DIMTM
 40
0.0
  9
$DIMTXT
 40
0.125
  9
$DIMCEN
 40
0.09
  9
$DIMTSZ
 40
0.0
  9
$DIMTOL
 70
     0
  9
$DIMLIM
 70
     0
  9
$DIMTIH
 70
     1
  9
$DIMTOH
 70
     1
  9
$DIMSE1
 70
     0
  9
$DIMSE2
 70
     0
  9
$DIMTAD
 70
     0
  9
$DIMZIN
 70
     0
  9
$DIMBLK
  1

  9
$DIMASO
 70
     1
  9
$DIMSHO
 70
     1
  9
$DIMPOST
  1

  9
$DIMAPOST
  1

  9
$DIMALT
 70
     0
  9
$DIMALTD
 70
     2
  9
$DIMALTF
 40
25.4
  9
$DIMLFAC
 40
1.0
  9
$DIMTOFL
 70
     0
  9
$DIMTVP
 40
0.0
  9
$DIMTIX
 70
     0
  9
$DIMSOXD
 70
     0
  9
$DIMSAH
 70
     0
  9
$DIMBLK1
  1

  9
$DIMBLK2
  1

  9
$DIMSTYLE
  2
STANDARD
  9
$DIMCLRD
 70
     0
  9
$DIMCLRE
 70
     0
  9
$DIMCLRT
 70
     0
  9
$DIMTFAC
 40
1.0
  9
$DIMGAP
 40
0.06
  9
$DIMJUST
 70
     0
  9
$DIMSD1
 70
     0
  9
$DIMSD2
 70
     0
  9
$DIMTOLJ
 70
     1
  9
$DIMTZIN
 70
     0
  9
$DIMALTZ
 70
     0
  9
$DIMALTTZ
 70
     0
  9
$DIMFIT
 70
     3
  9
$DIMUPT
 70
     0
  9
$DIMUNIT
 70
     2
  9
$DIMDEC
 70
     3
  9
$DIMTDEC
 70
     3
  9
$DIMALTU
 70
     2
  9
$DIMALTTD
 70
     2
  9
$DIMTXSTY
  7
STANDARD
  9
$DIMAUNIT
 70
     0
  9
$LUNITS
 70
     2
  9
$LUPREC
 70
     2
  9
$SKETCHINC
 40
0.1
  9
$FILLETRAD
 40
0.5
  9
$AUNITS
 70
     0
  9
$AUPREC
 70
     2
  9
$MENU
  1
.
  9
$ELEVATION
 40
0.0
  9
$PELEVATION
 40
0.0
  9
$THICKNESS
 40
0.0
  9
$LIMCHECK
 70
     0
  9
$CHAMFERA
 40
0.5
  9
$CHAMFERB
 40
0.5
  9
$CHAMFERC
 40
1.0
  9
$CHAMFERD
 40
0.0
  9
$SKPOLY
 70
     0
  9
$TDCREATE
 40
2455784.021734745
  9
$TDUPDATE
 40
2455784.021734757
  9
$TDINDWG
 40
0.0000000116
  9
$TDUSRTIMER
 40
0.0000000116
  9
$USRTIMER
 70
     1
  9
$ANGBASE
 50
0.0
  9
$ANGDIR
 70
     0
  9
$PDMODE
 70
     0
  9
$PDSIZE
 40
-1.0
  9
$PLINEWID
 40
0.0
  9
$COORDS
 70
     1
  9
$SPLFRAME
 70
     0
  9
$SPLINETYPE
 70
     6
  9
$SPLINESEGS
 70
     8
  9
$ATTDIA
 70
     0
  9
$ATTREQ
 70
     1
  9
$HANDLING
 70
     1
  9
$HANDSEED
  5
5F9
  9
$SURFTAB1
 70
     6
  9
$SURFTAB2
 70
     6
  9
$SURFTYPE
 70
     6
  9
$SURFU
 70
     6
  9
$SURFV
 70
     6
  9
$UCSNAME
  2

  9
$UCSORG
 10
0.0
 20
0.0
 30
0.0
  9
$UCSXDIR
 10
1.0
 20
0.0
 30
0.0
  9
$UCSYDIR
 10
0.0
 20
1.0
 30
0.0
  9
$PUCSNAME
  2

  9
$PUCSORG
 10
0.0
 20
0.0
 30
0.0
  9
$PUCSXDIR
 10
1.0
 20
0.0
 30
0.0
  9
$PUCSYDIR
 10
0.0
 20
1.0
 30
0.0
  9
$USERI1
 70
     0
  9
$USERI2
 70
     0
  9
$USERI3
 70
     0
  9
$USERI4
 70
     0
  9
$USERI5
 70
     0
  9
$USERR1
 40
0.0
  9
$USERR2
 40
0.0
  9
$USERR3
 40
0.0
  9
$USERR4
 40
0.0
  9
$USERR5
 40
0.0
  9
$WORLDVIEW
 70
     1
  9
$SHADEDGE
 70
     3
  9
$SHADEDIF
 70
    70
  9
$TILEMODE
 70
     1
  9
$MAXACTVP
 70
    64
  9
$PINSBASE
 10
0.0
 20
0.0
 30
0.0
  9
$PLIMCHECK
 70
     0
  9
$PEXTMIN
 10
1.0000000000E+20
 20
1.0000000000E+20
 30
1.0000000000E+20
  9
$PEXTMAX
 10
-1.0000000000E+20
 20
-1.0000000000E+20
 30
-1.0000000000E+20
  9
$PLIMMIN
 10
0.0
 20
0.0
  9
$PLIMMAX
 10
12.0
 20
9.0
  9
$UNITMODE
 70
     0
  9
$VISRETAIN
 70
     1
  9
$PLINEGEN
 70
     0
  9
$PSLTSCALE
 70
     1
  9
$TREEDEPTH
 70
  3020
  9
$PICKSTYLE
 70
     1
  9
$CMLSTYLE
  2
STANDARD
  9
$CMLJUST
 70
     0
  9
$CMLSCALE
 40
1.0
  9
$SAVEIMAGES
 70
     1
  0
ENDSEC
  0
SECTION
  2
CLASSES
  0
CLASS
  1
ACDBDICTIONARYWDFLT
  2
AcDbDictionaryWithDefault
  3
ObjectDBX Classes
 90
    32768
280
     0
281
     0
  0
CLASS
  1
VISUALSTYLE
  2
AcDbVisualStyle
  3
ObjectDBX Classes
 90
     4095
280
     0
281
     0
  0
CLASS
  1
SCALE
  2
AcDbScale
  3
ObjectDBX Classes
 90
     1153
280
     0
281
     0
  0
CLASS
  1
DICTIONARYVAR
  2
AcDbDictionaryVar
  3
ObjectDBX Classes
 90
        0
280
     0
281
     0
  0
CLASS
  1
XRECORD
  2
AcDbXrecord
  3
AutoCAD 2000
 90
    32768
280
     0
281
     0
  0
CLASS
  1
LWPOLYLINE
  2
AcDbPolyline
  3
AutoCAD 2000
 90
    32768
280
     0
281
     1
  0
CLASS
  1
HATCH
  2
AcDbHatch
  3
AutoCAD 2000
 90
    32768
280
     0
281
     1
  0
CLASS
  1
ACDBPLACEHOLDER
  2
AcDbPlaceHolder
  3
ObjectDBX Classes
 90
        0
280
     0
281
     0
  0
CLASS
  1
LAYOUT
  2
AcDbLayout
  3
ObjectDBX Classes
 90
        0
280
     0
281
     0
  0
ENDSEC
  0
SECTION
  2
TABLES
  0
TABLE
  2
VPORT
  5
8
330
0
100
AcDbSymbolTable
 70
     1
  0
VPORT
  5
29
330
8
100
AcDbSymbolTableRecord
100
AcDbViewportTableRecord
  2
*ACTIVE
 70
     0
 10
0.0
 20
0.0
 11
1.0
 21
1.0
 12
5.5
 22
4.25
 13
0.0
 23
0.0
 14
0.5
 24
0.5
 15
0.5
 25
0.5
 16
0.0
 26
0.0
 36
1.0
 17
0.0
 27
0.0
 37
0.0
 40
8.5
 41
1.2941176471
 42
50.0
 43
0.0
 44
0.0
 50
0.0
 51
0.0
 71
     0
 72
  2000
 73
     1
 74
     3
 75
     0
 76
     0
 77
     0
 78
     0
  0
ENDTAB
  0
TABLE
  2
LTYPE
  5
5
330
0
100
AcDbSymbolTable
 70
     6
  0
LTYPE
  5
14
330
5
100
AcDbSymbolTableRecord
100
AcDbLinetypeTableRecord
  2
BYBLOCK
 70
     0
  3

 72
    65
 73
     0
 40
0.0
  0
LTYPE
  5
15
330
5
100
AcDbSymbolTableRecord
100
AcDbLinetypeTableRecord
  2
BYLAYER
 70
     0
  3

 72
    65
 73
     0
 40
0.0
  0
LTYPE
  5
16
330
5
100
AcDbSymbolTableRecord
100
AcDbLinetypeTableRecord
  2
CONTINUOUS
 70
     0
  3
Solid line
 72
    65
 73
     0
 40
0.0
  0
LTYPE
  5
3B
330
5
100
AcDbSymbolTableRecord
100
AcDbLinetypeTableRecord
  2
HIDDEN
 70
     0
  3
Hidden __ __ __ __ __ __ __ __ __ __ __ __ __ __
 72
    65
 73
     2
 40
0.075
 49
0.05
 74
     0
 49
-0.025
 74
     0
  0
LTYPE
  5
3C
330
5
100
AcDbSymbolTableRecord
100
AcDbLinetypeTableRecord
  2
PHANTOM
 70
     0
  3
Phantom ______  __  __  ______  __  __  ______
 72
    65
 73
     6
 40
0.5
 49
0.25
 74
     0
 49
-0.05
 74
     0
 49
0.05
 74
     0
 49
-0.05
 74
     0
 49
0.05
 74
     0
 49
-0.05
 74
     0
  0
LTYPE
  5
3D
330
5
100
AcDbSymbolTableRecord
100
AcDbLinetypeTableRecord
  2
CENTER
 70
     0
  3
Center ____ _ ____ _ ____ _ ____ _ ____ _ ____
 72
    65
 73
     4
 40
0.4
 49
0.25
 74
     0
 49
-0.05
 74
     0
 49
0.05
 74
     0
 49
-0.05
 74
     0
  0
LTYPE
  5
3E
330
5
100
AcDbSymbolTableRecord
100
AcDbLinetypeTableRecord
  2
CENTERX2
 70
     0
  3
Center (2x) ________  __  ________  __  _____
 72
    65
 73
     4
 40
0.8
 49
0.5
 74
     0
 49
-0.1
 74
     0
 49
0.1
 74
     0
 49
-0.1
 74
     0
  0
LTYPE
  5
3F
330
5
100
AcDbSymbolTableRecord
100
AcDbLinetypeTableRecord
  2
DOT2
 70
     0
  3
Dot (.5x) ........................................
 72
    65
 73
     2
 40
0.025
 49
0.0
 74
     0
 49
-0.025
 74
     0
  0
ENDTAB
  0
TABLE
  2
LAYER
  5
2
330
0
100
AcDbSymbolTable
 70
     2
  0
LAYER
  5
10
330
2
100
AcDbSymbolTableRecord
100
AcDbLayerTableRecord
  2
0
 70
     0
 62
     7
  6
CONTINUOUS
  0
LAYER
  5
40
330
2
100
AcDbSymbolTableRecord
100
AcDbLayerTableRecord
  2
FORMAT
 70
     0
 62
     7
  6
CONTINUOUS
  0
ENDTAB
  0
TABLE
  2
STYLE
  5
3
330
0
100
AcDbSymbolTable
 70
     4
  0
STYLE
  5
11
330
3
100
AcDbSymbolTableRecord
100
AcDbTextStyleTableRecord
  2
STANDARD
 70
     0
 40
0.0
 41
1.0
 50
0.0
 71
     0
 42
0.2
  3
txt
  4

  0
STYLE
  5
6E
330
3
100
AcDbSymbolTableRecord
100
AcDbTextStyleTableRecord
  2
SLDTEXTSTYLE0
 70
     0
 40
0.0
 41
0.75
 50
0.0
 71
     0
 42
0.2
  3
TXT
  4

  0
STYLE
  5
93
330
3
100
AcDbSymbolTableRecord
100
AcDbTextStyleTableRecord
  2
SLDTEXTSTYLE1
 70
     0
 40
0.0
 41
0.6875
 50
0.0
 71
     0
 42
0.2
  3
TXT
  4

  0
STYLE
  5
99
330
3
100
AcDbSymbolTableRecord
100
AcDbTextStyleTableRecord
  2
SLDTEXTSTYLE2
 70
     0
 40
0.0
 41
0.6944444444
 50
0.0
 71
     0
 42
0.2
  3
TXT
  4

  0
ENDTAB
  0
TABLE
  2
VIEW
  5
6
330
0
100
AcDbSymbolTable
 70
     0
  0
ENDTAB
  0
TABLE
  2
UCS
  5
7
330
0
100
AcDbSymbolTable
 70
     0
  0
ENDTAB
  0
TABLE
  2
APPID
  5
9
330
0
100
AcDbSymbolTable
 70
     1
  0
APPID
  5
12
330
9
100
AcDbSymbolTableRecord
100
AcDbRegAppTableRecord
  2
ACAD
 70
     0
  0
ENDTAB
  0
TABLE
  2
DIMSTYLE
  5
A
330
0
100
AcDbSymbolTable
 70
     1
  0
DIMSTYLE
105
27
330
A
100
AcDbSymbolTableRecord
100
AcDbDimStyleTableRecord
  2
STANDARD
 70
     0
  3

  4

  5

  6

  7

 40
1.0
 41
0.18
 42
0.0625
 43
0.38
 44
0.18
 45
0.0
 46
0.0
 47
0.0
 48
0.0
140
0.18
141
0.09
142
0.0
143
25.4
144
1.0
145
0.0
146
1.0
147
0.09
 71
     0
 72
     0
 73
     1
 74
     1
 75
     0
 76
     0
 77
     0
 78
     0
170
     0
171
     2
172
     0
173
     0
174
     0
175
     0
176
     0
177
     0
178
     0
270
     2
271
     4
272
     4
273
     2
274
     2
340
11
275
     0
280
     0
281
     0
282
     0
283
     1
284
     0
285
     0
286
     0
287
     3
288
     0
  0
ENDTAB
  0
TABLE
  2
BLOCK_RECORD
  5
1
330
0
100
AcDbSymbolTable
 70
     4
  0
BLOCK_RECORD
  5
1F
330
1
100
AcDbSymbolTableRecord
100
AcDbBlockTableRecord
  2
*MODEL_SPACE
  0
BLOCK_RECORD
  5
1B
330
1
100
AcDbSymbolTableRecord
100
AcDbBlockTableRecord
  2
*PAPER_SPACE
  0
BLOCK_RECORD
  5
A8
330
1
100
AcDbSymbolTableRecord
100
AcDbBlockTableRecord
  2
SW_NOTE_0
  0
BLOCK_RECORD
  5
AE
330
1
100
AcDbSymbolTableRecord
100
AcDbBlockTableRecord
  2
SW_NOTE_1
  0
BLOCK_RECORD
  5
C2
330
1
100
AcDbSymbolTableRecord
100
AcDbBlockTableRecord
  2
SW_NOTE_2
  0
ENDTAB
  0
ENDSEC
  0
SECTION
  2
BLOCKS
  0
BLOCK
  5
20
330
1F
100
AcDbEntity
  8
0
100
AcDbBlockBegin
  2
*MODEL_SPACE
 70
     0
 10
0.0
 20
0.0
 30
0.0
  3
*MODEL_SPACE
  1

  0
ENDBLK
  5
21
330
1F
100
AcDbEntity
  8
0
100
AcDbBlockEnd
  0
BLOCK
  5
1C
330
1B
100
AcDbEntity
 67
     1
  8
0
100
AcDbBlockBegin
  2
*PAPER_SPACE
 70
     0
 10
0.0
 20
0.0
 30
0.0
  3
*PAPER_SPACE
  1

  0
ENDBLK
  5
1D
330
1B
100
AcDbEntity
 67
     1
  8
0
100
AcDbBlockEnd
  0
BLOCK
  5
A9
330
A8
100
AcDbEntity
  8
0
100
AcDbBlockBegin
  2
SW_NOTE_0
 70
     0
 10
0.0
 20
0.0
 30
0.0
  3
SW_NOTE_0
  1

  0
MTEXT
  5
AB
330
A8
100
AcDbEntity
  8
0
  6
CONTINUOUS
 62
     0
100
AcDbMText
 10
0.0
 20
0.0773440644
 30
0.0
 40
0.06
 41
0.0
 71
     1
 72
     1
  1
INTERPRET GEOMETRIC
  7
SLDTEXTSTYLE0
  0
MTEXT
  5
AC
330
A8
100
AcDbEntity
  8
0
  6
CONTINUOUS
 62
     0
100
AcDbMText
 10
0.0
 20
-0.0220260102
 30
0.0
 40
0.06
 41
0.0
 71
     1
 72
     1
  1
TOLERANCING PER:
  7
SLDTEXTSTYLE0
  0
ENDBLK
  5
AA
330
A8
100
AcDbEntity
  8
0
100
AcDbBlockEnd
  0
BLOCK
  5
AF
330
AE
100
AcDbEntity
  8
0
100
AcDbBlockBegin
  2
SW_NOTE_1
 70
     0
 10
0.0
 20
0.0
 30
0.0
  3
SW_NOTE_1
  1

  0
MTEXT
  5
B1
330
AE
100
AcDbEntity
  8
0
  6
CONTINUOUS
 62
     0
100
AcDbMText
 10
0.0
 20
0.0837894031
 30
0.0
 40
0.065
 41
0.0
 71
     1
 72
     1
  1
DIMENSIONS ARE IN INCHES
  7
SLDTEXTSTYLE0
  0
MTEXT
  5
B2
330
AE
100
AcDbEntity
  8
0
  6
CONTINUOUS
 62
     0
100
AcDbMText
 10
0.0
 20
-0.0205806729
 30
0.0
 40
0.065
 41
0.0
 71
     1
 72
     1
  1
TOLERANCES:
  7
SLDTEXTSTYLE0
  0
MTEXT
  5
B3
330
AE
100
AcDbEntity
  8
0
  6
CONTINUOUS
 62
     0
100
AcDbMText
 10
0.0
 20
-0.1249507489
 30
0.0
 40
0.065
 41
0.0
 71
     1
 72
     1
  1
FRACTIONAL
  7
SLDTEXTSTYLE0
  0
MTEXT
  5
B4
330
AE
100
AcDbEntity
  8
0
  6
CONTINUOUS
 62
     0
100
AcDbMText
 10
0.5175850875
 20
-0.1249507489
 30
0.0
 40
0.065
 41
0.0
 71
     1
 72
     1
  1
%%p
  7
SLDTEXTSTYLE0
  0
MTEXT
  5
B5
330
AE
100
AcDbEntity
  8
0
  6
CONTINUOUS
 62
     0
100
AcDbMText
 10
0.0
 20
-0.2293208248
 30
0.0
 40
0.065
 41
0.0
 71
     1
 72
     1
  1
ANGULAR: MACH
  7
SLDTEXTSTYLE0
  0
MTEXT
  5
B6
330
AE
100
AcDbEntity
  8
0
  6
CONTINUOUS
 62
     0
100
AcDbMText
 10
0.7233732769
 20
-0.2293208248
 30
0.0
 40
0.065
 41
0.0
 71
     1
 72
     1
  1
%%p
  7
SLDTEXTSTYLE0
  0
MTEXT
  5
B7
330
AE
100
AcDbEntity
  8
0
  6
CONTINUOUS
 62
     0
100
AcDbMText
 10
0.7852857683
 20
-0.2293208248
 30
0.0
 40
0.065
 41
0.0
 71
     1
 72
     1
  1
     BEND 
  7
SLDTEXTSTYLE0
  0
MTEXT
  5
B8
330
AE
100
AcDbEntity
  8
0
  6
CONTINUOUS
 62
     0
100
AcDbMText
 10
1.14784136
 20
-0.2293208248
 30
0.0
 40
0.065
 41
0.0
 71
     1
 72
     1
  1
%%p
  7
SLDTEXTSTYLE0
  0
MTEXT
  5
B9
330
AE
100
AcDbEntity
  8
0
  6
CONTINUOUS
 62
     0
100
AcDbMText
 10
0.0
 20
-0.3336909008
 30
0.0
 40
0.065
 41
0.0
 71
     1
 72
     1
  1
TWO PLACE DECIMAL    
  7
SLDTEXTSTYLE0
  0
MTEXT
  5
BA
330
AE
100
AcDbEntity
  8
0
  6
CONTINUOUS
 62
     0
100
AcDbMText
 10
0.9794349188
 20
-0.3336909008
 30
0.0
 40
0.065
 41
0.0
 71
     1
 72
     1
  1
%%p
  7
SLDTEXTSTYLE0
  0
MTEXT
  5
BB
330
AE
100
AcDbEntity
  8
0
  6
CONTINUOUS
 62
     0
100
AcDbMText
 10
0.0
 20
-0.4380609768
 30
0.0
 40
0.065
 41
0.0
 71
     1
 72
     1
  1
THREE PLACE DECIMAL  
  7
SLDTEXTSTYLE0
  0
MTEXT
  5
BC
330
AE
100
AcDbEntity
  8
0
  6
CONTINUOUS
 62
     0
100
AcDbMText
 10
0.9738038639
 20
-0.4380609768
 30
0.0
 40
0.065
 41
0.0
 71
     1
 72
     1
  1
%%p
  7
SLDTEXTSTYLE0
  0
ENDBLK
  5
B0
330
AE
100
AcDbEntity
  8
0
100
AcDbBlockEnd
  0
BLOCK
  5
C3
330
C2
100
AcDbEntity
  8
0
100
AcDbBlockBegin
  2
SW_NOTE_2
 70
     0
 10
0.0
 20
0.0
 30
0.0
  3
SW_NOTE_2
  1

  0
MTEXT
  5
C5
330
C2
100
AcDbEntity
  8
0
  6
CONTINUOUS
 62
     0
100
AcDbMText
 10
0.0
 20
0.0773440644
 30
0.0
 40
0.06
 41
0.0
 71
     1
 72
     1
  1
THE INFORMATION CONTAINED IN THIS
  7
SLDTEXTSTYLE0
  0
MTEXT
  5
C6
330
C2
100
AcDbEntity
  8
0
  6
CONTINUOUS
 62
     0
100
AcDbMText
 10
0.0
 20
-0.0220260102
 30
0.0
 40
0.06
 41
0.0
 71
     1
 72
     1
  1
DRAWING IS THE SOLE PROPERTY OF
  7
SLDTEXTSTYLE0
  0
MTEXT
  5
C7
330
C2
100
AcDbEntity
  8
0
  6
CONTINUOUS
 62
     0
100
AcDbMText
 10
0.0
 20
-0.1213960848
 30
0.0
 40
0.06
 41
0.0
 71
     1
 72
     1
  1
Candy Controls.  ANY 
  7
SLDTEXTSTYLE0
  0
MTEXT
  5
C8
330
C2
100
AcDbEntity
  8
0
  6
CONTINUOUS
 62
     0
100
AcDbMText
 10
0.0
 20
-0.2207661593
 30
0.0
 40
0.06
 41
0.0
 71
     1
 72
     1
  1
REPRODUCTION IN PART OR AS A WHOLE
  7
SLDTEXTSTYLE0
  0
MTEXT
  5
C9
330
C2
100
AcDbEntity
  8
0
  6
CONTINUOUS
 62
     0
100
AcDbMText
 10
0.0
 20
-0.3201362339
 30
0.0
 40
0.06
 41
0.0
 71
     1
 72
     1
  1
WITHOUT THE WRITTEN PERMISSION OF
  7
SLDTEXTSTYLE0
  0
MTEXT
  5
CA
330
C2
100
AcDbEntity
  8
0
  6
CONTINUOUS
 62
     0
100
AcDbMText
 10
0.0
 20
-0.4195063085
 30
0.0
 40
0.06
 41
0.0
 71
     1
 72
     1
  1
Candy Controls IS 
  7
SLDTEXTSTYLE0
  0
MTEXT
  5
CB
330
C2
100
AcDbEntity
  8
0
  6
CONTINUOUS
 62
     0
100
AcDbMText
 10
0.0
 20
-0.518876383
 30
0.0
 40
0.06
 41
0.0
 71
     1
 72
     1
  1
PROHIBITED.
  7
SLDTEXTSTYLE0
  0
ENDBLK
  5
C4
330
C2
100
AcDbEntity
  8
0
100
AcDbBlockEnd
  0
ENDSEC
  0
SECTION
  2
ENTITIES
  0
LINE
  5
41
330
1F
100
AcDbEntity
  8
0
  6
CONTINUOUS
 62
     7
100
AcDbLine
 10
0.329927
 20
8.1920731707
 30
0.0
 11
10.629927
 21
8.1920731707
 31
0.0
  0
LINE
  5
42
330
1F
100
AcDbEntity
  8
0
  6
CONTINUOUS
 62
     7
100
AcDbLine
 10
0.329927
 20
8.1920731707
 30
0.0
 11
0.329927
 21
0.3920731707
 31
0.0
  0
LINE
  5
43
330
1F
100
AcDbEntity
  8
0
  6
CONTINUOUS
 62
     7
100
AcDbLine
 10
10.629927
 20
0.3920731707
 30
0.0
 11
0.329927
 21
0.3920731707
 31
0.0
  0
LINE
  5
44
330
1F
100
AcDbEntity
  8
0
  6
CONTINUOUS
 62
     7
100
AcDbLine
 10
10.629927
 20
0.3920731707
 30
0.0
 11
10.629927
 21
8.1920731707
 31
0.0
  0
LINE
  5
45
330
1F
100
AcDbEntity
  8
0
  6
CONTINUOUS
 62
     7
100
AcDbLine
 10
4.7981841288
 20
0.3920731707
 30
0.0
 11
4.7981841288
 21
2.3564211366
 31
0.0
  0
LINE
  5
46
330
1F
100
AcDbEntity
  8
0
  6
CONTINUOUS
 62
     7
100
AcDbLine
 10
2.8210345579
 20
2.3564211366
 30
0.0
 11
10.629927
 21
2.3564211366
 31
0.0
  0
LINE
  5
47
330
1F
100
AcDbEntity
  8
0
  6
CONTINUOUS
 62
     7
100
AcDbLine
 10
6.1796352514
 20
2.3564211366
 30
0.0
 11
6.1796352514
 21
0.3920731707
 31
0.0
  0
LINE
  5
48
330
1F
100
AcDbEntity
  8
0
  6
CONTINUOUS
 62
     7
100
AcDbLine
 10
7.8712070044
 20
2.3564211366
 30
0.0
 11
7.8712070044
 21
0.3920731707
 31
0.0
  0
LINE
  5
49
330
1F
100
AcDbEntity
  8
0
  6
CONTINUOUS
 62
     7
100
AcDbLine
 10
7.8712070044
 20
0.6049590101
 30
0.0
 11
10.629927
 21
0.6049590101
 31
0.0
  0
LINE
  5
4A
330
1F
100
AcDbEntity
  8
0
  6
CONTINUOUS
 62
     7
100
AcDbLine
 10
7.8712070044
 20
1.1119362457
 30
0.0
 11
10.629927
 21
1.1119362457
 31
0.0
  0
LINE
  5
4B
330
1F
100
AcDbEntity
  8
0
  6
CONTINUOUS
 62
     7
100
AcDbLine
 10
7.8712070044
 20
1.9892703708
 30
0.0
 11
10.629927
 21
1.9892703708
 31
0.0
  0
LINE
  5
4C
330
1F
100
AcDbEntity
  8
0
  6
CONTINUOUS
 62
     7
100
AcDbLine
 10
8.266751752
 20
1.1119362457
 30
0.0
 11
8.266751752
 21
0.6049590101
 31
0.0
  0
LINE
  5
4D
330
1F
100
AcDbEntity
  8
0
  6
CONTINUOUS
 62
     7
100
AcDbLine
 10
8.6943435176
 20
0.6049590101
 30
0.0
 11
8.6943435176
 21
0.3920731707
 31
0.0
  0
LINE
  5
4E
330
1F
100
AcDbEntity
  8
0
  6
CONTINUOUS
 62
     7
100
AcDbLine
 10
10.0579917045
 20
1.1119362457
 30
0.0
 11
10.0579917045
 21
0.6049590101
 31
0.0
  0
LINE
  5
4F
330
1F
100
AcDbEntity
  8
0
  6
CONTINUOUS
 62
     7
100
AcDbLine
 10
9.6662556631
 20
0.6049590101
 30
0.0
 11
9.6662556631
 21
0.3920731707
 31
0.0
  0
LINE
  5
50
330
1F
100
AcDbEntity
  8
0
  6
CONTINUOUS
 62
     7
100
AcDbLine
 10
2.8210345579
 20
0.5883479999
 30
0.0
 11
6.1796352514
 21
0.5883479999
 31
0.0
  0
LINE
  5
51
330
1F
100
AcDbEntity
  8
0
  6
CONTINUOUS
 62
     7
100
AcDbLine
 10
6.1796352514
 20
1.7939211366
 30
0.0
 11
7.8712070044
 21
1.7939211366
 31
0.0
  0
LINE
  5
52
330
1F
100
AcDbEntity
  8
0
  6
CONTINUOUS
 62
     7
100
AcDbLine
 10
6.1796352514
 20
1.9814211366
 30
0.0
 11
7.8712070044
 21
1.9814211366
 31
0.0
  0
LINE
  5
53
330
1F
100
AcDbEntity
  8
0
  6
CONTINUOUS
 62
     7
100
AcDbLine
 10
6.1796352514
 20
2.1689211366
 30
0.0
 11
7.8712070044
 21
2.1689211366
 31
0.0
  0
LINE
  5
54
330
1F
100
AcDbEntity
  8
0
  6
CONTINUOUS
 62
     7
100
AcDbLine
 10
7.8712070044
 20
1.2314211366
 30
0.0
 11
6.1796352514
 21
1.2314211366
 31
0.0
  0
LINE
  5
55
330
1F
100
AcDbEntity
  8
0
  6
CONTINUOUS
 62
     7
100
AcDbLine
 10
7.3921580388
 20
2.3564211366
 30
0.0
 11
7.3921580388
 21
1.2314211366
 31
0.0
  0
LINE
  5
56
330
1F
100
AcDbEntity
  8
0
  6
CONTINUOUS
 62
     7
100
AcDbLine
 10
6.9236308342
 20
2.3564211366
 30
0.0
 11
6.9236308342
 21
1.2314211366
 31
0.0
  0
LINE
  5
57
330
1F
100
AcDbEntity
  8
0
  6
CONTINUOUS
 62
     7
100
AcDbLine
 10
4.7981841288
 20
0.8557965305
 30
0.0
 11
6.1796352514
 21
0.8557965305
 31
0.0
  0
LINE
  5
58
330
1F
100
AcDbEntity
  8
0
  6
CONTINUOUS
 62
     7
100
AcDbLine
 10
4.7981841288
 20
1.1257965305
 30
0.0
 11
6.1796352514
 21
1.1257965305
 31
0.0
  0
LINE
  5
59
330
1F
100
AcDbEntity
  8
0
  6
CONTINUOUS
 62
     7
100
AcDbLine
 10
2.8210345579
 20
0.3920731707
 30
0.0
 11
2.8210345579
 21
2.3564211366
 31
0.0
  0
LINE
  5
5A
330
1F
100
AcDbEntity
  8
0
  6
CONTINUOUS
 62
     7
100
AcDbLine
 10
2.8210345579
 20
1.1064211366
 30
0.0
 11
4.7981841288
 21
1.1064211366
 31
0.0
  0
LINE
  5
5B
330
1F
100
AcDbEntity
  8
0
  6
CONTINUOUS
 62
     7
100
AcDbLine
 10
2.8210345579
 20
1.3564211366
 30
0.0
 11
4.7981841288
 21
1.3564211366
 31
0.0
  0
LINE
  5
5C
330
1F
100
AcDbEntity
  8
0
  6
CONTINUOUS
 62
     7
100
AcDbLine
 10
2.8210345579
 20
1.6064211366
 30
0.0
 11
4.7981841288
 21
1.6064211366
 31
0.0
  0
LINE
  5
5D
330
1F
100
AcDbEntity
  8
0
  6
CONTINUOUS
 62
     7
100
AcDbLine
 10
2.8210345579
 20
1.8564211366
 30
0.0
 11
4.7981841288
 21
1.8564211366
 31
0.0
  0
LINE
  5
5E
330
1F
100
AcDbEntity
  8
0
  6
CONTINUOUS
 62
     7
100
AcDbLine
 10
3.8190146875
 20
2.3564211366
 30
0.0
 11
3.8190146875
 21
0.5883479999
 31
0.0
  0
LINE
  5
5F
330
1F
100
AcDbEntity
  8
0
  6
CONTINUOUS
 62
     7
100
AcDbLine
 10
6.1796352514
 20
2.2020813496
 30
0.0
 11
4.7981841288
 21
2.2020813496
 31
0.0
  0
LINE
  5
60
330
1F
100
AcDbEntity
  8
0
  6
CONTINUOUS
 62
     7
100
AcDbLine
 10
7.8712070044
 20
1.6064211366
 30
0.0
 11
6.1796352514
 21
1.6064211366
 31
0.0
  0
LINE
  5
61
330
1F
100
AcDbEntity
  8
0
  6
CONTINUOUS
 62
     7
100
AcDbLine
 10
7.8712070044
 20
1.4189211366
 30
0.0
 11
6.1796352514
 21
1.4189211366
 31
0.0
  0
LINE
  5
62
330
1F
100
AcDbEntity
  8
0
  6
CONTINUOUS
 62
     7
100
AcDbLine
 10
2.8210345579
 20
2.1064211366
 30
0.0
 11
4.7981841288
 21
2.1064211366
 31
0.0
  0
LINE
  5
63
330
1F
100
AcDbEntity
  8
0
  6
CONTINUOUS
 62
     7
100
AcDbLine
 10
4.7981841288
 20
1.3957965305
 30
0.0
 11
6.1796352514
 21
1.3957965305
 31
0.0
  0
LINE
  5
64
330
1F
100
AcDbEntity
  8
0
  6
CONTINUOUS
 62
     7
100
AcDbLine
 10
2.8210345579
 20
0.8564211366
 30
0.0
 11
4.7981841288
 21
0.8564211366
 31
0.0
  0
LINE
  5
65
330
1F
100
AcDbEntity
  8
0
  6
CONTINUOUS
 62
     7
100
AcDbLine
 10
1.1838252943
 20
0.3920731707
 30
0.0
 11
1.1838252943
 21
1.3064211366
 31
0.0
  0
LINE
  5
66
330
1F
100
AcDbEntity
  8
0
  6
CONTINUOUS
 62
     7
100
AcDbLine
 10
2.8210345579
 20
1.3064211366
 30
0.0
 11
1.1838252943
 21
1.3064211366
 31
0.0
  0
LINE
  5
67
330
1F
100
AcDbEntity
  8
0
  6
CONTINUOUS
 62
     7
100
AcDbLine
 10
8.660927
 20
0.3920731707
 30
0.0
 11
8.660927
 21
0.3072739649
 31
0.0
  0
LINE
  5
68
330
1F
100
AcDbEntity
  8
0
  6
CONTINUOUS
 62
     7
100
AcDbLine
 10
6.692177
 20
0.3920731707
 30
0.0
 11
6.692177
 21
0.3072739649
 31
0.0
  0
LINE
  5
69
330
1F
100
AcDbEntity
  8
0
  6
CONTINUOUS
 62
     7
100
AcDbLine
 10
4.723427
 20
0.3920731707
 30
0.0
 11
4.723427
 21
0.3072739649
 31
0.0
  0
LINE
  5
6A
330
1F
100
AcDbEntity
  8
0
  6
CONTINUOUS
 62
     7
100
AcDbLine
 10
2.754677
 20
0.3920731707
 30
0.0
 11
2.754677
 21
0.3072739649
 31
0.0
  0
LINE
  5
6B
330
1F
100
AcDbEntity
  8
0
  6
CONTINUOUS
 62
     7
100
AcDbLine
 10
2.754677
 20
0.3920731707
 30
0.0
 11
2.7672319738
 21
0.3575
 31
0.0
  0
LINE
  5
6C
330
1F
100
AcDbEntity
  8
0
  6
CONTINUOUS
 62
     7
100
AcDbLine
 10
2.7672319738
 20
0.3575
 30
0.0
 11
2.7414258825
 21
0.3575
 31
0.0
  0
LINE
  5
6D
330
1F
100
AcDbEntity
  8
0
  6
CONTINUOUS
 62
     7
100
AcDbLine
 10
2.7414258825
 20
0.3575
 30
0.0
 11
2.754677
 21
0.3920731707
 31
0.0
  0
MTEXT
  5
91
330
1F
100
AcDbEntity
  8
0
  6
CONTINUOUS
 62
     7
100
AcDbMText
 10
4.9775846961
 20
0.5178452352
 30
0.0
 40
0.0625
 41
0.0
 71
     1
 72
     1
  1
DO NOT SCALE DRAWING
  7
SLDTEXTSTYLE0
  0
MTEXT
  5
92
330
1F
100
AcDbEntity
  8
0
  6
CONTINUOUS
 62
     7
100
AcDbMText
 10
8.835934289
 20
0.9417064595
 30
0.0
 40
0.125
 41
0.0
 71
     1
 72
     1
  1
CL5-C34
  7
SLDTEXTSTYLE0
  0
MTEXT
  5
94
330
1F
100
AcDbEntity
  8
0
  6
CONTINUOUS
 62
     7
100
AcDbMText
 10
9.7571278483
 20
0.5524239532
 30
0.0
 40
0.1
 41
0.0
 71
     1
 72
     1
  1
SHEET 1 OF 1
  7
SLDTEXTSTYLE1
  0
MTEXT
  5
95
330
1F
100
AcDbEntity
  8
0
  6
CONTINUOUS
 62
     7
100
AcDbMText
 10
4.8448077858
 20
2.3132954224
 30
0.0
 40
0.07
 41
0.0
 71
     1
 72
     1
  1
UNLESS OTHERWISE SPECIFIED:
  7
SLDTEXTSTYLE0
  0
MTEXT
  5
96
330
1F
100
AcDbEntity
  8
0
  6
CONTINUOUS
 62
     7
100
AcDbMText
 10
7.9586139647
 20
0.5520987879
 30
0.0
 40
0.1
 41
0.0
 71
     1
 72
     1
  1
SCALE: 1:1
  7
SLDTEXTSTYLE0
  0
MTEXT
  5
97
330
1F
100
AcDbEntity
  8
0
  6
CONTINUOUS
 62
     7
100
AcDbMText
 10
8.7023691647
 20
0.5486763345
 30
0.0
 40
0.1
 41
0.0
 71
     1
 72
     1
  1
WEIGHT: 
  7
SLDTEXTSTYLE0
  0
MTEXT
  5
98
330
1F
100
AcDbEntity
  8
0
  6
CONTINUOUS
 62
     7
100
AcDbMText
 10
10.2277580983
 20
1.081966299
 30
0.0
 40
0.1
 41
0.0
 71
     1
 72
     1
  1
REV
  7
SLDTEXTSTYLE0
  0
MTEXT
  5
9A
330
1F
100
AcDbEntity
  8
0
  6
CONTINUOUS
 62
     7
100
AcDbMText
 10
8.2984570898
 20
1.0858725293
 30
0.0
 40
0.1
 41
0.0
 71
     1
 72
     1
  1
DWG.  NO.
  7
SLDTEXTSTYLE2
  0
MTEXT
  5
9B
330
1F
100
AcDbEntity
  8
0
  6
CONTINUOUS
 62
     7
100
AcDbMText
 10
7.9598482632
 20
0.9442140768
 30
0.0
 40
0.25
 41
0.0
 71
     1
 72
     1
  1
A
  7
SLDTEXTSTYLE0
  0
MTEXT
  5
9C
330
1F
100
AcDbEntity
  8
0
  6
CONTINUOUS
 62
     7
100
AcDbMText
 10
7.9519581822
 20
1.0872713483
 30
0.0
 40
0.1
 41
0.0
 71
     1
 72
     1
  1
SIZE
  7
SLDTEXTSTYLE0
  0
MTEXT
  5
9D
330
1F
100
AcDbEntity
  8
0
  6
CONTINUOUS
 62
     7
100
AcDbMText
 10
7.9170704177
 20
1.9547881128
 30
0.0
 40
0.1
 41
0.0
 71
     1
 72
     1
  1
TITLE:
  7
SLDTEXTSTYLE0
  0
MTEXT
  5
9E
330
1F
100
AcDbEntity
  8
0
  6
CONTINUOUS
 62
     7
100
AcDbMText
 10
7.0363774929
 20
2.2906161274
 30
0.0
 40
0.065
 41
0.0
 71
     1
 72
     1
  1
NAME
  7
SLDTEXTSTYLE0
  0
MTEXT
  5
9F
330
1F
100
AcDbEntity
  8
0
  6
CONTINUOUS
 62
     7
100
AcDbMText
 10
7.5281510634
 20
2.2888799118
 30
0.0
 40
0.065
 41
0.0
 71
     1
 72
     1
  1
DATE
  7
SLDTEXTSTYLE0
  0
MTEXT
  5
A0
330
1F
100
AcDbEntity
  8
0
  6
CONTINUOUS
 62
     7
100
AcDbMText
 10
6.2277147029
 20
1.1876913145
 30
0.0
 40
0.065
 41
0.0
 71
     1
 72
     1
  1
COMMENTS:
  7
SLDTEXTSTYLE0
  0
MTEXT
  5
A1
330
1F
100
AcDbEntity
  8
0
  6
CONTINUOUS
 62
     7
100
AcDbMText
 10
6.2268411461
 20
1.3536101679
 30
0.0
 40
0.065
 41
0.0
 71
     1
 72
     1
  1
Q.A.
  7
SLDTEXTSTYLE0
  0
MTEXT
  5
A2
330
1F
100
AcDbEntity
  8
0
  6
CONTINUOUS
 62
     7
100
AcDbMText
 10
6.2284654509
 20
1.5395328424
 30
0.0
 40
0.065
 41
0.0
 71
     1
 72
     1
  1
MFG APPR.
  7
SLDTEXTSTYLE0
  0
MTEXT
  5
A3
330
1F
100
AcDbEntity
  8
0
  6
CONTINUOUS
 62
     7
100
AcDbMText
 10
6.2235171344
 20
1.7267501785
 30
0.0
 40
0.065
 41
0.0
 71
     1
 72
     1
  1
ENG APPR.
  7
SLDTEXTSTYLE0
  0
MTEXT
  5
A4
330
1F
100
AcDbEntity
  8
0
  6
CONTINUOUS
 62
     7
100
AcDbMText
 10
6.2264103951
 20
1.9092699088
 30
0.0
 40
0.065
 41
0.0
 71
     1
 72
     1
  1
CHECKED
  7
SLDTEXTSTYLE0
  0
MTEXT
  5
A5
330
1F
100
AcDbEntity
  8
0
  6
CONTINUOUS
 62
     7
100
AcDbMText
 10
6.2242794356
 20
2.1016301232
 30
0.0
 40
0.065
 41
0.0
 71
     1
 72
     1
  1
DRAWN
  7
SLDTEXTSTYLE0
  0
MTEXT
  5
A6
330
1F
100
AcDbEntity
  8
0
  6
CONTINUOUS
 62
     7
100
AcDbMText
 10
4.8208600979
 20
0.834523235
 30
0.0
 40
0.06
 41
0.0
 71
     1
 72
     1
  1
FINISH
  7
SLDTEXTSTYLE0
  0
MTEXT
  5
A7
330
1F
100
AcDbEntity
  8
0
  6
CONTINUOUS
 62
     7
100
AcDbMText
 10
4.8181240648
 20
1.1028217587
 30
0.0
 40
0.06
 41
0.0
 71
     1
 72
     1
  1
MATERIAL
  7
SLDTEXTSTYLE0
  0
INSERT
  5
AD
330
1F
100
AcDbEntity
  8
0
  6
CONTINUOUS
 62
     7
100
AcDbBlockReference
  2
SW_NOTE_0
 10
4.8231926633
 20
1.2646542947
 30
0.0
  0
INSERT
  5
BD
330
1F
100
AcDbEntity
  8
0
  6
CONTINUOUS
 62
     7
100
AcDbBlockReference
  2
SW_NOTE_1
 10
4.8353339353
 20
2.0049168724
 30
0.0
  0
MTEXT
  5
BE
330
1F
100
AcDbEntity
  8
0
  6
CONTINUOUS
 62
     7
100
AcDbMText
 10
3.5531400086
 20
0.5200091997
 30
0.0
 40
0.0625
 41
0.0
 71
     1
 72
     1
  1
APPLICATION
  7
SLDTEXTSTYLE0
  0
MTEXT
  5
BF
330
1F
100
AcDbEntity
  8
0
  6
CONTINUOUS
 62
     7
100
AcDbMText
 10
4.1005607758
 20
0.7502454275
 30
0.0
 40
0.0625
 41
0.0
 71
     1
 72
     1
  1
USED ON
  7
SLDTEXTSTYLE0
  0
MTEXT
  5
C0
330
1F
100
AcDbEntity
  8
0
  6
CONTINUOUS
 62
     7
100
AcDbMText
 10
3.1040019536
 20
0.7492094783
 30
0.0
 40
0.0625
 41
0.0
 71
     1
 72
     1
  1
NEXT ASSY
  7
SLDTEXTSTYLE0
  0
MTEXT
  5
C1
330
1F
100
AcDbEntity
  8
0
  6
CONTINUOUS
 62
     7
100
AcDbMText
 10
1.3712489489
 20
1.2496672684
 30
0.0
 40
0.06
 41
0.0
 71
     1
 72
     1
  1
PROPRIETARY AND CONFIDENTIAL
  7
SLDTEXTSTYLE0
  0
INSERT
  5
CC
330
1F
100
AcDbEntity
  8
0
  6
CONTINUOUS
 62
     7
100
AcDbBlockReference
  2
SW_NOTE_2
 10
1.2226209074
 20
1.0313492921
 30
0.0
  0
MTEXT
  5
CD
330
1F
100
AcDbEntity
  8
0
  6
CONTINUOUS
 62
     7
100
AcDbMText
 10
1.7387909509
 20
0.3105864247
 30
0.0
 40
0.09375
 41
0.0
 71
     1
 72
     1
  1
5
  7
SLDTEXTSTYLE0
  0
MTEXT
  5
CE
330
1F
100
AcDbEntity
  8
0
  6
CONTINUOUS
 62
     7
100
AcDbMText
 10
3.723800327
 20
0.3137237518
 30
0.0
 40
0.09375
 41
0.0
 71
     1
 72
     1
  1
4
  7
SLDTEXTSTYLE0
  0
MTEXT
  5
CF
330
1F
100
AcDbEntity
  8
0
  6
CONTINUOUS
 62
     7
100
AcDbMText
 10
5.6324457277
 20
0.3116191842
 30
0.0
 40
0.09375
 41
0.0
 71
     1
 72
     1
  1
3
  7
SLDTEXTSTYLE0
  0
MTEXT
  5
D0
330
1F
100
AcDbEntity
  8
0
  6
CONTINUOUS
 62
     7
100
AcDbMText
 10
7.6059721724
 20
0.3124391351
 30
0.0
 40
0.09375
 41
0.0
 71
     1
 72
     1
  1
2
  7
SLDTEXTSTYLE0
  0
MTEXT
  5
D1
330
1F
100
AcDbEntity
  8
0
  6
CONTINUOUS
 62
     7
100
AcDbMText
 10
9.6619921328
 20
0.301372012
 30
0.0
 40
0.09375
 41
0.0
 71
     1
 72
     1
  1
1
  7
SLDTEXTSTYLE0
  0
LINE
  5
D2
330
1F
100
AcDbEntity
  8
0
  6
CONTINUOUS
 62
     7
100
AcDbLine
 10
3.5800088068
 20
3.0893869478
 30
0.0
 11
3.9277778357
 21
3.0893869478
 31
0.0
  0
LINE
  5
D3
330
1F
100
AcDbEntity
  8
0
  6
CONTINUOUS
 62
     7
100
AcDbLine
 10
3.3876597254
 20
3.0893869478
 30
0.0
 11
3.5275153685
 21
3.0893869478
 31
0.0
  0
LINE
  5
D4
330
1F
100
AcDbEntity
  8
0
  6
CONTINUOUS
 62
     7
100
AcDbLine
 10
3.5275153685
 20
4.427969625
 30
0.0
 11
3.3876597254
 21
4.427969625
 31
0.0
  0
LINE
  5
D5
330
1F
100
AcDbEntity
  8
0
  6
CONTINUOUS
 62
     7
100
AcDbLine
 10
3.9277778357
 20
4.427969625
 30
0.0
 11
3.5800088068
 21
4.427969625
 31
0.0
  0
LINE
  5
D6
330
1F
100
AcDbEntity
  8
0
  6
CONTINUOUS
 62
     7
100
AcDbLine
 10
3.9277778357
 20
3.0893869478
 30
0.0
 11
3.9427778357
 21
3.1043869478
 31
0.0
  0
LINE
  5
D7
330
1F
100
AcDbEntity
  8
0
  6
CONTINUOUS
 62
     7
100
AcDbLine
 10
3.9427778357
 20
4.412969625
 30
0.0
 11
3.9277778357
 21
4.427969625
 31
0.0
  0
ARC
  5
D8
330
1F
100
AcDbEntity
  8
0
  6
CONTINUOUS
 62
     7
100
AcDbCircle
 10
3.6521872845
 20
4.240961751
 30
0.0
 40
0.0196850393700789
100
AcDbArc
 50
90.0
 51
136.5738126706
  0
ARC
  5
D9
330
1F
100
AcDbEntity
  8
0
  6
CONTINUOUS
 62
     7
100
AcDbCircle
 10
3.8884077569
 20
4.240961751
 30
0.0
 40
0.0196850393700787
100
AcDbArc
 50
43.8509337974
 51
90.0
  0
LINE
  5
DA
330
1F
100
AcDbEntity
  8
0
  6
CONTINUOUS
 62
     7
100
AcDbLine
 10
3.6915573632
 20
3.7783633258
 30
0.0
 11
3.6915573632
 21
3.738993247
 31
0.0
  0
LINE
  5
DB
330
1F
100
AcDbEntity
  8
0
  6
CONTINUOUS
 62
     7
100
AcDbLine
 10
3.8490376782
 20
3.738993247
 30
0.0
 11
3.8490376782
 21
3.7783633258
 31
0.0
  0
LINE
  5
DC
330
1F
100
AcDbEntity
  8
0
  6
CONTINUOUS
 62
     7
100
AcDbLine
 10
3.2656124813
 20
4.427969625
 30
0.0
 11
3.1257568383
 21
4.427969625
 31
0.0
  0
LINE
  5
DD
330
1F
100
AcDbEntity
  8
0
  6
CONTINUOUS
 62
     7
100
AcDbLine
 10
2.7254943711
 20
3.0893869478
 30
0.0
 11
3.2656124813
 21
3.0893869478
 31
0.0
  0
LINE
  5
DE
330
1F
100
AcDbEntity
  8
0
  6
CONTINUOUS
 62
     7
100
AcDbLine
 10
2.7104943711
 20
3.1043869478
 30
0.0
 11
2.7254943711
 21
3.0893869478
 31
0.0
  0
LINE
  5
DF
330
1F
100
AcDbEntity
  8
0
  6
CONTINUOUS
 62
     7
100
AcDbLine
 10
3.2656124813
 20
3.6208830108
 30
0.0
 11
3.306951064
 21
3.6208830108
 31
0.0
  0
LINE
  5
E0
330
1F
100
AcDbEntity
  8
0
  6
CONTINUOUS
 62
     7
100
AcDbLine
 10
3.306951064
 20
3.896473562
 30
0.0
 11
3.2656124813
 21
3.896473562
 31
0.0
  0
LINE
  5
E1
330
1F
100
AcDbEntity
  8
0
  6
CONTINUOUS
 62
     7
100
AcDbLine
 10
3.3463211428
 20
3.6208830108
 30
0.0
 11
3.3876597254
 21
3.6208830108
 31
0.0
  0
LINE
  5
E2
330
1F
100
AcDbEntity
  8
0
  6
CONTINUOUS
 62
     7
100
AcDbLine
 10
3.3876597254
 20
3.896473562
 30
0.0
 11
3.3463211428
 21
3.896473562
 31
0.0
  0
LINE
  5
E3
330
1F
100
AcDbEntity
  8
0
  6
CONTINUOUS
 62
     7
100
AcDbLine
 10
3.2656124813
 20
4.083481436
 30
0.0
 11
3.306951064
 21
4.083481436
 31
0.0
  0
LINE
  5
E4
330
1F
100
AcDbEntity
  8
0
  6
CONTINUOUS
 62
     7
100
AcDbLine
 10
3.306951064
 20
4.3590719872
 30
0.0
 11
3.2656124813
 21
4.3590719872
 31
0.0
  0
LINE
  5
E5
330
1F
100
AcDbEntity
  8
0
  6
CONTINUOUS
 62
     7
100
AcDbLine
 10
3.3463211428
 20
4.083481436
 30
0.0
 11
3.3876597254
 21
4.083481436
 31
0.0
  0
LINE
  5
E6
330
1F
100
AcDbEntity
  8
0
  6
CONTINUOUS
 62
     7
100
AcDbLine
 10
3.3876597254
 20
4.3590719872
 30
0.0
 11
3.3463211428
 21
4.3590719872
 31
0.0
  0
LINE
  5
E7
330
1F
100
AcDbEntity
  8
0
  6
CONTINUOUS
 62
     7
100
AcDbLine
 10
3.2656124813
 20
3.1582845856
 30
0.0
 11
3.306951064
 21
3.1582845856
 31
0.0
  0
LINE
  5
E8
330
1F
100
AcDbEntity
  8
0
  6
CONTINUOUS
 62
     7
100
AcDbLine
 10
3.306951064
 20
3.4338751368
 30
0.0
 11
3.2656124813
 21
3.4338751368
 31
0.0
  0
LINE
  5
E9
330
1F
100
AcDbEntity
  8
0
  6
CONTINUOUS
 62
     7
100
AcDbLine
 10
3.3463211428
 20
3.1582845856
 30
0.0
 11
3.3876597254
 21
3.1582845856
 31
0.0
  0
LINE
  5
EA
330
1F
100
AcDbEntity
  8
0
  6
CONTINUOUS
 62
     7
100
AcDbLine
 10
3.3876597254
 20
3.4338751368
 30
0.0
 11
3.3463211428
 21
3.4338751368
 31
0.0
  0
LINE
  5
EB
330
1F
100
AcDbEntity
  8
0
  6
CONTINUOUS
 62
     7
100
AcDbLine
 10
3.306951064
 20
3.1238357667
 30
0.0
 11
3.3463211428
 21
3.1238357667
 31
0.0
  0
LINE
  5
EC
330
1F
100
AcDbEntity
  8
0
  6
CONTINUOUS
 62
     7
100
AcDbLine
 10
3.3463211428
 20
4.3935208061
 30
0.0
 11
3.306951064
 21
4.3935208061
 31
0.0
  0
LINE
  5
ED
330
1F
100
AcDbEntity
  8
0
  6
CONTINUOUS
 62
     7
100
AcDbLine
 10
3.3876597254
 20
4.427969625
 30
0.0
 11
3.3876597254
 21
3.0893869478
 31
0.0
  0
SPLINE
  5
EE
330
1F
100
AcDbEntity
  8
0
  6
CONTINUOUS
 62
     7
100
AcDbSpline
210
0.0
220
0.0
230
1.0
 70
     8
 71
     3
 72
    78
 73
    74
 74
     0
 42
0.00000001
 43
0.00000001
 40
-0.0312500000000002
 40
-0.0312500000000002
 40
0.0
 40
0.0
 40
0.03125
 40
0.03125
 40
0.0625
 40
0.0625
 40
0.09375
 40
0.09375
 40
0.1249999999999999
 40
0.1249999999999999
 40
0.1562499999999999
 40
0.1562499999999999
 40
0.1874999999999999
 40
0.1874999999999999
 40
0.2187499999999999
 40
0.2187499999999999
 40
0.2499999999999999
 40
0.2499999999999999
 40
0.2812499999999999
 40
0.2812499999999999
 40
0.3124999999999999
 40
0.3124999999999999
 40
0.3437499999999998
 40
0.3437499999999998
 40
0.3749999999999998
 40
0.3749999999999998
 40
0.4062499999999998
 40
0.4062499999999998
 40
0.4374999999999998
 40
0.4374999999999998
 40
0.4531249999999997
 40
0.4531249999999997
 40
0.4687499999999997
 40
0.4687499999999997
 40
0.4843749999999996
 40
0.4843749999999996
 40
0.4999999999999996
 40
0.4999999999999996
 40
0.5156249999999996
 40
0.5156249999999996
 40
0.5312499999999996
 40
0.5312499999999996
 40
0.5624999999999997
 40
0.5624999999999997
 40
0.5937499999999998
 40
0.5937499999999998
 40
0.6249999999999998
 40
0.6249999999999998
 40
0.6874999999999999
 40
0.6874999999999999
 40
0.7187499999999999
 40
0.7187499999999999
 40
0.7499999999999999
 40
0.7499999999999999
 40
0.7812499999999999
 40
0.7812499999999999
 40
0.8124999999999999
 40
0.8124999999999999
 40
0.8437499999999999
 40
0.8437499999999999
 40
0.8749999999999998
 40
0.8749999999999998
 40
0.9062499999999998
 40
0.9062499999999998
 40
0.9218749999999998
 40
0.9218749999999998
 40
0.9374999999999998
 40
0.9374999999999998
 40
0.9531249999999998
 40
0.9531249999999998
 40
0.9687499999999998
 40
0.9687499999999998
 40
1.0
 40
1.0
 40
1.03125
 40
1.03125
 10
3.780876885887181
 20
4.368940818212392
 30
0.0
 10
3.759718155527594
 20
4.368940818212392
 30
0.0
 10
3.749365937682643
 20
4.368403356937876
 30
0.0
 10
3.729096785876651
 20
4.366258103616129
 30
0.0
 10
3.719165602765683
 20
4.364625522831976
 30
0.0
 10
3.700802566284263
 20
4.360350907325734
 30
0.0
 10
3.692131246513896
 20
4.357656802920804
 30
0.0
 10
3.676513843231599
 20
4.351274873627371
 30
0.0
 10
3.669588322581197
 20
4.347617741696018
 30
0.0
 10
3.65738126626192
 20
4.339279064420682
 30
0.0
 10
3.652218228989085
 20
4.334661985717203
 30
0.0
 10
3.643761008717597
 20
4.324696436754155
 30
0.0
 10
3.640410758724729
 20
4.319266500388416
 30
0.0
 10
3.635510973710324
 20
4.30787846608894
 30
0.0
 10
3.633934691502377
 20
4.301916345405806
 30
0.0
 10
3.632327487184169
 20
4.28944470068175
 30
0.0
 10
3.632311285896405
 20
4.282932528594997
 30
0.0
 10
3.633676294224731
 20
4.269723235715795
 30
0.0
 10
3.635049537728967
 20
4.262980728716128
 30
0.0
 10
3.639082125577417
 20
4.249228279701201
 30
0.0
 10
3.64175287843063
 20
4.242213396229108
 30
0.0
 10
3.648210945276165
 20
4.228287041079895
 30
0.0
 10
3.652008284602023
 20
4.221331163727047
 30
0.0
 10
3.660771509826539
 20
4.207485298495371
 30
0.0
 10
3.665770523626987
 20
4.200552538674584
 30
0.0
 10
3.676959770903272
 20
4.187064373897502
 30
0.0
 10
3.683109784829866
 20
4.180540609250226
 30
0.0
 10
3.696777401560348
 20
4.168159512995026
 30
0.0
 10
3.704381126406501
 20
4.162243047059651
 30
0.0
 10
3.71680957688666
 20
4.154518651050937
 30
0.0
 10
3.721126942191699
 20
4.152130724964446
 30
0.0
 10
3.730184518240128
 20
4.147826681781878
 30
0.0
 10
3.73496312759797
 20
4.145901352402542
 30
0.0
 10
3.744734813444398
 20
4.142761040222886
 30
0.0
 10
3.749748268384214
 20
4.141531297648565
 30
0.0
 10
3.760067289767268
 20
4.139862941137022
 30
0.0
 10
3.765388446692318
 20
4.139436936115431
 30
0.0
 10
3.775846069475294
 20
4.139472012624555
 30
0.0
 10
3.781042809574111
 20
4.13991928023171
 30
0.0
 10
3.791373844353163
 20
4.141646308820483
 30
0.0
 10
3.796460008304946
 20
4.142925052028761
 30
0.0
 10
3.811077739854388
 20
4.147714467242174
 30
0.0
 10
3.82021211565393
 20
4.152250256273786
 30
0.0
 10
3.836673553488727
 20
4.162579307908906
 30
0.0
 10
3.844185091956052
 20
4.16845651782105
 30
0.0
 10
3.857892426008732
 20
4.18094739522065
 30
0.0
 10
3.86399881796603
 20
4.187471916774951
 30
0.0
 10
3.88057306092484
 20
4.207546072185912
 30
0.0
 10
3.889389636434935
 20
4.221738096861351
 30
0.0
 10
3.898995135154811
 20
4.242591027595736
 30
0.0
 10
3.901608108304527
 20
4.24950214918981
 30
0.0
 10
3.905600597810152
 20
4.26322132545693
 30
0.0
 10
3.906974292561639
 20
4.270054344193893
 30
0.0
 10
3.90829277557977
 20
4.283236406225241
 30
0.0
 10
3.908256206919669
 20
4.289630142178942
 30
0.0
 10
3.906633633119562
 20
4.302023946002592
 30
0.0
 10
3.905019872351726
 20
4.308076914790568
 30
0.0
 10
3.900088928388922
 20
4.31943724988728
 30
0.0
 10
3.896789291242901
 20
4.324762078926711
 30
0.0
 10
3.888308356549151
 20
4.334729555618754
 30
0.0
 10
3.883071879913296
 20
4.33938486977874
 30
0.0
 10
3.870995781015162
 20
4.347616223943064
 30
0.0
 10
3.864119403488563
 20
4.351256695889052
 30
0.0
 10
3.852402835067681
 20
4.356048418976414
 30
0.0
 10
3.848245339036184
 20
4.357535584485081
 30
0.0
 10
3.839687085979218
 20
4.360207279339941
 30
0.0
 10
3.83525927056403
 20
4.361404432439669
 30
0.0
 10
3.826105345116799
 20
4.363538752271097
 30
0.0
 10
3.821379296055344
 20
4.364475941007795
 30
0.0
 10
3.811616854988353
 20
4.366095677806089
 30
0.0
 10
3.806550873262032
 20
4.366779912430483
 30
0.0
 10
3.791275681059357
 20
4.368402004536577
 30
0.0
 10
3.780876885887181
 20
4.368940818212392
 30
0.0
 10
3.759718155527594
 20
4.368940818212392
 30
0.0
  0
SPLINE
  5
EF
330
1F
100
AcDbEntity
  8
0
  6
CONTINUOUS
 62
     7
100
AcDbSpline
210
0.0
220
0.0
230
1.0
 70
     8
 71
     3
 72
    60
 73
    56
 74
     0
 42
0.00000001
 43
0.00000001
 40
-0.0312499999999999
 40
-0.0312499999999999
 40
0.0
 40
0.0
 40
0.03125
 40
0.03125
 40
0.0625
 40
0.0625
 40
0.0937500000000001
 40
0.0937500000000001
 40
0.1250000000000001
 40
0.1250000000000001
 40
0.1875000000000001
 40
0.1875000000000001
 40
0.2187500000000004
 40
0.2187500000000004
 40
0.2500000000000007
 40
0.2500000000000007
 40
0.3125000000000007
 40
0.3125000000000007
 40
0.3750000000000007
 40
0.3750000000000007
 40
0.4062500000000007
 40
0.4062500000000007
 40
0.4375000000000006
 40
0.4375000000000006
 40
0.4687500000000006
 40
0.4687500000000006
 40
0.5000000000000006
 40
0.5000000000000006
 40
0.5312500000000006
 40
0.5312500000000006
 40
0.5625000000000006
 40
0.5625000000000006
 40
0.5937500000000007
 40
0.5937500000000007
 40
0.6250000000000007
 40
0.6250000000000007
 40
0.6562500000000007
 40
0.6562500000000007
 40
0.6875000000000007
 40
0.6875000000000007
 40
0.7500000000000007
 40
0.7500000000000007
 40
0.8125000000000006
 40
0.8125000000000006
 40
0.8437500000000004
 40
0.8437500000000004
 40
0.8750000000000003
 40
0.8750000000000003
 40
0.9062500000000002
 40
0.9062500000000002
 40
0.9375000000000002
 40
0.9375000000000002
 40
0.9687500000000001
 40
0.9687500000000001
 40
1.0
 40
1.0
 40
1.03125
 40
1.03125
 10
3.764316269216994
 20
3.30424162587293
 30
0.0
 10
3.77627877219778
 20
3.30424162587293
 30
0.0
 10
3.78206816441807
 20
3.303512501199159
 30
0.0
 10
3.793308502191145
 20
3.300783686531306
 30
0.0
 10
3.798641526042843
 20
3.298798043090058
 30
0.0
 10
3.808441879136978
 20
3.29401897157917
 30
0.0
 10
3.812972779286611
 20
3.291195961818943
 30
0.0
 10
3.821082595610706
 20
3.285146263052517
 30
0.0
 10
3.824722948251313
 20
3.281888610483497
 30
0.0
 10
3.834582925821373
 20
3.271576004082216
 30
0.0
 10
3.839497663997397
 20
3.264290126834464
 30
0.0
 10
3.844754593498317
 20
3.253133708479704
 30
0.0
 10
3.846146791817235
 20
3.249351743882825
 30
0.0
 10
3.848132605811672
 20
3.241912480757829
 30
0.0
 10
3.848740896828533
 20
3.238229684208209
 30
0.0
 10
3.849378364739148
 20
3.227296123739071
 30
0.0
 10
3.848186522959982
 20
3.220121730305801
 30
0.0
 10
3.842189067387667
 20
3.206966513272572
 30
0.0
 10
3.837288596487941
 20
3.200822938740905
 30
0.0
 10
3.827078242480092
 20
3.19304469724814
 30
0.0
 10
3.823124911420729
 20
3.190640152605314
 30
0.0
 10
3.814467902667083
 20
3.186477923008828
 30
0.0
 10
3.809752030425143
 20
3.184695183978733
 30
0.0
 10
3.799466556060163
 20
3.181737898228849
 30
0.0
 10
3.793913878712879
 20
3.180583953708466
 30
0.0
 10
3.782588454014336
 20
3.179044693729981
 30
0.0
 10
3.776647211256955
 20
3.178634847655531
 30
0.0
 10
3.764810433597102
 20
3.178597527221984
 30
0.0
 10
3.758968953797926
 20
3.178956925462193
 30
0.0
 10
3.747439651885677
 20
3.180443822809916
 30
0.0
 10
3.741927058934948
 20
3.181553953322121
 30
0.0
 10
3.731565675286423
 20
3.184448005270704
 30
0.0
 10
3.726679138143699
 20
3.186252677156086
 30
0.0
 10
3.717922706971913
 20
3.190386776365717
 30
0.0
 10
3.713952886586135
 20
3.192758470699669
 30
0.0
 10
3.707025576640595
 20
3.197948476263134
 30
0.0
 10
3.70407472946403
 20
3.200748199814729
 30
0.0
 10
3.699090335298979
 20
3.206754782269252
 30
0.0
 10
3.697076915588719
 20
3.209952300878329
 30
0.0
 10
3.692474476928985
 20
3.219844992349715
 30
0.0
 10
3.691238512820512
 20
3.227021125456575
 30
0.0
 10
3.692016318466367
 20
3.241638444998638
 30
0.0
 10
3.69403465242853
 20
3.249245166529226
 30
0.0
 10
3.699237988456296
 20
3.260371120486429
 30
0.0
 10
3.701335775222979
 20
3.264047246144849
 30
0.0
 10
3.706311701395591
 20
3.271307086238924
 30
0.0
 10
3.709213904288604
 20
3.274912063821509
 30
0.0
 10
3.715735221134696
 20
3.281757739946206
 30
0.0
 10
3.719362987932849
 20
3.285022669371263
 30
0.0
 10
3.727510022281034
 20
3.291123953872417
 30
0.0
 10
3.732037995511378
 20
3.293951762293968
 30
0.0
 10
3.741804215919932
 20
3.298735992216852
 30
0.0
 10
3.747176659276973
 20
3.300746852080882
 30
0.0
 10
3.758388502318762
 20
3.303488844471385
 30
0.0
 10
3.764316269216994
 20
3.30424162587293
 30
0.0
 10
3.77627877219778
 20
3.30424162587293
 30
0.0
  0
LINE
  5
F0
330
1F
100
AcDbEntity
  8
0
  6
CONTINUOUS
 62
     7
100
AcDbLine
 10
3.5800088068
 20
3.738993247
 30
0.0
 11
3.5800088068
 21
3.0893869478
 31
0.0
  0
LINE
  5
F1
330
1F
100
AcDbEntity
  8
0
  6
CONTINUOUS
 62
     7
100
AcDbLine
 10
3.9277778357
 20
3.738993247
 30
0.0
 11
3.5800088068
 21
3.738993247
 31
0.0
  0
LINE
  5
F2
330
1F
100
AcDbEntity
  8
0
  6
CONTINUOUS
 62
     7
100
AcDbLine
 10
3.9277778357
 20
3.7783633258
 30
0.0
 11
3.9277778357
 21
4.427969625
 31
0.0
  0
LINE
  5
F3
330
1F
100
AcDbEntity
  8
0
  6
CONTINUOUS
 62
     7
100
AcDbLine
 10
3.9277778357
 20
3.0893869478
 30
0.0
 11
3.9277778357
 21
3.738993247
 31
0.0
  0
LINE
  5
F4
330
1F
100
AcDbEntity
  8
0
  6
CONTINUOUS
 62
     7
100
AcDbLine
 10
3.9277778357
 20
3.7783633258
 30
0.0
 11
3.5800088068
 21
3.7783633258
 31
0.0
  0
LINE
  5
F5
330
1F
100
AcDbEntity
  8
0
  6
CONTINUOUS
 62
     7
100
AcDbLine
 10
3.5800088068
 20
4.427969625
 30
0.0
 11
3.5800088068
 21
3.7783633258
 31
0.0
  0
LINE
  5
F6
330
1F
100
AcDbEntity
  8
0
  6
CONTINUOUS
 62
     7
100
AcDbLine
 10
3.5275153685
 20
4.3640532594
 30
0.0
 11
3.5800088068
 21
4.3640532594
 31
0.0
  0
LINE
  5
F7
330
1F
100
AcDbEntity
  8
0
  6
CONTINUOUS
 62
     7
100
AcDbLine
 10
3.5275153685
 20
3.0893869478
 30
0.0
 11
3.5275153685
 21
4.427969625
 31
0.0
  0
LINE
  5
F8
330
1F
100
AcDbEntity
  8
0
  6
CONTINUOUS
 62
     7
100
AcDbLine
 10
3.5800088068
 20
3.1533033134
 30
0.0
 11
3.5275153685
 21
3.1533033134
 31
0.0
  0
LINE
  5
F9
330
1F
100
AcDbEntity
  8
0
  6
CONTINUOUS
 62
     7
100
AcDbLine
 10
3.9427778357
 20
3.738993247
 30
0.0
 11
3.9427778357
 21
3.1043869478
 31
0.0
  0
LINE
  5
FA
330
1F
100
AcDbEntity
  8
0
  6
CONTINUOUS
 62
     7
100
AcDbLine
 10
3.9427778357
 20
4.412969625
 30
0.0
 11
3.9427778357
 21
3.7783633258
 31
0.0
  0
LINE
  5
FB
330
1F
100
AcDbEntity
  8
0
  6
CONTINUOUS
 62
     7
100
AcDbLine
 10
3.9277778357
 20
3.7783633258
 30
0.0
 11
3.9427778357
 21
3.7783633258
 31
0.0
  0
LINE
  5
FC
330
1F
100
AcDbEntity
  8
0
  6
CONTINUOUS
 62
     7
100
AcDbLine
 10
3.9277778357
 20
3.738993247
 30
0.0
 11
3.9427778357
 21
3.738993247
 31
0.0
  0
SPLINE
  5
FD
330
1F
100
AcDbEntity
  8
0
  6
CONTINUOUS
 62
     7
100
AcDbSpline
210
0.0
220
0.0
230
1.0
 70
     8
 71
     3
 72
     8
 73
     4
 74
     0
 42
0.00000001
 43
0.00000001
 40
0.0
 40
0.0
 40
0.0
 40
0.0
 40
1.0
 40
1.0
 40
1.0
 40
1.0
 10
3.615112472276569
 20
3.778363325762126
 30
0.0
 10
3.615898036434454
 20
3.765239966182074
 30
0.0
 10
3.615898036434454
 20
3.752116606602021
 30
0.0
 10
3.615112472276569
 20
3.738993247021968
 30
0.0
  0
LINE
  5
FE
330
1F
100
AcDbEntity
  8
0
  6
CONTINUOUS
 62
     7
100
AcDbLine
 10
3.5800088068
 20
3.7783633258
 30
0.0
 11
3.5800088068
 21
3.738993247
 31
0.0
  0
LINE
  5
FF
330
1F
100
AcDbEntity
  8
0
  6
CONTINUOUS
 62
     7
100
AcDbLine
 10
3.9427778357
 20
3.7783633258
 30
0.0
 11
3.9427778357
 21
3.738993247
 31
0.0
  0
LINE
  5
100
330
1F
100
AcDbEntity
  8
0
  6
CONTINUOUS
 62
     7
100
AcDbLine
 10
3.7702975207
 20
4.2606467903
 30
0.0
 11
3.8884077569
 21
4.2606467903
 31
0.0
  0
LINE
  5
101
330
1F
100
AcDbEntity
  8
0
  6
CONTINUOUS
 62
     7
100
AcDbLine
 10
3.6521872845
 20
4.2606467903
 30
0.0
 11
3.7702975207
 21
4.2606467903
 31
0.0
  0
CIRCLE
  5
102
330
1F
100
AcDbEntity
  8
0
  6
CONTINUOUS
 62
     7
100
AcDbCircle
 10
2.8829746861
 20
4.1713017595
 30
0.0
 40
0.0590551181102361
  0
LINE
  5
103
330
1F
100
AcDbEntity
  8
0
  6
CONTINUOUS
 62
     7
100
AcDbLine
 10
3.2656124813
 20
4.427969625
 30
0.0
 11
3.2656124813
 21
3.0893869478
 31
0.0
  0
SPLINE
  5
104
330
1F
100
AcDbEntity
  8
0
  6
CONTINUOUS
 62
     7
100
AcDbSpline
210
0.0
220
0.0
230
1.0
 70
     8
 71
     3
 72
    60
 73
    56
 74
     0
 42
0.00000001
 43
0.00000001
 40
-0.0312500000000001
 40
-0.0312500000000001
 40
0.0
 40
0.0
 40
0.0312500000000002
 40
0.0312500000000002
 40
0.0625000000000003
 40
0.0625000000000003
 40
0.0937500000000005
 40
0.0937500000000005
 40
0.1250000000000007
 40
0.1250000000000007
 40
0.1875000000000006
 40
0.1875000000000006
 40
0.2187500000000006
 40
0.2187500000000006
 40
0.2500000000000006
 40
0.2500000000000006
 40
0.3125000000000007
 40
0.3125000000000007
 40
0.3750000000000009
 40
0.3750000000000009
 40
0.4062500000000008
 40
0.4062500000000008
 40
0.4375000000000007
 40
0.4375000000000007
 40
0.4687500000000006
 40
0.4687500000000006
 40
0.5000000000000004
 40
0.5000000000000004
 40
0.5312500000000004
 40
0.5312500000000004
 40
0.5625000000000002
 40
0.5625000000000002
 40
0.5937500000000002
 40
0.5937500000000002
 40
0.6250000000000001
 40
0.6250000000000001
 40
0.6562500000000001
 40
0.6562500000000001
 40
0.6875
 40
0.6875
 40
0.7499999999999998
 40
0.7499999999999998
 40
0.8124999999999997
 40
0.8124999999999997
 40
0.8437499999999997
 40
0.8437499999999997
 40
0.8749999999999998
 40
0.8749999999999998
 40
0.9062499999999998
 40
0.9062499999999998
 40
0.9374999999999999
 40
0.9374999999999999
 40
0.9687499999999999
 40
0.9687499999999999
 40
1.0
 40
1.0
 40
1.03125
 40
1.03125
 10
2.888955937552111
 20
4.250041916993689
 30
0.0
 10
2.876993434571324
 20
4.250041916993688
 30
0.0
 10
2.871204042351035
 20
4.249370129928505
 30
0.0
 10
2.85996370457796
 20
4.246824691420127
 30
0.0
 10
2.854630680726262
 20
4.244962129682236
 30
0.0
 10
2.844830327632127
 20
4.240397639939525
 30
0.0
 10
2.840299427482494
 20
4.237666033286861
 30
0.0
 10
2.832189611158399
 20
4.231686117548798
 30
0.0
 10
2.828549258517793
 20
4.228408907594865
 30
0.0
 10
2.818689280947733
 20
4.217785773869036
 30
0.0
 10
2.813774542771708
 20
4.209962667395205
 30
0.0
 10
2.808517613270788
 20
4.197320695287734
 30
0.0
 10
2.807125414951871
 20
4.192925817415635
 30
0.0
 10
2.805139600957432
 20
4.18404583009008
 30
0.0
 10
2.804531309940571
 20
4.179532757615975
 30
0.0
 10
2.803893842029957
 20
4.165767027781439
 30
0.0
 10
2.805085683809123
 20
4.156216042454099
 30
0.0
 10
2.811083139381438
 20
4.137747608547892
 30
0.0
 10
2.815983610281164
 20
4.128597601114866
 30
0.0
 10
2.826193964289013
 20
4.116494631512725
 30
0.0
 10
2.830147295348376
 20
4.112654780658176
 30
0.0
 10
2.838804304102021
 20
4.105886327878655
 30
0.0
 10
2.843520176343962
 20
4.102920468063838
 30
0.0
 10
2.853805650708942
 20
4.097940824854909
 30
0.0
 10
2.859358328056226
 20
4.095961830722025
 30
0.0
 10
2.870683752754768
 20
4.093309643282481
 30
0.0
 10
2.87662499551215
 20
4.092595201925962
 30
0.0
 10
2.888461773172003
 20
4.092530364626779
 30
0.0
 10
2.894303252971178
 20
4.093157337728588
 30
0.0
 10
2.905832554883428
 20
4.095721306238534
 30
0.0
 10
2.911345147834157
 20
4.097627320910976
 30
0.0
 10
2.921706531482683
 20
4.102507499906583
 30
0.0
 10
2.926593068625406
 20
4.105514593374243
 30
0.0
 10
2.935349499797192
 20
4.112247602908913
 30
0.0
 10
2.939319320182971
 20
4.116041900459142
 30
0.0
 10
2.946246630128511
 20
4.124131526198707
 30
0.0
 10
2.949197477305074
 20
4.128399496201341
 30
0.0
 10
2.954181871470126
 20
4.137307656737028
 30
0.0
 10
2.956195291180386
 20
4.141931548547066
 30
0.0
 10
2.960797729840119
 20
4.155842073824855
 30
0.0
 10
2.962033693948594
 20
4.165408987810619
 30
0.0
 10
2.961255888302738
 20
4.183835907354306
 30
0.0
 10
2.959237554340575
 20
4.192906998591242
 30
0.0
 10
2.954034218312809
 20
4.205525362986815
 30
0.0
 10
2.951936431546127
 20
4.20958799104489
 30
0.0
 10
2.946960505373514
 20
4.217425211163694
 30
0.0
 10
2.944058302480502
 20
4.221220498553008
 30
0.0
 10
2.937536985634409
 20
4.228275825257747
 30
0.0
 10
2.933909218836256
 20
4.23156269004705
 30
0.0
 10
2.925762184488072
 20
4.237596075681201
 30
0.0
 10
2.921234211257727
 20
4.240332829191487
 30
0.0
 10
2.911467990849173
 20
4.244903467587425
 30
0.0
 10
2.906095547492132
 20
4.24679017203301
 30
0.0
 10
2.894883704450343
 20
4.249348219644751
 30
0.0
 10
2.888955937552111
 20
4.250041916993689
 30
0.0
 10
2.876993434571324
 20
4.250041916993688
 30
0.0
  0
LINE
  5
105
330
1F
100
AcDbEntity
  8
0
  6
CONTINUOUS
 62
     7
100
AcDbLine
 10
2.7254943711
 20
3.0893869478
 30
0.0
 11
2.7254943711
 21
4.4276800765
 31
0.0
  0
LINE
  5
106
330
1F
100
AcDbEntity
  8
0
  6
CONTINUOUS
 62
     7
100
AcDbLine
 10
2.7254943711
 20
4.4276800765
 30
0.0
 11
3.0732634
 21
4.4276800765
 31
0.0
  0
LINE
  5
107
330
1F
100
AcDbEntity
  8
0
  6
CONTINUOUS
 62
     7
100
AcDbLine
 10
3.0732634
 20
3.4732452155
 30
0.0
 11
3.1257568383
 21
3.4732452155
 31
0.0
  0
LINE
  5
108
330
1F
100
AcDbEntity
  8
0
  6
CONTINUOUS
 62
     7
100
AcDbLine
 10
3.0732634
 20
4.4276800765
 30
0.0
 11
3.0732634
 21
3.4732452155
 31
0.0
  0
LINE
  5
109
330
1F
100
AcDbEntity
  8
0
  6
CONTINUOUS
 62
     7
100
AcDbLine
 10
3.1257568383
 20
3.4732452155
 30
0.0
 11
3.1257568383
 21
4.427969625
 31
0.0
  0
LINE
  5
10A
330
1F
100
AcDbEntity
  8
0
  6
CONTINUOUS
 62
     7
100
AcDbLine
 10
2.7104943711
 20
4.4126734354
 30
0.0
 11
2.7104943711
 21
3.1043869478
 31
0.0
  0
LINE
  5
10B
330
1F
100
AcDbEntity
  8
0
  6
CONTINUOUS
 62
     7
100
AcDbLine
 10
2.7254943711
 20
4.4276800765
 30
0.0
 11
2.7104943711
 21
4.4126734354
 31
0.0
  0
LINE
  5
10C
330
1F
100
AcDbEntity
  8
0
  6
CONTINUOUS
 62
     7
100
AcDbLine
 10
3.3463211428
 20
3.8804732536
 30
0.0
 11
3.306951064
 21
3.8804732536
 31
0.0
  0
LINE
  5
10D
330
1F
100
AcDbEntity
  8
0
  6
CONTINUOUS
 62
     7
100
AcDbLine
 10
3.3463211428
 20
3.6368833192
 30
0.0
 11
3.306951064
 21
3.6368833192
 31
0.0
  0
LINE
  5
10E
330
1F
100
AcDbEntity
  8
0
  6
CONTINUOUS
 62
     7
100
AcDbLine
 10
3.306951064
 20
3.8804732536
 30
0.0
 11
3.306951064
 21
3.6368833192
 31
0.0
  0
LINE
  5
10F
330
1F
100
AcDbEntity
  8
0
  6
CONTINUOUS
 62
     7
100
AcDbLine
 10
3.3463211428
 20
3.8804732536
 30
0.0
 11
3.3463211428
 21
3.6368833192
 31
0.0
  0
LINE
  5
110
330
1F
100
AcDbEntity
  8
0
  6
CONTINUOUS
 62
     7
100
AcDbLine
 10
3.3463211428
 20
3.174284894
 30
0.0
 11
3.306951064
 21
3.174284894
 31
0.0
  0
LINE
  5
111
330
1F
100
AcDbEntity
  8
0
  6
CONTINUOUS
 62
     7
100
AcDbLine
 10
3.306951064
 20
3.6368833192
 30
0.0
 11
3.306951064
 21
3.174284894
 31
0.0
  0
LINE
  5
112
330
1F
100
AcDbEntity
  8
0
  6
CONTINUOUS
 62
     7
100
AcDbLine
 10
3.3463211428
 20
3.6368833192
 30
0.0
 11
3.3463211428
 21
3.174284894
 31
0.0
  0
LINE
  5
113
330
1F
100
AcDbEntity
  8
0
  6
CONTINUOUS
 62
     7
100
AcDbLine
 10
3.3463211428
 20
4.3430716788
 30
0.0
 11
3.306951064
 21
4.3430716788
 31
0.0
  0
LINE
  5
114
330
1F
100
AcDbEntity
  8
0
  6
CONTINUOUS
 62
     7
100
AcDbLine
 10
3.306951064
 20
4.3430716788
 30
0.0
 11
3.306951064
 21
3.8804732536
 31
0.0
  0
LINE
  5
115
330
1F
100
AcDbEntity
  8
0
  6
CONTINUOUS
 62
     7
100
AcDbLine
 10
3.3463211428
 20
4.3430716788
 30
0.0
 11
3.3463211428
 21
3.8804732536
 31
0.0
  0
LINE
  5
116
330
1F
100
AcDbEntity
  8
0
  6
CONTINUOUS
 62
     7
100
AcDbLine
 10
3.306951064
 20
3.174284894
 30
0.0
 11
3.306951064
 21
3.1238357667
 31
0.0
  0
LINE
  5
117
330
1F
100
AcDbEntity
  8
0
  6
CONTINUOUS
 62
     7
100
AcDbLine
 10
3.3463211428
 20
3.174284894
 30
0.0
 11
3.3463211428
 21
3.1238357667
 31
0.0
  0
LINE
  5
118
330
1F
100
AcDbEntity
  8
0
  6
CONTINUOUS
 62
     7
100
AcDbLine
 10
3.306951064
 20
4.3935208061
 30
0.0
 11
3.306951064
 21
4.3430716788
 31
0.0
  0
LINE
  5
119
330
1F
100
AcDbEntity
  8
0
  6
CONTINUOUS
 62
     7
100
AcDbLine
 10
3.3463211428
 20
4.3935208061
 30
0.0
 11
3.3463211428
 21
4.3430716788
 31
0.0
  0
LINE
  5
11A
330
1F
100
AcDbEntity
  8
0
  6
CONTINUOUS
 62
     8
100
AcDbLine
 10
3.7702975207
 20
4.240961751
 30
0.0
 11
3.6420936817
 21
4.240961751
 31
0.0
  0
LINE
  5
11B
330
1F
100
AcDbEntity
  8
0
  6
CONTINUOUS
 62
     8
100
AcDbLine
 10
3.8982676399
 20
4.240961751
 30
0.0
 11
3.7702975207
 21
4.240961751
 31
0.0
  0
LINE
  5
11C
330
1F
100
AcDbEntity
  8
0
  6
HIDDEN
 62
     7
100
AcDbLine
 10
3.9277778357
 20
3.7783633258
 30
0.0
 11
3.9277778357
 21
3.738993247
 31
0.0
  0
LINE
  5
11D
330
1F
100
AcDbEntity
  8
0
  6
HIDDEN
 62
     7
100
AcDbLine
 10
3.7702975207
 20
4.1031664754
 30
0.0
 11
3.9080927963
 21
4.1031664754
 31
0.0
  0
LINE
  5
11E
330
1F
100
AcDbEntity
  8
0
  6
HIDDEN
 62
     7
100
AcDbLine
 10
3.6325022451
 20
4.1031664754
 30
0.0
 11
3.7702975207
 21
4.1031664754
 31
0.0
  0
LINE
  5
11F
330
1F
100
AcDbEntity
  8
0
  6
HIDDEN
 62
     7
100
AcDbLine
 10
3.8490376782
 20
3.364977499
 30
0.0
 11
3.6915573632
 21
3.364977499
 31
0.0
  0
LINE
  5
120
330
1F
100
AcDbEntity
  8
0
  6
HIDDEN
 62
     7
100
AcDbLine
 10
3.8293526388
 20
3.3452924596
 30
0.0
 11
3.7112424026
 21
3.3452924596
 31
0.0
  0
LINE
  5
121
330
1F
100
AcDbEntity
  8
0
  6
HIDDEN
 62
     7
100
AcDbLine
 10
3.7702975207
 20
4.1031664754
 30
0.0
 11
3.7702975207
 21
4.2606467903
 31
0.0
  0
LINE
  5
122
330
1F
100
AcDbEntity
  8
0
  6
HIDDEN
 62
     7
100
AcDbLine
 10
3.8293526388
 20
4.1031664754
 30
0.0
 11
3.8293526388
 21
4.2606467903
 31
0.0
  0
LINE
  5
123
330
1F
100
AcDbEntity
  8
0
  6
HIDDEN
 62
     7
100
AcDbLine
 10
3.7112424026
 20
4.1031664754
 30
0.0
 11
3.7112424026
 21
4.2606467903
 31
0.0
  0
LINE
  5
124
330
1F
100
AcDbEntity
  8
0
  6
HIDDEN
 62
     7
100
AcDbLine
 10
2.9617148435
 20
4.1713017595
 30
0.0
 11
2.9614063355
 21
4.1782651466
 31
0.0
  0
ARC
  5
125
330
1F
100
AcDbEntity
  8
0
  6
HIDDEN
 62
     7
100
AcDbCircle
 10
2.8829746861
 20
4.1713017595
 30
0.0
 40
0.0787401574803155
100
AcDbArc
 50
86.6451652533
 51
101.6318204524
  0
LINE
  5
126
330
1F
100
AcDbEntity
  8
0
  6
HIDDEN
 62
     7
100
AcDbLine
 10
2.88004828
 20
4.0926160013
 30
0.0
 11
2.8829746861
 21
4.092561602
 31
0.0
  0
LINE
  5
127
330
1F
100
AcDbEntity
  8
0
  6
HIDDEN
 62
     7
100
AcDbLine
 10
2.8829746861
 20
4.1031107828
 30
0.0
 11
2.9420298042
 21
4.1372062712
 31
0.0
  0
LINE
  5
128
330
1F
100
AcDbEntity
  8
0
  6
HIDDEN
 62
     7
100
AcDbLine
 10
2.823919568
 20
4.1372062712
 30
0.0
 11
2.8829746861
 21
4.1031107828
 31
0.0
  0
LINE
  5
129
330
1F
100
AcDbEntity
  8
0
  6
HIDDEN
 62
     7
100
AcDbLine
 10
2.823919568
 20
4.2053972479
 30
0.0
 11
2.823919568
 21
4.1372062712
 31
0.0
  0
LINE
  5
12A
330
1F
100
AcDbEntity
  8
0
  6
HIDDEN
 62
     7
100
AcDbLine
 10
2.9420298042
 20
4.1372062712
 30
0.0
 11
2.9420298042
 21
4.2053972479
 31
0.0
  0
LINE
  5
12B
330
1F
100
AcDbEntity
  8
0
  6
HIDDEN
 62
     7
100
AcDbLine
 10
2.8829746861
 20
4.2394927362
 30
0.0
 11
2.823919568
 21
4.2053972479
 31
0.0
  0
LINE
  5
12C
330
1F
100
AcDbEntity
  8
0
  6
HIDDEN
 62
     7
100
AcDbLine
 10
2.9420298042
 20
4.2053972479
 30
0.0
 11
2.8829746861
 21
4.2394927362
 31
0.0
  0
CIRCLE
  5
12D
330
1F
100
AcDbEntity
  8
0
  6
HIDDEN
 62
     7
100
AcDbCircle
 10
2.8829746861
 20
4.1713017595
 30
0.0
 40
0.1377952755905509
  0
CIRCLE
  5
12E
330
1F
100
AcDbEntity
  8
0
  6
HIDDEN
 62
     7
100
AcDbCircle
 10
2.8829746861
 20
4.1713017595
 30
0.0
 40
0.1181102362204731
  0
LINE
  5
12F
330
1F
100
AcDbEntity
  8
0
  6
HIDDEN
 62
     7
100
AcDbLine
 10
2.7254943711
 20
3.6024331302
 30
0.0
 11
3.0381597345
 21
3.6024331302
 31
0.0
  0
LINE
  5
130
330
1F
100
AcDbEntity
  8
0
  6
HIDDEN
 62
     7
100
AcDbLine
 10
3.0732634
 20
3.9149234426
 30
0.0
 11
2.7254943711
 21
3.9149234426
 31
0.0
  0
LINE
  5
131
330
1F
100
AcDbEntity
  8
0
  6
HIDDEN
 62
     7
100
AcDbLine
 10
3.3463211428
 20
3.174284894
 30
0.0
 11
3.306951064
 21
3.174284894
 31
0.0
  0
LINE
  5
132
330
1F
100
AcDbEntity
  8
0
  6
HIDDEN
 62
     7
100
AcDbLine
 10
3.3463211428
 20
4.3430716788
 30
0.0
 11
3.306951064
 21
4.3430716788
 31
0.0
  0
ARC
  5
133
330
1F
100
AcDbEntity
  8
0
  6
HIDDEN
 62
     7
100
AcDbCircle
 10
2.7104943711
 20
3.758114786
 30
0.0
 40
0.3627690288713917
100
AcDbArc
 50
270.0
 51
334.5864885796
  0
SPLINE
  5
134
330
1F
100
AcDbEntity
  8
0
  6
HIDDEN
 62
     7
100
AcDbSpline
210
0.0
220
0.0
230
1.0
 70
     8
 71
     3
 72
     8
 73
     4
 74
     0
 42
0.00000001
 43
0.00000001
 40
0.0
 40
0.0
 40
0.0
 40
0.0
 40
1.0
 40
1.0
 40
1.0
 40
1.0
 10
2.725494371101087
 20
3.602433130226815
 30
0.0
 10
2.720496107294235
 20
3.597395353838234
 30
0.0
 10
2.715495953027459
 20
3.592359449855291
 30
0.0
 10
2.710494371101087
 20
3.58732497223117
 30
0.0
  0
SPLINE
  5
135
330
1F
100
AcDbEntity
  8
0
  6
HIDDEN
 62
     7
100
AcDbSpline
210
0.0
220
0.0
230
1.0
 70
     8
 71
     3
 72
     8
 73
     4
 74
     0
 42
0.00000001
 43
0.00000001
 40
0.0
 40
0.0
 40
0.0
 40
0.0
 40
1.0
 40
1.0
 40
1.0
 40
1.0
 10
2.710494371101088
 20
3.930031600552924
 30
0.0
 10
2.715495953126386
 20
3.924997122829226
 30
0.0
 10
2.720496110060444
 20
3.919961216157783
 30
0.0
 10
2.725494371101087
 20
3.914923442557279
 30
0.0
  0
LINE
  5
136
330
1F
100
AcDbEntity
  8
0
  6
HIDDEN
 62
     7
100
AcDbLine
 10
3.3463211428
 20
3.8804732536
 30
0.0
 11
3.306951064
 21
3.8804732536
 31
0.0
  0
LINE
  5
137
330
1F
100
AcDbEntity
  8
0
  6
HIDDEN
 62
     7
100
AcDbLine
 10
3.3463211428
 20
3.6368833192
 30
0.0
 11
3.306951064
 21
3.6368833192
 31
0.0
  0
LINE
  5
138
330
1F
100
AcDbEntity
  8
0
  6
HIDDEN
 62
     7
100
AcDbLine
 10
3.9080927963
 20
4.1031664754
 30
0.0
 11
3.9080927963
 21
4.2855099903
 31
0.0
  0
LINE
  5
139
330
1F
100
AcDbEntity
  8
0
  6
HIDDEN
 62
     7
100
AcDbLine
 10
3.6325022451
 20
4.2855099746
 30
0.0
 11
3.6325022451
 21
4.1031664754
 31
0.0
  0
LINE
  5
13A
330
1F
100
AcDbEntity
  8
0
  6
HIDDEN
 62
     7
100
AcDbLine
 10
3.6915573632
 20
4.1031664754
 30
0.0
 11
3.6915573632
 21
3.7783633258
 31
0.0
  0
LINE
  5
13B
330
1F
100
AcDbEntity
  8
0
  6
HIDDEN
 62
     7
100
AcDbLine
 10
3.8490376782
 20
3.7783633258
 30
0.0
 11
3.8490376782
 21
4.1031664754
 31
0.0
  0
LINE
  5
13C
330
1F
100
AcDbEntity
  8
0
  6
HIDDEN
 62
     7
100
AcDbLine
 10
3.6915573632
 20
3.738993247
 30
0.0
 11
3.6915573632
 21
3.2317877619
 31
0.0
  0
LINE
  5
13D
330
1F
100
AcDbEntity
  8
0
  6
HIDDEN
 62
     7
100
AcDbLine
 10
3.8490376782
 20
3.2318148175
 30
0.0
 11
3.8490376782
 21
3.738993247
 31
0.0
  0
LINE
  5
13E
330
1F
100
AcDbEntity
  8
0
  6
HIDDEN
 62
     7
100
AcDbLine
 10
3.9427778357
 20
3.9311586014
 30
0.0
 11
3.9277778357
 21
3.9161586014
 31
0.0
  0
LINE
  5
13F
330
1F
100
AcDbEntity
  8
0
  6
HIDDEN
 62
     7
100
AcDbLine
 10
3.9277778357
 20
3.6011979714
 30
0.0
 11
3.9427778357
 21
3.5861979714
 31
0.0
  0
LINE
  5
140
330
1F
100
AcDbEntity
  8
0
  6
HIDDEN
 62
     7
100
AcDbLine
 10
3.5275153685
 20
3.9161586014
 30
0.0
 11
3.3876597254
 21
3.9161586014
 31
0.0
  0
LINE
  5
141
330
1F
100
AcDbEntity
  8
0
  6
HIDDEN
 62
     7
100
AcDbLine
 10
3.3876597254
 20
3.6011979714
 30
0.0
 11
3.5275153685
 21
3.6011979714
 31
0.0
  0
LINE
  5
142
330
1F
100
AcDbEntity
  8
0
  6
HIDDEN
 62
     7
100
AcDbLine
 10
3.9277778357
 20
3.9161586014
 30
0.0
 11
3.5800088068
 21
3.9161586014
 31
0.0
  0
LINE
  5
143
330
1F
100
AcDbEntity
  8
0
  6
HIDDEN
 62
     7
100
AcDbLine
 10
3.5800088068
 20
3.6011979714
 30
0.0
 11
3.9277778357
 21
3.6011979714
 31
0.0
  0
ARC
  5
144
330
1F
100
AcDbEntity
  8
0
  6
HIDDEN
 62
     7
100
AcDbCircle
 10
3.6521872845
 20
4.240961751
 30
0.0
 40
0.0196850393700789
100
AcDbArc
 50
136.5738126706
 51
180.0
  0
ARC
  5
145
330
1F
100
AcDbEntity
  8
0
  6
HIDDEN
 62
     7
100
AcDbCircle
 10
3.8884077569
 20
4.240961751
 30
0.0
 40
0.0196850393700787
100
AcDbArc
 50
0.0
 51
43.8509337974
  0
LINE
  5
146
330
1F
100
AcDbEntity
  8
0
  6
HIDDEN
 62
     7
100
AcDbLine
 10
3.9080927963
 20
4.1031664754
 30
0.0
 11
3.9080927963
 21
4.240961751
 31
0.0
  0
LINE
  5
147
330
1F
100
AcDbEntity
  8
0
  6
HIDDEN
 62
     7
100
AcDbLine
 10
3.6325022451
 20
4.240961751
 30
0.0
 11
3.6325022451
 21
4.1031664754
 31
0.0
  0
LINE
  5
148
330
1F
100
AcDbEntity
  8
0
  6
HIDDEN
 62
     7
100
AcDbLine
 10
3.6915573632
 20
4.1031664754
 30
0.0
 11
3.6915573632
 21
3.7783633258
 31
0.0
  0
LINE
  5
149
330
1F
100
AcDbEntity
  8
0
  6
HIDDEN
 62
     7
100
AcDbLine
 10
3.6915573632
 20
3.738993247
 30
0.0
 11
3.6915573632
 21
3.364977499
 31
0.0
  0
LINE
  5
14A
330
1F
100
AcDbEntity
  8
0
  6
HIDDEN
 62
     7
100
AcDbLine
 10
3.8490376782
 20
3.364977499
 30
0.0
 11
3.8490376782
 21
3.738993247
 31
0.0
  0
LINE
  5
14B
330
1F
100
AcDbEntity
  8
0
  6
HIDDEN
 62
     7
100
AcDbLine
 10
3.8490376782
 20
3.7783633258
 30
0.0
 11
3.8490376782
 21
4.1031664754
 31
0.0
  0
ARC
  5
14C
330
1F
100
AcDbEntity
  8
0
  6
HIDDEN
 62
     7
100
AcDbCircle
 10
3.8293526388
 20
3.364977499
 30
0.0
 40
0.0196850393700787
100
AcDbArc
 50
270.0
 51
0.0
  0
ARC
  5
14D
330
1F
100
AcDbEntity
  8
0
  6
HIDDEN
 62
     7
100
AcDbCircle
 10
3.7112424026
 20
3.364977499
 30
0.0
 40
0.0196850393700791
100
AcDbArc
 50
180.0
 51
270.0
  0
LINE
  5
14E
330
1F
100
AcDbEntity
  8
0
  6
HIDDEN
 62
     7
100
AcDbLine
 10
3.3463211428
 20
3.9948987588
 30
0.0
 11
3.306951064
 21
3.9948987588
 31
0.0
  0
LINE
  5
14F
330
1F
100
AcDbEntity
  8
0
  6
HIDDEN
 62
     7
100
AcDbLine
 10
3.306951064
 20
3.522457814
 30
0.0
 11
3.3463211428
 21
3.522457814
 31
0.0
  0
LINE
  5
150
330
1F
100
AcDbEntity
  8
0
  6
HIDDEN
 62
     7
100
AcDbLine
 10
3.1257568383
 20
3.6011979714
 30
0.0
 11
3.2656124813
 21
3.6011979714
 31
0.0
  0
LINE
  5
151
330
1F
100
AcDbEntity
  8
0
  6
HIDDEN
 62
     7
100
AcDbLine
 10
3.2656124813
 20
3.9161586014
 30
0.0
 11
3.1257568383
 21
3.9161586014
 31
0.0
  0
LINE
  5
152
330
1F
100
AcDbEntity
  8
0
  6
HIDDEN
 62
     7
100
AcDbLine
 10
3.0375757192
 20
3.6011979714
 30
0.0
 11
3.0732634
 21
3.6011979714
 31
0.0
  0
LINE
  5
153
330
1F
100
AcDbEntity
  8
0
  6
HIDDEN
 62
     7
100
AcDbLine
 10
3.9080439632
 20
4.240961751
 30
0.0
 11
3.6325510782
 21
4.240961751
 31
0.0
  0
ARC
  5
154
330
1F
100
AcDbEntity
  8
0
  6
CONTINUOUS
 62
     7
100
AcDbCircle
 10
7.720150897
 20
4.240961751
 30
0.0
 40
0.0196850393700787
100
AcDbArc
 50
90.0
 51
180.0
  0
LINE
  5
155
330
1F
100
AcDbEntity
  8
0
  6
CONTINUOUS
 62
     7
100
AcDbLine
 10
7.7004658576
 20
4.240961751
 30
0.0
 11
7.7004658576
 21
4.1394539381
 31
0.0
  0
LINE
  5
156
330
1F
100
AcDbEntity
  8
0
  6
CONTINUOUS
 62
     7
100
AcDbLine
 10
7.7595209757
 20
3.7783633258
 30
0.0
 11
7.7595209757
 21
3.738993247
 31
0.0
  0
LINE
  5
157
330
1F
100
AcDbEntity
  8
0
  6
CONTINUOUS
 62
     7
100
AcDbLine
 10
7.9170012907
 20
3.738993247
 30
0.0
 11
7.9170012907
 21
3.7783633258
 31
0.0
  0
ARC
  5
158
330
1F
100
AcDbEntity
  8
0
  6
CONTINUOUS
 62
     7
100
AcDbCircle
 10
8.7331680709
 20
4.2894119957
 30
0.0
 40
0.0196850393700796
100
AcDbArc
 50
0.0
 51
90.0
  0
LINE
  5
159
330
1F
100
AcDbEntity
  8
0
  6
CONTINUOUS
 62
     7
100
AcDbLine
 10
8.7331680709
 20
4.3090970351
 30
0.0
 11
8.6316602581
 21
4.3090970351
 31
0.0
  0
LINE
  5
15A
330
1F
100
AcDbEntity
  8
0
  6
CONTINUOUS
 62
     7
100
AcDbLine
 10
8.6142171356
 20
3.7783633258
 30
0.0
 11
8.6142171356
 21
3.738993247
 31
0.0
  0
LINE
  5
15B
330
1F
100
AcDbEntity
  8
0
  6
CONTINUOUS
 62
     7
100
AcDbLine
 10
8.6142171356
 20
3.7783633258
 30
0.0
 11
8.4222379205
 21
3.7783633258
 31
0.0
  0
ARC
  5
15C
330
1F
100
AcDbEntity
  8
0
  6
CONTINUOUS
 62
     7
100
AcDbCircle
 10
8.2508846063
 20
3.7586782864
 30
0.0
 40
0.1724803149606304
100
AcDbArc
 50
6.5534008667
 51
173.4465991333
  0
LINE
  5
15D
330
1F
100
AcDbEntity
  8
0
  6
CONTINUOUS
 62
     7
100
AcDbLine
 10
7.5968894573
 20
3.7783633258
 30
0.0
 11
8.0795312922
 21
3.7783633258
 31
0.0
  0
ARC
  5
15E
330
1F
100
AcDbEntity
  8
0
  6
CONTINUOUS
 62
     7
100
AcDbCircle
 10
8.2508846063
 20
3.7586782864
 30
0.0
 40
0.6542913385826762
100
AcDbArc
 50
181.7240636252
 51
178.2759363748
  0
LINE
  5
15F
330
1F
100
AcDbEntity
  8
0
  6
CONTINUOUS
 62
     7
100
AcDbLine
 10
7.5968894573
 20
3.738993247
 30
0.0
 11
8.0795312922
 21
3.738993247
 31
0.0
  0
ARC
  5
160
330
1F
100
AcDbEntity
  8
0
  6
CONTINUOUS
 62
     7
100
AcDbCircle
 10
8.2508846063
 20
3.7586782864
 30
0.0
 40
0.1724803149606304
100
AcDbArc
 50
186.5534008667
 51
353.4465991333
  0
LINE
  5
161
330
1F
100
AcDbEntity
  8
0
  6
CONTINUOUS
 62
     7
100
AcDbLine
 10
8.4222379205
 20
3.738993247
 30
0.0
 11
8.6142171356
 21
3.738993247
 31
0.0
  0
LINE
  5
162
330
1F
100
AcDbEntity
  8
0
  6
CONTINUOUS
 62
     7
100
AcDbLine
 10
7.5818828162
 20
3.7783633258
 30
0.0
 11
7.5968894573
 21
3.7783633258
 31
0.0
  0
ARC
  5
163
330
1F
100
AcDbEntity
  8
0
  6
CONTINUOUS
 62
     7
100
AcDbCircle
 10
8.2508846063
 20
3.7586782864
 30
0.0
 40
0.6692913385826771
100
AcDbArc
 50
181.6854130402
 51
178.3145869598
  0
LINE
  5
164
330
1F
100
AcDbEntity
  8
0
  6
CONTINUOUS
 62
     7
100
AcDbLine
 10
7.5818828162
 20
3.738993247
 30
0.0
 11
7.5968894573
 21
3.738993247
 31
0.0
  0
SPLINE
  5
165
330
1F
100
AcDbEntity
  8
0
  6
CONTINUOUS
 62
     7
100
AcDbSpline
210
0.0
220
0.0
230
1.0
 70
     8
 71
     3
 72
     8
 73
     4
 74
     0
 42
0.00000001
 43
0.00000001
 40
0.0
 40
0.0
 40
0.0
 40
0.0
 40
1.0
 40
1.0
 40
1.0
 40
1.0
 10
8.407129762489221
 20
3.778363325762126
 30
0.0
 10
8.408783150385151
 20
3.765239966182074
 30
0.0
 10
8.408783150385151
 20
3.752116606602021
 30
0.0
 10
8.407129762489221
 20
3.738993247021968
 30
0.0
  0
SPLINE
  5
166
330
1F
100
AcDbEntity
  8
0
  6
CONTINUOUS
 62
     7
100
AcDbSpline
210
0.0
220
0.0
230
1.0
 70
    24
 71
     3
 72
     8
 73
     4
 74
     0
 42
0.00000001
 43
0.00000001
 40
0.0
 40
0.0
 40
0.0
 40
0.0
 40
1.0
 40
1.0
 40
1.0
 40
1.0
 10
8.079531292163113
 20
3.738993247021968
 30
0.0
 10
8.084565769886812
 20
3.738993247021968
 30
0.0
 10
8.089601676558253
 20
3.738993247021968
 30
0.0
 10
8.094639450158759
 20
3.738993247021968
 30
0.0
  0
ARC
  5
167
330
1F
100
AcDbEntity
  8
0
  6
CONTINUOUS
 62
     7
100
AcDbCircle
 10
8.2508846063
 20
3.7586782864
 30
0.0
 40
0.1574803149606302
100
AcDbArc
 50
187.1807557815
 51
352.8192442185
  0
SPLINE
  5
168
330
1F
100
AcDbEntity
  8
0
  6
CONTINUOUS
 62
     7
100
AcDbSpline
210
0.0
220
0.0
230
1.0
 70
    24
 71
     3
 72
     8
 73
     4
 74
     0
 42
0.00000001
 43
0.00000001
 40
0.0
 40
0.0
 40
0.0
 40
0.0
 40
1.0
 40
1.0
 40
1.0
 40
1.0
 10
8.407129762489221
 20
3.738993247021968
 30
0.0
 10
8.412167538877803
 20
3.738993247021968
 30
0.0
 10
8.417203442860746
 20
3.738993247021968
 30
0.0
 10
8.422237920484868
 20
3.738993247021968
 30
0.0
  0
SPLINE
  5
169
330
1F
100
AcDbEntity
  8
0
  6
CONTINUOUS
 62
     7
100
AcDbSpline
210
0.0
220
0.0
230
1.0
 70
    24
 71
     3
 72
     8
 73
     4
 74
     0
 42
0.00000001
 43
0.00000001
 40
0.0
 40
0.0
 40
0.0
 40
0.0
 40
1.0
 40
1.0
 40
1.0
 40
1.0
 10
8.079531292163113
 20
3.778363325762126
 30
0.0
 10
8.084565769886812
 20
3.778363325762126
 30
0.0
 10
8.089601676558253
 20
3.778363325762126
 30
0.0
 10
8.094639450158759
 20
3.778363325762126
 30
0.0
  0
ARC
  5
16A
330
1F
100
AcDbEntity
  8
0
  6
CONTINUOUS
 62
     7
100
AcDbCircle
 10
8.2508846063
 20
3.7586782864
 30
0.0
 40
0.1574803149606302
100
AcDbArc
 50
7.1807557815
 51
172.8192442185
  0
SPLINE
  5
16B
330
1F
100
AcDbEntity
  8
0
  6
CONTINUOUS
 62
     7
100
AcDbSpline
210
0.0
220
0.0
230
1.0
 70
    24
 71
     3
 72
     8
 73
     4
 74
     0
 42
0.00000001
 43
0.00000001
 40
0.0
 40
0.0
 40
0.0
 40
0.0
 40
1.0
 40
1.0
 40
1.0
 40
1.0
 10
8.407129762489221
 20
3.778363325762126
 30
0.0
 10
8.412167538877803
 20
3.778363325762126
 30
0.0
 10
8.417203442860746
 20
3.778363325762126
 30
0.0
 10
8.422237920484868
 20
3.778363325762126
 30
0.0
  0
POLYLINE
  5
16C
330
1F
100
AcDbEntity
  8
0
  6
CONTINUOUS
 62
     7
100
AcDb2dPolyline
 66
     1
 10
0.0
 20
0.0
 30
0.0
  0
VERTEX
  5
2A1
330
16C
100
AcDbEntity
  8
0
  6
CONTINUOUS
 62
     7
100
AcDbVertex
100
AcDb2dVertex
 10
8.0934042914
 20
3.7586782864
 30
0.0
  0
VERTEX
  5
2A2
330
16C
100
AcDbEntity
  8
0
  6
CONTINUOUS
 62
     7
100
AcDbVertex
100
AcDb2dVertex
 10
8.0941868464
 20
3.7429983106
 30
0.0
  0
VERTEX
  5
2A3
330
16C
100
AcDbEntity
  8
0
  6
CONTINUOUS
 62
     7
100
AcDbVertex
100
AcDb2dVertex
 10
8.0946394502
 20
3.738993247
 30
0.0
  0
SEQEND
  5
2A4
330
16C
100
AcDbEntity
  8
0
  6
CONTINUOUS
 62
     7
  0
POLYLINE
  5
16D
330
1F
100
AcDbEntity
  8
0
  6
CONTINUOUS
 62
     7
100
AcDb2dPolyline
 66
     1
 10
0.0
 20
0.0
 30
0.0
  0
VERTEX
  5
2A5
330
16D
100
AcDbEntity
  8
0
  6
CONTINUOUS
 62
     7
100
AcDbVertex
100
AcDb2dVertex
 10
8.4071297625
 20
3.738993247
 30
0.0
  0
VERTEX
  5
2A6
330
16D
100
AcDbEntity
  8
0
  6
CONTINUOUS
 62
     7
100
AcDbVertex
100
AcDb2dVertex
 10
8.4081691608
 20
3.7508285406
 30
0.0
  0
VERTEX
  5
2A7
330
16D
100
AcDbEntity
  8
0
  6
CONTINUOUS
 62
     7
100
AcDbVertex
100
AcDb2dVertex
 10
8.4083426953
 20
3.7613240015
 30
0.0
  0
SEQEND
  5
2A8
330
16D
100
AcDbEntity
  8
0
  6
CONTINUOUS
 62
     7
  0
POLYLINE
  5
16E
330
1F
100
AcDbEntity
  8
0
  6
CONTINUOUS
 62
     7
100
AcDb2dPolyline
 66
     1
 10
0.0
 20
0.0
 30
0.0
  0
VERTEX
  5
2A9
330
16E
100
AcDbEntity
  8
0
  6
CONTINUOUS
 62
     7
100
AcDbVertex
100
AcDb2dVertex
 10
8.4082002003
 20
3.7658792237
 30
0.0
  0
VERTEX
  5
2AA
330
16E
100
AcDbEntity
  8
0
  6
CONTINUOUS
 62
     7
100
AcDbVertex
100
AcDb2dVertex
 10
8.4081691608
 20
3.7665280322
 30
0.0
  0
VERTEX
  5
2AB
330
16E
100
AcDbEntity
  8
0
  6
CONTINUOUS
 62
     7
100
AcDbVertex
100
AcDb2dVertex
 10
8.4071297625
 20
3.7783633258
 30
0.0
  0
SEQEND
  5
2AC
330
16E
100
AcDbEntity
  8
0
  6
CONTINUOUS
 62
     7
  0
POLYLINE
  5
16F
330
1F
100
AcDbEntity
  8
0
  6
CONTINUOUS
 62
     7
100
AcDb2dPolyline
 66
     1
 10
0.0
 20
0.0
 30
0.0
  0
VERTEX
  5
2AD
330
16F
100
AcDbEntity
  8
0
  6
CONTINUOUS
 62
     7
100
AcDbVertex
100
AcDb2dVertex
 10
8.0946394502
 20
3.7783633258
 30
0.0
  0
VERTEX
  5
2AE
330
16F
100
AcDbEntity
  8
0
  6
CONTINUOUS
 62
     7
100
AcDbVertex
100
AcDb2dVertex
 10
8.0941868464
 20
3.7743582622
 30
0.0
  0
VERTEX
  5
2AF
330
16F
100
AcDbEntity
  8
0
  6
CONTINUOUS
 62
     7
100
AcDbVertex
100
AcDb2dVertex
 10
8.0934042914
 20
3.7586782864
 30
0.0
  0
SEQEND
  5
2B0
330
16F
100
AcDbEntity
  8
0
  6
CONTINUOUS
 62
     7
  0
ARC
  5
170
330
1F
100
AcDbEntity
  8
0
  6
CONTINUOUS
 62
     7
100
AcDbCircle
 10
8.2508846063
 20
3.7586782864
 30
0.0
 40
0.669291338582678
100
AcDbArc
 50
178.3145869598
 51
181.6854130402
  0
LINE
  5
171
330
1F
100
AcDbEntity
  8
0
  6
CONTINUOUS
 62
     7
100
AcDbLine
 10
7.720150897
 20
4.2606467903
 30
0.0
 11
7.8081899972
 21
4.2606467903
 31
0.0
  0
LINE
  5
172
330
1F
100
AcDbEntity
  8
0
  6
CONTINUOUS
 62
     7
100
AcDbLine
 10
8.7528531103
 20
4.2013728955
 30
0.0
 11
8.7528531103
 21
4.2894119957
 31
0.0
  0
LINE
  5
173
330
1F
100
AcDbEntity
  8
0
  6
CONTINUOUS
 62
     8
100
AcDbLine
 10
7.7868225892
 20
4.240961751
 30
0.0
 11
7.7004658576
 21
4.240961751
 31
0.0
  0
LINE
  5
174
330
1F
100
AcDbEntity
  8
0
  6
CONTINUOUS
 62
     8
100
AcDbLine
 10
8.7331680709
 20
4.3090970351
 30
0.0
 11
8.7331680709
 21
4.2227403035
 31
0.0
  0
LINE
  5
175
330
1F
100
AcDbEntity
  8
0
  6
HIDDEN
 62
     7
100
AcDbLine
 10
7.7004658576
 20
4.1031664754
 30
0.0
 11
7.9760564088
 21
4.1031664754
 31
0.0
  0
LINE
  5
176
330
1F
100
AcDbEntity
  8
0
  6
HIDDEN
 62
     7
100
AcDbLine
 10
8.5363176772
 20
3.1533033134
 30
0.0
 11
8.5363176772
 21
4.3640532594
 31
0.0
  0
LINE
  5
177
330
1F
100
AcDbEntity
  8
0
  6
HIDDEN
 62
     7
100
AcDbLine
 10
7.8081899972
 20
4.2606467903
 30
0.0
 11
7.9563713694
 21
4.2606467903
 31
0.0
  0
LINE
  5
178
330
1F
100
AcDbEntity
  8
0
  6
HIDDEN
 62
     7
100
AcDbLine
 10
7.9170012907
 20
3.364977499
 30
0.0
 11
7.7595209757
 21
3.364977499
 31
0.0
  0
LINE
  5
179
330
1F
100
AcDbEntity
  8
0
  6
HIDDEN
 62
     7
100
AcDbLine
 10
7.8973162513
 20
3.3452924596
 30
0.0
 11
7.7792060151
 21
3.3452924596
 31
0.0
  0
LINE
  5
17A
330
1F
100
AcDbEntity
  8
0
  6
HIDDEN
 62
     7
100
AcDbLine
 10
7.8723566215
 20
4.1031664754
 30
0.0
 11
7.8723566215
 21
4.2606467903
 31
0.0
  0
LINE
  5
17B
330
1F
100
AcDbEntity
  8
0
  6
HIDDEN
 62
     7
100
AcDbLine
 10
7.8041656449
 20
4.1031664754
 30
0.0
 11
7.8041656449
 21
4.2606467903
 31
0.0
  0
LINE
  5
17C
330
1F
100
AcDbEntity
  8
0
  6
HIDDEN
 62
     7
100
AcDbLine
 10
7.9064521099
 20
4.1031664754
 30
0.0
 11
7.9064521099
 21
4.2606467903
 31
0.0
  0
LINE
  5
17D
330
1F
100
AcDbEntity
  8
0
  6
HIDDEN
 62
     7
100
AcDbLine
 10
7.7700701565
 20
4.1031664754
 30
0.0
 11
7.7700701565
 21
4.2606467903
 31
0.0
  0
LINE
  5
17E
330
1F
100
AcDbEntity
  8
0
  6
HIDDEN
 62
     7
100
AcDbLine
 10
8.7528531103
 20
4.0531915238
 30
0.0
 11
8.7528531103
 21
4.2013728955
 31
0.0
  0
LINE
  5
17F
330
1F
100
AcDbEntity
  8
0
  6
HIDDEN
 62
     7
100
AcDbLine
 10
8.5953727953
 20
4.0335064839
 30
0.0
 11
8.5953727953
 21
4.3090970351
 31
0.0
  0
LINE
  5
180
330
1F
100
AcDbEntity
  8
0
  6
HIDDEN
 62
     7
100
AcDbLine
 10
7.8571838189
 20
4.092561602
 30
0.0
 11
7.8571838189
 21
4.250041917
 31
0.0
  0
LINE
  5
181
330
1F
100
AcDbEntity
  8
0
  6
HIDDEN
 62
     7
100
AcDbLine
 10
7.8374987796
 20
4.2303568758
 30
0.0
 11
7.8374987796
 21
4.1122466414
 31
0.0
  0
LINE
  5
182
330
1F
100
AcDbEntity
  8
0
  6
HIDDEN
 62
     7
100
AcDbLine
 10
8.5953727953
 20
4.1372062712
 30
0.0
 11
8.7528531103
 21
4.1372062712
 31
0.0
  0
LINE
  5
183
330
1F
100
AcDbEntity
  8
0
  6
HIDDEN
 62
     7
100
AcDbLine
 10
8.5953727953
 20
4.2053972479
 30
0.0
 11
8.7528531103
 21
4.2053972479
 31
0.0
  0
LINE
  5
184
330
1F
100
AcDbEntity
  8
0
  6
HIDDEN
 62
     7
100
AcDbLine
 10
8.5953727953
 20
4.1031107828
 30
0.0
 11
8.7528531103
 21
4.1031107828
 31
0.0
  0
LINE
  5
185
330
1F
100
AcDbEntity
  8
0
  6
HIDDEN
 62
     7
100
AcDbLine
 10
8.5953727953
 20
4.2394927362
 30
0.0
 11
8.7528531103
 21
4.2394927362
 31
0.0
  0
CIRCLE
  5
186
330
1F
100
AcDbEntity
  8
0
  6
HIDDEN
 62
     7
100
AcDbCircle
 10
8.7134830315
 20
3.7586782864
 30
0.0
 40
0.1377952755905518
  0
CIRCLE
  5
187
330
1F
100
AcDbEntity
  8
0
  6
HIDDEN
 62
     7
100
AcDbCircle
 10
8.2508846063
 20
3.2960798612
 30
0.0
 40
0.1377952755905518
  0
CIRCLE
  5
188
330
1F
100
AcDbEntity
  8
0
  6
HIDDEN
 62
     7
100
AcDbCircle
 10
8.2508846063
 20
4.2212767116
 30
0.0
 40
0.1377952755905518
  0
CIRCLE
  5
189
330
1F
100
AcDbEntity
  8
0
  6
HIDDEN
 62
     7
100
AcDbCircle
 10
7.7882861811
 20
3.7586782864
 30
0.0
 40
0.1377952755905509
  0
LINE
  5
18A
330
1F
100
AcDbEntity
  8
0
  6
HIDDEN
 62
     7
100
AcDbLine
 10
8.1290896391
 20
4.3430716788
 30
0.0
 11
7.6664912139
 21
3.8804732536
 31
0.0
  0
ARC
  5
18B
330
1F
100
AcDbEntity
  8
0
  6
HIDDEN
 62
     7
100
AcDbCircle
 10
8.2508846063
 20
4.2212767116
 30
0.0
 40
0.1722440944881891
100
AcDbArc
 50
45.0
 51
135.0
  0
LINE
  5
18C
330
1F
100
AcDbEntity
  8
0
  6
HIDDEN
 62
     7
100
AcDbLine
 10
8.8352779988
 20
3.8804732536
 30
0.0
 11
8.3726795736
 21
4.3430716788
 31
0.0
  0
ARC
  5
18D
330
1F
100
AcDbEntity
  8
0
  6
HIDDEN
 62
     7
100
AcDbCircle
 10
8.7134830315
 20
3.7586782864
 30
0.0
 40
0.1722440944881891
100
AcDbArc
 50
315.0
 51
45.0
  0
LINE
  5
18E
330
1F
100
AcDbEntity
  8
0
  6
HIDDEN
 62
     7
100
AcDbLine
 10
8.3726795736
 20
3.174284894
 30
0.0
 11
8.8352779988
 21
3.6368833192
 31
0.0
  0
ARC
  5
18F
330
1F
100
AcDbEntity
  8
0
  6
HIDDEN
 62
     7
100
AcDbCircle
 10
8.2508846063
 20
3.2960798612
 30
0.0
 40
0.1722440944881891
100
AcDbArc
 50
225.0
 51
315.0
  0
LINE
  5
190
330
1F
100
AcDbEntity
  8
0
  6
HIDDEN
 62
     7
100
AcDbLine
 10
7.6664912139
 20
3.6368833192
 30
0.0
 11
8.1290896391
 21
3.174284894
 31
0.0
  0
ARC
  5
191
330
1F
100
AcDbEntity
  8
0
  6
HIDDEN
 62
     7
100
AcDbCircle
 10
7.7882861811
 20
3.7586782864
 30
0.0
 40
0.1722440944881901
100
AcDbArc
 50
135.0
 51
225.0
  0
CIRCLE
  5
192
330
1F
100
AcDbEntity
  8
0
  6
HIDDEN
 62
     7
100
AcDbCircle
 10
8.2508846063
 20
3.7586782864
 30
0.0
 40
0.2362204724409462
  0
CIRCLE
  5
193
330
1F
100
AcDbEntity
  8
0
  6
HIDDEN
 62
     7
100
AcDbCircle
 10
8.2508846063
 20
3.7586782864
 30
0.0
 40
0.6692913385826773
  0
LINE
  5
194
330
1F
100
AcDbEntity
  8
0
  6
HIDDEN
 62
     7
100
AcDbLine
 10
7.6455096333
 20
3.4732452155
 30
0.0
 11
8.8562595793
 21
3.4732452155
 31
0.0
  0
LINE
  5
195
330
1F
100
AcDbEntity
  8
0
  6
HIDDEN
 62
     7
100
AcDbLine
 10
8.231199567
 20
3.9149234426
 30
0.0
 11
8.231199567
 21
4.4276800765
 31
0.0
  0
LINE
  5
196
330
1F
100
AcDbEntity
  8
0
  6
HIDDEN
 62
     7
100
AcDbLine
 10
8.2705696457
 20
3.9149234426
 30
0.0
 11
8.2705696457
 21
4.4276800765
 31
0.0
  0
LINE
  5
197
330
1F
100
AcDbEntity
  8
0
  6
HIDDEN
 62
     7
100
AcDbLine
 10
8.231199567
 20
3.3953457571
 30
0.0
 11
8.231199567
 21
3.6024331302
 31
0.0
  0
LINE
  5
198
330
1F
100
AcDbEntity
  8
0
  6
HIDDEN
 62
     7
100
AcDbLine
 10
8.2705696457
 20
3.3953457571
 30
0.0
 11
8.231199567
 21
3.3953457571
 31
0.0
  0
LINE
  5
199
330
1F
100
AcDbEntity
  8
0
  6
HIDDEN
 62
     7
100
AcDbLine
 10
8.2705696457
 20
3.6024331302
 30
0.0
 11
8.2705696457
 21
3.3953457571
 31
0.0
  0
ARC
  5
19A
330
1F
100
AcDbEntity
  8
0
  6
HIDDEN
 62
     7
100
AcDbCircle
 10
8.2508846063
 20
3.7586782864
 30
0.0
 40
0.1724803149606322
100
AcDbArc
 50
173.4465991333
 51
186.5534008667
  0
ARC
  5
19B
330
1F
100
AcDbEntity
  8
0
  6
HIDDEN
 62
     7
100
AcDbCircle
 10
8.2508846063
 20
3.7586782864
 30
0.0
 40
0.1724803149606251
100
AcDbArc
 50
353.4465991333
 51
6.5534008667
  0
POLYLINE
  5
19C
330
1F
100
AcDbEntity
  8
0
  6
HIDDEN
 62
     7
100
AcDb2dPolyline
 66
     1
 10
0.0
 20
0.0
 30
0.0
  0
VERTEX
  5
2B1
330
19C
100
AcDbEntity
  8
0
  6
HIDDEN
 62
     7
100
AcDbVertex
100
AcDb2dVertex
 10
7.5968894573
 20
3.7783633258
 30
0.0
  0
VERTEX
  5
2B2
330
19C
100
AcDbEntity
  8
0
  6
HIDDEN
 62
     7
100
AcDbVertex
100
AcDb2dVertex
 10
7.5966673193
 20
3.7488346526
 30
0.0
  0
VERTEX
  5
2B3
330
19C
100
AcDbEntity
  8
0
  6
HIDDEN
 62
     7
100
AcDbVertex
100
AcDb2dVertex
 10
7.5968894573
 20
3.738993247
 30
0.0
  0
SEQEND
  5
2B4
330
19C
100
AcDbEntity
  8
0
  6
HIDDEN
 62
     7
  0
LINE
  5
19D
330
1F
100
AcDbEntity
  8
0
  6
HIDDEN
 62
     7
100
AcDbLine
 10
7.9760564088
 20
4.1031664754
 30
0.0
 11
7.9760564088
 21
4.3689408182
 31
0.0
  0
LINE
  5
19E
330
1F
100
AcDbEntity
  8
0
  6
HIDDEN
 62
     7
100
AcDbLine
 10
7.7004658576
 20
4.1397127367
 30
0.0
 11
7.7004658576
 21
4.1031664754
 31
0.0
  0
LINE
  5
19F
330
1F
100
AcDbEntity
  8
0
  6
HIDDEN
 62
     7
100
AcDbLine
 10
7.7595209757
 20
4.1031664754
 30
0.0
 11
7.7595209757
 21
3.7783633258
 31
0.0
  0
LINE
  5
1A0
330
1F
100
AcDbEntity
  8
0
  6
HIDDEN
 62
     7
100
AcDbLine
 10
7.9170012907
 20
3.7783633258
 30
0.0
 11
7.9170012907
 21
4.1031664754
 31
0.0
  0
LINE
  5
1A1
330
1F
100
AcDbEntity
  8
0
  6
HIDDEN
 62
     7
100
AcDbLine
 10
7.7595209757
 20
3.738993247
 30
0.0
 11
7.7595209757
 21
3.3042416259
 31
0.0
  0
LINE
  5
1A2
330
1F
100
AcDbEntity
  8
0
  6
HIDDEN
 62
     7
100
AcDbLine
 10
7.9170012907
 20
3.1787401933
 30
0.0
 11
7.9170012907
 21
3.738993247
 31
0.0
  0
ARC
  5
1A3
330
1F
100
AcDbEntity
  8
0
  6
HIDDEN
 62
     7
100
AcDbCircle
 10
7.9563713694
 20
4.240961751
 30
0.0
 40
0.0196850393700796
100
AcDbArc
 50
0.0
 51
90.0
  0
LINE
  5
1A4
330
1F
100
AcDbEntity
  8
0
  6
HIDDEN
 62
     7
100
AcDbLine
 10
7.9760564088
 20
4.1031664754
 30
0.0
 11
7.9760564088
 21
4.240961751
 31
0.0
  0
LINE
  5
1A5
330
1F
100
AcDbEntity
  8
0
  6
HIDDEN
 62
     7
100
AcDbLine
 10
7.7004658576
 20
4.1394539381
 30
0.0
 11
7.7004658576
 21
4.1031664754
 31
0.0
  0
LINE
  5
1A6
330
1F
100
AcDbEntity
  8
0
  6
HIDDEN
 62
     7
100
AcDbLine
 10
7.7595209757
 20
4.1031664754
 30
0.0
 11
7.7595209757
 21
3.7783633258
 31
0.0
  0
LINE
  5
1A7
330
1F
100
AcDbEntity
  8
0
  6
HIDDEN
 62
     7
100
AcDbLine
 10
7.7595209757
 20
3.738993247
 30
0.0
 11
7.7595209757
 21
3.364977499
 31
0.0
  0
LINE
  5
1A8
330
1F
100
AcDbEntity
  8
0
  6
HIDDEN
 62
     7
100
AcDbLine
 10
7.9170012907
 20
3.364977499
 30
0.0
 11
7.9170012907
 21
3.738993247
 31
0.0
  0
LINE
  5
1A9
330
1F
100
AcDbEntity
  8
0
  6
HIDDEN
 62
     7
100
AcDbLine
 10
7.9170012907
 20
3.7783633258
 30
0.0
 11
7.9170012907
 21
4.1031664754
 31
0.0
  0
ARC
  5
1AA
330
1F
100
AcDbEntity
  8
0
  6
HIDDEN
 62
     7
100
AcDbCircle
 10
7.8973162513
 20
3.364977499
 30
0.0
 40
0.0196850393700787
100
AcDbArc
 50
270.0
 51
0.0
  0
ARC
  5
1AB
330
1F
100
AcDbEntity
  8
0
  6
HIDDEN
 62
     7
100
AcDbCircle
 10
7.7792060151
 20
3.364977499
 30
0.0
 40
0.0196850393700787
100
AcDbArc
 50
180.0
 51
270.0
  0
ARC
  5
1AC
330
1F
100
AcDbEntity
  8
0
  6
HIDDEN
 62
     7
100
AcDbCircle
 10
8.7331680709
 20
4.0531915233
 30
0.0
 40
0.0196850393700796
100
AcDbArc
 50
270.0
 51
0.0
  0
LINE
  5
1AD
330
1F
100
AcDbEntity
  8
0
  6
HIDDEN
 62
     7
100
AcDbLine
 10
8.5953727953
 20
4.0335064839
 30
0.0
 11
8.7331680709
 21
4.0335064839
 31
0.0
  0
LINE
  5
1AE
330
1F
100
AcDbEntity
  8
0
  6
HIDDEN
 62
     7
100
AcDbLine
 10
8.6316602581
 20
4.3090970351
 30
0.0
 11
8.5953727953
 21
4.3090970351
 31
0.0
  0
LINE
  5
1AF
330
1F
100
AcDbEntity
  8
0
  6
HIDDEN
 62
     7
100
AcDbLine
 10
8.5953727953
 20
4.250041917
 30
0.0
 11
7.8571838189
 21
4.250041917
 31
0.0
  0
LINE
  5
1B0
330
1F
100
AcDbEntity
  8
0
  6
HIDDEN
 62
     7
100
AcDbLine
 10
7.8571838189
 20
4.092561602
 30
0.0
 11
8.5953727953
 21
4.092561602
 31
0.0
  0
ARC
  5
1B1
330
1F
100
AcDbEntity
  8
0
  6
HIDDEN
 62
     7
100
AcDbCircle
 10
7.8571838189
 20
4.1122466414
 30
0.0
 40
0.0196850393700787
100
AcDbArc
 50
180.0
 51
270.0
  0
ARC
  5
1B2
330
1F
100
AcDbEntity
  8
0
  6
HIDDEN
 62
     7
100
AcDbCircle
 10
7.8571838189
 20
4.2303568776
 30
0.0
 40
0.0196850393700787
100
AcDbArc
 50
90.0
 51
180.0
  0
LINE
  5
1B3
330
1F
100
AcDbEntity
  8
0
  6
HIDDEN
 62
     7
100
AcDbLine
 10
8.5953727953
 20
4.0335064839
 30
0.0
 11
8.8611471381
 21
4.0335064839
 31
0.0
  0
LINE
  5
1B4
330
1F
100
AcDbEntity
  8
0
  6
HIDDEN
 62
     7
100
AcDbLine
 10
8.6319190566
 20
4.3090970351
 30
0.0
 11
8.5953727953
 21
4.3090970351
 31
0.0
  0
LINE
  5
1B5
330
1F
100
AcDbEntity
  8
0
  6
HIDDEN
 62
     7
100
AcDbLine
 10
8.5953727953
 20
4.250041917
 30
0.0
 11
8.2705696457
 21
4.250041917
 31
0.0
  0
LINE
  5
1B6
330
1F
100
AcDbEntity
  8
0
  6
HIDDEN
 62
     7
100
AcDbLine
 10
8.2705696457
 20
4.092561602
 30
0.0
 11
8.5953727953
 21
4.092561602
 31
0.0
  0
LINE
  5
1B7
330
1F
100
AcDbEntity
  8
0
  6
HIDDEN
 62
     7
100
AcDbLine
 10
8.231199567
 20
4.250041917
 30
0.0
 11
7.7964479458
 21
4.250041917
 31
0.0
  0
LINE
  5
1B8
330
1F
100
AcDbEntity
  8
0
  6
HIDDEN
 62
     7
100
AcDbLine
 10
7.6709465132
 20
4.092561602
 30
0.0
 11
8.231199567
 21
4.092561602
 31
0.0
  0
LINE
  5
1B9
330
1F
100
AcDbEntity
  8
0
  6
HIDDEN
 62
     7
100
AcDbLine
 10
7.7004658576
 20
4.240961751
 30
0.0
 11
7.975861111
 21
4.240961751
 31
0.0
  0
LINE
  5
1BA
330
1F
100
AcDbEntity
  8
0
  6
HIDDEN
 62
     7
100
AcDbLine
 10
8.7331680709
 20
4.3090970351
 30
0.0
 11
8.7331680709
 21
4.0337017818
 31
0.0
  0
LINE
  5
1BB
330
1F
100
AcDbEntity
  8
0
  6
CONTINUOUS
 62
     7
100
AcDbLine
 10
3.3876597254
 20
6.0026858003
 30
0.0
 11
3.5275153685
 21
6.0026858003
 31
0.0
  0
LINE
  5
1BC
330
1F
100
AcDbEntity
  8
0
  6
CONTINUOUS
 62
     7
100
AcDbLine
 10
3.9277778357
 20
7.3412684775
 30
0.0
 11
3.3876597254
 21
7.3412684775
 31
0.0
  0
LINE
  5
1BD
330
1F
100
AcDbEntity
  8
0
  6
CONTINUOUS
 62
     7
100
AcDbLine
 10
3.9427778357
 20
7.3262684775
 30
0.0
 11
3.9277778357
 21
7.3412684775
 31
0.0
  0
ARC
  5
1BE
330
1F
100
AcDbEntity
  8
0
  6
CONTINUOUS
 62
     7
100
AcDbCircle
 10
2.7648644498
 20
7.1542606035
 30
0.0
 40
0.0196850393700796
100
AcDbArc
 50
90.0
 51
135.7551395816
  0
ARC
  5
1BF
330
1F
100
AcDbEntity
  8
0
  6
CONTINUOUS
 62
     7
100
AcDbCircle
 10
3.0010849223
 20
7.1542606035
 30
0.0
 40
0.0196850393700796
100
AcDbArc
 50
42.9924807292
 51
90.0
  0
LINE
  5
1C0
330
1F
100
AcDbEntity
  8
0
  6
CONTINUOUS
 62
     7
100
AcDbLine
 10
2.8042345286
 20
6.6916621783
 30
0.0
 11
2.8042345286
 21
6.6522920995
 31
0.0
  0
LINE
  5
1C1
330
1F
100
AcDbEntity
  8
0
  6
CONTINUOUS
 62
     7
100
AcDbLine
 10
2.9617148435
 20
6.6522920995
 30
0.0
 11
2.9617148435
 21
6.6916621783
 31
0.0
  0
LINE
  5
1C2
330
1F
100
AcDbEntity
  8
0
  6
CONTINUOUS
 62
     7
100
AcDbLine
 10
3.0732634
 20
7.3412684775
 30
0.0
 11
2.7254943711
 21
7.3412684775
 31
0.0
  0
LINE
  5
1C3
330
1F
100
AcDbEntity
  8
0
  6
CONTINUOUS
 62
     7
100
AcDbLine
 10
3.2656124813
 20
7.3412684775
 30
0.0
 11
3.1257568383
 21
7.3412684775
 31
0.0
  0
LINE
  5
1C4
330
1F
100
AcDbEntity
  8
0
  6
CONTINUOUS
 62
     7
100
AcDbLine
 10
3.1257568383
 20
6.0026858003
 30
0.0
 11
3.2656124813
 21
6.0026858003
 31
0.0
  0
LINE
  5
1C5
330
1F
100
AcDbEntity
  8
0
  6
CONTINUOUS
 62
     7
100
AcDbLine
 10
2.7254943711
 20
6.0026858003
 30
0.0
 11
3.0732634
 21
6.0026858003
 31
0.0
  0
LINE
  5
1C6
330
1F
100
AcDbEntity
  8
0
  6
CONTINUOUS
 62
     7
100
AcDbLine
 10
2.7254943711
 20
7.3412684775
 30
0.0
 11
2.7104943711
 21
7.3262684775
 31
0.0
  0
LINE
  5
1C7
330
1F
100
AcDbEntity
  8
0
  6
CONTINUOUS
 62
     7
100
AcDbLine
 10
2.7104943711
 20
6.0176858003
 30
0.0
 11
2.7254943711
 21
6.0026858003
 31
0.0
  0
LINE
  5
1C8
330
1F
100
AcDbEntity
  8
0
  6
CONTINUOUS
 62
     7
100
AcDbLine
 10
3.2656124813
 20
6.5341818633
 30
0.0
 11
3.306951064
 21
6.5341818633
 31
0.0
  0
LINE
  5
1C9
330
1F
100
AcDbEntity
  8
0
  6
CONTINUOUS
 62
     7
100
AcDbLine
 10
3.306951064
 20
6.8097724145
 30
0.0
 11
3.2656124813
 21
6.8097724145
 31
0.0
  0
LINE
  5
1CA
330
1F
100
AcDbEntity
  8
0
  6
CONTINUOUS
 62
     7
100
AcDbLine
 10
3.3463211428
 20
6.5341818633
 30
0.0
 11
3.3876597254
 21
6.5341818633
 31
0.0
  0
LINE
  5
1CB
330
1F
100
AcDbEntity
  8
0
  6
CONTINUOUS
 62
     7
100
AcDbLine
 10
3.3876597254
 20
6.8097724145
 30
0.0
 11
3.3463211428
 21
6.8097724145
 31
0.0
  0
LINE
  5
1CC
330
1F
100
AcDbEntity
  8
0
  6
CONTINUOUS
 62
     7
100
AcDbLine
 10
3.2656124813
 20
6.9967802885
 30
0.0
 11
3.306951064
 21
6.9967802885
 31
0.0
  0
LINE
  5
1CD
330
1F
100
AcDbEntity
  8
0
  6
CONTINUOUS
 62
     7
100
AcDbLine
 10
3.306951064
 20
7.2723708397
 30
0.0
 11
3.2656124813
 21
7.2723708397
 31
0.0
  0
LINE
  5
1CE
330
1F
100
AcDbEntity
  8
0
  6
CONTINUOUS
 62
     7
100
AcDbLine
 10
3.3463211428
 20
6.9967802885
 30
0.0
 11
3.3876597254
 21
6.9967802885
 31
0.0
  0
LINE
  5
1CF
330
1F
100
AcDbEntity
  8
0
  6
CONTINUOUS
 62
     7
100
AcDbLine
 10
3.3876597254
 20
7.2723708397
 30
0.0
 11
3.3463211428
 21
7.2723708397
 31
0.0
  0
LINE
  5
1D0
330
1F
100
AcDbEntity
  8
0
  6
CONTINUOUS
 62
     7
100
AcDbLine
 10
3.2656124813
 20
6.0715834381
 30
0.0
 11
3.306951064
 21
6.0715834381
 31
0.0
  0
LINE
  5
1D1
330
1F
100
AcDbEntity
  8
0
  6
CONTINUOUS
 62
     7
100
AcDbLine
 10
3.306951064
 20
6.3471739893
 30
0.0
 11
3.2656124813
 21
6.3471739893
 31
0.0
  0
LINE
  5
1D2
330
1F
100
AcDbEntity
  8
0
  6
CONTINUOUS
 62
     7
100
AcDbLine
 10
3.3463211428
 20
6.0715834381
 30
0.0
 11
3.3876597254
 21
6.0715834381
 31
0.0
  0
LINE
  5
1D3
330
1F
100
AcDbEntity
  8
0
  6
CONTINUOUS
 62
     7
100
AcDbLine
 10
3.3876597254
 20
6.3471739893
 30
0.0
 11
3.3463211428
 21
6.3471739893
 31
0.0
  0
LINE
  5
1D4
330
1F
100
AcDbEntity
  8
0
  6
CONTINUOUS
 62
     7
100
AcDbLine
 10
3.3463211428
 20
7.3068196586
 30
0.0
 11
3.306951064
 21
7.3068196586
 31
0.0
  0
LINE
  5
1D5
330
1F
100
AcDbEntity
  8
0
  6
CONTINUOUS
 62
     7
100
AcDbLine
 10
3.306951064
 20
6.0371346192
 30
0.0
 11
3.3463211428
 21
6.0371346192
 31
0.0
  0
SPLINE
  5
1D6
330
1F
100
AcDbEntity
  8
0
  6
CONTINUOUS
 62
     7
100
AcDbSpline
210
0.0
220
0.0
230
1.0
 70
     8
 71
     3
 72
    78
 73
    74
 74
     0
 42
0.00000001
 43
0.00000001
 40
-0.0312500000000002
 40
-0.0312500000000002
 40
0.0
 40
0.0
 40
0.03125
 40
0.03125
 40
0.0625
 40
0.0625
 40
0.09375
 40
0.09375
 40
0.1249999999999999
 40
0.1249999999999999
 40
0.1562499999999999
 40
0.1562499999999999
 40
0.1874999999999999
 40
0.1874999999999999
 40
0.2187499999999999
 40
0.2187499999999999
 40
0.2499999999999999
 40
0.2499999999999999
 40
0.2812499999999999
 40
0.2812499999999999
 40
0.3124999999999999
 40
0.3124999999999999
 40
0.3437499999999998
 40
0.3437499999999998
 40
0.3749999999999998
 40
0.3749999999999998
 40
0.4062499999999998
 40
0.4062499999999998
 40
0.4374999999999998
 40
0.4374999999999998
 40
0.4531249999999997
 40
0.4531249999999997
 40
0.4687499999999997
 40
0.4687499999999997
 40
0.4843749999999996
 40
0.4843749999999996
 40
0.4999999999999996
 40
0.4999999999999996
 40
0.5156249999999996
 40
0.5156249999999996
 40
0.5312499999999996
 40
0.5312499999999996
 40
0.5624999999999997
 40
0.5624999999999997
 40
0.5937499999999998
 40
0.5937499999999998
 40
0.6249999999999998
 40
0.6249999999999998
 40
0.6874999999999999
 40
0.6874999999999999
 40
0.7187499999999999
 40
0.7187499999999999
 40
0.7499999999999999
 40
0.7499999999999999
 40
0.7812499999999999
 40
0.7812499999999999
 40
0.8124999999999999
 40
0.8124999999999999
 40
0.8437499999999999
 40
0.8437499999999999
 40
0.8749999999999998
 40
0.8749999999999998
 40
0.9062499999999998
 40
0.9062499999999998
 40
0.9218749999999998
 40
0.9218749999999998
 40
0.9374999999999998
 40
0.9374999999999998
 40
0.9531249999999998
 40
0.9531249999999998
 40
0.9687499999999998
 40
0.9687499999999998
 40
1.0
 40
1.0
 40
1.03125
 40
1.03125
 10
3.780876885887181
 20
6.397148941385653
 30
0.0
 10
3.759718155527594
 20
6.397148941385652
 30
0.0
 10
3.749365937682643
 20
6.395946552011996
 30
0.0
 10
3.729096785876651
 20
6.391256081172496
 30
0.0
 10
3.719165602765683
 20
6.387717770183322
 30
0.0
 10
3.700802566284263
 20
6.378778402083338
 30
0.0
 10
3.692131246513896
 20
6.373272127995613
 30
0.0
 10
3.676513843231599
 20
6.36080318176506
 30
0.0
 10
3.669588322581197
 20
6.353897465196072
 30
0.0
 10
3.65738126626192
 20
6.338919940525025
 30
0.0
 10
3.652218228989085
 20
6.330971414604501
 30
0.0
 10
3.643761008717597
 20
6.314673935232985
 30
0.0
 10
3.640410758724729
 20
6.30619652622044
 30
0.0
 10
3.635510973710324
 20
6.289310489054189
 30
0.0
 10
3.633934691502377
 20
6.280885766692939
 30
0.0
 10
3.632327487184169
 20
6.264120468441691
 30
0.0
 10
3.632311285896405
 20
6.255783736282965
 30
0.0
 10
3.633676294224731
 20
6.23966646517115
 30
0.0
 10
3.635049537728967
 20
6.231823108975183
 30
0.0
 10
3.639082125577417
 20
6.216546323674485
 30
0.0
 10
3.64175287843063
 20
6.209113177971676
 30
0.0
 10
3.648210945276165
 20
6.194989857841626
 30
0.0
 10
3.652008284602023
 20
6.18824935627644
 30
0.0
 10
3.660771509826539
 20
6.175376173863962
 30
0.0
 10
3.665770523626987
 20
6.169207984170073
 30
0.0
 10
3.676959770903272
 20
6.1576668844723
 30
0.0
 10
3.683109784829866
 20
6.152318151701195
 30
0.0
 10
3.696777401560348
 20
6.142507208230483
 30
0.0
 10
3.704381126406501
 20
6.1380038693195
 30
0.0
 10
3.71680957688666
 20
6.13228132662283
 30
0.0
 10
3.721126942191699
 20
6.130540983132091
 30
0.0
 10
3.730184518240128
 20
6.127439299483201
 30
0.0
 10
3.73496312759797
 20
6.126071575783478
 30
0.0
 10
3.744734813444398
 20
6.12385760366906
 30
0.0
 10
3.749748268384214
 20
6.123000363654472
 30
0.0
 10
3.760067289767268
 20
6.121840622229747
 30
0.0
 10
3.765388446692318
 20
6.121546628300042
 30
0.0
 10
3.775846069475294
 20
6.121570894022212
 30
0.0
 10
3.781042809574111
 20
6.12187959599265
 30
0.0
 10
3.791373844353163
 20
6.123080522137016
 30
0.0
 10
3.796460008304946
 20
6.123972452410057
 30
0.0
 10
3.811077739854388
 20
6.127351565127381
 30
0.0
 10
3.82021211565393
 20
6.130596174786008
 30
0.0
 10
3.836673553488727
 20
6.138257916274961
 30
0.0
 10
3.844185091956052
 20
6.142735925155194
 30
0.0
 10
3.857892426008732
 20
6.152647512353833
 30
0.0
 10
3.86399881796603
 20
6.158007716941574
 30
0.0
 10
3.88057306092484
 20
6.17520837993536
 30
0.0
 10
3.889389636434935
 20
6.188325194906802
 30
0.0
 10
3.898995135154811
 20
6.209508190141361
 30
0.0
 10
3.901608108304527
 20
6.216841902988368
 30
0.0
 10
3.905600597810152
 20
6.232099350199857
 30
0.0
 10
3.906974292561639
 20
6.240058469380823
 30
0.0
 10
3.90829277557977
 20
6.256167099952205
 30
0.0
 10
3.908256206919669
 20
6.264363442950983
 30
0.0
 10
3.906633633119562
 20
6.281036871759743
 30
0.0
 10
3.905019872351726
 20
6.289595919777292
 30
0.0
 10
3.900088928388922
 20
6.306458829530619
 30
0.0
 10
3.896789291242901
 20
6.31477781359095
 30
0.0
 10
3.888308356549151
 20
6.331085435576931
 30
0.0
 10
3.883071879913296
 20
6.339107213604395
 30
0.0
 10
3.870995781015162
 20
6.353897543722019
 30
0.0
 10
3.864119403488563
 20
6.360768407717378
 30
0.0
 10
3.852402835067681
 20
6.370129316219939
 30
0.0
 10
3.848245339036184
 20
6.373095983296456
 30
0.0
 10
3.839687085979218
 20
6.378510140248588
 30
0.0
 10
3.83525927056403
 20
6.380981938451497
 30
0.0
 10
3.826105345116799
 20
6.385444713806068
 30
0.0
 10
3.821379296055344
 20
6.3874358042599
 30
0.0
 10
3.811616854988353
 20
6.390910096960563
 30
0.0
 10
3.806550873262032
 20
6.392397100286127
 30
0.0
 10
3.791275681059357
 20
6.395943368897115
 30
0.0
 10
3.780876885887181
 20
6.397148941385653
 30
0.0
 10
3.759718155527594
 20
6.397148941385652
 30
0.0
  0
LINE
  5
1D7
330
1F
100
AcDbEntity
  8
0
  6
CONTINUOUS
 62
     7
100
AcDbLine
 10
3.9277778357
 20
6.0029753488
 30
0.0
 11
3.9277778357
 21
7.3412684775
 31
0.0
  0
LINE
  5
1D8
330
1F
100
AcDbEntity
  8
0
  6
CONTINUOUS
 62
     7
100
AcDbLine
 10
3.9277778357
 20
6.0029753488
 30
0.0
 11
3.5800088068
 21
6.0029753488
 31
0.0
  0
LINE
  5
1D9
330
1F
100
AcDbEntity
  8
0
  6
CONTINUOUS
 62
     7
100
AcDbLine
 10
3.5800088068
 20
6.9574102098
 30
0.0
 11
3.5800088068
 21
6.0029753488
 31
0.0
  0
LINE
  5
1DA
330
1F
100
AcDbEntity
  8
0
  6
CONTINUOUS
 62
     7
100
AcDbLine
 10
3.5275153685
 20
6.9574102098
 30
0.0
 11
3.5800088068
 21
6.9574102098
 31
0.0
  0
LINE
  5
1DB
330
1F
100
AcDbEntity
  8
0
  6
CONTINUOUS
 62
     7
100
AcDbLine
 10
3.5275153685
 20
6.0026858003
 30
0.0
 11
3.5275153685
 21
6.9574102098
 31
0.0
  0
LINE
  5
1DC
330
1F
100
AcDbEntity
  8
0
  6
CONTINUOUS
 62
     7
100
AcDbLine
 10
3.3876597254
 20
7.3412684775
 30
0.0
 11
3.3876597254
 21
6.0026858003
 31
0.0
  0
LINE
  5
1DD
330
1F
100
AcDbEntity
  8
0
  6
CONTINUOUS
 62
     7
100
AcDbLine
 10
3.9427778357
 20
7.3262684775
 30
0.0
 11
3.9427778357
 21
6.0179819899
 31
0.0
  0
LINE
  5
1DE
330
1F
100
AcDbEntity
  8
0
  6
CONTINUOUS
 62
     7
100
AcDbLine
 10
3.9277778357
 20
6.0029753488
 30
0.0
 11
3.9427778357
 21
6.0179819899
 31
0.0
  0
CIRCLE
  5
1DF
330
1F
100
AcDbEntity
  8
0
  6
CONTINUOUS
 62
     7
100
AcDbCircle
 10
3.7702975207
 20
6.2593536658
 30
0.0
 40
0.1181102362204731
  0
CIRCLE
  5
1E0
330
1F
100
AcDbEntity
  8
0
  6
CONTINUOUS
 62
     7
100
AcDbCircle
 10
3.7702975207
 20
6.2593536658
 30
0.0
 40
0.1377952755905518
  0
LINE
  5
1E1
330
1F
100
AcDbEntity
  8
0
  6
CONTINUOUS
 62
     7
100
AcDbLine
 10
3.8293526388
 20
6.2252581775
 30
0.0
 11
3.8293526388
 21
6.2934491541
 31
0.0
  0
LINE
  5
1E2
330
1F
100
AcDbEntity
  8
0
  6
CONTINUOUS
 62
     7
100
AcDbLine
 10
3.8293526388
 20
6.2934491541
 30
0.0
 11
3.7702975207
 21
6.3275446425
 31
0.0
  0
LINE
  5
1E3
330
1F
100
AcDbEntity
  8
0
  6
CONTINUOUS
 62
     7
100
AcDbLine
 10
3.7702975207
 20
6.3275446425
 30
0.0
 11
3.7112424026
 21
6.2934491541
 31
0.0
  0
LINE
  5
1E4
330
1F
100
AcDbEntity
  8
0
  6
CONTINUOUS
 62
     7
100
AcDbLine
 10
3.7112424026
 20
6.2934491541
 30
0.0
 11
3.7112424026
 21
6.2252581775
 31
0.0
  0
LINE
  5
1E5
330
1F
100
AcDbEntity
  8
0
  6
CONTINUOUS
 62
     7
100
AcDbLine
 10
3.7112424026
 20
6.2252581775
 30
0.0
 11
3.7702975207
 21
6.1911626891
 31
0.0
  0
LINE
  5
1E6
330
1F
100
AcDbEntity
  8
0
  6
CONTINUOUS
 62
     7
100
AcDbLine
 10
3.7702975207
 20
6.1911626891
 30
0.0
 11
3.8293526388
 21
6.2252581775
 31
0.0
  0
LINE
  5
1E7
330
1F
100
AcDbEntity
  8
0
  6
CONTINUOUS
 62
     7
100
AcDbLine
 10
2.8829746861
 20
7.1739456429
 30
0.0
 11
2.7648644498
 21
7.1739456429
 31
0.0
  0
LINE
  5
1E8
330
1F
100
AcDbEntity
  8
0
  6
CONTINUOUS
 62
     7
100
AcDbLine
 10
3.0010849223
 20
7.1739456429
 30
0.0
 11
2.8829746861
 21
7.1739456429
 31
0.0
  0
LINE
  5
1E9
330
1F
100
AcDbEntity
  8
0
  6
CONTINUOUS
 62
     7
100
AcDbLine
 10
3.2656124813
 20
7.3412684775
 30
0.0
 11
3.2656124813
 21
6.0026858003
 31
0.0
  0
SPLINE
  5
1EA
330
1F
100
AcDbEntity
  8
0
  6
CONTINUOUS
 62
     7
100
AcDbSpline
210
0.0
220
0.0
230
1.0
 70
     8
 71
     3
 72
    78
 73
    74
 74
     0
 42
0.00000001
 43
0.00000001
 40
-0.03125
 40
-0.03125
 40
0.0
 40
0.0
 40
0.0312499999999999
 40
0.0312499999999999
 40
0.0624999999999998
 40
0.0624999999999998
 40
0.0937499999999997
 40
0.0937499999999997
 40
0.1249999999999997
 40
0.1249999999999997
 40
0.1562499999999997
 40
0.1562499999999997
 40
0.1874999999999996
 40
0.1874999999999996
 40
0.2187499999999996
 40
0.2187499999999996
 40
0.2499999999999996
 40
0.2499999999999996
 40
0.2812499999999995
 40
0.2812499999999995
 40
0.3124999999999995
 40
0.3124999999999995
 40
0.3437499999999994
 40
0.3437499999999994
 40
0.3749999999999994
 40
0.3749999999999994
 40
0.4062499999999994
 40
0.4062499999999994
 40
0.4374999999999993
 40
0.4374999999999993
 40
0.4531249999999993
 40
0.4531249999999993
 40
0.4687499999999993
 40
0.4687499999999993
 40
0.4843749999999992
 40
0.4843749999999992
 40
0.4999999999999991
 40
0.4999999999999991
 40
0.5156249999999991
 40
0.5156249999999991
 40
0.531249999999999
 40
0.531249999999999
 40
0.562499999999999
 40
0.562499999999999
 40
0.5937499999999991
 40
0.5937499999999991
 40
0.6249999999999991
 40
0.6249999999999991
 40
0.6874999999999992
 40
0.6874999999999992
 40
0.7187499999999993
 40
0.7187499999999993
 40
0.7499999999999994
 40
0.7499999999999994
 40
0.7812499999999997
 40
0.7812499999999997
 40
0.8124999999999998
 40
0.8124999999999998
 40
0.8437499999999999
 40
0.8437499999999999
 40
0.875
 40
0.875
 40
0.9062500000000001
 40
0.9062500000000001
 40
0.9218750000000001
 40
0.9218750000000001
 40
0.9375000000000001
 40
0.9375000000000001
 40
0.953125
 40
0.953125
 40
0.96875
 40
0.96875
 40
1.0
 40
1.0
 40
1.03125
 40
1.03125
 10
2.872395320881924
 20
7.282239670736772
 30
0.0
 10
2.893554051241511
 20
7.282239670736772
 30
0.0
 10
2.903906269086462
 20
7.281702209462256
 30
0.0
 10
2.924175420892454
 20
7.279556956140509
 30
0.0
 10
2.934106604003422
 20
7.277924375356355
 30
0.0
 10
2.952469640484843
 20
7.273649759850113
 30
0.0
 10
2.961140960255209
 20
7.270955655445185
 30
0.0
 10
2.976758363537506
 20
7.264573726151752
 30
0.0
 10
2.983683884187908
 20
7.260916594220399
 30
0.0
 10
2.995890940507186
 20
7.252577916945063
 30
0.0
 10
3.00105397778002
 20
7.247960838241583
 30
0.0
 10
3.009511198051507
 20
7.237995289278534
 30
0.0
 10
3.012861448044377
 20
7.232565352912796
 30
0.0
 10
3.017761233058781
 20
7.221177318613321
 30
0.0
 10
3.019337515266728
 20
7.215215197930186
 30
0.0
 10
3.020944719584937
 20
7.202743553206131
 30
0.0
 10
3.0209609208727
 20
7.196231381119378
 30
0.0
 10
3.019595912544374
 20
7.183022088240175
 30
0.0
 10
3.018222669040138
 20
7.176279581240508
 30
0.0
 10
3.014190081191689
 20
7.162527132225581
 30
0.0
 10
3.011519328338475
 20
7.155512248753489
 30
0.0
 10
3.00506126149294
 20
7.141585893604276
 30
0.0
 10
3.001263922167082
 20
7.134630016251427
 30
0.0
 10
2.992500696942566
 20
7.120784151019752
 30
0.0
 10
2.987501683142118
 20
7.113851391198966
 30
0.0
 10
2.976312435865833
 20
7.100363226421883
 30
0.0
 10
2.970162421939239
 20
7.093839461774608
 30
0.0
 10
2.956494805208758
 20
7.081458365519407
 30
0.0
 10
2.948891080362603
 20
7.075541899584032
 30
0.0
 10
2.936462629882445
 20
7.067817503575317
 30
0.0
 10
2.932145264577406
 20
7.065429577488827
 30
0.0
 10
2.923087688528977
 20
7.061125534306259
 30
0.0
 10
2.918309079171134
 20
7.059200204926923
 30
0.0
 10
2.908537393324707
 20
7.056059892747267
 30
0.0
 10
2.903523938384891
 20
7.054830150172946
 30
0.0
 10
2.893204917001837
 20
7.053161793661402
 30
0.0
 10
2.887883760076786
 20
7.052735788639813
 30
0.0
 10
2.877426137293811
 20
7.052770865148936
 30
0.0
 10
2.872229397194994
 20
7.053218132756091
 30
0.0
 10
2.861898362415943
 20
7.054945161344864
 30
0.0
 10
2.856812198464158
 20
7.056223904553142
 30
0.0
 10
2.842194466914717
 20
7.061013319766556
 30
0.0
 10
2.833060091115175
 20
7.065549108798167
 30
0.0
 10
2.816598653280378
 20
7.075878160433288
 30
0.0
 10
2.809087114813054
 20
7.081755370345431
 30
0.0
 10
2.795379780760372
 20
7.09424624774503
 30
0.0
 10
2.789273388803075
 20
7.100770769299331
 30
0.0
 10
2.772699145844264
 20
7.120844924710294
 30
0.0
 10
2.763882570334169
 20
7.135036949385732
 30
0.0
 10
2.754277071614294
 20
7.155889880120117
 30
0.0
 10
2.751664098464578
 20
7.162801001714191
 30
0.0
 10
2.747671608958953
 20
7.176520177981311
 30
0.0
 10
2.746297914207466
 20
7.183353196718274
 30
0.0
 10
2.744979431189335
 20
7.196535258749622
 30
0.0
 10
2.745015999849436
 20
7.202928994703323
 30
0.0
 10
2.746638573649542
 20
7.215322798526973
 30
0.0
 10
2.748252334417379
 20
7.221375767314949
 30
0.0
 10
2.753183278380183
 20
7.232736102411661
 30
0.0
 10
2.756482915526204
 20
7.238060931451091
 30
0.0
 10
2.764963850219953
 20
7.248028408143134
 30
0.0
 10
2.77020032685581
 20
7.252683722303121
 30
0.0
 10
2.782276425753943
 20
7.260915076467445
 30
0.0
 10
2.789152803280543
 20
7.264555548413432
 30
0.0
 10
2.800869371701424
 20
7.269347271500794
 30
0.0
 10
2.80502686773292
 20
7.27083443700946
 30
0.0
 10
2.813585120789887
 20
7.273506131864321
 30
0.0
 10
2.818012936205076
 20
7.274703284964049
 30
0.0
 10
2.827166861652306
 20
7.276837604795476
 30
0.0
 10
2.83189291071376
 20
7.277774793532176
 30
0.0
 10
2.841655351780752
 20
7.279394530330468
 30
0.0
 10
2.846721333507073
 20
7.280078764954864
 30
0.0
 10
2.861996525709749
 20
7.281700857060956
 30
0.0
 10
2.872395320881924
 20
7.282239670736772
 30
0.0
 10
2.893554051241511
 20
7.282239670736772
 30
0.0
  0
SPLINE
  5
1EB
330
1F
100
AcDbEntity
  8
0
  6
CONTINUOUS
 62
     7
100
AcDbSpline
210
0.0
220
0.0
230
1.0
 70
     8
 71
     3
 72
    60
 73
    56
 74
     0
 42
0.00000001
 43
0.00000001
 40
-0.0312500000000001
 40
-0.0312500000000001
 40
0.0
 40
0.0
 40
0.0312500000000002
 40
0.0312500000000002
 40
0.0625000000000003
 40
0.0625000000000003
 40
0.0937500000000005
 40
0.0937500000000005
 40
0.1250000000000007
 40
0.1250000000000007
 40
0.1875000000000006
 40
0.1875000000000006
 40
0.2187500000000006
 40
0.2187500000000006
 40
0.2500000000000006
 40
0.2500000000000006
 40
0.3125000000000007
 40
0.3125000000000007
 40
0.3750000000000009
 40
0.3750000000000009
 40
0.4062500000000008
 40
0.4062500000000008
 40
0.4375000000000007
 40
0.4375000000000007
 40
0.4687500000000006
 40
0.4687500000000006
 40
0.5000000000000004
 40
0.5000000000000004
 40
0.5312500000000004
 40
0.5312500000000004
 40
0.5625000000000002
 40
0.5625000000000002
 40
0.5937500000000002
 40
0.5937500000000002
 40
0.6250000000000001
 40
0.6250000000000001
 40
0.6562500000000001
 40
0.6562500000000001
 40
0.6875
 40
0.6875
 40
0.7499999999999998
 40
0.7499999999999998
 40
0.8124999999999997
 40
0.8124999999999997
 40
0.8437499999999997
 40
0.8437499999999997
 40
0.8749999999999998
 40
0.8749999999999998
 40
0.9062499999999998
 40
0.9062499999999998
 40
0.9374999999999999
 40
0.9374999999999999
 40
0.9687499999999999
 40
0.9687499999999999
 40
1.0
 40
1.0
 40
1.03125
 40
1.03125
 10
2.888955937552111
 20
6.217540478397312
 30
0.0
 10
2.876993434571324
 20
6.217540478397312
 30
0.0
 10
2.871204042351035
 20
6.21681135372354
 30
0.0
 10
2.85996370457796
 20
6.214082539055688
 30
0.0
 10
2.854630680726262
 20
6.212096895614439
 30
0.0
 10
2.844830327632127
 20
6.20731782410355
 30
0.0
 10
2.840299427482494
 20
6.204494814343325
 30
0.0
 10
2.832189611158399
 20
6.198445115576898
 30
0.0
 10
2.828549258517793
 20
6.195187463007878
 30
0.0
 10
2.818689280947733
 20
6.184874856606597
 30
0.0
 10
2.813774542771708
 20
6.177588979358846
 30
0.0
 10
2.808517613270788
 20
6.166432561004084
 30
0.0
 10
2.807125414951871
 20
6.162650596407206
 30
0.0
 10
2.805139600957432
 20
6.155211333282211
 30
0.0
 10
2.804531309940571
 20
6.151528536732589
 30
0.0
 10
2.803893842029957
 20
6.140594976263452
 30
0.0
 10
2.805085683809123
 20
6.133420582830182
 30
0.0
 10
2.811083139381438
 20
6.120265365796952
 30
0.0
 10
2.815983610281164
 20
6.114121791265286
 30
0.0
 10
2.826193964289013
 20
6.10634354977252
 30
0.0
 10
2.830147295348376
 20
6.103939005129694
 30
0.0
 10
2.838804304102021
 20
6.099776775533209
 30
0.0
 10
2.843520176343962
 20
6.097994036503113
 30
0.0
 10
2.853805650708942
 20
6.09503675075323
 30
0.0
 10
2.859358328056226
 20
6.093882806232847
 30
0.0
 10
2.870683752754768
 20
6.092343546254361
 30
0.0
 10
2.87662499551215
 20
6.091933700179912
 30
0.0
 10
2.888461773172003
 20
6.091896379746364
 30
0.0
 10
2.894303252971178
 20
6.092255777986574
 30
0.0
 10
2.905832554883428
 20
6.093742675334296
 30
0.0
 10
2.911345147834157
 20
6.094852805846501
 30
0.0
 10
2.921706531482683
 20
6.097746857795085
 30
0.0
 10
2.926593068625406
 20
6.099551529680466
 30
0.0
 10
2.935349499797192
 20
6.103685628890097
 30
0.0
 10
2.939319320182971
 20
6.106057323224049
 30
0.0
 10
2.946246630128511
 20
6.111247328787514
 30
0.0
 10
2.949197477305074
 20
6.114047052339108
 30
0.0
 10
2.954181871470126
 20
6.120053634793632
 30
0.0
 10
2.956195291180386
 20
6.123251153402709
 30
0.0
 10
2.960797729840119
 20
6.133143844874096
 30
0.0
 10
2.962033693948594
 20
6.140319977980956
 30
0.0
 10
2.961255888302738
 20
6.154937297523019
 30
0.0
 10
2.959237554340575
 20
6.162544019053607
 30
0.0
 10
2.954034218312809
 20
6.17366997301081
 30
0.0
 10
2.951936431546127
 20
6.17734609866923
 30
0.0
 10
2.946960505373514
 20
6.184605938763305
 30
0.0
 10
2.944058302480502
 20
6.18821091634589
 30
0.0
 10
2.937536985634409
 20
6.195056592470587
 30
0.0
 10
2.933909218836256
 20
6.198321521895644
 30
0.0
 10
2.925762184488072
 20
6.204422806396797
 30
0.0
 10
2.921234211257727
 20
6.207250614818349
 30
0.0
 10
2.911467990849173
 20
6.212034844741233
 30
0.0
 10
2.906095547492132
 20
6.214045704605264
 30
0.0
 10
2.894883704450343
 20
6.216787696995766
 30
0.0
 10
2.888955937552111
 20
6.217540478397312
 30
0.0
 10
2.876993434571324
 20
6.217540478397312
 30
0.0
  0
LINE
  5
1EC
330
1F
100
AcDbEntity
  8
0
  6
CONTINUOUS
 62
     7
100
AcDbLine
 10
3.1257568383
 20
7.2773521119
 30
0.0
 11
3.0732634
 21
7.2773521119
 31
0.0
  0
LINE
  5
1ED
330
1F
100
AcDbEntity
  8
0
  6
CONTINUOUS
 62
     7
100
AcDbLine
 10
3.0732634
 20
7.3412684775
 30
0.0
 11
3.0732634
 21
6.6916621783
 31
0.0
  0
LINE
  5
1EE
330
1F
100
AcDbEntity
  8
0
  6
CONTINUOUS
 62
     7
100
AcDbLine
 10
2.7254943711
 20
6.6916621783
 30
0.0
 11
3.0732634
 21
6.6916621783
 31
0.0
  0
LINE
  5
1EF
330
1F
100
AcDbEntity
  8
0
  6
CONTINUOUS
 62
     7
100
AcDbLine
 10
2.7254943711
 20
6.6916621783
 30
0.0
 11
2.7254943711
 21
7.3412684775
 31
0.0
  0
LINE
  5
1F0
330
1F
100
AcDbEntity
  8
0
  6
CONTINUOUS
 62
     7
100
AcDbLine
 10
2.7254943711
 20
6.0026858003
 30
0.0
 11
2.7254943711
 21
6.6522920995
 31
0.0
  0
LINE
  5
1F1
330
1F
100
AcDbEntity
  8
0
  6
CONTINUOUS
 62
     7
100
AcDbLine
 10
2.7254943711
 20
6.6522920995
 30
0.0
 11
3.0732634
 21
6.6522920995
 31
0.0
  0
LINE
  5
1F2
330
1F
100
AcDbEntity
  8
0
  6
CONTINUOUS
 62
     7
100
AcDbLine
 10
3.0732634
 20
6.6522920995
 30
0.0
 11
3.0732634
 21
6.0026858003
 31
0.0
  0
LINE
  5
1F3
330
1F
100
AcDbEntity
  8
0
  6
CONTINUOUS
 62
     7
100
AcDbLine
 10
3.0732634
 20
6.0666021659
 30
0.0
 11
3.1257568383
 21
6.0666021659
 31
0.0
  0
LINE
  5
1F4
330
1F
100
AcDbEntity
  8
0
  6
CONTINUOUS
 62
     7
100
AcDbLine
 10
3.1257568383
 20
6.0026858003
 30
0.0
 11
3.1257568383
 21
7.3412684775
 31
0.0
  0
LINE
  5
1F5
330
1F
100
AcDbEntity
  8
0
  6
CONTINUOUS
 62
     7
100
AcDbLine
 10
2.7254943711
 20
6.6916621783
 30
0.0
 11
2.7104943711
 21
6.6916621783
 31
0.0
  0
LINE
  5
1F6
330
1F
100
AcDbEntity
  8
0
  6
CONTINUOUS
 62
     7
100
AcDbLine
 10
2.7104943711
 20
6.6522920995
 30
0.0
 11
2.7104943711
 21
6.0176858003
 31
0.0
  0
LINE
  5
1F7
330
1F
100
AcDbEntity
  8
0
  6
CONTINUOUS
 62
     7
100
AcDbLine
 10
2.7104943711
 20
7.3262684775
 30
0.0
 11
2.7104943711
 21
6.6916621783
 31
0.0
  0
LINE
  5
1F8
330
1F
100
AcDbEntity
  8
0
  6
CONTINUOUS
 62
     7
100
AcDbLine
 10
2.7254943711
 20
6.6522920995
 30
0.0
 11
2.7104943711
 21
6.6522920995
 31
0.0
  0
LINE
  5
1F9
330
1F
100
AcDbEntity
  8
0
  6
CONTINUOUS
 62
     7
100
AcDbLine
 10
3.3463211428
 20
6.7937721061
 30
0.0
 11
3.306951064
 21
6.7937721061
 31
0.0
  0
LINE
  5
1FA
330
1F
100
AcDbEntity
  8
0
  6
CONTINUOUS
 62
     7
100
AcDbLine
 10
3.3463211428
 20
6.5501821717
 30
0.0
 11
3.306951064
 21
6.5501821717
 31
0.0
  0
LINE
  5
1FB
330
1F
100
AcDbEntity
  8
0
  6
CONTINUOUS
 62
     7
100
AcDbLine
 10
3.3463211428
 20
6.7937721061
 30
0.0
 11
3.3463211428
 21
6.5501821717
 31
0.0
  0
LINE
  5
1FC
330
1F
100
AcDbEntity
  8
0
  6
CONTINUOUS
 62
     7
100
AcDbLine
 10
3.306951064
 20
6.7937721061
 30
0.0
 11
3.306951064
 21
6.5501821717
 31
0.0
  0
LINE
  5
1FD
330
1F
100
AcDbEntity
  8
0
  6
CONTINUOUS
 62
     7
100
AcDbLine
 10
3.3463211428
 20
7.2563705313
 30
0.0
 11
3.306951064
 21
7.2563705313
 31
0.0
  0
LINE
  5
1FE
330
1F
100
AcDbEntity
  8
0
  6
CONTINUOUS
 62
     7
100
AcDbLine
 10
3.3463211428
 20
7.2563705313
 30
0.0
 11
3.3463211428
 21
6.7937721061
 31
0.0
  0
LINE
  5
1FF
330
1F
100
AcDbEntity
  8
0
  6
CONTINUOUS
 62
     7
100
AcDbLine
 10
3.306951064
 20
7.2563705313
 30
0.0
 11
3.306951064
 21
6.7937721061
 31
0.0
  0
LINE
  5
200
330
1F
100
AcDbEntity
  8
0
  6
CONTINUOUS
 62
     7
100
AcDbLine
 10
3.3463211428
 20
6.0875837465
 30
0.0
 11
3.306951064
 21
6.0875837465
 31
0.0
  0
LINE
  5
201
330
1F
100
AcDbEntity
  8
0
  6
CONTINUOUS
 62
     7
100
AcDbLine
 10
3.3463211428
 20
6.5501821717
 30
0.0
 11
3.3463211428
 21
6.0875837465
 31
0.0
  0
LINE
  5
202
330
1F
100
AcDbEntity
  8
0
  6
CONTINUOUS
 62
     7
100
AcDbLine
 10
3.306951064
 20
6.5501821717
 30
0.0
 11
3.306951064
 21
6.0875837465
 31
0.0
  0
SPLINE
  5
203
330
1F
100
AcDbEntity
  8
0
  6
CONTINUOUS
 62
     7
100
AcDbSpline
210
0.0
220
0.0
230
1.0
 70
     8
 71
     3
 72
     8
 73
     4
 74
     0
 42
0.00000001
 43
0.00000001
 40
0.0
 40
0.0
 40
0.0
 40
0.0
 40
1.0
 40
1.0
 40
1.0
 40
1.0
 10
3.038159734492536
 20
6.691662178286505
 30
0.0
 10
3.037374170334651
 20
6.678538818706452
 30
0.0
 10
3.037374170334651
 20
6.665415459126399
 30
0.0
 10
3.038159734492536
 20
6.652292099546347
 30
0.0
  0
LINE
  5
204
330
1F
100
AcDbEntity
  8
0
  6
CONTINUOUS
 62
     7
100
AcDbLine
 10
3.0732634
 20
6.6916621783
 30
0.0
 11
3.0732634
 21
6.6522920995
 31
0.0
  0
LINE
  5
205
330
1F
100
AcDbEntity
  8
0
  6
CONTINUOUS
 62
     7
100
AcDbLine
 10
3.3463211428
 20
7.3068196586
 30
0.0
 11
3.3463211428
 21
7.2563705313
 31
0.0
  0
LINE
  5
206
330
1F
100
AcDbEntity
  8
0
  6
CONTINUOUS
 62
     7
100
AcDbLine
 10
3.306951064
 20
7.3068196586
 30
0.0
 11
3.306951064
 21
7.2563705313
 31
0.0
  0
LINE
  5
207
330
1F
100
AcDbEntity
  8
0
  6
CONTINUOUS
 62
     7
100
AcDbLine
 10
3.3463211428
 20
6.0875837465
 30
0.0
 11
3.3463211428
 21
6.0371346192
 31
0.0
  0
LINE
  5
208
330
1F
100
AcDbEntity
  8
0
  6
CONTINUOUS
 62
     7
100
AcDbLine
 10
3.306951064
 20
6.0875837465
 30
0.0
 11
3.306951064
 21
6.0371346192
 31
0.0
  0
LINE
  5
209
330
1F
100
AcDbEntity
  8
0
  6
CONTINUOUS
 62
     7
100
AcDbLine
 10
2.7104943711
 20
6.6916621783
 30
0.0
 11
2.7104943711
 21
6.6522920995
 31
0.0
  0
LINE
  5
20A
330
1F
100
AcDbEntity
  8
0
  6
CONTINUOUS
 62
     8
100
AcDbLine
 10
2.8829746861
 20
7.1542606035
 30
0.0
 11
3.011178525
 21
7.1542606035
 31
0.0
  0
LINE
  5
20B
330
1F
100
AcDbEntity
  8
0
  6
CONTINUOUS
 62
     8
100
AcDbLine
 10
2.7550045669
 20
7.1542606035
 30
0.0
 11
2.8829746861
 21
7.1542606035
 31
0.0
  0
CIRCLE
  5
20C
330
1F
100
AcDbEntity
  8
0
  6
HIDDEN
 62
     7
100
AcDbCircle
 10
3.7702975207
 20
6.2593536658
 30
0.0
 40
0.0787401574803157
  0
LINE
  5
20D
330
1F
100
AcDbEntity
  8
0
  6
HIDDEN
 62
     7
100
AcDbLine
 10
3.5800088068
 20
6.5157319828
 30
0.0
 11
3.9277778357
 21
6.5157319828
 31
0.0
  0
LINE
  5
20E
330
1F
100
AcDbEntity
  8
0
  6
HIDDEN
 62
     7
100
AcDbLine
 10
3.9277778357
 20
6.8282222951
 30
0.0
 11
3.6151124723
 21
6.8282222951
 31
0.0
  0
ARC
  5
20F
330
1F
100
AcDbEntity
  8
0
  6
HIDDEN
 62
     7
100
AcDbCircle
 10
3.9427778357
 20
6.6725406393
 30
0.0
 40
0.3627690288713913
100
AcDbArc
 50
90.0
 51
154.5864885796
  0
SPLINE
  5
210
330
1F
100
AcDbEntity
  8
0
  6
HIDDEN
 62
     7
100
AcDbSpline
210
0.0
220
0.0
230
1.0
 70
     8
 71
     3
 72
     8
 73
     4
 74
     0
 42
0.00000001
 43
0.00000001
 40
0.0
 40
0.0
 40
0.0
 40
0.0
 40
1.0
 40
1.0
 40
1.0
 40
1.0
 10
3.927777835668018
 20
6.828222295081658
 30
0.0
 10
3.932776099474871
 20
6.83326007147024
 30
0.0
 10
3.937776253741645
 20
6.838295975453183
 30
0.0
 10
3.942777835668017
 20
6.843330453077304
 30
0.0
  0
SPLINE
  5
211
330
1F
100
AcDbEntity
  8
0
  6
HIDDEN
 62
     7
100
AcDbSpline
210
0.0
220
0.0
230
1.0
 70
     8
 71
     3
 72
     8
 73
     4
 74
     0
 42
0.00000001
 43
0.00000001
 40
0.0
 40
0.0
 40
0.0
 40
0.0
 40
1.0
 40
1.0
 40
1.0
 40
1.0
 10
3.942777835668017
 20
6.500623824755549
 30
0.0
 10
3.937776253642719
 20
6.505658302479247
 30
0.0
 10
3.932776096708661
 20
6.51069420915069
 30
0.0
 10
3.927777835668018
 20
6.515731982751195
 30
0.0
  0
CIRCLE
  5
212
330
1F
100
AcDbEntity
  8
0
  6
HIDDEN
 62
     7
100
AcDbCircle
 10
3.7702975207
 20
6.2593536658
 30
0.0
 40
0.0590551181102361
  0
LINE
  5
213
330
1F
100
AcDbEntity
  8
0
  6
HIDDEN
 62
     7
100
AcDbLine
 10
2.8829746861
 20
7.0164653279
 30
0.0
 11
2.7451794105
 21
7.0164653279
 31
0.0
  0
LINE
  5
214
330
1F
100
AcDbEntity
  8
0
  6
HIDDEN
 62
     7
100
AcDbLine
 10
3.0207699617
 20
7.0164653279
 30
0.0
 11
2.8829746861
 21
7.0164653279
 31
0.0
  0
LINE
  5
215
330
1F
100
AcDbEntity
  8
0
  6
HIDDEN
 62
     7
100
AcDbLine
 10
2.8042345286
 20
6.2782763515
 30
0.0
 11
2.9617148435
 21
6.2782763515
 31
0.0
  0
LINE
  5
216
330
1F
100
AcDbEntity
  8
0
  6
HIDDEN
 62
     7
100
AcDbLine
 10
2.823919568
 20
6.2585913121
 30
0.0
 11
2.9420298042
 21
6.2585913121
 31
0.0
  0
LINE
  5
217
330
1F
100
AcDbEntity
  8
0
  6
HIDDEN
 62
     7
100
AcDbLine
 10
2.8829746861
 20
7.0164653279
 30
0.0
 11
2.8829746861
 21
7.1739456429
 31
0.0
  0
LINE
  5
218
330
1F
100
AcDbEntity
  8
0
  6
HIDDEN
 62
     7
100
AcDbLine
 10
2.823919568
 20
7.0164653279
 30
0.0
 11
2.823919568
 21
7.1739456429
 31
0.0
  0
LINE
  5
219
330
1F
100
AcDbEntity
  8
0
  6
HIDDEN
 62
     7
100
AcDbLine
 10
2.9420298042
 20
7.0164653279
 30
0.0
 11
2.9420298042
 21
7.1739456429
 31
0.0
  0
LINE
  5
21A
330
1F
100
AcDbEntity
  8
0
  6
HIDDEN
 62
     7
100
AcDbLine
 10
2.7254943711
 20
6.6916621783
 30
0.0
 11
2.7254943711
 21
6.6522920995
 31
0.0
  0
LINE
  5
21B
330
1F
100
AcDbEntity
  8
0
  6
HIDDEN
 62
     7
100
AcDbLine
 10
3.3463211428
 20
7.2563705313
 30
0.0
 11
3.306951064
 21
7.2563705313
 31
0.0
  0
LINE
  5
21C
330
1F
100
AcDbEntity
  8
0
  6
HIDDEN
 62
     7
100
AcDbLine
 10
3.3463211428
 20
6.0875837465
 30
0.0
 11
3.306951064
 21
6.0875837465
 31
0.0
  0
LINE
  5
21D
330
1F
100
AcDbEntity
  8
0
  6
HIDDEN
 62
     7
100
AcDbLine
 10
3.3463211428
 20
6.5501821717
 30
0.0
 11
3.306951064
 21
6.5501821717
 31
0.0
  0
LINE
  5
21E
330
1F
100
AcDbEntity
  8
0
  6
HIDDEN
 62
     7
100
AcDbLine
 10
3.3463211428
 20
6.7937721061
 30
0.0
 11
3.306951064
 21
6.7937721061
 31
0.0
  0
LINE
  5
21F
330
1F
100
AcDbEntity
  8
0
  6
HIDDEN
 62
     7
100
AcDbLine
 10
3.6156964876
 20
6.8294574539
 30
0.0
 11
3.5800088068
 21
6.8294574539
 31
0.0
  0
LINE
  5
220
330
1F
100
AcDbEntity
  8
0
  6
HIDDEN
 62
     7
100
AcDbLine
 10
3.5275153685
 20
6.8294574539
 30
0.0
 11
3.3876597254
 21
6.8294574539
 31
0.0
  0
LINE
  5
221
330
1F
100
AcDbEntity
  8
0
  6
HIDDEN
 62
     7
100
AcDbLine
 10
3.3876597254
 20
6.514496824
 30
0.0
 11
3.5275153685
 21
6.514496824
 31
0.0
  0
LINE
  5
222
330
1F
100
AcDbEntity
  8
0
  6
HIDDEN
 62
     7
100
AcDbLine
 10
3.0207699617
 20
7.0164653279
 30
0.0
 11
3.0207699617
 21
7.1542606035
 31
0.0
  0
LINE
  5
223
330
1F
100
AcDbEntity
  8
0
  6
HIDDEN
 62
     7
100
AcDbLine
 10
2.7451794105
 20
7.1542606035
 30
0.0
 11
2.7451794105
 21
7.0164653279
 31
0.0
  0
ARC
  5
224
330
1F
100
AcDbEntity
  8
0
  6
HIDDEN
 62
     7
100
AcDbCircle
 10
2.7648644498
 20
7.1542606035
 30
0.0
 40
0.0196850393700791
100
AcDbArc
 50
135.7551395816
 51
180.0
  0
ARC
  5
225
330
1F
100
AcDbEntity
  8
0
  6
HIDDEN
 62
     7
100
AcDbCircle
 10
3.0010849223
 20
7.1542606035
 30
0.0
 40
0.0196850393700787
100
AcDbArc
 50
0.0
 51
42.9924807292
  0
LINE
  5
226
330
1F
100
AcDbEntity
  8
0
  6
HIDDEN
 62
     7
100
AcDbLine
 10
2.8042345286
 20
7.0164653279
 30
0.0
 11
2.8042345286
 21
6.6916621783
 31
0.0
  0
LINE
  5
227
330
1F
100
AcDbEntity
  8
0
  6
HIDDEN
 62
     7
100
AcDbLine
 10
2.8042345286
 20
6.6522920995
 30
0.0
 11
2.8042345286
 21
6.2782763515
 31
0.0
  0
LINE
  5
228
330
1F
100
AcDbEntity
  8
0
  6
HIDDEN
 62
     7
100
AcDbLine
 10
2.9617148435
 20
6.2782763515
 30
0.0
 11
2.9617148435
 21
6.6522920995
 31
0.0
  0
LINE
  5
229
330
1F
100
AcDbEntity
  8
0
  6
HIDDEN
 62
     7
100
AcDbLine
 10
2.9617148435
 20
6.6916621783
 30
0.0
 11
2.9617148435
 21
7.0164653279
 31
0.0
  0
ARC
  5
22A
330
1F
100
AcDbEntity
  8
0
  6
HIDDEN
 62
     7
100
AcDbCircle
 10
2.9420298042
 20
6.2782763515
 30
0.0
 40
0.0196850393700796
100
AcDbArc
 50
270.0
 51
0.0
  0
ARC
  5
22B
330
1F
100
AcDbEntity
  8
0
  6
HIDDEN
 62
     7
100
AcDbCircle
 10
2.823919568
 20
6.2782763515
 30
0.0
 40
0.0196850393700796
100
AcDbArc
 50
180.0
 51
270.0
  0
LINE
  5
22C
330
1F
100
AcDbEntity
  8
0
  6
HIDDEN
 62
     7
100
AcDbLine
 10
3.0207699617
 20
7.0164653279
 30
0.0
 11
3.0207699617
 21
7.1988088271
 31
0.0
  0
LINE
  5
22D
330
1F
100
AcDbEntity
  8
0
  6
HIDDEN
 62
     7
100
AcDbLine
 10
2.7451794105
 20
7.1988088428
 30
0.0
 11
2.7451794105
 21
7.0164653279
 31
0.0
  0
LINE
  5
22E
330
1F
100
AcDbEntity
  8
0
  6
HIDDEN
 62
     7
100
AcDbLine
 10
2.8042345286
 20
6.6522920995
 30
0.0
 11
2.8042345286
 21
6.14511367
 31
0.0
  0
LINE
  5
22F
330
1F
100
AcDbEntity
  8
0
  6
HIDDEN
 62
     7
100
AcDbLine
 10
2.9617148435
 20
6.1450866144
 30
0.0
 11
2.9617148435
 21
6.6522920995
 31
0.0
  0
LINE
  5
230
330
1F
100
AcDbEntity
  8
0
  6
HIDDEN
 62
     7
100
AcDbLine
 10
2.8042345286
 20
7.0164653279
 30
0.0
 11
2.8042345286
 21
6.6916621783
 31
0.0
  0
LINE
  5
231
330
1F
100
AcDbEntity
  8
0
  6
HIDDEN
 62
     7
100
AcDbLine
 10
2.9617148435
 20
6.6916621783
 30
0.0
 11
2.9617148435
 21
7.0164653279
 31
0.0
  0
LINE
  5
232
330
1F
100
AcDbEntity
  8
0
  6
HIDDEN
 62
     7
100
AcDbLine
 10
3.3463211428
 20
6.9081976114
 30
0.0
 11
3.306951064
 21
6.9081976114
 31
0.0
  0
LINE
  5
233
330
1F
100
AcDbEntity
  8
0
  6
HIDDEN
 62
     7
100
AcDbLine
 10
3.306951064
 20
6.4357566665
 30
0.0
 11
3.3463211428
 21
6.4357566665
 31
0.0
  0
LINE
  5
234
330
1F
100
AcDbEntity
  8
0
  6
HIDDEN
 62
     7
100
AcDbLine
 10
2.7254943711
 20
6.8294574539
 30
0.0
 11
2.7104943711
 21
6.8444574539
 31
0.0
  0
LINE
  5
235
330
1F
100
AcDbEntity
  8
0
  6
HIDDEN
 62
     7
100
AcDbLine
 10
2.7104943711
 20
6.499496824
 30
0.0
 11
2.7254943711
 21
6.514496824
 31
0.0
  0
LINE
  5
236
330
1F
100
AcDbEntity
  8
0
  6
HIDDEN
 62
     7
100
AcDbLine
 10
3.1257568383
 20
6.514496824
 30
0.0
 11
3.2656124813
 21
6.514496824
 31
0.0
  0
LINE
  5
237
330
1F
100
AcDbEntity
  8
0
  6
HIDDEN
 62
     7
100
AcDbLine
 10
3.2656124813
 20
6.8294574539
 30
0.0
 11
3.1257568383
 21
6.8294574539
 31
0.0
  0
LINE
  5
238
330
1F
100
AcDbEntity
  8
0
  6
HIDDEN
 62
     7
100
AcDbLine
 10
2.7254943711
 20
6.514496824
 30
0.0
 11
3.0732634
 21
6.514496824
 31
0.0
  0
LINE
  5
239
330
1F
100
AcDbEntity
  8
0
  6
HIDDEN
 62
     7
100
AcDbLine
 10
3.0732634
 20
6.8294574539
 30
0.0
 11
2.7254943711
 21
6.8294574539
 31
0.0
  0
LINE
  5
23A
330
1F
100
AcDbEntity
  8
0
  6
HIDDEN
 62
     7
100
AcDbLine
 10
2.7452282436
 20
7.1542606035
 30
0.0
 11
3.0207211285
 21
7.1542606035
 31
0.0
  0
LINE
  5
23B
330
1F
100
AcDbEntity
  8
0
  6
CONTINUOUS
 62
     7
100
AcDbLine
 10
8.5986887025
 20
6.0605992042
 30
0.0
 11
8.6092935803
 21
6.0667232602
 31
0.0
  0
LINE
  5
23C
330
1F
100
AcDbEntity
  8
0
  6
CONTINUOUS
 62
     7
100
AcDbLine
 10
9.0718722285
 20
6.8680198034
 30
0.0
 11
9.0718722285
 21
6.880265925
 31
0.0
  0
LINE
  5
23D
330
1F
100
AcDbEntity
  8
0
  6
CONTINUOUS
 62
     7
100
AcDbLine
 10
8.1880883553
 20
6.0712384817
 30
0.0
 11
8.2639933108
 21
6.0274194837
 31
0.0
  0
LINE
  5
23E
330
1F
100
AcDbEntity
  8
0
  6
CONTINUOUS
 62
     7
100
AcDbLine
 10
8.0180834722
 20
6.1693802118
 30
0.0
 11
8.1173836275
 21
6.1120554523
 31
0.0
  0
LINE
  5
23F
330
1F
100
AcDbEntity
  8
0
  6
CONTINUOUS
 62
     7
100
AcDbLine
 10
7.8820721324
 20
6.2478978869
 30
0.0
 11
7.980965006
 21
6.1908082462
 31
0.0
  0
LINE
  5
240
330
1F
100
AcDbEntity
  8
0
  6
CONTINUOUS
 62
     7
100
AcDbLine
 10
8.9332302579
 20
7.1866974884
 30
0.0
 11
8.5513090795
 21
7.4071758917
 31
0.0
  0
SPLINE
  5
241
330
1F
100
AcDbEntity
  8
0
  6
CONTINUOUS
 62
     7
100
AcDbSpline
210
0.0
220
0.0
230
1.0
 70
     8
 71
     3
 72
    34
 73
    30
 74
     0
 42
0.00000001
 43
0.00000001
 40
0.0
 40
0.0
 40
0.0
 40
0.0
 40
0.0311948067694334
 40
0.0673664858038134
 40
0.1043347717244563
 40
0.1418919501596121
 40
0.179786414657032
 40
0.2177971978576832
 40
0.2557650047248471
 40
0.2936406002472253
 40
0.3314157884530219
 40
0.3691054524739634
 40
0.4067362673392794
 40
0.4443405949927375
 40
0.4819535197040837
 40
0.5196017096286466
 40
0.5573200308340764
 40
0.5951453795294646
 40
0.6331122519452308
 40
0.6712479997735993
 40
0.7095632580873543
 40
0.7480346265746008
 40
0.7865524478734912
 40
0.8248876302390983
 40
0.8627419660510447
 40
0.8998037053695869
 40
0.9358763395864443
 40
0.9709706606567808
 40
1.0
 40
1.0
 40
1.0
 40
1.0
 10
8.322224461223731
 20
6.93180918511121
 30
0.0
 10
8.320570271576761
 20
6.934187522925361
 30
0.0
 10
8.31699798006705
 20
6.939323642593545
 30
0.0
 10
8.310066591176117
 20
6.946557728289601
 30
0.0
 10
8.301760614565623
 20
6.953640136851814
 30
0.0
 10
8.29228310751845
 20
6.960131816324053
 30
0.0
 10
8.281788051034184
 20
6.965968869223587
 30
0.0
 10
8.270402787678014
 20
6.971077923595731
 30
0.0
 10
8.258274483693482
 20
6.975412442164902
 30
0.0
 10
8.245542017645755
 20
6.978940852444211
 30
0.0
 10
8.23233690466925
 20
6.981643350304028
 30
0.0
 10
8.218788178579116
 20
6.983506216700723
 30
0.0
 10
8.205024132873316
 20
6.984520540500541
 30
0.0
 10
8.191172818366443
 20
6.98468164852616
 30
0.0
 10
8.177363108618913
 20
6.983988985834305
 30
0.0
 10
8.163723089044266
 20
6.982446207855894
 30
0.0
 10
8.150378817932173
 20
6.980060811001288
 30
0.0
 10
8.137452532939928
 20
6.976843083048303
 30
0.0
 10
8.125063557492979
 20
6.972805267920246
 30
0.0
 10
8.113329501579878
 20
6.967960999985197
 30
0.0
 10
8.102368641441938
 20
6.96232561928327
 30
0.0
 10
8.092305877923152
 20
6.955920138024278
 30
0.0
 10
8.083278465419657
 20
6.948780451308283
 30
0.0
 10
8.075429848365433
 20
6.940968577301117
 30
0.0
 10
8.068902818865725
 20
6.932582023239952
 30
0.0
 10
8.063793092902866
 20
6.923754164337116
 30
0.0
 10
8.060218982383534
 20
6.914641298322651
 30
0.0
 10
8.058108110221697
 20
6.905870558309579
 30
0.0
 10
8.057890098328867
 20
6.900149232028686
 30
0.0
 10
8.057791402446925
 20
6.89755913781026
 30
0.0
  0
LINE
  5
242
330
1F
100
AcDbEntity
  8
0
  6
CONTINUOUS
 62
     7
100
AcDbLine
 10
8.0576922542
 20
6.8967121458
 30
0.0
 11
8.0576922542
 21
6.8478776436
 31
0.0
  0
SPLINE
  5
243
330
1F
100
AcDbEntity
  8
0
  6
CONTINUOUS
 62
     7
100
AcDbSpline
210
0.0
220
0.0
230
1.0
 70
     8
 71
     3
 72
    19
 73
    15
 74
     0
 42
0.00000001
 43
0.00000001
 40
0.0
 40
0.0
 40
0.0
 40
0.0
 40
0.0361593183738987
 40
0.1228230845190817
 40
0.212746522817834
 40
0.3049095300582927
 40
0.3979514483292523
 40
0.4908210883188795
 40
0.5833008715255024
 40
0.675478686759445
 40
0.7675828342720797
 40
0.8598815400946378
 40
0.9526051493455291
 40
1.0
 40
1.0
 40
1.0
 40
1.0
 10
7.523258274911908
 20
7.253990138196055
 30
0.0
 10
7.522860436243292
 20
7.252925205201722
 30
0.0
 10
7.521509089630087
 20
7.249307925865378
 30
0.0
 10
7.520368057848304
 20
7.242510210505703
 30
0.0
 10
7.519795462904717
 20
7.23365570820333
 30
0.0
 10
7.52040253539178
 20
7.224250577113148
 30
0.0
 10
7.522090072812731
 20
7.214551927519672
 30
0.0
 10
7.524827583564614
 20
7.204768661487654
 30
0.0
 10
7.528528825507653
 20
7.195093168349597
 30
0.0
 10
7.533117227993867
 20
7.185684130227249
 30
0.0
 10
7.538504411229338
 20
7.17666764682642
 30
0.0
 10
7.54464229028085
 20
7.168241600863374
 30
0.0
 10
7.550230465143813
 20
7.161624234587752
 30
0.0
 10
7.553927087851699
 20
7.158215037606828
 30
0.0
 10
7.55517746472056
 20
7.157061882042089
 30
0.0
  0
LINE
  5
244
330
1F
100
AcDbEntity
  8
0
  6
CONTINUOUS
 62
     7
100
AcDbLine
 10
8.1319582618
 20
7.6866827831
 30
0.0
 11
8.0973488834
 21
7.6667032142
 31
0.0
  0
SPLINE
  5
245
330
1F
100
AcDbEntity
  8
0
  6
CONTINUOUS
 62
     7
100
AcDbSpline
210
0.0
220
0.0
230
1.0
 70
     8
 71
     3
 72
    20
 73
    16
 74
     0
 42
0.00000001
 43
0.00000001
 40
0.0
 40
0.0
 40
0.0
 40
0.0
 40
0.0712729361250889
 40
0.1541378510318635
 40
0.2368078952197869
 40
0.3193384882176307
 40
0.4017991140844764
 40
0.484265969099168
 40
0.5668013974086735
 40
0.6494774189003282
 40
0.7323752058759185
 40
0.8155717026003728
 40
0.8991304101743506
 40
0.9784489751886807
 40
1.0
 40
1.0
 40
1.0
 40
1.0
 10
8.30023053205996
 20
7.552120451888262
 30
0.0
 10
8.299386126500558
 20
7.555765677852617
 30
0.0
 10
8.297559979502807
 20
7.563648996924602
 30
0.0
 10
8.293569081654693
 20
7.575847698890155
 30
0.0
 10
8.288570863593938
 20
7.588537767895125
 30
0.0
 10
8.28269407158268
 20
7.601012149455603
 30
0.0
 10
8.276031818371713
 20
7.613152570152432
 30
0.0
 10
8.268638399588296
 20
7.624848193474085
 30
0.0
 10
8.260582967563085
 20
7.635988984533378
 30
0.0
 10
8.251934111198983
 20
7.646469221973272
 30
0.0
 10
8.242761958218876
 20
7.656186486198537
 30
0.0
 10
8.233137041155683
 20
7.665046461315021
 30
0.0
 10
8.223313578864408
 20
7.672795284897537
 30
0.0
 10
8.215764275953292
 20
7.677857054116912
 30
0.0
 10
8.211584944336606
 20
7.680311069416264
 30
0.0
 10
8.210692020319351
 20
7.680835375549512
 30
0.0
  0
SPLINE
  5
246
330
1F
100
AcDbEntity
  8
0
  6
CONTINUOUS
 62
     7
100
AcDbSpline
210
0.0
220
0.0
230
1.0
 70
     8
 71
     3
 72
    16
 73
    12
 74
     0
 42
0.00000001
 43
0.00000001
 40
0.0
 40
0.0
 40
0.0
 40
0.0
 40
0.0703149357357319
 40
0.2017332090894479
 40
0.3331331444075732
 40
0.4633536471009306
 40
0.5912997156311677
 40
0.7160783050736236
 40
0.837406256792305
 40
0.9557362604395873
 40
1.0
 40
1.0
 40
1.0
 40
1.0
 10
8.210692020319351
 20
7.680835375549512
 30
0.0
 10
8.20881505344735
 20
7.681881699365796
 30
0.0
 10
8.20343004460845
 20
7.684883597312473
 30
0.0
 10
8.194416805024781
 20
7.688897756189577
 30
0.0
 10
8.183715583197488
 20
7.692388786076293
 30
0.0
 10
8.173096749254583
 20
7.694465102538805
 30
0.0
 10
8.162740510920077
 20
7.695087297254058
 30
0.0
 10
8.152800779808459
 20
7.694279985500109
 30
0.0
 10
8.143496926951208
 20
7.691990314019518
 30
0.0
 10
8.136500543006724
 20
7.689356980631899
 30
0.0
 10
8.132909796584762
 20
7.687092899177454
 30
0.0
 10
8.131932269028574
 20
7.686476536518805
 30
0.0
  0
LINE
  5
247
330
1F
100
AcDbEntity
  8
0
  6
CONTINUOUS
 62
     7
100
AcDbLine
 10
8.0995473716
 20
7.6679723744
 30
0.0
 11
8.0830874672
 21
7.677474475
 31
0.0
  0
LINE
  5
248
330
1F
100
AcDbEntity
  8
0
  6
CONTINUOUS
 62
     7
100
AcDbLine
 10
8.3289973058
 20
7.5355137469
 30
0.0
 11
8.2819243791
 21
7.562688369
 31
0.0
  0
LINE
  5
249
330
1F
100
AcDbEntity
  8
0
  6
CONTINUOUS
 62
     7
100
AcDbLine
 10
8.4650086456
 20
7.4569960717
 30
0.0
 11
8.366115772
 21
7.5140857125
 31
0.0
  0
LINE
  5
24A
330
1F
100
AcDbEntity
  8
0
  6
CONTINUOUS
 62
     7
100
AcDbLine
 10
7.4138505201
 20
6.5181964703
 30
0.0
 11
7.7957716985
 21
6.297718067
 31
0.0
  0
LINE
  5
24B
330
1F
100
AcDbEntity
  8
0
  6
CONTINUOUS
 62
     7
100
AcDbLine
 10
7.2752085495
 20
6.8368741553
 30
0.0
 11
7.2752085495
 21
6.8246280336
 31
0.0
  0
POLYLINE
  5
24C
330
1F
100
AcDbEntity
  8
0
  6
CONTINUOUS
 62
     7
100
AcDb2dPolyline
 66
     1
 10
0.0
 20
0.0
 30
0.0
  0
VERTEX
  5
2B5
330
24C
100
AcDbEntity
  8
0
  6
CONTINUOUS
 62
     7
100
AcDbVertex
100
AcDb2dVertex
 10
8.1467739813
 20
6.3178983148
 30
0.0
  0
VERTEX
  5
2B6
330
24C
100
AcDbEntity
  8
0
  6
CONTINUOUS
 62
     7
100
AcDbVertex
100
AcDb2dVertex
 10
8.1479968555
 20
6.2926712209
 30
0.0
  0
VERTEX
  5
2B7
330
24C
100
AcDbEntity
  8
0
  6
CONTINUOUS
 62
     7
100
AcDbVertex
100
AcDb2dVertex
 10
8.150309674
 20
6.2681726072
 30
0.0
  0
VERTEX
  5
2B8
330
24C
100
AcDbEntity
  8
0
  6
CONTINUOUS
 62
     7
100
AcDbVertex
100
AcDb2dVertex
 10
8.153706971
 20
6.2444603682
 30
0.0
  0
VERTEX
  5
2B9
330
24C
100
AcDbEntity
  8
0
  6
CONTINUOUS
 62
     7
100
AcDbVertex
100
AcDb2dVertex
 10
8.1581807183
 20
6.2215905398
 30
0.0
  0
VERTEX
  5
2BA
330
24C
100
AcDbEntity
  8
0
  6
CONTINUOUS
 62
     7
100
AcDbVertex
100
AcDb2dVertex
 10
8.1637203436
 20
6.1996171672
 30
0.0
  0
VERTEX
  5
2BB
330
24C
100
AcDbEntity
  8
0
  6
CONTINUOUS
 62
     7
100
AcDbVertex
100
AcDb2dVertex
 10
8.1703127559
 20
6.1785921774
 30
0.0
  0
VERTEX
  5
2BC
330
24C
100
AcDbEntity
  8
0
  6
CONTINUOUS
 62
     7
100
AcDbVertex
100
AcDb2dVertex
 10
8.1779423761
 20
6.1585652559
 30
0.0
  0
VERTEX
  5
2BD
330
24C
100
AcDbEntity
  8
0
  6
CONTINUOUS
 62
     7
100
AcDbVertex
100
AcDb2dVertex
 10
8.1865911743
 20
6.1395837296
 30
0.0
  0
VERTEX
  5
2BE
330
24C
100
AcDbEntity
  8
0
  6
CONTINUOUS
 62
     7
100
AcDbVertex
100
AcDb2dVertex
 10
8.1962387117
 20
6.1216924551
 30
0.0
  0
VERTEX
  5
2BF
330
24C
100
AcDbEntity
  8
0
  6
CONTINUOUS
 62
     7
100
AcDbVertex
100
AcDb2dVertex
 10
8.2068621898
 20
6.1049337125
 30
0.0
  0
VERTEX
  5
2C0
330
24C
100
AcDbEntity
  8
0
  6
CONTINUOUS
 62
     7
100
AcDbVertex
100
AcDb2dVertex
 10
8.2184365033
 20
6.0893471056
 30
0.0
  0
VERTEX
  5
2C1
330
24C
100
AcDbEntity
  8
0
  6
CONTINUOUS
 62
     7
100
AcDbVertex
100
AcDb2dVertex
 10
8.2309343003
 20
6.0749694681
 30
0.0
  0
VERTEX
  5
2C2
330
24C
100
AcDbEntity
  8
0
  6
CONTINUOUS
 62
     7
100
AcDbVertex
100
AcDb2dVertex
 10
8.2443260464
 20
6.0618347768
 30
0.0
  0
VERTEX
  5
2C3
330
24C
100
AcDbEntity
  8
0
  6
CONTINUOUS
 62
     7
100
AcDbVertex
100
AcDb2dVertex
 10
8.2585800945
 20
6.0499740711
 30
0.0
  0
VERTEX
  5
2C4
330
24C
100
AcDbEntity
  8
0
  6
CONTINUOUS
 62
     7
100
AcDbVertex
100
AcDb2dVertex
 10
8.27366276
 20
6.03941538
 30
0.0
  0
VERTEX
  5
2C5
330
24C
100
AcDbEntity
  8
0
  6
CONTINUOUS
 62
     7
100
AcDbVertex
100
AcDb2dVertex
 10
8.2895384
 20
6.0301836555
 30
0.0
  0
VERTEX
  5
2C6
330
24C
100
AcDbEntity
  8
0
  6
CONTINUOUS
 62
     7
100
AcDbVertex
100
AcDb2dVertex
 10
8.3061694977
 20
6.0223007135
 30
0.0
  0
VERTEX
  5
2C7
330
24C
100
AcDbEntity
  8
0
  6
CONTINUOUS
 62
     7
100
AcDbVertex
100
AcDb2dVertex
 10
8.323516751
 20
6.0157851829
 30
0.0
  0
VERTEX
  5
2C8
330
24C
100
AcDbEntity
  8
0
  6
CONTINUOUS
 62
     7
100
AcDbVertex
100
AcDb2dVertex
 10
8.3415391654
 20
6.0106524609
 30
0.0
  0
VERTEX
  5
2C9
330
24C
100
AcDbEntity
  8
0
  6
CONTINUOUS
 62
     7
100
AcDbVertex
100
AcDb2dVertex
 10
8.3601941509
 20
6.006914677
 30
0.0
  0
VERTEX
  5
2CA
330
24C
100
AcDbEntity
  8
0
  6
CONTINUOUS
 62
     7
100
AcDbVertex
100
AcDb2dVertex
 10
8.3794376227
 20
6.0045806643
 30
0.0
  0
VERTEX
  5
2CB
330
24C
100
AcDbEntity
  8
0
  6
CONTINUOUS
 62
     7
100
AcDbVertex
100
AcDb2dVertex
 10
8.3992241051
 20
6.0036559384
 30
0.0
  0
VERTEX
  5
2CC
330
24C
100
AcDbEntity
  8
0
  6
CONTINUOUS
 62
     7
100
AcDbVertex
100
AcDb2dVertex
 10
8.4195068394
 20
6.0041426846
 30
0.0
  0
VERTEX
  5
2CD
330
24C
100
AcDbEntity
  8
0
  6
CONTINUOUS
 62
     7
100
AcDbVertex
100
AcDb2dVertex
 10
8.440237894
 20
6.0060397526
 30
0.0
  0
VERTEX
  5
2CE
330
24C
100
AcDbEntity
  8
0
  6
CONTINUOUS
 62
     7
100
AcDbVertex
100
AcDb2dVertex
 10
8.4613682781
 20
6.0093426593
 30
0.0
  0
VERTEX
  5
2CF
330
24C
100
AcDbEntity
  8
0
  6
CONTINUOUS
 62
     7
100
AcDbVertex
100
AcDb2dVertex
 10
8.4828480568
 20
6.0140435995
 30
0.0
  0
VERTEX
  5
2D0
330
24C
100
AcDbEntity
  8
0
  6
CONTINUOUS
 62
     7
100
AcDbVertex
100
AcDb2dVertex
 10
8.50462647
 20
6.0201314639
 30
0.0
  0
VERTEX
  5
2D1
330
24C
100
AcDbEntity
  8
0
  6
CONTINUOUS
 62
     7
100
AcDbVertex
100
AcDb2dVertex
 10
8.5266520515
 20
6.027591866
 30
0.0
  0
VERTEX
  5
2D2
330
24C
100
AcDbEntity
  8
0
  6
CONTINUOUS
 62
     7
100
AcDbVertex
100
AcDb2dVertex
 10
8.5488727511
 20
6.0364071755
 30
0.0
  0
VERTEX
  5
2D3
330
24C
100
AcDbEntity
  8
0
  6
CONTINUOUS
 62
     7
100
AcDbVertex
100
AcDb2dVertex
 10
8.5712360576
 20
6.0465565605
 30
0.0
  0
VERTEX
  5
2D4
330
24C
100
AcDbEntity
  8
0
  6
CONTINUOUS
 62
     7
100
AcDbVertex
100
AcDb2dVertex
 10
8.5936891228
 20
6.0580160361
 30
0.0
  0
VERTEX
  5
2D5
330
24C
100
AcDbEntity
  8
0
  6
CONTINUOUS
 62
     7
100
AcDbVertex
100
AcDb2dVertex
 10
8.6161788863
 20
6.0707585218
 30
0.0
  0
VERTEX
  5
2D6
330
24C
100
AcDbEntity
  8
0
  6
CONTINUOUS
 62
     7
100
AcDbVertex
100
AcDb2dVertex
 10
8.6386522009
 20
6.0847539048
 30
0.0
  0
VERTEX
  5
2D7
330
24C
100
AcDbEntity
  8
0
  6
CONTINUOUS
 62
     7
100
AcDbVertex
100
AcDb2dVertex
 10
8.6610559584
 20
6.0999691117
 30
0.0
  0
VERTEX
  5
2D8
330
24C
100
AcDbEntity
  8
0
  6
CONTINUOUS
 62
     7
100
AcDbVertex
100
AcDb2dVertex
 10
8.6833372151
 20
6.1163681865
 30
0.0
  0
VERTEX
  5
2D9
330
24C
100
AcDbEntity
  8
0
  6
CONTINUOUS
 62
     7
100
AcDbVertex
100
AcDb2dVertex
 10
8.7054433164
 20
6.1339123753
 30
0.0
  0
VERTEX
  5
2DA
330
24C
100
AcDbEntity
  8
0
  6
CONTINUOUS
 62
     7
100
AcDbVertex
100
AcDb2dVertex
 10
8.727322022
 20
6.1525602183
 30
0.0
  0
VERTEX
  5
2DB
330
24C
100
AcDbEntity
  8
0
  6
CONTINUOUS
 62
     7
100
AcDbVertex
100
AcDb2dVertex
 10
8.7489216288
 20
6.1722676475
 30
0.0
  0
VERTEX
  5
2DC
330
24C
100
AcDbEntity
  8
0
  6
CONTINUOUS
 62
     7
100
AcDbVertex
100
AcDb2dVertex
 10
8.7701910934
 20
6.1929880909
 30
0.0
  0
VERTEX
  5
2DD
330
24C
100
AcDbEntity
  8
0
  6
CONTINUOUS
 62
     7
100
AcDbVertex
100
AcDb2dVertex
 10
8.7910801522
 20
6.2146725826
 30
0.0
  0
VERTEX
  5
2DE
330
24C
100
AcDbEntity
  8
0
  6
CONTINUOUS
 62
     7
100
AcDbVertex
100
AcDb2dVertex
 10
8.8115394411
 20
6.2372698785
 30
0.0
  0
VERTEX
  5
2DF
330
24C
100
AcDbEntity
  8
0
  6
CONTINUOUS
 62
     7
100
AcDbVertex
100
AcDb2dVertex
 10
8.8315206112
 20
6.2607265773
 30
0.0
  0
VERTEX
  5
2E0
330
24C
100
AcDbEntity
  8
0
  6
CONTINUOUS
 62
     7
100
AcDbVertex
100
AcDb2dVertex
 10
8.8509764437
 20
6.284987247
 30
0.0
  0
VERTEX
  5
2E1
330
24C
100
AcDbEntity
  8
0
  6
CONTINUOUS
 62
     7
100
AcDbVertex
100
AcDb2dVertex
 10
8.8698609612
 20
6.3099945555
 30
0.0
  0
VERTEX
  5
2E2
330
24C
100
AcDbEntity
  8
0
  6
CONTINUOUS
 62
     7
100
AcDbVertex
100
AcDb2dVertex
 10
8.8881295363
 20
6.3356894063
 30
0.0
  0
VERTEX
  5
2E3
330
24C
100
AcDbEntity
  8
0
  6
CONTINUOUS
 62
     7
100
AcDbVertex
100
AcDb2dVertex
 10
8.9057389974
 20
6.3620110782
 30
0.0
  0
VERTEX
  5
2E4
330
24C
100
AcDbEntity
  8
0
  6
CONTINUOUS
 62
     7
100
AcDbVertex
100
AcDb2dVertex
 10
8.9226477303
 20
6.3888973685
 30
0.0
  0
VERTEX
  5
2E5
330
24C
100
AcDbEntity
  8
0
  6
CONTINUOUS
 62
     7
100
AcDbVertex
100
AcDb2dVertex
 10
8.9388157769
 20
6.4162847406
 30
0.0
  0
VERTEX
  5
2E6
330
24C
100
AcDbEntity
  8
0
  6
CONTINUOUS
 62
     7
100
AcDbVertex
100
AcDb2dVertex
 10
8.9542049292
 20
6.4441084733
 30
0.0
  0
VERTEX
  5
2E7
330
24C
100
AcDbEntity
  8
0
  6
CONTINUOUS
 62
     7
100
AcDbVertex
100
AcDb2dVertex
 10
8.9687788202
 20
6.4723028145
 30
0.0
  0
VERTEX
  5
2E8
330
24C
100
AcDbEntity
  8
0
  6
CONTINUOUS
 62
     7
100
AcDbVertex
100
AcDb2dVertex
 10
8.9825030093
 20
6.5008011362
 30
0.0
  0
VERTEX
  5
2E9
330
24C
100
AcDbEntity
  8
0
  6
CONTINUOUS
 62
     7
100
AcDbVertex
100
AcDb2dVertex
 10
8.995345064
 20
6.5295360922
 30
0.0
  0
VERTEX
  5
2EA
330
24C
100
AcDbEntity
  8
0
  6
CONTINUOUS
 62
     7
100
AcDbVertex
100
AcDb2dVertex
 10
9.0072746362
 20
6.5584397768
 30
0.0
  0
VERTEX
  5
2EB
330
24C
100
AcDbEntity
  8
0
  6
CONTINUOUS
 62
     7
100
AcDbVertex
100
AcDb2dVertex
 10
9.0182635344
 20
6.5874438858
 30
0.0
  0
VERTEX
  5
2EC
330
24C
100
AcDbEntity
  8
0
  6
CONTINUOUS
 62
     7
100
AcDbVertex
100
AcDb2dVertex
 10
9.02828579
 20
6.6164798776
 30
0.0
  0
VERTEX
  5
2ED
330
24C
100
AcDbEntity
  8
0
  6
CONTINUOUS
 62
     7
100
AcDbVertex
100
AcDb2dVertex
 10
9.0373177187
 20
6.6454791352
 30
0.0
  0
VERTEX
  5
2EE
330
24C
100
AcDbEntity
  8
0
  6
CONTINUOUS
 62
     7
100
AcDbVertex
100
AcDb2dVertex
 10
9.0453379765
 20
6.6743731285
 30
0.0
  0
VERTEX
  5
2EF
330
24C
100
AcDbEntity
  8
0
  6
CONTINUOUS
 62
     7
100
AcDbVertex
100
AcDb2dVertex
 10
9.0523276102
 20
6.7030935762
 30
0.0
  0
VERTEX
  5
2F0
330
24C
100
AcDbEntity
  8
0
  6
CONTINUOUS
 62
     7
100
AcDbVertex
100
AcDb2dVertex
 10
9.0582701022
 20
6.7315726069
 30
0.0
  0
VERTEX
  5
2F1
330
24C
100
AcDbEntity
  8
0
  6
CONTINUOUS
 62
     7
100
AcDbVertex
100
AcDb2dVertex
 10
9.0631514092
 20
6.75974292
 30
0.0
  0
VERTEX
  5
2F2
330
24C
100
AcDbEntity
  8
0
  6
CONTINUOUS
 62
     7
100
AcDbVertex
100
AcDb2dVertex
 10
9.0669599961
 20
6.7875379441
 30
0.0
  0
VERTEX
  5
2F3
330
24C
100
AcDbEntity
  8
0
  6
CONTINUOUS
 62
     7
100
AcDbVertex
100
AcDb2dVertex
 10
9.0696868623
 20
6.8148919951
 30
0.0
  0
VERTEX
  5
2F4
330
24C
100
AcDbEntity
  8
0
  6
CONTINUOUS
 62
     7
100
AcDbVertex
100
AcDb2dVertex
 10
9.071325564
 20
6.8417404306
 30
0.0
  0
VERTEX
  5
2F5
330
24C
100
AcDbEntity
  8
0
  6
CONTINUOUS
 62
     7
100
AcDbVertex
100
AcDb2dVertex
 10
9.0718722285
 20
6.8680198034
 30
0.0
  0
VERTEX
  5
2F6
330
24C
100
AcDbEntity
  8
0
  6
CONTINUOUS
 62
     7
100
AcDbVertex
100
AcDb2dVertex
 10
9.071325564
 20
6.8936680107
 30
0.0
  0
VERTEX
  5
2F7
330
24C
100
AcDbEntity
  8
0
  6
CONTINUOUS
 62
     7
100
AcDbVertex
100
AcDb2dVertex
 10
9.0696868623
 20
6.9186244416
 30
0.0
  0
VERTEX
  5
2F8
330
24C
100
AcDbEntity
  8
0
  6
CONTINUOUS
 62
     7
100
AcDbVertex
100
AcDb2dVertex
 10
9.0669599961
 20
6.9428301198
 30
0.0
  0
VERTEX
  5
2F9
330
24C
100
AcDbEntity
  8
0
  6
CONTINUOUS
 62
     7
100
AcDbVertex
100
AcDb2dVertex
 10
9.0631514092
 20
6.9662278432
 30
0.0
  0
VERTEX
  5
2FA
330
24C
100
AcDbEntity
  8
0
  6
CONTINUOUS
 62
     7
100
AcDbVertex
100
AcDb2dVertex
 10
9.0582701022
 20
6.9887623191
 30
0.0
  0
VERTEX
  5
2FB
330
24C
100
AcDbEntity
  8
0
  6
CONTINUOUS
 62
     7
100
AcDbVertex
100
AcDb2dVertex
 10
9.0523276102
 20
7.0103802947
 30
0.0
  0
VERTEX
  5
2FC
330
24C
100
AcDbEntity
  8
0
  6
CONTINUOUS
 62
     7
100
AcDbVertex
100
AcDb2dVertex
 10
9.0453379765
 20
7.031030683
 30
0.0
  0
VERTEX
  5
2FD
330
24C
100
AcDbEntity
  8
0
  6
CONTINUOUS
 62
     7
100
AcDbVertex
100
AcDb2dVertex
 10
9.0373177187
 20
7.0506646837
 30
0.0
  0
VERTEX
  5
2FE
330
24C
100
AcDbEntity
  8
0
  6
CONTINUOUS
 62
     7
100
AcDbVertex
100
AcDb2dVertex
 10
9.02828579
 20
7.0692358985
 30
0.0
  0
VERTEX
  5
2FF
330
24C
100
AcDbEntity
  8
0
  6
CONTINUOUS
 62
     7
100
AcDbVertex
100
AcDb2dVertex
 10
9.0182635344
 20
7.0867004402
 30
0.0
  0
VERTEX
  5
300
330
24C
100
AcDbEntity
  8
0
  6
CONTINUOUS
 62
     7
100
AcDbVertex
100
AcDb2dVertex
 10
9.0072746362
 20
7.1030170374
 30
0.0
  0
VERTEX
  5
301
330
24C
100
AcDbEntity
  8
0
  6
CONTINUOUS
 62
     7
100
AcDbVertex
100
AcDb2dVertex
 10
8.995345064
 20
7.1181471311
 30
0.0
  0
VERTEX
  5
302
330
24C
100
AcDbEntity
  8
0
  6
CONTINUOUS
 62
     7
100
AcDbVertex
100
AcDb2dVertex
 10
8.9825030093
 20
7.1320549664
 30
0.0
  0
VERTEX
  5
303
330
24C
100
AcDbEntity
  8
0
  6
CONTINUOUS
 62
     7
100
AcDbVertex
100
AcDb2dVertex
 10
8.9687788202
 20
7.1447076767
 30
0.0
  0
VERTEX
  5
304
330
24C
100
AcDbEntity
  8
0
  6
CONTINUOUS
 62
     7
100
AcDbVertex
100
AcDb2dVertex
 10
8.9542049292
 20
7.1560753615
 30
0.0
  0
VERTEX
  5
305
330
24C
100
AcDbEntity
  8
0
  6
CONTINUOUS
 62
     7
100
AcDbVertex
100
AcDb2dVertex
 10
8.9388157769
 20
7.1661311571
 30
0.0
  0
VERTEX
  5
306
330
24C
100
AcDbEntity
  8
0
  6
CONTINUOUS
 62
     7
100
AcDbVertex
100
AcDb2dVertex
 10
8.9226477303
 20
7.1748512999
 30
0.0
  0
VERTEX
  5
307
330
24C
100
AcDbEntity
  8
0
  6
CONTINUOUS
 62
     7
100
AcDbVertex
100
AcDb2dVertex
 10
8.9057389974
 20
7.1822151828
 30
0.0
  0
VERTEX
  5
308
330
24C
100
AcDbEntity
  8
0
  6
CONTINUOUS
 62
     7
100
AcDbVertex
100
AcDb2dVertex
 10
8.8881295363
 20
7.1882054037
 30
0.0
  0
VERTEX
  5
309
330
24C
100
AcDbEntity
  8
0
  6
CONTINUOUS
 62
     7
100
AcDbVertex
100
AcDb2dVertex
 10
8.8698609612
 20
7.1928078066
 30
0.0
  0
VERTEX
  5
30A
330
24C
100
AcDbEntity
  8
0
  6
CONTINUOUS
 62
     7
100
AcDbVertex
100
AcDb2dVertex
 10
8.8509764437
 20
7.1960115153
 30
0.0
  0
VERTEX
  5
30B
330
24C
100
AcDbEntity
  8
0
  6
CONTINUOUS
 62
     7
100
AcDbVertex
100
AcDb2dVertex
 10
8.8315206112
 20
7.197808959
 30
0.0
  0
VERTEX
  5
30C
330
24C
100
AcDbEntity
  8
0
  6
CONTINUOUS
 62
     7
100
AcDbVertex
100
AcDb2dVertex
 10
8.8115394411
 20
7.1981958899
 30
0.0
  0
VERTEX
  5
30D
330
24C
100
AcDbEntity
  8
0
  6
CONTINUOUS
 62
     7
100
AcDbVertex
100
AcDb2dVertex
 10
8.7910801522
 20
7.1971713936
 30
0.0
  0
VERTEX
  5
30E
330
24C
100
AcDbEntity
  8
0
  6
CONTINUOUS
 62
     7
100
AcDbVertex
100
AcDb2dVertex
 10
8.7701910934
 20
7.1947378913
 30
0.0
  0
VERTEX
  5
30F
330
24C
100
AcDbEntity
  8
0
  6
CONTINUOUS
 62
     7
100
AcDbVertex
100
AcDb2dVertex
 10
8.7489216288
 20
7.1909011337
 30
0.0
  0
VERTEX
  5
310
330
24C
100
AcDbEntity
  8
0
  6
CONTINUOUS
 62
     7
100
AcDbVertex
100
AcDb2dVertex
 10
8.727322022
 20
7.1856701877
 30
0.0
  0
VERTEX
  5
311
330
24C
100
AcDbEntity
  8
0
  6
CONTINUOUS
 62
     7
100
AcDbVertex
100
AcDb2dVertex
 10
8.7054433164
 20
7.1790574148
 30
0.0
  0
VERTEX
  5
312
330
24C
100
AcDbEntity
  8
0
  6
CONTINUOUS
 62
     7
100
AcDbVertex
100
AcDb2dVertex
 10
8.6833372151
 20
7.1710784423
 30
0.0
  0
VERTEX
  5
313
330
24C
100
AcDbEntity
  8
0
  6
CONTINUOUS
 62
     7
100
AcDbVertex
100
AcDb2dVertex
 10
8.6610559584
 20
7.1617521258
 30
0.0
  0
VERTEX
  5
314
330
24C
100
AcDbEntity
  8
0
  6
CONTINUOUS
 62
     7
100
AcDbVertex
100
AcDb2dVertex
 10
8.6386522009
 20
7.1511005048
 30
0.0
  0
VERTEX
  5
315
330
24C
100
AcDbEntity
  8
0
  6
CONTINUOUS
 62
     7
100
AcDbVertex
100
AcDb2dVertex
 10
8.6161788863
 20
7.1391487511
 30
0.0
  0
VERTEX
  5
316
330
24C
100
AcDbEntity
  8
0
  6
CONTINUOUS
 62
     7
100
AcDbVertex
100
AcDb2dVertex
 10
8.5936891228
 20
7.1259251086
 30
0.0
  0
VERTEX
  5
317
330
24C
100
AcDbEntity
  8
0
  6
CONTINUOUS
 62
     7
100
AcDbVertex
100
AcDb2dVertex
 10
8.5712360576
 20
7.111460827
 30
0.0
  0
VERTEX
  5
318
330
24C
100
AcDbEntity
  8
0
  6
CONTINUOUS
 62
     7
100
AcDbVertex
100
AcDb2dVertex
 10
8.5488727511
 20
7.0957900878
 30
0.0
  0
VERTEX
  5
319
330
24C
100
AcDbEntity
  8
0
  6
CONTINUOUS
 62
     7
100
AcDbVertex
100
AcDb2dVertex
 10
8.5266520515
 20
7.0789499236
 30
0.0
  0
VERTEX
  5
31A
330
24C
100
AcDbEntity
  8
0
  6
CONTINUOUS
 62
     7
100
AcDbVertex
100
AcDb2dVertex
 10
8.50462647
 20
7.0609801306
 30
0.0
  0
VERTEX
  5
31B
330
24C
100
AcDbEntity
  8
0
  6
CONTINUOUS
 62
     7
100
AcDbVertex
100
AcDb2dVertex
 10
8.4828480568
 20
7.0419231745
 30
0.0
  0
VERTEX
  5
31C
330
24C
100
AcDbEntity
  8
0
  6
CONTINUOUS
 62
     7
100
AcDbVertex
100
AcDb2dVertex
 10
8.4613682781
 20
7.0218240899
 30
0.0
  0
VERTEX
  5
31D
330
24C
100
AcDbEntity
  8
0
  6
CONTINUOUS
 62
     7
100
AcDbVertex
100
AcDb2dVertex
 10
8.440237894
 20
7.0007303746
 30
0.0
  0
VERTEX
  5
31E
330
24C
100
AcDbEntity
  8
0
  6
CONTINUOUS
 62
     7
100
AcDbVertex
100
AcDb2dVertex
 10
8.4195068394
 20
6.9786918763
 30
0.0
  0
VERTEX
  5
31F
330
24C
100
AcDbEntity
  8
0
  6
CONTINUOUS
 62
     7
100
AcDbVertex
100
AcDb2dVertex
 10
8.3992241051
 20
6.955760676
 30
0.0
  0
VERTEX
  5
320
330
24C
100
AcDbEntity
  8
0
  6
CONTINUOUS
 62
     7
100
AcDbVertex
100
AcDb2dVertex
 10
8.3794376227
 20
6.9319909637
 30
0.0
  0
VERTEX
  5
321
330
24C
100
AcDbEntity
  8
0
  6
CONTINUOUS
 62
     7
100
AcDbVertex
100
AcDb2dVertex
 10
8.3601941509
 20
6.9074389114
 30
0.0
  0
VERTEX
  5
322
330
24C
100
AcDbEntity
  8
0
  6
CONTINUOUS
 62
     7
100
AcDbVertex
100
AcDb2dVertex
 10
8.3415391654
 20
6.8821625398
 30
0.0
  0
VERTEX
  5
323
330
24C
100
AcDbEntity
  8
0
  6
CONTINUOUS
 62
     7
100
AcDbVertex
100
AcDb2dVertex
 10
8.323516751
 20
6.856221581
 30
0.0
  0
VERTEX
  5
324
330
24C
100
AcDbEntity
  8
0
  6
CONTINUOUS
 62
     7
100
AcDbVertex
100
AcDb2dVertex
 10
8.3061694977
 20
6.8296773381
 30
0.0
  0
VERTEX
  5
325
330
24C
100
AcDbEntity
  8
0
  6
CONTINUOUS
 62
     7
100
AcDbVertex
100
AcDb2dVertex
 10
8.2895384
 20
6.8025925394
 30
0.0
  0
VERTEX
  5
326
330
24C
100
AcDbEntity
  8
0
  6
CONTINUOUS
 62
     7
100
AcDbVertex
100
AcDb2dVertex
 10
8.27366276
 20
6.7750311911
 30
0.0
  0
VERTEX
  5
327
330
24C
100
AcDbEntity
  8
0
  6
CONTINUOUS
 62
     7
100
AcDbVertex
100
AcDb2dVertex
 10
8.2585800945
 20
6.747058425
 30
0.0
  0
VERTEX
  5
328
330
24C
100
AcDbEntity
  8
0
  6
CONTINUOUS
 62
     7
100
AcDbVertex
100
AcDb2dVertex
 10
8.2443260464
 20
6.7187403457
 30
0.0
  0
VERTEX
  5
329
330
24C
100
AcDbEntity
  8
0
  6
CONTINUOUS
 62
     7
100
AcDbVertex
100
AcDb2dVertex
 10
8.2309343003
 20
6.6901438736
 30
0.0
  0
VERTEX
  5
32A
330
24C
100
AcDbEntity
  8
0
  6
CONTINUOUS
 62
     7
100
AcDbVertex
100
AcDb2dVertex
 10
8.2184365033
 20
6.6613365868
 30
0.0
  0
VERTEX
  5
32B
330
24C
100
AcDbEntity
  8
0
  6
CONTINUOUS
 62
     7
100
AcDbVertex
100
AcDb2dVertex
 10
8.2068621898
 20
6.6323865619
 30
0.0
  0
VERTEX
  5
32C
330
24C
100
AcDbEntity
  8
0
  6
CONTINUOUS
 62
     7
100
AcDbVertex
100
AcDb2dVertex
 10
8.1962387117
 20
6.6033622126
 30
0.0
  0
VERTEX
  5
32D
330
24C
100
AcDbEntity
  8
0
  6
CONTINUOUS
 62
     7
100
AcDbVertex
100
AcDb2dVertex
 10
8.1865911743
 20
6.5743321285
 30
0.0
  0
VERTEX
  5
32E
330
24C
100
AcDbEntity
  8
0
  6
CONTINUOUS
 62
     7
100
AcDbVertex
100
AcDb2dVertex
 10
8.1779423761
 20
6.5453649124
 30
0.0
  0
VERTEX
  5
32F
330
24C
100
AcDbEntity
  8
0
  6
CONTINUOUS
 62
     7
100
AcDbVertex
100
AcDb2dVertex
 10
8.1703127559
 20
6.5165290188
 30
0.0
  0
VERTEX
  5
330
330
24C
100
AcDbEntity
  8
0
  6
CONTINUOUS
 62
     7
100
AcDbVertex
100
AcDb2dVertex
 10
8.1637203436
 20
6.4878925918
 30
0.0
  0
VERTEX
  5
331
330
24C
100
AcDbEntity
  8
0
  6
CONTINUOUS
 62
     7
100
AcDbVertex
100
AcDb2dVertex
 10
8.1581807183
 20
6.4595233041
 30
0.0
  0
VERTEX
  5
332
330
24C
100
AcDbEntity
  8
0
  6
CONTINUOUS
 62
     7
100
AcDbVertex
100
AcDb2dVertex
 10
8.153706971
 20
6.431488197
 30
0.0
  0
VERTEX
  5
333
330
24C
100
AcDbEntity
  8
0
  6
CONTINUOUS
 62
     7
100
AcDbVertex
100
AcDb2dVertex
 10
8.150309674
 20
6.4038535223
 30
0.0
  0
VERTEX
  5
334
330
24C
100
AcDbEntity
  8
0
  6
CONTINUOUS
 62
     7
100
AcDbVertex
100
AcDb2dVertex
 10
8.1479968555
 20
6.3766845853
 30
0.0
  0
VERTEX
  5
335
330
24C
100
AcDbEntity
  8
0
  6
CONTINUOUS
 62
     7
100
AcDbVertex
100
AcDb2dVertex
 10
8.1467739813
 20
6.3500455908
 30
0.0
  0
SEQEND
  5
336
330
24C
100
AcDbEntity
  8
0
  6
CONTINUOUS
 62
     7
  0
LINE
  5
24D
330
1F
100
AcDbEntity
  8
0
  6
CONTINUOUS
 62
     7
100
AcDbLine
 10
8.125556082
 20
6.35004288
 30
0.0
 11
8.1467739813
 21
6.3500455908
 31
0.0
  0
POLYLINE
  5
24E
330
1F
100
AcDbEntity
  8
0
  6
CONTINUOUS
 62
     7
100
AcDb2dPolyline
 66
     1
 10
0.0
 20
0.0
 30
0.0
  0
VERTEX
  5
337
330
24E
100
AcDbEntity
  8
0
  6
CONTINUOUS
 62
     7
100
AcDbVertex
100
AcDb2dVertex
 10
8.125556082
 20
6.35004288
 30
0.0
  0
VERTEX
  5
338
330
24E
100
AcDbEntity
  8
0
  6
CONTINUOUS
 62
     7
100
AcDbVertex
100
AcDb2dVertex
 10
8.1267780078
 20
6.3770771822
 30
0.0
  0
VERTEX
  5
339
330
24E
100
AcDbEntity
  8
0
  6
CONTINUOUS
 62
     7
100
AcDbVertex
100
AcDb2dVertex
 10
8.1290982156
 20
6.4046468092
 30
0.0
  0
VERTEX
  5
33A
330
24E
100
AcDbEntity
  8
0
  6
CONTINUOUS
 62
     7
100
AcDbVertex
100
AcDb2dVertex
 10
8.1325113045
 20
6.4326875875
 30
0.0
  0
VERTEX
  5
33B
330
24E
100
AcDbEntity
  8
0
  6
CONTINUOUS
 62
     7
100
AcDbVertex
100
AcDb2dVertex
 10
8.13700933
 20
6.4611342468
 30
0.0
  0
VERTEX
  5
33C
330
24E
100
AcDbEntity
  8
0
  6
CONTINUOUS
 62
     7
100
AcDbVertex
100
AcDb2dVertex
 10
8.142581822
 20
6.4899205723
 30
0.0
  0
VERTEX
  5
33D
330
24E
100
AcDbEntity
  8
0
  6
CONTINUOUS
 62
     7
100
AcDbVertex
100
AcDb2dVertex
 10
8.1492158096
 20
6.5189795583
 30
0.0
  0
VERTEX
  5
33E
330
24E
100
AcDbEntity
  8
0
  6
CONTINUOUS
 62
     7
100
AcDbVertex
100
AcDb2dVertex
 10
8.1568958508
 20
6.5482435645
 30
0.0
  0
VERTEX
  5
33F
330
24E
100
AcDbEntity
  8
0
  6
CONTINUOUS
 62
     7
100
AcDbVertex
100
AcDb2dVertex
 10
8.1656040689
 20
6.5776444736
 30
0.0
  0
VERTEX
  5
340
330
24E
100
AcDbEntity
  8
0
  6
CONTINUOUS
 62
     7
100
AcDbVertex
100
AcDb2dVertex
 10
8.175320194
 20
6.6071138493
 30
0.0
  0
VERTEX
  5
341
330
24E
100
AcDbEntity
  8
0
  6
CONTINUOUS
 62
     7
100
AcDbVertex
100
AcDb2dVertex
 10
8.1860216098
 20
6.6365830961
 30
0.0
  0
VERTEX
  5
342
330
24E
100
AcDbEntity
  8
0
  6
CONTINUOUS
 62
     7
100
AcDbVertex
100
AcDb2dVertex
 10
8.197683407
 20
6.6659836189
 30
0.0
  0
VERTEX
  5
343
330
24E
100
AcDbEntity
  8
0
  6
CONTINUOUS
 62
     7
100
AcDbVertex
100
AcDb2dVertex
 10
8.2102784403
 20
6.6952469823
 30
0.0
  0
VERTEX
  5
344
330
24E
100
AcDbEntity
  8
0
  6
CONTINUOUS
 62
     7
100
AcDbVertex
100
AcDb2dVertex
 10
8.2237773925
 20
6.7243050704
 30
0.0
  0
VERTEX
  5
345
330
24E
100
AcDbEntity
  8
0
  6
CONTINUOUS
 62
     7
100
AcDbVertex
100
AcDb2dVertex
 10
8.2381488423
 20
6.753090245
 30
0.0
  0
VERTEX
  5
346
330
24E
100
AcDbEntity
  8
0
  6
CONTINUOUS
 62
     7
100
AcDbVertex
100
AcDb2dVertex
 10
8.2533593375
 20
6.7815355033
 30
0.0
  0
VERTEX
  5
347
330
24E
100
AcDbEntity
  8
0
  6
CONTINUOUS
 62
     7
100
AcDbVertex
100
AcDb2dVertex
 10
8.2693734726
 20
6.8095746334
 30
0.0
  0
VERTEX
  5
348
330
24E
100
AcDbEntity
  8
0
  6
CONTINUOUS
 62
     7
100
AcDbVertex
100
AcDb2dVertex
 10
8.2861539718
 20
6.8371423691
 30
0.0
  0
VERTEX
  5
349
330
24E
100
AcDbEntity
  8
0
  6
CONTINUOUS
 62
     7
100
AcDbVertex
100
AcDb2dVertex
 10
8.3036617754
 20
6.8641745413
 30
0.0
  0
VERTEX
  5
34A
330
24E
100
AcDbEntity
  8
0
  6
CONTINUOUS
 62
     7
100
AcDbVertex
100
AcDb2dVertex
 10
8.3218561306
 20
6.8906082276
 30
0.0
  0
VERTEX
  5
34B
330
24E
100
AcDbEntity
  8
0
  6
CONTINUOUS
 62
     7
100
AcDbVertex
100
AcDb2dVertex
 10
8.3406946867
 20
6.9163818984
 30
0.0
  0
VERTEX
  5
34C
330
24E
100
AcDbEntity
  8
0
  6
CONTINUOUS
 62
     7
100
AcDbVertex
100
AcDb2dVertex
 10
8.3601335933
 20
6.9414355608
 30
0.0
  0
VERTEX
  5
34D
330
24E
100
AcDbEntity
  8
0
  6
CONTINUOUS
 62
     7
100
AcDbVertex
100
AcDb2dVertex
 10
8.3801276028
 20
6.9657108977
 30
0.0
  0
VERTEX
  5
34E
330
24E
100
AcDbEntity
  8
0
  6
CONTINUOUS
 62
     7
100
AcDbVertex
100
AcDb2dVertex
 10
8.4006301753
 20
6.9891514036
 30
0.0
  0
VERTEX
  5
34F
330
24E
100
AcDbEntity
  8
0
  6
CONTINUOUS
 62
     7
100
AcDbVertex
100
AcDb2dVertex
 10
8.4215935872
 20
7.0117025164
 30
0.0
  0
VERTEX
  5
350
330
24E
100
AcDbEntity
  8
0
  6
CONTINUOUS
 62
     7
100
AcDbVertex
100
AcDb2dVertex
 10
8.4429690423
 20
7.033311744
 30
0.0
  0
VERTEX
  5
351
330
24E
100
AcDbEntity
  8
0
  6
CONTINUOUS
 62
     7
100
AcDbVertex
100
AcDb2dVertex
 10
8.4647067852
 20
7.0539287871
 30
0.0
  0
VERTEX
  5
352
330
24E
100
AcDbEntity
  8
0
  6
CONTINUOUS
 62
     7
100
AcDbVertex
100
AcDb2dVertex
 10
8.4867562171
 20
7.0735056554
 30
0.0
  0
VERTEX
  5
353
330
24E
100
AcDbEntity
  8
0
  6
CONTINUOUS
 62
     7
100
AcDbVertex
100
AcDb2dVertex
 10
8.5090660139
 20
7.0919967802
 30
0.0
  0
VERTEX
  5
354
330
24E
100
AcDbEntity
  8
0
  6
CONTINUOUS
 62
     7
100
AcDbVertex
100
AcDb2dVertex
 10
8.5315842454
 20
7.1093591199
 30
0.0
  0
VERTEX
  5
355
330
24E
100
AcDbEntity
  8
0
  6
CONTINUOUS
 62
     7
100
AcDbVertex
100
AcDb2dVertex
 10
8.554258496
 20
7.1255522604
 30
0.0
  0
VERTEX
  5
356
330
24E
100
AcDbEntity
  8
0
  6
CONTINUOUS
 62
     7
100
AcDbVertex
100
AcDb2dVertex
 10
8.5770359873
 20
7.140538509
 30
0.0
  0
VERTEX
  5
357
330
24E
100
AcDbEntity
  8
0
  6
CONTINUOUS
 62
     7
100
AcDbVertex
100
AcDb2dVertex
 10
8.5998637003
 20
7.1542829826
 30
0.0
  0
VERTEX
  5
358
330
24E
100
AcDbEntity
  8
0
  6
CONTINUOUS
 62
     7
100
AcDbVertex
100
AcDb2dVertex
 10
8.6226884992
 20
7.1667536882
 30
0.0
  0
VERTEX
  5
359
330
24E
100
AcDbEntity
  8
0
  6
CONTINUOUS
 62
     7
100
AcDbVertex
100
AcDb2dVertex
 10
8.645457255
 20
7.1779215979
 30
0.0
  0
VERTEX
  5
35A
330
24E
100
AcDbEntity
  8
0
  6
CONTINUOUS
 62
     7
100
AcDbVertex
100
AcDb2dVertex
 10
8.6681169692
 20
7.1877607164
 30
0.0
  0
VERTEX
  5
35B
330
24E
100
AcDbEntity
  8
0
  6
CONTINUOUS
 62
     7
100
AcDbVertex
100
AcDb2dVertex
 10
8.690614897
 20
7.1962481412
 30
0.0
  0
VERTEX
  5
35C
330
24E
100
AcDbEntity
  8
0
  6
CONTINUOUS
 62
     7
100
AcDbVertex
100
AcDb2dVertex
 10
8.7128986703
 20
7.2033641162
 30
0.0
  0
VERTEX
  5
35D
330
24E
100
AcDbEntity
  8
0
  6
CONTINUOUS
 62
     7
100
AcDbVertex
100
AcDb2dVertex
 10
8.7349164193
 20
7.2090920776
 30
0.0
  0
VERTEX
  5
35E
330
24E
100
AcDbEntity
  8
0
  6
CONTINUOUS
 62
     7
100
AcDbVertex
100
AcDb2dVertex
 10
8.7566168936
 20
7.2134186927
 30
0.0
  0
VERTEX
  5
35F
330
24E
100
AcDbEntity
  8
0
  6
CONTINUOUS
 62
     7
100
AcDbVertex
100
AcDb2dVertex
 10
8.7779495814
 20
7.2163338903
 30
0.0
  0
VERTEX
  5
360
330
24E
100
AcDbEntity
  8
0
  6
CONTINUOUS
 62
     7
100
AcDbVertex
100
AcDb2dVertex
 10
8.7988648266
 20
7.2178308847
 30
0.0
  0
VERTEX
  5
361
330
24E
100
AcDbEntity
  8
0
  6
CONTINUOUS
 62
     7
100
AcDbVertex
100
AcDb2dVertex
 10
8.8193139453
 20
7.2179061915
 30
0.0
  0
VERTEX
  5
362
330
24E
100
AcDbEntity
  8
0
  6
CONTINUOUS
 62
     7
100
AcDbVertex
100
AcDb2dVertex
 10
8.8392493381
 20
7.2165596354
 30
0.0
  0
VERTEX
  5
363
330
24E
100
AcDbEntity
  8
0
  6
CONTINUOUS
 62
     7
100
AcDbVertex
100
AcDb2dVertex
 10
8.8586246018
 20
7.2137943507
 30
0.0
  0
VERTEX
  5
364
330
24E
100
AcDbEntity
  8
0
  6
CONTINUOUS
 62
     7
100
AcDbVertex
100
AcDb2dVertex
 10
8.8773946367
 20
7.2096167741
 30
0.0
  0
VERTEX
  5
365
330
24E
100
AcDbEntity
  8
0
  6
CONTINUOUS
 62
     7
100
AcDbVertex
100
AcDb2dVertex
 10
8.8955157521
 20
7.2040366297
 30
0.0
  0
VERTEX
  5
366
330
24E
100
AcDbEntity
  8
0
  6
CONTINUOUS
 62
     7
100
AcDbVertex
100
AcDb2dVertex
 10
8.9129457676
 20
7.1970669065
 30
0.0
  0
VERTEX
  5
367
330
24E
100
AcDbEntity
  8
0
  6
CONTINUOUS
 62
     7
100
AcDbVertex
100
AcDb2dVertex
 10
8.9296441117
 20
7.1887238276
 30
0.0
  0
VERTEX
  5
368
330
24E
100
AcDbEntity
  8
0
  6
CONTINUOUS
 62
     7
100
AcDbVertex
100
AcDb2dVertex
 10
8.9455719158
 20
7.1790268132
 30
0.0
  0
VERTEX
  5
369
330
24E
100
AcDbEntity
  8
0
  6
CONTINUOUS
 62
     7
100
AcDbVertex
100
AcDb2dVertex
 10
8.9606921049
 20
7.1679984349
 30
0.0
  0
VERTEX
  5
36A
330
24E
100
AcDbEntity
  8
0
  6
CONTINUOUS
 62
     7
100
AcDbVertex
100
AcDb2dVertex
 10
8.9749694839
 20
7.1556643634
 30
0.0
  0
VERTEX
  5
36B
330
24E
100
AcDbEntity
  8
0
  6
CONTINUOUS
 62
     7
100
AcDbVertex
100
AcDb2dVertex
 10
8.9883708195
 20
7.1420533085
 30
0.0
  0
VERTEX
  5
36C
330
24E
100
AcDbEntity
  8
0
  6
CONTINUOUS
 62
     7
100
AcDbVertex
100
AcDb2dVertex
 10
9.0008649177
 20
7.1271969525
 30
0.0
  0
VERTEX
  5
36D
330
24E
100
AcDbEntity
  8
0
  6
CONTINUOUS
 62
     7
100
AcDbVertex
100
AcDb2dVertex
 10
9.0124226961
 20
7.1111298764
 30
0.0
  0
VERTEX
  5
36E
330
24E
100
AcDbEntity
  8
0
  6
CONTINUOUS
 62
     7
100
AcDbVertex
100
AcDb2dVertex
 10
9.0230172517
 20
7.0938894793
 30
0.0
  0
VERTEX
  5
36F
330
24E
100
AcDbEntity
  8
0
  6
CONTINUOUS
 62
     7
100
AcDbVertex
100
AcDb2dVertex
 10
9.0326239238
 20
7.0755158915
 30
0.0
  0
VERTEX
  5
370
330
24E
100
AcDbEntity
  8
0
  6
CONTINUOUS
 62
     7
100
AcDbVertex
100
AcDb2dVertex
 10
9.0412203509
 20
7.0560518809
 30
0.0
  0
VERTEX
  5
371
330
24E
100
AcDbEntity
  8
0
  6
CONTINUOUS
 62
     7
100
AcDbVertex
100
AcDb2dVertex
 10
9.0487865234
 20
7.0355427538
 30
0.0
  0
VERTEX
  5
372
330
24E
100
AcDbEntity
  8
0
  6
CONTINUOUS
 62
     7
100
AcDbVertex
100
AcDb2dVertex
 10
9.0553048294
 20
7.0140362489
 30
0.0
  0
VERTEX
  5
373
330
24E
100
AcDbEntity
  8
0
  6
CONTINUOUS
 62
     7
100
AcDbVertex
100
AcDb2dVertex
 10
9.0607600965
 20
6.9915824267
 30
0.0
  0
VERTEX
  5
374
330
24E
100
AcDbEntity
  8
0
  6
CONTINUOUS
 62
     7
100
AcDbVertex
100
AcDb2dVertex
 10
9.0651396265
 20
6.9682335527
 30
0.0
  0
VERTEX
  5
375
330
24E
100
AcDbEntity
  8
0
  6
CONTINUOUS
 62
     7
100
AcDbVertex
100
AcDb2dVertex
 10
9.0684332251
 20
6.9440439758
 30
0.0
  0
VERTEX
  5
376
330
24E
100
AcDbEntity
  8
0
  6
CONTINUOUS
 62
     7
100
AcDbVertex
100
AcDb2dVertex
 10
9.0706332259
 20
6.9190700017
 30
0.0
  0
VERTEX
  5
377
330
24E
100
AcDbEntity
  8
0
  6
CONTINUOUS
 62
     7
100
AcDbVertex
100
AcDb2dVertex
 10
9.0717345081
 20
6.8933697622
 30
0.0
  0
VERTEX
  5
378
330
24E
100
AcDbEntity
  8
0
  6
CONTINUOUS
 62
     7
100
AcDbVertex
100
AcDb2dVertex
 10
9.0718722285
 20
6.880265925
 30
0.0
  0
SEQEND
  5
379
330
24E
100
AcDbEntity
  8
0
  6
CONTINUOUS
 62
     7
  0
POLYLINE
  5
24F
330
1F
100
AcDbEntity
  8
0
  6
CONTINUOUS
 62
     7
100
AcDb2dPolyline
 66
     1
 10
0.0
 20
0.0
 30
0.0
  0
VERTEX
  5
37A
330
24F
100
AcDbEntity
  8
0
  6
CONTINUOUS
 62
     7
100
AcDbVertex
100
AcDb2dVertex
 10
8.5986887025
 20
6.0605992042
 30
0.0
  0
VERTEX
  5
37B
330
24F
100
AcDbEntity
  8
0
  6
CONTINUOUS
 62
     7
100
AcDbVertex
100
AcDb2dVertex
 10
8.5770359873
 20
6.048667578
 30
0.0
  0
VERTEX
  5
37C
330
24F
100
AcDbEntity
  8
0
  6
CONTINUOUS
 62
     7
100
AcDbVertex
100
AcDb2dVertex
 10
8.554258496
 20
6.037355495
 30
0.0
  0
VERTEX
  5
37D
330
24F
100
AcDbEntity
  8
0
  6
CONTINUOUS
 62
     7
100
AcDbVertex
100
AcDb2dVertex
 10
8.5315842454
 20
6.0273695029
 30
0.0
  0
VERTEX
  5
37E
330
24F
100
AcDbEntity
  8
0
  6
CONTINUOUS
 62
     7
100
AcDbVertex
100
AcDb2dVertex
 10
8.5090660139
 20
6.018732846
 30
0.0
  0
VERTEX
  5
37F
330
24F
100
AcDbEntity
  8
0
  6
CONTINUOUS
 62
     7
100
AcDbVertex
100
AcDb2dVertex
 10
8.4867562171
 20
6.0114656277
 30
0.0
  0
VERTEX
  5
380
330
24F
100
AcDbEntity
  8
0
  6
CONTINUOUS
 62
     7
100
AcDbVertex
100
AcDb2dVertex
 10
8.4647067852
 20
6.0055847638
 30
0.0
  0
VERTEX
  5
381
330
24F
100
AcDbEntity
  8
0
  6
CONTINUOUS
 62
     7
100
AcDbVertex
100
AcDb2dVertex
 10
8.4429690423
 20
6.0011039431
 30
0.0
  0
VERTEX
  5
382
330
24F
100
AcDbEntity
  8
0
  6
CONTINUOUS
 62
     7
100
AcDbVertex
100
AcDb2dVertex
 10
8.4215935872
 20
5.9980335957
 30
0.0
  0
VERTEX
  5
383
330
24F
100
AcDbEntity
  8
0
  6
CONTINUOUS
 62
     7
100
AcDbVertex
100
AcDb2dVertex
 10
8.4006301753
 20
5.9963808682
 30
0.0
  0
VERTEX
  5
384
330
24F
100
AcDbEntity
  8
0
  6
CONTINUOUS
 62
     7
100
AcDbVertex
100
AcDb2dVertex
 10
8.3801276028
 20
5.9961496078
 30
0.0
  0
VERTEX
  5
385
330
24F
100
AcDbEntity
  8
0
  6
CONTINUOUS
 62
     7
100
AcDbVertex
100
AcDb2dVertex
 10
8.3601335933
 20
5.9973403527
 30
0.0
  0
VERTEX
  5
386
330
24F
100
AcDbEntity
  8
0
  6
CONTINUOUS
 62
     7
100
AcDbVertex
100
AcDb2dVertex
 10
8.3406946867
 20
5.9999503312
 30
0.0
  0
VERTEX
  5
387
330
24F
100
AcDbEntity
  8
0
  6
CONTINUOUS
 62
     7
100
AcDbVertex
100
AcDb2dVertex
 10
8.3218561306
 20
6.0039734682
 30
0.0
  0
VERTEX
  5
388
330
24F
100
AcDbEntity
  8
0
  6
CONTINUOUS
 62
     7
100
AcDbVertex
100
AcDb2dVertex
 10
8.3036617754
 20
6.0094003991
 30
0.0
  0
VERTEX
  5
389
330
24F
100
AcDbEntity
  8
0
  6
CONTINUOUS
 62
     7
100
AcDbVertex
100
AcDb2dVertex
 10
8.2861539718
 20
6.0162184915
 30
0.0
  0
VERTEX
  5
38A
330
24F
100
AcDbEntity
  8
0
  6
CONTINUOUS
 62
     7
100
AcDbVertex
100
AcDb2dVertex
 10
8.2693734726
 20
6.0244118752
 30
0.0
  0
VERTEX
  5
38B
330
24F
100
AcDbEntity
  8
0
  6
CONTINUOUS
 62
     7
100
AcDbVertex
100
AcDb2dVertex
 10
8.2533593375
 20
6.0339614785
 30
0.0
  0
VERTEX
  5
38C
330
24F
100
AcDbEntity
  8
0
  6
CONTINUOUS
 62
     7
100
AcDbVertex
100
AcDb2dVertex
 10
8.2381488423
 20
6.0448450729
 30
0.0
  0
VERTEX
  5
38D
330
24F
100
AcDbEntity
  8
0
  6
CONTINUOUS
 62
     7
100
AcDbVertex
100
AcDb2dVertex
 10
8.2237773925
 20
6.0570373248
 30
0.0
  0
VERTEX
  5
38E
330
24F
100
AcDbEntity
  8
0
  6
CONTINUOUS
 62
     7
100
AcDbVertex
100
AcDb2dVertex
 10
8.2102784403
 20
6.0705098543
 30
0.0
  0
VERTEX
  5
38F
330
24F
100
AcDbEntity
  8
0
  6
CONTINUOUS
 62
     7
100
AcDbVertex
100
AcDb2dVertex
 10
8.197683407
 20
6.0852313018
 30
0.0
  0
VERTEX
  5
390
330
24F
100
AcDbEntity
  8
0
  6
CONTINUOUS
 62
     7
100
AcDbVertex
100
AcDb2dVertex
 10
8.1860216098
 20
6.1011674002
 30
0.0
  0
VERTEX
  5
391
330
24F
100
AcDbEntity
  8
0
  6
CONTINUOUS
 62
     7
100
AcDbVertex
100
AcDb2dVertex
 10
8.175320194
 20
6.1182810553
 30
0.0
  0
VERTEX
  5
392
330
24F
100
AcDbEntity
  8
0
  6
CONTINUOUS
 62
     7
100
AcDbVertex
100
AcDb2dVertex
 10
8.1656040689
 20
6.1365324318
 30
0.0
  0
VERTEX
  5
393
330
24F
100
AcDbEntity
  8
0
  6
CONTINUOUS
 62
     7
100
AcDbVertex
100
AcDb2dVertex
 10
8.1568958508
 20
6.1558790462
 30
0.0
  0
VERTEX
  5
394
330
24F
100
AcDbEntity
  8
0
  6
CONTINUOUS
 62
     7
100
AcDbVertex
100
AcDb2dVertex
 10
8.1492158096
 20
6.1762758656
 30
0.0
  0
VERTEX
  5
395
330
24F
100
AcDbEntity
  8
0
  6
CONTINUOUS
 62
     7
100
AcDbVertex
100
AcDb2dVertex
 10
8.142581822
 20
6.1976754126
 30
0.0
  0
VERTEX
  5
396
330
24F
100
AcDbEntity
  8
0
  6
CONTINUOUS
 62
     7
100
AcDbVertex
100
AcDb2dVertex
 10
8.13700933
 20
6.2200278757
 30
0.0
  0
VERTEX
  5
397
330
24F
100
AcDbEntity
  8
0
  6
CONTINUOUS
 62
     7
100
AcDbVertex
100
AcDb2dVertex
 10
8.1325113045
 20
6.2432812254
 30
0.0
  0
VERTEX
  5
398
330
24F
100
AcDbEntity
  8
0
  6
CONTINUOUS
 62
     7
100
AcDbVertex
100
AcDb2dVertex
 10
8.1290982156
 20
6.2673813351
 30
0.0
  0
VERTEX
  5
399
330
24F
100
AcDbEntity
  8
0
  6
CONTINUOUS
 62
     7
100
AcDbVertex
100
AcDb2dVertex
 10
8.1267780078
 20
6.2922721072
 30
0.0
  0
VERTEX
  5
39A
330
24F
100
AcDbEntity
  8
0
  6
CONTINUOUS
 62
     7
100
AcDbVertex
100
AcDb2dVertex
 10
8.125556082
 20
6.3178956039
 30
0.0
  0
SEQEND
  5
39B
330
24F
100
AcDbEntity
  8
0
  6
CONTINUOUS
 62
     7
  0
LINE
  5
250
330
1F
100
AcDbEntity
  8
0
  6
CONTINUOUS
 62
     7
100
AcDbLine
 10
8.125556082
 20
6.3178956039
 30
0.0
 11
8.1467739813
 21
6.3178983148
 31
0.0
  0
POLYLINE
  5
251
330
1F
100
AcDbEntity
  8
0
  6
CONTINUOUS
 62
     7
100
AcDb2dPolyline
 66
     1
 10
0.0
 20
0.0
 30
0.0
  0
VERTEX
  5
39C
330
251
100
AcDbEntity
  8
0
  6
CONTINUOUS
 62
     7
100
AcDbVertex
100
AcDb2dVertex
 10
8.5513090795
 20
7.4071758917
 30
0.0
  0
VERTEX
  5
39D
330
251
100
AcDbEntity
  8
0
  6
CONTINUOUS
 62
     7
100
AcDbVertex
100
AcDb2dVertex
 10
8.5389884737
 20
7.4137830186
 30
0.0
  0
VERTEX
  5
39E
330
251
100
AcDbEntity
  8
0
  6
CONTINUOUS
 62
     7
100
AcDbVertex
100
AcDb2dVertex
 10
8.5218689179
 20
7.4214139427
 30
0.0
  0
VERTEX
  5
39F
330
251
100
AcDbEntity
  8
0
  6
CONTINUOUS
 62
     7
100
AcDbVertex
100
AcDb2dVertex
 10
8.5040366041
 20
7.4276578395
 30
0.0
  0
VERTEX
  5
3A0
330
251
100
AcDbEntity
  8
0
  6
CONTINUOUS
 62
     7
100
AcDbVertex
100
AcDb2dVertex
 10
8.4855331803
 20
7.4325001259
 30
0.0
  0
VERTEX
  5
3A1
330
251
100
AcDbEntity
  8
0
  6
CONTINUOUS
 62
     7
100
AcDbVertex
100
AcDb2dVertex
 10
8.4664018622
 20
7.4359294927
 30
0.0
  0
VERTEX
  5
3A2
330
251
100
AcDbEntity
  8
0
  6
CONTINUOUS
 62
     7
100
AcDbVertex
100
AcDb2dVertex
 10
8.4466873319
 20
7.4379379304
 30
0.0
  0
VERTEX
  5
3A3
330
251
100
AcDbEntity
  8
0
  6
CONTINUOUS
 62
     7
100
AcDbVertex
100
AcDb2dVertex
 10
8.4264356337
 20
7.4385207482
 30
0.0
  0
VERTEX
  5
3A4
330
251
100
AcDbEntity
  8
0
  6
CONTINUOUS
 62
     7
100
AcDbVertex
100
AcDb2dVertex
 10
8.4056940661
 20
7.4376765849
 30
0.0
  0
VERTEX
  5
3A5
330
251
100
AcDbEntity
  8
0
  6
CONTINUOUS
 62
     7
100
AcDbVertex
100
AcDb2dVertex
 10
8.3845110723
 20
7.435407412
 30
0.0
  0
VERTEX
  5
3A6
330
251
100
AcDbEntity
  8
0
  6
CONTINUOUS
 62
     7
100
AcDbVertex
100
AcDb2dVertex
 10
8.362936126
 20
7.4317185294
 30
0.0
  0
VERTEX
  5
3A7
330
251
100
AcDbEntity
  8
0
  6
CONTINUOUS
 62
     7
100
AcDbVertex
100
AcDb2dVertex
 10
8.3410196164
 20
7.4266185525
 30
0.0
  0
VERTEX
  5
3A8
330
251
100
AcDbEntity
  8
0
  6
CONTINUOUS
 62
     7
100
AcDbVertex
100
AcDb2dVertex
 10
8.3188127308
 20
7.4201193927
 30
0.0
  0
VERTEX
  5
3A9
330
251
100
AcDbEntity
  8
0
  6
CONTINUOUS
 62
     7
100
AcDbVertex
100
AcDb2dVertex
 10
8.2963673341
 20
7.4122362289
 30
0.0
  0
VERTEX
  5
3AA
330
251
100
AcDbEntity
  8
0
  6
CONTINUOUS
 62
     7
100
AcDbVertex
100
AcDb2dVertex
 10
8.2737358488
 20
7.4029874728
 30
0.0
  0
VERTEX
  5
3AB
330
251
100
AcDbEntity
  8
0
  6
CONTINUOUS
 62
     7
100
AcDbVertex
100
AcDb2dVertex
 10
8.2509711317
 20
7.3923947252
 30
0.0
  0
VERTEX
  5
3AC
330
251
100
AcDbEntity
  8
0
  6
CONTINUOUS
 62
     7
100
AcDbVertex
100
AcDb2dVertex
 10
8.2281263508
 20
7.3804827259
 30
0.0
  0
VERTEX
  5
3AD
330
251
100
AcDbEntity
  8
0
  6
CONTINUOUS
 62
     7
100
AcDbVertex
100
AcDb2dVertex
 10
8.2052548612
 20
7.367279296
 30
0.0
  0
VERTEX
  5
3AE
330
251
100
AcDbEntity
  8
0
  6
CONTINUOUS
 62
     7
100
AcDbVertex
100
AcDb2dVertex
 10
8.1824100803
 20
7.3528152727
 30
0.0
  0
VERTEX
  5
3AF
330
251
100
AcDbEntity
  8
0
  6
CONTINUOUS
 62
     7
100
AcDbVertex
100
AcDb2dVertex
 10
8.1596453631
 20
7.3371244374
 30
0.0
  0
VERTEX
  5
3B0
330
251
100
AcDbEntity
  8
0
  6
CONTINUOUS
 62
     7
100
AcDbVertex
100
AcDb2dVertex
 10
8.1370138778
 20
7.3202434367
 30
0.0
  0
VERTEX
  5
3B1
330
251
100
AcDbEntity
  8
0
  6
CONTINUOUS
 62
     7
100
AcDbVertex
100
AcDb2dVertex
 10
8.1145684812
 20
7.3022116971
 30
0.0
  0
VERTEX
  5
3B2
330
251
100
AcDbEntity
  8
0
  6
CONTINUOUS
 62
     7
100
AcDbVertex
100
AcDb2dVertex
 10
8.0923615955
 20
7.2830713325
 30
0.0
  0
VERTEX
  5
3B3
330
251
100
AcDbEntity
  8
0
  6
CONTINUOUS
 62
     7
100
AcDbVertex
100
AcDb2dVertex
 10
8.070445086
 20
7.2628670461
 30
0.0
  0
VERTEX
  5
3B4
330
251
100
AcDbEntity
  8
0
  6
CONTINUOUS
 62
     7
100
AcDbVertex
100
AcDb2dVertex
 10
8.0488701396
 20
7.2416460259
 30
0.0
  0
VERTEX
  5
3B5
330
251
100
AcDbEntity
  8
0
  6
CONTINUOUS
 62
     7
100
AcDbVertex
100
AcDb2dVertex
 10
8.0276871458
 20
7.2194578347
 30
0.0
  0
VERTEX
  5
3B6
330
251
100
AcDbEntity
  8
0
  6
CONTINUOUS
 62
     7
100
AcDbVertex
100
AcDb2dVertex
 10
8.0069455783
 20
7.1963542939
 30
0.0
  0
VERTEX
  5
3B7
330
251
100
AcDbEntity
  8
0
  6
CONTINUOUS
 62
     7
100
AcDbVertex
100
AcDb2dVertex
 10
7.98669388
 20
7.172389363
 30
0.0
  0
VERTEX
  5
3B8
330
251
100
AcDbEntity
  8
0
  6
CONTINUOUS
 62
     7
100
AcDbVertex
100
AcDb2dVertex
 10
7.9669793497
 20
7.1476190131
 30
0.0
  0
VERTEX
  5
3B9
330
251
100
AcDbEntity
  8
0
  6
CONTINUOUS
 62
     7
100
AcDbVertex
100
AcDb2dVertex
 10
7.9478480316
 20
7.1221010967
 30
0.0
  0
VERTEX
  5
3BA
330
251
100
AcDbEntity
  8
0
  6
CONTINUOUS
 62
     7
100
AcDbVertex
100
AcDb2dVertex
 10
7.9293446079
 20
7.0958952118
 30
0.0
  0
VERTEX
  5
3BB
330
251
100
AcDbEntity
  8
0
  6
CONTINUOUS
 62
     7
100
AcDbVertex
100
AcDb2dVertex
 10
7.911512294
 20
7.0690625637
 30
0.0
  0
VERTEX
  5
3BC
330
251
100
AcDbEntity
  8
0
  6
CONTINUOUS
 62
     7
100
AcDbVertex
100
AcDb2dVertex
 10
7.8943927382
 20
7.0416658212
 30
0.0
  0
VERTEX
  5
3BD
330
251
100
AcDbEntity
  8
0
  6
CONTINUOUS
 62
     7
100
AcDbVertex
100
AcDb2dVertex
 10
7.878025924
 20
7.0137689706
 30
0.0
  0
VERTEX
  5
3BE
330
251
100
AcDbEntity
  8
0
  6
CONTINUOUS
 62
     7
100
AcDbVertex
100
AcDb2dVertex
 10
7.8624500769
 20
6.9854371664
 30
0.0
  0
VERTEX
  5
3BF
330
251
100
AcDbEntity
  8
0
  6
CONTINUOUS
 62
     7
100
AcDbVertex
100
AcDb2dVertex
 10
7.8477015749
 20
6.9567365787
 30
0.0
  0
VERTEX
  5
3C0
330
251
100
AcDbEntity
  8
0
  6
CONTINUOUS
 62
     7
100
AcDbVertex
100
AcDb2dVertex
 10
7.8338148639
 20
6.9277342392
 30
0.0
  0
VERTEX
  5
3C1
330
251
100
AcDbEntity
  8
0
  6
CONTINUOUS
 62
     7
100
AcDbVertex
100
AcDb2dVertex
 10
7.820822377
 20
6.8984978842
 30
0.0
  0
VERTEX
  5
3C2
330
251
100
AcDbEntity
  8
0
  6
CONTINUOUS
 62
     7
100
AcDbVertex
100
AcDb2dVertex
 10
7.8087544586
 20
6.8690957964
 30
0.0
  0
VERTEX
  5
3C3
330
251
100
AcDbEntity
  8
0
  6
CONTINUOUS
 62
     7
100
AcDbVertex
100
AcDb2dVertex
 10
7.797639294
 20
6.8395966459
 30
0.0
  0
VERTEX
  5
3C4
330
251
100
AcDbEntity
  8
0
  6
CONTINUOUS
 62
     7
100
AcDbVertex
100
AcDb2dVertex
 10
7.7875028432
 20
6.8100693293
 30
0.0
  0
VERTEX
  5
3C5
330
251
100
AcDbEntity
  8
0
  6
CONTINUOUS
 62
     7
100
AcDbVertex
100
AcDb2dVertex
 10
7.7783687803
 20
6.780582809
 30
0.0
  0
VERTEX
  5
3C6
330
251
100
AcDbEntity
  8
0
  6
CONTINUOUS
 62
     7
100
AcDbVertex
100
AcDb2dVertex
 10
7.7702584383
 20
6.7512059521
 30
0.0
  0
VERTEX
  5
3C7
330
251
100
AcDbEntity
  8
0
  6
CONTINUOUS
 62
     7
100
AcDbVertex
100
AcDb2dVertex
 10
7.7631907593
 20
6.7220073697
 30
0.0
  0
VERTEX
  5
3C8
330
251
100
AcDbEntity
  8
0
  6
CONTINUOUS
 62
     7
100
AcDbVertex
100
AcDb2dVertex
 10
7.7571822503
 20
6.6930552563
 30
0.0
  0
VERTEX
  5
3C9
330
251
100
AcDbEntity
  8
0
  6
CONTINUOUS
 62
     7
100
AcDbVertex
100
AcDb2dVertex
 10
7.7522469442
 20
6.664417231
 30
0.0
  0
VERTEX
  5
3CA
330
251
100
AcDbEntity
  8
0
  6
CONTINUOUS
 62
     7
100
AcDbVertex
100
AcDb2dVertex
 10
7.7483963679
 20
6.6361601792
 30
0.0
  0
VERTEX
  5
3CB
330
251
100
AcDbEntity
  8
0
  6
CONTINUOUS
 62
     7
100
AcDbVertex
100
AcDb2dVertex
 10
7.7456395145
 20
6.6083500966
 30
0.0
  0
VERTEX
  5
3CC
330
251
100
AcDbEntity
  8
0
  6
CONTINUOUS
 62
     7
100
AcDbVertex
100
AcDb2dVertex
 10
7.7439828227
 20
6.581051935
 30
0.0
  0
VERTEX
  5
3CD
330
251
100
AcDbEntity
  8
0
  6
CONTINUOUS
 62
     7
100
AcDbVertex
100
AcDb2dVertex
 10
7.7434301619
 20
6.5543294503
 30
0.0
  0
VERTEX
  5
3CE
330
251
100
AcDbEntity
  8
0
  6
CONTINUOUS
 62
     7
100
AcDbVertex
100
AcDb2dVertex
 10
7.7439828227
 20
6.5282450543
 30
0.0
  0
VERTEX
  5
3CF
330
251
100
AcDbEntity
  8
0
  6
CONTINUOUS
 62
     7
100
AcDbVertex
100
AcDb2dVertex
 10
7.7456395145
 20
6.5028596682
 30
0.0
  0
VERTEX
  5
3D0
330
251
100
AcDbEntity
  8
0
  6
CONTINUOUS
 62
     7
100
AcDbVertex
100
AcDb2dVertex
 10
7.7483963679
 20
6.4782325809
 30
0.0
  0
VERTEX
  5
3D1
330
251
100
AcDbEntity
  8
0
  6
CONTINUOUS
 62
     7
100
AcDbVertex
100
AcDb2dVertex
 10
7.7522469442
 20
6.4544213099
 30
0.0
  0
VERTEX
  5
3D2
330
251
100
AcDbEntity
  8
0
  6
CONTINUOUS
 62
     7
100
AcDbVertex
100
AcDb2dVertex
 10
7.7571822503
 20
6.4314814676
 30
0.0
  0
VERTEX
  5
3D3
330
251
100
AcDbEntity
  8
0
  6
CONTINUOUS
 62
     7
100
AcDbVertex
100
AcDb2dVertex
 10
7.7631907593
 20
6.4094666312
 30
0.0
  0
VERTEX
  5
3D4
330
251
100
AcDbEntity
  8
0
  6
CONTINUOUS
 62
     7
100
AcDbVertex
100
AcDb2dVertex
 10
7.7702584383
 20
6.3884282172
 30
0.0
  0
VERTEX
  5
3D5
330
251
100
AcDbEntity
  8
0
  6
CONTINUOUS
 62
     7
100
AcDbVertex
100
AcDb2dVertex
 10
7.7783687803
 20
6.3684153618
 30
0.0
  0
VERTEX
  5
3D6
330
251
100
AcDbEntity
  8
0
  6
CONTINUOUS
 62
     7
100
AcDbVertex
100
AcDb2dVertex
 10
7.7875028432
 20
6.3494748061
 30
0.0
  0
VERTEX
  5
3D7
330
251
100
AcDbEntity
  8
0
  6
CONTINUOUS
 62
     7
100
AcDbVertex
100
AcDb2dVertex
 10
7.797639294
 20
6.3316507865
 30
0.0
  0
VERTEX
  5
3D8
330
251
100
AcDbEntity
  8
0
  6
CONTINUOUS
 62
     7
100
AcDbVertex
100
AcDb2dVertex
 10
7.8087544586
 20
6.3149849318
 30
0.0
  0
VERTEX
  5
3D9
330
251
100
AcDbEntity
  8
0
  6
CONTINUOUS
 62
     7
100
AcDbVertex
100
AcDb2dVertex
 10
7.820822377
 20
6.299516166
 30
0.0
  0
VERTEX
  5
3DA
330
251
100
AcDbEntity
  8
0
  6
CONTINUOUS
 62
     7
100
AcDbVertex
100
AcDb2dVertex
 10
7.8338148639
 20
6.2852806171
 30
0.0
  0
VERTEX
  5
3DB
330
251
100
AcDbEntity
  8
0
  6
CONTINUOUS
 62
     7
100
AcDbVertex
100
AcDb2dVertex
 10
7.8477015749
 20
6.2723115328
 30
0.0
  0
VERTEX
  5
3DC
330
251
100
AcDbEntity
  8
0
  6
CONTINUOUS
 62
     7
100
AcDbVertex
100
AcDb2dVertex
 10
7.8624500769
 20
6.2606392031
 30
0.0
  0
VERTEX
  5
3DD
330
251
100
AcDbEntity
  8
0
  6
CONTINUOUS
 62
     7
100
AcDbVertex
100
AcDb2dVertex
 10
7.878025924
 20
6.2502908892
 30
0.0
  0
VERTEX
  5
3DE
330
251
100
AcDbEntity
  8
0
  6
CONTINUOUS
 62
     7
100
AcDbVertex
100
AcDb2dVertex
 10
7.8820721324
 20
6.2478978869
 30
0.0
  0
SEQEND
  5
3DF
330
251
100
AcDbEntity
  8
0
  6
CONTINUOUS
 62
     7
  0
SPLINE
  5
252
330
1F
100
AcDbEntity
  8
0
  6
CONTINUOUS
 62
     7
100
AcDbSpline
210
0.0
220
0.0
230
1.0
 70
     8
 71
     3
 72
    20
 73
    16
 74
     0
 42
0.00000001
 43
0.00000001
 40
0.0
 40
0.0
 40
0.0
 40
0.0
 40
0.0722374994302888
 40
0.1444802959114216
 40
0.2166377020039136
 40
0.2888117697337476
 40
0.3625375011402232
 40
0.4362925191426709
 40
0.5155957182385408
 40
0.5949421165647226
 40
0.6846506578148799
 40
0.7744141773154065
 40
0.8806668071142283
 40
0.9869756289824855
 40
1.0
 40
1.0
 40
1.0
 40
1.0
 10
8.292923503604857
 20
7.057460867620897
 30
0.0
 10
8.287619229957851
 20
7.060131003267679
 30
0.0
 10
8.277010293710632
 20
7.06547147035767
 30
0.0
 10
8.258609541452184
 20
7.069987801319898
 30
0.0
 10
8.239042603717573
 20
7.071649520907336
 30
0.0
 10
8.218603368139608
 20
7.070279718802891
 30
0.0
 10
8.197915057013871
 20
7.065786700375557
 30
0.0
 10
8.1770344495499
 20
7.058178677533688
 30
0.0
 10
8.156710213870616
 20
7.047377249965511
 30
0.0
 10
8.136610666112116
 20
7.033039974250524
 30
0.0
 10
8.117890286168722
 20
7.015368103420593
 30
0.0
 10
8.099935350554572
 20
6.993416261901038
 30
0.0
 10
8.084603480984798
 20
6.967831644674694
 30
0.0
 10
8.075069324240033
 20
6.947689629534316
 30
0.0
 10
8.07170392881327
 20
6.936541964524892
 30
0.0
 10
8.071336619788857
 20
6.935325276011406
 30
0.0
  0
SPLINE
  5
253
330
1F
100
AcDbEntity
  8
0
  6
CONTINUOUS
 62
     7
100
AcDbSpline
210
0.0
220
0.0
230
1.0
 70
     8
 71
     3
 72
    35
 73
    31
 74
     0
 42
0.00000001
 43
0.00000001
 40
0.0
 40
0.0
 40
0.0
 40
0.0
 40
0.0299882086709281
 40
0.0755361673693103
 40
0.1051548286535355
 40
0.1347277370455605
 40
0.1579034176511881
 40
0.1810543391069447
 40
0.2043378974380265
 40
0.2276285815967197
 40
0.2490543795684796
 40
0.2704991696596292
 40
0.3060292406887999
 40
0.3416300392603598
 40
0.3788880416259141
 40
0.4162823991756926
 40
0.4535944221809398
 40
0.512005253752067
 40
0.5704011412480011
 40
0.6069751868073365
 40
0.64364236585743
 40
0.6801797177921304
 40
0.7248380414415776
 40
0.7694585424564006
 40
0.8144319879083729
 40
0.8593665109856192
 40
0.8982271107811636
 40
0.937074923585337
 40
0.968538267600952
 40
1.0
 40
1.0
 40
1.0
 40
1.0
 10
8.058087605934626
 20
6.85691430597311
 30
0.0
 10
8.058069244273762
 20
6.850871838703778
 30
0.0
 10
8.058022993778994
 20
6.835651695880697
 30
0.0
 10
8.06163180559183
 20
6.815042751405335
 30
0.0
 10
8.067636721764481
 20
6.795651179223849
 30
0.0
 10
8.074407107466946
 20
6.781601069116349
 30
0.0
 10
8.082450121282145
 20
6.770297711844178
 30
0.0
 10
8.09125427228566
 20
6.761657784829292
 30
0.0
 10
8.101415443840722
 20
6.755336278131816
 30
0.0
 10
8.112236406766261
 20
6.751538803246376
 30
0.0
 10
8.123291717381566
 20
6.750154532442065
 30
0.0
 10
8.136643581916461
 20
6.750747378576455
 30
0.0
 10
8.15250426517234
 20
6.754503078026162
 30
0.0
 10
8.17072868550563
 20
6.76215881213984
 30
0.0
 10
8.18884456759356
 20
6.772427529889903
 30
0.0
 10
8.206712244905459
 20
6.784898241661201
 30
0.0
 10
8.227289960763292
 20
6.801658868472306
 30
0.0
 10
8.250137080495024
 20
6.823411248487769
 30
0.0
 10
8.2712580193505
 20
6.847394294685508
 30
0.0
 10
8.287867459049075
 20
6.869251385481976
 30
0.0
 10
8.300508814667028
 20
6.888198920013952
 30
0.0
 10
8.312482370189041
 20
6.90915087496332
 30
0.0
 10
8.322893379939774
 20
6.932011686243826
 30
0.0
 10
8.330596122709627
 20
6.956545017148449
 30
0.0
 10
8.333963009583938
 20
6.980638225754017
 30
0.0
 10
8.332593720900578
 20
7.002578565494407
 30
0.0
 10
8.326637326333946
 20
7.021677304341981
 30
0.0
 10
8.317607258316421
 20
7.036717824196407
 30
0.0
 10
8.306247169832403
 20
7.048787051686243
 30
0.0
 10
8.297364649848635
 20
7.054569645009978
 30
0.0
 10
8.292923503604857
 20
7.057460867620897
 30
0.0
  0
SPLINE
  5
254
330
1F
100
AcDbEntity
  8
0
  6
CONTINUOUS
 62
     7
100
AcDbSpline
210
0.0
220
0.0
230
1.0
 70
     8
 71
     3
 72
    13
 73
     9
 74
     0
 42
0.00000001
 43
0.00000001
 40
0.0
 40
0.0
 40
0.0
 40
0.0
 40
0.1756281870046814
 40
0.3577237233532244
 40
0.5331264803504073
 40
0.7127258526329734
 40
0.9727970755415457
 40
1.0
 40
1.0
 40
1.0
 40
1.0
 10
8.13980983051328
 20
6.099699882665881
 30
0.0
 10
8.142321024057706
 20
6.098241329115939
 30
0.0
 10
8.147435883580503
 20
6.095270512099068
 30
0.0
 10
8.155983618680981
 20
6.090206124493389
 30
0.0
 10
8.164875503104131
 20
6.08490535407802
 30
0.0
 10
8.175170002417888
 20
6.078794027827422
 30
0.0
 10
8.18303641400854
 20
6.074121087807674
 30
0.0
 10
8.187656153806158
 20
6.071496234155849
 30
0.0
 10
8.188093612010746
 20
6.071247678216306
 30
0.0
  0
SPLINE
  5
255
330
1F
100
AcDbEntity
  8
0
  6
CONTINUOUS
 62
     7
100
AcDbSpline
210
0.0
220
0.0
230
1.0
 70
     8
 71
     3
 72
    13
 73
     9
 74
     0
 42
0.00000001
 43
0.00000001
 40
0.0
 40
0.0
 40
0.0
 40
0.0
 40
0.1768467315234501
 40
0.3750435254528626
 40
0.5780282579484934
 40
0.7401040742607857
 40
0.9066074290935162
 40
1.0
 40
1.0
 40
1.0
 40
1.0
 10
8.117396315976148
 20
6.112077361403775
 30
0.0
 10
8.117648250217881
 20
6.111930947322104
 30
0.0
 10
8.11818253380564
 20
6.111620443119439
 30
0.0
 10
8.12103685693696
 20
6.110136980099709
 30
0.0
 10
8.125019287757228
 20
6.108011371363007
 30
0.0
 10
8.130136950557796
 20
6.105202176079383
 30
0.0
 10
8.135064681858463
 20
6.102429701520479
 30
0.0
 10
8.138555440301275
 20
6.100421516127937
 30
0.0
 10
8.13980983051328
 20
6.099699882665878
 30
0.0
  0
ARC
  5
256
330
1F
100
AcDbEntity
  8
0
  6
CONTINUOUS
 62
     7
100
AcDbCircle
 10
8.2065977288
 20
6.4374504841
 30
0.0
 40
0.3277183178028555
100
AcDbArc
 50
176.0796736551
 51
234.8840778035
  0
LINE
  5
257
330
1F
100
AcDbEntity
  8
0
  6
CONTINUOUS
 62
     7
100
AcDbLine
 10
8.125556082
 20
6.3178956039
 30
0.0
 11
7.8796462434
 21
6.459856332
 31
0.0
  0
LINE
  5
258
330
1F
100
AcDbEntity
  8
0
  6
CONTINUOUS
 62
     7
100
AcDbLine
 10
8.125556082
 20
6.35004288
 30
0.0
 11
7.8796462434
 21
6.4920036081
 31
0.0
  0
POLYLINE
  5
259
330
1F
100
AcDbEntity
  8
0
  6
CONTINUOUS
 62
     7
100
AcDb2dPolyline
 66
     1
 10
0.0
 20
0.0
 30
0.0
  0
VERTEX
  5
3E0
330
259
100
AcDbEntity
  8
0
  6
CONTINUOUS
 62
     7
100
AcDbVertex
100
AcDb2dVertex
 10
8.5545336057
 20
7.3598475233
 30
0.0
  0
VERTEX
  5
3E1
330
259
100
AcDbEntity
  8
0
  6
CONTINUOUS
 62
     7
100
AcDbVertex
100
AcDb2dVertex
 10
8.5336129514
 20
7.3584551019
 30
0.0
  0
VERTEX
  5
3E2
330
259
100
AcDbEntity
  8
0
  6
CONTINUOUS
 62
     7
100
AcDbVertex
100
AcDb2dVertex
 10
8.5122696229
 20
7.3556388157
 30
0.0
  0
VERTEX
  5
3E3
330
259
100
AcDbEntity
  8
0
  6
CONTINUOUS
 62
     7
100
AcDbVertex
100
AcDb2dVertex
 10
8.490553486
 20
7.3514052445
 30
0.0
  0
VERTEX
  5
3E4
330
259
100
AcDbEntity
  8
0
  6
CONTINUOUS
 62
     7
100
AcDbVertex
100
AcDb2dVertex
 10
8.4685152775
 20
7.3457642794
 30
0.0
  0
VERTEX
  5
3E5
330
259
100
AcDbEntity
  8
0
  6
CONTINUOUS
 62
     7
100
AcDbVertex
100
AcDb2dVertex
 10
8.4462064868
 20
7.3387291
 30
0.0
  0
VERTEX
  5
3E6
330
259
100
AcDbEntity
  8
0
  6
CONTINUOUS
 62
     7
100
AcDbVertex
100
AcDb2dVertex
 10
8.4236792354
 20
7.3303161428
 30
0.0
  0
VERTEX
  5
3E7
330
259
100
AcDbEntity
  8
0
  6
CONTINUOUS
 62
     7
100
AcDbVertex
100
AcDb2dVertex
 10
8.400986155
 20
7.3205450637
 30
0.0
  0
VERTEX
  5
3E8
330
259
100
AcDbEntity
  8
0
  6
CONTINUOUS
 62
     7
100
AcDbVertex
100
AcDb2dVertex
 10
8.3781802652
 20
7.3094386914
 30
0.0
  0
VERTEX
  5
3E9
330
259
100
AcDbEntity
  8
0
  6
CONTINUOUS
 62
     7
100
AcDbVertex
100
AcDb2dVertex
 10
8.3553148486
 20
7.2970229745
 30
0.0
  0
VERTEX
  5
3EA
330
259
100
AcDbEntity
  8
0
  6
CONTINUOUS
 62
     7
100
AcDbVertex
100
AcDb2dVertex
 10
8.3324433274
 20
7.2833269206
 30
0.0
  0
VERTEX
  5
3EB
330
259
100
AcDbEntity
  8
0
  6
CONTINUOUS
 62
     7
100
AcDbVertex
100
AcDb2dVertex
 10
8.3096191377
 20
7.2683825288
 30
0.0
  0
VERTEX
  5
3EC
330
259
100
AcDbEntity
  8
0
  6
CONTINUOUS
 62
     7
100
AcDbVertex
100
AcDb2dVertex
 10
8.2868956051
 20
7.2522247146
 30
0.0
  0
VERTEX
  5
3ED
330
259
100
AcDbEntity
  8
0
  6
CONTINUOUS
 62
     7
100
AcDbVertex
100
AcDb2dVertex
 10
8.2643258202
 20
7.2348912285
 30
0.0
  0
VERTEX
  5
3EE
330
259
100
AcDbEntity
  8
0
  6
CONTINUOUS
 62
     7
100
AcDbVertex
100
AcDb2dVertex
 10
8.2419625143
 20
7.2164225679
 30
0.0
  0
VERTEX
  5
3EF
330
259
100
AcDbEntity
  8
0
  6
CONTINUOUS
 62
     7
100
AcDbVertex
100
AcDb2dVertex
 10
8.2198579361
 20
7.1968618823
 30
0.0
  0
VERTEX
  5
3F0
330
259
100
AcDbEntity
  8
0
  6
CONTINUOUS
 62
     7
100
AcDbVertex
100
AcDb2dVertex
 10
8.19806373
 20
7.1762548727
 30
0.0
  0
VERTEX
  5
3F1
330
259
100
AcDbEntity
  8
0
  6
CONTINUOUS
 62
     7
100
AcDbVertex
100
AcDb2dVertex
 10
8.1766308153
 20
7.1546496845
 30
0.0
  0
VERTEX
  5
3F2
330
259
100
AcDbEntity
  8
0
  6
CONTINUOUS
 62
     7
100
AcDbVertex
100
AcDb2dVertex
 10
8.155609267
 20
7.1320967954
 30
0.0
  0
VERTEX
  5
3F3
330
259
100
AcDbEntity
  8
0
  6
CONTINUOUS
 62
     7
100
AcDbVertex
100
AcDb2dVertex
 10
8.1350481993
 20
7.1086488971
 30
0.0
  0
VERTEX
  5
3F4
330
259
100
AcDbEntity
  8
0
  6
CONTINUOUS
 62
     7
100
AcDbVertex
100
AcDb2dVertex
 10
8.1149956502
 20
7.0843607725
 30
0.0
  0
VERTEX
  5
3F5
330
259
100
AcDbEntity
  8
0
  6
CONTINUOUS
 62
     7
100
AcDbVertex
100
AcDb2dVertex
 10
8.0954984698
 20
7.0592891676
 30
0.0
  0
VERTEX
  5
3F6
330
259
100
AcDbEntity
  8
0
  6
CONTINUOUS
 62
     7
100
AcDbVertex
100
AcDb2dVertex
 10
8.0766022107
 20
7.0334926587
 30
0.0
  0
VERTEX
  5
3F7
330
259
100
AcDbEntity
  8
0
  6
CONTINUOUS
 62
     7
100
AcDbVertex
100
AcDb2dVertex
 10
8.0583510215
 20
7.0070315159
 30
0.0
  0
VERTEX
  5
3F8
330
259
100
AcDbEntity
  8
0
  6
CONTINUOUS
 62
     7
100
AcDbVertex
100
AcDb2dVertex
 10
8.0407875435
 20
6.9799675621
 30
0.0
  0
VERTEX
  5
3F9
330
259
100
AcDbEntity
  8
0
  6
CONTINUOUS
 62
     7
100
AcDbVertex
100
AcDb2dVertex
 10
8.0239528115
 20
6.9523640286
 30
0.0
  0
VERTEX
  5
3FA
330
259
100
AcDbEntity
  8
0
  6
CONTINUOUS
 62
     7
100
AcDbVertex
100
AcDb2dVertex
 10
8.0078861575
 20
6.9242854074
 30
0.0
  0
VERTEX
  5
3FB
330
259
100
AcDbEntity
  8
0
  6
CONTINUOUS
 62
     7
100
AcDbVertex
100
AcDb2dVertex
 10
7.9926251192
 20
6.8957973003
 30
0.0
  0
VERTEX
  5
3FC
330
259
100
AcDbEntity
  8
0
  6
CONTINUOUS
 62
     7
100
AcDbVertex
100
AcDb2dVertex
 10
7.9782053519
 20
6.866966266
 30
0.0
  0
VERTEX
  5
3FD
330
259
100
AcDbEntity
  8
0
  6
CONTINUOUS
 62
     7
100
AcDbVertex
100
AcDb2dVertex
 10
7.9646605454
 20
6.8378596643
 30
0.0
  0
VERTEX
  5
3FE
330
259
100
AcDbEntity
  8
0
  6
CONTINUOUS
 62
     7
100
AcDbVertex
100
AcDb2dVertex
 10
7.9520223454
 20
6.8085454989
 30
0.0
  0
VERTEX
  5
3FF
330
259
100
AcDbEntity
  8
0
  6
CONTINUOUS
 62
     7
100
AcDbVertex
100
AcDb2dVertex
 10
7.9403202793
 20
6.7790922583
 30
0.0
  0
VERTEX
  5
400
330
259
100
AcDbEntity
  8
0
  6
CONTINUOUS
 62
     7
100
AcDbVertex
100
AcDb2dVertex
 10
7.9295816874
 20
6.7495687561
 30
0.0
  0
VERTEX
  5
401
330
259
100
AcDbEntity
  8
0
  6
CONTINUOUS
 62
     7
100
AcDbVertex
100
AcDb2dVertex
 10
7.919831659
 20
6.7200439699
 30
0.0
  0
VERTEX
  5
402
330
259
100
AcDbEntity
  8
0
  6
CONTINUOUS
 62
     7
100
AcDbVertex
100
AcDb2dVertex
 10
7.9110929737
 20
6.6905868805
 30
0.0
  0
VERTEX
  5
403
330
259
100
AcDbEntity
  8
0
  6
CONTINUOUS
 62
     7
100
AcDbVertex
100
AcDb2dVertex
 10
7.9033860482
 20
6.6612663104
 30
0.0
  0
VERTEX
  5
404
330
259
100
AcDbEntity
  8
0
  6
CONTINUOUS
 62
     7
100
AcDbVertex
100
AcDb2dVertex
 10
7.8967288888
 20
6.6321507632
 30
0.0
  0
VERTEX
  5
405
330
259
100
AcDbEntity
  8
0
  6
CONTINUOUS
 62
     7
100
AcDbVertex
100
AcDb2dVertex
 10
7.891137049
 20
6.6033082633
 30
0.0
  0
VERTEX
  5
406
330
259
100
AcDbEntity
  8
0
  6
CONTINUOUS
 62
     7
100
AcDbVertex
100
AcDb2dVertex
 10
7.8866235935
 20
6.5748061974
 30
0.0
  0
VERTEX
  5
407
330
259
100
AcDbEntity
  8
0
  6
CONTINUOUS
 62
     7
100
AcDbVertex
100
AcDb2dVertex
 10
7.8831990672
 20
6.5467111568
 30
0.0
  0
VERTEX
  5
408
330
259
100
AcDbEntity
  8
0
  6
CONTINUOUS
 62
     7
100
AcDbVertex
100
AcDb2dVertex
 10
7.8808714711
 20
6.5190887817
 30
0.0
  0
VERTEX
  5
409
330
259
100
AcDbEntity
  8
0
  6
CONTINUOUS
 62
     7
100
AcDbVertex
100
AcDb2dVertex
 10
7.8796462434
 20
6.4920036081
 30
0.0
  0
SEQEND
  5
40A
330
259
100
AcDbEntity
  8
0
  6
CONTINUOUS
 62
     7
  0
LINE
  5
25A
330
1F
100
AcDbEntity
  8
0
  6
CONTINUOUS
 62
     7
100
AcDbLine
 10
8.5174151395
 20
7.3812755578
 30
0.0
 11
8.5545336057
 21
7.3598475233
 31
0.0
  0
POLYLINE
  5
25B
330
1F
100
AcDbEntity
  8
0
  6
CONTINUOUS
 62
     7
100
AcDb2dPolyline
 66
     1
 10
0.0
 20
0.0
 30
0.0
  0
VERTEX
  5
40B
330
25B
100
AcDbEntity
  8
0
  6
CONTINUOUS
 62
     7
100
AcDbVertex
100
AcDb2dVertex
 10
8.0000391514
 20
6.1809861799
 30
0.0
  0
VERTEX
  5
40C
330
25B
100
AcDbEntity
  8
0
  6
CONTINUOUS
 62
     7
100
AcDbVertex
100
AcDb2dVertex
 10
7.985760183
 20
6.1881182621
 30
0.0
  0
VERTEX
  5
40D
330
25B
100
AcDbEntity
  8
0
  6
CONTINUOUS
 62
     7
100
AcDbVertex
100
AcDb2dVertex
 10
7.9697042324
 20
6.1977619163
 30
0.0
  0
VERTEX
  5
40E
330
25B
100
AcDbEntity
  8
0
  6
CONTINUOUS
 62
     7
100
AcDbVertex
100
AcDb2dVertex
 10
7.9544606128
 20
6.2087505776
 30
0.0
  0
VERTEX
  5
40F
330
25B
100
AcDbEntity
  8
0
  6
CONTINUOUS
 62
     7
100
AcDbVertex
100
AcDb2dVertex
 10
7.9400651253
 20
6.2210584381
 30
0.0
  0
VERTEX
  5
410
330
25B
100
AcDbEntity
  8
0
  6
CONTINUOUS
 62
     7
100
AcDbVertex
100
AcDb2dVertex
 10
7.9265515792
 20
6.2346565917
 30
0.0
  0
VERTEX
  5
411
330
25B
100
AcDbEntity
  8
0
  6
CONTINUOUS
 62
     7
100
AcDbVertex
100
AcDb2dVertex
 10
7.9139517123
 20
6.2495131016
 30
0.0
  0
VERTEX
  5
412
330
25B
100
AcDbEntity
  8
0
  6
CONTINUOUS
 62
     7
100
AcDbVertex
100
AcDb2dVertex
 10
7.9022951166
 20
6.265593076
 30
0.0
  0
VERTEX
  5
413
330
25B
100
AcDbEntity
  8
0
  6
CONTINUOUS
 62
     7
100
AcDbVertex
100
AcDb2dVertex
 10
7.8916091688
 20
6.2828587495
 30
0.0
  0
VERTEX
  5
414
330
25B
100
AcDbEntity
  8
0
  6
CONTINUOUS
 62
     7
100
AcDbVertex
100
AcDb2dVertex
 10
7.8819189659
 20
6.301269572
 30
0.0
  0
VERTEX
  5
415
330
25B
100
AcDbEntity
  8
0
  6
CONTINUOUS
 62
     7
100
AcDbVertex
100
AcDb2dVertex
 10
7.8732472662
 20
6.3207823038
 30
0.0
  0
VERTEX
  5
416
330
25B
100
AcDbEntity
  8
0
  6
CONTINUOUS
 62
     7
100
AcDbVertex
100
AcDb2dVertex
 10
7.8656144361
 20
6.3413511174
 30
0.0
  0
VERTEX
  5
417
330
25B
100
AcDbEntity
  8
0
  6
CONTINUOUS
 62
     7
100
AcDbVertex
100
AcDb2dVertex
 10
7.859038402
 20
6.362927705
 30
0.0
  0
VERTEX
  5
418
330
25B
100
AcDbEntity
  8
0
  6
CONTINUOUS
 62
     7
100
AcDbVertex
100
AcDb2dVertex
 10
7.8535346084
 20
6.3854613918
 30
0.0
  0
VERTEX
  5
419
330
25B
100
AcDbEntity
  8
0
  6
CONTINUOUS
 62
     7
100
AcDbVertex
100
AcDb2dVertex
 10
7.8491159815
 20
6.4088992554
 30
0.0
  0
VERTEX
  5
41A
330
25B
100
AcDbEntity
  8
0
  6
CONTINUOUS
 62
     7
100
AcDbVertex
100
AcDb2dVertex
 10
7.8457928988
 20
6.4331862495
 30
0.0
  0
VERTEX
  5
41B
330
25B
100
AcDbEntity
  8
0
  6
CONTINUOUS
 62
     7
100
AcDbVertex
100
AcDb2dVertex
 10
7.8435731649
 20
6.4582653338
 30
0.0
  0
VERTEX
  5
41C
330
25B
100
AcDbEntity
  8
0
  6
CONTINUOUS
 62
     7
100
AcDbVertex
100
AcDb2dVertex
 10
7.8424619931
 20
6.4840776077
 30
0.0
  0
VERTEX
  5
41D
330
25B
100
AcDbEntity
  8
0
  6
CONTINUOUS
 62
     7
100
AcDbVertex
100
AcDb2dVertex
 10
7.8424619931
 20
6.5105624486
 30
0.0
  0
VERTEX
  5
41E
330
25B
100
AcDbEntity
  8
0
  6
CONTINUOUS
 62
     7
100
AcDbVertex
100
AcDb2dVertex
 10
7.8435731649
 20
6.5376576541
 30
0.0
  0
VERTEX
  5
41F
330
25B
100
AcDbEntity
  8
0
  6
CONTINUOUS
 62
     7
100
AcDbVertex
100
AcDb2dVertex
 10
7.8457928988
 20
6.5652995886
 30
0.0
  0
VERTEX
  5
420
330
25B
100
AcDbEntity
  8
0
  6
CONTINUOUS
 62
     7
100
AcDbVertex
100
AcDb2dVertex
 10
7.8491159815
 20
6.5934233323
 30
0.0
  0
VERTEX
  5
421
330
25B
100
AcDbEntity
  8
0
  6
CONTINUOUS
 62
     7
100
AcDbVertex
100
AcDb2dVertex
 10
7.8535346084
 20
6.6219628339
 30
0.0
  0
VERTEX
  5
422
330
25B
100
AcDbEntity
  8
0
  6
CONTINUOUS
 62
     7
100
AcDbVertex
100
AcDb2dVertex
 10
7.859038402
 20
6.6508510656
 30
0.0
  0
VERTEX
  5
423
330
25B
100
AcDbEntity
  8
0
  6
CONTINUOUS
 62
     7
100
AcDbVertex
100
AcDb2dVertex
 10
7.8656144361
 20
6.6800201805
 30
0.0
  0
VERTEX
  5
424
330
25B
100
AcDbEntity
  8
0
  6
CONTINUOUS
 62
     7
100
AcDbVertex
100
AcDb2dVertex
 10
7.8732472662
 20
6.7094016722
 30
0.0
  0
VERTEX
  5
425
330
25B
100
AcDbEntity
  8
0
  6
CONTINUOUS
 62
     7
100
AcDbVertex
100
AcDb2dVertex
 10
7.8819189659
 20
6.7389265354
 30
0.0
  0
VERTEX
  5
426
330
25B
100
AcDbEntity
  8
0
  6
CONTINUOUS
 62
     7
100
AcDbVertex
100
AcDb2dVertex
 10
7.8916091688
 20
6.768525428
 30
0.0
  0
VERTEX
  5
427
330
25B
100
AcDbEntity
  8
0
  6
CONTINUOUS
 62
     7
100
AcDbVertex
100
AcDb2dVertex
 10
7.9022951166
 20
6.7981288342
 30
0.0
  0
VERTEX
  5
428
330
25B
100
AcDbEntity
  8
0
  6
CONTINUOUS
 62
     7
100
AcDbVertex
100
AcDb2dVertex
 10
7.9139517123
 20
6.8276672275
 30
0.0
  0
VERTEX
  5
429
330
25B
100
AcDbEntity
  8
0
  6
CONTINUOUS
 62
     7
100
AcDbVertex
100
AcDb2dVertex
 10
7.9265515792
 20
6.8570712341
 30
0.0
  0
VERTEX
  5
42A
330
25B
100
AcDbEntity
  8
0
  6
CONTINUOUS
 62
     7
100
AcDbVertex
100
AcDb2dVertex
 10
7.9400651253
 20
6.8862717959
 30
0.0
  0
VERTEX
  5
42B
330
25B
100
AcDbEntity
  8
0
  6
CONTINUOUS
 62
     7
100
AcDbVertex
100
AcDb2dVertex
 10
7.9544606128
 20
6.9152003325
 30
0.0
  0
VERTEX
  5
42C
330
25B
100
AcDbEntity
  8
0
  6
CONTINUOUS
 62
     7
100
AcDbVertex
100
AcDb2dVertex
 10
7.9697042324
 20
6.9437889024
 30
0.0
  0
VERTEX
  5
42D
330
25B
100
AcDbEntity
  8
0
  6
CONTINUOUS
 62
     7
100
AcDbVertex
100
AcDb2dVertex
 10
7.985760183
 20
6.9719703625
 30
0.0
  0
VERTEX
  5
42E
330
25B
100
AcDbEntity
  8
0
  6
CONTINUOUS
 62
     7
100
AcDbVertex
100
AcDb2dVertex
 10
8.0025907557
 20
6.9996785261
 30
0.0
  0
VERTEX
  5
42F
330
25B
100
AcDbEntity
  8
0
  6
CONTINUOUS
 62
     7
100
AcDbVertex
100
AcDb2dVertex
 10
8.0201564222
 20
7.0268483177
 30
0.0
  0
VERTEX
  5
430
330
25B
100
AcDbEntity
  8
0
  6
CONTINUOUS
 62
     7
100
AcDbVertex
100
AcDb2dVertex
 10
8.0384159278
 20
7.0534159265
 30
0.0
  0
VERTEX
  5
431
330
25B
100
AcDbEntity
  8
0
  6
CONTINUOUS
 62
     7
100
AcDbVertex
100
AcDb2dVertex
 10
8.0573263884
 20
7.0793189559
 30
0.0
  0
VERTEX
  5
432
330
25B
100
AcDbEntity
  8
0
  6
CONTINUOUS
 62
     7
100
AcDbVertex
100
AcDb2dVertex
 10
8.0768433909
 20
7.10449657
 30
0.0
  0
VERTEX
  5
433
330
25B
100
AcDbEntity
  8
0
  6
CONTINUOUS
 62
     7
100
AcDbVertex
100
AcDb2dVertex
 10
8.0969210976
 20
7.1288896369
 30
0.0
  0
VERTEX
  5
434
330
25B
100
AcDbEntity
  8
0
  6
CONTINUOUS
 62
     7
100
AcDbVertex
100
AcDb2dVertex
 10
8.1175123542
 20
7.152440867
 30
0.0
  0
VERTEX
  5
435
330
25B
100
AcDbEntity
  8
0
  6
CONTINUOUS
 62
     7
100
AcDbVertex
100
AcDb2dVertex
 10
8.1385688001
 20
7.1750949479
 30
0.0
  0
VERTEX
  5
436
330
25B
100
AcDbEntity
  8
0
  6
CONTINUOUS
 62
     7
100
AcDbVertex
100
AcDb2dVertex
 10
8.1600409822
 20
7.1967986745
 30
0.0
  0
VERTEX
  5
437
330
25B
100
AcDbEntity
  8
0
  6
CONTINUOUS
 62
     7
100
AcDbVertex
100
AcDb2dVertex
 10
8.1818784709
 20
7.2175010732
 30
0.0
  0
VERTEX
  5
438
330
25B
100
AcDbEntity
  8
0
  6
CONTINUOUS
 62
     7
100
AcDbVertex
100
AcDb2dVertex
 10
8.2040299789
 20
7.2371535226
 30
0.0
  0
VERTEX
  5
439
330
25B
100
AcDbEntity
  8
0
  6
CONTINUOUS
 62
     7
100
AcDbVertex
100
AcDb2dVertex
 10
8.226443481
 20
7.255709867
 30
0.0
  0
VERTEX
  5
43A
330
25B
100
AcDbEntity
  8
0
  6
CONTINUOUS
 62
     7
100
AcDbVertex
100
AcDb2dVertex
 10
8.2490663371
 20
7.273126525
 30
0.0
  0
VERTEX
  5
43B
330
25B
100
AcDbEntity
  8
0
  6
CONTINUOUS
 62
     7
100
AcDbVertex
100
AcDb2dVertex
 10
8.2718454152
 20
7.2893625919
 30
0.0
  0
VERTEX
  5
43C
330
25B
100
AcDbEntity
  8
0
  6
CONTINUOUS
 62
     7
100
AcDbVertex
100
AcDb2dVertex
 10
8.2947272164
 20
7.3043799356
 30
0.0
  0
VERTEX
  5
43D
330
25B
100
AcDbEntity
  8
0
  6
CONTINUOUS
 62
     7
100
AcDbVertex
100
AcDb2dVertex
 10
8.3176580006
 20
7.3181432866
 30
0.0
  0
VERTEX
  5
43E
330
25B
100
AcDbEntity
  8
0
  6
CONTINUOUS
 62
     7
100
AcDbVertex
100
AcDb2dVertex
 10
8.3405839125
 20
7.3306203202
 30
0.0
  0
VERTEX
  5
43F
330
25B
100
AcDbEntity
  8
0
  6
CONTINUOUS
 62
     7
100
AcDbVertex
100
AcDb2dVertex
 10
8.3634511085
 20
7.3417817329
 30
0.0
  0
VERTEX
  5
440
330
25B
100
AcDbEntity
  8
0
  6
CONTINUOUS
 62
     7
100
AcDbVertex
100
AcDb2dVertex
 10
8.3862058827
 20
7.351601311
 30
0.0
  0
VERTEX
  5
441
330
25B
100
AcDbEntity
  8
0
  6
CONTINUOUS
 62
     7
100
AcDbVertex
100
AcDb2dVertex
 10
8.4087947933
 20
7.3600559924
 30
0.0
  0
VERTEX
  5
442
330
25B
100
AcDbEntity
  8
0
  6
CONTINUOUS
 62
     7
100
AcDbVertex
100
AcDb2dVertex
 10
8.4311647881
 20
7.3671259203
 30
0.0
  0
VERTEX
  5
443
330
25B
100
AcDbEntity
  8
0
  6
CONTINUOUS
 62
     7
100
AcDbVertex
100
AcDb2dVertex
 10
8.453263329
 20
7.3727944904
 30
0.0
  0
VERTEX
  5
444
330
25B
100
AcDbEntity
  8
0
  6
CONTINUOUS
 62
     7
100
AcDbVertex
100
AcDb2dVertex
 10
8.4750385153
 20
7.3770483895
 30
0.0
  0
VERTEX
  5
445
330
25B
100
AcDbEntity
  8
0
  6
CONTINUOUS
 62
     7
100
AcDbVertex
100
AcDb2dVertex
 10
8.4964392061
 20
7.3798776269
 30
0.0
  0
VERTEX
  5
446
330
25B
100
AcDbEntity
  8
0
  6
CONTINUOUS
 62
     7
100
AcDbVertex
100
AcDb2dVertex
 10
8.5174151395
 20
7.3812755578
 30
0.0
  0
SEQEND
  5
447
330
25B
100
AcDbEntity
  8
0
  6
CONTINUOUS
 62
     7
  0
LINE
  5
25C
330
1F
100
AcDbEntity
  8
0
  6
CONTINUOUS
 62
     7
100
AcDbLine
 10
8.8661332813
 20
6.7653228753
 30
0.0
 11
8.8661332813
 21
6.7331755993
 31
0.0
  0
LINE
  5
25D
330
1F
100
AcDbEntity
  8
0
  6
CONTINUOUS
 62
     7
100
AcDbLine
 10
8.8661332813
 20
6.7653228753
 30
0.0
 11
8.7303834765
 21
6.6869561811
 31
0.0
  0
POLYLINE
  5
25E
330
1F
100
AcDbEntity
  8
0
  6
CONTINUOUS
 62
     7
100
AcDb2dPolyline
 66
     1
 10
0.0
 20
0.0
 30
0.0
  0
VERTEX
  5
448
330
25E
100
AcDbEntity
  8
0
  6
CONTINUOUS
 62
     7
100
AcDbVertex
100
AcDb2dVertex
 10
8.4880532956
 20
6.5470619454
 30
0.0
  0
VERTEX
  5
449
330
25E
100
AcDbEntity
  8
0
  6
CONTINUOUS
 62
     7
100
AcDbVertex
100
AcDb2dVertex
 10
8.4899733572
 20
6.5616585041
 30
0.0
  0
VERTEX
  5
44A
330
25E
100
AcDbEntity
  8
0
  6
CONTINUOUS
 62
     7
100
AcDbVertex
100
AcDb2dVertex
 10
8.4930167002
 20
6.5766250492
 30
0.0
  0
VERTEX
  5
44B
330
25E
100
AcDbEntity
  8
0
  6
CONTINUOUS
 62
     7
100
AcDbVertex
100
AcDb2dVertex
 10
8.4971546565
 20
6.5918205967
 30
0.0
  0
VERTEX
  5
44C
330
25E
100
AcDbEntity
  8
0
  6
CONTINUOUS
 62
     7
100
AcDbVertex
100
AcDb2dVertex
 10
8.5023482468
 20
6.6071020053
 30
0.0
  0
VERTEX
  5
44D
330
25E
100
AcDbEntity
  8
0
  6
CONTINUOUS
 62
     7
100
AcDbVertex
100
AcDb2dVertex
 10
8.5085485477
 20
6.6223253251
 30
0.0
  0
VERTEX
  5
44E
330
25E
100
AcDbEntity
  8
0
  6
CONTINUOUS
 62
     7
100
AcDbVertex
100
AcDb2dVertex
 10
8.5156971528
 20
6.6373471532
 30
0.0
  0
VERTEX
  5
44F
330
25E
100
AcDbEntity
  8
0
  6
CONTINUOUS
 62
     7
100
AcDbVertex
100
AcDb2dVertex
 10
8.5237267226
 20
6.6520259849
 30
0.0
  0
VERTEX
  5
450
330
25E
100
AcDbEntity
  8
0
  6
CONTINUOUS
 62
     7
100
AcDbVertex
100
AcDb2dVertex
 10
8.532561619
 20
6.6662235465
 30
0.0
  0
VERTEX
  5
451
330
25E
100
AcDbEntity
  8
0
  6
CONTINUOUS
 62
     7
100
AcDbVertex
100
AcDb2dVertex
 10
8.5421186178
 20
6.6798060977
 30
0.0
  0
VERTEX
  5
452
330
25E
100
AcDbEntity
  8
0
  6
CONTINUOUS
 62
     7
100
AcDbVertex
100
AcDb2dVertex
 10
8.5523076926
 20
6.6926456916
 30
0.0
  0
VERTEX
  5
453
330
25E
100
AcDbEntity
  8
0
  6
CONTINUOUS
 62
     7
100
AcDbVertex
100
AcDb2dVertex
 10
8.5630328629
 20
6.70462138
 30
0.0
  0
VERTEX
  5
454
330
25E
100
AcDbEntity
  8
0
  6
CONTINUOUS
 62
     7
100
AcDbVertex
100
AcDb2dVertex
 10
8.5741930982
 20
6.7156203525
 30
0.0
  0
VERTEX
  5
455
330
25E
100
AcDbEntity
  8
0
  6
CONTINUOUS
 62
     7
100
AcDbVertex
100
AcDb2dVertex
 10
8.5856832698
 20
6.7255389996
 30
0.0
  0
VERTEX
  5
456
330
25E
100
AcDbEntity
  8
0
  6
CONTINUOUS
 62
     7
100
AcDbVertex
100
AcDb2dVertex
 10
8.5973951408
 20
6.7342838881
 30
0.0
  0
VERTEX
  5
457
330
25E
100
AcDbEntity
  8
0
  6
CONTINUOUS
 62
     7
100
AcDbVertex
100
AcDb2dVertex
 10
8.6092183861
 20
6.7417726416
 30
0.0
  0
VERTEX
  5
458
330
25E
100
AcDbEntity
  8
0
  6
CONTINUOUS
 62
     7
100
AcDbVertex
100
AcDb2dVertex
 10
8.6210416314
 20
6.7479347166
 30
0.0
  0
VERTEX
  5
459
330
25E
100
AcDbEntity
  8
0
  6
CONTINUOUS
 62
     7
100
AcDbVertex
100
AcDb2dVertex
 10
8.6327535024
 20
6.7527120665
 30
0.0
  0
VERTEX
  5
45A
330
25E
100
AcDbEntity
  8
0
  6
CONTINUOUS
 62
     7
100
AcDbVertex
100
AcDb2dVertex
 10
8.6442436739
 20
6.7560596891
 30
0.0
  0
VERTEX
  5
45B
330
25E
100
AcDbEntity
  8
0
  6
CONTINUOUS
 62
     7
100
AcDbVertex
100
AcDb2dVertex
 10
8.6554039092
 20
6.75794605
 30
0.0
  0
VERTEX
  5
45C
330
25E
100
AcDbEntity
  8
0
  6
CONTINUOUS
 62
     7
100
AcDbVertex
100
AcDb2dVertex
 10
8.6661290796
 20
6.7583533796
 30
0.0
  0
VERTEX
  5
45D
330
25E
100
AcDbEntity
  8
0
  6
CONTINUOUS
 62
     7
100
AcDbVertex
100
AcDb2dVertex
 10
8.6763181544
 20
6.7572778411
 30
0.0
  0
VERTEX
  5
45E
330
25E
100
AcDbEntity
  8
0
  6
CONTINUOUS
 62
     7
100
AcDbVertex
100
AcDb2dVertex
 10
8.6858751532
 20
6.7547295659
 30
0.0
  0
VERTEX
  5
45F
330
25E
100
AcDbEntity
  8
0
  6
CONTINUOUS
 62
     7
100
AcDbVertex
100
AcDb2dVertex
 10
8.6947100496
 20
6.7507325586
 30
0.0
  0
VERTEX
  5
460
330
25E
100
AcDbEntity
  8
0
  6
CONTINUOUS
 62
     7
100
AcDbVertex
100
AcDb2dVertex
 10
8.7027396194
 20
6.7453244708
 30
0.0
  0
VERTEX
  5
461
330
25E
100
AcDbEntity
  8
0
  6
CONTINUOUS
 62
     7
100
AcDbVertex
100
AcDb2dVertex
 10
8.7098882244
 20
6.7385562464
 30
0.0
  0
VERTEX
  5
462
330
25E
100
AcDbEntity
  8
0
  6
CONTINUOUS
 62
     7
100
AcDbVertex
100
AcDb2dVertex
 10
8.7160885253
 20
6.7304916417
 30
0.0
  0
VERTEX
  5
463
330
25E
100
AcDbEntity
  8
0
  6
CONTINUOUS
 62
     7
100
AcDbVertex
100
AcDb2dVertex
 10
8.7212821156
 20
6.7212066247
 30
0.0
  0
VERTEX
  5
464
330
25E
100
AcDbEntity
  8
0
  6
CONTINUOUS
 62
     7
100
AcDbVertex
100
AcDb2dVertex
 10
8.7254200719
 20
6.7107886599
 30
0.0
  0
VERTEX
  5
465
330
25E
100
AcDbEntity
  8
0
  6
CONTINUOUS
 62
     7
100
AcDbVertex
100
AcDb2dVertex
 10
8.7284634149
 20
6.6993358839
 30
0.0
  0
VERTEX
  5
466
330
25E
100
AcDbEntity
  8
0
  6
CONTINUOUS
 62
     7
100
AcDbVertex
100
AcDb2dVertex
 10
8.7303834765
 20
6.6869561811
 30
0.0
  0
SEQEND
  5
467
330
25E
100
AcDbEntity
  8
0
  6
CONTINUOUS
 62
     7
  0
LINE
  5
25F
330
1F
100
AcDbEntity
  8
0
  6
CONTINUOUS
 62
     7
100
AcDbLine
 10
8.1467739813
 20
6.3500455908
 30
0.0
 11
8.4880532956
 21
6.5470619454
 31
0.0
  0
LINE
  5
260
330
1F
100
AcDbEntity
  8
0
  6
CONTINUOUS
 62
     7
100
AcDbLine
 10
8.1467739813
 20
6.3178983148
 30
0.0
 11
8.4880532956
 21
6.5149146693
 31
0.0
  0
POLYLINE
  5
261
330
1F
100
AcDbEntity
  8
0
  6
CONTINUOUS
 62
     7
100
AcDb2dPolyline
 66
     1
 10
0.0
 20
0.0
 30
0.0
  0
VERTEX
  5
468
330
261
100
AcDbEntity
  8
0
  6
CONTINUOUS
 62
     7
100
AcDbVertex
100
AcDb2dVertex
 10
8.7303834765
 20
6.654808905
 30
0.0
  0
VERTEX
  5
469
330
261
100
AcDbEntity
  8
0
  6
CONTINUOUS
 62
     7
100
AcDbVertex
100
AcDb2dVertex
 10
8.7284634149
 20
6.6402123463
 30
0.0
  0
VERTEX
  5
46A
330
261
100
AcDbEntity
  8
0
  6
CONTINUOUS
 62
     7
100
AcDbVertex
100
AcDb2dVertex
 10
8.7254200719
 20
6.6252458012
 30
0.0
  0
VERTEX
  5
46B
330
261
100
AcDbEntity
  8
0
  6
CONTINUOUS
 62
     7
100
AcDbVertex
100
AcDb2dVertex
 10
8.7212821156
 20
6.6100502537
 30
0.0
  0
VERTEX
  5
46C
330
261
100
AcDbEntity
  8
0
  6
CONTINUOUS
 62
     7
100
AcDbVertex
100
AcDb2dVertex
 10
8.7160885253
 20
6.5947688451
 30
0.0
  0
VERTEX
  5
46D
330
261
100
AcDbEntity
  8
0
  6
CONTINUOUS
 62
     7
100
AcDbVertex
100
AcDb2dVertex
 10
8.7098882244
 20
6.5795455253
 30
0.0
  0
VERTEX
  5
46E
330
261
100
AcDbEntity
  8
0
  6
CONTINUOUS
 62
     7
100
AcDbVertex
100
AcDb2dVertex
 10
8.7027396194
 20
6.5645236972
 30
0.0
  0
VERTEX
  5
46F
330
261
100
AcDbEntity
  8
0
  6
CONTINUOUS
 62
     7
100
AcDbVertex
100
AcDb2dVertex
 10
8.6947100496
 20
6.5498448655
 30
0.0
  0
VERTEX
  5
470
330
261
100
AcDbEntity
  8
0
  6
CONTINUOUS
 62
     7
100
AcDbVertex
100
AcDb2dVertex
 10
8.6858751532
 20
6.5356473039
 30
0.0
  0
VERTEX
  5
471
330
261
100
AcDbEntity
  8
0
  6
CONTINUOUS
 62
     7
100
AcDbVertex
100
AcDb2dVertex
 10
8.6763181544
 20
6.5220647528
 30
0.0
  0
VERTEX
  5
472
330
261
100
AcDbEntity
  8
0
  6
CONTINUOUS
 62
     7
100
AcDbVertex
100
AcDb2dVertex
 10
8.6661290796
 20
6.5092251589
 30
0.0
  0
VERTEX
  5
473
330
261
100
AcDbEntity
  8
0
  6
CONTINUOUS
 62
     7
100
AcDbVertex
100
AcDb2dVertex
 10
8.6554039092
 20
6.4972494705
 30
0.0
  0
VERTEX
  5
474
330
261
100
AcDbEntity
  8
0
  6
CONTINUOUS
 62
     7
100
AcDbVertex
100
AcDb2dVertex
 10
8.6442436739
 20
6.4862504979
 30
0.0
  0
VERTEX
  5
475
330
261
100
AcDbEntity
  8
0
  6
CONTINUOUS
 62
     7
100
AcDbVertex
100
AcDb2dVertex
 10
8.6327535024
 20
6.4763318508
 30
0.0
  0
VERTEX
  5
476
330
261
100
AcDbEntity
  8
0
  6
CONTINUOUS
 62
     7
100
AcDbVertex
100
AcDb2dVertex
 10
8.6210416314
 20
6.4675869623
 30
0.0
  0
VERTEX
  5
477
330
261
100
AcDbEntity
  8
0
  6
CONTINUOUS
 62
     7
100
AcDbVertex
100
AcDb2dVertex
 10
8.6092183861
 20
6.4600982088
 30
0.0
  0
VERTEX
  5
478
330
261
100
AcDbEntity
  8
0
  6
CONTINUOUS
 62
     7
100
AcDbVertex
100
AcDb2dVertex
 10
8.5973951408
 20
6.4539361339
 30
0.0
  0
VERTEX
  5
479
330
261
100
AcDbEntity
  8
0
  6
CONTINUOUS
 62
     7
100
AcDbVertex
100
AcDb2dVertex
 10
8.5856832698
 20
6.4491587839
 30
0.0
  0
VERTEX
  5
47A
330
261
100
AcDbEntity
  8
0
  6
CONTINUOUS
 62
     7
100
AcDbVertex
100
AcDb2dVertex
 10
8.5741930982
 20
6.4458111613
 30
0.0
  0
VERTEX
  5
47B
330
261
100
AcDbEntity
  8
0
  6
CONTINUOUS
 62
     7
100
AcDbVertex
100
AcDb2dVertex
 10
8.5630328629
 20
6.4439248004
 30
0.0
  0
VERTEX
  5
47C
330
261
100
AcDbEntity
  8
0
  6
CONTINUOUS
 62
     7
100
AcDbVertex
100
AcDb2dVertex
 10
8.5523076926
 20
6.4435174708
 30
0.0
  0
VERTEX
  5
47D
330
261
100
AcDbEntity
  8
0
  6
CONTINUOUS
 62
     7
100
AcDbVertex
100
AcDb2dVertex
 10
8.5421186178
 20
6.4445930093
 30
0.0
  0
VERTEX
  5
47E
330
261
100
AcDbEntity
  8
0
  6
CONTINUOUS
 62
     7
100
AcDbVertex
100
AcDb2dVertex
 10
8.532561619
 20
6.4471412845
 30
0.0
  0
VERTEX
  5
47F
330
261
100
AcDbEntity
  8
0
  6
CONTINUOUS
 62
     7
100
AcDbVertex
100
AcDb2dVertex
 10
8.5237267226
 20
6.4511382918
 30
0.0
  0
VERTEX
  5
480
330
261
100
AcDbEntity
  8
0
  6
CONTINUOUS
 62
     7
100
AcDbVertex
100
AcDb2dVertex
 10
8.5156971528
 20
6.4565463796
 30
0.0
  0
VERTEX
  5
481
330
261
100
AcDbEntity
  8
0
  6
CONTINUOUS
 62
     7
100
AcDbVertex
100
AcDb2dVertex
 10
8.5085485477
 20
6.463314604
 30
0.0
  0
VERTEX
  5
482
330
261
100
AcDbEntity
  8
0
  6
CONTINUOUS
 62
     7
100
AcDbVertex
100
AcDb2dVertex
 10
8.5023482468
 20
6.4713792087
 30
0.0
  0
VERTEX
  5
483
330
261
100
AcDbEntity
  8
0
  6
CONTINUOUS
 62
     7
100
AcDbVertex
100
AcDb2dVertex
 10
8.4971546565
 20
6.4806642257
 30
0.0
  0
VERTEX
  5
484
330
261
100
AcDbEntity
  8
0
  6
CONTINUOUS
 62
     7
100
AcDbVertex
100
AcDb2dVertex
 10
8.4930167002
 20
6.4910821905
 30
0.0
  0
VERTEX
  5
485
330
261
100
AcDbEntity
  8
0
  6
CONTINUOUS
 62
     7
100
AcDbVertex
100
AcDb2dVertex
 10
8.4899733572
 20
6.5025349666
 30
0.0
  0
VERTEX
  5
486
330
261
100
AcDbEntity
  8
0
  6
CONTINUOUS
 62
     7
100
AcDbVertex
100
AcDb2dVertex
 10
8.4880532956
 20
6.5149146693
 30
0.0
  0
SEQEND
  5
487
330
261
100
AcDbEntity
  8
0
  6
CONTINUOUS
 62
     7
  0
LINE
  5
262
330
1F
100
AcDbEntity
  8
0
  6
CONTINUOUS
 62
     7
100
AcDbLine
 10
8.7303834765
 20
6.654808905
 30
0.0
 11
8.8661332813
 21
6.7331755993
 31
0.0
  0
LINE
  5
263
330
1F
100
AcDbEntity
  8
0
  6
CONTINUOUS
 62
     7
100
AcDbLine
 10
8.5174151395
 20
7.3564423856
 30
0.0
 11
8.5174151395
 21
7.3812755578
 31
0.0
  0
SPLINE
  5
264
330
1F
100
AcDbEntity
  8
0
  6
CONTINUOUS
 62
     7
100
AcDbSpline
210
0.0
220
0.0
230
1.0
 70
     8
 71
     3
 72
     8
 73
     4
 74
     0
 42
0.00000001
 43
0.00000001
 40
0.0
 40
0.0
 40
0.0
 40
0.0
 40
1.0
 40
1.0
 40
1.0
 40
1.0
 10
8.48805329564805
 20
6.514914669340361
 30
0.0
 10
8.488076556419461
 20
6.519011429635269
 30
0.0
 10
8.488101835301192
 20
6.523108191504419
 30
0.0
 10
8.488129774900212
 20
6.527204941550202
 30
0.0
  0
LINE
  5
265
330
1F
100
AcDbEntity
  8
0
  6
CONTINUOUS
 62
     7
100
AcDbLine
 10
8.470893002
 20
6.5371555187
 30
0.0
 11
8.4881297749
 21
6.5272049416
 31
0.0
  0
LINE
  5
266
330
1F
100
AcDbEntity
  8
0
  6
CONTINUOUS
 62
     7
100
AcDbLine
 10
7.907489618
 20
6.47592997
 30
0.0
 11
7.8796462434
 21
6.459856332
 31
0.0
  0
SPLINE
  5
267
330
1F
100
AcDbEntity
  8
0
  6
CONTINUOUS
 62
     7
100
AcDbSpline
210
0.0
220
0.0
230
1.0
 70
     8
 71
     3
 72
     8
 73
     4
 74
     0
 42
0.00000001
 43
0.00000001
 40
0.0
 40
0.0
 40
0.0
 40
0.0
 40
1.0
 40
1.0
 40
1.0
 40
1.0
 10
8.709093793804184
 20
6.686912030534998
 30
0.0
 10
8.716190345882637
 20
6.686928159731119
 30
0.0
 10
8.723286910727396
 20
6.686942752910256
 30
0.0
 10
8.730383476491943
 20
6.6869561810675
 30
0.0
  0
ARC
  5
268
330
1F
100
AcDbEntity
  8
0
  6
CONTINUOUS
 62
     7
100
AcDbCircle
 10
8.6426198082
 20
6.6844923874
 30
0.0
 40
0.066518008307019
100
AcDbArc
 50
2.0846374108
 51
125.730037351
  0
LINE
  5
269
330
1F
100
AcDbEntity
  8
0
  6
CONTINUOUS
 62
     7
100
AcDbLine
 10
8.7090937938
 20
6.6869120305
 30
0.0
 11
8.6125132526
 21
6.7426667902
 31
0.0
  0
LINE
  5
26A
330
1F
100
AcDbEntity
  8
0
  6
CONTINUOUS
 62
     7
100
AcDbLine
 10
8.7090937938
 20
6.6547647545
 30
0.0
 11
8.5860232276
 21
6.7258118801
 31
0.0
  0
POLYLINE
  5
26B
330
1F
100
AcDbEntity
  8
0
  6
CONTINUOUS
 62
     7
100
AcDb2dPolyline
 66
     1
 10
0.0
 20
0.0
 30
0.0
  0
VERTEX
  5
488
330
26B
100
AcDbEntity
  8
0
  6
CONTINUOUS
 62
     7
100
AcDbVertex
100
AcDb2dVertex
 10
8.4881297749
 20
6.5272049416
 30
0.0
  0
VERTEX
  5
489
330
26B
100
AcDbEntity
  8
0
  6
CONTINUOUS
 62
     7
100
AcDbVertex
100
AcDb2dVertex
 10
8.4900635785
 20
6.5157039738
 30
0.0
  0
VERTEX
  5
48A
330
26B
100
AcDbEntity
  8
0
  6
CONTINUOUS
 62
     7
100
AcDbVertex
100
AcDb2dVertex
 10
8.493075197
 20
6.5051100986
 30
0.0
  0
VERTEX
  5
48B
330
26B
100
AcDbEntity
  8
0
  6
CONTINUOUS
 62
     7
100
AcDbVertex
100
AcDb2dVertex
 10
8.4971347271
 20
6.4955285064
 30
0.0
  0
VERTEX
  5
48C
330
26B
100
AcDbEntity
  8
0
  6
CONTINUOUS
 62
     7
100
AcDbVertex
100
AcDb2dVertex
 10
8.5022018602
 20
6.4870543363
 30
0.0
  0
VERTEX
  5
48D
330
26B
100
AcDbEntity
  8
0
  6
CONTINUOUS
 62
     7
100
AcDbVertex
100
AcDb2dVertex
 10
8.5082262828
 20
6.4797717314
 30
0.0
  0
VERTEX
  5
48E
330
26B
100
AcDbEntity
  8
0
  6
CONTINUOUS
 62
     7
100
AcDbVertex
100
AcDb2dVertex
 10
8.5151481762
 20
6.4737530035
 30
0.0
  0
VERTEX
  5
48F
330
26B
100
AcDbEntity
  8
0
  6
CONTINUOUS
 62
     7
100
AcDbVertex
100
AcDb2dVertex
 10
8.5228988105
 20
6.4690579147
 30
0.0
  0
VERTEX
  5
490
330
26B
100
AcDbEntity
  8
0
  6
CONTINUOUS
 62
     7
100
AcDbVertex
100
AcDb2dVertex
 10
8.5314012266
 20
6.4657330842
 30
0.0
  0
VERTEX
  5
491
330
26B
100
AcDbEntity
  8
0
  6
CONTINUOUS
 62
     7
100
AcDbVertex
100
AcDb2dVertex
 10
8.5405710011
 20
6.4638115256
 30
0.0
  0
VERTEX
  5
492
330
26B
100
AcDbEntity
  8
0
  6
CONTINUOUS
 62
     7
100
AcDbVertex
100
AcDb2dVertex
 10
8.5503170839
 20
6.4633123186
 30
0.0
  0
VERTEX
  5
493
330
26B
100
AcDbEntity
  8
0
  6
CONTINUOUS
 62
     7
100
AcDbVertex
100
AcDb2dVertex
 10
8.5605427024
 20
6.4642404201
 30
0.0
  0
VERTEX
  5
494
330
26B
100
AcDbEntity
  8
0
  6
CONTINUOUS
 62
     7
100
AcDbVertex
100
AcDb2dVertex
 10
8.5711463229
 20
6.4665866146
 30
0.0
  0
VERTEX
  5
495
330
26B
100
AcDbEntity
  8
0
  6
CONTINUOUS
 62
     7
100
AcDbVertex
100
AcDb2dVertex
 10
8.582022658
 20
6.4703276059
 30
0.0
  0
VERTEX
  5
496
330
26B
100
AcDbEntity
  8
0
  6
CONTINUOUS
 62
     7
100
AcDbVertex
100
AcDb2dVertex
 10
8.5930637126
 20
6.4754262484
 30
0.0
  0
VERTEX
  5
497
330
26B
100
AcDbEntity
  8
0
  6
CONTINUOUS
 62
     7
100
AcDbVertex
100
AcDb2dVertex
 10
8.6041598561
 20
6.4818319157
 30
0.0
  0
VERTEX
  5
498
330
26B
100
AcDbEntity
  8
0
  6
CONTINUOUS
 62
     7
100
AcDbVertex
100
AcDb2dVertex
 10
8.6152009107
 20
6.4894810036
 30
0.0
  0
VERTEX
  5
499
330
26B
100
AcDbEntity
  8
0
  6
CONTINUOUS
 62
     7
100
AcDbVertex
100
AcDb2dVertex
 10
8.6260772458
 20
6.4982975614
 30
0.0
  0
VERTEX
  5
49A
330
26B
100
AcDbEntity
  8
0
  6
CONTINUOUS
 62
     7
100
AcDbVertex
100
AcDb2dVertex
 10
8.6366808663
 20
6.5081940465
 30
0.0
  0
VERTEX
  5
49B
330
26B
100
AcDbEntity
  8
0
  6
CONTINUOUS
 62
     7
100
AcDbVertex
100
AcDb2dVertex
 10
8.6469064848
 20
6.5190721929
 30
0.0
  0
VERTEX
  5
49C
330
26B
100
AcDbEntity
  8
0
  6
CONTINUOUS
 62
     7
100
AcDbVertex
100
AcDb2dVertex
 10
8.6566525676
 20
6.5308239875
 30
0.0
  0
VERTEX
  5
49D
330
26B
100
AcDbEntity
  8
0
  6
CONTINUOUS
 62
     7
100
AcDbVertex
100
AcDb2dVertex
 10
8.6658223421
 20
6.5433327424
 30
0.0
  0
VERTEX
  5
49E
330
26B
100
AcDbEntity
  8
0
  6
CONTINUOUS
 62
     7
100
AcDbVertex
100
AcDb2dVertex
 10
8.6743247582
 20
6.5564742536
 30
0.0
  0
VERTEX
  5
49F
330
26B
100
AcDbEntity
  8
0
  6
CONTINUOUS
 62
     7
100
AcDbVertex
100
AcDb2dVertex
 10
8.6820753925
 20
6.5701180343
 30
0.0
  0
VERTEX
  5
4A0
330
26B
100
AcDbEntity
  8
0
  6
CONTINUOUS
 62
     7
100
AcDbVertex
100
AcDb2dVertex
 10
8.6889972859
 20
6.5841286102
 30
0.0
  0
VERTEX
  5
4A1
330
26B
100
AcDbEntity
  8
0
  6
CONTINUOUS
 62
     7
100
AcDbVertex
100
AcDb2dVertex
 10
8.6950217085
 20
6.5983668654
 30
0.0
  0
VERTEX
  5
4A2
330
26B
100
AcDbEntity
  8
0
  6
CONTINUOUS
 62
     7
100
AcDbVertex
100
AcDb2dVertex
 10
8.7000888416
 20
6.6126914228
 30
0.0
  0
VERTEX
  5
4A3
330
26B
100
AcDbEntity
  8
0
  6
CONTINUOUS
 62
     7
100
AcDbVertex
100
AcDb2dVertex
 10
8.7041483717
 20
6.6269600487
 30
0.0
  0
VERTEX
  5
4A4
330
26B
100
AcDbEntity
  8
0
  6
CONTINUOUS
 62
     7
100
AcDbVertex
100
AcDb2dVertex
 10
8.7071599902
 20
6.6410310647
 30
0.0
  0
VERTEX
  5
4A5
330
26B
100
AcDbEntity
  8
0
  6
CONTINUOUS
 62
     7
100
AcDbVertex
100
AcDb2dVertex
 10
8.7090937938
 20
6.6547647545
 30
0.0
  0
SEQEND
  5
4A6
330
26B
100
AcDbEntity
  8
0
  6
CONTINUOUS
 62
     7
  0
SPLINE
  5
26C
330
1F
100
AcDbEntity
  8
0
  6
CONTINUOUS
 62
     7
100
AcDbSpline
210
0.0
220
0.0
230
1.0
 70
     8
 71
     3
 72
     8
 73
     4
 74
     0
 42
0.00000001
 43
0.00000001
 40
0.0
 40
0.0
 40
0.0
 40
0.0
 40
1.0
 40
1.0
 40
1.0
 40
1.0
 10
8.709093793804184
 20
6.654764754476504
 30
0.0
 10
8.716190345882637
 20
6.654780883672625
 30
0.0
 10
8.723286910727396
 20
6.654795476851762
 30
0.0
 10
8.730383476491943
 20
6.654808905009006
 30
0.0
  0
POLYLINE
  5
26D
330
1F
100
AcDbEntity
  8
0
  6
CONTINUOUS
 62
     7
100
AcDb2dPolyline
 66
     1
 10
0.0
 20
0.0
 30
0.0
  0
VERTEX
  5
4A7
330
26D
100
AcDbEntity
  8
0
  6
CONTINUOUS
 62
     7
100
AcDbVertex
100
AcDb2dVertex
 10
8.8661332813
 20
6.7331755993
 30
0.0
  0
VERTEX
  5
4A8
330
26D
100
AcDbEntity
  8
0
  6
CONTINUOUS
 62
     7
100
AcDbVertex
100
AcDb2dVertex
 10
8.8485727631
 20
6.7426622091
 30
0.0
  0
VERTEX
  5
4A9
330
26D
100
AcDbEntity
  8
0
  6
CONTINUOUS
 62
     7
100
AcDbVertex
100
AcDb2dVertex
 10
8.8367743108
 20
6.7483743024
 30
0.0
  0
SEQEND
  5
4AA
330
26D
100
AcDbEntity
  8
0
  6
CONTINUOUS
 62
     7
  0
LINE
  5
26E
330
1F
100
AcDbEntity
  8
0
  6
CONTINUOUS
 62
     7
100
AcDbLine
 10
8.0576922542
 20
6.8967121458
 30
0.0
 11
8.0576970486
 21
6.897375714
 31
0.0
  0
LINE
  5
26F
330
1F
100
AcDbEntity
  8
0
  6
CONTINUOUS
 62
     7
100
AcDbLine
 10
8.2131366533
 20
6.8747613284
 30
0.0
 11
8.2613549553
 21
6.9025971617
 31
0.0
  0
LINE
  5
270
330
1F
100
AcDbEntity
  8
0
  6
CONTINUOUS
 62
     7
100
AcDbLine
 10
8.2613549553
 20
6.9025971617
 30
0.0
 11
8.2437058318
 21
6.940621617
 31
0.0
  0
LINE
  5
271
330
1F
100
AcDbEntity
  8
0
  6
CONTINUOUS
 62
     7
100
AcDbLine
 10
8.2437058318
 20
6.940621617
 30
0.0
 11
8.1778384064
 21
6.9508102392
 31
0.0
  0
LINE
  5
272
330
1F
100
AcDbEntity
  8
0
  6
CONTINUOUS
 62
     7
100
AcDbLine
 10
8.1778384064
 20
6.9508102392
 30
0.0
 11
8.1296201043
 21
6.9229744059
 31
0.0
  0
LINE
  5
273
330
1F
100
AcDbEntity
  8
0
  6
CONTINUOUS
 62
     7
100
AcDbLine
 10
8.1296201043
 20
6.9229744059
 30
0.0
 11
8.1472692278
 21
6.8849499505
 31
0.0
  0
LINE
  5
274
330
1F
100
AcDbEntity
  8
0
  6
CONTINUOUS
 62
     7
100
AcDbLine
 10
8.1472692278
 20
6.8849499505
 30
0.0
 11
8.2131366533
 21
6.8747613284
 31
0.0
  0
LINE
  5
275
330
1F
100
AcDbEntity
  8
0
  6
CONTINUOUS
 62
     7
100
AcDbLine
 10
8.2437058318
 20
6.8924085396
 30
0.0
 11
8.2437058318
 21
6.940621617
 31
0.0
  0
LINE
  5
276
330
1F
100
AcDbEntity
  8
0
  6
CONTINUOUS
 62
     7
100
AcDbLine
 10
8.1778384064
 20
6.8802213946
 30
0.0
 11
8.1778384064
 21
6.9508102392
 31
0.0
  0
ARC
  5
277
330
1F
100
AcDbEntity
  8
0
  6
CONTINUOUS
 62
     7
100
AcDbCircle
 10
8.2744227858
 20
7.2044100092
 30
0.0
 40
0.1803531775384203
100
AcDbArc
 50
107.0192833032
 51
140.784152429
  0
ARC
  5
278
330
1F
100
AcDbEntity
  8
0
  6
CONTINUOUS
 62
     7
100
AcDbCircle
 10
7.9192322007
 20
6.5891367905
 30
0.0
 40
0.1803873593857412
100
AcDbArc
 50
159.2105920454
 51
192.983125644
  0
ARC
  5
279
330
1F
100
AcDbEntity
  8
0
  6
CONTINUOUS
 62
     7
100
AcDbCircle
 10
7.8063601351
 20
6.6308980319
 30
0.0
 40
0.1005218369766274
100
AcDbArc
 50
179.2157389759
 51
197.9397811659
  0
ARC
  5
27A
330
1F
100
AcDbEntity
  8
0
  6
CONTINUOUS
 62
     7
100
AcDbCircle
 10
7.9210410988
 20
6.6214506596
 30
0.0
 40
0.2154653930686628
100
AcDbArc
 50
131.1367217667
 51
177.120704456
  0
POLYLINE
  5
27B
330
1F
100
AcDbEntity
  8
0
  6
CONTINUOUS
 62
     7
100
AcDb2dPolyline
 66
     1
 10
0.0
 20
0.0
 30
0.0
  0
VERTEX
  5
4AB
330
27B
100
AcDbEntity
  8
0
  6
CONTINUOUS
 62
     7
100
AcDbVertex
100
AcDb2dVertex
 10
8.5053659256
 20
7.4272479488
 30
0.0
  0
VERTEX
  5
4AC
330
27B
100
AcDbEntity
  8
0
  6
CONTINUOUS
 62
     7
100
AcDbVertex
100
AcDb2dVertex
 10
8.4921105694
 20
7.4385824606
 30
0.0
  0
VERTEX
  5
4AD
330
27B
100
AcDbEntity
  8
0
  6
CONTINUOUS
 62
     7
100
AcDbVertex
100
AcDb2dVertex
 10
8.4769439664
 20
7.4495959982
 30
0.0
  0
VERTEX
  5
4AE
330
27B
100
AcDbEntity
  8
0
  6
CONTINUOUS
 62
     7
100
AcDbVertex
100
AcDb2dVertex
 10
8.460967971
 20
7.4592730453
 30
0.0
  0
VERTEX
  5
4AF
330
27B
100
AcDbEntity
  8
0
  6
CONTINUOUS
 62
     7
100
AcDbVertex
100
AcDb2dVertex
 10
8.4442198958
 20
7.4675910007
 30
0.0
  0
VERTEX
  5
4B0
330
27B
100
AcDbEntity
  8
0
  6
CONTINUOUS
 62
     7
100
AcDbVertex
100
AcDb2dVertex
 10
8.4267388567
 20
7.4745304373
 30
0.0
  0
VERTEX
  5
4B1
330
27B
100
AcDbEntity
  8
0
  6
CONTINUOUS
 62
     7
100
AcDbVertex
100
AcDb2dVertex
 10
8.4085656816
 20
7.4800751479
 30
0.0
  0
VERTEX
  5
4B2
330
27B
100
AcDbEntity
  8
0
  6
CONTINUOUS
 62
     7
100
AcDbVertex
100
AcDb2dVertex
 10
8.3897428146
 20
7.4842121825
 30
0.0
  0
VERTEX
  5
4B3
330
27B
100
AcDbEntity
  8
0
  6
CONTINUOUS
 62
     7
100
AcDbVertex
100
AcDb2dVertex
 10
8.3703142176
 20
7.4869318789
 30
0.0
  0
VERTEX
  5
4B4
330
27B
100
AcDbEntity
  8
0
  6
CONTINUOUS
 62
     7
100
AcDbVertex
100
AcDb2dVertex
 10
8.3503252668
 20
7.488227885
 30
0.0
  0
VERTEX
  5
4B5
330
27B
100
AcDbEntity
  8
0
  6
CONTINUOUS
 62
     7
100
AcDbVertex
100
AcDb2dVertex
 10
8.3298226474
 20
7.4880971741
 30
0.0
  0
VERTEX
  5
4B6
330
27B
100
AcDbEntity
  8
0
  6
CONTINUOUS
 62
     7
100
AcDbVertex
100
AcDb2dVertex
 10
8.3088542443
 20
7.4865400513
 30
0.0
  0
VERTEX
  5
4B7
330
27B
100
AcDbEntity
  8
0
  6
CONTINUOUS
 62
     7
100
AcDbVertex
100
AcDb2dVertex
 10
8.28746903
 20
7.4835601535
 30
0.0
  0
VERTEX
  5
4B8
330
27B
100
AcDbEntity
  8
0
  6
CONTINUOUS
 62
     7
100
AcDbVertex
100
AcDb2dVertex
 10
8.2657169508
 20
7.4791644403
 30
0.0
  0
VERTEX
  5
4B9
330
27B
100
AcDbEntity
  8
0
  6
CONTINUOUS
 62
     7
100
AcDbVertex
100
AcDb2dVertex
 10
8.2436488096
 20
7.473363178
 30
0.0
  0
VERTEX
  5
4BA
330
27B
100
AcDbEntity
  8
0
  6
CONTINUOUS
 62
     7
100
AcDbVertex
100
AcDb2dVertex
 10
8.2213161476
 20
7.4661699159
 30
0.0
  0
VERTEX
  5
4BB
330
27B
100
AcDbEntity
  8
0
  6
CONTINUOUS
 62
     7
100
AcDbVertex
100
AcDb2dVertex
 10
8.1987711238
 20
7.4576014541
 30
0.0
  0
VERTEX
  5
4BC
330
27B
100
AcDbEntity
  8
0
  6
CONTINUOUS
 62
     7
100
AcDbVertex
100
AcDb2dVertex
 10
8.1760663931
 20
7.4476778047
 30
0.0
  0
VERTEX
  5
4BD
330
27B
100
AcDbEntity
  8
0
  6
CONTINUOUS
 62
     7
100
AcDbVertex
100
AcDb2dVertex
 10
8.1532549835
 20
7.4364221447
 30
0.0
  0
VERTEX
  5
4BE
330
27B
100
AcDbEntity
  8
0
  6
CONTINUOUS
 62
     7
100
AcDbVertex
100
AcDb2dVertex
 10
8.130390172
 20
7.4238607624
 30
0.0
  0
VERTEX
  5
4BF
330
27B
100
AcDbEntity
  8
0
  6
CONTINUOUS
 62
     7
100
AcDbVertex
100
AcDb2dVertex
 10
8.1075253606
 20
7.4100229953
 30
0.0
  0
VERTEX
  5
4C0
330
27B
100
AcDbEntity
  8
0
  6
CONTINUOUS
 62
     7
100
AcDbVertex
100
AcDb2dVertex
 10
8.084713951
 20
7.3949411623
 30
0.0
  0
VERTEX
  5
4C1
330
27B
100
AcDbEntity
  8
0
  6
CONTINUOUS
 62
     7
100
AcDbVertex
100
AcDb2dVertex
 10
8.0620092203
 20
7.3786504877
 30
0.0
  0
VERTEX
  5
4C2
330
27B
100
AcDbEntity
  8
0
  6
CONTINUOUS
 62
     7
100
AcDbVertex
100
AcDb2dVertex
 10
8.0394641965
 20
7.3611890191
 30
0.0
  0
VERTEX
  5
4C3
330
27B
100
AcDbEntity
  8
0
  6
CONTINUOUS
 62
     7
100
AcDbVertex
100
AcDb2dVertex
 10
8.0171315345
 20
7.3425975385
 30
0.0
  0
VERTEX
  5
4C4
330
27B
100
AcDbEntity
  8
0
  6
CONTINUOUS
 62
     7
100
AcDbVertex
100
AcDb2dVertex
 10
7.9950633933
 20
7.3229194673
 30
0.0
  0
VERTEX
  5
4C5
330
27B
100
AcDbEntity
  8
0
  6
CONTINUOUS
 62
     7
100
AcDbVertex
100
AcDb2dVertex
 10
7.9733113141
 20
7.3022007644
 30
0.0
  0
VERTEX
  5
4C6
330
27B
100
AcDbEntity
  8
0
  6
CONTINUOUS
 62
     7
100
AcDbVertex
100
AcDb2dVertex
 10
7.9519260998
 20
7.2804898194
 30
0.0
  0
VERTEX
  5
4C7
330
27B
100
AcDbEntity
  8
0
  6
CONTINUOUS
 62
     7
100
AcDbVertex
100
AcDb2dVertex
 10
7.9309576966
 20
7.2578373392
 30
0.0
  0
VERTEX
  5
4C8
330
27B
100
AcDbEntity
  8
0
  6
CONTINUOUS
 62
     7
100
AcDbVertex
100
AcDb2dVertex
 10
7.9104550773
 20
7.2342962297
 30
0.0
  0
VERTEX
  5
4C9
330
27B
100
AcDbEntity
  8
0
  6
CONTINUOUS
 62
     7
100
AcDbVertex
100
AcDb2dVertex
 10
7.8904661265
 20
7.2099214722
 30
0.0
  0
VERTEX
  5
4CA
330
27B
100
AcDbEntity
  8
0
  6
CONTINUOUS
 62
     7
100
AcDbVertex
100
AcDb2dVertex
 10
7.8710375294
 20
7.1847699952
 30
0.0
  0
VERTEX
  5
4CB
330
27B
100
AcDbEntity
  8
0
  6
CONTINUOUS
 62
     7
100
AcDbVertex
100
AcDb2dVertex
 10
7.8522146625
 20
7.158900541
 30
0.0
  0
VERTEX
  5
4CC
330
27B
100
AcDbEntity
  8
0
  6
CONTINUOUS
 62
     7
100
AcDbVertex
100
AcDb2dVertex
 10
7.8340414874
 20
7.132373529
 30
0.0
  0
VERTEX
  5
4CD
330
27B
100
AcDbEntity
  8
0
  6
CONTINUOUS
 62
     7
100
AcDbVertex
100
AcDb2dVertex
 10
7.8165604483
 20
7.1052509143
 30
0.0
  0
VERTEX
  5
4CE
330
27B
100
AcDbEntity
  8
0
  6
CONTINUOUS
 62
     7
100
AcDbVertex
100
AcDb2dVertex
 10
7.7998123731
 20
7.0775960429
 30
0.0
  0
VERTEX
  5
4CF
330
27B
100
AcDbEntity
  8
0
  6
CONTINUOUS
 62
     7
100
AcDbVertex
100
AcDb2dVertex
 10
7.7838363777
 20
7.0494735041
 30
0.0
  0
VERTEX
  5
4D0
330
27B
100
AcDbEntity
  8
0
  6
CONTINUOUS
 62
     7
100
AcDbVertex
100
AcDb2dVertex
 10
7.7686697747
 20
7.0209489794
 30
0.0
  0
VERTEX
  5
4D1
330
27B
100
AcDbEntity
  8
0
  6
CONTINUOUS
 62
     7
100
AcDbVertex
100
AcDb2dVertex
 10
7.7543479865
 20
6.9920890892
 30
0.0
  0
VERTEX
  5
4D2
330
27B
100
AcDbEntity
  8
0
  6
CONTINUOUS
 62
     7
100
AcDbVertex
100
AcDb2dVertex
 10
7.7409044622
 20
6.962961237
 30
0.0
  0
VERTEX
  5
4D3
330
27B
100
AcDbEntity
  8
0
  6
CONTINUOUS
 62
     7
100
AcDbVertex
100
AcDb2dVertex
 10
7.7283705998
 20
6.9336334523
 30
0.0
  0
VERTEX
  5
4D4
330
27B
100
AcDbEntity
  8
0
  6
CONTINUOUS
 62
     7
100
AcDbVertex
100
AcDb2dVertex
 10
7.7167756728
 20
6.9041742315
 30
0.0
  0
VERTEX
  5
4D5
330
27B
100
AcDbEntity
  8
0
  6
CONTINUOUS
 62
     7
100
AcDbVertex
100
AcDb2dVertex
 10
7.7061467616
 20
6.874652378
 30
0.0
  0
VERTEX
  5
4D6
330
27B
100
AcDbEntity
  8
0
  6
CONTINUOUS
 62
     7
100
AcDbVertex
100
AcDb2dVertex
 10
7.6965086905
 20
6.8451368414
 30
0.0
  0
VERTEX
  5
4D7
330
27B
100
AcDbEntity
  8
0
  6
CONTINUOUS
 62
     7
100
AcDbVertex
100
AcDb2dVertex
 10
7.6878839698
 20
6.8156965566
 30
0.0
  0
VERTEX
  5
4D8
330
27B
100
AcDbEntity
  8
0
  6
CONTINUOUS
 62
     7
100
AcDbVertex
100
AcDb2dVertex
 10
7.6802927428
 20
6.7864002828
 30
0.0
  0
VERTEX
  5
4D9
330
27B
100
AcDbEntity
  8
0
  6
CONTINUOUS
 62
     7
100
AcDbVertex
100
AcDb2dVertex
 10
7.6737527392
 20
6.7573164428
 30
0.0
  0
VERTEX
  5
4DA
330
27B
100
AcDbEntity
  8
0
  6
CONTINUOUS
 62
     7
100
AcDbVertex
100
AcDb2dVertex
 10
7.6682792334
 20
6.7285129633
 30
0.0
  0
VERTEX
  5
4DB
330
27B
100
AcDbEntity
  8
0
  6
CONTINUOUS
 62
     7
100
AcDbVertex
100
AcDb2dVertex
 10
7.6638850092
 20
6.7000571161
 30
0.0
  0
VERTEX
  5
4DC
330
27B
100
AcDbEntity
  8
0
  6
CONTINUOUS
 62
     7
100
AcDbVertex
100
AcDb2dVertex
 10
7.6605803294
 20
6.6720153611
 30
0.0
  0
VERTEX
  5
4DD
330
27B
100
AcDbEntity
  8
0
  6
CONTINUOUS
 62
     7
100
AcDbVertex
100
AcDb2dVertex
 10
7.6583729123
 20
6.6444531912
 30
0.0
  0
VERTEX
  5
4DE
330
27B
100
AcDbEntity
  8
0
  6
CONTINUOUS
 62
     7
100
AcDbVertex
100
AcDb2dVertex
 10
7.6572679133
 20
6.6174349791
 30
0.0
  0
VERTEX
  5
4DF
330
27B
100
AcDbEntity
  8
0
  6
CONTINUOUS
 62
     7
100
AcDbVertex
100
AcDb2dVertex
 10
7.6572679133
 20
6.5910238271
 30
0.0
  0
VERTEX
  5
4E0
330
27B
100
AcDbEntity
  8
0
  6
CONTINUOUS
 62
     7
100
AcDbVertex
100
AcDb2dVertex
 10
7.6583729123
 20
6.5652814196
 30
0.0
  0
VERTEX
  5
4E1
330
27B
100
AcDbEntity
  8
0
  6
CONTINUOUS
 62
     7
100
AcDbVertex
100
AcDb2dVertex
 10
7.6605803294
 20
6.5402678793
 30
0.0
  0
VERTEX
  5
4E2
330
27B
100
AcDbEntity
  8
0
  6
CONTINUOUS
 62
     7
100
AcDbVertex
100
AcDb2dVertex
 10
7.6638850092
 20
6.5160416264
 30
0.0
  0
VERTEX
  5
4E3
330
27B
100
AcDbEntity
  8
0
  6
CONTINUOUS
 62
     7
100
AcDbVertex
100
AcDb2dVertex
 10
7.6682792334
 20
6.4926592425
 30
0.0
  0
VERTEX
  5
4E4
330
27B
100
AcDbEntity
  8
0
  6
CONTINUOUS
 62
     7
100
AcDbVertex
100
AcDb2dVertex
 10
7.6737527392
 20
6.4701753381
 30
0.0
  0
VERTEX
  5
4E5
330
27B
100
AcDbEntity
  8
0
  6
CONTINUOUS
 62
     7
100
AcDbVertex
100
AcDb2dVertex
 10
7.6802927428
 20
6.4486424256
 30
0.0
  0
VERTEX
  5
4E6
330
27B
100
AcDbEntity
  8
0
  6
CONTINUOUS
 62
     7
100
AcDbVertex
100
AcDb2dVertex
 10
7.6878839698
 20
6.428110796
 30
0.0
  0
VERTEX
  5
4E7
330
27B
100
AcDbEntity
  8
0
  6
CONTINUOUS
 62
     7
100
AcDbVertex
100
AcDb2dVertex
 10
7.6965086905
 20
6.4086284018
 30
0.0
  0
VERTEX
  5
4E8
330
27B
100
AcDbEntity
  8
0
  6
CONTINUOUS
 62
     7
100
AcDbVertex
100
AcDb2dVertex
 10
7.7061467616
 20
6.3902407452
 30
0.0
  0
VERTEX
  5
4E9
330
27B
100
AcDbEntity
  8
0
  6
CONTINUOUS
 62
     7
100
AcDbVertex
100
AcDb2dVertex
 10
7.7167756728
 20
6.3729907713
 30
0.0
  0
VERTEX
  5
4EA
330
27B
100
AcDbEntity
  8
0
  6
CONTINUOUS
 62
     7
100
AcDbVertex
100
AcDb2dVertex
 10
7.7283705998
 20
6.3569187683
 30
0.0
  0
VERTEX
  5
4EB
330
27B
100
AcDbEntity
  8
0
  6
CONTINUOUS
 62
     7
100
AcDbVertex
100
AcDb2dVertex
 10
7.7409044622
 20
6.3420622731
 30
0.0
  0
VERTEX
  5
4EC
330
27B
100
AcDbEntity
  8
0
  6
CONTINUOUS
 62
     7
100
AcDbVertex
100
AcDb2dVertex
 10
7.7543479865
 20
6.3284559836
 30
0.0
  0
VERTEX
  5
4ED
330
27B
100
AcDbEntity
  8
0
  6
CONTINUOUS
 62
     7
100
AcDbVertex
100
AcDb2dVertex
 10
7.7686697747
 20
6.3161316781
 30
0.0
  0
VERTEX
  5
4EE
330
27B
100
AcDbEntity
  8
0
  6
CONTINUOUS
 62
     7
100
AcDbVertex
100
AcDb2dVertex
 10
7.7838363777
 20
6.3051181405
 30
0.0
  0
VERTEX
  5
4EF
330
27B
100
AcDbEntity
  8
0
  6
CONTINUOUS
 62
     7
100
AcDbVertex
100
AcDb2dVertex
 10
7.7998123731
 20
6.2954410934
 30
0.0
  0
VERTEX
  5
4F0
330
27B
100
AcDbEntity
  8
0
  6
CONTINUOUS
 62
     7
100
AcDbVertex
100
AcDb2dVertex
 10
7.8165604483
 20
6.287123138
 30
0.0
  0
VERTEX
  5
4F1
330
27B
100
AcDbEntity
  8
0
  6
CONTINUOUS
 62
     7
100
AcDbVertex
100
AcDb2dVertex
 10
7.8340414874
 20
6.2801837014
 30
0.0
  0
VERTEX
  5
4F2
330
27B
100
AcDbEntity
  8
0
  6
CONTINUOUS
 62
     7
100
AcDbVertex
100
AcDb2dVertex
 10
7.8417148524
 20
6.2776460098
 30
0.0
  0
SEQEND
  5
4F3
330
27B
100
AcDbEntity
  8
0
  6
CONTINUOUS
 62
     7
  0
ARC
  5
27C
330
1F
100
AcDbEntity
  8
0
  6
CONTINUOUS
 62
     7
100
AcDbCircle
 10
8.227408766
 20
7.1974059369
 30
0.0
 40
0.1939270853671758
100
AcDbArc
 50
110.0829660093
 51
170.8383812482
  0
SPLINE
  5
27D
330
1F
100
AcDbEntity
  8
0
  6
CONTINUOUS
 62
     7
100
AcDbSpline
210
0.0
220
0.0
230
1.0
 70
     8
 71
     3
 72
    24
 73
    20
 74
     0
 42
0.00000001
 43
0.00000001
 40
0.0
 40
0.0
 40
0.0
 40
0.0
 40
0.0389035169837617
 40
0.1017883693156117
 40
0.1646680974489049
 40
0.2569230727736629
 40
0.3510540759382591
 40
0.4109454826608325
 40
0.4720782820962973
 40
0.5188241923593023
 40
0.5668042268055603
 40
0.6136137185841024
 40
0.6620426135416614
 40
0.7054162340160081
 40
0.7496991118261993
 40
0.8214338573486798
 40
0.895134107894531
 40
0.9516000986049089
 40
1.0
 40
1.0
 40
1.0
 40
1.0
 10
8.281386443740919
 20
7.562760481977056
 30
0.0
 10
8.27871718243349
 20
7.564374592529131
 30
0.0
 10
8.27173324430076
 20
7.568597801476006
 30
0.0
 10
8.258749490722384
 20
7.575386113694921
 30
0.0
 10
8.241086418031808
 20
7.584366418850367
 30
0.0
 10
8.219569603271914
 20
7.594635077809961
 30
0.0
 10
8.197228452355652
 20
7.604909168508215
 30
0.0
 10
8.177312585018441
 20
7.614069374122383
 30
0.0
 10
8.16182339959222
 20
7.621362271250648
 30
0.0
 10
8.147938246931588
 20
7.628206182253098
 30
0.0
 10
8.13612762772547
 20
7.634388584357464
 30
0.0
 10
8.125482156963175
 20
7.640434527469422
 30
0.0
 10
8.116825154841163
 20
7.645882724312205
 30
0.0
 10
8.110033071915801
 20
7.650685540629243
 30
0.0
 10
8.103909690933703
 20
7.655613920142784
 30
0.0
 10
8.099195080373663
 20
7.660346546604202
 30
0.0
 10
8.09693839521689
 20
7.663846746060669
 30
0.0
 10
8.096495563729086
 20
7.665909566707014
 30
0.0
 10
8.097124877789009
 20
7.666416015150811
 30
0.0
 10
8.097415331985651
 20
7.666649761836689
 30
0.0
  0
SPLINE
  5
27E
330
1F
100
AcDbEntity
  8
0
  6
CONTINUOUS
 62
     7
100
AcDbSpline
210
0.0
220
0.0
230
1.0
 70
     8
 71
     3
 72
    60
 73
    56
 74
     0
 42
0.00000001
 43
0.00000001
 40
-0.0312500000000001
 40
-0.0312500000000001
 40
0.0
 40
0.0
 40
0.0312500000000002
 40
0.0312500000000002
 40
0.0625000000000003
 40
0.0625000000000003
 40
0.0937500000000005
 40
0.0937500000000005
 40
0.1250000000000007
 40
0.1250000000000007
 40
0.1875000000000006
 40
0.1875000000000006
 40
0.2187500000000006
 40
0.2187500000000006
 40
0.2500000000000006
 40
0.2500000000000006
 40
0.3125000000000007
 40
0.3125000000000007
 40
0.3750000000000009
 40
0.3750000000000009
 40
0.4062500000000008
 40
0.4062500000000008
 40
0.4375000000000007
 40
0.4375000000000007
 40
0.4687500000000006
 40
0.4687500000000006
 40
0.5000000000000004
 40
0.5000000000000004
 40
0.5312500000000004
 40
0.5312500000000004
 40
0.5625000000000002
 40
0.5625000000000002
 40
0.5937500000000002
 40
0.5937500000000002
 40
0.6250000000000001
 40
0.6250000000000001
 40
0.6562500000000001
 40
0.6562500000000001
 40
0.6875
 40
0.6875
 40
0.7499999999999998
 40
0.7499999999999998
 40
0.8124999999999997
 40
0.8124999999999997
 40
0.8437499999999997
 40
0.8437499999999997
 40
0.8749999999999998
 40
0.8749999999999998
 40
0.9062499999999998
 40
0.9062499999999998
 40
0.9374999999999999
 40
0.9374999999999999
 40
0.9687499999999999
 40
0.9687499999999999
 40
1.0
 40
1.0
 40
1.03125
 40
1.03125
 10
7.542718531476526
 20
7.246825368106926
 30
0.0
 10
7.534259764498847
 20
7.251708510342535
 30
0.0
 10
7.529650476999777
 20
7.2532255905234
 30
0.0
 10
7.519772794581369
 20
7.254621574350699
 30
0.0
 10
7.514597715309279
 20
7.254467130937278
 30
0.0
 10
7.504288505305269
 20
7.252789746285075
 30
0.0
 10
7.499088505739772
 20
7.251256445755165
 30
0.0
 10
7.489076216600951
 20
7.247214548846093
 30
0.0
 10
7.484198590340565
 20
7.244694792891007
 30
0.0
 10
7.469934419420373
 20
7.235835805729021
 30
0.0
 10
7.461307281519572
 20
7.228480011431201
 30
0.0
 10
7.449701291948847
 20
7.215749129984788
 30
0.0
 10
7.446042606264123
 20
7.211185020551621
 30
0.0
 10
7.439378070319766
 20
7.201708028437478
 30
0.0
 10
7.436343813202841
 20
7.196767894946979
 30
0.0
 10
7.428161860570216
 20
7.181324707989259
 30
0.0
 10
7.423931557726801
 20
7.170110807529339
 30
0.0
 10
7.418870256059672
 20
7.147212378874181
 30
0.0
 10
7.41799124905181
 20
7.135232800237294
 30
0.0
 10
7.419711012303834
 20
7.118007213968633
 30
0.0
 10
7.420806169681576
 20
7.112276508385725
 30
0.0
 10
7.42398445850354
 20
7.101516925369708
 30
0.0
 10
7.426058496887759
 20
7.096442420309542
 30
0.0
 10
7.431240308751307
 20
7.086970590010473
 30
0.0
 10
7.434350682561838
 20
7.082616990286646
 30
0.0
 10
7.441270545997198
 20
7.075199954538303
 30
0.0
 10
7.445181834101132
 20
7.072024043792401
 30
0.0
 10
7.453525310320174
 20
7.067124046489469
 30
0.0
 10
7.457909993231134
 20
7.065398187687843
 30
0.0
 10
7.467113835993135
 20
7.063392422342262
 30
0.0
 10
7.471796808663699
 20
7.063151658086961
 30
0.0
 10
7.481169817061996
 20
7.06408832831943
 30
0.0
 10
7.485901216340105
 20
7.06528571296311
 30
0.0
 10
7.495016197785897
 20
7.068896635380264
 30
0.0
 10
7.499500325847213
 20
7.071342472646251
 30
0.0
 10
7.508068561813407
 20
7.077238807520372
 30
0.0
 10
7.512134829370981
 20
7.08066208993477
 30
0.0
 10
7.519906623470546
 20
7.088353227976656
 30
0.0
 10
7.523591313292494
 20
7.092612178322393
 30
0.0
 10
7.533840918102388
 20
7.106130192580989
 30
0.0
 10
7.539789169087354
 20
7.116366769372107
 30
0.0
 10
7.549575183211687
 20
7.137697453759833
 30
0.0
 10
7.553526769957219
 20
7.149033356653644
 30
0.0
 10
7.5577146932575
 20
7.166002448563892
 30
0.0
 10
7.55883074739086
 20
7.171676684647227
 30
0.0
 10
7.560445718412371
 20
7.183070784143206
 30
0.0
 10
7.560942655161015
 20
7.188826048652103
 30
0.0
 10
7.561172011806456
 20
7.200043471593725
 30
0.0
 10
7.560915447039472
 20
7.20554095739182
 30
0.0
 10
7.559468883450026
 20
7.216283684540167
 30
0.0
 10
7.558266685384594
 20
7.22152101537809
 30
0.0
 10
7.554743886128369
 20
7.231192681005375
 30
0.0
 10
7.552366887644937
 20
7.235747146506026
 30
0.0
 10
7.546377798813774
 20
7.24353190899874
 30
0.0
 10
7.542718531476526
 20
7.246825368106926
 30
0.0
 10
7.534259764498847
 20
7.251708510342535
 30
0.0
  0
POLYLINE
  5
27F
330
1F
100
AcDbEntity
  8
0
  6
CONTINUOUS
 62
     7
100
AcDb2dPolyline
 66
     1
 10
0.0
 20
0.0
 30
0.0
  0
VERTEX
  5
4F4
330
27F
100
AcDbEntity
  8
0
  6
CONTINUOUS
 62
     7
100
AcDbVertex
100
AcDb2dVertex
 10
7.6034325499
 20
6.4542624393
 30
0.0
  0
VERTEX
  5
4F5
330
27F
100
AcDbEntity
  8
0
  6
CONTINUOUS
 62
     7
100
AcDbVertex
100
AcDb2dVertex
 10
7.5941568657
 20
6.4731299346
 30
0.0
  0
VERTEX
  5
4F6
330
27F
100
AcDbEntity
  8
0
  6
CONTINUOUS
 62
     7
100
AcDbVertex
100
AcDb2dVertex
 10
7.585908318
 20
6.4930808771
 30
0.0
  0
VERTEX
  5
4F7
330
27F
100
AcDbEntity
  8
0
  6
CONTINUOUS
 62
     7
100
AcDbVertex
100
AcDb2dVertex
 10
7.5787062793
 20
6.5140684102
 30
0.0
  0
VERTEX
  5
4F8
330
27F
100
AcDbEntity
  8
0
  6
CONTINUOUS
 62
     7
100
AcDbVertex
100
AcDb2dVertex
 10
7.5725676643
 20
6.5360432426
 30
0.0
  0
VERTEX
  5
4F9
330
27F
100
AcDbEntity
  8
0
  6
CONTINUOUS
 62
     7
100
AcDbVertex
100
AcDb2dVertex
 10
7.5675068902
 20
6.5589537642
 30
0.0
  0
VERTEX
  5
4FA
330
27F
100
AcDbEntity
  8
0
  6
CONTINUOUS
 62
     7
100
AcDbVertex
100
AcDb2dVertex
 10
7.5635358426
 20
6.5827461674
 30
0.0
  0
VERTEX
  5
4FB
330
27F
100
AcDbEntity
  8
0
  6
CONTINUOUS
 62
     7
100
AcDbVertex
100
AcDb2dVertex
 10
7.560663848
 20
6.6073645736
 30
0.0
  0
VERTEX
  5
4FC
330
27F
100
AcDbEntity
  8
0
  6
CONTINUOUS
 62
     7
100
AcDbVertex
100
AcDb2dVertex
 10
7.5588976515
 20
6.632751164
 30
0.0
  0
VERTEX
  5
4FD
330
27F
100
AcDbEntity
  8
0
  6
CONTINUOUS
 62
     7
100
AcDbVertex
100
AcDb2dVertex
 10
7.5582414012
 20
6.6588463156
 30
0.0
  0
VERTEX
  5
4FE
330
27F
100
AcDbEntity
  8
0
  6
CONTINUOUS
 62
     7
100
AcDbVertex
100
AcDb2dVertex
 10
7.5586966383
 20
6.6855887416
 30
0.0
  0
VERTEX
  5
4FF
330
27F
100
AcDbEntity
  8
0
  6
CONTINUOUS
 62
     7
100
AcDbVertex
100
AcDb2dVertex
 10
7.5602622937
 20
6.7129156347
 30
0.0
  0
VERTEX
  5
500
330
27F
100
AcDbEntity
  8
0
  6
CONTINUOUS
 62
     7
100
AcDbVertex
100
AcDb2dVertex
 10
7.5629346903
 20
6.740762815
 30
0.0
  0
VERTEX
  5
501
330
27F
100
AcDbEntity
  8
0
  6
CONTINUOUS
 62
     7
100
AcDbVertex
100
AcDb2dVertex
 10
7.5667075518
 20
6.7690648808
 30
0.0
  0
VERTEX
  5
502
330
27F
100
AcDbEntity
  8
0
  6
CONTINUOUS
 62
     7
100
AcDbVertex
100
AcDb2dVertex
 10
7.5715720171
 20
6.7977553619
 30
0.0
  0
VERTEX
  5
503
330
27F
100
AcDbEntity
  8
0
  6
CONTINUOUS
 62
     7
100
AcDbVertex
100
AcDb2dVertex
 10
7.5775166616
 20
6.8267668759
 30
0.0
  0
VERTEX
  5
504
330
27F
100
AcDbEntity
  8
0
  6
CONTINUOUS
 62
     7
100
AcDbVertex
100
AcDb2dVertex
 10
7.5845275238
 20
6.8560312864
 30
0.0
  0
VERTEX
  5
505
330
27F
100
AcDbEntity
  8
0
  6
CONTINUOUS
 62
     7
100
AcDbVertex
100
AcDb2dVertex
 10
7.5925881379
 20
6.8854798632
 30
0.0
  0
VERTEX
  5
506
330
27F
100
AcDbEntity
  8
0
  6
CONTINUOUS
 62
     7
100
AcDbVertex
100
AcDb2dVertex
 10
7.6016795728
 20
6.9150434434
 30
0.0
  0
VERTEX
  5
507
330
27F
100
AcDbEntity
  8
0
  6
CONTINUOUS
 62
     7
100
AcDbVertex
100
AcDb2dVertex
 10
7.6117804764
 20
6.9446525941
 30
0.0
  0
VERTEX
  5
508
330
27F
100
AcDbEntity
  8
0
  6
CONTINUOUS
 62
     7
100
AcDbVertex
100
AcDb2dVertex
 10
7.6228671258
 20
6.9742377752
 30
0.0
  0
VERTEX
  5
509
330
27F
100
AcDbEntity
  8
0
  6
CONTINUOUS
 62
     7
100
AcDbVertex
100
AcDb2dVertex
 10
7.6349134828
 20
7.0037295032
 30
0.0
  0
VERTEX
  5
50A
330
27F
100
AcDbEntity
  8
0
  6
CONTINUOUS
 62
     7
100
AcDbVertex
100
AcDb2dVertex
 10
7.6478912554
 20
7.0330585137
 30
0.0
  0
VERTEX
  5
50B
330
27F
100
AcDbEntity
  8
0
  6
CONTINUOUS
 62
     7
100
AcDbVertex
100
AcDb2dVertex
 10
7.6617699642
 20
7.0621559249
 30
0.0
  0
VERTEX
  5
50C
330
27F
100
AcDbEntity
  8
0
  6
CONTINUOUS
 62
     7
100
AcDbVertex
100
AcDb2dVertex
 10
7.6765170134
 20
7.0909533986
 30
0.0
  0
VERTEX
  5
50D
330
27F
100
AcDbEntity
  8
0
  6
CONTINUOUS
 62
     7
100
AcDbVertex
100
AcDb2dVertex
 10
7.6920977684
 20
7.1193833011
 30
0.0
  0
VERTEX
  5
50E
330
27F
100
AcDbEntity
  8
0
  6
CONTINUOUS
 62
     7
100
AcDbVertex
100
AcDb2dVertex
 10
7.7084756361
 20
7.1473788621
 30
0.0
  0
VERTEX
  5
50F
330
27F
100
AcDbEntity
  8
0
  6
CONTINUOUS
 62
     7
100
AcDbVertex
100
AcDb2dVertex
 10
7.7256121516
 20
7.1748743312
 30
0.0
  0
VERTEX
  5
510
330
27F
100
AcDbEntity
  8
0
  6
CONTINUOUS
 62
     7
100
AcDbVertex
100
AcDb2dVertex
 10
7.7434670681
 20
7.2018051327
 30
0.0
  0
VERTEX
  5
511
330
27F
100
AcDbEntity
  8
0
  6
CONTINUOUS
 62
     7
100
AcDbVertex
100
AcDb2dVertex
 10
7.7619984516
 20
7.2281080169
 30
0.0
  0
VERTEX
  5
512
330
27F
100
AcDbEntity
  8
0
  6
CONTINUOUS
 62
     7
100
AcDbVertex
100
AcDb2dVertex
 10
7.7811627793
 20
7.2537212091
 30
0.0
  0
VERTEX
  5
513
330
27F
100
AcDbEntity
  8
0
  6
CONTINUOUS
 62
     7
100
AcDbVertex
100
AcDb2dVertex
 10
7.800915042
 20
7.278584554
 30
0.0
  0
VERTEX
  5
514
330
27F
100
AcDbEntity
  8
0
  6
CONTINUOUS
 62
     7
100
AcDbVertex
100
AcDb2dVertex
 10
7.8212088494
 20
7.3026396578
 30
0.0
  0
VERTEX
  5
515
330
27F
100
AcDbEntity
  8
0
  6
CONTINUOUS
 62
     7
100
AcDbVertex
100
AcDb2dVertex
 10
7.8419965398
 20
7.3258300247
 30
0.0
  0
VERTEX
  5
516
330
27F
100
AcDbEntity
  8
0
  6
CONTINUOUS
 62
     7
100
AcDbVertex
100
AcDb2dVertex
 10
7.8632292911
 20
7.3481011898
 30
0.0
  0
VERTEX
  5
517
330
27F
100
AcDbEntity
  8
0
  6
CONTINUOUS
 62
     7
100
AcDbVertex
100
AcDb2dVertex
 10
7.8848572361
 20
7.3694008472
 30
0.0
  0
VERTEX
  5
518
330
27F
100
AcDbEntity
  8
0
  6
CONTINUOUS
 62
     7
100
AcDbVertex
100
AcDb2dVertex
 10
7.9068295796
 20
7.3896789725
 30
0.0
  0
VERTEX
  5
519
330
27F
100
AcDbEntity
  8
0
  6
CONTINUOUS
 62
     7
100
AcDbVertex
100
AcDb2dVertex
 10
7.9290947173
 20
7.4088879407
 30
0.0
  0
VERTEX
  5
51A
330
27F
100
AcDbEntity
  8
0
  6
CONTINUOUS
 62
     7
100
AcDbVertex
100
AcDb2dVertex
 10
7.9516003575
 20
7.4269826375
 30
0.0
  0
VERTEX
  5
51B
330
27F
100
AcDbEntity
  8
0
  6
CONTINUOUS
 62
     7
100
AcDbVertex
100
AcDb2dVertex
 10
7.9742936433
 20
7.4439205658
 30
0.0
  0
VERTEX
  5
51C
330
27F
100
AcDbEntity
  8
0
  6
CONTINUOUS
 62
     7
100
AcDbVertex
100
AcDb2dVertex
 10
7.9971212775
 20
7.4596619453
 30
0.0
  0
VERTEX
  5
51D
330
27F
100
AcDbEntity
  8
0
  6
CONTINUOUS
 62
     7
100
AcDbVertex
100
AcDb2dVertex
 10
8.0200296472
 20
7.4741698057
 30
0.0
  0
VERTEX
  5
51E
330
27F
100
AcDbEntity
  8
0
  6
CONTINUOUS
 62
     7
100
AcDbVertex
100
AcDb2dVertex
 10
8.0429649497
 20
7.4874100741
 30
0.0
  0
VERTEX
  5
51F
330
27F
100
AcDbEntity
  8
0
  6
CONTINUOUS
 62
     7
100
AcDbVertex
100
AcDb2dVertex
 10
8.0658733194
 20
7.4993516542
 30
0.0
  0
VERTEX
  5
520
330
27F
100
AcDbEntity
  8
0
  6
CONTINUOUS
 62
     7
100
AcDbVertex
100
AcDb2dVertex
 10
8.0887009536
 20
7.5099665002
 30
0.0
  0
VERTEX
  5
521
330
27F
100
AcDbEntity
  8
0
  6
CONTINUOUS
 62
     7
100
AcDbVertex
100
AcDb2dVertex
 10
8.1113942394
 20
7.519229682
 30
0.0
  0
VERTEX
  5
522
330
27F
100
AcDbEntity
  8
0
  6
CONTINUOUS
 62
     7
100
AcDbVertex
100
AcDb2dVertex
 10
8.1338998796
 20
7.5271194442
 30
0.0
  0
VERTEX
  5
523
330
27F
100
AcDbEntity
  8
0
  6
CONTINUOUS
 62
     7
100
AcDbVertex
100
AcDb2dVertex
 10
8.1561650173
 20
7.5336172569
 30
0.0
  0
VERTEX
  5
524
330
27F
100
AcDbEntity
  8
0
  6
CONTINUOUS
 62
     7
100
AcDbVertex
100
AcDb2dVertex
 10
8.1781373608
 20
7.5387078594
 30
0.0
  0
VERTEX
  5
525
330
27F
100
AcDbEntity
  8
0
  6
CONTINUOUS
 62
     7
100
AcDbVertex
100
AcDb2dVertex
 10
8.1997653058
 20
7.5423792958
 30
0.0
  0
VERTEX
  5
526
330
27F
100
AcDbEntity
  8
0
  6
CONTINUOUS
 62
     7
100
AcDbVertex
100
AcDb2dVertex
 10
8.2209980571
 20
7.5446229435
 30
0.0
  0
VERTEX
  5
527
330
27F
100
AcDbEntity
  8
0
  6
CONTINUOUS
 62
     7
100
AcDbVertex
100
AcDb2dVertex
 10
8.2417857475
 20
7.545433533
 30
0.0
  0
VERTEX
  5
528
330
27F
100
AcDbEntity
  8
0
  6
CONTINUOUS
 62
     7
100
AcDbVertex
100
AcDb2dVertex
 10
8.2620795549
 20
7.5448091606
 30
0.0
  0
VERTEX
  5
529
330
27F
100
AcDbEntity
  8
0
  6
CONTINUOUS
 62
     7
100
AcDbVertex
100
AcDb2dVertex
 10
8.2818318176
 20
7.5427512927
 30
0.0
  0
VERTEX
  5
52A
330
27F
100
AcDbEntity
  8
0
  6
CONTINUOUS
 62
     7
100
AcDbVertex
100
AcDb2dVertex
 10
8.3009961453
 20
7.5392647623
 30
0.0
  0
VERTEX
  5
52B
330
27F
100
AcDbEntity
  8
0
  6
CONTINUOUS
 62
     7
100
AcDbVertex
100
AcDb2dVertex
 10
8.3195275288
 20
7.534357758
 30
0.0
  0
VERTEX
  5
52C
330
27F
100
AcDbEntity
  8
0
  6
CONTINUOUS
 62
     7
100
AcDbVertex
100
AcDb2dVertex
 10
8.3373824453
 20
7.5280418043
 30
0.0
  0
VERTEX
  5
52D
330
27F
100
AcDbEntity
  8
0
  6
CONTINUOUS
 62
     7
100
AcDbVertex
100
AcDb2dVertex
 10
8.3545189608
 20
7.5203317349
 30
0.0
  0
VERTEX
  5
52E
330
27F
100
AcDbEntity
  8
0
  6
CONTINUOUS
 62
     7
100
AcDbVertex
100
AcDb2dVertex
 10
8.366115772
 20
7.5140857125
 30
0.0
  0
SEQEND
  5
52F
330
27F
100
AcDbEntity
  8
0
  6
CONTINUOUS
 62
     7
  0
POLYLINE
  5
280
330
1F
100
AcDbEntity
  8
0
  6
CONTINUOUS
 62
     7
100
AcDb2dPolyline
 66
     1
 10
0.0
 20
0.0
 30
0.0
  0
VERTEX
  5
530
330
280
100
AcDbEntity
  8
0
  6
CONTINUOUS
 62
     7
100
AcDbVertex
100
AcDb2dVertex
 10
8.3470416266
 20
7.5239077788
 30
0.0
  0
VERTEX
  5
531
330
280
100
AcDbEntity
  8
0
  6
CONTINUOUS
 62
     7
100
AcDbVertex
100
AcDb2dVertex
 10
8.3348189219
 20
7.5320339913
 30
0.0
  0
VERTEX
  5
532
330
280
100
AcDbEntity
  8
0
  6
CONTINUOUS
 62
     7
100
AcDbVertex
100
AcDb2dVertex
 10
8.3185354613
 20
7.5411869285
 30
0.0
  0
VERTEX
  5
533
330
280
100
AcDbEntity
  8
0
  6
CONTINUOUS
 62
     7
100
AcDbVertex
100
AcDb2dVertex
 10
8.3014946523
 20
7.5489723626
 30
0.0
  0
VERTEX
  5
534
330
280
100
AcDbEntity
  8
0
  6
CONTINUOUS
 62
     7
100
AcDbVertex
100
AcDb2dVertex
 10
8.2837363087
 20
7.5553721041
 30
0.0
  0
VERTEX
  5
535
330
280
100
AcDbEntity
  8
0
  6
CONTINUOUS
 62
     7
100
AcDbVertex
100
AcDb2dVertex
 10
8.2653019202
 20
7.5603712008
 30
0.0
  0
VERTEX
  5
536
330
280
100
AcDbEntity
  8
0
  6
CONTINUOUS
 62
     7
100
AcDbVertex
100
AcDb2dVertex
 10
8.2462345565
 20
7.5639579729
 30
0.0
  0
VERTEX
  5
537
330
280
100
AcDbEntity
  8
0
  6
CONTINUOUS
 62
     7
100
AcDbVertex
100
AcDb2dVertex
 10
8.2265787658
 20
7.5661240405
 30
0.0
  0
VERTEX
  5
538
330
280
100
AcDbEntity
  8
0
  6
CONTINUOUS
 62
     7
100
AcDbVertex
100
AcDb2dVertex
 10
8.2063804712
 20
7.5668643428
 30
0.0
  0
VERTEX
  5
539
330
280
100
AcDbEntity
  8
0
  6
CONTINUOUS
 62
     7
100
AcDbVertex
100
AcDb2dVertex
 10
8.1856868634
 20
7.5661771502
 30
0.0
  0
VERTEX
  5
53A
330
280
100
AcDbEntity
  8
0
  6
CONTINUOUS
 62
     7
100
AcDbVertex
100
AcDb2dVertex
 10
8.1645462901
 20
7.5640640683
 30
0.0
  0
VERTEX
  5
53B
330
280
100
AcDbEntity
  8
0
  6
CONTINUOUS
 62
     7
100
AcDbVertex
100
AcDb2dVertex
 10
8.1430081435
 20
7.560530034
 30
0.0
  0
VERTEX
  5
53C
330
280
100
AcDbEntity
  8
0
  6
CONTINUOUS
 62
     7
100
AcDbVertex
100
AcDb2dVertex
 10
8.1211227445
 20
7.555583304
 30
0.0
  0
VERTEX
  5
53D
330
280
100
AcDbEntity
  8
0
  6
CONTINUOUS
 62
     7
100
AcDbVertex
100
AcDb2dVertex
 10
8.0989412255
 20
7.5492354358
 30
0.0
  0
VERTEX
  5
53E
330
280
100
AcDbEntity
  8
0
  6
CONTINUOUS
 62
     7
100
AcDbVertex
100
AcDb2dVertex
 10
8.0765154105
 20
7.5415012603
 30
0.0
  0
VERTEX
  5
53F
330
280
100
AcDbEntity
  8
0
  6
CONTINUOUS
 62
     7
100
AcDbVertex
100
AcDb2dVertex
 10
8.0538976944
 20
7.5323988473
 30
0.0
  0
VERTEX
  5
540
330
280
100
AcDbEntity
  8
0
  6
CONTINUOUS
 62
     7
100
AcDbVertex
100
AcDb2dVertex
 10
8.0311409206
 20
7.5219494635
 30
0.0
  0
VERTEX
  5
541
330
280
100
AcDbEntity
  8
0
  6
CONTINUOUS
 62
     7
100
AcDbVertex
100
AcDb2dVertex
 10
8.0082982571
 20
7.5101775223
 30
0.0
  0
SEQEND
  5
542
330
280
100
AcDbEntity
  8
0
  6
CONTINUOUS
 62
     7
  0
LINE
  5
281
330
1F
100
AcDbEntity
  8
0
  6
CONTINUOUS
 62
     7
100
AcDbLine
 10
7.7623884185
 20
7.6521382504
 30
0.0
 11
8.0082982571
 21
7.5101775223
 31
0.0
  0
ARC
  5
282
330
1F
100
AcDbEntity
  8
0
  6
CONTINUOUS
 62
     7
100
AcDbCircle
 10
7.9452296442
 20
7.3801125168
 30
0.0
 40
0.3277635024251406
100
AcDbArc
 50
65.1274310537
 51
123.9068946454
  0
POLYLINE
  5
283
330
1F
100
AcDbEntity
  8
0
  6
CONTINUOUS
 62
     7
100
AcDb2dPolyline
 66
     1
 10
0.0
 20
0.0
 30
0.0
  0
VERTEX
  5
543
330
283
100
AcDbEntity
  8
0
  6
CONTINUOUS
 62
     7
100
AcDbVertex
100
AcDb2dVertex
 10
7.4138505201
 20
6.5181964703
 30
0.0
  0
VERTEX
  5
544
330
283
100
AcDbEntity
  8
0
  6
CONTINUOUS
 62
     7
100
AcDbVertex
100
AcDb2dVertex
 10
7.410248583
 20
6.5203210722
 30
0.0
  0
VERTEX
  5
545
330
283
100
AcDbEntity
  8
0
  6
CONTINUOUS
 62
     7
100
AcDbVertex
100
AcDb2dVertex
 10
7.394675841
 20
6.530613751
 30
0.0
  0
VERTEX
  5
546
330
283
100
AcDbEntity
  8
0
  6
CONTINUOUS
 62
     7
100
AcDbVertex
100
AcDb2dVertex
 10
7.379926619
 20
6.542226745
 30
0.0
  0
VERTEX
  5
547
330
283
100
AcDbEntity
  8
0
  6
CONTINUOUS
 62
     7
100
AcDbVertex
100
AcDb2dVertex
 10
7.3660352488
 20
6.5551330229
 30
0.0
  0
VERTEX
  5
548
330
283
100
AcDbEntity
  8
0
  6
CONTINUOUS
 62
     7
100
AcDbVertex
100
AcDb2dVertex
 10
7.3530340651
 20
6.5693025428
 30
0.0
  0
VERTEX
  5
549
330
283
100
AcDbEntity
  8
0
  6
CONTINUOUS
 62
     7
100
AcDbVertex
100
AcDb2dVertex
 10
7.3409533306
 20
6.5847023226
 30
0.0
  0
VERTEX
  5
54A
330
283
100
AcDbEntity
  8
0
  6
CONTINUOUS
 62
     7
100
AcDbVertex
100
AcDb2dVertex
 10
7.3298211654
 20
6.6012965163
 30
0.0
  0
VERTEX
  5
54B
330
283
100
AcDbEntity
  8
0
  6
CONTINUOUS
 62
     7
100
AcDbVertex
100
AcDb2dVertex
 10
7.3196634818
 20
6.6190464978
 30
0.0
  0
VERTEX
  5
54C
330
283
100
AcDbEntity
  8
0
  6
CONTINUOUS
 62
     7
100
AcDbVertex
100
AcDb2dVertex
 10
7.3105039237
 20
6.6379109507
 30
0.0
  0
VERTEX
  5
54D
330
283
100
AcDbEntity
  8
0
  6
CONTINUOUS
 62
     7
100
AcDbVertex
100
AcDb2dVertex
 10
7.3023638117
 20
6.6578459645
 30
0.0
  0
VERTEX
  5
54E
330
283
100
AcDbEntity
  8
0
  6
CONTINUOUS
 62
     7
100
AcDbVertex
100
AcDb2dVertex
 10
7.2952620934
 20
6.6788051366
 30
0.0
  0
VERTEX
  5
54F
330
283
100
AcDbEntity
  8
0
  6
CONTINUOUS
 62
     7
100
AcDbVertex
100
AcDb2dVertex
 10
7.2892152994
 20
6.7007396806
 30
0.0
  0
VERTEX
  5
550
330
283
100
AcDbEntity
  8
0
  6
CONTINUOUS
 62
     7
100
AcDbVertex
100
AcDb2dVertex
 10
7.2842375048
 20
6.7235985399
 30
0.0
  0
VERTEX
  5
551
330
283
100
AcDbEntity
  8
0
  6
CONTINUOUS
 62
     7
100
AcDbVertex
100
AcDb2dVertex
 10
7.2803402964
 20
6.7473285059
 30
0.0
  0
VERTEX
  5
552
330
283
100
AcDbEntity
  8
0
  6
CONTINUOUS
 62
     7
100
AcDbVertex
100
AcDb2dVertex
 10
7.2775327455
 20
6.7718743429
 30
0.0
  0
VERTEX
  5
553
330
283
100
AcDbEntity
  8
0
  6
CONTINUOUS
 62
     7
100
AcDbVertex
100
AcDb2dVertex
 10
7.2758213873
 20
6.7971789157
 30
0.0
  0
VERTEX
  5
554
330
283
100
AcDbEntity
  8
0
  6
CONTINUOUS
 62
     7
100
AcDbVertex
100
AcDb2dVertex
 10
7.2752102054
 20
6.8231833232
 30
0.0
  0
VERTEX
  5
555
330
283
100
AcDbEntity
  8
0
  6
CONTINUOUS
 62
     7
100
AcDbVertex
100
AcDb2dVertex
 10
7.2757006223
 20
6.8498270353
 30
0.0
  0
VERTEX
  5
556
330
283
100
AcDbEntity
  8
0
  6
CONTINUOUS
 62
     7
100
AcDbVertex
100
AcDb2dVertex
 10
7.2772914966
 20
6.8770480337
 30
0.0
  0
VERTEX
  5
557
330
283
100
AcDbEntity
  8
0
  6
CONTINUOUS
 62
     7
100
AcDbVertex
100
AcDb2dVertex
 10
7.2799791251
 20
6.9047829563
 30
0.0
  0
VERTEX
  5
558
330
283
100
AcDbEntity
  8
0
  6
CONTINUOUS
 62
     7
100
AcDbVertex
100
AcDb2dVertex
 10
7.2837572519
 20
6.932967245
 30
0.0
  0
VERTEX
  5
559
330
283
100
AcDbEntity
  8
0
  6
CONTINUOUS
 62
     7
100
AcDbVertex
100
AcDb2dVertex
 10
7.2886170827
 20
6.9615352955
 30
0.0
  0
VERTEX
  5
55A
330
283
100
AcDbEntity
  8
0
  6
CONTINUOUS
 62
     7
100
AcDbVertex
100
AcDb2dVertex
 10
7.2945473053
 20
6.9904206104
 30
0.0
  0
VERTEX
  5
55B
330
283
100
AcDbEntity
  8
0
  6
CONTINUOUS
 62
     7
100
AcDbVertex
100
AcDb2dVertex
 10
7.3015341161
 20
7.0195559535
 30
0.0
  0
VERTEX
  5
55C
330
283
100
AcDbEntity
  8
0
  6
CONTINUOUS
 62
     7
100
AcDbVertex
100
AcDb2dVertex
 10
7.3095612518
 20
7.0488735069
 30
0.0
  0
VERTEX
  5
55D
330
283
100
AcDbEntity
  8
0
  6
CONTINUOUS
 62
     7
100
AcDbVertex
100
AcDb2dVertex
 10
7.3186100279
 20
7.0783050285
 30
0.0
  0
VERTEX
  5
55E
330
283
100
AcDbEntity
  8
0
  6
CONTINUOUS
 62
     7
100
AcDbVertex
100
AcDb2dVertex
 10
7.3286593816
 20
7.1077820109
 30
0.0
  0
VERTEX
  5
55F
330
283
100
AcDbEntity
  8
0
  6
CONTINUOUS
 62
     7
100
AcDbVertex
100
AcDb2dVertex
 10
7.3396859212
 20
7.1372358409
 30
0.0
  0
VERTEX
  5
560
330
283
100
AcDbEntity
  8
0
  6
CONTINUOUS
 62
     7
100
AcDbVertex
100
AcDb2dVertex
 10
7.3516639802
 20
7.1665979591
 30
0.0
  0
VERTEX
  5
561
330
283
100
AcDbEntity
  8
0
  6
CONTINUOUS
 62
     7
100
AcDbVertex
100
AcDb2dVertex
 10
7.3645656776
 20
7.1958000196
 30
0.0
  0
VERTEX
  5
562
330
283
100
AcDbEntity
  8
0
  6
CONTINUOUS
 62
     7
100
AcDbVertex
100
AcDb2dVertex
 10
7.3783609821
 20
7.2247740493
 30
0.0
  0
VERTEX
  5
563
330
283
100
AcDbEntity
  8
0
  6
CONTINUOUS
 62
     7
100
AcDbVertex
100
AcDb2dVertex
 10
7.3930177827
 20
7.2534526055
 30
0.0
  0
VERTEX
  5
564
330
283
100
AcDbEntity
  8
0
  6
CONTINUOUS
 62
     7
100
AcDbVertex
100
AcDb2dVertex
 10
7.4085019629
 20
7.2817689336
 30
0.0
  0
VERTEX
  5
565
330
283
100
AcDbEntity
  8
0
  6
CONTINUOUS
 62
     7
100
AcDbVertex
100
AcDb2dVertex
 10
7.4247774802
 20
7.309657122
 30
0.0
  0
VERTEX
  5
566
330
283
100
AcDbEntity
  8
0
  6
CONTINUOUS
 62
     7
100
AcDbVertex
100
AcDb2dVertex
 10
7.4418064505
 20
7.3370522556
 30
0.0
  0
VERTEX
  5
567
330
283
100
AcDbEntity
  8
0
  6
CONTINUOUS
 62
     7
100
AcDbVertex
100
AcDb2dVertex
 10
7.4595492355
 20
7.3638905671
 30
0.0
  0
VERTEX
  5
568
330
283
100
AcDbEntity
  8
0
  6
CONTINUOUS
 62
     7
100
AcDbVertex
100
AcDb2dVertex
 10
7.4779645356
 20
7.3901095854
 30
0.0
  0
VERTEX
  5
569
330
283
100
AcDbEntity
  8
0
  6
CONTINUOUS
 62
     7
100
AcDbVertex
100
AcDb2dVertex
 10
7.4970094857
 20
7.4156482807
 30
0.0
  0
VERTEX
  5
56A
330
283
100
AcDbEntity
  8
0
  6
CONTINUOUS
 62
     7
100
AcDbVertex
100
AcDb2dVertex
 10
7.5166397551
 20
7.4404472069
 30
0.0
  0
VERTEX
  5
56B
330
283
100
AcDbEntity
  8
0
  6
CONTINUOUS
 62
     7
100
AcDbVertex
100
AcDb2dVertex
 10
7.5368096507
 20
7.4644486398
 30
0.0
  0
VERTEX
  5
56C
330
283
100
AcDbEntity
  8
0
  6
CONTINUOUS
 62
     7
100
AcDbVertex
100
AcDb2dVertex
 10
7.5574722232
 20
7.4875967116
 30
0.0
  0
VERTEX
  5
56D
330
283
100
AcDbEntity
  8
0
  6
CONTINUOUS
 62
     7
100
AcDbVertex
100
AcDb2dVertex
 10
7.5785793766
 20
7.5098375408
 30
0.0
  0
VERTEX
  5
56E
330
283
100
AcDbEntity
  8
0
  6
CONTINUOUS
 62
     7
100
AcDbVertex
100
AcDb2dVertex
 10
7.6000819801
 20
7.5311193577
 30
0.0
  0
VERTEX
  5
56F
330
283
100
AcDbEntity
  8
0
  6
CONTINUOUS
 62
     7
100
AcDbVertex
100
AcDb2dVertex
 10
7.6219299823
 20
7.5513926249
 30
0.0
  0
VERTEX
  5
570
330
283
100
AcDbEntity
  8
0
  6
CONTINUOUS
 62
     7
100
AcDbVertex
100
AcDb2dVertex
 10
7.6440725278
 20
7.5706101524
 30
0.0
  0
VERTEX
  5
571
330
283
100
AcDbEntity
  8
0
  6
CONTINUOUS
 62
     7
100
AcDbVertex
100
AcDb2dVertex
 10
7.6664580757
 20
7.588727208
 30
0.0
  0
VERTEX
  5
572
330
283
100
AcDbEntity
  8
0
  6
CONTINUOUS
 62
     7
100
AcDbVertex
100
AcDb2dVertex
 10
7.6890345195
 20
7.6057016206
 30
0.0
  0
VERTEX
  5
573
330
283
100
AcDbEntity
  8
0
  6
CONTINUOUS
 62
     7
100
AcDbVertex
100
AcDb2dVertex
 10
7.7117493082
 20
7.6214938793
 30
0.0
  0
VERTEX
  5
574
330
283
100
AcDbEntity
  8
0
  6
CONTINUOUS
 62
     7
100
AcDbVertex
100
AcDb2dVertex
 10
7.7345495688
 20
7.6360672245
 30
0.0
  0
SEQEND
  5
575
330
283
100
AcDbEntity
  8
0
  6
CONTINUOUS
 62
     7
  0
LINE
  5
284
330
1F
100
AcDbEntity
  8
0
  6
CONTINUOUS
 62
     7
100
AcDbLine
 10
7.7345495688
 20
7.6360672245
 30
0.0
 11
7.9804594074
 21
7.4941064964
 31
0.0
  0
POLYLINE
  5
285
330
1F
100
AcDbEntity
  8
0
  6
CONTINUOUS
 62
     7
100
AcDb2dPolyline
 66
     1
 10
0.0
 20
0.0
 30
0.0
  0
VERTEX
  5
576
330
285
100
AcDbEntity
  8
0
  6
CONTINUOUS
 62
     7
100
AcDbVertex
100
AcDb2dVertex
 10
7.9804594074
 20
7.4941064964
 30
0.0
  0
VERTEX
  5
577
330
285
100
AcDbEntity
  8
0
  6
CONTINUOUS
 62
     7
100
AcDbVertex
100
AcDb2dVertex
 10
7.9576167439
 20
7.4795048597
 30
0.0
  0
VERTEX
  5
578
330
285
100
AcDbEntity
  8
0
  6
CONTINUOUS
 62
     7
100
AcDbVertex
100
AcDb2dVertex
 10
7.9348599701
 20
7.4636798318
 30
0.0
  0
VERTEX
  5
579
330
285
100
AcDbEntity
  8
0
  6
CONTINUOUS
 62
     7
100
AcDbVertex
100
AcDb2dVertex
 10
7.912242254
 20
7.4466683857
 30
0.0
  0
VERTEX
  5
57A
330
285
100
AcDbEntity
  8
0
  6
CONTINUOUS
 62
     7
100
AcDbVertex
100
AcDb2dVertex
 10
7.889816439
 20
7.4285102663
 30
0.0
  0
VERTEX
  5
57B
330
285
100
AcDbEntity
  8
0
  6
CONTINUOUS
 62
     7
100
AcDbVertex
100
AcDb2dVertex
 10
7.86763492
 20
7.4092478978
 30
0.0
  0
VERTEX
  5
57C
330
285
100
AcDbEntity
  8
0
  6
CONTINUOUS
 62
     7
100
AcDbVertex
100
AcDb2dVertex
 10
7.845749521
 20
7.3889262839
 30
0.0
  0
VERTEX
  5
57D
330
285
100
AcDbEntity
  8
0
  6
CONTINUOUS
 62
     7
100
AcDbVertex
100
AcDb2dVertex
 10
7.8242113744
 20
7.3675929035
 30
0.0
  0
VERTEX
  5
57E
330
285
100
AcDbEntity
  8
0
  6
CONTINUOUS
 62
     7
100
AcDbVertex
100
AcDb2dVertex
 10
7.8030708011
 20
7.345297599
 30
0.0
  0
VERTEX
  5
57F
330
285
100
AcDbEntity
  8
0
  6
CONTINUOUS
 62
     7
100
AcDbVertex
100
AcDb2dVertex
 10
7.7823771933
 20
7.3220924605
 30
0.0
  0
VERTEX
  5
580
330
285
100
AcDbEntity
  8
0
  6
CONTINUOUS
 62
     7
100
AcDbVertex
100
AcDb2dVertex
 10
7.7621788987
 20
7.2980317037
 30
0.0
  0
VERTEX
  5
581
330
285
100
AcDbEntity
  8
0
  6
CONTINUOUS
 62
     7
100
AcDbVertex
100
AcDb2dVertex
 10
7.742523108
 20
7.2731715432
 30
0.0
  0
VERTEX
  5
582
330
285
100
AcDbEntity
  8
0
  6
CONTINUOUS
 62
     7
100
AcDbVertex
100
AcDb2dVertex
 10
7.7234557443
 20
7.2475700615
 30
0.0
  0
VERTEX
  5
583
330
285
100
AcDbEntity
  8
0
  6
CONTINUOUS
 62
     7
100
AcDbVertex
100
AcDb2dVertex
 10
7.7050213558
 20
7.221287073
 30
0.0
  0
VERTEX
  5
584
330
285
100
AcDbEntity
  8
0
  6
CONTINUOUS
 62
     7
100
AcDbVertex
100
AcDb2dVertex
 10
7.6872630122
 20
7.1943839844
 30
0.0
  0
VERTEX
  5
585
330
285
100
AcDbEntity
  8
0
  6
CONTINUOUS
 62
     7
100
AcDbVertex
100
AcDb2dVertex
 10
7.6702222032
 20
7.166923651
 30
0.0
  0
VERTEX
  5
586
330
285
100
AcDbEntity
  8
0
  6
CONTINUOUS
 62
     7
100
AcDbVertex
100
AcDb2dVertex
 10
7.6539387426
 20
7.1389702303
 30
0.0
  0
VERTEX
  5
587
330
285
100
AcDbEntity
  8
0
  6
CONTINUOUS
 62
     7
100
AcDbVertex
100
AcDb2dVertex
 10
7.6384506743
 20
7.1105890317
 30
0.0
  0
VERTEX
  5
588
330
285
100
AcDbEntity
  8
0
  6
CONTINUOUS
 62
     7
100
AcDbVertex
100
AcDb2dVertex
 10
7.6237941843
 20
7.081846364
 30
0.0
  0
VERTEX
  5
589
330
285
100
AcDbEntity
  8
0
  6
CONTINUOUS
 62
     7
100
AcDbVertex
100
AcDb2dVertex
 10
7.6100035153
 20
7.0528093805
 30
0.0
  0
VERTEX
  5
58A
330
285
100
AcDbEntity
  8
0
  6
CONTINUOUS
 62
     7
100
AcDbVertex
100
AcDb2dVertex
 10
7.5971108875
 20
7.0235459224
 30
0.0
  0
VERTEX
  5
58B
330
285
100
AcDbEntity
  8
0
  6
CONTINUOUS
 62
     7
100
AcDbVertex
100
AcDb2dVertex
 10
7.5851464227
 20
6.9941243596
 30
0.0
  0
VERTEX
  5
58C
330
285
100
AcDbEntity
  8
0
  6
CONTINUOUS
 62
     7
100
AcDbVertex
100
AcDb2dVertex
 10
7.5741380744
 20
6.9646134318
 30
0.0
  0
VERTEX
  5
58D
330
285
100
AcDbEntity
  8
0
  6
CONTINUOUS
 62
     7
100
AcDbVertex
100
AcDb2dVertex
 10
7.5641115619
 20
6.9350820872
 30
0.0
  0
VERTEX
  5
58E
330
285
100
AcDbEntity
  8
0
  6
CONTINUOUS
 62
     7
100
AcDbVertex
100
AcDb2dVertex
 10
7.5550903109
 20
6.9055993219
 30
0.0
  0
VERTEX
  5
58F
330
285
100
AcDbEntity
  8
0
  6
CONTINUOUS
 62
     7
100
AcDbVertex
100
AcDb2dVertex
 10
7.5470953984
 20
6.8762340183
 30
0.0
  0
VERTEX
  5
590
330
285
100
AcDbEntity
  8
0
  6
CONTINUOUS
 62
     7
100
AcDbVertex
100
AcDb2dVertex
 10
7.5401455034
 20
6.8470547845
 30
0.0
  0
VERTEX
  5
591
330
285
100
AcDbEntity
  8
0
  6
CONTINUOUS
 62
     7
100
AcDbVertex
100
AcDb2dVertex
 10
7.5342568633
 20
6.8181297939
 30
0.0
  0
VERTEX
  5
592
330
285
100
AcDbEntity
  8
0
  6
CONTINUOUS
 62
     7
100
AcDbVertex
100
AcDb2dVertex
 10
7.5294432363
 20
6.7895266259
 30
0.0
  0
VERTEX
  5
593
330
285
100
AcDbEntity
  8
0
  6
CONTINUOUS
 62
     7
100
AcDbVertex
100
AcDb2dVertex
 10
7.5257158686
 20
6.7613121078
 30
0.0
  0
VERTEX
  5
594
330
285
100
AcDbEntity
  8
0
  6
CONTINUOUS
 62
     7
100
AcDbVertex
100
AcDb2dVertex
 10
7.5230834688
 20
6.7335521591
 30
0.0
  0
VERTEX
  5
595
330
285
100
AcDbEntity
  8
0
  6
CONTINUOUS
 62
     7
100
AcDbVertex
100
AcDb2dVertex
 10
7.5215521871
 20
6.7063116371
 30
0.0
  0
VERTEX
  5
596
330
285
100
AcDbEntity
  8
0
  6
CONTINUOUS
 62
     7
100
AcDbVertex
100
AcDb2dVertex
 10
7.5211256012
 20
6.6796541858
 30
0.0
  0
VERTEX
  5
597
330
285
100
AcDbEntity
  8
0
  6
CONTINUOUS
 62
     7
100
AcDbVertex
100
AcDb2dVertex
 10
7.5218047077
 20
6.6536420865
 30
0.0
  0
VERTEX
  5
598
330
285
100
AcDbEntity
  8
0
  6
CONTINUOUS
 62
     7
100
AcDbVertex
100
AcDb2dVertex
 10
7.52358792
 20
6.6283361132
 30
0.0
  0
VERTEX
  5
599
330
285
100
AcDbEntity
  8
0
  6
CONTINUOUS
 62
     7
100
AcDbVertex
100
AcDb2dVertex
 10
7.5264710718
 20
6.6037953897
 30
0.0
  0
VERTEX
  5
59A
330
285
100
AcDbEntity
  8
0
  6
CONTINUOUS
 62
     7
100
AcDbVertex
100
AcDb2dVertex
 10
7.530447427
 20
6.5800772522
 30
0.0
  0
VERTEX
  5
59B
330
285
100
AcDbEntity
  8
0
  6
CONTINUOUS
 62
     7
100
AcDbVertex
100
AcDb2dVertex
 10
7.5355076955
 20
6.5572371149
 30
0.0
  0
VERTEX
  5
59C
330
285
100
AcDbEntity
  8
0
  6
CONTINUOUS
 62
     7
100
AcDbVertex
100
AcDb2dVertex
 10
7.5416400546
 20
6.5353283408
 30
0.0
  0
VERTEX
  5
59D
330
285
100
AcDbEntity
  8
0
  6
CONTINUOUS
 62
     7
100
AcDbVertex
100
AcDb2dVertex
 10
7.5488301768
 20
6.5144021166
 30
0.0
  0
VERTEX
  5
59E
330
285
100
AcDbEntity
  8
0
  6
CONTINUOUS
 62
     7
100
AcDbVertex
100
AcDb2dVertex
 10
7.5570612634
 20
6.4945073338
 30
0.0
  0
VERTEX
  5
59F
330
285
100
AcDbEntity
  8
0
  6
CONTINUOUS
 62
     7
100
AcDbVertex
100
AcDb2dVertex
 10
7.5663140837
 20
6.4756904738
 30
0.0
  0
SEQEND
  5
5A0
330
285
100
AcDbEntity
  8
0
  6
CONTINUOUS
 62
     7
  0
LINE
  5
286
330
1F
100
AcDbEntity
  8
0
  6
CONTINUOUS
 62
     7
100
AcDbLine
 10
7.5663140837
 20
6.4756904738
 30
0.0
 11
7.6034325499
 21
6.4542624393
 31
0.0
  0
LINE
  5
287
330
1F
100
AcDbEntity
  8
0
  6
CONTINUOUS
 62
     7
100
AcDbLine
 10
8.0734989169
 20
7.2879463478
 30
0.0
 11
8.0437341545
 21
7.2363922671
 31
0.0
  0
LINE
  5
288
330
1F
100
AcDbEntity
  8
0
  6
CONTINUOUS
 62
     7
100
AcDbLine
 10
7.7761664706
 20
6.7729514454
 30
0.0
 11
7.7463924335
 21
6.7213813006
 31
0.0
  0
LINE
  5
289
330
1F
100
AcDbEntity
  8
0
  6
CONTINUOUS
 62
     7
100
AcDbLine
 10
7.9804594074
 20
7.4482996038
 30
0.0
 11
7.9804594074
 21
7.4941064964
 31
0.0
  0
LINE
  5
28A
330
1F
100
AcDbEntity
  8
0
  6
CONTINUOUS
 62
     7
100
AcDbLine
 10
8.0082982571
 20
7.4669008838
 30
0.0
 11
8.0082982571
 21
7.5101775223
 31
0.0
  0
LINE
  5
28B
330
1F
100
AcDbEntity
  8
0
  6
CONTINUOUS
 62
     7
100
AcDbLine
 10
7.5663140837
 20
6.4756904738
 30
0.0
 11
7.5878273485
 21
6.4881098172
 31
0.0
  0
POLYLINE
  5
28C
330
1F
100
AcDbEntity
  8
0
  6
CONTINUOUS
 62
     7
100
AcDb2dPolyline
 66
     1
 10
0.0
 20
0.0
 30
0.0
  0
VERTEX
  5
5A1
330
28C
100
AcDbEntity
  8
0
  6
CONTINUOUS
 62
     7
100
AcDbVertex
100
AcDb2dVertex
 10
7.7463924335
 20
6.7213813006
 30
0.0
  0
VERTEX
  5
5A2
330
28C
100
AcDbEntity
  8
0
  6
CONTINUOUS
 62
     7
100
AcDbVertex
100
AcDb2dVertex
 10
7.7383656979
 20
6.7065208235
 30
0.0
  0
VERTEX
  5
5A3
330
28C
100
AcDbEntity
  8
0
  6
CONTINUOUS
 62
     7
100
AcDbVertex
100
AcDb2dVertex
 10
7.7312456666
 20
6.6913245015
 30
0.0
  0
VERTEX
  5
5A4
330
28C
100
AcDbEntity
  8
0
  6
CONTINUOUS
 62
     7
100
AcDbVertex
100
AcDb2dVertex
 10
7.7251009093
 20
6.6759386834
 30
0.0
  0
VERTEX
  5
5A5
330
28C
100
AcDbEntity
  8
0
  6
CONTINUOUS
 62
     7
100
AcDbVertex
100
AcDb2dVertex
 10
7.7199906034
 20
6.6605115431
 30
0.0
  0
VERTEX
  5
5A6
330
28C
100
AcDbEntity
  8
0
  6
CONTINUOUS
 62
     7
100
AcDbVertex
100
AcDb2dVertex
 10
7.7159639639
 20
6.6451916524
 30
0.0
  0
VERTEX
  5
5A7
330
28C
100
AcDbEntity
  8
0
  6
CONTINUOUS
 62
     7
100
AcDbVertex
100
AcDb2dVertex
 10
7.7130597697
 20
6.6301265501
 30
0.0
  0
VERTEX
  5
5A8
330
28C
100
AcDbEntity
  8
0
  6
CONTINUOUS
 62
     7
100
AcDbVertex
100
AcDb2dVertex
 10
7.7113059896
 20
6.6154613216
 30
0.0
  0
VERTEX
  5
5A9
330
28C
100
AcDbEntity
  8
0
  6
CONTINUOUS
 62
     7
100
AcDbVertex
100
AcDb2dVertex
 10
7.7107195135
 20
6.6013372008
 30
0.0
  0
VERTEX
  5
5AA
330
28C
100
AcDbEntity
  8
0
  6
CONTINUOUS
 62
     7
100
AcDbVertex
100
AcDb2dVertex
 10
7.7113059896
 20
6.587890211
 30
0.0
  0
VERTEX
  5
5AB
330
28C
100
AcDbEntity
  8
0
  6
CONTINUOUS
 62
     7
100
AcDbVertex
100
AcDb2dVertex
 10
7.7130597697
 20
6.5752498538
 30
0.0
  0
VERTEX
  5
5AC
330
28C
100
AcDbEntity
  8
0
  6
CONTINUOUS
 62
     7
100
AcDbVertex
100
AcDb2dVertex
 10
7.7159639639
 20
6.5635378629
 30
0.0
  0
VERTEX
  5
5AD
330
28C
100
AcDbEntity
  8
0
  6
CONTINUOUS
 62
     7
100
AcDbVertex
100
AcDb2dVertex
 10
7.7199906034
 20
6.5528670311
 30
0.0
  0
VERTEX
  5
5AE
330
28C
100
AcDbEntity
  8
0
  6
CONTINUOUS
 62
     7
100
AcDbVertex
100
AcDb2dVertex
 10
7.7251009093
 20
6.5433401244
 30
0.0
  0
VERTEX
  5
5AF
330
28C
100
AcDbEntity
  8
0
  6
CONTINUOUS
 62
     7
100
AcDbVertex
100
AcDb2dVertex
 10
7.7312456666
 20
6.5350488921
 30
0.0
  0
VERTEX
  5
5B0
330
28C
100
AcDbEntity
  8
0
  6
CONTINUOUS
 62
     7
100
AcDbVertex
100
AcDb2dVertex
 10
7.7383656979
 20
6.5280731832
 30
0.0
  0
VERTEX
  5
5B1
330
28C
100
AcDbEntity
  8
0
  6
CONTINUOUS
 62
     7
100
AcDbVertex
100
AcDb2dVertex
 10
7.7441896523
 20
6.5238190216
 30
0.0
  0
SEQEND
  5
5B2
330
28C
100
AcDbEntity
  8
0
  6
CONTINUOUS
 62
     7
  0
POLYLINE
  5
28D
330
1F
100
AcDbEntity
  8
0
  6
CONTINUOUS
 62
     7
100
AcDb2dPolyline
 66
     1
 10
0.0
 20
0.0
 30
0.0
  0
VERTEX
  5
5B3
330
28D
100
AcDbEntity
  8
0
  6
CONTINUOUS
 62
     7
100
AcDbVertex
100
AcDb2dVertex
 10
8.2434714107
 20
7.3886251064
 30
0.0
  0
VERTEX
  5
5B4
330
28D
100
AcDbEntity
  8
0
  6
CONTINUOUS
 62
     7
100
AcDbVertex
100
AcDb2dVertex
 10
8.2368868734
 20
7.3915371853
 30
0.0
  0
VERTEX
  5
5B5
330
28D
100
AcDbEntity
  8
0
  6
CONTINUOUS
 62
     7
100
AcDbVertex
100
AcDb2dVertex
 10
8.2272866225
 20
7.3942170278
 30
0.0
  0
VERTEX
  5
5B6
330
28D
100
AcDbEntity
  8
0
  6
CONTINUOUS
 62
     7
100
AcDbVertex
100
AcDb2dVertex
 10
8.2170347143
 20
7.3953944662
 30
0.0
  0
VERTEX
  5
5B7
330
28D
100
AcDbEntity
  8
0
  6
CONTINUOUS
 62
     7
100
AcDbVertex
100
AcDb2dVertex
 10
8.2062298803
 20
7.3950581609
 30
0.0
  0
VERTEX
  5
5B8
330
28D
100
AcDbEntity
  8
0
  6
CONTINUOUS
 62
     7
100
AcDbVertex
100
AcDb2dVertex
 10
8.1949761769
 20
7.3932113508
 30
0.0
  0
VERTEX
  5
5B9
330
28D
100
AcDbEntity
  8
0
  6
CONTINUOUS
 62
     7
100
AcDbVertex
100
AcDb2dVertex
 10
8.1833819836
 20
7.3898718218
 30
0.0
  0
VERTEX
  5
5BA
330
28D
100
AcDbEntity
  8
0
  6
CONTINUOUS
 62
     7
100
AcDbVertex
100
AcDb2dVertex
 10
8.1715589586
 20
7.3850717353
 30
0.0
  0
VERTEX
  5
5BB
330
28D
100
AcDbEntity
  8
0
  6
CONTINUOUS
 62
     7
100
AcDbVertex
100
AcDb2dVertex
 10
8.1596209642
 20
7.3788573187
 30
0.0
  0
VERTEX
  5
5BC
330
28D
100
AcDbEntity
  8
0
  6
CONTINUOUS
 62
     7
100
AcDbVertex
100
AcDb2dVertex
 10
8.1476829698
 20
7.3712884203
 30
0.0
  0
VERTEX
  5
5BD
330
28D
100
AcDbEntity
  8
0
  6
CONTINUOUS
 62
     7
100
AcDbVertex
100
AcDb2dVertex
 10
8.1358599448
 20
7.3624379328
 30
0.0
  0
VERTEX
  5
5BE
330
28D
100
AcDbEntity
  8
0
  6
CONTINUOUS
 62
     7
100
AcDbVertex
100
AcDb2dVertex
 10
8.1242657514
 20
7.3523910911
 30
0.0
  0
VERTEX
  5
5BF
330
28D
100
AcDbEntity
  8
0
  6
CONTINUOUS
 62
     7
100
AcDbVertex
100
AcDb2dVertex
 10
8.1130120481
 20
7.3412446518
 30
0.0
  0
VERTEX
  5
5C0
330
28D
100
AcDbEntity
  8
0
  6
CONTINUOUS
 62
     7
100
AcDbVertex
100
AcDb2dVertex
 10
8.1022072141
 20
7.3291059613
 30
0.0
  0
VERTEX
  5
5C1
330
28D
100
AcDbEntity
  8
0
  6
CONTINUOUS
 62
     7
100
AcDbVertex
100
AcDb2dVertex
 10
8.0919553058
 20
7.3160919217
 30
0.0
  0
VERTEX
  5
5C2
330
28D
100
AcDbEntity
  8
0
  6
CONTINUOUS
 62
     7
100
AcDbVertex
100
AcDb2dVertex
 10
8.0823550549
 20
7.3023278654
 30
0.0
  0
VERTEX
  5
5C3
330
28D
100
AcDbEntity
  8
0
  6
CONTINUOUS
 62
     7
100
AcDbVertex
100
AcDb2dVertex
 10
8.0734989169
 20
7.2879463478
 30
0.0
  0
SEQEND
  5
5C4
330
28D
100
AcDbEntity
  8
0
  6
CONTINUOUS
 62
     7
  0
LINE
  5
28E
330
1F
100
AcDbEntity
  8
0
  6
CONTINUOUS
 62
     7
100
AcDbLine
 10
7.7623884185
 20
7.6521382504
 30
0.0
 11
7.7517818168
 21
7.6460077764
 31
0.0
  0
ARC
  5
28F
330
1F
100
AcDbEntity
  8
0
  6
CONTINUOUS
 62
     7
100
AcDbCircle
 10
8.2835548635
 20
6.7898106985
 30
0.0
 40
1.009444034069602
100
AcDbArc
 50
123.667769873
 51
177.327721767
  0
LINE
  5
290
330
1F
100
AcDbEntity
  8
0
  6
CONTINUOUS
 62
     7
100
AcDbLine
 10
7.7345495688
 20
7.6360672245
 30
0.0
 11
7.7239429671
 21
7.6299367505
 31
0.0
  0
LINE
  5
291
330
1F
100
AcDbEntity
  8
0
  6
CONTINUOUS
 62
     7
100
AcDbLine
 10
7.7517818168
 20
7.6460077764
 30
0.0
 11
7.7517818168
 21
7.6261192596
 31
0.0
  0
ARC
  5
292
330
1F
100
AcDbEntity
  8
0
  6
CONTINUOUS
 62
     8
100
AcDbCircle
 10
8.1947582768
 20
7.0189377661
 30
0.0
 40
0.1751636607480793
100
AcDbArc
 50
241.7949618157
 51
303.0494451648
  0
POLYLINE
  5
293
330
1F
100
AcDbEntity
  8
0
  6
CONTINUOUS
 62
     8
100
AcDb2dPolyline
 66
     1
 10
0.0
 20
0.0
 30
0.0
  0
VERTEX
  5
5C5
330
293
100
AcDbEntity
  8
0
  6
CONTINUOUS
 62
     8
100
AcDbVertex
100
AcDb2dVertex
 10
8.3135773901
 20
6.9115193234
 30
0.0
  0
VERTEX
  5
5C6
330
293
100
AcDbEntity
  8
0
  6
CONTINUOUS
 62
     8
100
AcDbVertex
100
AcDb2dVertex
 10
8.3131483209
 20
6.918728375
 30
0.0
  0
VERTEX
  5
5C7
330
293
100
AcDbEntity
  8
0
  6
CONTINUOUS
 62
     8
100
AcDbVertex
100
AcDb2dVertex
 10
8.311157682
 20
6.9265737034
 30
0.0
  0
VERTEX
  5
5C8
330
293
100
AcDbEntity
  8
0
  6
CONTINUOUS
 62
     8
100
AcDbVertex
100
AcDb2dVertex
 10
8.3076028027
 20
6.9342325739
 30
0.0
  0
VERTEX
  5
5C9
330
293
100
AcDbEntity
  8
0
  6
CONTINUOUS
 62
     8
100
AcDbVertex
100
AcDb2dVertex
 10
8.3025317566
 20
6.9416014132
 30
0.0
  0
VERTEX
  5
5CA
330
293
100
AcDbEntity
  8
0
  6
CONTINUOUS
 62
     8
100
AcDbVertex
100
AcDb2dVertex
 10
8.2960131211
 20
6.9485805707
 30
0.0
  0
VERTEX
  5
5CB
330
293
100
AcDbEntity
  8
0
  6
CONTINUOUS
 62
     8
100
AcDbVertex
100
AcDb2dVertex
 10
8.2881350493
 20
6.955075665
 30
0.0
  0
VERTEX
  5
5CC
330
293
100
AcDbEntity
  8
0
  6
CONTINUOUS
 62
     8
100
AcDbVertex
100
AcDb2dVertex
 10
8.2790040788
 20
6.9609988613
 30
0.0
  0
VERTEX
  5
5CD
330
293
100
AcDbEntity
  8
0
  6
CONTINUOUS
 62
     8
100
AcDbVertex
100
AcDb2dVertex
 10
8.2687436902
 20
6.9662700583
 30
0.0
  0
VERTEX
  5
5CE
330
293
100
AcDbEntity
  8
0
  6
CONTINUOUS
 62
     8
100
AcDbVertex
100
AcDb2dVertex
 10
8.2574926377
 20
6.9708179724
 30
0.0
  0
VERTEX
  5
5CF
330
293
100
AcDbEntity
  8
0
  6
CONTINUOUS
 62
     8
100
AcDbVertex
100
AcDb2dVertex
 10
8.2454030725
 20
6.9745811006
 30
0.0
  0
VERTEX
  5
5D0
330
293
100
AcDbEntity
  8
0
  6
CONTINUOUS
 62
     8
100
AcDbVertex
100
AcDb2dVertex
 10
8.2326384853
 20
6.9775085532
 30
0.0
  0
VERTEX
  5
5D1
330
293
100
AcDbEntity
  8
0
  6
CONTINUOUS
 62
     8
100
AcDbVertex
100
AcDb2dVertex
 10
8.2193714951
 20
6.9795607413
 30
0.0
  0
VERTEX
  5
5D2
330
293
100
AcDbEntity
  8
0
  6
CONTINUOUS
 62
     8
100
AcDbVertex
100
AcDb2dVertex
 10
8.2057815152
 20
6.9807099127
 30
0.0
  0
VERTEX
  5
5D3
330
293
100
AcDbEntity
  8
0
  6
CONTINUOUS
 62
     8
100
AcDbVertex
100
AcDb2dVertex
 10
8.1920523268
 20
6.9809405268
 30
0.0
  0
VERTEX
  5
5D4
330
293
100
AcDbEntity
  8
0
  6
CONTINUOUS
 62
     8
100
AcDbVertex
100
AcDb2dVertex
 10
8.1783695937
 20
6.9802494649
 30
0.0
  0
VERTEX
  5
5D5
330
293
100
AcDbEntity
  8
0
  6
CONTINUOUS
 62
     8
100
AcDbVertex
100
AcDb2dVertex
 10
8.1649183513
 20
6.9786460724
 30
0.0
  0
VERTEX
  5
5D6
330
293
100
AcDbEntity
  8
0
  6
CONTINUOUS
 62
     8
100
AcDbVertex
100
AcDb2dVertex
 10
8.1518805045
 20
6.9761520325
 30
0.0
  0
VERTEX
  5
5D7
330
293
100
AcDbEntity
  8
0
  6
CONTINUOUS
 62
     8
100
AcDbVertex
100
AcDb2dVertex
 10
8.139432368
 20
6.9728010728
 30
0.0
  0
VERTEX
  5
5D8
330
293
100
AcDbEntity
  8
0
  6
CONTINUOUS
 62
     8
100
AcDbVertex
100
AcDb2dVertex
 10
8.1277422814
 20
6.9686385093
 30
0.0
  0
VERTEX
  5
5D9
330
293
100
AcDbEntity
  8
0
  6
CONTINUOUS
 62
     8
100
AcDbVertex
100
AcDb2dVertex
 10
8.1169683331
 20
6.9637206335
 30
0.0
  0
VERTEX
  5
5DA
330
293
100
AcDbEntity
  8
0
  6
CONTINUOUS
 62
     8
100
AcDbVertex
100
AcDb2dVertex
 10
8.1072562222
 20
6.9581139512
 30
0.0
  0
VERTEX
  5
5DB
330
293
100
AcDbEntity
  8
0
  6
CONTINUOUS
 62
     8
100
AcDbVertex
100
AcDb2dVertex
 10
8.0987372884
 20
6.9518942832
 30
0.0
  0
VERTEX
  5
5DC
330
293
100
AcDbEntity
  8
0
  6
CONTINUOUS
 62
     8
100
AcDbVertex
100
AcDb2dVertex
 10
8.0915267356
 20
6.9451457399
 30
0.0
  0
VERTEX
  5
5DD
330
293
100
AcDbEntity
  8
0
  6
CONTINUOUS
 62
     8
100
AcDbVertex
100
AcDb2dVertex
 10
8.0857220742
 20
6.9379595836
 30
0.0
  0
VERTEX
  5
5DE
330
293
100
AcDbEntity
  8
0
  6
CONTINUOUS
 62
     8
100
AcDbVertex
100
AcDb2dVertex
 10
8.0814018023
 20
6.9304329949
 30
0.0
  0
VERTEX
  5
5DF
330
293
100
AcDbEntity
  8
0
  6
CONTINUOUS
 62
     8
100
AcDbVertex
100
AcDb2dVertex
 10
8.0786243442
 20
6.922667758
 30
0.0
  0
VERTEX
  5
5E0
330
293
100
AcDbEntity
  8
0
  6
CONTINUOUS
 62
     8
100
AcDbVertex
100
AcDb2dVertex
 10
8.0774272601
 20
6.9147688843
 30
0.0
  0
VERTEX
  5
5E1
330
293
100
AcDbEntity
  8
0
  6
CONTINUOUS
 62
     8
100
AcDbVertex
100
AcDb2dVertex
 10
8.0778267387
 20
6.9068431925
 30
0.0
  0
VERTEX
  5
5E2
330
293
100
AcDbEntity
  8
0
  6
CONTINUOUS
 62
     8
100
AcDbVertex
100
AcDb2dVertex
 10
8.0798173776
 20
6.8989978641
 30
0.0
  0
VERTEX
  5
5E3
330
293
100
AcDbEntity
  8
0
  6
CONTINUOUS
 62
     8
100
AcDbVertex
100
AcDb2dVertex
 10
8.083372257
 20
6.8913389937
 30
0.0
  0
VERTEX
  5
5E4
330
293
100
AcDbEntity
  8
0
  6
CONTINUOUS
 62
     8
100
AcDbVertex
100
AcDb2dVertex
 10
8.088443303
 20
6.8839701543
 30
0.0
  0
VERTEX
  5
5E5
330
293
100
AcDbEntity
  8
0
  6
CONTINUOUS
 62
     8
100
AcDbVertex
100
AcDb2dVertex
 10
8.0949619386
 20
6.8769909969
 30
0.0
  0
VERTEX
  5
5E6
330
293
100
AcDbEntity
  8
0
  6
CONTINUOUS
 62
     8
100
AcDbVertex
100
AcDb2dVertex
 10
8.1028400103
 20
6.8704959026
 30
0.0
  0
VERTEX
  5
5E7
330
293
100
AcDbEntity
  8
0
  6
CONTINUOUS
 62
     8
100
AcDbVertex
100
AcDb2dVertex
 10
8.1119709809
 20
6.8645727063
 30
0.0
  0
VERTEX
  5
5E8
330
293
100
AcDbEntity
  8
0
  6
CONTINUOUS
 62
     8
100
AcDbVertex
100
AcDb2dVertex
 10
8.1119709809
 20
6.8645727063
 30
0.0
  0
SEQEND
  5
5E9
330
293
100
AcDbEntity
  8
0
  6
CONTINUOUS
 62
     8
  0
ARC
  5
294
330
1F
100
AcDbEntity
  8
0
  6
CONTINUOUS
 62
     8
100
AcDbCircle
 10
8.1257534179
 20
6.9029436346
 30
0.0
 40
0.0683458371492139
100
AcDbArc
 50
185.2312557061
 51
246.0888852516
  0
ARC
  5
295
330
1F
100
AcDbEntity
  8
0
  6
CONTINUOUS
 62
     8
100
AcDbCircle
 10
8.1962159591
 20
7.0326763888
 30
0.0
 40
0.2158286898190643
100
AcDbArc
 50
242.9462894669
 51
284.351660231
  0
POLYLINE
  5
296
330
1F
100
AcDbEntity
  8
0
  6
CONTINUOUS
 62
     8
100
AcDb2dPolyline
 66
     1
 10
0.0
 20
0.0
 30
0.0
  0
VERTEX
  5
5EA
330
296
100
AcDbEntity
  8
0
  6
CONTINUOUS
 62
     8
100
AcDbVertex
100
AcDb2dVertex
 10
7.5564689078
 20
7.1616043588
 30
0.0
  0
VERTEX
  5
5EB
330
296
100
AcDbEntity
  8
0
  6
CONTINUOUS
 62
     8
100
AcDbVertex
100
AcDb2dVertex
 10
7.5539575813
 20
7.1639487123
 30
0.0
  0
VERTEX
  5
5EC
330
296
100
AcDbEntity
  8
0
  6
CONTINUOUS
 62
     8
100
AcDbVertex
100
AcDb2dVertex
 10
7.547641729
 20
7.17079392
 30
0.0
  0
VERTEX
  5
5ED
330
296
100
AcDbEntity
  8
0
  6
CONTINUOUS
 62
     8
100
AcDbVertex
100
AcDb2dVertex
 10
7.5418680079
 20
7.1784829698
 30
0.0
  0
VERTEX
  5
5EE
330
296
100
AcDbEntity
  8
0
  6
CONTINUOUS
 62
     8
100
AcDbVertex
100
AcDb2dVertex
 10
7.5367939099
 20
7.1868061244
 30
0.0
  0
VERTEX
  5
5EF
330
296
100
AcDbEntity
  8
0
  6
CONTINUOUS
 62
     8
100
AcDbVertex
100
AcDb2dVertex
 10
7.5325578433
 20
7.1955363499
 30
0.0
  0
VERTEX
  5
5F0
330
296
100
AcDbEntity
  8
0
  6
CONTINUOUS
 62
     8
100
AcDbVertex
100
AcDb2dVertex
 10
7.529275357
 20
7.2044355086
 30
0.0
  0
VERTEX
  5
5F1
330
296
100
AcDbEntity
  8
0
  6
CONTINUOUS
 62
     8
100
AcDbVertex
100
AcDb2dVertex
 10
7.5270359885
 20
7.2132608544
 30
0.0
  0
VERTEX
  5
5F2
330
296
100
AcDbEntity
  8
0
  6
CONTINUOUS
 62
     8
100
AcDbVertex
100
AcDb2dVertex
 10
7.5259008221
 20
7.2217716551
 30
0.0
  0
VERTEX
  5
5F3
330
296
100
AcDbEntity
  8
0
  6
CONTINUOUS
 62
     8
100
AcDbVertex
100
AcDb2dVertex
 10
7.5259008221
 20
7.2297357581
 30
0.0
  0
VERTEX
  5
5F4
330
296
100
AcDbEntity
  8
0
  6
CONTINUOUS
 62
     8
100
AcDbVertex
100
AcDb2dVertex
 10
7.5270359885
 20
7.2369359236
 30
0.0
  0
VERTEX
  5
5F5
330
296
100
AcDbEntity
  8
0
  6
CONTINUOUS
 62
     8
100
AcDbVertex
100
AcDb2dVertex
 10
7.529275357
 20
7.2431757497
 30
0.0
  0
VERTEX
  5
5F6
330
296
100
AcDbEntity
  8
0
  6
CONTINUOUS
 62
     8
100
AcDbVertex
100
AcDb2dVertex
 10
7.5325578433
 20
7.2482850302
 30
0.0
  0
VERTEX
  5
5F7
330
296
100
AcDbEntity
  8
0
  6
CONTINUOUS
 62
     8
100
AcDbVertex
100
AcDb2dVertex
 10
7.5350526601
 20
7.250800409
 30
0.0
  0
SEQEND
  5
5F8
330
296
100
AcDbEntity
  8
0
  6
CONTINUOUS
 62
     8
  0
ARC
  5
297
330
1F
100
AcDbEntity
  8
0
  6
CONTINUOUS
 62
     8
100
AcDbCircle
 10
8.0835132633
 20
7.4987741765
 30
0.0
 40
0.2157784703530497
100
AcDbArc
 50
15.7480352545
 51
57.0583446085
  0
ARC
  5
298
330
1F
100
AcDbEntity
  8
0
  6
CONTINUOUS
 62
     8
100
AcDbCircle
 10
8.1605963486
 20
7.6246201158
 30
0.0
 40
0.0683514058403955
100
AcDbArc
 50
53.919136004
 51
114.7704055669
  0
LINE
  5
299
330
1F
100
AcDbEntity
  8
0
  6
CONTINUOUS
 62
     8
100
AcDbLine
 10
8.0882829061
 20
7.2794117325
 30
0.0
 11
8.0734989169
 21
7.2879463478
 31
0.0
  0
LINE
  5
29A
330
1F
100
AcDbEntity
  8
0
  6
CONTINUOUS
 62
     8
100
AcDbLine
 10
7.7611802725
 20
6.7128444629
 30
0.0
 11
7.7463924335
 21
6.7213813006
 31
0.0
  0
ENDSEC
  0
SECTION
  2
OBJECTS
  0
DICTIONARY
  5
C
330
0
100
AcDbDictionary
  3
ACAD_GROUP
350
D
  3
ACAD_LAYOUT
350
1A
  3
ACAD_MLEADERSTYLE
350
29D
  3
ACAD_MLINESTYLE
350
17
  3
ACAD_PLOTSETTINGS
350
19
  3
ACAD_SCALELIST
350
6F
  3
ACAD_VISUALSTYLE
350
2A
  3
ACDBVARIABLEDICTIONARY
350
29B
1001
ACAD
1000
TREAT_AS_HARD
1070
     0
  0
DICTIONARY
  5
D
102
{ACAD_REACTORS
330
C
102
}
330
C
100
AcDbDictionary
1001
ACAD
1000
TREAT_AS_HARD
1070
     0
  0
DICTIONARY
  5
1A
102
{ACAD_REACTORS
330
C
102
}
330
C
100
AcDbDictionary
1001
ACAD
1000
TREAT_AS_HARD
1070
     0
  0
DICTIONARY
  5
29D
102
{ACAD_REACTORS
330
C
102
}
330
C
100
AcDbDictionary
1001
ACAD
1000
TREAT_AS_HARD
1070
     0
  0
DICTIONARY
  5
17
102
{ACAD_REACTORS
330
C
102
}
330
C
100
AcDbDictionary
  3
STANDARD
350
18
1001
ACAD
1000
TREAT_AS_HARD
1070
     0
  0
DICTIONARY
  5
19
102
{ACAD_REACTORS
330
C
102
}
330
C
100
AcDbDictionary
1001
ACAD
1000
TREAT_AS_HARD
1070
     0
  0
DICTIONARY
  5
6F
102
{ACAD_REACTORS
330
C
102
}
330
C
100
AcDbDictionary
  3
A0
350
70
  3
A1
350
71
  3
A2
350
72
  3
A3
350
73
  3
A4
350
74
  3
A5
350
75
  3
A6
350
76
  3
A7
350
77
  3
A8
350
78
  3
A9
350
79
  3
B0
350
7A
  3
B1
350
7B
  3
B2
350
7C
  3
B3
350
7D
  3
B4
350
7E
  3
B5
350
7F
  3
B6
350
80
  3
B7
350
81
  3
B8
350
82
  3
B9
350
83
  3
C0
350
84
  3
C1
350
85
  3
C2
350
86
  3
C3
350
87
  3
C4
350
88
  3
C5
350
89
  3
C6
350
8A
  3
C7
350
8B
  3
C8
350
8C
  3
C9
350
8D
  3
D0
350
8E
  3
D1
350
8F
  3
D2
350
90
1001
ACAD
1000
TREAT_AS_HARD
1070
     0
  0
DICTIONARY
  5
2A
102
{ACAD_REACTORS
330
C
102
}
330
C
100
AcDbDictionary
  3
2DWIREFRAME
350
2F
  3
3D_HIDDEN
350
31
  3
3DWIREFRAME
350
30
  3
BASIC
350
32
  3
BRIGHTEN
350
36
  3
COLORCHANGE
350
3A
  3
CONCEPTUAL
350
34
  3
DIM
350
35
  3
FACEPATTERN
350
39
  3
FLAT
350
2B
  3
FLATWITHEDGES
350
2C
  3
GOURAUD
350
2D
  3
GOURAUDWITHEDGES
350
2E
  3
LINEPATTERN
350
38
  3
REALISTIC
350
33
  3
THICKEN
350
37
1001
ACAD
1000
TREAT_AS_HARD
1070
     0
  0
DICTIONARY
  5
29B
102
{ACAD_REACTORS
330
C
102
}
330
C
100
AcDbDictionary
  3
CANNOSCALE
350
29E
  3
DIMASSOC
350
29F
  3
HIDETEXT
350
2A0
1001
ACAD
1000
TREAT_AS_HARD
1070
     0
  0
MLINESTYLE
  5
18
102
{ACAD_REACTORS
330
17
102
}
330
17
100
AcDbMlineStyle
  2
Standard
 70
     0
  3

 62
   256
 51
90.0
 52
90.0
 71
     2
 49
0.5
 62
   256
  6
BYLAYER
 49
-0.5
 62
   256
  6
BYLAYER
  0
ACAD_PROXY_OBJECT
  5
70
102
{ACAD_REACTORS
330
6F
102
}
330
6F
100
AcDbZombieObject
 90
      499
 91
      502
 93
       41
310
903313A31580
  0
ACAD_PROXY_OBJECT
  5
71
102
{ACAD_REACTORS
330
6F
102
}
330
6F
100
AcDbZombieObject
 90
      499
 91
      502
 93
      105
310
903313A324000000000000004000
  0
ACAD_PROXY_OBJECT
  5
72
102
{ACAD_REACTORS
330
6F
102
}
330
6F
100
AcDbZombieObject
 90
      499
 91
      502
 93
      105
310
903313A344000000000000104000
  0
ACAD_PROXY_OBJECT
  5
73
102
{ACAD_REACTORS
330
6F
102
}
330
6F
100
AcDbZombieObject
 90
      499
 91
      502
 93
      105
310
903313A354000000000000144000
  0
ACAD_PROXY_OBJECT
  5
74
102
{ACAD_REACTORS
330
6F
102
}
330
6F
100
AcDbZombieObject
 90
      499
 91
      502
 93
      105
310
903313A384000000000000204000
  0
ACAD_PROXY_OBJECT
  5
75
102
{ACAD_REACTORS
330
6F
102
}
330
6F
100
AcDbZombieObject
 90
      499
 91
      502
 93
      113
310
904313A31304000000000000244000
  0
ACAD_PROXY_OBJECT
  5
76
102
{ACAD_REACTORS
330
6F
102
}
330
6F
100
AcDbZombieObject
 90
      499
 91
      502
 93
      113
310
904313A31364000000000000304000
  0
ACAD_PROXY_OBJECT
  5
77
102
{ACAD_REACTORS
330
6F
102
}
330
6F
100
AcDbZombieObject
 90
      499
 91
      502
 93
      113
310
904313A32304000000000000344000
  0
ACAD_PROXY_OBJECT
  5
78
102
{ACAD_REACTORS
330
6F
102
}
330
6F
100
AcDbZombieObject
 90
      499
 91
      502
 93
      113
310
904313A333040000000000003E4000
  0
ACAD_PROXY_OBJECT
  5
79
102
{ACAD_REACTORS
330
6F
102
}
330
6F
100
AcDbZombieObject
 90
      499
 91
      502
 93
      113
310
904313A34304000000000000444000
  0
ACAD_PROXY_OBJECT
  5
7A
102
{ACAD_REACTORS
330
6F
102
}
330
6F
100
AcDbZombieObject
 90
      499
 91
      502
 93
      113
310
904313A35304000000000000494000
  0
ACAD_PROXY_OBJECT
  5
7B
102
{ACAD_REACTORS
330
6F
102
}
330
6F
100
AcDbZombieObject
 90
      499
 91
      502
 93
      121
310
905313A3130304000000000000594000
  0
ACAD_PROXY_OBJECT
  5
7C
102
{ACAD_REACTORS
330
6F
102
}
330
6F
100
AcDbZombieObject
 90
      499
 91
      502
 93
      105
310
903323A310000000000000010100
  0
ACAD_PROXY_OBJECT
  5
7D
102
{ACAD_REACTORS
330
6F
102
}
330
6F
100
AcDbZombieObject
 90
      499
 91
      502
 93
      105
310
903343A310000000000000410100
  0
ACAD_PROXY_OBJECT
  5
7E
102
{ACAD_REACTORS
330
6F
102
}
330
6F
100
AcDbZombieObject
 90
      499
 91
      502
 93
      105
310
903383A310000000000000810100
  0
ACAD_PROXY_OBJECT
  5
7F
102
{ACAD_REACTORS
330
6F
102
}
330
6F
100
AcDbZombieObject
 90
      499
 91
      502
 93
      113
310
90431303A310000000000000910100
  0
ACAD_PROXY_OBJECT
  5
80
102
{ACAD_REACTORS
330
6F
102
}
330
6F
100
AcDbZombieObject
 90
      499
 91
      502
 93
      121
310
9053130303A310000000000001650100
  0
ACAD_PROXY_OBJECT
  5
81
102
{ACAD_REACTORS
330
6F
102
}
330
6F
100
AcDbZombieObject
 90
      499
 91
      502
 93
      257
310
90E312F31323822203D2031272D3022000000000000200FC000000000000284000
  0
ACAD_PROXY_OBJECT
  5
82
102
{ACAD_REACTORS
330
6F
102
}
330
6F
100
AcDbZombieObject
 90
      499
 91
      502
 93
      249
310
90D312F363422203D2031272D3022000000000000240FC000000000000284000
  0
ACAD_PROXY_OBJECT
  5
83
102
{ACAD_REACTORS
330
6F
102
}
330
6F
100
AcDbZombieObject
 90
      499
 91
      502
 93
      249
310
90D312F333222203D2031272D3022000000000000280FC000000000000284000
  0
ACAD_PROXY_OBJECT
  5
84
102
{ACAD_REACTORS
330
6F
102
}
330
6F
100
AcDbZombieObject
 90
      499
 91
      502
 93
      249
310
90D312F313622203D2031272D30220000000000002C0FC000000000000284000
  0
ACAD_PROXY_OBJECT
  5
85
102
{ACAD_REACTORS
330
6F
102
}
330
6F
100
AcDbZombieObject
 90
      499
 91
      502
 93
      249
310
90D332F333222203D2031272D30220000000000002E0FC000000000000284000
  0
ACAD_PROXY_OBJECT
  5
86
102
{ACAD_REACTORS
330
6F
102
}
330
6F
100
AcDbZombieObject
 90
      499
 91
      502
 93
      241
310
90C312F3822203D2031272D3022000000000000300FC000000000000284000
  0
ACAD_PROXY_OBJECT
  5
87
102
{ACAD_REACTORS
330
6F
102
}
330
6F
100
AcDbZombieObject
 90
      499
 91
      502
 93
      249
310
90D332F313622203D2031272D3022000000000000320FC000000000000284000
  0
ACAD_PROXY_OBJECT
  5
88
102
{ACAD_REACTORS
330
6F
102
}
330
6F
100
AcDbZombieObject
 90
      499
 91
      502
 93
      241
310
90C312F3422203D2031272D3022000000000000340FC000000000000284000
  0
ACAD_PROXY_OBJECT
  5
89
102
{ACAD_REACTORS
330
6F
102
}
330
6F
100
AcDbZombieObject
 90
      499
 91
      502
 93
      241
310
90C332F3822203D2031272D3022000000000000360FC000000000000284000
  0
ACAD_PROXY_OBJECT
  5
8A
102
{ACAD_REACTORS
330
6F
102
}
330
6F
100
AcDbZombieObject
 90
      499
 91
      502
 93
      241
310
90C312F3222203D2031272D3022000000000000380FC000000000000284000
  0
ACAD_PROXY_OBJECT
  5
8B
102
{ACAD_REACTORS
330
6F
102
}
330
6F
100
AcDbZombieObject
 90
      499
 91
      502
 93
      241
310
90C332F3422203D2031272D30220000000000003A0FC000000000000284000
  0
ACAD_PROXY_OBJECT
  5
8C
102
{ACAD_REACTORS
330
6F
102
}
330
6F
100
AcDbZombieObject
 90
      499
 91
      502
 93
      161
310
90A3122203D2031272D30224000000000000284000
  0
ACAD_PROXY_OBJECT
  5
8D
102
{ACAD_REACTORS
330
6F
102
}
330
6F
100
AcDbZombieObject
 90
      499
 91
      502
 93
      257
310
90E312D312F3222203D2031272D30220000000000003E0FC000000000000284000
  0
ACAD_PROXY_OBJECT
  5
8E
102
{ACAD_REACTORS
330
6F
102
}
330
6F
100
AcDbZombieObject
 90
      499
 91
      502
 93
      225
310
90A3322203D2031272D302200000000000002100000000000000284000
  0
ACAD_PROXY_OBJECT
  5
8F
102
{ACAD_REACTORS
330
6F
102
}
330
6F
100
AcDbZombieObject
 90
      499
 91
      502
 93
      225
310
90A3622203D2031272D302200000000000006100000000000000284000
  0
ACAD_PROXY_OBJECT
  5
90
102
{ACAD_REACTORS
330
6F
102
}
330
6F
100
AcDbZombieObject
 90
      499
 91
      502
 93
      249
310
90D31272D3022203D2031272D30220000000000000A100000000000000284000
  0
ACAD_PROXY_OBJECT
  5
2F
102
{ACAD_REACTORS
330
2A
102
}
330
2A
100
AcDbZombieObject
 90
      499
 91
      501
 93
      436
310
42CC9915DA5C99599C985B595049028333333333333E3BF0000000000000FB0107901411070040501600405405064090741402480A0340
1001
ACAD
1000
AcDbSavedByObjectVersion
1070
     0
  0
ACAD_PROXY_OBJECT
  5
31
102
{ACAD_REACTORS
330
2A
102
}
330
2A
100
AcDbZombieObject
 90
      499
 91
      501
 93
      500
310
424CD108121A5919195B90640502408333333333333E3BF0000000000000FB01079024090700405020000000000001110200405405064090740C02480A0340
1001
ACAD
1000
AcDbSavedByObjectVersion
1070
     0
  0
ACAD_PROXY_OBJECT
  5
30
102
{ACAD_REACTORS
330
2A
102
}
330
2A
100
AcDbZombieObject
 90
      499
 91
      501
 93
      436
310
42CCD915DA5C99599C985B595059028333333333333E3BF0000000000000FB0107901411070040501600405405064090741402480A0340
1001
ACAD
1000
AcDbSavedByObjectVersion
1070
     0
  0
ACAD_PROXY_OBJECT
  5
32
102
{ACAD_REACTORS
330
2A
102
}
330
2A
100
AcDbZombieObject
 90
      499
 91
      501
 93
      388
310
4150985CDA58D07406404333333333333E3BF0000000000000FB0107A41107004050150841D405064090741402480A0350
1001
ACAD
1000
AcDbSavedByObjectVersion
1070
     0
  0
ACAD_PROXY_OBJECT
  5
36
102
{ACAD_REACTORS
330
2A
102
}
330
2A
100
AcDbZombieObject
 90
      499
 91
      501
 93
      428
310
42109C9A59DA1D195B90C409028333333333333E3BF0000000000000FB010790141107004050150841D405064090741402480A029950
1001
ACAD
1000
AcDbSavedByObjectVersion
1070
     0
  0
ACAD_PROXY_OBJECT
  5
3A
102
{ACAD_REACTORS
330
2A
102
}
330
2A
100
AcDbZombieObject
 90
      499
 91
      501
 93
      452
310
42D0DBDB1BDC90DA185B99D95104090240C333333333333E3BF0000000000000FB0108901411070040501508421405064090741402480A0350
1001
ACAD
1000
AcDbSavedByObjectVersion
1070
     0
  0
ACAD_PROXY_OBJECT
  5
34
102
{ACAD_REACTORS
330
2A
102
}
330
2A
100
AcDbZombieObject
 90
      499
 91
      501
 93
      500
310
4290DBDB98D95C1D1D585B10940D028333333333333E3BF0000000000000FB0107902409070040501000000000000111010841D405064090740C02480A0340
1001
ACAD
1000
AcDbSavedByObjectVersion
1070
     0
  0
ACAD_PROXY_OBJECT
  5
35
102
{ACAD_REACTORS
330
2A
102
}
330
2A
100
AcDbZombieObject
 90
      499
 91
      501
 93
      412
310
40D11A5B50B409028333333333333E3BF0000000000000FB010790141107004050150841D405064090741402480A02677FFFFFD0
1001
ACAD
1000
AcDbSavedByObjectVersion
1070
     0
  0
ACAD_PROXY_OBJECT
  5
39
102
{ACAD_REACTORS
330
2A
102
}
330
2A
100
AcDbZombieObject
 90
      499
 91
      501
 93
      444
310
42D19858D95C185D1D195C9B90F409028333333333333E3BF0000000000000FB010790141107004050150841D405064090741402480A0350
1001
ACAD
1000
AcDbSavedByObjectVersion
1070
     0
  0
ACAD_PROXY_OBJECT
  5
2B
102
{ACAD_REACTORS
330
2A
102
}
330
2A
100
AcDbZombieObject
 90
      499
 91
      501
 93
      388
310
41119B185D240901404333333333333E3BF0000000000000F9010740A41107004050150841D405064090741402480A1B50
1001
ACAD
1000
AcDbSavedByObjectVersion
1070
     0
  0
ACAD_PROXY_OBJECT
  5
2C
102
{ACAD_REACTORS
330
2A
102
}
330
2A
100
AcDbZombieObject
 90
      499
 91
      501
 93
      476
310
43519B185D15DA5D1A115919D95CD0140901404333333333333E3BF0000000000000F9010740901411070040501600405405064090741402480A1B50
1001
ACAD
1000
AcDbSavedByObjectVersion
1070
     0
  0
ACAD_PROXY_OBJECT
  5
2D
102
{ACAD_REACTORS
330
2A
102
}
330
2A
100
AcDbZombieObject
 90
      499
 91
      501
 93
      412
310
41D1DBDD5C985D5910240902404333333333333E3BF0000000000000F9010740A411070040501641D405064090741402480A1B50
1001
ACAD
1000
AcDbSavedByObjectVersion
1070
     0
  0
ACAD_PROXY_OBJECT
  5
2E
102
{ACAD_REACTORS
330
2A
102
}
330
2A
100
AcDbZombieObject
 90
      499
 91
      501
 93
      500
310
4411DBDD5C985D5915DA5D1A115919D95CD0340902404333333333333E3BF0000000000000F9010740901411070040501600405405064090741402480A1B50
1001
ACAD
1000
AcDbSavedByObjectVersion
1070
     0
  0
ACAD_PROXY_OBJECT
  5
38
102
{ACAD_REACTORS
330
2A
102
}
330
2A
100
AcDbZombieObject
 90
      499
 91
      501
 93
      444
310
42D31A5B995C185D1D195C9B90E409028333333333333E3BF0000000000000FB010790141107004050750841D405064090741402483A0350
1001
ACAD
1000
AcDbSavedByObjectVersion
1070
     0
  0
ACAD_PROXY_OBJECT
  5
33
102
{ACAD_REACTORS
330
2A
102
}
330
2A
100
AcDbZombieObject
 90
      499
 91
      501
 93
      420
310
425499585B1A5CDD1A58D08409028333333333333E3BF0000000000000FB01079019070040501508421405064090741402480A1B40
1001
ACAD
1000
AcDbSavedByObjectVersion
1070
     0
  0
ACAD_PROXY_OBJECT
  5
37
102
{ACAD_REACTORS
330
2A
102
}
330
2A
100
AcDbZombieObject
 90
      499
 91
      501
 93
      412
310
41D51A1A58DAD95B90D409028333333333333E3BF0000000000000FB010790141107004050150C41D405064090741402480A0350
1001
ACAD
1000
AcDbSavedByObjectVersion
1070
     0
  0
DICTIONARYVAR
  5
29E
102
{ACAD_REACTORS
330
29B
102
}
330
29B
100
DictionaryVariables
280
     0
  1
1:1
  0
DICTIONARYVAR
  5
29F
102
{ACAD_REACTORS
330
29B
102
}
330
29B
100
DictionaryVariables
280
     0
  1
2
  0
DICTIONARYVAR
  5
2A0
102
{ACAD_REACTORS
330
29B
102
}
330
29B
100
DictionaryVariables
280
     0
  1
1
  0
ENDSEC
  0
EOF
