  0
SECTION
  2
HEADER
  9
$ACADVER
  1
AC1012
  9
$DWGCODEPAGE
  3
ansi_1252
  9
$INSBASE
 10
0.0
 20
0.0
 30
0.0
  9
$EXTMIN
 10
0.0
 20
0.0
 30
0.0
  9
$EXTMAX
 10
11.0
 20
8.5
 30
0.0
  9
$LIMMIN
 10
0.0
 20
0.0
  9
$LIMMAX
 10
11.0
 20
8.5
  9
$ORTHOMODE
 70
     0
  9
$REGENMODE
 70
     1
  9
$FILLMODE
 70
     1
  9
$QTEXTMODE
 70
     0
  9
$MIRRTEXT
 70
     1
  9
$DRAGMODE
 70
     2
  9
$LTSCALE
 40
1.0
  9
$OSMODE
 70
    37
  9
$ATTMODE
 70
     1
  9
$TEXTSIZE
 40
0.125
  9
$TRACEWID
 40
0.05
  9
$TEXTSTYLE
  7
STANDARD
  9
$CLAYER
  8
0
  9
$CELTYPE
  6
BYLAYER
  9
$CECOLOR
 62
   256
  9
$CELTSCALE
 40
1.0
  9
$DELOBJ
 70
     1
  9
$DISPSILH
 70
     0
  9
$DIMSCALE
 40
1.0
  9
$DIMASZ
 40
0.13
  9
$DIMEXO
 40
0.05
  9
$DIMDLI
 40
0.38
  9
$DIMRND
 40
0.0
  9
$DIMDLE
 40
0.0
  9
$DIMEXE
 40
0.125
  9
$DIMTP
 40
0.0
  9
$DIMTM
 40
0.0
  9
$DIMTXT
 40
0.125
  9
$DIMCEN
 40
0.09
  9
$DIMTSZ
 40
0.0
  9
$DIMTOL
 70
     0
  9
$DIMLIM
 70
     0
  9
$DIMTIH
 70
     1
  9
$DIMTOH
 70
     1
  9
$DIMSE1
 70
     0
  9
$DIMSE2
 70
     0
  9
$DIMTAD
 70
     0
  9
$DIMZIN
 70
     0
  9
$DIMBLK
  1

  9
$DIMASO
 70
     1
  9
$DIMSHO
 70
     1
  9
$DIMPOST
  1

  9
$DIMAPOST
  1

  9
$DIMALT
 70
     0
  9
$DIMALTD
 70
     2
  9
$DIMALTF
 40
25.4
  9
$DIMLFAC
 40
1.0
  9
$DIMTOFL
 70
     0
  9
$DIMTVP
 40
0.0
  9
$DIMTIX
 70
     0
  9
$DIMSOXD
 70
     0
  9
$DIMSAH
 70
     0
  9
$DIMBLK1
  1

  9
$DIMBLK2
  1

  9
$DIMSTYLE
  2
STANDARD
  9
$DIMCLRD
 70
     0
  9
$DIMCLRE
 70
     0
  9
$DIMCLRT
 70
     0
  9
$DIMTFAC
 40
1.0
  9
$DIMGAP
 40
0.06
  9
$DIMJUST
 70
     0
  9
$DIMSD1
 70
     0
  9
$DIMSD2
 70
     0
  9
$DIMTOLJ
 70
     1
  9
$DIMTZIN
 70
     0
  9
$DIMALTZ
 70
     0
  9
$DIMALTTZ
 70
     0
  9
$DIMFIT
 70
     3
  9
$DIMUPT
 70
     0
  9
$DIMUNIT
 70
     2
  9
$DIMDEC
 70
     3
  9
$DIMTDEC
 70
     3
  9
$DIMALTU
 70
     2
  9
$DIMALTTD
 70
     2
  9
$DIMTXSTY
  7
STANDARD
  9
$DIMAUNIT
 70
     0
  9
$LUNITS
 70
     2
  9
$LUPREC
 70
     2
  9
$SKETCHINC
 40
0.1
  9
$FILLETRAD
 40
0.5
  9
$AUNITS
 70
     0
  9
$AUPREC
 70
     2
  9
$MENU
  1
.
  9
$ELEVATION
 40
0.0
  9
$PELEVATION
 40
0.0
  9
$THICKNESS
 40
0.0
  9
$LIMCHECK
 70
     0
  9
$CHAMFERA
 40
0.5
  9
$CHAMFERB
 40
0.5
  9
$CHAMFERC
 40
1.0
  9
$CHAMFERD
 40
0.0
  9
$SKPOLY
 70
     0
  9
$TDCREATE
 40
2455784.021585787
  9
$TDUPDATE
 40
2455784.021585799
  9
$TDINDWG
 40
0.0000000116
  9
$TDUSRTIMER
 40
0.0000000116
  9
$USRTIMER
 70
     1
  9
$ANGBASE
 50
0.0
  9
$ANGDIR
 70
     0
  9
$PDMODE
 70
     0
  9
$PDSIZE
 40
-1.0
  9
$PLINEWID
 40
0.0
  9
$COORDS
 70
     1
  9
$SPLFRAME
 70
     0
  9
$SPLINETYPE
 70
     6
  9
$SPLINESEGS
 70
     8
  9
$ATTDIA
 70
     0
  9
$ATTREQ
 70
     1
  9
$HANDLING
 70
     1
  9
$HANDSEED
  5
746
  9
$SURFTAB1
 70
     6
  9
$SURFTAB2
 70
     6
  9
$SURFTYPE
 70
     6
  9
$SURFU
 70
     6
  9
$SURFV
 70
     6
  9
$UCSNAME
  2

  9
$UCSORG
 10
0.0
 20
0.0
 30
0.0
  9
$UCSXDIR
 10
1.0
 20
0.0
 30
0.0
  9
$UCSYDIR
 10
0.0
 20
1.0
 30
0.0
  9
$PUCSNAME
  2

  9
$PUCSORG
 10
0.0
 20
0.0
 30
0.0
  9
$PUCSXDIR
 10
1.0
 20
0.0
 30
0.0
  9
$PUCSYDIR
 10
0.0
 20
1.0
 30
0.0
  9
$USERI1
 70
     0
  9
$USERI2
 70
     0
  9
$USERI3
 70
     0
  9
$USERI4
 70
     0
  9
$USERI5
 70
     0
  9
$USERR1
 40
0.0
  9
$USERR2
 40
0.0
  9
$USERR3
 40
0.0
  9
$USERR4
 40
0.0
  9
$USERR5
 40
0.0
  9
$WORLDVIEW
 70
     1
  9
$SHADEDGE
 70
     3
  9
$SHADEDIF
 70
    70
  9
$TILEMODE
 70
     1
  9
$MAXACTVP
 70
    64
  9
$PINSBASE
 10
0.0
 20
0.0
 30
0.0
  9
$PLIMCHECK
 70
     0
  9
$PEXTMIN
 10
1.0000000000E+20
 20
1.0000000000E+20
 30
1.0000000000E+20
  9
$PEXTMAX
 10
-1.0000000000E+20
 20
-1.0000000000E+20
 30
-1.0000000000E+20
  9
$PLIMMIN
 10
0.0
 20
0.0
  9
$PLIMMAX
 10
12.0
 20
9.0
  9
$UNITMODE
 70
     0
  9
$VISRETAIN
 70
     1
  9
$PLINEGEN
 70
     0
  9
$PSLTSCALE
 70
     1
  9
$TREEDEPTH
 70
  3020
  9
$PICKSTYLE
 70
     1
  9
$CMLSTYLE
  2
STANDARD
  9
$CMLJUST
 70
     0
  9
$CMLSCALE
 40
1.0
  9
$SAVEIMAGES
 70
     1
  0
ENDSEC
  0
SECTION
  2
CLASSES
  0
CLASS
  1
ACDBDICTIONARYWDFLT
  2
AcDbDictionaryWithDefault
  3
ObjectDBX Classes
 90
    32768
280
     0
281
     0
  0
CLASS
  1
VISUALSTYLE
  2
AcDbVisualStyle
  3
ObjectDBX Classes
 90
     4095
280
     0
281
     0
  0
CLASS
  1
SCALE
  2
AcDbScale
  3
ObjectDBX Classes
 90
     1153
280
     0
281
     0
  0
CLASS
  1
DICTIONARYVAR
  2
AcDbDictionaryVar
  3
ObjectDBX Classes
 90
        0
280
     0
281
     0
  0
CLASS
  1
XRECORD
  2
AcDbXrecord
  3
AutoCAD 2000
 90
    32768
280
     0
281
     0
  0
CLASS
  1
LWPOLYLINE
  2
AcDbPolyline
  3
AutoCAD 2000
 90
    32768
280
     0
281
     1
  0
CLASS
  1
HATCH
  2
AcDbHatch
  3
AutoCAD 2000
 90
    32768
280
     0
281
     1
  0
CLASS
  1
ACDBPLACEHOLDER
  2
AcDbPlaceHolder
  3
ObjectDBX Classes
 90
        0
280
     0
281
     0
  0
CLASS
  1
LAYOUT
  2
AcDbLayout
  3
ObjectDBX Classes
 90
        0
280
     0
281
     0
  0
ENDSEC
  0
SECTION
  2
TABLES
  0
TABLE
  2
VPORT
  5
8
330
0
100
AcDbSymbolTable
 70
     1
  0
VPORT
  5
29
330
8
100
AcDbSymbolTableRecord
100
AcDbViewportTableRecord
  2
*ACTIVE
 70
     0
 10
0.0
 20
0.0
 11
1.0
 21
1.0
 12
5.5
 22
4.25
 13
0.0
 23
0.0
 14
0.5
 24
0.5
 15
0.5
 25
0.5
 16
0.0
 26
0.0
 36
1.0
 17
0.0
 27
0.0
 37
0.0
 40
8.5
 41
1.2941176471
 42
50.0
 43
0.0
 44
0.0
 50
0.0
 51
0.0
 71
     0
 72
  2000
 73
     1
 74
     3
 75
     0
 76
     0
 77
     0
 78
     0
  0
ENDTAB
  0
TABLE
  2
LTYPE
  5
5
330
0
100
AcDbSymbolTable
 70
     6
  0
LTYPE
  5
14
330
5
100
AcDbSymbolTableRecord
100
AcDbLinetypeTableRecord
  2
BYBLOCK
 70
     0
  3

 72
    65
 73
     0
 40
0.0
  0
LTYPE
  5
15
330
5
100
AcDbSymbolTableRecord
100
AcDbLinetypeTableRecord
  2
BYLAYER
 70
     0
  3

 72
    65
 73
     0
 40
0.0
  0
LTYPE
  5
16
330
5
100
AcDbSymbolTableRecord
100
AcDbLinetypeTableRecord
  2
CONTINUOUS
 70
     0
  3
Solid line
 72
    65
 73
     0
 40
0.0
  0
LTYPE
  5
3B
330
5
100
AcDbSymbolTableRecord
100
AcDbLinetypeTableRecord
  2
HIDDEN
 70
     0
  3
Hidden __ __ __ __ __ __ __ __ __ __ __ __ __ __
 72
    65
 73
     2
 40
0.075
 49
0.05
 74
     0
 49
-0.025
 74
     0
  0
LTYPE
  5
3C
330
5
100
AcDbSymbolTableRecord
100
AcDbLinetypeTableRecord
  2
PHANTOM
 70
     0
  3
Phantom ______  __  __  ______  __  __  ______
 72
    65
 73
     6
 40
0.5
 49
0.25
 74
     0
 49
-0.05
 74
     0
 49
0.05
 74
     0
 49
-0.05
 74
     0
 49
0.05
 74
     0
 49
-0.05
 74
     0
  0
LTYPE
  5
3D
330
5
100
AcDbSymbolTableRecord
100
AcDbLinetypeTableRecord
  2
CENTER
 70
     0
  3
Center ____ _ ____ _ ____ _ ____ _ ____ _ ____
 72
    65
 73
     4
 40
0.4
 49
0.25
 74
     0
 49
-0.05
 74
     0
 49
0.05
 74
     0
 49
-0.05
 74
     0
  0
LTYPE
  5
3E
330
5
100
AcDbSymbolTableRecord
100
AcDbLinetypeTableRecord
  2
CENTERX2
 70
     0
  3
Center (2x) ________  __  ________  __  _____
 72
    65
 73
     4
 40
0.8
 49
0.5
 74
     0
 49
-0.1
 74
     0
 49
0.1
 74
     0
 49
-0.1
 74
     0
  0
LTYPE
  5
3F
330
5
100
AcDbSymbolTableRecord
100
AcDbLinetypeTableRecord
  2
DOT2
 70
     0
  3
Dot (.5x) ........................................
 72
    65
 73
     2
 40
0.025
 49
0.0
 74
     0
 49
-0.025
 74
     0
  0
ENDTAB
  0
TABLE
  2
LAYER
  5
2
330
0
100
AcDbSymbolTable
 70
     2
  0
LAYER
  5
10
330
2
100
AcDbSymbolTableRecord
100
AcDbLayerTableRecord
  2
0
 70
     0
 62
     7
  6
CONTINUOUS
  0
LAYER
  5
40
330
2
100
AcDbSymbolTableRecord
100
AcDbLayerTableRecord
  2
FORMAT
 70
     0
 62
     7
  6
CONTINUOUS
  0
ENDTAB
  0
TABLE
  2
STYLE
  5
3
330
0
100
AcDbSymbolTable
 70
     4
  0
STYLE
  5
11
330
3
100
AcDbSymbolTableRecord
100
AcDbTextStyleTableRecord
  2
STANDARD
 70
     0
 40
0.0
 41
1.0
 50
0.0
 71
     0
 42
0.2
  3
txt
  4

  0
STYLE
  5
6E
330
3
100
AcDbSymbolTableRecord
100
AcDbTextStyleTableRecord
  2
SLDTEXTSTYLE0
 70
     0
 40
0.0
 41
0.75
 50
0.0
 71
     0
 42
0.2
  3
TXT
  4

  0
STYLE
  5
93
330
3
100
AcDbSymbolTableRecord
100
AcDbTextStyleTableRecord
  2
SLDTEXTSTYLE1
 70
     0
 40
0.0
 41
0.6875
 50
0.0
 71
     0
 42
0.2
  3
TXT
  4

  0
STYLE
  5
99
330
3
100
AcDbSymbolTableRecord
100
AcDbTextStyleTableRecord
  2
SLDTEXTSTYLE2
 70
     0
 40
0.0
 41
0.6944444444
 50
0.0
 71
     0
 42
0.2
  3
TXT
  4

  0
ENDTAB
  0
TABLE
  2
VIEW
  5
6
330
0
100
AcDbSymbolTable
 70
     0
  0
ENDTAB
  0
TABLE
  2
UCS
  5
7
330
0
100
AcDbSymbolTable
 70
     0
  0
ENDTAB
  0
TABLE
  2
APPID
  5
9
330
0
100
AcDbSymbolTable
 70
     1
  0
APPID
  5
12
330
9
100
AcDbSymbolTableRecord
100
AcDbRegAppTableRecord
  2
ACAD
 70
     0
  0
ENDTAB
  0
TABLE
  2
DIMSTYLE
  5
A
330
0
100
AcDbSymbolTable
 70
     1
  0
DIMSTYLE
105
27
330
A
100
AcDbSymbolTableRecord
100
AcDbDimStyleTableRecord
  2
STANDARD
 70
     0
  3

  4

  5

  6

  7

 40
1.0
 41
0.18
 42
0.0625
 43
0.38
 44
0.18
 45
0.0
 46
0.0
 47
0.0
 48
0.0
140
0.18
141
0.09
142
0.0
143
25.4
144
1.0
145
0.0
146
1.0
147
0.09
 71
     0
 72
     0
 73
     1
 74
     1
 75
     0
 76
     0
 77
     0
 78
     0
170
     0
171
     2
172
     0
173
     0
174
     0
175
     0
176
     0
177
     0
178
     0
270
     2
271
     4
272
     4
273
     2
274
     2
340
11
275
     0
280
     0
281
     0
282
     0
283
     1
284
     0
285
     0
286
     0
287
     3
288
     0
  0
ENDTAB
  0
TABLE
  2
BLOCK_RECORD
  5
1
330
0
100
AcDbSymbolTable
 70
     4
  0
BLOCK_RECORD
  5
1F
330
1
100
AcDbSymbolTableRecord
100
AcDbBlockTableRecord
  2
*MODEL_SPACE
  0
BLOCK_RECORD
  5
1B
330
1
100
AcDbSymbolTableRecord
100
AcDbBlockTableRecord
  2
*PAPER_SPACE
  0
BLOCK_RECORD
  5
A8
330
1
100
AcDbSymbolTableRecord
100
AcDbBlockTableRecord
  2
SW_NOTE_0
  0
BLOCK_RECORD
  5
AE
330
1
100
AcDbSymbolTableRecord
100
AcDbBlockTableRecord
  2
SW_NOTE_1
  0
BLOCK_RECORD
  5
C2
330
1
100
AcDbSymbolTableRecord
100
AcDbBlockTableRecord
  2
SW_NOTE_2
  0
ENDTAB
  0
ENDSEC
  0
SECTION
  2
BLOCKS
  0
BLOCK
  5
20
330
1F
100
AcDbEntity
  8
0
100
AcDbBlockBegin
  2
*MODEL_SPACE
 70
     0
 10
0.0
 20
0.0
 30
0.0
  3
*MODEL_SPACE
  1

  0
ENDBLK
  5
21
330
1F
100
AcDbEntity
  8
0
100
AcDbBlockEnd
  0
BLOCK
  5
1C
330
1B
100
AcDbEntity
 67
     1
  8
0
100
AcDbBlockBegin
  2
*PAPER_SPACE
 70
     0
 10
0.0
 20
0.0
 30
0.0
  3
*PAPER_SPACE
  1

  0
ENDBLK
  5
1D
330
1B
100
AcDbEntity
 67
     1
  8
0
100
AcDbBlockEnd
  0
BLOCK
  5
A9
330
A8
100
AcDbEntity
  8
0
100
AcDbBlockBegin
  2
SW_NOTE_0
 70
     0
 10
0.0
 20
0.0
 30
0.0
  3
SW_NOTE_0
  1

  0
MTEXT
  5
AB
330
A8
100
AcDbEntity
  8
0
  6
CONTINUOUS
 62
     0
100
AcDbMText
 10
0.0
 20
0.0773440644
 30
0.0
 40
0.06
 41
0.0
 71
     1
 72
     1
  1
INTERPRET GEOMETRIC
  7
SLDTEXTSTYLE0
  0
MTEXT
  5
AC
330
A8
100
AcDbEntity
  8
0
  6
CONTINUOUS
 62
     0
100
AcDbMText
 10
0.0
 20
-0.0220260102
 30
0.0
 40
0.06
 41
0.0
 71
     1
 72
     1
  1
TOLERANCING PER:
  7
SLDTEXTSTYLE0
  0
ENDBLK
  5
AA
330
A8
100
AcDbEntity
  8
0
100
AcDbBlockEnd
  0
BLOCK
  5
AF
330
AE
100
AcDbEntity
  8
0
100
AcDbBlockBegin
  2
SW_NOTE_1
 70
     0
 10
0.0
 20
0.0
 30
0.0
  3
SW_NOTE_1
  1

  0
MTEXT
  5
B1
330
AE
100
AcDbEntity
  8
0
  6
CONTINUOUS
 62
     0
100
AcDbMText
 10
0.0
 20
0.0837894031
 30
0.0
 40
0.065
 41
0.0
 71
     1
 72
     1
  1
DIMENSIONS ARE IN INCHES
  7
SLDTEXTSTYLE0
  0
MTEXT
  5
B2
330
AE
100
AcDbEntity
  8
0
  6
CONTINUOUS
 62
     0
100
AcDbMText
 10
0.0
 20
-0.0205806729
 30
0.0
 40
0.065
 41
0.0
 71
     1
 72
     1
  1
TOLERANCES:
  7
SLDTEXTSTYLE0
  0
MTEXT
  5
B3
330
AE
100
AcDbEntity
  8
0
  6
CONTINUOUS
 62
     0
100
AcDbMText
 10
0.0
 20
-0.1249507489
 30
0.0
 40
0.065
 41
0.0
 71
     1
 72
     1
  1
FRACTIONAL
  7
SLDTEXTSTYLE0
  0
MTEXT
  5
B4
330
AE
100
AcDbEntity
  8
0
  6
CONTINUOUS
 62
     0
100
AcDbMText
 10
0.5175850875
 20
-0.1249507489
 30
0.0
 40
0.065
 41
0.0
 71
     1
 72
     1
  1
%%p
  7
SLDTEXTSTYLE0
  0
MTEXT
  5
B5
330
AE
100
AcDbEntity
  8
0
  6
CONTINUOUS
 62
     0
100
AcDbMText
 10
0.0
 20
-0.2293208248
 30
0.0
 40
0.065
 41
0.0
 71
     1
 72
     1
  1
ANGULAR: MACH
  7
SLDTEXTSTYLE0
  0
MTEXT
  5
B6
330
AE
100
AcDbEntity
  8
0
  6
CONTINUOUS
 62
     0
100
AcDbMText
 10
0.7233732769
 20
-0.2293208248
 30
0.0
 40
0.065
 41
0.0
 71
     1
 72
     1
  1
%%p
  7
SLDTEXTSTYLE0
  0
MTEXT
  5
B7
330
AE
100
AcDbEntity
  8
0
  6
CONTINUOUS
 62
     0
100
AcDbMText
 10
0.7852857683
 20
-0.2293208248
 30
0.0
 40
0.065
 41
0.0
 71
     1
 72
     1
  1
     BEND 
  7
SLDTEXTSTYLE0
  0
MTEXT
  5
B8
330
AE
100
AcDbEntity
  8
0
  6
CONTINUOUS
 62
     0
100
AcDbMText
 10
1.14784136
 20
-0.2293208248
 30
0.0
 40
0.065
 41
0.0
 71
     1
 72
     1
  1
%%p
  7
SLDTEXTSTYLE0
  0
MTEXT
  5
B9
330
AE
100
AcDbEntity
  8
0
  6
CONTINUOUS
 62
     0
100
AcDbMText
 10
0.0
 20
-0.3336909008
 30
0.0
 40
0.065
 41
0.0
 71
     1
 72
     1
  1
TWO PLACE DECIMAL    
  7
SLDTEXTSTYLE0
  0
MTEXT
  5
BA
330
AE
100
AcDbEntity
  8
0
  6
CONTINUOUS
 62
     0
100
AcDbMText
 10
0.9794349188
 20
-0.3336909008
 30
0.0
 40
0.065
 41
0.0
 71
     1
 72
     1
  1
%%p
  7
SLDTEXTSTYLE0
  0
MTEXT
  5
BB
330
AE
100
AcDbEntity
  8
0
  6
CONTINUOUS
 62
     0
100
AcDbMText
 10
0.0
 20
-0.4380609768
 30
0.0
 40
0.065
 41
0.0
 71
     1
 72
     1
  1
THREE PLACE DECIMAL  
  7
SLDTEXTSTYLE0
  0
MTEXT
  5
BC
330
AE
100
AcDbEntity
  8
0
  6
CONTINUOUS
 62
     0
100
AcDbMText
 10
0.9738038639
 20
-0.4380609768
 30
0.0
 40
0.065
 41
0.0
 71
     1
 72
     1
  1
%%p
  7
SLDTEXTSTYLE0
  0
ENDBLK
  5
B0
330
AE
100
AcDbEntity
  8
0
100
AcDbBlockEnd
  0
BLOCK
  5
C3
330
C2
100
AcDbEntity
  8
0
100
AcDbBlockBegin
  2
SW_NOTE_2
 70
     0
 10
0.0
 20
0.0
 30
0.0
  3
SW_NOTE_2
  1

  0
MTEXT
  5
C5
330
C2
100
AcDbEntity
  8
0
  6
CONTINUOUS
 62
     0
100
AcDbMText
 10
0.0
 20
0.0773440644
 30
0.0
 40
0.06
 41
0.0
 71
     1
 72
     1
  1
THE INFORMATION CONTAINED IN THIS
  7
SLDTEXTSTYLE0
  0
MTEXT
  5
C6
330
C2
100
AcDbEntity
  8
0
  6
CONTINUOUS
 62
     0
100
AcDbMText
 10
0.0
 20
-0.0220260102
 30
0.0
 40
0.06
 41
0.0
 71
     1
 72
     1
  1
DRAWING IS THE SOLE PROPERTY OF
  7
SLDTEXTSTYLE0
  0
MTEXT
  5
C7
330
C2
100
AcDbEntity
  8
0
  6
CONTINUOUS
 62
     0
100
AcDbMText
 10
0.0
 20
-0.1213960848
 30
0.0
 40
0.06
 41
0.0
 71
     1
 72
     1
  1
Candy Controls.  ANY 
  7
SLDTEXTSTYLE0
  0
MTEXT
  5
C8
330
C2
100
AcDbEntity
  8
0
  6
CONTINUOUS
 62
     0
100
AcDbMText
 10
0.0
 20
-0.2207661593
 30
0.0
 40
0.06
 41
0.0
 71
     1
 72
     1
  1
REPRODUCTION IN PART OR AS A WHOLE
  7
SLDTEXTSTYLE0
  0
MTEXT
  5
C9
330
C2
100
AcDbEntity
  8
0
  6
CONTINUOUS
 62
     0
100
AcDbMText
 10
0.0
 20
-0.3201362339
 30
0.0
 40
0.06
 41
0.0
 71
     1
 72
     1
  1
WITHOUT THE WRITTEN PERMISSION OF
  7
SLDTEXTSTYLE0
  0
MTEXT
  5
CA
330
C2
100
AcDbEntity
  8
0
  6
CONTINUOUS
 62
     0
100
AcDbMText
 10
0.0
 20
-0.4195063085
 30
0.0
 40
0.06
 41
0.0
 71
     1
 72
     1
  1
Candy Controls IS 
  7
SLDTEXTSTYLE0
  0
MTEXT
  5
CB
330
C2
100
AcDbEntity
  8
0
  6
CONTINUOUS
 62
     0
100
AcDbMText
 10
0.0
 20
-0.518876383
 30
0.0
 40
0.06
 41
0.0
 71
     1
 72
     1
  1
PROHIBITED.
  7
SLDTEXTSTYLE0
  0
ENDBLK
  5
C4
330
C2
100
AcDbEntity
  8
0
100
AcDbBlockEnd
  0
ENDSEC
  0
SECTION
  2
ENTITIES
  0
LINE
  5
41
330
1F
100
AcDbEntity
  8
0
  6
CONTINUOUS
 62
     7
100
AcDbLine
 10
0.329927
 20
8.1920731707
 30
0.0
 11
10.629927
 21
8.1920731707
 31
0.0
  0
LINE
  5
42
330
1F
100
AcDbEntity
  8
0
  6
CONTINUOUS
 62
     7
100
AcDbLine
 10
0.329927
 20
8.1920731707
 30
0.0
 11
0.329927
 21
0.3920731707
 31
0.0
  0
LINE
  5
43
330
1F
100
AcDbEntity
  8
0
  6
CONTINUOUS
 62
     7
100
AcDbLine
 10
10.629927
 20
0.3920731707
 30
0.0
 11
0.329927
 21
0.3920731707
 31
0.0
  0
LINE
  5
44
330
1F
100
AcDbEntity
  8
0
  6
CONTINUOUS
 62
     7
100
AcDbLine
 10
10.629927
 20
0.3920731707
 30
0.0
 11
10.629927
 21
8.1920731707
 31
0.0
  0
LINE
  5
45
330
1F
100
AcDbEntity
  8
0
  6
CONTINUOUS
 62
     7
100
AcDbLine
 10
4.7981841288
 20
0.3920731707
 30
0.0
 11
4.7981841288
 21
2.3564211366
 31
0.0
  0
LINE
  5
46
330
1F
100
AcDbEntity
  8
0
  6
CONTINUOUS
 62
     7
100
AcDbLine
 10
2.8210345579
 20
2.3564211366
 30
0.0
 11
10.629927
 21
2.3564211366
 31
0.0
  0
LINE
  5
47
330
1F
100
AcDbEntity
  8
0
  6
CONTINUOUS
 62
     7
100
AcDbLine
 10
6.1796352514
 20
2.3564211366
 30
0.0
 11
6.1796352514
 21
0.3920731707
 31
0.0
  0
LINE
  5
48
330
1F
100
AcDbEntity
  8
0
  6
CONTINUOUS
 62
     7
100
AcDbLine
 10
7.8712070044
 20
2.3564211366
 30
0.0
 11
7.8712070044
 21
0.3920731707
 31
0.0
  0
LINE
  5
49
330
1F
100
AcDbEntity
  8
0
  6
CONTINUOUS
 62
     7
100
AcDbLine
 10
7.8712070044
 20
0.6049590101
 30
0.0
 11
10.629927
 21
0.6049590101
 31
0.0
  0
LINE
  5
4A
330
1F
100
AcDbEntity
  8
0
  6
CONTINUOUS
 62
     7
100
AcDbLine
 10
7.8712070044
 20
1.1119362457
 30
0.0
 11
10.629927
 21
1.1119362457
 31
0.0
  0
LINE
  5
4B
330
1F
100
AcDbEntity
  8
0
  6
CONTINUOUS
 62
     7
100
AcDbLine
 10
7.8712070044
 20
1.9892703708
 30
0.0
 11
10.629927
 21
1.9892703708
 31
0.0
  0
LINE
  5
4C
330
1F
100
AcDbEntity
  8
0
  6
CONTINUOUS
 62
     7
100
AcDbLine
 10
8.266751752
 20
1.1119362457
 30
0.0
 11
8.266751752
 21
0.6049590101
 31
0.0
  0
LINE
  5
4D
330
1F
100
AcDbEntity
  8
0
  6
CONTINUOUS
 62
     7
100
AcDbLine
 10
8.6943435176
 20
0.6049590101
 30
0.0
 11
8.6943435176
 21
0.3920731707
 31
0.0
  0
LINE
  5
4E
330
1F
100
AcDbEntity
  8
0
  6
CONTINUOUS
 62
     7
100
AcDbLine
 10
10.0579917045
 20
1.1119362457
 30
0.0
 11
10.0579917045
 21
0.6049590101
 31
0.0
  0
LINE
  5
4F
330
1F
100
AcDbEntity
  8
0
  6
CONTINUOUS
 62
     7
100
AcDbLine
 10
9.6662556631
 20
0.6049590101
 30
0.0
 11
9.6662556631
 21
0.3920731707
 31
0.0
  0
LINE
  5
50
330
1F
100
AcDbEntity
  8
0
  6
CONTINUOUS
 62
     7
100
AcDbLine
 10
2.8210345579
 20
0.5883479999
 30
0.0
 11
6.1796352514
 21
0.5883479999
 31
0.0
  0
LINE
  5
51
330
1F
100
AcDbEntity
  8
0
  6
CONTINUOUS
 62
     7
100
AcDbLine
 10
6.1796352514
 20
1.7939211366
 30
0.0
 11
7.8712070044
 21
1.7939211366
 31
0.0
  0
LINE
  5
52
330
1F
100
AcDbEntity
  8
0
  6
CONTINUOUS
 62
     7
100
AcDbLine
 10
6.1796352514
 20
1.9814211366
 30
0.0
 11
7.8712070044
 21
1.9814211366
 31
0.0
  0
LINE
  5
53
330
1F
100
AcDbEntity
  8
0
  6
CONTINUOUS
 62
     7
100
AcDbLine
 10
6.1796352514
 20
2.1689211366
 30
0.0
 11
7.8712070044
 21
2.1689211366
 31
0.0
  0
LINE
  5
54
330
1F
100
AcDbEntity
  8
0
  6
CONTINUOUS
 62
     7
100
AcDbLine
 10
7.8712070044
 20
1.2314211366
 30
0.0
 11
6.1796352514
 21
1.2314211366
 31
0.0
  0
LINE
  5
55
330
1F
100
AcDbEntity
  8
0
  6
CONTINUOUS
 62
     7
100
AcDbLine
 10
7.3921580388
 20
2.3564211366
 30
0.0
 11
7.3921580388
 21
1.2314211366
 31
0.0
  0
LINE
  5
56
330
1F
100
AcDbEntity
  8
0
  6
CONTINUOUS
 62
     7
100
AcDbLine
 10
6.9236308342
 20
2.3564211366
 30
0.0
 11
6.9236308342
 21
1.2314211366
 31
0.0
  0
LINE
  5
57
330
1F
100
AcDbEntity
  8
0
  6
CONTINUOUS
 62
     7
100
AcDbLine
 10
4.7981841288
 20
0.8557965305
 30
0.0
 11
6.1796352514
 21
0.8557965305
 31
0.0
  0
LINE
  5
58
330
1F
100
AcDbEntity
  8
0
  6
CONTINUOUS
 62
     7
100
AcDbLine
 10
4.7981841288
 20
1.1257965305
 30
0.0
 11
6.1796352514
 21
1.1257965305
 31
0.0
  0
LINE
  5
59
330
1F
100
AcDbEntity
  8
0
  6
CONTINUOUS
 62
     7
100
AcDbLine
 10
2.8210345579
 20
0.3920731707
 30
0.0
 11
2.8210345579
 21
2.3564211366
 31
0.0
  0
LINE
  5
5A
330
1F
100
AcDbEntity
  8
0
  6
CONTINUOUS
 62
     7
100
AcDbLine
 10
2.8210345579
 20
1.1064211366
 30
0.0
 11
4.7981841288
 21
1.1064211366
 31
0.0
  0
LINE
  5
5B
330
1F
100
AcDbEntity
  8
0
  6
CONTINUOUS
 62
     7
100
AcDbLine
 10
2.8210345579
 20
1.3564211366
 30
0.0
 11
4.7981841288
 21
1.3564211366
 31
0.0
  0
LINE
  5
5C
330
1F
100
AcDbEntity
  8
0
  6
CONTINUOUS
 62
     7
100
AcDbLine
 10
2.8210345579
 20
1.6064211366
 30
0.0
 11
4.7981841288
 21
1.6064211366
 31
0.0
  0
LINE
  5
5D
330
1F
100
AcDbEntity
  8
0
  6
CONTINUOUS
 62
     7
100
AcDbLine
 10
2.8210345579
 20
1.8564211366
 30
0.0
 11
4.7981841288
 21
1.8564211366
 31
0.0
  0
LINE
  5
5E
330
1F
100
AcDbEntity
  8
0
  6
CONTINUOUS
 62
     7
100
AcDbLine
 10
3.8190146875
 20
2.3564211366
 30
0.0
 11
3.8190146875
 21
0.5883479999
 31
0.0
  0
LINE
  5
5F
330
1F
100
AcDbEntity
  8
0
  6
CONTINUOUS
 62
     7
100
AcDbLine
 10
6.1796352514
 20
2.2020813496
 30
0.0
 11
4.7981841288
 21
2.2020813496
 31
0.0
  0
LINE
  5
60
330
1F
100
AcDbEntity
  8
0
  6
CONTINUOUS
 62
     7
100
AcDbLine
 10
7.8712070044
 20
1.6064211366
 30
0.0
 11
6.1796352514
 21
1.6064211366
 31
0.0
  0
LINE
  5
61
330
1F
100
AcDbEntity
  8
0
  6
CONTINUOUS
 62
     7
100
AcDbLine
 10
7.8712070044
 20
1.4189211366
 30
0.0
 11
6.1796352514
 21
1.4189211366
 31
0.0
  0
LINE
  5
62
330
1F
100
AcDbEntity
  8
0
  6
CONTINUOUS
 62
     7
100
AcDbLine
 10
2.8210345579
 20
2.1064211366
 30
0.0
 11
4.7981841288
 21
2.1064211366
 31
0.0
  0
LINE
  5
63
330
1F
100
AcDbEntity
  8
0
  6
CONTINUOUS
 62
     7
100
AcDbLine
 10
4.7981841288
 20
1.3957965305
 30
0.0
 11
6.1796352514
 21
1.3957965305
 31
0.0
  0
LINE
  5
64
330
1F
100
AcDbEntity
  8
0
  6
CONTINUOUS
 62
     7
100
AcDbLine
 10
2.8210345579
 20
0.8564211366
 30
0.0
 11
4.7981841288
 21
0.8564211366
 31
0.0
  0
LINE
  5
65
330
1F
100
AcDbEntity
  8
0
  6
CONTINUOUS
 62
     7
100
AcDbLine
 10
1.1838252943
 20
0.3920731707
 30
0.0
 11
1.1838252943
 21
1.3064211366
 31
0.0
  0
LINE
  5
66
330
1F
100
AcDbEntity
  8
0
  6
CONTINUOUS
 62
     7
100
AcDbLine
 10
2.8210345579
 20
1.3064211366
 30
0.0
 11
1.1838252943
 21
1.3064211366
 31
0.0
  0
LINE
  5
67
330
1F
100
AcDbEntity
  8
0
  6
CONTINUOUS
 62
     7
100
AcDbLine
 10
8.660927
 20
0.3920731707
 30
0.0
 11
8.660927
 21
0.3072739649
 31
0.0
  0
LINE
  5
68
330
1F
100
AcDbEntity
  8
0
  6
CONTINUOUS
 62
     7
100
AcDbLine
 10
6.692177
 20
0.3920731707
 30
0.0
 11
6.692177
 21
0.3072739649
 31
0.0
  0
LINE
  5
69
330
1F
100
AcDbEntity
  8
0
  6
CONTINUOUS
 62
     7
100
AcDbLine
 10
4.723427
 20
0.3920731707
 30
0.0
 11
4.723427
 21
0.3072739649
 31
0.0
  0
LINE
  5
6A
330
1F
100
AcDbEntity
  8
0
  6
CONTINUOUS
 62
     7
100
AcDbLine
 10
2.754677
 20
0.3920731707
 30
0.0
 11
2.754677
 21
0.3072739649
 31
0.0
  0
LINE
  5
6B
330
1F
100
AcDbEntity
  8
0
  6
CONTINUOUS
 62
     7
100
AcDbLine
 10
2.754677
 20
0.3920731707
 30
0.0
 11
2.7672319738
 21
0.3575
 31
0.0
  0
LINE
  5
6C
330
1F
100
AcDbEntity
  8
0
  6
CONTINUOUS
 62
     7
100
AcDbLine
 10
2.7672319738
 20
0.3575
 30
0.0
 11
2.7414258825
 21
0.3575
 31
0.0
  0
LINE
  5
6D
330
1F
100
AcDbEntity
  8
0
  6
CONTINUOUS
 62
     7
100
AcDbLine
 10
2.7414258825
 20
0.3575
 30
0.0
 11
2.754677
 21
0.3920731707
 31
0.0
  0
MTEXT
  5
91
330
1F
100
AcDbEntity
  8
0
  6
CONTINUOUS
 62
     7
100
AcDbMText
 10
4.9775846961
 20
0.5178452352
 30
0.0
 40
0.0625
 41
0.0
 71
     1
 72
     1
  1
DO NOT SCALE DRAWING
  7
SLDTEXTSTYLE0
  0
MTEXT
  5
92
330
1F
100
AcDbEntity
  8
0
  6
CONTINUOUS
 62
     7
100
AcDbMText
 10
8.5075344394
 20
0.9417064595
 30
0.0
 40
0.125
 41
0.0
 71
     1
 72
     1
  1
CL5-C26_Double
  7
SLDTEXTSTYLE0
  0
MTEXT
  5
94
330
1F
100
AcDbEntity
  8
0
  6
CONTINUOUS
 62
     7
100
AcDbMText
 10
9.7571278483
 20
0.5524239532
 30
0.0
 40
0.1
 41
0.0
 71
     1
 72
     1
  1
SHEET 1 OF 1
  7
SLDTEXTSTYLE1
  0
MTEXT
  5
95
330
1F
100
AcDbEntity
  8
0
  6
CONTINUOUS
 62
     7
100
AcDbMText
 10
4.8448077858
 20
2.3132954224
 30
0.0
 40
0.07
 41
0.0
 71
     1
 72
     1
  1
UNLESS OTHERWISE SPECIFIED:
  7
SLDTEXTSTYLE0
  0
MTEXT
  5
96
330
1F
100
AcDbEntity
  8
0
  6
CONTINUOUS
 62
     7
100
AcDbMText
 10
7.9586139647
 20
0.5520987879
 30
0.0
 40
0.1
 41
0.0
 71
     1
 72
     1
  1
SCALE: 1:1
  7
SLDTEXTSTYLE0
  0
MTEXT
  5
97
330
1F
100
AcDbEntity
  8
0
  6
CONTINUOUS
 62
     7
100
AcDbMText
 10
8.7023691647
 20
0.5486763345
 30
0.0
 40
0.1
 41
0.0
 71
     1
 72
     1
  1
WEIGHT: 
  7
SLDTEXTSTYLE0
  0
MTEXT
  5
98
330
1F
100
AcDbEntity
  8
0
  6
CONTINUOUS
 62
     7
100
AcDbMText
 10
10.2277580983
 20
1.081966299
 30
0.0
 40
0.1
 41
0.0
 71
     1
 72
     1
  1
REV
  7
SLDTEXTSTYLE0
  0
MTEXT
  5
9A
330
1F
100
AcDbEntity
  8
0
  6
CONTINUOUS
 62
     7
100
AcDbMText
 10
8.2984570898
 20
1.0858725293
 30
0.0
 40
0.1
 41
0.0
 71
     1
 72
     1
  1
DWG.  NO.
  7
SLDTEXTSTYLE2
  0
MTEXT
  5
9B
330
1F
100
AcDbEntity
  8
0
  6
CONTINUOUS
 62
     7
100
AcDbMText
 10
7.9598482632
 20
0.9442140768
 30
0.0
 40
0.25
 41
0.0
 71
     1
 72
     1
  1
A
  7
SLDTEXTSTYLE0
  0
MTEXT
  5
9C
330
1F
100
AcDbEntity
  8
0
  6
CONTINUOUS
 62
     7
100
AcDbMText
 10
7.9519581822
 20
1.0872713483
 30
0.0
 40
0.1
 41
0.0
 71
     1
 72
     1
  1
SIZE
  7
SLDTEXTSTYLE0
  0
MTEXT
  5
9D
330
1F
100
AcDbEntity
  8
0
  6
CONTINUOUS
 62
     7
100
AcDbMText
 10
7.9170704177
 20
1.9547881128
 30
0.0
 40
0.1
 41
0.0
 71
     1
 72
     1
  1
TITLE:
  7
SLDTEXTSTYLE0
  0
MTEXT
  5
9E
330
1F
100
AcDbEntity
  8
0
  6
CONTINUOUS
 62
     7
100
AcDbMText
 10
7.0363774929
 20
2.2906161274
 30
0.0
 40
0.065
 41
0.0
 71
     1
 72
     1
  1
NAME
  7
SLDTEXTSTYLE0
  0
MTEXT
  5
9F
330
1F
100
AcDbEntity
  8
0
  6
CONTINUOUS
 62
     7
100
AcDbMText
 10
7.5281510634
 20
2.2888799118
 30
0.0
 40
0.065
 41
0.0
 71
     1
 72
     1
  1
DATE
  7
SLDTEXTSTYLE0
  0
MTEXT
  5
A0
330
1F
100
AcDbEntity
  8
0
  6
CONTINUOUS
 62
     7
100
AcDbMText
 10
6.2277147029
 20
1.1876913145
 30
0.0
 40
0.065
 41
0.0
 71
     1
 72
     1
  1
COMMENTS:
  7
SLDTEXTSTYLE0
  0
MTEXT
  5
A1
330
1F
100
AcDbEntity
  8
0
  6
CONTINUOUS
 62
     7
100
AcDbMText
 10
6.2268411461
 20
1.3536101679
 30
0.0
 40
0.065
 41
0.0
 71
     1
 72
     1
  1
Q.A.
  7
SLDTEXTSTYLE0
  0
MTEXT
  5
A2
330
1F
100
AcDbEntity
  8
0
  6
CONTINUOUS
 62
     7
100
AcDbMText
 10
6.2284654509
 20
1.5395328424
 30
0.0
 40
0.065
 41
0.0
 71
     1
 72
     1
  1
MFG APPR.
  7
SLDTEXTSTYLE0
  0
MTEXT
  5
A3
330
1F
100
AcDbEntity
  8
0
  6
CONTINUOUS
 62
     7
100
AcDbMText
 10
6.2235171344
 20
1.7267501785
 30
0.0
 40
0.065
 41
0.0
 71
     1
 72
     1
  1
ENG APPR.
  7
SLDTEXTSTYLE0
  0
MTEXT
  5
A4
330
1F
100
AcDbEntity
  8
0
  6
CONTINUOUS
 62
     7
100
AcDbMText
 10
6.2264103951
 20
1.9092699088
 30
0.0
 40
0.065
 41
0.0
 71
     1
 72
     1
  1
CHECKED
  7
SLDTEXTSTYLE0
  0
MTEXT
  5
A5
330
1F
100
AcDbEntity
  8
0
  6
CONTINUOUS
 62
     7
100
AcDbMText
 10
6.2242794356
 20
2.1016301232
 30
0.0
 40
0.065
 41
0.0
 71
     1
 72
     1
  1
DRAWN
  7
SLDTEXTSTYLE0
  0
MTEXT
  5
A6
330
1F
100
AcDbEntity
  8
0
  6
CONTINUOUS
 62
     7
100
AcDbMText
 10
4.8208600979
 20
0.834523235
 30
0.0
 40
0.06
 41
0.0
 71
     1
 72
     1
  1
FINISH
  7
SLDTEXTSTYLE0
  0
MTEXT
  5
A7
330
1F
100
AcDbEntity
  8
0
  6
CONTINUOUS
 62
     7
100
AcDbMText
 10
4.8181240648
 20
1.1028217587
 30
0.0
 40
0.06
 41
0.0
 71
     1
 72
     1
  1
MATERIAL
  7
SLDTEXTSTYLE0
  0
INSERT
  5
AD
330
1F
100
AcDbEntity
  8
0
  6
CONTINUOUS
 62
     7
100
AcDbBlockReference
  2
SW_NOTE_0
 10
4.8231926633
 20
1.2646542947
 30
0.0
  0
INSERT
  5
BD
330
1F
100
AcDbEntity
  8
0
  6
CONTINUOUS
 62
     7
100
AcDbBlockReference
  2
SW_NOTE_1
 10
4.8353339353
 20
2.0049168724
 30
0.0
  0
MTEXT
  5
BE
330
1F
100
AcDbEntity
  8
0
  6
CONTINUOUS
 62
     7
100
AcDbMText
 10
3.5531400086
 20
0.5200091997
 30
0.0
 40
0.0625
 41
0.0
 71
     1
 72
     1
  1
APPLICATION
  7
SLDTEXTSTYLE0
  0
MTEXT
  5
BF
330
1F
100
AcDbEntity
  8
0
  6
CONTINUOUS
 62
     7
100
AcDbMText
 10
4.1005607758
 20
0.7502454275
 30
0.0
 40
0.0625
 41
0.0
 71
     1
 72
     1
  1
USED ON
  7
SLDTEXTSTYLE0
  0
MTEXT
  5
C0
330
1F
100
AcDbEntity
  8
0
  6
CONTINUOUS
 62
     7
100
AcDbMText
 10
3.1040019536
 20
0.7492094783
 30
0.0
 40
0.0625
 41
0.0
 71
     1
 72
     1
  1
NEXT ASSY
  7
SLDTEXTSTYLE0
  0
MTEXT
  5
C1
330
1F
100
AcDbEntity
  8
0
  6
CONTINUOUS
 62
     7
100
AcDbMText
 10
1.3712489489
 20
1.2496672684
 30
0.0
 40
0.06
 41
0.0
 71
     1
 72
     1
  1
PROPRIETARY AND CONFIDENTIAL
  7
SLDTEXTSTYLE0
  0
INSERT
  5
CC
330
1F
100
AcDbEntity
  8
0
  6
CONTINUOUS
 62
     7
100
AcDbBlockReference
  2
SW_NOTE_2
 10
1.2226209074
 20
1.0313492921
 30
0.0
  0
MTEXT
  5
CD
330
1F
100
AcDbEntity
  8
0
  6
CONTINUOUS
 62
     7
100
AcDbMText
 10
1.7387909509
 20
0.3105864247
 30
0.0
 40
0.09375
 41
0.0
 71
     1
 72
     1
  1
5
  7
SLDTEXTSTYLE0
  0
MTEXT
  5
CE
330
1F
100
AcDbEntity
  8
0
  6
CONTINUOUS
 62
     7
100
AcDbMText
 10
3.723800327
 20
0.3137237518
 30
0.0
 40
0.09375
 41
0.0
 71
     1
 72
     1
  1
4
  7
SLDTEXTSTYLE0
  0
MTEXT
  5
CF
330
1F
100
AcDbEntity
  8
0
  6
CONTINUOUS
 62
     7
100
AcDbMText
 10
5.6324457277
 20
0.3116191842
 30
0.0
 40
0.09375
 41
0.0
 71
     1
 72
     1
  1
3
  7
SLDTEXTSTYLE0
  0
MTEXT
  5
D0
330
1F
100
AcDbEntity
  8
0
  6
CONTINUOUS
 62
     7
100
AcDbMText
 10
7.6059721724
 20
0.3124391351
 30
0.0
 40
0.09375
 41
0.0
 71
     1
 72
     1
  1
2
  7
SLDTEXTSTYLE0
  0
MTEXT
  5
D1
330
1F
100
AcDbEntity
  8
0
  6
CONTINUOUS
 62
     7
100
AcDbMText
 10
9.6619921328
 20
0.301372012
 30
0.0
 40
0.09375
 41
0.0
 71
     1
 72
     1
  1
1
  7
SLDTEXTSTYLE0
  0
LINE
  5
D2
330
1F
100
AcDbEntity
  8
0
  6
CONTINUOUS
 62
     7
100
AcDbLine
 10
3.7217410903
 20
3.2468672628
 30
0.0
 11
4.0006124813
 21
3.2468672628
 31
0.0
  0
LINE
  5
D3
330
1F
100
AcDbEntity
  8
0
  6
CONTINUOUS
 62
     7
100
AcDbLine
 10
3.5628565758
 20
3.2468672628
 30
0.0
 11
3.6692476519
 21
3.2468672628
 31
0.0
  0
LINE
  5
D4
330
1F
100
AcDbEntity
  8
0
  6
CONTINUOUS
 62
     7
100
AcDbLine
 10
3.6692476519
 20
4.27048931
 30
0.0
 11
3.5628565758
 21
4.27048931
 31
0.0
  0
LINE
  5
D5
330
1F
100
AcDbEntity
  8
0
  6
CONTINUOUS
 62
     7
100
AcDbLine
 10
4.0006124813
 20
4.27048931
 30
0.0
 11
3.7217410903
 21
4.27048931
 31
0.0
  0
LINE
  5
D6
330
1F
100
AcDbEntity
  8
0
  6
CONTINUOUS
 62
     7
100
AcDbLine
 10
4.0006124813
 20
3.2468672628
 30
0.0
 11
4.0156124813
 21
3.2618672628
 31
0.0
  0
LINE
  5
D7
330
1F
100
AcDbEntity
  8
0
  6
CONTINUOUS
 62
     7
100
AcDbLine
 10
4.0156124813
 20
4.25548931
 30
0.0
 11
4.0006124813
 21
4.27048931
 31
0.0
  0
ARC
  5
D8
330
1F
100
AcDbEntity
  8
0
  6
CONTINUOUS
 62
     7
100
AcDbCircle
 10
3.793919568
 20
4.1228515147
 30
0.0
 40
0.0196850393700787
100
AcDbArc
 50
90.0
 51
127.8442133817
  0
ARC
  5
D9
330
1F
100
AcDbEntity
  8
0
  6
CONTINUOUS
 62
     7
100
AcDbCircle
 10
3.9710849223
 20
4.1228515147
 30
0.0
 40
0.0196850393700788
100
AcDbArc
 50
52.2876782689
 51
90.0
  0
LINE
  5
DA
330
1F
100
AcDbEntity
  8
0
  6
CONTINUOUS
 62
     7
100
AcDbLine
 10
3.823447127
 20
3.7783633258
 30
0.0
 11
3.823447127
 21
3.738993247
 31
0.0
  0
LINE
  5
DB
330
1F
100
AcDbEntity
  8
0
  6
CONTINUOUS
 62
     7
100
AcDbLine
 10
3.9415573632
 20
3.738993247
 30
0.0
 11
3.9415573632
 21
3.7783633258
 31
0.0
  0
LINE
  5
DC
330
1F
100
AcDbEntity
  8
0
  6
CONTINUOUS
 62
     7
100
AcDbLine
 10
3.0904156309
 20
4.27048931
 30
0.0
 11
2.9840245548
 21
4.27048931
 31
0.0
  0
LINE
  5
DD
330
1F
100
AcDbEntity
  8
0
  6
CONTINUOUS
 62
     7
100
AcDbLine
 10
2.6526597254
 20
3.2468672628
 30
0.0
 11
3.0904156309
 21
3.2468672628
 31
0.0
  0
LINE
  5
DE
330
1F
100
AcDbEntity
  8
0
  6
CONTINUOUS
 62
     7
100
AcDbLine
 10
2.6376597254
 20
3.2618672628
 30
0.0
 11
2.6526597254
 21
3.2468672628
 31
0.0
  0
LINE
  5
DF
330
1F
100
AcDbEntity
  8
0
  6
CONTINUOUS
 62
     7
100
AcDbLine
 10
3.0904156309
 20
3.9998200187
 30
0.0
 11
3.1248644498
 21
3.9998200187
 31
0.0
  0
LINE
  5
E0
330
1F
100
AcDbEntity
  8
0
  6
CONTINUOUS
 62
     7
100
AcDbLine
 10
3.1543920089
 20
3.9998200187
 30
0.0
 11
3.1888408278
 21
3.9998200187
 31
0.0
  0
LINE
  5
E1
330
1F
100
AcDbEntity
  8
0
  6
CONTINUOUS
 62
     7
100
AcDbLine
 10
3.1888408278
 20
4.2163554517
 30
0.0
 11
3.1543920089
 21
4.2163554517
 31
0.0
  0
LINE
  5
E2
330
1F
100
AcDbEntity
  8
0
  6
CONTINUOUS
 62
     7
100
AcDbLine
 10
3.1248644498
 20
4.2163554517
 30
0.0
 11
3.0904156309
 21
4.2163554517
 31
0.0
  0
LINE
  5
E3
330
1F
100
AcDbEntity
  8
0
  6
CONTINUOUS
 62
     7
100
AcDbLine
 10
3.0904156309
 20
3.301001121
 30
0.0
 11
3.1248644498
 21
3.301001121
 31
0.0
  0
LINE
  5
E4
330
1F
100
AcDbEntity
  8
0
  6
CONTINUOUS
 62
     7
100
AcDbLine
 10
3.1543920089
 20
3.301001121
 30
0.0
 11
3.1888408278
 21
3.301001121
 31
0.0
  0
LINE
  5
E5
330
1F
100
AcDbEntity
  8
0
  6
CONTINUOUS
 62
     7
100
AcDbLine
 10
3.1888408278
 20
3.5175365541
 30
0.0
 11
3.1543920089
 21
3.5175365541
 31
0.0
  0
LINE
  5
E6
330
1F
100
AcDbEntity
  8
0
  6
CONTINUOUS
 62
     7
100
AcDbLine
 10
3.1248644498
 20
3.5175365541
 30
0.0
 11
3.0904156309
 21
3.5175365541
 31
0.0
  0
LINE
  5
E7
330
1F
100
AcDbEntity
  8
0
  6
CONTINUOUS
 62
     7
100
AcDbLine
 10
3.0904156309
 20
3.6504105699
 30
0.0
 11
3.1248644498
 21
3.6504105699
 31
0.0
  0
LINE
  5
E8
330
1F
100
AcDbEntity
  8
0
  6
CONTINUOUS
 62
     7
100
AcDbLine
 10
3.1543920089
 20
3.6504105699
 30
0.0
 11
3.1888408278
 21
3.6504105699
 31
0.0
  0
LINE
  5
E9
330
1F
100
AcDbEntity
  8
0
  6
CONTINUOUS
 62
     7
100
AcDbLine
 10
3.1888408278
 20
3.8669460029
 30
0.0
 11
3.1543920089
 21
3.8669460029
 31
0.0
  0
LINE
  5
EA
330
1F
100
AcDbEntity
  8
0
  6
CONTINUOUS
 62
     7
100
AcDbLine
 10
3.1248644498
 20
3.8669460029
 30
0.0
 11
3.0904156309
 21
3.8669460029
 31
0.0
  0
LINE
  5
EB
330
1F
100
AcDbEntity
  8
0
  6
CONTINUOUS
 62
     7
100
AcDbLine
 10
3.5628565758
 20
4.2163554517
 30
0.0
 11
3.5284077569
 21
4.2163554517
 31
0.0
  0
LINE
  5
EC
330
1F
100
AcDbEntity
  8
0
  6
CONTINUOUS
 62
     7
100
AcDbLine
 10
3.4988801979
 20
4.2163554517
 30
0.0
 11
3.464431379
 21
4.2163554517
 31
0.0
  0
LINE
  5
ED
330
1F
100
AcDbEntity
  8
0
  6
CONTINUOUS
 62
     7
100
AcDbLine
 10
3.464431379
 20
3.9998200187
 30
0.0
 11
3.4988801979
 21
3.9998200187
 31
0.0
  0
LINE
  5
EE
330
1F
100
AcDbEntity
  8
0
  6
CONTINUOUS
 62
     7
100
AcDbLine
 10
3.5284077569
 20
3.9998200187
 30
0.0
 11
3.5628565758
 21
3.9998200187
 31
0.0
  0
LINE
  5
EF
330
1F
100
AcDbEntity
  8
0
  6
CONTINUOUS
 62
     7
100
AcDbLine
 10
3.5628565758
 20
3.5175365541
 30
0.0
 11
3.5284077569
 21
3.5175365541
 31
0.0
  0
LINE
  5
F0
330
1F
100
AcDbEntity
  8
0
  6
CONTINUOUS
 62
     7
100
AcDbLine
 10
3.4988801979
 20
3.5175365541
 30
0.0
 11
3.464431379
 21
3.5175365541
 31
0.0
  0
LINE
  5
F1
330
1F
100
AcDbEntity
  8
0
  6
CONTINUOUS
 62
     7
100
AcDbLine
 10
3.464431379
 20
3.301001121
 30
0.0
 11
3.4988801979
 21
3.301001121
 31
0.0
  0
LINE
  5
F2
330
1F
100
AcDbEntity
  8
0
  6
CONTINUOUS
 62
     7
100
AcDbLine
 10
3.5284077569
 20
3.301001121
 30
0.0
 11
3.5628565758
 21
3.301001121
 31
0.0
  0
LINE
  5
F3
330
1F
100
AcDbEntity
  8
0
  6
CONTINUOUS
 62
     7
100
AcDbLine
 10
3.5628565758
 20
3.8669460029
 30
0.0
 11
3.5284077569
 21
3.8669460029
 31
0.0
  0
LINE
  5
F4
330
1F
100
AcDbEntity
  8
0
  6
CONTINUOUS
 62
     7
100
AcDbLine
 10
3.4988801979
 20
3.8669460029
 30
0.0
 11
3.464431379
 21
3.8669460029
 31
0.0
  0
LINE
  5
F5
330
1F
100
AcDbEntity
  8
0
  6
CONTINUOUS
 62
     7
100
AcDbLine
 10
3.464431379
 20
3.6504105699
 30
0.0
 11
3.4988801979
 21
3.6504105699
 31
0.0
  0
LINE
  5
F6
330
1F
100
AcDbEntity
  8
0
  6
CONTINUOUS
 62
     7
100
AcDbLine
 10
3.5284077569
 20
3.6504105699
 30
0.0
 11
3.5628565758
 21
3.6504105699
 31
0.0
  0
ARC
  5
F7
330
1F
100
AcDbEntity
  8
0
  6
CONTINUOUS
 62
     7
100
AcDbCircle
 10
3.1927778357
 20
4.2665523021
 30
0.0
 40
0.0039370078740157
100
AcDbArc
 50
90.0
 51
180.0
  0
ARC
  5
F8
330
1F
100
AcDbEntity
  8
0
  6
CONTINUOUS
 62
     7
100
AcDbCircle
 10
3.1927778357
 20
3.2508042706
 30
0.0
 40
0.0039370078740157
100
AcDbArc
 50
180.0
 51
270.0
  0
LINE
  5
F9
330
1F
100
AcDbEntity
  8
0
  6
CONTINUOUS
 62
     7
100
AcDbLine
 10
3.4604943711
 20
4.27048931
 30
0.0
 11
3.1927778357
 21
4.27048931
 31
0.0
  0
LINE
  5
FA
330
1F
100
AcDbEntity
  8
0
  6
CONTINUOUS
 62
     7
100
AcDbLine
 10
3.1927778357
 20
3.2468672628
 30
0.0
 11
3.4604943711
 21
3.2468672628
 31
0.0
  0
ARC
  5
FB
330
1F
100
AcDbEntity
  8
0
  6
CONTINUOUS
 62
     7
100
AcDbCircle
 10
3.4604943711
 20
4.2665523021
 30
0.0
 40
0.0039370078740162
100
AcDbArc
 50
0.0
 51
90.0
  0
ARC
  5
FC
330
1F
100
AcDbEntity
  8
0
  6
CONTINUOUS
 62
     7
100
AcDbCircle
 10
3.4604943711
 20
3.2508042706
 30
0.0
 40
0.0039370078740162
100
AcDbArc
 50
270.0
 51
0.0
  0
LINE
  5
FD
330
1F
100
AcDbEntity
  8
0
  6
CONTINUOUS
 62
     7
100
AcDbLine
 10
3.1543920089
 20
4.2434223809
 30
0.0
 11
3.1248644498
 21
4.2434223809
 31
0.0
  0
LINE
  5
FE
330
1F
100
AcDbEntity
  8
0
  6
CONTINUOUS
 62
     7
100
AcDbLine
 10
3.1248644498
 20
3.2739341919
 30
0.0
 11
3.1543920089
 21
3.2739341919
 31
0.0
  0
LINE
  5
FF
330
1F
100
AcDbEntity
  8
0
  6
CONTINUOUS
 62
     7
100
AcDbLine
 10
3.5284077569
 20
4.2434223809
 30
0.0
 11
3.4988801979
 21
4.2434223809
 31
0.0
  0
LINE
  5
100
330
1F
100
AcDbEntity
  8
0
  6
CONTINUOUS
 62
     7
100
AcDbLine
 10
3.4988801979
 20
3.2739341919
 30
0.0
 11
3.5284077569
 21
3.2739341919
 31
0.0
  0
LINE
  5
101
330
1F
100
AcDbEntity
  8
0
  6
CONTINUOUS
 62
     7
100
AcDbLine
 10
3.5628565758
 20
4.27048931
 30
0.0
 11
3.5628565758
 21
3.2468672628
 31
0.0
  0
SPLINE
  5
102
330
1F
100
AcDbEntity
  8
0
  6
CONTINUOUS
 62
     7
100
AcDbSpline
210
0.0
220
0.0
230
1.0
 70
     8
 71
     3
 72
    72
 73
    68
 74
     0
 42
0.00000001
 43
0.00000001
 40
-0.0312499999999997
 40
-0.0312499999999997
 40
0.0
 40
0.0
 40
0.0312500000000002
 40
0.0312500000000002
 40
0.0625000000000003
 40
0.0625000000000003
 40
0.0937500000000005
 40
0.0937500000000005
 40
0.1250000000000006
 40
0.1250000000000006
 40
0.1562500000000008
 40
0.1562500000000008
 40
0.1875000000000009
 40
0.1875000000000009
 40
0.2187500000000011
 40
0.2187500000000011
 40
0.2500000000000013
 40
0.2500000000000013
 40
0.2812500000000012
 40
0.2812500000000012
 40
0.3125000000000012
 40
0.3125000000000012
 40
0.3437500000000011
 40
0.3437500000000011
 40
0.375000000000001
 40
0.375000000000001
 40
0.4062500000000009
 40
0.4062500000000009
 40
0.4375000000000009
 40
0.4375000000000009
 40
0.4687500000000008
 40
0.4687500000000008
 40
0.4843750000000008
 40
0.4843750000000008
 40
0.5000000000000007
 40
0.5000000000000007
 40
0.5156250000000007
 40
0.5156250000000007
 40
0.5312500000000006
 40
0.5312500000000006
 40
0.5625000000000008
 40
0.5625000000000008
 40
0.6250000000000008
 40
0.6250000000000008
 40
0.6562500000000008
 40
0.6562500000000008
 40
0.6875000000000009
 40
0.6875000000000009
 40
0.7187500000000009
 40
0.7187500000000009
 40
0.7500000000000009
 40
0.7500000000000009
 40
0.7812500000000009
 40
0.7812500000000009
 40
0.8125000000000008
 40
0.8125000000000008
 40
0.8437500000000008
 40
0.8437500000000008
 40
0.8750000000000007
 40
0.8750000000000007
 40
0.9062500000000007
 40
0.9062500000000007
 40
0.9375000000000006
 40
0.9375000000000006
 40
0.9687500000000003
 40
0.9687500000000003
 40
1.0
 40
1.0
 40
1.03125
 40
1.03125
 10
3.890693785093843
 20
4.231610678620889
 30
0.0
 10
3.87431070513983
 20
4.231610678620889
 30
0.0
 10
3.866289801087321
 20
4.231233903566418
 30
0.0
 10
3.850575283341362
 20
4.229727265131829
 30
0.0
 10
3.842852142293207
 20
4.22857807261919
 30
0.0
 10
3.828538418207638
 20
4.225555318596783
 30
0.0
 10
3.821775647068899
 20
4.223650947634821
 30
0.0
 10
3.809490659139835
 20
4.219089061901816
 30
0.0
 10
3.804030311432072
 20
4.216466971940664
 30
0.0
 10
3.794378723533813
 20
4.210466271566874
 30
0.0
 10
3.790242449596764
 20
4.207103236581984
 30
0.0
 10
3.783472785823774
 20
4.199838346699655
 30
0.0
 10
3.780775655160483
 20
4.195870169940712
 30
0.0
 10
3.776786228421578
 20
4.187469874794426
 30
0.0
 10
3.775488583473655
 20
4.183062275796353
 30
0.0
 10
3.77412276739995
 20
4.173823026702336
 30
0.0
 10
3.774065504597766
 20
4.168969463138946
 30
0.0
 10
3.775076521941285
 20
4.159107698252777
 30
0.0
 10
3.776135987897624
 20
4.154068953199492
 30
0.0
 10
3.779283301828913
 20
4.143783769195965
 30
0.0
 10
3.781385900654033
 20
4.138518888758143
 30
0.0
 10
3.786488775775394
 20
4.128067200877584
 30
0.0
 10
3.789495004428704
 20
4.122848801158618
 30
0.0
 10
3.796438620041995
 20
4.112469722541454
 30
0.0
 10
3.800401697074826
 20
4.107277546225666
 30
0.0
 10
3.809281200111786
 20
4.097183170637008
 30
0.0
 10
3.814158314013569
 20
4.092313895718407
 30
0.0
 10
3.824975345601441
 20
4.083106731147144
 30
0.0
 10
3.83098691550364
 20
4.078723619511583
 30
0.0
 10
3.844033386026074
 20
4.071139032671255
 30
0.0
 10
3.851174878128087
 20
4.067878493451501
 30
0.0
 10
3.862612726469541
 20
4.064453885640782
 30
0.0
 10
3.866510851200275
 20
4.063565238564367
 30
0.0
 10
3.874497836098585
 20
4.062360759250303
 30
0.0
 10
3.878624549933276
 20
4.062049943456873
 30
0.0
 10
3.886745467171452
 20
4.062068569380874
 30
0.0
 10
3.890770998831238
 20
4.062387826011789
 30
0.0
 10
3.898755009819342
 20
4.063618323801543
 30
0.0
 10
3.902728685229534
 20
4.06453940184073
 30
0.0
 10
3.914143536057912
 20
4.068005292336792
 30
0.0
 10
3.921308812969752
 20
4.071307739749546
 30
0.0
 10
3.940805093063893
 20
4.082726840778133
 30
0.0
 10
3.951574786560815
 20
4.092429297003378
 30
0.0
 10
3.964736423285699
 20
4.107448957177278
 30
0.0
 10
3.968646411779127
 20
4.112578158747067
 30
0.0
 10
3.975600097854882
 20
4.122996497167442
 30
0.0
 10
3.978642557086524
 20
4.128299941328765
 30
0.0
 10
3.983714284911629
 20
4.138743160202125
 30
0.0
 10
3.985769115309714
 20
4.143918080116384
 30
0.0
 10
3.988887629146716
 20
4.154154252516942
 30
0.0
 10
3.989954157657234
 20
4.159251919493216
 30
0.0
 10
3.990944405971043
 20
4.169137136706927
 30
0.0
 10
3.990874820887513
 20
4.173903676697635
 30
0.0
 10
3.989506793010498
 20
4.183089564834896
 30
0.0
 10
3.988193874370329
 20
4.187540791724404
 30
0.0
 10
3.984183242906863
 20
4.195946259787456
 30
0.0
 10
3.981520135514963
 20
4.199853072503758
 30
0.0
 10
3.974751419319077
 20
4.207112316698278
 30
0.0
 10
3.970581051306106
 20
4.210495800535456
 30
0.0
 10
3.960986562764959
 20
4.216457538621012
 30
0.0
 10
3.95555698249094
 20
4.219068349024032
 30
0.0
 10
3.943329256812794
 20
4.223618294611606
 30
0.0
 10
3.936524470524588
 20
4.225539688025085
 30
0.0
 10
3.922243626073706
 20
4.22856206029291
 30
0.0
 10
3.914604504919451
 20
4.229706604378381
 30
0.0
 10
3.898762943214636
 20
4.231233077139319
 30
0.0
 10
3.890693785093843
 20
4.231610678620889
 30
0.0
 10
3.87431070513983
 20
4.231610678620889
 30
0.0
  0
SPLINE
  5
103
330
1F
100
AcDbEntity
  8
0
  6
CONTINUOUS
 62
     7
100
AcDbSpline
210
0.0
220
0.0
230
1.0
 70
     8
 71
     3
 72
    48
 73
    44
 74
     0
 42
0.00000001
 43
0.00000001
 40
-0.0624999999999998
 40
-0.0624999999999998
 40
0.0
 40
0.0
 40
0.0312499999999997
 40
0.0312499999999997
 40
0.0624999999999995
 40
0.0624999999999995
 40
0.0937499999999992
 40
0.0937499999999992
 40
0.1249999999999989
 40
0.1249999999999989
 40
0.1874999999999987
 40
0.1874999999999987
 40
0.2499999999999984
 40
0.2499999999999984
 40
0.3124999999999986
 40
0.3124999999999986
 40
0.3749999999999987
 40
0.3749999999999987
 40
0.4374999999999988
 40
0.4374999999999988
 40
0.4687499999999991
 40
0.4687499999999991
 40
0.4999999999999993
 40
0.4999999999999993
 40
0.5312499999999996
 40
0.5312499999999996
 40
0.5624999999999997
 40
0.5624999999999997
 40
0.5937499999999999
 40
0.5937499999999999
 40
0.625
 40
0.625
 40
0.7500000000000004
 40
0.7500000000000004
 40
0.8125000000000003
 40
0.8125000000000003
 40
0.8750000000000002
 40
0.8750000000000002
 40
0.9062500000000002
 40
0.9062500000000002
 40
0.9375000000000002
 40
0.9375000000000002
 40
1.0
 40
1.0
 40
1.03125
 40
1.03125
 10
3.873655502939072
 20
3.39786103794716
 30
0.0
 10
3.886925616205719
 20
3.39786103794716
 30
0.0
 10
3.891216292044838
 20
3.397366158968972
 30
0.0
 10
3.899560831773453
 20
3.395503835304625
 30
0.0
 10
3.903552747791335
 20
3.394138043415477
 30
0.0
 10
3.910895727719994
 20
3.390832957485052
 30
0.0
 10
3.914316403290274
 20
3.388863805313937
 30
0.0
 10
3.920446817784074
 20
3.384622265075429
 30
0.0
 10
3.923201073541077
 20
3.382331316423174
 30
0.0
 10
3.930662693551819
 20
3.375061210290446
 30
0.0
 10
3.934411361868592
 20
3.369863723756047
 30
0.0
 10
3.939705372428303
 20
3.359278847346967
 30
0.0
 10
3.941217848212389
 20
3.35389711849571
 30
0.0
 10
3.941795103766162
 20
3.343512061190485
 30
0.0
 10
3.940840081186974
 20
3.33841018433638
 30
0.0
 10
3.936252299632045
 20
3.329136239180511
 30
0.0
 10
3.932513719891993
 20
3.324788517993179
 30
0.0
 10
3.922245700574202
 20
3.317502846448983
 30
0.0
 10
3.915607358014617
 20
3.314497315963607
 30
0.0
 10
3.904166847959037
 20
3.311424044569903
 30
0.0
 10
3.900022572493981
 20
3.310617632666979
 30
0.0
 10
3.891607194001113
 20
3.309548109404788
 30
0.0
 10
3.887268329453943
 20
3.309266376208389
 30
0.0
 10
3.878449179986187
 20
3.309237366472232
 30
0.0
 10
3.874122591038137
 20
3.309487938621972
 30
0.0
 10
3.865629219972528
 20
3.310508151666833
 30
0.0
 10
3.861483369490784
 20
3.311284715701615
 30
0.0
 10
3.853782100542461
 20
3.313290260809177
 30
0.0
 10
3.850130743163748
 20
3.314544564494974
 30
0.0
 10
3.843548600341968
 20
3.317438115585312
 30
0.0
 10
3.840598474669984
 20
3.319074937891543
 30
0.0
 10
3.827436350350111
 20
3.328229925657767
 30
0.0
 10
3.822959367621625
 20
3.338114477494831
 30
0.0
 10
3.823754706446407
 20
3.353762252695564
 30
0.0
 10
3.82525789999739
 20
3.359164294349631
 30
0.0
 10
3.830527968059612
 20
3.369764943196265
 30
0.0
 10
3.834256435967964
 20
3.374960768452699
 30
0.0
 10
3.841726287701251
 20
3.382264597162707
 30
0.0
 10
3.844484492005134
 20
3.384565735550852
 30
0.0
 10
3.850624458585187
 20
3.388825549022296
 30
0.0
 10
3.854050745995801
 20
3.390802412432132
 30
0.0
 10
3.865067817415772
 20
3.395774404848155
 30
0.0
 10
3.873655502939072
 20
3.39786103794716
 30
0.0
 10
3.886925616205719
 20
3.39786103794716
 30
0.0
  0
LINE
  5
104
330
1F
100
AcDbEntity
  8
0
  6
CONTINUOUS
 62
     7
100
AcDbLine
 10
3.7217410903
 20
3.738993247
 30
0.0
 11
3.7217410903
 21
3.2468672628
 31
0.0
  0
LINE
  5
105
330
1F
100
AcDbEntity
  8
0
  6
CONTINUOUS
 62
     7
100
AcDbLine
 10
4.0006124813
 20
3.738993247
 30
0.0
 11
3.7217410903
 21
3.738993247
 31
0.0
  0
LINE
  5
106
330
1F
100
AcDbEntity
  8
0
  6
CONTINUOUS
 62
     7
100
AcDbLine
 10
4.0006124813
 20
3.7783633258
 30
0.0
 11
4.0006124813
 21
4.27048931
 31
0.0
  0
LINE
  5
107
330
1F
100
AcDbEntity
  8
0
  6
CONTINUOUS
 62
     7
100
AcDbLine
 10
4.0006124813
 20
3.2468672628
 30
0.0
 11
4.0006124813
 21
3.738993247
 31
0.0
  0
LINE
  5
108
330
1F
100
AcDbEntity
  8
0
  6
CONTINUOUS
 62
     7
100
AcDbLine
 10
4.0006124813
 20
3.7783633258
 30
0.0
 11
3.7217410903
 21
3.7783633258
 31
0.0
  0
LINE
  5
109
330
1F
100
AcDbEntity
  8
0
  6
CONTINUOUS
 62
     7
100
AcDbLine
 10
3.7217410903
 20
4.27048931
 30
0.0
 11
3.7217410903
 21
3.7783633258
 31
0.0
  0
LINE
  5
10A
330
1F
100
AcDbEntity
  8
0
  6
CONTINUOUS
 62
     7
100
AcDbLine
 10
3.6692476519
 20
4.2290384928
 30
0.0
 11
3.7217410903
 21
4.2290384928
 31
0.0
  0
LINE
  5
10B
330
1F
100
AcDbEntity
  8
0
  6
CONTINUOUS
 62
     7
100
AcDbLine
 10
3.7217410903
 20
3.28831808
 30
0.0
 11
3.6692476519
 21
3.28831808
 31
0.0
  0
LINE
  5
10C
330
1F
100
AcDbEntity
  8
0
  6
CONTINUOUS
 62
     7
100
AcDbLine
 10
3.6692476519
 20
3.2468672628
 30
0.0
 11
3.6692476519
 21
4.27048931
 31
0.0
  0
LINE
  5
10D
330
1F
100
AcDbEntity
  8
0
  6
CONTINUOUS
 62
     7
100
AcDbLine
 10
4.0156124813
 20
3.738993247
 30
0.0
 11
4.0156124813
 21
3.2618672628
 31
0.0
  0
LINE
  5
10E
330
1F
100
AcDbEntity
  8
0
  6
CONTINUOUS
 62
     7
100
AcDbLine
 10
4.0156124813
 20
4.25548931
 30
0.0
 11
4.0156124813
 21
3.7783633258
 31
0.0
  0
LINE
  5
10F
330
1F
100
AcDbEntity
  8
0
  6
CONTINUOUS
 62
     7
100
AcDbLine
 10
4.0006124813
 20
3.7783633258
 30
0.0
 11
4.0156124813
 21
3.7783633258
 31
0.0
  0
LINE
  5
110
330
1F
100
AcDbEntity
  8
0
  6
CONTINUOUS
 62
     7
100
AcDbLine
 10
4.0006124813
 20
3.738993247
 30
0.0
 11
4.0156124813
 21
3.738993247
 31
0.0
  0
LINE
  5
111
330
1F
100
AcDbEntity
  8
0
  6
CONTINUOUS
 62
     7
100
AcDbLine
 10
4.0156124813
 20
3.7783633258
 30
0.0
 11
4.0156124813
 21
3.738993247
 31
0.0
  0
LINE
  5
112
330
1F
100
AcDbEntity
  8
0
  6
CONTINUOUS
 62
     7
100
AcDbLine
 10
3.7217410903
 20
3.738993247
 30
0.0
 11
3.7217410903
 21
3.7783633258
 31
0.0
  0
LINE
  5
113
330
1F
100
AcDbEntity
  8
0
  6
CONTINUOUS
 62
     7
100
AcDbLine
 10
3.8825022451
 20
4.1425365541
 30
0.0
 11
3.9710849223
 21
4.1425365541
 31
0.0
  0
LINE
  5
114
330
1F
100
AcDbEntity
  8
0
  6
CONTINUOUS
 62
     7
100
AcDbLine
 10
3.793919568
 20
4.1425365541
 30
0.0
 11
3.8825022451
 21
4.1425365541
 31
0.0
  0
CIRCLE
  5
115
330
1F
100
AcDbEntity
  8
0
  6
CONTINUOUS
 62
     7
100
AcDbCircle
 10
2.7707699617
 20
4.062612751
 30
0.0
 40
0.0393700787401574
  0
LINE
  5
116
330
1F
100
AcDbEntity
  8
0
  6
CONTINUOUS
 62
     7
100
AcDbLine
 10
3.0904156309
 20
4.27048931
 30
0.0
 11
3.0904156309
 21
3.2468672628
 31
0.0
  0
SPLINE
  5
117
330
1F
100
AcDbEntity
  8
0
  6
CONTINUOUS
 62
     7
100
AcDbSpline
210
0.0
220
0.0
230
1.0
 70
     8
 71
     3
 72
    48
 73
    44
 74
     0
 42
0.00000001
 43
0.00000001
 40
-0.0624999999999999
 40
-0.0624999999999999
 40
0.0
 40
0.0
 40
0.0312500000000001
 40
0.0312500000000001
 40
0.0625000000000001
 40
0.0625000000000001
 40
0.0937500000000002
 40
0.0937500000000002
 40
0.1250000000000002
 40
0.1250000000000002
 40
0.1875000000000006
 40
0.1875000000000006
 40
0.250000000000001
 40
0.250000000000001
 40
0.3125000000000012
 40
0.3125000000000012
 40
0.3750000000000013
 40
0.3750000000000013
 40
0.4375000000000015
 40
0.4375000000000015
 40
0.4687500000000014
 40
0.4687500000000014
 40
0.5000000000000012
 40
0.5000000000000012
 40
0.5312500000000011
 40
0.5312500000000011
 40
0.5625000000000009
 40
0.5625000000000009
 40
0.5937500000000007
 40
0.5937500000000007
 40
0.6250000000000006
 40
0.6250000000000006
 40
0.7500000000000004
 40
0.7500000000000004
 40
0.8125000000000002
 40
0.8125000000000002
 40
0.875
 40
0.875
 40
0.90625
 40
0.90625
 40
0.9375000000000001
 40
0.9375000000000001
 40
1.0
 40
1.0
 40
1.03125
 40
1.03125
 10
2.779616703830033
 20
4.121667869060351
 30
0.0
 10
2.766346590563387
 20
4.12166786906035
 30
0.0
 10
2.762055914724267
 20
4.121177676532034
 30
0.0
 10
2.753711374995651
 20
4.119311866847612
 30
0.0
 10
2.749719458977771
 20
4.117936592229287
 30
0.0
 10
2.74237647904911
 20
4.11455176540357
 30
0.0
 10
2.738955803478831
 20
4.112510597578965
 30
0.0
 10
2.73282538898503
 20
4.108023599473144
 30
0.0
 10
2.730071133228028
 20
4.105559340714189
 30
0.0
 10
2.722609513217286
 20
4.097559383282505
 30
0.0
 10
2.718860844900512
 20
4.091608563838234
 30
0.0
 10
2.713566834340802
 20
4.078833595341774
 30
0.0
 10
2.712054358556716
 20
4.072011924221415
 30
0.0
 10
2.711477103002943
 20
4.058115705447839
 30
0.0
 10
2.712432125582132
 20
4.050901547452921
 30
0.0
 10
2.71701990713706
 20
4.037090465701512
 30
0.0
 10
2.720758486877113
 20
4.030228445400001
 30
0.0
 10
2.731026506194903
 20
4.018224142012037
 30
0.0
 10
2.737664848754489
 20
4.012983793422062
 30
0.0
 10
2.749105358810068
 20
4.007512653887821
 30
0.0
 10
2.753249634275124
 20
4.00605130094463
 30
0.0
 10
2.761665012767992
 20
4.004104124202088
 30
0.0
 10
2.766003877315161
 20
4.003585329584303
 30
0.0
 10
2.774823026782918
 20
4.003532088326442
 30
0.0
 10
2.779149615730967
 20
4.003993755686368
 30
0.0
 10
2.787642986796576
 20
4.005852674922246
 30
0.0
 10
2.791788837278321
 20
4.007261710612032
 30
0.0
 10
2.799490106226644
 20
4.010837427728347
 30
0.0
 10
2.803141463605357
 20
4.013048236042313
 30
0.0
 10
2.809723606427136
 20
4.018035079011151
 30
0.0
 10
2.81267373209912
 20
4.02080785560708
 30
0.0
 10
2.825835856418994
 20
4.035922928073142
 30
0.0
 10
2.83031283914748
 20
4.050878045959462
 30
0.0
 10
2.829517500322698
 20
4.071838872661525
 30
0.0
 10
2.828014306771715
 20
4.078691041773723
 30
0.0
 10
2.822744238709494
 20
4.091493557869964
 30
0.0
 10
2.819015770801141
 20
4.097446399409551
 30
0.0
 10
2.811545919067854
 20
4.10548712347566
 30
0.0
 10
2.808787714763971
 20
4.107963183287523
 30
0.0
 10
2.802647748183918
 20
4.11247072915516
 30
0.0
 10
2.799221460773304
 20
4.11452023686918
 30
0.0
 10
2.788204389353333
 20
4.119612921058488
 30
0.0
 10
2.779616703830033
 20
4.121667869060351
 30
0.0
 10
2.766346590563387
 20
4.12166786906035
 30
0.0
  0
LINE
  5
118
330
1F
100
AcDbEntity
  8
0
  6
CONTINUOUS
 62
     7
100
AcDbLine
 10
2.6526597254
 20
3.2468672628
 30
0.0
 11
2.6526597254
 21
4.2701106115
 31
0.0
  0
LINE
  5
119
330
1F
100
AcDbEntity
  8
0
  6
CONTINUOUS
 62
     7
100
AcDbLine
 10
2.6526597254
 20
4.2701106115
 30
0.0
 11
2.9315311165
 21
4.2701106115
 31
0.0
  0
LINE
  5
11A
330
1F
100
AcDbEntity
  8
0
  6
CONTINUOUS
 62
     7
100
AcDbLine
 10
2.9315311165
 20
3.5569066328
 30
0.0
 11
2.9840245548
 21
3.5569066328
 31
0.0
  0
LINE
  5
11B
330
1F
100
AcDbEntity
  8
0
  6
CONTINUOUS
 62
     7
100
AcDbLine
 10
2.9315311165
 20
4.2701106115
 30
0.0
 11
2.9315311165
 21
3.5569066328
 31
0.0
  0
LINE
  5
11C
330
1F
100
AcDbEntity
  8
0
  6
CONTINUOUS
 62
     7
100
AcDbLine
 10
2.9840245548
 20
3.5569066328
 30
0.0
 11
2.9840245548
 21
4.27048931
 31
0.0
  0
LINE
  5
11D
330
1F
100
AcDbEntity
  8
0
  6
CONTINUOUS
 62
     7
100
AcDbLine
 10
2.6376597254
 20
4.2550991687
 30
0.0
 11
2.6376597254
 21
3.2618672628
 31
0.0
  0
LINE
  5
11E
330
1F
100
AcDbEntity
  8
0
  6
CONTINUOUS
 62
     7
100
AcDbLine
 10
2.6526597254
 20
4.2701106115
 30
0.0
 11
2.6376597254
 21
4.2550991687
 31
0.0
  0
LINE
  5
11F
330
1F
100
AcDbEntity
  8
0
  6
CONTINUOUS
 62
     7
100
AcDbLine
 10
3.1888408278
 20
3.2508042706
 30
0.0
 11
3.1888408278
 21
4.2665523021
 31
0.0
  0
LINE
  5
120
330
1F
100
AcDbEntity
  8
0
  6
CONTINUOUS
 62
     7
100
AcDbLine
 10
3.464431379
 20
4.2665523021
 30
0.0
 11
3.464431379
 21
3.2508042706
 31
0.0
  0
LINE
  5
121
330
1F
100
AcDbEntity
  8
0
  6
CONTINUOUS
 62
     7
100
AcDbLine
 10
3.1543920089
 20
3.8543743321
 30
0.0
 11
3.1248644498
 21
3.8543743321
 31
0.0
  0
LINE
  5
122
330
1F
100
AcDbEntity
  8
0
  6
CONTINUOUS
 62
     7
100
AcDbLine
 10
3.1543920089
 20
3.8543743321
 30
0.0
 11
3.1543920089
 21
3.6629822407
 31
0.0
  0
LINE
  5
123
330
1F
100
AcDbEntity
  8
0
  6
CONTINUOUS
 62
     7
100
AcDbLine
 10
3.1543920089
 20
3.6629822407
 30
0.0
 11
3.1248644498
 21
3.6629822407
 31
0.0
  0
LINE
  5
124
330
1F
100
AcDbEntity
  8
0
  6
CONTINUOUS
 62
     7
100
AcDbLine
 10
3.1248644498
 20
3.8543743321
 30
0.0
 11
3.1248644498
 21
3.6629822407
 31
0.0
  0
LINE
  5
125
330
1F
100
AcDbEntity
  8
0
  6
CONTINUOUS
 62
     7
100
AcDbLine
 10
3.1543920089
 20
4.2037837809
 30
0.0
 11
3.1248644498
 21
4.2037837809
 31
0.0
  0
LINE
  5
126
330
1F
100
AcDbEntity
  8
0
  6
CONTINUOUS
 62
     7
100
AcDbLine
 10
3.1543920089
 20
4.2037837809
 30
0.0
 11
3.1543920089
 21
3.8543743321
 31
0.0
  0
LINE
  5
127
330
1F
100
AcDbEntity
  8
0
  6
CONTINUOUS
 62
     7
100
AcDbLine
 10
3.1248644498
 20
4.2037837809
 30
0.0
 11
3.1248644498
 21
3.8543743321
 31
0.0
  0
LINE
  5
128
330
1F
100
AcDbEntity
  8
0
  6
CONTINUOUS
 62
     7
100
AcDbLine
 10
3.1543920089
 20
3.3135727919
 30
0.0
 11
3.1248644498
 21
3.3135727919
 31
0.0
  0
LINE
  5
129
330
1F
100
AcDbEntity
  8
0
  6
CONTINUOUS
 62
     7
100
AcDbLine
 10
3.1543920089
 20
3.6629822407
 30
0.0
 11
3.1543920089
 21
3.3135727919
 31
0.0
  0
LINE
  5
12A
330
1F
100
AcDbEntity
  8
0
  6
CONTINUOUS
 62
     7
100
AcDbLine
 10
3.1248644498
 20
3.6629822407
 30
0.0
 11
3.1248644498
 21
3.3135727919
 31
0.0
  0
LINE
  5
12B
330
1F
100
AcDbEntity
  8
0
  6
CONTINUOUS
 62
     7
100
AcDbLine
 10
3.1543920089
 20
4.2434223809
 30
0.0
 11
3.1543920089
 21
4.2037837809
 31
0.0
  0
LINE
  5
12C
330
1F
100
AcDbEntity
  8
0
  6
CONTINUOUS
 62
     7
100
AcDbLine
 10
3.1248644498
 20
4.2434223809
 30
0.0
 11
3.1248644498
 21
4.2037837809
 31
0.0
  0
LINE
  5
12D
330
1F
100
AcDbEntity
  8
0
  6
CONTINUOUS
 62
     7
100
AcDbLine
 10
3.1543920089
 20
3.3135727919
 30
0.0
 11
3.1543920089
 21
3.2739341919
 31
0.0
  0
LINE
  5
12E
330
1F
100
AcDbEntity
  8
0
  6
CONTINUOUS
 62
     7
100
AcDbLine
 10
3.1248644498
 20
3.3135727919
 30
0.0
 11
3.1248644498
 21
3.2739341919
 31
0.0
  0
LINE
  5
12F
330
1F
100
AcDbEntity
  8
0
  6
CONTINUOUS
 62
     7
100
AcDbLine
 10
3.4988801979
 20
3.6629822407
 30
0.0
 11
3.5284077569
 21
3.6629822407
 31
0.0
  0
LINE
  5
130
330
1F
100
AcDbEntity
  8
0
  6
CONTINUOUS
 62
     7
100
AcDbLine
 10
3.4988801979
 20
3.8543743321
 30
0.0
 11
3.4988801979
 21
3.6629822407
 31
0.0
  0
LINE
  5
131
330
1F
100
AcDbEntity
  8
0
  6
CONTINUOUS
 62
     7
100
AcDbLine
 10
3.4988801979
 20
3.8543743321
 30
0.0
 11
3.5284077569
 21
3.8543743321
 31
0.0
  0
LINE
  5
132
330
1F
100
AcDbEntity
  8
0
  6
CONTINUOUS
 62
     7
100
AcDbLine
 10
3.5284077569
 20
3.8543743321
 30
0.0
 11
3.5284077569
 21
3.6629822407
 31
0.0
  0
LINE
  5
133
330
1F
100
AcDbEntity
  8
0
  6
CONTINUOUS
 62
     7
100
AcDbLine
 10
3.4988801979
 20
4.2037837809
 30
0.0
 11
3.5284077569
 21
4.2037837809
 31
0.0
  0
LINE
  5
134
330
1F
100
AcDbEntity
  8
0
  6
CONTINUOUS
 62
     7
100
AcDbLine
 10
3.4988801979
 20
4.2037837809
 30
0.0
 11
3.4988801979
 21
3.8543743321
 31
0.0
  0
LINE
  5
135
330
1F
100
AcDbEntity
  8
0
  6
CONTINUOUS
 62
     7
100
AcDbLine
 10
3.5284077569
 20
4.2037837809
 30
0.0
 11
3.5284077569
 21
3.8543743321
 31
0.0
  0
LINE
  5
136
330
1F
100
AcDbEntity
  8
0
  6
CONTINUOUS
 62
     7
100
AcDbLine
 10
3.4988801979
 20
3.3135727919
 30
0.0
 11
3.5284077569
 21
3.3135727919
 31
0.0
  0
LINE
  5
137
330
1F
100
AcDbEntity
  8
0
  6
CONTINUOUS
 62
     7
100
AcDbLine
 10
3.4988801979
 20
3.6629822407
 30
0.0
 11
3.4988801979
 21
3.3135727919
 31
0.0
  0
LINE
  5
138
330
1F
100
AcDbEntity
  8
0
  6
CONTINUOUS
 62
     7
100
AcDbLine
 10
3.5284077569
 20
3.6629822407
 30
0.0
 11
3.5284077569
 21
3.3135727919
 31
0.0
  0
LINE
  5
139
330
1F
100
AcDbEntity
  8
0
  6
CONTINUOUS
 62
     7
100
AcDbLine
 10
3.4988801979
 20
4.2434223809
 30
0.0
 11
3.4988801979
 21
4.2037837809
 31
0.0
  0
LINE
  5
13A
330
1F
100
AcDbEntity
  8
0
  6
CONTINUOUS
 62
     7
100
AcDbLine
 10
3.5284077569
 20
4.2434223809
 30
0.0
 11
3.5284077569
 21
4.2037837809
 31
0.0
  0
LINE
  5
13B
330
1F
100
AcDbEntity
  8
0
  6
CONTINUOUS
 62
     7
100
AcDbLine
 10
3.4988801979
 20
3.3135727919
 30
0.0
 11
3.4988801979
 21
3.2739341919
 31
0.0
  0
LINE
  5
13C
330
1F
100
AcDbEntity
  8
0
  6
CONTINUOUS
 62
     7
100
AcDbLine
 10
3.5284077569
 20
3.3135727919
 30
0.0
 11
3.5284077569
 21
3.2739341919
 31
0.0
  0
LINE
  5
13D
330
1F
100
AcDbEntity
  8
0
  6
CONTINUOUS
 62
     8
100
AcDbLine
 10
3.8825022451
 20
4.1228515147
 30
0.0
 11
3.789182008
 21
4.1228515147
 31
0.0
  0
LINE
  5
13E
330
1F
100
AcDbEntity
  8
0
  6
CONTINUOUS
 62
     8
100
AcDbLine
 10
3.9757562504
 20
4.1228515147
 30
0.0
 11
3.8825022451
 21
4.1228515147
 31
0.0
  0
LINE
  5
13F
330
1F
100
AcDbEntity
  8
0
  6
CONTINUOUS
 62
     8
100
AcDbLine
 10
3.1927778357
 20
4.27048931
 30
0.0
 11
3.1927778357
 21
3.2468672628
 31
0.0
  0
LINE
  5
140
330
1F
100
AcDbEntity
  8
0
  6
CONTINUOUS
 62
     8
100
AcDbLine
 10
3.4604943711
 20
3.2468672628
 30
0.0
 11
3.4604943711
 21
4.27048931
 31
0.0
  0
LINE
  5
141
330
1F
100
AcDbEntity
  8
0
  6
HIDDEN
 62
     7
100
AcDbLine
 10
4.0006124813
 20
3.7783633258
 30
0.0
 11
4.0006124813
 21
3.738993247
 31
0.0
  0
LINE
  5
142
330
1F
100
AcDbEntity
  8
0
  6
HIDDEN
 62
     7
100
AcDbLine
 10
3.8825022451
 20
4.0244263179
 30
0.0
 11
3.9907699617
 21
4.0244263179
 31
0.0
  0
LINE
  5
143
330
1F
100
AcDbEntity
  8
0
  6
HIDDEN
 62
     7
100
AcDbLine
 10
3.7742345286
 20
4.0244263179
 30
0.0
 11
3.8825022451
 21
4.0244263179
 31
0.0
  0
LINE
  5
144
330
1F
100
AcDbEntity
  8
0
  6
HIDDEN
 62
     7
100
AcDbLine
 10
3.9415140275
 20
3.4732452155
 30
0.0
 11
3.8234904628
 21
3.4732452155
 31
0.0
  0
LINE
  5
145
330
1F
100
AcDbEntity
  8
0
  6
HIDDEN
 62
     7
100
AcDbLine
 10
3.9218723239
 20
3.4535601762
 30
0.0
 11
3.8431321664
 21
3.4535601762
 31
0.0
  0
LINE
  5
146
330
1F
100
AcDbEntity
  8
0
  6
HIDDEN
 62
     7
100
AcDbLine
 10
3.8825022451
 20
4.0244263179
 30
0.0
 11
3.8825022451
 21
4.1425365541
 31
0.0
  0
LINE
  5
147
330
1F
100
AcDbEntity
  8
0
  6
HIDDEN
 62
     7
100
AcDbLine
 10
3.8332896467
 20
4.0244263179
 30
0.0
 11
3.8332896467
 21
4.1425365541
 31
0.0
  0
LINE
  5
148
330
1F
100
AcDbEntity
  8
0
  6
HIDDEN
 62
     7
100
AcDbLine
 10
3.9317148435
 20
4.0244263179
 30
0.0
 11
3.9317148435
 21
4.1425365541
 31
0.0
  0
POLYLINE
  5
149
330
1F
100
AcDbEntity
  8
0
  6
HIDDEN
 62
     7
100
AcDb2dPolyline
 66
     1
 10
0.0
 20
0.0
 30
0.0
  0
VERTEX
  5
366
330
149
100
AcDbEntity
  8
0
  6
HIDDEN
 62
     7
100
AcDbVertex
100
AcDb2dVertex
 10
2.8298250798
 20
4.062612751
 30
0.0
  0
VERTEX
  5
367
330
149
100
AcDbEntity
  8
0
  6
HIDDEN
 62
     7
100
AcDbVertex
100
AcDb2dVertex
 10
2.8294354394
 20
4.0693853942
 30
0.0
  0
VERTEX
  5
368
330
149
100
AcDbEntity
  8
0
  6
HIDDEN
 62
     7
100
AcDbVertex
100
AcDb2dVertex
 10
2.8283483649
 20
4.0757365633
 30
0.0
  0
SEQEND
  5
369
330
149
100
AcDbEntity
  8
0
  6
HIDDEN
 62
     7
  0
ARC
  5
14A
330
1F
100
AcDbEntity
  8
0
  6
HIDDEN
 62
     7
100
AcDbCircle
 10
2.7707699617
 20
4.062612751
 30
0.0
 40
0.0590551181102364
100
AcDbArc
 50
85.0559681861
 51
100.8764511536
  0
LINE
  5
14B
330
1F
100
AcDbEntity
  8
0
  6
HIDDEN
 62
     7
100
AcDbLine
 10
2.7215573632
 20
4.034199844
 30
0.0
 11
2.7707699617
 21
4.0057869371
 31
0.0
  0
LINE
  5
14C
330
1F
100
AcDbEntity
  8
0
  6
HIDDEN
 62
     7
100
AcDbLine
 10
2.7707699617
 20
4.0057869371
 30
0.0
 11
2.8199825601
 21
4.034199844
 31
0.0
  0
LINE
  5
14D
330
1F
100
AcDbEntity
  8
0
  6
HIDDEN
 62
     7
100
AcDbLine
 10
2.8199825601
 20
4.034199844
 30
0.0
 11
2.8199825601
 21
4.0910256579
 31
0.0
  0
LINE
  5
14E
330
1F
100
AcDbEntity
  8
0
  6
HIDDEN
 62
     7
100
AcDbLine
 10
2.7215573632
 20
4.0910256579
 30
0.0
 11
2.7215573632
 21
4.034199844
 31
0.0
  0
LINE
  5
14F
330
1F
100
AcDbEntity
  8
0
  6
HIDDEN
 62
     7
100
AcDbLine
 10
2.7707699617
 20
4.1194385648
 30
0.0
 11
2.7215573632
 21
4.0910256579
 31
0.0
  0
LINE
  5
150
330
1F
100
AcDbEntity
  8
0
  6
HIDDEN
 62
     7
100
AcDbLine
 10
2.8199825601
 20
4.0910256579
 30
0.0
 11
2.7707699617
 21
4.1194385648
 31
0.0
  0
CIRCLE
  5
151
330
1F
100
AcDbEntity
  8
0
  6
HIDDEN
 62
     7
100
AcDbCircle
 10
2.7707699617
 20
4.062612751
 30
0.0
 40
0.1082677165354324
  0
CIRCLE
  5
152
330
1F
100
AcDbEntity
  8
0
  6
HIDDEN
 62
     7
100
AcDbCircle
 10
2.7707699617
 20
4.062612751
 30
0.0
 40
0.0885826771653537
  0
ARC
  5
153
330
1F
100
AcDbEntity
  8
0
  6
HIDDEN
 62
     7
100
AcDbCircle
 10
2.6376597254
 20
3.6602530895
 30
0.0
 40
0.2938713910761148
100
AcDbArc
 50
270.0
 51
0.0
  0
LINE
  5
154
330
1F
100
AcDbEntity
  8
0
  6
HIDDEN
 62
     7
100
AcDbLine
 10
2.6526597254
 20
3.6622416823
 30
0.0
 11
2.9315311165
 21
3.6622416823
 31
0.0
  0
SPLINE
  5
155
330
1F
100
AcDbEntity
  8
0
  6
HIDDEN
 62
     7
100
AcDbSpline
210
0.0
220
0.0
230
1.0
 70
     8
 71
     3
 72
     8
 73
     4
 74
     0
 42
0.00000001
 43
0.00000001
 40
0.0
 40
0.0
 40
0.0
 40
0.0
 40
1.0
 40
1.0
 40
1.0
 40
1.0
 10
2.652659725431797
 20
3.662241682345465
 30
0.0
 10
2.647666777758822
 20
3.657145776465797
 30
0.0
 10
2.642665765386802
 20
3.652057504807259
 30
0.0
 10
2.637659725431797
 20
3.646974327171485
 30
0.0
  0
LINE
  5
156
330
1F
100
AcDbEntity
  8
0
  6
HIDDEN
 62
     7
100
AcDbLine
 10
2.9315311165
 20
3.8551148904
 30
0.0
 11
2.6526597254
 21
3.8551148904
 31
0.0
  0
SPLINE
  5
157
330
1F
100
AcDbEntity
  8
0
  6
HIDDEN
 62
     7
100
AcDbSpline
210
0.0
220
0.0
230
1.0
 70
     8
 71
     3
 72
     8
 73
     4
 74
     0
 42
0.00000001
 43
0.00000001
 40
0.0
 40
0.0
 40
0.0
 40
0.0
 40
1.0
 40
1.0
 40
1.0
 40
1.0
 10
2.637659725431797
 20
3.87038224561261
 30
0.0
 10
2.642665787979325
 20
3.865299045036186
 30
0.0
 10
2.647666892688102
 20
3.860210679019092
 30
0.0
 10
2.652659725431797
 20
3.855114890438629
 30
0.0
  0
LINE
  5
158
330
1F
100
AcDbEntity
  8
0
  6
HIDDEN
 62
     7
100
AcDbLine
 10
3.2872660246
 20
4.2163554517
 30
0.0
 11
3.2872660246
 21
3.9998200187
 31
0.0
  0
LINE
  5
159
330
1F
100
AcDbEntity
  8
0
  6
HIDDEN
 62
     7
100
AcDbLine
 10
3.2833290168
 20
3.8669018506
 30
0.0
 11
3.2833290168
 21
3.6504547222
 31
0.0
  0
LINE
  5
15A
330
1F
100
AcDbEntity
  8
0
  6
HIDDEN
 62
     7
100
AcDbLine
 10
3.2872660246
 20
3.5175365541
 30
0.0
 11
3.2872660246
 21
3.301001121
 31
0.0
  0
LINE
  5
15B
330
1F
100
AcDbEntity
  8
0
  6
HIDDEN
 62
     7
100
AcDbLine
 10
3.2833290168
 20
3.8669018506
 30
0.0
 11
3.2833290168
 21
3.6504547222
 31
0.0
  0
LINE
  5
15C
330
1F
100
AcDbEntity
  8
0
  6
HIDDEN
 62
     7
100
AcDbLine
 10
3.2872660246
 20
3.8630089951
 30
0.0
 11
3.2872660246
 21
3.6543475777
 31
0.0
  0
LINE
  5
15D
330
1F
100
AcDbEntity
  8
0
  6
HIDDEN
 62
     7
100
AcDbLine
 10
3.3660061821
 20
4.2163554517
 30
0.0
 11
3.3660061821
 21
3.9998200187
 31
0.0
  0
LINE
  5
15E
330
1F
100
AcDbEntity
  8
0
  6
HIDDEN
 62
     7
100
AcDbLine
 10
3.36994319
 20
3.8669018506
 30
0.0
 11
3.36994319
 21
3.6504547222
 31
0.0
  0
LINE
  5
15F
330
1F
100
AcDbEntity
  8
0
  6
HIDDEN
 62
     7
100
AcDbLine
 10
3.3660061821
 20
3.5175365541
 30
0.0
 11
3.3660061821
 21
3.301001121
 31
0.0
  0
LINE
  5
160
330
1F
100
AcDbEntity
  8
0
  6
HIDDEN
 62
     7
100
AcDbLine
 10
3.3660061821
 20
3.8630089951
 30
0.0
 11
3.3660061821
 21
3.6543475777
 31
0.0
  0
LINE
  5
161
330
1F
100
AcDbEntity
  8
0
  6
HIDDEN
 62
     7
100
AcDbLine
 10
3.36994319
 20
3.8669018506
 30
0.0
 11
3.36994319
 21
3.6504547222
 31
0.0
  0
LINE
  5
162
330
1F
100
AcDbEntity
  8
0
  6
HIDDEN
 62
     7
100
AcDbLine
 10
3.1543920089
 20
4.2037837809
 30
0.0
 11
3.1248644498
 21
4.2037837809
 31
0.0
  0
LINE
  5
163
330
1F
100
AcDbEntity
  8
0
  6
HIDDEN
 62
     7
100
AcDbLine
 10
3.1543920089
 20
3.3135727919
 30
0.0
 11
3.1248644498
 21
3.3135727919
 31
0.0
  0
LINE
  5
164
330
1F
100
AcDbEntity
  8
0
  6
HIDDEN
 62
     7
100
AcDbLine
 10
3.1543920089
 20
3.6629822407
 30
0.0
 11
3.1248644498
 21
3.6629822407
 31
0.0
  0
LINE
  5
165
330
1F
100
AcDbEntity
  8
0
  6
HIDDEN
 62
     7
100
AcDbLine
 10
3.1543920089
 20
3.8543743321
 30
0.0
 11
3.1248644498
 21
3.8543743321
 31
0.0
  0
LINE
  5
166
330
1F
100
AcDbEntity
  8
0
  6
HIDDEN
 62
     7
100
AcDbLine
 10
3.4988801979
 20
4.2037837809
 30
0.0
 11
3.5284077569
 21
4.2037837809
 31
0.0
  0
LINE
  5
167
330
1F
100
AcDbEntity
  8
0
  6
HIDDEN
 62
     7
100
AcDbLine
 10
3.4988801979
 20
3.3135727919
 30
0.0
 11
3.5284077569
 21
3.3135727919
 31
0.0
  0
LINE
  5
168
330
1F
100
AcDbEntity
  8
0
  6
HIDDEN
 62
     7
100
AcDbLine
 10
3.4988801979
 20
3.6629822407
 30
0.0
 11
3.5284077569
 21
3.6629822407
 31
0.0
  0
LINE
  5
169
330
1F
100
AcDbEntity
  8
0
  6
HIDDEN
 62
     7
100
AcDbLine
 10
3.4988801979
 20
3.8543743321
 30
0.0
 11
3.5284077569
 21
3.8543743321
 31
0.0
  0
LINE
  5
16A
330
1F
100
AcDbEntity
  8
0
  6
HIDDEN
 62
     7
100
AcDbLine
 10
3.9907699617
 20
4.0244263179
 30
0.0
 11
3.9907699617
 21
4.1702993711
 31
0.0
  0
LINE
  5
16B
330
1F
100
AcDbEntity
  8
0
  6
HIDDEN
 62
     7
100
AcDbLine
 10
3.7742345286
 20
4.1704074372
 30
0.0
 11
3.7742345286
 21
4.0244263179
 31
0.0
  0
LINE
  5
16C
330
1F
100
AcDbEntity
  8
0
  6
HIDDEN
 62
     7
100
AcDbLine
 10
3.823447127
 20
4.0244263179
 30
0.0
 11
3.823447127
 21
3.7783633258
 31
0.0
  0
LINE
  5
16D
330
1F
100
AcDbEntity
  8
0
  6
HIDDEN
 62
     7
100
AcDbLine
 10
3.9415573632
 20
3.7783633258
 30
0.0
 11
3.9415573632
 21
4.0244263179
 31
0.0
  0
LINE
  5
16E
330
1F
100
AcDbEntity
  8
0
  6
HIDDEN
 62
     7
100
AcDbLine
 10
3.823447127
 20
3.738993247
 30
0.0
 11
3.823447127
 21
3.3469342279
 31
0.0
  0
LINE
  5
16F
330
1F
100
AcDbEntity
  8
0
  6
HIDDEN
 62
     7
100
AcDbLine
 10
3.9415573632
 20
3.3469527593
 30
0.0
 11
3.9415573632
 21
3.738993247
 31
0.0
  0
LINE
  5
170
330
1F
100
AcDbEntity
  8
0
  6
HIDDEN
 62
     7
100
AcDbLine
 10
4.0006124813
 20
3.6602530895
 30
0.0
 11
4.0156124813
 21
3.6452530895
 31
0.0
  0
LINE
  5
171
330
1F
100
AcDbEntity
  8
0
  6
HIDDEN
 62
     7
100
AcDbLine
 10
4.0156124813
 20
3.8721034832
 30
0.0
 11
4.0006124813
 21
3.8571034832
 31
0.0
  0
LINE
  5
172
330
1F
100
AcDbEntity
  8
0
  6
HIDDEN
 62
     7
100
AcDbLine
 10
3.6692476519
 20
3.8571034832
 30
0.0
 11
3.5628565758
 21
3.8571034832
 31
0.0
  0
LINE
  5
173
330
1F
100
AcDbEntity
  8
0
  6
HIDDEN
 62
     7
100
AcDbLine
 10
3.5628565758
 20
3.6602530895
 30
0.0
 11
3.6692476519
 21
3.6602530895
 31
0.0
  0
LINE
  5
174
330
1F
100
AcDbEntity
  8
0
  6
HIDDEN
 62
     7
100
AcDbLine
 10
3.7217410903
 20
3.6602530895
 30
0.0
 11
4.0006124813
 21
3.6602530895
 31
0.0
  0
LINE
  5
175
330
1F
100
AcDbEntity
  8
0
  6
HIDDEN
 62
     7
100
AcDbLine
 10
4.0006124813
 20
3.8571034832
 30
0.0
 11
3.7217410903
 21
3.8571034832
 31
0.0
  0
LINE
  5
176
330
1F
100
AcDbEntity
  8
0
  6
HIDDEN
 62
     7
100
AcDbLine
 10
3.9907699617
 20
4.0244263179
 30
0.0
 11
3.9907699617
 21
4.1228515147
 31
0.0
  0
LINE
  5
177
330
1F
100
AcDbEntity
  8
0
  6
HIDDEN
 62
     7
100
AcDbLine
 10
3.7742345286
 20
4.1228515147
 30
0.0
 11
3.7742345286
 21
4.0244263179
 31
0.0
  0
ARC
  5
178
330
1F
100
AcDbEntity
  8
0
  6
HIDDEN
 62
     7
100
AcDbCircle
 10
3.793919568
 20
4.1228515147
 30
0.0
 40
0.0196850393700787
100
AcDbArc
 50
127.8442133817
 51
180.0
  0
ARC
  5
179
330
1F
100
AcDbEntity
  8
0
  6
HIDDEN
 62
     7
100
AcDbCircle
 10
3.9710849223
 20
4.1228515147
 30
0.0
 40
0.0196850393700791
100
AcDbArc
 50
0.0
 51
52.2876782689
  0
LINE
  5
17A
330
1F
100
AcDbEntity
  8
0
  6
HIDDEN
 62
     7
100
AcDbLine
 10
3.823447127
 20
4.0244263179
 30
0.0
 11
3.823447127
 21
3.7783633258
 31
0.0
  0
LINE
  5
17B
330
1F
100
AcDbEntity
  8
0
  6
HIDDEN
 62
     7
100
AcDbLine
 10
3.823447127
 20
3.738993247
 30
0.0
 11
3.823447127
 21
3.4732452155
 31
0.0
  0
LINE
  5
17C
330
1F
100
AcDbEntity
  8
0
  6
HIDDEN
 62
     7
100
AcDbLine
 10
3.9415573632
 20
3.4732452155
 30
0.0
 11
3.9415573632
 21
3.738993247
 31
0.0
  0
LINE
  5
17D
330
1F
100
AcDbEntity
  8
0
  6
HIDDEN
 62
     7
100
AcDbLine
 10
3.9415573632
 20
3.7783633258
 30
0.0
 11
3.9415573632
 21
4.0244263179
 31
0.0
  0
ARC
  5
17E
330
1F
100
AcDbEntity
  8
0
  6
HIDDEN
 62
     7
100
AcDbCircle
 10
3.9218723239
 20
3.4732452155
 30
0.0
 40
0.0196850393700787
100
AcDbArc
 50
270.0
 51
0.0
  0
ARC
  5
17F
330
1F
100
AcDbEntity
  8
0
  6
HIDDEN
 62
     7
100
AcDbCircle
 10
3.8431321664
 20
3.4732452155
 30
0.0
 40
0.0196850393700787
100
AcDbArc
 50
180.0
 51
270.0
  0
LINE
  5
180
330
1F
100
AcDbEntity
  8
0
  6
HIDDEN
 62
     7
100
AcDbLine
 10
2.9840245548
 20
3.6602530895
 30
0.0
 11
3.0904156309
 21
3.6602530895
 31
0.0
  0
LINE
  5
181
330
1F
100
AcDbEntity
  8
0
  6
HIDDEN
 62
     7
100
AcDbLine
 10
3.0904156309
 20
3.8571034832
 30
0.0
 11
2.9840245548
 21
3.8571034832
 31
0.0
  0
LINE
  5
182
330
1F
100
AcDbEntity
  8
0
  6
HIDDEN
 62
     7
100
AcDbLine
 10
3.1248644498
 20
3.9998200187
 30
0.0
 11
3.1543920089
 21
3.9998200187
 31
0.0
  0
LINE
  5
183
330
1F
100
AcDbEntity
  8
0
  6
HIDDEN
 62
     7
100
AcDbLine
 10
3.1888408278
 20
3.9998200187
 30
0.0
 11
3.2872660246
 21
3.9998200187
 31
0.0
  0
LINE
  5
184
330
1F
100
AcDbEntity
  8
0
  6
HIDDEN
 62
     7
100
AcDbLine
 10
3.2872660246
 20
4.2163554517
 30
0.0
 11
3.1888408278
 21
4.2163554517
 31
0.0
  0
LINE
  5
185
330
1F
100
AcDbEntity
  8
0
  6
HIDDEN
 62
     7
100
AcDbLine
 10
3.1543920089
 20
4.2163554517
 30
0.0
 11
3.1248644498
 21
4.2163554517
 31
0.0
  0
LINE
  5
186
330
1F
100
AcDbEntity
  8
0
  6
HIDDEN
 62
     7
100
AcDbLine
 10
3.1248644498
 20
3.301001121
 30
0.0
 11
3.1543920089
 21
3.301001121
 31
0.0
  0
LINE
  5
187
330
1F
100
AcDbEntity
  8
0
  6
HIDDEN
 62
     7
100
AcDbLine
 10
3.1888408278
 20
3.301001121
 30
0.0
 11
3.2872660246
 21
3.301001121
 31
0.0
  0
LINE
  5
188
330
1F
100
AcDbEntity
  8
0
  6
HIDDEN
 62
     7
100
AcDbLine
 10
3.2872660246
 20
3.5175365541
 30
0.0
 11
3.1888408278
 21
3.5175365541
 31
0.0
  0
LINE
  5
189
330
1F
100
AcDbEntity
  8
0
  6
HIDDEN
 62
     7
100
AcDbLine
 10
3.1543920089
 20
3.5175365541
 30
0.0
 11
3.1248644498
 21
3.5175365541
 31
0.0
  0
LINE
  5
18A
330
1F
100
AcDbEntity
  8
0
  6
HIDDEN
 62
     7
100
AcDbLine
 10
3.1248644498
 20
3.6504105699
 30
0.0
 11
3.1543920089
 21
3.6504105699
 31
0.0
  0
LINE
  5
18B
330
1F
100
AcDbEntity
  8
0
  6
HIDDEN
 62
     7
100
AcDbLine
 10
3.1888408278
 20
3.6504105699
 30
0.0
 11
3.2833290168
 21
3.6504105699
 31
0.0
  0
LINE
  5
18C
330
1F
100
AcDbEntity
  8
0
  6
HIDDEN
 62
     7
100
AcDbLine
 10
3.2833290168
 20
3.8669460029
 30
0.0
 11
3.1888408278
 21
3.8669460029
 31
0.0
  0
LINE
  5
18D
330
1F
100
AcDbEntity
  8
0
  6
HIDDEN
 62
     7
100
AcDbLine
 10
3.1543920089
 20
3.8669460029
 30
0.0
 11
3.1248644498
 21
3.8669460029
 31
0.0
  0
ARC
  5
18E
330
1F
100
AcDbEntity
  8
0
  6
HIDDEN
 62
     7
100
AcDbCircle
 10
3.2833290168
 20
3.8630089951
 30
0.0
 40
0.0039370078740162
100
AcDbArc
 50
0.0
 51
90.0
  0
ARC
  5
18F
330
1F
100
AcDbEntity
  8
0
  6
HIDDEN
 62
     7
100
AcDbCircle
 10
3.2833290168
 20
3.6543475777
 30
0.0
 40
0.0039370078740157
100
AcDbArc
 50
270.0
 51
0.0
  0
LINE
  5
190
330
1F
100
AcDbEntity
  8
0
  6
HIDDEN
 62
     7
100
AcDbLine
 10
3.5284077569
 20
4.2163554517
 30
0.0
 11
3.4988801979
 21
4.2163554517
 31
0.0
  0
LINE
  5
191
330
1F
100
AcDbEntity
  8
0
  6
HIDDEN
 62
     7
100
AcDbLine
 10
3.464431379
 20
4.2163554517
 30
0.0
 11
3.3660061821
 21
4.2163554517
 31
0.0
  0
LINE
  5
192
330
1F
100
AcDbEntity
  8
0
  6
HIDDEN
 62
     7
100
AcDbLine
 10
3.3660061821
 20
3.9998200187
 30
0.0
 11
3.464431379
 21
3.9998200187
 31
0.0
  0
LINE
  5
193
330
1F
100
AcDbEntity
  8
0
  6
HIDDEN
 62
     7
100
AcDbLine
 10
3.4988801979
 20
3.9998200187
 30
0.0
 11
3.5284077569
 21
3.9998200187
 31
0.0
  0
LINE
  5
194
330
1F
100
AcDbEntity
  8
0
  6
HIDDEN
 62
     7
100
AcDbLine
 10
3.5284077569
 20
3.5175365541
 30
0.0
 11
3.4988801979
 21
3.5175365541
 31
0.0
  0
LINE
  5
195
330
1F
100
AcDbEntity
  8
0
  6
HIDDEN
 62
     7
100
AcDbLine
 10
3.464431379
 20
3.5175365541
 30
0.0
 11
3.3660061821
 21
3.5175365541
 31
0.0
  0
LINE
  5
196
330
1F
100
AcDbEntity
  8
0
  6
HIDDEN
 62
     7
100
AcDbLine
 10
3.3660061821
 20
3.301001121
 30
0.0
 11
3.464431379
 21
3.301001121
 31
0.0
  0
LINE
  5
197
330
1F
100
AcDbEntity
  8
0
  6
HIDDEN
 62
     7
100
AcDbLine
 10
3.4988801979
 20
3.301001121
 30
0.0
 11
3.5284077569
 21
3.301001121
 31
0.0
  0
ARC
  5
198
330
1F
100
AcDbEntity
  8
0
  6
HIDDEN
 62
     7
100
AcDbCircle
 10
3.36994319
 20
3.6543475777
 30
0.0
 40
0.0039370078740157
100
AcDbArc
 50
180.0
 51
270.0
  0
ARC
  5
199
330
1F
100
AcDbEntity
  8
0
  6
HIDDEN
 62
     7
100
AcDbCircle
 10
3.36994319
 20
3.8630089951
 30
0.0
 40
0.0039370078740162
100
AcDbArc
 50
90.0
 51
180.0
  0
LINE
  5
19A
330
1F
100
AcDbEntity
  8
0
  6
HIDDEN
 62
     7
100
AcDbLine
 10
3.5284077569
 20
3.8669460029
 30
0.0
 11
3.4988801979
 21
3.8669460029
 31
0.0
  0
LINE
  5
19B
330
1F
100
AcDbEntity
  8
0
  6
HIDDEN
 62
     7
100
AcDbLine
 10
3.464431379
 20
3.8669460029
 30
0.0
 11
3.36994319
 21
3.8669460029
 31
0.0
  0
LINE
  5
19C
330
1F
100
AcDbEntity
  8
0
  6
HIDDEN
 62
     7
100
AcDbLine
 10
3.36994319
 20
3.6504105699
 30
0.0
 11
3.464431379
 21
3.6504105699
 31
0.0
  0
LINE
  5
19D
330
1F
100
AcDbEntity
  8
0
  6
HIDDEN
 62
     7
100
AcDbLine
 10
3.4988801979
 20
3.6504105699
 30
0.0
 11
3.5284077569
 21
3.6504105699
 31
0.0
  0
LINE
  5
19E
330
1F
100
AcDbEntity
  8
0
  6
HIDDEN
 62
     7
100
AcDbLine
 10
3.1888408278
 20
3.5815129321
 30
0.0
 11
3.464431379
 21
3.5815129321
 31
0.0
  0
LINE
  5
19F
330
1F
100
AcDbEntity
  8
0
  6
HIDDEN
 62
     7
100
AcDbLine
 10
3.464431379
 20
3.9358436407
 30
0.0
 11
3.1888408278
 21
3.9358436407
 31
0.0
  0
LINE
  5
1A0
330
1F
100
AcDbEntity
  8
0
  6
HIDDEN
 62
     7
100
AcDbLine
 10
3.1248644498
 20
3.5815129321
 30
0.0
 11
3.1543920089
 21
3.5815129321
 31
0.0
  0
LINE
  5
1A1
330
1F
100
AcDbEntity
  8
0
  6
HIDDEN
 62
     7
100
AcDbLine
 10
3.1543920089
 20
3.9358436407
 30
0.0
 11
3.1248644498
 21
3.9358436407
 31
0.0
  0
LINE
  5
1A2
330
1F
100
AcDbEntity
  8
0
  6
HIDDEN
 62
     7
100
AcDbLine
 10
3.4988801979
 20
3.5815129321
 30
0.0
 11
3.5284077569
 21
3.5815129321
 31
0.0
  0
LINE
  5
1A3
330
1F
100
AcDbEntity
  8
0
  6
HIDDEN
 62
     7
100
AcDbLine
 10
3.5284077569
 20
3.9358436407
 30
0.0
 11
3.4988801979
 21
3.9358436407
 31
0.0
  0
LINE
  5
1A4
330
1F
100
AcDbEntity
  8
0
  6
HIDDEN
 62
     7
100
AcDbLine
 10
3.9907258093
 20
4.1228515147
 30
0.0
 11
3.7742786809
 21
4.1228515147
 31
0.0
  0
LINE
  5
1A5
330
1F
100
AcDbEntity
  8
0
  6
HIDDEN
 62
     7
100
AcDbLine
 10
3.1927778357
 20
3.7586782864
 30
0.0
 11
3.1927778357
 21
4.27048931
 31
0.0
  0
LINE
  5
1A6
330
1F
100
AcDbEntity
  8
0
  6
HIDDEN
 62
     7
100
AcDbLine
 10
3.1927778357
 20
3.2468672628
 30
0.0
 11
3.1927778357
 21
3.7586782864
 31
0.0
  0
LINE
  5
1A7
330
1F
100
AcDbEntity
  8
0
  6
HIDDEN
 62
     7
100
AcDbLine
 10
3.4604943711
 20
3.7586782864
 30
0.0
 11
3.4604943711
 21
3.2468672628
 31
0.0
  0
LINE
  5
1A8
330
1F
100
AcDbEntity
  8
0
  6
HIDDEN
 62
     7
100
AcDbLine
 10
3.4604943711
 20
4.27048931
 30
0.0
 11
3.4604943711
 21
3.7586782864
 31
0.0
  0
ARC
  5
1A9
330
1F
100
AcDbEntity
  8
0
  6
CONTINUOUS
 62
     7
100
AcDbCircle
 10
7.8583674646
 20
4.1228515147
 30
0.0
 40
0.0196850393700787
100
AcDbArc
 50
90.0
 51
180.0
  0
LINE
  5
1AA
330
1F
100
AcDbEntity
  8
0
  6
CONTINUOUS
 62
     7
100
AcDbLine
 10
7.8386824252
 20
4.1228515147
 30
0.0
 11
7.8386824252
 21
4.0620590468
 31
0.0
  0
LINE
  5
1AB
330
1F
100
AcDbEntity
  8
0
  6
CONTINUOUS
 62
     7
100
AcDbLine
 10
7.8878950237
 20
3.7783633258
 30
0.0
 11
7.8878950237
 21
3.738993247
 31
0.0
  0
LINE
  5
1AC
330
1F
100
AcDbEntity
  8
0
  6
CONTINUOUS
 62
     7
100
AcDbLine
 10
8.0060052599
 20
3.738993247
 30
0.0
 11
8.0060052599
 21
3.7783633258
 31
0.0
  0
ARC
  5
1AD
330
1F
100
AcDbEntity
  8
0
  6
CONTINUOUS
 62
     7
100
AcDbCircle
 10
8.6150578347
 20
4.1511954281
 30
0.0
 40
0.0196850393700787
100
AcDbArc
 50
0.0
 51
90.0
  0
LINE
  5
1AE
330
1F
100
AcDbEntity
  8
0
  6
CONTINUOUS
 62
     7
100
AcDbLine
 10
8.6150578347
 20
4.1708804675
 30
0.0
 11
8.5542653668
 21
4.1708804675
 31
0.0
  0
ARC
  5
1AF
330
1F
100
AcDbEntity
  8
0
  6
CONTINUOUS
 62
     7
100
AcDbCircle
 10
8.2508846063
 20
3.7586782864
 30
0.0
 40
0.4968110236220469
100
AcDbArc
 50
182.2708131461
 51
177.7291868539
  0
LINE
  5
1B0
330
1F
100
AcDbEntity
  8
0
  6
CONTINUOUS
 62
     7
100
AcDbLine
 10
7.7394522813
 20
3.7783633258
 30
0.0
 11
7.754463724
 21
3.7783633258
 31
0.0
  0
ARC
  5
1B1
330
1F
100
AcDbEntity
  8
0
  6
CONTINUOUS
 62
     7
100
AcDbCircle
 10
8.2508846063
 20
3.7586782864
 30
0.0
 40
0.5118110236220469
100
AcDbArc
 50
182.204227504
 51
177.795772496
  0
LINE
  5
1B2
330
1F
100
AcDbEntity
  8
0
  6
CONTINUOUS
 62
     7
100
AcDbLine
 10
7.7394522813
 20
3.738993247
 30
0.0
 11
7.754463724
 21
3.738993247
 31
0.0
  0
LINE
  5
1B3
330
1F
100
AcDbEntity
  8
0
  6
CONTINUOUS
 62
     7
100
AcDbLine
 10
8.6431811943
 20
3.7783633258
 30
0.0
 11
8.6431811943
 21
3.738993247
 31
0.0
  0
LINE
  5
1B4
330
1F
100
AcDbEntity
  8
0
  6
CONTINUOUS
 62
     7
100
AcDbLine
 10
8.6431811943
 20
3.7783633258
 30
0.0
 11
8.3625885655
 21
3.7783633258
 31
0.0
  0
ARC
  5
1B5
330
1F
100
AcDbEntity
  8
0
  6
CONTINUOUS
 62
     7
100
AcDbCircle
 10
8.2508846063
 20
3.7586782864
 30
0.0
 40
0.1134251968503944
100
AcDbArc
 50
9.9943375821
 51
170.0056624179
  0
LINE
  5
1B6
330
1F
100
AcDbEntity
  8
0
  6
CONTINUOUS
 62
     7
100
AcDbLine
 10
7.754463724
 20
3.7783633258
 30
0.0
 11
8.1391806471
 21
3.7783633258
 31
0.0
  0
LINE
  5
1B7
330
1F
100
AcDbEntity
  8
0
  6
CONTINUOUS
 62
     7
100
AcDbLine
 10
7.754463724
 20
3.738993247
 30
0.0
 11
8.1391806471
 21
3.738993247
 31
0.0
  0
ARC
  5
1B8
330
1F
100
AcDbEntity
  8
0
  6
CONTINUOUS
 62
     7
100
AcDbCircle
 10
8.2508846063
 20
3.7586782864
 30
0.0
 40
0.1134251968503944
100
AcDbArc
 50
189.9943375821
 51
350.0056624179
  0
LINE
  5
1B9
330
1F
100
AcDbEntity
  8
0
  6
CONTINUOUS
 62
     7
100
AcDbLine
 10
8.3625885655
 20
3.738993247
 30
0.0
 11
8.6431811943
 21
3.738993247
 31
0.0
  0
LINE
  5
1BA
330
1F
100
AcDbEntity
  8
0
  6
CONTINUOUS
 62
     7
100
AcDbLine
 10
8.3493098032
 20
3.738993247
 30
0.0
 11
8.3493098032
 21
3.7783633258
 31
0.0
  0
SPLINE
  5
1BB
330
1F
100
AcDbEntity
  8
0
  6
CONTINUOUS
 62
     7
100
AcDbSpline
210
0.0
220
0.0
230
1.0
 70
    24
 71
     3
 72
     8
 73
     4
 74
     0
 42
0.00000001
 43
0.00000001
 40
0.0
 40
0.0
 40
0.0
 40
0.0
 40
1.0
 40
1.0
 40
1.0
 40
1.0
 10
8.139180647103426
 20
3.778363325762126
 30
0.0
 10
8.14426384767985
 20
3.778363325762126
 30
0.0
 10
8.149352213696945
 20
3.778363325762126
 30
0.0
 10
8.154448002277409
 20
3.778363325762126
 30
0.0
  0
ARC
  5
1BC
330
1F
100
AcDbEntity
  8
0
  6
CONTINUOUS
 62
     7
100
AcDbCircle
 10
8.2508846063
 20
3.7586782864
 30
0.0
 40
0.0984251968503941
100
AcDbArc
 50
11.5369590328
 51
168.4630409672
  0
SPLINE
  5
1BD
330
1F
100
AcDbEntity
  8
0
  6
CONTINUOUS
 62
     7
100
AcDbSpline
210
0.0
220
0.0
230
1.0
 70
    24
 71
     3
 72
     8
 73
     4
 74
     0
 42
0.00000001
 43
0.00000001
 40
0.0
 40
0.0
 40
0.0
 40
0.0
 40
1.0
 40
1.0
 40
1.0
 40
1.0
 10
8.347321210370572
 20
3.778363325762126
 30
0.0
 10
8.35241711625024
 20
3.778363325762126
 30
0.0
 10
8.357505387908779
 20
3.778363325762126
 30
0.0
 10
8.362588565544552
 20
3.778363325762126
 30
0.0
  0
SPLINE
  5
1BE
330
1F
100
AcDbEntity
  8
0
  6
CONTINUOUS
 62
     7
100
AcDbSpline
210
0.0
220
0.0
230
1.0
 70
    24
 71
     3
 72
     8
 73
     4
 74
     0
 42
0.00000001
 43
0.00000001
 40
0.0
 40
0.0
 40
0.0
 40
0.0
 40
1.0
 40
1.0
 40
1.0
 40
1.0
 10
8.139180647103426
 20
3.738993247021968
 30
0.0
 10
8.14426384767985
 20
3.738993247021968
 30
0.0
 10
8.149352213696945
 20
3.738993247021968
 30
0.0
 10
8.154448002277409
 20
3.738993247021968
 30
0.0
  0
ARC
  5
1BF
330
1F
100
AcDbEntity
  8
0
  6
CONTINUOUS
 62
     7
100
AcDbCircle
 10
8.2508846063
 20
3.7586782864
 30
0.0
 40
0.0984251968503941
100
AcDbArc
 50
191.5369590328
 51
348.4630409672
  0
SPLINE
  5
1C0
330
1F
100
AcDbEntity
  8
0
  6
CONTINUOUS
 62
     7
100
AcDbSpline
210
0.0
220
0.0
230
1.0
 70
    24
 71
     3
 72
     8
 73
     4
 74
     0
 42
0.00000001
 43
0.00000001
 40
0.0
 40
0.0
 40
0.0
 40
0.0
 40
1.0
 40
1.0
 40
1.0
 40
1.0
 10
8.347321210370572
 20
3.738993247021968
 30
0.0
 10
8.35241711625024
 20
3.738993247021968
 30
0.0
 10
8.357505387908779
 20
3.738993247021968
 30
0.0
 10
8.362588565544552
 20
3.738993247021968
 30
0.0
  0
POLYLINE
  5
1C1
330
1F
100
AcDbEntity
  8
0
  6
CONTINUOUS
 62
     7
100
AcDb2dPolyline
 66
     1
 10
0.0
 20
0.0
 30
0.0
  0
VERTEX
  5
36A
330
1C1
100
AcDbEntity
  8
0
  6
CONTINUOUS
 62
     7
100
AcDbVertex
100
AcDb2dVertex
 10
8.1524594095
 20
3.7586782864
 30
0.0
  0
VERTEX
  5
36B
330
1C1
100
AcDbEntity
  8
0
  6
CONTINUOUS
 62
     7
100
AcDbVertex
100
AcDb2dVertex
 10
8.1531502465
 20
3.7470372263
 30
0.0
  0
VERTEX
  5
36C
330
1C1
100
AcDbEntity
  8
0
  6
CONTINUOUS
 62
     7
100
AcDbVertex
100
AcDb2dVertex
 10
8.1544480023
 20
3.738993247
 30
0.0
  0
SEQEND
  5
36D
330
1C1
100
AcDbEntity
  8
0
  6
CONTINUOUS
 62
     7
  0
ARC
  5
1C2
330
1F
100
AcDbEntity
  8
0
  6
CONTINUOUS
 62
     7
100
AcDbCircle
 10
8.2508846063
 20
3.7586782864
 30
0.0
 40
0.0984251968503932
100
AcDbArc
 50
348.4630409672
 51
11.457204738
  0
POLYLINE
  5
1C3
330
1F
100
AcDbEntity
  8
0
  6
CONTINUOUS
 62
     7
100
AcDb2dPolyline
 66
     1
 10
0.0
 20
0.0
 30
0.0
  0
VERTEX
  5
36E
330
1C3
100
AcDbEntity
  8
0
  6
CONTINUOUS
 62
     7
100
AcDbVertex
100
AcDb2dVertex
 10
8.1544480023
 20
3.7783633258
 30
0.0
  0
VERTEX
  5
36F
330
1C3
100
AcDbEntity
  8
0
  6
CONTINUOUS
 62
     7
100
AcDbVertex
100
AcDb2dVertex
 10
8.1531502465
 20
3.7703193465
 30
0.0
  0
VERTEX
  5
370
330
1C3
100
AcDbEntity
  8
0
  6
CONTINUOUS
 62
     7
100
AcDbVertex
100
AcDb2dVertex
 10
8.1524594095
 20
3.7586782864
 30
0.0
  0
SEQEND
  5
371
330
1C3
100
AcDbEntity
  8
0
  6
CONTINUOUS
 62
     7
  0
POLYLINE
  5
1C4
330
1F
100
AcDbEntity
  8
0
  6
CONTINUOUS
 62
     7
100
AcDb2dPolyline
 66
     1
 10
0.0
 20
0.0
 30
0.0
  0
VERTEX
  5
372
330
1C4
100
AcDbEntity
  8
0
  6
CONTINUOUS
 62
     7
100
AcDbVertex
100
AcDb2dVertex
 10
7.7394522813
 20
3.738993247
 30
0.0
  0
VERTEX
  5
373
330
1C4
100
AcDbEntity
  8
0
  6
CONTINUOUS
 62
     7
100
AcDbVertex
100
AcDb2dVertex
 10
7.7390735827
 20
3.7586782864
 30
0.0
  0
VERTEX
  5
374
330
1C4
100
AcDbEntity
  8
0
  6
CONTINUOUS
 62
     7
100
AcDbVertex
100
AcDb2dVertex
 10
7.7394522813
 20
3.7783633258
 30
0.0
  0
SEQEND
  5
375
330
1C4
100
AcDbEntity
  8
0
  6
CONTINUOUS
 62
     7
  0
LINE
  5
1C5
330
1F
100
AcDbEntity
  8
0
  6
CONTINUOUS
 62
     7
100
AcDbLine
 10
7.8583674646
 20
4.1425365541
 30
0.0
 11
7.9123534346
 21
4.1425365541
 31
0.0
  0
LINE
  5
1C6
330
1F
100
AcDbEntity
  8
0
  6
CONTINUOUS
 62
     7
100
AcDbLine
 10
8.634742874
 20
4.0972094581
 30
0.0
 11
8.634742874
 21
4.1511954281
 31
0.0
  0
LINE
  5
1C7
330
1F
100
AcDbEntity
  8
0
  6
CONTINUOUS
 62
     8
100
AcDbLine
 10
7.8912620491
 20
4.1228515147
 30
0.0
 11
7.8386824252
 21
4.1228515147
 31
0.0
  0
LINE
  5
1C8
330
1F
100
AcDbEntity
  8
0
  6
CONTINUOUS
 62
     8
100
AcDbLine
 10
8.6150578347
 20
4.1708804675
 30
0.0
 11
8.6150578347
 21
4.1183008436
 31
0.0
  0
LINE
  5
1C9
330
1F
100
AcDbEntity
  8
0
  6
HIDDEN
 62
     7
100
AcDbLine
 10
7.8386824252
 20
4.0244263179
 30
0.0
 11
8.0552178583
 21
4.0244263179
 31
0.0
  0
LINE
  5
1CA
330
1F
100
AcDbEntity
  8
0
  6
HIDDEN
 62
     7
100
AcDbLine
 10
8.4526562599
 20
3.28831808
 30
0.0
 11
8.4526562599
 21
4.2290384928
 31
0.0
  0
LINE
  5
1CB
330
1F
100
AcDbEntity
  8
0
  6
HIDDEN
 62
     7
100
AcDbLine
 10
7.9123534346
 20
4.1425365541
 30
0.0
 11
8.0355328189
 21
4.1425365541
 31
0.0
  0
LINE
  5
1CC
330
1F
100
AcDbEntity
  8
0
  6
HIDDEN
 62
     7
100
AcDbLine
 10
8.0060052599
 20
3.4732452155
 30
0.0
 11
7.8880683031
 21
3.4732452155
 31
0.0
  0
LINE
  5
1CD
330
1F
100
AcDbEntity
  8
0
  6
HIDDEN
 62
     7
100
AcDbLine
 10
7.9863202205
 20
3.4535601762
 30
0.0
 11
7.9075800635
 21
3.4535601762
 31
0.0
  0
LINE
  5
1CE
330
1F
100
AcDbEntity
  8
0
  6
HIDDEN
 62
     7
100
AcDbLine
 10
7.9753630487
 20
4.0244263179
 30
0.0
 11
7.9753630487
 21
4.1425365541
 31
0.0
  0
LINE
  5
1CF
330
1F
100
AcDbEntity
  8
0
  6
HIDDEN
 62
     7
100
AcDbLine
 10
7.9185372348
 20
4.0244263179
 30
0.0
 11
7.9185372348
 21
4.1425365541
 31
0.0
  0
LINE
  5
1D0
330
1F
100
AcDbEntity
  8
0
  6
HIDDEN
 62
     7
100
AcDbLine
 10
8.0037759557
 20
4.0244263179
 30
0.0
 11
8.0037759557
 21
4.1425365541
 31
0.0
  0
LINE
  5
1D1
330
1F
100
AcDbEntity
  8
0
  6
HIDDEN
 62
     7
100
AcDbLine
 10
7.8901243279
 20
4.0244263179
 30
0.0
 11
7.8901243279
 21
4.1425365541
 31
0.0
  0
LINE
  5
1D2
330
1F
100
AcDbEntity
  8
0
  6
HIDDEN
 62
     7
100
AcDbLine
 10
8.634742874
 20
3.9740300741
 30
0.0
 11
8.634742874
 21
4.0972094581
 31
0.0
  0
LINE
  5
1D3
330
1F
100
AcDbEntity
  8
0
  6
HIDDEN
 62
     7
100
AcDbLine
 10
8.5166326378
 20
3.9543450344
 30
0.0
 11
8.5166326378
 21
4.1708804675
 31
0.0
  0
LINE
  5
1D4
330
1F
100
AcDbEntity
  8
0
  6
HIDDEN
 62
     7
100
AcDbLine
 10
7.9654515355
 20
4.0035576328
 30
0.0
 11
7.9654515355
 21
4.1214945896
 31
0.0
  0
LINE
  5
1D5
330
1F
100
AcDbEntity
  8
0
  6
HIDDEN
 62
     7
100
AcDbLine
 10
7.9457664961
 20
4.1019828292
 30
0.0
 11
7.9457664961
 21
4.0232426722
 31
0.0
  0
LINE
  5
1D6
330
1F
100
AcDbEntity
  8
0
  6
HIDDEN
 62
     7
100
AcDbLine
 10
8.5166326378
 20
4.034199844
 30
0.0
 11
8.634742874
 21
4.034199844
 31
0.0
  0
LINE
  5
1D7
330
1F
100
AcDbEntity
  8
0
  6
HIDDEN
 62
     7
100
AcDbLine
 10
8.5166326378
 20
4.0910256579
 30
0.0
 11
8.634742874
 21
4.0910256579
 31
0.0
  0
LINE
  5
1D8
330
1F
100
AcDbEntity
  8
0
  6
HIDDEN
 62
     7
100
AcDbLine
 10
8.5166326378
 20
4.1194385648
 30
0.0
 11
8.634742874
 21
4.1194385648
 31
0.0
  0
LINE
  5
1D9
330
1F
100
AcDbEntity
  8
0
  6
HIDDEN
 62
     7
100
AcDbLine
 10
8.5166326378
 20
4.0057869371
 30
0.0
 11
8.634742874
 21
4.0057869371
 31
0.0
  0
LINE
  5
1DA
330
1F
100
AcDbEntity
  8
0
  6
HIDDEN
 62
     7
100
AcDbLine
 10
7.7805244
 20
3.5569066328
 30
0.0
 11
8.7212448127
 21
3.5569066328
 31
0.0
  0
LINE
  5
1DB
330
1F
100
AcDbEntity
  8
0
  6
HIDDEN
 62
     7
100
AcDbLine
 10
8.231199567
 20
3.6602530895
 30
0.0
 11
8.231199567
 21
3.6622416823
 31
0.0
  0
LINE
  5
1DC
330
1F
100
AcDbEntity
  8
0
  6
HIDDEN
 62
     7
100
AcDbLine
 10
8.231199567
 20
3.6602530895
 30
0.0
 11
8.2705696457
 21
3.6602530895
 31
0.0
  0
LINE
  5
1DD
330
1F
100
AcDbEntity
  8
0
  6
HIDDEN
 62
     7
100
AcDbLine
 10
8.2705696457
 20
3.6622416823
 30
0.0
 11
8.2705696457
 21
3.6602530895
 31
0.0
  0
LINE
  5
1DE
330
1F
100
AcDbEntity
  8
0
  6
HIDDEN
 62
     7
100
AcDbLine
 10
8.2705696457
 20
3.8551148904
 30
0.0
 11
8.2705696457
 21
4.2701106115
 31
0.0
  0
LINE
  5
1DF
330
1F
100
AcDbEntity
  8
0
  6
HIDDEN
 62
     7
100
AcDbLine
 10
8.231199567
 20
3.8551148904
 30
0.0
 11
8.231199567
 21
4.2701106115
 31
0.0
  0
LINE
  5
1E0
330
1F
100
AcDbEntity
  8
0
  6
HIDDEN
 62
     7
100
AcDbLine
 10
8.231199567
 20
3.3663816985
 30
0.0
 11
8.231199567
 21
3.6602530895
 31
0.0
  0
LINE
  5
1E1
330
1F
100
AcDbEntity
  8
0
  6
HIDDEN
 62
     7
100
AcDbLine
 10
8.2705696457
 20
3.3663816985
 30
0.0
 11
8.231199567
 21
3.3663816985
 31
0.0
  0
LINE
  5
1E2
330
1F
100
AcDbEntity
  8
0
  6
HIDDEN
 62
     7
100
AcDbLine
 10
8.2705696457
 20
3.6602530895
 30
0.0
 11
8.2705696457
 21
3.3663816985
 31
0.0
  0
ARC
  5
1E3
330
1F
100
AcDbEntity
  8
0
  6
HIDDEN
 62
     7
100
AcDbCircle
 10
8.2508846063
 20
3.7586782864
 30
0.0
 40
0.1134251968503979
100
AcDbArc
 50
170.0056624179
 51
189.9943375821
  0
ARC
  5
1E4
330
1F
100
AcDbEntity
  8
0
  6
HIDDEN
 62
     7
100
AcDbCircle
 10
8.2508846063
 20
3.7586782864
 30
0.0
 40
0.1134251968503892
100
AcDbArc
 50
350.0056624179
 51
9.9943375821
  0
POLYLINE
  5
1E5
330
1F
100
AcDbEntity
  8
0
  6
HIDDEN
 62
     7
100
AcDb2dPolyline
 66
     1
 10
0.0
 20
0.0
 30
0.0
  0
VERTEX
  5
376
330
1E5
100
AcDbEntity
  8
0
  6
HIDDEN
 62
     7
100
AcDbVertex
100
AcDb2dVertex
 10
7.754463724
 20
3.7783633258
 30
0.0
  0
VERTEX
  5
377
330
1E5
100
AcDbEntity
  8
0
  6
HIDDEN
 62
     7
100
AcDbVertex
100
AcDb2dVertex
 10
7.754083985
 20
3.761893232
 30
0.0
  0
VERTEX
  5
378
330
1E5
100
AcDbEntity
  8
0
  6
HIDDEN
 62
     7
100
AcDbVertex
100
AcDb2dVertex
 10
7.754463724
 20
3.738993247
 30
0.0
  0
SEQEND
  5
379
330
1E5
100
AcDbEntity
  8
0
  6
HIDDEN
 62
     7
  0
CIRCLE
  5
1E6
330
1F
100
AcDbEntity
  8
0
  6
HIDDEN
 62
     7
100
AcDbCircle
 10
8.6002940551
 20
3.7586782864
 30
0.0
 40
0.1043307086614185
  0
CIRCLE
  5
1E7
330
1F
100
AcDbEntity
  8
0
  6
HIDDEN
 62
     7
100
AcDbCircle
 10
7.9014751575
 20
3.7586782864
 30
0.0
 40
0.1043307086614167
  0
CIRCLE
  5
1E8
330
1F
100
AcDbEntity
  8
0
  6
HIDDEN
 62
     7
100
AcDbCircle
 10
8.2508846063
 20
4.1080877352
 30
0.0
 40
0.1082677165354333
  0
CIRCLE
  5
1E9
330
1F
100
AcDbEntity
  8
0
  6
HIDDEN
 62
     7
100
AcDbCircle
 10
8.6002940551
 20
3.7586782864
 30
0.0
 40
0.1082677165354333
  0
CIRCLE
  5
1EA
330
1F
100
AcDbEntity
  8
0
  6
HIDDEN
 62
     7
100
AcDbCircle
 10
8.6002940551
 20
3.7586782864
 30
0.0
 40
0.1043307086614185
  0
CIRCLE
  5
1EB
330
1F
100
AcDbEntity
  8
0
  6
HIDDEN
 62
     7
100
AcDbCircle
 10
8.2508846063
 20
3.4092688376
 30
0.0
 40
0.1082677165354333
  0
CIRCLE
  5
1EC
330
1F
100
AcDbEntity
  8
0
  6
HIDDEN
 62
     7
100
AcDbCircle
 10
7.9014751575
 20
3.7586782864
 30
0.0
 40
0.1082677165354333
  0
CIRCLE
  5
1ED
330
1F
100
AcDbEntity
  8
0
  6
HIDDEN
 62
     7
100
AcDbCircle
 10
7.9014751575
 20
3.7586782864
 30
0.0
 40
0.1043307086614167
  0
CIRCLE
  5
1EE
330
1F
100
AcDbEntity
  8
0
  6
HIDDEN
 62
     7
100
AcDbCircle
 10
8.2508846063
 20
3.7586782864
 30
0.0
 40
0.5078740157480315
  0
ARC
  5
1EF
330
1F
100
AcDbEntity
  8
0
  6
HIDDEN
 62
     7
100
AcDbCircle
 10
8.2508846063
 20
3.7586782864
 30
0.0
 40
0.5118110236220481
100
AcDbArc
 50
293.2180077434
 51
0.0
  0
ARC
  5
1F0
330
1F
100
AcDbEntity
  8
0
  6
HIDDEN
 62
     7
100
AcDbCircle
 10
8.2508846063
 20
3.7586782864
 30
0.0
 40
0.5118110236220481
100
AcDbArc
 50
0.0
 51
66.7819922566
  0
CIRCLE
  5
1F1
330
1F
100
AcDbEntity
  8
0
  6
HIDDEN
 62
     7
100
AcDbCircle
 10
8.2508846063
 20
3.7586782864
 30
0.0
 40
0.5078740157480315
  0
LINE
  5
1F2
330
1F
100
AcDbEntity
  8
0
  6
HIDDEN
 62
     7
100
AcDbLine
 10
8.1551885606
 20
4.2037837809
 30
0.0
 11
7.8057791118
 21
3.8543743321
 31
0.0
  0
ARC
  5
1F3
330
1F
100
AcDbEntity
  8
0
  6
HIDDEN
 62
     7
100
AcDbCircle
 10
8.2508846063
 20
4.1080877352
 30
0.0
 40
0.1353346456692915
100
AcDbArc
 50
45.0
 51
135.0
  0
LINE
  5
1F4
330
1F
100
AcDbEntity
  8
0
  6
HIDDEN
 62
     7
100
AcDbLine
 10
8.6959901008
 20
3.8543743321
 30
0.0
 11
8.346580652
 21
4.2037837809
 31
0.0
  0
ARC
  5
1F5
330
1F
100
AcDbEntity
  8
0
  6
HIDDEN
 62
     7
100
AcDbCircle
 10
8.6002940551
 20
3.7586782864
 30
0.0
 40
0.1353346456692918
100
AcDbArc
 50
315.0
 51
45.0
  0
LINE
  5
1F6
330
1F
100
AcDbEntity
  8
0
  6
HIDDEN
 62
     7
100
AcDbLine
 10
8.346580652
 20
3.3135727919
 30
0.0
 11
8.6959901008
 21
3.6629822407
 31
0.0
  0
ARC
  5
1F7
330
1F
100
AcDbEntity
  8
0
  6
HIDDEN
 62
     7
100
AcDbCircle
 10
8.2508846063
 20
3.4092688376
 30
0.0
 40
0.1353346456692918
100
AcDbArc
 50
225.0
 51
315.0
  0
LINE
  5
1F8
330
1F
100
AcDbEntity
  8
0
  6
HIDDEN
 62
     7
100
AcDbLine
 10
7.8057791118
 20
3.6629822407
 30
0.0
 11
8.1551885606
 21
3.3135727919
 31
0.0
  0
ARC
  5
1F9
330
1F
100
AcDbEntity
  8
0
  6
HIDDEN
 62
     7
100
AcDbCircle
 10
7.9014751575
 20
3.7586782864
 30
0.0
 40
0.1353346456692925
100
AcDbArc
 50
135.0
 51
225.0
  0
CIRCLE
  5
1FA
330
1F
100
AcDbEntity
  8
0
  6
HIDDEN
 62
     7
100
AcDbCircle
 10
8.2508846063
 20
3.7586782864
 30
0.0
 40
0.1771653543307075
  0
LINE
  5
1FB
330
1F
100
AcDbEntity
  8
0
  6
HIDDEN
 62
     7
100
AcDbLine
 10
8.0552178583
 20
4.0244263179
 30
0.0
 11
8.0552178583
 21
4.2316106786
 31
0.0
  0
LINE
  5
1FC
330
1F
100
AcDbEntity
  8
0
  6
HIDDEN
 62
     7
100
AcDbLine
 10
7.8386824252
 20
4.0622789881
 30
0.0
 11
7.8386824252
 21
4.0244263179
 31
0.0
  0
LINE
  5
1FD
330
1F
100
AcDbEntity
  8
0
  6
HIDDEN
 62
     7
100
AcDbLine
 10
7.8878950237
 20
3.738993247
 30
0.0
 11
7.8878950237
 21
3.3978610379
 31
0.0
  0
LINE
  5
1FE
330
1F
100
AcDbEntity
  8
0
  6
HIDDEN
 62
     7
100
AcDbLine
 10
8.0060052599
 20
3.3092926172
 30
0.0
 11
8.0060052599
 21
3.738993247
 31
0.0
  0
LINE
  5
1FF
330
1F
100
AcDbEntity
  8
0
  6
HIDDEN
 62
     7
100
AcDbLine
 10
7.8878950237
 20
4.0244263179
 30
0.0
 11
7.8878950237
 21
3.7783633258
 31
0.0
  0
LINE
  5
200
330
1F
100
AcDbEntity
  8
0
  6
HIDDEN
 62
     7
100
AcDbLine
 10
8.0060052599
 20
3.7783633258
 30
0.0
 11
8.0060052599
 21
4.0244263179
 31
0.0
  0
ARC
  5
201
330
1F
100
AcDbEntity
  8
0
  6
HIDDEN
 62
     7
100
AcDbCircle
 10
8.0355328189
 20
4.1228515147
 30
0.0
 40
0.0196850393700787
100
AcDbArc
 50
0.0
 51
90.0
  0
LINE
  5
202
330
1F
100
AcDbEntity
  8
0
  6
HIDDEN
 62
     7
100
AcDbLine
 10
8.0552178583
 20
4.0244263179
 30
0.0
 11
8.0552178583
 21
4.1228515147
 31
0.0
  0
LINE
  5
203
330
1F
100
AcDbEntity
  8
0
  6
HIDDEN
 62
     7
100
AcDbLine
 10
7.8386824252
 20
4.0620590468
 30
0.0
 11
7.8386824252
 21
4.0244263179
 31
0.0
  0
LINE
  5
204
330
1F
100
AcDbEntity
  8
0
  6
HIDDEN
 62
     7
100
AcDbLine
 10
7.8878950237
 20
4.0244263179
 30
0.0
 11
7.8878950237
 21
3.7783633258
 31
0.0
  0
LINE
  5
205
330
1F
100
AcDbEntity
  8
0
  6
HIDDEN
 62
     7
100
AcDbLine
 10
7.8878950237
 20
3.738993247
 30
0.0
 11
7.8878950237
 21
3.4732452155
 31
0.0
  0
LINE
  5
206
330
1F
100
AcDbEntity
  8
0
  6
HIDDEN
 62
     7
100
AcDbLine
 10
8.0060052599
 20
3.4732452155
 30
0.0
 11
8.0060052599
 21
3.738993247
 31
0.0
  0
LINE
  5
207
330
1F
100
AcDbEntity
  8
0
  6
HIDDEN
 62
     7
100
AcDbLine
 10
8.0060052599
 20
3.7783633258
 30
0.0
 11
8.0060052599
 21
4.0244263179
 31
0.0
  0
ARC
  5
208
330
1F
100
AcDbEntity
  8
0
  6
HIDDEN
 62
     7
100
AcDbCircle
 10
7.9863202205
 20
3.4732452155
 30
0.0
 40
0.0196850393700787
100
AcDbArc
 50
270.0
 51
0.0
  0
ARC
  5
209
330
1F
100
AcDbEntity
  8
0
  6
HIDDEN
 62
     7
100
AcDbCircle
 10
7.907580063
 20
3.4732452155
 30
0.0
 40
0.0196850393700787
100
AcDbArc
 50
180.0
 51
270.0
  0
ARC
  5
20A
330
1F
100
AcDbEntity
  8
0
  6
HIDDEN
 62
     7
100
AcDbCircle
 10
8.6150578347
 20
3.9740300738
 30
0.0
 40
0.0196850393700796
100
AcDbArc
 50
270.0
 51
0.0
  0
LINE
  5
20B
330
1F
100
AcDbEntity
  8
0
  6
HIDDEN
 62
     7
100
AcDbLine
 10
8.5166326378
 20
3.9543450344
 30
0.0
 11
8.6150578347
 21
3.9543450344
 31
0.0
  0
LINE
  5
20C
330
1F
100
AcDbEntity
  8
0
  6
HIDDEN
 62
     7
100
AcDbLine
 10
8.5542653668
 20
4.1708804675
 30
0.0
 11
8.5166326378
 21
4.1708804675
 31
0.0
  0
LINE
  5
20D
330
1F
100
AcDbEntity
  8
0
  6
HIDDEN
 62
     7
100
AcDbLine
 10
8.5166326378
 20
4.1216678691
 30
0.0
 11
7.9654515355
 21
4.1216678691
 31
0.0
  0
LINE
  5
20E
330
1F
100
AcDbEntity
  8
0
  6
HIDDEN
 62
     7
100
AcDbLine
 10
7.9654515355
 20
4.0035576328
 30
0.0
 11
8.5166326378
 21
4.0035576328
 31
0.0
  0
ARC
  5
20F
330
1F
100
AcDbEntity
  8
0
  6
HIDDEN
 62
     7
100
AcDbCircle
 10
7.9654515355
 20
4.0232426722
 30
0.0
 40
0.0196850393700787
100
AcDbArc
 50
180.0
 51
270.0
  0
ARC
  5
210
330
1F
100
AcDbEntity
  8
0
  6
HIDDEN
 62
     7
100
AcDbCircle
 10
7.9654515355
 20
4.1019828297
 30
0.0
 40
0.0196850393700787
100
AcDbArc
 50
90.0
 51
180.0
  0
LINE
  5
211
330
1F
100
AcDbEntity
  8
0
  6
HIDDEN
 62
     7
100
AcDbLine
 10
8.5166326378
 20
3.9543450344
 30
0.0
 11
8.7238169986
 21
3.9543450344
 31
0.0
  0
LINE
  5
212
330
1F
100
AcDbEntity
  8
0
  6
HIDDEN
 62
     7
100
AcDbLine
 10
8.554485308
 20
4.1708804675
 30
0.0
 11
8.5166326378
 21
4.1708804675
 31
0.0
  0
LINE
  5
213
330
1F
100
AcDbEntity
  8
0
  6
HIDDEN
 62
     7
100
AcDbLine
 10
8.5166326378
 20
4.1216678691
 30
0.0
 11
8.2705696457
 21
4.1216678691
 31
0.0
  0
LINE
  5
214
330
1F
100
AcDbEntity
  8
0
  6
HIDDEN
 62
     7
100
AcDbLine
 10
8.2705696457
 20
4.0035576328
 30
0.0
 11
8.5166326378
 21
4.0035576328
 31
0.0
  0
LINE
  5
215
330
1F
100
AcDbEntity
  8
0
  6
HIDDEN
 62
     7
100
AcDbLine
 10
8.231199567
 20
4.1216678691
 30
0.0
 11
7.8900673579
 21
4.1216678691
 31
0.0
  0
LINE
  5
216
330
1F
100
AcDbEntity
  8
0
  6
HIDDEN
 62
     7
100
AcDbLine
 10
7.8014989371
 20
4.0035576328
 30
0.0
 11
8.231199567
 21
4.0035576328
 31
0.0
  0
LINE
  5
217
330
1F
100
AcDbEntity
  8
0
  6
HIDDEN
 62
     7
100
AcDbLine
 10
7.8386824252
 20
4.1228515147
 30
0.0
 11
8.0550412849
 21
4.1228515147
 31
0.0
  0
LINE
  5
218
330
1F
100
AcDbEntity
  8
0
  6
HIDDEN
 62
     7
100
AcDbLine
 10
8.6150578347
 20
4.1708804675
 30
0.0
 11
8.6150578347
 21
3.9545216078
 31
0.0
  0
LINE
  5
219
330
1F
100
AcDbEntity
  8
0
  6
CONTINUOUS
 62
     7
100
AcDbLine
 10
4.0156124813
 20
7.1687881625
 30
0.0
 11
4.0006124813
 21
7.1837881625
 31
0.0
  0
LINE
  5
21A
330
1F
100
AcDbEntity
  8
0
  6
CONTINUOUS
 62
     7
100
AcDbLine
 10
3.5628565758
 20
6.1601661153
 30
0.0
 11
3.6692476519
 21
6.1601661153
 31
0.0
  0
LINE
  5
21B
330
1F
100
AcDbEntity
  8
0
  6
CONTINUOUS
 62
     7
100
AcDbLine
 10
4.0006124813
 20
7.1837881625
 30
0.0
 11
3.5628565758
 21
7.1837881625
 31
0.0
  0
ARC
  5
21C
330
1F
100
AcDbEntity
  8
0
  6
CONTINUOUS
 62
     7
100
AcDbCircle
 10
2.6821872845
 20
7.0361503673
 30
0.0
 40
0.0196850393700787
100
AcDbArc
 50
90.0
 51
127.7980101679
  0
ARC
  5
21D
330
1F
100
AcDbEntity
  8
0
  6
CONTINUOUS
 62
     7
100
AcDbCircle
 10
2.8593526388
 20
7.0361503673
 30
0.0
 40
0.0196850393700788
100
AcDbArc
 50
52.2406920555
 51
90.0
  0
LINE
  5
21E
330
1F
100
AcDbEntity
  8
0
  6
CONTINUOUS
 62
     7
100
AcDbLine
 10
2.7117148435
 20
6.6916621783
 30
0.0
 11
2.7117148435
 21
6.6522920995
 31
0.0
  0
LINE
  5
21F
330
1F
100
AcDbEntity
  8
0
  6
CONTINUOUS
 62
     7
100
AcDbLine
 10
2.8298250798
 20
6.6522920995
 30
0.0
 11
2.8298250798
 21
6.6916621783
 31
0.0
  0
LINE
  5
220
330
1F
100
AcDbEntity
  8
0
  6
CONTINUOUS
 62
     7
100
AcDbLine
 10
2.9315311165
 20
7.1837881625
 30
0.0
 11
2.6526597254
 21
7.1837881625
 31
0.0
  0
LINE
  5
221
330
1F
100
AcDbEntity
  8
0
  6
CONTINUOUS
 62
     7
100
AcDbLine
 10
3.0904156309
 20
7.1837881625
 30
0.0
 11
2.9840245548
 21
7.1837881625
 31
0.0
  0
LINE
  5
222
330
1F
100
AcDbEntity
  8
0
  6
CONTINUOUS
 62
     7
100
AcDbLine
 10
2.9840245548
 20
6.1601661153
 30
0.0
 11
3.0904156309
 21
6.1601661153
 31
0.0
  0
LINE
  5
223
330
1F
100
AcDbEntity
  8
0
  6
CONTINUOUS
 62
     7
100
AcDbLine
 10
2.6526597254
 20
6.1601661153
 30
0.0
 11
2.9315311165
 21
6.1601661153
 31
0.0
  0
LINE
  5
224
330
1F
100
AcDbEntity
  8
0
  6
CONTINUOUS
 62
     7
100
AcDbLine
 10
2.6526597254
 20
7.1837881625
 30
0.0
 11
2.6376597254
 21
7.1687881625
 31
0.0
  0
LINE
  5
225
330
1F
100
AcDbEntity
  8
0
  6
CONTINUOUS
 62
     7
100
AcDbLine
 10
2.6376597254
 20
6.1751661153
 30
0.0
 11
2.6526597254
 21
6.1601661153
 31
0.0
  0
LINE
  5
226
330
1F
100
AcDbEntity
  8
0
  6
CONTINUOUS
 62
     7
100
AcDbLine
 10
3.0904156309
 20
6.5637094224
 30
0.0
 11
3.1248644498
 21
6.5637094224
 31
0.0
  0
LINE
  5
227
330
1F
100
AcDbEntity
  8
0
  6
CONTINUOUS
 62
     7
100
AcDbLine
 10
3.1543920089
 20
6.5637094224
 30
0.0
 11
3.1888408278
 21
6.5637094224
 31
0.0
  0
LINE
  5
228
330
1F
100
AcDbEntity
  8
0
  6
CONTINUOUS
 62
     7
100
AcDbLine
 10
3.1888408278
 20
6.7802448555
 30
0.0
 11
3.1543920089
 21
6.7802448555
 31
0.0
  0
LINE
  5
229
330
1F
100
AcDbEntity
  8
0
  6
CONTINUOUS
 62
     7
100
AcDbLine
 10
3.1248644498
 20
6.7802448555
 30
0.0
 11
3.0904156309
 21
6.7802448555
 31
0.0
  0
LINE
  5
22A
330
1F
100
AcDbEntity
  8
0
  6
CONTINUOUS
 62
     7
100
AcDbLine
 10
3.0904156309
 20
6.9131188712
 30
0.0
 11
3.1248644498
 21
6.9131188712
 31
0.0
  0
LINE
  5
22B
330
1F
100
AcDbEntity
  8
0
  6
CONTINUOUS
 62
     7
100
AcDbLine
 10
3.1543920089
 20
6.9131188712
 30
0.0
 11
3.1888408278
 21
6.9131188712
 31
0.0
  0
LINE
  5
22C
330
1F
100
AcDbEntity
  8
0
  6
CONTINUOUS
 62
     7
100
AcDbLine
 10
3.1888408278
 20
7.1296543043
 30
0.0
 11
3.1543920089
 21
7.1296543043
 31
0.0
  0
LINE
  5
22D
330
1F
100
AcDbEntity
  8
0
  6
CONTINUOUS
 62
     7
100
AcDbLine
 10
3.1248644498
 20
7.1296543043
 30
0.0
 11
3.0904156309
 21
7.1296543043
 31
0.0
  0
LINE
  5
22E
330
1F
100
AcDbEntity
  8
0
  6
CONTINUOUS
 62
     7
100
AcDbLine
 10
3.0904156309
 20
6.2142999736
 30
0.0
 11
3.1248644498
 21
6.2142999736
 31
0.0
  0
LINE
  5
22F
330
1F
100
AcDbEntity
  8
0
  6
CONTINUOUS
 62
     7
100
AcDbLine
 10
3.1543920089
 20
6.2142999736
 30
0.0
 11
3.1888408278
 21
6.2142999736
 31
0.0
  0
LINE
  5
230
330
1F
100
AcDbEntity
  8
0
  6
CONTINUOUS
 62
     7
100
AcDbLine
 10
3.1888408278
 20
6.4308354066
 30
0.0
 11
3.1543920089
 21
6.4308354066
 31
0.0
  0
LINE
  5
231
330
1F
100
AcDbEntity
  8
0
  6
CONTINUOUS
 62
     7
100
AcDbLine
 10
3.1248644498
 20
6.4308354066
 30
0.0
 11
3.0904156309
 21
6.4308354066
 31
0.0
  0
LINE
  5
232
330
1F
100
AcDbEntity
  8
0
  6
CONTINUOUS
 62
     7
100
AcDbLine
 10
3.5628565758
 20
6.7802448555
 30
0.0
 11
3.5284077569
 21
6.7802448555
 31
0.0
  0
LINE
  5
233
330
1F
100
AcDbEntity
  8
0
  6
CONTINUOUS
 62
     7
100
AcDbLine
 10
3.4988801979
 20
6.7802448555
 30
0.0
 11
3.464431379
 21
6.7802448555
 31
0.0
  0
LINE
  5
234
330
1F
100
AcDbEntity
  8
0
  6
CONTINUOUS
 62
     7
100
AcDbLine
 10
3.464431379
 20
6.5637094224
 30
0.0
 11
3.4988801979
 21
6.5637094224
 31
0.0
  0
LINE
  5
235
330
1F
100
AcDbEntity
  8
0
  6
CONTINUOUS
 62
     7
100
AcDbLine
 10
3.5284077569
 20
6.5637094224
 30
0.0
 11
3.5628565758
 21
6.5637094224
 31
0.0
  0
LINE
  5
236
330
1F
100
AcDbEntity
  8
0
  6
CONTINUOUS
 62
     7
100
AcDbLine
 10
3.5628565758
 20
7.1296543043
 30
0.0
 11
3.5284077569
 21
7.1296543043
 31
0.0
  0
LINE
  5
237
330
1F
100
AcDbEntity
  8
0
  6
CONTINUOUS
 62
     7
100
AcDbLine
 10
3.4988801979
 20
7.1296543043
 30
0.0
 11
3.464431379
 21
7.1296543043
 31
0.0
  0
LINE
  5
238
330
1F
100
AcDbEntity
  8
0
  6
CONTINUOUS
 62
     7
100
AcDbLine
 10
3.464431379
 20
6.9131188712
 30
0.0
 11
3.4988801979
 21
6.9131188712
 31
0.0
  0
LINE
  5
239
330
1F
100
AcDbEntity
  8
0
  6
CONTINUOUS
 62
     7
100
AcDbLine
 10
3.5284077569
 20
6.9131188712
 30
0.0
 11
3.5628565758
 21
6.9131188712
 31
0.0
  0
LINE
  5
23A
330
1F
100
AcDbEntity
  8
0
  6
CONTINUOUS
 62
     7
100
AcDbLine
 10
3.5628565758
 20
6.4308354066
 30
0.0
 11
3.5284077569
 21
6.4308354066
 31
0.0
  0
LINE
  5
23B
330
1F
100
AcDbEntity
  8
0
  6
CONTINUOUS
 62
     7
100
AcDbLine
 10
3.4988801979
 20
6.4308354066
 30
0.0
 11
3.464431379
 21
6.4308354066
 31
0.0
  0
LINE
  5
23C
330
1F
100
AcDbEntity
  8
0
  6
CONTINUOUS
 62
     7
100
AcDbLine
 10
3.464431379
 20
6.2142999736
 30
0.0
 11
3.4988801979
 21
6.2142999736
 31
0.0
  0
LINE
  5
23D
330
1F
100
AcDbEntity
  8
0
  6
CONTINUOUS
 62
     7
100
AcDbLine
 10
3.5284077569
 20
6.2142999736
 30
0.0
 11
3.5628565758
 21
6.2142999736
 31
0.0
  0
ARC
  5
23E
330
1F
100
AcDbEntity
  8
0
  6
CONTINUOUS
 62
     7
100
AcDbCircle
 10
3.4604943711
 20
7.1798511547
 30
0.0
 40
0.0039370078740166
100
AcDbArc
 50
0.0
 51
90.0
  0
ARC
  5
23F
330
1F
100
AcDbEntity
  8
0
  6
CONTINUOUS
 62
     7
100
AcDbCircle
 10
3.4604943711
 20
6.1641031232
 30
0.0
 40
0.0039370078740162
100
AcDbArc
 50
270.0
 51
0.0
  0
LINE
  5
240
330
1F
100
AcDbEntity
  8
0
  6
CONTINUOUS
 62
     7
100
AcDbLine
 10
3.4604943711
 20
7.1837881625
 30
0.0
 11
3.1927778357
 21
7.1837881625
 31
0.0
  0
LINE
  5
241
330
1F
100
AcDbEntity
  8
0
  6
CONTINUOUS
 62
     7
100
AcDbLine
 10
3.1927778357
 20
6.1601661153
 30
0.0
 11
3.4604943711
 21
6.1601661153
 31
0.0
  0
ARC
  5
242
330
1F
100
AcDbEntity
  8
0
  6
CONTINUOUS
 62
     7
100
AcDbCircle
 10
3.1927778357
 20
7.1798511547
 30
0.0
 40
0.0039370078740166
100
AcDbArc
 50
90.0
 51
180.0
  0
ARC
  5
243
330
1F
100
AcDbEntity
  8
0
  6
CONTINUOUS
 62
     7
100
AcDbCircle
 10
3.1927778357
 20
6.1641031232
 30
0.0
 40
0.0039370078740157
100
AcDbArc
 50
180.0
 51
270.0
  0
LINE
  5
244
330
1F
100
AcDbEntity
  8
0
  6
CONTINUOUS
 62
     7
100
AcDbLine
 10
3.1543920089
 20
7.1567212334
 30
0.0
 11
3.1248644498
 21
7.1567212334
 31
0.0
  0
LINE
  5
245
330
1F
100
AcDbEntity
  8
0
  6
CONTINUOUS
 62
     7
100
AcDbLine
 10
3.1248644498
 20
6.1872330444
 30
0.0
 11
3.1543920089
 21
6.1872330444
 31
0.0
  0
LINE
  5
246
330
1F
100
AcDbEntity
  8
0
  6
CONTINUOUS
 62
     7
100
AcDbLine
 10
3.5284077569
 20
7.1567212334
 30
0.0
 11
3.4988801979
 21
7.1567212334
 31
0.0
  0
LINE
  5
247
330
1F
100
AcDbEntity
  8
0
  6
CONTINUOUS
 62
     7
100
AcDbLine
 10
3.4988801979
 20
6.1872330444
 30
0.0
 11
3.5284077569
 21
6.1872330444
 31
0.0
  0
LINE
  5
248
330
1F
100
AcDbEntity
  8
0
  6
CONTINUOUS
 62
     7
100
AcDbLine
 10
4.0156124813
 20
7.1687881625
 30
0.0
 11
4.0156124813
 21
6.1755562566
 31
0.0
  0
LINE
  5
249
330
1F
100
AcDbEntity
  8
0
  6
CONTINUOUS
 62
     7
100
AcDbLine
 10
4.0006124813
 20
6.1605448138
 30
0.0
 11
4.0156124813
 21
6.1755562566
 31
0.0
  0
LINE
  5
24A
330
1F
100
AcDbEntity
  8
0
  6
CONTINUOUS
 62
     7
100
AcDbLine
 10
4.0006124813
 20
6.1605448138
 30
0.0
 11
4.0006124813
 21
7.1837881625
 31
0.0
  0
LINE
  5
24B
330
1F
100
AcDbEntity
  8
0
  6
CONTINUOUS
 62
     7
100
AcDbLine
 10
3.5628565758
 20
7.1837881625
 30
0.0
 11
3.5628565758
 21
6.1601661153
 31
0.0
  0
SPLINE
  5
24C
330
1F
100
AcDbEntity
  8
0
  6
CONTINUOUS
 62
     7
100
AcDbSpline
210
0.0
220
0.0
230
1.0
 70
     8
 71
     3
 72
    72
 73
    68
 74
     0
 42
0.00000001
 43
0.00000001
 40
-0.0312499999999997
 40
-0.0312499999999997
 40
0.0
 40
0.0
 40
0.0312500000000002
 40
0.0312500000000002
 40
0.0625000000000003
 40
0.0625000000000003
 40
0.0937500000000005
 40
0.0937500000000005
 40
0.1250000000000006
 40
0.1250000000000006
 40
0.1562500000000008
 40
0.1562500000000008
 40
0.1875000000000009
 40
0.1875000000000009
 40
0.2187500000000011
 40
0.2187500000000011
 40
0.2500000000000013
 40
0.2500000000000013
 40
0.2812500000000012
 40
0.2812500000000012
 40
0.3125000000000012
 40
0.3125000000000012
 40
0.3437500000000011
 40
0.3437500000000011
 40
0.375000000000001
 40
0.375000000000001
 40
0.4062500000000009
 40
0.4062500000000009
 40
0.4375000000000009
 40
0.4375000000000009
 40
0.4687500000000008
 40
0.4687500000000008
 40
0.4843750000000008
 40
0.4843750000000008
 40
0.5000000000000007
 40
0.5000000000000007
 40
0.5156250000000007
 40
0.5156250000000007
 40
0.5312500000000006
 40
0.5312500000000006
 40
0.5625000000000008
 40
0.5625000000000008
 40
0.6250000000000008
 40
0.6250000000000008
 40
0.6562500000000008
 40
0.6562500000000008
 40
0.6875000000000009
 40
0.6875000000000009
 40
0.7187500000000009
 40
0.7187500000000009
 40
0.7500000000000009
 40
0.7500000000000009
 40
0.7812500000000009
 40
0.7812500000000009
 40
0.8125000000000008
 40
0.8125000000000008
 40
0.8437500000000008
 40
0.8437500000000008
 40
0.8750000000000007
 40
0.8750000000000007
 40
0.9062500000000007
 40
0.9062500000000007
 40
0.9375000000000006
 40
0.9375000000000006
 40
0.9687500000000003
 40
0.9687500000000003
 40
1.0
 40
1.0
 40
1.03125
 40
1.03125
 10
3.890693785093843
 20
6.476310390893793
 30
0.0
 10
3.87431070513983
 20
6.476310390893793
 30
0.0
 10
3.866289801087321
 20
6.475392576898409
 30
0.0
 10
3.850575283341362
 20
6.471809306897708
 30
0.0
 10
3.842852142293207
 20
6.469100888066519
 30
0.0
 10
3.828538418207638
 20
6.462238208207489
 30
0.0
 10
3.821775647068899
 20
6.458015881070747
 30
0.0
 10
3.809490659139835
 20
6.448368298848361
 30
0.0
 10
3.804030311432072
 20
6.443016823442299
 30
0.0
 10
3.794378723533813
 20
6.431392594254862
 30
0.0
 10
3.790242449596764
 20
6.425158378320267
 30
0.0
 10
3.783472785823774
 20
6.412396250320096
 30
0.0
 10
3.780775655160483
 20
6.405751979390201
 30
0.0
 10
3.776786228421578
 20
6.392423293797176
 30
0.0
 10
3.775488583473655
 20
6.385771011652192
 30
0.0
 10
3.77412276739995
 20
6.372526705056316
 30
0.0
 10
3.774065504597766
 20
6.365910303892193
 30
0.0
 10
3.775076521941285
 20
6.353116599910772
 30
0.0
 10
3.776135987897624
 20
6.346892657919151
 30
0.0
 10
3.779283301828913
 20
6.334771761886246
 30
0.0
 10
3.781385900654033
 20
6.328858407663515
 30
0.0
 10
3.786488775775394
 20
6.317631013217778
 30
0.0
 10
3.789495004428704
 20
6.312278140342448
 30
0.0
 10
3.796438620041995
 20
6.302064780231545
 30
0.0
 10
3.800401697074826
 20
6.297176598809775
 30
0.0
 10
3.809281200111786
 20
6.288035304567666
 30
0.0
 10
3.814158314013569
 20
6.283809744703036
 30
0.0
 10
3.824975345601441
 20
6.276082165502044
 30
0.0
 10
3.83098691550364
 20
6.272546578481027
 30
0.0
 10
3.844033386026074
 20
6.266585883588968
 30
0.0
 10
3.851174878128087
 20
6.264112093582653
 30
0.0
 10
3.862612726469541
 20
6.261545851558182
 30
0.0
 10
3.866510851200275
 20
6.260887086408017
 30
0.0
 10
3.874497836098585
 20
6.259996507630213
 30
0.0
 10
3.878624549933276
 20
6.259768257735413
 30
0.0
 10
3.886745467171452
 20
6.259781966428052
 30
0.0
 10
3.890770998831238
 20
6.260016430836052
 30
0.0
 10
3.898755009819342
 20
6.260926432746475
 30
0.0
 10
3.902728685229534
 20
6.261609514819492
 30
0.0
 10
3.914143536057912
 20
6.264208004365979
 30
0.0
 10
3.921308812969752
 20
6.266715738713875
 30
0.0
 10
3.940805093063893
 20
6.275698356870112
 30
0.0
 10
3.951574786560815
 20
6.283720191441762
 30
0.0
 10
3.964736423285699
 20
6.297337030662634
 30
0.0
 10
3.968646411779127
 20
6.302167928016795
 30
0.0
 10
3.975600097854882
 20
6.312427123735613
 30
0.0
 10
3.978642557086524
 20
6.317873811241464
 30
0.0
 10
3.983714284911629
 20
6.329106862916348
 30
0.0
 10
3.985769115309714
 20
6.334926031803193
 30
0.0
 10
3.988887629146716
 20
6.346997281551994
 30
0.0
 10
3.989954157657234
 20
6.353297178271375
 30
0.0
 10
3.990944405971043
 20
6.36613455677524
 30
0.0
 10
3.990874820887513
 20
6.372639743677428
 30
0.0
 10
3.989506793010498
 20
6.385812732196438
 30
0.0
 10
3.988193874370329
 20
6.392531867471297
 30
0.0
 10
3.984183242906863
 20
6.405876729943311
 30
0.0
 10
3.981520135514963
 20
6.41242142280526
 30
0.0
 10
3.974751419319077
 20
6.425175027641009
 30
0.0
 10
3.970581051306106
 20
6.43144919079988
 30
0.0
 10
3.960986562764959
 20
6.442999157135263
 30
0.0
 10
3.95555698249094
 20
6.4483260214526
 30
0.0
 10
3.943329256812794
 20
6.457945316820043
 30
0.0
 10
3.936524470524588
 20
6.462203438283173
 30
0.0
 10
3.922243626073706
 20
6.469063825314738
 30
0.0
 10
3.914604504919451
 20
6.47176044601805
 30
0.0
 10
3.898762943214636
 20
6.475390338235402
 30
0.0
 10
3.890693785093843
 20
6.476310390893793
 30
0.0
 10
3.87431070513983
 20
6.476310390893793
 30
0.0
  0
LINE
  5
24D
330
1F
100
AcDbEntity
  8
0
  6
CONTINUOUS
 62
     7
100
AcDbLine
 10
4.0006124813
 20
6.1605448138
 30
0.0
 11
3.7217410903
 21
6.1605448138
 31
0.0
  0
LINE
  5
24E
330
1F
100
AcDbEntity
  8
0
  6
CONTINUOUS
 62
     7
100
AcDbLine
 10
3.7217410903
 20
6.8737487925
 30
0.0
 11
3.7217410903
 21
6.1605448138
 31
0.0
  0
LINE
  5
24F
330
1F
100
AcDbEntity
  8
0
  6
CONTINUOUS
 62
     7
100
AcDbLine
 10
3.6692476519
 20
6.8737487925
 30
0.0
 11
3.7217410903
 21
6.8737487925
 31
0.0
  0
LINE
  5
250
330
1F
100
AcDbEntity
  8
0
  6
CONTINUOUS
 62
     7
100
AcDbLine
 10
3.6692476519
 20
6.1601661153
 30
0.0
 11
3.6692476519
 21
6.8737487925
 31
0.0
  0
CIRCLE
  5
251
330
1F
100
AcDbEntity
  8
0
  6
CONTINUOUS
 62
     7
100
AcDbCircle
 10
3.8825022451
 20
6.3680426744
 30
0.0
 40
0.0885826771653528
  0
CIRCLE
  5
252
330
1F
100
AcDbEntity
  8
0
  6
CONTINUOUS
 62
     7
100
AcDbCircle
 10
3.8825022451
 20
6.3680426744
 30
0.0
 40
0.1082677165354315
  0
LINE
  5
253
330
1F
100
AcDbEntity
  8
0
  6
CONTINUOUS
 62
     7
100
AcDbLine
 10
3.9317148435
 20
6.3396297674
 30
0.0
 11
3.9317148435
 21
6.3964555813
 31
0.0
  0
LINE
  5
254
330
1F
100
AcDbEntity
  8
0
  6
CONTINUOUS
 62
     7
100
AcDbLine
 10
3.9317148435
 20
6.3964555813
 30
0.0
 11
3.8825022451
 21
6.4248684883
 31
0.0
  0
LINE
  5
255
330
1F
100
AcDbEntity
  8
0
  6
CONTINUOUS
 62
     7
100
AcDbLine
 10
3.8825022451
 20
6.4248684883
 30
0.0
 11
3.8332896467
 21
6.3964555813
 31
0.0
  0
LINE
  5
256
330
1F
100
AcDbEntity
  8
0
  6
CONTINUOUS
 62
     7
100
AcDbLine
 10
3.8332896467
 20
6.3964555813
 30
0.0
 11
3.8332896467
 21
6.3396297674
 31
0.0
  0
LINE
  5
257
330
1F
100
AcDbEntity
  8
0
  6
CONTINUOUS
 62
     7
100
AcDbLine
 10
3.8332896467
 20
6.3396297674
 30
0.0
 11
3.8825022451
 21
6.3112168605
 31
0.0
  0
LINE
  5
258
330
1F
100
AcDbEntity
  8
0
  6
CONTINUOUS
 62
     7
100
AcDbLine
 10
3.8825022451
 20
6.3112168605
 30
0.0
 11
3.9317148435
 21
6.3396297674
 31
0.0
  0
LINE
  5
259
330
1F
100
AcDbEntity
  8
0
  6
CONTINUOUS
 62
     7
100
AcDbLine
 10
2.7707699617
 20
7.0558354066
 30
0.0
 11
2.6821872845
 21
7.0558354066
 31
0.0
  0
LINE
  5
25A
330
1F
100
AcDbEntity
  8
0
  6
CONTINUOUS
 62
     7
100
AcDbLine
 10
2.8593526388
 20
7.0558354066
 30
0.0
 11
2.7707699617
 21
7.0558354066
 31
0.0
  0
SPLINE
  5
25B
330
1F
100
AcDbEntity
  8
0
  6
CONTINUOUS
 62
     7
100
AcDbSpline
210
0.0
220
0.0
230
1.0
 70
     8
 71
     3
 72
    72
 73
    68
 74
     0
 42
0.00000001
 43
0.00000001
 40
-0.0312500000000002
 40
-0.0312500000000002
 40
0.0
 40
0.0
 40
0.0312499999999998
 40
0.0312499999999998
 40
0.0624999999999996
 40
0.0624999999999996
 40
0.0937499999999995
 40
0.0937499999999995
 40
0.1249999999999993
 40
0.1249999999999993
 40
0.1562499999999991
 40
0.1562499999999991
 40
0.1874999999999989
 40
0.1874999999999989
 40
0.2187499999999987
 40
0.2187499999999987
 40
0.2499999999999986
 40
0.2499999999999986
 40
0.2812499999999984
 40
0.2812499999999984
 40
0.3124999999999982
 40
0.3124999999999982
 40
0.343749999999998
 40
0.343749999999998
 40
0.3749999999999978
 40
0.3749999999999978
 40
0.4062499999999977
 40
0.4062499999999977
 40
0.4374999999999974
 40
0.4374999999999974
 40
0.4687499999999973
 40
0.4687499999999973
 40
0.4843749999999972
 40
0.4843749999999972
 40
0.4999999999999971
 40
0.4999999999999971
 40
0.515624999999997
 40
0.515624999999997
 40
0.5312499999999969
 40
0.5312499999999969
 40
0.562499999999997
 40
0.562499999999997
 40
0.6249999999999969
 40
0.6249999999999969
 40
0.6562499999999971
 40
0.6562499999999971
 40
0.6874999999999973
 40
0.6874999999999973
 40
0.7187499999999977
 40
0.7187499999999977
 40
0.7499999999999979
 40
0.7499999999999979
 40
0.7812499999999981
 40
0.7812499999999981
 40
0.8124999999999984
 40
0.8124999999999984
 40
0.8437499999999987
 40
0.8437499999999987
 40
0.8749999999999989
 40
0.8749999999999989
 40
0.9062499999999992
 40
0.9062499999999992
 40
0.9374999999999994
 40
0.9374999999999994
 40
0.9687499999999998
 40
0.9687499999999998
 40
1.0
 40
1.0
 40
1.03125
 40
1.03125
 10
2.762578421675262
 20
7.144909531145269
 30
0.0
 10
2.778961501629275
 20
7.144909531145269
 30
0.0
 10
2.786982405681785
 20
7.144532756090797
 30
0.0
 10
2.802696923427742
 20
7.143026117656208
 30
0.0
 10
2.810420064475898
 20
7.14187692514357
 30
0.0
 10
2.824733788561467
 20
7.138854171121163
 30
0.0
 10
2.831496559700206
 20
7.136949800159201
 30
0.0
 10
2.84378154762927
 20
7.132387914426196
 30
0.0
 10
2.849241895337033
 20
7.129765824465045
 30
0.0
 10
2.858893483235292
 20
7.123765124091254
 30
0.0
 10
2.863029757172341
 20
7.120402089106364
 30
0.0
 10
2.869799420945331
 20
7.113137199224035
 30
0.0
 10
2.872496551608622
 20
7.109169022465093
 30
0.0
 10
2.876485978347527
 20
7.100768727318806
 30
0.0
 10
2.87778362329545
 20
7.096361128320734
 30
0.0
 10
2.879149439369155
 20
7.087121879226715
 30
0.0
 10
2.879206702171339
 20
7.082268315663327
 30
0.0
 10
2.878195684827821
 20
7.072406550777157
 30
0.0
 10
2.877136218871481
 20
7.067367805723872
 30
0.0
 10
2.873988904940192
 20
7.057082621720346
 30
0.0
 10
2.871886306115071
 20
7.051817741282522
 30
0.0
 10
2.866783430993711
 20
7.041366053401966
 30
0.0
 10
2.863777202340401
 20
7.036147653682999
 30
0.0
 10
2.856833586727109
 20
7.025768575065835
 30
0.0
 10
2.852870509694279
 20
7.020576398750046
 30
0.0
 10
2.843991006657319
 20
7.010482023161389
 30
0.0
 10
2.839113892755536
 20
7.005612748242788
 30
0.0
 10
2.828296861167665
 20
6.996405583671525
 30
0.0
 10
2.822285291265466
 20
6.992022472035964
 30
0.0
 10
2.809238820743031
 20
6.984437885195635
 30
0.0
 10
2.802097328641019
 20
6.981177345975881
 30
0.0
 10
2.790659480299563
 20
6.977752738165163
 30
0.0
 10
2.786761355568831
 20
6.976864091088747
 30
0.0
 10
2.77877437067052
 20
6.975659611774683
 30
0.0
 10
2.77464765683583
 20
6.975348795981253
 30
0.0
 10
2.766526739597654
 20
6.975367421905255
 30
0.0
 10
2.762501207937868
 20
6.975686678536169
 30
0.0
 10
2.754517196949763
 20
6.976917176325923
 30
0.0
 10
2.750543521539571
 20
6.977838254365111
 30
0.0
 10
2.739128670711193
 20
6.981304144861172
 30
0.0
 10
2.731963393799353
 20
6.984606592273927
 30
0.0
 10
2.712467113705212
 20
6.996025693302514
 30
0.0
 10
2.70169742020829
 20
7.005728149527758
 30
0.0
 10
2.688535783483406
 20
7.020747809701658
 30
0.0
 10
2.684625794989978
 20
7.025877011271447
 30
0.0
 10
2.677672108914222
 20
7.036295349691822
 30
0.0
 10
2.674629649682581
 20
7.041598793853146
 30
0.0
 10
2.669557921857475
 20
7.052042012726505
 30
0.0
 10
2.667503091459392
 20
7.057216932640764
 30
0.0
 10
2.664384577622389
 20
7.067453105041322
 30
0.0
 10
2.663318049111871
 20
7.072550772017596
 30
0.0
 10
2.662327800798062
 20
7.082435989231307
 30
0.0
 10
2.662397385881592
 20
7.087202529222015
 30
0.0
 10
2.663765413758608
 20
7.096388417359277
 30
0.0
 10
2.665078332398775
 20
7.100839644248784
 30
0.0
 10
2.669088963862242
 20
7.109245112311835
 30
0.0
 10
2.671752071254143
 20
7.113151925028138
 30
0.0
 10
2.678520787450029
 20
7.120411169222658
 30
0.0
 10
2.682691155462999
 20
7.123794653059836
 30
0.0
 10
2.692285644004146
 20
7.129756391145392
 30
0.0
 10
2.697715224278165
 20
7.132367201548413
 30
0.0
 10
2.70994294995631
 20
7.136917147135986
 30
0.0
 10
2.716747736244517
 20
7.138838540549465
 30
0.0
 10
2.731028580695399
 20
7.14186091281729
 30
0.0
 10
2.738667701849653
 20
7.143005456902761
 30
0.0
 10
2.754509263554469
 20
7.144531929663698
 30
0.0
 10
2.762578421675262
 20
7.144909531145269
 30
0.0
 10
2.778961501629275
 20
7.144909531145269
 30
0.0
  0
SPLINE
  5
25C
330
1F
100
AcDbEntity
  8
0
  6
CONTINUOUS
 62
     7
100
AcDbSpline
210
0.0
220
0.0
230
1.0
 70
     8
 71
     3
 72
    48
 73
    44
 74
     0
 42
0.00000001
 43
0.00000001
 40
-0.0624999999999999
 40
-0.0624999999999999
 40
0.0
 40
0.0
 40
0.0312500000000001
 40
0.0312500000000001
 40
0.0625000000000001
 40
0.0625000000000001
 40
0.0937500000000002
 40
0.0937500000000002
 40
0.1250000000000002
 40
0.1250000000000002
 40
0.1875000000000006
 40
0.1875000000000006
 40
0.250000000000001
 40
0.250000000000001
 40
0.3125000000000012
 40
0.3125000000000012
 40
0.3750000000000013
 40
0.3750000000000013
 40
0.4375000000000015
 40
0.4375000000000015
 40
0.4687500000000014
 40
0.4687500000000014
 40
0.5000000000000012
 40
0.5000000000000012
 40
0.5312500000000011
 40
0.5312500000000011
 40
0.5625000000000009
 40
0.5625000000000009
 40
0.5937500000000007
 40
0.5937500000000007
 40
0.6250000000000006
 40
0.6250000000000006
 40
0.7500000000000004
 40
0.7500000000000004
 40
0.8125000000000002
 40
0.8125000000000002
 40
0.875
 40
0.875
 40
0.90625
 40
0.90625
 40
0.9375000000000001
 40
0.9375000000000001
 40
1.0
 40
1.0
 40
1.03125
 40
1.03125
 10
2.779616703830033
 20
6.31115989047154
 30
0.0
 10
2.766346590563387
 20
6.31115989047154
 30
0.0
 10
2.762055914724267
 20
6.310665011493352
 30
0.0
 10
2.753711374995651
 20
6.308802687829004
 30
0.0
 10
2.749719458977771
 20
6.307436895939857
 30
0.0
 10
2.74237647904911
 20
6.304131810009432
 30
0.0
 10
2.738955803478831
 20
6.302162657838318
 30
0.0
 10
2.73282538898503
 20
6.29792111759981
 30
0.0
 10
2.730071133228028
 20
6.295630168947555
 30
0.0
 10
2.722609513217286
 20
6.288360062814826
 30
0.0
 10
2.718860844900512
 20
6.283162576280427
 30
0.0
 10
2.713566834340802
 20
6.272577699871347
 30
0.0
 10
2.712054358556716
 20
6.26719597102009
 30
0.0
 10
2.711477103002943
 20
6.256810913714866
 30
0.0
 10
2.712432125582132
 20
6.251709036860762
 30
0.0
 10
2.71701990713706
 20
6.242435091704891
 30
0.0
 10
2.720758486877113
 20
6.238087370517559
 30
0.0
 10
2.731026506194903
 20
6.230801698973363
 30
0.0
 10
2.737664848754489
 20
6.227796168487987
 30
0.0
 10
2.749105358810068
 20
6.224722897094284
 30
0.0
 10
2.753249634275124
 20
6.22391648519136
 30
0.0
 10
2.761665012767992
 20
6.222846961929168
 30
0.0
 10
2.766003877315161
 20
6.222565228732769
 30
0.0
 10
2.774823026782918
 20
6.222536218996612
 30
0.0
 10
2.779149615730967
 20
6.222786791146351
 30
0.0
 10
2.787642986796576
 20
6.223807004191213
 30
0.0
 10
2.791788837278321
 20
6.224583568225995
 30
0.0
 10
2.799490106226644
 20
6.226589113333557
 30
0.0
 10
2.803141463605357
 20
6.227843417019354
 30
0.0
 10
2.809723606427136
 20
6.230736968109692
 30
0.0
 10
2.81267373209912
 20
6.232373790415922
 30
0.0
 10
2.825835856418994
 20
6.241528778182148
 30
0.0
 10
2.83031283914748
 20
6.251413330019211
 30
0.0
 10
2.829517500322698
 20
6.267061105219944
 30
0.0
 10
2.828014306771715
 20
6.272463146874011
 30
0.0
 10
2.822744238709494
 20
6.283063795720646
 30
0.0
 10
2.819015770801141
 20
6.288259620977079
 30
0.0
 10
2.811545919067854
 20
6.295563449687087
 30
0.0
 10
2.808787714763971
 20
6.297864588075233
 30
0.0
 10
2.802647748183918
 20
6.302124401546676
 30
0.0
 10
2.799221460773304
 20
6.304101264956512
 30
0.0
 10
2.788204389353333
 20
6.309073257372535
 30
0.0
 10
2.779616703830033
 20
6.31115989047154
 30
0.0
 10
2.766346590563387
 20
6.31115989047154
 30
0.0
  0
LINE
  5
25D
330
1F
100
AcDbEntity
  8
0
  6
CONTINUOUS
 62
     7
100
AcDbLine
 10
2.9840245548
 20
7.1423373453
 30
0.0
 11
2.9315311165
 21
7.1423373453
 31
0.0
  0
LINE
  5
25E
330
1F
100
AcDbEntity
  8
0
  6
CONTINUOUS
 62
     7
100
AcDbLine
 10
2.9315311165
 20
7.1837881625
 30
0.0
 11
2.9315311165
 21
6.6916621783
 31
0.0
  0
LINE
  5
25F
330
1F
100
AcDbEntity
  8
0
  6
CONTINUOUS
 62
     7
100
AcDbLine
 10
2.6526597254
 20
6.6916621783
 30
0.0
 11
2.9315311165
 21
6.6916621783
 31
0.0
  0
LINE
  5
260
330
1F
100
AcDbEntity
  8
0
  6
CONTINUOUS
 62
     7
100
AcDbLine
 10
2.6526597254
 20
6.6916621783
 30
0.0
 11
2.6526597254
 21
7.1837881625
 31
0.0
  0
LINE
  5
261
330
1F
100
AcDbEntity
  8
0
  6
CONTINUOUS
 62
     7
100
AcDbLine
 10
2.6526597254
 20
6.1601661153
 30
0.0
 11
2.6526597254
 21
6.6522920995
 31
0.0
  0
LINE
  5
262
330
1F
100
AcDbEntity
  8
0
  6
CONTINUOUS
 62
     7
100
AcDbLine
 10
2.6526597254
 20
6.6522920995
 30
0.0
 11
2.9315311165
 21
6.6522920995
 31
0.0
  0
LINE
  5
263
330
1F
100
AcDbEntity
  8
0
  6
CONTINUOUS
 62
     7
100
AcDbLine
 10
2.9315311165
 20
6.6522920995
 30
0.0
 11
2.9315311165
 21
6.1601661153
 31
0.0
  0
LINE
  5
264
330
1F
100
AcDbEntity
  8
0
  6
CONTINUOUS
 62
     7
100
AcDbLine
 10
2.9315311165
 20
6.2016169326
 30
0.0
 11
2.9840245548
 21
6.2016169326
 31
0.0
  0
LINE
  5
265
330
1F
100
AcDbEntity
  8
0
  6
CONTINUOUS
 62
     7
100
AcDbLine
 10
3.0904156309
 20
7.1837881625
 30
0.0
 11
3.0904156309
 21
6.1601661153
 31
0.0
  0
LINE
  5
266
330
1F
100
AcDbEntity
  8
0
  6
CONTINUOUS
 62
     7
100
AcDbLine
 10
2.9840245548
 20
6.1601661153
 30
0.0
 11
2.9840245548
 21
7.1837881625
 31
0.0
  0
LINE
  5
267
330
1F
100
AcDbEntity
  8
0
  6
CONTINUOUS
 62
     7
100
AcDbLine
 10
2.6526597254
 20
6.6916621783
 30
0.0
 11
2.6376597254
 21
6.6916621783
 31
0.0
  0
LINE
  5
268
330
1F
100
AcDbEntity
  8
0
  6
CONTINUOUS
 62
     7
100
AcDbLine
 10
2.6376597254
 20
6.6522920995
 30
0.0
 11
2.6376597254
 21
6.1751661153
 31
0.0
  0
LINE
  5
269
330
1F
100
AcDbEntity
  8
0
  6
CONTINUOUS
 62
     7
100
AcDbLine
 10
2.6376597254
 20
7.1687881625
 30
0.0
 11
2.6376597254
 21
6.6916621783
 31
0.0
  0
LINE
  5
26A
330
1F
100
AcDbEntity
  8
0
  6
CONTINUOUS
 62
     7
100
AcDbLine
 10
2.6526597254
 20
6.6522920995
 30
0.0
 11
2.6376597254
 21
6.6522920995
 31
0.0
  0
LINE
  5
26B
330
1F
100
AcDbEntity
  8
0
  6
CONTINUOUS
 62
     7
100
AcDbLine
 10
2.6376597254
 20
6.6916621783
 30
0.0
 11
2.6376597254
 21
6.6522920995
 31
0.0
  0
LINE
  5
26C
330
1F
100
AcDbEntity
  8
0
  6
CONTINUOUS
 62
     7
100
AcDbLine
 10
2.9315311165
 20
6.6522920995
 30
0.0
 11
2.9315311165
 21
6.6916621783
 31
0.0
  0
LINE
  5
26D
330
1F
100
AcDbEntity
  8
0
  6
CONTINUOUS
 62
     7
100
AcDbLine
 10
3.464431379
 20
7.1798511547
 30
0.0
 11
3.464431379
 21
6.1641031232
 31
0.0
  0
LINE
  5
26E
330
1F
100
AcDbEntity
  8
0
  6
CONTINUOUS
 62
     7
100
AcDbLine
 10
3.1888408278
 20
6.1641031232
 30
0.0
 11
3.1888408278
 21
7.1798511547
 31
0.0
  0
LINE
  5
26F
330
1F
100
AcDbEntity
  8
0
  6
CONTINUOUS
 62
     7
100
AcDbLine
 10
3.1543920089
 20
6.7676731846
 30
0.0
 11
3.1248644498
 21
6.7676731846
 31
0.0
  0
LINE
  5
270
330
1F
100
AcDbEntity
  8
0
  6
CONTINUOUS
 62
     7
100
AcDbLine
 10
3.1543920089
 20
6.5762810932
 30
0.0
 11
3.1248644498
 21
6.5762810932
 31
0.0
  0
LINE
  5
271
330
1F
100
AcDbEntity
  8
0
  6
CONTINUOUS
 62
     7
100
AcDbLine
 10
3.1543920089
 20
6.7676731846
 30
0.0
 11
3.1543920089
 21
6.5762810932
 31
0.0
  0
LINE
  5
272
330
1F
100
AcDbEntity
  8
0
  6
CONTINUOUS
 62
     7
100
AcDbLine
 10
3.1248644498
 20
6.7676731846
 30
0.0
 11
3.1248644498
 21
6.5762810932
 31
0.0
  0
LINE
  5
273
330
1F
100
AcDbEntity
  8
0
  6
CONTINUOUS
 62
     7
100
AcDbLine
 10
3.1543920089
 20
7.1170826334
 30
0.0
 11
3.1248644498
 21
7.1170826334
 31
0.0
  0
LINE
  5
274
330
1F
100
AcDbEntity
  8
0
  6
CONTINUOUS
 62
     7
100
AcDbLine
 10
3.1543920089
 20
7.1170826334
 30
0.0
 11
3.1543920089
 21
6.7676731846
 31
0.0
  0
LINE
  5
275
330
1F
100
AcDbEntity
  8
0
  6
CONTINUOUS
 62
     7
100
AcDbLine
 10
3.1248644498
 20
7.1170826334
 30
0.0
 11
3.1248644498
 21
6.7676731846
 31
0.0
  0
LINE
  5
276
330
1F
100
AcDbEntity
  8
0
  6
CONTINUOUS
 62
     7
100
AcDbLine
 10
3.1543920089
 20
6.2268716444
 30
0.0
 11
3.1248644498
 21
6.2268716444
 31
0.0
  0
LINE
  5
277
330
1F
100
AcDbEntity
  8
0
  6
CONTINUOUS
 62
     7
100
AcDbLine
 10
3.1543920089
 20
6.5762810932
 30
0.0
 11
3.1543920089
 21
6.2268716444
 31
0.0
  0
LINE
  5
278
330
1F
100
AcDbEntity
  8
0
  6
CONTINUOUS
 62
     7
100
AcDbLine
 10
3.1248644498
 20
6.5762810932
 30
0.0
 11
3.1248644498
 21
6.2268716444
 31
0.0
  0
LINE
  5
279
330
1F
100
AcDbEntity
  8
0
  6
CONTINUOUS
 62
     7
100
AcDbLine
 10
3.1543920089
 20
7.1567212334
 30
0.0
 11
3.1543920089
 21
7.1170826334
 31
0.0
  0
LINE
  5
27A
330
1F
100
AcDbEntity
  8
0
  6
CONTINUOUS
 62
     7
100
AcDbLine
 10
3.1248644498
 20
7.1567212334
 30
0.0
 11
3.1248644498
 21
7.1170826334
 31
0.0
  0
LINE
  5
27B
330
1F
100
AcDbEntity
  8
0
  6
CONTINUOUS
 62
     7
100
AcDbLine
 10
3.1543920089
 20
6.2268716444
 30
0.0
 11
3.1543920089
 21
6.1872330444
 31
0.0
  0
LINE
  5
27C
330
1F
100
AcDbEntity
  8
0
  6
CONTINUOUS
 62
     7
100
AcDbLine
 10
3.1248644498
 20
6.2268716444
 30
0.0
 11
3.1248644498
 21
6.1872330444
 31
0.0
  0
LINE
  5
27D
330
1F
100
AcDbEntity
  8
0
  6
CONTINUOUS
 62
     7
100
AcDbLine
 10
3.4988801979
 20
6.5762810932
 30
0.0
 11
3.5284077569
 21
6.5762810932
 31
0.0
  0
LINE
  5
27E
330
1F
100
AcDbEntity
  8
0
  6
CONTINUOUS
 62
     7
100
AcDbLine
 10
3.4988801979
 20
6.7676731846
 30
0.0
 11
3.5284077569
 21
6.7676731846
 31
0.0
  0
LINE
  5
27F
330
1F
100
AcDbEntity
  8
0
  6
CONTINUOUS
 62
     7
100
AcDbLine
 10
3.4988801979
 20
6.7676731846
 30
0.0
 11
3.4988801979
 21
6.5762810932
 31
0.0
  0
LINE
  5
280
330
1F
100
AcDbEntity
  8
0
  6
CONTINUOUS
 62
     7
100
AcDbLine
 10
3.5284077569
 20
6.7676731846
 30
0.0
 11
3.5284077569
 21
6.5762810932
 31
0.0
  0
LINE
  5
281
330
1F
100
AcDbEntity
  8
0
  6
CONTINUOUS
 62
     7
100
AcDbLine
 10
3.4988801979
 20
7.1170826334
 30
0.0
 11
3.5284077569
 21
7.1170826334
 31
0.0
  0
LINE
  5
282
330
1F
100
AcDbEntity
  8
0
  6
CONTINUOUS
 62
     7
100
AcDbLine
 10
3.4988801979
 20
7.1170826334
 30
0.0
 11
3.4988801979
 21
6.7676731846
 31
0.0
  0
LINE
  5
283
330
1F
100
AcDbEntity
  8
0
  6
CONTINUOUS
 62
     7
100
AcDbLine
 10
3.5284077569
 20
7.1170826334
 30
0.0
 11
3.5284077569
 21
6.7676731846
 31
0.0
  0
LINE
  5
284
330
1F
100
AcDbEntity
  8
0
  6
CONTINUOUS
 62
     7
100
AcDbLine
 10
3.4988801979
 20
6.2268716444
 30
0.0
 11
3.5284077569
 21
6.2268716444
 31
0.0
  0
LINE
  5
285
330
1F
100
AcDbEntity
  8
0
  6
CONTINUOUS
 62
     7
100
AcDbLine
 10
3.4988801979
 20
6.5762810932
 30
0.0
 11
3.4988801979
 21
6.2268716444
 31
0.0
  0
LINE
  5
286
330
1F
100
AcDbEntity
  8
0
  6
CONTINUOUS
 62
     7
100
AcDbLine
 10
3.5284077569
 20
6.5762810932
 30
0.0
 11
3.5284077569
 21
6.2268716444
 31
0.0
  0
LINE
  5
287
330
1F
100
AcDbEntity
  8
0
  6
CONTINUOUS
 62
     7
100
AcDbLine
 10
3.4988801979
 20
7.1567212334
 30
0.0
 11
3.4988801979
 21
7.1170826334
 31
0.0
  0
LINE
  5
288
330
1F
100
AcDbEntity
  8
0
  6
CONTINUOUS
 62
     7
100
AcDbLine
 10
3.5284077569
 20
7.1567212334
 30
0.0
 11
3.5284077569
 21
7.1170826334
 31
0.0
  0
LINE
  5
289
330
1F
100
AcDbEntity
  8
0
  6
CONTINUOUS
 62
     7
100
AcDbLine
 10
3.4988801979
 20
6.2268716444
 30
0.0
 11
3.4988801979
 21
6.1872330444
 31
0.0
  0
LINE
  5
28A
330
1F
100
AcDbEntity
  8
0
  6
CONTINUOUS
 62
     7
100
AcDbLine
 10
3.5284077569
 20
6.2268716444
 30
0.0
 11
3.5284077569
 21
6.1872330444
 31
0.0
  0
LINE
  5
28B
330
1F
100
AcDbEntity
  8
0
  6
CONTINUOUS
 62
     8
100
AcDbLine
 10
2.7707699617
 20
7.0361503673
 30
0.0
 11
2.8640901988
 21
7.0361503673
 31
0.0
  0
LINE
  5
28C
330
1F
100
AcDbEntity
  8
0
  6
CONTINUOUS
 62
     8
100
AcDbLine
 10
2.6775159563
 20
7.0361503673
 30
0.0
 11
2.7707699617
 21
7.0361503673
 31
0.0
  0
LINE
  5
28D
330
1F
100
AcDbEntity
  8
0
  6
CONTINUOUS
 62
     8
100
AcDbLine
 10
3.4604943711
 20
6.1601661153
 30
0.0
 11
3.4604943711
 21
7.1837881625
 31
0.0
  0
LINE
  5
28E
330
1F
100
AcDbEntity
  8
0
  6
CONTINUOUS
 62
     8
100
AcDbLine
 10
3.1927778357
 20
7.1837881625
 30
0.0
 11
3.1927778357
 21
6.1601661153
 31
0.0
  0
CIRCLE
  5
28F
330
1F
100
AcDbEntity
  8
0
  6
HIDDEN
 62
     7
100
AcDbCircle
 10
3.8825022451
 20
6.3680426744
 30
0.0
 40
0.0590551181102361
  0
LINE
  5
290
330
1F
100
AcDbEntity
  8
0
  6
HIDDEN
 62
     7
100
AcDbLine
 10
4.0006124813
 20
6.768413743
 30
0.0
 11
3.7217410903
 21
6.768413743
 31
0.0
  0
SPLINE
  5
291
330
1F
100
AcDbEntity
  8
0
  6
HIDDEN
 62
     7
100
AcDbSpline
210
0.0
220
0.0
230
1.0
 70
     8
 71
     3
 72
     8
 73
     4
 74
     0
 42
0.00000001
 43
0.00000001
 40
0.0
 40
0.0
 40
0.0
 40
0.0
 40
1.0
 40
1.0
 40
1.0
 40
1.0
 10
4.000612481337308
 20
6.768413742963007
 30
0.0
 10
4.005605429010282
 20
6.773509648842676
 30
0.0
 10
4.010606441382303
 20
6.778597920501214
 30
0.0
 10
4.015612481337309
 20
6.783681098136989
 30
0.0
  0
ARC
  5
292
330
1F
100
AcDbEntity
  8
0
  6
HIDDEN
 62
     7
100
AcDbCircle
 10
4.0156124813
 20
6.7704023358
 30
0.0
 40
0.2938713910761153
100
AcDbArc
 50
90.0
 51
180.0
  0
LINE
  5
293
330
1F
100
AcDbEntity
  8
0
  6
HIDDEN
 62
     7
100
AcDbLine
 10
3.7217410903
 20
6.5755405349
 30
0.0
 11
4.0006124813
 21
6.5755405349
 31
0.0
  0
SPLINE
  5
294
330
1F
100
AcDbEntity
  8
0
  6
HIDDEN
 62
     7
100
AcDbSpline
210
0.0
220
0.0
230
1.0
 70
     8
 71
     3
 72
     8
 73
     4
 74
     0
 42
0.00000001
 43
0.00000001
 40
0.0
 40
0.0
 40
0.0
 40
0.0
 40
1.0
 40
1.0
 40
1.0
 40
1.0
 10
4.015612481337309
 20
6.560273179695863
 30
0.0
 10
4.01060641878978
 20
6.565356380272287
 30
0.0
 10
4.005605314081003
 20
6.570444746289381
 30
0.0
 10
4.000612481337308
 20
6.575540534869845
 30
0.0
  0
CIRCLE
  5
295
330
1F
100
AcDbEntity
  8
0
  6
HIDDEN
 62
     7
100
AcDbCircle
 10
3.8825022451
 20
6.3680426744
 30
0.0
 40
0.0393700787401574
  0
LINE
  5
296
330
1F
100
AcDbEntity
  8
0
  6
HIDDEN
 62
     7
100
AcDbLine
 10
2.7707699617
 20
6.9377251704
 30
0.0
 11
2.6625022451
 21
6.9377251704
 31
0.0
  0
LINE
  5
297
330
1F
100
AcDbEntity
  8
0
  6
HIDDEN
 62
     7
100
AcDbLine
 10
2.8790376782
 20
6.9377251704
 30
0.0
 11
2.7707699617
 21
6.9377251704
 31
0.0
  0
LINE
  5
298
330
1F
100
AcDbEntity
  8
0
  6
HIDDEN
 62
     7
100
AcDbLine
 10
2.7117581793
 20
6.3865440681
 30
0.0
 11
2.829781744
 21
6.3865440681
 31
0.0
  0
LINE
  5
299
330
1F
100
AcDbEntity
  8
0
  6
HIDDEN
 62
     7
100
AcDbLine
 10
2.7313998829
 20
6.3668590287
 30
0.0
 11
2.8101400404
 21
6.3668590287
 31
0.0
  0
LINE
  5
29A
330
1F
100
AcDbEntity
  8
0
  6
HIDDEN
 62
     7
100
AcDbLine
 10
2.7707699617
 20
6.9377251704
 30
0.0
 11
2.7707699617
 21
7.0558354066
 31
0.0
  0
LINE
  5
29B
330
1F
100
AcDbEntity
  8
0
  6
HIDDEN
 62
     7
100
AcDbLine
 10
2.8199825601
 20
6.9377251704
 30
0.0
 11
2.8199825601
 21
7.0558354066
 31
0.0
  0
LINE
  5
29C
330
1F
100
AcDbEntity
  8
0
  6
HIDDEN
 62
     7
100
AcDbLine
 10
2.7215573632
 20
6.9377251704
 30
0.0
 11
2.7215573632
 21
7.0558354066
 31
0.0
  0
LINE
  5
29D
330
1F
100
AcDbEntity
  8
0
  6
HIDDEN
 62
     7
100
AcDbLine
 10
2.6526597254
 20
6.6916621783
 30
0.0
 11
2.6526597254
 21
6.6522920995
 31
0.0
  0
LINE
  5
29E
330
1F
100
AcDbEntity
  8
0
  6
HIDDEN
 62
     7
100
AcDbLine
 10
3.2872660246
 20
6.7802448555
 30
0.0
 11
3.2872660246
 21
6.5637094224
 31
0.0
  0
LINE
  5
29F
330
1F
100
AcDbEntity
  8
0
  6
HIDDEN
 62
     7
100
AcDbLine
 10
3.2833290168
 20
7.1296543043
 30
0.0
 11
3.2833290168
 21
6.9132954446
 31
0.0
  0
LINE
  5
2A0
330
1F
100
AcDbEntity
  8
0
  6
HIDDEN
 62
     7
100
AcDbLine
 10
3.2872660246
 20
7.1257172964
 30
0.0
 11
3.2872660246
 21
6.9170558791
 31
0.0
  0
LINE
  5
2A1
330
1F
100
AcDbEntity
  8
0
  6
HIDDEN
 62
     7
100
AcDbLine
 10
3.2872660246
 20
6.4268983988
 30
0.0
 11
3.2872660246
 21
6.2182369814
 31
0.0
  0
LINE
  5
2A2
330
1F
100
AcDbEntity
  8
0
  6
HIDDEN
 62
     7
100
AcDbLine
 10
3.2833290168
 20
6.4308354066
 30
0.0
 11
3.2833290168
 21
6.214476547
 31
0.0
  0
LINE
  5
2A3
330
1F
100
AcDbEntity
  8
0
  6
HIDDEN
 62
     7
100
AcDbLine
 10
3.3660061821
 20
6.7802448555
 30
0.0
 11
3.3660061821
 21
6.5637094224
 31
0.0
  0
LINE
  5
2A4
330
1F
100
AcDbEntity
  8
0
  6
HIDDEN
 62
     7
100
AcDbLine
 10
3.3660061821
 20
7.1257172964
 30
0.0
 11
3.3660061821
 21
6.9170558791
 31
0.0
  0
LINE
  5
2A5
330
1F
100
AcDbEntity
  8
0
  6
HIDDEN
 62
     7
100
AcDbLine
 10
3.36994319
 20
7.1296543043
 30
0.0
 11
3.36994319
 21
6.9132954446
 31
0.0
  0
LINE
  5
2A6
330
1F
100
AcDbEntity
  8
0
  6
HIDDEN
 62
     7
100
AcDbLine
 10
3.36994319
 20
6.4308354066
 30
0.0
 11
3.36994319
 21
6.214476547
 31
0.0
  0
LINE
  5
2A7
330
1F
100
AcDbEntity
  8
0
  6
HIDDEN
 62
     7
100
AcDbLine
 10
3.3660061821
 20
6.4268983988
 30
0.0
 11
3.3660061821
 21
6.2182369814
 31
0.0
  0
LINE
  5
2A8
330
1F
100
AcDbEntity
  8
0
  6
HIDDEN
 62
     7
100
AcDbLine
 10
3.1543920089
 20
7.1170826334
 30
0.0
 11
3.1248644498
 21
7.1170826334
 31
0.0
  0
LINE
  5
2A9
330
1F
100
AcDbEntity
  8
0
  6
HIDDEN
 62
     7
100
AcDbLine
 10
3.1543920089
 20
6.2268716444
 30
0.0
 11
3.1248644498
 21
6.2268716444
 31
0.0
  0
LINE
  5
2AA
330
1F
100
AcDbEntity
  8
0
  6
HIDDEN
 62
     7
100
AcDbLine
 10
3.1543920089
 20
6.5762810932
 30
0.0
 11
3.1248644498
 21
6.5762810932
 31
0.0
  0
LINE
  5
2AB
330
1F
100
AcDbEntity
  8
0
  6
HIDDEN
 62
     7
100
AcDbLine
 10
3.1543920089
 20
6.7676731846
 30
0.0
 11
3.1248644498
 21
6.7676731846
 31
0.0
  0
LINE
  5
2AC
330
1F
100
AcDbEntity
  8
0
  6
HIDDEN
 62
     7
100
AcDbLine
 10
3.4988801979
 20
7.1170826334
 30
0.0
 11
3.5284077569
 21
7.1170826334
 31
0.0
  0
LINE
  5
2AD
330
1F
100
AcDbEntity
  8
0
  6
HIDDEN
 62
     7
100
AcDbLine
 10
3.4988801979
 20
6.2268716444
 30
0.0
 11
3.5284077569
 21
6.2268716444
 31
0.0
  0
LINE
  5
2AE
330
1F
100
AcDbEntity
  8
0
  6
HIDDEN
 62
     7
100
AcDbLine
 10
3.4988801979
 20
6.5762810932
 30
0.0
 11
3.5284077569
 21
6.5762810932
 31
0.0
  0
LINE
  5
2AF
330
1F
100
AcDbEntity
  8
0
  6
HIDDEN
 62
     7
100
AcDbLine
 10
3.4988801979
 20
6.7676731846
 30
0.0
 11
3.5284077569
 21
6.7676731846
 31
0.0
  0
LINE
  5
2B0
330
1F
100
AcDbEntity
  8
0
  6
HIDDEN
 62
     7
100
AcDbLine
 10
3.6692476519
 20
6.7704023358
 30
0.0
 11
3.5628565758
 21
6.7704023358
 31
0.0
  0
LINE
  5
2B1
330
1F
100
AcDbEntity
  8
0
  6
HIDDEN
 62
     7
100
AcDbLine
 10
3.5628565758
 20
6.5735519421
 30
0.0
 11
3.6692476519
 21
6.5735519421
 31
0.0
  0
LINE
  5
2B2
330
1F
100
AcDbEntity
  8
0
  6
HIDDEN
 62
     7
100
AcDbLine
 10
2.8790376782
 20
6.9377251704
 30
0.0
 11
2.8790376782
 21
7.0361503673
 31
0.0
  0
LINE
  5
2B3
330
1F
100
AcDbEntity
  8
0
  6
HIDDEN
 62
     7
100
AcDbLine
 10
2.6625022451
 20
7.0361503673
 30
0.0
 11
2.6625022451
 21
6.9377251704
 31
0.0
  0
ARC
  5
2B4
330
1F
100
AcDbEntity
  8
0
  6
HIDDEN
 62
     7
100
AcDbCircle
 10
2.6821872845
 20
7.0361503673
 30
0.0
 40
0.0196850393700787
100
AcDbArc
 50
127.7980101679
 51
180.0
  0
ARC
  5
2B5
330
1F
100
AcDbEntity
  8
0
  6
HIDDEN
 62
     7
100
AcDbCircle
 10
2.8593526388
 20
7.0361503673
 30
0.0
 40
0.0196850393700788
100
AcDbArc
 50
0.0
 51
52.2406920555
  0
LINE
  5
2B6
330
1F
100
AcDbEntity
  8
0
  6
HIDDEN
 62
     7
100
AcDbLine
 10
2.7117148435
 20
6.9377251704
 30
0.0
 11
2.7117148435
 21
6.6916621783
 31
0.0
  0
LINE
  5
2B7
330
1F
100
AcDbEntity
  8
0
  6
HIDDEN
 62
     7
100
AcDbLine
 10
2.7117148435
 20
6.6522920995
 30
0.0
 11
2.7117148435
 21
6.3865440681
 31
0.0
  0
LINE
  5
2B8
330
1F
100
AcDbEntity
  8
0
  6
HIDDEN
 62
     7
100
AcDbLine
 10
2.8298250798
 20
6.3865440681
 30
0.0
 11
2.8298250798
 21
6.6522920995
 31
0.0
  0
LINE
  5
2B9
330
1F
100
AcDbEntity
  8
0
  6
HIDDEN
 62
     7
100
AcDbLine
 10
2.8298250798
 20
6.6916621783
 30
0.0
 11
2.8298250798
 21
6.9377251704
 31
0.0
  0
ARC
  5
2BA
330
1F
100
AcDbEntity
  8
0
  6
HIDDEN
 62
     7
100
AcDbCircle
 10
2.8101400404
 20
6.3865440681
 30
0.0
 40
0.0196850393700787
100
AcDbArc
 50
270.0
 51
0.0
  0
ARC
  5
2BB
330
1F
100
AcDbEntity
  8
0
  6
HIDDEN
 62
     7
100
AcDbCircle
 10
2.7313998829
 20
6.3865440681
 30
0.0
 40
0.0196850393700787
100
AcDbArc
 50
180.0
 51
270.0
  0
LINE
  5
2BC
330
1F
100
AcDbEntity
  8
0
  6
HIDDEN
 62
     7
100
AcDbLine
 10
2.8790376782
 20
6.9377251704
 30
0.0
 11
2.8790376782
 21
7.0837062897
 31
0.0
  0
LINE
  5
2BD
330
1F
100
AcDbEntity
  8
0
  6
HIDDEN
 62
     7
100
AcDbLine
 10
2.6625022451
 20
7.0835982236
 30
0.0
 11
2.6625022451
 21
6.9377251704
 31
0.0
  0
LINE
  5
2BE
330
1F
100
AcDbEntity
  8
0
  6
HIDDEN
 62
     7
100
AcDbLine
 10
2.7117148435
 20
6.6522920995
 30
0.0
 11
2.7117148435
 21
6.2602516118
 31
0.0
  0
LINE
  5
2BF
330
1F
100
AcDbEntity
  8
0
  6
HIDDEN
 62
     7
100
AcDbLine
 10
2.8298250798
 20
6.2602330804
 30
0.0
 11
2.8298250798
 21
6.6522920995
 31
0.0
  0
LINE
  5
2C0
330
1F
100
AcDbEntity
  8
0
  6
HIDDEN
 62
     7
100
AcDbLine
 10
2.7117148435
 20
6.9377251704
 30
0.0
 11
2.7117148435
 21
6.6916621783
 31
0.0
  0
LINE
  5
2C1
330
1F
100
AcDbEntity
  8
0
  6
HIDDEN
 62
     7
100
AcDbLine
 10
2.8298250798
 20
6.6916621783
 30
0.0
 11
2.8298250798
 21
6.9377251704
 31
0.0
  0
LINE
  5
2C2
330
1F
100
AcDbEntity
  8
0
  6
HIDDEN
 62
     7
100
AcDbLine
 10
2.6526597254
 20
6.7704023358
 30
0.0
 11
2.6376597254
 21
6.7854023358
 31
0.0
  0
LINE
  5
2C3
330
1F
100
AcDbEntity
  8
0
  6
HIDDEN
 62
     7
100
AcDbLine
 10
2.6376597254
 20
6.5585519421
 30
0.0
 11
2.6526597254
 21
6.5735519421
 31
0.0
  0
LINE
  5
2C4
330
1F
100
AcDbEntity
  8
0
  6
HIDDEN
 62
     7
100
AcDbLine
 10
2.9840245548
 20
6.5735519421
 30
0.0
 11
3.0904156309
 21
6.5735519421
 31
0.0
  0
LINE
  5
2C5
330
1F
100
AcDbEntity
  8
0
  6
HIDDEN
 62
     7
100
AcDbLine
 10
3.0904156309
 20
6.7704023358
 30
0.0
 11
2.9840245548
 21
6.7704023358
 31
0.0
  0
LINE
  5
2C6
330
1F
100
AcDbEntity
  8
0
  6
HIDDEN
 62
     7
100
AcDbLine
 10
2.9315311165
 20
6.7704023358
 30
0.0
 11
2.6526597254
 21
6.7704023358
 31
0.0
  0
LINE
  5
2C7
330
1F
100
AcDbEntity
  8
0
  6
HIDDEN
 62
     7
100
AcDbLine
 10
2.6526597254
 20
6.5735519421
 30
0.0
 11
2.9315311165
 21
6.5735519421
 31
0.0
  0
LINE
  5
2C8
330
1F
100
AcDbEntity
  8
0
  6
HIDDEN
 62
     7
100
AcDbLine
 10
3.1248644498
 20
6.5637094224
 30
0.0
 11
3.1543920089
 21
6.5637094224
 31
0.0
  0
LINE
  5
2C9
330
1F
100
AcDbEntity
  8
0
  6
HIDDEN
 62
     7
100
AcDbLine
 10
3.1888408278
 20
6.5637094224
 30
0.0
 11
3.2872660246
 21
6.5637094224
 31
0.0
  0
LINE
  5
2CA
330
1F
100
AcDbEntity
  8
0
  6
HIDDEN
 62
     7
100
AcDbLine
 10
3.2872660246
 20
6.7802448555
 30
0.0
 11
3.1888408278
 21
6.7802448555
 31
0.0
  0
LINE
  5
2CB
330
1F
100
AcDbEntity
  8
0
  6
HIDDEN
 62
     7
100
AcDbLine
 10
3.1543920089
 20
6.7802448555
 30
0.0
 11
3.1248644498
 21
6.7802448555
 31
0.0
  0
LINE
  5
2CC
330
1F
100
AcDbEntity
  8
0
  6
HIDDEN
 62
     7
100
AcDbLine
 10
3.1248644498
 20
6.9131188712
 30
0.0
 11
3.1543920089
 21
6.9131188712
 31
0.0
  0
LINE
  5
2CD
330
1F
100
AcDbEntity
  8
0
  6
HIDDEN
 62
     7
100
AcDbLine
 10
3.1888408278
 20
6.9131188712
 30
0.0
 11
3.2833290168
 21
6.9131188712
 31
0.0
  0
LINE
  5
2CE
330
1F
100
AcDbEntity
  8
0
  6
HIDDEN
 62
     7
100
AcDbLine
 10
3.2833290168
 20
7.1296543043
 30
0.0
 11
3.1888408278
 21
7.1296543043
 31
0.0
  0
LINE
  5
2CF
330
1F
100
AcDbEntity
  8
0
  6
HIDDEN
 62
     7
100
AcDbLine
 10
3.1543920089
 20
7.1296543043
 30
0.0
 11
3.1248644498
 21
7.1296543043
 31
0.0
  0
ARC
  5
2D0
330
1F
100
AcDbEntity
  8
0
  6
HIDDEN
 62
     7
100
AcDbCircle
 10
3.2833290168
 20
7.1257172964
 30
0.0
 40
0.0039370078740157
100
AcDbArc
 50
0.0
 51
90.0
  0
ARC
  5
2D1
330
1F
100
AcDbEntity
  8
0
  6
HIDDEN
 62
     7
100
AcDbCircle
 10
3.2833290168
 20
6.9170558791
 30
0.0
 40
0.0039370078740157
100
AcDbArc
 50
270.0
 51
0.0
  0
ARC
  5
2D2
330
1F
100
AcDbEntity
  8
0
  6
HIDDEN
 62
     7
100
AcDbCircle
 10
3.2833290168
 20
6.4268983988
 30
0.0
 40
0.0039370078740166
100
AcDbArc
 50
0.0
 51
90.0
  0
ARC
  5
2D3
330
1F
100
AcDbEntity
  8
0
  6
HIDDEN
 62
     7
100
AcDbCircle
 10
3.2833290168
 20
6.2182369814
 30
0.0
 40
0.0039370078740157
100
AcDbArc
 50
270.0
 51
0.0
  0
LINE
  5
2D4
330
1F
100
AcDbEntity
  8
0
  6
HIDDEN
 62
     7
100
AcDbLine
 10
3.1248644498
 20
6.2142999736
 30
0.0
 11
3.1543920089
 21
6.2142999736
 31
0.0
  0
LINE
  5
2D5
330
1F
100
AcDbEntity
  8
0
  6
HIDDEN
 62
     7
100
AcDbLine
 10
3.1888408278
 20
6.2142999736
 30
0.0
 11
3.2833290168
 21
6.2142999736
 31
0.0
  0
LINE
  5
2D6
330
1F
100
AcDbEntity
  8
0
  6
HIDDEN
 62
     7
100
AcDbLine
 10
3.2833290168
 20
6.4308354066
 30
0.0
 11
3.1888408278
 21
6.4308354066
 31
0.0
  0
LINE
  5
2D7
330
1F
100
AcDbEntity
  8
0
  6
HIDDEN
 62
     7
100
AcDbLine
 10
3.1543920089
 20
6.4308354066
 30
0.0
 11
3.1248644498
 21
6.4308354066
 31
0.0
  0
LINE
  5
2D8
330
1F
100
AcDbEntity
  8
0
  6
HIDDEN
 62
     7
100
AcDbLine
 10
3.5284077569
 20
6.7802448555
 30
0.0
 11
3.4988801979
 21
6.7802448555
 31
0.0
  0
LINE
  5
2D9
330
1F
100
AcDbEntity
  8
0
  6
HIDDEN
 62
     7
100
AcDbLine
 10
3.464431379
 20
6.7802448555
 30
0.0
 11
3.3660061821
 21
6.7802448555
 31
0.0
  0
LINE
  5
2DA
330
1F
100
AcDbEntity
  8
0
  6
HIDDEN
 62
     7
100
AcDbLine
 10
3.3660061821
 20
6.5637094224
 30
0.0
 11
3.464431379
 21
6.5637094224
 31
0.0
  0
LINE
  5
2DB
330
1F
100
AcDbEntity
  8
0
  6
HIDDEN
 62
     7
100
AcDbLine
 10
3.4988801979
 20
6.5637094224
 30
0.0
 11
3.5284077569
 21
6.5637094224
 31
0.0
  0
ARC
  5
2DC
330
1F
100
AcDbEntity
  8
0
  6
HIDDEN
 62
     7
100
AcDbCircle
 10
3.36994319
 20
6.9170558791
 30
0.0
 40
0.0039370078740157
100
AcDbArc
 50
180.0
 51
270.0
  0
ARC
  5
2DD
330
1F
100
AcDbEntity
  8
0
  6
HIDDEN
 62
     7
100
AcDbCircle
 10
3.36994319
 20
7.1257172964
 30
0.0
 40
0.0039370078740157
100
AcDbArc
 50
90.0
 51
180.0
  0
LINE
  5
2DE
330
1F
100
AcDbEntity
  8
0
  6
HIDDEN
 62
     7
100
AcDbLine
 10
3.5284077569
 20
7.1296543043
 30
0.0
 11
3.4988801979
 21
7.1296543043
 31
0.0
  0
LINE
  5
2DF
330
1F
100
AcDbEntity
  8
0
  6
HIDDEN
 62
     7
100
AcDbLine
 10
3.464431379
 20
7.1296543043
 30
0.0
 11
3.36994319
 21
7.1296543043
 31
0.0
  0
LINE
  5
2E0
330
1F
100
AcDbEntity
  8
0
  6
HIDDEN
 62
     7
100
AcDbLine
 10
3.36994319
 20
6.9131188712
 30
0.0
 11
3.464431379
 21
6.9131188712
 31
0.0
  0
LINE
  5
2E1
330
1F
100
AcDbEntity
  8
0
  6
HIDDEN
 62
     7
100
AcDbLine
 10
3.4988801979
 20
6.9131188712
 30
0.0
 11
3.5284077569
 21
6.9131188712
 31
0.0
  0
LINE
  5
2E2
330
1F
100
AcDbEntity
  8
0
  6
HIDDEN
 62
     7
100
AcDbLine
 10
3.5284077569
 20
6.4308354066
 30
0.0
 11
3.4988801979
 21
6.4308354066
 31
0.0
  0
LINE
  5
2E3
330
1F
100
AcDbEntity
  8
0
  6
HIDDEN
 62
     7
100
AcDbLine
 10
3.464431379
 20
6.4308354066
 30
0.0
 11
3.36994319
 21
6.4308354066
 31
0.0
  0
LINE
  5
2E4
330
1F
100
AcDbEntity
  8
0
  6
HIDDEN
 62
     7
100
AcDbLine
 10
3.36994319
 20
6.2142999736
 30
0.0
 11
3.464431379
 21
6.2142999736
 31
0.0
  0
LINE
  5
2E5
330
1F
100
AcDbEntity
  8
0
  6
HIDDEN
 62
     7
100
AcDbLine
 10
3.4988801979
 20
6.2142999736
 30
0.0
 11
3.5284077569
 21
6.2142999736
 31
0.0
  0
ARC
  5
2E6
330
1F
100
AcDbEntity
  8
0
  6
HIDDEN
 62
     7
100
AcDbCircle
 10
3.36994319
 20
6.2182369814
 30
0.0
 40
0.0039370078740157
100
AcDbArc
 50
180.0
 51
270.0
  0
ARC
  5
2E7
330
1F
100
AcDbEntity
  8
0
  6
HIDDEN
 62
     7
100
AcDbCircle
 10
3.36994319
 20
6.4268983988
 30
0.0
 40
0.0039370078740166
100
AcDbArc
 50
90.0
 51
180.0
  0
LINE
  5
2E8
330
1F
100
AcDbEntity
  8
0
  6
HIDDEN
 62
     7
100
AcDbLine
 10
3.1888408278
 20
6.4948117846
 30
0.0
 11
3.464431379
 21
6.4948117846
 31
0.0
  0
LINE
  5
2E9
330
1F
100
AcDbEntity
  8
0
  6
HIDDEN
 62
     7
100
AcDbLine
 10
3.464431379
 20
6.8491424932
 30
0.0
 11
3.1888408278
 21
6.8491424932
 31
0.0
  0
LINE
  5
2EA
330
1F
100
AcDbEntity
  8
0
  6
HIDDEN
 62
     7
100
AcDbLine
 10
3.1248644498
 20
6.4948117846
 30
0.0
 11
3.1543920089
 21
6.4948117846
 31
0.0
  0
LINE
  5
2EB
330
1F
100
AcDbEntity
  8
0
  6
HIDDEN
 62
     7
100
AcDbLine
 10
3.1543920089
 20
6.8491424932
 30
0.0
 11
3.1248644498
 21
6.8491424932
 31
0.0
  0
LINE
  5
2EC
330
1F
100
AcDbEntity
  8
0
  6
HIDDEN
 62
     7
100
AcDbLine
 10
3.4988801979
 20
6.4948117846
 30
0.0
 11
3.5284077569
 21
6.4948117846
 31
0.0
  0
LINE
  5
2ED
330
1F
100
AcDbEntity
  8
0
  6
HIDDEN
 62
     7
100
AcDbLine
 10
3.5284077569
 20
6.8491424932
 30
0.0
 11
3.4988801979
 21
6.8491424932
 31
0.0
  0
LINE
  5
2EE
330
1F
100
AcDbEntity
  8
0
  6
HIDDEN
 62
     7
100
AcDbLine
 10
2.6625463975
 20
7.0361503673
 30
0.0
 11
2.8789935258
 21
7.0361503673
 31
0.0
  0
LINE
  5
2EF
330
1F
100
AcDbEntity
  8
0
  6
HIDDEN
 62
     7
100
AcDbLine
 10
3.4604943711
 20
7.1837881625
 30
0.0
 11
3.4604943711
 21
6.1601661153
 31
0.0
  0
LINE
  5
2F0
330
1F
100
AcDbEntity
  8
0
  6
HIDDEN
 62
     7
100
AcDbLine
 10
3.1927778357
 20
6.1601661153
 30
0.0
 11
3.1927778357
 21
7.1837881625
 31
0.0
  0
LINE
  5
2F1
330
1F
100
AcDbEntity
  8
0
  6
CONTINUOUS
 62
     7
100
AcDbLine
 10
8.650172476
 20
6.1594464609
 30
0.0
 11
8.6607773538
 21
6.165570517
 31
0.0
  0
LINE
  5
2F2
330
1F
100
AcDbEntity
  8
0
  6
CONTINUOUS
 62
     7
100
AcDbLine
 10
9.0120187017
 20
6.7740043023
 30
0.0
 11
9.0120187017
 21
6.786250424
 31
0.0
  0
LINE
  5
2F3
330
1F
100
AcDbEntity
  8
0
  6
CONTINUOUS
 62
     7
100
AcDbLine
 10
8.3183122653
 20
6.1778994976
 30
0.0
 11
8.3942289412
 21
6.1340737335
 31
0.0
  0
LINE
  5
2F4
330
1F
100
AcDbEntity
  8
0
  6
CONTINUOUS
 62
     7
100
AcDbLine
 10
8.1970370895
 20
6.2479101664
 30
0.0
 11
8.3030575662
 21
6.186705848
 31
0.0
  0
LINE
  5
2F5
330
1F
100
AcDbEntity
  8
0
  6
CONTINUOUS
 62
     7
100
AcDbLine
 10
8.0846887719
 20
6.3127674696
 30
0.0
 11
8.1599186233
 21
6.2693382009
 31
0.0
  0
LINE
  5
2F6
330
1F
100
AcDbEntity
  8
0
  6
CONTINUOUS
 62
     7
100
AcDbLine
 10
8.9059983713
 20
7.020580443
 30
0.0
 11
8.596458202
 21
7.1992741792
 31
0.0
  0
SPLINE
  5
2F7
330
1F
100
AcDbEntity
  8
0
  6
CONTINUOUS
 62
     7
100
AcDbSpline
210
0.0
220
0.0
230
1.0
 70
     8
 71
     3
 72
    33
 73
    29
 74
     0
 42
0.00000001
 43
0.00000001
 40
0.0
 40
0.0
 40
0.0
 40
0.0
 40
0.0049640613508996
 40
0.0432034256111142
 40
0.0825523863821666
 40
0.1228372976633136
 40
0.1637372055290532
 40
0.2049178633398196
 40
0.2460900748916747
 40
0.2871481236352174
 40
0.3280706682965276
 40
0.3688789772369187
 40
0.4096156287791599
 40
0.4503331883787948
 40
0.4910850728299263
 40
0.5319152261597292
 40
0.5728839411326865
 40
0.6140491967981035
 40
0.6554594733572835
 40
0.6971381676220286
 40
0.7390537113449978
 40
0.7810244370641327
 40
0.8226872168648627
 40
0.8635912539826245
 40
0.9033347009968078
 40
0.9417544087605383
 40
0.978982764557275
 40
0.9999999999999999
 40
0.9999999999999999
 40
0.9999999999999999
 40
0.9999999999999999
 10
8.448990617452113
 20
6.83049680582489
 30
0.0
 10
8.448790391965682
 20
6.830802803164858
 30
0.0
 10
8.447047781168399
 20
6.833465971965564
 30
0.0
 10
8.44275770865518
 20
6.838035348749609
 30
0.0
 10
8.436085294484554
 20
6.844157057822787
 30
0.0
 10
8.428281561412572
 20
6.849723984306314
 30
0.0
 10
8.41957115910368
 20
6.8547238745879
 30
0.0
 10
8.410047807803807
 20
6.85906499592785
 30
0.0
 10
8.399865514005834
 20
6.862701434289705
 30
0.0
 10
8.389162583111613
 20
6.865601113485476
 30
0.0
 10
8.378067375753348
 20
6.867748180752834
 30
0.0
 10
8.366701290488933
 20
6.86913315904702
 30
0.0
 10
8.355183063921935
 20
6.869750829432689
 30
0.0
 10
8.343630200240257
 20
6.869599064396238
 30
0.0
 10
8.33216044293471
 20
6.868678632669811
 30
0.0
 10
8.320889792053306
 20
6.866993037112806
 30
0.0
 10
8.30993153116385
 20
6.864547649778471
 30
0.0
 10
8.29939538224067
 20
6.861348183016293
 30
0.0
 10
8.289390412556207
 20
6.857400008605051
 30
0.0
 10
8.280028563439737
 20
6.852708560731086
 30
0.0
 10
8.271433467787725
 20
6.847285006996104
 30
0.0
 10
8.263747266236923
 20
6.841158670160248
 30
0.0
 10
8.257121064121932
 20
6.834392357047825
 30
0.0
 10
8.251703989055406
 20
6.827092317371807
 30
0.0
 10
8.2475780712749
 20
6.81940398789761
 30
0.0
 10
8.244870768248733
 20
6.811492161814071
 30
0.0
 10
8.243504154690696
 20
6.804609731127939
 30
0.0
 10
8.243551278095582
 20
6.800414444308029
 30
0.0
 10
8.243568282021103
 20
6.798900624481199
 30
0.0
  0
LINE
  5
2F8
330
1F
100
AcDbEntity
  8
0
  6
CONTINUOUS
 62
     7
100
AcDbLine
 10
8.2434152698
 20
6.7988351881
 30
0.0
 11
8.2434152698
 21
6.7738358709
 31
0.0
  0
SPLINE
  5
2F9
330
1F
100
AcDbEntity
  8
0
  6
CONTINUOUS
 62
     7
100
AcDbSpline
210
0.0
220
0.0
230
1.0
 70
     8
 71
     3
 72
    12
 73
     8
 74
     0
 42
0.00000001
 43
0.00000001
 40
0.0
 40
0.0
 40
0.0
 40
0.0
 40
0.1813929859123863
 40
0.4007265537108808
 40
0.6197257730896831
 40
0.8378695658745413
 40
1.0
 40
1.0
 40
1.0
 40
1.0
 10
7.531293809506886
 20
7.223699031079712
 30
0.0
 10
7.531460565544676
 20
7.221518084602815
 30
0.0
 10
7.531828956703785
 20
7.216700019774571
 30
0.0
 10
7.533582273256161
 20
7.209120984468354
 30
0.0
 10
7.536275237773637
 20
7.201166923859001
 30
0.0
 10
7.539452025875685
 20
7.194021624993108
 30
0.0
 10
7.542017760944225
 20
7.189765808413243
 30
0.0
 10
7.543111665582185
 20
7.187951335223046
 30
0.0
  0
LINE
  5
2FA
330
1F
100
AcDbEntity
  8
0
  6
CONTINUOUS
 62
     7
100
AcDbLine
 10
7.9838635711
 20
7.569950809
 30
0.0
 11
7.9683998268
 21
7.5610237795
 31
0.0
  0
SPLINE
  5
2FB
330
1F
100
AcDbEntity
  8
0
  6
CONTINUOUS
 62
     7
100
AcDbSpline
210
0.0
220
0.0
230
1.0
 70
     8
 71
     3
 72
    18
 73
    14
 74
     0
 42
0.00000001
 43
0.00000001
 40
0.0
 40
0.0
 40
0.0
 40
0.0
 40
0.0536953985418801
 40
0.1527756929035616
 40
0.2516366849351762
 40
0.3503981916080207
 40
0.4491953943344081
 40
0.5481334467441956
 40
0.647348649668958
 40
0.7469851720696523
 40
0.8471728935222315
 40
0.9479993925451398
 40
1.0
 40
1.0
 40
1.0
 40
1.0
 10
8.114123615102681
 20
7.477720009268729
 30
0.0
 10
8.11354428938672
 20
7.479646786199744
 30
0.0
 10
8.111895975190786
 20
7.485128907362828
 30
0.0
 10
8.108264147908008
 20
7.494105152604425
 30
0.0
 10
8.103365140873514
 20
7.504504008543542
 30
0.0
 10
8.097717570003553
 20
7.514588810030039
 30
0.0
 10
8.091432599931974
 20
7.524258020916129
 30
0.0
 10
8.084556740300597
 20
7.533411832992171
 30
0.0
 10
8.077155031729438
 20
7.541952159665277
 30
0.0
 10
8.06928757494324
 20
7.549790608538288
 30
0.0
 10
8.061011159104352
 20
7.556817525001877
 30
0.0
 10
8.053804581211347
 20
7.561995726888293
 30
0.0
 10
8.049350339957968
 20
7.564659040304992
 30
0.0
 10
8.04783474984922
 20
7.565565253336849
 30
0.0
  0
SPLINE
  5
2FC
330
1F
100
AcDbEntity
  8
0
  6
CONTINUOUS
 62
     7
100
AcDbSpline
210
0.0
220
0.0
230
1.0
 70
     8
 71
     3
 72
    15
 73
    11
 74
     0
 42
0.00000001
 43
0.00000001
 40
0.0
 40
0.0
 40
0.0
 40
0.0
 40
0.0760771301564378
 40
0.2171310261350933
 40
0.3580161742815769
 40
0.4969046011131196
 40
0.6322997705073009
 40
0.7633154314512642
 40
0.8900590398417103
 40
1.0
 40
1.0
 40
1.0
 40
1.0
 10
8.04783474984922
 20
7.565565253336849
 30
0.0
 10
8.046226691957173
 20
7.566458961751588
 30
0.0
 10
8.041637148956974
 20
7.569009686585175
 30
0.0
 10
8.033926076654296
 20
7.572362719582854
 30
0.0
 10
8.024755388808249
 20
7.575175266918111
 30
0.0
 10
8.015653377068924
 20
7.576683976370727
 30
0.0
 10
8.006802010662426
 20
7.576876882957814
 30
0.0
 10
7.998396059707735
 20
7.575731399998811
 30
0.0
 10
7.990783562294636
 20
7.573541557530084
 30
0.0
 10
7.986303823569549
 20
7.5711815436891
 30
0.0
 10
7.984222966419825
 20
7.570085307507521
 30
0.0
  0
LINE
  5
2FD
330
1F
100
AcDbEntity
  8
0
  6
CONTINUOUS
 62
     7
100
AcDbLine
 10
7.969110722
 20
7.5614341705
 30
0.0
 11
7.9528518368
 21
7.5708202252
 31
0.0
  0
LINE
  5
2FE
330
1F
100
AcDbEntity
  8
0
  6
CONTINUOUS
 62
     7
100
AcDbLine
 10
8.1500436885
 20
7.4569837923
 30
0.0
 11
8.1010131831
 21
7.4852885005
 31
0.0
  0
LINE
  5
2FF
330
1F
100
AcDbEntity
  8
0
  6
CONTINUOUS
 62
     7
100
AcDbLine
 10
8.2623920061
 20
7.392126489
 30
0.0
 11
8.1871621547
 21
7.4355557578
 31
0.0
  0
LINE
  5
300
330
1F
100
AcDbEntity
  8
0
  6
CONTINUOUS
 62
     7
100
AcDbLine
 10
7.4410824067
 20
6.6843135156
 30
0.0
 11
7.750622576
 21
6.5056197795
 31
0.0
  0
LINE
  5
301
330
1F
100
AcDbEntity
  8
0
  6
CONTINUOUS
 62
     7
100
AcDbLine
 10
7.3350620763
 20
6.9308896564
 30
0.0
 11
7.3350620763
 21
6.9186435347
 31
0.0
  0
LINE
  5
302
330
1F
100
AcDbEntity
  8
0
  6
CONTINUOUS
 62
     7
100
AcDbLine
 10
8.5240771929
 20
7.2410588463
 30
0.0
 11
8.3347730152
 21
7.3503418219
 31
0.0
  0
LINE
  5
303
330
1F
100
AcDbEntity
  8
0
  6
CONTINUOUS
 62
     7
100
AcDbLine
 10
7.8230035851
 20
6.4638351124
 30
0.0
 11
8.0123077628
 21
6.3545521368
 31
0.0
  0
SPLINE
  5
304
330
1F
100
AcDbEntity
  8
0
  6
CONTINUOUS
 62
     7
100
AcDbSpline
210
0.0
220
0.0
230
1.0
 70
     8
 71
     3
 72
    62
 73
    58
 74
     0
 42
0.00000001
 43
0.00000001
 40
0.0
 40
0.0
 40
0.0
 40
0.0
 40
0.0015582296563288
 40
0.0202262742580648
 40
0.038913709424331
 40
0.057619321432322
 40
0.0763409400160444
 40
0.0950758898016254
 40
0.1138213671162196
 40
0.1325747093176368
 40
0.1513335569741694
 40
0.1700959281410466
 40
0.1888602303654285
 40
0.2076251880724527
 40
0.2263896934660514
 40
0.2451531776131768
 40
0.2639152693101095
 40
0.2826757514381045
 40
0.3014345244727323
 40
0.3201915769820783
 40
0.3389469623942503
 40
0.3577007810888487
 40
0.3764531668474222
 40
0.3952042767808338
 40
0.4139542839755335
 40
0.4327033722315199
 40
0.4514517323851606
 40
0.4701995598127465
 40
0.4889470527936655
 40
0.5076944114761764
 40
0.5264418372353652
 40
0.5451894653834226
 40
0.563937498236374
 40
0.5826861386253736
 40
0.6014355888428433
 40
0.6201860495901783
 40
0.6389377183101432
 40
0.657690786640133
 40
0.6764454366557905
 40
0.6952018354878955
 40
0.7139601277881811
 40
0.7327204253932434
 40
0.7514827933970311
 40
0.7702472317081429
 40
0.7890136510721363
 40
0.8077818425428493
 40
0.8265514395939653
 40
0.8453218726357339
 40
0.8640920293701989
 40
0.8828606109313627
 40
0.9016259894881259
 40
0.9203861274819264
 40
0.9391385844651162
 40
0.9578805867898459
 40
0.9766091872437861
 40
0.9953215358134153
 40
1.0
 40
1.0
 40
1.0
 40
1.0
 10
8.25808079933743
 20
7.373827103956349
 30
0.0
 10
8.257654763521712
 20
7.373878341208469
 30
0.0
 10
8.252124694691698
 20
7.374543415646886
 30
0.0
 10
8.241088247037613
 20
7.374766367577966
 30
0.0
 10
8.224982908765133
 20
7.374409166419504
 30
0.0
 10
8.208477459362431
 20
7.372803086209683
 30
0.0
 10
8.19167058524782
 20
7.370104344921411
 30
0.0
 10
8.174588070476732
 20
7.366277971858517
 30
0.0
 10
8.157276313344221
 20
7.361344214284646
 30
0.0
 10
8.1397768853711
 20
7.355312342593379
 30
0.0
 10
8.12213306866961
 20
7.348198264293631
 30
0.0
 10
8.104387883624824
 20
7.340019633934753
 30
0.0
 10
8.086584471112115
 20
7.330797006622768
 30
0.0
 10
8.068765921420523
 20
7.320553411173476
 30
0.0
 10
8.050975150317939
 20
7.309314303527204
 30
0.0
 10
8.033254814108545
 20
7.297107435427462
 30
0.0
 10
8.015647206995254
 20
7.28396273369237
 30
0.0
 10
7.99819428530961
 20
7.269912278556272
 30
0.0
 10
7.980937595210482
 20
7.254990231820314
 30
0.0
 10
7.963918195142699
 20
7.239232762605769
 30
0.0
 10
7.947176574143389
 20
7.222677969856557
 30
0.0
 10
7.930752566943842
 20
7.205365800370075
 30
0.0
 10
7.914685266976127
 20
7.187337961865914
 30
0.0
 10
7.899012938315024
 20
7.168637830872344
 30
0.0
 10
7.883772927492214
 20
7.149310355465008
 30
0.0
 10
7.869001576001276
 20
7.129401953044922
 30
0.0
 10
7.854734134199572
 20
7.108960403446044
 30
0.0
 10
7.841004677212466
 20
7.088034737727162
 30
0.0
 10
7.827846023359042
 20
7.066675123041074
 30
0.0
 10
7.815289655551291
 20
7.044932744006099
 30
0.0
 10
7.803365660224911
 20
7.022859707238537
 30
0.0
 10
7.792102638176052
 20
7.000508892444164
 30
0.0
 10
7.781527636452566
 20
6.977933824807864
 30
0.0
 10
7.77166607439653
 20
6.955188518778968
 30
0.0
 10
7.762541699121468
 20
6.932327374737012
 30
0.0
 10
7.75417653171513
 20
6.909405049099896
 30
0.0
 10
7.746590818300215
 20
6.886476324189035
 30
0.0
 10
7.739802986178995
 20
6.863595978649958
 30
0.0
 10
7.733829605141639
 20
6.840818659125858
 30
0.0
 10
7.728685353930723
 20
6.818198753958688
 30
0.0
 10
7.724382991732372
 20
6.795790269780135
 30
0.0
 10
7.720933334379435
 20
6.773646711930118
 30
0.0
 10
7.718345234742477
 20
6.7518209697576
 30
0.0
 10
7.71662556632081
 20
6.730365207732062
 30
0.0
 10
7.71577920909592
 20
6.709330763849856
 30
0.0
 10
7.715809034337305
 20
6.688768054370522
 30
0.0
 10
7.71671589120696
 20
6.668726491873845
 30
0.0
 10
7.718498562851707
 20
6.649254490852037
 30
0.0
 10
7.721153762542243
 20
6.630399393519502
 30
0.0
 10
7.724675904002182
 20
6.612207160136125
 30
0.0
 10
7.729057706298896
 20
6.594722996786943
 30
0.0
 10
7.734287700228587
 20
6.577988328388481
 30
0.0
 10
7.74035915186048
 20
6.562051784059048
 30
0.0
 10
7.747236374150789
 20
6.546927611450688
 30
0.0
 10
7.754979991489532
 20
6.532749843999511
 30
0.0
 10
7.761207561283928
 20
6.522580357350377
 30
0.0
 10
7.765089711531152
 20
6.517448663287638
 30
0.0
 10
7.765866191642719
 20
6.516422258299523
 30
0.0
  0
POLYLINE
  5
305
330
1F
100
AcDbEntity
  8
0
  6
CONTINUOUS
 62
     7
100
AcDb2dPolyline
 66
     1
 10
0.0
 20
0.0
 30
0.0
  0
VERTEX
  5
37A
330
305
100
AcDbEntity
  8
0
  6
CONTINUOUS
 62
     7
100
AcDbVertex
100
AcDb2dVertex
 10
8.3096976857
 20
6.3524893718
 30
0.0
  0
VERTEX
  5
37B
330
305
100
AcDbEntity
  8
0
  6
CONTINUOUS
 62
     7
100
AcDbVertex
100
AcDb2dVertex
 10
8.3109142057
 20
6.3319122775
 30
0.0
  0
VERTEX
  5
37C
330
305
100
AcDbEntity
  8
0
  6
CONTINUOUS
 62
     7
100
AcDbVertex
100
AcDb2dVertex
 10
8.313097434
 20
6.3119964792
 30
0.0
  0
VERTEX
  5
37D
330
305
100
AcDbEntity
  8
0
  6
CONTINUOUS
 62
     7
100
AcDbVertex
100
AcDb2dVertex
 10
8.3162413373
 20
6.2927970153
 30
0.0
  0
VERTEX
  5
37E
330
305
100
AcDbEntity
  8
0
  6
CONTINUOUS
 62
     7
100
AcDbVertex
100
AcDb2dVertex
 10
8.3203372272
 20
6.2743669446
 30
0.0
  0
VERTEX
  5
37F
330
305
100
AcDbEntity
  8
0
  6
CONTINUOUS
 62
     7
100
AcDbVertex
100
AcDb2dVertex
 10
8.3253737845
 20
6.2567571996
 30
0.0
  0
VERTEX
  5
380
330
305
100
AcDbEntity
  8
0
  6
CONTINUOUS
 62
     7
100
AcDbVertex
100
AcDb2dVertex
 10
8.3313370903
 20
6.2400164459
 30
0.0
  0
VERTEX
  5
381
330
305
100
AcDbEntity
  8
0
  6
CONTINUOUS
 62
     7
100
AcDbVertex
100
AcDb2dVertex
 10
8.3382106648
 20
6.2241909474
 30
0.0
  0
VERTEX
  5
382
330
305
100
AcDbEntity
  8
0
  6
CONTINUOUS
 62
     7
100
AcDbVertex
100
AcDb2dVertex
 10
8.3459755124
 20
6.2093244388
 30
0.0
  0
VERTEX
  5
383
330
305
100
AcDbEntity
  8
0
  6
CONTINUOUS
 62
     7
100
AcDbVertex
100
AcDb2dVertex
 10
8.3546101745
 20
6.1954580045
 30
0.0
  0
VERTEX
  5
384
330
305
100
AcDbEntity
  8
0
  6
CONTINUOUS
 62
     7
100
AcDbVertex
100
AcDb2dVertex
 10
8.3640907889
 20
6.1826299652
 30
0.0
  0
VERTEX
  5
385
330
305
100
AcDbEntity
  8
0
  6
CONTINUOUS
 62
     7
100
AcDbVertex
100
AcDb2dVertex
 10
8.3743911552
 20
6.1708757718
 30
0.0
  0
VERTEX
  5
386
330
305
100
AcDbEntity
  8
0
  6
CONTINUOUS
 62
     7
100
AcDbVertex
100
AcDb2dVertex
 10
8.3854828078
 20
6.1602279077
 30
0.0
  0
VERTEX
  5
387
330
305
100
AcDbEntity
  8
0
  6
CONTINUOUS
 62
     7
100
AcDbVertex
100
AcDb2dVertex
 10
8.3973350944
 20
6.1507157989
 30
0.0
  0
VERTEX
  5
388
330
305
100
AcDbEntity
  8
0
  6
CONTINUOUS
 62
     7
100
AcDbVertex
100
AcDb2dVertex
 10
8.4099152605
 20
6.1423657326
 30
0.0
  0
VERTEX
  5
389
330
305
100
AcDbEntity
  8
0
  6
CONTINUOUS
 62
     7
100
AcDbVertex
100
AcDb2dVertex
 10
8.4231885401
 20
6.1352007847
 30
0.0
  0
VERTEX
  5
38A
330
305
100
AcDbEntity
  8
0
  6
CONTINUOUS
 62
     7
100
AcDbVertex
100
AcDb2dVertex
 10
8.4371182518
 20
6.129240756
 30
0.0
  0
VERTEX
  5
38B
330
305
100
AcDbEntity
  8
0
  6
CONTINUOUS
 62
     7
100
AcDbVertex
100
AcDb2dVertex
 10
8.4516659
 20
6.1245021172
 30
0.0
  0
VERTEX
  5
38C
330
305
100
AcDbEntity
  8
0
  6
CONTINUOUS
 62
     7
100
AcDbVertex
100
AcDb2dVertex
 10
8.4667912815
 20
6.1209979639
 30
0.0
  0
VERTEX
  5
38D
330
305
100
AcDbEntity
  8
0
  6
CONTINUOUS
 62
     7
100
AcDbVertex
100
AcDb2dVertex
 10
8.4824525964
 20
6.1187379801
 30
0.0
  0
VERTEX
  5
38E
330
305
100
AcDbEntity
  8
0
  6
CONTINUOUS
 62
     7
100
AcDbVertex
100
AcDb2dVertex
 10
8.498606564
 20
6.1177284112
 30
0.0
  0
VERTEX
  5
38F
330
305
100
AcDbEntity
  8
0
  6
CONTINUOUS
 62
     7
100
AcDbVertex
100
AcDb2dVertex
 10
8.5152085417
 20
6.1179720473
 30
0.0
  0
VERTEX
  5
390
330
305
100
AcDbEntity
  8
0
  6
CONTINUOUS
 62
     7
100
AcDbVertex
100
AcDb2dVertex
 10
8.5322126491
 20
6.1194682151
 30
0.0
  0
VERTEX
  5
391
330
305
100
AcDbEntity
  8
0
  6
CONTINUOUS
 62
     7
100
AcDbVertex
100
AcDb2dVertex
 10
8.5495718944
 20
6.1222127799
 30
0.0
  0
VERTEX
  5
392
330
305
100
AcDbEntity
  8
0
  6
CONTINUOUS
 62
     7
100
AcDbVertex
100
AcDb2dVertex
 10
8.5672383044
 20
6.1261981569
 30
0.0
  0
VERTEX
  5
393
330
305
100
AcDbEntity
  8
0
  6
CONTINUOUS
 62
     7
100
AcDbVertex
100
AcDb2dVertex
 10
8.5851630569
 20
6.1314133322
 30
0.0
  0
VERTEX
  5
394
330
305
100
AcDbEntity
  8
0
  6
CONTINUOUS
 62
     7
100
AcDbVertex
100
AcDb2dVertex
 10
8.6032966159
 20
6.1378438935
 30
0.0
  0
VERTEX
  5
395
330
305
100
AcDbEntity
  8
0
  6
CONTINUOUS
 62
     7
100
AcDbVertex
100
AcDb2dVertex
 10
8.6215888684
 20
6.1454720696
 30
0.0
  0
VERTEX
  5
396
330
305
100
AcDbEntity
  8
0
  6
CONTINUOUS
 62
     7
100
AcDbVertex
100
AcDb2dVertex
 10
8.6399892626
 20
6.1542767795
 30
0.0
  0
VERTEX
  5
397
330
305
100
AcDbEntity
  8
0
  6
CONTINUOUS
 62
     7
100
AcDbVertex
100
AcDb2dVertex
 10
8.6584469481
 20
6.1642336909
 30
0.0
  0
VERTEX
  5
398
330
305
100
AcDbEntity
  8
0
  6
CONTINUOUS
 62
     7
100
AcDbVertex
100
AcDb2dVertex
 10
8.676910916
 20
6.1753152875
 30
0.0
  0
VERTEX
  5
399
330
305
100
AcDbEntity
  8
0
  6
CONTINUOUS
 62
     7
100
AcDbVertex
100
AcDb2dVertex
 10
8.6953301401
 20
6.1874909445
 30
0.0
  0
VERTEX
  5
39A
330
305
100
AcDbEntity
  8
0
  6
CONTINUOUS
 62
     7
100
AcDbVertex
100
AcDb2dVertex
 10
8.7136537179
 20
6.2007270139
 30
0.0
  0
VERTEX
  5
39B
330
305
100
AcDbEntity
  8
0
  6
CONTINUOUS
 62
     7
100
AcDbVertex
100
AcDb2dVertex
 10
8.7318310111
 20
6.214986917
 30
0.0
  0
VERTEX
  5
39C
330
305
100
AcDbEntity
  8
0
  6
CONTINUOUS
 62
     7
100
AcDbVertex
100
AcDb2dVertex
 10
8.7498117858
 20
6.2302312459
 30
0.0
  0
VERTEX
  5
39D
330
305
100
AcDbEntity
  8
0
  6
CONTINUOUS
 62
     7
100
AcDbVertex
100
AcDb2dVertex
 10
8.7675463512
 20
6.2464178719
 30
0.0
  0
VERTEX
  5
39E
330
305
100
AcDbEntity
  8
0
  6
CONTINUOUS
 62
     7
100
AcDbVertex
100
AcDb2dVertex
 10
8.7849856967
 20
6.2635020625
 30
0.0
  0
VERTEX
  5
39F
330
305
100
AcDbEntity
  8
0
  6
CONTINUOUS
 62
     7
100
AcDbVertex
100
AcDb2dVertex
 10
8.8020816278
 20
6.2814366045
 30
0.0
  0
VERTEX
  5
3A0
330
305
100
AcDbEntity
  8
0
  6
CONTINUOUS
 62
     7
100
AcDbVertex
100
AcDb2dVertex
 10
8.8187868989
 20
6.3001719349
 30
0.0
  0
VERTEX
  5
3A1
330
305
100
AcDbEntity
  8
0
  6
CONTINUOUS
 62
     7
100
AcDbVertex
100
AcDb2dVertex
 10
8.8350553441
 20
6.3196562774
 30
0.0
  0
VERTEX
  5
3A2
330
305
100
AcDbEntity
  8
0
  6
CONTINUOUS
 62
     7
100
AcDbVertex
100
AcDb2dVertex
 10
8.8508420046
 20
6.3398357861
 30
0.0
  0
VERTEX
  5
3A3
330
305
100
AcDbEntity
  8
0
  6
CONTINUOUS
 62
     7
100
AcDbVertex
100
AcDb2dVertex
 10
8.8661032532
 20
6.3606546938
 30
0.0
  0
VERTEX
  5
3A4
330
305
100
AcDbEntity
  8
0
  6
CONTINUOUS
 62
     7
100
AcDbVertex
100
AcDb2dVertex
 10
8.8807969144
 20
6.3820554662
 30
0.0
  0
VERTEX
  5
3A5
330
305
100
AcDbEntity
  8
0
  6
CONTINUOUS
 62
     7
100
AcDbVertex
100
AcDb2dVertex
 10
8.8948823816
 20
6.4039789611
 30
0.0
  0
VERTEX
  5
3A6
330
305
100
AcDbEntity
  8
0
  6
CONTINUOUS
 62
     7
100
AcDbVertex
100
AcDb2dVertex
 10
8.9083207288
 20
6.4263645918
 30
0.0
  0
VERTEX
  5
3A7
330
305
100
AcDbEntity
  8
0
  6
CONTINUOUS
 62
     7
100
AcDbVertex
100
AcDb2dVertex
 10
8.9210748184
 20
6.4491504943
 30
0.0
  0
VERTEX
  5
3A8
330
305
100
AcDbEntity
  8
0
  6
CONTINUOUS
 62
     7
100
AcDbVertex
100
AcDb2dVertex
 10
8.9331094037
 20
6.4722736985
 30
0.0
  0
VERTEX
  5
3A9
330
305
100
AcDbEntity
  8
0
  6
CONTINUOUS
 62
     7
100
AcDbVertex
100
AcDb2dVertex
 10
8.9443912266
 20
6.4956703021
 30
0.0
  0
VERTEX
  5
3AA
330
305
100
AcDbEntity
  8
0
  6
CONTINUOUS
 62
     7
100
AcDbVertex
100
AcDb2dVertex
 10
8.954889109
 20
6.5192756474
 30
0.0
  0
VERTEX
  5
3AB
330
305
100
AcDbEntity
  8
0
  6
CONTINUOUS
 62
     7
100
AcDbVertex
100
AcDb2dVertex
 10
8.9645740394
 20
6.5430244997
 30
0.0
  0
VERTEX
  5
3AC
330
305
100
AcDbEntity
  8
0
  6
CONTINUOUS
 62
     7
100
AcDbVertex
100
AcDb2dVertex
 10
8.9734192531
 20
6.5668512276
 30
0.0
  0
VERTEX
  5
3AD
330
305
100
AcDbEntity
  8
0
  6
CONTINUOUS
 62
     7
100
AcDbVertex
100
AcDb2dVertex
 10
8.9814003058
 20
6.5906899847
 30
0.0
  0
VERTEX
  5
3AE
330
305
100
AcDbEntity
  8
0
  6
CONTINUOUS
 62
     7
100
AcDbVertex
100
AcDb2dVertex
 10
8.9884951414
 20
6.6144748913
 30
0.0
  0
VERTEX
  5
3AF
330
305
100
AcDbEntity
  8
0
  6
CONTINUOUS
 62
     7
100
AcDbVertex
100
AcDb2dVertex
 10
8.994684153
 20
6.6381402164
 30
0.0
  0
VERTEX
  5
3B0
330
305
100
AcDbEntity
  8
0
  6
CONTINUOUS
 62
     7
100
AcDbVertex
100
AcDb2dVertex
 10
8.9999502368
 20
6.6616205597
 30
0.0
  0
VERTEX
  5
3B1
330
305
100
AcDbEntity
  8
0
  6
CONTINUOUS
 62
     7
100
AcDbVertex
100
AcDb2dVertex
 10
9.0042788398
 20
6.6848510319
 30
0.0
  0
VERTEX
  5
3B2
330
305
100
AcDbEntity
  8
0
  6
CONTINUOUS
 62
     7
100
AcDbVertex
100
AcDb2dVertex
 10
9.0076579996
 20
6.7077674344
 30
0.0
  0
VERTEX
  5
3B3
330
305
100
AcDbEntity
  8
0
  6
CONTINUOUS
 62
     7
100
AcDbVertex
100
AcDb2dVertex
 10
9.0100783777
 20
6.7303064362
 30
0.0
  0
VERTEX
  5
3B4
330
305
100
AcDbEntity
  8
0
  6
CONTINUOUS
 62
     7
100
AcDbVertex
100
AcDb2dVertex
 10
9.0115332853
 20
6.7524057498
 30
0.0
  0
VERTEX
  5
3B5
330
305
100
AcDbEntity
  8
0
  6
CONTINUOUS
 62
     7
100
AcDbVertex
100
AcDb2dVertex
 10
9.0120187017
 20
6.7740043023
 30
0.0
  0
VERTEX
  5
3B6
330
305
100
AcDbEntity
  8
0
  6
CONTINUOUS
 62
     7
100
AcDbVertex
100
AcDb2dVertex
 10
9.0115332853
 20
6.795042405
 30
0.0
  0
VERTEX
  5
3B7
330
305
100
AcDbEntity
  8
0
  6
CONTINUOUS
 62
     7
100
AcDbVertex
100
AcDb2dVertex
 10
9.0100783777
 20
6.815461918
 30
0.0
  0
VERTEX
  5
3B8
330
305
100
AcDbEntity
  8
0
  6
CONTINUOUS
 62
     7
100
AcDbVertex
100
AcDb2dVertex
 10
9.0076579996
 20
6.8352064108
 30
0.0
  0
VERTEX
  5
3B9
330
305
100
AcDbEntity
  8
0
  6
CONTINUOUS
 62
     7
100
AcDbVertex
100
AcDb2dVertex
 10
9.0042788398
 20
6.8542213183
 30
0.0
  0
VERTEX
  5
3BA
330
305
100
AcDbEntity
  8
0
  6
CONTINUOUS
 62
     7
100
AcDbVertex
100
AcDb2dVertex
 10
8.9999502368
 20
6.8724540919
 30
0.0
  0
VERTEX
  5
3BB
330
305
100
AcDbEntity
  8
0
  6
CONTINUOUS
 62
     7
100
AcDbVertex
100
AcDb2dVertex
 10
8.994684153
 20
6.8898543442
 30
0.0
  0
VERTEX
  5
3BC
330
305
100
AcDbEntity
  8
0
  6
CONTINUOUS
 62
     7
100
AcDbVertex
100
AcDb2dVertex
 10
8.9884951414
 20
6.9063739887
 30
0.0
  0
VERTEX
  5
3BD
330
305
100
AcDbEntity
  8
0
  6
CONTINUOUS
 62
     7
100
AcDbVertex
100
AcDb2dVertex
 10
8.9814003058
 20
6.9219673725
 30
0.0
  0
VERTEX
  5
3BE
330
305
100
AcDbEntity
  8
0
  6
CONTINUOUS
 62
     7
100
AcDbVertex
100
AcDb2dVertex
 10
8.9734192531
 20
6.9365914023
 30
0.0
  0
VERTEX
  5
3BF
330
305
100
AcDbEntity
  8
0
  6
CONTINUOUS
 62
     7
100
AcDbVertex
100
AcDb2dVertex
 10
8.9645740394
 20
6.9502056639
 30
0.0
  0
VERTEX
  5
3C0
330
305
100
AcDbEntity
  8
0
  6
CONTINUOUS
 62
     7
100
AcDbVertex
100
AcDb2dVertex
 10
8.954889109
 20
6.9627725334
 30
0.0
  0
VERTEX
  5
3C1
330
305
100
AcDbEntity
  8
0
  6
CONTINUOUS
 62
     7
100
AcDbVertex
100
AcDb2dVertex
 10
8.9443912266
 20
6.9742572817
 30
0.0
  0
VERTEX
  5
3C2
330
305
100
AcDbEntity
  8
0
  6
CONTINUOUS
 62
     7
100
AcDbVertex
100
AcDb2dVertex
 10
8.9331094037
 20
6.9846281699
 30
0.0
  0
VERTEX
  5
3C3
330
305
100
AcDbEntity
  8
0
  6
CONTINUOUS
 62
     7
100
AcDbVertex
100
AcDb2dVertex
 10
8.9210748184
 20
6.9938565377
 30
0.0
  0
VERTEX
  5
3C4
330
305
100
AcDbEntity
  8
0
  6
CONTINUOUS
 62
     7
100
AcDbVertex
100
AcDb2dVertex
 10
8.9083207288
 20
7.0019168817
 30
0.0
  0
VERTEX
  5
3C5
330
305
100
AcDbEntity
  8
0
  6
CONTINUOUS
 62
     7
100
AcDbVertex
100
AcDb2dVertex
 10
8.8948823816
 20
7.008786927
 30
0.0
  0
VERTEX
  5
3C6
330
305
100
AcDbEntity
  8
0
  6
CONTINUOUS
 62
     7
100
AcDbVertex
100
AcDb2dVertex
 10
8.8807969144
 20
7.0144476877
 30
0.0
  0
VERTEX
  5
3C7
330
305
100
AcDbEntity
  8
0
  6
CONTINUOUS
 62
     7
100
AcDbVertex
100
AcDb2dVertex
 10
8.8661032532
 20
7.0188835199
 30
0.0
  0
VERTEX
  5
3C8
330
305
100
AcDbEntity
  8
0
  6
CONTINUOUS
 62
     7
100
AcDbVertex
100
AcDb2dVertex
 10
8.8508420046
 20
7.0220821651
 30
0.0
  0
VERTEX
  5
3C9
330
305
100
AcDbEntity
  8
0
  6
CONTINUOUS
 62
     7
100
AcDbVertex
100
AcDb2dVertex
 10
8.8350553441
 20
7.0240347835
 30
0.0
  0
VERTEX
  5
3CA
330
305
100
AcDbEntity
  8
0
  6
CONTINUOUS
 62
     7
100
AcDbVertex
100
AcDb2dVertex
 10
8.8187868989
 20
7.024735979
 30
0.0
  0
VERTEX
  5
3CB
330
305
100
AcDbEntity
  8
0
  6
CONTINUOUS
 62
     7
100
AcDbVertex
100
AcDb2dVertex
 10
8.8020816278
 20
7.0241838139
 30
0.0
  0
VERTEX
  5
3CC
330
305
100
AcDbEntity
  8
0
  6
CONTINUOUS
 62
     7
100
AcDbVertex
100
AcDb2dVertex
 10
8.7849856967
 20
7.022379814
 30
0.0
  0
VERTEX
  5
3CD
330
305
100
AcDbEntity
  8
0
  6
CONTINUOUS
 62
     7
100
AcDbVertex
100
AcDb2dVertex
 10
8.7675463512
 20
7.0193289648
 30
0.0
  0
VERTEX
  5
3CE
330
305
100
AcDbEntity
  8
0
  6
CONTINUOUS
 62
     7
100
AcDbVertex
100
AcDb2dVertex
 10
8.7498117858
 20
7.0150396976
 30
0.0
  0
VERTEX
  5
3CF
330
305
100
AcDbEntity
  8
0
  6
CONTINUOUS
 62
     7
100
AcDbVertex
100
AcDb2dVertex
 10
8.7318310111
 20
7.0095238658
 30
0.0
  0
VERTEX
  5
3D0
330
305
100
AcDbEntity
  8
0
  6
CONTINUOUS
 62
     7
100
AcDbVertex
100
AcDb2dVertex
 10
8.7136537179
 20
7.0027967129
 30
0.0
  0
VERTEX
  5
3D1
330
305
100
AcDbEntity
  8
0
  6
CONTINUOUS
 62
     7
100
AcDbVertex
100
AcDb2dVertex
 10
8.6953301401
 20
6.9948768297
 30
0.0
  0
VERTEX
  5
3D2
330
305
100
AcDbEntity
  8
0
  6
CONTINUOUS
 62
     7
100
AcDbVertex
100
AcDb2dVertex
 10
8.676910916
 20
6.9857861033
 30
0.0
  0
VERTEX
  5
3D3
330
305
100
AcDbEntity
  8
0
  6
CONTINUOUS
 62
     7
100
AcDbVertex
100
AcDb2dVertex
 10
8.6584469481
 20
6.9755496562
 30
0.0
  0
VERTEX
  5
3D4
330
305
100
AcDbEntity
  8
0
  6
CONTINUOUS
 62
     7
100
AcDbVertex
100
AcDb2dVertex
 10
8.6399892626
 20
6.9641957777
 30
0.0
  0
VERTEX
  5
3D5
330
305
100
AcDbEntity
  8
0
  6
CONTINUOUS
 62
     7
100
AcDbVertex
100
AcDb2dVertex
 10
8.6215888684
 20
6.9517558446
 30
0.0
  0
VERTEX
  5
3D6
330
305
100
AcDbEntity
  8
0
  6
CONTINUOUS
 62
     7
100
AcDbVertex
100
AcDb2dVertex
 10
8.6032966159
 20
6.9382642355
 30
0.0
  0
VERTEX
  5
3D7
330
305
100
AcDbEntity
  8
0
  6
CONTINUOUS
 62
     7
100
AcDbVertex
100
AcDb2dVertex
 10
8.5851630569
 20
6.9237582352
 30
0.0
  0
VERTEX
  5
3D8
330
305
100
AcDbEntity
  8
0
  6
CONTINUOUS
 62
     7
100
AcDbVertex
100
AcDb2dVertex
 10
8.5672383044
 20
6.9082779318
 30
0.0
  0
VERTEX
  5
3D9
330
305
100
AcDbEntity
  8
0
  6
CONTINUOUS
 62
     7
100
AcDbVertex
100
AcDb2dVertex
 10
8.5495718944
 20
6.891866106
 30
0.0
  0
VERTEX
  5
3DA
330
305
100
AcDbEntity
  8
0
  6
CONTINUOUS
 62
     7
100
AcDbVertex
100
AcDb2dVertex
 10
8.5322126491
 20
6.8745681127
 30
0.0
  0
VERTEX
  5
3DB
330
305
100
AcDbEntity
  8
0
  6
CONTINUOUS
 62
     7
100
AcDbVertex
100
AcDb2dVertex
 10
8.5152085417
 20
6.856431756
 30
0.0
  0
VERTEX
  5
3DC
330
305
100
AcDbEntity
  8
0
  6
CONTINUOUS
 62
     7
100
AcDbVertex
100
AcDb2dVertex
 10
8.498606564
 20
6.8375071567
 30
0.0
  0
VERTEX
  5
3DD
330
305
100
AcDbEntity
  8
0
  6
CONTINUOUS
 62
     7
100
AcDbVertex
100
AcDb2dVertex
 10
8.4824525964
 20
6.8178466139
 30
0.0
  0
VERTEX
  5
3DE
330
305
100
AcDbEntity
  8
0
  6
CONTINUOUS
 62
     7
100
AcDbVertex
100
AcDb2dVertex
 10
8.4667912815
 20
6.7975044606
 30
0.0
  0
VERTEX
  5
3DF
330
305
100
AcDbEntity
  8
0
  6
CONTINUOUS
 62
     7
100
AcDbVertex
100
AcDb2dVertex
 10
8.4516659
 20
6.7765369136
 30
0.0
  0
VERTEX
  5
3E0
330
305
100
AcDbEntity
  8
0
  6
CONTINUOUS
 62
     7
100
AcDbVertex
100
AcDb2dVertex
 10
8.4371182518
 20
6.7550019178
 30
0.0
  0
VERTEX
  5
3E1
330
305
100
AcDbEntity
  8
0
  6
CONTINUOUS
 62
     7
100
AcDbVertex
100
AcDb2dVertex
 10
8.4231885401
 20
6.7329589863
 30
0.0
  0
VERTEX
  5
3E2
330
305
100
AcDbEntity
  8
0
  6
CONTINUOUS
 62
     7
100
AcDbVertex
100
AcDb2dVertex
 10
8.4099152605
 20
6.710469036
 30
0.0
  0
VERTEX
  5
3E3
330
305
100
AcDbEntity
  8
0
  6
CONTINUOUS
 62
     7
100
AcDbVertex
100
AcDb2dVertex
 10
8.3973350944
 20
6.6875942191
 30
0.0
  0
VERTEX
  5
3E4
330
305
100
AcDbEntity
  8
0
  6
CONTINUOUS
 62
     7
100
AcDbVertex
100
AcDb2dVertex
 10
8.3854828078
 20
6.6643977515
 30
0.0
  0
VERTEX
  5
3E5
330
305
100
AcDbEntity
  8
0
  6
CONTINUOUS
 62
     7
100
AcDbVertex
100
AcDb2dVertex
 10
8.3743911552
 20
6.6409437378
 30
0.0
  0
VERTEX
  5
3E6
330
305
100
AcDbEntity
  8
0
  6
CONTINUOUS
 62
     7
100
AcDbVertex
100
AcDb2dVertex
 10
8.3640907889
 20
6.6172969946
 30
0.0
  0
VERTEX
  5
3E7
330
305
100
AcDbEntity
  8
0
  6
CONTINUOUS
 62
     7
100
AcDbVertex
100
AcDb2dVertex
 10
8.3546101745
 20
6.593522871
 30
0.0
  0
VERTEX
  5
3E8
330
305
100
AcDbEntity
  8
0
  6
CONTINUOUS
 62
     7
100
AcDbVertex
100
AcDb2dVertex
 10
8.3459755124
 20
6.569687068
 30
0.0
  0
VERTEX
  5
3E9
330
305
100
AcDbEntity
  8
0
  6
CONTINUOUS
 62
     7
100
AcDbVertex
100
AcDb2dVertex
 10
8.3382106648
 20
6.5458554572
 30
0.0
  0
VERTEX
  5
3EA
330
305
100
AcDbEntity
  8
0
  6
CONTINUOUS
 62
     7
100
AcDbVertex
100
AcDb2dVertex
 10
8.3313370903
 20
6.5220938985
 30
0.0
  0
VERTEX
  5
3EB
330
305
100
AcDbEntity
  8
0
  6
CONTINUOUS
 62
     7
100
AcDbVertex
100
AcDb2dVertex
 10
8.3253737845
 20
6.4984680584
 30
0.0
  0
VERTEX
  5
3EC
330
305
100
AcDbEntity
  8
0
  6
CONTINUOUS
 62
     7
100
AcDbVertex
100
AcDb2dVertex
 10
8.3203372272
 20
6.4750432282
 30
0.0
  0
VERTEX
  5
3ED
330
305
100
AcDbEntity
  8
0
  6
CONTINUOUS
 62
     7
100
AcDbVertex
100
AcDb2dVertex
 10
8.3162413373
 20
6.4518841437
 30
0.0
  0
VERTEX
  5
3EE
330
305
100
AcDbEntity
  8
0
  6
CONTINUOUS
 62
     7
100
AcDbVertex
100
AcDb2dVertex
 10
8.313097434
 20
6.4290548064
 30
0.0
  0
VERTEX
  5
3EF
330
305
100
AcDbEntity
  8
0
  6
CONTINUOUS
 62
     7
100
AcDbVertex
100
AcDb2dVertex
 10
8.3109142057
 20
6.4066183062
 30
0.0
  0
VERTEX
  5
3F0
330
305
100
AcDbEntity
  8
0
  6
CONTINUOUS
 62
     7
100
AcDbVertex
100
AcDb2dVertex
 10
8.3096976857
 20
6.3846366479
 30
0.0
  0
SEQEND
  5
3F1
330
305
100
AcDbEntity
  8
0
  6
CONTINUOUS
 62
     7
  0
LINE
  5
306
330
1F
100
AcDbEntity
  8
0
  6
CONTINUOUS
 62
     7
100
AcDbLine
 10
8.288476391
 20
6.3846319769
 30
0.0
 11
8.3096976857
 21
6.3846366479
 31
0.0
  0
POLYLINE
  5
307
330
1F
100
AcDbEntity
  8
0
  6
CONTINUOUS
 62
     7
100
AcDb2dPolyline
 66
     1
 10
0.0
 20
0.0
 30
0.0
  0
VERTEX
  5
3F2
330
307
100
AcDbEntity
  8
0
  6
CONTINUOUS
 62
     7
100
AcDbVertex
100
AcDb2dVertex
 10
8.288476391
 20
6.3846319769
 30
0.0
  0
VERTEX
  5
3F3
330
307
100
AcDbEntity
  8
0
  6
CONTINUOUS
 62
     7
100
AcDbVertex
100
AcDb2dVertex
 10
8.2896795147
 20
6.40689341
 30
0.0
  0
VERTEX
  5
3F4
330
307
100
AcDbEntity
  8
0
  6
CONTINUOUS
 62
     7
100
AcDbVertex
100
AcDb2dVertex
 10
8.2918465211
 20
6.4296106214
 30
0.0
  0
VERTEX
  5
3F5
330
307
100
AcDbEntity
  8
0
  6
CONTINUOUS
 62
     7
100
AcDbVertex
100
AcDb2dVertex
 10
8.2949716152
 20
6.4527228602
 30
0.0
  0
VERTEX
  5
3F6
330
307
100
AcDbEntity
  8
0
  6
CONTINUOUS
 62
     7
100
AcDbVertex
100
AcDb2dVertex
 10
8.2990464398
 20
6.4761683191
 30
0.0
  0
VERTEX
  5
3F7
330
307
100
AcDbEntity
  8
0
  6
CONTINUOUS
 62
     7
100
AcDbVertex
100
AcDb2dVertex
 10
8.3040600979
 20
6.4998842994
 30
0.0
  0
VERTEX
  5
3F8
330
307
100
AcDbEntity
  8
0
  6
CONTINUOUS
 62
     7
100
AcDbVertex
100
AcDb2dVertex
 10
8.3099991818
 20
6.5238073794
 30
0.0
  0
VERTEX
  5
3F9
330
307
100
AcDbEntity
  8
0
  6
CONTINUOUS
 62
     7
100
AcDbVertex
100
AcDb2dVertex
 10
8.316847809
 20
6.5478735832
 30
0.0
  0
VERTEX
  5
3FA
330
307
100
AcDbEntity
  8
0
  6
CONTINUOUS
 62
     7
100
AcDbVertex
100
AcDb2dVertex
 10
8.3245876648
 20
6.5720185524
 30
0.0
  0
VERTEX
  5
3FB
330
307
100
AcDbEntity
  8
0
  6
CONTINUOUS
 62
     7
100
AcDbVertex
100
AcDb2dVertex
 10
8.333198051
 20
6.5961777178
 30
0.0
  0
VERTEX
  5
3FC
330
307
100
AcDbEntity
  8
0
  6
CONTINUOUS
 62
     7
100
AcDbVertex
100
AcDb2dVertex
 10
8.3426559415
 20
6.6202864724
 30
0.0
  0
VERTEX
  5
3FD
330
307
100
AcDbEntity
  8
0
  6
CONTINUOUS
 62
     7
100
AcDbVertex
100
AcDb2dVertex
 10
8.3529360438
 20
6.6442803438
 30
0.0
  0
VERTEX
  5
3FE
330
307
100
AcDbEntity
  8
0
  6
CONTINUOUS
 62
     7
100
AcDbVertex
100
AcDb2dVertex
 10
8.3640108665
 20
6.6680951669
 30
0.0
  0
VERTEX
  5
3FF
330
307
100
AcDbEntity
  8
0
  6
CONTINUOUS
 62
     7
100
AcDbVertex
100
AcDb2dVertex
 10
8.375850793
 20
6.6916672557
 30
0.0
  0
VERTEX
  5
400
330
307
100
AcDbEntity
  8
0
  6
CONTINUOUS
 62
     7
100
AcDbVertex
100
AcDb2dVertex
 10
8.3884241607
 20
6.7149335728
 30
0.0
  0
VERTEX
  5
401
330
307
100
AcDbEntity
  8
0
  6
CONTINUOUS
 62
     7
100
AcDbVertex
100
AcDb2dVertex
 10
8.4016973456
 20
6.737831899
 30
0.0
  0
VERTEX
  5
402
330
307
100
AcDbEntity
  8
0
  6
CONTINUOUS
 62
     7
100
AcDbVertex
100
AcDb2dVertex
 10
8.4156348521
 20
6.7603009988
 30
0.0
  0
VERTEX
  5
403
330
307
100
AcDbEntity
  8
0
  6
CONTINUOUS
 62
     7
100
AcDbVertex
100
AcDb2dVertex
 10
8.4301994082
 20
6.7822807849
 30
0.0
  0
VERTEX
  5
404
330
307
100
AcDbEntity
  8
0
  6
CONTINUOUS
 62
     7
100
AcDbVertex
100
AcDb2dVertex
 10
8.4453520649
 20
6.8037124782
 30
0.0
  0
VERTEX
  5
405
330
307
100
AcDbEntity
  8
0
  6
CONTINUOUS
 62
     7
100
AcDbVertex
100
AcDb2dVertex
 10
8.4610523007
 20
6.8245387656
 30
0.0
  0
VERTEX
  5
406
330
307
100
AcDbEntity
  8
0
  6
CONTINUOUS
 62
     7
100
AcDbVertex
100
AcDb2dVertex
 10
8.4772581294
 20
6.8447039528
 30
0.0
  0
VERTEX
  5
407
330
307
100
AcDbEntity
  8
0
  6
CONTINUOUS
 62
     7
100
AcDbVertex
100
AcDb2dVertex
 10
8.4939262131
 20
6.8641541135
 30
0.0
  0
VERTEX
  5
408
330
307
100
AcDbEntity
  8
0
  6
CONTINUOUS
 62
     7
100
AcDbVertex
100
AcDb2dVertex
 10
8.5110119774
 20
6.8828372336
 30
0.0
  0
VERTEX
  5
409
330
307
100
AcDbEntity
  8
0
  6
CONTINUOUS
 62
     7
100
AcDbVertex
100
AcDb2dVertex
 10
8.5284697313
 20
6.9007033502
 30
0.0
  0
VERTEX
  5
40A
330
307
100
AcDbEntity
  8
0
  6
CONTINUOUS
 62
     7
100
AcDbVertex
100
AcDb2dVertex
 10
8.5462527886
 20
6.9177046853
 30
0.0
  0
VERTEX
  5
40B
330
307
100
AcDbEntity
  8
0
  6
CONTINUOUS
 62
     7
100
AcDbVertex
100
AcDb2dVertex
 10
8.5643135935
 20
6.9337957733
 30
0.0
  0
VERTEX
  5
40C
330
307
100
AcDbEntity
  8
0
  6
CONTINUOUS
 62
     7
100
AcDbVertex
100
AcDb2dVertex
 10
8.5826038472
 20
6.9489335832
 30
0.0
  0
VERTEX
  5
40D
330
307
100
AcDbEntity
  8
0
  6
CONTINUOUS
 62
     7
100
AcDbVertex
100
AcDb2dVertex
 10
8.6010746375
 20
6.9630776328
 30
0.0
  0
VERTEX
  5
40E
330
307
100
AcDbEntity
  8
0
  6
CONTINUOUS
 62
     7
100
AcDbVertex
100
AcDb2dVertex
 10
8.6196765693
 20
6.9761900979
 30
0.0
  0
VERTEX
  5
40F
330
307
100
AcDbEntity
  8
0
  6
CONTINUOUS
 62
     7
100
AcDbVertex
100
AcDb2dVertex
 10
8.6383598967
 20
6.9882359127
 30
0.0
  0
VERTEX
  5
410
330
307
100
AcDbEntity
  8
0
  6
CONTINUOUS
 62
     7
100
AcDbVertex
100
AcDb2dVertex
 10
8.6570746564
 20
6.999182864
 30
0.0
  0
VERTEX
  5
411
330
307
100
AcDbEntity
  8
0
  6
CONTINUOUS
 62
     7
100
AcDbVertex
100
AcDb2dVertex
 10
8.6757708008
 20
7.0090016772
 30
0.0
  0
VERTEX
  5
412
330
307
100
AcDbEntity
  8
0
  6
CONTINUOUS
 62
     7
100
AcDbVertex
100
AcDb2dVertex
 10
8.6943983321
 20
7.0176660944
 30
0.0
  0
VERTEX
  5
413
330
307
100
AcDbEntity
  8
0
  6
CONTINUOUS
 62
     7
100
AcDbVertex
100
AcDb2dVertex
 10
8.7129074362
 20
7.0251529452
 30
0.0
  0
VERTEX
  5
414
330
307
100
AcDbEntity
  8
0
  6
CONTINUOUS
 62
     7
100
AcDbVertex
100
AcDb2dVertex
 10
8.7312486154
 20
7.0314422079
 30
0.0
  0
VERTEX
  5
415
330
307
100
AcDbEntity
  8
0
  6
CONTINUOUS
 62
     7
100
AcDbVertex
100
AcDb2dVertex
 10
8.7493728213
 20
7.0365170636
 30
0.0
  0
VERTEX
  5
416
330
307
100
AcDbEntity
  8
0
  6
CONTINUOUS
 62
     7
100
AcDbVertex
100
AcDb2dVertex
 10
8.7672315857
 20
7.040363941
 30
0.0
  0
VERTEX
  5
417
330
307
100
AcDbEntity
  8
0
  6
CONTINUOUS
 62
     7
100
AcDbVertex
100
AcDb2dVertex
 10
8.7847771501
 20
7.0429725528
 30
0.0
  0
VERTEX
  5
418
330
307
100
AcDbEntity
  8
0
  6
CONTINUOUS
 62
     7
100
AcDbVertex
100
AcDb2dVertex
 10
8.8019625938
 20
7.0443359228
 30
0.0
  0
VERTEX
  5
419
330
307
100
AcDbEntity
  8
0
  6
CONTINUOUS
 62
     7
100
AcDbVertex
100
AcDb2dVertex
 10
8.8187419589
 20
7.0444504051
 30
0.0
  0
VERTEX
  5
41A
330
307
100
AcDbEntity
  8
0
  6
CONTINUOUS
 62
     7
100
AcDbVertex
100
AcDb2dVertex
 10
8.8350703737
 20
7.0433156936
 30
0.0
  0
VERTEX
  5
41B
330
307
100
AcDbEntity
  8
0
  6
CONTINUOUS
 62
     7
100
AcDbVertex
100
AcDb2dVertex
 10
8.8509041721
 20
7.0409348227
 30
0.0
  0
VERTEX
  5
41C
330
307
100
AcDbEntity
  8
0
  6
CONTINUOUS
 62
     7
100
AcDbVertex
100
AcDb2dVertex
 10
8.8662010112
 20
7.0373141595
 30
0.0
  0
VERTEX
  5
41D
330
307
100
AcDbEntity
  8
0
  6
CONTINUOUS
 62
     7
100
AcDbVertex
100
AcDb2dVertex
 10
8.8809199835
 20
7.0324633863
 30
0.0
  0
VERTEX
  5
41E
330
307
100
AcDbEntity
  8
0
  6
CONTINUOUS
 62
     7
100
AcDbVertex
100
AcDb2dVertex
 10
8.8950217273
 20
7.0263954753
 30
0.0
  0
VERTEX
  5
41F
330
307
100
AcDbEntity
  8
0
  6
CONTINUOUS
 62
     7
100
AcDbVertex
100
AcDb2dVertex
 10
8.9084685314
 20
7.0191266535
 30
0.0
  0
VERTEX
  5
420
330
307
100
AcDbEntity
  8
0
  6
CONTINUOUS
 62
     7
100
AcDbVertex
100
AcDb2dVertex
 10
8.9212244358
 20
7.0106763593
 30
0.0
  0
VERTEX
  5
421
330
307
100
AcDbEntity
  8
0
  6
CONTINUOUS
 62
     7
100
AcDbVertex
100
AcDb2dVertex
 10
8.9332553284
 20
7.0010671907
 30
0.0
  0
VERTEX
  5
422
330
307
100
AcDbEntity
  8
0
  6
CONTINUOUS
 62
     7
100
AcDbVertex
100
AcDb2dVertex
 10
8.9445290359
 20
6.9903248448
 30
0.0
  0
VERTEX
  5
423
330
307
100
AcDbEntity
  8
0
  6
CONTINUOUS
 62
     7
100
AcDbVertex
100
AcDb2dVertex
 10
8.9550154097
 20
6.9784780492
 30
0.0
  0
VERTEX
  5
424
330
307
100
AcDbEntity
  8
0
  6
CONTINUOUS
 62
     7
100
AcDbVertex
100
AcDb2dVertex
 10
8.9646864071
 20
6.9655584847
 30
0.0
  0
VERTEX
  5
425
330
307
100
AcDbEntity
  8
0
  6
CONTINUOUS
 62
     7
100
AcDbVertex
100
AcDb2dVertex
 10
8.9735161655
 20
6.9516007014
 30
0.0
  0
VERTEX
  5
426
330
307
100
AcDbEntity
  8
0
  6
CONTINUOUS
 62
     7
100
AcDbVertex
100
AcDb2dVertex
 10
8.9814810721
 20
6.9366420254
 30
0.0
  0
VERTEX
  5
427
330
307
100
AcDbEntity
  8
0
  6
CONTINUOUS
 62
     7
100
AcDbVertex
100
AcDb2dVertex
 10
8.9885598269
 20
6.9207224596
 30
0.0
  0
VERTEX
  5
428
330
307
100
AcDbEntity
  8
0
  6
CONTINUOUS
 62
     7
100
AcDbVertex
100
AcDb2dVertex
 10
8.9947334999
 20
6.9038845766
 30
0.0
  0
VERTEX
  5
429
330
307
100
AcDbEntity
  8
0
  6
CONTINUOUS
 62
     7
100
AcDbVertex
100
AcDb2dVertex
 10
8.9999855811
 20
6.8861734048
 30
0.0
  0
VERTEX
  5
42A
330
307
100
AcDbEntity
  8
0
  6
CONTINUOUS
 62
     7
100
AcDbVertex
100
AcDb2dVertex
 10
9.0043020253
 20
6.8676363077
 30
0.0
  0
VERTEX
  5
42B
330
307
100
AcDbEntity
  8
0
  6
CONTINUOUS
 62
     7
100
AcDbVertex
100
AcDb2dVertex
 10
9.0076712894
 20
6.8483228579
 30
0.0
  0
VERTEX
  5
42C
330
307
100
AcDbEntity
  8
0
  6
CONTINUOUS
 62
     7
100
AcDbVertex
100
AcDb2dVertex
 10
9.0100843632
 20
6.8282847038
 30
0.0
  0
VERTEX
  5
42D
330
307
100
AcDbEntity
  8
0
  6
CONTINUOUS
 62
     7
100
AcDbVertex
100
AcDb2dVertex
 10
9.0115347936
 20
6.8075754321
 30
0.0
  0
VERTEX
  5
42E
330
307
100
AcDbEntity
  8
0
  6
CONTINUOUS
 62
     7
100
AcDbVertex
100
AcDb2dVertex
 10
9.0120187017
 20
6.786250424
 30
0.0
  0
SEQEND
  5
42F
330
307
100
AcDbEntity
  8
0
  6
CONTINUOUS
 62
     7
  0
POLYLINE
  5
308
330
1F
100
AcDbEntity
  8
0
  6
CONTINUOUS
 62
     7
100
AcDb2dPolyline
 66
     1
 10
0.0
 20
0.0
 30
0.0
  0
VERTEX
  5
430
330
308
100
AcDbEntity
  8
0
  6
CONTINUOUS
 62
     7
100
AcDbVertex
100
AcDb2dVertex
 10
8.650172476
 20
6.1594464609
 30
0.0
  0
VERTEX
  5
431
330
308
100
AcDbEntity
  8
0
  6
CONTINUOUS
 62
     7
100
AcDbVertex
100
AcDb2dVertex
 10
8.6383598967
 20
6.1528476619
 30
0.0
  0
VERTEX
  5
432
330
308
100
AcDbEntity
  8
0
  6
CONTINUOUS
 62
     7
100
AcDbVertex
100
AcDb2dVertex
 10
8.6196765693
 20
6.143322166
 30
0.0
  0
VERTEX
  5
433
330
308
100
AcDbEntity
  8
0
  6
CONTINUOUS
 62
     7
100
AcDbVertex
100
AcDb2dVertex
 10
8.6010746375
 20
6.1349572979
 30
0.0
  0
VERTEX
  5
434
330
308
100
AcDbEntity
  8
0
  6
CONTINUOUS
 62
     7
100
AcDbVertex
100
AcDb2dVertex
 10
8.5826038472
 20
6.127775427
 30
0.0
  0
VERTEX
  5
435
330
308
100
AcDbEntity
  8
0
  6
CONTINUOUS
 62
     7
100
AcDbVertex
100
AcDb2dVertex
 10
8.5643135935
 20
6.1217957594
 30
0.0
  0
VERTEX
  5
436
330
308
100
AcDbEntity
  8
0
  6
CONTINUOUS
 62
     7
100
AcDbVertex
100
AcDb2dVertex
 10
8.5462527886
 20
6.117034286
 30
0.0
  0
VERTEX
  5
437
330
308
100
AcDbEntity
  8
0
  6
CONTINUOUS
 62
     7
100
AcDbVertex
100
AcDb2dVertex
 10
8.5284697313
 20
6.1135037401
 30
0.0
  0
VERTEX
  5
438
330
308
100
AcDbEntity
  8
0
  6
CONTINUOUS
 62
     7
100
AcDbVertex
100
AcDb2dVertex
 10
8.5110119774
 20
6.1112135631
 30
0.0
  0
VERTEX
  5
439
330
308
100
AcDbEntity
  8
0
  6
CONTINUOUS
 62
     7
100
AcDbVertex
100
AcDb2dVertex
 10
8.4939262131
 20
6.1101698796
 30
0.0
  0
VERTEX
  5
43A
330
308
100
AcDbEntity
  8
0
  6
CONTINUOUS
 62
     7
100
AcDbVertex
100
AcDb2dVertex
 10
8.4772581294
 20
6.1103754806
 30
0.0
  0
VERTEX
  5
43B
330
308
100
AcDbEntity
  8
0
  6
CONTINUOUS
 62
     7
100
AcDbVertex
100
AcDb2dVertex
 10
8.4610523007
 20
6.1118298162
 30
0.0
  0
VERTEX
  5
43C
330
308
100
AcDbEntity
  8
0
  6
CONTINUOUS
 62
     7
100
AcDbVertex
100
AcDb2dVertex
 10
8.4453520649
 20
6.1145289973
 30
0.0
  0
VERTEX
  5
43D
330
308
100
AcDbEntity
  8
0
  6
CONTINUOUS
 62
     7
100
AcDbVertex
100
AcDb2dVertex
 10
8.4301994082
 20
6.1184658055
 30
0.0
  0
VERTEX
  5
43E
330
308
100
AcDbEntity
  8
0
  6
CONTINUOUS
 62
     7
100
AcDbVertex
100
AcDb2dVertex
 10
8.4156348521
 20
6.123629713
 30
0.0
  0
VERTEX
  5
43F
330
308
100
AcDbEntity
  8
0
  6
CONTINUOUS
 62
     7
100
AcDbVertex
100
AcDb2dVertex
 10
8.4016973456
 20
6.1300069104
 30
0.0
  0
VERTEX
  5
440
330
308
100
AcDbEntity
  8
0
  6
CONTINUOUS
 62
     7
100
AcDbVertex
100
AcDb2dVertex
 10
8.3884241607
 20
6.1375803435
 30
0.0
  0
VERTEX
  5
441
330
308
100
AcDbEntity
  8
0
  6
CONTINUOUS
 62
     7
100
AcDbVertex
100
AcDb2dVertex
 10
8.375850793
 20
6.1463297593
 30
0.0
  0
VERTEX
  5
442
330
308
100
AcDbEntity
  8
0
  6
CONTINUOUS
 62
     7
100
AcDbVertex
100
AcDb2dVertex
 10
8.3640108665
 20
6.1562317598
 30
0.0
  0
VERTEX
  5
443
330
308
100
AcDbEntity
  8
0
  6
CONTINUOUS
 62
     7
100
AcDbVertex
100
AcDb2dVertex
 10
8.3529360438
 20
6.1672598648
 30
0.0
  0
VERTEX
  5
444
330
308
100
AcDbEntity
  8
0
  6
CONTINUOUS
 62
     7
100
AcDbVertex
100
AcDb2dVertex
 10
8.3426559415
 20
6.1793845828
 30
0.0
  0
VERTEX
  5
445
330
308
100
AcDbEntity
  8
0
  6
CONTINUOUS
 62
     7
100
AcDbVertex
100
AcDb2dVertex
 10
8.333198051
 20
6.1925734894
 30
0.0
  0
VERTEX
  5
446
330
308
100
AcDbEntity
  8
0
  6
CONTINUOUS
 62
     7
100
AcDbVertex
100
AcDb2dVertex
 10
8.3245876648
 20
6.2067913145
 30
0.0
  0
VERTEX
  5
447
330
308
100
AcDbEntity
  8
0
  6
CONTINUOUS
 62
     7
100
AcDbVertex
100
AcDb2dVertex
 10
8.316847809
 20
6.2220000364
 30
0.0
  0
VERTEX
  5
448
330
308
100
AcDbEntity
  8
0
  6
CONTINUOUS
 62
     7
100
AcDbVertex
100
AcDb2dVertex
 10
8.3099991818
 20
6.2381589835
 30
0.0
  0
VERTEX
  5
449
330
308
100
AcDbEntity
  8
0
  6
CONTINUOUS
 62
     7
100
AcDbVertex
100
AcDb2dVertex
 10
8.3040600979
 20
6.2552249432
 30
0.0
  0
VERTEX
  5
44A
330
308
100
AcDbEntity
  8
0
  6
CONTINUOUS
 62
     7
100
AcDbVertex
100
AcDb2dVertex
 10
8.2990464398
 20
6.2731522772
 30
0.0
  0
VERTEX
  5
44B
330
308
100
AcDbEntity
  8
0
  6
CONTINUOUS
 62
     7
100
AcDbVertex
100
AcDb2dVertex
 10
8.2949716152
 20
6.2918930437
 30
0.0
  0
VERTEX
  5
44C
330
308
100
AcDbEntity
  8
0
  6
CONTINUOUS
 62
     7
100
AcDbVertex
100
AcDb2dVertex
 10
8.2918465211
 20
6.3113971257
 30
0.0
  0
VERTEX
  5
44D
330
308
100
AcDbEntity
  8
0
  6
CONTINUOUS
 62
     7
100
AcDbVertex
100
AcDb2dVertex
 10
8.2896795147
 20
6.3316123648
 30
0.0
  0
VERTEX
  5
44E
330
308
100
AcDbEntity
  8
0
  6
CONTINUOUS
 62
     7
100
AcDbVertex
100
AcDb2dVertex
 10
8.288476391
 20
6.3524847008
 30
0.0
  0
SEQEND
  5
44F
330
308
100
AcDbEntity
  8
0
  6
CONTINUOUS
 62
     7
  0
LINE
  5
309
330
1F
100
AcDbEntity
  8
0
  6
CONTINUOUS
 62
     7
100
AcDbLine
 10
8.288476391
 20
6.3524847008
 30
0.0
 11
8.3096976857
 21
6.3524893718
 31
0.0
  0
POLYLINE
  5
30A
330
1F
100
AcDbEntity
  8
0
  6
CONTINUOUS
 62
     7
100
AcDb2dPolyline
 66
     1
 10
0.0
 20
0.0
 30
0.0
  0
VERTEX
  5
450
330
30A
100
AcDbEntity
  8
0
  6
CONTINUOUS
 62
     7
100
AcDbVertex
100
AcDb2dVertex
 10
8.596458202
 20
7.1992741792
 30
0.0
  0
VERTEX
  5
451
330
30A
100
AcDbEntity
  8
0
  6
CONTINUOUS
 62
     7
100
AcDbVertex
100
AcDb2dVertex
 10
8.5845915032
 20
7.2055169452
 30
0.0
  0
VERTEX
  5
452
330
30A
100
AcDbEntity
  8
0
  6
CONTINUOUS
 62
     7
100
AcDbVertex
100
AcDb2dVertex
 10
8.5703905253
 20
7.2115285061
 30
0.0
  0
VERTEX
  5
453
330
30A
100
AcDbEntity
  8
0
  6
CONTINUOUS
 62
     7
100
AcDbVertex
100
AcDb2dVertex
 10
8.5555700013
 20
7.2163120988
 30
0.0
  0
VERTEX
  5
454
330
30A
100
AcDbEntity
  8
0
  6
CONTINUOUS
 62
     7
100
AcDbVertex
100
AcDb2dVertex
 10
8.5401698846
 20
7.2198548275
 30
0.0
  0
VERTEX
  5
455
330
30A
100
AcDbEntity
  8
0
  6
CONTINUOUS
 62
     7
100
AcDbVertex
100
AcDb2dVertex
 10
8.5242316914
 20
7.2221471418
 30
0.0
  0
VERTEX
  5
456
330
30A
100
AcDbEntity
  8
0
  6
CONTINUOUS
 62
     7
100
AcDbVertex
100
AcDb2dVertex
 10
8.5077983881
 20
7.223182862
 30
0.0
  0
VERTEX
  5
457
330
30A
100
AcDbEntity
  8
0
  6
CONTINUOUS
 62
     7
100
AcDbVertex
100
AcDb2dVertex
 10
8.4909142761
 20
7.2229591959
 30
0.0
  0
VERTEX
  5
458
330
30A
100
AcDbEntity
  8
0
  6
CONTINUOUS
 62
     7
100
AcDbVertex
100
AcDb2dVertex
 10
8.4736248719
 20
7.2214767465
 30
0.0
  0
VERTEX
  5
459
330
30A
100
AcDbEntity
  8
0
  6
CONTINUOUS
 62
     7
100
AcDbVertex
100
AcDb2dVertex
 10
8.4559767846
 20
7.2187395102
 30
0.0
  0
VERTEX
  5
45A
330
30A
100
AcDbEntity
  8
0
  6
CONTINUOUS
 62
     7
100
AcDbVertex
100
AcDb2dVertex
 10
8.4380175905
 20
7.2147548662
 30
0.0
  0
VERTEX
  5
45B
330
30A
100
AcDbEntity
  8
0
  6
CONTINUOUS
 62
     7
100
AcDbVertex
100
AcDb2dVertex
 10
8.4197957043
 20
7.2095335563
 30
0.0
  0
VERTEX
  5
45C
330
30A
100
AcDbEntity
  8
0
  6
CONTINUOUS
 62
     7
100
AcDbVertex
100
AcDb2dVertex
 10
8.401360249
 20
7.2030896562
 30
0.0
  0
VERTEX
  5
45D
330
30A
100
AcDbEntity
  8
0
  6
CONTINUOUS
 62
     7
100
AcDbVertex
100
AcDb2dVertex
 10
8.3827609233
 20
7.1954405376
 30
0.0
  0
VERTEX
  5
45E
330
30A
100
AcDbEntity
  8
0
  6
CONTINUOUS
 62
     7
100
AcDbVertex
100
AcDb2dVertex
 10
8.3640478678
 20
7.1866068212
 30
0.0
  0
VERTEX
  5
45F
330
30A
100
AcDbEntity
  8
0
  6
CONTINUOUS
 62
     7
100
AcDbVertex
100
AcDb2dVertex
 10
8.3452715295
 20
7.176612321
 30
0.0
  0
VERTEX
  5
460
330
30A
100
AcDbEntity
  8
0
  6
CONTINUOUS
 62
     7
100
AcDbVertex
100
AcDb2dVertex
 10
8.3264825261
 20
7.1654839805
 30
0.0
  0
VERTEX
  5
461
330
30A
100
AcDbEntity
  8
0
  6
CONTINUOUS
 62
     7
100
AcDbVertex
100
AcDb2dVertex
 10
8.3077315094
 20
7.1532517997
 30
0.0
  0
VERTEX
  5
462
330
30A
100
AcDbEntity
  8
0
  6
CONTINUOUS
 62
     7
100
AcDbVertex
100
AcDb2dVertex
 10
8.2890690289
 20
7.1399487545
 30
0.0
  0
VERTEX
  5
463
330
30A
100
AcDbEntity
  8
0
  6
CONTINUOUS
 62
     7
100
AcDbVertex
100
AcDb2dVertex
 10
8.2705453953
 20
7.1256107074
 30
0.0
  0
VERTEX
  5
464
330
30A
100
AcDbEntity
  8
0
  6
CONTINUOUS
 62
     7
100
AcDbVertex
100
AcDb2dVertex
 10
8.2522105451
 20
7.1102763114
 30
0.0
  0
VERTEX
  5
465
330
30A
100
AcDbEntity
  8
0
  6
CONTINUOUS
 62
     7
100
AcDbVertex
100
AcDb2dVertex
 10
8.2341139057
 20
7.0939869052
 30
0.0
  0
VERTEX
  5
466
330
30A
100
AcDbEntity
  8
0
  6
CONTINUOUS
 62
     7
100
AcDbVertex
100
AcDb2dVertex
 10
8.2163042626
 20
7.0767864022
 30
0.0
  0
VERTEX
  5
467
330
30A
100
AcDbEntity
  8
0
  6
CONTINUOUS
 62
     7
100
AcDbVertex
100
AcDb2dVertex
 10
8.1988296273
 20
7.0587211719
 30
0.0
  0
VERTEX
  5
468
330
30A
100
AcDbEntity
  8
0
  6
CONTINUOUS
 62
     7
100
AcDbVertex
100
AcDb2dVertex
 10
8.1817371083
 20
7.039839915
 30
0.0
  0
VERTEX
  5
469
330
30A
100
AcDbEntity
  8
0
  6
CONTINUOUS
 62
     7
100
AcDbVertex
100
AcDb2dVertex
 10
8.1650727842
 20
7.020193532
 30
0.0
  0
VERTEX
  5
46A
330
30A
100
AcDbEntity
  8
0
  6
CONTINUOUS
 62
     7
100
AcDbVertex
100
AcDb2dVertex
 10
8.148881579
 20
6.999834986
 30
0.0
  0
VERTEX
  5
46B
330
30A
100
AcDbEntity
  8
0
  6
CONTINUOUS
 62
     7
100
AcDbVertex
100
AcDb2dVertex
 10
8.1332071412
 20
6.9788191602
 30
0.0
  0
VERTEX
  5
46C
330
30A
100
AcDbEntity
  8
0
  6
CONTINUOUS
 62
     7
100
AcDbVertex
100
AcDb2dVertex
 10
8.1180917265
 20
6.9572027095
 30
0.0
  0
VERTEX
  5
46D
330
30A
100
AcDbEntity
  8
0
  6
CONTINUOUS
 62
     7
100
AcDbVertex
100
AcDb2dVertex
 10
8.1035760832
 20
6.935043908
 30
0.0
  0
VERTEX
  5
46E
330
30A
100
AcDbEntity
  8
0
  6
CONTINUOUS
 62
     7
100
AcDbVertex
100
AcDb2dVertex
 10
8.0896993431
 20
6.9124024919
 30
0.0
  0
VERTEX
  5
46F
330
30A
100
AcDbEntity
  8
0
  6
CONTINUOUS
 62
     7
100
AcDbVertex
100
AcDb2dVertex
 10
8.0764989152
 20
6.8893394985
 30
0.0
  0
VERTEX
  5
470
330
30A
100
AcDbEntity
  8
0
  6
CONTINUOUS
 62
     7
100
AcDbVertex
100
AcDb2dVertex
 10
8.0640103858
 20
6.8659171015
 30
0.0
  0
VERTEX
  5
471
330
30A
100
AcDbEntity
  8
0
  6
CONTINUOUS
 62
     7
100
AcDbVertex
100
AcDb2dVertex
 10
8.0522674215
 20
6.8421984436
 30
0.0
  0
VERTEX
  5
472
330
30A
100
AcDbEntity
  8
0
  6
CONTINUOUS
 62
     7
100
AcDbVertex
100
AcDb2dVertex
 10
8.0413016795
 20
6.818247466
 30
0.0
  0
VERTEX
  5
473
330
30A
100
AcDbEntity
  8
0
  6
CONTINUOUS
 62
     7
100
AcDbVertex
100
AcDb2dVertex
 10
8.0311427213
 20
6.7941287364
 30
0.0
  0
VERTEX
  5
474
330
30A
100
AcDbEntity
  8
0
  6
CONTINUOUS
 62
     7
100
AcDbVertex
100
AcDb2dVertex
 10
8.0218179338
 20
6.7699072747
 30
0.0
  0
VERTEX
  5
475
330
30A
100
AcDbEntity
  8
0
  6
CONTINUOUS
 62
     7
100
AcDbVertex
100
AcDb2dVertex
 10
8.0133524548
 20
6.7456483775
 30
0.0
  0
VERTEX
  5
476
330
30A
100
AcDbEntity
  8
0
  6
CONTINUOUS
 62
     7
100
AcDbVertex
100
AcDb2dVertex
 10
8.005769106
 20
6.7214174426
 30
0.0
  0
VERTEX
  5
477
330
30A
100
AcDbEntity
  8
0
  6
CONTINUOUS
 62
     7
100
AcDbVertex
100
AcDb2dVertex
 10
7.9990883305
 20
6.6972797923
 30
0.0
  0
VERTEX
  5
478
330
30A
100
AcDbEntity
  8
0
  6
CONTINUOUS
 62
     7
100
AcDbVertex
100
AcDb2dVertex
 10
7.9933281387
 20
6.6733004974
 30
0.0
  0
VERTEX
  5
479
330
30A
100
AcDbEntity
  8
0
  6
CONTINUOUS
 62
     7
100
AcDbVertex
100
AcDb2dVertex
 10
7.9885040589
 20
6.6495442019
 30
0.0
  0
VERTEX
  5
47A
330
30A
100
AcDbEntity
  8
0
  6
CONTINUOUS
 62
     7
100
AcDbVertex
100
AcDb2dVertex
 10
7.984629096
 20
6.6260749486
 30
0.0
  0
VERTEX
  5
47B
330
30A
100
AcDbEntity
  8
0
  6
CONTINUOUS
 62
     7
100
AcDbVertex
100
AcDb2dVertex
 10
7.9817136963
 20
6.6029560063
 30
0.0
  0
VERTEX
  5
47C
330
30A
100
AcDbEntity
  8
0
  6
CONTINUOUS
 62
     7
100
AcDbVertex
100
AcDb2dVertex
 10
7.9797657192
 20
6.5802496998
 30
0.0
  0
VERTEX
  5
47D
330
30A
100
AcDbEntity
  8
0
  6
CONTINUOUS
 62
     7
100
AcDbVertex
100
AcDb2dVertex
 10
7.978790416
 20
6.5580172411
 30
0.0
  0
VERTEX
  5
47E
330
30A
100
AcDbEntity
  8
0
  6
CONTINUOUS
 62
     7
100
AcDbVertex
100
AcDb2dVertex
 10
7.978790416
 20
6.5363185651
 30
0.0
  0
VERTEX
  5
47F
330
30A
100
AcDbEntity
  8
0
  6
CONTINUOUS
 62
     7
100
AcDbVertex
100
AcDb2dVertex
 10
7.9797657192
 20
6.5152121675
 30
0.0
  0
VERTEX
  5
480
330
30A
100
AcDbEntity
  8
0
  6
CONTINUOUS
 62
     7
100
AcDbVertex
100
AcDb2dVertex
 10
7.9817136963
 20
6.4947549475
 30
0.0
  0
VERTEX
  5
481
330
30A
100
AcDbEntity
  8
0
  6
CONTINUOUS
 62
     7
100
AcDbVertex
100
AcDb2dVertex
 10
7.984629096
 20
6.4750020541
 30
0.0
  0
VERTEX
  5
482
330
30A
100
AcDbEntity
  8
0
  6
CONTINUOUS
 62
     7
100
AcDbVertex
100
AcDb2dVertex
 10
7.9885040589
 20
6.4560067377
 30
0.0
  0
VERTEX
  5
483
330
30A
100
AcDbEntity
  8
0
  6
CONTINUOUS
 62
     7
100
AcDbVertex
100
AcDb2dVertex
 10
7.9933281387
 20
6.4378202061
 30
0.0
  0
VERTEX
  5
484
330
30A
100
AcDbEntity
  8
0
  6
CONTINUOUS
 62
     7
100
AcDbVertex
100
AcDb2dVertex
 10
7.9990883305
 20
6.4204914872
 30
0.0
  0
VERTEX
  5
485
330
30A
100
AcDbEntity
  8
0
  6
CONTINUOUS
 62
     7
100
AcDbVertex
100
AcDb2dVertex
 10
8.005769106
 20
6.4040672961
 30
0.0
  0
VERTEX
  5
486
330
30A
100
AcDbEntity
  8
0
  6
CONTINUOUS
 62
     7
100
AcDbVertex
100
AcDb2dVertex
 10
8.0133524548
 20
6.3885919094
 30
0.0
  0
VERTEX
  5
487
330
30A
100
AcDbEntity
  8
0
  6
CONTINUOUS
 62
     7
100
AcDbVertex
100
AcDb2dVertex
 10
8.0218179338
 20
6.3741070461
 30
0.0
  0
VERTEX
  5
488
330
30A
100
AcDbEntity
  8
0
  6
CONTINUOUS
 62
     7
100
AcDbVertex
100
AcDb2dVertex
 10
8.0311427213
 20
6.3606517549
 30
0.0
  0
VERTEX
  5
489
330
30A
100
AcDbEntity
  8
0
  6
CONTINUOUS
 62
     7
100
AcDbVertex
100
AcDb2dVertex
 10
8.0413016795
 20
6.3482623087
 30
0.0
  0
VERTEX
  5
48A
330
30A
100
AcDbEntity
  8
0
  6
CONTINUOUS
 62
     7
100
AcDbVertex
100
AcDb2dVertex
 10
8.0522674215
 20
6.3369721075
 30
0.0
  0
VERTEX
  5
48B
330
30A
100
AcDbEntity
  8
0
  6
CONTINUOUS
 62
     7
100
AcDbVertex
100
AcDb2dVertex
 10
8.0640103858
 20
6.3268115875
 30
0.0
  0
VERTEX
  5
48C
330
30A
100
AcDbEntity
  8
0
  6
CONTINUOUS
 62
     7
100
AcDbVertex
100
AcDb2dVertex
 10
8.0764989152
 20
6.3178081397
 30
0.0
  0
VERTEX
  5
48D
330
30A
100
AcDbEntity
  8
0
  6
CONTINUOUS
 62
     7
100
AcDbVertex
100
AcDb2dVertex
 10
8.0846887719
 20
6.3127674696
 30
0.0
  0
SEQEND
  5
48E
330
30A
100
AcDbEntity
  8
0
  6
CONTINUOUS
 62
     7
  0
SPLINE
  5
30B
330
1F
100
AcDbEntity
  8
0
  6
CONTINUOUS
 62
     7
100
AcDbSpline
210
0.0
220
0.0
230
1.0
 70
     8
 71
     3
 72
    20
 73
    16
 74
     0
 42
0.00000001
 43
0.00000001
 40
0.0
 40
0.0
 40
0.0
 40
0.0
 40
0.0675213818283386
 40
0.1350466281833007
 40
0.2025074566960021
 40
0.2699813029921964
 40
0.338640243606495
 40
0.4073237980572713
 40
0.4804138327020251
 40
0.5535414308026346
 40
0.6352455472875428
 40
0.7169977708460713
 40
0.8126428282685287
 40
0.908336053460639
 40
1.0
 40
1.0
 40
1.0
 40
1.0
 10
8.428239822871708
 20
6.931836805107159
 30
0.0
 10
8.424028309130486
 20
6.933962018614686
 30
0.0
 10
8.415605040605774
 20
6.938212567264458
 30
0.0
 10
8.400967282116074
 20
6.94188722058506
 30
0.0
 10
8.385377357538777
 20
6.943339534706887
 30
0.0
 10
8.36908747360532
 20
6.942415649496374
 30
0.0
 10
8.35259947800779
 20
6.939031834404474
 30
0.0
 10
8.336024766824893
 20
6.93321035108174
 30
0.0
 10
8.319941325747603
 20
6.924891474096404
 30
0.0
 10
8.304156248962794
 20
6.913872542468559
 30
0.0
 10
8.289512129194446
 20
6.9002976222996
 30
0.0
 10
8.275616649248589
 20
6.883522917463734
 30
0.0
 10
8.263691461079317
 20
6.864061829371571
 30
0.0
 10
8.253889824363538
 20
6.842609078881523
 30
0.0
 10
8.250161040549177
 20
6.827644650433575
 30
0.0
 10
8.248336744008737
 20
6.820323347722992
 30
0.0
  0
POLYLINE
  5
30C
330
1F
100
AcDbEntity
  8
0
  6
CONTINUOUS
 62
     7
100
AcDb2dPolyline
 66
     1
 10
0.0
 20
0.0
 30
0.0
  0
VERTEX
  5
48F
330
30C
100
AcDbEntity
  8
0
  6
CONTINUOUS
 62
     7
100
AcDbVertex
100
AcDb2dVertex
 10
8.243712291
 20
6.7811020273
 30
0.0
  0
VERTEX
  5
490
330
30C
100
AcDbEntity
  8
0
  6
CONTINUOUS
 62
     7
100
AcDbVertex
100
AcDb2dVertex
 10
8.2440807829
 20
6.7665819261
 30
0.0
  0
VERTEX
  5
491
330
30C
100
AcDbEntity
  8
0
  6
CONTINUOUS
 62
     7
100
AcDbVertex
100
AcDb2dVertex
 10
8.2476241543
 20
6.74630579
 30
0.0
  0
VERTEX
  5
492
330
30C
100
AcDbEntity
  8
0
  6
CONTINUOUS
 62
     7
100
AcDbVertex
100
AcDb2dVertex
 10
8.2518810812
 20
6.7336337836
 30
0.0
  0
VERTEX
  5
493
330
30C
100
AcDbEntity
  8
0
  6
CONTINUOUS
 62
     7
100
AcDbVertex
100
AcDb2dVertex
 10
8.2578449498
 20
6.722104361
 30
0.0
  0
VERTEX
  5
494
330
30C
100
AcDbEntity
  8
0
  6
CONTINUOUS
 62
     7
100
AcDbVertex
100
AcDb2dVertex
 10
8.2639331608
 20
6.7141183109
 30
0.0
  0
VERTEX
  5
495
330
30C
100
AcDbEntity
  8
0
  6
CONTINUOUS
 62
     7
100
AcDbVertex
100
AcDb2dVertex
 10
8.2711516157
 20
6.7075915189
 30
0.0
  0
VERTEX
  5
496
330
30C
100
AcDbEntity
  8
0
  6
CONTINUOUS
 62
     7
100
AcDbVertex
100
AcDb2dVertex
 10
8.2794159965
 20
6.7028500967
 30
0.0
  0
VERTEX
  5
497
330
30C
100
AcDbEntity
  8
0
  6
CONTINUOUS
 62
     7
100
AcDbVertex
100
AcDb2dVertex
 10
8.2884162315
 20
6.7000276144
 30
0.0
  0
VERTEX
  5
498
330
30C
100
AcDbEntity
  8
0
  6
CONTINUOUS
 62
     7
100
AcDbVertex
100
AcDb2dVertex
 10
8.2973074077
 20
6.6991162529
 30
0.0
  0
VERTEX
  5
499
330
30C
100
AcDbEntity
  8
0
  6
CONTINUOUS
 62
     7
100
AcDbVertex
100
AcDb2dVertex
 10
8.3063915172
 20
6.6996977963
 30
0.0
  0
VERTEX
  5
49A
330
30C
100
AcDbEntity
  8
0
  6
CONTINUOUS
 62
     7
100
AcDbVertex
100
AcDb2dVertex
 10
8.3215606797
 20
6.7034103225
 30
0.0
  0
VERTEX
  5
49B
330
30C
100
AcDbEntity
  8
0
  6
CONTINUOUS
 62
     7
100
AcDbVertex
100
AcDb2dVertex
 10
8.3365403423
 20
6.7097881035
 30
0.0
  0
VERTEX
  5
49C
330
30C
100
AcDbEntity
  8
0
  6
CONTINUOUS
 62
     7
100
AcDbVertex
100
AcDb2dVertex
 10
8.3584417697
 20
6.7229961458
 30
0.0
  0
VERTEX
  5
49D
330
30C
100
AcDbEntity
  8
0
  6
CONTINUOUS
 62
     7
100
AcDbVertex
100
AcDb2dVertex
 10
8.3793770762
 20
6.7394260562
 30
0.0
  0
VERTEX
  5
49E
330
30C
100
AcDbEntity
  8
0
  6
CONTINUOUS
 62
     7
100
AcDbVertex
100
AcDb2dVertex
 10
8.399731595
 20
6.7588693705
 30
0.0
  0
VERTEX
  5
49F
330
30C
100
AcDbEntity
  8
0
  6
CONTINUOUS
 62
     7
100
AcDbVertex
100
AcDb2dVertex
 10
8.4184182973
 20
6.7803423754
 30
0.0
  0
VERTEX
  5
4A0
330
30C
100
AcDbEntity
  8
0
  6
CONTINUOUS
 62
     7
100
AcDbVertex
100
AcDb2dVertex
 10
8.4330643623
 20
6.8006769244
 30
0.0
  0
VERTEX
  5
4A1
330
30C
100
AcDbEntity
  8
0
  6
CONTINUOUS
 62
     7
100
AcDbVertex
100
AcDb2dVertex
 10
8.4452907731
 20
6.8218992257
 30
0.0
  0
VERTEX
  5
4A2
330
30C
100
AcDbEntity
  8
0
  6
CONTINUOUS
 62
     7
100
AcDbVertex
100
AcDb2dVertex
 10
8.4530711436
 20
6.8399790022
 30
0.0
  0
VERTEX
  5
4A3
330
30C
100
AcDbEntity
  8
0
  6
CONTINUOUS
 62
     7
100
AcDbVertex
100
AcDb2dVertex
 10
8.4581283458
 20
6.8580136099
 30
0.0
  0
VERTEX
  5
4A4
330
30C
100
AcDbEntity
  8
0
  6
CONTINUOUS
 62
     7
100
AcDbVertex
100
AcDb2dVertex
 10
8.4599311506
 20
6.8756824708
 30
0.0
  0
VERTEX
  5
4A5
330
30C
100
AcDbEntity
  8
0
  6
CONTINUOUS
 62
     7
100
AcDbVertex
100
AcDb2dVertex
 10
8.4581075518
 20
6.8923546717
 30
0.0
  0
VERTEX
  5
4A6
330
30C
100
AcDbEntity
  8
0
  6
CONTINUOUS
 62
     7
100
AcDbVertex
100
AcDb2dVertex
 10
8.4532479076
 20
6.9058001789
 30
0.0
  0
VERTEX
  5
4A7
330
30C
100
AcDbEntity
  8
0
  6
CONTINUOUS
 62
     7
100
AcDbVertex
100
AcDb2dVertex
 10
8.4454159246
 20
6.9176671228
 30
0.0
  0
VERTEX
  5
4A8
330
30C
100
AcDbEntity
  8
0
  6
CONTINUOUS
 62
     7
100
AcDbVertex
100
AcDb2dVertex
 10
8.4375679048
 20
6.9253779348
 30
0.0
  0
VERTEX
  5
4A9
330
30C
100
AcDbEntity
  8
0
  6
CONTINUOUS
 62
     7
100
AcDbVertex
100
AcDb2dVertex
 10
8.4282398229
 20
6.9318368051
 30
0.0
  0
VERTEX
  5
4AA
330
30C
100
AcDbEntity
  8
0
  6
CONTINUOUS
 62
     7
100
AcDbVertex
100
AcDb2dVertex
 10
8.4282398229
 20
6.9318368051
 30
0.0
  0
SEQEND
  5
4AB
330
30C
100
AcDbEntity
  8
0
  6
CONTINUOUS
 62
     7
  0
SPLINE
  5
30D
330
1F
100
AcDbEntity
  8
0
  6
CONTINUOUS
 62
     7
100
AcDbSpline
210
0.0
220
0.0
230
1.0
 70
     8
 71
     3
 72
     9
 73
     5
 74
     0
 42
0.00000001
 43
0.00000001
 40
0.0
 40
0.0
 40
0.0
 40
0.0
 40
0.719873317391599
 40
1.0
 40
1.0
 40
1.0
 40
1.0
 10
8.309924711846401
 20
6.182744336853033
 30
0.0
 10
8.311825538596864
 20
6.181645939512218
 30
0.0
 10
8.314466040341465
 20
6.180120119184839
 30
0.0
 10
8.317471055409245
 20
6.178386208862432
 30
0.0
 10
8.31831284031137
 20
6.177900494315876
 30
0.0
  0
SPLINE
  5
30E
330
1F
100
AcDbEntity
  8
0
  6
CONTINUOUS
 62
     7
100
AcDbSpline
210
0.0
220
0.0
230
1.0
 70
     8
 71
     3
 72
     9
 73
     5
 74
     0
 42
0.00000001
 43
0.00000001
 40
0.0
 40
0.0
 40
0.0
 40
0.0
 40
0.3001541100605625
 40
1.0
 40
1.0
 40
1.0
 40
1.0
 10
8.303058035250267
 20
6.186706660671283
 30
0.0
 10
8.303643372738183
 20
6.186368624595873
 30
0.0
 10
8.305593495919226
 20
6.185242416211316
 30
0.0
 10
8.308141500978278
 20
6.183772824542407
 30
0.0
 10
8.309924711846401
 20
6.182744336853033
 30
0.0
  0
ARC
  5
30F
330
1F
100
AcDbEntity
  8
0
  6
CONTINUOUS
 62
     7
100
AcDbCircle
 10
8.3358688815
 20
6.4499389054
 30
0.0
 40
0.2451323679725176
100
AcDbArc
 50
176.1680594925
 51
235.5036046836
  0
LINE
  5
310
330
1F
100
AcDbEntity
  8
0
  6
CONTINUOUS
 62
     7
100
AcDbLine
 10
8.288476391
 20
6.3524847008
 30
0.0
 11
8.0912845393
 21
6.4663211337
 31
0.0
  0
LINE
  5
311
330
1F
100
AcDbEntity
  8
0
  6
CONTINUOUS
 62
     7
100
AcDbLine
 10
8.288476391
 20
6.3846319769
 30
0.0
 11
8.0912845393
 21
6.4984684098
 31
0.0
  0
POLYLINE
  5
312
330
1F
100
AcDbEntity
  8
0
  6
CONTINUOUS
 62
     7
100
AcDb2dPolyline
 66
     1
 10
0.0
 20
0.0
 30
0.0
  0
VERTEX
  5
4AC
330
312
100
AcDbEntity
  8
0
  6
CONTINUOUS
 62
     7
100
AcDbVertex
100
AcDb2dVertex
 10
8.595595909
 20
7.1575958333
 30
0.0
  0
VERTEX
  5
4AD
330
312
100
AcDbEntity
  8
0
  6
CONTINUOUS
 62
     7
100
AcDbVertex
100
AcDb2dVertex
 10
8.5779914998
 20
7.1555302103
 30
0.0
  0
VERTEX
  5
4AE
330
312
100
AcDbEntity
  8
0
  6
CONTINUOUS
 62
     7
100
AcDbVertex
100
AcDb2dVertex
 10
8.5600441983
 20
7.1521914744
 30
0.0
  0
VERTEX
  5
4AF
330
312
100
AcDbEntity
  8
0
  6
CONTINUOUS
 62
     7
100
AcDbVertex
100
AcDb2dVertex
 10
8.5418032088
 20
7.1475887793
 30
0.0
  0
VERTEX
  5
4B0
330
312
100
AcDbEntity
  8
0
  6
CONTINUOUS
 62
     7
100
AcDbVertex
100
AcDb2dVertex
 10
8.523318541
 20
7.1417347437
 30
0.0
  0
VERTEX
  5
4B1
330
312
100
AcDbEntity
  8
0
  6
CONTINUOUS
 62
     7
100
AcDbVertex
100
AcDb2dVertex
 10
8.5046408729
 20
7.1346454172
 30
0.0
  0
VERTEX
  5
4B2
330
312
100
AcDbEntity
  8
0
  6
CONTINUOUS
 62
     7
100
AcDbVertex
100
AcDb2dVertex
 10
8.4858214111
 20
7.1263402358
 30
0.0
  0
VERTEX
  5
4B3
330
312
100
AcDbEntity
  8
0
  6
CONTINUOUS
 62
     7
100
AcDbVertex
100
AcDb2dVertex
 10
8.4669117514
 20
7.1168419691
 30
0.0
  0
VERTEX
  5
4B4
330
312
100
AcDbEntity
  8
0
  6
CONTINUOUS
 62
     7
100
AcDbVertex
100
AcDb2dVertex
 10
8.4479637368
 20
7.1061766578
 30
0.0
  0
VERTEX
  5
4B5
330
312
100
AcDbEntity
  8
0
  6
CONTINUOUS
 62
     7
100
AcDbVertex
100
AcDb2dVertex
 10
8.4290293152
 20
7.094373542
 30
0.0
  0
VERTEX
  5
4B6
330
312
100
AcDbEntity
  8
0
  6
CONTINUOUS
 62
     7
100
AcDbVertex
100
AcDb2dVertex
 10
8.4101603975
 20
7.0814649811
 30
0.0
  0
VERTEX
  5
4B7
330
312
100
AcDbEntity
  8
0
  6
CONTINUOUS
 62
     7
100
AcDbVertex
100
AcDb2dVertex
 10
8.391408715
 20
7.0674863655
 30
0.0
  0
VERTEX
  5
4B8
330
312
100
AcDbEntity
  8
0
  6
CONTINUOUS
 62
     7
100
AcDbVertex
100
AcDb2dVertex
 10
8.3728256774
 20
7.052476019
 30
0.0
  0
VERTEX
  5
4B9
330
312
100
AcDbEntity
  8
0
  6
CONTINUOUS
 62
     7
100
AcDbVertex
100
AcDb2dVertex
 10
8.3544622323
 20
7.0364750943
 30
0.0
  0
VERTEX
  5
4BA
330
312
100
AcDbEntity
  8
0
  6
CONTINUOUS
 62
     7
100
AcDbVertex
100
AcDb2dVertex
 10
8.336368725
 20
7.0195274596
 30
0.0
  0
VERTEX
  5
4BB
330
312
100
AcDbEntity
  8
0
  6
CONTINUOUS
 62
     7
100
AcDbVertex
100
AcDb2dVertex
 10
8.3185947609
 20
7.0016795787
 30
0.0
  0
VERTEX
  5
4BC
330
312
100
AcDbEntity
  8
0
  6
CONTINUOUS
 62
     7
100
AcDbVertex
100
AcDb2dVertex
 10
8.3011890692
 20
6.9829803836
 30
0.0
  0
VERTEX
  5
4BD
330
312
100
AcDbEntity
  8
0
  6
CONTINUOUS
 62
     7
100
AcDbVertex
100
AcDb2dVertex
 10
8.2841993698
 20
6.9634811402
 30
0.0
  0
VERTEX
  5
4BE
330
312
100
AcDbEntity
  8
0
  6
CONTINUOUS
 62
     7
100
AcDbVertex
100
AcDb2dVertex
 10
8.2676722415
 20
6.9432353079
 30
0.0
  0
VERTEX
  5
4BF
330
312
100
AcDbEntity
  8
0
  6
CONTINUOUS
 62
     7
100
AcDbVertex
100
AcDb2dVertex
 10
8.2516529955
 20
6.9222983928
 30
0.0
  0
VERTEX
  5
4C0
330
312
100
AcDbEntity
  8
0
  6
CONTINUOUS
 62
     7
100
AcDbVertex
100
AcDb2dVertex
 10
8.2361855503
 20
6.9007277958
 30
0.0
  0
VERTEX
  5
4C1
330
312
100
AcDbEntity
  8
0
  6
CONTINUOUS
 62
     7
100
AcDbVertex
100
AcDb2dVertex
 10
8.2213123116
 20
6.878582655
 30
0.0
  0
VERTEX
  5
4C2
330
312
100
AcDbEntity
  8
0
  6
CONTINUOUS
 62
     7
100
AcDbVertex
100
AcDb2dVertex
 10
8.2070740559
 20
6.855923684
 30
0.0
  0
VERTEX
  5
4C3
330
312
100
AcDbEntity
  8
0
  6
CONTINUOUS
 62
     7
100
AcDbVertex
100
AcDb2dVertex
 10
8.1935098192
 20
6.8328130046
 30
0.0
  0
VERTEX
  5
4C4
330
312
100
AcDbEntity
  8
0
  6
CONTINUOUS
 62
     7
100
AcDbVertex
100
AcDb2dVertex
 10
8.1806567892
 20
6.8093139776
 30
0.0
  0
VERTEX
  5
4C5
330
312
100
AcDbEntity
  8
0
  6
CONTINUOUS
 62
     7
100
AcDbVertex
100
AcDb2dVertex
 10
8.1685502039
 20
6.7854910279
 30
0.0
  0
VERTEX
  5
4C6
330
312
100
AcDbEntity
  8
0
  6
CONTINUOUS
 62
     7
100
AcDbVertex
100
AcDb2dVertex
 10
8.1572232549
 20
6.7614094689
 30
0.0
  0
VERTEX
  5
4C7
330
312
100
AcDbEntity
  8
0
  6
CONTINUOUS
 62
     7
100
AcDbVertex
100
AcDb2dVertex
 10
8.1467069963
 20
6.7371353228
 30
0.0
  0
VERTEX
  5
4C8
330
312
100
AcDbEntity
  8
0
  6
CONTINUOUS
 62
     7
100
AcDbVertex
100
AcDb2dVertex
 10
8.1370302595
 20
6.71273514
 30
0.0
  0
VERTEX
  5
4C9
330
312
100
AcDbEntity
  8
0
  6
CONTINUOUS
 62
     7
100
AcDbVertex
100
AcDb2dVertex
 10
8.1282195745
 20
6.6882758161
 30
0.0
  0
VERTEX
  5
4CA
330
312
100
AcDbEntity
  8
0
  6
CONTINUOUS
 62
     7
100
AcDbVertex
100
AcDb2dVertex
 10
8.1202990966
 20
6.6638244092
 30
0.0
  0
VERTEX
  5
4CB
330
312
100
AcDbEntity
  8
0
  6
CONTINUOUS
 62
     7
100
AcDbVertex
100
AcDb2dVertex
 10
8.1132905408
 20
6.6394479556
 30
0.0
  0
VERTEX
  5
4CC
330
312
100
AcDbEntity
  8
0
  6
CONTINUOUS
 62
     7
100
AcDbVertex
100
AcDb2dVertex
 10
8.1072131218
 20
6.6152132859
 30
0.0
  0
VERTEX
  5
4CD
330
312
100
AcDbEntity
  8
0
  6
CONTINUOUS
 62
     7
100
AcDbVertex
100
AcDb2dVertex
 10
8.1020835015
 20
6.5911868421
 30
0.0
  0
VERTEX
  5
4CE
330
312
100
AcDbEntity
  8
0
  6
CONTINUOUS
 62
     7
100
AcDbVertex
100
AcDb2dVertex
 10
8.0979157433
 20
6.5674344956
 30
0.0
  0
VERTEX
  5
4CF
330
312
100
AcDbEntity
  8
0
  6
CONTINUOUS
 62
     7
100
AcDbVertex
100
AcDb2dVertex
 10
8.0947212736
 20
6.5440213659
 30
0.0
  0
VERTEX
  5
4D0
330
312
100
AcDbEntity
  8
0
  6
CONTINUOUS
 62
     7
100
AcDbVertex
100
AcDb2dVertex
 10
8.0925088504
 20
6.5210116427
 30
0.0
  0
VERTEX
  5
4D1
330
312
100
AcDbEntity
  8
0
  6
CONTINUOUS
 62
     7
100
AcDbVertex
100
AcDb2dVertex
 10
8.0912845393
 20
6.4984684098
 30
0.0
  0
SEQEND
  5
4D2
330
312
100
AcDbEntity
  8
0
  6
CONTINUOUS
 62
     7
  0
LINE
  5
313
330
1F
100
AcDbEntity
  8
0
  6
CONTINUOUS
 62
     7
100
AcDbLine
 10
8.5584774428
 20
7.1790238677
 30
0.0
 11
8.595595909
 21
7.1575958333
 31
0.0
  0
POLYLINE
  5
314
330
1F
100
AcDbEntity
  8
0
  6
CONTINUOUS
 62
     7
100
AcDb2dPolyline
 66
     1
 10
0.0
 20
0.0
 30
0.0
  0
VERTEX
  5
4D3
330
314
100
AcDbEntity
  8
0
  6
CONTINUOUS
 62
     7
100
AcDbVertex
100
AcDb2dVertex
 10
8.179151572
 20
6.2597912198
 30
0.0
  0
VERTEX
  5
4D4
330
314
100
AcDbEntity
  8
0
  6
CONTINUOUS
 62
     7
100
AcDbVertex
100
AcDb2dVertex
 10
8.1721000484
 20
6.2629456916
 30
0.0
  0
VERTEX
  5
4D5
330
314
100
AcDbEntity
  8
0
  6
CONTINUOUS
 62
     7
100
AcDbVertex
100
AcDb2dVertex
 10
8.1585228554
 20
6.2701527977
 30
0.0
  0
VERTEX
  5
4D6
330
314
100
AcDbEntity
  8
0
  6
CONTINUOUS
 62
     7
100
AcDbVertex
100
AcDb2dVertex
 10
8.1456412111
 20
6.2785560213
 30
0.0
  0
VERTEX
  5
4D7
330
314
100
AcDbEntity
  8
0
  6
CONTINUOUS
 62
     7
100
AcDbVertex
100
AcDb2dVertex
 10
8.1334899405
 20
6.2881326447
 30
0.0
  0
VERTEX
  5
4D8
330
314
100
AcDbEntity
  8
0
  6
CONTINUOUS
 62
     7
100
AcDbVertex
100
AcDb2dVertex
 10
8.1221018942
 20
6.2988567777
 30
0.0
  0
VERTEX
  5
4D9
330
314
100
AcDbEntity
  8
0
  6
CONTINUOUS
 62
     7
100
AcDbVertex
100
AcDb2dVertex
 10
8.1115078594
 20
6.310699428
 30
0.0
  0
VERTEX
  5
4DA
330
314
100
AcDbEntity
  8
0
  6
CONTINUOUS
 62
     7
100
AcDbVertex
100
AcDb2dVertex
 10
8.1017364767
 20
6.3236285795
 30
0.0
  0
VERTEX
  5
4DB
330
314
100
AcDbEntity
  8
0
  6
CONTINUOUS
 62
     7
100
AcDbVertex
100
AcDb2dVertex
 10
8.0928141626
 20
6.3376092787
 30
0.0
  0
VERTEX
  5
4DC
330
314
100
AcDbEntity
  8
0
  6
CONTINUOUS
 62
     7
100
AcDbVertex
100
AcDb2dVertex
 10
8.0847650383
 20
6.3526037292
 30
0.0
  0
VERTEX
  5
4DD
330
314
100
AcDbEntity
  8
0
  6
CONTINUOUS
 62
     7
100
AcDbVertex
100
AcDb2dVertex
 10
8.0776108643
 20
6.368571394
 30
0.0
  0
VERTEX
  5
4DE
330
314
100
AcDbEntity
  8
0
  6
CONTINUOUS
 62
     7
100
AcDbVertex
100
AcDb2dVertex
 10
8.0713709818
 20
6.3854691052
 30
0.0
  0
VERTEX
  5
4DF
330
314
100
AcDbEntity
  8
0
  6
CONTINUOUS
 62
     7
100
AcDbVertex
100
AcDb2dVertex
 10
8.0660622599
 20
6.4032511803
 30
0.0
  0
VERTEX
  5
4E0
330
314
100
AcDbEntity
  8
0
  6
CONTINUOUS
 62
     7
100
AcDbVertex
100
AcDb2dVertex
 10
8.0616990507
 20
6.4218695463
 30
0.0
  0
VERTEX
  5
4E1
330
314
100
AcDbEntity
  8
0
  6
CONTINUOUS
 62
     7
100
AcDbVertex
100
AcDb2dVertex
 10
8.0582931499
 20
6.4412738689
 30
0.0
  0
VERTEX
  5
4E2
330
314
100
AcDbEntity
  8
0
  6
CONTINUOUS
 62
     7
100
AcDbVertex
100
AcDb2dVertex
 10
8.0558537653
 20
6.4614116892
 30
0.0
  0
VERTEX
  5
4E3
330
314
100
AcDbEntity
  8
0
  6
CONTINUOUS
 62
     7
100
AcDbVertex
100
AcDb2dVertex
 10
8.0543874916
 20
6.4822285655
 30
0.0
  0
VERTEX
  5
4E4
330
314
100
AcDbEntity
  8
0
  6
CONTINUOUS
 62
     7
100
AcDbVertex
100
AcDb2dVertex
 10
8.0538982928
 20
6.5036682199
 30
0.0
  0
VERTEX
  5
4E5
330
314
100
AcDbEntity
  8
0
  6
CONTINUOUS
 62
     7
100
AcDbVertex
100
AcDb2dVertex
 10
8.0543874916
 20
6.5256726912
 30
0.0
  0
VERTEX
  5
4E6
330
314
100
AcDbEntity
  8
0
  6
CONTINUOUS
 62
     7
100
AcDbVertex
100
AcDb2dVertex
 10
8.0558537653
 20
6.548182491
 30
0.0
  0
VERTEX
  5
4E7
330
314
100
AcDbEntity
  8
0
  6
CONTINUOUS
 62
     7
100
AcDbVertex
100
AcDb2dVertex
 10
8.0582931499
 20
6.571136765
 30
0.0
  0
VERTEX
  5
4E8
330
314
100
AcDbEntity
  8
0
  6
CONTINUOUS
 62
     7
100
AcDbVertex
100
AcDb2dVertex
 10
8.0616990507
 20
6.5944734569
 30
0.0
  0
VERTEX
  5
4E9
330
314
100
AcDbEntity
  8
0
  6
CONTINUOUS
 62
     7
100
AcDbVertex
100
AcDb2dVertex
 10
8.0660622599
 20
6.618129477
 30
0.0
  0
VERTEX
  5
4EA
330
314
100
AcDbEntity
  8
0
  6
CONTINUOUS
 62
     7
100
AcDbVertex
100
AcDb2dVertex
 10
8.0713709818
 20
6.6420408719
 30
0.0
  0
VERTEX
  5
4EB
330
314
100
AcDbEntity
  8
0
  6
CONTINUOUS
 62
     7
100
AcDbVertex
100
AcDb2dVertex
 10
8.0776108643
 20
6.6661429982
 30
0.0
  0
VERTEX
  5
4EC
330
314
100
AcDbEntity
  8
0
  6
CONTINUOUS
 62
     7
100
AcDbVertex
100
AcDb2dVertex
 10
8.0847650383
 20
6.6903706964
 30
0.0
  0
VERTEX
  5
4ED
330
314
100
AcDbEntity
  8
0
  6
CONTINUOUS
 62
     7
100
AcDbVertex
100
AcDb2dVertex
 10
8.0928141626
 20
6.714658468
 30
0.0
  0
VERTEX
  5
4EE
330
314
100
AcDbEntity
  8
0
  6
CONTINUOUS
 62
     7
100
AcDbVertex
100
AcDb2dVertex
 10
8.1017364767
 20
6.7389406517
 30
0.0
  0
VERTEX
  5
4EF
330
314
100
AcDbEntity
  8
0
  6
CONTINUOUS
 62
     7
100
AcDbVertex
100
AcDb2dVertex
 10
8.1115078594
 20
6.7631516016
 30
0.0
  0
VERTEX
  5
4F0
330
314
100
AcDbEntity
  8
0
  6
CONTINUOUS
 62
     7
100
AcDbVertex
100
AcDb2dVertex
 10
8.1221018942
 20
6.7872258642
 30
0.0
  0
VERTEX
  5
4F1
330
314
100
AcDbEntity
  8
0
  6
CONTINUOUS
 62
     7
100
AcDbVertex
100
AcDb2dVertex
 10
8.1334899405
 20
6.8110983556
 30
0.0
  0
VERTEX
  5
4F2
330
314
100
AcDbEntity
  8
0
  6
CONTINUOUS
 62
     7
100
AcDbVertex
100
AcDb2dVertex
 10
8.1456412111
 20
6.8347045373
 30
0.0
  0
VERTEX
  5
4F3
330
314
100
AcDbEntity
  8
0
  6
CONTINUOUS
 62
     7
100
AcDbVertex
100
AcDb2dVertex
 10
8.1585228554
 20
6.8579805909
 30
0.0
  0
VERTEX
  5
4F4
330
314
100
AcDbEntity
  8
0
  6
CONTINUOUS
 62
     7
100
AcDbVertex
100
AcDb2dVertex
 10
8.1721000484
 20
6.8808635904
 30
0.0
  0
VERTEX
  5
4F5
330
314
100
AcDbEntity
  8
0
  6
CONTINUOUS
 62
     7
100
AcDbVertex
100
AcDb2dVertex
 10
8.1863360847
 20
6.9032916724
 30
0.0
  0
VERTEX
  5
4F6
330
314
100
AcDbEntity
  8
0
  6
CONTINUOUS
 62
     7
100
AcDbVertex
100
AcDb2dVertex
 10
8.2011924775
 20
6.9252042034
 30
0.0
  0
VERTEX
  5
4F7
330
314
100
AcDbEntity
  8
0
  6
CONTINUOUS
 62
     7
100
AcDbVertex
100
AcDb2dVertex
 10
8.2166290632
 20
6.9465419435
 30
0.0
  0
VERTEX
  5
4F8
330
314
100
AcDbEntity
  8
0
  6
CONTINUOUS
 62
     7
100
AcDbVertex
100
AcDb2dVertex
 10
8.2326041096
 20
6.9672472071
 30
0.0
  0
VERTEX
  5
4F9
330
314
100
AcDbEntity
  8
0
  6
CONTINUOUS
 62
     7
100
AcDbVertex
100
AcDb2dVertex
 10
8.2490744285
 20
6.9872640182
 30
0.0
  0
VERTEX
  5
4FA
330
314
100
AcDbEntity
  8
0
  6
CONTINUOUS
 62
     7
100
AcDbVertex
100
AcDb2dVertex
 10
8.2659954932
 20
7.0065382619
 30
0.0
  0
VERTEX
  5
4FB
330
314
100
AcDbEntity
  8
0
  6
CONTINUOUS
 62
     7
100
AcDbVertex
100
AcDb2dVertex
 10
8.2833215581
 20
7.0250178312
 30
0.0
  0
VERTEX
  5
4FC
330
314
100
AcDbEntity
  8
0
  6
CONTINUOUS
 62
     7
100
AcDbVertex
100
AcDb2dVertex
 10
8.3010057828
 20
7.042652767
 30
0.0
  0
VERTEX
  5
4FD
330
314
100
AcDbEntity
  8
0
  6
CONTINUOUS
 62
     7
100
AcDbVertex
100
AcDb2dVertex
 10
8.3190003586
 20
7.059395394
 30
0.0
  0
VERTEX
  5
4FE
330
314
100
AcDbEntity
  8
0
  6
CONTINUOUS
 62
     7
100
AcDbVertex
100
AcDb2dVertex
 10
8.3372566379
 20
7.0752004492
 30
0.0
  0
VERTEX
  5
4FF
330
314
100
AcDbEntity
  8
0
  6
CONTINUOUS
 62
     7
100
AcDbVertex
100
AcDb2dVertex
 10
8.3557252654
 20
7.090025204
 30
0.0
  0
VERTEX
  5
500
330
314
100
AcDbEntity
  8
0
  6
CONTINUOUS
 62
     7
100
AcDbVertex
100
AcDb2dVertex
 10
8.3743563118
 20
7.1038295802
 30
0.0
  0
VERTEX
  5
501
330
314
100
AcDbEntity
  8
0
  6
CONTINUOUS
 62
     7
100
AcDbVertex
100
AcDb2dVertex
 10
8.3930994088
 20
7.1165762583
 30
0.0
  0
VERTEX
  5
502
330
314
100
AcDbEntity
  8
0
  6
CONTINUOUS
 62
     7
100
AcDbVertex
100
AcDb2dVertex
 10
8.4119038851
 20
7.1282307781
 30
0.0
  0
VERTEX
  5
503
330
314
100
AcDbEntity
  8
0
  6
CONTINUOUS
 62
     7
100
AcDbVertex
100
AcDb2dVertex
 10
8.4307189034
 20
7.1387616319
 30
0.0
  0
VERTEX
  5
504
330
314
100
AcDbEntity
  8
0
  6
CONTINUOUS
 62
     7
100
AcDbVertex
100
AcDb2dVertex
 10
8.449493598
 20
7.14814035
 30
0.0
  0
VERTEX
  5
505
330
314
100
AcDbEntity
  8
0
  6
CONTINUOUS
 62
     7
100
AcDbVertex
100
AcDb2dVertex
 10
8.4681772122
 20
7.1563415773
 30
0.0
  0
VERTEX
  5
506
330
314
100
AcDbEntity
  8
0
  6
CONTINUOUS
 62
     7
100
AcDbVertex
100
AcDb2dVertex
 10
8.4867192355
 20
7.1633431421
 30
0.0
  0
VERTEX
  5
507
330
314
100
AcDbEntity
  8
0
  6
CONTINUOUS
 62
     7
100
AcDbVertex
100
AcDb2dVertex
 10
8.5050695401
 20
7.169126116
 30
0.0
  0
VERTEX
  5
508
330
314
100
AcDbEntity
  8
0
  6
CONTINUOUS
 62
     7
100
AcDbVertex
100
AcDb2dVertex
 10
8.5231785167
 20
7.1736748648
 30
0.0
  0
VERTEX
  5
509
330
314
100
AcDbEntity
  8
0
  6
CONTINUOUS
 62
     7
100
AcDbVertex
100
AcDb2dVertex
 10
8.5409972083
 20
7.1769770912
 30
0.0
  0
VERTEX
  5
50A
330
314
100
AcDbEntity
  8
0
  6
CONTINUOUS
 62
     7
100
AcDbVertex
100
AcDb2dVertex
 10
8.5584774428
 20
7.1790238677
 30
0.0
  0
SEQEND
  5
50B
330
314
100
AcDbEntity
  8
0
  6
CONTINUOUS
 62
     7
  0
LINE
  5
315
330
1F
100
AcDbEntity
  8
0
  6
CONTINUOUS
 62
     7
100
AcDbLine
 10
8.9381158355
 20
6.7474147238
 30
0.0
 11
8.9381158355
 21
6.7152674477
 31
0.0
  0
LINE
  5
316
330
1F
100
AcDbEntity
  8
0
  6
CONTINUOUS
 62
     7
100
AcDbLine
 10
8.9381158355
 20
6.7474147238
 30
0.0
 11
8.739706885
 21
6.6328756747
 31
0.0
  0
POLYLINE
  5
317
330
1F
100
AcDbEntity
  8
0
  6
CONTINUOUS
 62
     7
100
AcDb2dPolyline
 66
     1
 10
0.0
 20
0.0
 30
0.0
  0
VERTEX
  5
50C
330
317
100
AcDbEntity
  8
0
  6
CONTINUOUS
 62
     7
100
AcDbVertex
100
AcDb2dVertex
 10
8.5817336309
 20
6.5416796562
 30
0.0
  0
VERTEX
  5
50D
330
317
100
AcDbEntity
  8
0
  6
CONTINUOUS
 62
     7
100
AcDbVertex
100
AcDb2dVertex
 10
8.5837776443
 20
6.5529273455
 30
0.0
  0
VERTEX
  5
50E
330
317
100
AcDbEntity
  8
0
  6
CONTINUOUS
 62
     7
100
AcDbVertex
100
AcDb2dVertex
 10
8.5867808186
 20
6.5644028704
 30
0.0
  0
VERTEX
  5
50F
330
317
100
AcDbEntity
  8
0
  6
CONTINUOUS
 62
     7
100
AcDbVertex
100
AcDb2dVertex
 10
8.5907057163
 20
6.5759631781
 30
0.0
  0
VERTEX
  5
510
330
317
100
AcDbEntity
  8
0
  6
CONTINUOUS
 62
     7
100
AcDbVertex
100
AcDb2dVertex
 10
8.5955034099
 20
6.5874641585
 30
0.0
  0
VERTEX
  5
511
330
317
100
AcDbEntity
  8
0
  6
CONTINUOUS
 62
     7
100
AcDbVertex
100
AcDb2dVertex
 10
8.6011140919
 20
6.5987624414
 30
0.0
  0
VERTEX
  5
512
330
317
100
AcDbEntity
  8
0
  6
CONTINUOUS
 62
     7
100
AcDbVertex
100
AcDb2dVertex
 10
8.6074678198
 20
6.6097171832
 30
0.0
  0
VERTEX
  5
513
330
317
100
AcDbEntity
  8
0
  6
CONTINUOUS
 62
     7
100
AcDbVertex
100
AcDb2dVertex
 10
8.6144853886
 20
6.6201918229
 30
0.0
  0
VERTEX
  5
514
330
317
100
AcDbEntity
  8
0
  6
CONTINUOUS
 62
     7
100
AcDbVertex
100
AcDb2dVertex
 10
8.6220793178
 20
6.6300557844
 30
0.0
  0
VERTEX
  5
515
330
317
100
AcDbEntity
  8
0
  6
CONTINUOUS
 62
     7
100
AcDbVertex
100
AcDb2dVertex
 10
8.630154942
 20
6.6391861044
 30
0.0
  0
VERTEX
  5
516
330
317
100
AcDbEntity
  8
0
  6
CONTINUOUS
 62
     7
100
AcDbVertex
100
AcDb2dVertex
 10
8.6386115912
 20
6.647468965
 30
0.0
  0
VERTEX
  5
517
330
317
100
AcDbEntity
  8
0
  6
CONTINUOUS
 62
     7
100
AcDbVertex
100
AcDb2dVertex
 10
8.6473438452
 20
6.6548011126
 30
0.0
  0
VERTEX
  5
518
330
317
100
AcDbEntity
  8
0
  6
CONTINUOUS
 62
     7
100
AcDbVertex
100
AcDb2dVertex
 10
8.6562428487
 20
6.6610911453
 30
0.0
  0
VERTEX
  5
519
330
317
100
AcDbEntity
  8
0
  6
CONTINUOUS
 62
     7
100
AcDbVertex
100
AcDb2dVertex
 10
8.6651976672
 20
6.666260652
 30
0.0
  0
VERTEX
  5
51A
330
317
100
AcDbEntity
  8
0
  6
CONTINUOUS
 62
     7
100
AcDbVertex
100
AcDb2dVertex
 10
8.6740966706
 20
6.67024519
 30
0.0
  0
VERTEX
  5
51B
330
317
100
AcDbEntity
  8
0
  6
CONTINUOUS
 62
     7
100
AcDbVertex
100
AcDb2dVertex
 10
8.6828289247
 20
6.6729950883
 30
0.0
  0
VERTEX
  5
51C
330
317
100
AcDbEntity
  8
0
  6
CONTINUOUS
 62
     7
100
AcDbVertex
100
AcDb2dVertex
 10
8.6912855738
 20
6.674476067
 30
0.0
  0
VERTEX
  5
51D
330
317
100
AcDbEntity
  8
0
  6
CONTINUOUS
 62
     7
100
AcDbVertex
100
AcDb2dVertex
 10
8.699361198
 20
6.6746696643
 30
0.0
  0
VERTEX
  5
51E
330
317
100
AcDbEntity
  8
0
  6
CONTINUOUS
 62
     7
100
AcDbVertex
100
AcDb2dVertex
 10
8.7069551272
 20
6.6735734667
 30
0.0
  0
VERTEX
  5
51F
330
317
100
AcDbEntity
  8
0
  6
CONTINUOUS
 62
     7
100
AcDbVertex
100
AcDb2dVertex
 10
8.713972696
 20
6.6712011395
 30
0.0
  0
VERTEX
  5
520
330
317
100
AcDbEntity
  8
0
  6
CONTINUOUS
 62
     7
100
AcDbVertex
100
AcDb2dVertex
 10
8.7203264239
 20
6.6675822558
 30
0.0
  0
VERTEX
  5
521
330
317
100
AcDbEntity
  8
0
  6
CONTINUOUS
 62
     7
100
AcDbVertex
100
AcDb2dVertex
 10
8.7259371059
 20
6.6627619285
 30
0.0
  0
VERTEX
  5
522
330
317
100
AcDbEntity
  8
0
  6
CONTINUOUS
 62
     7
100
AcDbVertex
100
AcDb2dVertex
 10
8.7307347996
 20
6.6568002472
 30
0.0
  0
VERTEX
  5
523
330
317
100
AcDbEntity
  8
0
  6
CONTINUOUS
 62
     7
100
AcDbVertex
100
AcDb2dVertex
 10
8.7346596973
 20
6.64977153
 30
0.0
  0
VERTEX
  5
524
330
317
100
AcDbEntity
  8
0
  6
CONTINUOUS
 62
     7
100
AcDbVertex
100
AcDb2dVertex
 10
8.7376628715
 20
6.6417633962
 30
0.0
  0
VERTEX
  5
525
330
317
100
AcDbEntity
  8
0
  6
CONTINUOUS
 62
     7
100
AcDbVertex
100
AcDb2dVertex
 10
8.739706885
 20
6.6328756747
 30
0.0
  0
SEQEND
  5
526
330
317
100
AcDbEntity
  8
0
  6
CONTINUOUS
 62
     7
  0
LINE
  5
318
330
1F
100
AcDbEntity
  8
0
  6
CONTINUOUS
 62
     7
100
AcDbLine
 10
8.3096976857
 20
6.3846366479
 30
0.0
 11
8.5817336309
 21
6.5416796562
 31
0.0
  0
LINE
  5
319
330
1F
100
AcDbEntity
  8
0
  6
CONTINUOUS
 62
     7
100
AcDbLine
 10
8.3096976857
 20
6.3524893718
 30
0.0
 11
8.5817336309
 21
6.5095323802
 31
0.0
  0
POLYLINE
  5
31A
330
1F
100
AcDbEntity
  8
0
  6
CONTINUOUS
 62
     7
100
AcDb2dPolyline
 66
     1
 10
0.0
 20
0.0
 30
0.0
  0
VERTEX
  5
527
330
31A
100
AcDbEntity
  8
0
  6
CONTINUOUS
 62
     7
100
AcDbVertex
100
AcDb2dVertex
 10
8.739706885
 20
6.6007283986
 30
0.0
  0
VERTEX
  5
528
330
31A
100
AcDbEntity
  8
0
  6
CONTINUOUS
 62
     7
100
AcDbVertex
100
AcDb2dVertex
 10
8.7376628715
 20
6.5894807094
 30
0.0
  0
VERTEX
  5
529
330
31A
100
AcDbEntity
  8
0
  6
CONTINUOUS
 62
     7
100
AcDbVertex
100
AcDb2dVertex
 10
8.7346596973
 20
6.5780051844
 30
0.0
  0
VERTEX
  5
52A
330
31A
100
AcDbEntity
  8
0
  6
CONTINUOUS
 62
     7
100
AcDbVertex
100
AcDb2dVertex
 10
8.7307347996
 20
6.5664448768
 30
0.0
  0
VERTEX
  5
52B
330
31A
100
AcDbEntity
  8
0
  6
CONTINUOUS
 62
     7
100
AcDbVertex
100
AcDb2dVertex
 10
8.7259371059
 20
6.5549438963
 30
0.0
  0
VERTEX
  5
52C
330
31A
100
AcDbEntity
  8
0
  6
CONTINUOUS
 62
     7
100
AcDbVertex
100
AcDb2dVertex
 10
8.7203264239
 20
6.5436456134
 30
0.0
  0
VERTEX
  5
52D
330
31A
100
AcDbEntity
  8
0
  6
CONTINUOUS
 62
     7
100
AcDbVertex
100
AcDb2dVertex
 10
8.713972696
 20
6.5326908717
 30
0.0
  0
VERTEX
  5
52E
330
31A
100
AcDbEntity
  8
0
  6
CONTINUOUS
 62
     7
100
AcDbVertex
100
AcDb2dVertex
 10
8.7069551272
 20
6.522216232
 30
0.0
  0
VERTEX
  5
52F
330
31A
100
AcDbEntity
  8
0
  6
CONTINUOUS
 62
     7
100
AcDbVertex
100
AcDb2dVertex
 10
8.699361198
 20
6.5123522704
 30
0.0
  0
VERTEX
  5
530
330
31A
100
AcDbEntity
  8
0
  6
CONTINUOUS
 62
     7
100
AcDbVertex
100
AcDb2dVertex
 10
8.6912855738
 20
6.5032219504
 30
0.0
  0
VERTEX
  5
531
330
31A
100
AcDbEntity
  8
0
  6
CONTINUOUS
 62
     7
100
AcDbVertex
100
AcDb2dVertex
 10
8.6828289247
 20
6.4949390899
 30
0.0
  0
VERTEX
  5
532
330
31A
100
AcDbEntity
  8
0
  6
CONTINUOUS
 62
     7
100
AcDbVertex
100
AcDb2dVertex
 10
8.6740966706
 20
6.4876069422
 30
0.0
  0
VERTEX
  5
533
330
31A
100
AcDbEntity
  8
0
  6
CONTINUOUS
 62
     7
100
AcDbVertex
100
AcDb2dVertex
 10
8.6651976672
 20
6.4813169095
 30
0.0
  0
VERTEX
  5
534
330
31A
100
AcDbEntity
  8
0
  6
CONTINUOUS
 62
     7
100
AcDbVertex
100
AcDb2dVertex
 10
8.6562428487
 20
6.4761474029
 30
0.0
  0
VERTEX
  5
535
330
31A
100
AcDbEntity
  8
0
  6
CONTINUOUS
 62
     7
100
AcDbVertex
100
AcDb2dVertex
 10
8.6473438452
 20
6.4721628649
 30
0.0
  0
VERTEX
  5
536
330
31A
100
AcDbEntity
  8
0
  6
CONTINUOUS
 62
     7
100
AcDbVertex
100
AcDb2dVertex
 10
8.6386115912
 20
6.4694129665
 30
0.0
  0
VERTEX
  5
537
330
31A
100
AcDbEntity
  8
0
  6
CONTINUOUS
 62
     7
100
AcDbVertex
100
AcDb2dVertex
 10
8.630154942
 20
6.4679319878
 30
0.0
  0
VERTEX
  5
538
330
31A
100
AcDbEntity
  8
0
  6
CONTINUOUS
 62
     7
100
AcDbVertex
100
AcDb2dVertex
 10
8.6220793178
 20
6.4677383906
 30
0.0
  0
VERTEX
  5
539
330
31A
100
AcDbEntity
  8
0
  6
CONTINUOUS
 62
     7
100
AcDbVertex
100
AcDb2dVertex
 10
8.6144853886
 20
6.4688345881
 30
0.0
  0
VERTEX
  5
53A
330
31A
100
AcDbEntity
  8
0
  6
CONTINUOUS
 62
     7
100
AcDbVertex
100
AcDb2dVertex
 10
8.6074678198
 20
6.4712069154
 30
0.0
  0
VERTEX
  5
53B
330
31A
100
AcDbEntity
  8
0
  6
CONTINUOUS
 62
     7
100
AcDbVertex
100
AcDb2dVertex
 10
8.6011140919
 20
6.474825799
 30
0.0
  0
VERTEX
  5
53C
330
31A
100
AcDbEntity
  8
0
  6
CONTINUOUS
 62
     7
100
AcDbVertex
100
AcDb2dVertex
 10
8.5955034099
 20
6.4796461264
 30
0.0
  0
VERTEX
  5
53D
330
31A
100
AcDbEntity
  8
0
  6
CONTINUOUS
 62
     7
100
AcDbVertex
100
AcDb2dVertex
 10
8.5907057163
 20
6.4856078076
 30
0.0
  0
VERTEX
  5
53E
330
31A
100
AcDbEntity
  8
0
  6
CONTINUOUS
 62
     7
100
AcDbVertex
100
AcDb2dVertex
 10
8.5867808186
 20
6.4926365249
 30
0.0
  0
VERTEX
  5
53F
330
31A
100
AcDbEntity
  8
0
  6
CONTINUOUS
 62
     7
100
AcDbVertex
100
AcDb2dVertex
 10
8.5837776443
 20
6.5006446587
 30
0.0
  0
VERTEX
  5
540
330
31A
100
AcDbEntity
  8
0
  6
CONTINUOUS
 62
     7
100
AcDbVertex
100
AcDb2dVertex
 10
8.5817336309
 20
6.5095323802
 30
0.0
  0
SEQEND
  5
541
330
31A
100
AcDbEntity
  8
0
  6
CONTINUOUS
 62
     7
  0
LINE
  5
31B
330
1F
100
AcDbEntity
  8
0
  6
CONTINUOUS
 62
     7
100
AcDbLine
 10
8.739706885
 20
6.6007283986
 30
0.0
 11
8.9381158355
 21
6.7152674477
 31
0.0
  0
LINE
  5
31C
330
1F
100
AcDbEntity
  8
0
  6
CONTINUOUS
 62
     7
100
AcDbLine
 10
8.5584774428
 20
7.1518431664
 30
0.0
 11
8.5584774428
 21
7.1790238677
 31
0.0
  0
SPLINE
  5
31D
330
1F
100
AcDbEntity
  8
0
  6
CONTINUOUS
 62
     7
100
AcDbSpline
210
0.0
220
0.0
230
1.0
 70
     8
 71
     3
 72
     8
 73
     4
 74
     0
 42
0.00000001
 43
0.00000001
 40
0.0
 40
0.0
 40
0.0
 40
0.0
 40
1.0
 40
1.0
 40
1.0
 40
1.0
 10
8.581733630877826
 20
6.509532380186421
 30
0.0
 10
8.581788175701146
 20
6.513650858314775
 30
0.0
 10
8.581849878763991
 20
6.517769421187076
 30
0.0
 10
8.581922679534333
 20
6.52188763733015
 30
0.0
  0
LINE
  5
31E
330
1F
100
AcDbEntity
  8
0
  6
CONTINUOUS
 62
     7
100
AcDbLine
 10
8.5646859066
 20
6.5318382145
 30
0.0
 11
8.5819226795
 21
6.5218876373
 31
0.0
  0
LINE
  5
31F
330
1F
100
AcDbEntity
  8
0
  6
CONTINUOUS
 62
     7
100
AcDbLine
 10
8.1191279139
 20
6.4823947718
 30
0.0
 11
8.0912845393
 21
6.4663211337
 31
0.0
  0
SPLINE
  5
320
330
1F
100
AcDbEntity
  8
0
  6
CONTINUOUS
 62
     7
100
AcDbSpline
210
0.0
220
0.0
230
1.0
 70
     8
 71
     3
 72
     8
 73
     4
 74
     0
 42
0.00000001
 43
0.00000001
 40
0.0
 40
0.0
 40
0.0
 40
0.0
 40
1.0
 40
1.0
 40
1.0
 40
1.0
 10
8.718304632886214
 20
6.632766539208908
 30
0.0
 10
8.725438529647684
 20
6.63280856716647
 30
0.0
 10
8.73257273080301
 20
6.632844186761142
 30
0.0
 10
8.739706884978316
 20
6.632875674675296
 30
0.0
  0
ARC
  5
321
330
1F
100
AcDbEntity
  8
0
  6
CONTINUOUS
 62
     7
100
AcDbCircle
 10
8.6781003088
 20
6.6268416765
 30
0.0
 40
0.0406385490799896
100
AcDbArc
 50
8.3832693539
 51
124.2706590621
  0
LINE
  5
322
330
1F
100
AcDbEntity
  8
0
  6
CONTINUOUS
 62
     7
100
AcDbLine
 10
8.7183046329
 20
6.6327665392
 30
0.0
 11
8.6640219979
 21
6.6641032374
 31
0.0
  0
POLYLINE
  5
323
330
1F
100
AcDbEntity
  8
0
  6
CONTINUOUS
 62
     7
100
AcDb2dPolyline
 66
     1
 10
0.0
 20
0.0
 30
0.0
  0
VERTEX
  5
542
330
323
100
AcDbEntity
  8
0
  6
CONTINUOUS
 62
     7
100
AcDbVertex
100
AcDb2dVertex
 10
8.5819226795
 20
6.5218876373
 30
0.0
  0
VERTEX
  5
543
330
323
100
AcDbEntity
  8
0
  6
CONTINUOUS
 62
     7
100
AcDbVertex
100
AcDb2dVertex
 10
8.5840592298
 20
6.5138800065
 30
0.0
  0
VERTEX
  5
544
330
323
100
AcDbEntity
  8
0
  6
CONTINUOUS
 62
     7
100
AcDbVertex
100
AcDb2dVertex
 10
8.5871313537
 20
6.5067710197
 30
0.0
  0
VERTEX
  5
545
330
323
100
AcDbEntity
  8
0
  6
CONTINUOUS
 62
     7
100
AcDbVertex
100
AcDb2dVertex
 10
8.5910955387
 20
6.5006613664
 30
0.0
  0
VERTEX
  5
546
330
323
100
AcDbEntity
  8
0
  6
CONTINUOUS
 62
     7
100
AcDbVertex
100
AcDb2dVertex
 10
8.5958956373
 20
6.4956375818
 30
0.0
  0
VERTEX
  5
547
330
323
100
AcDbEntity
  8
0
  6
CONTINUOUS
 62
     7
100
AcDbVertex
100
AcDb2dVertex
 10
8.6014636625
 20
6.491770821
 30
0.0
  0
VERTEX
  5
548
330
323
100
AcDbEntity
  8
0
  6
CONTINUOUS
 62
     7
100
AcDbVertex
100
AcDb2dVertex
 10
8.6077207506
 20
6.4891158517
 30
0.0
  0
VERTEX
  5
549
330
323
100
AcDbEntity
  8
0
  6
CONTINUOUS
 62
     7
100
AcDbVertex
100
AcDb2dVertex
 10
8.6145782781
 20
6.487710278
 30
0.0
  0
VERTEX
  5
54A
330
323
100
AcDbEntity
  8
0
  6
CONTINUOUS
 62
     7
100
AcDbVertex
100
AcDb2dVertex
 10
8.6219391173
 20
6.487574008
 30
0.0
  0
VERTEX
  5
54B
330
323
100
AcDbEntity
  8
0
  6
CONTINUOUS
 62
     7
100
AcDbVertex
100
AcDb2dVertex
 10
8.6296990117
 20
6.4887089717
 30
0.0
  0
VERTEX
  5
54C
330
323
100
AcDbEntity
  8
0
  6
CONTINUOUS
 62
     7
100
AcDbVertex
100
AcDb2dVertex
 10
8.6377480525
 20
6.491099094
 30
0.0
  0
VERTEX
  5
54D
330
323
100
AcDbEntity
  8
0
  6
CONTINUOUS
 62
     7
100
AcDbVertex
100
AcDb2dVertex
 10
8.6459722357
 20
6.4947105218
 30
0.0
  0
VERTEX
  5
54E
330
323
100
AcDbEntity
  8
0
  6
CONTINUOUS
 62
     7
100
AcDbVertex
100
AcDb2dVertex
 10
8.6542550767
 20
6.4994921041
 30
0.0
  0
VERTEX
  5
54F
330
323
100
AcDbEntity
  8
0
  6
CONTINUOUS
 62
     7
100
AcDbVertex
100
AcDb2dVertex
 10
8.6624792599
 20
6.5053761161
 30
0.0
  0
VERTEX
  5
550
330
323
100
AcDbEntity
  8
0
  6
CONTINUOUS
 62
     7
100
AcDbVertex
100
AcDb2dVertex
 10
8.6705283007
 20
6.5122792186
 30
0.0
  0
VERTEX
  5
551
330
323
100
AcDbEntity
  8
0
  6
CONTINUOUS
 62
     7
100
AcDbVertex
100
AcDb2dVertex
 10
8.6782881951
 20
6.5201036381
 30
0.0
  0
VERTEX
  5
552
330
323
100
AcDbEntity
  8
0
  6
CONTINUOUS
 62
     7
100
AcDbVertex
100
AcDb2dVertex
 10
8.6856490343
 20
6.5287385522
 30
0.0
  0
VERTEX
  5
553
330
323
100
AcDbEntity
  8
0
  6
CONTINUOUS
 62
     7
100
AcDbVertex
100
AcDb2dVertex
 10
8.6925065619
 20
6.5380616587
 30
0.0
  0
VERTEX
  5
554
330
323
100
AcDbEntity
  8
0
  6
CONTINUOUS
 62
     7
100
AcDbVertex
100
AcDb2dVertex
 10
8.6987636499
 20
6.5479409081
 30
0.0
  0
VERTEX
  5
555
330
323
100
AcDbEntity
  8
0
  6
CONTINUOUS
 62
     7
100
AcDbVertex
100
AcDb2dVertex
 10
8.7043316751
 20
6.558236374
 30
0.0
  0
VERTEX
  5
556
330
323
100
AcDbEntity
  8
0
  6
CONTINUOUS
 62
     7
100
AcDbVertex
100
AcDb2dVertex
 10
8.7091317738
 20
6.5688022345
 30
0.0
  0
VERTEX
  5
557
330
323
100
AcDbEntity
  8
0
  6
CONTINUOUS
 62
     7
100
AcDbVertex
100
AcDb2dVertex
 10
8.7130959587
 20
6.5794888384
 30
0.0
  0
VERTEX
  5
558
330
323
100
AcDbEntity
  8
0
  6
CONTINUOUS
 62
     7
100
AcDbVertex
100
AcDb2dVertex
 10
8.7161680826
 20
6.5901448239
 30
0.0
  0
VERTEX
  5
559
330
323
100
AcDbEntity
  8
0
  6
CONTINUOUS
 62
     7
100
AcDbVertex
100
AcDb2dVertex
 10
8.7183046329
 20
6.6006192632
 30
0.0
  0
SEQEND
  5
55A
330
323
100
AcDbEntity
  8
0
  6
CONTINUOUS
 62
     7
  0
SPLINE
  5
324
330
1F
100
AcDbEntity
  8
0
  6
CONTINUOUS
 62
     7
100
AcDbSpline
210
0.0
220
0.0
230
1.0
 70
     8
 71
     3
 72
     8
 73
     4
 74
     0
 42
0.00000001
 43
0.00000001
 40
0.0
 40
0.0
 40
0.0
 40
0.0
 40
1.0
 40
1.0
 40
1.0
 40
1.0
 10
8.718304632886214
 20
6.600619263150413
 30
0.0
 10
8.725438529647684
 20
6.600661291107976
 30
0.0
 10
8.73257273080301
 20
6.600696910702648
 30
0.0
 10
8.739706884978316
 20
6.600728398616802
 30
0.0
  0
LINE
  5
325
330
1F
100
AcDbEntity
  8
0
  6
CONTINUOUS
 62
     7
100
AcDbLine
 10
8.7183046329
 20
6.6006192632
 30
0.0
 11
8.6380453457
 21
6.6469519634
 31
0.0
  0
POLYLINE
  5
326
330
1F
100
AcDbEntity
  8
0
  6
CONTINUOUS
 62
     7
100
AcDb2dPolyline
 66
     1
 10
0.0
 20
0.0
 30
0.0
  0
VERTEX
  5
55B
330
326
100
AcDbEntity
  8
0
  6
CONTINUOUS
 62
     7
100
AcDbVertex
100
AcDb2dVertex
 10
8.9381158355
 20
6.7152674477
 30
0.0
  0
VERTEX
  5
55C
330
326
100
AcDbEntity
  8
0
  6
CONTINUOUS
 62
     7
100
AcDbVertex
100
AcDb2dVertex
 10
8.9234507414
 20
6.7231741198
 30
0.0
  0
VERTEX
  5
55D
330
326
100
AcDbEntity
  8
0
  6
CONTINUOUS
 62
     7
100
AcDbVertex
100
AcDb2dVertex
 10
8.9083986144
 20
6.7302593372
 30
0.0
  0
SEQEND
  5
55E
330
326
100
AcDbEntity
  8
0
  6
CONTINUOUS
 62
     7
  0
LINE
  5
327
330
1F
100
AcDbEntity
  8
0
  6
CONTINUOUS
 62
     7
100
AcDbLine
 10
8.3663905892
 20
6.78322178
 30
0.0
 11
8.4065725076
 21
6.8064183077
 31
0.0
  0
LINE
  5
328
330
1F
100
AcDbEntity
  8
0
  6
CONTINUOUS
 62
     7
100
AcDbLine
 10
8.4065725076
 20
6.8064183077
 30
0.0
 11
8.3918649047
 21
6.8381053539
 31
0.0
  0
LINE
  5
329
330
1F
100
AcDbEntity
  8
0
  6
CONTINUOUS
 62
     7
100
AcDbLine
 10
8.3918649047
 20
6.8381053539
 30
0.0
 11
8.3369753834
 21
6.8465958723
 31
0.0
  0
LINE
  5
32A
330
1F
100
AcDbEntity
  8
0
  6
CONTINUOUS
 62
     7
100
AcDbLine
 10
8.3369753834
 20
6.8465958723
 30
0.0
 11
8.2967934651
 21
6.8233993446
 31
0.0
  0
LINE
  5
32B
330
1F
100
AcDbEntity
  8
0
  6
CONTINUOUS
 62
     7
100
AcDbLine
 10
8.2967934651
 20
6.8233993446
 30
0.0
 11
8.311501068
 21
6.7917122984
 31
0.0
  0
LINE
  5
32C
330
1F
100
AcDbEntity
  8
0
  6
CONTINUOUS
 62
     7
100
AcDbLine
 10
8.311501068
 20
6.7917122984
 30
0.0
 11
8.3663905892
 21
6.78322178
 31
0.0
  0
LINE
  5
32D
330
1F
100
AcDbEntity
  8
0
  6
CONTINUOUS
 62
     7
100
AcDbLine
 10
8.3918649047
 20
6.7979277893
 30
0.0
 11
8.3918649047
 21
6.8381053539
 31
0.0
  0
LINE
  5
32E
330
1F
100
AcDbEntity
  8
0
  6
CONTINUOUS
 62
     7
100
AcDbLine
 10
8.3369753834
 20
6.7877718351
 30
0.0
 11
8.3369753834
 21
6.8465958723
 31
0.0
  0
POLYLINE
  5
32F
330
1F
100
AcDbEntity
  8
0
  6
CONTINUOUS
 62
     7
100
AcDb2dPolyline
 66
     1
 10
0.0
 20
0.0
 30
0.0
  0
VERTEX
  5
55F
330
32F
100
AcDbEntity
  8
0
  6
CONTINUOUS
 62
     7
100
AcDbVertex
100
AcDb2dVertex
 10
8.2960111598
 20
7.3667799624
 30
0.0
  0
VERTEX
  5
560
330
32F
100
AcDbEntity
  8
0
  6
CONTINUOUS
 62
     7
100
AcDbVertex
100
AcDb2dVertex
 10
8.2919492786
 20
7.3705690114
 30
0.0
  0
VERTEX
  5
561
330
32F
100
AcDbEntity
  8
0
  6
CONTINUOUS
 62
     7
100
AcDbVertex
100
AcDb2dVertex
 10
8.2800168752
 20
7.3804427106
 30
0.0
  0
VERTEX
  5
562
330
32F
100
AcDbEntity
  8
0
  6
CONTINUOUS
 62
     7
100
AcDbVertex
100
AcDb2dVertex
 10
8.2673471383
 20
7.3891529746
 30
0.0
  0
VERTEX
  5
563
330
32F
100
AcDbEntity
  8
0
  6
CONTINUOUS
 62
     7
100
AcDbVertex
100
AcDb2dVertex
 10
8.2539742233
 20
7.3966763219
 30
0.0
  0
VERTEX
  5
564
330
32F
100
AcDbEntity
  8
0
  6
CONTINUOUS
 62
     7
100
AcDbVertex
100
AcDb2dVertex
 10
8.2399341812
 20
7.402992471
 30
0.0
  0
VERTEX
  5
565
330
32F
100
AcDbEntity
  8
0
  6
CONTINUOUS
 62
     7
100
AcDbVertex
100
AcDb2dVertex
 10
8.2252648615
 20
7.4080843947
 30
0.0
  0
VERTEX
  5
566
330
32F
100
AcDbEntity
  8
0
  6
CONTINUOUS
 62
     7
100
AcDbVertex
100
AcDb2dVertex
 10
8.21000581
 20
7.4119383659
 30
0.0
  0
VERTEX
  5
567
330
32F
100
AcDbEntity
  8
0
  6
CONTINUOUS
 62
     7
100
AcDbVertex
100
AcDb2dVertex
 10
8.1941981626
 20
7.4145439952
 30
0.0
  0
VERTEX
  5
568
330
32F
100
AcDbEntity
  8
0
  6
CONTINUOUS
 62
     7
100
AcDbVertex
100
AcDb2dVertex
 10
8.1778845337
 20
7.4158942582
 30
0.0
  0
VERTEX
  5
569
330
32F
100
AcDbEntity
  8
0
  6
CONTINUOUS
 62
     7
100
AcDbVertex
100
AcDb2dVertex
 10
8.161108902
 20
7.4159855148
 30
0.0
  0
VERTEX
  5
56A
330
32F
100
AcDbEntity
  8
0
  6
CONTINUOUS
 62
     7
100
AcDbVertex
100
AcDb2dVertex
 10
8.1439164918
 20
7.414817519
 30
0.0
  0
VERTEX
  5
56B
330
32F
100
AcDbEntity
  8
0
  6
CONTINUOUS
 62
     7
100
AcDbVertex
100
AcDb2dVertex
 10
8.1263536506
 20
7.4123934195
 30
0.0
  0
VERTEX
  5
56C
330
32F
100
AcDbEntity
  8
0
  6
CONTINUOUS
 62
     7
100
AcDbVertex
100
AcDb2dVertex
 10
8.1084677249
 20
7.4087197513
 30
0.0
  0
VERTEX
  5
56D
330
32F
100
AcDbEntity
  8
0
  6
CONTINUOUS
 62
     7
100
AcDbVertex
100
AcDb2dVertex
 10
8.0903069318
 20
7.4038064179
 30
0.0
  0
VERTEX
  5
56E
330
32F
100
AcDbEntity
  8
0
  6
CONTINUOUS
 62
     7
100
AcDbVertex
100
AcDb2dVertex
 10
8.0719202298
 20
7.3976666648
 30
0.0
  0
VERTEX
  5
56F
330
32F
100
AcDbEntity
  8
0
  6
CONTINUOUS
 62
     7
100
AcDbVertex
100
AcDb2dVertex
 10
8.053357186
 20
7.3903170437
 30
0.0
  0
VERTEX
  5
570
330
32F
100
AcDbEntity
  8
0
  6
CONTINUOUS
 62
     7
100
AcDbVertex
100
AcDb2dVertex
 10
8.0346678431
 20
7.3817773679
 30
0.0
  0
VERTEX
  5
571
330
32F
100
AcDbEntity
  8
0
  6
CONTINUOUS
 62
     7
100
AcDbVertex
100
AcDb2dVertex
 10
8.0159025845
 20
7.3720706587
 30
0.0
  0
VERTEX
  5
572
330
32F
100
AcDbEntity
  8
0
  6
CONTINUOUS
 62
     7
100
AcDbVertex
100
AcDb2dVertex
 10
7.9971119977
 20
7.3612230839
 30
0.0
  0
VERTEX
  5
573
330
32F
100
AcDbEntity
  8
0
  6
CONTINUOUS
 62
     7
100
AcDbVertex
100
AcDb2dVertex
 10
7.978346739
 20
7.3492638865
 30
0.0
  0
VERTEX
  5
574
330
32F
100
AcDbEntity
  8
0
  6
CONTINUOUS
 62
     7
100
AcDbVertex
100
AcDb2dVertex
 10
7.9596573962
 20
7.3362253064
 30
0.0
  0
VERTEX
  5
575
330
32F
100
AcDbEntity
  8
0
  6
CONTINUOUS
 62
     7
100
AcDbVertex
100
AcDb2dVertex
 10
7.9410943524
 20
7.3221424934
 30
0.0
  0
VERTEX
  5
576
330
32F
100
AcDbEntity
  8
0
  6
CONTINUOUS
 62
     7
100
AcDbVertex
100
AcDb2dVertex
 10
7.9227076503
 20
7.3070534122
 30
0.0
  0
VERTEX
  5
577
330
32F
100
AcDbEntity
  8
0
  6
CONTINUOUS
 62
     7
100
AcDbVertex
100
AcDb2dVertex
 10
7.9045468573
 20
7.2909987402
 30
0.0
  0
VERTEX
  5
578
330
32F
100
AcDbEntity
  8
0
  6
CONTINUOUS
 62
     7
100
AcDbVertex
100
AcDb2dVertex
 10
7.8866609315
 20
7.2740217581
 30
0.0
  0
VERTEX
  5
579
330
32F
100
AcDbEntity
  8
0
  6
CONTINUOUS
 62
     7
100
AcDbVertex
100
AcDb2dVertex
 10
7.8690980904
 20
7.2561682328
 30
0.0
  0
VERTEX
  5
57A
330
32F
100
AcDbEntity
  8
0
  6
CONTINUOUS
 62
     7
100
AcDbVertex
100
AcDb2dVertex
 10
7.8519056801
 20
7.2374862943
 30
0.0
  0
VERTEX
  5
57B
330
32F
100
AcDbEntity
  8
0
  6
CONTINUOUS
 62
     7
100
AcDbVertex
100
AcDb2dVertex
 10
7.8351300485
 20
7.2180263057
 30
0.0
  0
VERTEX
  5
57C
330
32F
100
AcDbEntity
  8
0
  6
CONTINUOUS
 62
     7
100
AcDbVertex
100
AcDb2dVertex
 10
7.8188164196
 20
7.1978407277
 30
0.0
  0
VERTEX
  5
57D
330
32F
100
AcDbEntity
  8
0
  6
CONTINUOUS
 62
     7
100
AcDbVertex
100
AcDb2dVertex
 10
7.8030087721
 20
7.1769839771
 30
0.0
  0
VERTEX
  5
57E
330
32F
100
AcDbEntity
  8
0
  6
CONTINUOUS
 62
     7
100
AcDbVertex
100
AcDb2dVertex
 10
7.7877497207
 20
7.15551228
 30
0.0
  0
VERTEX
  5
57F
330
32F
100
AcDbEntity
  8
0
  6
CONTINUOUS
 62
     7
100
AcDbVertex
100
AcDb2dVertex
 10
7.773080401
 20
7.1334835203
 30
0.0
  0
VERTEX
  5
580
330
32F
100
AcDbEntity
  8
0
  6
CONTINUOUS
 62
     7
100
AcDbVertex
100
AcDb2dVertex
 10
7.7590403589
 20
7.1109570837
 30
0.0
  0
VERTEX
  5
581
330
32F
100
AcDbEntity
  8
0
  6
CONTINUOUS
 62
     7
100
AcDbVertex
100
AcDb2dVertex
 10
7.7456674439
 20
7.0879936973
 30
0.0
  0
VERTEX
  5
582
330
32F
100
AcDbEntity
  8
0
  6
CONTINUOUS
 62
     7
100
AcDbVertex
100
AcDb2dVertex
 10
7.732997707
 20
7.0646552666
 30
0.0
  0
VERTEX
  5
583
330
32F
100
AcDbEntity
  8
0
  6
CONTINUOUS
 62
     7
100
AcDbVertex
100
AcDb2dVertex
 10
7.7210653036
 20
7.0410047076
 30
0.0
  0
VERTEX
  5
584
330
32F
100
AcDbEntity
  8
0
  6
CONTINUOUS
 62
     7
100
AcDbVertex
100
AcDb2dVertex
 10
7.7099024013
 20
7.0171057783
 30
0.0
  0
VERTEX
  5
585
330
32F
100
AcDbEntity
  8
0
  6
CONTINUOUS
 62
     7
100
AcDbVertex
100
AcDb2dVertex
 10
7.6995390934
 20
6.9930229058
 30
0.0
  0
VERTEX
  5
586
330
32F
100
AcDbEntity
  8
0
  6
CONTINUOUS
 62
     7
100
AcDbVertex
100
AcDb2dVertex
 10
7.6900033175
 20
6.9688210133
 30
0.0
  0
VERTEX
  5
587
330
32F
100
AcDbEntity
  8
0
  6
CONTINUOUS
 62
     7
100
AcDbVertex
100
AcDb2dVertex
 10
7.6813207803
 20
6.9445653449
 30
0.0
  0
VERTEX
  5
588
330
32F
100
AcDbEntity
  8
0
  6
CONTINUOUS
 62
     7
100
AcDbVertex
100
AcDb2dVertex
 10
7.6735148885
 20
6.9203212895
 30
0.0
  0
VERTEX
  5
589
330
32F
100
AcDbEntity
  8
0
  6
CONTINUOUS
 62
     7
100
AcDbVertex
100
AcDb2dVertex
 10
7.6666066853
 20
6.8961542048
 30
0.0
  0
VERTEX
  5
58A
330
32F
100
AcDbEntity
  8
0
  6
CONTINUOUS
 62
     7
100
AcDbVertex
100
AcDb2dVertex
 10
7.660614794
 20
6.872129241
 30
0.0
  0
VERTEX
  5
58B
330
32F
100
AcDbEntity
  8
0
  6
CONTINUOUS
 62
     7
100
AcDbVertex
100
AcDb2dVertex
 10
7.6555553678
 20
6.8483111652
 30
0.0
  0
VERTEX
  5
58C
330
32F
100
AcDbEntity
  8
0
  6
CONTINUOUS
 62
     7
100
AcDbVertex
100
AcDb2dVertex
 10
7.6514420459
 20
6.8247641867
 30
0.0
  0
VERTEX
  5
58D
330
32F
100
AcDbEntity
  8
0
  6
CONTINUOUS
 62
     7
100
AcDbVertex
100
AcDb2dVertex
 10
7.6482859171
 20
6.801551784
 30
0.0
  0
VERTEX
  5
58E
330
32F
100
AcDbEntity
  8
0
  6
CONTINUOUS
 62
     7
100
AcDbVertex
100
AcDb2dVertex
 10
7.6460954899
 20
6.7787365336
 30
0.0
  0
VERTEX
  5
58F
330
32F
100
AcDbEntity
  8
0
  6
CONTINUOUS
 62
     7
100
AcDbVertex
100
AcDb2dVertex
 10
7.6448766691
 20
6.7563799414
 30
0.0
  0
VERTEX
  5
590
330
32F
100
AcDbEntity
  8
0
  6
CONTINUOUS
 62
     7
100
AcDbVertex
100
AcDb2dVertex
 10
7.6446327405
 20
6.7345422768
 30
0.0
  0
VERTEX
  5
591
330
32F
100
AcDbEntity
  8
0
  6
CONTINUOUS
 62
     7
100
AcDbVertex
100
AcDb2dVertex
 10
7.6453643618
 20
6.7132824103
 30
0.0
  0
VERTEX
  5
592
330
32F
100
AcDbEntity
  8
0
  6
CONTINUOUS
 62
     7
100
AcDbVertex
100
AcDb2dVertex
 10
7.6470695605
 20
6.6926576547
 30
0.0
  0
VERTEX
  5
593
330
32F
100
AcDbEntity
  8
0
  6
CONTINUOUS
 62
     7
100
AcDbVertex
100
AcDb2dVertex
 10
7.6497437398
 20
6.6727236108
 30
0.0
  0
VERTEX
  5
594
330
32F
100
AcDbEntity
  8
0
  6
CONTINUOUS
 62
     7
100
AcDbVertex
100
AcDb2dVertex
 10
7.6533796906
 20
6.6535340172
 30
0.0
  0
VERTEX
  5
595
330
32F
100
AcDbEntity
  8
0
  6
CONTINUOUS
 62
     7
100
AcDbVertex
100
AcDb2dVertex
 10
7.6579676109
 20
6.6351406056
 30
0.0
  0
VERTEX
  5
596
330
32F
100
AcDbEntity
  8
0
  6
CONTINUOUS
 62
     7
100
AcDbVertex
100
AcDb2dVertex
 10
7.6634951327
 20
6.6175929614
 30
0.0
  0
VERTEX
  5
597
330
32F
100
AcDbEntity
  8
0
  6
CONTINUOUS
 62
     7
100
AcDbVertex
100
AcDb2dVertex
 10
7.6699473545
 20
6.60093839
 30
0.0
  0
VERTEX
  5
598
330
32F
100
AcDbEntity
  8
0
  6
CONTINUOUS
 62
     7
100
AcDbVertex
100
AcDb2dVertex
 10
7.6773068824
 20
6.5852217892
 30
0.0
  0
VERTEX
  5
599
330
32F
100
AcDbEntity
  8
0
  6
CONTINUOUS
 62
     7
100
AcDbVertex
100
AcDb2dVertex
 10
7.6855538765
 20
6.5704855281
 30
0.0
  0
VERTEX
  5
59A
330
32F
100
AcDbEntity
  8
0
  6
CONTINUOUS
 62
     7
100
AcDbVertex
100
AcDb2dVertex
 10
7.6946661041
 20
6.5567693331
 30
0.0
  0
VERTEX
  5
59B
330
32F
100
AcDbEntity
  8
0
  6
CONTINUOUS
 62
     7
100
AcDbVertex
100
AcDb2dVertex
 10
7.7046190005
 20
6.5441101807
 30
0.0
  0
VERTEX
  5
59C
330
32F
100
AcDbEntity
  8
0
  6
CONTINUOUS
 62
     7
100
AcDbVertex
100
AcDb2dVertex
 10
7.7153857344
 20
6.5325421975
 30
0.0
  0
VERTEX
  5
59D
330
32F
100
AcDbEntity
  8
0
  6
CONTINUOUS
 62
     7
100
AcDbVertex
100
AcDb2dVertex
 10
7.7269372805
 20
6.522096569
 30
0.0
  0
VERTEX
  5
59E
330
32F
100
AcDbEntity
  8
0
  6
CONTINUOUS
 62
     7
100
AcDbVertex
100
AcDb2dVertex
 10
7.7392424979
 20
6.5128014547
 30
0.0
  0
VERTEX
  5
59F
330
32F
100
AcDbEntity
  8
0
  6
CONTINUOUS
 62
     7
100
AcDbVertex
100
AcDb2dVertex
 10
7.752268214
 20
6.5046819125
 30
0.0
  0
VERTEX
  5
5A0
330
32F
100
AcDbEntity
  8
0
  6
CONTINUOUS
 62
     7
100
AcDbVertex
100
AcDb2dVertex
 10
7.7659793136
 20
6.4977598313
 30
0.0
  0
VERTEX
  5
5A1
330
32F
100
AcDbEntity
  8
0
  6
CONTINUOUS
 62
     7
100
AcDbVertex
100
AcDb2dVertex
 10
7.7803388342
 20
6.4920538718
 30
0.0
  0
VERTEX
  5
5A2
330
32F
100
AcDbEntity
  8
0
  6
CONTINUOUS
 62
     7
100
AcDbVertex
100
AcDb2dVertex
 10
7.7893844315
 20
6.489181639
 30
0.0
  0
SEQEND
  5
5A3
330
32F
100
AcDbEntity
  8
0
  6
CONTINUOUS
 62
     7
  0
SPLINE
  5
330
330
1F
100
AcDbEntity
  8
0
  6
CONTINUOUS
 62
     7
100
AcDbSpline
210
0.0
220
0.0
230
1.0
 70
     8
 71
     3
 72
    21
 73
    17
 74
     0
 42
0.00000001
 43
0.00000001
 40
0.0
 40
0.0
 40
0.0
 40
0.0
 40
0.1075532483551839
 40
0.2057171614261975
 40
0.3059772313870456
 40
0.3711454597152118
 40
0.4377263272576325
 40
0.489602536228816
 40
0.542876220258331
 40
0.5948113256545154
 40
0.6484622904699097
 40
0.6977092825947784
 40
0.7479662179544891
 40
0.8296780830301386
 40
0.9136408869704422
 40
1.0
 40
1.0
 40
1.0
 40
1.0
 10
8.10071205057821
 20
7.485350869012216
 30
0.0
 10
8.09469953955146
 20
7.488764594797574
 30
0.0
 10
8.08319940617211
 20
7.49529403011627
 30
0.0
 10
8.06407601004722
 20
7.504955024903481
 30
0.0
 10
8.046897935269987
 20
7.513347674455909
 30
0.0
 10
8.03147133572099
 20
7.520820186917754
 30
0.0
 10
8.019335618343296
 20
7.526798564620188
 30
0.0
 10
8.00842938907717
 20
7.532375030474387
 30
0.0
 10
7.999135419549498
 20
7.537377186137514
 30
0.0
 10
7.990805637684467
 20
7.542184769594868
 30
0.0
 10
7.983999016789697
 20
7.54647183100234
 30
0.0
 10
7.978627364861014
 20
7.550207037438279
 30
0.0
 10
7.973741324348176
 20
7.554000968201321
 30
0.0
 10
7.970068469705578
 20
7.557444255876144
 30
0.0
 10
7.967937849804327
 20
7.560225269854906
 30
0.0
 10
7.968492416994475
 20
7.560550817862778
 30
0.0
 10
7.968773601773912
 20
7.560715881981998
 30
0.0
  0
SPLINE
  5
331
330
1F
100
AcDbEntity
  8
0
  6
CONTINUOUS
 62
     7
100
AcDbSpline
210
0.0
220
0.0
230
1.0
 70
     8
 71
     3
 72
    48
 73
    44
 74
     0
 42
0.00000001
 43
0.00000001
 40
-0.0624999999999999
 40
-0.0624999999999999
 40
0.0
 40
0.0
 40
0.0312500000000001
 40
0.0312500000000001
 40
0.0625000000000001
 40
0.0625000000000001
 40
0.0937500000000002
 40
0.0937500000000002
 40
0.1250000000000002
 40
0.1250000000000002
 40
0.1875000000000006
 40
0.1875000000000006
 40
0.250000000000001
 40
0.250000000000001
 40
0.3125000000000012
 40
0.3125000000000012
 40
0.3750000000000013
 40
0.3750000000000013
 40
0.4375000000000015
 40
0.4375000000000015
 40
0.4687500000000014
 40
0.4687500000000014
 40
0.5000000000000012
 40
0.5000000000000012
 40
0.5312500000000011
 40
0.5312500000000011
 40
0.5625000000000009
 40
0.5625000000000009
 40
0.5937500000000007
 40
0.5937500000000007
 40
0.6250000000000006
 40
0.6250000000000006
 40
0.7500000000000004
 40
0.7500000000000004
 40
0.8125000000000002
 40
0.8125000000000002
 40
0.875
 40
0.875
 40
0.90625
 40
0.90625
 40
0.9375000000000001
 40
0.9375000000000001
 40
1.0
 40
1.0
 40
1.03125
 40
1.03125
 10
7.531602938990288
 20
7.224851261178707
 30
0.0
 10
7.52221955191233
 20
7.230268175236555
 30
0.0
 10
7.518835653649272
 20
7.23141737270555
 30
0.0
 10
7.511618311329462
 20
7.232539929839737
 30
0.0
 10
7.507829839736786
 20
7.232488956507
 30
0.0
 10
7.500300520161305
 20
7.231373391970056
 30
0.0
 10
7.496489336415938
 20
7.230299212876146
 30
0.0
 10
7.489155256890563
 20
7.227406441932006
 30
0.0
 10
7.485587758640305
 20
7.225583397923564
 30
0.0
 10
7.475170855185674
 20
7.219129282929013
 30
0.0
 10
7.468844968424865
 20
7.213678782515889
 30
0.0
 10
7.457616899771539
 20
7.201087746468979
 30
0.0
 10
7.452741960922999
 20
7.193938128798577
 30
0.0
 10
7.444990435162913
 20
7.178587714584543
 30
0.0
 10
7.442058166384529
 20
7.170224609243383
 30
0.0
 10
7.438744548324553
 20
7.153288884271784
 30
0.0
 10
7.43831382027648
 20
7.144384903807734
 30
0.0
 10
7.440422658611046
 20
7.127417412367126
 30
0.0
 10
7.442991444663495
 20
7.119201785783256
 30
0.0
 10
7.448907975861114
 20
7.108809792611818
 30
0.0
 10
7.451268201820572
 20
7.105595647629976
 30
0.0
 10
7.456462505867798
 20
7.100133922985399
 30
0.0
 10
7.459331330958094
 20
7.097824159267332
 30
0.0
 10
7.465546898369884
 20
7.094168831133024
 30
0.0
 10
7.468783440020714
 20
7.092881954784886
 30
0.0
 10
7.475510559858617
 20
7.091349264792446
 30
0.0
 10
7.478991232543065
 20
7.091124443545382
 30
0.0
 10
7.485854986585697
 20
7.091719144929462
 30
0.0
 10
7.489323812790614
 20
7.092545873105385
 30
0.0
 10
7.496024140212321
 20
7.095112135806532
 30
0.0
 10
7.499267602232666
 20
7.096840125298806
 30
0.0
 10
7.515048183525247
 20
7.107546469448167
 30
0.0
 10
7.525203322004792
 20
7.121965325191652
 30
0.0
 10
7.535705580483369
 20
7.145792841481779
 30
0.0
 10
7.538462482415876
 20
7.154206662229555
 30
0.0
 10
7.542231772236197
 20
7.171138930129376
 30
0.0
 10
7.543269350567449
 20
7.179642600859146
 30
0.0
 10
7.543151954561855
 20
7.192238856493927
 30
0.0
 10
7.542828760153388
 20
7.196325904590114
 30
0.0
 10
7.541499291140622
 20
7.204251732150094
 30
0.0
 10
7.540474393600856
 20
7.208130826922473
 30
0.0
 10
7.536199877244357
 20
7.218816012113169
 30
0.0
 10
7.531602938990288
 20
7.224851261178707
 30
0.0
 10
7.52221955191233
 20
7.230268175236555
 30
0.0
  0
POLYLINE
  5
332
330
1F
100
AcDbEntity
  8
0
  6
CONTINUOUS
 62
     7
100
AcDb2dPolyline
 66
     1
 10
0.0
 20
0.0
 30
0.0
  0
VERTEX
  5
5A4
330
332
100
AcDbEntity
  8
0
  6
CONTINUOUS
 62
     7
100
AcDbVertex
100
AcDb2dVertex
 10
7.5986825482
 20
6.6355446693
 30
0.0
  0
VERTEX
  5
5A5
330
332
100
AcDbEntity
  8
0
  6
CONTINUOUS
 62
     7
100
AcDbVertex
100
AcDb2dVertex
 10
7.5917163158
 20
6.6517086785
 30
0.0
  0
VERTEX
  5
5A6
330
332
100
AcDbEntity
  8
0
  6
CONTINUOUS
 62
     7
100
AcDbVertex
100
AcDb2dVertex
 10
7.5856680749
 20
6.6687934707
 30
0.0
  0
VERTEX
  5
5A7
330
332
100
AcDbEntity
  8
0
  6
CONTINUOUS
 62
     7
100
AcDbVertex
100
AcDb2dVertex
 10
7.5805541768
 20
6.686752858
 30
0.0
  0
VERTEX
  5
5A8
330
332
100
AcDbEntity
  8
0
  6
CONTINUOUS
 62
     7
100
AcDbVertex
100
AcDb2dVertex
 10
7.5763884465
 20
6.7055382876
 30
0.0
  0
VERTEX
  5
5A9
330
332
100
AcDbEntity
  8
0
  6
CONTINUOUS
 62
     7
100
AcDbVertex
100
AcDb2dVertex
 10
7.5731821461
 20
6.7250989739
 30
0.0
  0
VERTEX
  5
5AA
330
332
100
AcDbEntity
  8
0
  6
CONTINUOUS
 62
     7
100
AcDbVertex
100
AcDb2dVertex
 10
7.5709439437
 20
6.7453820351
 30
0.0
  0
VERTEX
  5
5AB
330
332
100
AcDbEntity
  8
0
  6
CONTINUOUS
 62
     7
100
AcDbVertex
100
AcDb2dVertex
 10
7.5696798901
 20
6.7663326369
 30
0.0
  0
VERTEX
  5
5AC
330
332
100
AcDbEntity
  8
0
  6
CONTINUOUS
 62
     7
100
AcDbVertex
100
AcDb2dVertex
 10
7.5693934027
 20
6.7878941399
 30
0.0
  0
VERTEX
  5
5AD
330
332
100
AcDbEntity
  8
0
  6
CONTINUOUS
 62
     7
100
AcDbVertex
100
AcDb2dVertex
 10
7.570085256
 20
6.8100082535
 30
0.0
  0
VERTEX
  5
5AE
330
332
100
AcDbEntity
  8
0
  6
CONTINUOUS
 62
     7
100
AcDbVertex
100
AcDb2dVertex
 10
7.5717535797
 20
6.8326151928
 30
0.0
  0
VERTEX
  5
5AF
330
332
100
AcDbEntity
  8
0
  6
CONTINUOUS
 62
     7
100
AcDbVertex
100
AcDb2dVertex
 10
7.5743938633
 20
6.8556538409
 30
0.0
  0
VERTEX
  5
5B0
330
332
100
AcDbEntity
  8
0
  6
CONTINUOUS
 62
     7
100
AcDbVertex
100
AcDb2dVertex
 10
7.5779989691
 20
6.8790619135
 30
0.0
  0
VERTEX
  5
5B1
330
332
100
AcDbEntity
  8
0
  6
CONTINUOUS
 62
     7
100
AcDbVertex
100
AcDb2dVertex
 10
7.5825591507
 20
6.9027761278
 30
0.0
  0
VERTEX
  5
5B2
330
332
100
AcDbEntity
  8
0
  6
CONTINUOUS
 62
     7
100
AcDbVertex
100
AcDb2dVertex
 10
7.5880620799
 20
6.9267323732
 30
0.0
  0
VERTEX
  5
5B3
330
332
100
AcDbEntity
  8
0
  6
CONTINUOUS
 62
     7
100
AcDbVertex
100
AcDb2dVertex
 10
7.5944928797
 20
6.9508658848
 30
0.0
  0
VERTEX
  5
5B4
330
332
100
AcDbEntity
  8
0
  6
CONTINUOUS
 62
     7
100
AcDbVertex
100
AcDb2dVertex
 10
7.6018341646
 20
6.9751114187
 30
0.0
  0
VERTEX
  5
5B5
330
332
100
AcDbEntity
  8
0
  6
CONTINUOUS
 62
     7
100
AcDbVertex
100
AcDb2dVertex
 10
7.6100660878
 20
6.9994034277
 30
0.0
  0
VERTEX
  5
5B6
330
332
100
AcDbEntity
  8
0
  6
CONTINUOUS
 62
     7
100
AcDbVertex
100
AcDb2dVertex
 10
7.6191663945
 20
7.0236762394
 30
0.0
  0
VERTEX
  5
5B7
330
332
100
AcDbEntity
  8
0
  6
CONTINUOUS
 62
     7
100
AcDbVertex
100
AcDb2dVertex
 10
7.6291104824
 20
7.047864233
 30
0.0
  0
VERTEX
  5
5B8
330
332
100
AcDbEntity
  8
0
  6
CONTINUOUS
 62
     7
100
AcDbVertex
100
AcDb2dVertex
 10
7.6398714679
 20
7.0719020171
 30
0.0
  0
VERTEX
  5
5B9
330
332
100
AcDbEntity
  8
0
  6
CONTINUOUS
 62
     7
100
AcDbVertex
100
AcDb2dVertex
 10
7.6514202592
 20
7.0957246066
 30
0.0
  0
VERTEX
  5
5BA
330
332
100
AcDbEntity
  8
0
  6
CONTINUOUS
 62
     7
100
AcDbVertex
100
AcDb2dVertex
 10
7.6637256345
 20
7.1192675977
 30
0.0
  0
VERTEX
  5
5BB
330
332
100
AcDbEntity
  8
0
  6
CONTINUOUS
 62
     7
100
AcDbVertex
100
AcDb2dVertex
 10
7.6767543266
 20
7.142467343
 30
0.0
  0
VERTEX
  5
5BC
330
332
100
AcDbEntity
  8
0
  6
CONTINUOUS
 62
     7
100
AcDbVertex
100
AcDb2dVertex
 10
7.690471113
 20
7.1652611226
 30
0.0
  0
VERTEX
  5
5BD
330
332
100
AcDbEntity
  8
0
  6
CONTINUOUS
 62
     7
100
AcDbVertex
100
AcDb2dVertex
 10
7.7048389108
 20
7.1875873144
 30
0.0
  0
VERTEX
  5
5BE
330
332
100
AcDbEntity
  8
0
  6
CONTINUOUS
 62
     7
100
AcDbVertex
100
AcDb2dVertex
 10
7.7198188771
 20
7.2093855604
 30
0.0
  0
VERTEX
  5
5BF
330
332
100
AcDbEntity
  8
0
  6
CONTINUOUS
 62
     7
100
AcDbVertex
100
AcDb2dVertex
 10
7.7353705141
 20
7.2305969298
 30
0.0
  0
VERTEX
  5
5C0
330
332
100
AcDbEntity
  8
0
  6
CONTINUOUS
 62
     7
100
AcDbVertex
100
AcDb2dVertex
 10
7.7514517786
 20
7.2511640783
 30
0.0
  0
VERTEX
  5
5C1
330
332
100
AcDbEntity
  8
0
  6
CONTINUOUS
 62
     7
100
AcDbVertex
100
AcDb2dVertex
 10
7.7680191955
 20
7.2710314035
 30
0.0
  0
VERTEX
  5
5C2
330
332
100
AcDbEntity
  8
0
  6
CONTINUOUS
 62
     7
100
AcDbVertex
100
AcDb2dVertex
 10
7.7850279752
 20
7.2901451947
 30
0.0
  0
VERTEX
  5
5C3
330
332
100
AcDbEntity
  8
0
  6
CONTINUOUS
 62
     7
100
AcDbVertex
100
AcDb2dVertex
 10
7.8024321351
 20
7.3084537784
 30
0.0
  0
VERTEX
  5
5C4
330
332
100
AcDbEntity
  8
0
  6
CONTINUOUS
 62
     7
100
AcDbVertex
100
AcDb2dVertex
 10
7.8201846238
 20
7.325907658
 30
0.0
  0
VERTEX
  5
5C5
330
332
100
AcDbEntity
  8
0
  6
CONTINUOUS
 62
     7
100
AcDbVertex
100
AcDb2dVertex
 10
7.838237448
 20
7.3424596476
 30
0.0
  0
VERTEX
  5
5C6
330
332
100
AcDbEntity
  8
0
  6
CONTINUOUS
 62
     7
100
AcDbVertex
100
AcDb2dVertex
 10
7.8565418025
 20
7.3580649995
 30
0.0
  0
VERTEX
  5
5C7
330
332
100
AcDbEntity
  8
0
  6
CONTINUOUS
 62
     7
100
AcDbVertex
100
AcDb2dVertex
 10
7.8750482022
 20
7.3726815252
 30
0.0
  0
VERTEX
  5
5C8
330
332
100
AcDbEntity
  8
0
  6
CONTINUOUS
 62
     7
100
AcDbVertex
100
AcDb2dVertex
 10
7.8937066156
 20
7.3862697093
 30
0.0
  0
VERTEX
  5
5C9
330
332
100
AcDbEntity
  8
0
  6
CONTINUOUS
 62
     7
100
AcDbVertex
100
AcDb2dVertex
 10
7.9124666004
 20
7.3987928168
 30
0.0
  0
VERTEX
  5
5CA
330
332
100
AcDbEntity
  8
0
  6
CONTINUOUS
 62
     7
100
AcDbVertex
100
AcDb2dVertex
 10
7.9312774397
 20
7.4102169918
 30
0.0
  0
VERTEX
  5
5CB
330
332
100
AcDbEntity
  8
0
  6
CONTINUOUS
 62
     7
100
AcDbVertex
100
AcDb2dVertex
 10
7.950088279
 20
7.4205113495
 30
0.0
  0
VERTEX
  5
5CC
330
332
100
AcDbEntity
  8
0
  6
CONTINUOUS
 62
     7
100
AcDbVertex
100
AcDb2dVertex
 10
7.9688482638
 20
7.4296480595
 30
0.0
  0
VERTEX
  5
5CD
330
332
100
AcDbEntity
  8
0
  6
CONTINUOUS
 62
     7
100
AcDbVertex
100
AcDb2dVertex
 10
7.9875066772
 20
7.4376024209
 30
0.0
  0
VERTEX
  5
5CE
330
332
100
AcDbEntity
  8
0
  6
CONTINUOUS
 62
     7
100
AcDbVertex
100
AcDb2dVertex
 10
8.0060130769
 20
7.4443529295
 30
0.0
  0
VERTEX
  5
5CF
330
332
100
AcDbEntity
  8
0
  6
CONTINUOUS
 62
     7
100
AcDbVertex
100
AcDb2dVertex
 10
8.0243174314
 20
7.4498813355
 30
0.0
  0
VERTEX
  5
5D0
330
332
100
AcDbEntity
  8
0
  6
CONTINUOUS
 62
     7
100
AcDbVertex
100
AcDb2dVertex
 10
8.0423702556
 20
7.454172693
 30
0.0
  0
VERTEX
  5
5D1
330
332
100
AcDbEntity
  8
0
  6
CONTINUOUS
 62
     7
100
AcDbVertex
100
AcDb2dVertex
 10
8.0601227443
 20
7.4572154005
 30
0.0
  0
VERTEX
  5
5D2
330
332
100
AcDbEntity
  8
0
  6
CONTINUOUS
 62
     7
100
AcDbVertex
100
AcDb2dVertex
 10
8.0775269042
 20
7.4590012322
 30
0.0
  0
VERTEX
  5
5D3
330
332
100
AcDbEntity
  8
0
  6
CONTINUOUS
 62
     7
100
AcDbVertex
100
AcDb2dVertex
 10
8.0945356839
 20
7.4595253601
 30
0.0
  0
VERTEX
  5
5D4
330
332
100
AcDbEntity
  8
0
  6
CONTINUOUS
 62
     7
100
AcDbVertex
100
AcDb2dVertex
 10
8.1111031008
 20
7.4587863672
 30
0.0
  0
VERTEX
  5
5D5
330
332
100
AcDbEntity
  8
0
  6
CONTINUOUS
 62
     7
100
AcDbVertex
100
AcDb2dVertex
 10
8.1271843653
 20
7.4567862515
 30
0.0
  0
VERTEX
  5
5D6
330
332
100
AcDbEntity
  8
0
  6
CONTINUOUS
 62
     7
100
AcDbVertex
100
AcDb2dVertex
 10
8.1427360023
 20
7.4535304201
 30
0.0
  0
VERTEX
  5
5D7
330
332
100
AcDbEntity
  8
0
  6
CONTINUOUS
 62
     7
100
AcDbVertex
100
AcDb2dVertex
 10
8.1577159686
 20
7.449027675
 30
0.0
  0
VERTEX
  5
5D8
330
332
100
AcDbEntity
  8
0
  6
CONTINUOUS
 62
     7
100
AcDbVertex
100
AcDb2dVertex
 10
8.1720837664
 20
7.4432901894
 30
0.0
  0
VERTEX
  5
5D9
330
332
100
AcDbEntity
  8
0
  6
CONTINUOUS
 62
     7
100
AcDbVertex
100
AcDb2dVertex
 10
8.1858005528
 20
7.4363334742
 30
0.0
  0
VERTEX
  5
5DA
330
332
100
AcDbEntity
  8
0
  6
CONTINUOUS
 62
     7
100
AcDbVertex
100
AcDb2dVertex
 10
8.1871621547
 20
7.4355557578
 30
0.0
  0
SEQEND
  5
5DB
330
332
100
AcDbEntity
  8
0
  6
CONTINUOUS
 62
     7
  0
ARC
  5
333
330
1F
100
AcDbEntity
  8
0
  6
CONTINUOUS
 62
     7
100
AcDbCircle
 10
8.0424026648
 20
7.2428017212
 30
0.0
 40
0.2380811085976509
100
AcDbArc
 50
58.1806520528
 51
124.3464371278
  0
LINE
  5
334
330
1F
100
AcDbEntity
  8
0
  6
CONTINUOUS
 62
     7
100
AcDbLine
 10
7.7108865466
 20
7.5532077493
 30
0.0
 11
7.9080783983
 21
7.4393713163
 31
0.0
  0
ARC
  5
335
330
1F
100
AcDbEntity
  8
0
  6
CONTINUOUS
 62
     7
100
AcDbCircle
 10
7.8473725092
 20
7.3490249264
 30
0.0
 40
0.2455993549166343
100
AcDbArc
 50
64.5656123453
 51
123.7607387588
  0
POLYLINE
  5
336
330
1F
100
AcDbEntity
  8
0
  6
CONTINUOUS
 62
     7
100
AcDb2dPolyline
 66
     1
 10
0.0
 20
0.0
 30
0.0
  0
VERTEX
  5
5DC
330
336
100
AcDbEntity
  8
0
  6
CONTINUOUS
 62
     7
100
AcDbVertex
100
AcDb2dVertex
 10
7.4410824067
 20
6.6843135156
 30
0.0
  0
VERTEX
  5
5DD
330
336
100
AcDbEntity
  8
0
  6
CONTINUOUS
 62
     7
100
AcDbVertex
100
AcDb2dVertex
 10
7.430517692
 20
6.6909380876
 30
0.0
  0
VERTEX
  5
5DE
330
336
100
AcDbEntity
  8
0
  6
CONTINUOUS
 62
     7
100
AcDbVertex
100
AcDb2dVertex
 10
7.4182132855
 20
6.7001190782
 30
0.0
  0
VERTEX
  5
5DF
330
336
100
AcDbEntity
  8
0
  6
CONTINUOUS
 62
     7
100
AcDbVertex
100
AcDb2dVertex
 10
7.4066543302
 20
6.7104431613
 30
0.0
  0
VERTEX
  5
5E0
330
336
100
AcDbEntity
  8
0
  6
CONTINUOUS
 62
     7
100
AcDbVertex
100
AcDb2dVertex
 10
7.3958717371
 20
6.721882728
 30
0.0
  0
VERTEX
  5
5E1
330
336
100
AcDbEntity
  8
0
  6
CONTINUOUS
 62
     7
100
AcDbVertex
100
AcDb2dVertex
 10
7.3858943415
 20
6.7344071862
 30
0.0
  0
VERTEX
  5
5E2
330
336
100
AcDbEntity
  8
0
  6
CONTINUOUS
 62
     7
100
AcDbVertex
100
AcDb2dVertex
 10
7.3767488252
 20
6.7479830426
 30
0.0
  0
VERTEX
  5
5E3
330
336
100
AcDbEntity
  8
0
  6
CONTINUOUS
 62
     7
100
AcDbVertex
100
AcDb2dVertex
 10
7.3684596453
 20
6.7625739925
 30
0.0
  0
VERTEX
  5
5E4
330
336
100
AcDbEntity
  8
0
  6
CONTINUOUS
 62
     7
100
AcDbVertex
100
AcDb2dVertex
 10
7.361048969
 20
6.7781410161
 30
0.0
  0
VERTEX
  5
5E5
330
336
100
AcDbEntity
  8
0
  6
CONTINUOUS
 62
     7
100
AcDbVertex
100
AcDb2dVertex
 10
7.3545366142
 20
6.7946424839
 30
0.0
  0
VERTEX
  5
5E6
330
336
100
AcDbEntity
  8
0
  6
CONTINUOUS
 62
     7
100
AcDbVertex
100
AcDb2dVertex
 10
7.3489399963
 20
6.8120342671
 30
0.0
  0
VERTEX
  5
5E7
330
336
100
AcDbEntity
  8
0
  6
CONTINUOUS
 62
     7
100
AcDbVertex
100
AcDb2dVertex
 10
7.344274082
 20
6.8302698562
 30
0.0
  0
VERTEX
  5
5E8
330
336
100
AcDbEntity
  8
0
  6
CONTINUOUS
 62
     7
100
AcDbVertex
100
AcDb2dVertex
 10
7.3405513489
 20
6.8493004849
 30
0.0
  0
VERTEX
  5
5E9
330
336
100
AcDbEntity
  8
0
  6
CONTINUOUS
 62
     7
100
AcDbVertex
100
AcDb2dVertex
 10
7.3377817526
 20
6.8690752612
 30
0.0
  0
VERTEX
  5
5EA
330
336
100
AcDbEntity
  8
0
  6
CONTINUOUS
 62
     7
100
AcDbVertex
100
AcDb2dVertex
 10
7.3359726996
 20
6.8895413028
 30
0.0
  0
VERTEX
  5
5EB
330
336
100
AcDbEntity
  8
0
  6
CONTINUOUS
 62
     7
100
AcDbVertex
100
AcDb2dVertex
 10
7.3351290276
 20
6.9106438788
 30
0.0
  0
VERTEX
  5
5EC
330
336
100
AcDbEntity
  8
0
  6
CONTINUOUS
 62
     7
100
AcDbVertex
100
AcDb2dVertex
 10
7.3352529928
 20
6.9323265561
 30
0.0
  0
VERTEX
  5
5ED
330
336
100
AcDbEntity
  8
0
  6
CONTINUOUS
 62
     7
100
AcDbVertex
100
AcDb2dVertex
 10
7.3363442638
 20
6.9545313504
 30
0.0
  0
VERTEX
  5
5EE
330
336
100
AcDbEntity
  8
0
  6
CONTINUOUS
 62
     7
100
AcDbVertex
100
AcDb2dVertex
 10
7.3383999222
 20
6.9771988809
 30
0.0
  0
VERTEX
  5
5EF
330
336
100
AcDbEntity
  8
0
  6
CONTINUOUS
 62
     7
100
AcDbVertex
100
AcDb2dVertex
 10
7.3414144708
 20
7.0002685297
 30
0.0
  0
VERTEX
  5
5F0
330
336
100
AcDbEntity
  8
0
  6
CONTINUOUS
 62
     7
100
AcDbVertex
100
AcDb2dVertex
 10
7.3453798479
 20
7.023678603
 30
0.0
  0
VERTEX
  5
5F1
330
336
100
AcDbEntity
  8
0
  6
CONTINUOUS
 62
     7
100
AcDbVertex
100
AcDb2dVertex
 10
7.3502854492
 20
7.0473664972
 30
0.0
  0
VERTEX
  5
5F2
330
336
100
AcDbEntity
  8
0
  6
CONTINUOUS
 62
     7
100
AcDbVertex
100
AcDb2dVertex
 10
7.356118156
 20
7.0712688655
 30
0.0
  0
VERTEX
  5
5F3
330
336
100
AcDbEntity
  8
0
  6
CONTINUOUS
 62
     7
100
AcDbVertex
100
AcDb2dVertex
 10
7.3628623704
 20
7.0953217873
 30
0.0
  0
VERTEX
  5
5F4
330
336
100
AcDbEntity
  8
0
  6
CONTINUOUS
 62
     7
100
AcDbVertex
100
AcDb2dVertex
 10
7.3705000568
 20
7.1194609399
 30
0.0
  0
VERTEX
  5
5F5
330
336
100
AcDbEntity
  8
0
  6
CONTINUOUS
 62
     7
100
AcDbVertex
100
AcDb2dVertex
 10
7.3790107902
 20
7.1436217695
 30
0.0
  0
VERTEX
  5
5F6
330
336
100
AcDbEntity
  8
0
  6
CONTINUOUS
 62
     7
100
AcDbVertex
100
AcDb2dVertex
 10
7.3883718111
 20
7.1677396647
 30
0.0
  0
VERTEX
  5
5F7
330
336
100
AcDbEntity
  8
0
  6
CONTINUOUS
 62
     7
100
AcDbVertex
100
AcDb2dVertex
 10
7.3985580859
 20
7.1917501287
 30
0.0
  0
VERTEX
  5
5F8
330
336
100
AcDbEntity
  8
0
  6
CONTINUOUS
 62
     7
100
AcDbVertex
100
AcDb2dVertex
 10
7.4095423743
 20
7.2155889522
 30
0.0
  0
VERTEX
  5
5F9
330
336
100
AcDbEntity
  8
0
  6
CONTINUOUS
 62
     7
100
AcDbVertex
100
AcDb2dVertex
 10
7.4212953017
 20
7.2391923845
 30
0.0
  0
VERTEX
  5
5FA
330
336
100
AcDbEntity
  8
0
  6
CONTINUOUS
 62
     7
100
AcDbVertex
100
AcDb2dVertex
 10
7.4337854382
 20
7.2624973049
 30
0.0
  0
VERTEX
  5
5FB
330
336
100
AcDbEntity
  8
0
  6
CONTINUOUS
 62
     7
100
AcDbVertex
100
AcDb2dVertex
 10
7.4469793823
 20
7.2854413907
 30
0.0
  0
VERTEX
  5
5FC
330
336
100
AcDbEntity
  8
0
  6
CONTINUOUS
 62
     7
100
AcDbVertex
100
AcDb2dVertex
 10
7.4608418503
 20
7.3079632842
 30
0.0
  0
VERTEX
  5
5FD
330
336
100
AcDbEntity
  8
0
  6
CONTINUOUS
 62
     7
100
AcDbVertex
100
AcDb2dVertex
 10
7.475335771
 20
7.3300027566
 30
0.0
  0
VERTEX
  5
5FE
330
336
100
AcDbEntity
  8
0
  6
CONTINUOUS
 62
     7
100
AcDbVertex
100
AcDb2dVertex
 10
7.4904223842
 20
7.3515008696
 30
0.0
  0
VERTEX
  5
5FF
330
336
100
AcDbEntity
  8
0
  6
CONTINUOUS
 62
     7
100
AcDbVertex
100
AcDb2dVertex
 10
7.506061345
 20
7.3724001321
 30
0.0
  0
VERTEX
  5
600
330
336
100
AcDbEntity
  8
0
  6
CONTINUOUS
 62
     7
100
AcDbVertex
100
AcDb2dVertex
 10
7.5222108312
 20
7.3926446549
 30
0.0
  0
VERTEX
  5
601
330
336
100
AcDbEntity
  8
0
  6
CONTINUOUS
 62
     7
100
AcDbVertex
100
AcDb2dVertex
 10
7.5388276554
 20
7.4121802995
 30
0.0
  0
VERTEX
  5
602
330
336
100
AcDbEntity
  8
0
  6
CONTINUOUS
 62
     7
100
AcDbVertex
100
AcDb2dVertex
 10
7.5558673804
 20
7.4309548232
 30
0.0
  0
VERTEX
  5
603
330
336
100
AcDbEntity
  8
0
  6
CONTINUOUS
 62
     7
100
AcDbVertex
100
AcDb2dVertex
 10
7.5732844382
 20
7.4489180186
 30
0.0
  0
VERTEX
  5
604
330
336
100
AcDbEntity
  8
0
  6
CONTINUOUS
 62
     7
100
AcDbVertex
100
AcDb2dVertex
 10
7.5910322516
 20
7.466021848
 30
0.0
  0
VERTEX
  5
605
330
336
100
AcDbEntity
  8
0
  6
CONTINUOUS
 62
     7
100
AcDbVertex
100
AcDb2dVertex
 10
7.6090633589
 20
7.4822205719
 30
0.0
  0
VERTEX
  5
606
330
336
100
AcDbEntity
  8
0
  6
CONTINUOUS
 62
     7
100
AcDbVertex
100
AcDb2dVertex
 10
7.6273295408
 20
7.4974708713
 30
0.0
  0
VERTEX
  5
607
330
336
100
AcDbEntity
  8
0
  6
CONTINUOUS
 62
     7
100
AcDbVertex
100
AcDb2dVertex
 10
7.6457819494
 20
7.5117319634
 30
0.0
  0
VERTEX
  5
608
330
336
100
AcDbEntity
  8
0
  6
CONTINUOUS
 62
     7
100
AcDbVertex
100
AcDb2dVertex
 10
7.6643712388
 20
7.5249657108
 30
0.0
  0
VERTEX
  5
609
330
336
100
AcDbEntity
  8
0
  6
CONTINUOUS
 62
     7
100
AcDbVertex
100
AcDb2dVertex
 10
7.683047697
 20
7.5371367234
 30
0.0
  0
SEQEND
  5
60A
330
336
100
AcDbEntity
  8
0
  6
CONTINUOUS
 62
     7
  0
LINE
  5
337
330
1F
100
AcDbEntity
  8
0
  6
CONTINUOUS
 62
     7
100
AcDbLine
 10
7.683047697
 20
7.5371367234
 30
0.0
 11
7.8802395487
 21
7.4233002905
 31
0.0
  0
POLYLINE
  5
338
330
1F
100
AcDbEntity
  8
0
  6
CONTINUOUS
 62
     7
100
AcDb2dPolyline
 66
     1
 10
0.0
 20
0.0
 30
0.0
  0
VERTEX
  5
60B
330
338
100
AcDbEntity
  8
0
  6
CONTINUOUS
 62
     7
100
AcDbVertex
100
AcDb2dVertex
 10
7.8802395487
 20
7.4233002905
 30
0.0
  0
VERTEX
  5
60C
330
338
100
AcDbEntity
  8
0
  6
CONTINUOUS
 62
     7
100
AcDbVertex
100
AcDb2dVertex
 10
7.8613296499
 20
7.410970049
 30
0.0
  0
VERTEX
  5
60D
330
338
100
AcDbEntity
  8
0
  6
CONTINUOUS
 62
     7
100
AcDbVertex
100
AcDb2dVertex
 10
7.8425097563
 20
7.3975507311
 30
0.0
  0
VERTEX
  5
60E
330
338
100
AcDbEntity
  8
0
  6
CONTINUOUS
 62
     7
100
AcDbVertex
100
AcDb2dVertex
 10
7.8238314648
 20
7.3830791272
 30
0.0
  0
VERTEX
  5
60F
330
338
100
AcDbEntity
  8
0
  6
CONTINUOUS
 62
     7
100
AcDbVertex
100
AcDb2dVertex
 10
7.805345984
 20
7.367594913
 30
0.0
  0
VERTEX
  5
610
330
338
100
AcDbEntity
  8
0
  6
CONTINUOUS
 62
     7
100
AcDbVertex
100
AcDb2dVertex
 10
7.7871039938
 20
7.35114054
 30
0.0
  0
VERTEX
  5
611
330
338
100
AcDbEntity
  8
0
  6
CONTINUOUS
 62
     7
100
AcDbVertex
100
AcDb2dVertex
 10
7.7691555068
 20
7.3337611198
 30
0.0
  0
VERTEX
  5
612
330
338
100
AcDbEntity
  8
0
  6
CONTINUOUS
 62
     7
100
AcDbVertex
100
AcDb2dVertex
 10
7.7515497306
 20
7.3155043
 30
0.0
  0
VERTEX
  5
613
330
338
100
AcDbEntity
  8
0
  6
CONTINUOUS
 62
     7
100
AcDbVertex
100
AcDb2dVertex
 10
7.7343349335
 20
7.2964201337
 30
0.0
  0
VERTEX
  5
614
330
338
100
AcDbEntity
  8
0
  6
CONTINUOUS
 62
     7
100
AcDbVertex
100
AcDb2dVertex
 10
7.7175583117
 20
7.2765609422
 30
0.0
  0
VERTEX
  5
615
330
338
100
AcDbEntity
  8
0
  6
CONTINUOUS
 62
     7
100
AcDbVertex
100
AcDb2dVertex
 10
7.7012658602
 20
7.2559811717
 30
0.0
  0
VERTEX
  5
616
330
338
100
AcDbEntity
  8
0
  6
CONTINUOUS
 62
     7
100
AcDbVertex
100
AcDb2dVertex
 10
7.6855022465
 20
7.234737244
 30
0.0
  0
VERTEX
  5
617
330
338
100
AcDbEntity
  8
0
  6
CONTINUOUS
 62
     7
100
AcDbVertex
100
AcDb2dVertex
 10
7.6703106885
 20
7.2128874015
 30
0.0
  0
VERTEX
  5
618
330
338
100
AcDbEntity
  8
0
  6
CONTINUOUS
 62
     7
100
AcDbVertex
100
AcDb2dVertex
 10
7.6557328353
 20
7.1904915482
 30
0.0
  0
VERTEX
  5
619
330
338
100
AcDbEntity
  8
0
  6
CONTINUOUS
 62
     7
100
AcDbVertex
100
AcDb2dVertex
 10
7.6418086539
 20
7.1676110847
 30
0.0
  0
VERTEX
  5
61A
330
338
100
AcDbEntity
  8
0
  6
CONTINUOUS
 62
     7
100
AcDbVertex
100
AcDb2dVertex
 10
7.6285763188
 20
7.1443087403
 30
0.0
  0
VERTEX
  5
61B
330
338
100
AcDbEntity
  8
0
  6
CONTINUOUS
 62
     7
100
AcDbVertex
100
AcDb2dVertex
 10
7.6160721081
 20
7.120648401
 30
0.0
  0
VERTEX
  5
61C
330
338
100
AcDbEntity
  8
0
  6
CONTINUOUS
 62
     7
100
AcDbVertex
100
AcDb2dVertex
 10
7.6043303033
 20
7.0966949343
 30
0.0
  0
VERTEX
  5
61D
330
338
100
AcDbEntity
  8
0
  6
CONTINUOUS
 62
     7
100
AcDbVertex
100
AcDb2dVertex
 10
7.593383096
 20
7.0725140112
 30
0.0
  0
VERTEX
  5
61E
330
338
100
AcDbEntity
  8
0
  6
CONTINUOUS
 62
     7
100
AcDbVertex
100
AcDb2dVertex
 10
7.5832604991
 20
7.0481719264
 30
0.0
  0
VERTEX
  5
61F
330
338
100
AcDbEntity
  8
0
  6
CONTINUOUS
 62
     7
100
AcDbVertex
100
AcDb2dVertex
 10
7.5739902649
 20
7.0237354164
 30
0.0
  0
VERTEX
  5
620
330
338
100
AcDbEntity
  8
0
  6
CONTINUOUS
 62
     7
100
AcDbVertex
100
AcDb2dVertex
 10
7.5655978087
 20
6.9992714767
 30
0.0
  0
VERTEX
  5
621
330
338
100
AcDbEntity
  8
0
  6
CONTINUOUS
 62
     7
100
AcDbVertex
100
AcDb2dVertex
 10
7.5581061394
 20
6.9748471778
 30
0.0
  0
VERTEX
  5
622
330
338
100
AcDbEntity
  8
0
  6
CONTINUOUS
 62
     7
100
AcDbVertex
100
AcDb2dVertex
 10
7.5515357962
 20
6.9505294817
 30
0.0
  0
VERTEX
  5
623
330
338
100
AcDbEntity
  8
0
  6
CONTINUOUS
 62
     7
100
AcDbVertex
100
AcDb2dVertex
 10
7.5459047925
 20
6.926385058
 30
0.0
  0
VERTEX
  5
624
330
338
100
AcDbEntity
  8
0
  6
CONTINUOUS
 62
     7
100
AcDbVertex
100
AcDb2dVertex
 10
7.5412285662
 20
6.9024801014
 30
0.0
  0
VERTEX
  5
625
330
338
100
AcDbEntity
  8
0
  6
CONTINUOUS
 62
     7
100
AcDbVertex
100
AcDb2dVertex
 10
7.5375199378
 20
6.8788801499
 30
0.0
  0
VERTEX
  5
626
330
338
100
AcDbEntity
  8
0
  6
CONTINUOUS
 62
     7
100
AcDbVertex
100
AcDb2dVertex
 10
7.5347890749
 20
6.8556499054
 30
0.0
  0
VERTEX
  5
627
330
338
100
AcDbEntity
  8
0
  6
CONTINUOUS
 62
     7
100
AcDbVertex
100
AcDb2dVertex
 10
7.5330434644
 20
6.8328530563
 30
0.0
  0
VERTEX
  5
628
330
338
100
AcDbEntity
  8
0
  6
CONTINUOUS
 62
     7
100
AcDbVertex
100
AcDb2dVertex
 10
7.5322878922
 20
6.8105521025
 30
0.0
  0
VERTEX
  5
629
330
338
100
AcDbEntity
  8
0
  6
CONTINUOUS
 62
     7
100
AcDbVertex
100
AcDb2dVertex
 10
7.5325244296
 20
6.7888081847
 30
0.0
  0
VERTEX
  5
62A
330
338
100
AcDbEntity
  8
0
  6
CONTINUOUS
 62
     7
100
AcDbVertex
100
AcDb2dVertex
 10
7.5337524283
 20
6.7676809162
 30
0.0
  0
VERTEX
  5
62B
330
338
100
AcDbEntity
  8
0
  6
CONTINUOUS
 62
     7
100
AcDbVertex
100
AcDb2dVertex
 10
7.5359685215
 20
6.7472282198
 30
0.0
  0
VERTEX
  5
62C
330
338
100
AcDbEntity
  8
0
  6
CONTINUOUS
 62
     7
100
AcDbVertex
100
AcDb2dVertex
 10
7.5391666335
 20
6.7275061687
 30
0.0
  0
VERTEX
  5
62D
330
338
100
AcDbEntity
  8
0
  6
CONTINUOUS
 62
     7
100
AcDbVertex
100
AcDb2dVertex
 10
7.5433379965
 20
6.7085688332
 30
0.0
  0
VERTEX
  5
62E
330
338
100
AcDbEntity
  8
0
  6
CONTINUOUS
 62
     7
100
AcDbVertex
100
AcDb2dVertex
 10
7.548471174
 20
6.6904681322
 30
0.0
  0
VERTEX
  5
62F
330
338
100
AcDbEntity
  8
0
  6
CONTINUOUS
 62
     7
100
AcDbVertex
100
AcDb2dVertex
 10
7.554552093
 20
6.6732536906
 30
0.0
  0
VERTEX
  5
630
330
338
100
AcDbEntity
  8
0
  6
CONTINUOUS
 62
     7
100
AcDbVertex
100
AcDb2dVertex
 10
7.561564082
 20
6.6569727037
 30
0.0
  0
SEQEND
  5
631
330
338
100
AcDbEntity
  8
0
  6
CONTINUOUS
 62
     7
  0
LINE
  5
339
330
1F
100
AcDbEntity
  8
0
  6
CONTINUOUS
 62
     7
100
AcDbLine
 10
7.561564082
 20
6.6569727037
 30
0.0
 11
7.5986825482
 21
6.6355446693
 31
0.0
  0
LINE
  5
33A
330
1F
100
AcDbEntity
  8
0
  6
CONTINUOUS
 62
     7
100
AcDbLine
 10
7.9080783983
 20
7.3959649519
 30
0.0
 11
7.9080783983
 21
7.4393713163
 31
0.0
  0
LINE
  5
33B
330
1F
100
AcDbEntity
  8
0
  6
CONTINUOUS
 62
     7
100
AcDbLine
 10
7.561564082
 20
6.6569727037
 30
0.0
 11
7.5851098565
 21
6.67056539
 31
0.0
  0
LINE
  5
33C
330
1F
100
AcDbEntity
  8
0
  6
CONTINUOUS
 62
     7
100
AcDbLine
 10
7.8802395487
 20
7.3765767826
 30
0.0
 11
7.8802395487
 21
7.4233002905
 31
0.0
  0
LINE
  5
33D
330
1F
100
AcDbEntity
  8
0
  6
CONTINUOUS
 62
     7
100
AcDbLine
 10
7.7108865466
 20
7.5532077493
 30
0.0
 11
7.7002799449
 21
7.5470733545
 31
0.0
  0
ARC
  5
33E
330
1F
100
AcDbEntity
  8
0
  6
CONTINUOUS
 62
     7
100
AcDbCircle
 10
8.0992145484
 20
6.8961810068
 30
0.0
 40
0.7649403185770373
100
AcDbArc
 50
123.911888622
 51
177.3993498531
  0
LINE
  5
33F
330
1F
100
AcDbEntity
  8
0
  6
CONTINUOUS
 62
     7
100
AcDbLine
 10
7.683047697
 20
7.5371367234
 30
0.0
 11
7.6724410952
 21
7.5310023286
 31
0.0
  0
LINE
  5
340
330
1F
100
AcDbEntity
  8
0
  6
CONTINUOUS
 62
     7
100
AcDbLine
 10
7.7002799449
 20
7.5470733545
 30
0.0
 11
7.7002799449
 21
7.5271887584
 31
0.0
  0
ARC
  5
341
330
1F
100
AcDbEntity
  8
0
  6
CONTINUOUS
 62
     7
100
AcDbCircle
 10
8.0795442507
 20
7.1903245878
 30
0.0
 40
0.1492664232528685
100
AcDbArc
 50
107.5826306879
 51
174.0753476848
  0
ARC
  5
342
330
1F
100
AcDbEntity
  8
0
  6
CONTINUOUS
 62
     7
100
AcDbCircle
 10
7.8347483874
 20
6.76461865
 30
0.0
 40
0.149990633056047
100
AcDbArc
 50
126.1060297935
 51
192.241757674
  0
ARC
  5
343
330
1F
100
AcDbEntity
  8
0
  6
CONTINUOUS
 62
     7
100
AcDbCircle
 10
8.1006595916
 20
6.5078219546
 30
0.0
 40
0.1768048545677456
100
AcDbArc
 50
214.7266061905
 51
253.7112304736
  0
ARC
  5
344
330
1F
100
AcDbEntity
  8
0
  6
CONTINUOUS
 62
     7
100
AcDbCircle
 10
8.4355410694
 20
7.0879411146
 30
0.0
 40
0.1767693202266342
100
AcDbArc
 50
46.2872378592
 51
85.4344298552
  0
ARC
  5
345
330
1F
100
AcDbEntity
  8
0
  6
CONTINUOUS
 62
     7
100
AcDbCircle
 10
8.2447839418
 20
7.1918131479
 30
0.0
 40
0.182289258666365
100
AcDbArc
 50
60.4185149152
 51
85.4822248411
  0
ARC
  5
346
330
1F
100
AcDbEntity
  8
0
  6
CONTINUOUS
 62
     7
100
AcDbCircle
 10
7.9145995118
 20
6.6202393436
 30
0.0
 40
0.1812514753770285
100
AcDbArc
 50
215.2551678322
 51
239.6452302794
  0
ARC
  5
347
330
1F
100
AcDbEntity
  8
0
  6
CONTINUOUS
 62
     7
100
AcDbCircle
 10
8.1158046274
 20
7.1964273032
 30
0.0
 40
0.1377003847192997
100
AcDbArc
 50
101.7690855942
 51
146.491229077
  0
ARC
  5
348
330
1F
100
AcDbEntity
  8
0
  6
CONTINUOUS
 62
     7
100
AcDbCircle
 10
7.8478360006
 20
6.7303745835
 30
0.0
 40
0.1387485465937135
100
AcDbArc
 50
153.2797368314
 51
197.7077521264
  0
LINE
  5
349
330
1F
100
AcDbEntity
  8
0
  6
CONTINUOUS
 62
     7
100
AcDbLine
 10
7.9631989617
 20
7.2591942746
 30
0.0
 11
7.933980358
 21
7.2085861685
 31
0.0
  0
LINE
  5
34A
330
1F
100
AcDbEntity
  8
0
  6
CONTINUOUS
 62
     7
100
AcDbLine
 10
7.7453593178
 20
6.8818849445
 30
0.0
 11
7.716129171
 21
6.8312568454
 31
0.0
  0
POLYLINE
  5
34B
330
1F
100
AcDbEntity
  8
0
  6
CONTINUOUS
 62
     7
100
AcDb2dPolyline
 66
     1
 10
0.0
 20
0.0
 30
0.0
  0
VERTEX
  5
632
330
34B
100
AcDbEntity
  8
0
  6
CONTINUOUS
 62
     7
100
AcDbVertex
100
AcDb2dVertex
 10
7.716129171
 20
6.8312568454
 30
0.0
  0
VERTEX
  5
633
330
34B
100
AcDbEntity
  8
0
  6
CONTINUOUS
 62
     7
100
AcDbVertex
100
AcDb2dVertex
 10
7.7094266984
 20
6.8187917071
 30
0.0
  0
VERTEX
  5
634
330
34B
100
AcDbEntity
  8
0
  6
CONTINUOUS
 62
     7
100
AcDbVertex
100
AcDb2dVertex
 10
7.7035390369
 20
6.8060350124
 30
0.0
  0
VERTEX
  5
635
330
34B
100
AcDbEntity
  8
0
  6
CONTINUOUS
 62
     7
100
AcDbVertex
100
AcDb2dVertex
 10
7.6985306928
 20
6.7931265262
 30
0.0
  0
VERTEX
  5
636
330
34B
100
AcDbEntity
  8
0
  6
CONTINUOUS
 62
     7
100
AcDbVertex
100
AcDb2dVertex
 10
7.6944565387
 20
6.7802076765
 30
0.0
  0
VERTEX
  5
637
330
34B
100
AcDbEntity
  8
0
  6
CONTINUOUS
 62
     7
100
AcDbVertex
100
AcDb2dVertex
 10
7.6913612119
 20
6.7674200051
 30
0.0
  0
VERTEX
  5
638
330
34B
100
AcDbEntity
  8
0
  6
CONTINUOUS
 62
     7
100
AcDbVertex
100
AcDb2dVertex
 10
7.6892786253
 20
6.7549036163
 30
0.0
  0
VERTEX
  5
639
330
34B
100
AcDbEntity
  8
0
  6
CONTINUOUS
 62
     7
100
AcDbVertex
100
AcDb2dVertex
 10
7.6882315963
 20
6.7427956423
 30
0.0
  0
VERTEX
  5
63A
330
34B
100
AcDbEntity
  8
0
  6
CONTINUOUS
 62
     7
100
AcDbVertex
100
AcDb2dVertex
 10
7.6882315963
 20
6.7312287406
 30
0.0
  0
VERTEX
  5
63B
330
34B
100
AcDbEntity
  8
0
  6
CONTINUOUS
 62
     7
100
AcDbVertex
100
AcDb2dVertex
 10
7.6892786253
 20
6.7203296405
 30
0.0
  0
VERTEX
  5
63C
330
34B
100
AcDbEntity
  8
0
  6
CONTINUOUS
 62
     7
100
AcDbVertex
100
AcDb2dVertex
 10
7.6913612119
 20
6.710217755
 30
0.0
  0
VERTEX
  5
63D
330
34B
100
AcDbEntity
  8
0
  6
CONTINUOUS
 62
     7
100
AcDbVertex
100
AcDb2dVertex
 10
7.6944565387
 20
6.7010038719
 30
0.0
  0
VERTEX
  5
63E
330
34B
100
AcDbEntity
  8
0
  6
CONTINUOUS
 62
     7
100
AcDbVertex
100
AcDb2dVertex
 10
7.6985306928
 20
6.6927889404
 30
0.0
  0
VERTEX
  5
63F
330
34B
100
AcDbEntity
  8
0
  6
CONTINUOUS
 62
     7
100
AcDbVertex
100
AcDb2dVertex
 10
7.7035390369
 20
6.6856629652
 30
0.0
  0
VERTEX
  5
640
330
34B
100
AcDbEntity
  8
0
  6
CONTINUOUS
 62
     7
100
AcDbVertex
100
AcDb2dVertex
 10
7.7094266984
 20
6.6797040198
 30
0.0
  0
VERTEX
  5
641
330
34B
100
AcDbEntity
  8
0
  6
CONTINUOUS
 62
     7
100
AcDbVertex
100
AcDb2dVertex
 10
7.716129171
 20
6.6749773917
 30
0.0
  0
SEQEND
  5
642
330
34B
100
AcDbEntity
  8
0
  6
CONTINUOUS
 62
     7
  0
POLYLINE
  5
34C
330
1F
100
AcDbEntity
  8
0
  6
CONTINUOUS
 62
     7
100
AcDb2dPolyline
 66
     1
 10
0.0
 20
0.0
 30
0.0
  0
VERTEX
  5
643
330
34C
100
AcDbEntity
  8
0
  6
CONTINUOUS
 62
     7
100
AcDbVertex
100
AcDb2dVertex
 10
8.0985336074
 20
7.3373213025
 30
0.0
  0
VERTEX
  5
644
330
34C
100
AcDbEntity
  8
0
  6
CONTINUOUS
 62
     7
100
AcDbVertex
100
AcDb2dVertex
 10
8.0910897574
 20
7.3407638274
 30
0.0
  0
VERTEX
  5
645
330
34C
100
AcDbEntity
  8
0
  6
CONTINUOUS
 62
     7
100
AcDbVertex
100
AcDb2dVertex
 10
8.0829860865
 20
7.342884532
 30
0.0
  0
VERTEX
  5
646
330
34C
100
AcDbEntity
  8
0
  6
CONTINUOUS
 62
     7
100
AcDbVertex
100
AcDb2dVertex
 10
8.0743113801
 20
7.3436601815
 30
0.0
  0
VERTEX
  5
647
330
34C
100
AcDbEntity
  8
0
  6
CONTINUOUS
 62
     7
100
AcDbVertex
100
AcDb2dVertex
 10
8.0651606802
 20
7.3430822776
 30
0.0
  0
VERTEX
  5
648
330
34C
100
AcDbEntity
  8
0
  6
CONTINUOUS
 62
     7
100
AcDbVertex
100
AcDb2dVertex
 10
8.0556342437
 20
7.3411571521
 30
0.0
  0
VERTEX
  5
649
330
34C
100
AcDbEntity
  8
0
  6
CONTINUOUS
 62
     7
100
AcDbVertex
100
AcDb2dVertex
 10
8.0458364442
 20
7.3379058969
 30
0.0
  0
VERTEX
  5
64A
330
34C
100
AcDbEntity
  8
0
  6
CONTINUOUS
 62
     7
100
AcDbVertex
100
AcDb2dVertex
 10
8.0358746286
 20
7.3333641336
 30
0.0
  0
VERTEX
  5
64B
330
34C
100
AcDbEntity
  8
0
  6
CONTINUOUS
 62
     7
100
AcDbVertex
100
AcDb2dVertex
 10
8.0258579405
 20
7.3275816227
 30
0.0
  0
VERTEX
  5
64C
330
34C
100
AcDbEntity
  8
0
  6
CONTINUOUS
 62
     7
100
AcDbVertex
100
AcDb2dVertex
 10
8.0158961248
 20
7.3206217184
 30
0.0
  0
VERTEX
  5
64D
330
34C
100
AcDbEntity
  8
0
  6
CONTINUOUS
 62
     7
100
AcDbVertex
100
AcDb2dVertex
 10
8.0060983254
 20
7.3125606751
 30
0.0
  0
VERTEX
  5
64E
330
34C
100
AcDbEntity
  8
0
  6
CONTINUOUS
 62
     7
100
AcDbVertex
100
AcDb2dVertex
 10
7.9965718889
 20
7.3034868112
 30
0.0
  0
VERTEX
  5
64F
330
34C
100
AcDbEntity
  8
0
  6
CONTINUOUS
 62
     7
100
AcDbVertex
100
AcDb2dVertex
 10
7.9874211889
 20
7.2934995418
 30
0.0
  0
VERTEX
  5
650
330
34C
100
AcDbEntity
  8
0
  6
CONTINUOUS
 62
     7
100
AcDbVertex
100
AcDb2dVertex
 10
7.9787464826
 20
7.2827082895
 30
0.0
  0
VERTEX
  5
651
330
34C
100
AcDbEntity
  8
0
  6
CONTINUOUS
 62
     7
100
AcDbVertex
100
AcDb2dVertex
 10
7.9706428116
 20
7.2712312856
 30
0.0
  0
VERTEX
  5
652
330
34C
100
AcDbEntity
  8
0
  6
CONTINUOUS
 62
     7
100
AcDbVertex
100
AcDb2dVertex
 10
7.9631989617
 20
7.2591942746
 30
0.0
  0
SEQEND
  5
653
330
34C
100
AcDbEntity
  8
0
  6
CONTINUOUS
 62
     7
  0
ARC
  5
34D
330
1F
100
AcDbEntity
  8
0
  6
CONTINUOUS
 62
     7
100
AcDbCircle
 10
8.3844379707
 20
7.0395891236
 30
0.0
 40
0.1431373480101474
100
AcDbArc
 50
104.9250482654
 51
143.5785566368
  0
ARC
  5
34E
330
1F
100
AcDbEntity
  8
0
  6
CONTINUOUS
 62
     7
100
AcDbCircle
 10
8.1146991782
 20
6.5764435851
 30
0.0
 40
0.1410148504023732
100
AcDbArc
 50
156.1105727934
 51
195.383200973
  0
LINE
  5
34F
330
1F
100
AcDbEntity
  8
0
  6
CONTINUOUS
 62
     7
100
AcDbLine
 10
8.2276680334
 20
7.1065195292
 30
0.0
 11
8.202041516
 21
7.0621330992
 31
0.0
  0
LINE
  5
350
330
1F
100
AcDbEntity
  8
0
  6
CONTINUOUS
 62
     7
100
AcDbLine
 10
8.006232112
 20
6.7229812639
 30
0.0
 11
7.9805982427
 21
6.6785821
 31
0.0
  0
POLYLINE
  5
351
330
1F
100
AcDbEntity
  8
0
  6
CONTINUOUS
 62
     7
100
AcDb2dPolyline
 66
     1
 10
0.0
 20
0.0
 30
0.0
  0
VERTEX
  5
654
330
351
100
AcDbEntity
  8
0
  6
CONTINUOUS
 62
     7
100
AcDbVertex
100
AcDb2dVertex
 10
7.9805982427
 20
6.6785821
 30
0.0
  0
VERTEX
  5
655
330
351
100
AcDbEntity
  8
0
  6
CONTINUOUS
 62
     7
100
AcDbVertex
100
AcDb2dVertex
 10
7.9738957701
 20
6.6661169618
 30
0.0
  0
VERTEX
  5
656
330
351
100
AcDbEntity
  8
0
  6
CONTINUOUS
 62
     7
100
AcDbVertex
100
AcDb2dVertex
 10
7.9680081086
 20
6.6533602671
 30
0.0
  0
VERTEX
  5
657
330
351
100
AcDbEntity
  8
0
  6
CONTINUOUS
 62
     7
100
AcDbVertex
100
AcDb2dVertex
 10
7.9629997645
 20
6.6404517808
 30
0.0
  0
VERTEX
  5
658
330
351
100
AcDbEntity
  8
0
  6
CONTINUOUS
 62
     7
100
AcDbVertex
100
AcDb2dVertex
 10
7.9589256104
 20
6.6275329312
 30
0.0
  0
VERTEX
  5
659
330
351
100
AcDbEntity
  8
0
  6
CONTINUOUS
 62
     7
100
AcDbVertex
100
AcDb2dVertex
 10
7.9558302836
 20
6.6147452598
 30
0.0
  0
VERTEX
  5
65A
330
351
100
AcDbEntity
  8
0
  6
CONTINUOUS
 62
     7
100
AcDbVertex
100
AcDb2dVertex
 10
7.953747697
 20
6.602228871
 30
0.0
  0
VERTEX
  5
65B
330
351
100
AcDbEntity
  8
0
  6
CONTINUOUS
 62
     7
100
AcDbVertex
100
AcDb2dVertex
 10
7.952700668
 20
6.590120897
 30
0.0
  0
VERTEX
  5
65C
330
351
100
AcDbEntity
  8
0
  6
CONTINUOUS
 62
     7
100
AcDbVertex
100
AcDb2dVertex
 10
7.952700668
 20
6.5785539952
 30
0.0
  0
VERTEX
  5
65D
330
351
100
AcDbEntity
  8
0
  6
CONTINUOUS
 62
     7
100
AcDbVertex
100
AcDb2dVertex
 10
7.953747697
 20
6.5676548952
 30
0.0
  0
VERTEX
  5
65E
330
351
100
AcDbEntity
  8
0
  6
CONTINUOUS
 62
     7
100
AcDbVertex
100
AcDb2dVertex
 10
7.9558302836
 20
6.5575430097
 30
0.0
  0
VERTEX
  5
65F
330
351
100
AcDbEntity
  8
0
  6
CONTINUOUS
 62
     7
100
AcDbVertex
100
AcDb2dVertex
 10
7.9589256104
 20
6.5483291265
 30
0.0
  0
VERTEX
  5
660
330
351
100
AcDbEntity
  8
0
  6
CONTINUOUS
 62
     7
100
AcDbVertex
100
AcDb2dVertex
 10
7.9629997645
 20
6.5401141951
 30
0.0
  0
VERTEX
  5
661
330
351
100
AcDbEntity
  8
0
  6
CONTINUOUS
 62
     7
100
AcDbVertex
100
AcDb2dVertex
 10
7.9680081086
 20
6.5329882199
 30
0.0
  0
VERTEX
  5
662
330
351
100
AcDbEntity
  8
0
  6
CONTINUOUS
 62
     7
100
AcDbVertex
100
AcDb2dVertex
 10
7.9738957701
 20
6.5270292745
 30
0.0
  0
VERTEX
  5
663
330
351
100
AcDbEntity
  8
0
  6
CONTINUOUS
 62
     7
100
AcDbVertex
100
AcDb2dVertex
 10
7.9792838288
 20
6.5230917614
 30
0.0
  0
SEQEND
  5
664
330
351
100
AcDbEntity
  8
0
  6
CONTINUOUS
 62
     7
  0
POLYLINE
  5
352
330
1F
100
AcDbEntity
  8
0
  6
CONTINUOUS
 62
     7
100
AcDb2dPolyline
 66
     1
 10
0.0
 20
0.0
 30
0.0
  0
VERTEX
  5
665
330
352
100
AcDbEntity
  8
0
  6
CONTINUOUS
 62
     7
100
AcDbVertex
100
AcDb2dVertex
 10
8.3613463177
 20
7.1855573515
 30
0.0
  0
VERTEX
  5
666
330
352
100
AcDbEntity
  8
0
  6
CONTINUOUS
 62
     7
100
AcDbVertex
100
AcDb2dVertex
 10
8.3555588291
 20
7.1880890821
 30
0.0
  0
VERTEX
  5
667
330
352
100
AcDbEntity
  8
0
  6
CONTINUOUS
 62
     7
100
AcDbVertex
100
AcDb2dVertex
 10
8.3474551582
 20
7.1902097867
 30
0.0
  0
VERTEX
  5
668
330
352
100
AcDbEntity
  8
0
  6
CONTINUOUS
 62
     7
100
AcDbVertex
100
AcDb2dVertex
 10
8.3387804518
 20
7.1909854361
 30
0.0
  0
VERTEX
  5
669
330
352
100
AcDbEntity
  8
0
  6
CONTINUOUS
 62
     7
100
AcDbVertex
100
AcDb2dVertex
 10
8.3296297519
 20
7.1904075323
 30
0.0
  0
VERTEX
  5
66A
330
352
100
AcDbEntity
  8
0
  6
CONTINUOUS
 62
     7
100
AcDbVertex
100
AcDb2dVertex
 10
8.3201033154
 20
7.1884824068
 30
0.0
  0
VERTEX
  5
66B
330
352
100
AcDbEntity
  8
0
  6
CONTINUOUS
 62
     7
100
AcDbVertex
100
AcDb2dVertex
 10
8.3103055159
 20
7.1852311516
 30
0.0
  0
VERTEX
  5
66C
330
352
100
AcDbEntity
  8
0
  6
CONTINUOUS
 62
     7
100
AcDbVertex
100
AcDb2dVertex
 10
8.3003437003
 20
7.1806893883
 30
0.0
  0
VERTEX
  5
66D
330
352
100
AcDbEntity
  8
0
  6
CONTINUOUS
 62
     7
100
AcDbVertex
100
AcDb2dVertex
 10
8.2903270122
 20
7.1749068774
 30
0.0
  0
VERTEX
  5
66E
330
352
100
AcDbEntity
  8
0
  6
CONTINUOUS
 62
     7
100
AcDbVertex
100
AcDb2dVertex
 10
8.2803651965
 20
7.1679469731
 30
0.0
  0
VERTEX
  5
66F
330
352
100
AcDbEntity
  8
0
  6
CONTINUOUS
 62
     7
100
AcDbVertex
100
AcDb2dVertex
 10
8.2705673971
 20
7.1598859298
 30
0.0
  0
VERTEX
  5
670
330
352
100
AcDbEntity
  8
0
  6
CONTINUOUS
 62
     7
100
AcDbVertex
100
AcDb2dVertex
 10
8.2610409606
 20
7.1508120659
 30
0.0
  0
VERTEX
  5
671
330
352
100
AcDbEntity
  8
0
  6
CONTINUOUS
 62
     7
100
AcDbVertex
100
AcDb2dVertex
 10
8.2518902606
 20
7.1408247965
 30
0.0
  0
VERTEX
  5
672
330
352
100
AcDbEntity
  8
0
  6
CONTINUOUS
 62
     7
100
AcDbVertex
100
AcDb2dVertex
 10
8.2432155543
 20
7.1300335442
 30
0.0
  0
VERTEX
  5
673
330
352
100
AcDbEntity
  8
0
  6
CONTINUOUS
 62
     7
100
AcDbVertex
100
AcDb2dVertex
 10
8.2351118833
 20
7.1185565403
 30
0.0
  0
VERTEX
  5
674
330
352
100
AcDbEntity
  8
0
  6
CONTINUOUS
 62
     7
100
AcDbVertex
100
AcDb2dVertex
 10
8.2276680334
 20
7.1065195292
 30
0.0
  0
SEQEND
  5
675
330
352
100
AcDbEntity
  8
0
  6
CONTINUOUS
 62
     7
  0
ARC
  5
353
330
1F
100
AcDbEntity
  8
0
  6
CONTINUOUS
 62
     8
100
AcDbCircle
 10
8.3512970958
 20
6.8953542108
 30
0.0
 40
0.1321817796647518
100
AcDbArc
 50
241.9037676328
 51
301.7041866747
  0
POLYLINE
  5
354
330
1F
100
AcDbEntity
  8
0
  6
CONTINUOUS
 62
     8
100
AcDb2dPolyline
 66
     1
 10
0.0
 20
0.0
 30
0.0
  0
VERTEX
  5
676
330
354
100
AcDbEntity
  8
0
  6
CONTINUOUS
 62
     8
100
AcDbVertex
100
AcDb2dVertex
 10
8.4401237106
 20
6.8120149507
 30
0.0
  0
VERTEX
  5
677
330
354
100
AcDbEntity
  8
0
  6
CONTINUOUS
 62
     8
100
AcDbVertex
100
AcDb2dVertex
 10
8.4402219533
 20
6.8165150998
 30
0.0
  0
VERTEX
  5
678
330
354
100
AcDbEntity
  8
0
  6
CONTINUOUS
 62
     8
100
AcDbVertex
100
AcDb2dVertex
 10
8.4391750637
 20
6.8229085235
 30
0.0
  0
VERTEX
  5
679
330
354
100
AcDbEntity
  8
0
  6
CONTINUOUS
 62
     8
100
AcDbVertex
100
AcDb2dVertex
 10
8.4367483719
 20
6.8291757871
 30
0.0
  0
VERTEX
  5
67A
330
354
100
AcDbEntity
  8
0
  6
CONTINUOUS
 62
     8
100
AcDbVertex
100
AcDb2dVertex
 10
8.432980148
 20
6.8352180523
 30
0.0
  0
VERTEX
  5
67B
330
354
100
AcDbEntity
  8
0
  6
CONTINUOUS
 62
     8
100
AcDbVertex
100
AcDb2dVertex
 10
8.4279298194
 20
6.8409400288
 30
0.0
  0
VERTEX
  5
67C
330
354
100
AcDbEntity
  8
0
  6
CONTINUOUS
 62
     8
100
AcDbVertex
100
AcDb2dVertex
 10
8.4216770327
 20
6.8462514777
 30
0.0
  0
VERTEX
  5
67D
330
354
100
AcDbEntity
  8
0
  6
CONTINUOUS
 62
     8
100
AcDbVertex
100
AcDb2dVertex
 10
8.414320398
 20
6.8510686342
 30
0.0
  0
VERTEX
  5
67E
330
354
100
AcDbEntity
  8
0
  6
CONTINUOUS
 62
     8
100
AcDbVertex
100
AcDb2dVertex
 10
8.405975934
 20
6.855315529
 30
0.0
  0
VERTEX
  5
67F
330
354
100
AcDbEntity
  8
0
  6
CONTINUOUS
 62
     8
100
AcDbVertex
100
AcDb2dVertex
 10
8.3967752377
 20
6.858925186
 30
0.0
  0
VERTEX
  5
680
330
354
100
AcDbEntity
  8
0
  6
CONTINUOUS
 62
     8
100
AcDbVertex
100
AcDb2dVertex
 10
8.3868634097
 20
6.8618406786
 30
0.0
  0
VERTEX
  5
681
330
354
100
AcDbEntity
  8
0
  6
CONTINUOUS
 62
     8
100
AcDbVertex
100
AcDb2dVertex
 10
8.3763967654
 20
6.8640160279
 30
0.0
  0
VERTEX
  5
682
330
354
100
AcDbEntity
  8
0
  6
CONTINUOUS
 62
     8
100
AcDbVertex
100
AcDb2dVertex
 10
8.36554037
 20
6.8654169273
 30
0.0
  0
VERTEX
  5
683
330
354
100
AcDbEntity
  8
0
  6
CONTINUOUS
 62
     8
100
AcDbVertex
100
AcDb2dVertex
 10
8.3544654355
 20
6.8660212838
 30
0.0
  0
VERTEX
  5
684
330
354
100
AcDbEntity
  8
0
  6
CONTINUOUS
 62
     8
100
AcDbVertex
100
AcDb2dVertex
 10
8.34334662
 20
6.8658195663
 30
0.0
  0
VERTEX
  5
685
330
354
100
AcDbEntity
  8
0
  6
CONTINUOUS
 62
     8
100
AcDbVertex
100
AcDb2dVertex
 10
8.332359274
 20
6.864814956
 30
0.0
  0
VERTEX
  5
686
330
354
100
AcDbEntity
  8
0
  6
CONTINUOUS
 62
     8
100
AcDbVertex
100
AcDb2dVertex
 10
8.3216766745
 20
6.8630232962
 30
0.0
  0
VERTEX
  5
687
330
354
100
AcDbEntity
  8
0
  6
CONTINUOUS
 62
     8
100
AcDbVertex
100
AcDb2dVertex
 10
8.3114672925
 20
6.8604728425
 30
0.0
  0
VERTEX
  5
688
330
354
100
AcDbEntity
  8
0
  6
CONTINUOUS
 62
     8
100
AcDbVertex
100
AcDb2dVertex
 10
8.3018921359
 20
6.857203817
 30
0.0
  0
VERTEX
  5
689
330
354
100
AcDbEntity
  8
0
  6
CONTINUOUS
 62
     8
100
AcDbVertex
100
AcDb2dVertex
 10
8.2931022109
 20
6.8532677743
 30
0.0
  0
VERTEX
  5
68A
330
354
100
AcDbEntity
  8
0
  6
CONTINUOUS
 62
     8
100
AcDbVertex
100
AcDb2dVertex
 10
8.2852361396
 20
6.848726788
 30
0.0
  0
VERTEX
  5
68B
330
354
100
AcDbEntity
  8
0
  6
CONTINUOUS
 62
     8
100
AcDbVertex
100
AcDb2dVertex
 10
8.2784179748
 20
6.8436524723
 30
0.0
  0
VERTEX
  5
68C
330
354
100
AcDbEntity
  8
0
  6
CONTINUOUS
 62
     8
100
AcDbVertex
100
AcDb2dVertex
 10
8.272755243
 20
6.8381248521
 30
0.0
  0
VERTEX
  5
68D
330
354
100
AcDbEntity
  8
0
  6
CONTINUOUS
 62
     8
100
AcDbVertex
100
AcDb2dVertex
 10
8.2683372489
 20
6.8322311013
 30
0.0
  0
VERTEX
  5
68E
330
354
100
AcDbEntity
  8
0
  6
CONTINUOUS
 62
     8
100
AcDbVertex
100
AcDb2dVertex
 10
8.2652336669
 20
6.8260641678
 30
0.0
  0
VERTEX
  5
68F
330
354
100
AcDbEntity
  8
0
  6
CONTINUOUS
 62
     8
100
AcDbVertex
100
AcDb2dVertex
 10
8.2634934422
 20
6.819721308
 30
0.0
  0
VERTEX
  5
690
330
354
100
AcDbEntity
  8
0
  6
CONTINUOUS
 62
     8
100
AcDbVertex
100
AcDb2dVertex
 10
8.2631440194
 20
6.8133025525
 30
0.0
  0
VERTEX
  5
691
330
354
100
AcDbEntity
  8
0
  6
CONTINUOUS
 62
     8
100
AcDbVertex
100
AcDb2dVertex
 10
8.2641909089
 20
6.8069091288
 30
0.0
  0
VERTEX
  5
692
330
354
100
AcDbEntity
  8
0
  6
CONTINUOUS
 62
     8
100
AcDbVertex
100
AcDb2dVertex
 10
8.2666176008
 20
6.8006418652
 30
0.0
  0
VERTEX
  5
693
330
354
100
AcDbEntity
  8
0
  6
CONTINUOUS
 62
     8
100
AcDbVertex
100
AcDb2dVertex
 10
8.2703858246
 20
6.7945996
 30
0.0
  0
VERTEX
  5
694
330
354
100
AcDbEntity
  8
0
  6
CONTINUOUS
 62
     8
100
AcDbVertex
100
AcDb2dVertex
 10
8.2754361532
 20
6.7888776235
 30
0.0
  0
VERTEX
  5
695
330
354
100
AcDbEntity
  8
0
  6
CONTINUOUS
 62
     8
100
AcDbVertex
100
AcDb2dVertex
 10
8.28168894
 20
6.7835661746
 30
0.0
  0
VERTEX
  5
696
330
354
100
AcDbEntity
  8
0
  6
CONTINUOUS
 62
     8
100
AcDbVertex
100
AcDb2dVertex
 10
8.2890455746
 20
6.778749018
 30
0.0
  0
VERTEX
  5
697
330
354
100
AcDbEntity
  8
0
  6
CONTINUOUS
 62
     8
100
AcDbVertex
100
AcDb2dVertex
 10
8.2890455746
 20
6.778749018
 30
0.0
  0
SEQEND
  5
698
330
354
100
AcDbEntity
  8
0
  6
CONTINUOUS
 62
     8
  0
ARC
  5
355
330
1F
100
AcDbEntity
  8
0
  6
CONTINUOUS
 62
     8
100
AcDbCircle
 10
8.2962526552
 20
6.8032678114
 30
0.0
 40
0.0530189229824425
100
AcDbArc
 50
184.743167843
 51
246.5173694189
  0
ARC
  5
356
330
1F
100
AcDbEntity
  8
0
  6
CONTINUOUS
 62
     8
100
AcDbCircle
 10
8.3515209586
 20
6.9025919414
 30
0.0
 40
0.1665112101496457
100
AcDbArc
 50
242.6905061853
 51
279.3302025954
  0
ARC
  5
357
330
1F
100
AcDbEntity
  8
0
  6
CONTINUOUS
 62
     8
100
AcDbCircle
 10
7.9481359556
 20
7.4245306917
 30
0.0
 40
0.1664064171465503
100
AcDbArc
 50
20.8549596803
 51
57.3173392151
  0
ARC
  5
358
330
1F
100
AcDbEntity
  8
0
  6
CONTINUOUS
 62
     8
100
AcDbCircle
 10
8.0061224791
 20
7.5187389338
 30
0.0
 40
0.0558400854857583
100
AcDbArc
 50
55.1976800934
 51
113.4918614775
  0
POLYLINE
  5
359
330
1F
100
AcDbEntity
  8
0
  6
CONTINUOUS
 62
     8
100
AcDb2dPolyline
 66
     1
 10
0.0
 20
0.0
 30
0.0
  0
VERTEX
  5
699
330
359
100
AcDbEntity
  8
0
  6
CONTINUOUS
 62
     8
100
AcDbVertex
100
AcDb2dVertex
 10
8.5509772806
 20
7.217513563
 30
0.0
  0
VERTEX
  5
69A
330
359
100
AcDbEntity
  8
0
  6
CONTINUOUS
 62
     8
100
AcDbVertex
100
AcDb2dVertex
 10
8.53930626
 20
7.2267182117
 30
0.0
  0
VERTEX
  5
69B
330
359
100
AcDbEntity
  8
0
  6
CONTINUOUS
 62
     8
100
AcDbVertex
100
AcDb2dVertex
 10
8.5265562879
 20
7.2350690884
 30
0.0
  0
VERTEX
  5
69C
330
359
100
AcDbEntity
  8
0
  6
CONTINUOUS
 62
     8
100
AcDbVertex
100
AcDb2dVertex
 10
8.5131173174
 20
7.2422368473
 30
0.0
  0
VERTEX
  5
69D
330
359
100
AcDbEntity
  8
0
  6
CONTINUOUS
 62
     8
100
AcDbVertex
100
AcDb2dVertex
 10
8.4990255778
 20
7.2482021654
 30
0.0
  0
VERTEX
  5
69E
330
359
100
AcDbEntity
  8
0
  6
CONTINUOUS
 62
     8
100
AcDbVertex
100
AcDb2dVertex
 10
8.4843190578
 20
7.2529489612
 30
0.0
  0
VERTEX
  5
69F
330
359
100
AcDbEntity
  8
0
  6
CONTINUOUS
 62
     8
100
AcDbVertex
100
AcDb2dVertex
 10
8.4690374036
 20
7.2564644382
 30
0.0
  0
VERTEX
  5
6A0
330
359
100
AcDbEntity
  8
0
  6
CONTINUOUS
 62
     8
100
AcDbVertex
100
AcDb2dVertex
 10
8.4532218119
 20
7.2587391193
 30
0.0
  0
VERTEX
  5
6A1
330
359
100
AcDbEntity
  8
0
  6
CONTINUOUS
 62
     8
100
AcDbVertex
100
AcDb2dVertex
 10
8.4369149186
 20
7.2597668724
 30
0.0
  0
VERTEX
  5
6A2
330
359
100
AcDbEntity
  8
0
  6
CONTINUOUS
 62
     8
100
AcDbVertex
100
AcDb2dVertex
 10
8.4201606844
 20
7.2595449268
 30
0.0
  0
VERTEX
  5
6A3
330
359
100
AcDbEntity
  8
0
  6
CONTINUOUS
 62
     8
100
AcDbVertex
100
AcDb2dVertex
 10
8.4030042755
 20
7.2580738809
 30
0.0
  0
VERTEX
  5
6A4
330
359
100
AcDbEntity
  8
0
  6
CONTINUOUS
 62
     8
100
AcDbVertex
100
AcDb2dVertex
 10
8.3854919428
 20
7.2553577003
 30
0.0
  0
VERTEX
  5
6A5
330
359
100
AcDbEntity
  8
0
  6
CONTINUOUS
 62
     8
100
AcDbVertex
100
AcDb2dVertex
 10
8.3676708963
 20
7.2514037073
 30
0.0
  0
VERTEX
  5
6A6
330
359
100
AcDbEntity
  8
0
  6
CONTINUOUS
 62
     8
100
AcDbVertex
100
AcDb2dVertex
 10
8.3495891785
 20
7.2462225613
 30
0.0
  0
VERTEX
  5
6A7
330
359
100
AcDbEntity
  8
0
  6
CONTINUOUS
 62
     8
100
AcDbVertex
100
AcDb2dVertex
 10
8.3312955344
 20
7.2398282297
 30
0.0
  0
VERTEX
  5
6A8
330
359
100
AcDbEntity
  8
0
  6
CONTINUOUS
 62
     8
100
AcDbVertex
100
AcDb2dVertex
 10
8.3128392804
 20
7.2322379505
 30
0.0
  0
VERTEX
  5
6A9
330
359
100
AcDbEntity
  8
0
  6
CONTINUOUS
 62
     8
100
AcDbVertex
100
AcDb2dVertex
 10
8.2942701715
 20
7.2234721857
 30
0.0
  0
VERTEX
  5
6AA
330
359
100
AcDbEntity
  8
0
  6
CONTINUOUS
 62
     8
100
AcDbVertex
100
AcDb2dVertex
 10
8.2756382665
 20
7.2135545663
 30
0.0
  0
VERTEX
  5
6AB
330
359
100
AcDbEntity
  8
0
  6
CONTINUOUS
 62
     8
100
AcDbVertex
100
AcDb2dVertex
 10
8.2569937939
 20
7.2025118285
 30
0.0
  0
VERTEX
  5
6AC
330
359
100
AcDbEntity
  8
0
  6
CONTINUOUS
 62
     8
100
AcDbVertex
100
AcDb2dVertex
 10
8.2383870159
 20
7.1903737414
 30
0.0
  0
VERTEX
  5
6AD
330
359
100
AcDbEntity
  8
0
  6
CONTINUOUS
 62
     8
100
AcDbVertex
100
AcDb2dVertex
 10
8.2198680929
 20
7.1771730273
 30
0.0
  0
VERTEX
  5
6AE
330
359
100
AcDbEntity
  8
0
  6
CONTINUOUS
 62
     8
100
AcDbVertex
100
AcDb2dVertex
 10
8.2014869488
 20
7.1629452729
 30
0.0
  0
VERTEX
  5
6AF
330
359
100
AcDbEntity
  8
0
  6
CONTINUOUS
 62
     8
100
AcDbVertex
100
AcDb2dVertex
 10
8.1832931359
 20
7.1477288337
 30
0.0
  0
VERTEX
  5
6B0
330
359
100
AcDbEntity
  8
0
  6
CONTINUOUS
 62
     8
100
AcDbVertex
100
AcDb2dVertex
 10
8.1653357014
 20
7.1315647307
 30
0.0
  0
VERTEX
  5
6B1
330
359
100
AcDbEntity
  8
0
  6
CONTINUOUS
 62
     8
100
AcDbVertex
100
AcDb2dVertex
 10
8.1476630555
 20
7.1144965392
 30
0.0
  0
VERTEX
  5
6B2
330
359
100
AcDbEntity
  8
0
  6
CONTINUOUS
 62
     8
100
AcDbVertex
100
AcDb2dVertex
 10
8.1303228405
 20
7.0965702722
 30
0.0
  0
VERTEX
  5
6B3
330
359
100
AcDbEntity
  8
0
  6
CONTINUOUS
 62
     8
100
AcDbVertex
100
AcDb2dVertex
 10
8.1133618025
 20
7.0778342557
 30
0.0
  0
VERTEX
  5
6B4
330
359
100
AcDbEntity
  8
0
  6
CONTINUOUS
 62
     8
100
AcDbVertex
100
AcDb2dVertex
 10
8.0968256655
 20
7.0583389988
 30
0.0
  0
VERTEX
  5
6B5
330
359
100
AcDbEntity
  8
0
  6
CONTINUOUS
 62
     8
100
AcDbVertex
100
AcDb2dVertex
 10
8.080759008
 20
7.038137057
 30
0.0
  0
VERTEX
  5
6B6
330
359
100
AcDbEntity
  8
0
  6
CONTINUOUS
 62
     8
100
AcDbVertex
100
AcDb2dVertex
 10
8.0652051428
 20
7.0172828914
 30
0.0
  0
VERTEX
  5
6B7
330
359
100
AcDbEntity
  8
0
  6
CONTINUOUS
 62
     8
100
AcDbVertex
100
AcDb2dVertex
 10
8.0502060005
 20
6.9958327211
 30
0.0
  0
VERTEX
  5
6B8
330
359
100
AcDbEntity
  8
0
  6
CONTINUOUS
 62
     8
100
AcDbVertex
100
AcDb2dVertex
 10
8.035802016
 20
6.9738443719
 30
0.0
  0
VERTEX
  5
6B9
330
359
100
AcDbEntity
  8
0
  6
CONTINUOUS
 62
     8
100
AcDbVertex
100
AcDb2dVertex
 10
8.02203202
 20
6.9513771206
 30
0.0
  0
VERTEX
  5
6BA
330
359
100
AcDbEntity
  8
0
  6
CONTINUOUS
 62
     8
100
AcDbVertex
100
AcDb2dVertex
 10
8.008933134
 20
6.9284915348
 30
0.0
  0
VERTEX
  5
6BB
330
359
100
AcDbEntity
  8
0
  6
CONTINUOUS
 62
     8
100
AcDbVertex
100
AcDb2dVertex
 10
7.9965406701
 20
6.9052493101
 30
0.0
  0
VERTEX
  5
6BC
330
359
100
AcDbEntity
  8
0
  6
CONTINUOUS
 62
     8
100
AcDbVertex
100
AcDb2dVertex
 10
7.9848880364
 20
6.8817131034
 30
0.0
  0
VERTEX
  5
6BD
330
359
100
AcDbEntity
  8
0
  6
CONTINUOUS
 62
     8
100
AcDbVertex
100
AcDb2dVertex
 10
7.9740066462
 20
6.8579463641
 30
0.0
  0
VERTEX
  5
6BE
330
359
100
AcDbEntity
  8
0
  6
CONTINUOUS
 62
     8
100
AcDbVertex
100
AcDb2dVertex
 10
7.9639258338
 20
6.8340131632
 30
0.0
  0
VERTEX
  5
6BF
330
359
100
AcDbEntity
  8
0
  6
CONTINUOUS
 62
     8
100
AcDbVertex
100
AcDb2dVertex
 10
7.9546727754
 20
6.8099780204
 30
0.0
  0
VERTEX
  5
6C0
330
359
100
AcDbEntity
  8
0
  6
CONTINUOUS
 62
     8
100
AcDbVertex
100
AcDb2dVertex
 10
7.9462724156
 20
6.7859057301
 30
0.0
  0
VERTEX
  5
6C1
330
359
100
AcDbEntity
  8
0
  6
CONTINUOUS
 62
     8
100
AcDbVertex
100
AcDb2dVertex
 10
7.9387474001
 20
6.761861187
 30
0.0
  0
VERTEX
  5
6C2
330
359
100
AcDbEntity
  8
0
  6
CONTINUOUS
 62
     8
100
AcDbVertex
100
AcDb2dVertex
 10
7.9321180153
 20
6.7379092109
 30
0.0
  0
VERTEX
  5
6C3
330
359
100
AcDbEntity
  8
0
  6
CONTINUOUS
 62
     8
100
AcDbVertex
100
AcDb2dVertex
 10
7.9264021326
 20
6.7141143722
 30
0.0
  0
VERTEX
  5
6C4
330
359
100
AcDbEntity
  8
0
  6
CONTINUOUS
 62
     8
100
AcDbVertex
100
AcDb2dVertex
 10
7.9216151611
 20
6.6905408174
 30
0.0
  0
VERTEX
  5
6C5
330
359
100
AcDbEntity
  8
0
  6
CONTINUOUS
 62
     8
100
AcDbVertex
100
AcDb2dVertex
 10
7.9177700057
 20
6.6672520968
 30
0.0
  0
VERTEX
  5
6C6
330
359
100
AcDbEntity
  8
0
  6
CONTINUOUS
 62
     8
100
AcDbVertex
100
AcDb2dVertex
 10
7.9148770321
 20
6.6443109926
 30
0.0
  0
VERTEX
  5
6C7
330
359
100
AcDbEntity
  8
0
  6
CONTINUOUS
 62
     8
100
AcDbVertex
100
AcDb2dVertex
 10
7.9129440394
 20
6.6217793499
 30
0.0
  0
VERTEX
  5
6C8
330
359
100
AcDbEntity
  8
0
  6
CONTINUOUS
 62
     8
100
AcDbVertex
100
AcDb2dVertex
 10
7.9119762386
 20
6.5997179102
 30
0.0
  0
VERTEX
  5
6C9
330
359
100
AcDbEntity
  8
0
  6
CONTINUOUS
 62
     8
100
AcDbVertex
100
AcDb2dVertex
 10
7.9119762386
 20
6.578186147
 30
0.0
  0
VERTEX
  5
6CA
330
359
100
AcDbEntity
  8
0
  6
CONTINUOUS
 62
     8
100
AcDbVertex
100
AcDb2dVertex
 10
7.9129440394
 20
6.5572421064
 30
0.0
  0
VERTEX
  5
6CB
330
359
100
AcDbEntity
  8
0
  6
CONTINUOUS
 62
     8
100
AcDbVertex
100
AcDb2dVertex
 10
7.9148770321
 20
6.5369422496
 30
0.0
  0
VERTEX
  5
6CC
330
359
100
AcDbEntity
  8
0
  6
CONTINUOUS
 62
     8
100
AcDbVertex
100
AcDb2dVertex
 10
7.9177700057
 20
6.5173413015
 30
0.0
  0
VERTEX
  5
6CD
330
359
100
AcDbEntity
  8
0
  6
CONTINUOUS
 62
     8
100
AcDbVertex
100
AcDb2dVertex
 10
7.9216151611
 20
6.4984921029
 30
0.0
  0
VERTEX
  5
6CE
330
359
100
AcDbEntity
  8
0
  6
CONTINUOUS
 62
     8
100
AcDbVertex
100
AcDb2dVertex
 10
7.9264021326
 20
6.4804454678
 30
0.0
  0
VERTEX
  5
6CF
330
359
100
AcDbEntity
  8
0
  6
CONTINUOUS
 62
     8
100
AcDbVertex
100
AcDb2dVertex
 10
7.9321180153
 20
6.4632500467
 30
0.0
  0
VERTEX
  5
6D0
330
359
100
AcDbEntity
  8
0
  6
CONTINUOUS
 62
     8
100
AcDbVertex
100
AcDb2dVertex
 10
7.9387474001
 20
6.4469521955
 30
0.0
  0
VERTEX
  5
6D1
330
359
100
AcDbEntity
  8
0
  6
CONTINUOUS
 62
     8
100
AcDbVertex
100
AcDb2dVertex
 10
7.9462724156
 20
6.4315958502
 30
0.0
  0
VERTEX
  5
6D2
330
359
100
AcDbEntity
  8
0
  6
CONTINUOUS
 62
     8
100
AcDbVertex
100
AcDb2dVertex
 10
7.9546727754
 20
6.417222409
 30
0.0
  0
VERTEX
  5
6D3
330
359
100
AcDbEntity
  8
0
  6
CONTINUOUS
 62
     8
100
AcDbVertex
100
AcDb2dVertex
 10
7.9639258338
 20
6.40387062
 30
0.0
  0
VERTEX
  5
6D4
330
359
100
AcDbEntity
  8
0
  6
CONTINUOUS
 62
     8
100
AcDbVertex
100
AcDb2dVertex
 10
7.9740066462
 20
6.3915764773
 30
0.0
  0
VERTEX
  5
6D5
330
359
100
AcDbEntity
  8
0
  6
CONTINUOUS
 62
     8
100
AcDbVertex
100
AcDb2dVertex
 10
7.9848880364
 20
6.3803731237
 30
0.0
  0
VERTEX
  5
6D6
330
359
100
AcDbEntity
  8
0
  6
CONTINUOUS
 62
     8
100
AcDbVertex
100
AcDb2dVertex
 10
7.9965406701
 20
6.3702907615
 30
0.0
  0
VERTEX
  5
6D7
330
359
100
AcDbEntity
  8
0
  6
CONTINUOUS
 62
     8
100
AcDbVertex
100
AcDb2dVertex
 10
8.008933134
 20
6.361356571
 30
0.0
  0
VERTEX
  5
6D8
330
359
100
AcDbEntity
  8
0
  6
CONTINUOUS
 62
     8
100
AcDbVertex
100
AcDb2dVertex
 10
8.02203202
 20
6.3535946372
 30
0.0
  0
VERTEX
  5
6D9
330
359
100
AcDbEntity
  8
0
  6
CONTINUOUS
 62
     8
100
AcDbVertex
100
AcDb2dVertex
 10
8.035802016
 20
6.3470258848
 30
0.0
  0
VERTEX
  5
6DA
330
359
100
AcDbEntity
  8
0
  6
CONTINUOUS
 62
     8
100
AcDbVertex
100
AcDb2dVertex
 10
8.0461497013
 20
6.3430317947
 30
0.0
  0
SEQEND
  5
6DB
330
359
100
AcDbEntity
  8
0
  6
CONTINUOUS
 62
     8
  0
POLYLINE
  5
35A
330
1F
100
AcDbEntity
  8
0
  6
CONTINUOUS
 62
     8
100
AcDb2dPolyline
 66
     1
 10
0.0
 20
0.0
 30
0.0
  0
VERTEX
  5
6DC
330
35A
100
AcDbEntity
  8
0
  6
CONTINUOUS
 62
     8
100
AcDbVertex
100
AcDb2dVertex
 10
7.9553472887
 20
6.4071030824
 30
0.0
  0
VERTEX
  5
6DD
330
35A
100
AcDbEntity
  8
0
  6
CONTINUOUS
 62
     8
100
AcDbVertex
100
AcDb2dVertex
 10
7.9494369247
 20
6.4158917133
 30
0.0
  0
VERTEX
  5
6DE
330
35A
100
AcDbEntity
  8
0
  6
CONTINUOUS
 62
     8
100
AcDbVertex
100
AcDb2dVertex
 10
7.9409714457
 20
6.4303765765
 30
0.0
  0
VERTEX
  5
6DF
330
35A
100
AcDbEntity
  8
0
  6
CONTINUOUS
 62
     8
100
AcDbVertex
100
AcDb2dVertex
 10
7.9333880969
 20
6.4458519632
 30
0.0
  0
VERTEX
  5
6E0
330
35A
100
AcDbEntity
  8
0
  6
CONTINUOUS
 62
     8
100
AcDbVertex
100
AcDb2dVertex
 10
7.9267073214
 20
6.4622761544
 30
0.0
  0
VERTEX
  5
6E1
330
35A
100
AcDbEntity
  8
0
  6
CONTINUOUS
 62
     8
100
AcDbVertex
100
AcDb2dVertex
 10
7.9209471296
 20
6.4796048733
 30
0.0
  0
VERTEX
  5
6E2
330
35A
100
AcDbEntity
  8
0
  6
CONTINUOUS
 62
     8
100
AcDbVertex
100
AcDb2dVertex
 10
7.9161230498
 20
6.4977914048
 30
0.0
  0
VERTEX
  5
6E3
330
35A
100
AcDbEntity
  8
0
  6
CONTINUOUS
 62
     8
100
AcDbVertex
100
AcDb2dVertex
 10
7.9122480869
 20
6.5167867213
 30
0.0
  0
VERTEX
  5
6E4
330
35A
100
AcDbEntity
  8
0
  6
CONTINUOUS
 62
     8
100
AcDbVertex
100
AcDb2dVertex
 10
7.9093326872
 20
6.5365396147
 30
0.0
  0
VERTEX
  5
6E5
330
35A
100
AcDbEntity
  8
0
  6
CONTINUOUS
 62
     8
100
AcDbVertex
100
AcDb2dVertex
 10
7.9073847101
 20
6.5569968347
 30
0.0
  0
VERTEX
  5
6E6
330
35A
100
AcDbEntity
  8
0
  6
CONTINUOUS
 62
     8
100
AcDbVertex
100
AcDb2dVertex
 10
7.9064094069
 20
6.5781032322
 30
0.0
  0
VERTEX
  5
6E7
330
35A
100
AcDbEntity
  8
0
  6
CONTINUOUS
 62
     8
100
AcDbVertex
100
AcDb2dVertex
 10
7.9064094069
 20
6.5998019083
 30
0.0
  0
VERTEX
  5
6E8
330
35A
100
AcDbEntity
  8
0
  6
CONTINUOUS
 62
     8
100
AcDbVertex
100
AcDb2dVertex
 10
7.9073847101
 20
6.6220343669
 30
0.0
  0
VERTEX
  5
6E9
330
35A
100
AcDbEntity
  8
0
  6
CONTINUOUS
 62
     8
100
AcDbVertex
100
AcDb2dVertex
 10
7.9093326872
 20
6.6447406735
 30
0.0
  0
VERTEX
  5
6EA
330
35A
100
AcDbEntity
  8
0
  6
CONTINUOUS
 62
     8
100
AcDbVertex
100
AcDb2dVertex
 10
7.9122480869
 20
6.6678596157
 30
0.0
  0
VERTEX
  5
6EB
330
35A
100
AcDbEntity
  8
0
  6
CONTINUOUS
 62
     8
100
AcDbVertex
100
AcDb2dVertex
 10
7.9161230498
 20
6.6913288691
 30
0.0
  0
VERTEX
  5
6EC
330
35A
100
AcDbEntity
  8
0
  6
CONTINUOUS
 62
     8
100
AcDbVertex
100
AcDb2dVertex
 10
7.9209471296
 20
6.7150851645
 30
0.0
  0
VERTEX
  5
6ED
330
35A
100
AcDbEntity
  8
0
  6
CONTINUOUS
 62
     8
100
AcDbVertex
100
AcDb2dVertex
 10
7.9267073214
 20
6.7390644594
 30
0.0
  0
VERTEX
  5
6EE
330
35A
100
AcDbEntity
  8
0
  6
CONTINUOUS
 62
     8
100
AcDbVertex
100
AcDb2dVertex
 10
7.9333880969
 20
6.7632021097
 30
0.0
  0
VERTEX
  5
6EF
330
35A
100
AcDbEntity
  8
0
  6
CONTINUOUS
 62
     8
100
AcDbVertex
100
AcDb2dVertex
 10
7.9409714457
 20
6.7874330446
 30
0.0
  0
VERTEX
  5
6F0
330
35A
100
AcDbEntity
  8
0
  6
CONTINUOUS
 62
     8
100
AcDbVertex
100
AcDb2dVertex
 10
7.9494369247
 20
6.8116919418
 30
0.0
  0
VERTEX
  5
6F1
330
35A
100
AcDbEntity
  8
0
  6
CONTINUOUS
 62
     8
100
AcDbVertex
100
AcDb2dVertex
 10
7.9587617122
 20
6.8359134036
 30
0.0
  0
VERTEX
  5
6F2
330
35A
100
AcDbEntity
  8
0
  6
CONTINUOUS
 62
     8
100
AcDbVertex
100
AcDb2dVertex
 10
7.9689206704
 20
6.8600321332
 30
0.0
  0
VERTEX
  5
6F3
330
35A
100
AcDbEntity
  8
0
  6
CONTINUOUS
 62
     8
100
AcDbVertex
100
AcDb2dVertex
 10
7.9798864124
 20
6.8839831107
 30
0.0
  0
VERTEX
  5
6F4
330
35A
100
AcDbEntity
  8
0
  6
CONTINUOUS
 62
     8
100
AcDbVertex
100
AcDb2dVertex
 10
7.9916293767
 20
6.9077017686
 30
0.0
  0
VERTEX
  5
6F5
330
35A
100
AcDbEntity
  8
0
  6
CONTINUOUS
 62
     8
100
AcDbVertex
100
AcDb2dVertex
 10
8.0041179061
 20
6.9311241656
 30
0.0
  0
VERTEX
  5
6F6
330
35A
100
AcDbEntity
  8
0
  6
CONTINUOUS
 62
     8
100
AcDbVertex
100
AcDb2dVertex
 10
8.017318334
 20
6.9541871591
 30
0.0
  0
VERTEX
  5
6F7
330
35A
100
AcDbEntity
  8
0
  6
CONTINUOUS
 62
     8
100
AcDbVertex
100
AcDb2dVertex
 10
8.0311950741
 20
6.9768285752
 30
0.0
  0
VERTEX
  5
6F8
330
35A
100
AcDbEntity
  8
0
  6
CONTINUOUS
 62
     8
100
AcDbVertex
100
AcDb2dVertex
 10
8.0457107174
 20
6.9989873767
 30
0.0
  0
VERTEX
  5
6F9
330
35A
100
AcDbEntity
  8
0
  6
CONTINUOUS
 62
     8
100
AcDbVertex
100
AcDb2dVertex
 10
8.0608261321
 20
7.0206038274
 30
0.0
  0
VERTEX
  5
6FA
330
35A
100
AcDbEntity
  8
0
  6
CONTINUOUS
 62
     8
100
AcDbVertex
100
AcDb2dVertex
 10
8.0765005699
 20
7.0416196532
 30
0.0
  0
VERTEX
  5
6FB
330
35A
100
AcDbEntity
  8
0
  6
CONTINUOUS
 62
     8
100
AcDbVertex
100
AcDb2dVertex
 10
8.0926917751
 20
7.0619781991
 30
0.0
  0
VERTEX
  5
6FC
330
35A
100
AcDbEntity
  8
0
  6
CONTINUOUS
 62
     8
100
AcDbVertex
100
AcDb2dVertex
 10
8.1093560992
 20
7.0816245821
 30
0.0
  0
VERTEX
  5
6FD
330
35A
100
AcDbEntity
  8
0
  6
CONTINUOUS
 62
     8
100
AcDbVertex
100
AcDb2dVertex
 10
8.1264486182
 20
7.100505839
 30
0.0
  0
VERTEX
  5
6FE
330
35A
100
AcDbEntity
  8
0
  6
CONTINUOUS
 62
     8
100
AcDbVertex
100
AcDb2dVertex
 10
8.1439232535
 20
7.1185710693
 30
0.0
  0
VERTEX
  5
6FF
330
35A
100
AcDbEntity
  8
0
  6
CONTINUOUS
 62
     8
100
AcDbVertex
100
AcDb2dVertex
 10
8.1617328966
 20
7.1357715723
 30
0.0
  0
VERTEX
  5
700
330
35A
100
AcDbEntity
  8
0
  6
CONTINUOUS
 62
     8
100
AcDbVertex
100
AcDb2dVertex
 10
8.179829536
 20
7.1520609785
 30
0.0
  0
VERTEX
  5
701
330
35A
100
AcDbEntity
  8
0
  6
CONTINUOUS
 62
     8
100
AcDbVertex
100
AcDb2dVertex
 10
8.1981643862
 20
7.1673953746
 30
0.0
  0
VERTEX
  5
702
330
35A
100
AcDbEntity
  8
0
  6
CONTINUOUS
 62
     8
100
AcDbVertex
100
AcDb2dVertex
 10
8.2166880198
 20
7.1817334216
 30
0.0
  0
VERTEX
  5
703
330
35A
100
AcDbEntity
  8
0
  6
CONTINUOUS
 62
     8
100
AcDbVertex
100
AcDb2dVertex
 10
8.2353505003
 20
7.1950364669
 30
0.0
  0
VERTEX
  5
704
330
35A
100
AcDbEntity
  8
0
  6
CONTINUOUS
 62
     8
100
AcDbVertex
100
AcDb2dVertex
 10
8.254101517
 20
7.2072686476
 30
0.0
  0
VERTEX
  5
705
330
35A
100
AcDbEntity
  8
0
  6
CONTINUOUS
 62
     8
100
AcDbVertex
100
AcDb2dVertex
 10
8.2728905204
 20
7.2183969881
 30
0.0
  0
VERTEX
  5
706
330
35A
100
AcDbEntity
  8
0
  6
CONTINUOUS
 62
     8
100
AcDbVertex
100
AcDb2dVertex
 10
8.2916668587
 20
7.2283914883
 30
0.0
  0
VERTEX
  5
707
330
35A
100
AcDbEntity
  8
0
  6
CONTINUOUS
 62
     8
100
AcDbVertex
100
AcDb2dVertex
 10
8.3103799142
 20
7.2372252047
 30
0.0
  0
VERTEX
  5
708
330
35A
100
AcDbEntity
  8
0
  6
CONTINUOUS
 62
     8
100
AcDbVertex
100
AcDb2dVertex
 10
8.3289792399
 20
7.2448743233
 30
0.0
  0
VERTEX
  5
709
330
35A
100
AcDbEntity
  8
0
  6
CONTINUOUS
 62
     8
100
AcDbVertex
100
AcDb2dVertex
 10
8.3474146952
 20
7.2513182234
 30
0.0
  0
VERTEX
  5
70A
330
35A
100
AcDbEntity
  8
0
  6
CONTINUOUS
 62
     8
100
AcDbVertex
100
AcDb2dVertex
 10
8.3656365814
 20
7.2565395333
 30
0.0
  0
VERTEX
  5
70B
330
35A
100
AcDbEntity
  8
0
  6
CONTINUOUS
 62
     8
100
AcDbVertex
100
AcDb2dVertex
 10
8.3835957755
 20
7.2605241773
 30
0.0
  0
VERTEX
  5
70C
330
35A
100
AcDbEntity
  8
0
  6
CONTINUOUS
 62
     8
100
AcDbVertex
100
AcDb2dVertex
 10
8.4012438628
 20
7.2632614136
 30
0.0
  0
VERTEX
  5
70D
330
35A
100
AcDbEntity
  8
0
  6
CONTINUOUS
 62
     8
100
AcDbVertex
100
AcDb2dVertex
 10
8.418533267
 20
7.264743863
 30
0.0
  0
VERTEX
  5
70E
330
35A
100
AcDbEntity
  8
0
  6
CONTINUOUS
 62
     8
100
AcDbVertex
100
AcDb2dVertex
 10
8.435417379
 20
7.2649675291
 30
0.0
  0
VERTEX
  5
70F
330
35A
100
AcDbEntity
  8
0
  6
CONTINUOUS
 62
     8
100
AcDbVertex
100
AcDb2dVertex
 10
8.4496118951
 20
7.2641495266
 30
0.0
  0
SEQEND
  5
710
330
35A
100
AcDbEntity
  8
0
  6
CONTINUOUS
 62
     8
  0
POLYLINE
  5
35B
330
1F
100
AcDbEntity
  8
0
  6
CONTINUOUS
 62
     8
100
AcDb2dPolyline
 66
     1
 10
0.0
 20
0.0
 30
0.0
  0
VERTEX
  5
711
330
35B
100
AcDbEntity
  8
0
  6
CONTINUOUS
 62
     8
100
AcDbVertex
100
AcDb2dVertex
 10
8.2591425697
 20
7.3735360238
 30
0.0
  0
VERTEX
  5
712
330
35B
100
AcDbEntity
  8
0
  6
CONTINUOUS
 62
     8
100
AcDbVertex
100
AcDb2dVertex
 10
8.2461132014
 20
7.3742505047
 30
0.0
  0
VERTEX
  5
713
330
35B
100
AcDbEntity
  8
0
  6
CONTINUOUS
 62
     8
100
AcDbVertex
100
AcDb2dVertex
 10
8.2292290894
 20
7.3740268386
 30
0.0
  0
VERTEX
  5
714
330
35B
100
AcDbEntity
  8
0
  6
CONTINUOUS
 62
     8
100
AcDbVertex
100
AcDb2dVertex
 10
8.2119396851
 20
7.3725443892
 30
0.0
  0
VERTEX
  5
715
330
35B
100
AcDbEntity
  8
0
  6
CONTINUOUS
 62
     8
100
AcDbVertex
100
AcDb2dVertex
 10
8.1942915979
 20
7.3698071529
 30
0.0
  0
VERTEX
  5
716
330
35B
100
AcDbEntity
  8
0
  6
CONTINUOUS
 62
     8
100
AcDbVertex
100
AcDb2dVertex
 10
8.1763324037
 20
7.3658225089
 30
0.0
  0
VERTEX
  5
717
330
35B
100
AcDbEntity
  8
0
  6
CONTINUOUS
 62
     8
100
AcDbVertex
100
AcDb2dVertex
 10
8.1581105175
 20
7.360601199
 30
0.0
  0
VERTEX
  5
718
330
35B
100
AcDbEntity
  8
0
  6
CONTINUOUS
 62
     8
100
AcDbVertex
100
AcDb2dVertex
 10
8.1396750622
 20
7.3541572989
 30
0.0
  0
VERTEX
  5
719
330
35B
100
AcDbEntity
  8
0
  6
CONTINUOUS
 62
     8
100
AcDbVertex
100
AcDb2dVertex
 10
8.1210757366
 20
7.3465081803
 30
0.0
  0
VERTEX
  5
71A
330
35B
100
AcDbEntity
  8
0
  6
CONTINUOUS
 62
     8
100
AcDbVertex
100
AcDb2dVertex
 10
8.102362681
 20
7.3376744639
 30
0.0
  0
VERTEX
  5
71B
330
35B
100
AcDbEntity
  8
0
  6
CONTINUOUS
 62
     8
100
AcDbVertex
100
AcDb2dVertex
 10
8.0835863427
 20
7.3276799637
 30
0.0
  0
VERTEX
  5
71C
330
35B
100
AcDbEntity
  8
0
  6
CONTINUOUS
 62
     8
100
AcDbVertex
100
AcDb2dVertex
 10
8.0647973393
 20
7.3165516232
 30
0.0
  0
VERTEX
  5
71D
330
35B
100
AcDbEntity
  8
0
  6
CONTINUOUS
 62
     8
100
AcDbVertex
100
AcDb2dVertex
 10
8.0460463227
 20
7.3043194425
 30
0.0
  0
VERTEX
  5
71E
330
35B
100
AcDbEntity
  8
0
  6
CONTINUOUS
 62
     8
100
AcDbVertex
100
AcDb2dVertex
 10
8.0273838422
 20
7.2910163972
 30
0.0
  0
VERTEX
  5
71F
330
35B
100
AcDbEntity
  8
0
  6
CONTINUOUS
 62
     8
100
AcDbVertex
100
AcDb2dVertex
 10
8.0088602086
 20
7.2766783502
 30
0.0
  0
VERTEX
  5
720
330
35B
100
AcDbEntity
  8
0
  6
CONTINUOUS
 62
     8
100
AcDbVertex
100
AcDb2dVertex
 10
7.9905253583
 20
7.2613439541
 30
0.0
  0
VERTEX
  5
721
330
35B
100
AcDbEntity
  8
0
  6
CONTINUOUS
 62
     8
100
AcDbVertex
100
AcDb2dVertex
 10
7.972428719
 20
7.2450545479
 30
0.0
  0
VERTEX
  5
722
330
35B
100
AcDbEntity
  8
0
  6
CONTINUOUS
 62
     8
100
AcDbVertex
100
AcDb2dVertex
 10
7.9546190758
 20
7.2278540449
 30
0.0
  0
VERTEX
  5
723
330
35B
100
AcDbEntity
  8
0
  6
CONTINUOUS
 62
     8
100
AcDbVertex
100
AcDb2dVertex
 10
7.9371444405
 20
7.2097888146
 30
0.0
  0
VERTEX
  5
724
330
35B
100
AcDbEntity
  8
0
  6
CONTINUOUS
 62
     8
100
AcDbVertex
100
AcDb2dVertex
 10
7.9200519216
 20
7.1909075577
 30
0.0
  0
VERTEX
  5
725
330
35B
100
AcDbEntity
  8
0
  6
CONTINUOUS
 62
     8
100
AcDbVertex
100
AcDb2dVertex
 10
7.9033875975
 20
7.1712611747
 30
0.0
  0
VERTEX
  5
726
330
35B
100
AcDbEntity
  8
0
  6
CONTINUOUS
 62
     8
100
AcDbVertex
100
AcDb2dVertex
 10
7.8871963922
 20
7.1509026288
 30
0.0
  0
VERTEX
  5
727
330
35B
100
AcDbEntity
  8
0
  6
CONTINUOUS
 62
     8
100
AcDbVertex
100
AcDb2dVertex
 10
7.8715219545
 20
7.129886803
 30
0.0
  0
VERTEX
  5
728
330
35B
100
AcDbEntity
  8
0
  6
CONTINUOUS
 62
     8
100
AcDbVertex
100
AcDb2dVertex
 10
7.8564065397
 20
7.1082703523
 30
0.0
  0
VERTEX
  5
729
330
35B
100
AcDbEntity
  8
0
  6
CONTINUOUS
 62
     8
100
AcDbVertex
100
AcDb2dVertex
 10
7.8418908965
 20
7.0861115508
 30
0.0
  0
VERTEX
  5
72A
330
35B
100
AcDbEntity
  8
0
  6
CONTINUOUS
 62
     8
100
AcDbVertex
100
AcDb2dVertex
 10
7.8280141563
 20
7.0634701347
 30
0.0
  0
VERTEX
  5
72B
330
35B
100
AcDbEntity
  8
0
  6
CONTINUOUS
 62
     8
100
AcDbVertex
100
AcDb2dVertex
 10
7.8148137285
 20
7.0404071412
 30
0.0
  0
VERTEX
  5
72C
330
35B
100
AcDbEntity
  8
0
  6
CONTINUOUS
 62
     8
100
AcDbVertex
100
AcDb2dVertex
 10
7.802325199
 20
7.0169847442
 30
0.0
  0
VERTEX
  5
72D
330
35B
100
AcDbEntity
  8
0
  6
CONTINUOUS
 62
     8
100
AcDbVertex
100
AcDb2dVertex
 10
7.7905822348
 20
6.9932660863
 30
0.0
  0
VERTEX
  5
72E
330
35B
100
AcDbEntity
  8
0
  6
CONTINUOUS
 62
     8
100
AcDbVertex
100
AcDb2dVertex
 10
7.7796164927
 20
6.9693151088
 30
0.0
  0
VERTEX
  5
72F
330
35B
100
AcDbEntity
  8
0
  6
CONTINUOUS
 62
     8
100
AcDbVertex
100
AcDb2dVertex
 10
7.7694575346
 20
6.9451963792
 30
0.0
  0
VERTEX
  5
730
330
35B
100
AcDbEntity
  8
0
  6
CONTINUOUS
 62
     8
100
AcDbVertex
100
AcDb2dVertex
 10
7.760132747
 20
6.9209749174
 30
0.0
  0
VERTEX
  5
731
330
35B
100
AcDbEntity
  8
0
  6
CONTINUOUS
 62
     8
100
AcDbVertex
100
AcDb2dVertex
 10
7.7516672681
 20
6.8967160202
 30
0.0
  0
VERTEX
  5
732
330
35B
100
AcDbEntity
  8
0
  6
CONTINUOUS
 62
     8
100
AcDbVertex
100
AcDb2dVertex
 10
7.7440839192
 20
6.8724850853
 30
0.0
  0
VERTEX
  5
733
330
35B
100
AcDbEntity
  8
0
  6
CONTINUOUS
 62
     8
100
AcDbVertex
100
AcDb2dVertex
 10
7.7374031438
 20
6.848347435
 30
0.0
  0
VERTEX
  5
734
330
35B
100
AcDbEntity
  8
0
  6
CONTINUOUS
 62
     8
100
AcDbVertex
100
AcDb2dVertex
 10
7.7316429519
 20
6.8243681401
 30
0.0
  0
VERTEX
  5
735
330
35B
100
AcDbEntity
  8
0
  6
CONTINUOUS
 62
     8
100
AcDbVertex
100
AcDb2dVertex
 10
7.7268188721
 20
6.8006118446
 30
0.0
  0
VERTEX
  5
736
330
35B
100
AcDbEntity
  8
0
  6
CONTINUOUS
 62
     8
100
AcDbVertex
100
AcDb2dVertex
 10
7.7229439093
 20
6.7771425913
 30
0.0
  0
VERTEX
  5
737
330
35B
100
AcDbEntity
  8
0
  6
CONTINUOUS
 62
     8
100
AcDbVertex
100
AcDb2dVertex
 10
7.7200285096
 20
6.7540236491
 30
0.0
  0
VERTEX
  5
738
330
35B
100
AcDbEntity
  8
0
  6
CONTINUOUS
 62
     8
100
AcDbVertex
100
AcDb2dVertex
 10
7.7180805324
 20
6.7313173425
 30
0.0
  0
VERTEX
  5
739
330
35B
100
AcDbEntity
  8
0
  6
CONTINUOUS
 62
     8
100
AcDbVertex
100
AcDb2dVertex
 10
7.7171052292
 20
6.7090848839
 30
0.0
  0
VERTEX
  5
73A
330
35B
100
AcDbEntity
  8
0
  6
CONTINUOUS
 62
     8
100
AcDbVertex
100
AcDb2dVertex
 10
7.7171052292
 20
6.6873862078
 30
0.0
  0
VERTEX
  5
73B
330
35B
100
AcDbEntity
  8
0
  6
CONTINUOUS
 62
     8
100
AcDbVertex
100
AcDb2dVertex
 10
7.7180805324
 20
6.6662798103
 30
0.0
  0
VERTEX
  5
73C
330
35B
100
AcDbEntity
  8
0
  6
CONTINUOUS
 62
     8
100
AcDbVertex
100
AcDb2dVertex
 10
7.7200285096
 20
6.6458225903
 30
0.0
  0
VERTEX
  5
73D
330
35B
100
AcDbEntity
  8
0
  6
CONTINUOUS
 62
     8
100
AcDbVertex
100
AcDb2dVertex
 10
7.7229439093
 20
6.6260696969
 30
0.0
  0
VERTEX
  5
73E
330
35B
100
AcDbEntity
  8
0
  6
CONTINUOUS
 62
     8
100
AcDbVertex
100
AcDb2dVertex
 10
7.7268188721
 20
6.6070743804
 30
0.0
  0
VERTEX
  5
73F
330
35B
100
AcDbEntity
  8
0
  6
CONTINUOUS
 62
     8
100
AcDbVertex
100
AcDb2dVertex
 10
7.7316429519
 20
6.5888878489
 30
0.0
  0
VERTEX
  5
740
330
35B
100
AcDbEntity
  8
0
  6
CONTINUOUS
 62
     8
100
AcDbVertex
100
AcDb2dVertex
 10
7.7374031438
 20
6.5715591299
 30
0.0
  0
VERTEX
  5
741
330
35B
100
AcDbEntity
  8
0
  6
CONTINUOUS
 62
     8
100
AcDbVertex
100
AcDb2dVertex
 10
7.7440839192
 20
6.5551349388
 30
0.0
  0
VERTEX
  5
742
330
35B
100
AcDbEntity
  8
0
  6
CONTINUOUS
 62
     8
100
AcDbVertex
100
AcDb2dVertex
 10
7.7516672681
 20
6.5396595521
 30
0.0
  0
VERTEX
  5
743
330
35B
100
AcDbEntity
  8
0
  6
CONTINUOUS
 62
     8
100
AcDbVertex
100
AcDb2dVertex
 10
7.760132747
 20
6.5251746889
 30
0.0
  0
VERTEX
  5
744
330
35B
100
AcDbEntity
  8
0
  6
CONTINUOUS
 62
     8
100
AcDbVertex
100
AcDb2dVertex
 10
7.7665914609
 20
6.5156175763
 30
0.0
  0
SEQEND
  5
745
330
35B
100
AcDbEntity
  8
0
  6
CONTINUOUS
 62
     8
  0
LINE
  5
35C
330
1F
100
AcDbEntity
  8
0
  6
CONTINUOUS
 62
     8
100
AcDbLine
 10
7.9770388021
 20
7.2512047048
 30
0.0
 11
7.9631989617
 21
7.2591942746
 31
0.0
  0
LINE
  5
35D
330
1F
100
AcDbEntity
  8
0
  6
CONTINUOUS
 62
     8
100
AcDbLine
 10
7.7299701647
 20
6.8232666098
 30
0.0
 11
7.716129171
 21
6.8312568454
 31
0.0
  0
LINE
  5
35E
330
1F
100
AcDbEntity
  8
0
  6
CONTINUOUS
 62
     8
100
AcDbLine
 10
7.9805982427
 20
6.6785821
 30
0.0
 11
7.9929241151
 21
6.6714665254
 31
0.0
  0
LINE
  5
35F
330
1F
100
AcDbEntity
  8
0
  6
CONTINUOUS
 62
     8
100
AcDbLine
 10
8.2276680334
 20
7.1065195292
 30
0.0
 11
8.2399909571
 21
7.0994056568
 31
0.0
  0
ENDSEC
  0
SECTION
  2
OBJECTS
  0
DICTIONARY
  5
C
330
0
100
AcDbDictionary
  3
ACAD_GROUP
350
D
  3
ACAD_LAYOUT
350
1A
  3
ACAD_MLEADERSTYLE
350
362
  3
ACAD_MLINESTYLE
350
17
  3
ACAD_PLOTSETTINGS
350
19
  3
ACAD_SCALELIST
350
6F
  3
ACAD_VISUALSTYLE
350
2A
  3
ACDBVARIABLEDICTIONARY
350
360
1001
ACAD
1000
TREAT_AS_HARD
1070
     0
  0
DICTIONARY
  5
D
102
{ACAD_REACTORS
330
C
102
}
330
C
100
AcDbDictionary
1001
ACAD
1000
TREAT_AS_HARD
1070
     0
  0
DICTIONARY
  5
1A
102
{ACAD_REACTORS
330
C
102
}
330
C
100
AcDbDictionary
1001
ACAD
1000
TREAT_AS_HARD
1070
     0
  0
DICTIONARY
  5
362
102
{ACAD_REACTORS
330
C
102
}
330
C
100
AcDbDictionary
1001
ACAD
1000
TREAT_AS_HARD
1070
     0
  0
DICTIONARY
  5
17
102
{ACAD_REACTORS
330
C
102
}
330
C
100
AcDbDictionary
  3
STANDARD
350
18
1001
ACAD
1000
TREAT_AS_HARD
1070
     0
  0
DICTIONARY
  5
19
102
{ACAD_REACTORS
330
C
102
}
330
C
100
AcDbDictionary
1001
ACAD
1000
TREAT_AS_HARD
1070
     0
  0
DICTIONARY
  5
6F
102
{ACAD_REACTORS
330
C
102
}
330
C
100
AcDbDictionary
  3
A0
350
70
  3
A1
350
71
  3
A2
350
72
  3
A3
350
73
  3
A4
350
74
  3
A5
350
75
  3
A6
350
76
  3
A7
350
77
  3
A8
350
78
  3
A9
350
79
  3
B0
350
7A
  3
B1
350
7B
  3
B2
350
7C
  3
B3
350
7D
  3
B4
350
7E
  3
B5
350
7F
  3
B6
350
80
  3
B7
350
81
  3
B8
350
82
  3
B9
350
83
  3
C0
350
84
  3
C1
350
85
  3
C2
350
86
  3
C3
350
87
  3
C4
350
88
  3
C5
350
89
  3
C6
350
8A
  3
C7
350
8B
  3
C8
350
8C
  3
C9
350
8D
  3
D0
350
8E
  3
D1
350
8F
  3
D2
350
90
1001
ACAD
1000
TREAT_AS_HARD
1070
     0
  0
DICTIONARY
  5
2A
102
{ACAD_REACTORS
330
C
102
}
330
C
100
AcDbDictionary
  3
2DWIREFRAME
350
2F
  3
3D_HIDDEN
350
31
  3
3DWIREFRAME
350
30
  3
BASIC
350
32
  3
BRIGHTEN
350
36
  3
COLORCHANGE
350
3A
  3
CONCEPTUAL
350
34
  3
DIM
350
35
  3
FACEPATTERN
350
39
  3
FLAT
350
2B
  3
FLATWITHEDGES
350
2C
  3
GOURAUD
350
2D
  3
GOURAUDWITHEDGES
350
2E
  3
LINEPATTERN
350
38
  3
REALISTIC
350
33
  3
THICKEN
350
37
1001
ACAD
1000
TREAT_AS_HARD
1070
     0
  0
DICTIONARY
  5
360
102
{ACAD_REACTORS
330
C
102
}
330
C
100
AcDbDictionary
  3
CANNOSCALE
350
363
  3
DIMASSOC
350
364
  3
HIDETEXT
350
365
1001
ACAD
1000
TREAT_AS_HARD
1070
     0
  0
MLINESTYLE
  5
18
102
{ACAD_REACTORS
330
17
102
}
330
17
100
AcDbMlineStyle
  2
Standard
 70
     0
  3

 62
   256
 51
90.0
 52
90.0
 71
     2
 49
0.5
 62
   256
  6
BYLAYER
 49
-0.5
 62
   256
  6
BYLAYER
  0
ACAD_PROXY_OBJECT
  5
70
102
{ACAD_REACTORS
330
6F
102
}
330
6F
100
AcDbZombieObject
 90
      499
 91
      502
 93
       41
310
903313A31580
  0
ACAD_PROXY_OBJECT
  5
71
102
{ACAD_REACTORS
330
6F
102
}
330
6F
100
AcDbZombieObject
 90
      499
 91
      502
 93
      105
310
903313A324000000000000004000
  0
ACAD_PROXY_OBJECT
  5
72
102
{ACAD_REACTORS
330
6F
102
}
330
6F
100
AcDbZombieObject
 90
      499
 91
      502
 93
      105
310
903313A344000000000000104000
  0
ACAD_PROXY_OBJECT
  5
73
102
{ACAD_REACTORS
330
6F
102
}
330
6F
100
AcDbZombieObject
 90
      499
 91
      502
 93
      105
310
903313A354000000000000144000
  0
ACAD_PROXY_OBJECT
  5
74
102
{ACAD_REACTORS
330
6F
102
}
330
6F
100
AcDbZombieObject
 90
      499
 91
      502
 93
      105
310
903313A384000000000000204000
  0
ACAD_PROXY_OBJECT
  5
75
102
{ACAD_REACTORS
330
6F
102
}
330
6F
100
AcDbZombieObject
 90
      499
 91
      502
 93
      113
310
904313A31304000000000000244000
  0
ACAD_PROXY_OBJECT
  5
76
102
{ACAD_REACTORS
330
6F
102
}
330
6F
100
AcDbZombieObject
 90
      499
 91
      502
 93
      113
310
904313A31364000000000000304000
  0
ACAD_PROXY_OBJECT
  5
77
102
{ACAD_REACTORS
330
6F
102
}
330
6F
100
AcDbZombieObject
 90
      499
 91
      502
 93
      113
310
904313A32304000000000000344000
  0
ACAD_PROXY_OBJECT
  5
78
102
{ACAD_REACTORS
330
6F
102
}
330
6F
100
AcDbZombieObject
 90
      499
 91
      502
 93
      113
310
904313A333040000000000003E4000
  0
ACAD_PROXY_OBJECT
  5
79
102
{ACAD_REACTORS
330
6F
102
}
330
6F
100
AcDbZombieObject
 90
      499
 91
      502
 93
      113
310
904313A34304000000000000444000
  0
ACAD_PROXY_OBJECT
  5
7A
102
{ACAD_REACTORS
330
6F
102
}
330
6F
100
AcDbZombieObject
 90
      499
 91
      502
 93
      113
310
904313A35304000000000000494000
  0
ACAD_PROXY_OBJECT
  5
7B
102
{ACAD_REACTORS
330
6F
102
}
330
6F
100
AcDbZombieObject
 90
      499
 91
      502
 93
      121
310
905313A3130304000000000000594000
  0
ACAD_PROXY_OBJECT
  5
7C
102
{ACAD_REACTORS
330
6F
102
}
330
6F
100
AcDbZombieObject
 90
      499
 91
      502
 93
      105
310
903323A310000000000000010100
  0
ACAD_PROXY_OBJECT
  5
7D
102
{ACAD_REACTORS
330
6F
102
}
330
6F
100
AcDbZombieObject
 90
      499
 91
      502
 93
      105
310
903343A310000000000000410100
  0
ACAD_PROXY_OBJECT
  5
7E
102
{ACAD_REACTORS
330
6F
102
}
330
6F
100
AcDbZombieObject
 90
      499
 91
      502
 93
      105
310
903383A310000000000000810100
  0
ACAD_PROXY_OBJECT
  5
7F
102
{ACAD_REACTORS
330
6F
102
}
330
6F
100
AcDbZombieObject
 90
      499
 91
      502
 93
      113
310
90431303A310000000000000910100
  0
ACAD_PROXY_OBJECT
  5
80
102
{ACAD_REACTORS
330
6F
102
}
330
6F
100
AcDbZombieObject
 90
      499
 91
      502
 93
      121
310
9053130303A310000000000001650100
  0
ACAD_PROXY_OBJECT
  5
81
102
{ACAD_REACTORS
330
6F
102
}
330
6F
100
AcDbZombieObject
 90
      499
 91
      502
 93
      257
310
90E312F31323822203D2031272D3022000000000000200FC000000000000284000
  0
ACAD_PROXY_OBJECT
  5
82
102
{ACAD_REACTORS
330
6F
102
}
330
6F
100
AcDbZombieObject
 90
      499
 91
      502
 93
      249
310
90D312F363422203D2031272D3022000000000000240FC000000000000284000
  0
ACAD_PROXY_OBJECT
  5
83
102
{ACAD_REACTORS
330
6F
102
}
330
6F
100
AcDbZombieObject
 90
      499
 91
      502
 93
      249
310
90D312F333222203D2031272D3022000000000000280FC000000000000284000
  0
ACAD_PROXY_OBJECT
  5
84
102
{ACAD_REACTORS
330
6F
102
}
330
6F
100
AcDbZombieObject
 90
      499
 91
      502
 93
      249
310
90D312F313622203D2031272D30220000000000002C0FC000000000000284000
  0
ACAD_PROXY_OBJECT
  5
85
102
{ACAD_REACTORS
330
6F
102
}
330
6F
100
AcDbZombieObject
 90
      499
 91
      502
 93
      249
310
90D332F333222203D2031272D30220000000000002E0FC000000000000284000
  0
ACAD_PROXY_OBJECT
  5
86
102
{ACAD_REACTORS
330
6F
102
}
330
6F
100
AcDbZombieObject
 90
      499
 91
      502
 93
      241
310
90C312F3822203D2031272D3022000000000000300FC000000000000284000
  0
ACAD_PROXY_OBJECT
  5
87
102
{ACAD_REACTORS
330
6F
102
}
330
6F
100
AcDbZombieObject
 90
      499
 91
      502
 93
      249
310
90D332F313622203D2031272D3022000000000000320FC000000000000284000
  0
ACAD_PROXY_OBJECT
  5
88
102
{ACAD_REACTORS
330
6F
102
}
330
6F
100
AcDbZombieObject
 90
      499
 91
      502
 93
      241
310
90C312F3422203D2031272D3022000000000000340FC000000000000284000
  0
ACAD_PROXY_OBJECT
  5
89
102
{ACAD_REACTORS
330
6F
102
}
330
6F
100
AcDbZombieObject
 90
      499
 91
      502
 93
      241
310
90C332F3822203D2031272D3022000000000000360FC000000000000284000
  0
ACAD_PROXY_OBJECT
  5
8A
102
{ACAD_REACTORS
330
6F
102
}
330
6F
100
AcDbZombieObject
 90
      499
 91
      502
 93
      241
310
90C312F3222203D2031272D3022000000000000380FC000000000000284000
  0
ACAD_PROXY_OBJECT
  5
8B
102
{ACAD_REACTORS
330
6F
102
}
330
6F
100
AcDbZombieObject
 90
      499
 91
      502
 93
      241
310
90C332F3422203D2031272D30220000000000003A0FC000000000000284000
  0
ACAD_PROXY_OBJECT
  5
8C
102
{ACAD_REACTORS
330
6F
102
}
330
6F
100
AcDbZombieObject
 90
      499
 91
      502
 93
      161
310
90A3122203D2031272D30224000000000000284000
  0
ACAD_PROXY_OBJECT
  5
8D
102
{ACAD_REACTORS
330
6F
102
}
330
6F
100
AcDbZombieObject
 90
      499
 91
      502
 93
      257
310
90E312D312F3222203D2031272D30220000000000003E0FC000000000000284000
  0
ACAD_PROXY_OBJECT
  5
8E
102
{ACAD_REACTORS
330
6F
102
}
330
6F
100
AcDbZombieObject
 90
      499
 91
      502
 93
      225
310
90A3322203D2031272D302200000000000002100000000000000284000
  0
ACAD_PROXY_OBJECT
  5
8F
102
{ACAD_REACTORS
330
6F
102
}
330
6F
100
AcDbZombieObject
 90
      499
 91
      502
 93
      225
310
90A3622203D2031272D302200000000000006100000000000000284000
  0
ACAD_PROXY_OBJECT
  5
90
102
{ACAD_REACTORS
330
6F
102
}
330
6F
100
AcDbZombieObject
 90
      499
 91
      502
 93
      249
310
90D31272D3022203D2031272D30220000000000000A100000000000000284000
  0
ACAD_PROXY_OBJECT
  5
2F
102
{ACAD_REACTORS
330
2A
102
}
330
2A
100
AcDbZombieObject
 90
      499
 91
      501
 93
      436
310
42CC9915DA5C99599C985B595049028333333333333E3BF0000000000000FB0107901411070040501600405405064090741402480A0340
1001
ACAD
1000
AcDbSavedByObjectVersion
1070
     0
  0
ACAD_PROXY_OBJECT
  5
31
102
{ACAD_REACTORS
330
2A
102
}
330
2A
100
AcDbZombieObject
 90
      499
 91
      501
 93
      500
310
424CD108121A5919195B90640502408333333333333E3BF0000000000000FB01079024090700405020000000000001110200405405064090740C02480A0340
1001
ACAD
1000
AcDbSavedByObjectVersion
1070
     0
  0
ACAD_PROXY_OBJECT
  5
30
102
{ACAD_REACTORS
330
2A
102
}
330
2A
100
AcDbZombieObject
 90
      499
 91
      501
 93
      436
310
42CCD915DA5C99599C985B595059028333333333333E3BF0000000000000FB0107901411070040501600405405064090741402480A0340
1001
ACAD
1000
AcDbSavedByObjectVersion
1070
     0
  0
ACAD_PROXY_OBJECT
  5
32
102
{ACAD_REACTORS
330
2A
102
}
330
2A
100
AcDbZombieObject
 90
      499
 91
      501
 93
      388
310
4150985CDA58D07406404333333333333E3BF0000000000000FB0107A41107004050150841D405064090741402480A0350
1001
ACAD
1000
AcDbSavedByObjectVersion
1070
     0
  0
ACAD_PROXY_OBJECT
  5
36
102
{ACAD_REACTORS
330
2A
102
}
330
2A
100
AcDbZombieObject
 90
      499
 91
      501
 93
      428
310
42109C9A59DA1D195B90C409028333333333333E3BF0000000000000FB010790141107004050150841D405064090741402480A029950
1001
ACAD
1000
AcDbSavedByObjectVersion
1070
     0
  0
ACAD_PROXY_OBJECT
  5
3A
102
{ACAD_REACTORS
330
2A
102
}
330
2A
100
AcDbZombieObject
 90
      499
 91
      501
 93
      452
310
42D0DBDB1BDC90DA185B99D95104090240C333333333333E3BF0000000000000FB0108901411070040501508421405064090741402480A0350
1001
ACAD
1000
AcDbSavedByObjectVersion
1070
     0
  0
ACAD_PROXY_OBJECT
  5
34
102
{ACAD_REACTORS
330
2A
102
}
330
2A
100
AcDbZombieObject
 90
      499
 91
      501
 93
      500
310
4290DBDB98D95C1D1D585B10940D028333333333333E3BF0000000000000FB0107902409070040501000000000000111010841D405064090740C02480A0340
1001
ACAD
1000
AcDbSavedByObjectVersion
1070
     0
  0
ACAD_PROXY_OBJECT
  5
35
102
{ACAD_REACTORS
330
2A
102
}
330
2A
100
AcDbZombieObject
 90
      499
 91
      501
 93
      412
310
40D11A5B50B409028333333333333E3BF0000000000000FB010790141107004050150841D405064090741402480A02677FFFFFD0
1001
ACAD
1000
AcDbSavedByObjectVersion
1070
     0
  0
ACAD_PROXY_OBJECT
  5
39
102
{ACAD_REACTORS
330
2A
102
}
330
2A
100
AcDbZombieObject
 90
      499
 91
      501
 93
      444
310
42D19858D95C185D1D195C9B90F409028333333333333E3BF0000000000000FB010790141107004050150841D405064090741402480A0350
1001
ACAD
1000
AcDbSavedByObjectVersion
1070
     0
  0
ACAD_PROXY_OBJECT
  5
2B
102
{ACAD_REACTORS
330
2A
102
}
330
2A
100
AcDbZombieObject
 90
      499
 91
      501
 93
      388
310
41119B185D240901404333333333333E3BF0000000000000F9010740A41107004050150841D405064090741402480A1B50
1001
ACAD
1000
AcDbSavedByObjectVersion
1070
     0
  0
ACAD_PROXY_OBJECT
  5
2C
102
{ACAD_REACTORS
330
2A
102
}
330
2A
100
AcDbZombieObject
 90
      499
 91
      501
 93
      476
310
43519B185D15DA5D1A115919D95CD0140901404333333333333E3BF0000000000000F9010740901411070040501600405405064090741402480A1B50
1001
ACAD
1000
AcDbSavedByObjectVersion
1070
     0
  0
ACAD_PROXY_OBJECT
  5
2D
102
{ACAD_REACTORS
330
2A
102
}
330
2A
100
AcDbZombieObject
 90
      499
 91
      501
 93
      412
310
41D1DBDD5C985D5910240902404333333333333E3BF0000000000000F9010740A411070040501641D405064090741402480A1B50
1001
ACAD
1000
AcDbSavedByObjectVersion
1070
     0
  0
ACAD_PROXY_OBJECT
  5
2E
102
{ACAD_REACTORS
330
2A
102
}
330
2A
100
AcDbZombieObject
 90
      499
 91
      501
 93
      500
310
4411DBDD5C985D5915DA5D1A115919D95CD0340902404333333333333E3BF0000000000000F9010740901411070040501600405405064090741402480A1B50
1001
ACAD
1000
AcDbSavedByObjectVersion
1070
     0
  0
ACAD_PROXY_OBJECT
  5
38
102
{ACAD_REACTORS
330
2A
102
}
330
2A
100
AcDbZombieObject
 90
      499
 91
      501
 93
      444
310
42D31A5B995C185D1D195C9B90E409028333333333333E3BF0000000000000FB010790141107004050750841D405064090741402483A0350
1001
ACAD
1000
AcDbSavedByObjectVersion
1070
     0
  0
ACAD_PROXY_OBJECT
  5
33
102
{ACAD_REACTORS
330
2A
102
}
330
2A
100
AcDbZombieObject
 90
      499
 91
      501
 93
      420
310
425499585B1A5CDD1A58D08409028333333333333E3BF0000000000000FB01079019070040501508421405064090741402480A1B40
1001
ACAD
1000
AcDbSavedByObjectVersion
1070
     0
  0
ACAD_PROXY_OBJECT
  5
37
102
{ACAD_REACTORS
330
2A
102
}
330
2A
100
AcDbZombieObject
 90
      499
 91
      501
 93
      412
310
41D51A1A58DAD95B90D409028333333333333E3BF0000000000000FB010790141107004050150C41D405064090741402480A0350
1001
ACAD
1000
AcDbSavedByObjectVersion
1070
     0
  0
DICTIONARYVAR
  5
363
102
{ACAD_REACTORS
330
360
102
}
330
360
100
DictionaryVariables
280
     0
  1
1:1
  0
DICTIONARYVAR
  5
364
102
{ACAD_REACTORS
330
360
102
}
330
360
100
DictionaryVariables
280
     0
  1
2
  0
DICTIONARYVAR
  5
365
102
{ACAD_REACTORS
330
360
102
}
330
360
100
DictionaryVariables
280
     0
  1
1
  0
ENDSEC
  0
EOF
