  0
SECTION
  2
HEADER
  9
$ACADVER
  1
AC1012
  9
$DWGCODEPAGE
  3
ansi_1252
  9
$INSBASE
 10
0.0
 20
0.0
 30
0.0
  9
$EXTMIN
 10
0.0
 20
0.0
 30
0.0
  9
$EXTMAX
 10
11.0
 20
8.5
 30
0.0
  9
$LIMMIN
 10
0.0
 20
0.0
  9
$LIMMAX
 10
11.0
 20
8.5
  9
$ORTHOMODE
 70
     0
  9
$REGENMODE
 70
     1
  9
$FILLMODE
 70
     1
  9
$QTEXTMODE
 70
     0
  9
$MIRRTEXT
 70
     1
  9
$DRAGMODE
 70
     2
  9
$LTSCALE
 40
1.0
  9
$OSMODE
 70
    37
  9
$ATTMODE
 70
     1
  9
$TEXTSIZE
 40
0.125
  9
$TRACEWID
 40
0.05
  9
$TEXTSTYLE
  7
STANDARD
  9
$CLAYER
  8
0
  9
$CELTYPE
  6
BYLAYER
  9
$CECOLOR
 62
   256
  9
$CELTSCALE
 40
1.0
  9
$DELOBJ
 70
     1
  9
$DISPSILH
 70
     0
  9
$DIMSCALE
 40
1.0
  9
$DIMASZ
 40
0.13
  9
$DIMEXO
 40
0.05
  9
$DIMDLI
 40
0.38
  9
$DIMRND
 40
0.0
  9
$DIMDLE
 40
0.0
  9
$DIMEXE
 40
0.125
  9
$DIMTP
 40
0.0
  9
$DIMTM
 40
0.0
  9
$DIMTXT
 40
0.125
  9
$DIMCEN
 40
0.09
  9
$DIMTSZ
 40
0.0
  9
$DIMTOL
 70
     0
  9
$DIMLIM
 70
     0
  9
$DIMTIH
 70
     1
  9
$DIMTOH
 70
     1
  9
$DIMSE1
 70
     0
  9
$DIMSE2
 70
     0
  9
$DIMTAD
 70
     0
  9
$DIMZIN
 70
     0
  9
$DIMBLK
  1

  9
$DIMASO
 70
     1
  9
$DIMSHO
 70
     1
  9
$DIMPOST
  1

  9
$DIMAPOST
  1

  9
$DIMALT
 70
     0
  9
$DIMALTD
 70
     2
  9
$DIMALTF
 40
25.4
  9
$DIMLFAC
 40
0.5
  9
$DIMTOFL
 70
     0
  9
$DIMTVP
 40
0.0
  9
$DIMTIX
 70
     0
  9
$DIMSOXD
 70
     0
  9
$DIMSAH
 70
     0
  9
$DIMBLK1
  1

  9
$DIMBLK2
  1

  9
$DIMSTYLE
  2
STANDARD
  9
$DIMCLRD
 70
     0
  9
$DIMCLRE
 70
     0
  9
$DIMCLRT
 70
     0
  9
$DIMTFAC
 40
1.0
  9
$DIMGAP
 40
0.06
  9
$DIMJUST
 70
     0
  9
$DIMSD1
 70
     0
  9
$DIMSD2
 70
     0
  9
$DIMTOLJ
 70
     1
  9
$DIMTZIN
 70
     0
  9
$DIMALTZ
 70
     0
  9
$DIMALTTZ
 70
     0
  9
$DIMFIT
 70
     3
  9
$DIMUPT
 70
     0
  9
$DIMUNIT
 70
     2
  9
$DIMDEC
 70
     3
  9
$DIMTDEC
 70
     3
  9
$DIMALTU
 70
     2
  9
$DIMALTTD
 70
     2
  9
$DIMTXSTY
  7
STANDARD
  9
$DIMAUNIT
 70
     0
  9
$LUNITS
 70
     2
  9
$LUPREC
 70
     2
  9
$SKETCHINC
 40
0.1
  9
$FILLETRAD
 40
0.5
  9
$AUNITS
 70
     0
  9
$AUPREC
 70
     2
  9
$MENU
  1
.
  9
$ELEVATION
 40
0.0
  9
$PELEVATION
 40
0.0
  9
$THICKNESS
 40
0.0
  9
$LIMCHECK
 70
     0
  9
$CHAMFERA
 40
0.5
  9
$CHAMFERB
 40
0.5
  9
$CHAMFERC
 40
1.0
  9
$CHAMFERD
 40
0.0
  9
$SKPOLY
 70
     0
  9
$TDCREATE
 40
2455784.021295278
  9
$TDUPDATE
 40
2455784.02129529
  9
$TDINDWG
 40
0.0000000116
  9
$TDUSRTIMER
 40
0.0000000116
  9
$USRTIMER
 70
     1
  9
$ANGBASE
 50
0.0
  9
$ANGDIR
 70
     0
  9
$PDMODE
 70
     0
  9
$PDSIZE
 40
-1.0
  9
$PLINEWID
 40
0.0
  9
$COORDS
 70
     1
  9
$SPLFRAME
 70
     0
  9
$SPLINETYPE
 70
     6
  9
$SPLINESEGS
 70
     8
  9
$ATTDIA
 70
     0
  9
$ATTREQ
 70
     1
  9
$HANDLING
 70
     1
  9
$HANDSEED
  5
6DF
  9
$SURFTAB1
 70
     6
  9
$SURFTAB2
 70
     6
  9
$SURFTYPE
 70
     6
  9
$SURFU
 70
     6
  9
$SURFV
 70
     6
  9
$UCSNAME
  2

  9
$UCSORG
 10
0.0
 20
0.0
 30
0.0
  9
$UCSXDIR
 10
1.0
 20
0.0
 30
0.0
  9
$UCSYDIR
 10
0.0
 20
1.0
 30
0.0
  9
$PUCSNAME
  2

  9
$PUCSORG
 10
0.0
 20
0.0
 30
0.0
  9
$PUCSXDIR
 10
1.0
 20
0.0
 30
0.0
  9
$PUCSYDIR
 10
0.0
 20
1.0
 30
0.0
  9
$USERI1
 70
     0
  9
$USERI2
 70
     0
  9
$USERI3
 70
     0
  9
$USERI4
 70
     0
  9
$USERI5
 70
     0
  9
$USERR1
 40
0.0
  9
$USERR2
 40
0.0
  9
$USERR3
 40
0.0
  9
$USERR4
 40
0.0
  9
$USERR5
 40
0.0
  9
$WORLDVIEW
 70
     1
  9
$SHADEDGE
 70
     3
  9
$SHADEDIF
 70
    70
  9
$TILEMODE
 70
     1
  9
$MAXACTVP
 70
    64
  9
$PINSBASE
 10
0.0
 20
0.0
 30
0.0
  9
$PLIMCHECK
 70
     0
  9
$PEXTMIN
 10
1.0000000000E+20
 20
1.0000000000E+20
 30
1.0000000000E+20
  9
$PEXTMAX
 10
-1.0000000000E+20
 20
-1.0000000000E+20
 30
-1.0000000000E+20
  9
$PLIMMIN
 10
0.0
 20
0.0
  9
$PLIMMAX
 10
12.0
 20
9.0
  9
$UNITMODE
 70
     0
  9
$VISRETAIN
 70
     1
  9
$PLINEGEN
 70
     0
  9
$PSLTSCALE
 70
     1
  9
$TREEDEPTH
 70
  3020
  9
$PICKSTYLE
 70
     1
  9
$CMLSTYLE
  2
STANDARD
  9
$CMLJUST
 70
     0
  9
$CMLSCALE
 40
1.0
  9
$SAVEIMAGES
 70
     1
  0
ENDSEC
  0
SECTION
  2
CLASSES
  0
CLASS
  1
ACDBDICTIONARYWDFLT
  2
AcDbDictionaryWithDefault
  3
ObjectDBX Classes
 90
    32768
280
     0
281
     0
  0
CLASS
  1
VISUALSTYLE
  2
AcDbVisualStyle
  3
ObjectDBX Classes
 90
     4095
280
     0
281
     0
  0
CLASS
  1
SCALE
  2
AcDbScale
  3
ObjectDBX Classes
 90
     1153
280
     0
281
     0
  0
CLASS
  1
DICTIONARYVAR
  2
AcDbDictionaryVar
  3
ObjectDBX Classes
 90
        0
280
     0
281
     0
  0
CLASS
  1
XRECORD
  2
AcDbXrecord
  3
AutoCAD 2000
 90
    32768
280
     0
281
     0
  0
CLASS
  1
LWPOLYLINE
  2
AcDbPolyline
  3
AutoCAD 2000
 90
    32768
280
     0
281
     1
  0
CLASS
  1
HATCH
  2
AcDbHatch
  3
AutoCAD 2000
 90
    32768
280
     0
281
     1
  0
CLASS
  1
ACDBPLACEHOLDER
  2
AcDbPlaceHolder
  3
ObjectDBX Classes
 90
        0
280
     0
281
     0
  0
CLASS
  1
LAYOUT
  2
AcDbLayout
  3
ObjectDBX Classes
 90
        0
280
     0
281
     0
  0
ENDSEC
  0
SECTION
  2
TABLES
  0
TABLE
  2
VPORT
  5
8
330
0
100
AcDbSymbolTable
 70
     1
  0
VPORT
  5
29
330
8
100
AcDbSymbolTableRecord
100
AcDbViewportTableRecord
  2
*ACTIVE
 70
     0
 10
0.0
 20
0.0
 11
1.0
 21
1.0
 12
5.5
 22
4.25
 13
0.0
 23
0.0
 14
0.5
 24
0.5
 15
0.5
 25
0.5
 16
0.0
 26
0.0
 36
1.0
 17
0.0
 27
0.0
 37
0.0
 40
8.5
 41
1.2941176471
 42
50.0
 43
0.0
 44
0.0
 50
0.0
 51
0.0
 71
     0
 72
  2000
 73
     1
 74
     3
 75
     0
 76
     0
 77
     0
 78
     0
  0
ENDTAB
  0
TABLE
  2
LTYPE
  5
5
330
0
100
AcDbSymbolTable
 70
     6
  0
LTYPE
  5
14
330
5
100
AcDbSymbolTableRecord
100
AcDbLinetypeTableRecord
  2
BYBLOCK
 70
     0
  3

 72
    65
 73
     0
 40
0.0
  0
LTYPE
  5
15
330
5
100
AcDbSymbolTableRecord
100
AcDbLinetypeTableRecord
  2
BYLAYER
 70
     0
  3

 72
    65
 73
     0
 40
0.0
  0
LTYPE
  5
16
330
5
100
AcDbSymbolTableRecord
100
AcDbLinetypeTableRecord
  2
CONTINUOUS
 70
     0
  3
Solid line
 72
    65
 73
     0
 40
0.0
  0
LTYPE
  5
3B
330
5
100
AcDbSymbolTableRecord
100
AcDbLinetypeTableRecord
  2
HIDDEN
 70
     0
  3
Hidden __ __ __ __ __ __ __ __ __ __ __ __ __ __
 72
    65
 73
     2
 40
0.075
 49
0.05
 74
     0
 49
-0.025
 74
     0
  0
LTYPE
  5
3C
330
5
100
AcDbSymbolTableRecord
100
AcDbLinetypeTableRecord
  2
PHANTOM
 70
     0
  3
Phantom ______  __  __  ______  __  __  ______
 72
    65
 73
     6
 40
0.5
 49
0.25
 74
     0
 49
-0.05
 74
     0
 49
0.05
 74
     0
 49
-0.05
 74
     0
 49
0.05
 74
     0
 49
-0.05
 74
     0
  0
LTYPE
  5
3D
330
5
100
AcDbSymbolTableRecord
100
AcDbLinetypeTableRecord
  2
CENTER
 70
     0
  3
Center ____ _ ____ _ ____ _ ____ _ ____ _ ____
 72
    65
 73
     4
 40
0.4
 49
0.25
 74
     0
 49
-0.05
 74
     0
 49
0.05
 74
     0
 49
-0.05
 74
     0
  0
LTYPE
  5
3E
330
5
100
AcDbSymbolTableRecord
100
AcDbLinetypeTableRecord
  2
CENTERX2
 70
     0
  3
Center (2x) ________  __  ________  __  _____
 72
    65
 73
     4
 40
0.8
 49
0.5
 74
     0
 49
-0.1
 74
     0
 49
0.1
 74
     0
 49
-0.1
 74
     0
  0
LTYPE
  5
3F
330
5
100
AcDbSymbolTableRecord
100
AcDbLinetypeTableRecord
  2
DOT2
 70
     0
  3
Dot (.5x) ........................................
 72
    65
 73
     2
 40
0.025
 49
0.0
 74
     0
 49
-0.025
 74
     0
  0
ENDTAB
  0
TABLE
  2
LAYER
  5
2
330
0
100
AcDbSymbolTable
 70
     2
  0
LAYER
  5
10
330
2
100
AcDbSymbolTableRecord
100
AcDbLayerTableRecord
  2
0
 70
     0
 62
     7
  6
CONTINUOUS
  0
LAYER
  5
40
330
2
100
AcDbSymbolTableRecord
100
AcDbLayerTableRecord
  2
FORMAT
 70
     0
 62
     7
  6
CONTINUOUS
  0
ENDTAB
  0
TABLE
  2
STYLE
  5
3
330
0
100
AcDbSymbolTable
 70
     4
  0
STYLE
  5
11
330
3
100
AcDbSymbolTableRecord
100
AcDbTextStyleTableRecord
  2
STANDARD
 70
     0
 40
0.0
 41
1.0
 50
0.0
 71
     0
 42
0.2
  3
txt
  4

  0
STYLE
  5
6E
330
3
100
AcDbSymbolTableRecord
100
AcDbTextStyleTableRecord
  2
SLDTEXTSTYLE0
 70
     0
 40
0.0
 41
0.75
 50
0.0
 71
     0
 42
0.2
  3
TXT
  4

  0
STYLE
  5
93
330
3
100
AcDbSymbolTableRecord
100
AcDbTextStyleTableRecord
  2
SLDTEXTSTYLE1
 70
     0
 40
0.0
 41
0.6875
 50
0.0
 71
     0
 42
0.2
  3
TXT
  4

  0
STYLE
  5
99
330
3
100
AcDbSymbolTableRecord
100
AcDbTextStyleTableRecord
  2
SLDTEXTSTYLE2
 70
     0
 40
0.0
 41
0.6944444444
 50
0.0
 71
     0
 42
0.2
  3
TXT
  4

  0
ENDTAB
  0
TABLE
  2
VIEW
  5
6
330
0
100
AcDbSymbolTable
 70
     0
  0
ENDTAB
  0
TABLE
  2
UCS
  5
7
330
0
100
AcDbSymbolTable
 70
     0
  0
ENDTAB
  0
TABLE
  2
APPID
  5
9
330
0
100
AcDbSymbolTable
 70
     1
  0
APPID
  5
12
330
9
100
AcDbSymbolTableRecord
100
AcDbRegAppTableRecord
  2
ACAD
 70
     0
  0
ENDTAB
  0
TABLE
  2
DIMSTYLE
  5
A
330
0
100
AcDbSymbolTable
 70
     1
  0
DIMSTYLE
105
27
330
A
100
AcDbSymbolTableRecord
100
AcDbDimStyleTableRecord
  2
STANDARD
 70
     0
  3

  4

  5

  6

  7

 40
1.0
 41
0.18
 42
0.0625
 43
0.38
 44
0.18
 45
0.0
 46
0.0
 47
0.0
 48
0.0
140
0.18
141
0.09
142
0.0
143
25.4
144
1.0
145
0.0
146
1.0
147
0.09
 71
     0
 72
     0
 73
     1
 74
     1
 75
     0
 76
     0
 77
     0
 78
     0
170
     0
171
     2
172
     0
173
     0
174
     0
175
     0
176
     0
177
     0
178
     0
270
     2
271
     4
272
     4
273
     2
274
     2
340
11
275
     0
280
     0
281
     0
282
     0
283
     1
284
     0
285
     0
286
     0
287
     3
288
     0
  0
ENDTAB
  0
TABLE
  2
BLOCK_RECORD
  5
1
330
0
100
AcDbSymbolTable
 70
     4
  0
BLOCK_RECORD
  5
1F
330
1
100
AcDbSymbolTableRecord
100
AcDbBlockTableRecord
  2
*MODEL_SPACE
  0
BLOCK_RECORD
  5
1B
330
1
100
AcDbSymbolTableRecord
100
AcDbBlockTableRecord
  2
*PAPER_SPACE
  0
BLOCK_RECORD
  5
A8
330
1
100
AcDbSymbolTableRecord
100
AcDbBlockTableRecord
  2
SW_NOTE_0
  0
BLOCK_RECORD
  5
AE
330
1
100
AcDbSymbolTableRecord
100
AcDbBlockTableRecord
  2
SW_NOTE_1
  0
BLOCK_RECORD
  5
C2
330
1
100
AcDbSymbolTableRecord
100
AcDbBlockTableRecord
  2
SW_NOTE_2
  0
ENDTAB
  0
ENDSEC
  0
SECTION
  2
BLOCKS
  0
BLOCK
  5
20
330
1F
100
AcDbEntity
  8
0
100
AcDbBlockBegin
  2
*MODEL_SPACE
 70
     0
 10
0.0
 20
0.0
 30
0.0
  3
*MODEL_SPACE
  1

  0
ENDBLK
  5
21
330
1F
100
AcDbEntity
  8
0
100
AcDbBlockEnd
  0
BLOCK
  5
1C
330
1B
100
AcDbEntity
 67
     1
  8
0
100
AcDbBlockBegin
  2
*PAPER_SPACE
 70
     0
 10
0.0
 20
0.0
 30
0.0
  3
*PAPER_SPACE
  1

  0
ENDBLK
  5
1D
330
1B
100
AcDbEntity
 67
     1
  8
0
100
AcDbBlockEnd
  0
BLOCK
  5
A9
330
A8
100
AcDbEntity
  8
0
100
AcDbBlockBegin
  2
SW_NOTE_0
 70
     0
 10
0.0
 20
0.0
 30
0.0
  3
SW_NOTE_0
  1

  0
MTEXT
  5
AB
330
A8
100
AcDbEntity
  8
0
  6
CONTINUOUS
 62
     0
100
AcDbMText
 10
0.0
 20
0.0773440644
 30
0.0
 40
0.06
 41
0.0
 71
     1
 72
     1
  1
INTERPRET GEOMETRIC
  7
SLDTEXTSTYLE0
  0
MTEXT
  5
AC
330
A8
100
AcDbEntity
  8
0
  6
CONTINUOUS
 62
     0
100
AcDbMText
 10
0.0
 20
-0.0220260102
 30
0.0
 40
0.06
 41
0.0
 71
     1
 72
     1
  1
TOLERANCING PER:
  7
SLDTEXTSTYLE0
  0
ENDBLK
  5
AA
330
A8
100
AcDbEntity
  8
0
100
AcDbBlockEnd
  0
BLOCK
  5
AF
330
AE
100
AcDbEntity
  8
0
100
AcDbBlockBegin
  2
SW_NOTE_1
 70
     0
 10
0.0
 20
0.0
 30
0.0
  3
SW_NOTE_1
  1

  0
MTEXT
  5
B1
330
AE
100
AcDbEntity
  8
0
  6
CONTINUOUS
 62
     0
100
AcDbMText
 10
0.0
 20
0.0837894031
 30
0.0
 40
0.065
 41
0.0
 71
     1
 72
     1
  1
DIMENSIONS ARE IN INCHES
  7
SLDTEXTSTYLE0
  0
MTEXT
  5
B2
330
AE
100
AcDbEntity
  8
0
  6
CONTINUOUS
 62
     0
100
AcDbMText
 10
0.0
 20
-0.0205806729
 30
0.0
 40
0.065
 41
0.0
 71
     1
 72
     1
  1
TOLERANCES:
  7
SLDTEXTSTYLE0
  0
MTEXT
  5
B3
330
AE
100
AcDbEntity
  8
0
  6
CONTINUOUS
 62
     0
100
AcDbMText
 10
0.0
 20
-0.1249507489
 30
0.0
 40
0.065
 41
0.0
 71
     1
 72
     1
  1
FRACTIONAL
  7
SLDTEXTSTYLE0
  0
MTEXT
  5
B4
330
AE
100
AcDbEntity
  8
0
  6
CONTINUOUS
 62
     0
100
AcDbMText
 10
0.5175850875
 20
-0.1249507489
 30
0.0
 40
0.065
 41
0.0
 71
     1
 72
     1
  1
%%p
  7
SLDTEXTSTYLE0
  0
MTEXT
  5
B5
330
AE
100
AcDbEntity
  8
0
  6
CONTINUOUS
 62
     0
100
AcDbMText
 10
0.0
 20
-0.2293208248
 30
0.0
 40
0.065
 41
0.0
 71
     1
 72
     1
  1
ANGULAR: MACH
  7
SLDTEXTSTYLE0
  0
MTEXT
  5
B6
330
AE
100
AcDbEntity
  8
0
  6
CONTINUOUS
 62
     0
100
AcDbMText
 10
0.7233732769
 20
-0.2293208248
 30
0.0
 40
0.065
 41
0.0
 71
     1
 72
     1
  1
%%p
  7
SLDTEXTSTYLE0
  0
MTEXT
  5
B7
330
AE
100
AcDbEntity
  8
0
  6
CONTINUOUS
 62
     0
100
AcDbMText
 10
0.7852857683
 20
-0.2293208248
 30
0.0
 40
0.065
 41
0.0
 71
     1
 72
     1
  1
     BEND 
  7
SLDTEXTSTYLE0
  0
MTEXT
  5
B8
330
AE
100
AcDbEntity
  8
0
  6
CONTINUOUS
 62
     0
100
AcDbMText
 10
1.14784136
 20
-0.2293208248
 30
0.0
 40
0.065
 41
0.0
 71
     1
 72
     1
  1
%%p
  7
SLDTEXTSTYLE0
  0
MTEXT
  5
B9
330
AE
100
AcDbEntity
  8
0
  6
CONTINUOUS
 62
     0
100
AcDbMText
 10
0.0
 20
-0.3336909008
 30
0.0
 40
0.065
 41
0.0
 71
     1
 72
     1
  1
TWO PLACE DECIMAL    
  7
SLDTEXTSTYLE0
  0
MTEXT
  5
BA
330
AE
100
AcDbEntity
  8
0
  6
CONTINUOUS
 62
     0
100
AcDbMText
 10
0.9794349188
 20
-0.3336909008
 30
0.0
 40
0.065
 41
0.0
 71
     1
 72
     1
  1
%%p
  7
SLDTEXTSTYLE0
  0
MTEXT
  5
BB
330
AE
100
AcDbEntity
  8
0
  6
CONTINUOUS
 62
     0
100
AcDbMText
 10
0.0
 20
-0.4380609768
 30
0.0
 40
0.065
 41
0.0
 71
     1
 72
     1
  1
THREE PLACE DECIMAL  
  7
SLDTEXTSTYLE0
  0
MTEXT
  5
BC
330
AE
100
AcDbEntity
  8
0
  6
CONTINUOUS
 62
     0
100
AcDbMText
 10
0.9738038639
 20
-0.4380609768
 30
0.0
 40
0.065
 41
0.0
 71
     1
 72
     1
  1
%%p
  7
SLDTEXTSTYLE0
  0
ENDBLK
  5
B0
330
AE
100
AcDbEntity
  8
0
100
AcDbBlockEnd
  0
BLOCK
  5
C3
330
C2
100
AcDbEntity
  8
0
100
AcDbBlockBegin
  2
SW_NOTE_2
 70
     0
 10
0.0
 20
0.0
 30
0.0
  3
SW_NOTE_2
  1

  0
MTEXT
  5
C5
330
C2
100
AcDbEntity
  8
0
  6
CONTINUOUS
 62
     0
100
AcDbMText
 10
0.0
 20
0.0773440644
 30
0.0
 40
0.06
 41
0.0
 71
     1
 72
     1
  1
THE INFORMATION CONTAINED IN THIS
  7
SLDTEXTSTYLE0
  0
MTEXT
  5
C6
330
C2
100
AcDbEntity
  8
0
  6
CONTINUOUS
 62
     0
100
AcDbMText
 10
0.0
 20
-0.0220260102
 30
0.0
 40
0.06
 41
0.0
 71
     1
 72
     1
  1
DRAWING IS THE SOLE PROPERTY OF
  7
SLDTEXTSTYLE0
  0
MTEXT
  5
C7
330
C2
100
AcDbEntity
  8
0
  6
CONTINUOUS
 62
     0
100
AcDbMText
 10
0.0
 20
-0.1213960848
 30
0.0
 40
0.06
 41
0.0
 71
     1
 72
     1
  1
Candy Controls.  ANY 
  7
SLDTEXTSTYLE0
  0
MTEXT
  5
C8
330
C2
100
AcDbEntity
  8
0
  6
CONTINUOUS
 62
     0
100
AcDbMText
 10
0.0
 20
-0.2207661593
 30
0.0
 40
0.06
 41
0.0
 71
     1
 72
     1
  1
REPRODUCTION IN PART OR AS A WHOLE
  7
SLDTEXTSTYLE0
  0
MTEXT
  5
C9
330
C2
100
AcDbEntity
  8
0
  6
CONTINUOUS
 62
     0
100
AcDbMText
 10
0.0
 20
-0.3201362339
 30
0.0
 40
0.06
 41
0.0
 71
     1
 72
     1
  1
WITHOUT THE WRITTEN PERMISSION OF
  7
SLDTEXTSTYLE0
  0
MTEXT
  5
CA
330
C2
100
AcDbEntity
  8
0
  6
CONTINUOUS
 62
     0
100
AcDbMText
 10
0.0
 20
-0.4195063085
 30
0.0
 40
0.06
 41
0.0
 71
     1
 72
     1
  1
Candy Controls IS 
  7
SLDTEXTSTYLE0
  0
MTEXT
  5
CB
330
C2
100
AcDbEntity
  8
0
  6
CONTINUOUS
 62
     0
100
AcDbMText
 10
0.0
 20
-0.518876383
 30
0.0
 40
0.06
 41
0.0
 71
     1
 72
     1
  1
PROHIBITED.
  7
SLDTEXTSTYLE0
  0
ENDBLK
  5
C4
330
C2
100
AcDbEntity
  8
0
100
AcDbBlockEnd
  0
ENDSEC
  0
SECTION
  2
ENTITIES
  0
LINE
  5
41
330
1F
100
AcDbEntity
  8
0
  6
CONTINUOUS
 62
     7
100
AcDbLine
 10
0.329927
 20
8.1920731707
 30
0.0
 11
10.629927
 21
8.1920731707
 31
0.0
  0
LINE
  5
42
330
1F
100
AcDbEntity
  8
0
  6
CONTINUOUS
 62
     7
100
AcDbLine
 10
0.329927
 20
8.1920731707
 30
0.0
 11
0.329927
 21
0.3920731707
 31
0.0
  0
LINE
  5
43
330
1F
100
AcDbEntity
  8
0
  6
CONTINUOUS
 62
     7
100
AcDbLine
 10
10.629927
 20
0.3920731707
 30
0.0
 11
0.329927
 21
0.3920731707
 31
0.0
  0
LINE
  5
44
330
1F
100
AcDbEntity
  8
0
  6
CONTINUOUS
 62
     7
100
AcDbLine
 10
10.629927
 20
0.3920731707
 30
0.0
 11
10.629927
 21
8.1920731707
 31
0.0
  0
LINE
  5
45
330
1F
100
AcDbEntity
  8
0
  6
CONTINUOUS
 62
     7
100
AcDbLine
 10
4.7981841288
 20
0.3920731707
 30
0.0
 11
4.7981841288
 21
2.3564211366
 31
0.0
  0
LINE
  5
46
330
1F
100
AcDbEntity
  8
0
  6
CONTINUOUS
 62
     7
100
AcDbLine
 10
2.8210345579
 20
2.3564211366
 30
0.0
 11
10.629927
 21
2.3564211366
 31
0.0
  0
LINE
  5
47
330
1F
100
AcDbEntity
  8
0
  6
CONTINUOUS
 62
     7
100
AcDbLine
 10
6.1796352514
 20
2.3564211366
 30
0.0
 11
6.1796352514
 21
0.3920731707
 31
0.0
  0
LINE
  5
48
330
1F
100
AcDbEntity
  8
0
  6
CONTINUOUS
 62
     7
100
AcDbLine
 10
7.8712070044
 20
2.3564211366
 30
0.0
 11
7.8712070044
 21
0.3920731707
 31
0.0
  0
LINE
  5
49
330
1F
100
AcDbEntity
  8
0
  6
CONTINUOUS
 62
     7
100
AcDbLine
 10
7.8712070044
 20
0.6049590101
 30
0.0
 11
10.629927
 21
0.6049590101
 31
0.0
  0
LINE
  5
4A
330
1F
100
AcDbEntity
  8
0
  6
CONTINUOUS
 62
     7
100
AcDbLine
 10
7.8712070044
 20
1.1119362457
 30
0.0
 11
10.629927
 21
1.1119362457
 31
0.0
  0
LINE
  5
4B
330
1F
100
AcDbEntity
  8
0
  6
CONTINUOUS
 62
     7
100
AcDbLine
 10
7.8712070044
 20
1.9892703708
 30
0.0
 11
10.629927
 21
1.9892703708
 31
0.0
  0
LINE
  5
4C
330
1F
100
AcDbEntity
  8
0
  6
CONTINUOUS
 62
     7
100
AcDbLine
 10
8.266751752
 20
1.1119362457
 30
0.0
 11
8.266751752
 21
0.6049590101
 31
0.0
  0
LINE
  5
4D
330
1F
100
AcDbEntity
  8
0
  6
CONTINUOUS
 62
     7
100
AcDbLine
 10
8.6943435176
 20
0.6049590101
 30
0.0
 11
8.6943435176
 21
0.3920731707
 31
0.0
  0
LINE
  5
4E
330
1F
100
AcDbEntity
  8
0
  6
CONTINUOUS
 62
     7
100
AcDbLine
 10
10.0579917045
 20
1.1119362457
 30
0.0
 11
10.0579917045
 21
0.6049590101
 31
0.0
  0
LINE
  5
4F
330
1F
100
AcDbEntity
  8
0
  6
CONTINUOUS
 62
     7
100
AcDbLine
 10
9.6662556631
 20
0.6049590101
 30
0.0
 11
9.6662556631
 21
0.3920731707
 31
0.0
  0
LINE
  5
50
330
1F
100
AcDbEntity
  8
0
  6
CONTINUOUS
 62
     7
100
AcDbLine
 10
2.8210345579
 20
0.5883479999
 30
0.0
 11
6.1796352514
 21
0.5883479999
 31
0.0
  0
LINE
  5
51
330
1F
100
AcDbEntity
  8
0
  6
CONTINUOUS
 62
     7
100
AcDbLine
 10
6.1796352514
 20
1.7939211366
 30
0.0
 11
7.8712070044
 21
1.7939211366
 31
0.0
  0
LINE
  5
52
330
1F
100
AcDbEntity
  8
0
  6
CONTINUOUS
 62
     7
100
AcDbLine
 10
6.1796352514
 20
1.9814211366
 30
0.0
 11
7.8712070044
 21
1.9814211366
 31
0.0
  0
LINE
  5
53
330
1F
100
AcDbEntity
  8
0
  6
CONTINUOUS
 62
     7
100
AcDbLine
 10
6.1796352514
 20
2.1689211366
 30
0.0
 11
7.8712070044
 21
2.1689211366
 31
0.0
  0
LINE
  5
54
330
1F
100
AcDbEntity
  8
0
  6
CONTINUOUS
 62
     7
100
AcDbLine
 10
7.8712070044
 20
1.2314211366
 30
0.0
 11
6.1796352514
 21
1.2314211366
 31
0.0
  0
LINE
  5
55
330
1F
100
AcDbEntity
  8
0
  6
CONTINUOUS
 62
     7
100
AcDbLine
 10
7.3921580388
 20
2.3564211366
 30
0.0
 11
7.3921580388
 21
1.2314211366
 31
0.0
  0
LINE
  5
56
330
1F
100
AcDbEntity
  8
0
  6
CONTINUOUS
 62
     7
100
AcDbLine
 10
6.9236308342
 20
2.3564211366
 30
0.0
 11
6.9236308342
 21
1.2314211366
 31
0.0
  0
LINE
  5
57
330
1F
100
AcDbEntity
  8
0
  6
CONTINUOUS
 62
     7
100
AcDbLine
 10
4.7981841288
 20
0.8557965305
 30
0.0
 11
6.1796352514
 21
0.8557965305
 31
0.0
  0
LINE
  5
58
330
1F
100
AcDbEntity
  8
0
  6
CONTINUOUS
 62
     7
100
AcDbLine
 10
4.7981841288
 20
1.1257965305
 30
0.0
 11
6.1796352514
 21
1.1257965305
 31
0.0
  0
LINE
  5
59
330
1F
100
AcDbEntity
  8
0
  6
CONTINUOUS
 62
     7
100
AcDbLine
 10
2.8210345579
 20
0.3920731707
 30
0.0
 11
2.8210345579
 21
2.3564211366
 31
0.0
  0
LINE
  5
5A
330
1F
100
AcDbEntity
  8
0
  6
CONTINUOUS
 62
     7
100
AcDbLine
 10
2.8210345579
 20
1.1064211366
 30
0.0
 11
4.7981841288
 21
1.1064211366
 31
0.0
  0
LINE
  5
5B
330
1F
100
AcDbEntity
  8
0
  6
CONTINUOUS
 62
     7
100
AcDbLine
 10
2.8210345579
 20
1.3564211366
 30
0.0
 11
4.7981841288
 21
1.3564211366
 31
0.0
  0
LINE
  5
5C
330
1F
100
AcDbEntity
  8
0
  6
CONTINUOUS
 62
     7
100
AcDbLine
 10
2.8210345579
 20
1.6064211366
 30
0.0
 11
4.7981841288
 21
1.6064211366
 31
0.0
  0
LINE
  5
5D
330
1F
100
AcDbEntity
  8
0
  6
CONTINUOUS
 62
     7
100
AcDbLine
 10
2.8210345579
 20
1.8564211366
 30
0.0
 11
4.7981841288
 21
1.8564211366
 31
0.0
  0
LINE
  5
5E
330
1F
100
AcDbEntity
  8
0
  6
CONTINUOUS
 62
     7
100
AcDbLine
 10
3.8190146875
 20
2.3564211366
 30
0.0
 11
3.8190146875
 21
0.5883479999
 31
0.0
  0
LINE
  5
5F
330
1F
100
AcDbEntity
  8
0
  6
CONTINUOUS
 62
     7
100
AcDbLine
 10
6.1796352514
 20
2.2020813496
 30
0.0
 11
4.7981841288
 21
2.2020813496
 31
0.0
  0
LINE
  5
60
330
1F
100
AcDbEntity
  8
0
  6
CONTINUOUS
 62
     7
100
AcDbLine
 10
7.8712070044
 20
1.6064211366
 30
0.0
 11
6.1796352514
 21
1.6064211366
 31
0.0
  0
LINE
  5
61
330
1F
100
AcDbEntity
  8
0
  6
CONTINUOUS
 62
     7
100
AcDbLine
 10
7.8712070044
 20
1.4189211366
 30
0.0
 11
6.1796352514
 21
1.4189211366
 31
0.0
  0
LINE
  5
62
330
1F
100
AcDbEntity
  8
0
  6
CONTINUOUS
 62
     7
100
AcDbLine
 10
2.8210345579
 20
2.1064211366
 30
0.0
 11
4.7981841288
 21
2.1064211366
 31
0.0
  0
LINE
  5
63
330
1F
100
AcDbEntity
  8
0
  6
CONTINUOUS
 62
     7
100
AcDbLine
 10
4.7981841288
 20
1.3957965305
 30
0.0
 11
6.1796352514
 21
1.3957965305
 31
0.0
  0
LINE
  5
64
330
1F
100
AcDbEntity
  8
0
  6
CONTINUOUS
 62
     7
100
AcDbLine
 10
2.8210345579
 20
0.8564211366
 30
0.0
 11
4.7981841288
 21
0.8564211366
 31
0.0
  0
LINE
  5
65
330
1F
100
AcDbEntity
  8
0
  6
CONTINUOUS
 62
     7
100
AcDbLine
 10
1.1838252943
 20
0.3920731707
 30
0.0
 11
1.1838252943
 21
1.3064211366
 31
0.0
  0
LINE
  5
66
330
1F
100
AcDbEntity
  8
0
  6
CONTINUOUS
 62
     7
100
AcDbLine
 10
2.8210345579
 20
1.3064211366
 30
0.0
 11
1.1838252943
 21
1.3064211366
 31
0.0
  0
LINE
  5
67
330
1F
100
AcDbEntity
  8
0
  6
CONTINUOUS
 62
     7
100
AcDbLine
 10
8.660927
 20
0.3920731707
 30
0.0
 11
8.660927
 21
0.3072739649
 31
0.0
  0
LINE
  5
68
330
1F
100
AcDbEntity
  8
0
  6
CONTINUOUS
 62
     7
100
AcDbLine
 10
6.692177
 20
0.3920731707
 30
0.0
 11
6.692177
 21
0.3072739649
 31
0.0
  0
LINE
  5
69
330
1F
100
AcDbEntity
  8
0
  6
CONTINUOUS
 62
     7
100
AcDbLine
 10
4.723427
 20
0.3920731707
 30
0.0
 11
4.723427
 21
0.3072739649
 31
0.0
  0
LINE
  5
6A
330
1F
100
AcDbEntity
  8
0
  6
CONTINUOUS
 62
     7
100
AcDbLine
 10
2.754677
 20
0.3920731707
 30
0.0
 11
2.754677
 21
0.3072739649
 31
0.0
  0
LINE
  5
6B
330
1F
100
AcDbEntity
  8
0
  6
CONTINUOUS
 62
     7
100
AcDbLine
 10
2.754677
 20
0.3920731707
 30
0.0
 11
2.7672319738
 21
0.3575
 31
0.0
  0
LINE
  5
6C
330
1F
100
AcDbEntity
  8
0
  6
CONTINUOUS
 62
     7
100
AcDbLine
 10
2.7672319738
 20
0.3575
 30
0.0
 11
2.7414258825
 21
0.3575
 31
0.0
  0
LINE
  5
6D
330
1F
100
AcDbEntity
  8
0
  6
CONTINUOUS
 62
     7
100
AcDbLine
 10
2.7414258825
 20
0.3575
 30
0.0
 11
2.754677
 21
0.3920731707
 31
0.0
  0
MTEXT
  5
91
330
1F
100
AcDbEntity
  8
0
  6
CONTINUOUS
 62
     7
100
AcDbMText
 10
4.9775846961
 20
0.5178452352
 30
0.0
 40
0.0625
 41
0.0
 71
     1
 72
     1
  1
DO NOT SCALE DRAWING
  7
SLDTEXTSTYLE0
  0
MTEXT
  5
92
330
1F
100
AcDbEntity
  8
0
  6
CONTINUOUS
 62
     7
100
AcDbMText
 10
8.5107028428
 20
0.9417064595
 30
0.0
 40
0.125
 41
0.0
 71
     1
 72
     1
  1
CL5-C19_Double
  7
SLDTEXTSTYLE0
  0
MTEXT
  5
94
330
1F
100
AcDbEntity
  8
0
  6
CONTINUOUS
 62
     7
100
AcDbMText
 10
9.7571278483
 20
0.5524239532
 30
0.0
 40
0.1
 41
0.0
 71
     1
 72
     1
  1
SHEET 1 OF 1
  7
SLDTEXTSTYLE1
  0
MTEXT
  5
95
330
1F
100
AcDbEntity
  8
0
  6
CONTINUOUS
 62
     7
100
AcDbMText
 10
4.8448077858
 20
2.3132954224
 30
0.0
 40
0.07
 41
0.0
 71
     1
 72
     1
  1
UNLESS OTHERWISE SPECIFIED:
  7
SLDTEXTSTYLE0
  0
MTEXT
  5
96
330
1F
100
AcDbEntity
  8
0
  6
CONTINUOUS
 62
     7
100
AcDbMText
 10
7.9586139647
 20
0.5520987879
 30
0.0
 40
0.1
 41
0.0
 71
     1
 72
     1
  1
SCALE: 2:1
  7
SLDTEXTSTYLE0
  0
MTEXT
  5
97
330
1F
100
AcDbEntity
  8
0
  6
CONTINUOUS
 62
     7
100
AcDbMText
 10
8.7023691647
 20
0.5486763345
 30
0.0
 40
0.1
 41
0.0
 71
     1
 72
     1
  1
WEIGHT: 
  7
SLDTEXTSTYLE0
  0
MTEXT
  5
98
330
1F
100
AcDbEntity
  8
0
  6
CONTINUOUS
 62
     7
100
AcDbMText
 10
10.2277580983
 20
1.081966299
 30
0.0
 40
0.1
 41
0.0
 71
     1
 72
     1
  1
REV
  7
SLDTEXTSTYLE0
  0
MTEXT
  5
9A
330
1F
100
AcDbEntity
  8
0
  6
CONTINUOUS
 62
     7
100
AcDbMText
 10
8.2984570898
 20
1.0858725293
 30
0.0
 40
0.1
 41
0.0
 71
     1
 72
     1
  1
DWG.  NO.
  7
SLDTEXTSTYLE2
  0
MTEXT
  5
9B
330
1F
100
AcDbEntity
  8
0
  6
CONTINUOUS
 62
     7
100
AcDbMText
 10
7.9598482632
 20
0.9442140768
 30
0.0
 40
0.25
 41
0.0
 71
     1
 72
     1
  1
A
  7
SLDTEXTSTYLE0
  0
MTEXT
  5
9C
330
1F
100
AcDbEntity
  8
0
  6
CONTINUOUS
 62
     7
100
AcDbMText
 10
7.9519581822
 20
1.0872713483
 30
0.0
 40
0.1
 41
0.0
 71
     1
 72
     1
  1
SIZE
  7
SLDTEXTSTYLE0
  0
MTEXT
  5
9D
330
1F
100
AcDbEntity
  8
0
  6
CONTINUOUS
 62
     7
100
AcDbMText
 10
7.9170704177
 20
1.9547881128
 30
0.0
 40
0.1
 41
0.0
 71
     1
 72
     1
  1
TITLE:
  7
SLDTEXTSTYLE0
  0
MTEXT
  5
9E
330
1F
100
AcDbEntity
  8
0
  6
CONTINUOUS
 62
     7
100
AcDbMText
 10
7.0363774929
 20
2.2906161274
 30
0.0
 40
0.065
 41
0.0
 71
     1
 72
     1
  1
NAME
  7
SLDTEXTSTYLE0
  0
MTEXT
  5
9F
330
1F
100
AcDbEntity
  8
0
  6
CONTINUOUS
 62
     7
100
AcDbMText
 10
7.5281510634
 20
2.2888799118
 30
0.0
 40
0.065
 41
0.0
 71
     1
 72
     1
  1
DATE
  7
SLDTEXTSTYLE0
  0
MTEXT
  5
A0
330
1F
100
AcDbEntity
  8
0
  6
CONTINUOUS
 62
     7
100
AcDbMText
 10
6.2277147029
 20
1.1876913145
 30
0.0
 40
0.065
 41
0.0
 71
     1
 72
     1
  1
COMMENTS:
  7
SLDTEXTSTYLE0
  0
MTEXT
  5
A1
330
1F
100
AcDbEntity
  8
0
  6
CONTINUOUS
 62
     7
100
AcDbMText
 10
6.2268411461
 20
1.3536101679
 30
0.0
 40
0.065
 41
0.0
 71
     1
 72
     1
  1
Q.A.
  7
SLDTEXTSTYLE0
  0
MTEXT
  5
A2
330
1F
100
AcDbEntity
  8
0
  6
CONTINUOUS
 62
     7
100
AcDbMText
 10
6.2284654509
 20
1.5395328424
 30
0.0
 40
0.065
 41
0.0
 71
     1
 72
     1
  1
MFG APPR.
  7
SLDTEXTSTYLE0
  0
MTEXT
  5
A3
330
1F
100
AcDbEntity
  8
0
  6
CONTINUOUS
 62
     7
100
AcDbMText
 10
6.2235171344
 20
1.7267501785
 30
0.0
 40
0.065
 41
0.0
 71
     1
 72
     1
  1
ENG APPR.
  7
SLDTEXTSTYLE0
  0
MTEXT
  5
A4
330
1F
100
AcDbEntity
  8
0
  6
CONTINUOUS
 62
     7
100
AcDbMText
 10
6.2264103951
 20
1.9092699088
 30
0.0
 40
0.065
 41
0.0
 71
     1
 72
     1
  1
CHECKED
  7
SLDTEXTSTYLE0
  0
MTEXT
  5
A5
330
1F
100
AcDbEntity
  8
0
  6
CONTINUOUS
 62
     7
100
AcDbMText
 10
6.2242794356
 20
2.1016301232
 30
0.0
 40
0.065
 41
0.0
 71
     1
 72
     1
  1
DRAWN
  7
SLDTEXTSTYLE0
  0
MTEXT
  5
A6
330
1F
100
AcDbEntity
  8
0
  6
CONTINUOUS
 62
     7
100
AcDbMText
 10
4.8208600979
 20
0.834523235
 30
0.0
 40
0.06
 41
0.0
 71
     1
 72
     1
  1
FINISH
  7
SLDTEXTSTYLE0
  0
MTEXT
  5
A7
330
1F
100
AcDbEntity
  8
0
  6
CONTINUOUS
 62
     7
100
AcDbMText
 10
4.8181240648
 20
1.1028217587
 30
0.0
 40
0.06
 41
0.0
 71
     1
 72
     1
  1
MATERIAL
  7
SLDTEXTSTYLE0
  0
INSERT
  5
AD
330
1F
100
AcDbEntity
  8
0
  6
CONTINUOUS
 62
     7
100
AcDbBlockReference
  2
SW_NOTE_0
 10
4.8231926633
 20
1.2646542947
 30
0.0
  0
INSERT
  5
BD
330
1F
100
AcDbEntity
  8
0
  6
CONTINUOUS
 62
     7
100
AcDbBlockReference
  2
SW_NOTE_1
 10
4.8353339353
 20
2.0049168724
 30
0.0
  0
MTEXT
  5
BE
330
1F
100
AcDbEntity
  8
0
  6
CONTINUOUS
 62
     7
100
AcDbMText
 10
3.5531400086
 20
0.5200091997
 30
0.0
 40
0.0625
 41
0.0
 71
     1
 72
     1
  1
APPLICATION
  7
SLDTEXTSTYLE0
  0
MTEXT
  5
BF
330
1F
100
AcDbEntity
  8
0
  6
CONTINUOUS
 62
     7
100
AcDbMText
 10
4.1005607758
 20
0.7502454275
 30
0.0
 40
0.0625
 41
0.0
 71
     1
 72
     1
  1
USED ON
  7
SLDTEXTSTYLE0
  0
MTEXT
  5
C0
330
1F
100
AcDbEntity
  8
0
  6
CONTINUOUS
 62
     7
100
AcDbMText
 10
3.1040019536
 20
0.7492094783
 30
0.0
 40
0.0625
 41
0.0
 71
     1
 72
     1
  1
NEXT ASSY
  7
SLDTEXTSTYLE0
  0
MTEXT
  5
C1
330
1F
100
AcDbEntity
  8
0
  6
CONTINUOUS
 62
     7
100
AcDbMText
 10
1.3712489489
 20
1.2496672684
 30
0.0
 40
0.06
 41
0.0
 71
     1
 72
     1
  1
PROPRIETARY AND CONFIDENTIAL
  7
SLDTEXTSTYLE0
  0
INSERT
  5
CC
330
1F
100
AcDbEntity
  8
0
  6
CONTINUOUS
 62
     7
100
AcDbBlockReference
  2
SW_NOTE_2
 10
1.2226209074
 20
1.0313492921
 30
0.0
  0
MTEXT
  5
CD
330
1F
100
AcDbEntity
  8
0
  6
CONTINUOUS
 62
     7
100
AcDbMText
 10
1.7387909509
 20
0.3105864247
 30
0.0
 40
0.09375
 41
0.0
 71
     1
 72
     1
  1
5
  7
SLDTEXTSTYLE0
  0
MTEXT
  5
CE
330
1F
100
AcDbEntity
  8
0
  6
CONTINUOUS
 62
     7
100
AcDbMText
 10
3.723800327
 20
0.3137237518
 30
0.0
 40
0.09375
 41
0.0
 71
     1
 72
     1
  1
4
  7
SLDTEXTSTYLE0
  0
MTEXT
  5
CF
330
1F
100
AcDbEntity
  8
0
  6
CONTINUOUS
 62
     7
100
AcDbMText
 10
5.6324457277
 20
0.3116191842
 30
0.0
 40
0.09375
 41
0.0
 71
     1
 72
     1
  1
3
  7
SLDTEXTSTYLE0
  0
MTEXT
  5
D0
330
1F
100
AcDbEntity
  8
0
  6
CONTINUOUS
 62
     7
100
AcDbMText
 10
7.6059721724
 20
0.3124391351
 30
0.0
 40
0.09375
 41
0.0
 71
     1
 72
     1
  1
2
  7
SLDTEXTSTYLE0
  0
MTEXT
  5
D1
330
1F
100
AcDbEntity
  8
0
  6
CONTINUOUS
 62
     7
100
AcDbMText
 10
9.6619921328
 20
0.301372012
 30
0.0
 40
0.09375
 41
0.0
 71
     1
 72
     1
  1
1
  7
SLDTEXTSTYLE0
  0
LINE
  5
D2
330
1F
100
AcDbEntity
  8
0
  6
CONTINUOUS
 62
     7
100
AcDbLine
 10
3.8806256047
 20
3.0106467903
 30
0.0
 11
4.3596282294
 21
3.0106467903
 31
0.0
  0
LINE
  5
D3
330
1F
100
AcDbEntity
  8
0
  6
CONTINUOUS
 62
     7
100
AcDbLine
 10
3.6494707491
 20
3.0106467903
 30
0.0
 11
3.7756387281
 21
3.0106467903
 31
0.0
  0
LINE
  5
D4
330
1F
100
AcDbEntity
  8
0
  6
CONTINUOUS
 62
     7
100
AcDbLine
 10
3.7756387281
 20
4.5067097825
 30
0.0
 11
3.6494707491
 21
4.5067097825
 31
0.0
  0
LINE
  5
D5
330
1F
100
AcDbEntity
  8
0
  6
CONTINUOUS
 62
     7
100
AcDbLine
 10
4.3596282294
 20
4.5067097825
 30
0.0
 11
3.8806256047
 21
4.5067097825
 31
0.0
  0
LINE
  5
D6
330
1F
100
AcDbEntity
  8
0
  6
CONTINUOUS
 62
     7
100
AcDbLine
 10
4.3596282294
 20
3.0106467903
 30
0.0
 11
4.3896282294
 21
3.0406467903
 31
0.0
  0
LINE
  5
D7
330
1F
100
AcDbEntity
  8
0
  6
CONTINUOUS
 62
     7
100
AcDbLine
 10
4.3896282294
 20
4.4767097825
 30
0.0
 11
4.3596282294
 21
4.5067097825
 31
0.0
  0
ARC
  5
D8
330
1F
100
AcDbEntity
  8
0
  6
CONTINUOUS
 62
     7
100
AcDbCircle
 10
4.0249825601
 20
4.3098593888
 30
0.0
 40
0.0393700787401583
100
AcDbArc
 50
90.0
 51
144.5488235604
  0
ARC
  5
D9
330
1F
100
AcDbEntity
  8
0
  6
CONTINUOUS
 62
     7
100
AcDbCircle
 10
4.3005731113
 20
4.3098593888
 30
0.0
 40
0.0393700787401584
100
AcDbArc
 50
35.1914776956
 51
90.0
  0
LINE
  5
DA
330
1F
100
AcDbEntity
  8
0
  6
CONTINUOUS
 62
     7
100
AcDbLine
 10
4.0643526388
 20
3.7980483651
 30
0.0
 11
4.0643526388
 21
3.7193082077
 31
0.0
  0
LINE
  5
DB
330
1F
100
AcDbEntity
  8
0
  6
CONTINUOUS
 62
     7
100
AcDbLine
 10
4.2612030325
 20
3.7193082077
 30
0.0
 11
4.2612030325
 21
3.7980483651
 31
0.0
  0
LINE
  5
DC
330
1F
100
AcDbEntity
  8
0
  6
CONTINUOUS
 62
     7
100
AcDbLine
 10
3.0038014577
 20
4.5067097825
 30
0.0
 11
2.8776334787
 21
4.5067097825
 31
0.0
  0
LINE
  5
DD
330
1F
100
AcDbEntity
  8
0
  6
CONTINUOUS
 62
     7
100
AcDbLine
 10
2.2936439774
 20
3.0106467903
 30
0.0
 11
3.0038014577
 21
3.0106467903
 31
0.0
  0
LINE
  5
DE
330
1F
100
AcDbEntity
  8
0
  6
CONTINUOUS
 62
     7
100
AcDbLine
 10
2.2636439774
 20
3.0406467903
 30
0.0
 11
2.2936439774
 21
3.0106467903
 31
0.0
  0
LINE
  5
DF
330
1F
100
AcDbEntity
  8
0
  6
CONTINUOUS
 62
     7
100
AcDbLine
 10
3.0038014577
 20
4.0637963966
 30
0.0
 11
3.0392345286
 21
4.0637963966
 31
0.0
  0
LINE
  5
E0
330
1F
100
AcDbEntity
  8
0
  6
CONTINUOUS
 62
     7
100
AcDbLine
 10
3.0628565758
 20
4.0637963966
 30
0.0
 11
3.0982896467
 21
4.0637963966
 31
0.0
  0
LINE
  5
E1
330
1F
100
AcDbEntity
  8
0
  6
CONTINUOUS
 62
     7
100
AcDbLine
 10
3.0982896467
 20
4.4181271053
 30
0.0
 11
3.0628565758
 21
4.4181271053
 31
0.0
  0
LINE
  5
E2
330
1F
100
AcDbEntity
  8
0
  6
CONTINUOUS
 62
     7
100
AcDbLine
 10
3.0392345286
 20
4.4181271053
 30
0.0
 11
3.0038014577
 21
4.4181271053
 31
0.0
  0
LINE
  5
E3
330
1F
100
AcDbEntity
  8
0
  6
CONTINUOUS
 62
     7
100
AcDbLine
 10
3.0038014577
 20
3.0992294675
 30
0.0
 11
3.0392345286
 21
3.0992294675
 31
0.0
  0
LINE
  5
E4
330
1F
100
AcDbEntity
  8
0
  6
CONTINUOUS
 62
     7
100
AcDbLine
 10
3.0628565758
 20
3.0992294675
 30
0.0
 11
3.0982896467
 21
3.0992294675
 31
0.0
  0
LINE
  5
E5
330
1F
100
AcDbEntity
  8
0
  6
CONTINUOUS
 62
     7
100
AcDbLine
 10
3.0982896467
 20
3.4535601762
 30
0.0
 11
3.0628565758
 21
3.4535601762
 31
0.0
  0
LINE
  5
E6
330
1F
100
AcDbEntity
  8
0
  6
CONTINUOUS
 62
     7
100
AcDbLine
 10
3.0392345286
 20
3.4535601762
 30
0.0
 11
3.0038014577
 21
3.4535601762
 31
0.0
  0
LINE
  5
E7
330
1F
100
AcDbEntity
  8
0
  6
CONTINUOUS
 62
     7
100
AcDbLine
 10
3.0038014577
 20
3.5815129321
 30
0.0
 11
3.0392345286
 21
3.5815129321
 31
0.0
  0
LINE
  5
E8
330
1F
100
AcDbEntity
  8
0
  6
CONTINUOUS
 62
     7
100
AcDbLine
 10
3.0628565758
 20
3.5815129321
 30
0.0
 11
3.0982896467
 21
3.5815129321
 31
0.0
  0
LINE
  5
E9
330
1F
100
AcDbEntity
  8
0
  6
CONTINUOUS
 62
     7
100
AcDbLine
 10
3.0982896467
 20
3.9358436407
 30
0.0
 11
3.0628565758
 21
3.9358436407
 31
0.0
  0
LINE
  5
EA
330
1F
100
AcDbEntity
  8
0
  6
CONTINUOUS
 62
     7
100
AcDbLine
 10
3.0392345286
 20
3.9358436407
 30
0.0
 11
3.0038014577
 21
3.9358436407
 31
0.0
  0
LINE
  5
EB
330
1F
100
AcDbEntity
  8
0
  6
CONTINUOUS
 62
     7
100
AcDbLine
 10
3.6494707491
 20
4.4181271053
 30
0.0
 11
3.6140376782
 21
4.4181271053
 31
0.0
  0
LINE
  5
EC
330
1F
100
AcDbEntity
  8
0
  6
CONTINUOUS
 62
     7
100
AcDbLine
 10
3.5904156309
 20
4.4181271053
 30
0.0
 11
3.5549825601
 21
4.4181271053
 31
0.0
  0
LINE
  5
ED
330
1F
100
AcDbEntity
  8
0
  6
CONTINUOUS
 62
     7
100
AcDbLine
 10
3.5549825601
 20
4.0637963966
 30
0.0
 11
3.5904156309
 21
4.0637963966
 31
0.0
  0
LINE
  5
EE
330
1F
100
AcDbEntity
  8
0
  6
CONTINUOUS
 62
     7
100
AcDbLine
 10
3.6140376782
 20
4.0637963966
 30
0.0
 11
3.6494707491
 21
4.0637963966
 31
0.0
  0
LINE
  5
EF
330
1F
100
AcDbEntity
  8
0
  6
CONTINUOUS
 62
     7
100
AcDbLine
 10
3.6494707491
 20
3.4535601762
 30
0.0
 11
3.6140376782
 21
3.4535601762
 31
0.0
  0
LINE
  5
F0
330
1F
100
AcDbEntity
  8
0
  6
CONTINUOUS
 62
     7
100
AcDbLine
 10
3.5904156309
 20
3.4535601762
 30
0.0
 11
3.5549825601
 21
3.4535601762
 31
0.0
  0
LINE
  5
F1
330
1F
100
AcDbEntity
  8
0
  6
CONTINUOUS
 62
     7
100
AcDbLine
 10
3.5549825601
 20
3.0992294675
 30
0.0
 11
3.5904156309
 21
3.0992294675
 31
0.0
  0
LINE
  5
F2
330
1F
100
AcDbEntity
  8
0
  6
CONTINUOUS
 62
     7
100
AcDbLine
 10
3.6140376782
 20
3.0992294675
 30
0.0
 11
3.6494707491
 21
3.0992294675
 31
0.0
  0
LINE
  5
F3
330
1F
100
AcDbEntity
  8
0
  6
CONTINUOUS
 62
     7
100
AcDbLine
 10
3.6494707491
 20
3.9358436407
 30
0.0
 11
3.6140376782
 21
3.9358436407
 31
0.0
  0
LINE
  5
F4
330
1F
100
AcDbEntity
  8
0
  6
CONTINUOUS
 62
     7
100
AcDbLine
 10
3.5904156309
 20
3.9358436407
 30
0.0
 11
3.5549825601
 21
3.9358436407
 31
0.0
  0
LINE
  5
F5
330
1F
100
AcDbEntity
  8
0
  6
CONTINUOUS
 62
     7
100
AcDbLine
 10
3.5549825601
 20
3.5815129321
 30
0.0
 11
3.5904156309
 21
3.5815129321
 31
0.0
  0
LINE
  5
F6
330
1F
100
AcDbEntity
  8
0
  6
CONTINUOUS
 62
     7
100
AcDbLine
 10
3.6140376782
 20
3.5815129321
 30
0.0
 11
3.6494707491
 21
3.5815129321
 31
0.0
  0
ARC
  5
F7
330
1F
100
AcDbEntity
  8
0
  6
CONTINUOUS
 62
     7
100
AcDbCircle
 10
3.1061636624
 20
4.4988357667
 30
0.0
 40
0.0078740157480315
100
AcDbArc
 50
90.0
 51
180.0
  0
ARC
  5
F8
330
1F
100
AcDbEntity
  8
0
  6
CONTINUOUS
 62
     7
100
AcDbCircle
 10
3.1061636624
 20
3.0185208061
 30
0.0
 40
0.0078740157480315
100
AcDbArc
 50
180.0
 51
270.0
  0
LINE
  5
F9
330
1F
100
AcDbEntity
  8
0
  6
CONTINUOUS
 62
     7
100
AcDbLine
 10
3.5471085443
 20
4.5067097825
 30
0.0
 11
3.1061636624
 21
4.5067097825
 31
0.0
  0
LINE
  5
FA
330
1F
100
AcDbEntity
  8
0
  6
CONTINUOUS
 62
     7
100
AcDbLine
 10
3.1061636624
 20
3.0106467903
 30
0.0
 11
3.5471085443
 21
3.0106467903
 31
0.0
  0
ARC
  5
FB
330
1F
100
AcDbEntity
  8
0
  6
CONTINUOUS
 62
     7
100
AcDbCircle
 10
3.5471085443
 20
4.4988357667
 30
0.0
 40
0.0078740157480315
100
AcDbArc
 50
0.0
 51
90.0
  0
ARC
  5
FC
330
1F
100
AcDbEntity
  8
0
  6
CONTINUOUS
 62
     7
100
AcDbCircle
 10
3.5471085443
 20
3.0185208061
 30
0.0
 40
0.0078740157480315
100
AcDbArc
 50
270.0
 51
0.0
  0
LINE
  5
FD
330
1F
100
AcDbEntity
  8
0
  6
CONTINUOUS
 62
     7
100
AcDbLine
 10
3.0628565758
 20
4.4624184439
 30
0.0
 11
3.0392345286
 21
4.4624184439
 31
0.0
  0
LINE
  5
FE
330
1F
100
AcDbEntity
  8
0
  6
CONTINUOUS
 62
     7
100
AcDbLine
 10
3.0392345286
 20
3.0549381289
 30
0.0
 11
3.0628565758
 21
3.0549381289
 31
0.0
  0
LINE
  5
FF
330
1F
100
AcDbEntity
  8
0
  6
CONTINUOUS
 62
     7
100
AcDbLine
 10
3.6140376782
 20
4.4624184439
 30
0.0
 11
3.5904156309
 21
4.4624184439
 31
0.0
  0
LINE
  5
100
330
1F
100
AcDbEntity
  8
0
  6
CONTINUOUS
 62
     7
100
AcDbLine
 10
3.5904156309
 20
3.0549381289
 30
0.0
 11
3.6140376782
 21
3.0549381289
 31
0.0
  0
SPLINE
  5
101
330
1F
100
AcDbEntity
  8
0
  6
CONTINUOUS
 62
     7
100
AcDbSpline
210
0.0
220
0.0
230
1.0
 70
     8
 71
     3
 72
    70
 73
    66
 74
     0
 42
0.00000001
 43
0.00000001
 40
-0.0312499999999998
 40
-0.0312499999999998
 40
0.0
 40
0.0
 40
0.0312500000000002
 40
0.0312500000000002
 40
0.0625000000000004
 40
0.0625000000000004
 40
0.0937500000000006
 40
0.0937500000000006
 40
0.1250000000000008
 40
0.1250000000000008
 40
0.156250000000001
 40
0.156250000000001
 40
0.1875000000000013
 40
0.1875000000000013
 40
0.2187500000000015
 40
0.2187500000000015
 40
0.2500000000000018
 40
0.2500000000000018
 40
0.2812500000000021
 40
0.2812500000000021
 40
0.3125000000000023
 40
0.3125000000000023
 40
0.3437500000000026
 40
0.3437500000000026
 40
0.3750000000000028
 40
0.3750000000000028
 40
0.4062500000000031
 40
0.4062500000000031
 40
0.4375000000000033
 40
0.4375000000000033
 40
0.4687500000000036
 40
0.4687500000000036
 40
0.4843750000000034
 40
0.4843750000000034
 40
0.5000000000000034
 40
0.5000000000000034
 40
0.5312500000000031
 40
0.5312500000000031
 40
0.5625000000000027
 40
0.5625000000000027
 40
0.6250000000000022
 40
0.6250000000000022
 40
0.656250000000002
 40
0.656250000000002
 40
0.6875000000000017
 40
0.6875000000000017
 40
0.7187500000000014
 40
0.7187500000000014
 40
0.7500000000000012
 40
0.7500000000000012
 40
0.7812500000000011
 40
0.7812500000000011
 40
0.8125000000000009
 40
0.8125000000000009
 40
0.8437500000000008
 40
0.8437500000000008
 40
0.8750000000000007
 40
0.8750000000000007
 40
0.9062500000000006
 40
0.9062500000000006
 40
0.9375000000000003
 40
0.9375000000000003
 40
0.9687500000000002
 40
0.9687500000000002
 40
1.0
 40
1.0
 40
1.03125
 40
1.03125
 10
4.17607377349466
 20
4.462980939358873
 30
0.0
 10
4.149481897841373
 20
4.462980939358873
 30
0.0
 10
4.136454508883338
 20
4.462457055674907
 30
0.0
 10
4.110915936475972
 20
4.460349183563654
 30
0.0
 10
4.098333425591553
 20
4.458735943090367
 30
0.0
 10
4.074963588756993
 20
4.454446201999175
 30
0.0
 10
4.063928205743471
 20
4.451736356784467
 30
0.0
 10
4.043722972693122
 20
4.445123218297467
 30
0.0
 10
4.034734577438711
 20
4.441291881672495
 30
0.0
 10
4.018835835202204
 20
4.432430191930426
 30
0.0
 10
4.011970779561243
 20
4.427389193675173
 30
0.0
 10
4.000772575982992
 20
4.416410001112417
 30
0.0
 10
3.996321597495515
 20
4.410376744575293
 30
0.0
 10
3.9897271988227
 20
4.397427876926456
 30
0.0
 10
3.987601538674586
 20
4.390592245435734
 30
0.0
 10
3.985401262403692
 20
4.376180344333473
 30
0.0
 10
3.985344579870996
 20
4.368557303162334
 30
0.0
 10
3.987103365965447
 20
4.352991647838557
 30
0.0
 10
3.988902625776287
 20
4.345007764538445
 30
0.0
 10
3.994192561884079
 20
4.328654331810277
 30
0.0
 10
3.997707878870845
 20
4.320254964847488
 30
0.0
 10
4.006196408556456
 20
4.303536028801163
 30
0.0
 10
4.0111801527341
 20
4.295165545318514
 30
0.0
 10
4.022651020161764
 20
4.278476526400362
 30
0.0
 10
4.029186886872842
 20
4.270101146099162
 30
0.0
 10
4.043733797107204
 20
4.253836294189986
 30
0.0
 10
4.051705008007159
 20
4.245969697997696
 30
0.0
 10
4.069345260815771
 20
4.231059516057475
 30
0.0
 10
4.079128473627489
 20
4.223943382392991
 30
0.0
 10
4.100330917808547
 20
4.211599368968598
 30
0.0
 10
4.111928249253884
 20
4.206273596547833
 30
0.0
 10
4.130486821073777
 20
4.200672267084706
 30
0.0
 10
4.136813126203381
 20
4.199215869054198
 30
0.0
 10
4.1497801742516
 20
4.197240458041244
 30
0.0
 10
4.156479647601837
 20
4.196730303673258
 30
0.0
 10
4.17624824529502
 20
4.196775300331889
 30
0.0
 10
4.189428488256205
 20
4.19891975996199
 30
0.0
 10
4.214129325804135
 20
4.206477392013853
 30
0.0
 10
4.225761191614096
 20
4.211868671812141
 30
0.0
 10
4.257440721814522
 20
4.230444547009053
 30
0.0
 10
4.275012569533491
 20
4.246163431245212
 30
0.0
 10
4.296600128458695
 20
4.270390477877751
 30
0.0
 10
4.303033918434366
 20
4.278647311574155
 30
0.0
 10
4.3145109118517
 20
4.295380218887263
 30
0.0
 10
4.319556823090104
 20
4.303886234994516
 30
0.0
 10
4.32799550323867
 20
4.320586422700457
 30
0.0
 10
4.331430711831587
 20
4.328836410282773
 30
0.0
 10
4.336673812161039
 20
4.345099328552632
 30
0.0
 10
4.338487439429396
 20
4.35316783858228
 30
0.0
 10
4.340220340246346
 20
4.368777373984392
 30
0.0
 10
4.340146673920414
 20
4.376263325994902
 30
0.0
 10
4.337946804030243
 20
4.390607708742341
 30
0.0
 10
4.335792251072321
 20
4.397522129070582
 30
0.0
 10
4.329184285473908
 20
4.410451079240821
 30
0.0
 10
4.32478383825779
 20
4.41640964226607
 30
0.0
 10
4.313580398751793
 20
4.427393229172397
 30
0.0
 10
4.306680281456915
 20
4.432452074536011
 30
0.0
 10
4.290863962941112
 20
4.441268151660462
 30
0.0
 10
4.281916042557053
 20
4.445089175056829
 30
0.0
 10
4.261771459061053
 20
4.451695917001171
 30
0.0
 10
4.250682716187141
 20
4.454425122237425
 30
0.0
 10
4.227359160700998
 20
4.458715211165456
 30
0.0
 10
4.214838509523872
 20
4.460328963633431
 30
0.0
 10
4.189159062724959
 20
4.462456052552254
 30
0.0
 10
4.17607377349466
 20
4.462980939358873
 30
0.0
 10
4.149481897841373
 20
4.462980939358873
 30
0.0
  0
SPLINE
  5
102
330
1F
100
AcDbEntity
  8
0
  6
CONTINUOUS
 62
     7
100
AcDbSpline
210
0.0
220
0.0
230
1.0
 70
     8
 71
     3
 72
    50
 73
    46
 74
     0
 42
0.00000001
 43
0.00000001
 40
-0.0625000000000007
 40
-0.0625000000000007
 40
0.0
 40
0.0
 40
0.0312499999999998
 40
0.0312499999999998
 40
0.0624999999999995
 40
0.0624999999999995
 40
0.0937499999999993
 40
0.0937499999999993
 40
0.124999999999999
 40
0.124999999999999
 40
0.1874999999999988
 40
0.1874999999999988
 40
0.2499999999999987
 40
0.2499999999999987
 40
0.3124999999999985
 40
0.3124999999999985
 40
0.3749999999999983
 40
0.3749999999999983
 40
0.4374999999999982
 40
0.4374999999999982
 40
0.4687499999999981
 40
0.4687499999999981
 40
0.499999999999998
 40
0.499999999999998
 40
0.531249999999998
 40
0.531249999999998
 40
0.5624999999999979
 40
0.5624999999999979
 40
0.5937499999999979
 40
0.5937499999999979
 40
0.6249999999999979
 40
0.6249999999999979
 40
0.687499999999998
 40
0.687499999999998
 40
0.7499999999999982
 40
0.7499999999999982
 40
0.8124999999999986
 40
0.8124999999999986
 40
0.874999999999999
 40
0.874999999999999
 40
0.9062499999999992
 40
0.9062499999999992
 40
0.9374999999999993
 40
0.9374999999999993
 40
1.0
 40
1.0
 40
1.03125
 40
1.03125
 10
4.148173181812595
 20
3.228405632666276
 30
0.0
 10
4.170080162595727
 20
3.228405632666275
 30
0.0
 10
4.177166797006284
 20
3.227604797952248
 30
0.0
 10
4.190955044678339
 20
3.224592933944662
 30
0.0
 10
4.197570449814291
 20
3.222380207947574
 30
0.0
 10
4.20974756786812
 20
3.217029167960513
 30
0.0
 10
4.215436780518194
 20
3.213838158240332
 30
0.0
 10
4.225654472477664
 20
3.206963679489134
 30
0.0
 10
4.230252331157043
 20
3.203253532065917
 30
0.0
 10
4.242728919278775
 20
3.191496337276338
 30
0.0
 10
4.249059428177698
 20
3.183070863111848
 30
0.0
 10
4.258008407164096
 20
3.16601446966273
 30
0.0
 10
4.260595725130599
 20
3.157355382909011
 30
0.0
 10
4.261620631903788
 20
3.140766862653706
 30
0.0
 10
4.260026540137432
 20
3.132659088119489
 30
0.0
 10
4.252291329976707
 20
3.118062660671685
 30
0.0
 10
4.245970701870085
 20
3.111297265494973
 30
0.0
 10
4.228704923374565
 20
3.10010014410683
 30
0.0
 10
4.21759503437187
 20
3.095562877274358
 30
0.0
 10
4.198546077180119
 20
3.090957016698863
 30
0.0
 10
4.191681054742669
 20
3.089760820002652
 30
0.0
 10
4.17776319135807
 20
3.088176971820473
 30
0.0
 10
4.170573788286756
 20
3.087761788018515
 30
0.0
 10
4.156036688534121
 20
3.087723387178333
 30
0.0
 10
4.148893909187462
 20
3.088094966976096
 30
0.0
 10
4.134852469642122
 20
3.089612187292468
 30
0.0
 10
4.127984210253802
 20
3.090768518663898
 30
0.0
 10
4.115197627024132
 20
3.093772304279673
 30
0.0
 10
4.109119285514547
 20
3.095657384787462
 30
0.0
 10
4.098114569117013
 20
3.10004748717591
 30
0.0
 10
4.093174391843409
 20
3.102542233816939
 30
0.0
 10
4.079934360333537
 20
3.110964969931294
 30
0.0
 10
4.073565004380916
 20
3.117650340154071
 30
0.0
 10
4.065579148851806
 20
3.132416386893677
 30
0.0
 10
4.063957478372498
 20
3.140487359758048
 30
0.0
 10
4.064909425937935
 20
3.157162432635791
 30
0.0
 10
4.06748059498704
 20
3.165841251431758
 30
0.0
 10
4.076399138668619
 20
3.182931097681026
 30
0.0
 10
4.082703235629841
 20
3.191356358710202
 30
0.0
 10
4.095192362627884
 20
3.203160502667916
 30
0.0
 10
4.099795834364352
 20
3.206884597698934
 30
0.0
 10
4.110025977061605
 20
3.213783680918339
 30
0.0
 10
4.115722695603883
 20
3.216985233185919
 30
0.0
 10
4.133988836363057
 20
3.225031074343462
 30
0.0
 10
4.148173181812595
 20
3.228405632666276
 30
0.0
 10
4.170080162595727
 20
3.228405632666275
 30
0.0
  0
LINE
  5
103
330
1F
100
AcDbEntity
  8
0
  6
CONTINUOUS
 62
     7
100
AcDbLine
 10
3.8806256047
 20
3.7193082077
 30
0.0
 11
3.8806256047
 21
3.0106467903
 31
0.0
  0
LINE
  5
104
330
1F
100
AcDbEntity
  8
0
  6
CONTINUOUS
 62
     7
100
AcDbLine
 10
4.3596282294
 20
3.7193082077
 30
0.0
 11
3.8806256047
 21
3.7193082077
 31
0.0
  0
LINE
  5
105
330
1F
100
AcDbEntity
  8
0
  6
CONTINUOUS
 62
     7
100
AcDbLine
 10
4.3596282294
 20
3.7980483651
 30
0.0
 11
4.3596282294
 21
4.5067097825
 31
0.0
  0
LINE
  5
106
330
1F
100
AcDbEntity
  8
0
  6
CONTINUOUS
 62
     7
100
AcDbLine
 10
4.3596282294
 20
3.0106467903
 30
0.0
 11
4.3596282294
 21
3.7193082077
 31
0.0
  0
LINE
  5
107
330
1F
100
AcDbEntity
  8
0
  6
CONTINUOUS
 62
     7
100
AcDbLine
 10
4.3596282294
 20
3.7980483651
 30
0.0
 11
3.8806256047
 21
3.7980483651
 31
0.0
  0
LINE
  5
108
330
1F
100
AcDbEntity
  8
0
  6
CONTINUOUS
 62
     7
100
AcDbLine
 10
3.8806256047
 20
4.5067097825
 30
0.0
 11
3.8806256047
 21
3.7980483651
 31
0.0
  0
LINE
  5
109
330
1F
100
AcDbEntity
  8
0
  6
CONTINUOUS
 62
     7
100
AcDbLine
 10
3.7756387281
 20
4.4540925278
 30
0.0
 11
3.8806256047
 21
4.4540925278
 31
0.0
  0
LINE
  5
10A
330
1F
100
AcDbEntity
  8
0
  6
CONTINUOUS
 62
     7
100
AcDbLine
 10
3.8806256047
 20
3.0632640449
 30
0.0
 11
3.7756387281
 21
3.0632640449
 31
0.0
  0
LINE
  5
10B
330
1F
100
AcDbEntity
  8
0
  6
CONTINUOUS
 62
     7
100
AcDbLine
 10
3.6494707491
 20
4.5067097825
 30
0.0
 11
3.6494707491
 21
3.0106467903
 31
0.0
  0
LINE
  5
10C
330
1F
100
AcDbEntity
  8
0
  6
CONTINUOUS
 62
     7
100
AcDbLine
 10
3.7756387281
 20
3.0106467903
 30
0.0
 11
3.7756387281
 21
4.5067097825
 31
0.0
  0
LINE
  5
10D
330
1F
100
AcDbEntity
  8
0
  6
CONTINUOUS
 62
     7
100
AcDbLine
 10
4.3896282294
 20
3.7193082077
 30
0.0
 11
4.3896282294
 21
3.0406467903
 31
0.0
  0
LINE
  5
10E
330
1F
100
AcDbEntity
  8
0
  6
CONTINUOUS
 62
     7
100
AcDbLine
 10
4.3896282294
 20
4.4767097825
 30
0.0
 11
4.3896282294
 21
3.7980483651
 31
0.0
  0
LINE
  5
10F
330
1F
100
AcDbEntity
  8
0
  6
CONTINUOUS
 62
     7
100
AcDbLine
 10
4.3596282294
 20
3.7980483651
 30
0.0
 11
4.3896282294
 21
3.7980483651
 31
0.0
  0
LINE
  5
110
330
1F
100
AcDbEntity
  8
0
  6
CONTINUOUS
 62
     7
100
AcDbLine
 10
4.3596282294
 20
3.7193082077
 30
0.0
 11
4.3896282294
 21
3.7193082077
 31
0.0
  0
LINE
  5
111
330
1F
100
AcDbEntity
  8
0
  6
CONTINUOUS
 62
     7
100
AcDbLine
 10
4.3896282294
 20
3.7980483651
 30
0.0
 11
4.3896282294
 21
3.7193082077
 31
0.0
  0
LINE
  5
112
330
1F
100
AcDbEntity
  8
0
  6
CONTINUOUS
 62
     7
100
AcDbLine
 10
3.8806256047
 20
3.7193082077
 30
0.0
 11
3.8806256047
 21
3.7980483651
 31
0.0
  0
LINE
  5
113
330
1F
100
AcDbEntity
  8
0
  6
CONTINUOUS
 62
     7
100
AcDbLine
 10
4.1627778357
 20
4.3492294675
 30
0.0
 11
4.3005731113
 21
4.3492294675
 31
0.0
  0
LINE
  5
114
330
1F
100
AcDbEntity
  8
0
  6
CONTINUOUS
 62
     7
100
AcDbLine
 10
4.0249825601
 20
4.3492294675
 30
0.0
 11
4.1627778357
 21
4.3492294675
 31
0.0
  0
CIRCLE
  5
115
330
1F
100
AcDbEntity
  8
0
  6
CONTINUOUS
 62
     7
100
AcDbCircle
 10
2.4904943711
 20
4.1878533471
 30
0.0
 40
0.059055118110237
  0
SPLINE
  5
116
330
1F
100
AcDbEntity
  8
0
  6
CONTINUOUS
 62
     7
100
AcDbSpline
210
0.0
220
0.0
230
1.0
 70
     8
 71
     3
 72
    50
 73
    46
 74
     0
 42
0.00000001
 43
0.00000001
 40
-0.0625000000000001
 40
-0.0625000000000001
 40
0.0
 40
0.0
 40
0.03125
 40
0.03125
 40
0.0625000000000001
 40
0.0625000000000001
 40
0.0937500000000001
 40
0.0937500000000001
 40
0.1250000000000002
 40
0.1250000000000002
 40
0.1875000000000005
 40
0.1875000000000005
 40
0.2500000000000007
 40
0.2500000000000007
 40
0.3125000000000008
 40
0.3125000000000008
 40
0.3750000000000009
 40
0.3750000000000009
 40
0.437500000000001
 40
0.437500000000001
 40
0.468750000000001
 40
0.468750000000001
 40
0.500000000000001
 40
0.500000000000001
 40
0.5312500000000009
 40
0.5312500000000009
 40
0.5625000000000009
 40
0.5625000000000009
 40
0.5937500000000008
 40
0.5937500000000008
 40
0.6250000000000008
 40
0.6250000000000008
 40
0.6875000000000007
 40
0.6875000000000007
 40
0.7500000000000004
 40
0.7500000000000004
 40
0.8125000000000003
 40
0.8125000000000003
 40
0.8750000000000002
 40
0.8750000000000002
 40
0.9062500000000001
 40
0.9062500000000001
 40
0.9374999999999999
 40
0.9374999999999999
 40
1.0
 40
1.0
 40
1.03125
 40
1.03125
 10
2.505099024956507
 20
4.286278543985681
 30
0.0
 10
2.483192044173378
 20
4.286278543985681
 30
0.0
 10
2.476105409762821
 20
4.285476794535321
 30
0.0
 10
2.462317162090766
 20
4.282423028233671
 30
0.0
 10
2.455701756954814
 20
4.280166902981384
 30
0.0
 10
2.443524638900985
 20
4.274606807291829
 30
0.0
 10
2.437835426250911
 20
4.271246217605105
 30
0.0
 10
2.427617734291442
 20
4.263839292292518
 30
0.0
 10
2.423019875612062
 20
4.259766402393552
 30
0.0
 10
2.410543287490329
 20
4.246525711470116
 30
0.0
 10
2.404212778591407
 20
4.236604646249266
 30
0.0
 10
2.395263799605008
 20
4.215282175470404
 30
0.0
 10
2.392676481638506
 20
4.203837505590016
 30
0.0
 10
2.391651574865318
 20
4.1805093391891
 30
0.0
 10
2.393245666631673
 20
4.168360073763204
 30
0.0
 10
2.400980876792398
 20
4.145137629133753
 30
0.0
 10
2.40730150489902
 20
4.133619127325443
 30
0.0
 10
2.424567283394541
 20
4.113583415858687
 30
0.0
 10
2.435677172397234
 20
4.104907477251375
 30
0.0
 10
2.454726129588987
 20
4.095888636068785
 30
0.0
 10
2.461591152026437
 20
4.093497196464548
 30
0.0
 10
2.475509015411036
 20
4.090314030154291
 30
0.0
 10
2.482698418482348
 20
4.089468511758636
 30
0.0
 10
2.497235518234985
 20
4.089390614872548
 30
0.0
 10
2.504378297581643
 20
4.090147794565809
 30
0.0
 10
2.518419737126983
 20
4.093199702991259
 30
0.0
 10
2.525287996515303
 20
4.095514439030546
 30
0.0
 10
2.538074579744972
 20
4.101405709429881
 30
0.0
 10
2.544152921254558
 20
4.105054306378296
 30
0.0
 10
2.555157637652092
 20
4.113330980601446
 30
0.0
 10
2.560097814925697
 20
4.117941190386156
 30
0.0
 10
2.573337846435568
 20
4.13304644352242
 30
0.0
 10
2.579707202388188
 20
4.144459672299977
 30
0.0
 10
2.587693057917299
 20
4.167994959406736
 30
0.0
 10
2.589314728396606
 20
4.180102542814316
 30
0.0
 10
2.58836278083117
 20
4.20357951515361
 30
0.0
 10
2.585791611782065
 20
4.215058226642426
 30
0.0
 10
2.576873068100486
 20
4.236437194812186
 30
0.0
 10
2.570568971139263
 20
4.246364136474519
 30
0.0
 10
2.558079844141221
 20
4.259663561417907
 30
0.0
 10
2.553476372404753
 20
4.263753097506958
 30
0.0
 10
2.5432462297075
 20
4.271188489831906
 30
0.0
 10
2.537549511165222
 20
4.274560749885907
 30
0.0
 10
2.519283370406048
 20
4.282922137948871
 30
0.0
 10
2.505099024956507
 20
4.286278543985681
 30
0.0
 10
2.483192044173378
 20
4.286278543985681
 30
0.0
  0
LINE
  5
117
330
1F
100
AcDbEntity
  8
0
  6
CONTINUOUS
 62
     7
100
AcDbLine
 10
2.2936439774
 20
3.0106467903
 30
0.0
 11
2.2936439774
 21
4.5056730093
 31
0.0
  0
LINE
  5
118
330
1F
100
AcDbEntity
  8
0
  6
CONTINUOUS
 62
     7
100
AcDbLine
 10
2.2936439774
 20
4.5056730093
 30
0.0
 11
2.7726466021
 21
4.5056730093
 31
0.0
  0
LINE
  5
119
330
1F
100
AcDbEntity
  8
0
  6
CONTINUOUS
 62
     7
100
AcDbLine
 10
2.7726466021
 20
3.4830877352
 30
0.0
 11
2.8776334787
 21
3.4830877352
 31
0.0
  0
LINE
  5
11A
330
1F
100
AcDbEntity
  8
0
  6
CONTINUOUS
 62
     7
100
AcDbLine
 10
3.0038014577
 20
4.5067097825
 30
0.0
 11
3.0038014577
 21
3.0106467903
 31
0.0
  0
LINE
  5
11B
330
1F
100
AcDbEntity
  8
0
  6
CONTINUOUS
 62
     7
100
AcDbLine
 10
2.7726466021
 20
4.5056730093
 30
0.0
 11
2.7726466021
 21
3.4830877352
 31
0.0
  0
LINE
  5
11C
330
1F
100
AcDbEntity
  8
0
  6
CONTINUOUS
 62
     7
100
AcDbLine
 10
2.8776334787
 20
3.4830877352
 30
0.0
 11
2.8776334787
 21
4.5067097825
 31
0.0
  0
LINE
  5
11D
330
1F
100
AcDbEntity
  8
0
  6
CONTINUOUS
 62
     7
100
AcDbLine
 10
2.2636439774
 20
4.475629628
 30
0.0
 11
2.2636439774
 21
3.0406467903
 31
0.0
  0
LINE
  5
11E
330
1F
100
AcDbEntity
  8
0
  6
CONTINUOUS
 62
     7
100
AcDbLine
 10
2.2936439774
 20
4.5056730093
 30
0.0
 11
2.2636439774
 21
4.475629628
 31
0.0
  0
LINE
  5
11F
330
1F
100
AcDbEntity
  8
0
  6
CONTINUOUS
 62
     7
100
AcDbLine
 10
3.0982896467
 20
3.0185208061
 30
0.0
 11
3.0982896467
 21
4.4988357667
 31
0.0
  0
LINE
  5
120
330
1F
100
AcDbEntity
  8
0
  6
CONTINUOUS
 62
     7
100
AcDbLine
 10
3.5549825601
 20
4.4988357667
 30
0.0
 11
3.5549825601
 21
3.0185208061
 31
0.0
  0
LINE
  5
121
330
1F
100
AcDbEntity
  8
0
  6
CONTINUOUS
 62
     7
100
AcDbLine
 10
3.0628565758
 20
3.9152718157
 30
0.0
 11
3.0392345286
 21
3.9152718157
 31
0.0
  0
LINE
  5
122
330
1F
100
AcDbEntity
  8
0
  6
CONTINUOUS
 62
     7
100
AcDbLine
 10
3.0628565758
 20
3.9152718157
 30
0.0
 11
3.0628565758
 21
3.6020847571
 31
0.0
  0
LINE
  5
123
330
1F
100
AcDbEntity
  8
0
  6
CONTINUOUS
 62
     7
100
AcDbLine
 10
3.0628565758
 20
3.6020847571
 30
0.0
 11
3.0392345286
 21
3.6020847571
 31
0.0
  0
LINE
  5
124
330
1F
100
AcDbEntity
  8
0
  6
CONTINUOUS
 62
     7
100
AcDbLine
 10
3.0392345286
 20
3.9152718157
 30
0.0
 11
3.0392345286
 21
3.6020847571
 31
0.0
  0
LINE
  5
125
330
1F
100
AcDbEntity
  8
0
  6
CONTINUOUS
 62
     7
100
AcDbLine
 10
3.0628565758
 20
3.1198012925
 30
0.0
 11
3.0392345286
 21
3.1198012925
 31
0.0
  0
LINE
  5
126
330
1F
100
AcDbEntity
  8
0
  6
CONTINUOUS
 62
     7
100
AcDbLine
 10
3.0628565758
 20
3.6020847571
 30
0.0
 11
3.0628565758
 21
3.1198012925
 31
0.0
  0
LINE
  5
127
330
1F
100
AcDbEntity
  8
0
  6
CONTINUOUS
 62
     7
100
AcDbLine
 10
3.0392345286
 20
3.6020847571
 30
0.0
 11
3.0392345286
 21
3.1198012925
 31
0.0
  0
LINE
  5
128
330
1F
100
AcDbEntity
  8
0
  6
CONTINUOUS
 62
     7
100
AcDbLine
 10
3.0628565758
 20
4.3975552803
 30
0.0
 11
3.0392345286
 21
4.3975552803
 31
0.0
  0
LINE
  5
129
330
1F
100
AcDbEntity
  8
0
  6
CONTINUOUS
 62
     7
100
AcDbLine
 10
3.0628565758
 20
4.3975552803
 30
0.0
 11
3.0628565758
 21
3.9152718157
 31
0.0
  0
LINE
  5
12A
330
1F
100
AcDbEntity
  8
0
  6
CONTINUOUS
 62
     7
100
AcDbLine
 10
3.0392345286
 20
4.3975552803
 30
0.0
 11
3.0392345286
 21
3.9152718157
 31
0.0
  0
LINE
  5
12B
330
1F
100
AcDbEntity
  8
0
  6
CONTINUOUS
 62
     7
100
AcDbLine
 10
3.0628565758
 20
4.4624184439
 30
0.0
 11
3.0628565758
 21
4.3975552803
 31
0.0
  0
LINE
  5
12C
330
1F
100
AcDbEntity
  8
0
  6
CONTINUOUS
 62
     7
100
AcDbLine
 10
3.0392345286
 20
4.4624184439
 30
0.0
 11
3.0392345286
 21
4.3975552803
 31
0.0
  0
LINE
  5
12D
330
1F
100
AcDbEntity
  8
0
  6
CONTINUOUS
 62
     7
100
AcDbLine
 10
3.0628565758
 20
3.1198012925
 30
0.0
 11
3.0628565758
 21
3.0549381289
 31
0.0
  0
LINE
  5
12E
330
1F
100
AcDbEntity
  8
0
  6
CONTINUOUS
 62
     7
100
AcDbLine
 10
3.0392345286
 20
3.1198012925
 30
0.0
 11
3.0392345286
 21
3.0549381289
 31
0.0
  0
LINE
  5
12F
330
1F
100
AcDbEntity
  8
0
  6
CONTINUOUS
 62
     7
100
AcDbLine
 10
3.5904156309
 20
3.6020847571
 30
0.0
 11
3.6140376782
 21
3.6020847571
 31
0.0
  0
LINE
  5
130
330
1F
100
AcDbEntity
  8
0
  6
CONTINUOUS
 62
     7
100
AcDbLine
 10
3.5904156309
 20
3.9152718157
 30
0.0
 11
3.5904156309
 21
3.6020847571
 31
0.0
  0
LINE
  5
131
330
1F
100
AcDbEntity
  8
0
  6
CONTINUOUS
 62
     7
100
AcDbLine
 10
3.5904156309
 20
3.9152718157
 30
0.0
 11
3.6140376782
 21
3.9152718157
 31
0.0
  0
LINE
  5
132
330
1F
100
AcDbEntity
  8
0
  6
CONTINUOUS
 62
     7
100
AcDbLine
 10
3.6140376782
 20
3.9152718157
 30
0.0
 11
3.6140376782
 21
3.6020847571
 31
0.0
  0
LINE
  5
133
330
1F
100
AcDbEntity
  8
0
  6
CONTINUOUS
 62
     7
100
AcDbLine
 10
3.5904156309
 20
4.3975552803
 30
0.0
 11
3.6140376782
 21
4.3975552803
 31
0.0
  0
LINE
  5
134
330
1F
100
AcDbEntity
  8
0
  6
CONTINUOUS
 62
     7
100
AcDbLine
 10
3.5904156309
 20
4.3975552803
 30
0.0
 11
3.5904156309
 21
3.9152718157
 31
0.0
  0
LINE
  5
135
330
1F
100
AcDbEntity
  8
0
  6
CONTINUOUS
 62
     7
100
AcDbLine
 10
3.6140376782
 20
4.3975552803
 30
0.0
 11
3.6140376782
 21
3.9152718157
 31
0.0
  0
LINE
  5
136
330
1F
100
AcDbEntity
  8
0
  6
CONTINUOUS
 62
     7
100
AcDbLine
 10
3.5904156309
 20
3.1198012925
 30
0.0
 11
3.6140376782
 21
3.1198012925
 31
0.0
  0
LINE
  5
137
330
1F
100
AcDbEntity
  8
0
  6
CONTINUOUS
 62
     7
100
AcDbLine
 10
3.5904156309
 20
3.6020847571
 30
0.0
 11
3.5904156309
 21
3.1198012925
 31
0.0
  0
LINE
  5
138
330
1F
100
AcDbEntity
  8
0
  6
CONTINUOUS
 62
     7
100
AcDbLine
 10
3.6140376782
 20
3.6020847571
 30
0.0
 11
3.6140376782
 21
3.1198012925
 31
0.0
  0
LINE
  5
139
330
1F
100
AcDbEntity
  8
0
  6
CONTINUOUS
 62
     7
100
AcDbLine
 10
3.5904156309
 20
4.4624184439
 30
0.0
 11
3.5904156309
 21
4.3975552803
 31
0.0
  0
LINE
  5
13A
330
1F
100
AcDbEntity
  8
0
  6
CONTINUOUS
 62
     7
100
AcDbLine
 10
3.6140376782
 20
4.4624184439
 30
0.0
 11
3.6140376782
 21
4.3975552803
 31
0.0
  0
LINE
  5
13B
330
1F
100
AcDbEntity
  8
0
  6
CONTINUOUS
 62
     7
100
AcDbLine
 10
3.5904156309
 20
3.1198012925
 30
0.0
 11
3.5904156309
 21
3.0549381289
 31
0.0
  0
LINE
  5
13C
330
1F
100
AcDbEntity
  8
0
  6
CONTINUOUS
 62
     7
100
AcDbLine
 10
3.6140376782
 20
3.1198012925
 30
0.0
 11
3.6140376782
 21
3.0549381289
 31
0.0
  0
LINE
  5
13D
330
1F
100
AcDbEntity
  8
0
  6
CONTINUOUS
 62
     8
100
AcDbLine
 10
4.1627778357
 20
4.3098593888
 30
0.0
 11
4.0030737979
 21
4.3098593888
 31
0.0
  0
LINE
  5
13E
330
1F
100
AcDbEntity
  8
0
  6
CONTINUOUS
 62
     8
100
AcDbLine
 10
4.3222458208
 20
4.3098593888
 30
0.0
 11
4.1627778357
 21
4.3098593888
 31
0.0
  0
LINE
  5
13F
330
1F
100
AcDbEntity
  8
0
  6
CONTINUOUS
 62
     8
100
AcDbLine
 10
3.1061636624
 20
4.5067097825
 30
0.0
 11
3.1061636624
 21
3.0106467903
 31
0.0
  0
LINE
  5
140
330
1F
100
AcDbEntity
  8
0
  6
CONTINUOUS
 62
     8
100
AcDbLine
 10
3.5471085443
 20
3.0106467903
 30
0.0
 11
3.5471085443
 21
4.5067097825
 31
0.0
  0
LINE
  5
141
330
1F
100
AcDbEntity
  8
0
  6
HIDDEN
 62
     7
100
AcDbLine
 10
4.3596282294
 20
3.7980483651
 30
0.0
 11
4.3596282294
 21
3.7193082077
 31
0.0
  0
LINE
  5
142
330
1F
100
AcDbEntity
  8
0
  6
HIDDEN
 62
     7
100
AcDbLine
 10
4.1627778357
 20
4.1523790738
 30
0.0
 11
4.33994319
 21
4.1523790738
 31
0.0
  0
LINE
  5
143
330
1F
100
AcDbEntity
  8
0
  6
HIDDEN
 62
     7
100
AcDbLine
 10
3.9856124813
 20
4.1523790738
 30
0.0
 11
4.1627778357
 21
4.1523790738
 31
0.0
  0
LINE
  5
144
330
1F
100
AcDbEntity
  8
0
  6
HIDDEN
 62
     7
100
AcDbLine
 10
4.261137368
 20
3.364977499
 30
0.0
 11
4.0644183033
 21
3.364977499
 31
0.0
  0
LINE
  5
145
330
1F
100
AcDbEntity
  8
0
  6
HIDDEN
 62
     7
100
AcDbLine
 10
4.2218329538
 20
3.3256074203
 30
0.0
 11
4.1037227176
 21
3.3256074203
 31
0.0
  0
LINE
  5
146
330
1F
100
AcDbEntity
  8
0
  6
HIDDEN
 62
     7
100
AcDbLine
 10
4.1627778357
 20
4.1523790738
 30
0.0
 11
4.1627778357
 21
4.3492294675
 31
0.0
  0
LINE
  5
147
330
1F
100
AcDbEntity
  8
0
  6
HIDDEN
 62
     7
100
AcDbLine
 10
4.2415179931
 20
4.1523790738
 30
0.0
 11
4.2415179931
 21
4.3492294675
 31
0.0
  0
LINE
  5
148
330
1F
100
AcDbEntity
  8
0
  6
HIDDEN
 62
     7
100
AcDbLine
 10
4.0840376782
 20
4.1523790738
 30
0.0
 11
4.0840376782
 21
4.3492294675
 31
0.0
  0
POLYLINE
  5
149
330
1F
100
AcDbEntity
  8
0
  6
HIDDEN
 62
     7
100
AcDb2dPolyline
 66
     1
 10
0.0
 20
0.0
 30
0.0
  0
VERTEX
  5
358
330
149
100
AcDbEntity
  8
0
  6
HIDDEN
 62
     7
100
AcDbVertex
100
AcDb2dVertex
 10
2.588919568
 20
4.1878533471
 30
0.0
  0
VERTEX
  5
359
330
149
100
AcDbEntity
  8
0
  6
HIDDEN
 62
     7
100
AcDbVertex
100
AcDb2dVertex
 10
2.5888539034
 20
4.1914480344
 30
0.0
  0
VERTEX
  5
35A
330
149
100
AcDbEntity
  8
0
  6
HIDDEN
 62
     7
100
AcDbVertex
100
AcDb2dVertex
 10
2.5878481137
 20
4.2023367233
 30
0.0
  0
SEQEND
  5
35B
330
149
100
AcDbEntity
  8
0
  6
HIDDEN
 62
     7
  0
ARC
  5
14A
330
1F
100
AcDbEntity
  8
0
  6
HIDDEN
 62
     7
100
AcDbCircle
 10
2.4904943711
 20
4.1878533471
 30
0.0
 40
0.0984251968503938
100
AcDbArc
 50
75.4227190465
 51
91.3777024598
  0
LINE
  5
14B
330
1F
100
AcDbEntity
  8
0
  6
HIDDEN
 62
     7
100
AcDbLine
 10
2.4894602429
 20
4.0894335831
 30
0.0
 11
2.4904943711
 21
4.0894281503
 31
0.0
  0
LINE
  5
14C
330
1F
100
AcDbEntity
  8
0
  6
HIDDEN
 62
     7
100
AcDbLine
 10
2.4117542136
 20
4.142392696
 30
0.0
 11
2.4904943711
 21
4.0969320449
 31
0.0
  0
LINE
  5
14D
330
1F
100
AcDbEntity
  8
0
  6
HIDDEN
 62
     7
100
AcDbLine
 10
2.4904943711
 20
4.0969320449
 30
0.0
 11
2.5692345286
 21
4.142392696
 31
0.0
  0
LINE
  5
14E
330
1F
100
AcDbEntity
  8
0
  6
HIDDEN
 62
     7
100
AcDbLine
 10
2.5692345286
 20
4.142392696
 30
0.0
 11
2.5692345286
 21
4.2333139983
 31
0.0
  0
LINE
  5
14F
330
1F
100
AcDbEntity
  8
0
  6
HIDDEN
 62
     7
100
AcDbLine
 10
2.4117542136
 20
4.2333139983
 30
0.0
 11
2.4117542136
 21
4.142392696
 31
0.0
  0
LINE
  5
150
330
1F
100
AcDbEntity
  8
0
  6
HIDDEN
 62
     7
100
AcDbLine
 10
2.4904943711
 20
4.2787746494
 30
0.0
 11
2.4117542136
 21
4.2333139983
 31
0.0
  0
LINE
  5
151
330
1F
100
AcDbEntity
  8
0
  6
HIDDEN
 62
     7
100
AcDbLine
 10
2.5692345286
 20
4.2333139983
 30
0.0
 11
2.4904943711
 21
4.2787746494
 31
0.0
  0
CIRCLE
  5
152
330
1F
100
AcDbEntity
  8
0
  6
HIDDEN
 62
     7
100
AcDbCircle
 10
2.4904943711
 20
4.1878533471
 30
0.0
 40
0.1771653543307083
  0
CIRCLE
  5
153
330
1F
100
AcDbEntity
  8
0
  6
HIDDEN
 62
     7
100
AcDbCircle
 10
2.4904943711
 20
4.1878533471
 30
0.0
 40
0.1377952755905509
  0
ARC
  5
154
330
1F
100
AcDbEntity
  8
0
  6
HIDDEN
 62
     7
100
AcDbCircle
 10
2.2636439774
 20
3.6405680502
 30
0.0
 40
0.5090026246719175
100
AcDbArc
 50
270.0
 51
0.0
  0
LINE
  5
155
330
1F
100
AcDbEntity
  8
0
  6
HIDDEN
 62
     7
100
AcDbLine
 10
2.2936439774
 20
3.6473228878
 30
0.0
 11
2.7726466021
 21
3.6473228878
 31
0.0
  0
SPLINE
  5
156
330
1F
100
AcDbEntity
  8
0
  6
HIDDEN
 62
     7
100
AcDbSpline
210
0.0
220
0.0
230
1.0
 70
     8
 71
     3
 72
     8
 73
     4
 74
     0
 42
0.00000001
 43
0.00000001
 40
0.0
 40
0.0
 40
0.0
 40
0.0
 40
1.0
 40
1.0
 40
1.0
 40
1.0
 10
2.293643977400301
 20
3.647322887779993
 30
0.0
 10
2.283709936664582
 20
3.636786246426778
 30
0.0
 10
2.273696030078906
 20
3.626323681883665
 30
0.0
 10
2.2636439774003
 20
3.615896498431264
 30
0.0
  0
LINE
  5
157
330
1F
100
AcDbEntity
  8
0
  6
HIDDEN
 62
     7
100
AcDbLine
 10
2.7726466021
 20
3.870033685
 30
0.0
 11
2.2936439774
 21
3.870033685
 31
0.0
  0
SPLINE
  5
158
330
1F
100
AcDbEntity
  8
0
  6
HIDDEN
 62
     7
100
AcDbSpline
210
0.0
220
0.0
230
1.0
 70
     8
 71
     3
 72
     8
 73
     4
 74
     0
 42
0.00000001
 43
0.00000001
 40
0.0
 40
0.0
 40
0.0
 40
0.0
 40
1.0
 40
1.0
 40
1.0
 40
1.0
 10
2.263643977400301
 20
3.901460074352831
 30
0.0
 10
2.273696220817465
 20
3.891032693043732
 30
0.0
 10
2.283710175513741
 20
3.880570073019527
 30
0.0
 10
2.293643977400301
 20
3.870033685004102
 30
0.0
  0
LINE
  5
159
330
1F
100
AcDbEntity
  8
0
  6
HIDDEN
 62
     7
100
AcDbLine
 10
3.2478959459
 20
4.4181271053
 30
0.0
 11
3.2478959459
 21
4.0637963966
 31
0.0
  0
LINE
  5
15A
330
1F
100
AcDbEntity
  8
0
  6
HIDDEN
 62
     7
100
AcDbLine
 10
3.2400219302
 20
3.9355838125
 30
0.0
 11
3.2400219302
 21
3.5817727603
 31
0.0
  0
LINE
  5
15B
330
1F
100
AcDbEntity
  8
0
  6
HIDDEN
 62
     7
100
AcDbLine
 10
3.2478959459
 20
3.4535601762
 30
0.0
 11
3.2478959459
 21
3.0992294675
 31
0.0
  0
LINE
  5
15C
330
1F
100
AcDbEntity
  8
0
  6
HIDDEN
 62
     7
100
AcDbLine
 10
3.2400219302
 20
3.9355838125
 30
0.0
 11
3.2400219302
 21
3.5817727603
 31
0.0
  0
LINE
  5
15D
330
1F
100
AcDbEntity
  8
0
  6
HIDDEN
 62
     7
100
AcDbLine
 10
3.2478959459
 20
3.927969625
 30
0.0
 11
3.2478959459
 21
3.5893869478
 31
0.0
  0
LINE
  5
15E
330
1F
100
AcDbEntity
  8
0
  6
HIDDEN
 62
     7
100
AcDbLine
 10
3.4053762609
 20
4.4181271053
 30
0.0
 11
3.4053762609
 21
4.0637963966
 31
0.0
  0
LINE
  5
15F
330
1F
100
AcDbEntity
  8
0
  6
HIDDEN
 62
     7
100
AcDbLine
 10
3.4132502766
 20
3.9355838125
 30
0.0
 11
3.4132502766
 21
3.5817727603
 31
0.0
  0
LINE
  5
160
330
1F
100
AcDbEntity
  8
0
  6
HIDDEN
 62
     7
100
AcDbLine
 10
3.4053762609
 20
3.4535601762
 30
0.0
 11
3.4053762609
 21
3.0992294675
 31
0.0
  0
LINE
  5
161
330
1F
100
AcDbEntity
  8
0
  6
HIDDEN
 62
     7
100
AcDbLine
 10
3.4053762609
 20
3.927969625
 30
0.0
 11
3.4053762609
 21
3.5893869478
 31
0.0
  0
LINE
  5
162
330
1F
100
AcDbEntity
  8
0
  6
HIDDEN
 62
     7
100
AcDbLine
 10
3.4132502766
 20
3.9355838125
 30
0.0
 11
3.4132502766
 21
3.5817727603
 31
0.0
  0
LINE
  5
163
330
1F
100
AcDbEntity
  8
0
  6
HIDDEN
 62
     7
100
AcDbLine
 10
3.0628565758
 20
4.3975552803
 30
0.0
 11
3.0392345286
 21
4.3975552803
 31
0.0
  0
LINE
  5
164
330
1F
100
AcDbEntity
  8
0
  6
HIDDEN
 62
     7
100
AcDbLine
 10
3.0628565758
 20
3.1198012925
 30
0.0
 11
3.0392345286
 21
3.1198012925
 31
0.0
  0
LINE
  5
165
330
1F
100
AcDbEntity
  8
0
  6
HIDDEN
 62
     7
100
AcDbLine
 10
3.0628565758
 20
3.6020847571
 30
0.0
 11
3.0392345286
 21
3.6020847571
 31
0.0
  0
LINE
  5
166
330
1F
100
AcDbEntity
  8
0
  6
HIDDEN
 62
     7
100
AcDbLine
 10
3.0628565758
 20
3.9152718157
 30
0.0
 11
3.0392345286
 21
3.9152718157
 31
0.0
  0
LINE
  5
167
330
1F
100
AcDbEntity
  8
0
  6
HIDDEN
 62
     7
100
AcDbLine
 10
3.5904156309
 20
4.3975552803
 30
0.0
 11
3.6140376782
 21
4.3975552803
 31
0.0
  0
LINE
  5
168
330
1F
100
AcDbEntity
  8
0
  6
HIDDEN
 62
     7
100
AcDbLine
 10
3.5904156309
 20
3.1198012925
 30
0.0
 11
3.6140376782
 21
3.1198012925
 31
0.0
  0
LINE
  5
169
330
1F
100
AcDbEntity
  8
0
  6
HIDDEN
 62
     7
100
AcDbLine
 10
3.5904156309
 20
3.6020847571
 30
0.0
 11
3.6140376782
 21
3.6020847571
 31
0.0
  0
LINE
  5
16A
330
1F
100
AcDbEntity
  8
0
  6
HIDDEN
 62
     7
100
AcDbLine
 10
3.5904156309
 20
3.9152718157
 30
0.0
 11
3.6140376782
 21
3.9152718157
 31
0.0
  0
LINE
  5
16B
330
1F
100
AcDbEntity
  8
0
  6
HIDDEN
 62
     7
100
AcDbLine
 10
4.33994319
 20
4.1523790738
 30
0.0
 11
4.33994319
 21
4.3710586543
 31
0.0
  0
LINE
  5
16C
330
1F
100
AcDbEntity
  8
0
  6
HIDDEN
 62
     7
100
AcDbLine
 10
3.9856124813
 20
4.3713001066
 30
0.0
 11
3.9856124813
 21
4.1523790738
 31
0.0
  0
LINE
  5
16D
330
1F
100
AcDbEntity
  8
0
  6
HIDDEN
 62
     7
100
AcDbLine
 10
4.0643526388
 20
4.1523790738
 30
0.0
 11
4.0643526388
 21
3.7980483651
 31
0.0
  0
LINE
  5
16E
330
1F
100
AcDbEntity
  8
0
  6
HIDDEN
 62
     7
100
AcDbLine
 10
4.2612030325
 20
3.7980483651
 30
0.0
 11
4.2612030325
 21
4.1523790738
 31
0.0
  0
LINE
  5
16F
330
1F
100
AcDbEntity
  8
0
  6
HIDDEN
 62
     7
100
AcDbLine
 10
4.0643526388
 20
3.7193082077
 30
0.0
 11
4.0643526388
 21
3.1460918259
 31
0.0
  0
LINE
  5
170
330
1F
100
AcDbEntity
  8
0
  6
HIDDEN
 62
     7
100
AcDbLine
 10
4.2612030325
 20
3.1461384731
 30
0.0
 11
4.2612030325
 21
3.7193082077
 31
0.0
  0
LINE
  5
171
330
1F
100
AcDbEntity
  8
0
  6
HIDDEN
 62
     7
100
AcDbLine
 10
4.3896282294
 20
3.9067885226
 30
0.0
 11
4.3596282294
 21
3.8767885226
 31
0.0
  0
LINE
  5
172
330
1F
100
AcDbEntity
  8
0
  6
HIDDEN
 62
     7
100
AcDbLine
 10
4.3596282294
 20
3.6405680502
 30
0.0
 11
4.3896282294
 21
3.6105680502
 31
0.0
  0
LINE
  5
173
330
1F
100
AcDbEntity
  8
0
  6
HIDDEN
 62
     7
100
AcDbLine
 10
3.7756387281
 20
3.8767885226
 30
0.0
 11
3.6494707491
 21
3.8767885226
 31
0.0
  0
LINE
  5
174
330
1F
100
AcDbEntity
  8
0
  6
HIDDEN
 62
     7
100
AcDbLine
 10
3.6494707491
 20
3.6405680502
 30
0.0
 11
3.7756387281
 21
3.6405680502
 31
0.0
  0
LINE
  5
175
330
1F
100
AcDbEntity
  8
0
  6
HIDDEN
 62
     7
100
AcDbLine
 10
3.8806256047
 20
3.6405680502
 30
0.0
 11
4.3596282294
 21
3.6405680502
 31
0.0
  0
LINE
  5
176
330
1F
100
AcDbEntity
  8
0
  6
HIDDEN
 62
     7
100
AcDbLine
 10
4.3596282294
 20
3.8767885226
 30
0.0
 11
3.8806256047
 21
3.8767885226
 31
0.0
  0
LINE
  5
177
330
1F
100
AcDbEntity
  8
0
  6
HIDDEN
 62
     7
100
AcDbLine
 10
4.33994319
 20
4.1523790738
 30
0.0
 11
4.33994319
 21
4.3098593888
 31
0.0
  0
LINE
  5
178
330
1F
100
AcDbEntity
  8
0
  6
HIDDEN
 62
     7
100
AcDbLine
 10
3.9856124813
 20
4.3098593888
 30
0.0
 11
3.9856124813
 21
4.1523790738
 31
0.0
  0
ARC
  5
179
330
1F
100
AcDbEntity
  8
0
  6
HIDDEN
 62
     7
100
AcDbCircle
 10
4.0249825601
 20
4.3098593888
 30
0.0
 40
0.0393700787401582
100
AcDbArc
 50
144.5488235604
 51
180.0
  0
ARC
  5
17A
330
1F
100
AcDbEntity
  8
0
  6
HIDDEN
 62
     7
100
AcDbCircle
 10
4.3005731113
 20
4.3098593888
 30
0.0
 40
0.0393700787401584
100
AcDbArc
 50
0.0
 51
35.1914776956
  0
LINE
  5
17B
330
1F
100
AcDbEntity
  8
0
  6
HIDDEN
 62
     7
100
AcDbLine
 10
4.0643526388
 20
4.1523790738
 30
0.0
 11
4.0643526388
 21
3.7980483651
 31
0.0
  0
LINE
  5
17C
330
1F
100
AcDbEntity
  8
0
  6
HIDDEN
 62
     7
100
AcDbLine
 10
4.0643526388
 20
3.7193082077
 30
0.0
 11
4.0643526388
 21
3.364977499
 31
0.0
  0
LINE
  5
17D
330
1F
100
AcDbEntity
  8
0
  6
HIDDEN
 62
     7
100
AcDbLine
 10
4.2612030325
 20
3.364977499
 30
0.0
 11
4.2612030325
 21
3.7193082077
 31
0.0
  0
LINE
  5
17E
330
1F
100
AcDbEntity
  8
0
  6
HIDDEN
 62
     7
100
AcDbLine
 10
4.2612030325
 20
3.7980483651
 30
0.0
 11
4.2612030325
 21
4.1523790738
 31
0.0
  0
ARC
  5
17F
330
1F
100
AcDbEntity
  8
0
  6
HIDDEN
 62
     7
100
AcDbCircle
 10
4.2218329538
 20
3.364977499
 30
0.0
 40
0.0393700787401574
100
AcDbArc
 50
270.0
 51
0.0
  0
ARC
  5
180
330
1F
100
AcDbEntity
  8
0
  6
HIDDEN
 62
     7
100
AcDbCircle
 10
4.1037227176
 20
3.364977499
 30
0.0
 40
0.0393700787401574
100
AcDbArc
 50
180.0
 51
270.0
  0
LINE
  5
181
330
1F
100
AcDbEntity
  8
0
  6
HIDDEN
 62
     7
100
AcDbLine
 10
2.8776334787
 20
3.6405680502
 30
0.0
 11
3.0038014577
 21
3.6405680502
 31
0.0
  0
LINE
  5
182
330
1F
100
AcDbEntity
  8
0
  6
HIDDEN
 62
     7
100
AcDbLine
 10
3.0038014577
 20
3.8767885226
 30
0.0
 11
2.8776334787
 21
3.8767885226
 31
0.0
  0
LINE
  5
183
330
1F
100
AcDbEntity
  8
0
  6
HIDDEN
 62
     7
100
AcDbLine
 10
3.0392345286
 20
4.0637963966
 30
0.0
 11
3.0628565758
 21
4.0637963966
 31
0.0
  0
LINE
  5
184
330
1F
100
AcDbEntity
  8
0
  6
HIDDEN
 62
     7
100
AcDbLine
 10
3.0982896467
 20
4.0637963966
 30
0.0
 11
3.2478959459
 21
4.0637963966
 31
0.0
  0
LINE
  5
185
330
1F
100
AcDbEntity
  8
0
  6
HIDDEN
 62
     7
100
AcDbLine
 10
3.2478959459
 20
4.4181271053
 30
0.0
 11
3.0982896467
 21
4.4181271053
 31
0.0
  0
LINE
  5
186
330
1F
100
AcDbEntity
  8
0
  6
HIDDEN
 62
     7
100
AcDbLine
 10
3.0628565758
 20
4.4181271053
 30
0.0
 11
3.0392345286
 21
4.4181271053
 31
0.0
  0
LINE
  5
187
330
1F
100
AcDbEntity
  8
0
  6
HIDDEN
 62
     7
100
AcDbLine
 10
3.0392345286
 20
3.0992294675
 30
0.0
 11
3.0628565758
 21
3.0992294675
 31
0.0
  0
LINE
  5
188
330
1F
100
AcDbEntity
  8
0
  6
HIDDEN
 62
     7
100
AcDbLine
 10
3.0982896467
 20
3.0992294675
 30
0.0
 11
3.2478959459
 21
3.0992294675
 31
0.0
  0
LINE
  5
189
330
1F
100
AcDbEntity
  8
0
  6
HIDDEN
 62
     7
100
AcDbLine
 10
3.2478959459
 20
3.4535601762
 30
0.0
 11
3.0982896467
 21
3.4535601762
 31
0.0
  0
LINE
  5
18A
330
1F
100
AcDbEntity
  8
0
  6
HIDDEN
 62
     7
100
AcDbLine
 10
3.0628565758
 20
3.4535601762
 30
0.0
 11
3.0392345286
 21
3.4535601762
 31
0.0
  0
LINE
  5
18B
330
1F
100
AcDbEntity
  8
0
  6
HIDDEN
 62
     7
100
AcDbLine
 10
3.0392345286
 20
3.5815129321
 30
0.0
 11
3.0628565758
 21
3.5815129321
 31
0.0
  0
LINE
  5
18C
330
1F
100
AcDbEntity
  8
0
  6
HIDDEN
 62
     7
100
AcDbLine
 10
3.0982896467
 20
3.5815129321
 30
0.0
 11
3.2400219302
 21
3.5815129321
 31
0.0
  0
LINE
  5
18D
330
1F
100
AcDbEntity
  8
0
  6
HIDDEN
 62
     7
100
AcDbLine
 10
3.2400219302
 20
3.9358436407
 30
0.0
 11
3.0982896467
 21
3.9358436407
 31
0.0
  0
LINE
  5
18E
330
1F
100
AcDbEntity
  8
0
  6
HIDDEN
 62
     7
100
AcDbLine
 10
3.0628565758
 20
3.9358436407
 30
0.0
 11
3.0392345286
 21
3.9358436407
 31
0.0
  0
ARC
  5
18F
330
1F
100
AcDbEntity
  8
0
  6
HIDDEN
 62
     7
100
AcDbCircle
 10
3.2400219302
 20
3.927969625
 30
0.0
 40
0.0078740157480319
100
AcDbArc
 50
0.0
 51
90.0
  0
ARC
  5
190
330
1F
100
AcDbEntity
  8
0
  6
HIDDEN
 62
     7
100
AcDbCircle
 10
3.2400219302
 20
3.5893869478
 30
0.0
 40
0.0078740157480315
100
AcDbArc
 50
270.0
 51
0.0
  0
LINE
  5
191
330
1F
100
AcDbEntity
  8
0
  6
HIDDEN
 62
     7
100
AcDbLine
 10
3.6140376782
 20
4.4181271053
 30
0.0
 11
3.5904156309
 21
4.4181271053
 31
0.0
  0
LINE
  5
192
330
1F
100
AcDbEntity
  8
0
  6
HIDDEN
 62
     7
100
AcDbLine
 10
3.5549825601
 20
4.4181271053
 30
0.0
 11
3.4053762609
 21
4.4181271053
 31
0.0
  0
LINE
  5
193
330
1F
100
AcDbEntity
  8
0
  6
HIDDEN
 62
     7
100
AcDbLine
 10
3.4053762609
 20
4.0637963966
 30
0.0
 11
3.5549825601
 21
4.0637963966
 31
0.0
  0
LINE
  5
194
330
1F
100
AcDbEntity
  8
0
  6
HIDDEN
 62
     7
100
AcDbLine
 10
3.5904156309
 20
4.0637963966
 30
0.0
 11
3.6140376782
 21
4.0637963966
 31
0.0
  0
LINE
  5
195
330
1F
100
AcDbEntity
  8
0
  6
HIDDEN
 62
     7
100
AcDbLine
 10
3.6140376782
 20
3.4535601762
 30
0.0
 11
3.5904156309
 21
3.4535601762
 31
0.0
  0
LINE
  5
196
330
1F
100
AcDbEntity
  8
0
  6
HIDDEN
 62
     7
100
AcDbLine
 10
3.5549825601
 20
3.4535601762
 30
0.0
 11
3.4053762609
 21
3.4535601762
 31
0.0
  0
LINE
  5
197
330
1F
100
AcDbEntity
  8
0
  6
HIDDEN
 62
     7
100
AcDbLine
 10
3.4053762609
 20
3.0992294675
 30
0.0
 11
3.5549825601
 21
3.0992294675
 31
0.0
  0
LINE
  5
198
330
1F
100
AcDbEntity
  8
0
  6
HIDDEN
 62
     7
100
AcDbLine
 10
3.5904156309
 20
3.0992294675
 30
0.0
 11
3.6140376782
 21
3.0992294675
 31
0.0
  0
ARC
  5
199
330
1F
100
AcDbEntity
  8
0
  6
HIDDEN
 62
     7
100
AcDbCircle
 10
3.4132502766
 20
3.5893869478
 30
0.0
 40
0.0078740157480315
100
AcDbArc
 50
180.0
 51
270.0
  0
ARC
  5
19A
330
1F
100
AcDbEntity
  8
0
  6
HIDDEN
 62
     7
100
AcDbCircle
 10
3.4132502766
 20
3.927969625
 30
0.0
 40
0.0078740157480319
100
AcDbArc
 50
90.0
 51
180.0
  0
LINE
  5
19B
330
1F
100
AcDbEntity
  8
0
  6
HIDDEN
 62
     7
100
AcDbLine
 10
3.6140376782
 20
3.9358436407
 30
0.0
 11
3.5904156309
 21
3.9358436407
 31
0.0
  0
LINE
  5
19C
330
1F
100
AcDbEntity
  8
0
  6
HIDDEN
 62
     7
100
AcDbLine
 10
3.5549825601
 20
3.9358436407
 30
0.0
 11
3.4132502766
 21
3.9358436407
 31
0.0
  0
LINE
  5
19D
330
1F
100
AcDbEntity
  8
0
  6
HIDDEN
 62
     7
100
AcDbLine
 10
3.4132502766
 20
3.5815129321
 30
0.0
 11
3.5549825601
 21
3.5815129321
 31
0.0
  0
LINE
  5
19E
330
1F
100
AcDbEntity
  8
0
  6
HIDDEN
 62
     7
100
AcDbLine
 10
3.5904156309
 20
3.5815129321
 30
0.0
 11
3.6140376782
 21
3.5815129321
 31
0.0
  0
LINE
  5
19F
330
1F
100
AcDbEntity
  8
0
  6
HIDDEN
 62
     7
100
AcDbLine
 10
3.0982896467
 20
3.4830877352
 30
0.0
 11
3.5549825601
 21
3.4830877352
 31
0.0
  0
LINE
  5
1A0
330
1F
100
AcDbEntity
  8
0
  6
HIDDEN
 62
     7
100
AcDbLine
 10
3.5549825601
 20
4.0342688376
 30
0.0
 11
3.0982896467
 21
4.0342688376
 31
0.0
  0
LINE
  5
1A1
330
1F
100
AcDbEntity
  8
0
  6
HIDDEN
 62
     7
100
AcDbLine
 10
3.0392345286
 20
3.4830877352
 30
0.0
 11
3.0628565758
 21
3.4830877352
 31
0.0
  0
LINE
  5
1A2
330
1F
100
AcDbEntity
  8
0
  6
HIDDEN
 62
     7
100
AcDbLine
 10
3.0628565758
 20
4.0342688376
 30
0.0
 11
3.0392345286
 21
4.0342688376
 31
0.0
  0
LINE
  5
1A3
330
1F
100
AcDbEntity
  8
0
  6
HIDDEN
 62
     7
100
AcDbLine
 10
3.5904156309
 20
3.4830877352
 30
0.0
 11
3.6140376782
 21
3.4830877352
 31
0.0
  0
LINE
  5
1A4
330
1F
100
AcDbEntity
  8
0
  6
HIDDEN
 62
     7
100
AcDbLine
 10
3.6140376782
 20
4.0342688376
 30
0.0
 11
3.5904156309
 21
4.0342688376
 31
0.0
  0
LINE
  5
1A5
330
1F
100
AcDbEntity
  8
0
  6
HIDDEN
 62
     7
100
AcDbLine
 10
4.3396833617
 20
4.3098593888
 30
0.0
 11
3.9858723096
 21
4.3098593888
 31
0.0
  0
LINE
  5
1A6
330
1F
100
AcDbEntity
  8
0
  6
HIDDEN
 62
     7
100
AcDbLine
 10
3.1061636624
 20
3.7586782864
 30
0.0
 11
3.1061636624
 21
4.5067097825
 31
0.0
  0
LINE
  5
1A7
330
1F
100
AcDbEntity
  8
0
  6
HIDDEN
 62
     7
100
AcDbLine
 10
3.1061636624
 20
3.0106467903
 30
0.0
 11
3.1061636624
 21
3.7586782864
 31
0.0
  0
LINE
  5
1A8
330
1F
100
AcDbEntity
  8
0
  6
HIDDEN
 62
     7
100
AcDbLine
 10
3.5471085443
 20
3.7586782864
 30
0.0
 11
3.5471085443
 21
3.0106467903
 31
0.0
  0
LINE
  5
1A9
330
1F
100
AcDbEntity
  8
0
  6
HIDDEN
 62
     7
100
AcDbLine
 10
3.5471085443
 20
4.5067097825
 30
0.0
 11
3.5471085443
 21
3.7586782864
 31
0.0
  0
ARC
  5
1AA
330
1F
100
AcDbEntity
  8
0
  6
CONTINUOUS
 62
     7
100
AcDbCircle
 10
7.68391427
 20
4.3098593888
 30
0.0
 40
0.0393700787401583
100
AcDbArc
 50
90.0
 51
180.0
  0
LINE
  5
1AB
330
1F
100
AcDbEntity
  8
0
  6
CONTINUOUS
 62
     7
100
AcDbLine
 10
7.6445441913
 20
4.3098593888
 30
0.0
 11
7.6445441913
 21
4.196744971
 31
0.0
  0
LINE
  5
1AC
330
1F
100
AcDbEntity
  8
0
  6
CONTINUOUS
 62
     7
100
AcDbLine
 10
7.7232843487
 20
3.7980483651
 30
0.0
 11
7.7232843487
 21
3.7193082077
 31
0.0
  0
LINE
  5
1AD
330
1F
100
AcDbEntity
  8
0
  6
CONTINUOUS
 62
     7
100
AcDbLine
 10
7.9201347424
 20
3.7193082077
 30
0.0
 11
7.9201347424
 21
3.7980483651
 31
0.0
  0
ARC
  5
1AE
330
1F
100
AcDbEntity
  8
0
  6
CONTINUOUS
 62
     7
100
AcDbCircle
 10
8.8020657087
 20
4.3256486227
 30
0.0
 40
0.0393700787401574
100
AcDbArc
 50
0.0
 51
90.0
  0
LINE
  5
1AF
330
1F
100
AcDbEntity
  8
0
  6
CONTINUOUS
 62
     7
100
AcDbLine
 10
8.8020657087
 20
4.3650187015
 30
0.0
 11
8.6889512909
 21
4.3650187015
 31
0.0
  0
LINE
  5
1B0
330
1F
100
AcDbEntity
  8
0
  6
CONTINUOUS
 62
     7
100
AcDbLine
 10
8.8779974672
 20
3.7980483651
 30
0.0
 11
8.8779974672
 21
3.7193082077
 31
0.0
  0
LINE
  5
1B1
330
1F
100
AcDbEntity
  8
0
  6
CONTINUOUS
 62
     7
100
AcDbLine
 10
8.8779974672
 20
3.7980483651
 30
0.0
 11
8.3936663943
 21
3.7980483651
 31
0.0
  0
ARC
  5
1B2
330
1F
100
AcDbEntity
  8
0
  6
CONTINUOUS
 62
     7
100
AcDbCircle
 10
8.2508846063
 20
3.7586782864
 30
0.0
 40
0.1481102362204736
100
AcDbArc
 50
15.4154485668
 51
164.5845514332
  0
LINE
  5
1B3
330
1F
100
AcDbEntity
  8
0
  6
CONTINUOUS
 62
     7
100
AcDbLine
 10
7.5339332647
 20
3.7980483651
 30
0.0
 11
8.1081028184
 21
3.7980483651
 31
0.0
  0
ARC
  5
1B4
330
1F
100
AcDbEntity
  8
0
  6
CONTINUOUS
 62
     7
100
AcDbCircle
 10
8.2508846063
 20
3.7586782864
 30
0.0
 40
0.7180314960629909
100
AcDbArc
 50
183.1431367118
 51
176.8568632882
  0
LINE
  5
1B5
330
1F
100
AcDbEntity
  8
0
  6
CONTINUOUS
 62
     7
100
AcDbLine
 10
7.5339332647
 20
3.7193082077
 30
0.0
 11
8.1081028184
 21
3.7193082077
 31
0.0
  0
ARC
  5
1B6
330
1F
100
AcDbEntity
  8
0
  6
CONTINUOUS
 62
     7
100
AcDbCircle
 10
8.2508846063
 20
3.7586782864
 30
0.0
 40
0.1481102362204736
100
AcDbArc
 50
195.4154485668
 51
344.5845514332
  0
LINE
  5
1B7
330
1F
100
AcDbEntity
  8
0
  6
CONTINUOUS
 62
     7
100
AcDbLine
 10
8.3936663943
 20
3.7193082077
 30
0.0
 11
8.8779974672
 21
3.7193082077
 31
0.0
  0
LINE
  5
1B8
330
1F
100
AcDbEntity
  8
0
  6
CONTINUOUS
 62
     7
100
AcDbLine
 10
8.3689948425
 20
3.7193082077
 30
0.0
 11
8.3689948425
 21
3.7980483651
 31
0.0
  0
LINE
  5
1B9
330
1F
100
AcDbEntity
  8
0
  6
CONTINUOUS
 62
     7
100
AcDbLine
 10
7.5038898834
 20
3.7980483651
 30
0.0
 11
7.5339332647
 21
3.7980483651
 31
0.0
  0
ARC
  5
1BA
330
1F
100
AcDbEntity
  8
0
  6
CONTINUOUS
 62
     7
100
AcDbCircle
 10
8.2508846063
 20
3.7586782864
 30
0.0
 40
0.7480314960629916
100
AcDbArc
 50
183.0169613098
 51
176.9830386902
  0
LINE
  5
1BB
330
1F
100
AcDbEntity
  8
0
  6
CONTINUOUS
 62
     7
100
AcDbLine
 10
7.5038898834
 20
3.7193082077
 30
0.0
 11
7.5339332647
 21
3.7193082077
 31
0.0
  0
SPLINE
  5
1BC
330
1F
100
AcDbEntity
  8
0
  6
CONTINUOUS
 62
     7
100
AcDbSpline
210
0.0
220
0.0
230
1.0
 70
    24
 71
     3
 72
     8
 73
     4
 74
     0
 42
0.00000001
 43
0.00000001
 40
0.0
 40
0.0
 40
0.0
 40
0.0
 40
1.0
 40
1.0
 40
1.0
 40
1.0
 10
8.108102818363207
 20
3.798048365132205
 30
0.0
 10
8.118530199672305
 20
3.798048365132205
 30
0.0
 10
8.12899281969651
 20
3.798048365132205
 30
0.0
 10
8.139529207711936
 20
3.798048365132205
 30
0.0
  0
ARC
  5
1BD
330
1F
100
AcDbEntity
  8
0
  6
CONTINUOUS
 62
     7
100
AcDbCircle
 10
8.2508846063
 20
3.7586782864
 30
0.0
 40
0.1181102362204727
100
AcDbArc
 50
19.4712206345
 51
160.5287793655
  0
SPLINE
  5
1BE
330
1F
100
AcDbEntity
  8
0
  6
CONTINUOUS
 62
     7
100
AcDbSpline
210
0.0
220
0.0
230
1.0
 70
    24
 71
     3
 72
     8
 73
     4
 74
     0
 42
0.00000001
 43
0.00000001
 40
0.0
 40
0.0
 40
0.0
 40
0.0
 40
1.0
 40
1.0
 40
1.0
 40
1.0
 10
8.362240004936044
 20
3.798048365132205
 30
0.0
 10
8.37277664628926
 20
3.798048365132205
 30
0.0
 10
8.383239210832372
 20
3.798048365132205
 30
0.0
 10
8.393666394284773
 20
3.798048365132205
 30
0.0
  0
SPLINE
  5
1BF
330
1F
100
AcDbEntity
  8
0
  6
CONTINUOUS
 62
     7
100
AcDbSpline
210
0.0
220
0.0
230
1.0
 70
    24
 71
     3
 72
     8
 73
     4
 74
     0
 42
0.00000001
 43
0.00000001
 40
0.0
 40
0.0
 40
0.0
 40
0.0
 40
1.0
 40
1.0
 40
1.0
 40
1.0
 10
8.108102818363207
 20
3.71930820765189
 30
0.0
 10
8.118530199672305
 20
3.71930820765189
 30
0.0
 10
8.12899281969651
 20
3.71930820765189
 30
0.0
 10
8.139529207711936
 20
3.71930820765189
 30
0.0
  0
ARC
  5
1C0
330
1F
100
AcDbEntity
  8
0
  6
CONTINUOUS
 62
     7
100
AcDbCircle
 10
8.2508846063
 20
3.7586782864
 30
0.0
 40
0.1181102362204727
100
AcDbArc
 50
199.4712206345
 51
340.5287793655
  0
SPLINE
  5
1C1
330
1F
100
AcDbEntity
  8
0
  6
CONTINUOUS
 62
     7
100
AcDbSpline
210
0.0
220
0.0
230
1.0
 70
    24
 71
     3
 72
     8
 73
     4
 74
     0
 42
0.00000001
 43
0.00000001
 40
0.0
 40
0.0
 40
0.0
 40
0.0
 40
1.0
 40
1.0
 40
1.0
 40
1.0
 10
8.362240004936044
 20
3.71930820765189
 30
0.0
 10
8.37277664628926
 20
3.71930820765189
 30
0.0
 10
8.383239210832372
 20
3.71930820765189
 30
0.0
 10
8.393666394284773
 20
3.71930820765189
 30
0.0
  0
ARC
  5
1C2
330
1F
100
AcDbEntity
  8
0
  6
CONTINUOUS
 62
     7
100
AcDbCircle
 10
8.2508846063
 20
3.7586782864
 30
0.0
 40
0.1181102362204727
100
AcDbArc
 50
180.0
 51
199.4712206345
  0
ARC
  5
1C3
330
1F
100
AcDbEntity
  8
0
  6
CONTINUOUS
 62
     7
100
AcDbCircle
 10
8.2508846063
 20
3.7586782864
 30
0.0
 40
0.1181102362204732
100
AcDbArc
 50
340.5287793655
 51
19.3813693544
  0
ARC
  5
1C4
330
1F
100
AcDbEntity
  8
0
  6
CONTINUOUS
 62
     7
100
AcDbCircle
 10
8.2508846063
 20
3.7586782864
 30
0.0
 40
0.1181102362204727
100
AcDbArc
 50
160.5287793655
 51
180.0
  0
ARC
  5
1C5
330
1F
100
AcDbEntity
  8
0
  6
CONTINUOUS
 62
     7
100
AcDbCircle
 10
8.2508846063
 20
3.7586782864
 30
0.0
 40
0.7480314960629934
100
AcDbArc
 50
176.9830386902
 51
183.0169613098
  0
LINE
  5
1C6
330
1F
100
AcDbEntity
  8
0
  6
CONTINUOUS
 62
     7
100
AcDbLine
 10
7.68391427
 20
4.3492294675
 30
0.0
 11
7.7917545359
 21
4.3492294675
 31
0.0
  0
LINE
  5
1C7
330
1F
100
AcDbEntity
  8
0
  6
CONTINUOUS
 62
     7
100
AcDbLine
 10
8.8414357874
 20
4.2178083569
 30
0.0
 11
8.8414357874
 21
4.3256486227
 31
0.0
  0
LINE
  5
1C8
330
1F
100
AcDbEntity
  8
0
  6
CONTINUOUS
 62
     8
100
AcDbLine
 10
7.7451667883
 20
4.3098593888
 30
0.0
 11
7.6445441913
 21
4.3098593888
 31
0.0
  0
LINE
  5
1C9
330
1F
100
AcDbEntity
  8
0
  6
CONTINUOUS
 62
     8
100
AcDbLine
 10
8.8020657087
 20
4.3650187015
 30
0.0
 11
8.8020657087
 21
4.2643961044
 31
0.0
  0
LINE
  5
1CA
330
1F
100
AcDbEntity
  8
0
  6
HIDDEN
 62
     7
100
AcDbLine
 10
7.6445441913
 20
4.1523790738
 30
0.0
 11
7.9988748999
 21
4.1523790738
 31
0.0
  0
LINE
  5
1CB
330
1F
100
AcDbEntity
  8
0
  6
HIDDEN
 62
     7
100
AcDbLine
 10
8.5264751575
 20
3.0632640449
 30
0.0
 11
8.5264751575
 21
4.4540925278
 31
0.0
  0
LINE
  5
1CC
330
1F
100
AcDbEntity
  8
0
  6
HIDDEN
 62
     7
100
AcDbLine
 10
7.7917545359
 20
4.3492294675
 30
0.0
 11
7.9595048205
 21
4.3492294675
 31
0.0
  0
LINE
  5
1CD
330
1F
100
AcDbEntity
  8
0
  6
HIDDEN
 62
     7
100
AcDbLine
 10
7.9201347424
 20
3.364977499
 30
0.0
 11
7.7235469192
 21
3.364977499
 31
0.0
  0
LINE
  5
1CE
330
1F
100
AcDbEntity
  8
0
  6
HIDDEN
 62
     7
100
AcDbLine
 10
7.8807646637
 20
3.3256074203
 30
0.0
 11
7.7626544282
 21
3.3256074203
 31
0.0
  0
LINE
  5
1CF
330
1F
100
AcDbEntity
  8
0
  6
HIDDEN
 62
     7
100
AcDbLine
 10
7.8671701967
 20
4.1523790738
 30
0.0
 11
7.8671701967
 21
4.3492294675
 31
0.0
  0
LINE
  5
1D0
330
1F
100
AcDbEntity
  8
0
  6
HIDDEN
 62
     7
100
AcDbLine
 10
7.7762488945
 20
4.1523790738
 30
0.0
 11
7.7762488945
 21
4.3492294675
 31
0.0
  0
LINE
  5
1D1
330
1F
100
AcDbEntity
  8
0
  6
HIDDEN
 62
     7
100
AcDbLine
 10
7.7307882433
 20
4.1523790738
 30
0.0
 11
7.7307882433
 21
4.3492294675
 31
0.0
  0
LINE
  5
1D2
330
1F
100
AcDbEntity
  8
0
  6
HIDDEN
 62
     7
100
AcDbLine
 10
7.9126308478
 20
4.1523790738
 30
0.0
 11
7.9126308478
 21
4.3492294675
 31
0.0
  0
LINE
  5
1D3
330
1F
100
AcDbEntity
  8
0
  6
HIDDEN
 62
     7
100
AcDbLine
 10
8.8414357874
 20
4.0500580722
 30
0.0
 11
8.8414357874
 21
4.2178083569
 31
0.0
  0
LINE
  5
1D4
330
1F
100
AcDbEntity
  8
0
  6
HIDDEN
 62
     7
100
AcDbLine
 10
8.6445853937
 20
4.0106879928
 30
0.0
 11
8.6445853937
 21
4.3650187015
 31
0.0
  0
LINE
  5
1D5
330
1F
100
AcDbEntity
  8
0
  6
HIDDEN
 62
     7
100
AcDbLine
 10
7.8571838189
 20
4.0894281503
 30
0.0
 11
7.8571838189
 21
4.2860159735
 31
0.0
  0
LINE
  5
1D6
330
1F
100
AcDbEntity
  8
0
  6
HIDDEN
 62
     7
100
AcDbLine
 10
7.8178137402
 20
4.2469084645
 30
0.0
 11
7.8178137402
 21
4.128798229
 31
0.0
  0
LINE
  5
1D7
330
1F
100
AcDbEntity
  8
0
  6
HIDDEN
 62
     7
100
AcDbLine
 10
8.6445853937
 20
4.142392696
 30
0.0
 11
8.8414357874
 21
4.142392696
 31
0.0
  0
LINE
  5
1D8
330
1F
100
AcDbEntity
  8
0
  6
HIDDEN
 62
     7
100
AcDbLine
 10
8.6445853937
 20
4.2333139983
 30
0.0
 11
8.8414357874
 21
4.2333139983
 31
0.0
  0
LINE
  5
1D9
330
1F
100
AcDbEntity
  8
0
  6
HIDDEN
 62
     7
100
AcDbLine
 10
8.6445853937
 20
4.0969320449
 30
0.0
 11
8.8414357874
 21
4.0969320449
 31
0.0
  0
LINE
  5
1DA
330
1F
100
AcDbEntity
  8
0
  6
HIDDEN
 62
     7
100
AcDbLine
 10
8.6445853937
 20
4.2787746494
 30
0.0
 11
8.8414357874
 21
4.2787746494
 31
0.0
  0
LINE
  5
1DB
330
1F
100
AcDbEntity
  8
0
  6
HIDDEN
 62
     7
100
AcDbLine
 10
7.5554703649
 20
3.4830877352
 30
0.0
 11
8.9462988478
 21
3.4830877352
 31
0.0
  0
LINE
  5
1DC
330
1F
100
AcDbEntity
  8
0
  6
HIDDEN
 62
     7
100
AcDbLine
 10
8.2115145276
 20
3.6405680502
 30
0.0
 11
8.2115145276
 21
3.6473228878
 31
0.0
  0
LINE
  5
1DD
330
1F
100
AcDbEntity
  8
0
  6
HIDDEN
 62
     7
100
AcDbLine
 10
8.2115145276
 20
3.6405680502
 30
0.0
 11
8.2902546851
 21
3.6405680502
 31
0.0
  0
LINE
  5
1DE
330
1F
100
AcDbEntity
  8
0
  6
HIDDEN
 62
     7
100
AcDbLine
 10
8.2902546851
 20
3.6473228878
 30
0.0
 11
8.2902546851
 21
3.6405680502
 31
0.0
  0
LINE
  5
1DF
330
1F
100
AcDbEntity
  8
0
  6
HIDDEN
 62
     7
100
AcDbLine
 10
8.2902546851
 20
3.870033685
 30
0.0
 11
8.2902546851
 21
4.5056730093
 31
0.0
  0
LINE
  5
1E0
330
1F
100
AcDbEntity
  8
0
  6
HIDDEN
 62
     7
100
AcDbLine
 10
8.2115145276
 20
3.870033685
 30
0.0
 11
8.2115145276
 21
4.5056730093
 31
0.0
  0
LINE
  5
1E1
330
1F
100
AcDbEntity
  8
0
  6
HIDDEN
 62
     7
100
AcDbLine
 10
8.2115145276
 20
3.1315654255
 30
0.0
 11
8.2115145276
 21
3.6405680502
 31
0.0
  0
LINE
  5
1E2
330
1F
100
AcDbEntity
  8
0
  6
HIDDEN
 62
     7
100
AcDbLine
 10
8.2902546851
 20
3.1315654255
 30
0.0
 11
8.2115145276
 21
3.1315654255
 31
0.0
  0
LINE
  5
1E3
330
1F
100
AcDbEntity
  8
0
  6
HIDDEN
 62
     7
100
AcDbLine
 10
8.2902546851
 20
3.6405680502
 30
0.0
 11
8.2902546851
 21
3.1315654255
 31
0.0
  0
ARC
  5
1E4
330
1F
100
AcDbEntity
  8
0
  6
HIDDEN
 62
     7
100
AcDbCircle
 10
8.2508846063
 20
3.7586782864
 30
0.0
 40
0.1481102362204804
100
AcDbArc
 50
164.5845514332
 51
195.4154485668
  0
ARC
  5
1E5
330
1F
100
AcDbEntity
  8
0
  6
HIDDEN
 62
     7
100
AcDbCircle
 10
8.2508846063
 20
3.7586782864
 30
0.0
 40
0.1481102362204667
100
AcDbArc
 50
344.5845514332
 51
15.4154485668
  0
ARC
  5
1E6
330
1F
100
AcDbEntity
  8
0
  6
HIDDEN
 62
     7
100
AcDbCircle
 10
8.2508846063
 20
3.7586782864
 30
0.0
 40
0.7180314960629988
100
AcDbArc
 50
176.8568632882
 51
183.1431367118
  0
CIRCLE
  5
1E7
330
1F
100
AcDbEntity
  8
0
  6
HIDDEN
 62
     7
100
AcDbCircle
 10
8.7331680709
 20
3.7586782864
 30
0.0
 40
0.1692913385826778
  0
CIRCLE
  5
1E8
330
1F
100
AcDbEntity
  8
0
  6
HIDDEN
 62
     7
100
AcDbCircle
 10
7.7686011418
 20
3.7586782864
 30
0.0
 40
0.1692913385826778
  0
CIRCLE
  5
1E9
330
1F
100
AcDbEntity
  8
0
  6
HIDDEN
 62
     7
100
AcDbCircle
 10
8.2508846063
 20
4.240961751
 30
0.0
 40
0.1771653543307092
  0
CIRCLE
  5
1EA
330
1F
100
AcDbEntity
  8
0
  6
HIDDEN
 62
     7
100
AcDbCircle
 10
8.7331680709
 20
3.7586782864
 30
0.0
 40
0.1771653543307092
  0
CIRCLE
  5
1EB
330
1F
100
AcDbEntity
  8
0
  6
HIDDEN
 62
     7
100
AcDbCircle
 10
8.7331680709
 20
3.7586782864
 30
0.0
 40
0.1692913385826778
  0
CIRCLE
  5
1EC
330
1F
100
AcDbEntity
  8
0
  6
HIDDEN
 62
     7
100
AcDbCircle
 10
8.2508846063
 20
3.2763948218
 30
0.0
 40
0.1771653543307092
  0
CIRCLE
  5
1ED
330
1F
100
AcDbEntity
  8
0
  6
HIDDEN
 62
     7
100
AcDbCircle
 10
7.7686011418
 20
3.7586782864
 30
0.0
 40
0.1771653543307083
  0
CIRCLE
  5
1EE
330
1F
100
AcDbEntity
  8
0
  6
HIDDEN
 62
     7
100
AcDbCircle
 10
7.7686011418
 20
3.7586782864
 30
0.0
 40
0.1692913385826778
  0
CIRCLE
  5
1EF
330
1F
100
AcDbEntity
  8
0
  6
HIDDEN
 62
     7
100
AcDbCircle
 10
8.2508846063
 20
3.7586782864
 30
0.0
 40
0.7401574803149611
  0
ARC
  5
1F0
330
1F
100
AcDbEntity
  8
0
  6
HIDDEN
 62
     7
100
AcDbCircle
 10
8.2508846063
 20
3.7586782864
 30
0.0
 40
0.7480314960629926
100
AcDbArc
 50
291.6182724222
 51
0.0
  0
ARC
  5
1F1
330
1F
100
AcDbEntity
  8
0
  6
HIDDEN
 62
     7
100
AcDbCircle
 10
8.2508846063
 20
3.7586782864
 30
0.0
 40
0.7480314960629926
100
AcDbArc
 50
0.0
 51
68.3817275778
  0
CIRCLE
  5
1F2
330
1F
100
AcDbEntity
  8
0
  6
HIDDEN
 62
     7
100
AcDbCircle
 10
8.2508846063
 20
3.7586782864
 30
0.0
 40
0.7401574803149611
  0
LINE
  5
1F3
330
1F
100
AcDbEntity
  8
0
  6
HIDDEN
 62
     7
100
AcDbLine
 10
8.094291077
 20
4.3975552803
 30
0.0
 11
7.6120076125
 21
3.9152718157
 31
0.0
  0
ARC
  5
1F4
330
1F
100
AcDbEntity
  8
0
  6
HIDDEN
 62
     7
100
AcDbCircle
 10
8.2508846063
 20
4.240961751
 30
0.0
 40
0.2214566929133861
100
AcDbArc
 50
45.0
 51
135.0
  0
LINE
  5
1F5
330
1F
100
AcDbEntity
  8
0
  6
HIDDEN
 62
     7
100
AcDbLine
 10
8.8897616002
 20
3.9152718157
 30
0.0
 11
8.4074781356
 21
4.3975552803
 31
0.0
  0
ARC
  5
1F6
330
1F
100
AcDbEntity
  8
0
  6
HIDDEN
 62
     7
100
AcDbCircle
 10
8.7331680709
 20
3.7586782864
 30
0.0
 40
0.2214566929133864
100
AcDbArc
 50
315.0
 51
45.0
  0
LINE
  5
1F7
330
1F
100
AcDbEntity
  8
0
  6
HIDDEN
 62
     7
100
AcDbLine
 10
8.4074781356
 20
3.1198012925
 30
0.0
 11
8.8897616002
 21
3.6020847571
 31
0.0
  0
ARC
  5
1F8
330
1F
100
AcDbEntity
  8
0
  6
HIDDEN
 62
     7
100
AcDbCircle
 10
8.2508846063
 20
3.2763948218
 30
0.0
 40
0.2214566929133867
100
AcDbArc
 50
225.0
 51
315.0
  0
LINE
  5
1F9
330
1F
100
AcDbEntity
  8
0
  6
HIDDEN
 62
     7
100
AcDbLine
 10
7.6120076125
 20
3.6020847571
 30
0.0
 11
8.094291077
 21
3.1198012925
 31
0.0
  0
ARC
  5
1FA
330
1F
100
AcDbEntity
  8
0
  6
HIDDEN
 62
     7
100
AcDbCircle
 10
7.7686011418
 20
3.7586782864
 30
0.0
 40
0.2214566929133873
100
AcDbArc
 50
135.0
 51
225.0
  0
CIRCLE
  5
1FB
330
1F
100
AcDbEntity
  8
0
  6
HIDDEN
 62
     7
100
AcDbCircle
 10
8.2508846063
 20
3.7586782864
 30
0.0
 40
0.2755905511811019
  0
LINE
  5
1FC
330
1F
100
AcDbEntity
  8
0
  6
HIDDEN
 62
     7
100
AcDbLine
 10
7.9988748999
 20
4.1523790738
 30
0.0
 11
7.9988748999
 21
4.4629809394
 31
0.0
  0
LINE
  5
1FD
330
1F
100
AcDbEntity
  8
0
  6
HIDDEN
 62
     7
100
AcDbLine
 10
7.6445441913
 20
4.1971067548
 30
0.0
 11
7.6445441913
 21
4.1523790738
 31
0.0
  0
LINE
  5
1FE
330
1F
100
AcDbEntity
  8
0
  6
HIDDEN
 62
     7
100
AcDbLine
 10
7.7232843487
 20
3.7193082077
 30
0.0
 11
7.7232843487
 21
3.2284056327
 31
0.0
  0
LINE
  5
1FF
330
1F
100
AcDbEntity
  8
0
  6
HIDDEN
 62
     7
100
AcDbLine
 10
7.9201347424
 20
3.0878233856
 30
0.0
 11
7.9201347424
 21
3.7193082077
 31
0.0
  0
LINE
  5
200
330
1F
100
AcDbEntity
  8
0
  6
HIDDEN
 62
     7
100
AcDbLine
 10
7.7232843487
 20
4.1523790738
 30
0.0
 11
7.7232843487
 21
3.7980483651
 31
0.0
  0
LINE
  5
201
330
1F
100
AcDbEntity
  8
0
  6
HIDDEN
 62
     7
100
AcDbLine
 10
7.9201347424
 20
3.7980483651
 30
0.0
 11
7.9201347424
 21
4.1523790738
 31
0.0
  0
ARC
  5
202
330
1F
100
AcDbEntity
  8
0
  6
HIDDEN
 62
     7
100
AcDbCircle
 10
7.9595048212
 20
4.3098593888
 30
0.0
 40
0.0393700787401583
100
AcDbArc
 50
0.0
 51
90.0
  0
LINE
  5
203
330
1F
100
AcDbEntity
  8
0
  6
HIDDEN
 62
     7
100
AcDbLine
 10
7.9988748999
 20
4.1523790738
 30
0.0
 11
7.9988748999
 21
4.3098593888
 31
0.0
  0
LINE
  5
204
330
1F
100
AcDbEntity
  8
0
  6
HIDDEN
 62
     7
100
AcDbLine
 10
7.6445441913
 20
4.196744971
 30
0.0
 11
7.6445441913
 21
4.1523790738
 31
0.0
  0
LINE
  5
205
330
1F
100
AcDbEntity
  8
0
  6
HIDDEN
 62
     7
100
AcDbLine
 10
7.7232843487
 20
4.1523790738
 30
0.0
 11
7.7232843487
 21
3.7980483651
 31
0.0
  0
LINE
  5
206
330
1F
100
AcDbEntity
  8
0
  6
HIDDEN
 62
     7
100
AcDbLine
 10
7.7232843487
 20
3.7193082077
 30
0.0
 11
7.7232843487
 21
3.364977499
 31
0.0
  0
LINE
  5
207
330
1F
100
AcDbEntity
  8
0
  6
HIDDEN
 62
     7
100
AcDbLine
 10
7.9201347424
 20
3.364977499
 30
0.0
 11
7.9201347424
 21
3.7193082077
 31
0.0
  0
LINE
  5
208
330
1F
100
AcDbEntity
  8
0
  6
HIDDEN
 62
     7
100
AcDbLine
 10
7.9201347424
 20
3.7980483651
 30
0.0
 11
7.9201347424
 21
4.1523790738
 31
0.0
  0
ARC
  5
209
330
1F
100
AcDbEntity
  8
0
  6
HIDDEN
 62
     7
100
AcDbCircle
 10
7.8807646637
 20
3.364977499
 30
0.0
 40
0.0393700787401574
100
AcDbArc
 50
270.0
 51
0.0
  0
ARC
  5
20A
330
1F
100
AcDbEntity
  8
0
  6
HIDDEN
 62
     7
100
AcDbCircle
 10
7.7626544275
 20
3.364977499
 30
0.0
 40
0.0393700787401574
100
AcDbArc
 50
180.0
 51
270.0
  0
ARC
  5
20B
330
1F
100
AcDbEntity
  8
0
  6
HIDDEN
 62
     7
100
AcDbCircle
 10
8.8020657087
 20
4.0500580715
 30
0.0
 40
0.0393700787401574
100
AcDbArc
 50
270.0
 51
0.0
  0
LINE
  5
20C
330
1F
100
AcDbEntity
  8
0
  6
HIDDEN
 62
     7
100
AcDbLine
 10
8.6445853937
 20
4.0106879928
 30
0.0
 11
8.8020657087
 21
4.0106879928
 31
0.0
  0
LINE
  5
20D
330
1F
100
AcDbEntity
  8
0
  6
HIDDEN
 62
     7
100
AcDbLine
 10
8.6889512909
 20
4.3650187015
 30
0.0
 11
8.6445853937
 21
4.3650187015
 31
0.0
  0
LINE
  5
20E
330
1F
100
AcDbEntity
  8
0
  6
HIDDEN
 62
     7
100
AcDbLine
 10
8.6445853937
 20
4.286278544
 30
0.0
 11
7.8571838189
 21
4.286278544
 31
0.0
  0
LINE
  5
20F
330
1F
100
AcDbEntity
  8
0
  6
HIDDEN
 62
     7
100
AcDbLine
 10
7.8571838189
 20
4.0894281503
 30
0.0
 11
8.6445853937
 21
4.0894281503
 31
0.0
  0
ARC
  5
210
330
1F
100
AcDbEntity
  8
0
  6
HIDDEN
 62
     7
100
AcDbCircle
 10
7.8571838189
 20
4.128798229
 30
0.0
 40
0.0393700787401574
100
AcDbArc
 50
180.0
 51
270.0
  0
ARC
  5
211
330
1F
100
AcDbEntity
  8
0
  6
HIDDEN
 62
     7
100
AcDbCircle
 10
7.8571838189
 20
4.2469084652
 30
0.0
 40
0.0393700787401574
100
AcDbArc
 50
90.0
 51
180.0
  0
LINE
  5
212
330
1F
100
AcDbEntity
  8
0
  6
HIDDEN
 62
     7
100
AcDbLine
 10
8.6445853937
 20
4.0106879928
 30
0.0
 11
8.9551872593
 21
4.0106879928
 31
0.0
  0
LINE
  5
213
330
1F
100
AcDbEntity
  8
0
  6
HIDDEN
 62
     7
100
AcDbLine
 10
8.6893130747
 20
4.3650187015
 30
0.0
 11
8.6445853937
 21
4.3650187015
 31
0.0
  0
LINE
  5
214
330
1F
100
AcDbEntity
  8
0
  6
HIDDEN
 62
     7
100
AcDbLine
 10
8.6445853937
 20
4.286278544
 30
0.0
 11
8.2902546851
 21
4.286278544
 31
0.0
  0
LINE
  5
215
330
1F
100
AcDbEntity
  8
0
  6
HIDDEN
 62
     7
100
AcDbLine
 10
8.2902546851
 20
4.0894281503
 30
0.0
 11
8.6445853937
 21
4.0894281503
 31
0.0
  0
LINE
  5
216
330
1F
100
AcDbEntity
  8
0
  6
HIDDEN
 62
     7
100
AcDbLine
 10
8.2115145276
 20
4.286278544
 30
0.0
 11
7.7206119526
 21
4.286278544
 31
0.0
  0
LINE
  5
217
330
1F
100
AcDbEntity
  8
0
  6
HIDDEN
 62
     7
100
AcDbLine
 10
7.5800297055
 20
4.0894281503
 30
0.0
 11
8.2115145276
 21
4.0894281503
 31
0.0
  0
LINE
  5
218
330
1F
100
AcDbEntity
  8
0
  6
HIDDEN
 62
     7
100
AcDbLine
 10
7.6445441913
 20
4.3098593888
 30
0.0
 11
7.9988748999
 21
4.3098593888
 31
0.0
  0
LINE
  5
219
330
1F
100
AcDbEntity
  8
0
  6
HIDDEN
 62
     7
100
AcDbLine
 10
8.8020657087
 20
4.3650187015
 30
0.0
 11
8.8020657087
 21
4.0106879928
 31
0.0
  0
LINE
  5
21A
330
1F
100
AcDbEntity
  8
0
  6
CONTINUOUS
 62
     7
100
AcDbLine
 10
4.3896282294
 20
7.390008635
 30
0.0
 11
4.3596282294
 21
7.420008635
 31
0.0
  0
LINE
  5
21B
330
1F
100
AcDbEntity
  8
0
  6
CONTINUOUS
 62
     7
100
AcDbLine
 10
3.6494707491
 20
5.9239456429
 30
0.0
 11
3.7756387281
 21
5.9239456429
 31
0.0
  0
LINE
  5
21C
330
1F
100
AcDbEntity
  8
0
  6
CONTINUOUS
 62
     7
100
AcDbLine
 10
4.3596282294
 20
7.420008635
 30
0.0
 11
3.6494707491
 21
7.420008635
 31
0.0
  0
ARC
  5
21D
330
1F
100
AcDbEntity
  8
0
  6
CONTINUOUS
 62
     7
100
AcDbCircle
 10
2.3526990955
 20
7.2231582413
 30
0.0
 40
0.0393700787401574
100
AcDbArc
 50
90.0
 51
144.8241229375
  0
ARC
  5
21E
330
1F
100
AcDbEntity
  8
0
  6
CONTINUOUS
 62
     7
100
AcDbCircle
 10
2.6282896467
 20
7.2231582413
 30
0.0
 40
0.0393700787401574
100
AcDbArc
 50
35.4481150695
 51
90.0
  0
LINE
  5
21F
330
1F
100
AcDbEntity
  8
0
  6
CONTINUOUS
 62
     7
100
AcDbLine
 10
2.3920691743
 20
6.7113472177
 30
0.0
 11
2.3920691743
 21
6.6326070602
 31
0.0
  0
LINE
  5
220
330
1F
100
AcDbEntity
  8
0
  6
CONTINUOUS
 62
     7
100
AcDbLine
 10
2.588919568
 20
6.6326070602
 30
0.0
 11
2.588919568
 21
6.7113472177
 31
0.0
  0
LINE
  5
221
330
1F
100
AcDbEntity
  8
0
  6
CONTINUOUS
 62
     7
100
AcDbLine
 10
2.7726466021
 20
7.420008635
 30
0.0
 11
2.2936439774
 21
7.420008635
 31
0.0
  0
LINE
  5
222
330
1F
100
AcDbEntity
  8
0
  6
CONTINUOUS
 62
     7
100
AcDbLine
 10
3.0038014577
 20
7.420008635
 30
0.0
 11
2.8776334787
 21
7.420008635
 31
0.0
  0
LINE
  5
223
330
1F
100
AcDbEntity
  8
0
  6
CONTINUOUS
 62
     7
100
AcDbLine
 10
2.8776334787
 20
5.9239456429
 30
0.0
 11
3.0038014577
 21
5.9239456429
 31
0.0
  0
LINE
  5
224
330
1F
100
AcDbEntity
  8
0
  6
CONTINUOUS
 62
     7
100
AcDbLine
 10
2.2936439774
 20
5.9239456429
 30
0.0
 11
2.7726466021
 21
5.9239456429
 31
0.0
  0
LINE
  5
225
330
1F
100
AcDbEntity
  8
0
  6
CONTINUOUS
 62
     7
100
AcDbLine
 10
2.2936439774
 20
7.420008635
 30
0.0
 11
2.2636439774
 21
7.390008635
 31
0.0
  0
LINE
  5
226
330
1F
100
AcDbEntity
  8
0
  6
CONTINUOUS
 62
     7
100
AcDbLine
 10
2.2636439774
 20
5.9539456429
 30
0.0
 11
2.2936439774
 21
5.9239456429
 31
0.0
  0
LINE
  5
227
330
1F
100
AcDbEntity
  8
0
  6
CONTINUOUS
 62
     7
100
AcDbLine
 10
3.0038014577
 20
6.4948117846
 30
0.0
 11
3.0392345286
 21
6.4948117846
 31
0.0
  0
LINE
  5
228
330
1F
100
AcDbEntity
  8
0
  6
CONTINUOUS
 62
     7
100
AcDbLine
 10
3.0628565758
 20
6.4948117846
 30
0.0
 11
3.0982896467
 21
6.4948117846
 31
0.0
  0
LINE
  5
229
330
1F
100
AcDbEntity
  8
0
  6
CONTINUOUS
 62
     7
100
AcDbLine
 10
3.0982896467
 20
6.8491424932
 30
0.0
 11
3.0628565758
 21
6.8491424932
 31
0.0
  0
LINE
  5
22A
330
1F
100
AcDbEntity
  8
0
  6
CONTINUOUS
 62
     7
100
AcDbLine
 10
3.0392345286
 20
6.8491424932
 30
0.0
 11
3.0038014577
 21
6.8491424932
 31
0.0
  0
LINE
  5
22B
330
1F
100
AcDbEntity
  8
0
  6
CONTINUOUS
 62
     7
100
AcDbLine
 10
3.0038014577
 20
6.9770952492
 30
0.0
 11
3.0392345286
 21
6.9770952492
 31
0.0
  0
LINE
  5
22C
330
1F
100
AcDbEntity
  8
0
  6
CONTINUOUS
 62
     7
100
AcDbLine
 10
3.0628565758
 20
6.9770952492
 30
0.0
 11
3.0982896467
 21
6.9770952492
 31
0.0
  0
LINE
  5
22D
330
1F
100
AcDbEntity
  8
0
  6
CONTINUOUS
 62
     7
100
AcDbLine
 10
3.0982896467
 20
7.3314259578
 30
0.0
 11
3.0628565758
 21
7.3314259578
 31
0.0
  0
LINE
  5
22E
330
1F
100
AcDbEntity
  8
0
  6
CONTINUOUS
 62
     7
100
AcDbLine
 10
3.0392345286
 20
7.3314259578
 30
0.0
 11
3.0038014577
 21
7.3314259578
 31
0.0
  0
LINE
  5
22F
330
1F
100
AcDbEntity
  8
0
  6
CONTINUOUS
 62
     7
100
AcDbLine
 10
3.0038014577
 20
6.01252832
 30
0.0
 11
3.0392345286
 21
6.01252832
 31
0.0
  0
LINE
  5
230
330
1F
100
AcDbEntity
  8
0
  6
CONTINUOUS
 62
     7
100
AcDbLine
 10
3.0628565758
 20
6.01252832
 30
0.0
 11
3.0982896467
 21
6.01252832
 31
0.0
  0
LINE
  5
231
330
1F
100
AcDbEntity
  8
0
  6
CONTINUOUS
 62
     7
100
AcDbLine
 10
3.0982896467
 20
6.3668590287
 30
0.0
 11
3.0628565758
 21
6.3668590287
 31
0.0
  0
LINE
  5
232
330
1F
100
AcDbEntity
  8
0
  6
CONTINUOUS
 62
     7
100
AcDbLine
 10
3.0392345286
 20
6.3668590287
 30
0.0
 11
3.0038014577
 21
6.3668590287
 31
0.0
  0
LINE
  5
233
330
1F
100
AcDbEntity
  8
0
  6
CONTINUOUS
 62
     7
100
AcDbLine
 10
3.6494707491
 20
6.8491424932
 30
0.0
 11
3.6140376782
 21
6.8491424932
 31
0.0
  0
LINE
  5
234
330
1F
100
AcDbEntity
  8
0
  6
CONTINUOUS
 62
     7
100
AcDbLine
 10
3.5904156309
 20
6.8491424932
 30
0.0
 11
3.5549825601
 21
6.8491424932
 31
0.0
  0
LINE
  5
235
330
1F
100
AcDbEntity
  8
0
  6
CONTINUOUS
 62
     7
100
AcDbLine
 10
3.5549825601
 20
6.4948117846
 30
0.0
 11
3.5904156309
 21
6.4948117846
 31
0.0
  0
LINE
  5
236
330
1F
100
AcDbEntity
  8
0
  6
CONTINUOUS
 62
     7
100
AcDbLine
 10
3.6140376782
 20
6.4948117846
 30
0.0
 11
3.6494707491
 21
6.4948117846
 31
0.0
  0
LINE
  5
237
330
1F
100
AcDbEntity
  8
0
  6
CONTINUOUS
 62
     7
100
AcDbLine
 10
3.6494707491
 20
7.3314259578
 30
0.0
 11
3.6140376782
 21
7.3314259578
 31
0.0
  0
LINE
  5
238
330
1F
100
AcDbEntity
  8
0
  6
CONTINUOUS
 62
     7
100
AcDbLine
 10
3.5904156309
 20
7.3314259578
 30
0.0
 11
3.5549825601
 21
7.3314259578
 31
0.0
  0
LINE
  5
239
330
1F
100
AcDbEntity
  8
0
  6
CONTINUOUS
 62
     7
100
AcDbLine
 10
3.5549825601
 20
6.9770952492
 30
0.0
 11
3.5904156309
 21
6.9770952492
 31
0.0
  0
LINE
  5
23A
330
1F
100
AcDbEntity
  8
0
  6
CONTINUOUS
 62
     7
100
AcDbLine
 10
3.6140376782
 20
6.9770952492
 30
0.0
 11
3.6494707491
 21
6.9770952492
 31
0.0
  0
LINE
  5
23B
330
1F
100
AcDbEntity
  8
0
  6
CONTINUOUS
 62
     7
100
AcDbLine
 10
3.6494707491
 20
6.3668590287
 30
0.0
 11
3.6140376782
 21
6.3668590287
 31
0.0
  0
LINE
  5
23C
330
1F
100
AcDbEntity
  8
0
  6
CONTINUOUS
 62
     7
100
AcDbLine
 10
3.5904156309
 20
6.3668590287
 30
0.0
 11
3.5549825601
 21
6.3668590287
 31
0.0
  0
LINE
  5
23D
330
1F
100
AcDbEntity
  8
0
  6
CONTINUOUS
 62
     7
100
AcDbLine
 10
3.5549825601
 20
6.01252832
 30
0.0
 11
3.5904156309
 21
6.01252832
 31
0.0
  0
LINE
  5
23E
330
1F
100
AcDbEntity
  8
0
  6
CONTINUOUS
 62
     7
100
AcDbLine
 10
3.6140376782
 20
6.01252832
 30
0.0
 11
3.6494707491
 21
6.01252832
 31
0.0
  0
ARC
  5
23F
330
1F
100
AcDbEntity
  8
0
  6
CONTINUOUS
 62
     7
100
AcDbCircle
 10
3.5471085443
 20
7.4121346192
 30
0.0
 40
0.0078740157480324
100
AcDbArc
 50
0.0
 51
90.0
  0
ARC
  5
240
330
1F
100
AcDbEntity
  8
0
  6
CONTINUOUS
 62
     7
100
AcDbCircle
 10
3.5471085443
 20
5.9318196586
 30
0.0
 40
0.0078740157480315
100
AcDbArc
 50
270.0
 51
0.0
  0
LINE
  5
241
330
1F
100
AcDbEntity
  8
0
  6
CONTINUOUS
 62
     7
100
AcDbLine
 10
3.5471085443
 20
7.420008635
 30
0.0
 11
3.1061636624
 21
7.420008635
 31
0.0
  0
LINE
  5
242
330
1F
100
AcDbEntity
  8
0
  6
CONTINUOUS
 62
     7
100
AcDbLine
 10
3.1061636624
 20
5.9239456429
 30
0.0
 11
3.5471085443
 21
5.9239456429
 31
0.0
  0
ARC
  5
243
330
1F
100
AcDbEntity
  8
0
  6
CONTINUOUS
 62
     7
100
AcDbCircle
 10
3.1061636624
 20
7.4121346192
 30
0.0
 40
0.0078740157480324
100
AcDbArc
 50
90.0
 51
180.0
  0
ARC
  5
244
330
1F
100
AcDbEntity
  8
0
  6
CONTINUOUS
 62
     7
100
AcDbCircle
 10
3.1061636624
 20
5.9318196586
 30
0.0
 40
0.0078740157480315
100
AcDbArc
 50
180.0
 51
270.0
  0
LINE
  5
245
330
1F
100
AcDbEntity
  8
0
  6
CONTINUOUS
 62
     7
100
AcDbLine
 10
3.0628565758
 20
7.3757172964
 30
0.0
 11
3.0392345286
 21
7.3757172964
 31
0.0
  0
LINE
  5
246
330
1F
100
AcDbEntity
  8
0
  6
CONTINUOUS
 62
     7
100
AcDbLine
 10
3.0392345286
 20
5.9682369814
 30
0.0
 11
3.0628565758
 21
5.9682369814
 31
0.0
  0
LINE
  5
247
330
1F
100
AcDbEntity
  8
0
  6
CONTINUOUS
 62
     7
100
AcDbLine
 10
3.6140376782
 20
7.3757172964
 30
0.0
 11
3.5904156309
 21
7.3757172964
 31
0.0
  0
LINE
  5
248
330
1F
100
AcDbEntity
  8
0
  6
CONTINUOUS
 62
     7
100
AcDbLine
 10
3.5904156309
 20
5.9682369814
 30
0.0
 11
3.6140376782
 21
5.9682369814
 31
0.0
  0
LINE
  5
249
330
1F
100
AcDbEntity
  8
0
  6
CONTINUOUS
 62
     7
100
AcDbLine
 10
4.3896282294
 20
7.390008635
 30
0.0
 11
4.3896282294
 21
5.9550257973
 31
0.0
  0
LINE
  5
24A
330
1F
100
AcDbEntity
  8
0
  6
CONTINUOUS
 62
     7
100
AcDbLine
 10
4.3596282294
 20
5.924982416
 30
0.0
 11
4.3896282294
 21
5.9550257973
 31
0.0
  0
LINE
  5
24B
330
1F
100
AcDbEntity
  8
0
  6
CONTINUOUS
 62
     7
100
AcDbLine
 10
4.3596282294
 20
5.924982416
 30
0.0
 11
4.3596282294
 21
7.420008635
 31
0.0
  0
SPLINE
  5
24C
330
1F
100
AcDbEntity
  8
0
  6
CONTINUOUS
 62
     7
100
AcDbSpline
210
0.0
220
0.0
230
1.0
 70
     8
 71
     3
 72
    70
 73
    66
 74
     0
 42
0.00000001
 43
0.00000001
 40
-0.0312499999999998
 40
-0.0312499999999998
 40
0.0
 40
0.0
 40
0.0312500000000002
 40
0.0312500000000002
 40
0.0625000000000004
 40
0.0625000000000004
 40
0.0937500000000006
 40
0.0937500000000006
 40
0.1250000000000008
 40
0.1250000000000008
 40
0.156250000000001
 40
0.156250000000001
 40
0.1875000000000013
 40
0.1875000000000013
 40
0.2187500000000015
 40
0.2187500000000015
 40
0.2500000000000018
 40
0.2500000000000018
 40
0.2812500000000021
 40
0.2812500000000021
 40
0.3125000000000023
 40
0.3125000000000023
 40
0.3437500000000026
 40
0.3437500000000026
 40
0.3750000000000028
 40
0.3750000000000028
 40
0.4062500000000031
 40
0.4062500000000031
 40
0.4375000000000033
 40
0.4375000000000033
 40
0.4687500000000036
 40
0.4687500000000036
 40
0.4843750000000034
 40
0.4843750000000034
 40
0.5000000000000034
 40
0.5000000000000034
 40
0.5312500000000031
 40
0.5312500000000031
 40
0.5625000000000027
 40
0.5625000000000027
 40
0.6250000000000022
 40
0.6250000000000022
 40
0.656250000000002
 40
0.656250000000002
 40
0.6875000000000017
 40
0.6875000000000017
 40
0.7187500000000014
 40
0.7187500000000014
 40
0.7500000000000012
 40
0.7500000000000012
 40
0.7812500000000011
 40
0.7812500000000011
 40
0.8125000000000009
 40
0.8125000000000009
 40
0.8437500000000008
 40
0.8437500000000008
 40
0.8750000000000007
 40
0.8750000000000007
 40
0.9062500000000006
 40
0.9062500000000006
 40
0.9375000000000003
 40
0.9375000000000003
 40
0.9687500000000002
 40
0.9687500000000002
 40
1.0
 40
1.0
 40
1.03125
 40
1.03125
 10
4.17607377349466
 20
6.419967432503897
 30
0.0
 10
4.149481897841373
 20
6.419967432503897
 30
0.0
 10
4.136454508883338
 20
6.418489428953684
 30
0.0
 10
4.110915936475972
 20
6.412711778218465
 30
0.0
 10
4.098333425591553
 20
6.408337388812378
 30
0.0
 10
4.074963588756993
 20
6.397216064255946
 30
0.0
 10
4.063928205743471
 20
6.390384098989828
 30
0.0
 10
4.043722972693122
 20
6.374626362000456
 30
0.0
 10
4.034734577438711
 20
6.365872464477247
 30
0.0
 10
4.018835835202204
 20
6.346831383971636
 30
0.0
 10
4.011970779561243
 20
6.336540516654273
 30
0.0
 10
4.000772575982992
 20
6.315492922540629
 30
0.0
 10
3.996321597495515
 20
6.304548246213641
 30
0.0
 10
3.9897271988227
 20
6.282472540505394
 30
0.0
 10
3.987601538674586
 20
6.271468093366083
 30
0.0
 10
3.985401262403692
 20
6.249586377132963
 30
0.0
 10
3.985344579870996
 20
6.238651944429043
 30
0.0
 10
3.987103365965447
 20
6.217538179670664
 30
0.0
 10
3.988902625776287
 20
6.20728915948644
 30
0.0
 10
3.994192561884079
 20
6.18736958344546
 30
0.0
 10
3.997707878870845
 20
6.177672576892423
 30
0.0
 10
4.006196408556456
 20
6.159302382019201
 30
0.0
 10
4.0111801527341
 20
6.150564265537049
 30
0.0
 10
4.022651020161764
 20
6.133925326169337
 30
0.0
 10
4.029186886872842
 20
6.125974743470834
 30
0.0
 10
4.043733797107204
 20
6.111182609184809
 30
0.0
 10
4.051705008007159
 20
6.104356987341379
 30
0.0
 10
4.069345260815771
 20
6.091889619520876
 30
0.0
 10
4.079128473627489
 20
6.086195078106106
 30
0.0
 10
4.100330917808547
 20
6.076599338455543
 30
0.0
 10
4.111928249253884
 20
6.072618248461997
 30
0.0
 10
4.130486821073777
 20
6.068489093742215
 30
0.0
 10
4.136813126203381
 20
6.06742834235938
 30
0.0
 10
4.1497801742516
 20
6.065993780436407
 30
0.0
 10
4.156479647601837
 20
6.065626127042533
 30
0.0
 10
4.17624824529502
 20
6.065658636107214
 30
0.0
 10
4.189428488256205
 20
6.067195680936215
 30
0.0
 10
4.214129325804135
 20
6.072770056204601
 30
0.0
 10
4.225761191614096
 20
6.076803929234157
 30
0.0
 10
4.257440721814522
 20
6.091258671946793
 30
0.0
 10
4.275012569533491
 20
6.104186220854998
 30
0.0
 10
4.296600128458695
 20
6.126247310445446
 30
0.0
 10
4.303033918434366
 20
6.134089595896151
 30
0.0
 10
4.3145109118517
 20
6.150784437757706
 30
0.0
 10
4.319556823090104
 20
6.159674940783106
 30
0.0
 10
4.32799550323867
 20
6.178049516908957
 30
0.0
 10
4.331430711831587
 20
6.187585591475288
 30
0.0
 10
4.336673812161039
 20
6.207406564318437
 30
0.0
 10
4.338487439429396
 20
6.217767393749621
 30
0.0
 10
4.340220340246346
 20
6.238960483824701
 30
0.0
 10
4.340146673920414
 20
6.249709541892793
 30
0.0
 10
4.337946804030243
 20
6.271494417934112
 30
0.0
 10
4.335792251072321
 20
6.282627634010994
 30
0.0
 10
4.329184285473908
 20
6.304680639068563
 30
0.0
 10
4.32478383825779
 20
6.315492098211188
 30
0.0
 10
4.313580398751793
 20
6.336548389330512
 30
0.0
 10
4.306680281456915
 20
6.346878475514245
 30
0.0
 10
4.290863962941112
 20
6.365821403434305
 30
0.0
 10
4.281916042557053
 20
6.374548096661692
 30
0.0
 10
4.261771459061053
 20
6.390284918720236
 30
0.0
 10
4.250682716187141
 20
6.397162706236648
 30
0.0
 10
4.227359160700998
 20
6.408282360902616
 30
0.0
 10
4.214838509523872
 20
6.412656732198855
 30
0.0
 10
4.189159062724959
 20
6.418486306593029
 30
0.0
 10
4.17607377349466
 20
6.419967432503897
 30
0.0
 10
4.149481897841373
 20
6.419967432503897
 30
0.0
  0
LINE
  5
24D
330
1F
100
AcDbEntity
  8
0
  6
CONTINUOUS
 62
     7
100
AcDbLine
 10
4.3596282294
 20
5.924982416
 30
0.0
 11
3.8806256047
 21
5.924982416
 31
0.0
  0
LINE
  5
24E
330
1F
100
AcDbEntity
  8
0
  6
CONTINUOUS
 62
     7
100
AcDbLine
 10
3.8806256047
 20
6.9475676901
 30
0.0
 11
3.8806256047
 21
5.924982416
 31
0.0
  0
LINE
  5
24F
330
1F
100
AcDbEntity
  8
0
  6
CONTINUOUS
 62
     7
100
AcDbLine
 10
3.7756387281
 20
6.9475676901
 30
0.0
 11
3.8806256047
 21
6.9475676901
 31
0.0
  0
LINE
  5
250
330
1F
100
AcDbEntity
  8
0
  6
CONTINUOUS
 62
     7
100
AcDbLine
 10
3.7756387281
 20
5.9239456429
 30
0.0
 11
3.7756387281
 21
6.9475676901
 31
0.0
  0
LINE
  5
251
330
1F
100
AcDbEntity
  8
0
  6
CONTINUOUS
 62
     7
100
AcDbLine
 10
3.6494707491
 20
7.420008635
 30
0.0
 11
3.6494707491
 21
5.9239456429
 31
0.0
  0
CIRCLE
  5
252
330
1F
100
AcDbEntity
  8
0
  6
CONTINUOUS
 62
     7
100
AcDbCircle
 10
4.1627778357
 20
6.2428020782
 30
0.0
 40
0.1377952755905509
  0
CIRCLE
  5
253
330
1F
100
AcDbEntity
  8
0
  6
CONTINUOUS
 62
     7
100
AcDbCircle
 10
4.1627778357
 20
6.2428020782
 30
0.0
 40
0.1771653543307083
  0
LINE
  5
254
330
1F
100
AcDbEntity
  8
0
  6
CONTINUOUS
 62
     7
100
AcDbLine
 10
4.2415179931
 20
6.1973414271
 30
0.0
 11
4.2415179931
 21
6.2882627293
 31
0.0
  0
LINE
  5
255
330
1F
100
AcDbEntity
  8
0
  6
CONTINUOUS
 62
     7
100
AcDbLine
 10
4.2415179931
 20
6.2882627293
 30
0.0
 11
4.1627778357
 21
6.3337233804
 31
0.0
  0
LINE
  5
256
330
1F
100
AcDbEntity
  8
0
  6
CONTINUOUS
 62
     7
100
AcDbLine
 10
4.1627778357
 20
6.3337233804
 30
0.0
 11
4.0840376782
 21
6.2882627293
 31
0.0
  0
LINE
  5
257
330
1F
100
AcDbEntity
  8
0
  6
CONTINUOUS
 62
     7
100
AcDbLine
 10
4.0840376782
 20
6.2882627293
 30
0.0
 11
4.0840376782
 21
6.1973414271
 31
0.0
  0
LINE
  5
258
330
1F
100
AcDbEntity
  8
0
  6
CONTINUOUS
 62
     7
100
AcDbLine
 10
4.0840376782
 20
6.1973414271
 30
0.0
 11
4.1627778357
 21
6.1518807759
 31
0.0
  0
LINE
  5
259
330
1F
100
AcDbEntity
  8
0
  6
CONTINUOUS
 62
     7
100
AcDbLine
 10
4.1627778357
 20
6.1518807759
 30
0.0
 11
4.2415179931
 21
6.1973414271
 31
0.0
  0
LINE
  5
25A
330
1F
100
AcDbEntity
  8
0
  6
CONTINUOUS
 62
     7
100
AcDbLine
 10
2.4904943711
 20
7.26252832
 30
0.0
 11
2.3526990955
 21
7.26252832
 31
0.0
  0
LINE
  5
25B
330
1F
100
AcDbEntity
  8
0
  6
CONTINUOUS
 62
     7
100
AcDbLine
 10
2.6282896467
 20
7.26252832
 30
0.0
 11
2.4904943711
 21
7.26252832
 31
0.0
  0
SPLINE
  5
25C
330
1F
100
AcDbEntity
  8
0
  6
CONTINUOUS
 62
     7
100
AcDbSpline
210
0.0
220
0.0
230
1.0
 70
     8
 71
     3
 72
    70
 73
    66
 74
     0
 42
0.00000001
 43
0.00000001
 40
-0.0312499999999999
 40
-0.0312499999999999
 40
0.0
 40
0.0
 40
0.0312500000000001
 40
0.0312500000000001
 40
0.0625000000000003
 40
0.0625000000000003
 40
0.0937500000000004
 40
0.0937500000000004
 40
0.1250000000000005
 40
0.1250000000000005
 40
0.1562500000000006
 40
0.1562500000000006
 40
0.1875000000000006
 40
0.1875000000000006
 40
0.2187500000000006
 40
0.2187500000000006
 40
0.2500000000000006
 40
0.2500000000000006
 40
0.2812500000000006
 40
0.2812500000000006
 40
0.3125000000000007
 40
0.3125000000000007
 40
0.3437500000000007
 40
0.3437500000000007
 40
0.3750000000000007
 40
0.3750000000000007
 40
0.4062500000000007
 40
0.4062500000000007
 40
0.4375000000000007
 40
0.4375000000000007
 40
0.4687500000000008
 40
0.4687500000000008
 40
0.4843750000000006
 40
0.4843750000000006
 40
0.5000000000000004
 40
0.5000000000000004
 40
0.5312500000000004
 40
0.5312500000000004
 40
0.5625000000000004
 40
0.5625000000000004
 40
0.6250000000000003
 40
0.6250000000000003
 40
0.6562500000000002
 40
0.6562500000000002
 40
0.6875000000000001
 40
0.6875000000000001
 40
0.71875
 40
0.71875
 40
0.7499999999999999
 40
0.7499999999999999
 40
0.78125
 40
0.78125
 40
0.8125
 40
0.8125
 40
0.84375
 40
0.84375
 40
0.875
 40
0.875
 40
0.90625
 40
0.90625
 40
0.9375000000000001
 40
0.9375000000000001
 40
0.9687500000000001
 40
0.9687500000000001
 40
1.0
 40
1.0
 40
1.03125
 40
1.03125
 10
2.477198433274444
 20
7.376279791883253
 30
0.0
 10
2.503790308927732
 20
7.376279791883253
 30
0.0
 10
2.516817697885767
 20
7.375755908199287
 30
0.0
 10
2.542356270293134
 20
7.373648036088035
 30
0.0
 10
2.554938781177552
 20
7.372034795614748
 30
0.0
 10
2.578308618012112
 20
7.367745054523554
 30
0.0
 10
2.589344001025634
 20
7.365035209308848
 30
0.0
 10
2.609549234075983
 20
7.358422070821848
 30
0.0
 10
2.618537629330393
 20
7.354590734196875
 30
0.0
 10
2.6344363715669
 20
7.345729044454806
 30
0.0
 10
2.641301427207861
 20
7.340688046199554
 30
0.0
 10
2.652499630786113
 20
7.329708853636797
 30
0.0
 10
2.65695060927359
 20
7.323675597099674
 30
0.0
 10
2.663545007946405
 20
7.310726729450836
 30
0.0
 10
2.665670668094518
 20
7.303891097960114
 30
0.0
 10
2.667870944365413
 20
7.289479196857854
 30
0.0
 10
2.667927626898109
 20
7.281856155686716
 30
0.0
 10
2.666168840803659
 20
7.266290500362937
 30
0.0
 10
2.664369580992818
 20
7.258306617062826
 30
0.0
 10
2.659079644885026
 20
7.241953184334658
 30
0.0
 10
2.65556432789826
 20
7.233553817371869
 30
0.0
 10
2.647075798212649
 20
7.216834881325545
 30
0.0
 10
2.642092054035005
 20
7.208464397842896
 30
0.0
 10
2.630621186607341
 20
7.191775378924743
 30
0.0
 10
2.624085319896263
 20
7.183399998623544
 30
0.0
 10
2.609538409661901
 20
7.167135146714367
 30
0.0
 10
2.601567198761947
 20
7.159268550522077
 30
0.0
 10
2.583926945953334
 20
7.144358368581856
 30
0.0
 10
2.574143733141616
 20
7.137242234917373
 30
0.0
 10
2.552941288960557
 20
7.12489822149298
 30
0.0
 10
2.541343957515221
 20
7.119572449072213
 30
0.0
 10
2.522785385695328
 20
7.113971119609087
 30
0.0
 10
2.516459080565724
 20
7.112514721578579
 30
0.0
 10
2.503492032517506
 20
7.110539310565625
 30
0.0
 10
2.496792559167268
 20
7.110029156197638
 30
0.0
 10
2.477023961474085
 20
7.110074152856271
 30
0.0
 10
2.463843718512901
 20
7.112218612486371
 30
0.0
 10
2.439142880964969
 20
7.119776244538233
 30
0.0
 10
2.427511015155009
 20
7.125167524336522
 30
0.0
 10
2.395831484954582
 20
7.143743399533434
 30
0.0
 10
2.378259637235614
 20
7.159462283769592
 30
0.0
 10
2.35667207831041
 20
7.183689330402132
 30
0.0
 10
2.350238288334738
 20
7.191946164098536
 30
0.0
 10
2.338761294917405
 20
7.208679071411643
 30
0.0
 10
2.333715383679
 20
7.217185087518896
 30
0.0
 10
2.325276703530435
 20
7.233885275224838
 30
0.0
 10
2.321841494937518
 20
7.242135262807153
 30
0.0
 10
2.316598394608065
 20
7.258398181077014
 30
0.0
 10
2.314784767339709
 20
7.26646669110666
 30
0.0
 10
2.31305186652276
 20
7.282076226508773
 30
0.0
 10
2.313125532848691
 20
7.289562178519282
 30
0.0
 10
2.315325402738862
 20
7.303906561266721
 30
0.0
 10
2.317479955696785
 20
7.310820981594962
 30
0.0
 10
2.324087921295197
 20
7.323749931765201
 30
0.0
 10
2.328488368511315
 20
7.32970849479045
 30
0.0
 10
2.339691808017311
 20
7.340692081696777
 30
0.0
 10
2.346591925312191
 20
7.345750927060391
 30
0.0
 10
2.362408243827993
 20
7.354567004184842
 30
0.0
 10
2.371356164212052
 20
7.35838802758121
 30
0.0
 10
2.391500747708052
 20
7.364994769525552
 30
0.0
 10
2.402589490581964
 20
7.367723974761805
 30
0.0
 10
2.425913046068107
 20
7.372014063689837
 30
0.0
 10
2.438433697245233
 20
7.373627816157811
 30
0.0
 10
2.464113144044147
 20
7.375754905076635
 30
0.0
 10
2.477198433274444
 20
7.376279791883253
 30
0.0
 10
2.503790308927732
 20
7.376279791883253
 30
0.0
  0
SPLINE
  5
25D
330
1F
100
AcDbEntity
  8
0
  6
CONTINUOUS
 62
     7
100
AcDbSpline
210
0.0
220
0.0
230
1.0
 70
     8
 71
     3
 72
    50
 73
    46
 74
     0
 42
0.00000001
 43
0.00000001
 40
-0.0625000000000001
 40
-0.0625000000000001
 40
0.0
 40
0.0
 40
0.03125
 40
0.03125
 40
0.0625000000000001
 40
0.0625000000000001
 40
0.0937500000000001
 40
0.0937500000000001
 40
0.1250000000000002
 40
0.1250000000000002
 40
0.1875000000000005
 40
0.1875000000000005
 40
0.2500000000000007
 40
0.2500000000000007
 40
0.3125000000000008
 40
0.3125000000000008
 40
0.3750000000000009
 40
0.3750000000000009
 40
0.437500000000001
 40
0.437500000000001
 40
0.468750000000001
 40
0.468750000000001
 40
0.500000000000001
 40
0.500000000000001
 40
0.5312500000000009
 40
0.5312500000000009
 40
0.5625000000000009
 40
0.5625000000000009
 40
0.5937500000000008
 40
0.5937500000000008
 40
0.6250000000000008
 40
0.6250000000000008
 40
0.6875000000000007
 40
0.6875000000000007
 40
0.7500000000000004
 40
0.7500000000000004
 40
0.8125000000000003
 40
0.8125000000000003
 40
0.8750000000000002
 40
0.8750000000000002
 40
0.9062500000000001
 40
0.9062500000000001
 40
0.9374999999999999
 40
0.9374999999999999
 40
1.0
 40
1.0
 40
1.03125
 40
1.03125
 10
2.505099024956507
 20
6.141704485190655
 30
0.0
 10
2.483192044173378
 20
6.141704485190655
 30
0.0
 10
2.476105409762821
 20
6.14090365047663
 30
0.0
 10
2.462317162090766
 20
6.137891786469043
 30
0.0
 10
2.455701756954814
 20
6.135679060471955
 30
0.0
 10
2.443524638900985
 20
6.130328020484893
 30
0.0
 10
2.437835426250911
 20
6.127137010764712
 30
0.0
 10
2.427617734291442
 20
6.120262532013514
 30
0.0
 10
2.423019875612062
 20
6.116552384590298
 30
0.0
 10
2.410543287490329
 20
6.104795189800718
 30
0.0
 10
2.404212778591407
 20
6.096369715636229
 30
0.0
 10
2.395263799605008
 20
6.079313322187111
 30
0.0
 10
2.392676481638506
 20
6.070654235433392
 30
0.0
 10
2.391651574865318
 20
6.054065715178086
 30
0.0
 10
2.393245666631673
 20
6.04595794064387
 30
0.0
 10
2.400980876792398
 20
6.031361513196066
 30
0.0
 10
2.40730150489902
 20
6.024596118019353
 30
0.0
 10
2.424567283394541
 20
6.013398996631211
 30
0.0
 10
2.435677172397234
 20
6.008861729798738
 30
0.0
 10
2.454726129588987
 20
6.004255869223243
 30
0.0
 10
2.461591152026437
 20
6.003059672527032
 30
0.0
 10
2.475509015411036
 20
6.001475824344853
 30
0.0
 10
2.482698418482348
 20
6.001060640542895
 30
0.0
 10
2.497235518234985
 20
6.001022239702714
 30
0.0
 10
2.504378297581643
 20
6.001393819500476
 30
0.0
 10
2.518419737126983
 20
6.002911039816848
 30
0.0
 10
2.525287996515303
 20
6.004067371188277
 30
0.0
 10
2.538074579744972
 20
6.007071156804053
 30
0.0
 10
2.544152921254558
 20
6.008956237311842
 30
0.0
 10
2.555157637652092
 20
6.013346339700291
 30
0.0
 10
2.560097814925697
 20
6.015841086341319
 30
0.0
 10
2.573337846435568
 20
6.024263822455674
 30
0.0
 10
2.579707202388188
 20
6.030949192678452
 30
0.0
 10
2.587693057917299
 20
6.045715239418057
 30
0.0
 10
2.589314728396606
 20
6.053786212282428
 30
0.0
 10
2.58836278083117
 20
6.070461285160172
 30
0.0
 10
2.585791611782065
 20
6.079140103956139
 30
0.0
 10
2.576873068100486
 20
6.096229950205407
 30
0.0
 10
2.570568971139263
 20
6.104655211234583
 30
0.0
 10
2.558079844141221
 20
6.116459355192296
 30
0.0
 10
2.553476372404753
 20
6.120183450223315
 30
0.0
 10
2.5432462297075
 20
6.12708253344272
 30
0.0
 10
2.537549511165222
 20
6.1302840857103
 30
0.0
 10
2.519283370406048
 20
6.138329926867843
 30
0.0
 10
2.505099024956507
 20
6.141704485190655
 30
0.0
 10
2.483192044173378
 20
6.141704485190655
 30
0.0
  0
LINE
  5
25E
330
1F
100
AcDbEntity
  8
0
  6
CONTINUOUS
 62
     7
100
AcDbLine
 10
2.8776334787
 20
7.3673913804
 30
0.0
 11
2.7726466021
 21
7.3673913804
 31
0.0
  0
LINE
  5
25F
330
1F
100
AcDbEntity
  8
0
  6
CONTINUOUS
 62
     7
100
AcDbLine
 10
2.7726466021
 20
7.420008635
 30
0.0
 11
2.7726466021
 21
6.7113472177
 31
0.0
  0
LINE
  5
260
330
1F
100
AcDbEntity
  8
0
  6
CONTINUOUS
 62
     7
100
AcDbLine
 10
2.2936439774
 20
6.7113472177
 30
0.0
 11
2.7726466021
 21
6.7113472177
 31
0.0
  0
LINE
  5
261
330
1F
100
AcDbEntity
  8
0
  6
CONTINUOUS
 62
     7
100
AcDbLine
 10
2.2936439774
 20
6.7113472177
 30
0.0
 11
2.2936439774
 21
7.420008635
 31
0.0
  0
LINE
  5
262
330
1F
100
AcDbEntity
  8
0
  6
CONTINUOUS
 62
     7
100
AcDbLine
 10
2.2936439774
 20
5.9239456429
 30
0.0
 11
2.2936439774
 21
6.6326070602
 31
0.0
  0
LINE
  5
263
330
1F
100
AcDbEntity
  8
0
  6
CONTINUOUS
 62
     7
100
AcDbLine
 10
2.2936439774
 20
6.6326070602
 30
0.0
 11
2.7726466021
 21
6.6326070602
 31
0.0
  0
LINE
  5
264
330
1F
100
AcDbEntity
  8
0
  6
CONTINUOUS
 62
     7
100
AcDbLine
 10
2.7726466021
 20
6.6326070602
 30
0.0
 11
2.7726466021
 21
5.9239456429
 31
0.0
  0
LINE
  5
265
330
1F
100
AcDbEntity
  8
0
  6
CONTINUOUS
 62
     7
100
AcDbLine
 10
2.7726466021
 20
5.9765628975
 30
0.0
 11
2.8776334787
 21
5.9765628975
 31
0.0
  0
LINE
  5
266
330
1F
100
AcDbEntity
  8
0
  6
CONTINUOUS
 62
     7
100
AcDbLine
 10
3.0038014577
 20
7.420008635
 30
0.0
 11
3.0038014577
 21
5.9239456429
 31
0.0
  0
LINE
  5
267
330
1F
100
AcDbEntity
  8
0
  6
CONTINUOUS
 62
     7
100
AcDbLine
 10
2.8776334787
 20
5.9239456429
 30
0.0
 11
2.8776334787
 21
7.420008635
 31
0.0
  0
LINE
  5
268
330
1F
100
AcDbEntity
  8
0
  6
CONTINUOUS
 62
     7
100
AcDbLine
 10
2.2936439774
 20
6.7113472177
 30
0.0
 11
2.2636439774
 21
6.7113472177
 31
0.0
  0
LINE
  5
269
330
1F
100
AcDbEntity
  8
0
  6
CONTINUOUS
 62
     7
100
AcDbLine
 10
2.2636439774
 20
6.6326070602
 30
0.0
 11
2.2636439774
 21
5.9539456429
 31
0.0
  0
LINE
  5
26A
330
1F
100
AcDbEntity
  8
0
  6
CONTINUOUS
 62
     7
100
AcDbLine
 10
2.2636439774
 20
7.390008635
 30
0.0
 11
2.2636439774
 21
6.7113472177
 31
0.0
  0
LINE
  5
26B
330
1F
100
AcDbEntity
  8
0
  6
CONTINUOUS
 62
     7
100
AcDbLine
 10
2.2936439774
 20
6.6326070602
 30
0.0
 11
2.2636439774
 21
6.6326070602
 31
0.0
  0
LINE
  5
26C
330
1F
100
AcDbEntity
  8
0
  6
CONTINUOUS
 62
     7
100
AcDbLine
 10
2.2636439774
 20
6.7113472177
 30
0.0
 11
2.2636439774
 21
6.6326070602
 31
0.0
  0
LINE
  5
26D
330
1F
100
AcDbEntity
  8
0
  6
CONTINUOUS
 62
     7
100
AcDbLine
 10
2.7726466021
 20
6.6326070602
 30
0.0
 11
2.7726466021
 21
6.7113472177
 31
0.0
  0
LINE
  5
26E
330
1F
100
AcDbEntity
  8
0
  6
CONTINUOUS
 62
     7
100
AcDbLine
 10
3.5549825601
 20
7.4121346192
 30
0.0
 11
3.5549825601
 21
5.9318196586
 31
0.0
  0
LINE
  5
26F
330
1F
100
AcDbEntity
  8
0
  6
CONTINUOUS
 62
     7
100
AcDbLine
 10
3.0982896467
 20
5.9318196586
 30
0.0
 11
3.0982896467
 21
7.4121346192
 31
0.0
  0
LINE
  5
270
330
1F
100
AcDbEntity
  8
0
  6
CONTINUOUS
 62
     7
100
AcDbLine
 10
3.0628565758
 20
6.8285706682
 30
0.0
 11
3.0392345286
 21
6.8285706682
 31
0.0
  0
LINE
  5
271
330
1F
100
AcDbEntity
  8
0
  6
CONTINUOUS
 62
     7
100
AcDbLine
 10
3.0628565758
 20
6.5153836096
 30
0.0
 11
3.0392345286
 21
6.5153836096
 31
0.0
  0
LINE
  5
272
330
1F
100
AcDbEntity
  8
0
  6
CONTINUOUS
 62
     7
100
AcDbLine
 10
3.0628565758
 20
6.8285706682
 30
0.0
 11
3.0628565758
 21
6.5153836096
 31
0.0
  0
LINE
  5
273
330
1F
100
AcDbEntity
  8
0
  6
CONTINUOUS
 62
     7
100
AcDbLine
 10
3.0392345286
 20
6.8285706682
 30
0.0
 11
3.0392345286
 21
6.5153836096
 31
0.0
  0
LINE
  5
274
330
1F
100
AcDbEntity
  8
0
  6
CONTINUOUS
 62
     7
100
AcDbLine
 10
3.0628565758
 20
7.3108541328
 30
0.0
 11
3.0392345286
 21
7.3108541328
 31
0.0
  0
LINE
  5
275
330
1F
100
AcDbEntity
  8
0
  6
CONTINUOUS
 62
     7
100
AcDbLine
 10
3.0628565758
 20
7.3108541328
 30
0.0
 11
3.0628565758
 21
6.8285706682
 31
0.0
  0
LINE
  5
276
330
1F
100
AcDbEntity
  8
0
  6
CONTINUOUS
 62
     7
100
AcDbLine
 10
3.0392345286
 20
7.3108541328
 30
0.0
 11
3.0392345286
 21
6.8285706682
 31
0.0
  0
LINE
  5
277
330
1F
100
AcDbEntity
  8
0
  6
CONTINUOUS
 62
     7
100
AcDbLine
 10
3.0628565758
 20
6.0331001451
 30
0.0
 11
3.0392345286
 21
6.0331001451
 31
0.0
  0
LINE
  5
278
330
1F
100
AcDbEntity
  8
0
  6
CONTINUOUS
 62
     7
100
AcDbLine
 10
3.0628565758
 20
6.5153836096
 30
0.0
 11
3.0628565758
 21
6.0331001451
 31
0.0
  0
LINE
  5
279
330
1F
100
AcDbEntity
  8
0
  6
CONTINUOUS
 62
     7
100
AcDbLine
 10
3.0392345286
 20
6.5153836096
 30
0.0
 11
3.0392345286
 21
6.0331001451
 31
0.0
  0
LINE
  5
27A
330
1F
100
AcDbEntity
  8
0
  6
CONTINUOUS
 62
     7
100
AcDbLine
 10
3.0628565758
 20
7.3757172964
 30
0.0
 11
3.0628565758
 21
7.3108541328
 31
0.0
  0
LINE
  5
27B
330
1F
100
AcDbEntity
  8
0
  6
CONTINUOUS
 62
     7
100
AcDbLine
 10
3.0392345286
 20
7.3757172964
 30
0.0
 11
3.0392345286
 21
7.3108541328
 31
0.0
  0
LINE
  5
27C
330
1F
100
AcDbEntity
  8
0
  6
CONTINUOUS
 62
     7
100
AcDbLine
 10
3.0628565758
 20
6.0331001451
 30
0.0
 11
3.0628565758
 21
5.9682369814
 31
0.0
  0
LINE
  5
27D
330
1F
100
AcDbEntity
  8
0
  6
CONTINUOUS
 62
     7
100
AcDbLine
 10
3.0392345286
 20
6.0331001451
 30
0.0
 11
3.0392345286
 21
5.9682369814
 31
0.0
  0
LINE
  5
27E
330
1F
100
AcDbEntity
  8
0
  6
CONTINUOUS
 62
     7
100
AcDbLine
 10
3.5904156309
 20
6.5153836096
 30
0.0
 11
3.6140376782
 21
6.5153836096
 31
0.0
  0
LINE
  5
27F
330
1F
100
AcDbEntity
  8
0
  6
CONTINUOUS
 62
     7
100
AcDbLine
 10
3.5904156309
 20
6.8285706682
 30
0.0
 11
3.6140376782
 21
6.8285706682
 31
0.0
  0
LINE
  5
280
330
1F
100
AcDbEntity
  8
0
  6
CONTINUOUS
 62
     7
100
AcDbLine
 10
3.5904156309
 20
6.8285706682
 30
0.0
 11
3.5904156309
 21
6.5153836096
 31
0.0
  0
LINE
  5
281
330
1F
100
AcDbEntity
  8
0
  6
CONTINUOUS
 62
     7
100
AcDbLine
 10
3.6140376782
 20
6.8285706682
 30
0.0
 11
3.6140376782
 21
6.5153836096
 31
0.0
  0
LINE
  5
282
330
1F
100
AcDbEntity
  8
0
  6
CONTINUOUS
 62
     7
100
AcDbLine
 10
3.5904156309
 20
7.3108541328
 30
0.0
 11
3.6140376782
 21
7.3108541328
 31
0.0
  0
LINE
  5
283
330
1F
100
AcDbEntity
  8
0
  6
CONTINUOUS
 62
     7
100
AcDbLine
 10
3.5904156309
 20
7.3108541328
 30
0.0
 11
3.5904156309
 21
6.8285706682
 31
0.0
  0
LINE
  5
284
330
1F
100
AcDbEntity
  8
0
  6
CONTINUOUS
 62
     7
100
AcDbLine
 10
3.6140376782
 20
7.3108541328
 30
0.0
 11
3.6140376782
 21
6.8285706682
 31
0.0
  0
LINE
  5
285
330
1F
100
AcDbEntity
  8
0
  6
CONTINUOUS
 62
     7
100
AcDbLine
 10
3.5904156309
 20
6.0331001451
 30
0.0
 11
3.6140376782
 21
6.0331001451
 31
0.0
  0
LINE
  5
286
330
1F
100
AcDbEntity
  8
0
  6
CONTINUOUS
 62
     7
100
AcDbLine
 10
3.5904156309
 20
6.5153836096
 30
0.0
 11
3.5904156309
 21
6.0331001451
 31
0.0
  0
LINE
  5
287
330
1F
100
AcDbEntity
  8
0
  6
CONTINUOUS
 62
     7
100
AcDbLine
 10
3.6140376782
 20
6.5153836096
 30
0.0
 11
3.6140376782
 21
6.0331001451
 31
0.0
  0
LINE
  5
288
330
1F
100
AcDbEntity
  8
0
  6
CONTINUOUS
 62
     7
100
AcDbLine
 10
3.5904156309
 20
7.3757172964
 30
0.0
 11
3.5904156309
 21
7.3108541328
 31
0.0
  0
LINE
  5
289
330
1F
100
AcDbEntity
  8
0
  6
CONTINUOUS
 62
     7
100
AcDbLine
 10
3.6140376782
 20
7.3757172964
 30
0.0
 11
3.6140376782
 21
7.3108541328
 31
0.0
  0
LINE
  5
28A
330
1F
100
AcDbEntity
  8
0
  6
CONTINUOUS
 62
     7
100
AcDbLine
 10
3.5904156309
 20
6.0331001451
 30
0.0
 11
3.5904156309
 21
5.9682369814
 31
0.0
  0
LINE
  5
28B
330
1F
100
AcDbEntity
  8
0
  6
CONTINUOUS
 62
     7
100
AcDbLine
 10
3.6140376782
 20
6.0331001451
 30
0.0
 11
3.6140376782
 21
5.9682369814
 31
0.0
  0
LINE
  5
28C
330
1F
100
AcDbEntity
  8
0
  6
CONTINUOUS
 62
     8
100
AcDbLine
 10
2.4904943711
 20
7.2231582413
 30
0.0
 11
2.6501984089
 21
7.2231582413
 31
0.0
  0
LINE
  5
28D
330
1F
100
AcDbEntity
  8
0
  6
CONTINUOUS
 62
     8
100
AcDbLine
 10
2.3310263859
 20
7.2231582413
 30
0.0
 11
2.4904943711
 21
7.2231582413
 31
0.0
  0
LINE
  5
28E
330
1F
100
AcDbEntity
  8
0
  6
CONTINUOUS
 62
     8
100
AcDbLine
 10
3.5471085443
 20
5.9239456429
 30
0.0
 11
3.5471085443
 21
7.420008635
 31
0.0
  0
LINE
  5
28F
330
1F
100
AcDbEntity
  8
0
  6
CONTINUOUS
 62
     8
100
AcDbLine
 10
3.1061636624
 20
7.420008635
 30
0.0
 11
3.1061636624
 21
5.9239456429
 31
0.0
  0
CIRCLE
  5
290
330
1F
100
AcDbEntity
  8
0
  6
HIDDEN
 62
     7
100
AcDbCircle
 10
4.1627778357
 20
6.2428020782
 30
0.0
 40
0.0984251968503935
  0
LINE
  5
291
330
1F
100
AcDbEntity
  8
0
  6
HIDDEN
 62
     7
100
AcDbLine
 10
4.3596282294
 20
6.7833325375
 30
0.0
 11
3.8806256047
 21
6.7833325375
 31
0.0
  0
SPLINE
  5
292
330
1F
100
AcDbEntity
  8
0
  6
HIDDEN
 62
     7
100
AcDbSpline
210
0.0
220
0.0
230
1.0
 70
     8
 71
     3
 72
     8
 73
     4
 74
     0
 42
0.00000001
 43
0.00000001
 40
0.0
 40
0.0
 40
0.0
 40
0.0
 40
1.0
 40
1.0
 40
1.0
 40
1.0
 10
4.359628229368805
 20
6.783332537528481
 30
0.0
 10
4.369562270104523
 20
6.793869178881696
 30
0.0
 10
4.379576176690199
 20
6.804331743424808
 30
0.0
 10
4.389628229368805
 20
6.81475892687721
 30
0.0
  0
ARC
  5
293
330
1F
100
AcDbEntity
  8
0
  6
HIDDEN
 62
     7
100
AcDbCircle
 10
4.3896282294
 20
6.7900873751
 30
0.0
 40
0.5090026246719175
100
AcDbArc
 50
90.0
 51
180.0
  0
LINE
  5
294
330
1F
100
AcDbEntity
  8
0
  6
HIDDEN
 62
     7
100
AcDbLine
 10
3.8806256047
 20
6.5606217403
 30
0.0
 11
4.3596282294
 21
6.5606217403
 31
0.0
  0
SPLINE
  5
295
330
1F
100
AcDbEntity
  8
0
  6
HIDDEN
 62
     7
100
AcDbSpline
210
0.0
220
0.0
230
1.0
 70
     8
 71
     3
 72
     8
 73
     4
 74
     0
 42
0.00000001
 43
0.00000001
 40
0.0
 40
0.0
 40
0.0
 40
0.0
 40
1.0
 40
1.0
 40
1.0
 40
1.0
 10
4.389628229368804
 20
6.529195350955643
 30
0.0
 10
4.379575985951639
 20
6.539622732264742
 30
0.0
 10
4.369562031255364
 20
6.550085352288946
 30
0.0
 10
4.359628229368805
 20
6.560621740304372
 30
0.0
  0
CIRCLE
  5
296
330
1F
100
AcDbEntity
  8
0
  6
HIDDEN
 62
     7
100
AcDbCircle
 10
4.1627778357
 20
6.2428020782
 30
0.0
 40
0.059055118110237
  0
LINE
  5
297
330
1F
100
AcDbEntity
  8
0
  6
HIDDEN
 62
     7
100
AcDbLine
 10
2.4904943711
 20
7.0656779263
 30
0.0
 11
2.3133290168
 21
7.0656779263
 31
0.0
  0
LINE
  5
298
330
1F
100
AcDbEntity
  8
0
  6
HIDDEN
 62
     7
100
AcDbLine
 10
2.6676597254
 20
7.0656779263
 30
0.0
 11
2.4904943711
 21
7.0656779263
 31
0.0
  0
LINE
  5
299
330
1F
100
AcDbEntity
  8
0
  6
HIDDEN
 62
     7
100
AcDbLine
 10
2.3921348388
 20
6.2782763515
 30
0.0
 11
2.5888539034
 21
6.2782763515
 31
0.0
  0
LINE
  5
29A
330
1F
100
AcDbEntity
  8
0
  6
HIDDEN
 62
     7
100
AcDbLine
 10
2.431439253
 20
6.2389062728
 30
0.0
 11
2.5495494892
 21
6.2389062728
 31
0.0
  0
LINE
  5
29B
330
1F
100
AcDbEntity
  8
0
  6
HIDDEN
 62
     7
100
AcDbLine
 10
2.4904943711
 20
7.0656779263
 30
0.0
 11
2.4904943711
 21
7.26252832
 31
0.0
  0
LINE
  5
29C
330
1F
100
AcDbEntity
  8
0
  6
HIDDEN
 62
     7
100
AcDbLine
 10
2.4117542136
 20
7.0656779263
 30
0.0
 11
2.4117542136
 21
7.26252832
 31
0.0
  0
LINE
  5
29D
330
1F
100
AcDbEntity
  8
0
  6
HIDDEN
 62
     7
100
AcDbLine
 10
2.5692345286
 20
7.0656779263
 30
0.0
 11
2.5692345286
 21
7.26252832
 31
0.0
  0
LINE
  5
29E
330
1F
100
AcDbEntity
  8
0
  6
HIDDEN
 62
     7
100
AcDbLine
 10
2.2936439774
 20
6.7113472177
 30
0.0
 11
2.2936439774
 21
6.6326070602
 31
0.0
  0
LINE
  5
29F
330
1F
100
AcDbEntity
  8
0
  6
HIDDEN
 62
     7
100
AcDbLine
 10
3.2478959459
 20
6.8491424932
 30
0.0
 11
3.2478959459
 21
6.4948117846
 31
0.0
  0
LINE
  5
2A0
330
1F
100
AcDbEntity
  8
0
  6
HIDDEN
 62
     7
100
AcDbLine
 10
3.2400219302
 20
7.3314259578
 30
0.0
 11
3.2400219302
 21
6.9770952492
 31
0.0
  0
LINE
  5
2A1
330
1F
100
AcDbEntity
  8
0
  6
HIDDEN
 62
     7
100
AcDbLine
 10
3.2478959459
 20
7.3235519421
 30
0.0
 11
3.2478959459
 21
6.9849692654
 31
0.0
  0
LINE
  5
2A2
330
1F
100
AcDbEntity
  8
0
  6
HIDDEN
 62
     7
100
AcDbLine
 10
3.2400219302
 20
6.3668590287
 30
0.0
 11
3.2400219302
 21
6.01252832
 31
0.0
  0
LINE
  5
2A3
330
1F
100
AcDbEntity
  8
0
  6
HIDDEN
 62
     7
100
AcDbLine
 10
3.2478959459
 20
6.3589850129
 30
0.0
 11
3.2478959459
 21
6.0204023363
 31
0.0
  0
LINE
  5
2A4
330
1F
100
AcDbEntity
  8
0
  6
HIDDEN
 62
     7
100
AcDbLine
 10
3.4053762609
 20
6.8491424932
 30
0.0
 11
3.4053762609
 21
6.4948117846
 31
0.0
  0
LINE
  5
2A5
330
1F
100
AcDbEntity
  8
0
  6
HIDDEN
 62
     7
100
AcDbLine
 10
3.4053762609
 20
7.3235519421
 30
0.0
 11
3.4053762609
 21
6.9849692654
 31
0.0
  0
LINE
  5
2A6
330
1F
100
AcDbEntity
  8
0
  6
HIDDEN
 62
     7
100
AcDbLine
 10
3.4132502766
 20
7.3314259578
 30
0.0
 11
3.4132502766
 21
6.9770952492
 31
0.0
  0
LINE
  5
2A7
330
1F
100
AcDbEntity
  8
0
  6
HIDDEN
 62
     7
100
AcDbLine
 10
3.4053762609
 20
6.3589850129
 30
0.0
 11
3.4053762609
 21
6.0204023363
 31
0.0
  0
LINE
  5
2A8
330
1F
100
AcDbEntity
  8
0
  6
HIDDEN
 62
     7
100
AcDbLine
 10
3.4132502766
 20
6.3668590287
 30
0.0
 11
3.4132502766
 21
6.01252832
 31
0.0
  0
LINE
  5
2A9
330
1F
100
AcDbEntity
  8
0
  6
HIDDEN
 62
     7
100
AcDbLine
 10
3.0628565758
 20
7.3108541328
 30
0.0
 11
3.0392345286
 21
7.3108541328
 31
0.0
  0
LINE
  5
2AA
330
1F
100
AcDbEntity
  8
0
  6
HIDDEN
 62
     7
100
AcDbLine
 10
3.0628565758
 20
6.0331001451
 30
0.0
 11
3.0392345286
 21
6.0331001451
 31
0.0
  0
LINE
  5
2AB
330
1F
100
AcDbEntity
  8
0
  6
HIDDEN
 62
     7
100
AcDbLine
 10
3.0628565758
 20
6.5153836096
 30
0.0
 11
3.0392345286
 21
6.5153836096
 31
0.0
  0
LINE
  5
2AC
330
1F
100
AcDbEntity
  8
0
  6
HIDDEN
 62
     7
100
AcDbLine
 10
3.0628565758
 20
6.8285706682
 30
0.0
 11
3.0392345286
 21
6.8285706682
 31
0.0
  0
LINE
  5
2AD
330
1F
100
AcDbEntity
  8
0
  6
HIDDEN
 62
     7
100
AcDbLine
 10
3.5904156309
 20
7.3108541328
 30
0.0
 11
3.6140376782
 21
7.3108541328
 31
0.0
  0
LINE
  5
2AE
330
1F
100
AcDbEntity
  8
0
  6
HIDDEN
 62
     7
100
AcDbLine
 10
3.5904156309
 20
6.0331001451
 30
0.0
 11
3.6140376782
 21
6.0331001451
 31
0.0
  0
LINE
  5
2AF
330
1F
100
AcDbEntity
  8
0
  6
HIDDEN
 62
     7
100
AcDbLine
 10
3.5904156309
 20
6.5153836096
 30
0.0
 11
3.6140376782
 21
6.5153836096
 31
0.0
  0
LINE
  5
2B0
330
1F
100
AcDbEntity
  8
0
  6
HIDDEN
 62
     7
100
AcDbLine
 10
3.5904156309
 20
6.8285706682
 30
0.0
 11
3.6140376782
 21
6.8285706682
 31
0.0
  0
LINE
  5
2B1
330
1F
100
AcDbEntity
  8
0
  6
HIDDEN
 62
     7
100
AcDbLine
 10
3.7756387281
 20
6.7900873751
 30
0.0
 11
3.6494707491
 21
6.7900873751
 31
0.0
  0
LINE
  5
2B2
330
1F
100
AcDbEntity
  8
0
  6
HIDDEN
 62
     7
100
AcDbLine
 10
3.6494707491
 20
6.5538669027
 30
0.0
 11
3.7756387281
 21
6.5538669027
 31
0.0
  0
LINE
  5
2B3
330
1F
100
AcDbEntity
  8
0
  6
HIDDEN
 62
     7
100
AcDbLine
 10
2.6676597254
 20
7.0656779263
 30
0.0
 11
2.6676597254
 21
7.2231582413
 31
0.0
  0
LINE
  5
2B4
330
1F
100
AcDbEntity
  8
0
  6
HIDDEN
 62
     7
100
AcDbLine
 10
2.3133290168
 20
7.2231582413
 30
0.0
 11
2.3133290168
 21
7.0656779263
 31
0.0
  0
ARC
  5
2B5
330
1F
100
AcDbEntity
  8
0
  6
HIDDEN
 62
     7
100
AcDbCircle
 10
2.3526990955
 20
7.2231582413
 30
0.0
 40
0.0393700787401574
100
AcDbArc
 50
144.8241229375
 51
180.0
  0
ARC
  5
2B6
330
1F
100
AcDbEntity
  8
0
  6
HIDDEN
 62
     7
100
AcDbCircle
 10
2.6282896467
 20
7.2231582413
 30
0.0
 40
0.0393700787401574
100
AcDbArc
 50
0.0
 51
35.4481150695
  0
LINE
  5
2B7
330
1F
100
AcDbEntity
  8
0
  6
HIDDEN
 62
     7
100
AcDbLine
 10
2.3920691743
 20
7.0656779263
 30
0.0
 11
2.3920691743
 21
6.7113472177
 31
0.0
  0
LINE
  5
2B8
330
1F
100
AcDbEntity
  8
0
  6
HIDDEN
 62
     7
100
AcDbLine
 10
2.3920691743
 20
6.6326070602
 30
0.0
 11
2.3920691743
 21
6.2782763515
 31
0.0
  0
LINE
  5
2B9
330
1F
100
AcDbEntity
  8
0
  6
HIDDEN
 62
     7
100
AcDbLine
 10
2.588919568
 20
6.2782763515
 30
0.0
 11
2.588919568
 21
6.6326070602
 31
0.0
  0
LINE
  5
2BA
330
1F
100
AcDbEntity
  8
0
  6
HIDDEN
 62
     7
100
AcDbLine
 10
2.588919568
 20
6.7113472177
 30
0.0
 11
2.588919568
 21
7.0656779263
 31
0.0
  0
ARC
  5
2BB
330
1F
100
AcDbEntity
  8
0
  6
HIDDEN
 62
     7
100
AcDbCircle
 10
2.5495494892
 20
6.2782763515
 30
0.0
 40
0.0393700787401583
100
AcDbArc
 50
270.0
 51
0.0
  0
ARC
  5
2BC
330
1F
100
AcDbEntity
  8
0
  6
HIDDEN
 62
     7
100
AcDbCircle
 10
2.431439253
 20
6.2782763515
 30
0.0
 40
0.0393700787401583
100
AcDbArc
 50
180.0
 51
270.0
  0
LINE
  5
2BD
330
1F
100
AcDbEntity
  8
0
  6
HIDDEN
 62
     7
100
AcDbLine
 10
2.6676597254
 20
7.0656779263
 30
0.0
 11
2.6676597254
 21
7.2845989591
 31
0.0
  0
LINE
  5
2BE
330
1F
100
AcDbEntity
  8
0
  6
HIDDEN
 62
     7
100
AcDbLine
 10
2.3133290168
 20
7.2843575069
 30
0.0
 11
2.3133290168
 21
7.0656779263
 31
0.0
  0
LINE
  5
2BF
330
1F
100
AcDbEntity
  8
0
  6
HIDDEN
 62
     7
100
AcDbLine
 10
2.3920691743
 20
6.6326070602
 30
0.0
 11
2.3920691743
 21
6.0594373256
 31
0.0
  0
LINE
  5
2C0
330
1F
100
AcDbEntity
  8
0
  6
HIDDEN
 62
     7
100
AcDbLine
 10
2.588919568
 20
6.0593906784
 30
0.0
 11
2.588919568
 21
6.6326070602
 31
0.0
  0
LINE
  5
2C1
330
1F
100
AcDbEntity
  8
0
  6
HIDDEN
 62
     7
100
AcDbLine
 10
2.3920691743
 20
7.0656779263
 30
0.0
 11
2.3920691743
 21
6.7113472177
 31
0.0
  0
LINE
  5
2C2
330
1F
100
AcDbEntity
  8
0
  6
HIDDEN
 62
     7
100
AcDbLine
 10
2.588919568
 20
6.7113472177
 30
0.0
 11
2.588919568
 21
7.0656779263
 31
0.0
  0
LINE
  5
2C3
330
1F
100
AcDbEntity
  8
0
  6
HIDDEN
 62
     7
100
AcDbLine
 10
2.2936439774
 20
6.7900873751
 30
0.0
 11
2.2636439774
 21
6.8200873751
 31
0.0
  0
LINE
  5
2C4
330
1F
100
AcDbEntity
  8
0
  6
HIDDEN
 62
     7
100
AcDbLine
 10
2.2636439774
 20
6.5238669027
 30
0.0
 11
2.2936439774
 21
6.5538669027
 31
0.0
  0
LINE
  5
2C5
330
1F
100
AcDbEntity
  8
0
  6
HIDDEN
 62
     7
100
AcDbLine
 10
2.8776334787
 20
6.5538669027
 30
0.0
 11
3.0038014577
 21
6.5538669027
 31
0.0
  0
LINE
  5
2C6
330
1F
100
AcDbEntity
  8
0
  6
HIDDEN
 62
     7
100
AcDbLine
 10
3.0038014577
 20
6.7900873751
 30
0.0
 11
2.8776334787
 21
6.7900873751
 31
0.0
  0
LINE
  5
2C7
330
1F
100
AcDbEntity
  8
0
  6
HIDDEN
 62
     7
100
AcDbLine
 10
2.7726466021
 20
6.7900873751
 30
0.0
 11
2.2936439774
 21
6.7900873751
 31
0.0
  0
LINE
  5
2C8
330
1F
100
AcDbEntity
  8
0
  6
HIDDEN
 62
     7
100
AcDbLine
 10
2.2936439774
 20
6.5538669027
 30
0.0
 11
2.7726466021
 21
6.5538669027
 31
0.0
  0
LINE
  5
2C9
330
1F
100
AcDbEntity
  8
0
  6
HIDDEN
 62
     7
100
AcDbLine
 10
3.0392345286
 20
6.4948117846
 30
0.0
 11
3.0628565758
 21
6.4948117846
 31
0.0
  0
LINE
  5
2CA
330
1F
100
AcDbEntity
  8
0
  6
HIDDEN
 62
     7
100
AcDbLine
 10
3.0982896467
 20
6.4948117846
 30
0.0
 11
3.2478959459
 21
6.4948117846
 31
0.0
  0
LINE
  5
2CB
330
1F
100
AcDbEntity
  8
0
  6
HIDDEN
 62
     7
100
AcDbLine
 10
3.2478959459
 20
6.8491424932
 30
0.0
 11
3.0982896467
 21
6.8491424932
 31
0.0
  0
LINE
  5
2CC
330
1F
100
AcDbEntity
  8
0
  6
HIDDEN
 62
     7
100
AcDbLine
 10
3.0628565758
 20
6.8491424932
 30
0.0
 11
3.0392345286
 21
6.8491424932
 31
0.0
  0
LINE
  5
2CD
330
1F
100
AcDbEntity
  8
0
  6
HIDDEN
 62
     7
100
AcDbLine
 10
3.0392345286
 20
6.9770952492
 30
0.0
 11
3.0628565758
 21
6.9770952492
 31
0.0
  0
LINE
  5
2CE
330
1F
100
AcDbEntity
  8
0
  6
HIDDEN
 62
     7
100
AcDbLine
 10
3.0982896467
 20
6.9770952492
 30
0.0
 11
3.2400219302
 21
6.9770952492
 31
0.0
  0
LINE
  5
2CF
330
1F
100
AcDbEntity
  8
0
  6
HIDDEN
 62
     7
100
AcDbLine
 10
3.2400219302
 20
7.3314259578
 30
0.0
 11
3.0982896467
 21
7.3314259578
 31
0.0
  0
LINE
  5
2D0
330
1F
100
AcDbEntity
  8
0
  6
HIDDEN
 62
     7
100
AcDbLine
 10
3.0628565758
 20
7.3314259578
 30
0.0
 11
3.0392345286
 21
7.3314259578
 31
0.0
  0
ARC
  5
2D1
330
1F
100
AcDbEntity
  8
0
  6
HIDDEN
 62
     7
100
AcDbCircle
 10
3.2400219302
 20
7.3235519421
 30
0.0
 40
0.007874015748031
100
AcDbArc
 50
0.0
 51
90.0
  0
ARC
  5
2D2
330
1F
100
AcDbEntity
  8
0
  6
HIDDEN
 62
     7
100
AcDbCircle
 10
3.2400219302
 20
6.9849692649
 30
0.0
 40
0.007874015748031
100
AcDbArc
 50
270.0
 51
0.0
  0
LINE
  5
2D3
330
1F
100
AcDbEntity
  8
0
  6
HIDDEN
 62
     7
100
AcDbLine
 10
3.0392345286
 20
6.01252832
 30
0.0
 11
3.0628565758
 21
6.01252832
 31
0.0
  0
LINE
  5
2D4
330
1F
100
AcDbEntity
  8
0
  6
HIDDEN
 62
     7
100
AcDbLine
 10
3.0982896467
 20
6.01252832
 30
0.0
 11
3.2400219302
 21
6.01252832
 31
0.0
  0
LINE
  5
2D5
330
1F
100
AcDbEntity
  8
0
  6
HIDDEN
 62
     7
100
AcDbLine
 10
3.2400219302
 20
6.3668590287
 30
0.0
 11
3.0982896467
 21
6.3668590287
 31
0.0
  0
LINE
  5
2D6
330
1F
100
AcDbEntity
  8
0
  6
HIDDEN
 62
     7
100
AcDbLine
 10
3.0628565758
 20
6.3668590287
 30
0.0
 11
3.0392345286
 21
6.3668590287
 31
0.0
  0
ARC
  5
2D7
330
1F
100
AcDbEntity
  8
0
  6
HIDDEN
 62
     7
100
AcDbCircle
 10
3.2400219302
 20
6.3589850129
 30
0.0
 40
0.007874015748031
100
AcDbArc
 50
0.0
 51
90.0
  0
ARC
  5
2D8
330
1F
100
AcDbEntity
  8
0
  6
HIDDEN
 62
     7
100
AcDbCircle
 10
3.2400219302
 20
6.0204023358
 30
0.0
 40
0.007874015748031
100
AcDbArc
 50
270.0
 51
0.0
  0
LINE
  5
2D9
330
1F
100
AcDbEntity
  8
0
  6
HIDDEN
 62
     7
100
AcDbLine
 10
3.6140376782
 20
6.8491424932
 30
0.0
 11
3.5904156309
 21
6.8491424932
 31
0.0
  0
LINE
  5
2DA
330
1F
100
AcDbEntity
  8
0
  6
HIDDEN
 62
     7
100
AcDbLine
 10
3.5549825601
 20
6.8491424932
 30
0.0
 11
3.4053762609
 21
6.8491424932
 31
0.0
  0
LINE
  5
2DB
330
1F
100
AcDbEntity
  8
0
  6
HIDDEN
 62
     7
100
AcDbLine
 10
3.4053762609
 20
6.4948117846
 30
0.0
 11
3.5549825601
 21
6.4948117846
 31
0.0
  0
LINE
  5
2DC
330
1F
100
AcDbEntity
  8
0
  6
HIDDEN
 62
     7
100
AcDbLine
 10
3.5904156309
 20
6.4948117846
 30
0.0
 11
3.6140376782
 21
6.4948117846
 31
0.0
  0
ARC
  5
2DD
330
1F
100
AcDbEntity
  8
0
  6
HIDDEN
 62
     7
100
AcDbCircle
 10
3.4132502766
 20
6.9849692649
 30
0.0
 40
0.007874015748031
100
AcDbArc
 50
180.0
 51
270.0
  0
ARC
  5
2DE
330
1F
100
AcDbEntity
  8
0
  6
HIDDEN
 62
     7
100
AcDbCircle
 10
3.4132502766
 20
7.3235519421
 30
0.0
 40
0.007874015748031
100
AcDbArc
 50
90.0
 51
180.0
  0
LINE
  5
2DF
330
1F
100
AcDbEntity
  8
0
  6
HIDDEN
 62
     7
100
AcDbLine
 10
3.6140376782
 20
7.3314259578
 30
0.0
 11
3.5904156309
 21
7.3314259578
 31
0.0
  0
LINE
  5
2E0
330
1F
100
AcDbEntity
  8
0
  6
HIDDEN
 62
     7
100
AcDbLine
 10
3.5549825601
 20
7.3314259578
 30
0.0
 11
3.4132502766
 21
7.3314259578
 31
0.0
  0
LINE
  5
2E1
330
1F
100
AcDbEntity
  8
0
  6
HIDDEN
 62
     7
100
AcDbLine
 10
3.4132502766
 20
6.9770952492
 30
0.0
 11
3.5549825601
 21
6.9770952492
 31
0.0
  0
LINE
  5
2E2
330
1F
100
AcDbEntity
  8
0
  6
HIDDEN
 62
     7
100
AcDbLine
 10
3.5904156309
 20
6.9770952492
 30
0.0
 11
3.6140376782
 21
6.9770952492
 31
0.0
  0
ARC
  5
2E3
330
1F
100
AcDbEntity
  8
0
  6
HIDDEN
 62
     7
100
AcDbCircle
 10
3.4132502766
 20
6.0204023358
 30
0.0
 40
0.007874015748031
100
AcDbArc
 50
180.0
 51
270.0
  0
ARC
  5
2E4
330
1F
100
AcDbEntity
  8
0
  6
HIDDEN
 62
     7
100
AcDbCircle
 10
3.4132502766
 20
6.3589850129
 30
0.0
 40
0.007874015748031
100
AcDbArc
 50
90.0
 51
180.0
  0
LINE
  5
2E5
330
1F
100
AcDbEntity
  8
0
  6
HIDDEN
 62
     7
100
AcDbLine
 10
3.6140376782
 20
6.3668590287
 30
0.0
 11
3.5904156309
 21
6.3668590287
 31
0.0
  0
LINE
  5
2E6
330
1F
100
AcDbEntity
  8
0
  6
HIDDEN
 62
     7
100
AcDbLine
 10
3.5549825601
 20
6.3668590287
 30
0.0
 11
3.4132502766
 21
6.3668590287
 31
0.0
  0
LINE
  5
2E7
330
1F
100
AcDbEntity
  8
0
  6
HIDDEN
 62
     7
100
AcDbLine
 10
3.4132502766
 20
6.01252832
 30
0.0
 11
3.5549825601
 21
6.01252832
 31
0.0
  0
LINE
  5
2E8
330
1F
100
AcDbEntity
  8
0
  6
HIDDEN
 62
     7
100
AcDbLine
 10
3.5904156309
 20
6.01252832
 30
0.0
 11
3.6140376782
 21
6.01252832
 31
0.0
  0
LINE
  5
2E9
330
1F
100
AcDbEntity
  8
0
  6
HIDDEN
 62
     7
100
AcDbLine
 10
3.0982896467
 20
6.3963865877
 30
0.0
 11
3.5549825601
 21
6.3963865877
 31
0.0
  0
LINE
  5
2EA
330
1F
100
AcDbEntity
  8
0
  6
HIDDEN
 62
     7
100
AcDbLine
 10
3.5549825601
 20
6.9475676901
 30
0.0
 11
3.0982896467
 21
6.9475676901
 31
0.0
  0
LINE
  5
2EB
330
1F
100
AcDbEntity
  8
0
  6
HIDDEN
 62
     7
100
AcDbLine
 10
3.0392345286
 20
6.3963865877
 30
0.0
 11
3.0628565758
 21
6.3963865877
 31
0.0
  0
LINE
  5
2EC
330
1F
100
AcDbEntity
  8
0
  6
HIDDEN
 62
     7
100
AcDbLine
 10
3.0628565758
 20
6.9475676901
 30
0.0
 11
3.0392345286
 21
6.9475676901
 31
0.0
  0
LINE
  5
2ED
330
1F
100
AcDbEntity
  8
0
  6
HIDDEN
 62
     7
100
AcDbLine
 10
3.5904156309
 20
6.3963865877
 30
0.0
 11
3.6140376782
 21
6.3963865877
 31
0.0
  0
LINE
  5
2EE
330
1F
100
AcDbEntity
  8
0
  6
HIDDEN
 62
     7
100
AcDbLine
 10
3.6140376782
 20
6.9475676901
 30
0.0
 11
3.5904156309
 21
6.9475676901
 31
0.0
  0
LINE
  5
2EF
330
1F
100
AcDbEntity
  8
0
  6
HIDDEN
 62
     7
100
AcDbLine
 10
2.313588845
 20
7.2231582413
 30
0.0
 11
2.6673998972
 21
7.2231582413
 31
0.0
  0
LINE
  5
2F0
330
1F
100
AcDbEntity
  8
0
  6
HIDDEN
 62
     7
100
AcDbLine
 10
3.5471085443
 20
7.420008635
 30
0.0
 11
3.5471085443
 21
5.9239456429
 31
0.0
  0
LINE
  5
2F1
330
1F
100
AcDbEntity
  8
0
  6
HIDDEN
 62
     7
100
AcDbLine
 10
3.1061636624
 20
5.9239456429
 30
0.0
 11
3.1061636624
 21
7.420008635
 31
0.0
  0
LINE
  5
2F2
330
1F
100
AcDbEntity
  8
0
  6
CONTINUOUS
 62
     7
100
AcDbLine
 10
8.9040620935
 20
5.8200267946
 30
0.0
 11
8.9252718492
 21
5.8322749066
 31
0.0
  0
LINE
  5
2F3
330
1F
100
AcDbEntity
  8
0
  6
CONTINUOUS
 62
     7
100
AcDbLine
 10
9.4329142696
 20
6.7116326511
 30
0.0
 11
9.4329142696
 21
6.7361248944
 31
0.0
  0
LINE
  5
2F4
330
1F
100
AcDbEntity
  8
0
  6
CONTINUOUS
 62
     7
100
AcDbLine
 10
8.1912847693
 20
5.9784743918
 30
0.0
 11
8.5299907734
 21
5.7829435776
 31
0.0
  0
LINE
  5
2F5
330
1F
100
AcDbEntity
  8
0
  6
CONTINUOUS
 62
     7
100
AcDbLine
 10
8.0278336034
 20
6.0728327414
 30
0.0
 11
8.1170478369
 21
6.0213304606
 31
0.0
  0
LINE
  5
2F6
330
1F
100
AcDbEntity
  8
0
  6
CONTINUOUS
 62
     7
100
AcDbLine
 10
9.277961479
 20
7.07860723
 30
0.0
 11
8.7758043089
 21
7.3684963938
 31
0.0
  0
SPLINE
  5
2F7
330
1F
100
AcDbEntity
  8
0
  6
CONTINUOUS
 62
     7
100
AcDbSpline
210
0.0
220
0.0
230
1.0
 70
     8
 71
     3
 72
    34
 73
    30
 74
     0
 42
0.00000001
 43
0.00000001
 40
0.0
 40
0.0
 40
0.0
 40
0.0
 40
0.0284940148149984
 40
0.0639922309534248
 40
0.1005781376494284
 40
0.1381635311723139
 40
0.1764913490267236
 40
0.2152326906838722
 40
0.2540729668213598
 40
0.2928266542802778
 40
0.331441458768546
 40
0.3699232175889183
 40
0.4083094394608912
 40
0.4466533671243451
 40
0.4850158081779219
 40
0.5234442638951189
 40
0.5620004342483903
 40
0.6007492905942595
 40
0.6397488294736694
 40
0.6790373780072417
 40
0.7186087873339257
 40
0.7583599535710844
 40
0.7979668998461709
 40
0.8370178157591466
 40
0.8750839746883867
 40
0.911897847246021
 40
0.9474479022726181
 40
0.9819386335128892
 40
1.0
 40
1.0
 40
1.0
 40
1.0
 10
8.625075453577553
 20
6.832390155509825
 30
0.0
 10
8.623160168585967
 20
6.835446637005154
 30
0.0
 10
8.618858796514708
 20
6.842310923102561
 30
0.0
 10
8.610333275213724
 20
6.852066663852304
 30
0.0
 10
8.599852787943226
 20
6.86184146321951
 30
0.0
 10
8.587768786836723
 20
6.870834428138076
 30
0.0
 10
8.574258396893892
 20
6.878957059504046
 30
0.0
 10
8.559485416288265
 20
6.886085857675895
 30
0.0
 10
8.543670983192799
 20
6.892135963667116
 30
0.0
 10
8.527031802648956
 20
6.897054075880991
 30
0.0
 10
8.509765743622882
 20
6.900814666666464
 30
0.0
 10
8.49205106299384
 20
6.90340620635628
 30
0.0
 10
8.474057244120301
 20
6.904823269492406
 30
0.0
 10
8.455948744965095
 20
6.905063556388311
 30
0.0
 10
8.437889711166552
 20
6.904126775939965
 30
0.0
 10
8.420042417935147
 20
6.902014526525779
 30
0.0
 10
8.402566194505683
 20
6.89872935525865
 30
0.0
 10
8.385615305706292
 20
6.894272436223908
 30
0.0
 10
8.36934325776104
 20
6.888642138772973
 30
0.0
 10
8.353908656045249
 20
6.881834228581779
 30
0.0
 10
8.33948562885849
 20
6.873846846960897
 30
0.0
 10
8.326283388236604
 20
6.864699973275915
 30
0.0
 10
8.314540091017985
 20
6.854457795871952
 30
0.0
 10
8.304494924834326
 20
6.843251437368362
 30
0.0
 10
8.296357258105271
 20
6.831275287013449
 30
0.0
 10
8.290213410314989
 20
6.81876861538503
 30
0.0
 10
8.286226538882078
 20
6.805975807761467
 30
0.0
 10
8.284251795593597
 20
6.79506243898205
 30
0.0
 10
8.284345681708572
 20
6.788489308124957
 30
0.0
 10
8.284377948955816
 20
6.786230221798974
 30
0.0
  0
LINE
  5
2F8
330
1F
100
AcDbEntity
  8
0
  6
CONTINUOUS
 62
     7
100
AcDbLine
 10
8.2841439278
 20
6.7860013972
 30
0.0
 11
8.2841439278
 21
6.7353780371
 31
0.0
  0
SPLINE
  5
2F9
330
1F
100
AcDbEntity
  8
0
  6
CONTINUOUS
 62
     7
100
AcDbSpline
210
0.0
220
0.0
230
1.0
 70
     8
 71
     3
 72
    11
 73
     7
 74
     0
 42
0.00000001
 43
0.00000001
 40
0.0
 40
0.0
 40
0.0
 40
0.0
 40
0.2227181881427386
 40
0.5592486240528911
 40
0.8949169773464487
 40
1.0
 40
1.0
 40
1.0
 40
1.0
 10
7.224271656310941
 20
7.391330384209019
 30
0.0
 10
7.224716454889713
 20
7.38851540750257
 30
0.0
 10
7.225833350618949
 20
7.381446959869484
 30
0.0
 10
7.229366015971426
 20
7.370184078928435
 30
0.0
 10
7.23305103559567
 20
7.360475535870187
 30
0.0
 10
7.2358626287115
 20
7.355253583769273
 30
0.0
 10
7.236532962870863
 20
7.354008576854123
 30
0.0
  0
LINE
  5
2FA
330
1F
100
AcDbEntity
  8
0
  6
CONTINUOUS
 62
     7
100
AcDbLine
 10
7.8834673169
 20
7.9226305934
 30
0.0
 11
7.8487763449
 21
7.9026039215
 31
0.0
  0
SPLINE
  5
2FB
330
1F
100
AcDbEntity
  8
0
  6
CONTINUOUS
 62
     7
100
AcDbSpline
210
0.0
220
0.0
230
1.0
 70
     8
 71
     3
 72
    19
 73
    15
 74
     0
 42
0.00000001
 43
0.00000001
 40
0.0
 40
0.0
 40
0.0
 40
0.0
 40
0.0342386368923534
 40
0.1222791005571644
 40
0.2100037106460248
 40
0.2974822153186335
 40
0.3848282292269874
 40
0.4721765360485106
 40
0.5596471096764906
 40
0.6473662414375427
 40
0.7354834446986748
 40
0.8241372154494417
 40
0.9134315399266998
 40
1.0
 40
1.0
 40
1.0
 40
1.0
 10
8.103554450221312
 20
7.756577976651393
 30
0.0
 10
8.10310199362652
 20
7.758751511509516
 30
0.0
 10
8.10148610028281
 20
7.76651402519593
 30
0.0
 10
8.097294007458297
 20
7.779939385758608
 30
0.0
 10
8.091089412453078
 20
7.796641230161089
 30
0.0
 10
8.08361837794361
 20
7.813046623555469
 30
0.0
 10
8.07507144737032
 20
7.829000669086995
 30
0.0
 10
8.065500375937699
 20
7.844363457221724
 30
0.0
 10
8.0549956900475
 20
7.858994361845401
 30
0.0
 10
8.04363683788367
 20
7.872753384718465
 30
0.0
 10
8.031506144137987
 20
7.885516509272984
 30
0.0
 10
8.018670635765115
 20
7.897113056218798
 30
0.0
 10
8.005408234903683
 20
7.907415651960354
 30
0.0
 10
7.996239530031996
 20
7.913040021770096
 30
0.0
 10
7.991726234830643
 20
7.915808617948967
 30
0.0
  0
SPLINE
  5
2FC
330
1F
100
AcDbEntity
  8
0
  6
CONTINUOUS
 62
     7
100
AcDbSpline
210
0.0
220
0.0
230
1.0
 70
     8
 71
     3
 72
    16
 73
    12
 74
     0
 42
0.00000001
 43
0.00000001
 40
0.0
 40
0.0
 40
0.0
 40
0.0
 40
0.0732798037009808
 40
0.2076215996370885
 40
0.3416854266552275
 40
0.4735296840363201
 40
0.6017668467282715
 40
0.7256729180498883
 40
0.8453954845121084
 40
0.9617475114168119
 40
1.0
 40
1.0
 40
1.0
 40
1.0
 10
7.991726234830643
 20
7.915808617948967
 30
0.0
 10
7.989131631174898
 20
7.917251633420401
 30
0.0
 10
7.981780413865033
 20
7.921340088429131
 30
0.0
 10
7.969406443478577
 20
7.926764315970128
 30
0.0
 10
7.954669326574839
 20
7.931399981737285
 30
0.0
 10
7.939978981414905
 20
7.934043990935301
 30
0.0
 10
7.925639906262244
 20
7.934649511157326
 30
0.0
 10
7.911887113393536
 20
7.933285594501809
 30
0.0
 10
7.89902986544243
 20
7.929906912723114
 30
0.0
 10
7.889527593000263
 20
7.926227342100626
 30
0.0
 10
7.884713427111111
 20
7.923177003162553
 30
0.0
 10
7.883522298733448
 20
7.922422283579912
 30
0.0
  0
LINE
  5
2FD
330
1F
100
AcDbEntity
  8
0
  6
CONTINUOUS
 62
     7
100
AcDbLine
 10
7.8496895158
 20
7.9031310839
 30
0.0
 11
7.8170900046
 21
7.9219503811
 31
0.0
  0
LINE
  5
2FE
330
1F
100
AcDbEntity
  8
0
  6
CONTINUOUS
 62
     7
100
AcDbLine
 10
8.1557960087
 20
7.7264195669
 30
0.0
 11
8.0597886301
 21
7.7818434468
 31
0.0
  0
LINE
  5
2FF
330
1F
100
AcDbEntity
  8
0
  6
CONTINUOUS
 62
     7
100
AcDbLine
 10
8.3192471746
 20
7.6320612173
 30
0.0
 11
8.2300329411
 21
7.683563498
 31
0.0
  0
LINE
  5
300
330
1F
100
AcDbEntity
  8
0
  6
CONTINUOUS
 62
     7
100
AcDbLine
 10
7.069119299
 20
6.6262867287
 30
0.0
 11
7.5712764691
 21
6.3363975649
 31
0.0
  0
LINE
  5
301
330
1F
100
AcDbEntity
  8
0
  6
CONTINUOUS
 62
     7
100
AcDbLine
 10
6.9141665084
 20
6.9932613076
 30
0.0
 11
6.9141665084
 21
6.9687690642
 31
0.0
  0
LINE
  5
302
330
1F
100
AcDbEntity
  8
0
  6
CONTINUOUS
 62
     7
100
AcDbLine
 10
8.7034232998
 20
7.4102810609
 30
0.0
 11
8.3916281837
 21
7.5902765501
 31
0.0
  0
LINE
  5
303
330
1F
100
AcDbEntity
  8
0
  6
CONTINUOUS
 62
     7
100
AcDbLine
 10
7.6436574782
 20
6.2946128978
 30
0.0
 11
7.9554525943
 21
6.1146174085
 31
0.0
  0
SPLINE
  5
304
330
1F
100
AcDbEntity
  8
0
  6
CONTINUOUS
 62
     7
100
AcDbSpline
210
0.0
220
0.0
230
1.0
 70
     8
 71
     3
 72
    63
 73
    59
 74
     0
 42
0.00000001
 43
0.00000001
 40
0.0
 40
0.0
 40
0.0
 40
0.0
 40
0.016941144722615
 40
0.0348289240545748
 40
0.0527422135140486
 40
0.0706808121861225
 40
0.0886427663419006
 40
0.1066249815903313
 40
0.1246238131667984
 40
0.142635543488015
 40
0.1606567117680564
 40
0.1786843023413414
 40
0.1967158208264857
 40
0.214749293494584
 40
0.2327830259631372
 40
0.2508158380802529
 40
0.2688470723023824
 40
0.2868763172545099
 40
0.304903351149413
 40
0.3229280952298621
 40
0.3409505766536659
 40
0.3589708996371703
 40
0.3769892234819686
 40
0.3950057461531771
 40
0.4130206922293545
 40
0.4310343042311366
 40
0.4490468365192292
 40
0.467058551114636
 40
0.485069714928173
 40
0.5030805979918416
 40
0.5210914723633998
 40
0.5391025542167299
 40
0.557114083972261
 40
0.5751263363082
 40
0.5931395855209715
 40
0.611154104251971
 40
0.6291701614510393
 40
0.6471880192137694
 40
0.6652079280472192
 40
0.6832301200006967
 40
0.7012547989497295
 40
0.7192821271438592
 40
0.7373122069303133
 40
0.7553450563678633
 40
0.7733805772934483
 40
0.7914185143827428
 40
0.8094584039997436
 40
0.8274995123904254
 40
0.8455404260384569
 40
0.863579394715952
 40
0.8816142601772751
 40
0.8996423087239321
 40
0.9176602801127652
 40
0.935664463753403
 40
0.953650919588059
 40
0.9716158517390928
 40
0.9895561348396662
 40
1.0
 40
1.0
 40
1.0
 40
1.0
 10
8.314921053523237
 20
7.619480931237462
 30
0.0
 10
8.307941370904478
 20
7.620829115780325
 30
0.0
 10
8.293591996063872
 20
7.623600818509025
 30
0.0
 10
8.271026138880842
 20
7.625690950556704
 30
0.0
 10
8.247492257325055
 20
7.626262975573514
 30
0.0
 10
8.223369224995764
 20
7.625102537038288
 30
0.0
 10
8.198736953203932
 20
7.622257151504023
 30
0.0
 10
8.173652561603225
 20
7.61771991283643
 30
0.0
 10
8.148181566905446
 20
7.611504837054229
 30
0.0
 10
8.122388778463144
 20
7.603626619360746
 30
0.0
 10
8.096340101115885
 20
7.594105867594883
 30
0.0
 10
8.07010155067977
 20
7.582967396992236
 30
0.0
 10
8.043739159246774
 20
7.570240356552262
 30
0.0
 10
8.017318852686556
 20
7.555957931477723
 30
0.0
 10
7.990906292960134
 20
7.540157158647405
 30
0.0
 10
7.964566692383813
 20
7.522878692694326
 30
0.0
 10
7.938364651297925
 20
7.504166572565832
 30
0.0
 10
7.912364143092859
 20
7.484068101045794
 30
0.0
 10
7.886628527827111
 20
7.462633793064437
 30
0.0
 10
7.861220451357423
 20
7.439917264541774
 30
0.0
 10
7.836201733710093
 20
7.415975118834109
 30
0.0
 10
7.811633248521442
 20
7.390866827618126
 30
0.0
 10
7.787574795758993
 20
7.364654604341509
 30
0.0
 10
7.76408496994467
 20
7.337403269264483
 30
0.0
 10
7.741221025932274
 20
7.3091801057652
 30
0.0
 10
7.719038744046482
 20
7.280054708014432
 30
0.0
 10
7.697592296133723
 20
7.250098820406589
 30
0.0
 10
7.676934113838145
 20
7.219386169311011
 30
0.0
 10
7.657114760210143
 20
7.187992287813029
 30
0.0
 10
7.638182805589219
 20
7.155994334186888
 30
0.0
 10
7.620184727609717
 20
7.123470939294484
 30
0.0
 10
7.603164784863017
 20
7.090502003206411
 30
0.0
 10
7.587164895762556
 20
7.057168478652919
 30
0.0
 10
7.572224523625899
 20
7.023552134613702
 30
0.0
 10
7.558380595296613
 20
6.989735367981317
 30
0.0
 10
7.545667427062457
 20
6.955801022192229
 30
0.0
 10
7.534116648044953
 20
6.921832185088815
 30
0.0
 10
7.523757131987314
 20
6.887911987827989
 30
0.0
 10
7.514614937592463
 20
6.854123406154456
 30
0.0
 10
7.506713257386435
 20
6.820549065515113
 30
0.0
 10
7.500072374832971
 20
6.787271051679513
 30
0.0
 10
7.494709629069164
 20
6.754370728731518
 30
0.0
 10
7.490639386118609
 20
6.721928566465293
 30
0.0
 10
7.48787301477021
 20
6.690023979360235
 30
0.0
 10
7.486418864272042
 20
6.658735179107435
 30
0.0
 10
7.486282240209722
 20
6.628139042804772
 30
0.0
 10
7.48746537201941
 20
6.598310996082973
 30
0.0
 10
7.489967354091755
 20
6.569325097148451
 30
0.0
 10
7.493784027591695
 20
6.541253860406317
 30
0.0
 10
7.498907894051701
 20
6.514168147053214
 30
0.0
 10
7.505327865223147
 20
6.488136703470089
 30
0.0
 10
7.513029631212904
 20
6.463226773312776
 30
0.0
 10
7.521993463651964
 20
6.43950130108701
 30
0.0
 10
7.532201463105704
 20
6.417028389709516
 30
0.0
 10
7.543609722985961
 20
6.395844404175174
 30
0.0
 10
7.556251578567115
 20
6.376089285147534
 30
0.0
 10
7.56796530414819
 20
6.360080023182554
 30
0.0
 10
7.575904454141432
 20
6.351261455638236
 30
0.0
 10
7.578825641391967
 20
6.348016689246321
 30
0.0
  0
POLYLINE
  5
305
330
1F
100
AcDbEntity
  8
0
  6
CONTINUOUS
 62
     7
100
AcDb2dPolyline
 66
     1
 10
0.0
 20
0.0
 30
0.0
  0
VERTEX
  5
35C
330
305
100
AcDbEntity
  8
0
  6
CONTINUOUS
 62
     7
100
AcDbVertex
100
AcDb2dVertex
 10
8.4182281742
 20
6.0937195605
 30
0.0
  0
VERTEX
  5
35D
330
305
100
AcDbEntity
  8
0
  6
CONTINUOUS
 62
     7
100
AcDbVertex
100
AcDb2dVertex
 10
8.4204522144
 20
6.0636381561
 30
0.0
  0
VERTEX
  5
35E
330
305
100
AcDbEntity
  8
0
  6
CONTINUOUS
 62
     7
100
AcDbVertex
100
AcDb2dVertex
 10
8.4241304536
 20
6.0345792292
 30
0.0
  0
VERTEX
  5
35F
330
305
100
AcDbEntity
  8
0
  6
CONTINUOUS
 62
     7
100
AcDbVertex
100
AcDb2dVertex
 10
8.4292522944
 20
6.0066265013
 30
0.0
  0
VERTEX
  5
360
330
305
100
AcDbEntity
  8
0
  6
CONTINUOUS
 62
     7
100
AcDbVertex
100
AcDb2dVertex
 10
8.4358029801
 20
5.9798605073
 30
0.0
  0
VERTEX
  5
361
330
305
100
AcDbEntity
  8
0
  6
CONTINUOUS
 62
     7
100
AcDbVertex
100
AcDb2dVertex
 10
8.4437636377
 20
5.9543583626
 30
0.0
  0
VERTEX
  5
362
330
305
100
AcDbEntity
  8
0
  6
CONTINUOUS
 62
     7
100
AcDbVertex
100
AcDb2dVertex
 10
8.4531113317
 20
5.9301935415
 30
0.0
  0
VERTEX
  5
363
330
305
100
AcDbEntity
  8
0
  6
CONTINUOUS
 62
     7
100
AcDbVertex
100
AcDb2dVertex
 10
8.4638191303
 20
5.9074356653
 30
0.0
  0
VERTEX
  5
364
330
305
100
AcDbEntity
  8
0
  6
CONTINUOUS
 62
     7
100
AcDbVertex
100
AcDb2dVertex
 10
8.4758561835
 20
5.8861503018
 30
0.0
  0
VERTEX
  5
365
330
305
100
AcDbEntity
  8
0
  6
CONTINUOUS
 62
     7
100
AcDbVertex
100
AcDb2dVertex
 10
8.489187811
 20
5.8663987762
 30
0.0
  0
VERTEX
  5
366
330
305
100
AcDbEntity
  8
0
  6
CONTINUOUS
 62
     7
100
AcDbVertex
100
AcDb2dVertex
 10
8.5037756033
 20
5.8482379948
 30
0.0
  0
VERTEX
  5
367
330
305
100
AcDbEntity
  8
0
  6
CONTINUOUS
 62
     7
100
AcDbVertex
100
AcDb2dVertex
 10
8.5195775314
 20
5.8317202806
 30
0.0
  0
VERTEX
  5
368
330
305
100
AcDbEntity
  8
0
  6
CONTINUOUS
 62
     7
100
AcDbVertex
100
AcDb2dVertex
 10
8.5365480683
 20
5.8168932227
 30
0.0
  0
VERTEX
  5
369
330
305
100
AcDbEntity
  8
0
  6
CONTINUOUS
 62
     7
100
AcDbVertex
100
AcDb2dVertex
 10
8.5546383202
 20
5.8037995396
 30
0.0
  0
VERTEX
  5
36A
330
305
100
AcDbEntity
  8
0
  6
CONTINUOUS
 62
     7
100
AcDbVertex
100
AcDb2dVertex
 10
8.5737961673
 20
5.7924769553
 30
0.0
  0
VERTEX
  5
36B
330
305
100
AcDbEntity
  8
0
  6
CONTINUOUS
 62
     7
100
AcDbVertex
100
AcDb2dVertex
 10
8.5939664137
 20
5.7829580914
 30
0.0
  0
VERTEX
  5
36C
330
305
100
AcDbEntity
  8
0
  6
CONTINUOUS
 62
     7
100
AcDbVertex
100
AcDb2dVertex
 10
8.6150909471
 20
5.7752703727
 30
0.0
  0
VERTEX
  5
36D
330
305
100
AcDbEntity
  8
0
  6
CONTINUOUS
 62
     7
100
AcDbVertex
100
AcDb2dVertex
 10
8.6371089054
 20
5.7694359483
 30
0.0
  0
VERTEX
  5
36E
330
305
100
AcDbEntity
  8
0
  6
CONTINUOUS
 62
     7
100
AcDbVertex
100
AcDb2dVertex
 10
8.6599568527
 20
5.7654716278
 30
0.0
  0
VERTEX
  5
36F
330
305
100
AcDbEntity
  8
0
  6
CONTINUOUS
 62
     7
100
AcDbVertex
100
AcDb2dVertex
 10
8.6835689618
 20
5.7633888329
 30
0.0
  0
VERTEX
  5
370
330
305
100
AcDbEntity
  8
0
  6
CONTINUOUS
 62
     7
100
AcDbVertex
100
AcDb2dVertex
 10
8.7078772037
 20
5.7631935641
 30
0.0
  0
VERTEX
  5
371
330
305
100
AcDbEntity
  8
0
  6
CONTINUOUS
 62
     7
100
AcDbVertex
100
AcDb2dVertex
 10
8.7328115439
 20
5.7648863842
 30
0.0
  0
VERTEX
  5
372
330
305
100
AcDbEntity
  8
0
  6
CONTINUOUS
 62
     7
100
AcDbVertex
100
AcDb2dVertex
 10
8.7583001441
 20
5.768462416
 30
0.0
  0
VERTEX
  5
373
330
305
100
AcDbEntity
  8
0
  6
CONTINUOUS
 62
     7
100
AcDbVertex
100
AcDb2dVertex
 10
8.7842695689
 20
5.7739113564
 30
0.0
  0
VERTEX
  5
374
330
305
100
AcDbEntity
  8
0
  6
CONTINUOUS
 62
     7
100
AcDbVertex
100
AcDb2dVertex
 10
8.810644998
 20
5.7812175067
 30
0.0
  0
VERTEX
  5
375
330
305
100
AcDbEntity
  8
0
  6
CONTINUOUS
 62
     7
100
AcDbVertex
100
AcDb2dVertex
 10
8.8373504409
 20
5.790359817
 30
0.0
  0
VERTEX
  5
376
330
305
100
AcDbEntity
  8
0
  6
CONTINUOUS
 62
     7
100
AcDbVertex
100
AcDb2dVertex
 10
8.8643089566
 20
5.8013119473
 30
0.0
  0
VERTEX
  5
377
330
305
100
AcDbEntity
  8
0
  6
CONTINUOUS
 62
     7
100
AcDbVertex
100
AcDb2dVertex
 10
8.8914428748
 20
5.8140423436
 30
0.0
  0
VERTEX
  5
378
330
305
100
AcDbEntity
  8
0
  6
CONTINUOUS
 62
     7
100
AcDbVertex
100
AcDb2dVertex
 10
8.91867402
 20
5.8285143282
 30
0.0
  0
VERTEX
  5
379
330
305
100
AcDbEntity
  8
0
  6
CONTINUOUS
 62
     7
100
AcDbVertex
100
AcDb2dVertex
 10
8.9459239365
 20
5.8446862058
 30
0.0
  0
VERTEX
  5
37A
330
305
100
AcDbEntity
  8
0
  6
CONTINUOUS
 62
     7
100
AcDbVertex
100
AcDb2dVertex
 10
8.9731141144
 20
5.8625113837
 30
0.0
  0
VERTEX
  5
37B
330
305
100
AcDbEntity
  8
0
  6
CONTINUOUS
 62
     7
100
AcDbVertex
100
AcDb2dVertex
 10
9.0001662162
 20
5.8819385057
 30
0.0
  0
VERTEX
  5
37C
330
305
100
AcDbEntity
  8
0
  6
CONTINUOUS
 62
     7
100
AcDbVertex
100
AcDb2dVertex
 10
9.0270023019
 20
5.9029116003
 30
0.0
  0
VERTEX
  5
37D
330
305
100
AcDbEntity
  8
0
  6
CONTINUOUS
 62
     7
100
AcDbVertex
100
AcDb2dVertex
 10
9.0535450542
 20
5.9253702419
 30
0.0
  0
VERTEX
  5
37E
330
305
100
AcDbEntity
  8
0
  6
CONTINUOUS
 62
     7
100
AcDbVertex
100
AcDb2dVertex
 10
9.0797180005
 20
5.9492497247
 30
0.0
  0
VERTEX
  5
37F
330
305
100
AcDbEntity
  8
0
  6
CONTINUOUS
 62
     7
100
AcDbVertex
100
AcDb2dVertex
 10
9.105445734
 20
5.9744812497
 30
0.0
  0
VERTEX
  5
380
330
305
100
AcDbEntity
  8
0
  6
CONTINUOUS
 62
     7
100
AcDbVertex
100
AcDb2dVertex
 10
9.1306541305
 20
6.0009921222
 30
0.0
  0
VERTEX
  5
381
330
305
100
AcDbEntity
  8
0
  6
CONTINUOUS
 62
     7
100
AcDbVertex
100
AcDb2dVertex
 10
9.155270562
 20
6.0287059618
 30
0.0
  0
VERTEX
  5
382
330
305
100
AcDbEntity
  8
0
  6
CONTINUOUS
 62
     7
100
AcDbVertex
100
AcDb2dVertex
 10
9.1792241061
 20
6.0575429219
 30
0.0
  0
VERTEX
  5
383
330
305
100
AcDbEntity
  8
0
  6
CONTINUOUS
 62
     7
100
AcDbVertex
100
AcDb2dVertex
 10
9.2024457501
 20
6.0874199205
 30
0.0
  0
VERTEX
  5
384
330
305
100
AcDbEntity
  8
0
  6
CONTINUOUS
 62
     7
100
AcDbVertex
100
AcDb2dVertex
 10
9.2248685903
 20
6.1182508787
 30
0.0
  0
VERTEX
  5
385
330
305
100
AcDbEntity
  8
0
  6
CONTINUOUS
 62
     7
100
AcDbVertex
100
AcDb2dVertex
 10
9.246428024
 20
6.1499469696
 30
0.0
  0
VERTEX
  5
386
330
305
100
AcDbEntity
  8
0
  6
CONTINUOUS
 62
     7
100
AcDbVertex
100
AcDb2dVertex
 10
9.2670619363
 20
6.1824168735
 30
0.0
  0
VERTEX
  5
387
330
305
100
AcDbEntity
  8
0
  6
CONTINUOUS
 62
     7
100
AcDbVertex
100
AcDb2dVertex
 10
9.286710879
 20
6.2155670412
 30
0.0
  0
VERTEX
  5
388
330
305
100
AcDbEntity
  8
0
  6
CONTINUOUS
 62
     7
100
AcDbVertex
100
AcDb2dVertex
 10
9.3053182413
 20
6.2493019637
 30
0.0
  0
VERTEX
  5
389
330
305
100
AcDbEntity
  8
0
  6
CONTINUOUS
 62
     7
100
AcDbVertex
100
AcDb2dVertex
 10
9.3228304135
 20
6.2835244474
 30
0.0
  0
VERTEX
  5
38A
330
305
100
AcDbEntity
  8
0
  6
CONTINUOUS
 62
     7
100
AcDbVertex
100
AcDb2dVertex
 10
9.3391969414
 20
6.3181358937
 30
0.0
  0
VERTEX
  5
38B
330
305
100
AcDbEntity
  8
0
  6
CONTINUOUS
 62
     7
100
AcDbVertex
100
AcDb2dVertex
 10
9.3543706712
 20
6.3530365836
 30
0.0
  0
VERTEX
  5
38C
330
305
100
AcDbEntity
  8
0
  6
CONTINUOUS
 62
     7
100
AcDbVertex
100
AcDb2dVertex
 10
9.368307886
 20
6.3881259646
 30
0.0
  0
VERTEX
  5
38D
330
305
100
AcDbEntity
  8
0
  6
CONTINUOUS
 62
     7
100
AcDbVertex
100
AcDb2dVertex
 10
9.3809684312
 20
6.4233029406
 30
0.0
  0
VERTEX
  5
38E
330
305
100
AcDbEntity
  8
0
  6
CONTINUOUS
 62
     7
100
AcDbVertex
100
AcDb2dVertex
 10
9.3923158304
 20
6.4584661632
 30
0.0
  0
VERTEX
  5
38F
330
305
100
AcDbEntity
  8
0
  6
CONTINUOUS
 62
     7
100
AcDbVertex
100
AcDb2dVertex
 10
9.4023173907
 20
6.4935143237
 30
0.0
  0
VERTEX
  5
390
330
305
100
AcDbEntity
  8
0
  6
CONTINUOUS
 62
     7
100
AcDbVertex
100
AcDb2dVertex
 10
9.4109442965
 20
6.5283464446
 30
0.0
  0
VERTEX
  5
391
330
305
100
AcDbEntity
  8
0
  6
CONTINUOUS
 62
     7
100
AcDbVertex
100
AcDb2dVertex
 10
9.4181716929
 20
6.5628621711
 30
0.0
  0
VERTEX
  5
392
330
305
100
AcDbEntity
  8
0
  6
CONTINUOUS
 62
     7
100
AcDbVertex
100
AcDb2dVertex
 10
9.4239787569
 20
6.5969620598
 30
0.0
  0
VERTEX
  5
393
330
305
100
AcDbEntity
  8
0
  6
CONTINUOUS
 62
     7
100
AcDbVertex
100
AcDb2dVertex
 10
9.428348758
 20
6.6305478656
 30
0.0
  0
VERTEX
  5
394
330
305
100
AcDbEntity
  8
0
  6
CONTINUOUS
 62
     7
100
AcDbVertex
100
AcDb2dVertex
 10
9.4312691055
 20
6.6635228243
 30
0.0
  0
VERTEX
  5
395
330
305
100
AcDbEntity
  8
0
  6
CONTINUOUS
 62
     7
100
AcDbVertex
100
AcDb2dVertex
 10
9.4327313858
 20
6.6957919317
 30
0.0
  0
VERTEX
  5
396
330
305
100
AcDbEntity
  8
0
  6
CONTINUOUS
 62
     7
100
AcDbVertex
100
AcDb2dVertex
 10
9.4327313858
 20
6.7272622172
 30
0.0
  0
VERTEX
  5
397
330
305
100
AcDbEntity
  8
0
  6
CONTINUOUS
 62
     7
100
AcDbVertex
100
AcDb2dVertex
 10
9.4312691055
 20
6.7578430118
 30
0.0
  0
VERTEX
  5
398
330
305
100
AcDbEntity
  8
0
  6
CONTINUOUS
 62
     7
100
AcDbVertex
100
AcDb2dVertex
 10
9.428348758
 20
6.787446209
 30
0.0
  0
VERTEX
  5
399
330
305
100
AcDbEntity
  8
0
  6
CONTINUOUS
 62
     7
100
AcDbVertex
100
AcDb2dVertex
 10
9.4239787569
 20
6.815986519
 30
0.0
  0
VERTEX
  5
39A
330
305
100
AcDbEntity
  8
0
  6
CONTINUOUS
 62
     7
100
AcDbVertex
100
AcDb2dVertex
 10
9.4181716929
 20
6.8433817143
 30
0.0
  0
VERTEX
  5
39B
330
305
100
AcDbEntity
  8
0
  6
CONTINUOUS
 62
     7
100
AcDbVertex
100
AcDb2dVertex
 10
9.4109442965
 20
6.8695528665
 30
0.0
  0
VERTEX
  5
39C
330
305
100
AcDbEntity
  8
0
  6
CONTINUOUS
 62
     7
100
AcDbVertex
100
AcDb2dVertex
 10
9.4023173907
 20
6.894424574
 30
0.0
  0
VERTEX
  5
39D
330
305
100
AcDbEntity
  8
0
  6
CONTINUOUS
 62
     7
100
AcDbVertex
100
AcDb2dVertex
 10
9.3923158304
 20
6.9179251787
 30
0.0
  0
VERTEX
  5
39E
330
305
100
AcDbEntity
  8
0
  6
CONTINUOUS
 62
     7
100
AcDbVertex
100
AcDb2dVertex
 10
9.3809684312
 20
6.9399869731
 30
0.0
  0
VERTEX
  5
39F
330
305
100
AcDbEntity
  8
0
  6
CONTINUOUS
 62
     7
100
AcDbVertex
100
AcDb2dVertex
 10
9.368307886
 20
6.9605463948
 30
0.0
  0
VERTEX
  5
3A0
330
305
100
AcDbEntity
  8
0
  6
CONTINUOUS
 62
     7
100
AcDbVertex
100
AcDb2dVertex
 10
9.3543706712
 20
6.9795442102
 30
0.0
  0
VERTEX
  5
3A1
330
305
100
AcDbEntity
  8
0
  6
CONTINUOUS
 62
     7
100
AcDbVertex
100
AcDb2dVertex
 10
9.3391969414
 20
6.9969256845
 30
0.0
  0
VERTEX
  5
3A2
330
305
100
AcDbEntity
  8
0
  6
CONTINUOUS
 62
     7
100
AcDbVertex
100
AcDb2dVertex
 10
9.3228304135
 20
7.01264074
 30
0.0
  0
VERTEX
  5
3A3
330
305
100
AcDbEntity
  8
0
  6
CONTINUOUS
 62
     7
100
AcDbVertex
100
AcDb2dVertex
 10
9.3053182413
 20
7.0266440999
 30
0.0
  0
VERTEX
  5
3A4
330
305
100
AcDbEntity
  8
0
  6
CONTINUOUS
 62
     7
100
AcDbVertex
100
AcDb2dVertex
 10
9.286710879
 20
7.0388954192
 30
0.0
  0
VERTEX
  5
3A5
330
305
100
AcDbEntity
  8
0
  6
CONTINUOUS
 62
     7
100
AcDbVertex
100
AcDb2dVertex
 10
9.2670619363
 20
7.0493594007
 30
0.0
  0
VERTEX
  5
3A6
330
305
100
AcDbEntity
  8
0
  6
CONTINUOUS
 62
     7
100
AcDbVertex
100
AcDb2dVertex
 10
9.246428024
 20
7.0580058964
 30
0.0
  0
VERTEX
  5
3A7
330
305
100
AcDbEntity
  8
0
  6
CONTINUOUS
 62
     7
100
AcDbVertex
100
AcDb2dVertex
 10
9.2248685903
 20
7.0648099949
 30
0.0
  0
VERTEX
  5
3A8
330
305
100
AcDbEntity
  8
0
  6
CONTINUOUS
 62
     7
100
AcDbVertex
100
AcDb2dVertex
 10
9.2024457501
 20
7.0697520931
 30
0.0
  0
VERTEX
  5
3A9
330
305
100
AcDbEntity
  8
0
  6
CONTINUOUS
 62
     7
100
AcDbVertex
100
AcDb2dVertex
 10
9.1792241061
 20
7.0728179521
 30
0.0
  0
VERTEX
  5
3AA
330
305
100
AcDbEntity
  8
0
  6
CONTINUOUS
 62
     7
100
AcDbVertex
100
AcDb2dVertex
 10
9.155270562
 20
7.0739987389
 30
0.0
  0
VERTEX
  5
3AB
330
305
100
AcDbEntity
  8
0
  6
CONTINUOUS
 62
     7
100
AcDbVertex
100
AcDb2dVertex
 10
9.1306541305
 20
7.0732910516
 30
0.0
  0
VERTEX
  5
3AC
330
305
100
AcDbEntity
  8
0
  6
CONTINUOUS
 62
     7
100
AcDbVertex
100
AcDb2dVertex
 10
9.105445734
 20
7.070696929
 30
0.0
  0
VERTEX
  5
3AD
330
305
100
AcDbEntity
  8
0
  6
CONTINUOUS
 62
     7
100
AcDbVertex
100
AcDb2dVertex
 10
9.0797180005
 20
7.0662238452
 30
0.0
  0
VERTEX
  5
3AE
330
305
100
AcDbEntity
  8
0
  6
CONTINUOUS
 62
     7
100
AcDbVertex
100
AcDb2dVertex
 10
9.0535450542
 20
7.0598846875
 30
0.0
  0
VERTEX
  5
3AF
330
305
100
AcDbEntity
  8
0
  6
CONTINUOUS
 62
     7
100
AcDbVertex
100
AcDb2dVertex
 10
9.0270023019
 20
7.0516977196
 30
0.0
  0
VERTEX
  5
3B0
330
305
100
AcDbEntity
  8
0
  6
CONTINUOUS
 62
     7
100
AcDbVertex
100
AcDb2dVertex
 10
9.0001662162
 20
7.0416865291
 30
0.0
  0
VERTEX
  5
3B1
330
305
100
AcDbEntity
  8
0
  6
CONTINUOUS
 62
     7
100
AcDbVertex
100
AcDb2dVertex
 10
8.9731141144
 20
7.0298799592
 30
0.0
  0
VERTEX
  5
3B2
330
305
100
AcDbEntity
  8
0
  6
CONTINUOUS
 62
     7
100
AcDbVertex
100
AcDb2dVertex
 10
8.9459239365
 20
7.0163120259
 30
0.0
  0
VERTEX
  5
3B3
330
305
100
AcDbEntity
  8
0
  6
CONTINUOUS
 62
     7
100
AcDbVertex
100
AcDb2dVertex
 10
8.91867402
 20
7.0010218197
 30
0.0
  0
VERTEX
  5
3B4
330
305
100
AcDbEntity
  8
0
  6
CONTINUOUS
 62
     7
100
AcDbVertex
100
AcDb2dVertex
 10
8.8914428748
 20
6.9840533932
 30
0.0
  0
VERTEX
  5
3B5
330
305
100
AcDbEntity
  8
0
  6
CONTINUOUS
 62
     7
100
AcDbVertex
100
AcDb2dVertex
 10
8.8643089566
 20
6.9654556344
 30
0.0
  0
VERTEX
  5
3B6
330
305
100
AcDbEntity
  8
0
  6
CONTINUOUS
 62
     7
100
AcDbVertex
100
AcDb2dVertex
 10
8.8373504409
 20
6.945282125
 30
0.0
  0
VERTEX
  5
3B7
330
305
100
AcDbEntity
  8
0
  6
CONTINUOUS
 62
     7
100
AcDbVertex
100
AcDb2dVertex
 10
8.810644998
 20
6.9235909872
 30
0.0
  0
VERTEX
  5
3B8
330
305
100
AcDbEntity
  8
0
  6
CONTINUOUS
 62
     7
100
AcDbVertex
100
AcDb2dVertex
 10
8.7842695689
 20
6.9004447153
 30
0.0
  0
VERTEX
  5
3B9
330
305
100
AcDbEntity
  8
0
  6
CONTINUOUS
 62
     7
100
AcDbVertex
100
AcDb2dVertex
 10
8.7583001441
 20
6.875909996
 30
0.0
  0
VERTEX
  5
3BA
330
305
100
AcDbEntity
  8
0
  6
CONTINUOUS
 62
     7
100
AcDbVertex
100
AcDb2dVertex
 10
8.7328115439
 20
6.8500575164
 30
0.0
  0
VERTEX
  5
3BB
330
305
100
AcDbEntity
  8
0
  6
CONTINUOUS
 62
     7
100
AcDbVertex
100
AcDb2dVertex
 10
8.7078772037
 20
6.8229617601
 30
0.0
  0
VERTEX
  5
3BC
330
305
100
AcDbEntity
  8
0
  6
CONTINUOUS
 62
     7
100
AcDbVertex
100
AcDb2dVertex
 10
8.6835689618
 20
6.7947007926
 30
0.0
  0
VERTEX
  5
3BD
330
305
100
AcDbEntity
  8
0
  6
CONTINUOUS
 62
     7
100
AcDbVertex
100
AcDb2dVertex
 10
8.6599568527
 20
6.7653560368
 30
0.0
  0
VERTEX
  5
3BE
330
305
100
AcDbEntity
  8
0
  6
CONTINUOUS
 62
     7
100
AcDbVertex
100
AcDb2dVertex
 10
8.6371089054
 20
6.7350120379
 30
0.0
  0
VERTEX
  5
3BF
330
305
100
AcDbEntity
  8
0
  6
CONTINUOUS
 62
     7
100
AcDbVertex
100
AcDb2dVertex
 10
8.6150909471
 20
6.70375622
 30
0.0
  0
VERTEX
  5
3C0
330
305
100
AcDbEntity
  8
0
  6
CONTINUOUS
 62
     7
100
AcDbVertex
100
AcDb2dVertex
 10
8.5939664137
 20
6.6716786342
 30
0.0
  0
VERTEX
  5
3C1
330
305
100
AcDbEntity
  8
0
  6
CONTINUOUS
 62
     7
100
AcDbVertex
100
AcDb2dVertex
 10
8.5737961673
 20
6.6388716995
 30
0.0
  0
VERTEX
  5
3C2
330
305
100
AcDbEntity
  8
0
  6
CONTINUOUS
 62
     7
100
AcDbVertex
100
AcDb2dVertex
 10
8.5546383202
 20
6.6054299358
 30
0.0
  0
VERTEX
  5
3C3
330
305
100
AcDbEntity
  8
0
  6
CONTINUOUS
 62
     7
100
AcDbVertex
100
AcDb2dVertex
 10
8.5365480683
 20
6.5714496924
 30
0.0
  0
VERTEX
  5
3C4
330
305
100
AcDbEntity
  8
0
  6
CONTINUOUS
 62
     7
100
AcDbVertex
100
AcDb2dVertex
 10
8.5195775314
 20
6.5370288697
 30
0.0
  0
VERTEX
  5
3C5
330
305
100
AcDbEntity
  8
0
  6
CONTINUOUS
 62
     7
100
AcDbVertex
100
AcDb2dVertex
 10
8.5037756033
 20
6.5022666376
 30
0.0
  0
VERTEX
  5
3C6
330
305
100
AcDbEntity
  8
0
  6
CONTINUOUS
 62
     7
100
AcDbVertex
100
AcDb2dVertex
 10
8.489187811
 20
6.4672631497
 30
0.0
  0
VERTEX
  5
3C7
330
305
100
AcDbEntity
  8
0
  6
CONTINUOUS
 62
     7
100
AcDbVertex
100
AcDb2dVertex
 10
8.4758561835
 20
6.4321192546
 30
0.0
  0
VERTEX
  5
3C8
330
305
100
AcDbEntity
  8
0
  6
CONTINUOUS
 62
     7
100
AcDbVertex
100
AcDb2dVertex
 10
8.4638191303
 20
6.3969362054
 30
0.0
  0
VERTEX
  5
3C9
330
305
100
AcDbEntity
  8
0
  6
CONTINUOUS
 62
     7
100
AcDbVertex
100
AcDb2dVertex
 10
8.4531113317
 20
6.361815368
 30
0.0
  0
VERTEX
  5
3CA
330
305
100
AcDbEntity
  8
0
  6
CONTINUOUS
 62
     7
100
AcDbVertex
100
AcDb2dVertex
 10
8.4437636377
 20
6.3268579292
 30
0.0
  0
VERTEX
  5
3CB
330
305
100
AcDbEntity
  8
0
  6
CONTINUOUS
 62
     7
100
AcDbVertex
100
AcDb2dVertex
 10
8.4358029801
 20
6.2921646049
 30
0.0
  0
VERTEX
  5
3CC
330
305
100
AcDbEntity
  8
0
  6
CONTINUOUS
 62
     7
100
AcDbVertex
100
AcDb2dVertex
 10
8.4292522944
 20
6.25783535
 30
0.0
  0
VERTEX
  5
3CD
330
305
100
AcDbEntity
  8
0
  6
CONTINUOUS
 62
     7
100
AcDbVertex
100
AcDb2dVertex
 10
8.4241304536
 20
6.2239690708
 30
0.0
  0
VERTEX
  5
3CE
330
305
100
AcDbEntity
  8
0
  6
CONTINUOUS
 62
     7
100
AcDbVertex
100
AcDb2dVertex
 10
8.4204522144
 20
6.1906633392
 30
0.0
  0
VERTEX
  5
3CF
330
305
100
AcDbEntity
  8
0
  6
CONTINUOUS
 62
     7
100
AcDbVertex
100
AcDb2dVertex
 10
8.4182281742
 20
6.1580141126
 30
0.0
  0
SEQEND
  5
3D0
330
305
100
AcDbEntity
  8
0
  6
CONTINUOUS
 62
     7
  0
LINE
  5
306
330
1F
100
AcDbEntity
  8
0
  6
CONTINUOUS
 62
     7
100
AcDbLine
 10
8.3757710921
 20
6.1579964042
 30
0.0
 11
8.4182281742
 21
6.1580141126
 31
0.0
  0
POLYLINE
  5
307
330
1F
100
AcDbEntity
  8
0
  6
CONTINUOUS
 62
     7
100
AcDb2dPolyline
 66
     1
 10
0.0
 20
0.0
 30
0.0
  0
VERTEX
  5
3D1
330
307
100
AcDbEntity
  8
0
  6
CONTINUOUS
 62
     7
100
AcDbVertex
100
AcDb2dVertex
 10
8.3757710921
 20
6.1579964042
 30
0.0
  0
VERTEX
  5
3D2
330
307
100
AcDbEntity
  8
0
  6
CONTINUOUS
 62
     7
100
AcDbVertex
100
AcDb2dVertex
 10
8.3779516734
 20
6.1911305268
 30
0.0
  0
VERTEX
  5
3D3
330
307
100
AcDbEntity
  8
0
  6
CONTINUOUS
 62
     7
100
AcDbVertex
100
AcDb2dVertex
 10
8.3815737749
 20
6.2249213735
 30
0.0
  0
VERTEX
  5
3D4
330
307
100
AcDbEntity
  8
0
  6
CONTINUOUS
 62
     7
100
AcDbVertex
100
AcDb2dVertex
 10
8.3866274706
 20
6.2592763436
 30
0.0
  0
VERTEX
  5
3D5
330
307
100
AcDbEntity
  8
0
  6
CONTINUOUS
 62
     7
100
AcDbVertex
100
AcDb2dVertex
 10
8.3930989113
 20
6.2941012907
 30
0.0
  0
VERTEX
  5
3D6
330
307
100
AcDbEntity
  8
0
  6
CONTINUOUS
 62
     7
100
AcDbVertex
100
AcDb2dVertex
 10
8.4009703626
 20
6.3293007803
 30
0.0
  0
VERTEX
  5
3D7
330
307
100
AcDbEntity
  8
0
  6
CONTINUOUS
 62
     7
100
AcDbVertex
100
AcDb2dVertex
 10
8.4102202536
 20
6.3647783514
 30
0.0
  0
VERTEX
  5
3D8
330
307
100
AcDbEntity
  8
0
  6
CONTINUOUS
 62
     7
100
AcDbVertex
100
AcDb2dVertex
 10
8.4208232358
 20
6.4004367813
 30
0.0
  0
VERTEX
  5
3D9
330
307
100
AcDbEntity
  8
0
  6
CONTINUOUS
 62
     7
100
AcDbVertex
100
AcDb2dVertex
 10
8.4327502528
 20
6.4361783512
 30
0.0
  0
VERTEX
  5
3DA
330
307
100
AcDbEntity
  8
0
  6
CONTINUOUS
 62
     7
100
AcDbVertex
100
AcDb2dVertex
 10
8.4459686197
 20
6.4719051149
 30
0.0
  0
VERTEX
  5
3DB
330
307
100
AcDbEntity
  8
0
  6
CONTINUOUS
 62
     7
100
AcDbVertex
100
AcDb2dVertex
 10
8.4604421127
 20
6.5075191665
 30
0.0
  0
VERTEX
  5
3DC
330
307
100
AcDbEntity
  8
0
  6
CONTINUOUS
 62
     7
100
AcDbVertex
100
AcDb2dVertex
 10
8.4761310688
 20
6.5429229091
 30
0.0
  0
VERTEX
  5
3DD
330
307
100
AcDbEntity
  8
0
  6
CONTINUOUS
 62
     7
100
AcDbVertex
100
AcDb2dVertex
 10
8.4929924937
 20
6.5780193221
 30
0.0
  0
VERTEX
  5
3DE
330
307
100
AcDbEntity
  8
0
  6
CONTINUOUS
 62
     7
100
AcDbVertex
100
AcDb2dVertex
 10
8.5109801804
 20
6.612712227
 30
0.0
  0
VERTEX
  5
3DF
330
307
100
AcDbEntity
  8
0
  6
CONTINUOUS
 62
     7
100
AcDbVertex
100
AcDb2dVertex
 10
8.5300448353
 20
6.6469065513
 30
0.0
  0
VERTEX
  5
3E0
330
307
100
AcDbEntity
  8
0
  6
CONTINUOUS
 62
     7
100
AcDbVertex
100
AcDb2dVertex
 10
8.5501342134
 20
6.6805085887
 30
0.0
  0
VERTEX
  5
3E1
330
307
100
AcDbEntity
  8
0
  6
CONTINUOUS
 62
     7
100
AcDbVertex
100
AcDb2dVertex
 10
8.5711932618
 20
6.7134262559
 30
0.0
  0
VERTEX
  5
3E2
330
307
100
AcDbEntity
  8
0
  6
CONTINUOUS
 62
     7
100
AcDbVertex
100
AcDb2dVertex
 10
8.5931642702
 20
6.7455693452
 30
0.0
  0
VERTEX
  5
3E3
330
307
100
AcDbEntity
  8
0
  6
CONTINUOUS
 62
     7
100
AcDbVertex
100
AcDb2dVertex
 10
8.615987029
 20
6.7768497716
 30
0.0
  0
VERTEX
  5
3E4
330
307
100
AcDbEntity
  8
0
  6
CONTINUOUS
 62
     7
100
AcDbVertex
100
AcDb2dVertex
 10
8.6395989947
 20
6.8071818138
 30
0.0
  0
VERTEX
  5
3E5
330
307
100
AcDbEntity
  8
0
  6
CONTINUOUS
 62
     7
100
AcDbVertex
100
AcDb2dVertex
 10
8.6639354609
 20
6.83648235
 30
0.0
  0
VERTEX
  5
3E6
330
307
100
AcDbEntity
  8
0
  6
CONTINUOUS
 62
     7
100
AcDbVertex
100
AcDb2dVertex
 10
8.6889297358
 20
6.8646710847
 30
0.0
  0
VERTEX
  5
3E7
330
307
100
AcDbEntity
  8
0
  6
CONTINUOUS
 62
     7
100
AcDbVertex
100
AcDb2dVertex
 10
8.7145133249
 20
6.8916707693
 30
0.0
  0
VERTEX
  5
3E8
330
307
100
AcDbEntity
  8
0
  6
CONTINUOUS
 62
     7
100
AcDbVertex
100
AcDb2dVertex
 10
8.740616119
 20
6.9174074138
 30
0.0
  0
VERTEX
  5
3E9
330
307
100
AcDbEntity
  8
0
  6
CONTINUOUS
 62
     7
100
AcDbVertex
100
AcDb2dVertex
 10
8.7671665856
 20
6.9418104894
 30
0.0
  0
VERTEX
  5
3EA
330
307
100
AcDbEntity
  8
0
  6
CONTINUOUS
 62
     7
100
AcDbVertex
100
AcDb2dVertex
 10
8.7940919659
 20
6.9648131217
 30
0.0
  0
VERTEX
  5
3EB
330
307
100
AcDbEntity
  8
0
  6
CONTINUOUS
 62
     7
100
AcDbVertex
100
AcDb2dVertex
 10
8.8213184733
 20
6.9863522742
 30
0.0
  0
VERTEX
  5
3EC
330
307
100
AcDbEntity
  8
0
  6
CONTINUOUS
 62
     7
100
AcDbVertex
100
AcDb2dVertex
 10
8.8487714962
 20
7.0063689208
 30
0.0
  0
VERTEX
  5
3ED
330
307
100
AcDbEntity
  8
0
  6
CONTINUOUS
 62
     7
100
AcDbVertex
100
AcDb2dVertex
 10
8.8763758021
 20
7.024808208
 30
0.0
  0
VERTEX
  5
3EE
330
307
100
AcDbEntity
  8
0
  6
CONTINUOUS
 62
     7
100
AcDbVertex
100
AcDb2dVertex
 10
8.9040557441
 20
7.0416196044
 30
0.0
  0
VERTEX
  5
3EF
330
307
100
AcDbEntity
  8
0
  6
CONTINUOUS
 62
     7
100
AcDbVertex
100
AcDb2dVertex
 10
8.931735468
 20
7.0567570402
 30
0.0
  0
VERTEX
  5
3F0
330
307
100
AcDbEntity
  8
0
  6
CONTINUOUS
 62
     7
100
AcDbVertex
100
AcDb2dVertex
 10
8.9593391199
 20
7.0701790326
 30
0.0
  0
VERTEX
  5
3F1
330
307
100
AcDbEntity
  8
0
  6
CONTINUOUS
 62
     7
100
AcDbVertex
100
AcDb2dVertex
 10
8.9867910549
 20
7.0818487998
 30
0.0
  0
VERTEX
  5
3F2
330
307
100
AcDbEntity
  8
0
  6
CONTINUOUS
 62
     7
100
AcDbVertex
100
AcDb2dVertex
 10
9.0140160433
 20
7.091734362
 30
0.0
  0
VERTEX
  5
3F3
330
307
100
AcDbEntity
  8
0
  6
CONTINUOUS
 62
     7
100
AcDbVertex
100
AcDb2dVertex
 10
9.0409394778
 20
7.0998086288
 30
0.0
  0
VERTEX
  5
3F4
330
307
100
AcDbEntity
  8
0
  6
CONTINUOUS
 62
     7
100
AcDbVertex
100
AcDb2dVertex
 10
9.0674875772
 20
7.1060494734
 30
0.0
  0
VERTEX
  5
3F5
330
307
100
AcDbEntity
  8
0
  6
CONTINUOUS
 62
     7
100
AcDbVertex
100
AcDb2dVertex
 10
9.093587589
 20
7.1104397933
 30
0.0
  0
VERTEX
  5
3F6
330
307
100
AcDbEntity
  8
0
  6
CONTINUOUS
 62
     7
100
AcDbVertex
100
AcDb2dVertex
 10
9.1191679884
 20
7.1129675573
 30
0.0
  0
VERTEX
  5
3F7
330
307
100
AcDbEntity
  8
0
  6
CONTINUOUS
 62
     7
100
AcDbVertex
100
AcDb2dVertex
 10
9.144158675
 20
7.1136258383
 30
0.0
  0
VERTEX
  5
3F8
330
307
100
AcDbEntity
  8
0
  6
CONTINUOUS
 62
     7
100
AcDbVertex
100
AcDb2dVertex
 10
9.168491164
 20
7.1124128323
 30
0.0
  0
VERTEX
  5
3F9
330
307
100
AcDbEntity
  8
0
  6
CONTINUOUS
 62
     7
100
AcDbVertex
100
AcDb2dVertex
 10
9.1920987746
 20
7.1093318635
 30
0.0
  0
VERTEX
  5
3FA
330
307
100
AcDbEntity
  8
0
  6
CONTINUOUS
 62
     7
100
AcDbVertex
100
AcDb2dVertex
 10
9.2149168124
 20
7.104391375
 30
0.0
  0
VERTEX
  5
3FB
330
307
100
AcDbEntity
  8
0
  6
CONTINUOUS
 62
     7
100
AcDbVertex
100
AcDb2dVertex
 10
9.2368827466
 20
7.0976049056
 30
0.0
  0
VERTEX
  5
3FC
330
307
100
AcDbEntity
  8
0
  6
CONTINUOUS
 62
     7
100
AcDbVertex
100
AcDb2dVertex
 10
9.2579363818
 20
7.0889910532
 30
0.0
  0
VERTEX
  5
3FD
330
307
100
AcDbEntity
  8
0
  6
CONTINUOUS
 62
     7
100
AcDbVertex
100
AcDb2dVertex
 10
9.2780200224
 20
7.078573423
 30
0.0
  0
VERTEX
  5
3FE
330
307
100
AcDbEntity
  8
0
  6
CONTINUOUS
 62
     7
100
AcDbVertex
100
AcDb2dVertex
 10
9.2970786311
 20
7.0663805637
 30
0.0
  0
VERTEX
  5
3FF
330
307
100
AcDbEntity
  8
0
  6
CONTINUOUS
 62
     7
100
AcDbVertex
100
AcDb2dVertex
 10
9.3150599796
 20
7.0524458887
 30
0.0
  0
VERTEX
  5
400
330
307
100
AcDbEntity
  8
0
  6
CONTINUOUS
 62
     7
100
AcDbVertex
100
AcDb2dVertex
 10
9.3319147917
 20
7.0368075845
 30
0.0
  0
VERTEX
  5
401
330
307
100
AcDbEntity
  8
0
  6
CONTINUOUS
 62
     7
100
AcDbVertex
100
AcDb2dVertex
 10
9.3475968784
 20
7.0195085065
 30
0.0
  0
VERTEX
  5
402
330
307
100
AcDbEntity
  8
0
  6
CONTINUOUS
 62
     7
100
AcDbVertex
100
AcDb2dVertex
 10
9.3620632645
 20
7.0005960612
 30
0.0
  0
VERTEX
  5
403
330
307
100
AcDbEntity
  8
0
  6
CONTINUOUS
 62
     7
100
AcDbVertex
100
AcDb2dVertex
 10
9.3752743061
 20
6.9801220763
 30
0.0
  0
VERTEX
  5
404
330
307
100
AcDbEntity
  8
0
  6
CONTINUOUS
 62
     7
100
AcDbVertex
100
AcDb2dVertex
 10
9.3871937997
 20
6.9581426589
 30
0.0
  0
VERTEX
  5
405
330
307
100
AcDbEntity
  8
0
  6
CONTINUOUS
 62
     7
100
AcDbVertex
100
AcDb2dVertex
 10
9.397789081
 20
6.9347180415
 30
0.0
  0
VERTEX
  5
406
330
307
100
AcDbEntity
  8
0
  6
CONTINUOUS
 62
     7
100
AcDbVertex
100
AcDb2dVertex
 10
9.4070311146
 20
6.9099124169
 30
0.0
  0
VERTEX
  5
407
330
307
100
AcDbEntity
  8
0
  6
CONTINUOUS
 62
     7
100
AcDbVertex
100
AcDb2dVertex
 10
9.4148945737
 20
6.8837937627
 30
0.0
  0
VERTEX
  5
408
330
307
100
AcDbEntity
  8
0
  6
CONTINUOUS
 62
     7
100
AcDbVertex
100
AcDb2dVertex
 10
9.4213579091
 20
6.8564336546
 30
0.0
  0
VERTEX
  5
409
330
307
100
AcDbEntity
  8
0
  6
CONTINUOUS
 62
     7
100
AcDbVertex
100
AcDb2dVertex
 10
9.4264034088
 20
6.8279070704
 30
0.0
  0
VERTEX
  5
40A
330
307
100
AcDbEntity
  8
0
  6
CONTINUOUS
 62
     7
100
AcDbVertex
100
AcDb2dVertex
 10
9.4300172459
 20
6.7982921844
 30
0.0
  0
VERTEX
  5
40B
330
307
100
AcDbEntity
  8
0
  6
CONTINUOUS
 62
     7
100
AcDbVertex
100
AcDb2dVertex
 10
9.4321895172
 20
6.7676701535
 30
0.0
  0
VERTEX
  5
40C
330
307
100
AcDbEntity
  8
0
  6
CONTINUOUS
 62
     7
100
AcDbVertex
100
AcDb2dVertex
 10
9.4329142696
 20
6.7361248944
 30
0.0
  0
SEQEND
  5
40D
330
307
100
AcDbEntity
  8
0
  6
CONTINUOUS
 62
     7
  0
POLYLINE
  5
308
330
1F
100
AcDbEntity
  8
0
  6
CONTINUOUS
 62
     7
100
AcDb2dPolyline
 66
     1
 10
0.0
 20
0.0
 30
0.0
  0
VERTEX
  5
40E
330
308
100
AcDbEntity
  8
0
  6
CONTINUOUS
 62
     7
100
AcDbVertex
100
AcDb2dVertex
 10
8.9040620935
 20
5.8200267946
 30
0.0
  0
VERTEX
  5
40F
330
308
100
AcDbEntity
  8
0
  6
CONTINUOUS
 62
     7
100
AcDbVertex
100
AcDb2dVertex
 10
8.9040557441
 20
5.820023128
 30
0.0
  0
VERTEX
  5
410
330
308
100
AcDbEntity
  8
0
  6
CONTINUOUS
 62
     7
100
AcDbVertex
100
AcDb2dVertex
 10
8.8763758021
 20
5.8048759437
 30
0.0
  0
VERTEX
  5
411
330
308
100
AcDbEntity
  8
0
  6
CONTINUOUS
 62
     7
100
AcDbVertex
100
AcDb2dVertex
 10
8.8487714962
 20
5.7914439776
 30
0.0
  0
VERTEX
  5
412
330
308
100
AcDbEntity
  8
0
  6
CONTINUOUS
 62
     7
100
AcDbVertex
100
AcDb2dVertex
 10
8.8213184733
 20
5.7797640388
 30
0.0
  0
VERTEX
  5
413
330
308
100
AcDbEntity
  8
0
  6
CONTINUOUS
 62
     7
100
AcDbVertex
100
AcDb2dVertex
 10
8.7940919659
 20
5.7698681349
 30
0.0
  0
VERTEX
  5
414
330
308
100
AcDbEntity
  8
0
  6
CONTINUOUS
 62
     7
100
AcDbVertex
100
AcDb2dVertex
 10
8.7671665856
 20
5.7617833849
 30
0.0
  0
VERTEX
  5
415
330
308
100
AcDbEntity
  8
0
  6
CONTINUOUS
 62
     7
100
AcDbVertex
100
AcDb2dVertex
 10
8.740616119
 20
5.7555319441
 30
0.0
  0
VERTEX
  5
416
330
308
100
AcDbEntity
  8
0
  6
CONTINUOUS
 62
     7
100
AcDbVertex
100
AcDb2dVertex
 10
8.7145133249
 20
5.7511309441
 30
0.0
  0
VERTEX
  5
417
330
308
100
AcDbEntity
  8
0
  6
CONTINUOUS
 62
     7
100
AcDbVertex
100
AcDb2dVertex
 10
8.6889297358
 20
5.7485924455
 30
0.0
  0
VERTEX
  5
418
330
308
100
AcDbEntity
  8
0
  6
CONTINUOUS
 62
     7
100
AcDbVertex
100
AcDb2dVertex
 10
8.6639354609
 20
5.7479234046
 30
0.0
  0
VERTEX
  5
419
330
308
100
AcDbEntity
  8
0
  6
CONTINUOUS
 62
     7
100
AcDbVertex
100
AcDb2dVertex
 10
8.6395989947
 20
5.749125655
 30
0.0
  0
VERTEX
  5
41A
330
308
100
AcDbEntity
  8
0
  6
CONTINUOUS
 62
     7
100
AcDbVertex
100
AcDb2dVertex
 10
8.615987029
 20
5.752195902
 30
0.0
  0
VERTEX
  5
41B
330
308
100
AcDbEntity
  8
0
  6
CONTINUOUS
 62
     7
100
AcDbVertex
100
AcDb2dVertex
 10
8.5931642702
 20
5.7571257318
 30
0.0
  0
VERTEX
  5
41C
330
308
100
AcDbEntity
  8
0
  6
CONTINUOUS
 62
     7
100
AcDbVertex
100
AcDb2dVertex
 10
8.5711932618
 20
5.7639016349
 30
0.0
  0
VERTEX
  5
41D
330
308
100
AcDbEntity
  8
0
  6
CONTINUOUS
 62
     7
100
AcDbVertex
100
AcDb2dVertex
 10
8.5501342134
 20
5.7725050423
 30
0.0
  0
VERTEX
  5
41E
330
308
100
AcDbEntity
  8
0
  6
CONTINUOUS
 62
     7
100
AcDbVertex
100
AcDb2dVertex
 10
8.5300448353
 20
5.7829123774
 30
0.0
  0
VERTEX
  5
41F
330
308
100
AcDbEntity
  8
0
  6
CONTINUOUS
 62
     7
100
AcDbVertex
100
AcDb2dVertex
 10
8.5109801804
 20
5.7950951197
 30
0.0
  0
VERTEX
  5
420
330
308
100
AcDbEntity
  8
0
  6
CONTINUOUS
 62
     7
100
AcDbVertex
100
AcDb2dVertex
 10
8.4929924937
 20
5.8090198837
 30
0.0
  0
VERTEX
  5
421
330
308
100
AcDbEntity
  8
0
  6
CONTINUOUS
 62
     7
100
AcDbVertex
100
AcDb2dVertex
 10
8.4761310688
 20
5.8246485099
 30
0.0
  0
VERTEX
  5
422
330
308
100
AcDbEntity
  8
0
  6
CONTINUOUS
 62
     7
100
AcDbVertex
100
AcDb2dVertex
 10
8.4604421127
 20
5.8419381693
 30
0.0
  0
VERTEX
  5
423
330
308
100
AcDbEntity
  8
0
  6
CONTINUOUS
 62
     7
100
AcDbVertex
100
AcDb2dVertex
 10
8.4459686197
 20
5.8608414815
 30
0.0
  0
VERTEX
  5
424
330
308
100
AcDbEntity
  8
0
  6
CONTINUOUS
 62
     7
100
AcDbVertex
100
AcDb2dVertex
 10
8.4327502528
 20
5.8813066437
 30
0.0
  0
VERTEX
  5
425
330
308
100
AcDbEntity
  8
0
  6
CONTINUOUS
 62
     7
100
AcDbVertex
100
AcDb2dVertex
 10
8.4208232358
 20
5.903277573
 30
0.0
  0
VERTEX
  5
426
330
308
100
AcDbEntity
  8
0
  6
CONTINUOUS
 62
     7
100
AcDbVertex
100
AcDb2dVertex
 10
8.4102202536
 20
5.9266940601
 30
0.0
  0
VERTEX
  5
427
330
308
100
AcDbEntity
  8
0
  6
CONTINUOUS
 62
     7
100
AcDbVertex
100
AcDb2dVertex
 10
8.4009703626
 20
5.9514919344
 30
0.0
  0
VERTEX
  5
428
330
308
100
AcDbEntity
  8
0
  6
CONTINUOUS
 62
     7
100
AcDbVertex
100
AcDb2dVertex
 10
8.3930989113
 20
5.9776032397
 30
0.0
  0
VERTEX
  5
429
330
308
100
AcDbEntity
  8
0
  6
CONTINUOUS
 62
     7
100
AcDbVertex
100
AcDb2dVertex
 10
8.3866274706
 20
6.0049564204
 30
0.0
  0
VERTEX
  5
42A
330
308
100
AcDbEntity
  8
0
  6
CONTINUOUS
 62
     7
100
AcDbVertex
100
AcDb2dVertex
 10
8.3815737749
 20
6.0334765178
 30
0.0
  0
VERTEX
  5
42B
330
308
100
AcDbEntity
  8
0
  6
CONTINUOUS
 62
     7
100
AcDbVertex
100
AcDb2dVertex
 10
8.3779516734
 20
6.0630853751
 30
0.0
  0
VERTEX
  5
42C
330
308
100
AcDbEntity
  8
0
  6
CONTINUOUS
 62
     7
100
AcDbVertex
100
AcDb2dVertex
 10
8.3757710921
 20
6.0937018521
 30
0.0
  0
SEQEND
  5
42D
330
308
100
AcDbEntity
  8
0
  6
CONTINUOUS
 62
     7
  0
LINE
  5
309
330
1F
100
AcDbEntity
  8
0
  6
CONTINUOUS
 62
     7
100
AcDbLine
 10
8.3757710921
 20
6.0937018521
 30
0.0
 11
8.4182281742
 21
6.0937195605
 31
0.0
  0
SPLINE
  5
30A
330
1F
100
AcDbEntity
  8
0
  6
CONTINUOUS
 62
     7
100
AcDbSpline
210
0.0
220
0.0
230
1.0
 70
     8
 71
     3
 72
    20
 73
    16
 74
     0
 42
0.00000001
 43
0.00000001
 40
0.0
 40
0.0
 40
0.0
 40
0.0
 40
0.0741354951251525
 40
0.1482732873270647
 40
0.2223682850952831
 40
0.296472857552586
 40
0.3713747457016862
 40
0.4462988712128315
 40
0.5247254255615794
 40
0.603189569885268
 40
0.6894615471517006
 40
0.775783772835356
 40
0.8757846051230967
 40
0.9758383316381105
 40
1.0
 40
1.0
 40
1.0
 40
1.0
 10
8.586584105601906
 20
6.983351008683627
 30
0.0
 10
8.579593432971505
 20
6.986893022191962
 30
0.0
 10
8.565611871105801
 20
6.993977158957366
 30
0.0
 10
8.541249799155883
 20
7.000315149545378
 30
0.0
 10
8.515245568985762
 20
7.00307693132895
 30
0.0
 10
8.488076314960653
 20
7.001962841788484
 30
0.0
 10
8.46059946455027
 20
6.996797120173642
 30
0.0
 10
8.433178455812431
 20
6.987651052471746
 30
0.0
 10
8.406731349249705
 20
6.974427323243518
 30
0.0
 10
8.381080997125023
 20
6.956951484357551
 30
0.0
 10
8.357475476113498
 20
6.935407522982584
 30
0.0
 10
8.335240198332178
 20
6.908952015170315
 30
0.0
 10
8.316554792772568
 20
6.878207293368035
 30
0.0
 10
8.304122098556267
 20
6.852829716643838
 30
0.0
 10
8.300117119706202
 20
6.837958355140512
 30
0.0
 10
8.299338094120303
 20
6.835065662933647
 30
0.0
  0
POLYLINE
  5
30B
330
1F
100
AcDbEntity
  8
0
  6
CONTINUOUS
 62
     7
100
AcDb2dPolyline
 66
     1
 10
0.0
 20
0.0
 30
0.0
  0
VERTEX
  5
42E
330
30B
100
AcDbEntity
  8
0
  6
CONTINUOUS
 62
     7
100
AcDbVertex
100
AcDb2dVertex
 10
8.2846737532
 20
6.7461399544
 30
0.0
  0
VERTEX
  5
42F
330
30B
100
AcDbEntity
  8
0
  6
CONTINUOUS
 62
     7
100
AcDbVertex
100
AcDb2dVertex
 10
8.2852148727
 20
6.7226063389
 30
0.0
  0
VERTEX
  5
430
330
30B
100
AcDbEntity
  8
0
  6
CONTINUOUS
 62
     7
100
AcDbVertex
100
AcDb2dVertex
 10
8.2911834617
 20
6.6886312341
 30
0.0
  0
VERTEX
  5
431
330
30B
100
AcDbEntity
  8
0
  6
CONTINUOUS
 62
     7
100
AcDbVertex
100
AcDb2dVertex
 10
8.298123703
 20
6.6680800994
 30
0.0
  0
VERTEX
  5
432
330
30B
100
AcDbEntity
  8
0
  6
CONTINUOUS
 62
     7
100
AcDbVertex
100
AcDb2dVertex
 10
8.3077992794
 20
6.649352853
 30
0.0
  0
VERTEX
  5
433
330
30B
100
AcDbEntity
  8
0
  6
CONTINUOUS
 62
     7
100
AcDbVertex
100
AcDb2dVertex
 10
8.3176754509
 20
6.6363318702
 30
0.0
  0
VERTEX
  5
434
330
30B
100
AcDbEntity
  8
0
  6
CONTINUOUS
 62
     7
100
AcDbVertex
100
AcDb2dVertex
 10
8.3293793668
 20
6.6256757088
 30
0.0
  0
VERTEX
  5
435
330
30B
100
AcDbEntity
  8
0
  6
CONTINUOUS
 62
     7
100
AcDbVertex
100
AcDb2dVertex
 10
8.3427816932
 20
6.6179258783
 30
0.0
  0
VERTEX
  5
436
330
30B
100
AcDbEntity
  8
0
  6
CONTINUOUS
 62
     7
100
AcDbVertex
100
AcDb2dVertex
 10
8.357374374
 20
6.613308283
 30
0.0
  0
VERTEX
  5
437
330
30B
100
AcDbEntity
  8
0
  6
CONTINUOUS
 62
     7
100
AcDbVertex
100
AcDb2dVertex
 10
8.3717200227
 20
6.6118086251
 30
0.0
  0
VERTEX
  5
438
330
30B
100
AcDbEntity
  8
0
  6
CONTINUOUS
 62
     7
100
AcDbVertex
100
AcDb2dVertex
 10
8.3863748485
 20
6.6127128064
 30
0.0
  0
VERTEX
  5
439
330
30B
100
AcDbEntity
  8
0
  6
CONTINUOUS
 62
     7
100
AcDbVertex
100
AcDb2dVertex
 10
8.4111706674
 20
6.6187199649
 30
0.0
  0
VERTEX
  5
43A
330
30B
100
AcDbEntity
  8
0
  6
CONTINUOUS
 62
     7
100
AcDbVertex
100
AcDb2dVertex
 10
8.435692563
 20
6.6290763972
 30
0.0
  0
VERTEX
  5
43B
330
30B
100
AcDbEntity
  8
0
  6
CONTINUOUS
 62
     7
100
AcDbVertex
100
AcDb2dVertex
 10
8.4598004647
 20
6.6426942391
 30
0.0
  0
VERTEX
  5
43C
330
30B
100
AcDbEntity
  8
0
  6
CONTINUOUS
 62
     7
100
AcDbVertex
100
AcDb2dVertex
 10
8.4833786963
 20
6.6589194883
 30
0.0
  0
VERTEX
  5
43D
330
30B
100
AcDbEntity
  8
0
  6
CONTINUOUS
 62
     7
100
AcDbVertex
100
AcDb2dVertex
 10
8.5062058856
 20
6.6771710303
 30
0.0
  0
VERTEX
  5
43E
330
30B
100
AcDbEntity
  8
0
  6
CONTINUOUS
 62
     7
100
AcDbVertex
100
AcDb2dVertex
 10
8.5288600575
 20
6.6977126428
 30
0.0
  0
VERTEX
  5
43F
330
30B
100
AcDbEntity
  8
0
  6
CONTINUOUS
 62
     7
100
AcDbVertex
100
AcDb2dVertex
 10
8.5505307825
 20
6.7198799194
 30
0.0
  0
VERTEX
  5
440
330
30B
100
AcDbEntity
  8
0
  6
CONTINUOUS
 62
     7
100
AcDbVertex
100
AcDb2dVertex
 10
8.5708179752
 20
6.7433220794
 30
0.0
  0
VERTEX
  5
441
330
30B
100
AcDbEntity
  8
0
  6
CONTINUOUS
 62
     7
100
AcDbVertex
100
AcDb2dVertex
 10
8.5941957023
 20
6.7748091662
 30
0.0
  0
VERTEX
  5
442
330
30B
100
AcDbEntity
  8
0
  6
CONTINUOUS
 62
     7
100
AcDbVertex
100
AcDb2dVertex
 10
8.6138411367
 20
6.8075793654
 30
0.0
  0
VERTEX
  5
443
330
30B
100
AcDbEntity
  8
0
  6
CONTINUOUS
 62
     7
100
AcDbVertex
100
AcDb2dVertex
 10
8.6266432652
 20
6.8358526398
 30
0.0
  0
VERTEX
  5
444
330
30B
100
AcDbEntity
  8
0
  6
CONTINUOUS
 62
     7
100
AcDbVertex
100
AcDb2dVertex
 10
8.6351093365
 20
6.8640146192
 30
0.0
  0
VERTEX
  5
445
330
30B
100
AcDbEntity
  8
0
  6
CONTINUOUS
 62
     7
100
AcDbVertex
100
AcDb2dVertex
 10
8.6384198862
 20
6.891562641
 30
0.0
  0
VERTEX
  5
446
330
30B
100
AcDbEntity
  8
0
  6
CONTINUOUS
 62
     7
100
AcDbVertex
100
AcDb2dVertex
 10
8.6360362998
 20
6.9176080674
 30
0.0
  0
VERTEX
  5
447
330
30B
100
AcDbEntity
  8
0
  6
CONTINUOUS
 62
     7
100
AcDbVertex
100
AcDb2dVertex
 10
8.6286946302
 20
6.9390905767
 30
0.0
  0
VERTEX
  5
448
330
30B
100
AcDbEntity
  8
0
  6
CONTINUOUS
 62
     7
100
AcDbVertex
100
AcDb2dVertex
 10
8.6165612692
 20
6.9582141789
 30
0.0
  0
VERTEX
  5
449
330
30B
100
AcDbEntity
  8
0
  6
CONTINUOUS
 62
     7
100
AcDbVertex
100
AcDb2dVertex
 10
8.6029968312
 20
6.9718991294
 30
0.0
  0
VERTEX
  5
44A
330
30B
100
AcDbEntity
  8
0
  6
CONTINUOUS
 62
     7
100
AcDbVertex
100
AcDb2dVertex
 10
8.5865841056
 20
6.9833510087
 30
0.0
  0
VERTEX
  5
44B
330
30B
100
AcDbEntity
  8
0
  6
CONTINUOUS
 62
     7
100
AcDbVertex
100
AcDb2dVertex
 10
8.5865841056
 20
6.9833510087
 30
0.0
  0
SEQEND
  5
44C
330
30B
100
AcDbEntity
  8
0
  6
CONTINUOUS
 62
     7
  0
ARC
  5
30C
330
1F
100
AcDbEntity
  8
0
  6
CONTINUOUS
 62
     7
100
AcDbCircle
 10
8.3980001108
 20
6.274707153
 30
0.0
 40
0.3612271877727677
100
AcDbArc
 50
177.6954252384
 51
235.0921290566
  0
LINE
  5
30D
330
1F
100
AcDbEntity
  8
0
  6
CONTINUOUS
 62
     7
100
AcDbLine
 10
8.3757710921
 20
6.0937018521
 30
0.0
 11
8.037065088
 21
6.2892326663
 31
0.0
  0
LINE
  5
30E
330
1F
100
AcDbEntity
  8
0
  6
CONTINUOUS
 62
     7
100
AcDbLine
 10
8.3757710921
 20
6.1579964042
 30
0.0
 11
8.037065088
 21
6.3535272184
 31
0.0
  0
POLYLINE
  5
30F
330
1F
100
AcDbEntity
  8
0
  6
CONTINUOUS
 62
     7
100
AcDb2dPolyline
 66
     1
 10
0.0
 20
0.0
 30
0.0
  0
VERTEX
  5
44D
330
30F
100
AcDbEntity
  8
0
  6
CONTINUOUS
 62
     7
100
AcDbVertex
100
AcDb2dVertex
 10
8.7601420697
 20
7.306637508
 30
0.0
  0
VERTEX
  5
44E
330
30F
100
AcDbEntity
  8
0
  6
CONTINUOUS
 62
     7
100
AcDbVertex
100
AcDb2dVertex
 10
8.7339935978
 20
7.3025981525
 30
0.0
  0
VERTEX
  5
44F
330
30F
100
AcDbEntity
  8
0
  6
CONTINUOUS
 62
     7
100
AcDbVertex
100
AcDb2dVertex
 10
8.7073775039
 20
7.2966844338
 30
0.0
  0
VERTEX
  5
450
330
30F
100
AcDbEntity
  8
0
  6
CONTINUOUS
 62
     7
100
AcDbVertex
100
AcDb2dVertex
 10
8.6803675551
 20
7.288912742
 30
0.0
  0
VERTEX
  5
451
330
30F
100
AcDbEntity
  8
0
  6
CONTINUOUS
 62
     7
100
AcDbVertex
100
AcDb2dVertex
 10
8.6530386104
 20
7.2793046164
 30
0.0
  0
VERTEX
  5
452
330
30F
100
AcDbEntity
  8
0
  6
CONTINUOUS
 62
     7
100
AcDbVertex
100
AcDb2dVertex
 10
8.6254664127
 20
7.2678866864
 30
0.0
  0
VERTEX
  5
453
330
30F
100
AcDbEntity
  8
0
  6
CONTINUOUS
 62
     7
100
AcDbVertex
100
AcDb2dVertex
 10
8.5977273792
 20
7.2546905971
 30
0.0
  0
VERTEX
  5
454
330
30F
100
AcDbEntity
  8
0
  6
CONTINUOUS
 62
     7
100
AcDbVertex
100
AcDb2dVertex
 10
8.5698983894
 20
7.2397529218
 30
0.0
  0
VERTEX
  5
455
330
30F
100
AcDbEntity
  8
0
  6
CONTINUOUS
 62
     7
100
AcDbVertex
100
AcDb2dVertex
 10
8.5420565723
 20
7.2231150607
 30
0.0
  0
VERTEX
  5
456
330
30F
100
AcDbEntity
  8
0
  6
CONTINUOUS
 62
     7
100
AcDbVertex
100
AcDb2dVertex
 10
8.5142790922
 20
7.2048231262
 30
0.0
  0
VERTEX
  5
457
330
30F
100
AcDbEntity
  8
0
  6
CONTINUOUS
 62
     7
100
AcDbVertex
100
AcDb2dVertex
 10
8.4866429353
 20
7.1849278149
 30
0.0
  0
VERTEX
  5
458
330
30F
100
AcDbEntity
  8
0
  6
CONTINUOUS
 62
     7
100
AcDbVertex
100
AcDb2dVertex
 10
8.4592246959
 20
7.1634842672
 30
0.0
  0
VERTEX
  5
459
330
30F
100
AcDbEntity
  8
0
  6
CONTINUOUS
 62
     7
100
AcDbVertex
100
AcDb2dVertex
 10
8.4321003646
 20
7.1405519145
 30
0.0
  0
VERTEX
  5
45A
330
30F
100
AcDbEntity
  8
0
  6
CONTINUOUS
 62
     7
100
AcDbVertex
100
AcDb2dVertex
 10
8.4053451172
 20
7.1161943147
 30
0.0
  0
VERTEX
  5
45B
330
30F
100
AcDbEntity
  8
0
  6
CONTINUOUS
 62
     7
100
AcDbVertex
100
AcDb2dVertex
 10
8.3790331068
 20
7.0904789754
 30
0.0
  0
VERTEX
  5
45C
330
30F
100
AcDbEntity
  8
0
  6
CONTINUOUS
 62
     7
100
AcDbVertex
100
AcDb2dVertex
 10
8.3532372577
 20
7.0634771676
 30
0.0
  0
VERTEX
  5
45D
330
30F
100
AcDbEntity
  8
0
  6
CONTINUOUS
 62
     7
100
AcDbVertex
100
AcDb2dVertex
 10
8.3280290641
 20
7.0352637274
 30
0.0
  0
VERTEX
  5
45E
330
30F
100
AcDbEntity
  8
0
  6
CONTINUOUS
 62
     7
100
AcDbVertex
100
AcDb2dVertex
 10
8.3034783911
 20
7.0059168494
 30
0.0
  0
VERTEX
  5
45F
330
30F
100
AcDbEntity
  8
0
  6
CONTINUOUS
 62
     7
100
AcDbVertex
100
AcDb2dVertex
 10
8.2796532816
 20
6.9755178692
 30
0.0
  0
VERTEX
  5
460
330
30F
100
AcDbEntity
  8
0
  6
CONTINUOUS
 62
     7
100
AcDbVertex
100
AcDb2dVertex
 10
8.2566197677
 20
6.9441510386
 30
0.0
  0
VERTEX
  5
461
330
30F
100
AcDbEntity
  8
0
  6
CONTINUOUS
 62
     7
100
AcDbVertex
100
AcDb2dVertex
 10
8.2344416875
 20
6.9119032915
 30
0.0
  0
VERTEX
  5
462
330
30F
100
AcDbEntity
  8
0
  6
CONTINUOUS
 62
     7
100
AcDbVertex
100
AcDb2dVertex
 10
8.213180508
 20
6.8788640037
 30
0.0
  0
VERTEX
  5
463
330
30F
100
AcDbEntity
  8
0
  6
CONTINUOUS
 62
     7
100
AcDbVertex
100
AcDb2dVertex
 10
8.1928951555
 20
6.8451247445
 30
0.0
  0
VERTEX
  5
464
330
30F
100
AcDbEntity
  8
0
  6
CONTINUOUS
 62
     7
100
AcDbVertex
100
AcDb2dVertex
 10
8.1736418511
 20
6.8107790233
 30
0.0
  0
VERTEX
  5
465
330
30F
100
AcDbEntity
  8
0
  6
CONTINUOUS
 62
     7
100
AcDbVertex
100
AcDb2dVertex
 10
8.1554739562
 20
6.7759220302
 30
0.0
  0
VERTEX
  5
466
330
30F
100
AcDbEntity
  8
0
  6
CONTINUOUS
 62
     7
100
AcDbVertex
100
AcDb2dVertex
 10
8.1384418236
 20
6.7406503724
 30
0.0
  0
VERTEX
  5
467
330
30F
100
AcDbEntity
  8
0
  6
CONTINUOUS
 62
     7
100
AcDbVertex
100
AcDb2dVertex
 10
8.1225926582
 20
6.7050618064
 30
0.0
  0
VERTEX
  5
468
330
30F
100
AcDbEntity
  8
0
  6
CONTINUOUS
 62
     7
100
AcDbVertex
100
AcDb2dVertex
 10
8.1079703866
 20
6.6692549669
 30
0.0
  0
VERTEX
  5
469
330
30F
100
AcDbEntity
  8
0
  6
CONTINUOUS
 62
     7
100
AcDbVertex
100
AcDb2dVertex
 10
8.0946155348
 20
6.6333290937
 30
0.0
  0
VERTEX
  5
46A
330
30F
100
AcDbEntity
  8
0
  6
CONTINUOUS
 62
     7
100
AcDbVertex
100
AcDb2dVertex
 10
8.0825651162
 20
6.5973837564
 30
0.0
  0
VERTEX
  5
46B
330
30F
100
AcDbEntity
  8
0
  6
CONTINUOUS
 62
     7
100
AcDbVertex
100
AcDb2dVertex
 10
8.0718525289
 20
6.5615185786
 30
0.0
  0
VERTEX
  5
46C
330
30F
100
AcDbEntity
  8
0
  6
CONTINUOUS
 62
     7
100
AcDbVertex
100
AcDb2dVertex
 10
8.0625074631
 20
6.5258329616
 30
0.0
  0
VERTEX
  5
46D
330
30F
100
AcDbEntity
  8
0
  6
CONTINUOUS
 62
     7
100
AcDbVertex
100
AcDb2dVertex
 10
8.0545558189
 20
6.4904258093
 30
0.0
  0
VERTEX
  5
46E
330
30F
100
AcDbEntity
  8
0
  6
CONTINUOUS
 62
     7
100
AcDbVertex
100
AcDb2dVertex
 10
8.0480196346
 20
6.4553952535
 30
0.0
  0
VERTEX
  5
46F
330
30F
100
AcDbEntity
  8
0
  6
CONTINUOUS
 62
     7
100
AcDbVertex
100
AcDb2dVertex
 10
8.0429170254
 20
6.4208383825
 30
0.0
  0
VERTEX
  5
470
330
30F
100
AcDbEntity
  8
0
  6
CONTINUOUS
 62
     7
100
AcDbVertex
100
AcDb2dVertex
 10
8.0392621333
 20
6.3868509718
 30
0.0
  0
VERTEX
  5
471
330
30F
100
AcDbEntity
  8
0
  6
CONTINUOUS
 62
     7
100
AcDbVertex
100
AcDb2dVertex
 10
8.037065088
 20
6.3535272184
 30
0.0
  0
SEQEND
  5
472
330
30F
100
AcDbEntity
  8
0
  6
CONTINUOUS
 62
     7
  0
LINE
  5
310
330
1F
100
AcDbEntity
  8
0
  6
CONTINUOUS
 62
     7
100
AcDbLine
 10
8.6859051372
 20
7.3494935769
 30
0.0
 11
8.7601420697
 21
7.306637508
 31
0.0
  0
POLYLINE
  5
311
330
1F
100
AcDbEntity
  8
0
  6
CONTINUOUS
 62
     7
100
AcDb2dPolyline
 66
     1
 10
0.0
 20
0.0
 30
0.0
  0
VERTEX
  5
473
330
311
100
AcDbEntity
  8
0
  6
CONTINUOUS
 62
     7
100
AcDbVertex
100
AcDb2dVertex
 10
8.156012285
 20
6.0031001072
 30
0.0
  0
VERTEX
  5
474
330
311
100
AcDbEntity
  8
0
  6
CONTINUOUS
 62
     7
100
AcDbVertex
100
AcDb2dVertex
 10
8.138942566
 20
6.0100909427
 30
0.0
  0
VERTEX
  5
475
330
311
100
AcDbEntity
  8
0
  6
CONTINUOUS
 62
     7
100
AcDbVertex
100
AcDb2dVertex
 10
8.1186572164
 20
6.0204093464
 30
0.0
  0
VERTEX
  5
476
330
311
100
AcDbEntity
  8
0
  6
CONTINUOUS
 62
     7
100
AcDbVertex
100
AcDb2dVertex
 10
8.0994039227
 20
6.0325257964
 30
0.0
  0
VERTEX
  5
477
330
311
100
AcDbEntity
  8
0
  6
CONTINUOUS
 62
     7
100
AcDbVertex
100
AcDb2dVertex
 10
8.0812360462
 20
6.0464067116
 30
0.0
  0
VERTEX
  5
478
330
311
100
AcDbEntity
  8
0
  6
CONTINUOUS
 62
     7
100
AcDbVertex
100
AcDb2dVertex
 10
8.0642039399
 20
6.0620136204
 30
0.0
  0
VERTEX
  5
479
330
311
100
AcDbEntity
  8
0
  6
CONTINUOUS
 62
     7
100
AcDbVertex
100
AcDb2dVertex
 10
8.048354809
 20
6.0793032674
 30
0.0
  0
VERTEX
  5
47A
330
311
100
AcDbEntity
  8
0
  6
CONTINUOUS
 62
     7
100
AcDbVertex
100
AcDb2dVertex
 10
8.0337325801
 20
6.0982277339
 30
0.0
  0
VERTEX
  5
47B
330
311
100
AcDbEntity
  8
0
  6
CONTINUOUS
 62
     7
100
AcDbVertex
100
AcDb2dVertex
 10
8.0203777792
 20
6.1187345698
 30
0.0
  0
VERTEX
  5
47C
330
311
100
AcDbEntity
  8
0
  6
CONTINUOUS
 62
     7
100
AcDbVertex
100
AcDb2dVertex
 10
8.0083274199
 20
6.1407669395
 30
0.0
  0
VERTEX
  5
47D
330
311
100
AcDbEntity
  8
0
  6
CONTINUOUS
 62
     7
100
AcDbVertex
100
AcDb2dVertex
 10
7.9976149001
 20
6.1642637793
 30
0.0
  0
VERTEX
  5
47E
330
311
100
AcDbEntity
  8
0
  6
CONTINUOUS
 62
     7
100
AcDbVertex
100
AcDb2dVertex
 10
7.9882699101
 20
6.1891599669
 30
0.0
  0
VERTEX
  5
47F
330
311
100
AcDbEntity
  8
0
  6
CONTINUOUS
 62
     7
100
AcDbVertex
100
AcDb2dVertex
 10
7.98031835
 20
6.2153865013
 30
0.0
  0
VERTEX
  5
480
330
311
100
AcDbEntity
  8
0
  6
CONTINUOUS
 62
     7
100
AcDbVertex
100
AcDb2dVertex
 10
7.9737822577
 20
6.2428706946
 30
0.0
  0
VERTEX
  5
481
330
311
100
AcDbEntity
  8
0
  6
CONTINUOUS
 62
     7
100
AcDbVertex
100
AcDb2dVertex
 10
7.9686797484
 20
6.2715363732
 30
0.0
  0
VERTEX
  5
482
330
311
100
AcDbEntity
  8
0
  6
CONTINUOUS
 62
     7
100
AcDbVertex
100
AcDb2dVertex
 10
7.9650249639
 20
6.301304089
 30
0.0
  0
VERTEX
  5
483
330
311
100
AcDbEntity
  8
0
  6
CONTINUOUS
 62
     7
100
AcDbVertex
100
AcDb2dVertex
 10
7.9628280336
 20
6.3320913393
 30
0.0
  0
VERTEX
  5
484
330
311
100
AcDbEntity
  8
0
  6
CONTINUOUS
 62
     7
100
AcDbVertex
100
AcDb2dVertex
 10
7.9620950463
 20
6.3638127962
 30
0.0
  0
VERTEX
  5
485
330
311
100
AcDbEntity
  8
0
  6
CONTINUOUS
 62
     7
100
AcDbVertex
100
AcDb2dVertex
 10
7.9628280336
 20
6.3963805421
 30
0.0
  0
VERTEX
  5
486
330
311
100
AcDbEntity
  8
0
  6
CONTINUOUS
 62
     7
100
AcDbVertex
100
AcDb2dVertex
 10
7.9650249639
 20
6.4297043143
 30
0.0
  0
VERTEX
  5
487
330
311
100
AcDbEntity
  8
0
  6
CONTINUOUS
 62
     7
100
AcDbVertex
100
AcDb2dVertex
 10
7.9686797484
 20
6.4636917544
 30
0.0
  0
VERTEX
  5
488
330
311
100
AcDbEntity
  8
0
  6
CONTINUOUS
 62
     7
100
AcDbVertex
100
AcDb2dVertex
 10
7.9737822577
 20
6.4982486648
 30
0.0
  0
VERTEX
  5
489
330
311
100
AcDbEntity
  8
0
  6
CONTINUOUS
 62
     7
100
AcDbVertex
100
AcDb2dVertex
 10
7.98031835
 20
6.5332792696
 30
0.0
  0
VERTEX
  5
48A
330
311
100
AcDbEntity
  8
0
  6
CONTINUOUS
 62
     7
100
AcDbVertex
100
AcDb2dVertex
 10
7.9882699101
 20
6.56868648
 30
0.0
  0
VERTEX
  5
48B
330
311
100
AcDbEntity
  8
0
  6
CONTINUOUS
 62
     7
100
AcDbVertex
100
AcDb2dVertex
 10
7.9976149001
 20
6.6043721634
 30
0.0
  0
VERTEX
  5
48C
330
311
100
AcDbEntity
  8
0
  6
CONTINUOUS
 62
     7
100
AcDbVertex
100
AcDb2dVertex
 10
8.0083274199
 20
6.6402374153
 30
0.0
  0
VERTEX
  5
48D
330
311
100
AcDbEntity
  8
0
  6
CONTINUOUS
 62
     7
100
AcDbVertex
100
AcDb2dVertex
 10
8.0203777792
 20
6.6761828337
 30
0.0
  0
VERTEX
  5
48E
330
311
100
AcDbEntity
  8
0
  6
CONTINUOUS
 62
     7
100
AcDbVertex
100
AcDb2dVertex
 10
8.0337325801
 20
6.7121087944
 30
0.0
  0
VERTEX
  5
48F
330
311
100
AcDbEntity
  8
0
  6
CONTINUOUS
 62
     7
100
AcDbVertex
100
AcDb2dVertex
 10
8.048354809
 20
6.7479157271
 30
0.0
  0
VERTEX
  5
490
330
311
100
AcDbEntity
  8
0
  6
CONTINUOUS
 62
     7
100
AcDbVertex
100
AcDb2dVertex
 10
8.0642039399
 20
6.7835043912
 30
0.0
  0
VERTEX
  5
491
330
311
100
AcDbEntity
  8
0
  6
CONTINUOUS
 62
     7
100
AcDbVertex
100
AcDb2dVertex
 10
8.0812360462
 20
6.8187761513
 30
0.0
  0
VERTEX
  5
492
330
311
100
AcDbEntity
  8
0
  6
CONTINUOUS
 62
     7
100
AcDbVertex
100
AcDb2dVertex
 10
8.0994039227
 20
6.8536332502
 30
0.0
  0
VERTEX
  5
493
330
311
100
AcDbEntity
  8
0
  6
CONTINUOUS
 62
     7
100
AcDbVertex
100
AcDb2dVertex
 10
8.1186572164
 20
6.88797908
 30
0.0
  0
VERTEX
  5
494
330
311
100
AcDbEntity
  8
0
  6
CONTINUOUS
 62
     7
100
AcDbVertex
100
AcDb2dVertex
 10
8.138942566
 20
6.9217184497
 30
0.0
  0
VERTEX
  5
495
330
311
100
AcDbEntity
  8
0
  6
CONTINUOUS
 62
     7
100
AcDbVertex
100
AcDb2dVertex
 10
8.1602037496
 20
6.9547578493
 30
0.0
  0
VERTEX
  5
496
330
311
100
AcDbEntity
  8
0
  6
CONTINUOUS
 62
     7
100
AcDbVertex
100
AcDb2dVertex
 10
8.1823818412
 20
6.9870057087
 30
0.0
  0
VERTEX
  5
497
330
311
100
AcDbEntity
  8
0
  6
CONTINUOUS
 62
     7
100
AcDbVertex
100
AcDb2dVertex
 10
8.2054153731
 20
7.0183726514
 30
0.0
  0
VERTEX
  5
498
330
311
100
AcDbEntity
  8
0
  6
CONTINUOUS
 62
     7
100
AcDbVertex
100
AcDb2dVertex
 10
8.2292405069
 20
7.0487717428
 30
0.0
  0
VERTEX
  5
499
330
311
100
AcDbEntity
  8
0
  6
CONTINUOUS
 62
     7
100
AcDbVertex
100
AcDb2dVertex
 10
8.2537912103
 20
7.0781187305
 30
0.0
  0
VERTEX
  5
49A
330
311
100
AcDbEntity
  8
0
  6
CONTINUOUS
 62
     7
100
AcDbVertex
100
AcDb2dVertex
 10
8.2789994399
 20
7.1063322779
 30
0.0
  0
VERTEX
  5
49B
330
311
100
AcDbEntity
  8
0
  6
CONTINUOUS
 62
     7
100
AcDbVertex
100
AcDb2dVertex
 10
8.3047953301
 20
7.1333341902
 30
0.0
  0
VERTEX
  5
49C
330
311
100
AcDbEntity
  8
0
  6
CONTINUOUS
 62
     7
100
AcDbVertex
100
AcDb2dVertex
 10
8.3311073865
 20
7.1590496302
 30
0.0
  0
VERTEX
  5
49D
330
311
100
AcDbEntity
  8
0
  6
CONTINUOUS
 62
     7
100
AcDbVertex
100
AcDb2dVertex
 10
8.357862684
 20
7.1834073267
 30
0.0
  0
VERTEX
  5
49E
330
311
100
AcDbEntity
  8
0
  6
CONTINUOUS
 62
     7
100
AcDbVertex
100
AcDb2dVertex
 10
8.3849870692
 20
7.2063397711
 30
0.0
  0
VERTEX
  5
49F
330
311
100
AcDbEntity
  8
0
  6
CONTINUOUS
 62
     7
100
AcDbVertex
100
AcDb2dVertex
 10
8.4124053657
 20
7.2277834053
 30
0.0
  0
VERTEX
  5
4A0
330
311
100
AcDbEntity
  8
0
  6
CONTINUOUS
 62
     7
100
AcDbVertex
100
AcDb2dVertex
 10
8.4400415826
 20
7.2476787973
 30
0.0
  0
VERTEX
  5
4A1
330
311
100
AcDbEntity
  8
0
  6
CONTINUOUS
 62
     7
100
AcDbVertex
100
AcDb2dVertex
 10
8.467819125
 20
7.2659708062
 30
0.0
  0
VERTEX
  5
4A2
330
311
100
AcDbEntity
  8
0
  6
CONTINUOUS
 62
     7
100
AcDbVertex
100
AcDb2dVertex
 10
8.4956610061
 20
7.2826087349
 30
0.0
  0
VERTEX
  5
4A3
330
311
100
AcDbEntity
  8
0
  6
CONTINUOUS
 62
     7
100
AcDbVertex
100
AcDb2dVertex
 10
8.523490061
 20
7.2975464706
 30
0.0
  0
VERTEX
  5
4A4
330
311
100
AcDbEntity
  8
0
  6
CONTINUOUS
 62
     7
100
AcDbVertex
100
AcDb2dVertex
 10
8.5512291603
 20
7.3107426129
 30
0.0
  0
VERTEX
  5
4A5
330
311
100
AcDbEntity
  8
0
  6
CONTINUOUS
 62
     7
100
AcDbVertex
100
AcDb2dVertex
 10
8.5788014239
 20
7.322160588
 30
0.0
  0
VERTEX
  5
4A6
330
311
100
AcDbEntity
  8
0
  6
CONTINUOUS
 62
     7
100
AcDbVertex
100
AcDb2dVertex
 10
8.6061304341
 20
7.3317687505
 30
0.0
  0
VERTEX
  5
4A7
330
311
100
AcDbEntity
  8
0
  6
CONTINUOUS
 62
     7
100
AcDbVertex
100
AcDb2dVertex
 10
8.6331404474
 20
7.339540471
 30
0.0
  0
VERTEX
  5
4A8
330
311
100
AcDbEntity
  8
0
  6
CONTINUOUS
 62
     7
100
AcDbVertex
100
AcDb2dVertex
 10
8.6597566044
 20
7.3454542099
 30
0.0
  0
VERTEX
  5
4A9
330
311
100
AcDbEntity
  8
0
  6
CONTINUOUS
 62
     7
100
AcDbVertex
100
AcDb2dVertex
 10
8.6859051372
 20
7.3494935769
 30
0.0
  0
SEQEND
  5
4AA
330
311
100
AcDbEntity
  8
0
  6
CONTINUOUS
 62
     7
  0
POLYLINE
  5
312
330
1F
100
AcDbEntity
  8
0
  6
CONTINUOUS
 62
     7
100
AcDb2dPolyline
 66
     1
 10
0.0
 20
0.0
 30
0.0
  0
VERTEX
  5
4AB
330
312
100
AcDbEntity
  8
0
  6
CONTINUOUS
 62
     7
100
AcDbVertex
100
AcDb2dVertex
 10
8.7758043089
 20
7.3684963938
 30
0.0
  0
VERTEX
  5
4AC
330
312
100
AcDbEntity
  8
0
  6
CONTINUOUS
 62
     7
100
AcDbVertex
100
AcDb2dVertex
 10
8.7557476568
 20
7.3788948127
 30
0.0
  0
VERTEX
  5
4AD
330
312
100
AcDbEntity
  8
0
  6
CONTINUOUS
 62
     7
100
AcDbVertex
100
AcDb2dVertex
 10
8.7346905154
 20
7.3875066179
 30
0.0
  0
VERTEX
  5
4AE
330
312
100
AcDbEntity
  8
0
  6
CONTINUOUS
 62
     7
100
AcDbVertex
100
AcDb2dVertex
 10
8.7127209962
 20
7.3942906554
 30
0.0
  0
VERTEX
  5
4AF
330
312
100
AcDbEntity
  8
0
  6
CONTINUOUS
 62
     7
100
AcDbVertex
100
AcDb2dVertex
 10
8.6898993162
 20
7.3992283306
 30
0.0
  0
VERTEX
  5
4B0
330
312
100
AcDbEntity
  8
0
  6
CONTINUOUS
 62
     7
100
AcDbVertex
100
AcDb2dVertex
 10
8.6662880279
 20
7.4023061098
 30
0.0
  0
VERTEX
  5
4B1
330
312
100
AcDbEntity
  8
0
  6
CONTINUOUS
 62
     7
100
AcDbVertex
100
AcDb2dVertex
 10
8.6419518482
 20
7.4035155568
 30
0.0
  0
VERTEX
  5
4B2
330
312
100
AcDbEntity
  8
0
  6
CONTINUOUS
 62
     7
100
AcDbVertex
100
AcDb2dVertex
 10
8.616957481
 20
7.4028533567
 30
0.0
  0
VERTEX
  5
4B3
330
312
100
AcDbEntity
  8
0
  6
CONTINUOUS
 62
     7
100
AcDbVertex
100
AcDb2dVertex
 10
8.591373434
 20
7.4003213246
 30
0.0
  0
VERTEX
  5
4B4
330
312
100
AcDbEntity
  8
0
  6
CONTINUOUS
 62
     7
100
AcDbVertex
100
AcDb2dVertex
 10
8.5652698314
 20
7.3959264006
 30
0.0
  0
VERTEX
  5
4B5
330
312
100
AcDbEntity
  8
0
  6
CONTINUOUS
 62
     7
100
AcDbVertex
100
AcDb2dVertex
 10
8.5387182214
 20
7.3896806308
 30
0.0
  0
VERTEX
  5
4B6
330
312
100
AcDbEntity
  8
0
  6
CONTINUOUS
 62
     7
100
AcDbVertex
100
AcDb2dVertex
 10
8.5117913799
 20
7.3816011345
 30
0.0
  0
VERTEX
  5
4B7
330
312
100
AcDbEntity
  8
0
  6
CONTINUOUS
 62
     7
100
AcDbVertex
100
AcDb2dVertex
 10
8.4845631117
 20
7.371710057
 30
0.0
  0
VERTEX
  5
4B8
330
312
100
AcDbEntity
  8
0
  6
CONTINUOUS
 62
     7
100
AcDbVertex
100
AcDb2dVertex
 10
8.4571080474
 20
7.360034509
 30
0.0
  0
VERTEX
  5
4B9
330
312
100
AcDbEntity
  8
0
  6
CONTINUOUS
 62
     7
100
AcDbVertex
100
AcDb2dVertex
 10
8.4295014397
 20
7.3466064925
 30
0.0
  0
VERTEX
  5
4BA
330
312
100
AcDbEntity
  8
0
  6
CONTINUOUS
 62
     7
100
AcDbVertex
100
AcDb2dVertex
 10
8.4018189562
 20
7.3314628127
 30
0.0
  0
VERTEX
  5
4BB
330
312
100
AcDbEntity
  8
0
  6
CONTINUOUS
 62
     7
100
AcDbVertex
100
AcDb2dVertex
 10
8.3741364726
 20
7.3146449774
 30
0.0
  0
VERTEX
  5
4BC
330
312
100
AcDbEntity
  8
0
  6
CONTINUOUS
 62
     7
100
AcDbVertex
100
AcDb2dVertex
 10
8.3465298649
 20
7.296199083
 30
0.0
  0
VERTEX
  5
4BD
330
312
100
AcDbEntity
  8
0
  6
CONTINUOUS
 62
     7
100
AcDbVertex
100
AcDb2dVertex
 10
8.3190748007
 20
7.2761756885
 30
0.0
  0
VERTEX
  5
4BE
330
312
100
AcDbEntity
  8
0
  6
CONTINUOUS
 62
     7
100
AcDbVertex
100
AcDb2dVertex
 10
8.2918465324
 20
7.2546296767
 30
0.0
  0
VERTEX
  5
4BF
330
312
100
AcDbEntity
  8
0
  6
CONTINUOUS
 62
     7
100
AcDbVertex
100
AcDb2dVertex
 10
8.264919691
 20
7.2316201036
 30
0.0
  0
VERTEX
  5
4C0
330
312
100
AcDbEntity
  8
0
  6
CONTINUOUS
 62
     7
100
AcDbVertex
100
AcDb2dVertex
 10
8.2383680809
 20
7.2072100369
 30
0.0
  0
VERTEX
  5
4C1
330
312
100
AcDbEntity
  8
0
  6
CONTINUOUS
 62
     7
100
AcDbVertex
100
AcDb2dVertex
 10
8.2122644783
 20
7.1814663829
 30
0.0
  0
VERTEX
  5
4C2
330
312
100
AcDbEntity
  8
0
  6
CONTINUOUS
 62
     7
100
AcDbVertex
100
AcDb2dVertex
 10
8.1866804313
 20
7.1544597032
 30
0.0
  0
VERTEX
  5
4C3
330
312
100
AcDbEntity
  8
0
  6
CONTINUOUS
 62
     7
100
AcDbVertex
100
AcDb2dVertex
 10
8.1616860641
 20
7.1262640211
 30
0.0
  0
VERTEX
  5
4C4
330
312
100
AcDbEntity
  8
0
  6
CONTINUOUS
 62
     7
100
AcDbVertex
100
AcDb2dVertex
 10
8.1373498845
 20
7.0969566191
 30
0.0
  0
VERTEX
  5
4C5
330
312
100
AcDbEntity
  8
0
  6
CONTINUOUS
 62
     7
100
AcDbVertex
100
AcDb2dVertex
 10
8.1137385961
 20
7.0666178268
 30
0.0
  0
VERTEX
  5
4C6
330
312
100
AcDbEntity
  8
0
  6
CONTINUOUS
 62
     7
100
AcDbVertex
100
AcDb2dVertex
 10
8.0909169161
 20
7.0353308006
 30
0.0
  0
VERTEX
  5
4C7
330
312
100
AcDbEntity
  8
0
  6
CONTINUOUS
 62
     7
100
AcDbVertex
100
AcDb2dVertex
 10
8.0689473969
 20
7.0031812962
 30
0.0
  0
VERTEX
  5
4C8
330
312
100
AcDbEntity
  8
0
  6
CONTINUOUS
 62
     7
100
AcDbVertex
100
AcDb2dVertex
 10
8.0478902555
 20
6.970257433
 30
0.0
  0
VERTEX
  5
4C9
330
312
100
AcDbEntity
  8
0
  6
CONTINUOUS
 62
     7
100
AcDbVertex
100
AcDb2dVertex
 10
8.0278032081
 20
6.9366494532
 30
0.0
  0
VERTEX
  5
4CA
330
312
100
AcDbEntity
  8
0
  6
CONTINUOUS
 62
     7
100
AcDbVertex
100
AcDb2dVertex
 10
8.0087413119
 20
6.9024494738
 30
0.0
  0
VERTEX
  5
4CB
330
312
100
AcDbEntity
  8
0
  6
CONTINUOUS
 62
     7
100
AcDbVertex
100
AcDb2dVertex
 10
7.9907568141
 20
6.8677512346
 30
0.0
  0
VERTEX
  5
4CC
330
312
100
AcDbEntity
  8
0
  6
CONTINUOUS
 62
     7
100
AcDbVertex
100
AcDb2dVertex
 10
7.9738990092
 20
6.832649841
 30
0.0
  0
VERTEX
  5
4CD
330
312
100
AcDbEntity
  8
0
  6
CONTINUOUS
 62
     7
100
AcDbVertex
100
AcDb2dVertex
 10
7.958214103
 20
6.7972415037
 30
0.0
  0
VERTEX
  5
4CE
330
312
100
AcDbEntity
  8
0
  6
CONTINUOUS
 62
     7
100
AcDbVertex
100
AcDb2dVertex
 10
7.9437450869
 20
6.7616232742
 30
0.0
  0
VERTEX
  5
4CF
330
312
100
AcDbEntity
  8
0
  6
CONTINUOUS
 62
     7
100
AcDbVertex
100
AcDb2dVertex
 10
7.9305316195
 20
6.7258927798
 30
0.0
  0
VERTEX
  5
4D0
330
312
100
AcDbEntity
  8
0
  6
CONTINUOUS
 62
     7
100
AcDbVertex
100
AcDb2dVertex
 10
7.9186099179
 20
6.6901479552
 30
0.0
  0
VERTEX
  5
4D1
330
312
100
AcDbEntity
  8
0
  6
CONTINUOUS
 62
     7
100
AcDbVertex
100
AcDb2dVertex
 10
7.9080126586
 20
6.6544867746
 30
0.0
  0
VERTEX
  5
4D2
330
312
100
AcDbEntity
  8
0
  6
CONTINUOUS
 62
     7
100
AcDbVertex
100
AcDb2dVertex
 10
7.8987688882
 20
6.6190069826
 30
0.0
  0
VERTEX
  5
4D3
330
312
100
AcDbEntity
  8
0
  6
CONTINUOUS
 62
     7
100
AcDbVertex
100
AcDb2dVertex
 10
7.8909039429
 20
6.5838058271
 30
0.0
  0
VERTEX
  5
4D4
330
312
100
AcDbEntity
  8
0
  6
CONTINUOUS
 62
     7
100
AcDbVertex
100
AcDb2dVertex
 10
7.8844393802
 20
6.5489797918
 30
0.0
  0
VERTEX
  5
4D5
330
312
100
AcDbEntity
  8
0
  6
CONTINUOUS
 62
     7
100
AcDbVertex
100
AcDb2dVertex
 10
7.879392919
 20
6.5146243326
 30
0.0
  0
VERTEX
  5
4D6
330
312
100
AcDbEntity
  8
0
  6
CONTINUOUS
 62
     7
100
AcDbVertex
100
AcDb2dVertex
 10
7.8757783912
 20
6.4808336153
 30
0.0
  0
VERTEX
  5
4D7
330
312
100
AcDbEntity
  8
0
  6
CONTINUOUS
 62
     7
100
AcDbVertex
100
AcDb2dVertex
 10
7.8736057041
 20
6.447700258
 30
0.0
  0
VERTEX
  5
4D8
330
312
100
AcDbEntity
  8
0
  6
CONTINUOUS
 62
     7
100
AcDbVertex
100
AcDb2dVertex
 10
7.8728808127
 20
6.4153150769
 30
0.0
  0
VERTEX
  5
4D9
330
312
100
AcDbEntity
  8
0
  6
CONTINUOUS
 62
     7
100
AcDbVertex
100
AcDb2dVertex
 10
7.8736057041
 20
6.3837668376
 30
0.0
  0
VERTEX
  5
4DA
330
312
100
AcDbEntity
  8
0
  6
CONTINUOUS
 62
     7
100
AcDbVertex
100
AcDb2dVertex
 10
7.8757783912
 20
6.3531420115
 30
0.0
  0
VERTEX
  5
4DB
330
312
100
AcDbEntity
  8
0
  6
CONTINUOUS
 62
     7
100
AcDbVertex
100
AcDb2dVertex
 10
7.879392919
 20
6.3235245392
 30
0.0
  0
VERTEX
  5
4DC
330
312
100
AcDbEntity
  8
0
  6
CONTINUOUS
 62
     7
100
AcDbVertex
100
AcDb2dVertex
 10
7.8844393802
 20
6.2949956
 30
0.0
  0
VERTEX
  5
4DD
330
312
100
AcDbEntity
  8
0
  6
CONTINUOUS
 62
     7
100
AcDbVertex
100
AcDb2dVertex
 10
7.8909039429
 20
6.26763339
 30
0.0
  0
VERTEX
  5
4DE
330
312
100
AcDbEntity
  8
0
  6
CONTINUOUS
 62
     7
100
AcDbVertex
100
AcDb2dVertex
 10
7.8987688882
 20
6.2415129069
 30
0.0
  0
VERTEX
  5
4DF
330
312
100
AcDbEntity
  8
0
  6
CONTINUOUS
 62
     7
100
AcDbVertex
100
AcDb2dVertex
 10
7.9080126586
 20
6.2167057452
 30
0.0
  0
VERTEX
  5
4E0
330
312
100
AcDbEntity
  8
0
  6
CONTINUOUS
 62
     7
100
AcDbVertex
100
AcDb2dVertex
 10
7.9186099179
 20
6.1932798996
 30
0.0
  0
VERTEX
  5
4E1
330
312
100
AcDbEntity
  8
0
  6
CONTINUOUS
 62
     7
100
AcDbVertex
100
AcDb2dVertex
 10
7.9305316195
 20
6.1712995787
 30
0.0
  0
VERTEX
  5
4E2
330
312
100
AcDbEntity
  8
0
  6
CONTINUOUS
 62
     7
100
AcDbVertex
100
AcDb2dVertex
 10
7.9437450869
 20
6.1508250291
 30
0.0
  0
VERTEX
  5
4E3
330
312
100
AcDbEntity
  8
0
  6
CONTINUOUS
 62
     7
100
AcDbVertex
100
AcDb2dVertex
 10
7.958214103
 20
6.13191237
 30
0.0
  0
VERTEX
  5
4E4
330
312
100
AcDbEntity
  8
0
  6
CONTINUOUS
 62
     7
100
AcDbVertex
100
AcDb2dVertex
 10
7.9738990092
 20
6.1146134398
 30
0.0
  0
VERTEX
  5
4E5
330
312
100
AcDbEntity
  8
0
  6
CONTINUOUS
 62
     7
100
AcDbVertex
100
AcDb2dVertex
 10
7.9907568141
 20
6.0989756536
 30
0.0
  0
VERTEX
  5
4E6
330
312
100
AcDbEntity
  8
0
  6
CONTINUOUS
 62
     7
100
AcDbVertex
100
AcDb2dVertex
 10
8.0087413119
 20
6.0850418735
 30
0.0
  0
VERTEX
  5
4E7
330
312
100
AcDbEntity
  8
0
  6
CONTINUOUS
 62
     7
100
AcDbVertex
100
AcDb2dVertex
 10
8.0278032081
 20
6.0728502911
 30
0.0
  0
VERTEX
  5
4E8
330
312
100
AcDbEntity
  8
0
  6
CONTINUOUS
 62
     7
100
AcDbVertex
100
AcDb2dVertex
 10
8.0278336034
 20
6.0728327414
 30
0.0
  0
SEQEND
  5
4E9
330
312
100
AcDbEntity
  8
0
  6
CONTINUOUS
 62
     7
  0
LINE
  5
313
330
1F
100
AcDbEntity
  8
0
  6
CONTINUOUS
 62
     7
100
AcDbLine
 10
9.3686250861
 20
6.7066665715
 30
0.0
 11
9.3686250861
 21
6.6423720194
 31
0.0
  0
LINE
  5
314
330
1F
100
AcDbEntity
  8
0
  6
CONTINUOUS
 62
     7
100
AcDbLine
 10
9.3686250861
 20
6.7066665715
 30
0.0
 11
9.0261513001
 21
6.5089606631
 31
0.0
  0
POLYLINE
  5
315
330
1F
100
AcDbEntity
  8
0
  6
CONTINUOUS
 62
     7
100
AcDb2dPolyline
 66
     1
 10
0.0
 20
0.0
 30
0.0
  0
VERTEX
  5
4EA
330
315
100
AcDbEntity
  8
0
  6
CONTINUOUS
 62
     7
100
AcDbVertex
100
AcDb2dVertex
 10
8.8242273591
 20
6.3923924532
 30
0.0
  0
VERTEX
  5
4EB
330
315
100
AcDbEntity
  8
0
  6
CONTINUOUS
 62
     7
100
AcDbVertex
100
AcDb2dVertex
 10
8.8282202751
 20
6.4082374811
 30
0.0
  0
VERTEX
  5
4EC
330
315
100
AcDbEntity
  8
0
  6
CONTINUOUS
 62
     7
100
AcDbVertex
100
AcDb2dVertex
 10
8.8335696086
 20
6.4242264722
 30
0.0
  0
VERTEX
  5
4ED
330
315
100
AcDbEntity
  8
0
  6
CONTINUOUS
 62
     7
100
AcDbVertex
100
AcDb2dVertex
 10
8.8402005324
 20
6.4401357701
 30
0.0
  0
VERTEX
  5
4EE
330
315
100
AcDbEntity
  8
0
  6
CONTINUOUS
 62
     7
100
AcDbVertex
100
AcDb2dVertex
 10
8.8480202921
 20
6.4557428333
 30
0.0
  0
VERTEX
  5
4EF
330
315
100
AcDbEntity
  8
0
  6
CONTINUOUS
 62
     7
100
AcDbVertex
100
AcDb2dVertex
 10
8.8569195037
 20
6.4708293478
 30
0.0
  0
VERTEX
  5
4F0
330
315
100
AcDbEntity
  8
0
  6
CONTINUOUS
 62
     7
100
AcDbVertex
100
AcDb2dVertex
 10
8.8667736838
 20
6.4851842812
 30
0.0
  0
VERTEX
  5
4F1
330
315
100
AcDbEntity
  8
0
  6
CONTINUOUS
 62
     7
100
AcDbVertex
100
AcDb2dVertex
 10
8.8774449905
 20
6.4986068347
 30
0.0
  0
VERTEX
  5
4F2
330
315
100
AcDbEntity
  8
0
  6
CONTINUOUS
 62
     7
100
AcDbVertex
100
AcDb2dVertex
 10
8.8887841522
 20
6.5109092514
 30
0.0
  0
VERTEX
  5
4F3
330
315
100
AcDbEntity
  8
0
  6
CONTINUOUS
 62
     7
100
AcDbVertex
100
AcDb2dVertex
 10
8.900632555
 20
6.5219194434
 30
0.0
  0
VERTEX
  5
4F4
330
315
100
AcDbEntity
  8
0
  6
CONTINUOUS
 62
     7
100
AcDbVertex
100
AcDb2dVertex
 10
8.9128244615
 20
6.5314833985
 30
0.0
  0
VERTEX
  5
4F5
330
315
100
AcDbEntity
  8
0
  6
CONTINUOUS
 62
     7
100
AcDbVertex
100
AcDb2dVertex
 10
8.9251893296
 20
6.5394673346
 30
0.0
  0
VERTEX
  5
4F6
330
315
100
AcDbEntity
  8
0
  6
CONTINUOUS
 62
     7
100
AcDbVertex
100
AcDb2dVertex
 10
8.9375541978
 20
6.5457595714
 30
0.0
  0
VERTEX
  5
4F7
330
315
100
AcDbEntity
  8
0
  6
CONTINUOUS
 62
     7
100
AcDbVertex
100
AcDb2dVertex
 10
8.9497461043
 20
6.5502720919
 30
0.0
  0
VERTEX
  5
4F8
330
315
100
AcDbEntity
  8
0
  6
CONTINUOUS
 62
     7
100
AcDbVertex
100
AcDb2dVertex
 10
8.961594507
 20
6.5529417745
 30
0.0
  0
VERTEX
  5
4F9
330
315
100
AcDbEntity
  8
0
  6
CONTINUOUS
 62
     7
100
AcDbVertex
100
AcDb2dVertex
 10
8.9729336687
 20
6.5537312752
 30
0.0
  0
VERTEX
  5
4FA
330
315
100
AcDbEntity
  8
0
  6
CONTINUOUS
 62
     7
100
AcDbVertex
100
AcDb2dVertex
 10
8.9836049755
 20
6.5526295504
 30
0.0
  0
VERTEX
  5
4FB
330
315
100
AcDbEntity
  8
0
  6
CONTINUOUS
 62
     7
100
AcDbVertex
100
AcDb2dVertex
 10
8.9934591556
 20
6.5496520111
 30
0.0
  0
VERTEX
  5
4FC
330
315
100
AcDbEntity
  8
0
  6
CONTINUOUS
 62
     7
100
AcDbVertex
100
AcDb2dVertex
 10
9.0023583672
 20
6.5448403076
 30
0.0
  0
VERTEX
  5
4FD
330
315
100
AcDbEntity
  8
0
  6
CONTINUOUS
 62
     7
100
AcDbVertex
100
AcDb2dVertex
 10
9.0101781269
 20
6.5382617467
 30
0.0
  0
VERTEX
  5
4FE
330
315
100
AcDbEntity
  8
0
  6
CONTINUOUS
 62
     7
100
AcDbVertex
100
AcDb2dVertex
 10
9.0168090506
 20
6.5300083504
 30
0.0
  0
VERTEX
  5
4FF
330
315
100
AcDbEntity
  8
0
  6
CONTINUOUS
 62
     7
100
AcDbVertex
100
AcDb2dVertex
 10
9.0221583841
 20
6.5201955683
 30
0.0
  0
VERTEX
  5
500
330
315
100
AcDbEntity
  8
0
  6
CONTINUOUS
 62
     7
100
AcDbVertex
100
AcDb2dVertex
 10
9.0261513001
 20
6.5089606631
 30
0.0
  0
SEQEND
  5
501
330
315
100
AcDbEntity
  8
0
  6
CONTINUOUS
 62
     7
  0
LINE
  5
316
330
1F
100
AcDbEntity
  8
0
  6
CONTINUOUS
 62
     7
100
AcDbLine
 10
8.4182281742
 20
6.1580141126
 30
0.0
 11
8.8242273591
 21
6.3923924532
 31
0.0
  0
LINE
  5
317
330
1F
100
AcDbEntity
  8
0
  6
CONTINUOUS
 62
     7
100
AcDbLine
 10
8.4182281742
 20
6.0937195605
 30
0.0
 11
8.8242273591
 21
6.3280979011
 31
0.0
  0
POLYLINE
  5
318
330
1F
100
AcDbEntity
  8
0
  6
CONTINUOUS
 62
     7
100
AcDb2dPolyline
 66
     1
 10
0.0
 20
0.0
 30
0.0
  0
VERTEX
  5
502
330
318
100
AcDbEntity
  8
0
  6
CONTINUOUS
 62
     7
100
AcDbVertex
100
AcDb2dVertex
 10
9.0261513001
 20
6.444666111
 30
0.0
  0
VERTEX
  5
503
330
318
100
AcDbEntity
  8
0
  6
CONTINUOUS
 62
     7
100
AcDbVertex
100
AcDb2dVertex
 10
9.0221583841
 20
6.4288210832
 30
0.0
  0
VERTEX
  5
504
330
318
100
AcDbEntity
  8
0
  6
CONTINUOUS
 62
     7
100
AcDbVertex
100
AcDb2dVertex
 10
9.0168090506
 20
6.4128320921
 30
0.0
  0
VERTEX
  5
505
330
318
100
AcDbEntity
  8
0
  6
CONTINUOUS
 62
     7
100
AcDbVertex
100
AcDb2dVertex
 10
9.0101781269
 20
6.3969227941
 30
0.0
  0
VERTEX
  5
506
330
318
100
AcDbEntity
  8
0
  6
CONTINUOUS
 62
     7
100
AcDbVertex
100
AcDb2dVertex
 10
9.0023583672
 20
6.3813157309
 30
0.0
  0
VERTEX
  5
507
330
318
100
AcDbEntity
  8
0
  6
CONTINUOUS
 62
     7
100
AcDbVertex
100
AcDb2dVertex
 10
8.9934591556
 20
6.3662292164
 30
0.0
  0
VERTEX
  5
508
330
318
100
AcDbEntity
  8
0
  6
CONTINUOUS
 62
     7
100
AcDbVertex
100
AcDb2dVertex
 10
8.9836049755
 20
6.351874283
 30
0.0
  0
VERTEX
  5
509
330
318
100
AcDbEntity
  8
0
  6
CONTINUOUS
 62
     7
100
AcDbVertex
100
AcDb2dVertex
 10
8.9729336687
 20
6.3384517296
 30
0.0
  0
VERTEX
  5
50A
330
318
100
AcDbEntity
  8
0
  6
CONTINUOUS
 62
     7
100
AcDbVertex
100
AcDb2dVertex
 10
8.961594507
 20
6.3261493128
 30
0.0
  0
VERTEX
  5
50B
330
318
100
AcDbEntity
  8
0
  6
CONTINUOUS
 62
     7
100
AcDbVertex
100
AcDb2dVertex
 10
8.9497461043
 20
6.3151391208
 30
0.0
  0
VERTEX
  5
50C
330
318
100
AcDbEntity
  8
0
  6
CONTINUOUS
 62
     7
100
AcDbVertex
100
AcDb2dVertex
 10
8.9375541978
 20
6.3055751657
 30
0.0
  0
VERTEX
  5
50D
330
318
100
AcDbEntity
  8
0
  6
CONTINUOUS
 62
     7
100
AcDbVertex
100
AcDb2dVertex
 10
8.9251893296
 20
6.2975912296
 30
0.0
  0
VERTEX
  5
50E
330
318
100
AcDbEntity
  8
0
  6
CONTINUOUS
 62
     7
100
AcDbVertex
100
AcDb2dVertex
 10
8.9128244615
 20
6.2912989929
 30
0.0
  0
VERTEX
  5
50F
330
318
100
AcDbEntity
  8
0
  6
CONTINUOUS
 62
     7
100
AcDbVertex
100
AcDb2dVertex
 10
8.900632555
 20
6.2867864723
 30
0.0
  0
VERTEX
  5
510
330
318
100
AcDbEntity
  8
0
  6
CONTINUOUS
 62
     7
100
AcDbVertex
100
AcDb2dVertex
 10
8.8887841522
 20
6.2841167897
 30
0.0
  0
VERTEX
  5
511
330
318
100
AcDbEntity
  8
0
  6
CONTINUOUS
 62
     7
100
AcDbVertex
100
AcDb2dVertex
 10
8.8774449905
 20
6.283327289
 30
0.0
  0
VERTEX
  5
512
330
318
100
AcDbEntity
  8
0
  6
CONTINUOUS
 62
     7
100
AcDbVertex
100
AcDb2dVertex
 10
8.8667736838
 20
6.2844290139
 30
0.0
  0
VERTEX
  5
513
330
318
100
AcDbEntity
  8
0
  6
CONTINUOUS
 62
     7
100
AcDbVertex
100
AcDb2dVertex
 10
8.8569195037
 20
6.2874065531
 30
0.0
  0
VERTEX
  5
514
330
318
100
AcDbEntity
  8
0
  6
CONTINUOUS
 62
     7
100
AcDbVertex
100
AcDb2dVertex
 10
8.8480202921
 20
6.2922182566
 30
0.0
  0
VERTEX
  5
515
330
318
100
AcDbEntity
  8
0
  6
CONTINUOUS
 62
     7
100
AcDbVertex
100
AcDb2dVertex
 10
8.8402005324
 20
6.2987968175
 30
0.0
  0
VERTEX
  5
516
330
318
100
AcDbEntity
  8
0
  6
CONTINUOUS
 62
     7
100
AcDbVertex
100
AcDb2dVertex
 10
8.8335696086
 20
6.3070502138
 30
0.0
  0
VERTEX
  5
517
330
318
100
AcDbEntity
  8
0
  6
CONTINUOUS
 62
     7
100
AcDbVertex
100
AcDb2dVertex
 10
8.8282202751
 20
6.3168629959
 30
0.0
  0
VERTEX
  5
518
330
318
100
AcDbEntity
  8
0
  6
CONTINUOUS
 62
     7
100
AcDbVertex
100
AcDb2dVertex
 10
8.8242273591
 20
6.3280979011
 30
0.0
  0
SEQEND
  5
519
330
318
100
AcDbEntity
  8
0
  6
CONTINUOUS
 62
     7
  0
LINE
  5
319
330
1F
100
AcDbEntity
  8
0
  6
CONTINUOUS
 62
     7
100
AcDbLine
 10
9.0261513001
 20
6.444666111
 30
0.0
 11
9.3686250861
 21
6.6423720194
 31
0.0
  0
LINE
  5
31A
330
1F
100
AcDbEntity
  8
0
  6
CONTINUOUS
 62
     7
100
AcDbLine
 10
8.6859051372
 20
7.2906478019
 30
0.0
 11
8.6859051372
 21
7.3494935769
 31
0.0
  0
SPLINE
  5
31B
330
1F
100
AcDbEntity
  8
0
  6
CONTINUOUS
 62
     7
100
AcDbSpline
210
0.0
220
0.0
230
1.0
 70
     8
 71
     3
 72
     8
 73
     4
 74
     0
 42
0.00000001
 43
0.00000001
 40
0.0
 40
0.0
 40
0.0
 40
0.0
 40
1.0
 40
1.0
 40
1.0
 40
1.0
 10
8.82422735913469
 20
6.328097901095322
 30
0.0
 10
8.824492621681959
 20
6.336457766972125
 30
0.0
 10
8.824809875977818
 20
6.344816387824197
 30
0.0
 10
8.82523596871579
 20
6.353172402367463
 30
0.0
  0
LINE
  5
31C
330
1F
100
AcDbEntity
  8
0
  6
CONTINUOUS
 62
     7
100
AcDbLine
 10
8.7907624229
 20
6.3730735567
 30
0.0
 11
8.8252359687
 21
6.3531724024
 31
0.0
  0
LINE
  5
31D
330
1F
100
AcDbEntity
  8
0
  6
CONTINUOUS
 62
     7
100
AcDbLine
 10
8.0927518373
 20
6.3213799423
 30
0.0
 11
8.037065088
 21
6.2892326663
 31
0.0
  0
SPLINE
  5
31E
330
1F
100
AcDbEntity
  8
0
  6
CONTINUOUS
 62
     7
100
AcDbSpline
210
0.0
220
0.0
230
1.0
 70
     8
 71
     3
 72
     8
 73
     4
 74
     0
 42
0.00000001
 43
0.00000001
 40
0.0
 40
0.0
 40
0.0
 40
0.0
 40
1.0
 40
1.0
 40
1.0
 40
1.0
 10
8.98271628367642
 20
6.508378405206583
 30
0.0
 10
8.997191241797019
 20
6.50862438922274
 30
0.0
 10
9.011670293386954
 20
6.508807533220683
 30
0.0
 10
9.026151300128712
 20
6.508960663124043
 30
0.0
  0
ARC
  5
31F
330
1F
100
AcDbEntity
  8
0
  6
CONTINUOUS
 62
     7
100
AcDbCircle
 10
8.9381014185
 20
6.4908962362
 30
0.0
 40
0.0479177673822408
100
AcDbArc
 50
21.3975446788
 51
120.2438165118
  0
LINE
  5
320
330
1F
100
AcDbEntity
  8
0
  6
CONTINUOUS
 62
     7
100
AcDbLine
 10
8.9827162837
 20
6.5083784052
 30
0.0
 11
8.931802178
 21
6.5377704928
 31
0.0
  0
POLYLINE
  5
321
330
1F
100
AcDbEntity
  8
0
  6
CONTINUOUS
 62
     7
100
AcDb2dPolyline
 66
     1
 10
0.0
 20
0.0
 30
0.0
  0
VERTEX
  5
51A
330
321
100
AcDbEntity
  8
0
  6
CONTINUOUS
 62
     7
100
AcDbVertex
100
AcDb2dVertex
 10
8.8252359687
 20
6.3531724024
 30
0.0
  0
VERTEX
  5
51B
330
321
100
AcDbEntity
  8
0
  6
CONTINUOUS
 62
     7
100
AcDbVertex
100
AcDb2dVertex
 10
8.8297670646
 20
6.3436908288
 30
0.0
  0
VERTEX
  5
51C
330
321
100
AcDbEntity
  8
0
  6
CONTINUOUS
 62
     7
100
AcDbVertex
100
AcDb2dVertex
 10
8.8356842212
 20
6.3358358019
 30
0.0
  0
VERTEX
  5
51D
330
321
100
AcDbEntity
  8
0
  6
CONTINUOUS
 62
     7
100
AcDbVertex
100
AcDb2dVertex
 10
8.8428769192
 20
6.3297540363
 30
0.0
  0
VERTEX
  5
51E
330
321
100
AcDbEntity
  8
0
  6
CONTINUOUS
 62
     7
100
AcDbVertex
100
AcDb2dVertex
 10
8.8512108149
 20
6.3255591259
 30
0.0
  0
VERTEX
  5
51F
330
321
100
AcDbEntity
  8
0
  6
CONTINUOUS
 62
     7
100
AcDbVertex
100
AcDb2dVertex
 10
8.8605302496
 20
6.3233294223
 30
0.0
  0
VERTEX
  5
520
330
321
100
AcDbEntity
  8
0
  6
CONTINUOUS
 62
     7
100
AcDbVertex
100
AcDb2dVertex
 10
8.870661157
 20
6.3231065713
 30
0.0
  0
VERTEX
  5
521
330
321
100
AcDbEntity
  8
0
  6
CONTINUOUS
 62
     7
100
AcDbVertex
100
AcDb2dVertex
 10
8.8814143141
 20
6.3248947354
 30
0.0
  0
VERTEX
  5
522
330
321
100
AcDbEntity
  8
0
  6
CONTINUOUS
 62
     7
100
AcDbVertex
100
AcDb2dVertex
 10
8.8925888759
 20
6.3286605157
 30
0.0
  0
VERTEX
  5
523
330
321
100
AcDbEntity
  8
0
  6
CONTINUOUS
 62
     7
100
AcDbVertex
100
AcDb2dVertex
 10
8.9039761262
 20
6.3343335756
 30
0.0
  0
VERTEX
  5
524
330
321
100
AcDbEntity
  8
0
  6
CONTINUOUS
 62
     7
100
AcDbVertex
100
AcDb2dVertex
 10
8.9153633765
 20
6.3418079551
 30
0.0
  0
VERTEX
  5
525
330
321
100
AcDbEntity
  8
0
  6
CONTINUOUS
 62
     7
100
AcDbVertex
100
AcDb2dVertex
 10
8.9265379383
 20
6.3509440492
 30
0.0
  0
VERTEX
  5
526
330
321
100
AcDbEntity
  8
0
  6
CONTINUOUS
 62
     7
100
AcDbVertex
100
AcDb2dVertex
 10
8.9372910954
 20
6.361571216
 30
0.0
  0
VERTEX
  5
527
330
321
100
AcDbEntity
  8
0
  6
CONTINUOUS
 62
     7
100
AcDbVertex
100
AcDb2dVertex
 10
8.9474220028
 20
6.3734909636
 30
0.0
  0
VERTEX
  5
528
330
321
100
AcDbEntity
  8
0
  6
CONTINUOUS
 62
     7
100
AcDbVertex
100
AcDb2dVertex
 10
8.9567414375
 20
6.3864806576
 30
0.0
  0
VERTEX
  5
529
330
321
100
AcDbEntity
  8
0
  6
CONTINUOUS
 62
     7
100
AcDbVertex
100
AcDb2dVertex
 10
8.9650753332
 20
6.4002976792
 30
0.0
  0
VERTEX
  5
52A
330
321
100
AcDbEntity
  8
0
  6
CONTINUOUS
 62
     7
100
AcDbVertex
100
AcDb2dVertex
 10
8.9722680312
 20
6.4146839571
 30
0.0
  0
VERTEX
  5
52B
330
321
100
AcDbEntity
  8
0
  6
CONTINUOUS
 62
     7
100
AcDbVertex
100
AcDb2dVertex
 10
8.9781851878
 20
6.4293707875
 30
0.0
  0
VERTEX
  5
52C
330
321
100
AcDbEntity
  8
0
  6
CONTINUOUS
 62
     7
100
AcDbVertex
100
AcDb2dVertex
 10
8.9827162837
 20
6.4440838531
 30
0.0
  0
SEQEND
  5
52D
330
321
100
AcDbEntity
  8
0
  6
CONTINUOUS
 62
     7
  0
SPLINE
  5
322
330
1F
100
AcDbEntity
  8
0
  6
CONTINUOUS
 62
     7
100
AcDbSpline
210
0.0
220
0.0
230
1.0
 70
     8
 71
     3
 72
     8
 73
     4
 74
     0
 42
0.00000001
 43
0.00000001
 40
0.0
 40
0.0
 40
0.0
 40
0.0
 40
1.0
 40
1.0
 40
1.0
 40
1.0
 10
8.98271628367642
 20
6.444083853089596
 30
0.0
 10
8.997191241797019
 20
6.444329837105752
 30
0.0
 10
9.011670293386954
 20
6.444512981103695
 30
0.0
 10
9.026151300128712
 20
6.444666111007055
 30
0.0
  0
LINE
  5
323
330
1F
100
AcDbEntity
  8
0
  6
CONTINUOUS
 62
     7
100
AcDbLine
 10
8.9827162837
 20
6.4440838531
 30
0.0
 11
8.8810819406
 21
6.5027561105
 31
0.0
  0
ARC
  5
324
330
1F
100
AcDbEntity
  8
0
  6
CONTINUOUS
 62
     7
100
AcDbCircle
 10
9.0993991613
 20
6.1728715718
 30
0.0
 40
0.5412146236611387
100
AcDbArc
 50
60.1687211216
 51
67.2601564667
  0
POLYLINE
  5
325
330
1F
100
AcDbEntity
  8
0
  6
CONTINUOUS
 62
     7
100
AcDb2dPolyline
 66
     1
 10
0.0
 20
0.0
 30
0.0
  0
VERTEX
  5
52E
330
325
100
AcDbEntity
  8
0
  6
CONTINUOUS
 62
     7
100
AcDbVertex
100
AcDb2dVertex
 10
8.3638733084
 20
6.7619000829
 30
0.0
  0
VERTEX
  5
52F
330
325
100
AcDbEntity
  8
0
  6
CONTINUOUS
 62
     7
100
AcDbVertex
100
AcDb2dVertex
 10
8.3765855637
 20
6.7554141254
 30
0.0
  0
VERTEX
  5
530
330
325
100
AcDbEntity
  8
0
  6
CONTINUOUS
 62
     7
100
AcDbVertex
100
AcDb2dVertex
 10
8.3905821442
 20
6.7498791598
 30
0.0
  0
VERTEX
  5
531
330
325
100
AcDbEntity
  8
0
  6
CONTINUOUS
 62
     7
100
AcDbVertex
100
AcDb2dVertex
 10
8.405650876
 20
6.7453790903
 30
0.0
  0
VERTEX
  5
532
330
325
100
AcDbEntity
  8
0
  6
CONTINUOUS
 62
     7
100
AcDbVertex
100
AcDb2dVertex
 10
8.4215633325
 20
6.7419821336
 30
0.0
  0
VERTEX
  5
533
330
325
100
AcDbEntity
  8
0
  6
CONTINUOUS
 62
     7
100
AcDbVertex
100
AcDb2dVertex
 10
8.4380782971
 20
6.7397397839
 30
0.0
  0
VERTEX
  5
534
330
325
100
AcDbEntity
  8
0
  6
CONTINUOUS
 62
     7
100
AcDbVertex
100
AcDb2dVertex
 10
8.4549454198
 20
6.7386860331
 30
0.0
  0
VERTEX
  5
535
330
325
100
AcDbEntity
  8
0
  6
CONTINUOUS
 62
     7
100
AcDbVertex
100
AcDb2dVertex
 10
8.4719090121
 20
6.7388368549
 30
0.0
  0
VERTEX
  5
536
330
325
100
AcDbEntity
  8
0
  6
CONTINUOUS
 62
     7
100
AcDbVertex
100
AcDb2dVertex
 10
8.4887119233
 20
6.7401899631
 30
0.0
  0
VERTEX
  5
537
330
325
100
AcDbEntity
  8
0
  6
CONTINUOUS
 62
     7
100
AcDbVertex
100
AcDb2dVertex
 10
8.5050994384
 20
6.7427248458
 30
0.0
  0
VERTEX
  5
538
330
325
100
AcDbEntity
  8
0
  6
CONTINUOUS
 62
     7
100
AcDbVertex
100
AcDb2dVertex
 10
8.5208231394
 20
6.7464030769
 30
0.0
  0
VERTEX
  5
539
330
325
100
AcDbEntity
  8
0
  6
CONTINUOUS
 62
     7
100
AcDbVertex
100
AcDb2dVertex
 10
8.535644671
 20
6.751168898
 30
0.0
  0
VERTEX
  5
53A
330
325
100
AcDbEntity
  8
0
  6
CONTINUOUS
 62
     7
100
AcDbVertex
100
AcDb2dVertex
 10
8.5493393538
 20
6.7569500643
 30
0.0
  0
VERTEX
  5
53B
330
325
100
AcDbEntity
  8
0
  6
CONTINUOUS
 62
     7
100
AcDbVertex
100
AcDb2dVertex
 10
8.5616995905
 20
6.7636589391
 30
0.0
  0
VERTEX
  5
53C
330
325
100
AcDbEntity
  8
0
  6
CONTINUOUS
 62
     7
100
AcDbVertex
100
AcDb2dVertex
 10
8.5725380125
 20
6.7711938228
 30
0.0
  0
VERTEX
  5
53D
330
325
100
AcDbEntity
  8
0
  6
CONTINUOUS
 62
     7
100
AcDbVertex
100
AcDb2dVertex
 10
8.5816903202
 20
6.7794404941
 30
0.0
  0
VERTEX
  5
53E
330
325
100
AcDbEntity
  8
0
  6
CONTINUOUS
 62
     7
100
AcDbVertex
100
AcDb2dVertex
 10
8.5890177742
 20
6.788273942
 30
0.0
  0
VERTEX
  5
53F
330
325
100
AcDbEntity
  8
0
  6
CONTINUOUS
 62
     7
100
AcDbVertex
100
AcDb2dVertex
 10
8.5944092976
 20
6.7975602603
 30
0.0
  0
VERTEX
  5
540
330
325
100
AcDbEntity
  8
0
  6
CONTINUOUS
 62
     7
100
AcDbVertex
100
AcDb2dVertex
 10
8.5977831604
 20
6.807158678
 30
0.0
  0
VERTEX
  5
541
330
325
100
AcDbEntity
  8
0
  6
CONTINUOUS
 62
     7
100
AcDbVertex
100
AcDb2dVertex
 10
8.5990882184
 20
6.8169236928
 30
0.0
  0
VERTEX
  5
542
330
325
100
AcDbEntity
  8
0
  6
CONTINUOUS
 62
     7
100
AcDbVertex
100
AcDb2dVertex
 10
8.5983046881
 20
6.826707277
 30
0.0
  0
VERTEX
  5
543
330
325
100
AcDbEntity
  8
0
  6
CONTINUOUS
 62
     7
100
AcDbVertex
100
AcDb2dVertex
 10
8.5954444471
 20
6.8363611216
 30
0.0
  0
VERTEX
  5
544
330
325
100
AcDbEntity
  8
0
  6
CONTINUOUS
 62
     7
100
AcDbVertex
100
AcDb2dVertex
 10
8.5905508538
 20
6.845738884
 30
0.0
  0
VERTEX
  5
545
330
325
100
AcDbEntity
  8
0
  6
CONTINUOUS
 62
     7
100
AcDbVertex
100
AcDb2dVertex
 10
8.5836980899
 20
6.8546984069
 30
0.0
  0
VERTEX
  5
546
330
325
100
AcDbEntity
  8
0
  6
CONTINUOUS
 62
     7
100
AcDbVertex
100
AcDb2dVertex
 10
8.5749900365
 20
6.8631038732
 30
0.0
  0
VERTEX
  5
547
330
325
100
AcDbEntity
  8
0
  6
CONTINUOUS
 62
     7
100
AcDbVertex
100
AcDb2dVertex
 10
8.5645586988
 20
6.8708278644
 30
0.0
  0
VERTEX
  5
548
330
325
100
AcDbEntity
  8
0
  6
CONTINUOUS
 62
     7
100
AcDbVertex
100
AcDb2dVertex
 10
8.5525622051
 20
6.8777532928
 30
0.0
  0
VERTEX
  5
549
330
325
100
AcDbEntity
  8
0
  6
CONTINUOUS
 62
     7
100
AcDbVertex
100
AcDb2dVertex
 10
8.5391824101
 20
6.8837751759
 30
0.0
  0
VERTEX
  5
54A
330
325
100
AcDbEntity
  8
0
  6
CONTINUOUS
 62
     7
100
AcDbVertex
100
AcDb2dVertex
 10
8.5246221379
 20
6.8888022281
 30
0.0
  0
VERTEX
  5
54B
330
325
100
AcDbEntity
  8
0
  6
CONTINUOUS
 62
     7
100
AcDbVertex
100
AcDb2dVertex
 10
8.5091021074
 20
6.8927582445
 30
0.0
  0
VERTEX
  5
54C
330
325
100
AcDbEntity
  8
0
  6
CONTINUOUS
 62
     7
100
AcDbVertex
100
AcDb2dVertex
 10
8.4928575863
 20
6.8955832558
 30
0.0
  0
VERTEX
  5
54D
330
325
100
AcDbEntity
  8
0
  6
CONTINUOUS
 62
     7
100
AcDbVertex
100
AcDb2dVertex
 10
8.4761348251
 20
6.8972344378
 30
0.0
  0
VERTEX
  5
54E
330
325
100
AcDbEntity
  8
0
  6
CONTINUOUS
 62
     7
100
AcDbVertex
100
AcDb2dVertex
 10
8.4591873238
 20
6.8976867602
 30
0.0
  0
VERTEX
  5
54F
330
325
100
AcDbEntity
  8
0
  6
CONTINUOUS
 62
     7
100
AcDbVertex
100
AcDb2dVertex
 10
8.4422719892
 20
6.8969333662
 30
0.0
  0
VERTEX
  5
550
330
325
100
AcDbEntity
  8
0
  6
CONTINUOUS
 62
     7
100
AcDbVertex
100
AcDb2dVertex
 10
8.4256452405
 20
6.8949856767
 30
0.0
  0
VERTEX
  5
551
330
325
100
AcDbEntity
  8
0
  6
CONTINUOUS
 62
     7
100
AcDbVertex
100
AcDb2dVertex
 10
8.4095591224
 20
6.8918732165
 30
0.0
  0
VERTEX
  5
552
330
325
100
AcDbEntity
  8
0
  6
CONTINUOUS
 62
     7
100
AcDbVertex
100
AcDb2dVertex
 10
8.3942574839
 20
6.8876431673
 30
0.0
  0
VERTEX
  5
553
330
325
100
AcDbEntity
  8
0
  6
CONTINUOUS
 62
     7
100
AcDbVertex
100
AcDb2dVertex
 10
8.3799722824
 20
6.8823596525
 30
0.0
  0
VERTEX
  5
554
330
325
100
AcDbEntity
  8
0
  6
CONTINUOUS
 62
     7
100
AcDbVertex
100
AcDb2dVertex
 10
8.3669200669
 20
6.8761027647
 30
0.0
  0
VERTEX
  5
555
330
325
100
AcDbEntity
  8
0
  6
CONTINUOUS
 62
     7
100
AcDbVertex
100
AcDb2dVertex
 10
8.3552986956
 20
6.8689673519
 30
0.0
  0
VERTEX
  5
556
330
325
100
AcDbEntity
  8
0
  6
CONTINUOUS
 62
     7
100
AcDbVertex
100
AcDb2dVertex
 10
8.3452843368
 20
6.8610615798
 30
0.0
  0
VERTEX
  5
557
330
325
100
AcDbEntity
  8
0
  6
CONTINUOUS
 62
     7
100
AcDbVertex
100
AcDb2dVertex
 10
8.3370287979
 20
6.8525052918
 30
0.0
  0
VERTEX
  5
558
330
325
100
AcDbEntity
  8
0
  6
CONTINUOUS
 62
     7
100
AcDbVertex
100
AcDb2dVertex
 10
8.3306572244
 20
6.8434281924
 30
0.0
  0
VERTEX
  5
559
330
325
100
AcDbEntity
  8
0
  6
CONTINUOUS
 62
     7
100
AcDbVertex
100
AcDb2dVertex
 10
8.326266203
 20
6.8339678813
 30
0.0
  0
VERTEX
  5
55A
330
325
100
AcDbEntity
  8
0
  6
CONTINUOUS
 62
     7
100
AcDbVertex
100
AcDb2dVertex
 10
8.323922297
 20
6.8242677671
 30
0.0
  0
VERTEX
  5
55B
330
325
100
AcDbEntity
  8
0
  6
CONTINUOUS
 62
     7
100
AcDbVertex
100
AcDb2dVertex
 10
8.3236610376
 20
6.8144748937
 30
0.0
  0
VERTEX
  5
55C
330
325
100
AcDbEntity
  8
0
  6
CONTINUOUS
 62
     7
100
AcDbVertex
100
AcDb2dVertex
 10
8.3254863853
 20
6.8047377111
 30
0.0
  0
VERTEX
  5
55D
330
325
100
AcDbEntity
  8
0
  6
CONTINUOUS
 62
     7
100
AcDbVertex
100
AcDb2dVertex
 10
8.3293706697
 20
6.7952038249
 30
0.0
  0
VERTEX
  5
55E
330
325
100
AcDbEntity
  8
0
  6
CONTINUOUS
 62
     7
100
AcDbVertex
100
AcDb2dVertex
 10
8.3352550089
 20
6.7860177593
 30
0.0
  0
VERTEX
  5
55F
330
325
100
AcDbEntity
  8
0
  6
CONTINUOUS
 62
     7
100
AcDbVertex
100
AcDb2dVertex
 10
8.3430502025
 20
6.7773187656
 30
0.0
  0
VERTEX
  5
560
330
325
100
AcDbEntity
  8
0
  6
CONTINUOUS
 62
     7
100
AcDbVertex
100
AcDb2dVertex
 10
8.3526380831
 20
6.7692387117
 30
0.0
  0
VERTEX
  5
561
330
325
100
AcDbEntity
  8
0
  6
CONTINUOUS
 62
     7
100
AcDbVertex
100
AcDb2dVertex
 10
8.3638733084
 20
6.7619000829
 30
0.0
  0
SEQEND
  5
562
330
325
100
AcDbEntity
  8
0
  6
CONTINUOUS
 62
     7
  0
LINE
  5
326
330
1F
100
AcDbEntity
  8
0
  6
CONTINUOUS
 62
     7
100
AcDbLine
 10
8.4848414468
 20
6.7674493995
 30
0.0
 11
8.5491325162
 21
6.8045638438
 31
0.0
  0
LINE
  5
327
330
1F
100
AcDbEntity
  8
0
  6
CONTINUOUS
 62
     7
100
AcDbLine
 10
8.5491325162
 20
6.8045638438
 30
0.0
 11
8.5256003515
 21
6.8552631176
 31
0.0
  0
LINE
  5
328
330
1F
100
AcDbEntity
  8
0
  6
CONTINUOUS
 62
     7
100
AcDbLine
 10
8.5256003515
 20
6.8552631176
 30
0.0
 11
8.4377771175
 21
6.8688479471
 31
0.0
  0
LINE
  5
329
330
1F
100
AcDbEntity
  8
0
  6
CONTINUOUS
 62
     7
100
AcDbLine
 10
8.4377771175
 20
6.8688479471
 30
0.0
 11
8.3734860482
 21
6.8317335028
 31
0.0
  0
LINE
  5
32A
330
1F
100
AcDbEntity
  8
0
  6
CONTINUOUS
 62
     7
100
AcDbLine
 10
8.3734860482
 20
6.8317335028
 30
0.0
 11
8.3970182128
 21
6.7810342289
 31
0.0
  0
LINE
  5
32B
330
1F
100
AcDbEntity
  8
0
  6
CONTINUOUS
 62
     7
100
AcDbLine
 10
8.3970182128
 20
6.7810342289
 30
0.0
 11
8.4848414468
 21
6.7674493995
 31
0.0
  0
LINE
  5
32C
330
1F
100
AcDbEntity
  8
0
  6
CONTINUOUS
 62
     7
100
AcDbLine
 10
8.5256003515
 20
6.7909790143
 30
0.0
 11
8.5256003515
 21
6.8552631176
 31
0.0
  0
LINE
  5
32D
330
1F
100
AcDbEntity
  8
0
  6
CONTINUOUS
 62
     7
100
AcDbLine
 10
8.4377771175
 20
6.7747294876
 30
0.0
 11
8.4377771175
 21
6.8688479471
 31
0.0
  0
POLYLINE
  5
32E
330
1F
100
AcDbEntity
  8
0
  6
CONTINUOUS
 62
     7
100
AcDb2dPolyline
 66
     1
 10
0.0
 20
0.0
 30
0.0
  0
VERTEX
  5
563
330
32E
100
AcDbEntity
  8
0
  6
CONTINUOUS
 62
     7
100
AcDbVertex
100
AcDb2dVertex
 10
8.3536830574
 20
7.6081294604
 30
0.0
  0
VERTEX
  5
564
330
32E
100
AcDbEntity
  8
0
  6
CONTINUOUS
 62
     7
100
AcDbVertex
100
AcDb2dVertex
 10
8.3383394661
 20
7.6198520851
 30
0.0
  0
VERTEX
  5
565
330
32E
100
AcDbEntity
  8
0
  6
CONTINUOUS
 62
     7
100
AcDbVertex
100
AcDb2dVertex
 10
8.3192775699
 20
7.6320436676
 30
0.0
  0
VERTEX
  5
566
330
32E
100
AcDbEntity
  8
0
  6
CONTINUOUS
 62
     7
100
AcDbVertex
100
AcDb2dVertex
 10
8.2991905225
 20
7.6424596362
 30
0.0
  0
VERTEX
  5
567
330
32E
100
AcDbEntity
  8
0
  6
CONTINUOUS
 62
     7
100
AcDbVertex
100
AcDb2dVertex
 10
8.2781333811
 20
7.6510714414
 30
0.0
  0
VERTEX
  5
568
330
32E
100
AcDbEntity
  8
0
  6
CONTINUOUS
 62
     7
100
AcDbVertex
100
AcDb2dVertex
 10
8.2561638619
 20
7.6578554789
 30
0.0
  0
VERTEX
  5
569
330
32E
100
AcDbEntity
  8
0
  6
CONTINUOUS
 62
     7
100
AcDbVertex
100
AcDb2dVertex
 10
8.2333421819
 20
7.6627931541
 30
0.0
  0
VERTEX
  5
56A
330
32E
100
AcDbEntity
  8
0
  6
CONTINUOUS
 62
     7
100
AcDbVertex
100
AcDb2dVertex
 10
8.2097308935
 20
7.6658709333
 30
0.0
  0
VERTEX
  5
56B
330
32E
100
AcDbEntity
  8
0
  6
CONTINUOUS
 62
     7
100
AcDbVertex
100
AcDb2dVertex
 10
8.1853947139
 20
7.6670803803
 30
0.0
  0
VERTEX
  5
56C
330
32E
100
AcDbEntity
  8
0
  6
CONTINUOUS
 62
     7
100
AcDbVertex
100
AcDb2dVertex
 10
8.1604003467
 20
7.6664181802
 30
0.0
  0
VERTEX
  5
56D
330
32E
100
AcDbEntity
  8
0
  6
CONTINUOUS
 62
     7
100
AcDbVertex
100
AcDb2dVertex
 10
8.1348162997
 20
7.6638861481
 30
0.0
  0
VERTEX
  5
56E
330
32E
100
AcDbEntity
  8
0
  6
CONTINUOUS
 62
     7
100
AcDbVertex
100
AcDb2dVertex
 10
8.1087126971
 20
7.6594912241
 30
0.0
  0
VERTEX
  5
56F
330
32E
100
AcDbEntity
  8
0
  6
CONTINUOUS
 62
     7
100
AcDbVertex
100
AcDb2dVertex
 10
8.082161087
 20
7.6532454543
 30
0.0
  0
VERTEX
  5
570
330
32E
100
AcDbEntity
  8
0
  6
CONTINUOUS
 62
     7
100
AcDbVertex
100
AcDb2dVertex
 10
8.0552342456
 20
7.645165958
 30
0.0
  0
VERTEX
  5
571
330
32E
100
AcDbEntity
  8
0
  6
CONTINUOUS
 62
     7
100
AcDbVertex
100
AcDb2dVertex
 10
8.0280059773
 20
7.6352748805
 30
0.0
  0
VERTEX
  5
572
330
32E
100
AcDbEntity
  8
0
  6
CONTINUOUS
 62
     7
100
AcDbVertex
100
AcDb2dVertex
 10
8.0005509131
 20
7.6235993325
 30
0.0
  0
VERTEX
  5
573
330
32E
100
AcDbEntity
  8
0
  6
CONTINUOUS
 62
     7
100
AcDbVertex
100
AcDb2dVertex
 10
7.9729443054
 20
7.610171316
 30
0.0
  0
VERTEX
  5
574
330
32E
100
AcDbEntity
  8
0
  6
CONTINUOUS
 62
     7
100
AcDbVertex
100
AcDb2dVertex
 10
7.9452618218
 20
7.5950276362
 30
0.0
  0
VERTEX
  5
575
330
32E
100
AcDbEntity
  8
0
  6
CONTINUOUS
 62
     7
100
AcDbVertex
100
AcDb2dVertex
 10
7.9175793383
 20
7.5782098009
 30
0.0
  0
VERTEX
  5
576
330
32E
100
AcDbEntity
  8
0
  6
CONTINUOUS
 62
     7
100
AcDbVertex
100
AcDb2dVertex
 10
7.8899727306
 20
7.5597639065
 30
0.0
  0
VERTEX
  5
577
330
32E
100
AcDbEntity
  8
0
  6
CONTINUOUS
 62
     7
100
AcDbVertex
100
AcDb2dVertex
 10
7.8625176663
 20
7.539740512
 30
0.0
  0
VERTEX
  5
578
330
32E
100
AcDbEntity
  8
0
  6
CONTINUOUS
 62
     7
100
AcDbVertex
100
AcDb2dVertex
 10
7.8352893981
 20
7.5181945002
 30
0.0
  0
VERTEX
  5
579
330
32E
100
AcDbEntity
  8
0
  6
CONTINUOUS
 62
     7
100
AcDbVertex
100
AcDb2dVertex
 10
7.8083625567
 20
7.4951849271
 30
0.0
  0
VERTEX
  5
57A
330
32E
100
AcDbEntity
  8
0
  6
CONTINUOUS
 62
     7
100
AcDbVertex
100
AcDb2dVertex
 10
7.7818109466
 20
7.4707748604
 30
0.0
  0
VERTEX
  5
57B
330
32E
100
AcDbEntity
  8
0
  6
CONTINUOUS
 62
     7
100
AcDbVertex
100
AcDb2dVertex
 10
7.755707344
 20
7.4450312064
 30
0.0
  0
VERTEX
  5
57C
330
32E
100
AcDbEntity
  8
0
  6
CONTINUOUS
 62
     7
100
AcDbVertex
100
AcDb2dVertex
 10
7.730123297
 20
7.4180245267
 30
0.0
  0
VERTEX
  5
57D
330
32E
100
AcDbEntity
  8
0
  6
CONTINUOUS
 62
     7
100
AcDbVertex
100
AcDb2dVertex
 10
7.7051289298
 20
7.3898288446
 30
0.0
  0
VERTEX
  5
57E
330
32E
100
AcDbEntity
  8
0
  6
CONTINUOUS
 62
     7
100
AcDbVertex
100
AcDb2dVertex
 10
7.6807927501
 20
7.3605214426
 30
0.0
  0
VERTEX
  5
57F
330
32E
100
AcDbEntity
  8
0
  6
CONTINUOUS
 62
     7
100
AcDbVertex
100
AcDb2dVertex
 10
7.6571814618
 20
7.3301826503
 30
0.0
  0
VERTEX
  5
580
330
32E
100
AcDbEntity
  8
0
  6
CONTINUOUS
 62
     7
100
AcDbVertex
100
AcDb2dVertex
 10
7.6343597818
 20
7.2988956241
 30
0.0
  0
VERTEX
  5
581
330
32E
100
AcDbEntity
  8
0
  6
CONTINUOUS
 62
     7
100
AcDbVertex
100
AcDb2dVertex
 10
7.6123902626
 20
7.2667461197
 30
0.0
  0
VERTEX
  5
582
330
32E
100
AcDbEntity
  8
0
  6
CONTINUOUS
 62
     7
100
AcDbVertex
100
AcDb2dVertex
 10
7.5913331212
 20
7.2338222565
 30
0.0
  0
VERTEX
  5
583
330
32E
100
AcDbEntity
  8
0
  6
CONTINUOUS
 62
     7
100
AcDbVertex
100
AcDb2dVertex
 10
7.5712460738
 20
7.2002142767
 30
0.0
  0
VERTEX
  5
584
330
32E
100
AcDbEntity
  8
0
  6
CONTINUOUS
 62
     7
100
AcDbVertex
100
AcDb2dVertex
 10
7.5521841776
 20
7.1660142973
 30
0.0
  0
VERTEX
  5
585
330
32E
100
AcDbEntity
  8
0
  6
CONTINUOUS
 62
     7
100
AcDbVertex
100
AcDb2dVertex
 10
7.5341996798
 20
7.1313160581
 30
0.0
  0
VERTEX
  5
586
330
32E
100
AcDbEntity
  8
0
  6
CONTINUOUS
 62
     7
100
AcDbVertex
100
AcDb2dVertex
 10
7.5173418749
 20
7.0962146645
 30
0.0
  0
VERTEX
  5
587
330
32E
100
AcDbEntity
  8
0
  6
CONTINUOUS
 62
     7
100
AcDbVertex
100
AcDb2dVertex
 10
7.5016569687
 20
7.0608063272
 30
0.0
  0
VERTEX
  5
588
330
32E
100
AcDbEntity
  8
0
  6
CONTINUOUS
 62
     7
100
AcDbVertex
100
AcDb2dVertex
 10
7.4871879526
 20
7.0251880977
 30
0.0
  0
VERTEX
  5
589
330
32E
100
AcDbEntity
  8
0
  6
CONTINUOUS
 62
     7
100
AcDbVertex
100
AcDb2dVertex
 10
7.4739744852
 20
6.9894576033
 30
0.0
  0
VERTEX
  5
58A
330
32E
100
AcDbEntity
  8
0
  6
CONTINUOUS
 62
     7
100
AcDbVertex
100
AcDb2dVertex
 10
7.4620527836
 20
6.9537127787
 30
0.0
  0
VERTEX
  5
58B
330
32E
100
AcDbEntity
  8
0
  6
CONTINUOUS
 62
     7
100
AcDbVertex
100
AcDb2dVertex
 10
7.4514555243
 20
6.9180515981
 30
0.0
  0
VERTEX
  5
58C
330
32E
100
AcDbEntity
  8
0
  6
CONTINUOUS
 62
     7
100
AcDbVertex
100
AcDb2dVertex
 10
7.4422117538
 20
6.8825718061
 30
0.0
  0
VERTEX
  5
58D
330
32E
100
AcDbEntity
  8
0
  6
CONTINUOUS
 62
     7
100
AcDbVertex
100
AcDb2dVertex
 10
7.4343468086
 20
6.8473706506
 30
0.0
  0
VERTEX
  5
58E
330
32E
100
AcDbEntity
  8
0
  6
CONTINUOUS
 62
     7
100
AcDbVertex
100
AcDb2dVertex
 10
7.4278822459
 20
6.8125446153
 30
0.0
  0
VERTEX
  5
58F
330
32E
100
AcDbEntity
  8
0
  6
CONTINUOUS
 62
     7
100
AcDbVertex
100
AcDb2dVertex
 10
7.4228357847
 20
6.7781891561
 30
0.0
  0
VERTEX
  5
590
330
32E
100
AcDbEntity
  8
0
  6
CONTINUOUS
 62
     7
100
AcDbVertex
100
AcDb2dVertex
 10
7.4192212569
 20
6.7443984388
 30
0.0
  0
VERTEX
  5
591
330
32E
100
AcDbEntity
  8
0
  6
CONTINUOUS
 62
     7
100
AcDbVertex
100
AcDb2dVertex
 10
7.4170485698
 20
6.7112650815
 30
0.0
  0
VERTEX
  5
592
330
32E
100
AcDbEntity
  8
0
  6
CONTINUOUS
 62
     7
100
AcDbVertex
100
AcDb2dVertex
 10
7.4163236784
 20
6.6788799004
 30
0.0
  0
VERTEX
  5
593
330
32E
100
AcDbEntity
  8
0
  6
CONTINUOUS
 62
     7
100
AcDbVertex
100
AcDb2dVertex
 10
7.4170485698
 20
6.6473316611
 30
0.0
  0
VERTEX
  5
594
330
32E
100
AcDbEntity
  8
0
  6
CONTINUOUS
 62
     7
100
AcDbVertex
100
AcDb2dVertex
 10
7.4192212569
 20
6.616706835
 30
0.0
  0
VERTEX
  5
595
330
32E
100
AcDbEntity
  8
0
  6
CONTINUOUS
 62
     7
100
AcDbVertex
100
AcDb2dVertex
 10
7.4228357847
 20
6.5870893627
 30
0.0
  0
VERTEX
  5
596
330
32E
100
AcDbEntity
  8
0
  6
CONTINUOUS
 62
     7
100
AcDbVertex
100
AcDb2dVertex
 10
7.4278822459
 20
6.5585604235
 30
0.0
  0
VERTEX
  5
597
330
32E
100
AcDbEntity
  8
0
  6
CONTINUOUS
 62
     7
100
AcDbVertex
100
AcDb2dVertex
 10
7.4343468086
 20
6.5311982135
 30
0.0
  0
VERTEX
  5
598
330
32E
100
AcDbEntity
  8
0
  6
CONTINUOUS
 62
     7
100
AcDbVertex
100
AcDb2dVertex
 10
7.4422117538
 20
6.5050777304
 30
0.0
  0
VERTEX
  5
599
330
32E
100
AcDbEntity
  8
0
  6
CONTINUOUS
 62
     7
100
AcDbVertex
100
AcDb2dVertex
 10
7.4514555243
 20
6.4802705687
 30
0.0
  0
VERTEX
  5
59A
330
32E
100
AcDbEntity
  8
0
  6
CONTINUOUS
 62
     7
100
AcDbVertex
100
AcDb2dVertex
 10
7.4620527836
 20
6.4568447231
 30
0.0
  0
VERTEX
  5
59B
330
32E
100
AcDbEntity
  8
0
  6
CONTINUOUS
 62
     7
100
AcDbVertex
100
AcDb2dVertex
 10
7.4739744852
 20
6.4348644022
 30
0.0
  0
VERTEX
  5
59C
330
32E
100
AcDbEntity
  8
0
  6
CONTINUOUS
 62
     7
100
AcDbVertex
100
AcDb2dVertex
 10
7.4871879526
 20
6.4143898526
 30
0.0
  0
VERTEX
  5
59D
330
32E
100
AcDbEntity
  8
0
  6
CONTINUOUS
 62
     7
100
AcDbVertex
100
AcDb2dVertex
 10
7.5016569687
 20
6.3954771935
 30
0.0
  0
VERTEX
  5
59E
330
32E
100
AcDbEntity
  8
0
  6
CONTINUOUS
 62
     7
100
AcDbVertex
100
AcDb2dVertex
 10
7.5173418749
 20
6.3781782633
 30
0.0
  0
VERTEX
  5
59F
330
32E
100
AcDbEntity
  8
0
  6
CONTINUOUS
 62
     7
100
AcDbVertex
100
AcDb2dVertex
 10
7.5341996798
 20
6.3625404771
 30
0.0
  0
VERTEX
  5
5A0
330
32E
100
AcDbEntity
  8
0
  6
CONTINUOUS
 62
     7
100
AcDbVertex
100
AcDb2dVertex
 10
7.5521841776
 20
6.348606697
 30
0.0
  0
VERTEX
  5
5A1
330
32E
100
AcDbEntity
  8
0
  6
CONTINUOUS
 62
     7
100
AcDbVertex
100
AcDb2dVertex
 10
7.5712460738
 20
6.3364151146
 30
0.0
  0
VERTEX
  5
5A2
330
32E
100
AcDbEntity
  8
0
  6
CONTINUOUS
 62
     7
100
AcDbVertex
100
AcDb2dVertex
 10
7.5913331212
 20
6.325999146
 30
0.0
  0
VERTEX
  5
5A3
330
32E
100
AcDbEntity
  8
0
  6
CONTINUOUS
 62
     7
100
AcDbVertex
100
AcDb2dVertex
 10
7.6092215954
 20
6.3185446546
 30
0.0
  0
SEQEND
  5
5A4
330
32E
100
AcDbEntity
  8
0
  6
CONTINUOUS
 62
     7
  0
SPLINE
  5
32F
330
1F
100
AcDbEntity
  8
0
  6
CONTINUOUS
 62
     7
100
AcDbSpline
210
0.0
220
0.0
230
1.0
 70
     8
 71
     3
 72
    22
 73
    18
 74
     0
 42
0.00000001
 43
0.00000001
 40
0.0
 40
0.0
 40
0.0
 40
0.0
 40
0.0843639021135379
 40
0.1870789530853449
 40
0.2920479132597618
 40
0.3580567529851312
 40
0.425455301667475
 40
0.4780881586867913
 40
0.5321333212434083
 40
0.5848291372003197
 40
0.6392824006320963
 40
0.689039612010967
 40
0.7398077077892529
 40
0.8234138433553337
 40
0.909314412203431
 40
0.9723909936278006
 40
1.0
 40
1.0
 40
1.0
 40
1.0
 10
8.059059852642514
 20
7.781972272018304
 30
0.0
 10
8.051520515054944
 20
7.786331357424058
 30
0.0
 10
8.0348018552075
 20
7.795997732659057
 30
0.0
 10
8.005543493686982
 20
7.810809370472394
 30
0.0
 10
7.976992208433773
 20
7.824725428766332
 30
0.0
 10
7.951582388267245
 20
7.836937403753794
 30
0.0
 10
7.931866819672019
 20
7.846564491497309
 30
0.0
 10
7.914126909786348
 20
7.855562780377766
 30
0.0
 10
7.898991292448802
 20
7.863664683770822
 30
0.0
 10
7.885428800411448
 20
7.871482020995563
 30
0.0
 10
7.874375345046992
 20
7.878470309474337
 30
0.0
 10
7.865666565948334
 20
7.884578655075742
 30
0.0
 10
7.857722042622314
 20
7.890819385083457
 30
0.0
 10
7.851593319777208
 20
7.896643681516521
 30
0.0
 10
7.848782928987204
 20
7.900497079115969
 30
0.0
 10
7.848203946492511
 20
7.902273719385761
 30
0.0
 10
7.848769228999504
 20
7.902410004448698
 30
0.0
 10
7.848941327882213
 20
7.902451496104236
 30
0.0
  0
SPLINE
  5
330
330
1F
100
AcDbEntity
  8
0
  6
CONTINUOUS
 62
     7
100
AcDbSpline
210
0.0
220
0.0
230
1.0
 70
     8
 71
     3
 72
    50
 73
    46
 74
     0
 42
0.00000001
 43
0.00000001
 40
-0.0625000000000001
 40
-0.0625000000000001
 40
0.0
 40
0.0
 40
0.03125
 40
0.03125
 40
0.0625000000000001
 40
0.0625000000000001
 40
0.0937500000000001
 40
0.0937500000000001
 40
0.1250000000000002
 40
0.1250000000000002
 40
0.1875000000000005
 40
0.1875000000000005
 40
0.2500000000000007
 40
0.2500000000000007
 40
0.3125000000000008
 40
0.3125000000000008
 40
0.3750000000000009
 40
0.3750000000000009
 40
0.437500000000001
 40
0.437500000000001
 40
0.468750000000001
 40
0.468750000000001
 40
0.500000000000001
 40
0.500000000000001
 40
0.5312500000000009
 40
0.5312500000000009
 40
0.5625000000000009
 40
0.5625000000000009
 40
0.5937500000000008
 40
0.5937500000000008
 40
0.6250000000000008
 40
0.6250000000000008
 40
0.6875000000000007
 40
0.6875000000000007
 40
0.7500000000000004
 40
0.7500000000000004
 40
0.8125000000000003
 40
0.8125000000000003
 40
0.8750000000000002
 40
0.8750000000000002
 40
0.9062500000000001
 40
0.9062500000000001
 40
0.9374999999999999
 40
0.9374999999999999
 40
1.0
 40
1.0
 40
1.03125
 40
1.03125
 10
7.2176665605204
 20
7.402149441531082
 30
0.0
 10
7.202175985853325
 20
7.411091959939527
 30
0.0
 10
7.196598702948933
 20
7.413003187723171
 30
0.0
 10
7.184719230055568
 20
7.414908626427805
 30
0.0
 10
7.178476798666191
 20
7.414863599563948
 30
0.0
 10
7.166082519253767
 20
7.413109987268259
 30
0.0
 10
7.159803253797315
 20
7.411385705205519
 30
0.0
 10
7.147717263982605
 20
7.406702361588594
 30
0.0
 10
7.141842616529319
 20
7.403739048099015
 30
0.0
 10
7.124706744298928
 20
7.393221142858444
 30
0.0
 10
7.114272688611716
 20
7.384265014889842
 30
0.0
 10
7.095884113415281
 20
7.363544867822023
 30
0.0
 10
7.087931704373644
 20
7.35172130714063
 30
0.0
 10
7.075477130681861
 20
7.326319777059782
 30
0.0
 10
7.070871261426208
 20
7.312439064831303
 30
0.0
 10
7.06601964815532
 20
7.284361125992655
 30
0.0
 10
7.06570515034401
 20
7.269614031394382
 30
0.0
 10
7.069996338937334
 20
7.2416353841111
 30
0.0
 10
7.074643884644074
 20
7.228163893681423
 30
0.0
 10
7.084856696202761
 20
7.211143649225487
 30
0.0
 10
7.088865161325757
 20
7.205900318843517
 30
0.0
 10
7.097586627114646
 20
7.196973272105046
 30
0.0
 10
7.102376723497252
 20
7.193178648622593
 30
0.0
 10
7.112628851816631
 20
7.187165264177057
 30
0.0
 10
7.117942306123921
 20
7.185019501179291
 30
0.0
 10
7.128943940018313
 20
7.182399071876421
 30
0.0
 10
7.134618182560779
 20
7.181957516137675
 30
0.0
 10
7.14578365944883
 20
7.182774601188434
 30
0.0
 10
7.151414649158766
 20
7.184042123354509
 30
0.0
 10
7.162300429917472
 20
7.188100253377597
 30
0.0
 10
7.167557715035115
 20
7.1908664431155
 30
0.0
 10
7.182875604921473
 20
7.201234059256151
 30
0.0
 10
7.19210669032663
 20
7.210682424655219
 30
0.0
 10
7.208194714705734
 20
7.232667648649316
 30
0.0
 10
7.215048448541671
 20
7.245186616026297
 30
0.0
 10
7.226166377071451
 20
7.271551943319381
 30
0.0
 10
7.230485137624568
 20
7.285517070385173
 30
0.0
 10
7.236263121081309
 20
7.313590600669286
 30
0.0
 10
7.237763010577766
 20
7.32770893734644
 30
0.0
 10
7.237278654424952
 20
7.34848507232282
 30
0.0
 10
7.236656841193311
 20
7.355223691971571
 30
0.0
 10
7.234301426447989
 20
7.368287212751075
 30
0.0
 10
7.232537077454963
 20
7.37467311094864
 30
0.0
 10
7.225310234300892
 20
7.392241183283534
 30
0.0
 10
7.2176665605204
 20
7.402149441531082
 30
0.0
 10
7.202175985853325
 20
7.411091959939527
 30
0.0
  0
POLYLINE
  5
331
330
1F
100
AcDbEntity
  8
0
  6
CONTINUOUS
 62
     7
100
AcDb2dPolyline
 66
     1
 10
0.0
 20
0.0
 30
0.0
  0
VERTEX
  5
5A5
330
331
100
AcDbEntity
  8
0
  6
CONTINUOUS
 62
     7
100
AcDbVertex
100
AcDb2dVertex
 10
7.3643154625
 20
6.5268298255
 30
0.0
  0
VERTEX
  5
5A6
330
331
100
AcDbEntity
  8
0
  6
CONTINUOUS
 62
     7
100
AcDbVertex
100
AcDb2dVertex
 10
7.3547413258
 20
6.5514981547
 30
0.0
  0
VERTEX
  5
5A7
330
331
100
AcDbEntity
  8
0
  6
CONTINUOUS
 62
     7
100
AcDbVertex
100
AcDb2dVertex
 10
7.3465565807
 20
6.5775085576
 30
0.0
  0
VERTEX
  5
5A8
330
331
100
AcDbEntity
  8
0
  6
CONTINUOUS
 62
     7
100
AcDbVertex
100
AcDb2dVertex
 10
7.3397839116
 20
6.6047889454
 30
0.0
  0
VERTEX
  5
5A9
330
331
100
AcDbEntity
  8
0
  6
CONTINUOUS
 62
     7
100
AcDbVertex
100
AcDb2dVertex
 10
7.3344420893
 20
6.6332637093
 30
0.0
  0
VERTEX
  5
5AA
330
331
100
AcDbEntity
  8
0
  6
CONTINUOUS
 62
     7
100
AcDbVertex
100
AcDb2dVertex
 10
7.3305459188
 20
6.6628539303
 30
0.0
  0
VERTEX
  5
5AB
330
331
100
AcDbEntity
  8
0
  6
CONTINUOUS
 62
     7
100
AcDbVertex
100
AcDb2dVertex
 10
7.3281061985
 20
6.6934775978
 30
0.0
  0
VERTEX
  5
5AC
330
331
100
AcDbEntity
  8
0
  6
CONTINUOUS
 62
     7
100
AcDbVertex
100
AcDb2dVertex
 10
7.3271296903
 20
6.7250498371
 30
0.0
  0
VERTEX
  5
5AD
330
331
100
AcDbEntity
  8
0
  6
CONTINUOUS
 62
     7
100
AcDbVertex
100
AcDb2dVertex
 10
7.3276191005
 20
6.7574831442
 30
0.0
  0
VERTEX
  5
5AE
330
331
100
AcDbEntity
  8
0
  6
CONTINUOUS
 62
     7
100
AcDbVertex
100
AcDb2dVertex
 10
7.3295730727
 20
6.790687629
 30
0.0
  0
VERTEX
  5
5AF
330
331
100
AcDbEntity
  8
0
  6
CONTINUOUS
 62
     7
100
AcDbVertex
100
AcDb2dVertex
 10
7.3329861915
 20
6.8245712638
 30
0.0
  0
VERTEX
  5
5B0
330
331
100
AcDbEntity
  8
0
  6
CONTINUOUS
 62
     7
100
AcDbVertex
100
AcDb2dVertex
 10
7.3378489972
 20
6.8590401386
 30
0.0
  0
VERTEX
  5
5B1
330
331
100
AcDbEntity
  8
0
  6
CONTINUOUS
 62
     7
100
AcDbVertex
100
AcDb2dVertex
 10
7.3441480123
 20
6.8939987215
 30
0.0
  0
VERTEX
  5
5B2
330
331
100
AcDbEntity
  8
0
  6
CONTINUOUS
 62
     7
100
AcDbVertex
100
AcDb2dVertex
 10
7.3518657788
 20
6.9293501233
 30
0.0
  0
VERTEX
  5
5B3
330
331
100
AcDbEntity
  8
0
  6
CONTINUOUS
 62
     7
100
AcDbVertex
100
AcDb2dVertex
 10
7.3609809067
 20
6.9649963661
 30
0.0
  0
VERTEX
  5
5B4
330
331
100
AcDbEntity
  8
0
  6
CONTINUOUS
 62
     7
100
AcDbVertex
100
AcDb2dVertex
 10
7.371468133
 20
7.0008386549
 30
0.0
  0
VERTEX
  5
5B5
330
331
100
AcDbEntity
  8
0
  6
CONTINUOUS
 62
     7
100
AcDbVertex
100
AcDb2dVertex
 10
7.3832983918
 20
7.0367776511
 30
0.0
  0
VERTEX
  5
5B6
330
331
100
AcDbEntity
  8
0
  6
CONTINUOUS
 62
     7
100
AcDbVertex
100
AcDb2dVertex
 10
7.3964388952
 20
7.0727137483
 30
0.0
  0
VERTEX
  5
5B7
330
331
100
AcDbEntity
  8
0
  6
CONTINUOUS
 62
     7
100
AcDbVertex
100
AcDb2dVertex
 10
7.4108532236
 20
7.1085473481
 30
0.0
  0
VERTEX
  5
5B8
330
331
100
AcDbEntity
  8
0
  6
CONTINUOUS
 62
     7
100
AcDbVertex
100
AcDb2dVertex
 10
7.4265014271
 20
7.1441791362
 30
0.0
  0
VERTEX
  5
5B9
330
331
100
AcDbEntity
  8
0
  6
CONTINUOUS
 62
     7
100
AcDbVertex
100
AcDb2dVertex
 10
7.4433401361
 20
7.1795103575
 30
0.0
  0
VERTEX
  5
5BA
330
331
100
AcDbEntity
  8
0
  6
CONTINUOUS
 62
     7
100
AcDbVertex
100
AcDb2dVertex
 10
7.4613226813
 20
7.2144430901
 30
0.0
  0
VERTEX
  5
5BB
330
331
100
AcDbEntity
  8
0
  6
CONTINUOUS
 62
     7
100
AcDbVertex
100
AcDb2dVertex
 10
7.4803992234
 20
7.2488805164
 30
0.0
  0
VERTEX
  5
5BC
330
331
100
AcDbEntity
  8
0
  6
CONTINUOUS
 62
     7
100
AcDbVertex
100
AcDb2dVertex
 10
7.5005168909
 20
7.2827271916
 30
0.0
  0
VERTEX
  5
5BD
330
331
100
AcDbEntity
  8
0
  6
CONTINUOUS
 62
     7
100
AcDbVertex
100
AcDb2dVertex
 10
7.5216199269
 20
7.3158893082
 30
0.0
  0
VERTEX
  5
5BE
330
331
100
AcDbEntity
  8
0
  6
CONTINUOUS
 62
     7
100
AcDbVertex
100
AcDb2dVertex
 10
7.5436498434
 20
7.348274956
 30
0.0
  0
VERTEX
  5
5BF
330
331
100
AcDbEntity
  8
0
  6
CONTINUOUS
 62
     7
100
AcDbVertex
100
AcDb2dVertex
 10
7.5665455835
 20
7.3797943768
 30
0.0
  0
VERTEX
  5
5C0
330
331
100
AcDbEntity
  8
0
  6
CONTINUOUS
 62
     7
100
AcDbVertex
100
AcDb2dVertex
 10
7.5902436907
 20
7.4103602131
 30
0.0
  0
VERTEX
  5
5C1
330
331
100
AcDbEntity
  8
0
  6
CONTINUOUS
 62
     7
100
AcDbVertex
100
AcDb2dVertex
 10
7.6146784847
 20
7.4398877506
 30
0.0
  0
VERTEX
  5
5C2
330
331
100
AcDbEntity
  8
0
  6
CONTINUOUS
 62
     7
100
AcDbVertex
100
AcDb2dVertex
 10
7.6397822435
 20
7.4682951522
 30
0.0
  0
VERTEX
  5
5C3
330
331
100
AcDbEntity
  8
0
  6
CONTINUOUS
 62
     7
100
AcDbVertex
100
AcDb2dVertex
 10
7.6654853909
 20
7.4955036858
 30
0.0
  0
VERTEX
  5
5C4
330
331
100
AcDbEntity
  8
0
  6
CONTINUOUS
 62
     7
100
AcDbVertex
100
AcDb2dVertex
 10
7.6917166895
 20
7.5214379417
 30
0.0
  0
VERTEX
  5
5C5
330
331
100
AcDbEntity
  8
0
  6
CONTINUOUS
 62
     7
100
AcDbVertex
100
AcDb2dVertex
 10
7.7184034382
 20
7.546026042
 30
0.0
  0
VERTEX
  5
5C6
330
331
100
AcDbEntity
  8
0
  6
CONTINUOUS
 62
     7
100
AcDbVertex
100
AcDb2dVertex
 10
7.7454716735
 20
7.5691998397
 30
0.0
  0
VERTEX
  5
5C7
330
331
100
AcDbEntity
  8
0
  6
CONTINUOUS
 62
     7
100
AcDbVertex
100
AcDb2dVertex
 10
7.7728463747
 20
7.5908951077
 30
0.0
  0
VERTEX
  5
5C8
330
331
100
AcDbEntity
  8
0
  6
CONTINUOUS
 62
     7
100
AcDbVertex
100
AcDb2dVertex
 10
7.8004516716
 20
7.6110517166
 30
0.0
  0
VERTEX
  5
5C9
330
331
100
AcDbEntity
  8
0
  6
CONTINUOUS
 62
     7
100
AcDbVertex
100
AcDb2dVertex
 10
7.8282110549
 20
7.6296138016
 30
0.0
  0
VERTEX
  5
5CA
330
331
100
AcDbEntity
  8
0
  6
CONTINUOUS
 62
     7
100
AcDbVertex
100
AcDb2dVertex
 10
7.8560475883
 20
7.646529917
 30
0.0
  0
VERTEX
  5
5CB
330
331
100
AcDbEntity
  8
0
  6
CONTINUOUS
 62
     7
100
AcDbVertex
100
AcDb2dVertex
 10
7.8838841218
 20
7.661753179
 30
0.0
  0
VERTEX
  5
5CC
330
331
100
AcDbEntity
  8
0
  6
CONTINUOUS
 62
     7
100
AcDbVertex
100
AcDb2dVertex
 10
7.9116435051
 20
7.6752413958
 30
0.0
  0
VERTEX
  5
5CD
330
331
100
AcDbEntity
  8
0
  6
CONTINUOUS
 62
     7
100
AcDbVertex
100
AcDb2dVertex
 10
7.939248802
 20
7.6869571842
 30
0.0
  0
VERTEX
  5
5CE
330
331
100
AcDbEntity
  8
0
  6
CONTINUOUS
 62
     7
100
AcDbVertex
100
AcDb2dVertex
 10
7.9666235031
 20
7.6968680734
 30
0.0
  0
VERTEX
  5
5CF
330
331
100
AcDbEntity
  8
0
  6
CONTINUOUS
 62
     7
100
AcDbVertex
100
AcDb2dVertex
 10
7.9936917384
 20
7.704946595
 30
0.0
  0
VERTEX
  5
5D0
330
331
100
AcDbEntity
  8
0
  6
CONTINUOUS
 62
     7
100
AcDbVertex
100
AcDb2dVertex
 10
8.0203784871
 20
7.7111703589
 30
0.0
  0
VERTEX
  5
5D1
330
331
100
AcDbEntity
  8
0
  6
CONTINUOUS
 62
     7
100
AcDbVertex
100
AcDb2dVertex
 10
8.0466097857
 20
7.7155221157
 30
0.0
  0
VERTEX
  5
5D2
330
331
100
AcDbEntity
  8
0
  6
CONTINUOUS
 62
     7
100
AcDbVertex
100
AcDb2dVertex
 10
8.0723129331
 20
7.7179898044
 30
0.0
  0
VERTEX
  5
5D3
330
331
100
AcDbEntity
  8
0
  6
CONTINUOUS
 62
     7
100
AcDbVertex
100
AcDb2dVertex
 10
8.0974166919
 20
7.7185665857
 30
0.0
  0
VERTEX
  5
5D4
330
331
100
AcDbEntity
  8
0
  6
CONTINUOUS
 62
     7
100
AcDbVertex
100
AcDb2dVertex
 10
8.1218514859
 20
7.717250861
 30
0.0
  0
VERTEX
  5
5D5
330
331
100
AcDbEntity
  8
0
  6
CONTINUOUS
 62
     7
100
AcDbVertex
100
AcDb2dVertex
 10
8.1455495932
 20
7.7140462768
 30
0.0
  0
VERTEX
  5
5D6
330
331
100
AcDbEntity
  8
0
  6
CONTINUOUS
 62
     7
100
AcDbVertex
100
AcDb2dVertex
 10
8.1684453333
 20
7.7089617149
 30
0.0
  0
VERTEX
  5
5D7
330
331
100
AcDbEntity
  8
0
  6
CONTINUOUS
 62
     7
100
AcDbVertex
100
AcDb2dVertex
 10
8.1904752498
 20
7.7020112672
 30
0.0
  0
VERTEX
  5
5D8
330
331
100
AcDbEntity
  8
0
  6
CONTINUOUS
 62
     7
100
AcDbVertex
100
AcDb2dVertex
 10
8.2115782857
 20
7.6932141974
 30
0.0
  0
VERTEX
  5
5D9
330
331
100
AcDbEntity
  8
0
  6
CONTINUOUS
 62
     7
100
AcDbVertex
100
AcDb2dVertex
 10
8.2300329411
 20
7.683563498
 30
0.0
  0
SEQEND
  5
5DA
330
331
100
AcDbEntity
  8
0
  6
CONTINUOUS
 62
     7
  0
ARC
  5
332
330
1F
100
AcDbEntity
  8
0
  6
CONTINUOUS
 62
     7
100
AcDbCircle
 10
7.9982822973
 20
7.4219780902
 30
0.0
 40
0.3397990251880628
100
AcDbArc
 50
55.434111288
 51
123.7197015257
  0
LINE
  5
333
330
1F
100
AcDbEntity
  8
0
  6
CONTINUOUS
 62
     7
100
AcDbLine
 10
7.4709435015
 20
7.9001412582
 30
0.0
 11
7.8096495056
 21
7.704610444
 31
0.0
  0
ARC
  5
334
330
1F
100
AcDbEntity
  8
0
  6
CONTINUOUS
 62
     7
100
AcDbCircle
 10
7.6639599828
 20
7.5945140966
 30
0.0
 40
0.3614738219694635
100
AcDbArc
 50
64.9362206802
 51
122.2741433857
  0
POLYLINE
  5
335
330
1F
100
AcDbEntity
  8
0
  6
CONTINUOUS
 62
     7
100
AcDb2dPolyline
 66
     1
 10
0.0
 20
0.0
 30
0.0
  0
VERTEX
  5
5DB
330
335
100
AcDbEntity
  8
0
  6
CONTINUOUS
 62
     7
100
AcDbVertex
100
AcDb2dVertex
 10
7.069119299
 20
6.6262867287
 30
0.0
  0
VERTEX
  5
5DC
330
335
100
AcDbEntity
  8
0
  6
CONTINUOUS
 62
     7
100
AcDbVertex
100
AcDb2dVertex
 10
7.069117054
 20
6.6262880247
 30
0.0
  0
VERTEX
  5
5DD
330
335
100
AcDbEntity
  8
0
  6
CONTINUOUS
 62
     7
100
AcDbVertex
100
AcDb2dVertex
 10
7.050055422
 20
6.6384758257
 30
0.0
  0
VERTEX
  5
5DE
330
335
100
AcDbEntity
  8
0
  6
CONTINUOUS
 62
     7
100
AcDbVertex
100
AcDb2dVertex
 10
7.0320709042
 20
6.6524055454
 30
0.0
  0
VERTEX
  5
5DF
330
335
100
AcDbEntity
  8
0
  6
CONTINUOUS
 62
     7
100
AcDbVertex
100
AcDb2dVertex
 10
7.0152127855
 20
6.6680390107
 30
0.0
  0
VERTEX
  5
5E0
330
335
100
AcDbEntity
  8
0
  6
CONTINUOUS
 62
     7
100
AcDbVertex
100
AcDb2dVertex
 10
6.9995272639
 20
6.6853333796
 30
0.0
  0
VERTEX
  5
5E1
330
335
100
AcDbEntity
  8
0
  6
CONTINUOUS
 62
     7
100
AcDbVertex
100
AcDb2dVertex
 10
6.9850573242
 20
6.7042412586
 30
0.0
  0
VERTEX
  5
5E2
330
335
100
AcDbEntity
  8
0
  6
CONTINUOUS
 62
     7
100
AcDbVertex
100
AcDb2dVertex
 10
6.9718426198
 20
6.7247108323
 30
0.0
  0
VERTEX
  5
5E3
330
335
100
AcDbEntity
  8
0
  6
CONTINUOUS
 62
     7
100
AcDbVertex
100
AcDb2dVertex
 10
6.9599193644
 20
6.7466860059
 30
0.0
  0
VERTEX
  5
5E4
330
335
100
AcDbEntity
  8
0
  6
CONTINUOUS
 62
     7
100
AcDbVertex
100
AcDb2dVertex
 10
6.9493202325
 20
6.7701065585
 30
0.0
  0
VERTEX
  5
5E5
330
335
100
AcDbEntity
  8
0
  6
CONTINUOUS
 62
     7
100
AcDbVertex
100
AcDb2dVertex
 10
6.9400742701
 20
6.7949083082
 30
0.0
  0
VERTEX
  5
5E6
330
335
100
AcDbEntity
  8
0
  6
CONTINUOUS
 62
     7
100
AcDbVertex
100
AcDb2dVertex
 10
6.9322068148
 20
6.8210232883
 30
0.0
  0
VERTEX
  5
5E7
330
335
100
AcDbEntity
  8
0
  6
CONTINUOUS
 62
     7
100
AcDbVertex
100
AcDb2dVertex
 10
6.9257394267
 20
6.848379933
 30
0.0
  0
VERTEX
  5
5E8
330
335
100
AcDbEntity
  8
0
  6
CONTINUOUS
 62
     7
100
AcDbVertex
100
AcDb2dVertex
 10
6.9206898289
 20
6.8769032741
 30
0.0
  0
VERTEX
  5
5E9
330
335
100
AcDbEntity
  8
0
  6
CONTINUOUS
 62
     7
100
AcDbVertex
100
AcDb2dVertex
 10
6.9170718596
 20
6.9065151461
 30
0.0
  0
VERTEX
  5
5EA
330
335
100
AcDbEntity
  8
0
  6
CONTINUOUS
 62
     7
100
AcDbVertex
100
AcDb2dVertex
 10
6.9148954333
 20
6.9371344004
 30
0.0
  0
VERTEX
  5
5EB
330
335
100
AcDbEntity
  8
0
  6
CONTINUOUS
 62
     7
100
AcDbVertex
100
AcDb2dVertex
 10
6.9141665144
 20
6.9686771279
 30
0.0
  0
VERTEX
  5
5EC
330
335
100
AcDbEntity
  8
0
  6
CONTINUOUS
 62
     7
100
AcDbVertex
100
AcDb2dVertex
 10
6.9148871004
 20
7.0010568887
 30
0.0
  0
VERTEX
  5
5ED
330
335
100
AcDbEntity
  8
0
  6
CONTINUOUS
 62
     7
100
AcDbVertex
100
AcDb2dVertex
 10
6.9170552165
 20
7.0341849491
 30
0.0
  0
VERTEX
  5
5EE
330
335
100
AcDbEntity
  8
0
  6
CONTINUOUS
 62
     7
100
AcDbVertex
100
AcDb2dVertex
 10
6.9206649213
 20
7.0679705249
 30
0.0
  0
VERTEX
  5
5EF
330
335
100
AcDbEntity
  8
0
  6
CONTINUOUS
 62
     7
100
AcDbVertex
100
AcDb2dVertex
 10
6.9257063228
 20
7.1023210298
 30
0.0
  0
VERTEX
  5
5F0
330
335
100
AcDbEntity
  8
0
  6
CONTINUOUS
 62
     7
100
AcDbVertex
100
AcDb2dVertex
 10
6.9321656054
 20
7.1371423296
 30
0.0
  0
VERTEX
  5
5F1
330
335
100
AcDbEntity
  8
0
  6
CONTINUOUS
 62
     7
100
AcDbVertex
100
AcDb2dVertex
 10
6.9400250681
 20
7.1723389998
 30
0.0
  0
VERTEX
  5
5F2
330
335
100
AcDbEntity
  8
0
  6
CONTINUOUS
 62
     7
100
AcDbVertex
100
AcDb2dVertex
 10
6.9492631727
 20
7.2078145872
 30
0.0
  0
VERTEX
  5
5F3
330
335
100
AcDbEntity
  8
0
  6
CONTINUOUS
 62
     7
100
AcDbVertex
100
AcDb2dVertex
 10
6.9598546032
 20
7.2434718744
 30
0.0
  0
VERTEX
  5
5F4
330
335
100
AcDbEntity
  8
0
  6
CONTINUOUS
 62
     7
100
AcDbVertex
100
AcDb2dVertex
 10
6.9717703346
 20
7.2792131458
 30
0.0
  0
VERTEX
  5
5F5
330
335
100
AcDbEntity
  8
0
  6
CONTINUOUS
 62
     7
100
AcDbVertex
100
AcDb2dVertex
 10
6.9849777132
 20
7.3149404561
 30
0.0
  0
VERTEX
  5
5F6
330
335
100
AcDbEntity
  8
0
  6
CONTINUOUS
 62
     7
100
AcDbVertex
100
AcDb2dVertex
 10
6.9994405452
 20
7.3505558977
 30
0.0
  0
VERTEX
  5
5F7
330
335
100
AcDbEntity
  8
0
  6
CONTINUOUS
 62
     7
100
AcDbVertex
100
AcDb2dVertex
 10
7.0151191968
 20
7.3859618701
 30
0.0
  0
VERTEX
  5
5F8
330
335
100
AcDbEntity
  8
0
  6
CONTINUOUS
 62
     7
100
AcDbVertex
100
AcDb2dVertex
 10
7.0319707019
 20
7.4210613465
 30
0.0
  0
VERTEX
  5
5F9
330
335
100
AcDbEntity
  8
0
  6
CONTINUOUS
 62
     7
100
AcDbVertex
100
AcDb2dVertex
 10
7.0499488807
 20
7.45575814
 30
0.0
  0
VERTEX
  5
5FA
330
335
100
AcDbEntity
  8
0
  6
CONTINUOUS
 62
     7
100
AcDbVertex
100
AcDb2dVertex
 10
7.0690044657
 20
7.4899571675
 30
0.0
  0
VERTEX
  5
5FB
330
335
100
AcDbEntity
  8
0
  6
CONTINUOUS
 62
     7
100
AcDbVertex
100
AcDb2dVertex
 10
7.0890852369
 20
7.5235647097
 30
0.0
  0
VERTEX
  5
5FC
330
335
100
AcDbEntity
  8
0
  6
CONTINUOUS
 62
     7
100
AcDbVertex
100
AcDb2dVertex
 10
7.1101361647
 20
7.5564886683
 30
0.0
  0
VERTEX
  5
5FD
330
335
100
AcDbEntity
  8
0
  6
CONTINUOUS
 62
     7
100
AcDbVertex
100
AcDb2dVertex
 10
7.1320995611
 20
7.5886388183
 30
0.0
  0
VERTEX
  5
5FE
330
335
100
AcDbEntity
  8
0
  6
CONTINUOUS
 62
     7
100
AcDbVertex
100
AcDb2dVertex
 10
7.1549152376
 20
7.6199270554
 30
0.0
  0
VERTEX
  5
5FF
330
335
100
AcDbEntity
  8
0
  6
CONTINUOUS
 62
     7
100
AcDbVertex
100
AcDb2dVertex
 10
7.1785206698
 20
7.650267637
 30
0.0
  0
VERTEX
  5
600
330
335
100
AcDbEntity
  8
0
  6
CONTINUOUS
 62
     7
100
AcDbVertex
100
AcDb2dVertex
 10
7.2028511694
 20
7.6795774176
 30
0.0
  0
VERTEX
  5
601
330
335
100
AcDbEntity
  8
0
  6
CONTINUOUS
 62
     7
100
AcDbVertex
100
AcDb2dVertex
 10
7.227840061
 20
7.7077760766
 30
0.0
  0
VERTEX
  5
602
330
335
100
AcDbEntity
  8
0
  6
CONTINUOUS
 62
     7
100
AcDbVertex
100
AcDb2dVertex
 10
7.2534188647
 20
7.7347863382
 30
0.0
  0
VERTEX
  5
603
330
335
100
AcDbEntity
  8
0
  6
CONTINUOUS
 62
     7
100
AcDbVertex
100
AcDb2dVertex
 10
7.2795174844
 20
7.7605341834
 30
0.0
  0
VERTEX
  5
604
330
335
100
AcDbEntity
  8
0
  6
CONTINUOUS
 62
     7
100
AcDbVertex
100
AcDb2dVertex
 10
7.3060643993
 20
7.7849490526
 30
0.0
  0
VERTEX
  5
605
330
335
100
AcDbEntity
  8
0
  6
CONTINUOUS
 62
     7
100
AcDbVertex
100
AcDb2dVertex
 10
7.33298686
 20
7.8079640392
 30
0.0
  0
VERTEX
  5
606
330
335
100
AcDbEntity
  8
0
  6
CONTINUOUS
 62
     7
100
AcDbVertex
100
AcDb2dVertex
 10
7.3602110881
 20
7.8295160727
 30
0.0
  0
VERTEX
  5
607
330
335
100
AcDbEntity
  8
0
  6
CONTINUOUS
 62
     7
100
AcDbVertex
100
AcDb2dVertex
 10
7.3876624781
 20
7.849546092
 30
0.0
  0
VERTEX
  5
608
330
335
100
AcDbEntity
  8
0
  6
CONTINUOUS
 62
     7
100
AcDbVertex
100
AcDb2dVertex
 10
7.4152658022
 20
7.8679992066
 30
0.0
  0
SEQEND
  5
609
330
335
100
AcDbEntity
  8
0
  6
CONTINUOUS
 62
     7
  0
LINE
  5
336
330
1F
100
AcDbEntity
  8
0
  6
CONTINUOUS
 62
     7
100
AcDbLine
 10
7.4152658022
 20
7.8679992066
 30
0.0
 11
7.7539718063
 21
7.6724683924
 31
0.0
  0
POLYLINE
  5
337
330
1F
100
AcDbEntity
  8
0
  6
CONTINUOUS
 62
     7
100
AcDb2dPolyline
 66
     1
 10
0.0
 20
0.0
 30
0.0
  0
VERTEX
  5
60A
330
337
100
AcDbEntity
  8
0
  6
CONTINUOUS
 62
     7
100
AcDbVertex
100
AcDb2dVertex
 10
7.7539718063
 20
7.6724683924
 30
0.0
  0
VERTEX
  5
60B
330
337
100
AcDbEntity
  8
0
  6
CONTINUOUS
 62
     7
100
AcDbVertex
100
AcDb2dVertex
 10
7.7262124967
 20
7.6539062172
 30
0.0
  0
VERTEX
  5
60C
330
337
100
AcDbEntity
  8
0
  6
CONTINUOUS
 62
     7
100
AcDbVertex
100
AcDb2dVertex
 10
7.698607279
 20
7.6337495298
 30
0.0
  0
VERTEX
  5
60D
330
337
100
AcDbEntity
  8
0
  6
CONTINUOUS
 62
     7
100
AcDbVertex
100
AcDb2dVertex
 10
7.671232662
 20
7.612054195
 30
0.0
  0
VERTEX
  5
60E
330
337
100
AcDbEntity
  8
0
  6
CONTINUOUS
 62
     7
100
AcDbVertex
100
AcDb2dVertex
 10
7.6441645151
 20
7.5888803421
 30
0.0
  0
VERTEX
  5
60F
330
337
100
AcDbEntity
  8
0
  6
CONTINUOUS
 62
     7
100
AcDbVertex
100
AcDb2dVertex
 10
7.6174778587
 20
7.564292198
 30
0.0
  0
VERTEX
  5
610
330
337
100
AcDbEntity
  8
0
  6
CONTINUOUS
 62
     7
100
AcDbVertex
100
AcDb2dVertex
 10
7.5912466554
 20
7.5383579096
 30
0.0
  0
VERTEX
  5
611
330
337
100
AcDbEntity
  8
0
  6
CONTINUOUS
 62
     7
100
AcDbVertex
100
AcDb2dVertex
 10
7.565543606
 20
7.5111493546
 30
0.0
  0
VERTEX
  5
612
330
337
100
AcDbEntity
  8
0
  6
CONTINUOUS
 62
     7
100
AcDbVertex
100
AcDb2dVertex
 10
7.5404399471
 20
7.4827419421
 30
0.0
  0
VERTEX
  5
613
330
337
100
AcDbEntity
  8
0
  6
CONTINUOUS
 62
     7
100
AcDbVertex
100
AcDb2dVertex
 10
7.5160052543
 20
7.4532144043
 30
0.0
  0
VERTEX
  5
614
330
337
100
AcDbEntity
  8
0
  6
CONTINUOUS
 62
     7
100
AcDbVertex
100
AcDb2dVertex
 10
7.4923072491
 20
7.4226485776
 30
0.0
  0
VERTEX
  5
615
330
337
100
AcDbEntity
  8
0
  6
CONTINUOUS
 62
     7
100
AcDbVertex
100
AcDb2dVertex
 10
7.4694116112
 20
7.391129176
 30
0.0
  0
VERTEX
  5
616
330
337
100
AcDbEntity
  8
0
  6
CONTINUOUS
 62
     7
100
AcDbVertex
100
AcDb2dVertex
 10
7.4473817965
 20
7.3587435565
 30
0.0
  0
VERTEX
  5
617
330
337
100
AcDbEntity
  8
0
  6
CONTINUOUS
 62
     7
100
AcDbVertex
100
AcDb2dVertex
 10
7.4262788613
 20
7.3255814769
 30
0.0
  0
VERTEX
  5
618
330
337
100
AcDbEntity
  8
0
  6
CONTINUOUS
 62
     7
100
AcDbVertex
100
AcDb2dVertex
 10
7.4061612931
 20
7.2917348468
 30
0.0
  0
VERTEX
  5
619
330
337
100
AcDbEntity
  8
0
  6
CONTINUOUS
 62
     7
100
AcDbVertex
100
AcDb2dVertex
 10
7.3870848483
 20
7.2572974731
 30
0.0
  0
VERTEX
  5
61A
330
337
100
AcDbEntity
  8
0
  6
CONTINUOUS
 62
     7
100
AcDbVertex
100
AcDb2dVertex
 10
7.3691023977
 20
7.2223648001
 30
0.0
  0
VERTEX
  5
61B
330
337
100
AcDbEntity
  8
0
  6
CONTINUOUS
 62
     7
100
AcDbVertex
100
AcDb2dVertex
 10
7.3522637804
 20
7.1870336447
 30
0.0
  0
VERTEX
  5
61C
330
337
100
AcDbEntity
  8
0
  6
CONTINUOUS
 62
     7
100
AcDbVertex
100
AcDb2dVertex
 10
7.3366156649
 20
7.1514019283
 30
0.0
  0
VERTEX
  5
61D
330
337
100
AcDbEntity
  8
0
  6
CONTINUOUS
 62
     7
100
AcDbVertex
100
AcDb2dVertex
 10
7.3222014207
 20
7.1155684052
 30
0.0
  0
VERTEX
  5
61E
330
337
100
AcDbEntity
  8
0
  6
CONTINUOUS
 62
     7
100
AcDbVertex
100
AcDb2dVertex
 10
7.3090609971
 20
7.0796323891
 30
0.0
  0
VERTEX
  5
61F
330
337
100
AcDbEntity
  8
0
  6
CONTINUOUS
 62
     7
100
AcDbVertex
100
AcDb2dVertex
 10
7.2972308132
 20
7.0436934777
 30
0.0
  0
VERTEX
  5
620
330
337
100
AcDbEntity
  8
0
  6
CONTINUOUS
 62
     7
100
AcDbVertex
100
AcDb2dVertex
 10
7.2867436567
 20
7.0078512768
 30
0.0
  0
VERTEX
  5
621
330
337
100
AcDbEntity
  8
0
  6
CONTINUOUS
 62
     7
100
AcDbVertex
100
AcDb2dVertex
 10
7.2776285932
 20
6.9722051241
 30
0.0
  0
VERTEX
  5
622
330
337
100
AcDbEntity
  8
0
  6
CONTINUOUS
 62
     7
100
AcDbVertex
100
AcDb2dVertex
 10
7.2699108852
 20
6.936853814
 30
0.0
  0
VERTEX
  5
623
330
337
100
AcDbEntity
  8
0
  6
CONTINUOUS
 62
     7
100
AcDbVertex
100
AcDb2dVertex
 10
7.2636119227
 20
6.9018953236
 30
0.0
  0
VERTEX
  5
624
330
337
100
AcDbEntity
  8
0
  6
CONTINUOUS
 62
     7
100
AcDbVertex
100
AcDb2dVertex
 10
7.2587491633
 20
6.8674265416
 30
0.0
  0
VERTEX
  5
625
330
337
100
AcDbEntity
  8
0
  6
CONTINUOUS
 62
     7
100
AcDbVertex
100
AcDb2dVertex
 10
7.2553360844
 20
6.8335429991
 30
0.0
  0
VERTEX
  5
626
330
337
100
AcDbEntity
  8
0
  6
CONTINUOUS
 62
     7
100
AcDbVertex
100
AcDb2dVertex
 10
7.2533821455
 20
6.8003386054
 30
0.0
  0
VERTEX
  5
627
330
337
100
AcDbEntity
  8
0
  6
CONTINUOUS
 62
     7
100
AcDbVertex
100
AcDb2dVertex
 10
7.2528927618
 20
6.7679053874
 30
0.0
  0
VERTEX
  5
628
330
337
100
AcDbEntity
  8
0
  6
CONTINUOUS
 62
     7
100
AcDbVertex
100
AcDb2dVertex
 10
7.2538692898
 20
6.7363332348
 30
0.0
  0
VERTEX
  5
629
330
337
100
AcDbEntity
  8
0
  6
CONTINUOUS
 62
     7
100
AcDbVertex
100
AcDb2dVertex
 10
7.256309023
 20
6.7057096508
 30
0.0
  0
VERTEX
  5
62A
330
337
100
AcDbEntity
  8
0
  6
CONTINUOUS
 62
     7
100
AcDbVertex
100
AcDb2dVertex
 10
7.2602051996
 20
6.6761195094
 30
0.0
  0
VERTEX
  5
62B
330
337
100
AcDbEntity
  8
0
  6
CONTINUOUS
 62
     7
100
AcDbVertex
100
AcDb2dVertex
 10
7.2655470213
 20
6.6476448207
 30
0.0
  0
VERTEX
  5
62C
330
337
100
AcDbEntity
  8
0
  6
CONTINUOUS
 62
     7
100
AcDbVertex
100
AcDb2dVertex
 10
7.2723196829
 20
6.6203645032
 30
0.0
  0
VERTEX
  5
62D
330
337
100
AcDbEntity
  8
0
  6
CONTINUOUS
 62
     7
100
AcDbVertex
100
AcDb2dVertex
 10
7.2805044139
 20
6.5943541649
 30
0.0
  0
VERTEX
  5
62E
330
337
100
AcDbEntity
  8
0
  6
CONTINUOUS
 62
     7
100
AcDbVertex
100
AcDb2dVertex
 10
7.2900785301
 20
6.5696858944
 30
0.0
  0
SEQEND
  5
62F
330
337
100
AcDbEntity
  8
0
  6
CONTINUOUS
 62
     7
  0
LINE
  5
338
330
1F
100
AcDbEntity
  8
0
  6
CONTINUOUS
 62
     7
100
AcDbLine
 10
7.2900785301
 20
6.5696858944
 30
0.0
 11
7.3643154625
 21
6.5268298255
 31
0.0
  0
LINE
  5
339
330
1F
100
AcDbEntity
  8
0
  6
CONTINUOUS
 62
     7
100
AcDbLine
 10
7.8096495056
 20
7.6173903888
 30
0.0
 11
7.8096495056
 21
7.704610444
 31
0.0
  0
LINE
  5
33A
330
1F
100
AcDbEntity
  8
0
  6
CONTINUOUS
 62
     7
100
AcDbLine
 10
7.2900785301
 20
6.5696858944
 30
0.0
 11
7.3410525964
 21
6.5991125965
 31
0.0
  0
LINE
  5
33B
330
1F
100
AcDbEntity
  8
0
  6
CONTINUOUS
 62
     7
100
AcDbLine
 10
7.7539718063
 20
7.5761211635
 30
0.0
 11
7.7539718063
 21
7.6724683924
 31
0.0
  0
LINE
  5
33C
330
1F
100
AcDbEntity
  8
0
  6
CONTINUOUS
 62
     7
100
AcDbLine
 10
7.4709435015
 20
7.9001412582
 30
0.0
 11
7.449730298
 21
7.887855733
 31
0.0
  0
ARC
  5
33D
330
1F
100
AcDbEntity
  8
0
  6
CONTINUOUS
 62
     7
100
AcDbCircle
 10
8.021692864
 20
6.9417464463
 30
0.0
 40
1.108723774967288
100
AcDbArc
 50
124.4781941373
 51
177.3368956019
  0
LINE
  5
33E
330
1F
100
AcDbEntity
  8
0
  6
CONTINUOUS
 62
     7
100
AcDbLine
 10
7.4152658022
 20
7.8679992066
 30
0.0
 11
7.3940525987
 21
7.8557136813
 31
0.0
  0
LINE
  5
33F
330
1F
100
AcDbEntity
  8
0
  6
CONTINUOUS
 62
     7
100
AcDbLine
 10
7.449730298
 20
7.887855733
 30
0.0
 11
7.449730298
 21
7.8481032766
 31
0.0
  0
ARC
  5
340
330
1F
100
AcDbEntity
  8
0
  6
CONTINUOUS
 62
     7
100
AcDbCircle
 10
8.0944526346
 20
7.2961745265
 30
0.0
 40
0.2722654436276918
100
AcDbArc
 50
130.976739305
 51
146.7871018728
  0
ARC
  5
341
330
1F
100
AcDbEntity
  8
0
  6
CONTINUOUS
 62
     7
100
AcDbCircle
 10
7.7506465761
 20
6.6987794576
 30
0.0
 40
0.273224657259448
100
AcDbArc
 50
153.316012324
 51
168.9992802657
  0
ARC
  5
342
330
1F
100
AcDbEntity
  8
0
  6
CONTINUOUS
 62
     7
100
AcDbCircle
 10
8.0826691708
 20
6.3350536524
 30
0.0
 40
0.2544623995645855
100
AcDbArc
 50
221.5142383381
 51
249.4622931113
  0
ARC
  5
343
330
1F
100
AcDbEntity
  8
0
  6
CONTINUOUS
 62
     7
100
AcDbCircle
 10
8.5761666262
 20
7.1899083466
 30
0.0
 40
0.2544278534021983
100
AcDbArc
 50
50.5418553818
 51
78.4174943318
  0
ARC
  5
344
330
1F
100
AcDbEntity
  8
0
  6
CONTINUOUS
 62
     7
100
AcDbCircle
 10
8.2633934245
 20
7.366867655
 30
0.0
 40
0.2575959780587843
100
AcDbArc
 50
60.1445515764
 51
78.1158331849
  0
ARC
  5
345
330
1F
100
AcDbEntity
  8
0
  6
CONTINUOUS
 62
     7
100
AcDbCircle
 10
7.7723329515
 20
6.5166012455
 30
0.0
 40
0.2565856659612534
100
AcDbArc
 50
221.4339789894
 51
239.9012887663
  0
ARC
  5
346
330
1F
100
AcDbEntity
  8
0
  6
CONTINUOUS
 62
     7
100
AcDbCircle
 10
7.7062020396
 20
6.6935163362
 30
0.0
 40
0.2329186022526813
100
AcDbArc
 50
150.1253694783
 51
199.3419354447
  0
ARC
  5
347
330
1F
100
AcDbEntity
  8
0
  6
CONTINUOUS
 62
     7
100
AcDbCircle
 10
8.0771113534
 20
7.3371749129
 30
0.0
 40
0.2322690049969774
100
AcDbArc
 50
100.4521352048
 51
149.815926887
  0
ARC
  5
348
330
1F
100
AcDbEntity
  8
0
  6
CONTINUOUS
 62
     7
100
AcDbCircle
 10
8.0969596116
 20
6.4662192545
 30
0.0
 40
0.2340014115781683
100
AcDbArc
 50
152.8378338821
 51
196.9254117264
  0
ARC
  5
349
330
1F
100
AcDbEntity
  8
0
  6
CONTINUOUS
 62
     7
100
AcDbCircle
 10
8.4697435038
 20
7.1119782611
 30
0.0
 40
0.2339605356746093
100
AcDbArc
 50
103.0760149333
 51
147.1586731875
  0
ARC
  5
34A
330
1F
100
AcDbEntity
  8
0
  6
CONTINUOUS
 62
     8
100
AcDbCircle
 10
8.3713621099
 20
6.7937885583
 30
0.0
 40
0.0875507778115942
100
AcDbArc
 50
184.9974229785
 51
246.2021839763
  0
ARC
  5
34B
330
1F
100
AcDbEntity
  8
0
  6
CONTINUOUS
 62
     8
100
AcDbCircle
 10
8.4614981613
 20
6.9563567677
 30
0.0
 40
0.273189110049413
100
AcDbArc
 50
242.660899383
 51
282.3140148968
  0
ARC
  5
34C
330
1F
100
AcDbEntity
  8
0
  6
CONTINUOUS
 62
     8
100
AcDbCircle
 10
7.8213279229
 20
7.6813527291
 30
0.0
 40
0.2770818704442753
100
AcDbArc
 50
18.1074259898
 51
57.0479996807
  0
ARC
  5
34D
330
1F
100
AcDbEntity
  8
0
  6
CONTINUOUS
 62
     8
100
AcDbCircle
 10
7.8592121932
 20
7.6895230671
 30
0.0
 40
0.2385621160245547
100
AcDbArc
 50
6.9971357986
 51
18.8182300755
  0
ARC
  5
34E
330
1F
100
AcDbEntity
  8
0
  6
CONTINUOUS
 62
     8
100
AcDbCircle
 10
7.9203177406
 20
7.8431389592
 30
0.0
 40
0.0876177700913074
100
AcDbArc
 50
53.8182285471
 51
114.8713130238
  0
POLYLINE
  5
34F
330
1F
100
AcDbEntity
  8
0
  6
CONTINUOUS
 62
     8
100
AcDb2dPolyline
 66
     1
 10
0.0
 20
0.0
 30
0.0
  0
VERTEX
  5
630
330
34F
100
AcDbEntity
  8
0
  6
CONTINUOUS
 62
     8
100
AcDbVertex
100
AcDb2dVertex
 10
8.7163562887
 20
7.3933118976
 30
0.0
  0
VERTEX
  5
631
330
34F
100
AcDbEntity
  8
0
  6
CONTINUOUS
 62
     8
100
AcDbVertex
100
AcDb2dVertex
 10
8.7026339007
 20
7.4016267291
 30
0.0
  0
VERTEX
  5
632
330
34F
100
AcDbEntity
  8
0
  6
CONTINUOUS
 62
     8
100
AcDbVertex
100
AcDb2dVertex
 10
8.6824620656
 20
7.4117866767
 30
0.0
  0
VERTEX
  5
633
330
34F
100
AcDbEntity
  8
0
  6
CONTINUOUS
 62
     8
100
AcDbVertex
100
AcDb2dVertex
 10
8.6613218074
 20
7.4201278458
 30
0.0
  0
VERTEX
  5
634
330
34F
100
AcDbEntity
  8
0
  6
CONTINUOUS
 62
     8
100
AcDbVertex
100
AcDb2dVertex
 10
8.6392720478
 20
7.4266269881
 30
0.0
  0
VERTEX
  5
635
330
34F
100
AcDbEntity
  8
0
  6
CONTINUOUS
 62
     8
100
AcDbVertex
100
AcDb2dVertex
 10
8.6163742433
 20
7.4312659893
 30
0.0
  0
VERTEX
  5
636
330
34F
100
AcDbEntity
  8
0
  6
CONTINUOUS
 62
     8
100
AcDbVertex
100
AcDb2dVertex
 10
8.5926922143
 20
7.4340319197
 30
0.0
  0
VERTEX
  5
637
330
34F
100
AcDbEntity
  8
0
  6
CONTINUOUS
 62
     8
100
AcDbVertex
100
AcDb2dVertex
 10
8.5682919667
 20
7.4349170701
 30
0.0
  0
VERTEX
  5
638
330
34F
100
AcDbEntity
  8
0
  6
CONTINUOUS
 62
     8
100
AcDbVertex
100
AcDb2dVertex
 10
8.5432415086
 20
7.4339189735
 30
0.0
  0
VERTEX
  5
639
330
34F
100
AcDbEntity
  8
0
  6
CONTINUOUS
 62
     8
100
AcDbVertex
100
AcDb2dVertex
 10
8.5176106599
 20
7.4310404117
 30
0.0
  0
VERTEX
  5
63A
330
34F
100
AcDbEntity
  8
0
  6
CONTINUOUS
 62
     8
100
AcDbVertex
100
AcDb2dVertex
 10
8.4914708586
 20
7.4262894078
 30
0.0
  0
VERTEX
  5
63B
330
34F
100
AcDbEntity
  8
0
  6
CONTINUOUS
 62
     8
100
AcDbVertex
100
AcDb2dVertex
 10
8.4648949608
 20
7.4196792038
 30
0.0
  0
VERTEX
  5
63C
330
34F
100
AcDbEntity
  8
0
  6
CONTINUOUS
 62
     8
100
AcDbVertex
100
AcDb2dVertex
 10
8.4379570384
 20
7.4112282233
 30
0.0
  0
VERTEX
  5
63D
330
34F
100
AcDbEntity
  8
0
  6
CONTINUOUS
 62
     8
100
AcDbVertex
100
AcDb2dVertex
 10
8.4107321722
 20
7.4009600209
 30
0.0
  0
VERTEX
  5
63E
330
34F
100
AcDbEntity
  8
0
  6
CONTINUOUS
 62
     8
100
AcDbVertex
100
AcDb2dVertex
 10
8.3832962427
 20
7.3889032159
 30
0.0
  0
VERTEX
  5
63F
330
34F
100
AcDbEntity
  8
0
  6
CONTINUOUS
 62
     8
100
AcDbVertex
100
AcDb2dVertex
 10
8.355725719
 20
7.3750914127
 30
0.0
  0
VERTEX
  5
640
330
34F
100
AcDbEntity
  8
0
  6
CONTINUOUS
 62
     8
100
AcDbVertex
100
AcDb2dVertex
 10
8.3280974448
 20
7.3595631072
 30
0.0
  0
VERTEX
  5
641
330
34F
100
AcDbEntity
  8
0
  6
CONTINUOUS
 62
     8
100
AcDbVertex
100
AcDb2dVertex
 10
8.3004884253
 20
7.3423615798
 30
0.0
  0
VERTEX
  5
642
330
34F
100
AcDbEntity
  8
0
  6
CONTINUOUS
 62
     8
100
AcDbVertex
100
AcDb2dVertex
 10
8.2729756116
 20
7.3235347741
 30
0.0
  0
VERTEX
  5
643
330
34F
100
AcDbEntity
  8
0
  6
CONTINUOUS
 62
     8
100
AcDbVertex
100
AcDb2dVertex
 10
8.245635687
 20
7.3031351637
 30
0.0
  0
VERTEX
  5
644
330
34F
100
AcDbEntity
  8
0
  6
CONTINUOUS
 62
     8
100
AcDbVertex
100
AcDb2dVertex
 10
8.2185448527
 20
7.2812196062
 30
0.0
  0
VERTEX
  5
645
330
34F
100
AcDbEntity
  8
0
  6
CONTINUOUS
 62
     8
100
AcDbVertex
100
AcDb2dVertex
 10
8.1917786157
 20
7.257849184
 30
0.0
  0
VERTEX
  5
646
330
34F
100
AcDbEntity
  8
0
  6
CONTINUOUS
 62
     8
100
AcDbVertex
100
AcDb2dVertex
 10
8.1654115783
 20
7.2330890347
 30
0.0
  0
VERTEX
  5
647
330
34F
100
AcDbEntity
  8
0
  6
CONTINUOUS
 62
     8
100
AcDbVertex
100
AcDb2dVertex
 10
8.1395172302
 20
7.2070081694
 30
0.0
  0
VERTEX
  5
648
330
34F
100
AcDbEntity
  8
0
  6
CONTINUOUS
 62
     8
100
AcDbVertex
100
AcDb2dVertex
 10
8.1141677435
 20
7.1796792799
 30
0.0
  0
VERTEX
  5
649
330
34F
100
AcDbEntity
  8
0
  6
CONTINUOUS
 62
     8
100
AcDbVertex
100
AcDb2dVertex
 10
8.0894337719
 20
7.151178537
 30
0.0
  0
VERTEX
  5
64A
330
34F
100
AcDbEntity
  8
0
  6
CONTINUOUS
 62
     8
100
AcDbVertex
100
AcDb2dVertex
 10
8.0653842534
 20
7.1215853772
 30
0.0
  0
VERTEX
  5
64B
330
34F
100
AcDbEntity
  8
0
  6
CONTINUOUS
 62
     8
100
AcDbVertex
100
AcDb2dVertex
 10
8.0420862183
 20
7.0909822819
 30
0.0
  0
VERTEX
  5
64C
330
34F
100
AcDbEntity
  8
0
  6
CONTINUOUS
 62
     8
100
AcDbVertex
100
AcDb2dVertex
 10
8.0196046023
 20
7.0594545476
 30
0.0
  0
VERTEX
  5
64D
330
34F
100
AcDbEntity
  8
0
  6
CONTINUOUS
 62
     8
100
AcDbVertex
100
AcDb2dVertex
 10
7.9980020658
 20
7.0270900477
 30
0.0
  0
VERTEX
  5
64E
330
34F
100
AcDbEntity
  8
0
  6
CONTINUOUS
 62
     8
100
AcDbVertex
100
AcDb2dVertex
 10
7.9773388189
 20
6.9939789877
 30
0.0
  0
VERTEX
  5
64F
330
34F
100
AcDbEntity
  8
0
  6
CONTINUOUS
 62
     8
100
AcDbVertex
100
AcDb2dVertex
 10
7.9576724538
 20
6.9602136543
 30
0.0
  0
VERTEX
  5
650
330
34F
100
AcDbEntity
  8
0
  6
CONTINUOUS
 62
     8
100
AcDbVertex
100
AcDb2dVertex
 10
7.9390577842
 20
6.9258881574
 30
0.0
  0
VERTEX
  5
651
330
34F
100
AcDbEntity
  8
0
  6
CONTINUOUS
 62
     8
100
AcDbVertex
100
AcDb2dVertex
 10
7.9215466925
 20
6.8910981683
 30
0.0
  0
VERTEX
  5
652
330
34F
100
AcDbEntity
  8
0
  6
CONTINUOUS
 62
     8
100
AcDbVertex
100
AcDb2dVertex
 10
7.9051879853
 20
6.855940653
 30
0.0
  0
VERTEX
  5
653
330
34F
100
AcDbEntity
  8
0
  6
CONTINUOUS
 62
     8
100
AcDbVertex
100
AcDb2dVertex
 10
7.8900272571
 20
6.8205136018
 30
0.0
  0
VERTEX
  5
654
330
34F
100
AcDbEntity
  8
0
  6
CONTINUOUS
 62
     8
100
AcDbVertex
100
AcDb2dVertex
 10
7.8761067638
 20
6.7849157562
 30
0.0
  0
VERTEX
  5
655
330
34F
100
AcDbEntity
  8
0
  6
CONTINUOUS
 62
     8
100
AcDbVertex
100
AcDb2dVertex
 10
7.8634653041
 20
6.7492463338
 30
0.0
  0
VERTEX
  5
656
330
34F
100
AcDbEntity
  8
0
  6
CONTINUOUS
 62
     8
100
AcDbVertex
100
AcDb2dVertex
 10
7.8521381121
 20
6.7136047517
 30
0.0
  0
VERTEX
  5
657
330
34F
100
AcDbEntity
  8
0
  6
CONTINUOUS
 62
     8
100
AcDbVertex
100
AcDb2dVertex
 10
7.8421567588
 20
6.6780903494
 30
0.0
  0
VERTEX
  5
658
330
34F
100
AcDbEntity
  8
0
  6
CONTINUOUS
 62
     8
100
AcDbVertex
100
AcDb2dVertex
 10
7.8335490639
 20
6.6428021119
 30
0.0
  0
VERTEX
  5
659
330
34F
100
AcDbEntity
  8
0
  6
CONTINUOUS
 62
     8
100
AcDbVertex
100
AcDb2dVertex
 10
7.8263390186
 20
6.6078383937
 30
0.0
  0
VERTEX
  5
65A
330
34F
100
AcDbEntity
  8
0
  6
CONTINUOUS
 62
     8
100
AcDbVertex
100
AcDb2dVertex
 10
7.8205467187
 20
6.5732966452
 30
0.0
  0
VERTEX
  5
65B
330
34F
100
AcDbEntity
  8
0
  6
CONTINUOUS
 62
     8
100
AcDbVertex
100
AcDb2dVertex
 10
7.8161883082
 20
6.5392731403
 30
0.0
  0
VERTEX
  5
65C
330
34F
100
AcDbEntity
  8
0
  6
CONTINUOUS
 62
     8
100
AcDbVertex
100
AcDb2dVertex
 10
7.813275935
 20
6.5058627086
 30
0.0
  0
VERTEX
  5
65D
330
34F
100
AcDbEntity
  8
0
  6
CONTINUOUS
 62
     8
100
AcDbVertex
100
AcDb2dVertex
 10
7.8118177162
 20
6.473158471
 30
0.0
  0
VERTEX
  5
65E
330
34F
100
AcDbEntity
  8
0
  6
CONTINUOUS
 62
     8
100
AcDbVertex
100
AcDb2dVertex
 10
7.8118177162
 20
6.4412515801
 30
0.0
  0
VERTEX
  5
65F
330
34F
100
AcDbEntity
  8
0
  6
CONTINUOUS
 62
     8
100
AcDbVertex
100
AcDb2dVertex
 10
7.813275935
 20
6.4102309661
 30
0.0
  0
VERTEX
  5
660
330
34F
100
AcDbEntity
  8
0
  6
CONTINUOUS
 62
     8
100
AcDbVertex
100
AcDb2dVertex
 10
7.8161883082
 20
6.3801830891
 30
0.0
  0
VERTEX
  5
661
330
34F
100
AcDbEntity
  8
0
  6
CONTINUOUS
 62
     8
100
AcDbVertex
100
AcDb2dVertex
 10
7.8205467187
 20
6.3511916977
 30
0.0
  0
VERTEX
  5
662
330
34F
100
AcDbEntity
  8
0
  6
CONTINUOUS
 62
     8
100
AcDbVertex
100
AcDb2dVertex
 10
7.8263390186
 20
6.3233375964
 30
0.0
  0
VERTEX
  5
663
330
34F
100
AcDbEntity
  8
0
  6
CONTINUOUS
 62
     8
100
AcDbVertex
100
AcDb2dVertex
 10
7.8335490639
 20
6.2966984193
 30
0.0
  0
VERTEX
  5
664
330
34F
100
AcDbEntity
  8
0
  6
CONTINUOUS
 62
     8
100
AcDbVertex
100
AcDb2dVertex
 10
7.8421567588
 20
6.2713484148
 30
0.0
  0
VERTEX
  5
665
330
34F
100
AcDbEntity
  8
0
  6
CONTINUOUS
 62
     8
100
AcDbVertex
100
AcDb2dVertex
 10
7.8521381121
 20
6.2473582377
 30
0.0
  0
VERTEX
  5
666
330
34F
100
AcDbEntity
  8
0
  6
CONTINUOUS
 62
     8
100
AcDbVertex
100
AcDb2dVertex
 10
7.8634653041
 20
6.2247947531
 30
0.0
  0
VERTEX
  5
667
330
34F
100
AcDbEntity
  8
0
  6
CONTINUOUS
 62
     8
100
AcDbVertex
100
AcDb2dVertex
 10
7.8761067638
 20
6.2037208494
 30
0.0
  0
VERTEX
  5
668
330
34F
100
AcDbEntity
  8
0
  6
CONTINUOUS
 62
     8
100
AcDbVertex
100
AcDb2dVertex
 10
7.8900272571
 20
6.1841952633
 30
0.0
  0
VERTEX
  5
669
330
34F
100
AcDbEntity
  8
0
  6
CONTINUOUS
 62
     8
100
AcDbVertex
100
AcDb2dVertex
 10
7.9051879853
 20
6.1662724162
 30
0.0
  0
VERTEX
  5
66A
330
34F
100
AcDbEntity
  8
0
  6
CONTINUOUS
 62
     8
100
AcDbVertex
100
AcDb2dVertex
 10
7.9215466925
 20
6.1500022623
 30
0.0
  0
VERTEX
  5
66B
330
34F
100
AcDbEntity
  8
0
  6
CONTINUOUS
 62
     8
100
AcDbVertex
100
AcDb2dVertex
 10
7.9390577842
 20
6.1354301493
 30
0.0
  0
VERTEX
  5
66C
330
34F
100
AcDbEntity
  8
0
  6
CONTINUOUS
 62
     8
100
AcDbVertex
100
AcDb2dVertex
 10
7.9576724538
 20
6.1225966924
 30
0.0
  0
VERTEX
  5
66D
330
34F
100
AcDbEntity
  8
0
  6
CONTINUOUS
 62
     8
100
AcDbVertex
100
AcDb2dVertex
 10
7.97661507
 20
6.1119036792
 30
0.0
  0
SEQEND
  5
66E
330
34F
100
AcDbEntity
  8
0
  6
CONTINUOUS
 62
     8
  0
POLYLINE
  5
350
330
1F
100
AcDbEntity
  8
0
  6
CONTINUOUS
 62
     8
100
AcDb2dPolyline
 66
     1
 10
0.0
 20
0.0
 30
0.0
  0
VERTEX
  5
66F
330
350
100
AcDbEntity
  8
0
  6
CONTINUOUS
 62
     8
100
AcDbVertex
100
AcDb2dVertex
 10
7.8921300078
 20
6.1663944096
 30
0.0
  0
VERTEX
  5
670
330
350
100
AcDbEntity
  8
0
  6
CONTINUOUS
 62
     8
100
AcDbVertex
100
AcDb2dVertex
 10
7.8858330939
 20
6.1736970372
 30
0.0
  0
VERTEX
  5
671
330
350
100
AcDbEntity
  8
0
  6
CONTINUOUS
 62
     8
100
AcDbVertex
100
AcDb2dVertex
 10
7.8713640778
 20
6.1926096962
 30
0.0
  0
VERTEX
  5
672
330
350
100
AcDbEntity
  8
0
  6
CONTINUOUS
 62
     8
100
AcDbVertex
100
AcDb2dVertex
 10
7.8581506104
 20
6.2130842459
 30
0.0
  0
VERTEX
  5
673
330
350
100
AcDbEntity
  8
0
  6
CONTINUOUS
 62
     8
100
AcDbVertex
100
AcDb2dVertex
 10
7.8462289088
 20
6.2350645667
 30
0.0
  0
VERTEX
  5
674
330
350
100
AcDbEntity
  8
0
  6
CONTINUOUS
 62
     8
100
AcDbVertex
100
AcDb2dVertex
 10
7.8356316495
 20
6.2584904123
 30
0.0
  0
VERTEX
  5
675
330
350
100
AcDbEntity
  8
0
  6
CONTINUOUS
 62
     8
100
AcDbVertex
100
AcDb2dVertex
 10
7.8263878791
 20
6.283297574
 30
0.0
  0
VERTEX
  5
676
330
350
100
AcDbEntity
  8
0
  6
CONTINUOUS
 62
     8
100
AcDbVertex
100
AcDb2dVertex
 10
7.8185229338
 20
6.3094180571
 30
0.0
  0
VERTEX
  5
677
330
350
100
AcDbEntity
  8
0
  6
CONTINUOUS
 62
     8
100
AcDbVertex
100
AcDb2dVertex
 10
7.8120583711
 20
6.3367802672
 30
0.0
  0
VERTEX
  5
678
330
350
100
AcDbEntity
  8
0
  6
CONTINUOUS
 62
     8
100
AcDbVertex
100
AcDb2dVertex
 10
7.8070119099
 20
6.3653092063
 30
0.0
  0
VERTEX
  5
679
330
350
100
AcDbEntity
  8
0
  6
CONTINUOUS
 62
     8
100
AcDbVertex
100
AcDb2dVertex
 10
7.8033973821
 20
6.3949266786
 30
0.0
  0
VERTEX
  5
67A
330
350
100
AcDbEntity
  8
0
  6
CONTINUOUS
 62
     8
100
AcDbVertex
100
AcDb2dVertex
 10
7.801224695
 20
6.4255515047
 30
0.0
  0
VERTEX
  5
67B
330
350
100
AcDbEntity
  8
0
  6
CONTINUOUS
 62
     8
100
AcDbVertex
100
AcDb2dVertex
 10
7.8004998036
 20
6.4570997441
 30
0.0
  0
VERTEX
  5
67C
330
350
100
AcDbEntity
  8
0
  6
CONTINUOUS
 62
     8
100
AcDbVertex
100
AcDb2dVertex
 10
7.801224695
 20
6.4894849252
 30
0.0
  0
VERTEX
  5
67D
330
350
100
AcDbEntity
  8
0
  6
CONTINUOUS
 62
     8
100
AcDbVertex
100
AcDb2dVertex
 10
7.8033973821
 20
6.5226182825
 30
0.0
  0
VERTEX
  5
67E
330
350
100
AcDbEntity
  8
0
  6
CONTINUOUS
 62
     8
100
AcDbVertex
100
AcDb2dVertex
 10
7.8070119099
 20
6.5564089997
 30
0.0
  0
VERTEX
  5
67F
330
350
100
AcDbEntity
  8
0
  6
CONTINUOUS
 62
     8
100
AcDbVertex
100
AcDb2dVertex
 10
7.8120583711
 20
6.590764459
 30
0.0
  0
VERTEX
  5
680
330
350
100
AcDbEntity
  8
0
  6
CONTINUOUS
 62
     8
100
AcDbVertex
100
AcDb2dVertex
 10
7.8185229338
 20
6.6255904942
 30
0.0
  0
VERTEX
  5
681
330
350
100
AcDbEntity
  8
0
  6
CONTINUOUS
 62
     8
100
AcDbVertex
100
AcDb2dVertex
 10
7.8263878791
 20
6.6607916498
 30
0.0
  0
VERTEX
  5
682
330
350
100
AcDbEntity
  8
0
  6
CONTINUOUS
 62
     8
100
AcDbVertex
100
AcDb2dVertex
 10
7.8356316495
 20
6.6962714417
 30
0.0
  0
VERTEX
  5
683
330
350
100
AcDbEntity
  8
0
  6
CONTINUOUS
 62
     8
100
AcDbVertex
100
AcDb2dVertex
 10
7.8462289088
 20
6.7319326224
 30
0.0
  0
VERTEX
  5
684
330
350
100
AcDbEntity
  8
0
  6
CONTINUOUS
 62
     8
100
AcDbVertex
100
AcDb2dVertex
 10
7.8581506104
 20
6.7676774469
 30
0.0
  0
VERTEX
  5
685
330
350
100
AcDbEntity
  8
0
  6
CONTINUOUS
 62
     8
100
AcDbVertex
100
AcDb2dVertex
 10
7.8713640778
 20
6.8034079414
 30
0.0
  0
VERTEX
  5
686
330
350
100
AcDbEntity
  8
0
  6
CONTINUOUS
 62
     8
100
AcDbVertex
100
AcDb2dVertex
 10
7.8858330939
 20
6.8390261708
 30
0.0
  0
VERTEX
  5
687
330
350
100
AcDbEntity
  8
0
  6
CONTINUOUS
 62
     8
100
AcDbVertex
100
AcDb2dVertex
 10
7.9015180001
 20
6.8744345082
 30
0.0
  0
VERTEX
  5
688
330
350
100
AcDbEntity
  8
0
  6
CONTINUOUS
 62
     8
100
AcDbVertex
100
AcDb2dVertex
 10
7.918375805
 20
6.9095359017
 30
0.0
  0
VERTEX
  5
689
330
350
100
AcDbEntity
  8
0
  6
CONTINUOUS
 62
     8
100
AcDbVertex
100
AcDb2dVertex
 10
7.9363603028
 20
6.9442341409
 30
0.0
  0
VERTEX
  5
68A
330
350
100
AcDbEntity
  8
0
  6
CONTINUOUS
 62
     8
100
AcDbVertex
100
AcDb2dVertex
 10
7.955422199
 20
6.9784341203
 30
0.0
  0
VERTEX
  5
68B
330
350
100
AcDbEntity
  8
0
  6
CONTINUOUS
 62
     8
100
AcDbVertex
100
AcDb2dVertex
 10
7.9755092464
 20
7.0120421002
 30
0.0
  0
VERTEX
  5
68C
330
350
100
AcDbEntity
  8
0
  6
CONTINUOUS
 62
     8
100
AcDbVertex
100
AcDb2dVertex
 10
7.9965663878
 20
7.0449659633
 30
0.0
  0
VERTEX
  5
68D
330
350
100
AcDbEntity
  8
0
  6
CONTINUOUS
 62
     8
100
AcDbVertex
100
AcDb2dVertex
 10
8.018535907
 20
7.0771154678
 30
0.0
  0
VERTEX
  5
68E
330
350
100
AcDbEntity
  8
0
  6
CONTINUOUS
 62
     8
100
AcDbVertex
100
AcDb2dVertex
 10
8.041357587
 20
7.1084024939
 30
0.0
  0
VERTEX
  5
68F
330
350
100
AcDbEntity
  8
0
  6
CONTINUOUS
 62
     8
100
AcDbVertex
100
AcDb2dVertex
 10
8.0649688754
 20
7.1387412863
 30
0.0
  0
VERTEX
  5
690
330
350
100
AcDbEntity
  8
0
  6
CONTINUOUS
 62
     8
100
AcDbVertex
100
AcDb2dVertex
 10
8.089305055
 20
7.1680486882
 30
0.0
  0
VERTEX
  5
691
330
350
100
AcDbEntity
  8
0
  6
CONTINUOUS
 62
     8
100
AcDbVertex
100
AcDb2dVertex
 10
8.1142994222
 20
7.1962443703
 30
0.0
  0
VERTEX
  5
692
330
350
100
AcDbEntity
  8
0
  6
CONTINUOUS
 62
     8
100
AcDbVertex
100
AcDb2dVertex
 10
8.1398834692
 20
7.22325105
 30
0.0
  0
VERTEX
  5
693
330
350
100
AcDbEntity
  8
0
  6
CONTINUOUS
 62
     8
100
AcDbVertex
100
AcDb2dVertex
 10
8.1659870718
 20
7.2489947041
 30
0.0
  0
VERTEX
  5
694
330
350
100
AcDbEntity
  8
0
  6
CONTINUOUS
 62
     8
100
AcDbVertex
100
AcDb2dVertex
 10
8.1925386819
 20
7.2734047707
 30
0.0
  0
VERTEX
  5
695
330
350
100
AcDbEntity
  8
0
  6
CONTINUOUS
 62
     8
100
AcDbVertex
100
AcDb2dVertex
 10
8.2194655233
 20
7.2964143438
 30
0.0
  0
VERTEX
  5
696
330
350
100
AcDbEntity
  8
0
  6
CONTINUOUS
 62
     8
100
AcDbVertex
100
AcDb2dVertex
 10
8.2466937916
 20
7.3179603557
 30
0.0
  0
VERTEX
  5
697
330
350
100
AcDbEntity
  8
0
  6
CONTINUOUS
 62
     8
100
AcDbVertex
100
AcDb2dVertex
 10
8.2741488558
 20
7.3379837501
 30
0.0
  0
VERTEX
  5
698
330
350
100
AcDbEntity
  8
0
  6
CONTINUOUS
 62
     8
100
AcDbVertex
100
AcDb2dVertex
 10
8.3017554635
 20
7.3564296445
 30
0.0
  0
VERTEX
  5
699
330
350
100
AcDbEntity
  8
0
  6
CONTINUOUS
 62
     8
100
AcDbVertex
100
AcDb2dVertex
 10
8.3294379471
 20
7.3732474798
 30
0.0
  0
VERTEX
  5
69A
330
350
100
AcDbEntity
  8
0
  6
CONTINUOUS
 62
     8
100
AcDbVertex
100
AcDb2dVertex
 10
8.3571204306
 20
7.3883911597
 30
0.0
  0
VERTEX
  5
69B
330
350
100
AcDbEntity
  8
0
  6
CONTINUOUS
 62
     8
100
AcDbVertex
100
AcDb2dVertex
 10
8.3847270384
 20
7.4018191762
 30
0.0
  0
VERTEX
  5
69C
330
350
100
AcDbEntity
  8
0
  6
CONTINUOUS
 62
     8
100
AcDbVertex
100
AcDb2dVertex
 10
8.4121821026
 20
7.4134947241
 30
0.0
  0
VERTEX
  5
69D
330
350
100
AcDbEntity
  8
0
  6
CONTINUOUS
 62
     8
100
AcDbVertex
100
AcDb2dVertex
 10
8.4394103708
 20
7.4233858016
 30
0.0
  0
VERTEX
  5
69E
330
350
100
AcDbEntity
  8
0
  6
CONTINUOUS
 62
     8
100
AcDbVertex
100
AcDb2dVertex
 10
8.4663372123
 20
7.4314652979
 30
0.0
  0
VERTEX
  5
69F
330
350
100
AcDbEntity
  8
0
  6
CONTINUOUS
 62
     8
100
AcDbVertex
100
AcDb2dVertex
 10
8.4928888223
 20
7.4377110677
 30
0.0
  0
VERTEX
  5
6A0
330
350
100
AcDbEntity
  8
0
  6
CONTINUOUS
 62
     8
100
AcDbVertex
100
AcDb2dVertex
 10
8.5189924249
 20
7.4421059918
 30
0.0
  0
VERTEX
  5
6A1
330
350
100
AcDbEntity
  8
0
  6
CONTINUOUS
 62
     8
100
AcDbVertex
100
AcDb2dVertex
 10
8.5445764719
 20
7.4446380239
 30
0.0
  0
VERTEX
  5
6A2
330
350
100
AcDbEntity
  8
0
  6
CONTINUOUS
 62
     8
100
AcDbVertex
100
AcDb2dVertex
 10
8.5695708391
 20
7.4453002239
 30
0.0
  0
VERTEX
  5
6A3
330
350
100
AcDbEntity
  8
0
  6
CONTINUOUS
 62
     8
100
AcDbVertex
100
AcDb2dVertex
 10
8.5939070188
 20
7.4440907769
 30
0.0
  0
VERTEX
  5
6A4
330
350
100
AcDbEntity
  8
0
  6
CONTINUOUS
 62
     8
100
AcDbVertex
100
AcDb2dVertex
 10
8.6175183071
 20
7.4410129978
 30
0.0
  0
VERTEX
  5
6A5
330
350
100
AcDbEntity
  8
0
  6
CONTINUOUS
 62
     8
100
AcDbVertex
100
AcDb2dVertex
 10
8.627250349
 20
7.4391551838
 30
0.0
  0
SEQEND
  5
6A6
330
350
100
AcDbEntity
  8
0
  6
CONTINUOUS
 62
     8
  0
POLYLINE
  5
351
330
1F
100
AcDbEntity
  8
0
  6
CONTINUOUS
 62
     8
100
AcDb2dPolyline
 66
     1
 10
0.0
 20
0.0
 30
0.0
  0
VERTEX
  5
6A7
330
351
100
AcDbEntity
  8
0
  6
CONTINUOUS
 62
     8
100
AcDbVertex
100
AcDb2dVertex
 10
8.3164411367
 20
7.6189423029
 30
0.0
  0
VERTEX
  5
6A8
330
351
100
AcDbEntity
  8
0
  6
CONTINUOUS
 62
     8
100
AcDbVertex
100
AcDb2dVertex
 10
8.305723191
 20
7.621008487
 30
0.0
  0
VERTEX
  5
6A9
330
351
100
AcDbEntity
  8
0
  6
CONTINUOUS
 62
     8
100
AcDbVertex
100
AcDb2dVertex
 10
8.2821119026
 20
7.6240862661
 30
0.0
  0
VERTEX
  5
6AA
330
351
100
AcDbEntity
  8
0
  6
CONTINUOUS
 62
     8
100
AcDbVertex
100
AcDb2dVertex
 10
8.257775723
 20
7.6252957132
 30
0.0
  0
VERTEX
  5
6AB
330
351
100
AcDbEntity
  8
0
  6
CONTINUOUS
 62
     8
100
AcDbVertex
100
AcDb2dVertex
 10
8.2327813558
 20
7.6246335131
 30
0.0
  0
VERTEX
  5
6AC
330
351
100
AcDbEntity
  8
0
  6
CONTINUOUS
 62
     8
100
AcDbVertex
100
AcDb2dVertex
 10
8.2071973088
 20
7.622101481
 30
0.0
  0
VERTEX
  5
6AD
330
351
100
AcDbEntity
  8
0
  6
CONTINUOUS
 62
     8
100
AcDbVertex
100
AcDb2dVertex
 10
8.1810937062
 20
7.6177065569
 30
0.0
  0
VERTEX
  5
6AE
330
351
100
AcDbEntity
  8
0
  6
CONTINUOUS
 62
     8
100
AcDbVertex
100
AcDb2dVertex
 10
8.1545420961
 20
7.6114607871
 30
0.0
  0
VERTEX
  5
6AF
330
351
100
AcDbEntity
  8
0
  6
CONTINUOUS
 62
     8
100
AcDbVertex
100
AcDb2dVertex
 10
8.1276152547
 20
7.6033812908
 30
0.0
  0
VERTEX
  5
6B0
330
351
100
AcDbEntity
  8
0
  6
CONTINUOUS
 62
     8
100
AcDbVertex
100
AcDb2dVertex
 10
8.1003869864
 20
7.5934902133
 30
0.0
  0
VERTEX
  5
6B1
330
351
100
AcDbEntity
  8
0
  6
CONTINUOUS
 62
     8
100
AcDbVertex
100
AcDb2dVertex
 10
8.0729319222
 20
7.5818146654
 30
0.0
  0
VERTEX
  5
6B2
330
351
100
AcDbEntity
  8
0
  6
CONTINUOUS
 62
     8
100
AcDbVertex
100
AcDb2dVertex
 10
8.0453253145
 20
7.5683866489
 30
0.0
  0
VERTEX
  5
6B3
330
351
100
AcDbEntity
  8
0
  6
CONTINUOUS
 62
     8
100
AcDbVertex
100
AcDb2dVertex
 10
8.0176428309
 20
7.5532429691
 30
0.0
  0
VERTEX
  5
6B4
330
351
100
AcDbEntity
  8
0
  6
CONTINUOUS
 62
     8
100
AcDbVertex
100
AcDb2dVertex
 10
7.9899603474
 20
7.5364251337
 30
0.0
  0
VERTEX
  5
6B5
330
351
100
AcDbEntity
  8
0
  6
CONTINUOUS
 62
     8
100
AcDbVertex
100
AcDb2dVertex
 10
7.9623537396
 20
7.5179792393
 30
0.0
  0
VERTEX
  5
6B6
330
351
100
AcDbEntity
  8
0
  6
CONTINUOUS
 62
     8
100
AcDbVertex
100
AcDb2dVertex
 10
7.9348986754
 20
7.4979558449
 30
0.0
  0
VERTEX
  5
6B7
330
351
100
AcDbEntity
  8
0
  6
CONTINUOUS
 62
     8
100
AcDbVertex
100
AcDb2dVertex
 10
7.9076704072
 20
7.476409833
 30
0.0
  0
VERTEX
  5
6B8
330
351
100
AcDbEntity
  8
0
  6
CONTINUOUS
 62
     8
100
AcDbVertex
100
AcDb2dVertex
 10
7.8807435657
 20
7.45340026
 30
0.0
  0
VERTEX
  5
6B9
330
351
100
AcDbEntity
  8
0
  6
CONTINUOUS
 62
     8
100
AcDbVertex
100
AcDb2dVertex
 10
7.8541919557
 20
7.4289901933
 30
0.0
  0
VERTEX
  5
6BA
330
351
100
AcDbEntity
  8
0
  6
CONTINUOUS
 62
     8
100
AcDbVertex
100
AcDb2dVertex
 10
7.8280883531
 20
7.4032465393
 30
0.0
  0
VERTEX
  5
6BB
330
351
100
AcDbEntity
  8
0
  6
CONTINUOUS
 62
     8
100
AcDbVertex
100
AcDb2dVertex
 10
7.8025043061
 20
7.3762398595
 30
0.0
  0
VERTEX
  5
6BC
330
351
100
AcDbEntity
  8
0
  6
CONTINUOUS
 62
     8
100
AcDbVertex
100
AcDb2dVertex
 10
7.7775099389
 20
7.3480441775
 30
0.0
  0
VERTEX
  5
6BD
330
351
100
AcDbEntity
  8
0
  6
CONTINUOUS
 62
     8
100
AcDbVertex
100
AcDb2dVertex
 10
7.7531737592
 20
7.3187367755
 30
0.0
  0
VERTEX
  5
6BE
330
351
100
AcDbEntity
  8
0
  6
CONTINUOUS
 62
     8
100
AcDbVertex
100
AcDb2dVertex
 10
7.7295624709
 20
7.2883979832
 30
0.0
  0
VERTEX
  5
6BF
330
351
100
AcDbEntity
  8
0
  6
CONTINUOUS
 62
     8
100
AcDbVertex
100
AcDb2dVertex
 10
7.7067407909
 20
7.257110957
 30
0.0
  0
VERTEX
  5
6C0
330
351
100
AcDbEntity
  8
0
  6
CONTINUOUS
 62
     8
100
AcDbVertex
100
AcDb2dVertex
 10
7.6847712717
 20
7.2249614525
 30
0.0
  0
VERTEX
  5
6C1
330
351
100
AcDbEntity
  8
0
  6
CONTINUOUS
 62
     8
100
AcDbVertex
100
AcDb2dVertex
 10
7.6637141303
 20
7.1920375894
 30
0.0
  0
VERTEX
  5
6C2
330
351
100
AcDbEntity
  8
0
  6
CONTINUOUS
 62
     8
100
AcDbVertex
100
AcDb2dVertex
 10
7.6436270829
 20
7.1584296095
 30
0.0
  0
VERTEX
  5
6C3
330
351
100
AcDbEntity
  8
0
  6
CONTINUOUS
 62
     8
100
AcDbVertex
100
AcDb2dVertex
 10
7.6245651867
 20
7.1242296301
 30
0.0
  0
VERTEX
  5
6C4
330
351
100
AcDbEntity
  8
0
  6
CONTINUOUS
 62
     8
100
AcDbVertex
100
AcDb2dVertex
 10
7.6065806889
 20
7.0895313909
 30
0.0
  0
VERTEX
  5
6C5
330
351
100
AcDbEntity
  8
0
  6
CONTINUOUS
 62
     8
100
AcDbVertex
100
AcDb2dVertex
 10
7.589722884
 20
7.0544299974
 30
0.0
  0
VERTEX
  5
6C6
330
351
100
AcDbEntity
  8
0
  6
CONTINUOUS
 62
     8
100
AcDbVertex
100
AcDb2dVertex
 10
7.5740379778
 20
7.01902166
 30
0.0
  0
VERTEX
  5
6C7
330
351
100
AcDbEntity
  8
0
  6
CONTINUOUS
 62
     8
100
AcDbVertex
100
AcDb2dVertex
 10
7.5595689617
 20
6.9834034306
 30
0.0
  0
VERTEX
  5
6C8
330
351
100
AcDbEntity
  8
0
  6
CONTINUOUS
 62
     8
100
AcDbVertex
100
AcDb2dVertex
 10
7.5463554943
 20
6.9476729362
 30
0.0
  0
VERTEX
  5
6C9
330
351
100
AcDbEntity
  8
0
  6
CONTINUOUS
 62
     8
100
AcDbVertex
100
AcDb2dVertex
 10
7.5344337927
 20
6.9119281116
 30
0.0
  0
VERTEX
  5
6CA
330
351
100
AcDbEntity
  8
0
  6
CONTINUOUS
 62
     8
100
AcDbVertex
100
AcDb2dVertex
 10
7.5238365334
 20
6.8762669309
 30
0.0
  0
VERTEX
  5
6CB
330
351
100
AcDbEntity
  8
0
  6
CONTINUOUS
 62
     8
100
AcDbVertex
100
AcDb2dVertex
 10
7.5145927629
 20
6.840787139
 30
0.0
  0
VERTEX
  5
6CC
330
351
100
AcDbEntity
  8
0
  6
CONTINUOUS
 62
     8
100
AcDbVertex
100
AcDb2dVertex
 10
7.5067278177
 20
6.8055859834
 30
0.0
  0
VERTEX
  5
6CD
330
351
100
AcDbEntity
  8
0
  6
CONTINUOUS
 62
     8
100
AcDbVertex
100
AcDb2dVertex
 10
7.500263255
 20
6.7707599482
 30
0.0
  0
VERTEX
  5
6CE
330
351
100
AcDbEntity
  8
0
  6
CONTINUOUS
 62
     8
100
AcDbVertex
100
AcDb2dVertex
 10
7.4952167938
 20
6.736404489
 30
0.0
  0
VERTEX
  5
6CF
330
351
100
AcDbEntity
  8
0
  6
CONTINUOUS
 62
     8
100
AcDbVertex
100
AcDb2dVertex
 10
7.491602266
 20
6.7026137717
 30
0.0
  0
VERTEX
  5
6D0
330
351
100
AcDbEntity
  8
0
  6
CONTINUOUS
 62
     8
100
AcDbVertex
100
AcDb2dVertex
 10
7.4894295789
 20
6.6694804144
 30
0.0
  0
VERTEX
  5
6D1
330
351
100
AcDbEntity
  8
0
  6
CONTINUOUS
 62
     8
100
AcDbVertex
100
AcDb2dVertex
 10
7.4887046875
 20
6.6370952333
 30
0.0
  0
VERTEX
  5
6D2
330
351
100
AcDbEntity
  8
0
  6
CONTINUOUS
 62
     8
100
AcDbVertex
100
AcDb2dVertex
 10
7.4894295789
 20
6.6055469939
 30
0.0
  0
VERTEX
  5
6D3
330
351
100
AcDbEntity
  8
0
  6
CONTINUOUS
 62
     8
100
AcDbVertex
100
AcDb2dVertex
 10
7.491602266
 20
6.5749221678
 30
0.0
  0
VERTEX
  5
6D4
330
351
100
AcDbEntity
  8
0
  6
CONTINUOUS
 62
     8
100
AcDbVertex
100
AcDb2dVertex
 10
7.4952167938
 20
6.5453046955
 30
0.0
  0
VERTEX
  5
6D5
330
351
100
AcDbEntity
  8
0
  6
CONTINUOUS
 62
     8
100
AcDbVertex
100
AcDb2dVertex
 10
7.500263255
 20
6.5167757564
 30
0.0
  0
VERTEX
  5
6D6
330
351
100
AcDbEntity
  8
0
  6
CONTINUOUS
 62
     8
100
AcDbVertex
100
AcDb2dVertex
 10
7.5067278177
 20
6.4894135463
 30
0.0
  0
VERTEX
  5
6D7
330
351
100
AcDbEntity
  8
0
  6
CONTINUOUS
 62
     8
100
AcDbVertex
100
AcDb2dVertex
 10
7.5145927629
 20
6.4632930633
 30
0.0
  0
VERTEX
  5
6D8
330
351
100
AcDbEntity
  8
0
  6
CONTINUOUS
 62
     8
100
AcDbVertex
100
AcDb2dVertex
 10
7.5238365334
 20
6.4384859016
 30
0.0
  0
VERTEX
  5
6D9
330
351
100
AcDbEntity
  8
0
  6
CONTINUOUS
 62
     8
100
AcDbVertex
100
AcDb2dVertex
 10
7.5344337927
 20
6.415060056
 30
0.0
  0
VERTEX
  5
6DA
330
351
100
AcDbEntity
  8
0
  6
CONTINUOUS
 62
     8
100
AcDbVertex
100
AcDb2dVertex
 10
7.5463554943
 20
6.3930797351
 30
0.0
  0
VERTEX
  5
6DB
330
351
100
AcDbEntity
  8
0
  6
CONTINUOUS
 62
     8
100
AcDbVertex
100
AcDb2dVertex
 10
7.5595689617
 20
6.3726051855
 30
0.0
  0
VERTEX
  5
6DC
330
351
100
AcDbEntity
  8
0
  6
CONTINUOUS
 62
     8
100
AcDbVertex
100
AcDb2dVertex
 10
7.5740379778
 20
6.3536925264
 30
0.0
  0
VERTEX
  5
6DD
330
351
100
AcDbEntity
  8
0
  6
CONTINUOUS
 62
     8
100
AcDbVertex
100
AcDb2dVertex
 10
7.5799658667
 20
6.3468039879
 30
0.0
  0
SEQEND
  5
6DE
330
351
100
AcDbEntity
  8
0
  6
CONTINUOUS
 62
     8
  0
ENDSEC
  0
SECTION
  2
OBJECTS
  0
DICTIONARY
  5
C
330
0
100
AcDbDictionary
  3
ACAD_GROUP
350
D
  3
ACAD_LAYOUT
350
1A
  3
ACAD_MLEADERSTYLE
350
354
  3
ACAD_MLINESTYLE
350
17
  3
ACAD_PLOTSETTINGS
350
19
  3
ACAD_SCALELIST
350
6F
  3
ACAD_VISUALSTYLE
350
2A
  3
ACDBVARIABLEDICTIONARY
350
352
1001
ACAD
1000
TREAT_AS_HARD
1070
     0
  0
DICTIONARY
  5
D
102
{ACAD_REACTORS
330
C
102
}
330
C
100
AcDbDictionary
1001
ACAD
1000
TREAT_AS_HARD
1070
     0
  0
DICTIONARY
  5
1A
102
{ACAD_REACTORS
330
C
102
}
330
C
100
AcDbDictionary
1001
ACAD
1000
TREAT_AS_HARD
1070
     0
  0
DICTIONARY
  5
354
102
{ACAD_REACTORS
330
C
102
}
330
C
100
AcDbDictionary
1001
ACAD
1000
TREAT_AS_HARD
1070
     0
  0
DICTIONARY
  5
17
102
{ACAD_REACTORS
330
C
102
}
330
C
100
AcDbDictionary
  3
STANDARD
350
18
1001
ACAD
1000
TREAT_AS_HARD
1070
     0
  0
DICTIONARY
  5
19
102
{ACAD_REACTORS
330
C
102
}
330
C
100
AcDbDictionary
1001
ACAD
1000
TREAT_AS_HARD
1070
     0
  0
DICTIONARY
  5
6F
102
{ACAD_REACTORS
330
C
102
}
330
C
100
AcDbDictionary
  3
A0
350
70
  3
A1
350
71
  3
A2
350
72
  3
A3
350
73
  3
A4
350
74
  3
A5
350
75
  3
A6
350
76
  3
A7
350
77
  3
A8
350
78
  3
A9
350
79
  3
B0
350
7A
  3
B1
350
7B
  3
B2
350
7C
  3
B3
350
7D
  3
B4
350
7E
  3
B5
350
7F
  3
B6
350
80
  3
B7
350
81
  3
B8
350
82
  3
B9
350
83
  3
C0
350
84
  3
C1
350
85
  3
C2
350
86
  3
C3
350
87
  3
C4
350
88
  3
C5
350
89
  3
C6
350
8A
  3
C7
350
8B
  3
C8
350
8C
  3
C9
350
8D
  3
D0
350
8E
  3
D1
350
8F
  3
D2
350
90
1001
ACAD
1000
TREAT_AS_HARD
1070
     0
  0
DICTIONARY
  5
2A
102
{ACAD_REACTORS
330
C
102
}
330
C
100
AcDbDictionary
  3
2DWIREFRAME
350
2F
  3
3D_HIDDEN
350
31
  3
3DWIREFRAME
350
30
  3
BASIC
350
32
  3
BRIGHTEN
350
36
  3
COLORCHANGE
350
3A
  3
CONCEPTUAL
350
34
  3
DIM
350
35
  3
FACEPATTERN
350
39
  3
FLAT
350
2B
  3
FLATWITHEDGES
350
2C
  3
GOURAUD
350
2D
  3
GOURAUDWITHEDGES
350
2E
  3
LINEPATTERN
350
38
  3
REALISTIC
350
33
  3
THICKEN
350
37
1001
ACAD
1000
TREAT_AS_HARD
1070
     0
  0
DICTIONARY
  5
352
102
{ACAD_REACTORS
330
C
102
}
330
C
100
AcDbDictionary
  3
CANNOSCALE
350
355
  3
DIMASSOC
350
356
  3
HIDETEXT
350
357
1001
ACAD
1000
TREAT_AS_HARD
1070
     0
  0
MLINESTYLE
  5
18
102
{ACAD_REACTORS
330
17
102
}
330
17
100
AcDbMlineStyle
  2
Standard
 70
     0
  3

 62
   256
 51
90.0
 52
90.0
 71
     2
 49
0.5
 62
   256
  6
BYLAYER
 49
-0.5
 62
   256
  6
BYLAYER
  0
ACAD_PROXY_OBJECT
  5
70
102
{ACAD_REACTORS
330
6F
102
}
330
6F
100
AcDbZombieObject
 90
      499
 91
      502
 93
       41
310
903313A31580
  0
ACAD_PROXY_OBJECT
  5
71
102
{ACAD_REACTORS
330
6F
102
}
330
6F
100
AcDbZombieObject
 90
      499
 91
      502
 93
      105
310
903313A324000000000000004000
  0
ACAD_PROXY_OBJECT
  5
72
102
{ACAD_REACTORS
330
6F
102
}
330
6F
100
AcDbZombieObject
 90
      499
 91
      502
 93
      105
310
903313A344000000000000104000
  0
ACAD_PROXY_OBJECT
  5
73
102
{ACAD_REACTORS
330
6F
102
}
330
6F
100
AcDbZombieObject
 90
      499
 91
      502
 93
      105
310
903313A354000000000000144000
  0
ACAD_PROXY_OBJECT
  5
74
102
{ACAD_REACTORS
330
6F
102
}
330
6F
100
AcDbZombieObject
 90
      499
 91
      502
 93
      105
310
903313A384000000000000204000
  0
ACAD_PROXY_OBJECT
  5
75
102
{ACAD_REACTORS
330
6F
102
}
330
6F
100
AcDbZombieObject
 90
      499
 91
      502
 93
      113
310
904313A31304000000000000244000
  0
ACAD_PROXY_OBJECT
  5
76
102
{ACAD_REACTORS
330
6F
102
}
330
6F
100
AcDbZombieObject
 90
      499
 91
      502
 93
      113
310
904313A31364000000000000304000
  0
ACAD_PROXY_OBJECT
  5
77
102
{ACAD_REACTORS
330
6F
102
}
330
6F
100
AcDbZombieObject
 90
      499
 91
      502
 93
      113
310
904313A32304000000000000344000
  0
ACAD_PROXY_OBJECT
  5
78
102
{ACAD_REACTORS
330
6F
102
}
330
6F
100
AcDbZombieObject
 90
      499
 91
      502
 93
      113
310
904313A333040000000000003E4000
  0
ACAD_PROXY_OBJECT
  5
79
102
{ACAD_REACTORS
330
6F
102
}
330
6F
100
AcDbZombieObject
 90
      499
 91
      502
 93
      113
310
904313A34304000000000000444000
  0
ACAD_PROXY_OBJECT
  5
7A
102
{ACAD_REACTORS
330
6F
102
}
330
6F
100
AcDbZombieObject
 90
      499
 91
      502
 93
      113
310
904313A35304000000000000494000
  0
ACAD_PROXY_OBJECT
  5
7B
102
{ACAD_REACTORS
330
6F
102
}
330
6F
100
AcDbZombieObject
 90
      499
 91
      502
 93
      121
310
905313A3130304000000000000594000
  0
ACAD_PROXY_OBJECT
  5
7C
102
{ACAD_REACTORS
330
6F
102
}
330
6F
100
AcDbZombieObject
 90
      499
 91
      502
 93
      105
310
903323A310000000000000010100
  0
ACAD_PROXY_OBJECT
  5
7D
102
{ACAD_REACTORS
330
6F
102
}
330
6F
100
AcDbZombieObject
 90
      499
 91
      502
 93
      105
310
903343A310000000000000410100
  0
ACAD_PROXY_OBJECT
  5
7E
102
{ACAD_REACTORS
330
6F
102
}
330
6F
100
AcDbZombieObject
 90
      499
 91
      502
 93
      105
310
903383A310000000000000810100
  0
ACAD_PROXY_OBJECT
  5
7F
102
{ACAD_REACTORS
330
6F
102
}
330
6F
100
AcDbZombieObject
 90
      499
 91
      502
 93
      113
310
90431303A310000000000000910100
  0
ACAD_PROXY_OBJECT
  5
80
102
{ACAD_REACTORS
330
6F
102
}
330
6F
100
AcDbZombieObject
 90
      499
 91
      502
 93
      121
310
9053130303A310000000000001650100
  0
ACAD_PROXY_OBJECT
  5
81
102
{ACAD_REACTORS
330
6F
102
}
330
6F
100
AcDbZombieObject
 90
      499
 91
      502
 93
      257
310
90E312F31323822203D2031272D3022000000000000200FC000000000000284000
  0
ACAD_PROXY_OBJECT
  5
82
102
{ACAD_REACTORS
330
6F
102
}
330
6F
100
AcDbZombieObject
 90
      499
 91
      502
 93
      249
310
90D312F363422203D2031272D3022000000000000240FC000000000000284000
  0
ACAD_PROXY_OBJECT
  5
83
102
{ACAD_REACTORS
330
6F
102
}
330
6F
100
AcDbZombieObject
 90
      499
 91
      502
 93
      249
310
90D312F333222203D2031272D3022000000000000280FC000000000000284000
  0
ACAD_PROXY_OBJECT
  5
84
102
{ACAD_REACTORS
330
6F
102
}
330
6F
100
AcDbZombieObject
 90
      499
 91
      502
 93
      249
310
90D312F313622203D2031272D30220000000000002C0FC000000000000284000
  0
ACAD_PROXY_OBJECT
  5
85
102
{ACAD_REACTORS
330
6F
102
}
330
6F
100
AcDbZombieObject
 90
      499
 91
      502
 93
      249
310
90D332F333222203D2031272D30220000000000002E0FC000000000000284000
  0
ACAD_PROXY_OBJECT
  5
86
102
{ACAD_REACTORS
330
6F
102
}
330
6F
100
AcDbZombieObject
 90
      499
 91
      502
 93
      241
310
90C312F3822203D2031272D3022000000000000300FC000000000000284000
  0
ACAD_PROXY_OBJECT
  5
87
102
{ACAD_REACTORS
330
6F
102
}
330
6F
100
AcDbZombieObject
 90
      499
 91
      502
 93
      249
310
90D332F313622203D2031272D3022000000000000320FC000000000000284000
  0
ACAD_PROXY_OBJECT
  5
88
102
{ACAD_REACTORS
330
6F
102
}
330
6F
100
AcDbZombieObject
 90
      499
 91
      502
 93
      241
310
90C312F3422203D2031272D3022000000000000340FC000000000000284000
  0
ACAD_PROXY_OBJECT
  5
89
102
{ACAD_REACTORS
330
6F
102
}
330
6F
100
AcDbZombieObject
 90
      499
 91
      502
 93
      241
310
90C332F3822203D2031272D3022000000000000360FC000000000000284000
  0
ACAD_PROXY_OBJECT
  5
8A
102
{ACAD_REACTORS
330
6F
102
}
330
6F
100
AcDbZombieObject
 90
      499
 91
      502
 93
      241
310
90C312F3222203D2031272D3022000000000000380FC000000000000284000
  0
ACAD_PROXY_OBJECT
  5
8B
102
{ACAD_REACTORS
330
6F
102
}
330
6F
100
AcDbZombieObject
 90
      499
 91
      502
 93
      241
310
90C332F3422203D2031272D30220000000000003A0FC000000000000284000
  0
ACAD_PROXY_OBJECT
  5
8C
102
{ACAD_REACTORS
330
6F
102
}
330
6F
100
AcDbZombieObject
 90
      499
 91
      502
 93
      161
310
90A3122203D2031272D30224000000000000284000
  0
ACAD_PROXY_OBJECT
  5
8D
102
{ACAD_REACTORS
330
6F
102
}
330
6F
100
AcDbZombieObject
 90
      499
 91
      502
 93
      257
310
90E312D312F3222203D2031272D30220000000000003E0FC000000000000284000
  0
ACAD_PROXY_OBJECT
  5
8E
102
{ACAD_REACTORS
330
6F
102
}
330
6F
100
AcDbZombieObject
 90
      499
 91
      502
 93
      225
310
90A3322203D2031272D302200000000000002100000000000000284000
  0
ACAD_PROXY_OBJECT
  5
8F
102
{ACAD_REACTORS
330
6F
102
}
330
6F
100
AcDbZombieObject
 90
      499
 91
      502
 93
      225
310
90A3622203D2031272D302200000000000006100000000000000284000
  0
ACAD_PROXY_OBJECT
  5
90
102
{ACAD_REACTORS
330
6F
102
}
330
6F
100
AcDbZombieObject
 90
      499
 91
      502
 93
      249
310
90D31272D3022203D2031272D30220000000000000A100000000000000284000
  0
ACAD_PROXY_OBJECT
  5
2F
102
{ACAD_REACTORS
330
2A
102
}
330
2A
100
AcDbZombieObject
 90
      499
 91
      501
 93
      436
310
42CC9915DA5C99599C985B595049028333333333333E3BF0000000000000FB0107901411070040501600405405064090741402480A0340
1001
ACAD
1000
AcDbSavedByObjectVersion
1070
     0
  0
ACAD_PROXY_OBJECT
  5
31
102
{ACAD_REACTORS
330
2A
102
}
330
2A
100
AcDbZombieObject
 90
      499
 91
      501
 93
      500
310
424CD108121A5919195B90640502408333333333333E3BF0000000000000FB01079024090700405020000000000001110200405405064090740C02480A0340
1001
ACAD
1000
AcDbSavedByObjectVersion
1070
     0
  0
ACAD_PROXY_OBJECT
  5
30
102
{ACAD_REACTORS
330
2A
102
}
330
2A
100
AcDbZombieObject
 90
      499
 91
      501
 93
      436
310
42CCD915DA5C99599C985B595059028333333333333E3BF0000000000000FB0107901411070040501600405405064090741402480A0340
1001
ACAD
1000
AcDbSavedByObjectVersion
1070
     0
  0
ACAD_PROXY_OBJECT
  5
32
102
{ACAD_REACTORS
330
2A
102
}
330
2A
100
AcDbZombieObject
 90
      499
 91
      501
 93
      388
310
4150985CDA58D07406404333333333333E3BF0000000000000FB0107A41107004050150841D405064090741402480A0350
1001
ACAD
1000
AcDbSavedByObjectVersion
1070
     0
  0
ACAD_PROXY_OBJECT
  5
36
102
{ACAD_REACTORS
330
2A
102
}
330
2A
100
AcDbZombieObject
 90
      499
 91
      501
 93
      428
310
42109C9A59DA1D195B90C409028333333333333E3BF0000000000000FB010790141107004050150841D405064090741402480A029950
1001
ACAD
1000
AcDbSavedByObjectVersion
1070
     0
  0
ACAD_PROXY_OBJECT
  5
3A
102
{ACAD_REACTORS
330
2A
102
}
330
2A
100
AcDbZombieObject
 90
      499
 91
      501
 93
      452
310
42D0DBDB1BDC90DA185B99D95104090240C333333333333E3BF0000000000000FB0108901411070040501508421405064090741402480A0350
1001
ACAD
1000
AcDbSavedByObjectVersion
1070
     0
  0
ACAD_PROXY_OBJECT
  5
34
102
{ACAD_REACTORS
330
2A
102
}
330
2A
100
AcDbZombieObject
 90
      499
 91
      501
 93
      500
310
4290DBDB98D95C1D1D585B10940D028333333333333E3BF0000000000000FB0107902409070040501000000000000111010841D405064090740C02480A0340
1001
ACAD
1000
AcDbSavedByObjectVersion
1070
     0
  0
ACAD_PROXY_OBJECT
  5
35
102
{ACAD_REACTORS
330
2A
102
}
330
2A
100
AcDbZombieObject
 90
      499
 91
      501
 93
      412
310
40D11A5B50B409028333333333333E3BF0000000000000FB010790141107004050150841D405064090741402480A02677FFFFFD0
1001
ACAD
1000
AcDbSavedByObjectVersion
1070
     0
  0
ACAD_PROXY_OBJECT
  5
39
102
{ACAD_REACTORS
330
2A
102
}
330
2A
100
AcDbZombieObject
 90
      499
 91
      501
 93
      444
310
42D19858D95C185D1D195C9B90F409028333333333333E3BF0000000000000FB010790141107004050150841D405064090741402480A0350
1001
ACAD
1000
AcDbSavedByObjectVersion
1070
     0
  0
ACAD_PROXY_OBJECT
  5
2B
102
{ACAD_REACTORS
330
2A
102
}
330
2A
100
AcDbZombieObject
 90
      499
 91
      501
 93
      388
310
41119B185D240901404333333333333E3BF0000000000000F9010740A41107004050150841D405064090741402480A1B50
1001
ACAD
1000
AcDbSavedByObjectVersion
1070
     0
  0
ACAD_PROXY_OBJECT
  5
2C
102
{ACAD_REACTORS
330
2A
102
}
330
2A
100
AcDbZombieObject
 90
      499
 91
      501
 93
      476
310
43519B185D15DA5D1A115919D95CD0140901404333333333333E3BF0000000000000F9010740901411070040501600405405064090741402480A1B50
1001
ACAD
1000
AcDbSavedByObjectVersion
1070
     0
  0
ACAD_PROXY_OBJECT
  5
2D
102
{ACAD_REACTORS
330
2A
102
}
330
2A
100
AcDbZombieObject
 90
      499
 91
      501
 93
      412
310
41D1DBDD5C985D5910240902404333333333333E3BF0000000000000F9010740A411070040501641D405064090741402480A1B50
1001
ACAD
1000
AcDbSavedByObjectVersion
1070
     0
  0
ACAD_PROXY_OBJECT
  5
2E
102
{ACAD_REACTORS
330
2A
102
}
330
2A
100
AcDbZombieObject
 90
      499
 91
      501
 93
      500
310
4411DBDD5C985D5915DA5D1A115919D95CD0340902404333333333333E3BF0000000000000F9010740901411070040501600405405064090741402480A1B50
1001
ACAD
1000
AcDbSavedByObjectVersion
1070
     0
  0
ACAD_PROXY_OBJECT
  5
38
102
{ACAD_REACTORS
330
2A
102
}
330
2A
100
AcDbZombieObject
 90
      499
 91
      501
 93
      444
310
42D31A5B995C185D1D195C9B90E409028333333333333E3BF0000000000000FB010790141107004050750841D405064090741402483A0350
1001
ACAD
1000
AcDbSavedByObjectVersion
1070
     0
  0
ACAD_PROXY_OBJECT
  5
33
102
{ACAD_REACTORS
330
2A
102
}
330
2A
100
AcDbZombieObject
 90
      499
 91
      501
 93
      420
310
425499585B1A5CDD1A58D08409028333333333333E3BF0000000000000FB01079019070040501508421405064090741402480A1B40
1001
ACAD
1000
AcDbSavedByObjectVersion
1070
     0
  0
ACAD_PROXY_OBJECT
  5
37
102
{ACAD_REACTORS
330
2A
102
}
330
2A
100
AcDbZombieObject
 90
      499
 91
      501
 93
      412
310
41D51A1A58DAD95B90D409028333333333333E3BF0000000000000FB010790141107004050150C41D405064090741402480A0350
1001
ACAD
1000
AcDbSavedByObjectVersion
1070
     0
  0
DICTIONARYVAR
  5
355
102
{ACAD_REACTORS
330
352
102
}
330
352
100
DictionaryVariables
280
     0
  1
1:1
  0
DICTIONARYVAR
  5
356
102
{ACAD_REACTORS
330
352
102
}
330
352
100
DictionaryVariables
280
     0
  1
2
  0
DICTIONARYVAR
  5
357
102
{ACAD_REACTORS
330
352
102
}
330
352
100
DictionaryVariables
280
     0
  1
1
  0
ENDSEC
  0
EOF
