  0
SECTION
  2
HEADER
  9
$ACADVER
  1
AC1012
  9
$DWGCODEPAGE
  3
ansi_1252
  9
$INSBASE
 10
0.0
 20
0.0
 30
0.0
  9
$EXTMIN
 10
0.0
 20
0.0
 30
0.0
  9
$EXTMAX
 10
11.0
 20
8.5
 30
0.0
  9
$LIMMIN
 10
0.0
 20
0.0
  9
$LIMMAX
 10
11.0
 20
8.5
  9
$ORTHOMODE
 70
     0
  9
$REGENMODE
 70
     1
  9
$FILLMODE
 70
     1
  9
$QTEXTMODE
 70
     0
  9
$MIRRTEXT
 70
     1
  9
$DRAGMODE
 70
     2
  9
$LTSCALE
 40
1.0
  9
$OSMODE
 70
    37
  9
$ATTMODE
 70
     1
  9
$TEXTSIZE
 40
0.125
  9
$TRACEWID
 40
0.05
  9
$TEXTSTYLE
  7
STANDARD
  9
$CLAYER
  8
0
  9
$CELTYPE
  6
BYLAYER
  9
$CECOLOR
 62
   256
  9
$CELTSCALE
 40
1.0
  9
$DELOBJ
 70
     1
  9
$DISPSILH
 70
     0
  9
$DIMSCALE
 40
1.0
  9
$DIMASZ
 40
0.13
  9
$DIMEXO
 40
0.05
  9
$DIMDLI
 40
0.38
  9
$DIMRND
 40
0.0
  9
$DIMDLE
 40
0.0
  9
$DIMEXE
 40
0.125
  9
$DIMTP
 40
0.0
  9
$DIMTM
 40
0.0
  9
$DIMTXT
 40
0.125
  9
$DIMCEN
 40
0.09
  9
$DIMTSZ
 40
0.0
  9
$DIMTOL
 70
     0
  9
$DIMLIM
 70
     0
  9
$DIMTIH
 70
     1
  9
$DIMTOH
 70
     1
  9
$DIMSE1
 70
     0
  9
$DIMSE2
 70
     0
  9
$DIMTAD
 70
     0
  9
$DIMZIN
 70
     0
  9
$DIMBLK
  1

  9
$DIMASO
 70
     1
  9
$DIMSHO
 70
     1
  9
$DIMPOST
  1

  9
$DIMAPOST
  1

  9
$DIMALT
 70
     0
  9
$DIMALTD
 70
     2
  9
$DIMALTF
 40
25.4
  9
$DIMLFAC
 40
1.0
  9
$DIMTOFL
 70
     0
  9
$DIMTVP
 40
0.0
  9
$DIMTIX
 70
     0
  9
$DIMSOXD
 70
     0
  9
$DIMSAH
 70
     0
  9
$DIMBLK1
  1

  9
$DIMBLK2
  1

  9
$DIMSTYLE
  2
STANDARD
  9
$DIMCLRD
 70
     0
  9
$DIMCLRE
 70
     0
  9
$DIMCLRT
 70
     0
  9
$DIMTFAC
 40
1.0
  9
$DIMGAP
 40
0.06
  9
$DIMJUST
 70
     0
  9
$DIMSD1
 70
     0
  9
$DIMSD2
 70
     0
  9
$DIMTOLJ
 70
     1
  9
$DIMTZIN
 70
     0
  9
$DIMALTZ
 70
     0
  9
$DIMALTTZ
 70
     0
  9
$DIMFIT
 70
     3
  9
$DIMUPT
 70
     0
  9
$DIMUNIT
 70
     2
  9
$DIMDEC
 70
     3
  9
$DIMTDEC
 70
     3
  9
$DIMALTU
 70
     2
  9
$DIMALTTD
 70
     2
  9
$DIMTXSTY
  7
STANDARD
  9
$DIMAUNIT
 70
     0
  9
$LUNITS
 70
     2
  9
$LUPREC
 70
     2
  9
$SKETCHINC
 40
0.1
  9
$FILLETRAD
 40
0.5
  9
$AUNITS
 70
     0
  9
$AUPREC
 70
     2
  9
$MENU
  1
.
  9
$ELEVATION
 40
0.0
  9
$PELEVATION
 40
0.0
  9
$THICKNESS
 40
0.0
  9
$LIMCHECK
 70
     0
  9
$CHAMFERA
 40
0.5
  9
$CHAMFERB
 40
0.5
  9
$CHAMFERC
 40
1.0
  9
$CHAMFERD
 40
0.0
  9
$SKPOLY
 70
     0
  9
$TDCREATE
 40
2455784.020569445
  9
$TDUPDATE
 40
2455784.020569456
  9
$TDINDWG
 40
0.0000000116
  9
$TDUSRTIMER
 40
0.0000000116
  9
$USRTIMER
 70
     1
  9
$ANGBASE
 50
0.0
  9
$ANGDIR
 70
     0
  9
$PDMODE
 70
     0
  9
$PDSIZE
 40
-1.0
  9
$PLINEWID
 40
0.0
  9
$COORDS
 70
     1
  9
$SPLFRAME
 70
     0
  9
$SPLINETYPE
 70
     6
  9
$SPLINESEGS
 70
     8
  9
$ATTDIA
 70
     0
  9
$ATTREQ
 70
     1
  9
$HANDLING
 70
     1
  9
$HANDSEED
  5
67A
  9
$SURFTAB1
 70
     6
  9
$SURFTAB2
 70
     6
  9
$SURFTYPE
 70
     6
  9
$SURFU
 70
     6
  9
$SURFV
 70
     6
  9
$UCSNAME
  2

  9
$UCSORG
 10
0.0
 20
0.0
 30
0.0
  9
$UCSXDIR
 10
1.0
 20
0.0
 30
0.0
  9
$UCSYDIR
 10
0.0
 20
1.0
 30
0.0
  9
$PUCSNAME
  2

  9
$PUCSORG
 10
0.0
 20
0.0
 30
0.0
  9
$PUCSXDIR
 10
1.0
 20
0.0
 30
0.0
  9
$PUCSYDIR
 10
0.0
 20
1.0
 30
0.0
  9
$USERI1
 70
     0
  9
$USERI2
 70
     0
  9
$USERI3
 70
     0
  9
$USERI4
 70
     0
  9
$USERI5
 70
     0
  9
$USERR1
 40
0.0
  9
$USERR2
 40
0.0
  9
$USERR3
 40
0.0
  9
$USERR4
 40
0.0
  9
$USERR5
 40
0.0
  9
$WORLDVIEW
 70
     1
  9
$SHADEDGE
 70
     3
  9
$SHADEDIF
 70
    70
  9
$TILEMODE
 70
     1
  9
$MAXACTVP
 70
    64
  9
$PINSBASE
 10
0.0
 20
0.0
 30
0.0
  9
$PLIMCHECK
 70
     0
  9
$PEXTMIN
 10
1.0000000000E+20
 20
1.0000000000E+20
 30
1.0000000000E+20
  9
$PEXTMAX
 10
-1.0000000000E+20
 20
-1.0000000000E+20
 30
-1.0000000000E+20
  9
$PLIMMIN
 10
0.0
 20
0.0
  9
$PLIMMAX
 10
12.0
 20
9.0
  9
$UNITMODE
 70
     0
  9
$VISRETAIN
 70
     1
  9
$PLINEGEN
 70
     0
  9
$PSLTSCALE
 70
     1
  9
$TREEDEPTH
 70
  3020
  9
$PICKSTYLE
 70
     1
  9
$CMLSTYLE
  2
STANDARD
  9
$CMLJUST
 70
     0
  9
$CMLSCALE
 40
1.0
  9
$SAVEIMAGES
 70
     1
  0
ENDSEC
  0
SECTION
  2
CLASSES
  0
CLASS
  1
ACDBDICTIONARYWDFLT
  2
AcDbDictionaryWithDefault
  3
ObjectDBX Classes
 90
    32768
280
     0
281
     0
  0
CLASS
  1
VISUALSTYLE
  2
AcDbVisualStyle
  3
ObjectDBX Classes
 90
     4095
280
     0
281
     0
  0
CLASS
  1
SCALE
  2
AcDbScale
  3
ObjectDBX Classes
 90
     1153
280
     0
281
     0
  0
CLASS
  1
DICTIONARYVAR
  2
AcDbDictionaryVar
  3
ObjectDBX Classes
 90
        0
280
     0
281
     0
  0
CLASS
  1
XRECORD
  2
AcDbXrecord
  3
AutoCAD 2000
 90
    32768
280
     0
281
     0
  0
CLASS
  1
LWPOLYLINE
  2
AcDbPolyline
  3
AutoCAD 2000
 90
    32768
280
     0
281
     1
  0
CLASS
  1
HATCH
  2
AcDbHatch
  3
AutoCAD 2000
 90
    32768
280
     0
281
     1
  0
CLASS
  1
ACDBPLACEHOLDER
  2
AcDbPlaceHolder
  3
ObjectDBX Classes
 90
        0
280
     0
281
     0
  0
CLASS
  1
LAYOUT
  2
AcDbLayout
  3
ObjectDBX Classes
 90
        0
280
     0
281
     0
  0
ENDSEC
  0
SECTION
  2
TABLES
  0
TABLE
  2
VPORT
  5
8
330
0
100
AcDbSymbolTable
 70
     1
  0
VPORT
  5
29
330
8
100
AcDbSymbolTableRecord
100
AcDbViewportTableRecord
  2
*ACTIVE
 70
     0
 10
0.0
 20
0.0
 11
1.0
 21
1.0
 12
5.5
 22
4.25
 13
0.0
 23
0.0
 14
0.5
 24
0.5
 15
0.5
 25
0.5
 16
0.0
 26
0.0
 36
1.0
 17
0.0
 27
0.0
 37
0.0
 40
8.5
 41
1.2941176471
 42
50.0
 43
0.0
 44
0.0
 50
0.0
 51
0.0
 71
     0
 72
  2000
 73
     1
 74
     3
 75
     0
 76
     0
 77
     0
 78
     0
  0
ENDTAB
  0
TABLE
  2
LTYPE
  5
5
330
0
100
AcDbSymbolTable
 70
     6
  0
LTYPE
  5
14
330
5
100
AcDbSymbolTableRecord
100
AcDbLinetypeTableRecord
  2
BYBLOCK
 70
     0
  3

 72
    65
 73
     0
 40
0.0
  0
LTYPE
  5
15
330
5
100
AcDbSymbolTableRecord
100
AcDbLinetypeTableRecord
  2
BYLAYER
 70
     0
  3

 72
    65
 73
     0
 40
0.0
  0
LTYPE
  5
16
330
5
100
AcDbSymbolTableRecord
100
AcDbLinetypeTableRecord
  2
CONTINUOUS
 70
     0
  3
Solid line
 72
    65
 73
     0
 40
0.0
  0
LTYPE
  5
3B
330
5
100
AcDbSymbolTableRecord
100
AcDbLinetypeTableRecord
  2
HIDDEN
 70
     0
  3
Hidden __ __ __ __ __ __ __ __ __ __ __ __ __ __
 72
    65
 73
     2
 40
0.075
 49
0.05
 74
     0
 49
-0.025
 74
     0
  0
LTYPE
  5
3C
330
5
100
AcDbSymbolTableRecord
100
AcDbLinetypeTableRecord
  2
PHANTOM
 70
     0
  3
Phantom ______  __  __  ______  __  __  ______
 72
    65
 73
     6
 40
0.5
 49
0.25
 74
     0
 49
-0.05
 74
     0
 49
0.05
 74
     0
 49
-0.05
 74
     0
 49
0.05
 74
     0
 49
-0.05
 74
     0
  0
LTYPE
  5
3D
330
5
100
AcDbSymbolTableRecord
100
AcDbLinetypeTableRecord
  2
CENTER
 70
     0
  3
Center ____ _ ____ _ ____ _ ____ _ ____ _ ____
 72
    65
 73
     4
 40
0.4
 49
0.25
 74
     0
 49
-0.05
 74
     0
 49
0.05
 74
     0
 49
-0.05
 74
     0
  0
LTYPE
  5
3E
330
5
100
AcDbSymbolTableRecord
100
AcDbLinetypeTableRecord
  2
CENTERX2
 70
     0
  3
Center (2x) ________  __  ________  __  _____
 72
    65
 73
     4
 40
0.8
 49
0.5
 74
     0
 49
-0.1
 74
     0
 49
0.1
 74
     0
 49
-0.1
 74
     0
  0
LTYPE
  5
3F
330
5
100
AcDbSymbolTableRecord
100
AcDbLinetypeTableRecord
  2
DOT2
 70
     0
  3
Dot (.5x) ........................................
 72
    65
 73
     2
 40
0.025
 49
0.0
 74
     0
 49
-0.025
 74
     0
  0
ENDTAB
  0
TABLE
  2
LAYER
  5
2
330
0
100
AcDbSymbolTable
 70
     2
  0
LAYER
  5
10
330
2
100
AcDbSymbolTableRecord
100
AcDbLayerTableRecord
  2
0
 70
     0
 62
     7
  6
CONTINUOUS
  0
LAYER
  5
40
330
2
100
AcDbSymbolTableRecord
100
AcDbLayerTableRecord
  2
FORMAT
 70
     0
 62
     7
  6
CONTINUOUS
  0
ENDTAB
  0
TABLE
  2
STYLE
  5
3
330
0
100
AcDbSymbolTable
 70
     4
  0
STYLE
  5
11
330
3
100
AcDbSymbolTableRecord
100
AcDbTextStyleTableRecord
  2
STANDARD
 70
     0
 40
0.0
 41
1.0
 50
0.0
 71
     0
 42
0.2
  3
txt
  4

  0
STYLE
  5
6E
330
3
100
AcDbSymbolTableRecord
100
AcDbTextStyleTableRecord
  2
SLDTEXTSTYLE0
 70
     0
 40
0.0
 41
0.75
 50
0.0
 71
     0
 42
0.2
  3
TXT
  4

  0
STYLE
  5
93
330
3
100
AcDbSymbolTableRecord
100
AcDbTextStyleTableRecord
  2
SLDTEXTSTYLE1
 70
     0
 40
0.0
 41
0.6875
 50
0.0
 71
     0
 42
0.2
  3
TXT
  4

  0
STYLE
  5
99
330
3
100
AcDbSymbolTableRecord
100
AcDbTextStyleTableRecord
  2
SLDTEXTSTYLE2
 70
     0
 40
0.0
 41
0.6944444444
 50
0.0
 71
     0
 42
0.2
  3
TXT
  4

  0
ENDTAB
  0
TABLE
  2
VIEW
  5
6
330
0
100
AcDbSymbolTable
 70
     0
  0
ENDTAB
  0
TABLE
  2
UCS
  5
7
330
0
100
AcDbSymbolTable
 70
     0
  0
ENDTAB
  0
TABLE
  2
APPID
  5
9
330
0
100
AcDbSymbolTable
 70
     1
  0
APPID
  5
12
330
9
100
AcDbSymbolTableRecord
100
AcDbRegAppTableRecord
  2
ACAD
 70
     0
  0
ENDTAB
  0
TABLE
  2
DIMSTYLE
  5
A
330
0
100
AcDbSymbolTable
 70
     1
  0
DIMSTYLE
105
27
330
A
100
AcDbSymbolTableRecord
100
AcDbDimStyleTableRecord
  2
STANDARD
 70
     0
  3

  4

  5

  6

  7

 40
1.0
 41
0.18
 42
0.0625
 43
0.38
 44
0.18
 45
0.0
 46
0.0
 47
0.0
 48
0.0
140
0.18
141
0.09
142
0.0
143
25.4
144
1.0
145
0.0
146
1.0
147
0.09
 71
     0
 72
     0
 73
     1
 74
     1
 75
     0
 76
     0
 77
     0
 78
     0
170
     0
171
     2
172
     0
173
     0
174
     0
175
     0
176
     0
177
     0
178
     0
270
     2
271
     4
272
     4
273
     2
274
     2
340
11
275
     0
280
     0
281
     0
282
     0
283
     1
284
     0
285
     0
286
     0
287
     3
288
     0
  0
ENDTAB
  0
TABLE
  2
BLOCK_RECORD
  5
1
330
0
100
AcDbSymbolTable
 70
     4
  0
BLOCK_RECORD
  5
1F
330
1
100
AcDbSymbolTableRecord
100
AcDbBlockTableRecord
  2
*MODEL_SPACE
  0
BLOCK_RECORD
  5
1B
330
1
100
AcDbSymbolTableRecord
100
AcDbBlockTableRecord
  2
*PAPER_SPACE
  0
BLOCK_RECORD
  5
A8
330
1
100
AcDbSymbolTableRecord
100
AcDbBlockTableRecord
  2
SW_NOTE_0
  0
BLOCK_RECORD
  5
AE
330
1
100
AcDbSymbolTableRecord
100
AcDbBlockTableRecord
  2
SW_NOTE_1
  0
BLOCK_RECORD
  5
C2
330
1
100
AcDbSymbolTableRecord
100
AcDbBlockTableRecord
  2
SW_NOTE_2
  0
ENDTAB
  0
ENDSEC
  0
SECTION
  2
BLOCKS
  0
BLOCK
  5
20
330
1F
100
AcDbEntity
  8
0
100
AcDbBlockBegin
  2
*MODEL_SPACE
 70
     0
 10
0.0
 20
0.0
 30
0.0
  3
*MODEL_SPACE
  1

  0
ENDBLK
  5
21
330
1F
100
AcDbEntity
  8
0
100
AcDbBlockEnd
  0
BLOCK
  5
1C
330
1B
100
AcDbEntity
 67
     1
  8
0
100
AcDbBlockBegin
  2
*PAPER_SPACE
 70
     0
 10
0.0
 20
0.0
 30
0.0
  3
*PAPER_SPACE
  1

  0
ENDBLK
  5
1D
330
1B
100
AcDbEntity
 67
     1
  8
0
100
AcDbBlockEnd
  0
BLOCK
  5
A9
330
A8
100
AcDbEntity
  8
0
100
AcDbBlockBegin
  2
SW_NOTE_0
 70
     0
 10
0.0
 20
0.0
 30
0.0
  3
SW_NOTE_0
  1

  0
MTEXT
  5
AB
330
A8
100
AcDbEntity
  8
0
  6
CONTINUOUS
 62
     0
100
AcDbMText
 10
0.0
 20
0.0773440644
 30
0.0
 40
0.06
 41
0.0
 71
     1
 72
     1
  1
INTERPRET GEOMETRIC
  7
SLDTEXTSTYLE0
  0
MTEXT
  5
AC
330
A8
100
AcDbEntity
  8
0
  6
CONTINUOUS
 62
     0
100
AcDbMText
 10
0.0
 20
-0.0220260102
 30
0.0
 40
0.06
 41
0.0
 71
     1
 72
     1
  1
TOLERANCING PER:
  7
SLDTEXTSTYLE0
  0
ENDBLK
  5
AA
330
A8
100
AcDbEntity
  8
0
100
AcDbBlockEnd
  0
BLOCK
  5
AF
330
AE
100
AcDbEntity
  8
0
100
AcDbBlockBegin
  2
SW_NOTE_1
 70
     0
 10
0.0
 20
0.0
 30
0.0
  3
SW_NOTE_1
  1

  0
MTEXT
  5
B1
330
AE
100
AcDbEntity
  8
0
  6
CONTINUOUS
 62
     0
100
AcDbMText
 10
0.0
 20
0.0837894031
 30
0.0
 40
0.065
 41
0.0
 71
     1
 72
     1
  1
DIMENSIONS ARE IN INCHES
  7
SLDTEXTSTYLE0
  0
MTEXT
  5
B2
330
AE
100
AcDbEntity
  8
0
  6
CONTINUOUS
 62
     0
100
AcDbMText
 10
0.0
 20
-0.0205806729
 30
0.0
 40
0.065
 41
0.0
 71
     1
 72
     1
  1
TOLERANCES:
  7
SLDTEXTSTYLE0
  0
MTEXT
  5
B3
330
AE
100
AcDbEntity
  8
0
  6
CONTINUOUS
 62
     0
100
AcDbMText
 10
0.0
 20
-0.1249507489
 30
0.0
 40
0.065
 41
0.0
 71
     1
 72
     1
  1
FRACTIONAL
  7
SLDTEXTSTYLE0
  0
MTEXT
  5
B4
330
AE
100
AcDbEntity
  8
0
  6
CONTINUOUS
 62
     0
100
AcDbMText
 10
0.5175850875
 20
-0.1249507489
 30
0.0
 40
0.065
 41
0.0
 71
     1
 72
     1
  1
%%p
  7
SLDTEXTSTYLE0
  0
MTEXT
  5
B5
330
AE
100
AcDbEntity
  8
0
  6
CONTINUOUS
 62
     0
100
AcDbMText
 10
0.0
 20
-0.2293208248
 30
0.0
 40
0.065
 41
0.0
 71
     1
 72
     1
  1
ANGULAR: MACH
  7
SLDTEXTSTYLE0
  0
MTEXT
  5
B6
330
AE
100
AcDbEntity
  8
0
  6
CONTINUOUS
 62
     0
100
AcDbMText
 10
0.7233732769
 20
-0.2293208248
 30
0.0
 40
0.065
 41
0.0
 71
     1
 72
     1
  1
%%p
  7
SLDTEXTSTYLE0
  0
MTEXT
  5
B7
330
AE
100
AcDbEntity
  8
0
  6
CONTINUOUS
 62
     0
100
AcDbMText
 10
0.7852857683
 20
-0.2293208248
 30
0.0
 40
0.065
 41
0.0
 71
     1
 72
     1
  1
     BEND 
  7
SLDTEXTSTYLE0
  0
MTEXT
  5
B8
330
AE
100
AcDbEntity
  8
0
  6
CONTINUOUS
 62
     0
100
AcDbMText
 10
1.14784136
 20
-0.2293208248
 30
0.0
 40
0.065
 41
0.0
 71
     1
 72
     1
  1
%%p
  7
SLDTEXTSTYLE0
  0
MTEXT
  5
B9
330
AE
100
AcDbEntity
  8
0
  6
CONTINUOUS
 62
     0
100
AcDbMText
 10
0.0
 20
-0.3336909008
 30
0.0
 40
0.065
 41
0.0
 71
     1
 72
     1
  1
TWO PLACE DECIMAL    
  7
SLDTEXTSTYLE0
  0
MTEXT
  5
BA
330
AE
100
AcDbEntity
  8
0
  6
CONTINUOUS
 62
     0
100
AcDbMText
 10
0.9794349188
 20
-0.3336909008
 30
0.0
 40
0.065
 41
0.0
 71
     1
 72
     1
  1
%%p
  7
SLDTEXTSTYLE0
  0
MTEXT
  5
BB
330
AE
100
AcDbEntity
  8
0
  6
CONTINUOUS
 62
     0
100
AcDbMText
 10
0.0
 20
-0.4380609768
 30
0.0
 40
0.065
 41
0.0
 71
     1
 72
     1
  1
THREE PLACE DECIMAL  
  7
SLDTEXTSTYLE0
  0
MTEXT
  5
BC
330
AE
100
AcDbEntity
  8
0
  6
CONTINUOUS
 62
     0
100
AcDbMText
 10
0.9738038639
 20
-0.4380609768
 30
0.0
 40
0.065
 41
0.0
 71
     1
 72
     1
  1
%%p
  7
SLDTEXTSTYLE0
  0
ENDBLK
  5
B0
330
AE
100
AcDbEntity
  8
0
100
AcDbBlockEnd
  0
BLOCK
  5
C3
330
C2
100
AcDbEntity
  8
0
100
AcDbBlockBegin
  2
SW_NOTE_2
 70
     0
 10
0.0
 20
0.0
 30
0.0
  3
SW_NOTE_2
  1

  0
MTEXT
  5
C5
330
C2
100
AcDbEntity
  8
0
  6
CONTINUOUS
 62
     0
100
AcDbMText
 10
0.0
 20
0.0773440644
 30
0.0
 40
0.06
 41
0.0
 71
     1
 72
     1
  1
THE INFORMATION CONTAINED IN THIS
  7
SLDTEXTSTYLE0
  0
MTEXT
  5
C6
330
C2
100
AcDbEntity
  8
0
  6
CONTINUOUS
 62
     0
100
AcDbMText
 10
0.0
 20
-0.0220260102
 30
0.0
 40
0.06
 41
0.0
 71
     1
 72
     1
  1
DRAWING IS THE SOLE PROPERTY OF
  7
SLDTEXTSTYLE0
  0
MTEXT
  5
C7
330
C2
100
AcDbEntity
  8
0
  6
CONTINUOUS
 62
     0
100
AcDbMText
 10
0.0
 20
-0.1213960848
 30
0.0
 40
0.06
 41
0.0
 71
     1
 72
     1
  1
Candy Controls.  ANY 
  7
SLDTEXTSTYLE0
  0
MTEXT
  5
C8
330
C2
100
AcDbEntity
  8
0
  6
CONTINUOUS
 62
     0
100
AcDbMText
 10
0.0
 20
-0.2207661593
 30
0.0
 40
0.06
 41
0.0
 71
     1
 72
     1
  1
REPRODUCTION IN PART OR AS A WHOLE
  7
SLDTEXTSTYLE0
  0
MTEXT
  5
C9
330
C2
100
AcDbEntity
  8
0
  6
CONTINUOUS
 62
     0
100
AcDbMText
 10
0.0
 20
-0.3201362339
 30
0.0
 40
0.06
 41
0.0
 71
     1
 72
     1
  1
WITHOUT THE WRITTEN PERMISSION OF
  7
SLDTEXTSTYLE0
  0
MTEXT
  5
CA
330
C2
100
AcDbEntity
  8
0
  6
CONTINUOUS
 62
     0
100
AcDbMText
 10
0.0
 20
-0.4195063085
 30
0.0
 40
0.06
 41
0.0
 71
     1
 72
     1
  1
Candy Controls IS 
  7
SLDTEXTSTYLE0
  0
MTEXT
  5
CB
330
C2
100
AcDbEntity
  8
0
  6
CONTINUOUS
 62
     0
100
AcDbMText
 10
0.0
 20
-0.518876383
 30
0.0
 40
0.06
 41
0.0
 71
     1
 72
     1
  1
PROHIBITED.
  7
SLDTEXTSTYLE0
  0
ENDBLK
  5
C4
330
C2
100
AcDbEntity
  8
0
100
AcDbBlockEnd
  0
ENDSEC
  0
SECTION
  2
ENTITIES
  0
LINE
  5
41
330
1F
100
AcDbEntity
  8
0
  6
CONTINUOUS
 62
     7
100
AcDbLine
 10
0.329927
 20
8.1920731707
 30
0.0
 11
10.629927
 21
8.1920731707
 31
0.0
  0
LINE
  5
42
330
1F
100
AcDbEntity
  8
0
  6
CONTINUOUS
 62
     7
100
AcDbLine
 10
0.329927
 20
8.1920731707
 30
0.0
 11
0.329927
 21
0.3920731707
 31
0.0
  0
LINE
  5
43
330
1F
100
AcDbEntity
  8
0
  6
CONTINUOUS
 62
     7
100
AcDbLine
 10
10.629927
 20
0.3920731707
 30
0.0
 11
0.329927
 21
0.3920731707
 31
0.0
  0
LINE
  5
44
330
1F
100
AcDbEntity
  8
0
  6
CONTINUOUS
 62
     7
100
AcDbLine
 10
10.629927
 20
0.3920731707
 30
0.0
 11
10.629927
 21
8.1920731707
 31
0.0
  0
LINE
  5
45
330
1F
100
AcDbEntity
  8
0
  6
CONTINUOUS
 62
     7
100
AcDbLine
 10
4.7981841288
 20
0.3920731707
 30
0.0
 11
4.7981841288
 21
2.3564211366
 31
0.0
  0
LINE
  5
46
330
1F
100
AcDbEntity
  8
0
  6
CONTINUOUS
 62
     7
100
AcDbLine
 10
2.8210345579
 20
2.3564211366
 30
0.0
 11
10.629927
 21
2.3564211366
 31
0.0
  0
LINE
  5
47
330
1F
100
AcDbEntity
  8
0
  6
CONTINUOUS
 62
     7
100
AcDbLine
 10
6.1796352514
 20
2.3564211366
 30
0.0
 11
6.1796352514
 21
0.3920731707
 31
0.0
  0
LINE
  5
48
330
1F
100
AcDbEntity
  8
0
  6
CONTINUOUS
 62
     7
100
AcDbLine
 10
7.8712070044
 20
2.3564211366
 30
0.0
 11
7.8712070044
 21
0.3920731707
 31
0.0
  0
LINE
  5
49
330
1F
100
AcDbEntity
  8
0
  6
CONTINUOUS
 62
     7
100
AcDbLine
 10
7.8712070044
 20
0.6049590101
 30
0.0
 11
10.629927
 21
0.6049590101
 31
0.0
  0
LINE
  5
4A
330
1F
100
AcDbEntity
  8
0
  6
CONTINUOUS
 62
     7
100
AcDbLine
 10
7.8712070044
 20
1.1119362457
 30
0.0
 11
10.629927
 21
1.1119362457
 31
0.0
  0
LINE
  5
4B
330
1F
100
AcDbEntity
  8
0
  6
CONTINUOUS
 62
     7
100
AcDbLine
 10
7.8712070044
 20
1.9892703708
 30
0.0
 11
10.629927
 21
1.9892703708
 31
0.0
  0
LINE
  5
4C
330
1F
100
AcDbEntity
  8
0
  6
CONTINUOUS
 62
     7
100
AcDbLine
 10
8.266751752
 20
1.1119362457
 30
0.0
 11
8.266751752
 21
0.6049590101
 31
0.0
  0
LINE
  5
4D
330
1F
100
AcDbEntity
  8
0
  6
CONTINUOUS
 62
     7
100
AcDbLine
 10
8.6943435176
 20
0.6049590101
 30
0.0
 11
8.6943435176
 21
0.3920731707
 31
0.0
  0
LINE
  5
4E
330
1F
100
AcDbEntity
  8
0
  6
CONTINUOUS
 62
     7
100
AcDbLine
 10
10.0579917045
 20
1.1119362457
 30
0.0
 11
10.0579917045
 21
0.6049590101
 31
0.0
  0
LINE
  5
4F
330
1F
100
AcDbEntity
  8
0
  6
CONTINUOUS
 62
     7
100
AcDbLine
 10
9.6662556631
 20
0.6049590101
 30
0.0
 11
9.6662556631
 21
0.3920731707
 31
0.0
  0
LINE
  5
50
330
1F
100
AcDbEntity
  8
0
  6
CONTINUOUS
 62
     7
100
AcDbLine
 10
2.8210345579
 20
0.5883479999
 30
0.0
 11
6.1796352514
 21
0.5883479999
 31
0.0
  0
LINE
  5
51
330
1F
100
AcDbEntity
  8
0
  6
CONTINUOUS
 62
     7
100
AcDbLine
 10
6.1796352514
 20
1.7939211366
 30
0.0
 11
7.8712070044
 21
1.7939211366
 31
0.0
  0
LINE
  5
52
330
1F
100
AcDbEntity
  8
0
  6
CONTINUOUS
 62
     7
100
AcDbLine
 10
6.1796352514
 20
1.9814211366
 30
0.0
 11
7.8712070044
 21
1.9814211366
 31
0.0
  0
LINE
  5
53
330
1F
100
AcDbEntity
  8
0
  6
CONTINUOUS
 62
     7
100
AcDbLine
 10
6.1796352514
 20
2.1689211366
 30
0.0
 11
7.8712070044
 21
2.1689211366
 31
0.0
  0
LINE
  5
54
330
1F
100
AcDbEntity
  8
0
  6
CONTINUOUS
 62
     7
100
AcDbLine
 10
7.8712070044
 20
1.2314211366
 30
0.0
 11
6.1796352514
 21
1.2314211366
 31
0.0
  0
LINE
  5
55
330
1F
100
AcDbEntity
  8
0
  6
CONTINUOUS
 62
     7
100
AcDbLine
 10
7.3921580388
 20
2.3564211366
 30
0.0
 11
7.3921580388
 21
1.2314211366
 31
0.0
  0
LINE
  5
56
330
1F
100
AcDbEntity
  8
0
  6
CONTINUOUS
 62
     7
100
AcDbLine
 10
6.9236308342
 20
2.3564211366
 30
0.0
 11
6.9236308342
 21
1.2314211366
 31
0.0
  0
LINE
  5
57
330
1F
100
AcDbEntity
  8
0
  6
CONTINUOUS
 62
     7
100
AcDbLine
 10
4.7981841288
 20
0.8557965305
 30
0.0
 11
6.1796352514
 21
0.8557965305
 31
0.0
  0
LINE
  5
58
330
1F
100
AcDbEntity
  8
0
  6
CONTINUOUS
 62
     7
100
AcDbLine
 10
4.7981841288
 20
1.1257965305
 30
0.0
 11
6.1796352514
 21
1.1257965305
 31
0.0
  0
LINE
  5
59
330
1F
100
AcDbEntity
  8
0
  6
CONTINUOUS
 62
     7
100
AcDbLine
 10
2.8210345579
 20
0.3920731707
 30
0.0
 11
2.8210345579
 21
2.3564211366
 31
0.0
  0
LINE
  5
5A
330
1F
100
AcDbEntity
  8
0
  6
CONTINUOUS
 62
     7
100
AcDbLine
 10
2.8210345579
 20
1.1064211366
 30
0.0
 11
4.7981841288
 21
1.1064211366
 31
0.0
  0
LINE
  5
5B
330
1F
100
AcDbEntity
  8
0
  6
CONTINUOUS
 62
     7
100
AcDbLine
 10
2.8210345579
 20
1.3564211366
 30
0.0
 11
4.7981841288
 21
1.3564211366
 31
0.0
  0
LINE
  5
5C
330
1F
100
AcDbEntity
  8
0
  6
CONTINUOUS
 62
     7
100
AcDbLine
 10
2.8210345579
 20
1.6064211366
 30
0.0
 11
4.7981841288
 21
1.6064211366
 31
0.0
  0
LINE
  5
5D
330
1F
100
AcDbEntity
  8
0
  6
CONTINUOUS
 62
     7
100
AcDbLine
 10
2.8210345579
 20
1.8564211366
 30
0.0
 11
4.7981841288
 21
1.8564211366
 31
0.0
  0
LINE
  5
5E
330
1F
100
AcDbEntity
  8
0
  6
CONTINUOUS
 62
     7
100
AcDbLine
 10
3.8190146875
 20
2.3564211366
 30
0.0
 11
3.8190146875
 21
0.5883479999
 31
0.0
  0
LINE
  5
5F
330
1F
100
AcDbEntity
  8
0
  6
CONTINUOUS
 62
     7
100
AcDbLine
 10
6.1796352514
 20
2.2020813496
 30
0.0
 11
4.7981841288
 21
2.2020813496
 31
0.0
  0
LINE
  5
60
330
1F
100
AcDbEntity
  8
0
  6
CONTINUOUS
 62
     7
100
AcDbLine
 10
7.8712070044
 20
1.6064211366
 30
0.0
 11
6.1796352514
 21
1.6064211366
 31
0.0
  0
LINE
  5
61
330
1F
100
AcDbEntity
  8
0
  6
CONTINUOUS
 62
     7
100
AcDbLine
 10
7.8712070044
 20
1.4189211366
 30
0.0
 11
6.1796352514
 21
1.4189211366
 31
0.0
  0
LINE
  5
62
330
1F
100
AcDbEntity
  8
0
  6
CONTINUOUS
 62
     7
100
AcDbLine
 10
2.8210345579
 20
2.1064211366
 30
0.0
 11
4.7981841288
 21
2.1064211366
 31
0.0
  0
LINE
  5
63
330
1F
100
AcDbEntity
  8
0
  6
CONTINUOUS
 62
     7
100
AcDbLine
 10
4.7981841288
 20
1.3957965305
 30
0.0
 11
6.1796352514
 21
1.3957965305
 31
0.0
  0
LINE
  5
64
330
1F
100
AcDbEntity
  8
0
  6
CONTINUOUS
 62
     7
100
AcDbLine
 10
2.8210345579
 20
0.8564211366
 30
0.0
 11
4.7981841288
 21
0.8564211366
 31
0.0
  0
LINE
  5
65
330
1F
100
AcDbEntity
  8
0
  6
CONTINUOUS
 62
     7
100
AcDbLine
 10
1.1838252943
 20
0.3920731707
 30
0.0
 11
1.1838252943
 21
1.3064211366
 31
0.0
  0
LINE
  5
66
330
1F
100
AcDbEntity
  8
0
  6
CONTINUOUS
 62
     7
100
AcDbLine
 10
2.8210345579
 20
1.3064211366
 30
0.0
 11
1.1838252943
 21
1.3064211366
 31
0.0
  0
LINE
  5
67
330
1F
100
AcDbEntity
  8
0
  6
CONTINUOUS
 62
     7
100
AcDbLine
 10
8.660927
 20
0.3920731707
 30
0.0
 11
8.660927
 21
0.3072739649
 31
0.0
  0
LINE
  5
68
330
1F
100
AcDbEntity
  8
0
  6
CONTINUOUS
 62
     7
100
AcDbLine
 10
6.692177
 20
0.3920731707
 30
0.0
 11
6.692177
 21
0.3072739649
 31
0.0
  0
LINE
  5
69
330
1F
100
AcDbEntity
  8
0
  6
CONTINUOUS
 62
     7
100
AcDbLine
 10
4.723427
 20
0.3920731707
 30
0.0
 11
4.723427
 21
0.3072739649
 31
0.0
  0
LINE
  5
6A
330
1F
100
AcDbEntity
  8
0
  6
CONTINUOUS
 62
     7
100
AcDbLine
 10
2.754677
 20
0.3920731707
 30
0.0
 11
2.754677
 21
0.3072739649
 31
0.0
  0
LINE
  5
6B
330
1F
100
AcDbEntity
  8
0
  6
CONTINUOUS
 62
     7
100
AcDbLine
 10
2.754677
 20
0.3920731707
 30
0.0
 11
2.7672319738
 21
0.3575
 31
0.0
  0
LINE
  5
6C
330
1F
100
AcDbEntity
  8
0
  6
CONTINUOUS
 62
     7
100
AcDbLine
 10
2.7672319738
 20
0.3575
 30
0.0
 11
2.7414258825
 21
0.3575
 31
0.0
  0
LINE
  5
6D
330
1F
100
AcDbEntity
  8
0
  6
CONTINUOUS
 62
     7
100
AcDbLine
 10
2.7414258825
 20
0.3575
 30
0.0
 11
2.754677
 21
0.3920731707
 31
0.0
  0
MTEXT
  5
91
330
1F
100
AcDbEntity
  8
0
  6
CONTINUOUS
 62
     7
100
AcDbMText
 10
4.9775846961
 20
0.5178452352
 30
0.0
 40
0.0625
 41
0.0
 71
     1
 72
     1
  1
DO NOT SCALE DRAWING
  7
SLDTEXTSTYLE0
  0
MTEXT
  5
92
330
1F
100
AcDbEntity
  8
0
  6
CONTINUOUS
 62
     7
100
AcDbMText
 10
8.902731164
 20
0.9417064595
 30
0.0
 40
0.125
 41
0.0
 71
     1
 72
     1
  1
CL4-63
  7
SLDTEXTSTYLE0
  0
MTEXT
  5
94
330
1F
100
AcDbEntity
  8
0
  6
CONTINUOUS
 62
     7
100
AcDbMText
 10
9.7571278483
 20
0.5524239532
 30
0.0
 40
0.1
 41
0.0
 71
     1
 72
     1
  1
SHEET 1 OF 1
  7
SLDTEXTSTYLE1
  0
MTEXT
  5
95
330
1F
100
AcDbEntity
  8
0
  6
CONTINUOUS
 62
     7
100
AcDbMText
 10
4.8448077858
 20
2.3132954224
 30
0.0
 40
0.07
 41
0.0
 71
     1
 72
     1
  1
UNLESS OTHERWISE SPECIFIED:
  7
SLDTEXTSTYLE0
  0
MTEXT
  5
96
330
1F
100
AcDbEntity
  8
0
  6
CONTINUOUS
 62
     7
100
AcDbMText
 10
7.9586139647
 20
0.5520987879
 30
0.0
 40
0.1
 41
0.0
 71
     1
 72
     1
  1
SCALE: 1:1
  7
SLDTEXTSTYLE0
  0
MTEXT
  5
97
330
1F
100
AcDbEntity
  8
0
  6
CONTINUOUS
 62
     7
100
AcDbMText
 10
8.7023691647
 20
0.5486763345
 30
0.0
 40
0.1
 41
0.0
 71
     1
 72
     1
  1
WEIGHT: 
  7
SLDTEXTSTYLE0
  0
MTEXT
  5
98
330
1F
100
AcDbEntity
  8
0
  6
CONTINUOUS
 62
     7
100
AcDbMText
 10
10.2277580983
 20
1.081966299
 30
0.0
 40
0.1
 41
0.0
 71
     1
 72
     1
  1
REV
  7
SLDTEXTSTYLE0
  0
MTEXT
  5
9A
330
1F
100
AcDbEntity
  8
0
  6
CONTINUOUS
 62
     7
100
AcDbMText
 10
8.2984570898
 20
1.0858725293
 30
0.0
 40
0.1
 41
0.0
 71
     1
 72
     1
  1
DWG.  NO.
  7
SLDTEXTSTYLE2
  0
MTEXT
  5
9B
330
1F
100
AcDbEntity
  8
0
  6
CONTINUOUS
 62
     7
100
AcDbMText
 10
7.9598482632
 20
0.9442140768
 30
0.0
 40
0.25
 41
0.0
 71
     1
 72
     1
  1
A
  7
SLDTEXTSTYLE0
  0
MTEXT
  5
9C
330
1F
100
AcDbEntity
  8
0
  6
CONTINUOUS
 62
     7
100
AcDbMText
 10
7.9519581822
 20
1.0872713483
 30
0.0
 40
0.1
 41
0.0
 71
     1
 72
     1
  1
SIZE
  7
SLDTEXTSTYLE0
  0
MTEXT
  5
9D
330
1F
100
AcDbEntity
  8
0
  6
CONTINUOUS
 62
     7
100
AcDbMText
 10
7.9170704177
 20
1.9547881128
 30
0.0
 40
0.1
 41
0.0
 71
     1
 72
     1
  1
TITLE:
  7
SLDTEXTSTYLE0
  0
MTEXT
  5
9E
330
1F
100
AcDbEntity
  8
0
  6
CONTINUOUS
 62
     7
100
AcDbMText
 10
7.0363774929
 20
2.2906161274
 30
0.0
 40
0.065
 41
0.0
 71
     1
 72
     1
  1
NAME
  7
SLDTEXTSTYLE0
  0
MTEXT
  5
9F
330
1F
100
AcDbEntity
  8
0
  6
CONTINUOUS
 62
     7
100
AcDbMText
 10
7.5281510634
 20
2.2888799118
 30
0.0
 40
0.065
 41
0.0
 71
     1
 72
     1
  1
DATE
  7
SLDTEXTSTYLE0
  0
MTEXT
  5
A0
330
1F
100
AcDbEntity
  8
0
  6
CONTINUOUS
 62
     7
100
AcDbMText
 10
6.2277147029
 20
1.1876913145
 30
0.0
 40
0.065
 41
0.0
 71
     1
 72
     1
  1
COMMENTS:
  7
SLDTEXTSTYLE0
  0
MTEXT
  5
A1
330
1F
100
AcDbEntity
  8
0
  6
CONTINUOUS
 62
     7
100
AcDbMText
 10
6.2268411461
 20
1.3536101679
 30
0.0
 40
0.065
 41
0.0
 71
     1
 72
     1
  1
Q.A.
  7
SLDTEXTSTYLE0
  0
MTEXT
  5
A2
330
1F
100
AcDbEntity
  8
0
  6
CONTINUOUS
 62
     7
100
AcDbMText
 10
6.2284654509
 20
1.5395328424
 30
0.0
 40
0.065
 41
0.0
 71
     1
 72
     1
  1
MFG APPR.
  7
SLDTEXTSTYLE0
  0
MTEXT
  5
A3
330
1F
100
AcDbEntity
  8
0
  6
CONTINUOUS
 62
     7
100
AcDbMText
 10
6.2235171344
 20
1.7267501785
 30
0.0
 40
0.065
 41
0.0
 71
     1
 72
     1
  1
ENG APPR.
  7
SLDTEXTSTYLE0
  0
MTEXT
  5
A4
330
1F
100
AcDbEntity
  8
0
  6
CONTINUOUS
 62
     7
100
AcDbMText
 10
6.2264103951
 20
1.9092699088
 30
0.0
 40
0.065
 41
0.0
 71
     1
 72
     1
  1
CHECKED
  7
SLDTEXTSTYLE0
  0
MTEXT
  5
A5
330
1F
100
AcDbEntity
  8
0
  6
CONTINUOUS
 62
     7
100
AcDbMText
 10
6.2242794356
 20
2.1016301232
 30
0.0
 40
0.065
 41
0.0
 71
     1
 72
     1
  1
DRAWN
  7
SLDTEXTSTYLE0
  0
MTEXT
  5
A6
330
1F
100
AcDbEntity
  8
0
  6
CONTINUOUS
 62
     7
100
AcDbMText
 10
4.8208600979
 20
0.834523235
 30
0.0
 40
0.06
 41
0.0
 71
     1
 72
     1
  1
FINISH
  7
SLDTEXTSTYLE0
  0
MTEXT
  5
A7
330
1F
100
AcDbEntity
  8
0
  6
CONTINUOUS
 62
     7
100
AcDbMText
 10
4.8181240648
 20
1.1028217587
 30
0.0
 40
0.06
 41
0.0
 71
     1
 72
     1
  1
MATERIAL
  7
SLDTEXTSTYLE0
  0
INSERT
  5
AD
330
1F
100
AcDbEntity
  8
0
  6
CONTINUOUS
 62
     7
100
AcDbBlockReference
  2
SW_NOTE_0
 10
4.8231926633
 20
1.2646542947
 30
0.0
  0
INSERT
  5
BD
330
1F
100
AcDbEntity
  8
0
  6
CONTINUOUS
 62
     7
100
AcDbBlockReference
  2
SW_NOTE_1
 10
4.8353339353
 20
2.0049168724
 30
0.0
  0
MTEXT
  5
BE
330
1F
100
AcDbEntity
  8
0
  6
CONTINUOUS
 62
     7
100
AcDbMText
 10
3.5531400086
 20
0.5200091997
 30
0.0
 40
0.0625
 41
0.0
 71
     1
 72
     1
  1
APPLICATION
  7
SLDTEXTSTYLE0
  0
MTEXT
  5
BF
330
1F
100
AcDbEntity
  8
0
  6
CONTINUOUS
 62
     7
100
AcDbMText
 10
4.1005607758
 20
0.7502454275
 30
0.0
 40
0.0625
 41
0.0
 71
     1
 72
     1
  1
USED ON
  7
SLDTEXTSTYLE0
  0
MTEXT
  5
C0
330
1F
100
AcDbEntity
  8
0
  6
CONTINUOUS
 62
     7
100
AcDbMText
 10
3.1040019536
 20
0.7492094783
 30
0.0
 40
0.0625
 41
0.0
 71
     1
 72
     1
  1
NEXT ASSY
  7
SLDTEXTSTYLE0
  0
MTEXT
  5
C1
330
1F
100
AcDbEntity
  8
0
  6
CONTINUOUS
 62
     7
100
AcDbMText
 10
1.3712489489
 20
1.2496672684
 30
0.0
 40
0.06
 41
0.0
 71
     1
 72
     1
  1
PROPRIETARY AND CONFIDENTIAL
  7
SLDTEXTSTYLE0
  0
INSERT
  5
CC
330
1F
100
AcDbEntity
  8
0
  6
CONTINUOUS
 62
     7
100
AcDbBlockReference
  2
SW_NOTE_2
 10
1.2226209074
 20
1.0313492921
 30
0.0
  0
MTEXT
  5
CD
330
1F
100
AcDbEntity
  8
0
  6
CONTINUOUS
 62
     7
100
AcDbMText
 10
1.7387909509
 20
0.3105864247
 30
0.0
 40
0.09375
 41
0.0
 71
     1
 72
     1
  1
5
  7
SLDTEXTSTYLE0
  0
MTEXT
  5
CE
330
1F
100
AcDbEntity
  8
0
  6
CONTINUOUS
 62
     7
100
AcDbMText
 10
3.723800327
 20
0.3137237518
 30
0.0
 40
0.09375
 41
0.0
 71
     1
 72
     1
  1
4
  7
SLDTEXTSTYLE0
  0
MTEXT
  5
CF
330
1F
100
AcDbEntity
  8
0
  6
CONTINUOUS
 62
     7
100
AcDbMText
 10
5.6324457277
 20
0.3116191842
 30
0.0
 40
0.09375
 41
0.0
 71
     1
 72
     1
  1
3
  7
SLDTEXTSTYLE0
  0
MTEXT
  5
D0
330
1F
100
AcDbEntity
  8
0
  6
CONTINUOUS
 62
     7
100
AcDbMText
 10
7.6059721724
 20
0.3124391351
 30
0.0
 40
0.09375
 41
0.0
 71
     1
 72
     1
  1
2
  7
SLDTEXTSTYLE0
  0
MTEXT
  5
D1
330
1F
100
AcDbEntity
  8
0
  6
CONTINUOUS
 62
     7
100
AcDbMText
 10
9.6619921328
 20
0.301372012
 30
0.0
 40
0.09375
 41
0.0
 71
     1
 72
     1
  1
1
  7
SLDTEXTSTYLE0
  0
LINE
  5
D2
330
1F
100
AcDbEntity
  8
0
  6
CONTINUOUS
 62
     7
100
AcDbLine
 10
4.0267773131
 20
4.9975134546
 30
0.0
 11
4.025455001
 21
4.9988357667
 31
0.0
  0
LINE
  5
D3
330
1F
100
AcDbEntity
  8
0
  6
CONTINUOUS
 62
     7
100
AcDbLine
 10
3.651439253
 20
4.9988357667
 30
0.0
 11
3.6501204291
 21
4.9975169428
 31
0.0
  0
LINE
  5
D4
330
1F
100
AcDbEntity
  8
0
  6
CONTINUOUS
 62
     7
100
AcDbLine
 10
3.464431379
 20
2.5185208061
 30
0.0
 11
4.2321479144
 21
2.5185208061
 31
0.0
  0
LINE
  5
D5
330
1F
100
AcDbEntity
  8
0
  6
CONTINUOUS
 62
     7
100
AcDbLine
 10
3.6415967333
 20
4.9988357667
 30
0.0
 11
3.464431379
 21
4.9988357667
 31
0.0
  0
LINE
  5
D6
330
1F
100
AcDbEntity
  8
0
  6
CONTINUOUS
 62
     7
100
AcDbLine
 10
4.2321479144
 20
4.9988357667
 30
0.0
 11
4.0347464866
 21
4.9988357667
 31
0.0
  0
LINE
  5
D7
330
1F
100
AcDbEntity
  8
0
  6
CONTINUOUS
 62
     7
100
AcDbLine
 10
4.2321479144
 20
2.5185208061
 30
0.0
 11
4.2518329538
 21
2.5382058454
 31
0.0
  0
LINE
  5
D8
330
1F
100
AcDbEntity
  8
0
  6
CONTINUOUS
 62
     7
100
AcDbLine
 10
4.2518329538
 20
4.9791507273
 30
0.0
 11
4.2321479144
 21
4.9988357667
 31
0.0
  0
LINE
  5
D9
330
1F
100
AcDbEntity
  8
0
  6
CONTINUOUS
 62
     7
100
AcDbLine
 10
3.464431379
 20
4.9988357667
 30
0.0
 11
3.4447463396
 21
4.9791507273
 31
0.0
  0
LINE
  5
DA
330
1F
100
AcDbEntity
  8
0
  6
CONTINUOUS
 62
     7
100
AcDbLine
 10
3.4447463396
 20
2.5382058454
 30
0.0
 11
3.464431379
 21
2.5185208061
 31
0.0
  0
LINE
  5
DB
330
1F
100
AcDbEntity
  8
0
  6
CONTINUOUS
 62
     7
100
AcDbLine
 10
2.7951400404
 20
4.9988357667
 30
0.0
 11
2.4211242924
 21
4.9988357667
 31
0.0
  0
LINE
  5
DC
330
1F
100
AcDbEntity
  8
0
  6
CONTINUOUS
 62
     7
100
AcDbLine
 10
2.4211242924
 20
2.5185208061
 30
0.0
 11
2.7951400404
 21
2.5185208061
 31
0.0
  0
LINE
  5
DD
330
1F
100
AcDbEntity
  8
0
  6
CONTINUOUS
 62
     7
100
AcDbLine
 10
2.4211242924
 20
4.9988357667
 30
0.0
 11
2.401439253
 21
4.9791507273
 31
0.0
  0
LINE
  5
DE
330
1F
100
AcDbEntity
  8
0
  6
CONTINUOUS
 62
     7
100
AcDbLine
 10
2.401439253
 20
2.5382058454
 30
0.0
 11
2.4211242924
 21
2.5185208061
 31
0.0
  0
LINE
  5
DF
330
1F
100
AcDbEntity
  8
0
  6
CONTINUOUS
 62
     7
100
AcDbLine
 10
2.8148250798
 20
4.9791507273
 30
0.0
 11
2.7951400404
 21
4.9988357667
 31
0.0
  0
LINE
  5
E0
330
1F
100
AcDbEntity
  8
0
  6
CONTINUOUS
 62
     7
100
AcDbLine
 10
2.7951400404
 20
2.5185208061
 30
0.0
 11
2.8148250798
 21
2.5382058454
 31
0.0
  0
LINE
  5
E1
330
1F
100
AcDbEntity
  8
0
  6
CONTINUOUS
 62
     7
100
AcDbLine
 10
2.8345101191
 20
2.5185208061
 30
0.0
 11
3.4250613002
 21
2.5185208061
 31
0.0
  0
LINE
  5
E2
330
1F
100
AcDbEntity
  8
0
  6
CONTINUOUS
 62
     7
100
AcDbLine
 10
3.4250613002
 20
4.9988357667
 30
0.0
 11
2.8345101191
 21
4.9988357667
 31
0.0
  0
LINE
  5
E3
330
1F
100
AcDbEntity
  8
0
  6
CONTINUOUS
 62
     7
100
AcDbLine
 10
2.8345101191
 20
4.9988357667
 30
0.0
 11
2.8148250798
 21
4.9791507273
 31
0.0
  0
LINE
  5
E4
330
1F
100
AcDbEntity
  8
0
  6
CONTINUOUS
 62
     7
100
AcDbLine
 10
2.8148250798
 20
2.5382058454
 30
0.0
 11
2.8345101191
 21
2.5185208061
 31
0.0
  0
LINE
  5
E5
330
1F
100
AcDbEntity
  8
0
  6
CONTINUOUS
 62
     7
100
AcDbLine
 10
3.4250613002
 20
2.5185208061
 30
0.0
 11
3.4447463396
 21
2.5382058454
 31
0.0
  0
LINE
  5
E6
330
1F
100
AcDbEntity
  8
0
  6
CONTINUOUS
 62
     7
100
AcDbLine
 10
3.4447463396
 20
4.9791507273
 30
0.0
 11
3.4250613002
 21
4.9988357667
 31
0.0
  0
LINE
  5
E7
330
1F
100
AcDbEntity
  8
0
  6
CONTINUOUS
 62
     7
100
AcDbLine
 10
3.9589641387
 20
4.988993247
 30
0.0
 11
3.7177728221
 21
4.988993247
 31
0.0
  0
LINE
  5
E8
330
1F
100
AcDbEntity
  8
0
  6
CONTINUOUS
 62
     7
100
AcDbLine
 10
3.651439253
 20
4.9988357667
 30
0.0
 11
4.025455001
 21
4.9988357667
 31
0.0
  0
LINE
  5
E9
330
1F
100
AcDbEntity
  8
0
  6
CONTINUOUS
 62
     7
100
AcDbLine
 10
3.8581321664
 20
4.8882977144
 30
0.0
 11
3.8581321664
 21
2.6290588584
 31
0.0
  0
LINE
  5
EA
330
1F
100
AcDbEntity
  8
0
  6
CONTINUOUS
 62
     7
100
AcDbLine
 10
3.464431379
 20
4.8882977144
 30
0.0
 11
3.8581321664
 21
4.8882977144
 31
0.0
  0
LINE
  5
EB
330
1F
100
AcDbEntity
  8
0
  6
CONTINUOUS
 62
     7
100
AcDbLine
 10
3.464431379
 20
4.9988357667
 30
0.0
 11
3.464431379
 21
4.8882977144
 31
0.0
  0
LINE
  5
EC
330
1F
100
AcDbEntity
  8
0
  6
CONTINUOUS
 62
     7
100
AcDbLine
 10
3.464431379
 20
2.6290588584
 30
0.0
 11
3.464431379
 21
2.5185208061
 31
0.0
  0
LINE
  5
ED
330
1F
100
AcDbEntity
  8
0
  6
CONTINUOUS
 62
     7
100
AcDbLine
 10
3.8581321664
 20
2.6290588584
 30
0.0
 11
3.464431379
 21
2.6290588584
 31
0.0
  0
SPLINE
  5
EE
330
1F
100
AcDbEntity
  8
0
  6
CONTINUOUS
 62
     7
100
AcDbSpline
210
0.0
220
0.0
230
1.0
 70
     8
 71
     3
 72
    26
 73
    22
 74
     0
 42
0.00000001
 43
0.00000001
 40
0.0
 40
0.0
 40
0.0
 40
0.0
 40
0.0524718003385577
 40
0.1064768690592071
 40
0.1589454142307203
 40
0.2129135872726028
 40
0.2657868690733894
 40
0.3201758591526874
 40
0.3733217839484445
 40
0.4280335622456055
 40
0.4807293374426949
 40
0.5349822679766663
 40
0.5872060736621758
 40
0.6409325863957519
 40
0.6933983096263011
 40
0.7473524668368274
 40
0.8003941660450724
 40
0.8549706616844746
 40
0.9080307729383377
 40
0.9626619109489533
 40
1.0
 40
1.0
 40
1.0
 40
1.0
 10
3.641596733305812
 20
4.998835766707008
 30
0.0
 10
3.642115243854354
 20
4.998752923981646
 30
0.0
 10
3.643167416248414
 20
4.998584817799586
 30
0.0
 10
3.651626622254117
 20
4.997267708561235
 30
0.0
 10
3.664992559487642
 20
4.995305720407253
 30
0.0
 10
3.683179052640392
 20
4.992862465568484
 30
0.0
 10
3.705913940104454
 20
4.990184051009965
 30
0.0
 10
3.732285871819971
 20
4.987599889597029
 30
0.0
 10
3.762004081993421
 20
4.985368056350867
 30
0.0
 10
3.793634669229206
 20
4.983788810433581
 30
0.0
 10
3.826773119805487
 20
4.983018485111319
 30
0.0
 10
3.859754080972762
 20
4.983150897922787
 30
0.0
 10
3.892314686378263
 20
4.984160951970722
 30
0.0
 10
3.923008974661018
 20
4.985909845455449
 30
0.0
 10
3.951634659893677
 20
4.98823488303356
 30
0.0
 10
3.976990256565442
 20
4.990851877314632
 30
0.0
 10
3.998742775035958
 20
4.993510095855854
 30
0.0
 10
4.015914126184016
 20
4.995879597351417
 30
0.0
 10
4.027984260689458
 20
4.99768392311861
 30
0.0
 10
4.034590667198975
 20
4.998723147805993
 30
0.0
 10
4.034701493025866
 20
4.998741196737599
 30
0.0
 10
4.034746486603891
 20
4.998748524325718
 30
0.0
  0
LINE
  5
EF
330
1F
100
AcDbEntity
  8
0
  6
CONTINUOUS
 62
     7
100
AcDbLine
 10
4.2321479144
 20
2.5185208061
 30
0.0
 11
4.2321479144
 21
4.9988357667
 31
0.0
  0
SPLINE
  5
F0
330
1F
100
AcDbEntity
  8
0
  6
CONTINUOUS
 62
     7
100
AcDbSpline
210
0.0
220
0.0
230
1.0
 70
     8
 71
     3
 72
     8
 73
     4
 74
     0
 42
0.00000001
 43
0.00000001
 40
0.0
 40
0.0
 40
0.0
 40
0.0
 40
0.0007431842497003
 40
0.0007431842497003
 40
0.0007431842497003
 40
0.0007431842497003
 10
3.858132166376679
 20
2.629058858407514
 30
0.0
 10
3.851564527441975
 20
2.636269168668742
 30
0.0
 10
3.845002737753048
 20
2.643484811641099
 30
0.0
 10
3.8384471270066
 20
2.650706059662103
 30
0.0
  0
LINE
  5
F1
330
1F
100
AcDbEntity
  8
0
  6
CONTINUOUS
 62
     7
100
AcDbLine
 10
3.838447127
 20
2.6507060597
 30
0.0
 11
3.838447127
 21
4.8666505131
 31
0.0
  0
SPLINE
  5
F2
330
1F
100
AcDbEntity
  8
0
  6
CONTINUOUS
 62
     7
100
AcDbSpline
210
0.0
220
0.0
230
1.0
 70
     8
 71
     3
 72
     8
 73
     4
 74
     0
 42
0.00000001
 43
0.00000001
 40
0.0
 40
0.0
 40
0.0
 40
0.0
 40
0.0007431842497003
 40
0.0007431842497003
 40
0.0007431842497003
 40
0.0007431842497003
 10
3.8384471270066
 20
4.866650513121991
 30
0.0
 10
3.845002737753048
 20
4.873871761142995
 30
0.0
 10
3.851564527441975
 20
4.881087404115352
 30
0.0
 10
3.858132166376679
 20
4.888297714376581
 30
0.0
  0
LINE
  5
F3
330
1F
100
AcDbEntity
  8
0
  6
CONTINUOUS
 62
     7
100
AcDbLine
 10
4.2518329538
 20
4.9791507273
 30
0.0
 11
4.2518329538
 21
2.5382058454
 31
0.0
  0
LINE
  5
F4
330
1F
100
AcDbEntity
  8
0
  6
CONTINUOUS
 62
     7
100
AcDbLine
 10
3.464431379
 20
4.8882977144
 30
0.0
 11
3.4587887892
 21
4.8820926835
 31
0.0
  0
LINE
  5
F5
330
1F
100
AcDbEntity
  8
0
  6
CONTINUOUS
 62
     7
100
AcDbLine
 10
3.4447463396
 20
4.8820926835
 30
0.0
 11
3.4447463396
 21
4.9791507273
 31
0.0
  0
LINE
  5
F6
330
1F
100
AcDbEntity
  8
0
  6
CONTINUOUS
 62
     7
100
AcDbLine
 10
3.4447463396
 20
2.5382058454
 30
0.0
 11
3.4447463396
 21
2.6372594654
 31
0.0
  0
LINE
  5
F7
330
1F
100
AcDbEntity
  8
0
  6
CONTINUOUS
 62
     7
100
AcDbLine
 10
3.4569740976
 20
2.6372594654
 30
0.0
 11
3.464431379
 21
2.6290588584
 31
0.0
  0
CIRCLE
  5
F8
330
1F
100
AcDbEntity
  8
0
  6
CONTINUOUS
 62
     7
100
AcDbCircle
 10
2.8148250798
 20
3.7586782864
 30
0.0
 40
0.1870078740157481
  0
ARC
  5
F9
330
1F
100
AcDbEntity
  8
0
  6
CONTINUOUS
 62
     7
100
AcDbCircle
 10
2.8148250798
 20
3.7586782864
 30
0.0
 40
0.1968503937007873
100
AcDbArc
 50
90.0
 51
127.6132074245
  0
ARC
  5
FA
330
1F
100
AcDbEntity
  8
0
  6
CONTINUOUS
 62
     7
100
AcDbCircle
 10
2.8148250798
 20
3.7586782864
 30
0.0
 40
0.1968503937007871
100
AcDbArc
 50
232.3867925755
 51
90.0
  0
LINE
  5
FB
330
1F
100
AcDbEntity
  8
0
  6
CONTINUOUS
 62
     7
100
AcDbLine
 10
2.7163998829
 20
3.7018524725
 30
0.0
 11
2.7163998829
 21
3.8155041003
 31
0.0
  0
LINE
  5
FC
330
1F
100
AcDbEntity
  8
0
  6
CONTINUOUS
 62
     7
100
AcDbLine
 10
2.8148250798
 20
3.6450266586
 30
0.0
 11
2.7163998829
 21
3.7018524725
 31
0.0
  0
LINE
  5
FD
330
1F
100
AcDbEntity
  8
0
  6
CONTINUOUS
 62
     7
100
AcDbLine
 10
2.9132502766
 20
3.7018524725
 30
0.0
 11
2.8148250798
 21
3.6450266586
 31
0.0
  0
LINE
  5
FE
330
1F
100
AcDbEntity
  8
0
  6
CONTINUOUS
 62
     7
100
AcDbLine
 10
2.9132502766
 20
3.8155041003
 30
0.0
 11
2.9132502766
 21
3.7018524725
 31
0.0
  0
LINE
  5
FF
330
1F
100
AcDbEntity
  8
0
  6
CONTINUOUS
 62
     7
100
AcDbLine
 10
2.8148250798
 20
3.8723299142
 30
0.0
 11
2.9132502766
 21
3.8155041003
 31
0.0
  0
LINE
  5
100
330
1F
100
AcDbEntity
  8
0
  6
CONTINUOUS
 62
     7
100
AcDbLine
 10
2.7163998829
 20
3.8155041003
 30
0.0
 11
2.8148250798
 21
3.8723299142
 31
0.0
  0
LINE
  5
101
330
1F
100
AcDbEntity
  8
0
  6
CONTINUOUS
 62
     7
100
AcDbLine
 10
2.7951400404
 20
4.27048931
 30
0.0
 11
2.7951400404
 21
4.9988357667
 31
0.0
  0
LINE
  5
102
330
1F
100
AcDbEntity
  8
0
  6
CONTINUOUS
 62
     7
100
AcDbLine
 10
2.7951400404
 20
4.27048931
 30
0.0
 11
3.2085258672
 21
4.27048931
 31
0.0
  0
LINE
  5
103
330
1F
100
AcDbEntity
  8
0
  6
CONTINUOUS
 62
     7
100
AcDbLine
 10
3.2085258672
 20
4.27048931
 30
0.0
 11
3.2085258672
 21
3.2468672628
 31
0.0
  0
LINE
  5
104
330
1F
100
AcDbEntity
  8
0
  6
CONTINUOUS
 62
     7
100
AcDbLine
 10
3.2085258672
 20
3.2468672628
 30
0.0
 11
2.7951400404
 21
3.2468672628
 31
0.0
  0
LINE
  5
105
330
1F
100
AcDbEntity
  8
0
  6
CONTINUOUS
 62
     7
100
AcDbLine
 10
2.7951400404
 20
2.5185208061
 30
0.0
 11
2.7951400404
 21
3.2468672628
 31
0.0
  0
SPLINE
  5
106
330
1F
100
AcDbEntity
  8
0
  6
CONTINUOUS
 62
     7
100
AcDbSpline
210
0.0
220
0.0
230
1.0
 70
     8
 71
     3
 72
    13
 73
     9
 74
     0
 42
0.00000001
 43
0.00000001
 40
0.0
 40
0.0
 40
0.0
 40
0.0
 40
0.1828814240251901
 40
0.3657692354680546
 40
0.5485810520424105
 40
0.7314021597133994
 40
0.915637779349729
 40
1.0
 40
1.0
 40
1.0
 40
1.0
 10
3.011675473463293
 20
3.758678286392043
 30
0.0
 10
3.011132033178359
 20
3.7476878794129
 30
0.0
 10
3.010045133627996
 20
3.725706681597587
 30
0.0
 10
3.00155018033616
 20
3.693681021650421
 30
0.0
 10
2.988202493856728
 20
3.663479887363949
 30
0.0
 10
2.96979784902474
 20
3.636083824876392
 30
0.0
 10
2.951669315145042
 20
3.615717552022894
 30
0.0
 10
2.938635723995175
 20
3.606268386576007
 30
0.0
 10
2.934542084629805
 20
3.603300557126818
 30
0.0
  0
SPLINE
  5
107
330
1F
100
AcDbEntity
  8
0
  6
CONTINUOUS
 62
     7
100
AcDbSpline
210
0.0
220
0.0
230
1.0
 70
     8
 71
     3
 72
    23
 73
    19
 74
     0
 42
0.00000001
 43
0.00000001
 40
0.0
 40
0.0
 40
0.0
 40
0.0
 40
0.0486706252662882
 40
0.1167884414079685
 40
0.1849038749144811
 40
0.2530682259442963
 40
0.3212289707540799
 40
0.3886595861458617
 40
0.4560909580027633
 40
0.5231537239222819
 40
0.5902201962484205
 40
0.6578301667946542
 40
0.725441194988641
 40
0.7936867220496747
 40
0.8619287198229523
 40
0.9299052305587214
 40
0.9978790665515955
 40
1.0
 40
1.0
 40
1.0
 40
1.0
 10
2.695042609056784
 20
3.603175678849794
 30
0.0
 10
2.688799821768473
 20
3.608049301820834
 30
0.0
 10
2.673819833460238
 20
3.619743888189591
 30
0.0
 10
2.654532068207786
 20
3.643072185756595
 30
0.0
 10
2.637212849978761
 20
3.67153407703289
 30
0.0
 10
2.625162000444896
 20
3.702722550235992
 30
0.0
 10
2.618398756510567
 20
3.735359069727071
 30
0.0
 10
2.617338764983176
 20
3.768574842132642
 30
0.0
 10
2.621691191420486
 20
3.801330236062411
 30
0.0
 10
2.631514590346156
 20
3.832785741263717
 30
0.0
 10
2.646309959380923
 20
3.862224382028118
 30
0.0
 10
2.665917036956749
 20
3.888775909049275
 30
0.0
 10
2.689730390350687
 20
3.91190614618532
 30
0.0
 10
2.717241634908995
 20
3.930648647816837
 30
0.0
 10
2.747566001243148
 20
3.944810697934555
 30
0.0
 10
2.779810266947166
 20
3.952897079634869
 30
0.0
 10
2.802368978038746
 20
3.956353793590178
 30
0.0
 10
2.813753455346827
 20
3.955469721838767
 30
0.0
 10
2.814097927821846
 20
3.955442971521115
 30
0.0
  0
SPLINE
  5
108
330
1F
100
AcDbEntity
  8
0
  6
CONTINUOUS
 62
     7
100
AcDbSpline
210
0.0
220
0.0
230
1.0
 70
     8
 71
     3
 72
    14
 73
    10
 74
     0
 42
0.00000001
 43
0.00000001
 40
0.0
 40
0.0
 40
0.0
 40
0.0
 40
0.0017391965095294
 40
0.1859019832570135
 40
0.3700629366037143
 40
0.555299952344833
 40
0.7405261983390745
 40
0.8702637094682798
 40
1.0
 40
1.0
 40
1.0
 40
1.0
 10
2.934954136786757
 20
3.914591371244954
 30
0.0
 10
2.935041617689016
 20
3.914534858975187
 30
0.0
 10
2.944392414529948
 20
3.908494286233436
 30
0.0
 10
2.960003931101953
 20
3.892331288298361
 30
0.0
 10
2.980771740274164
 20
3.866516376823218
 30
0.0
 10
2.996420905370661
 20
3.836943652786901
 30
0.0
 10
3.005972591754314
 20
3.808393541694956
 30
0.0
 10
3.010860851321089
 20
3.782058270834379
 30
0.0
 10
3.0114039336008
 20
3.766471590098917
 30
0.0
 10
3.011675473463293
 20
3.758678286392043
 30
0.0
  0
LINE
  5
109
330
1F
100
AcDbEntity
  8
0
  6
CONTINUOUS
 62
     7
100
AcDbLine
 10
2.4211242924
 20
3.7586782864
 30
0.0
 11
2.4211242924
 21
2.5185208061
 31
0.0
  0
LINE
  5
10A
330
1F
100
AcDbEntity
  8
0
  6
CONTINUOUS
 62
     7
100
AcDbLine
 10
2.4211242924
 20
4.9988357667
 30
0.0
 11
2.4211242924
 21
3.7586782864
 31
0.0
  0
LINE
  5
10B
330
1F
100
AcDbEntity
  8
0
  6
CONTINUOUS
 62
     7
100
AcDbLine
 10
2.401439253
 20
3.7586782864
 30
0.0
 11
2.401439253
 21
4.9791507273
 31
0.0
  0
LINE
  5
10C
330
1F
100
AcDbEntity
  8
0
  6
CONTINUOUS
 62
     7
100
AcDbLine
 10
2.401439253
 20
2.5382058454
 30
0.0
 11
2.401439253
 21
3.7586782864
 31
0.0
  0
LINE
  5
10D
330
1F
100
AcDbEntity
  8
0
  6
CONTINUOUS
 62
     7
100
AcDbLine
 10
2.8148250798
 20
4.9791507273
 30
0.0
 11
2.8148250798
 21
4.27048931
 31
0.0
  0
LINE
  5
10E
330
1F
100
AcDbEntity
  8
0
  6
CONTINUOUS
 62
     7
100
AcDbLine
 10
2.8148250798
 20
3.2468672628
 30
0.0
 11
2.8148250798
 21
2.5382058454
 31
0.0
  0
SPLINE
  5
10F
330
1F
100
AcDbEntity
  8
0
  6
CONTINUOUS
 62
     7
100
AcDbSpline
210
0.0
220
0.0
230
1.0
 70
     8
 71
     3
 72
     8
 73
     4
 74
     0
 42
0.00000001
 43
0.00000001
 40
0.0
 40
0.0
 40
0.0
 40
0.0
 40
0.0006642745501248
 40
0.0006642745501248
 40
0.0006642745501248
 40
0.0006642745501248
 10
3.210307438660961
 20
4.27048931001409
 30
0.0
 10
3.216272151749008
 20
4.274984710124318
 30
0.0
 10
3.222240023452997
 20
4.279478015682494
 30
0.0
 10
3.228210906534158
 20
4.283969318486576
 30
0.0
  0
LINE
  5
110
330
1F
100
AcDbEntity
  8
0
  6
CONTINUOUS
 62
     7
100
AcDbLine
 10
3.2282109065
 20
4.2839693185
 30
0.0
 11
3.2282109065
 21
3.2291403709
 31
0.0
  0
SPLINE
  5
111
330
1F
100
AcDbEntity
  8
0
  6
CONTINUOUS
 62
     7
100
AcDbSpline
210
0.0
220
0.0
230
1.0
 70
     8
 71
     3
 72
     8
 73
     4
 74
     0
 42
0.00000001
 43
0.00000001
 40
0.0
 40
0.0
 40
0.0
 40
0.0
 40
0.0005912624853902
 40
0.0005912624853902
 40
0.0005912624853902
 40
0.0005912624853902
 10
3.214679175489475
 20
3.246867262769996
 30
0.0
 10
3.219173908481751
 20
3.240947733174304
 30
0.0
 10
3.223684741754733
 20
3.235038885262685
 30
0.0
 10
3.228210906534158
 20
3.229140370915886
 30
0.0
  0
LINE
  5
112
330
1F
100
AcDbEntity
  8
0
  6
CONTINUOUS
 62
     7
100
AcDbLine
 10
3.4250613002
 20
4.8820926835
 30
0.0
 11
3.4250613002
 21
4.9988357667
 31
0.0
  0
LINE
  5
113
330
1F
100
AcDbEntity
  8
0
  6
CONTINUOUS
 62
     7
100
AcDbLine
 10
3.8187620876
 20
4.8820926835
 30
0.0
 11
3.4250613002
 21
4.8820926835
 31
0.0
  0
LINE
  5
114
330
1F
100
AcDbEntity
  8
0
  6
CONTINUOUS
 62
     7
100
AcDbLine
 10
3.8187620876
 20
2.6372594654
 30
0.0
 11
3.8187620876
 21
4.8820926835
 31
0.0
  0
LINE
  5
115
330
1F
100
AcDbEntity
  8
0
  6
CONTINUOUS
 62
     7
100
AcDbLine
 10
3.4250613002
 20
2.6372594654
 30
0.0
 11
3.8187620876
 21
2.6372594654
 31
0.0
  0
LINE
  5
116
330
1F
100
AcDbEntity
  8
0
  6
CONTINUOUS
 62
     7
100
AcDbLine
 10
3.4250613002
 20
2.5185208061
 30
0.0
 11
3.4250613002
 21
2.6372594654
 31
0.0
  0
LINE
  5
117
330
1F
100
AcDbEntity
  8
0
  6
CONTINUOUS
 62
     7
100
AcDbLine
 10
3.2282109065
 20
3.2291403709
 30
0.0
 11
2.8345101191
 21
3.2291403709
 31
0.0
  0
LINE
  5
118
330
1F
100
AcDbEntity
  8
0
  6
CONTINUOUS
 62
     7
100
AcDbLine
 10
2.8345101191
 20
4.2839693185
 30
0.0
 11
3.2282109065
 21
4.2839693185
 31
0.0
  0
LINE
  5
119
330
1F
100
AcDbEntity
  8
0
  6
CONTINUOUS
 62
     7
100
AcDbLine
 10
2.8345101191
 20
4.9988357667
 30
0.0
 11
2.8345101191
 21
4.2839693185
 31
0.0
  0
LINE
  5
11A
330
1F
100
AcDbEntity
  8
0
  6
CONTINUOUS
 62
     7
100
AcDbLine
 10
2.8345101191
 20
3.2291403709
 30
0.0
 11
2.8345101191
 21
2.5185208061
 31
0.0
  0
LINE
  5
11B
330
1F
100
AcDbEntity
  8
0
  6
CONTINUOUS
 62
     7
100
AcDbLine
 10
3.8366655555
 20
4.868612675
 30
0.0
 11
3.838447127
 21
4.8666505131
 31
0.0
  0
SPLINE
  5
11C
330
1F
100
AcDbEntity
  8
0
  6
CONTINUOUS
 62
     7
100
AcDbSpline
210
0.0
220
0.0
230
1.0
 70
     8
 71
     3
 72
     8
 73
     4
 74
     0
 42
0.00000001
 43
0.00000001
 40
0.0
 40
0.0
 40
0.0
 40
0.0
 40
0.0002324574496811
 40
0.0002324574496811
 40
0.0002324574496811
 40
0.0002324574496811
 10
3.8384471270066
 20
2.650706059662103
 30
0.0
 10
3.836396625323019
 20
2.648447356118326
 30
0.0
 10
3.834345519100134
 20
2.646189201246143
 30
0.0
 10
3.832293818681205
 20
2.643931586521704
 30
0.0
  0
SPLINE
  5
11D
330
1F
100
AcDbEntity
  8
0
  6
CONTINUOUS
 62
     7
100
AcDbSpline
210
0.0
220
0.0
230
1.0
 70
     8
 71
     3
 72
     8
 73
     4
 74
     0
 42
0.00000001
 43
0.00000001
 40
0.0
 40
0.0
 40
0.0
 40
0.0
 40
0.0005912624853902
 40
0.0005912624853902
 40
0.0005912624853902
 40
0.0005912624853902
 10
3.818762087636522
 20
2.637259465409308
 30
0.0
 10
3.823288252415946
 20
2.639479572714579
 30
0.0
 10
3.827799085688928
 20
2.641703569409855
 30
0.0
 10
3.832293818681205
 20
2.643931586521704
 30
0.0
  0
SPLINE
  5
11E
330
1F
100
AcDbEntity
  8
0
  6
CONTINUOUS
 62
     7
100
AcDbSpline
210
0.0
220
0.0
230
1.0
 70
     8
 71
     3
 72
     8
 73
     4
 74
     0
 42
0.00000001
 43
0.00000001
 40
0.0
 40
0.0
 40
0.0
 40
0.0
 40
0.0006642745501248
 40
0.0006642745501248
 40
0.0006642745501248
 40
0.0006642745501248
 10
3.818762087636522
 20
4.882092683478987
 30
0.0
 10
3.824732970717682
 20
4.877601380674905
 30
0.0
 10
3.830700842421672
 20
4.873108075116729
 30
0.0
 10
3.836665555509719
 20
4.868612675006501
 30
0.0
  0
SPLINE
  5
11F
330
1F
100
AcDbEntity
  8
0
  6
CONTINUOUS
 62
     7
100
AcDbSpline
210
0.0
220
0.0
230
1.0
 70
     8
 71
     3
 72
     8
 73
     4
 74
     0
 42
0.00000001
 43
0.00000001
 40
0.0
 40
0.0
 40
0.0
 40
0.0
 40
0.0006642745501248
 40
0.0006642745501248
 40
0.0006642745501248
 40
0.0006642745501248
 10
2.816606651259387
 20
4.27048931001409
 30
0.0
 10
2.822571364347434
 20
4.274984710124318
 30
0.0
 10
2.828539236051423
 20
4.279478015682494
 30
0.0
 10
2.834510119132584
 20
4.283969318486576
 30
0.0
  0
LINE
  5
120
330
1F
100
AcDbEntity
  8
0
  6
CONTINUOUS
 62
     7
100
AcDbLine
 10
3.2103074387
 20
4.27048931
 30
0.0
 11
3.2085258672
 21
4.27048931
 31
0.0
  0
SPLINE
  5
121
330
1F
100
AcDbEntity
  8
0
  6
CONTINUOUS
 62
     7
100
AcDbSpline
210
0.0
220
0.0
230
1.0
 70
     8
 71
     3
 72
     8
 73
     4
 74
     0
 42
0.00000001
 43
0.00000001
 40
0.0
 40
0.0
 40
0.0
 40
0.0
 40
0.0005912624853902
 40
0.0005912624853902
 40
0.0005912624853902
 40
0.0005912624853902
 10
2.820978388087901
 20
3.246867262769996
 30
0.0
 10
2.825473121080178
 20
3.240947733174304
 30
0.0
 10
2.829983954353159
 20
3.235038885262685
 30
0.0
 10
2.834510119132584
 20
3.229140370915886
 30
0.0
  0
LINE
  5
122
330
1F
100
AcDbEntity
  8
0
  6
CONTINUOUS
 62
     7
100
AcDbLine
 10
3.2085258672
 20
3.2468672628
 30
0.0
 11
3.2146791755
 21
3.2468672628
 31
0.0
  0
LINE
  5
123
330
1F
100
AcDbEntity
  8
0
  6
HIDDEN
 62
     7
100
AcDbLine
 10
4.0352975207
 20
4.988993247
 30
0.0
 11
3.9589641387
 21
4.988993247
 31
0.0
  0
LINE
  5
124
330
1F
100
AcDbEntity
  8
0
  6
HIDDEN
 62
     7
100
AcDbLine
 10
3.7177728221
 20
4.988993247
 30
0.0
 11
3.6415967333
 21
4.988993247
 31
0.0
  0
LINE
  5
125
330
1F
100
AcDbEntity
  8
0
  6
HIDDEN
 62
     7
100
AcDbLine
 10
3.838447127
 20
4.083481436
 30
0.0
 11
4.0352975207
 21
4.083481436
 31
0.0
  0
LINE
  5
126
330
1F
100
AcDbEntity
  8
0
  6
HIDDEN
 62
     7
100
AcDbLine
 10
3.6415967333
 20
4.083481436
 30
0.0
 11
3.838447127
 21
4.083481436
 31
0.0
  0
LINE
  5
127
330
1F
100
AcDbEntity
  8
0
  6
HIDDEN
 62
     7
100
AcDbLine
 10
4.025455001
 20
4.0736389163
 30
0.0
 11
3.651439253
 21
4.0736389163
 31
0.0
  0
LINE
  5
128
330
1F
100
AcDbEntity
  8
0
  6
HIDDEN
 62
     7
100
AcDbLine
 10
3.7400219302
 20
4.801985373
 30
0.0
 11
3.838447127
 21
4.801985373
 31
0.0
  0
LINE
  5
129
330
1F
100
AcDbEntity
  8
0
  6
HIDDEN
 62
     7
100
AcDbLine
 10
3.838447127
 20
4.8666505131
 30
0.0
 11
3.838447127
 21
4.9988357667
 31
0.0
  0
LINE
  5
12A
330
1F
100
AcDbEntity
  8
0
  6
HIDDEN
 62
     7
100
AcDbLine
 10
3.838447127
 20
4.801985373
 30
0.0
 11
3.9368723239
 21
4.801985373
 31
0.0
  0
LINE
  5
12B
330
1F
100
AcDbEntity
  8
0
  6
HIDDEN
 62
     7
100
AcDbLine
 10
3.9368723239
 20
4.801985373
 30
0.0
 11
3.9368723239
 21
4.9988357667
 31
0.0
  0
LINE
  5
12C
330
1F
100
AcDbEntity
  8
0
  6
HIDDEN
 62
     7
100
AcDbLine
 10
3.7400219302
 20
4.801985373
 30
0.0
 11
3.7400219302
 21
4.9988357667
 31
0.0
  0
LINE
  5
12D
330
1F
100
AcDbEntity
  8
0
  6
HIDDEN
 62
     7
100
AcDbLine
 10
3.4587887892
 20
4.8820926835
 30
0.0
 11
3.4447463396
 21
4.8666505131
 31
0.0
  0
LINE
  5
12E
330
1F
100
AcDbEntity
  8
0
  6
HIDDEN
 62
     7
100
AcDbLine
 10
3.4447463396
 20
4.8666505131
 30
0.0
 11
3.4447463396
 21
4.8820926835
 31
0.0
  0
LINE
  5
12F
330
1F
100
AcDbEntity
  8
0
  6
HIDDEN
 62
     7
100
AcDbLine
 10
3.4447463396
 20
2.6372594654
 30
0.0
 11
3.4447463396
 21
2.6507060597
 31
0.0
  0
LINE
  5
130
330
1F
100
AcDbEntity
  8
0
  6
HIDDEN
 62
     7
100
AcDbLine
 10
3.4447463396
 20
2.6507060597
 30
0.0
 11
3.4569740976
 21
2.6372594654
 31
0.0
  0
LINE
  5
131
330
1F
100
AcDbEntity
  8
0
  6
HIDDEN
 62
     7
100
AcDbLine
 10
3.4447463396
 20
2.6507060597
 30
0.0
 11
3.4447463396
 21
4.8666505131
 31
0.0
  0
SPLINE
  5
132
330
1F
100
AcDbEntity
  8
0
  6
HIDDEN
 62
     7
100
AcDbSpline
210
0.0
220
0.0
230
1.0
 70
     8
 71
     3
 72
    29
 73
    25
 74
     0
 42
0.00000001
 43
0.00000001
 40
0.0
 40
0.0
 40
0.0
 40
0.0
 40
0.0091805505789383
 40
0.0537835491073701
 40
0.0996837907845682
 40
0.1445395384480324
 40
0.1904335200146501
 40
0.2409229042393409
 40
0.2925630926555734
 40
0.3493611311347009
 40
0.4080063806176321
 40
0.4498973709648429
 40
0.492949184690367
 40
0.5348702245419638
 40
0.5780636266093763
 40
0.6195140545263039
 40
0.6618245613979773
 40
0.711182012262392
 40
0.7616021764608113
 40
0.8185812479183002
 40
0.8774051351157642
 40
0.9307361426535955
 40
0.9861878833923664
 40
1.0
 40
1.0
 40
1.0
 40
1.0
 10
4.034881184477285
 20
4.073379381821834
 30
0.0
 10
4.035015007084248
 20
4.073462787095498
 30
0.0
 10
4.035798996529255
 20
4.073951410473084
 30
0.0
 10
4.03268988203103
 20
4.072007784596323
 30
0.0
 10
4.026040047344817
 20
4.067911932434185
 30
0.0
 10
4.015099102220199
 20
4.061369096053987
 30
0.0
 10
4.000420740261903
 20
4.052994909164815
 30
0.0
 10
3.98155430073874
 20
4.042964696875875
 30
0.0
 10
3.957836385596086
 20
4.031671692084247
 30
0.0
 10
3.929386536496078
 20
4.020278945870859
 30
0.0
 10
3.899399808779749
 20
4.01141350851146
 30
0.0
 10
3.870076935935023
 20
4.006101790387359
 30
0.0
 10
3.843216341138548
 20
4.004087708048267
 30
0.0
 10
3.815940576146813
 20
4.005084196337882
 30
0.0
 10
3.789682584717705
 20
4.008909808112526
 30
0.0
 10
3.764677365442552
 20
4.015030824994851
 30
0.0
 10
3.740219205800218
 20
4.023117960589879
 30
0.0
 10
3.716424627506028
 20
4.032887330323103
 30
0.0
 10
3.6932206360426
 20
4.044019431149033
 30
0.0
 10
3.67247349897232
 20
4.055178092568272
 30
0.0
 10
3.656085444391812
 20
4.064733918890322
 30
0.0
 10
3.645674064008564
 20
4.071087505630567
 30
0.0
 10
3.641287753967877
 20
4.073831853523439
 30
0.0
 10
3.641922341544214
 20
4.073435669111373
 30
0.0
 10
3.642048886584267
 20
4.073356664771921
 30
0.0
  0
LINE
  5
133
330
1F
100
AcDbEntity
  8
0
  6
HIDDEN
 62
     7
100
AcDbLine
 10
3.838447127
 20
2.6290588584
 30
0.0
 11
3.838447127
 21
2.6507060597
 31
0.0
  0
ARC
  5
134
330
1F
100
AcDbEntity
  8
0
  6
HIDDEN
 62
     7
100
AcDbCircle
 10
2.8148250798
 20
3.7586782864
 30
0.0
 40
0.1968503937007873
100
AcDbArc
 50
127.6132074245
 51
232.3867925755
  0
LINE
  5
135
330
1F
100
AcDbEntity
  8
0
  6
HIDDEN
 62
     7
100
AcDbLine
 10
3.1888408278
 20
4.27048931
 30
0.0
 11
3.1888408278
 21
3.2468672628
 31
0.0
  0
SPLINE
  5
136
330
1F
100
AcDbEntity
  8
0
  6
HIDDEN
 62
     7
100
AcDbSpline
210
0.0
220
0.0
230
1.0
 70
     8
 71
     3
 72
    16
 73
    12
 74
     0
 42
0.00000001
 43
0.00000001
 40
0.0
 40
0.0
 40
0.0
 40
0.0
 40
0.0695853720934122
 40
0.1986666944695961
 40
0.327740307645199
 40
0.4557305237289734
 40
0.5837189719305865
 40
0.7105107174490362
 40
0.8373089781999158
 40
0.9646641067425752
 40
0.9999999999999999
 40
0.9999999999999999
 40
0.9999999999999999
 40
0.9999999999999999
 10
2.934542084629805
 20
3.603300557126818
 30
0.0
 10
2.929871116156987
 20
3.5995560288495
 30
0.0
 10
2.916535470481044
 20
3.588865376017983
 30
0.0
 10
2.890994815053076
 20
3.576360221048608
 30
0.0
 10
2.85935730287691
 20
3.565906585017756
 30
0.0
 10
2.826320888526537
 20
3.561277902524416
 30
0.0
 10
2.793217135920491
 20
3.562083608522904
 30
0.0
 10
2.760770970421707
 20
3.568420467826879
 30
0.0
 10
2.730142053960193
 20
3.580220058563943
 30
0.0
 10
2.707965306668799
 20
3.592095285656994
 30
0.0
 10
2.697348533295838
 20
3.601198495137178
 30
0.0
 10
2.695042609056784
 20
3.603175678849794
 30
0.0
  0
SPLINE
  5
137
330
1F
100
AcDbEntity
  8
0
  6
HIDDEN
 62
     7
100
AcDbSpline
210
0.0
220
0.0
230
1.0
 70
     8
 71
     3
 72
    11
 73
     7
 74
     0
 42
0.00000001
 43
0.00000001
 40
0.0
 40
0.0
 40
0.0
 40
0.0
 40
0.244733960101988
 40
0.4974520241758553
 40
0.7499246561777103
 40
1.0
 40
1.0
 40
1.0
 40
1.0
 10
2.814097927821846
 20
3.955442971521115
 30
0.0
 10
2.824717772661775
 20
3.955012722174565
 30
0.0
 10
2.846303919961704
 20
3.954138187196858
 30
0.0
 10
2.877936286039296
 20
3.945982790856692
 30
0.0
 10
2.908225716848988
 20
3.93324425480369
 30
0.0
 10
2.926073042311895
 20
3.920789194442114
 30
0.0
 10
2.934954136786757
 20
3.914591371244954
 30
0.0
  0
LINE
  5
138
330
1F
100
AcDbEntity
  8
0
  6
HIDDEN
 62
     7
100
AcDbLine
 10
3.4250613002
 20
4.8800971074
 30
0.0
 11
3.8187620876
 21
4.8800971074
 31
0.0
  0
LINE
  5
139
330
1F
100
AcDbEntity
  8
0
  6
HIDDEN
 62
     7
100
AcDbLine
 10
3.4250613002
 20
4.8820926835
 30
0.0
 11
3.4250613002
 21
4.8800971074
 31
0.0
  0
LINE
  5
13A
330
1F
100
AcDbEntity
  8
0
  6
HIDDEN
 62
     7
100
AcDbLine
 10
3.8187620876
 20
2.6352638893
 30
0.0
 11
3.4250613002
 21
2.6352638893
 31
0.0
  0
LINE
  5
13B
330
1F
100
AcDbEntity
  8
0
  6
HIDDEN
 62
     7
100
AcDbLine
 10
3.8187620876
 20
2.6372594654
 30
0.0
 11
3.8187620876
 21
2.6352638893
 31
0.0
  0
LINE
  5
13C
330
1F
100
AcDbEntity
  8
0
  6
HIDDEN
 62
     7
100
AcDbLine
 10
3.2282109065
 20
4.2882162019
 30
0.0
 11
2.8345101191
 21
4.2882162019
 31
0.0
  0
LINE
  5
13D
330
1F
100
AcDbEntity
  8
0
  6
HIDDEN
 62
     7
100
AcDbLine
 10
3.2282109065
 20
4.2839693185
 30
0.0
 11
3.2282109065
 21
4.2882162019
 31
0.0
  0
LINE
  5
13E
330
1F
100
AcDbEntity
  8
0
  6
HIDDEN
 62
     7
100
AcDbLine
 10
2.8345101191
 20
3.2333872543
 30
0.0
 11
3.2282109065
 21
3.2333872543
 31
0.0
  0
LINE
  5
13F
330
1F
100
AcDbEntity
  8
0
  6
HIDDEN
 62
     7
100
AcDbLine
 10
2.8345101191
 20
3.2291403709
 30
0.0
 11
2.8345101191
 21
3.2333872543
 31
0.0
  0
SPLINE
  5
140
330
1F
100
AcDbEntity
  8
0
  6
HIDDEN
 62
     7
100
AcDbSpline
210
0.0
220
0.0
230
1.0
 70
     8
 71
     3
 72
     8
 73
     4
 74
     0
 42
0.00000001
 43
0.00000001
 40
0.0
 40
0.0
 40
0.0
 40
0.0
 40
0.0005912624853902
 40
0.0005912624853902
 40
0.0005912624853902
 40
0.0005912624853902
 10
2.8209783880879
 20
4.270489310014098
 30
0.0
 10
2.825473121080177
 20
4.27640883960979
 30
0.0
 10
2.829983954353159
 20
4.28231768752141
 30
0.0
 10
2.834510119132584
 20
4.288216201868209
 30
0.0
  0
SPLINE
  5
141
330
1F
100
AcDbEntity
  8
0
  6
HIDDEN
 62
     7
100
AcDbSpline
210
0.0
220
0.0
230
1.0
 70
     8
 71
     3
 72
     8
 73
     4
 74
     0
 42
0.00000001
 43
0.00000001
 40
0.0
 40
0.0
 40
0.0
 40
0.0
 40
0.0006642745501248
 40
0.0006642745501248
 40
0.0006642745501248
 40
0.0006642745501248
 10
2.816606651259385
 20
3.246867262770004
 30
0.0
 10
2.822571364347433
 20
3.242371862659776
 30
0.0
 10
2.828539236051423
 20
3.2378785571016
 30
0.0
 10
2.834510119132584
 20
3.233387254297518
 30
0.0
  0
SPLINE
  5
142
330
1F
100
AcDbEntity
  8
0
  6
HIDDEN
 62
     7
100
AcDbSpline
210
0.0
220
0.0
230
1.0
 70
     8
 71
     3
 72
     8
 73
     4
 74
     0
 42
0.00000001
 43
0.00000001
 40
0.0
 40
0.0
 40
0.0
 40
0.0
 40
0.0002324574496811
 40
0.0002324574496811
 40
0.0002324574496811
 40
0.0002324574496811
 10
3.43859303127963
 20
2.643931586521704
 30
0.0
 10
3.440644731698559
 20
2.646189201246143
 30
0.0
 10
3.442695837921444
 20
2.648447356118326
 30
0.0
 10
3.444746339605025
 20
2.650706059662103
 30
0.0
  0
SPLINE
  5
143
330
1F
100
AcDbEntity
  8
0
  6
HIDDEN
 62
     7
100
AcDbSpline
210
0.0
220
0.0
230
1.0
 70
     8
 71
     3
 72
     8
 73
     4
 74
     0
 42
0.00000001
 43
0.00000001
 40
0.0
 40
0.0
 40
0.0
 40
0.0
 40
0.0006642745501248
 40
0.0006642745501248
 40
0.0006642745501248
 40
0.0006642745501248
 10
3.425061300234947
 20
2.635263889305107
 30
0.0
 10
3.431032183316108
 20
2.63975519210919
 30
0.0
 10
3.437000055020097
 20
2.644248497667366
 30
0.0
 10
3.442964768108145
 20
2.648743897777594
 30
0.0
  0
SPLINE
  5
144
330
1F
100
AcDbEntity
  8
0
  6
HIDDEN
 62
     7
100
AcDbSpline
210
0.0
220
0.0
230
1.0
 70
     8
 71
     3
 72
     8
 73
     4
 74
     0
 42
0.00000001
 43
0.00000001
 40
0.0
 40
0.0
 40
0.0
 40
0.0
 40
0.0005912624853902
 40
0.0005912624853902
 40
0.0005912624853902
 40
0.0005912624853902
 10
3.425061300234947
 20
2.637259465409308
 30
0.0
 10
3.429587465014372
 20
2.639479572714579
 30
0.0
 10
3.434098298287353
 20
2.641703569409855
 30
0.0
 10
3.43859303127963
 20
2.643931586521704
 30
0.0
  0
LINE
  5
145
330
1F
100
AcDbEntity
  8
0
  6
HIDDEN
 62
     7
100
AcDbLine
 10
3.4447463396
 20
4.8666505131
 30
0.0
 11
3.4429647681
 21
4.868612675
 31
0.0
  0
SPLINE
  5
146
330
1F
100
AcDbEntity
  8
0
  6
HIDDEN
 62
     7
100
AcDbSpline
210
0.0
220
0.0
230
1.0
 70
     8
 71
     3
 72
     8
 73
     4
 74
     0
 42
0.00000001
 43
0.00000001
 40
0.0
 40
0.0
 40
0.0
 40
0.0
 40
0.0006642745501248
 40
0.0006642745501248
 40
0.0006642745501248
 40
0.0006642745501248
 10
3.425061300234947
 20
4.882092683478987
 30
0.0
 10
3.431032183316108
 20
4.877601380674905
 30
0.0
 10
3.437000055020097
 20
4.873108075116729
 30
0.0
 10
3.442964768108145
 20
4.868612675006501
 30
0.0
  0
SPLINE
  5
147
330
1F
100
AcDbEntity
  8
0
  6
HIDDEN
 62
     7
100
AcDbSpline
210
0.0
220
0.0
230
1.0
 70
     8
 71
     3
 72
     8
 73
     4
 74
     0
 42
0.00000001
 43
0.00000001
 40
0.0
 40
0.0
 40
0.0
 40
0.0
 40
0.0005912624853902
 40
0.0005912624853902
 40
0.0005912624853902
 40
0.0005912624853902
 10
3.425061300234947
 20
4.880097107374787
 30
0.0
 10
3.429587465014372
 20
4.877877000069516
 30
0.0
 10
3.434098298287354
 20
4.875653003374239
 30
0.0
 10
3.438593031279631
 20
4.873424986262389
 30
0.0
  0
SPLINE
  5
148
330
1F
100
AcDbEntity
  8
0
  6
HIDDEN
 62
     7
100
AcDbSpline
210
0.0
220
0.0
230
1.0
 70
     8
 71
     3
 72
     8
 73
     4
 74
     0
 42
0.00000001
 43
0.00000001
 40
0.0
 40
0.0
 40
0.0
 40
0.0
 40
0.0002324574496811
 40
0.0002324574496811
 40
0.0002324574496811
 40
0.0002324574496811
 10
3.438593031279631
 20
4.873424986262389
 30
0.0
 10
3.44064473169856
 20
4.87116737153795
 30
0.0
 10
3.442695837921444
 20
4.868909216665768
 30
0.0
 10
3.444746339605025
 20
4.866650513121991
 30
0.0
  0
LINE
  5
149
330
1F
100
AcDbEntity
  8
0
  6
HIDDEN
 62
     7
100
AcDbLine
 10
3.4429647681
 20
4.868612675
 30
0.0
 11
3.8366655555
 21
4.868612675
 31
0.0
  0
LINE
  5
14A
330
1F
100
AcDbEntity
  8
0
  6
HIDDEN
 62
     7
100
AcDbLine
 10
3.8322938187
 20
2.6439315865
 30
0.0
 11
3.4385930313
 21
2.6439315865
 31
0.0
  0
SPLINE
  5
14B
330
1F
100
AcDbEntity
  8
0
  6
HIDDEN
 62
     7
100
AcDbSpline
210
0.0
220
0.0
230
1.0
 70
     8
 71
     3
 72
     8
 73
     4
 74
     0
 42
0.00000001
 43
0.00000001
 40
0.0
 40
0.0
 40
0.0
 40
0.0
 40
0.0005912624853902
 40
0.0005912624853902
 40
0.0005912624853902
 40
0.0005912624853902
 10
3.818762087636522
 20
4.880097107374786
 30
0.0
 10
3.823288252415947
 20
4.877877000069515
 30
0.0
 10
3.827799085688929
 20
4.875653003374239
 30
0.0
 10
3.832293818681206
 20
4.873424986262389
 30
0.0
  0
LINE
  5
14C
330
1F
100
AcDbEntity
  8
0
  6
HIDDEN
 62
     7
100
AcDbLine
 10
3.8322938187
 20
4.8734249863
 30
0.0
 11
3.4385930313
 21
4.8734249863
 31
0.0
  0
LINE
  5
14D
330
1F
100
AcDbEntity
  8
0
  6
HIDDEN
 62
     7
100
AcDbLine
 10
3.4429647681
 20
2.6487438978
 30
0.0
 11
3.8366655555
 21
2.6487438978
 31
0.0
  0
SPLINE
  5
14E
330
1F
100
AcDbEntity
  8
0
  6
HIDDEN
 62
     7
100
AcDbSpline
210
0.0
220
0.0
230
1.0
 70
     8
 71
     3
 72
     8
 73
     4
 74
     0
 42
0.00000001
 43
0.00000001
 40
0.0
 40
0.0
 40
0.0
 40
0.0
 40
0.0006642745501248
 40
0.0006642745501248
 40
0.0006642745501248
 40
0.0006642745501248
 10
3.83666555550972
 20
2.648743897777594
 30
0.0
 10
3.830700842421672
 20
2.644248497667366
 30
0.0
 10
3.824732970717683
 20
2.63975519210919
 30
0.0
 10
3.818762087636522
 20
2.635263889305107
 30
0.0
  0
SPLINE
  5
14F
330
1F
100
AcDbEntity
  8
0
  6
HIDDEN
 62
     7
100
AcDbSpline
210
0.0
220
0.0
230
1.0
 70
     8
 71
     3
 72
     8
 73
     4
 74
     0
 42
0.00000001
 43
0.00000001
 40
0.0
 40
0.0
 40
0.0
 40
0.0
 40
0.0002324574496811
 40
0.0002324574496811
 40
0.0002324574496811
 40
0.0002324574496811
 10
3.8384471270066
 20
4.866650513121992
 30
0.0
 10
3.836396625323019
 20
4.868909216665768
 30
0.0
 10
3.834345519100135
 20
4.87116737153795
 30
0.0
 10
3.832293818681206
 20
4.873424986262389
 30
0.0
  0
LINE
  5
150
330
1F
100
AcDbEntity
  8
0
  6
HIDDEN
 62
     7
100
AcDbLine
 10
3.2146791755
 20
4.27048931
 30
0.0
 11
3.2103102682
 21
4.27048931
 31
0.0
  0
SPLINE
  5
151
330
1F
100
AcDbEntity
  8
0
  6
HIDDEN
 62
     7
100
AcDbSpline
210
0.0
220
0.0
230
1.0
 70
     8
 71
     3
 72
     8
 73
     4
 74
     0
 42
0.00000001
 43
0.00000001
 40
0.0
 40
0.0
 40
0.0
 40
0.0
 40
0.0006642745501248
 40
0.0006642745501248
 40
0.0006642745501248
 40
0.0006642745501248
 10
3.228210906534158
 20
3.233387254297518
 30
0.0
 10
3.222240023452997
 20
3.2378785571016
 30
0.0
 10
3.216272151749007
 20
3.242371862659776
 30
0.0
 10
3.210307438660959
 20
3.246867262770004
 30
0.0
  0
SPLINE
  5
152
330
1F
100
AcDbEntity
  8
0
  6
HIDDEN
 62
     7
100
AcDbSpline
210
0.0
220
0.0
230
1.0
 70
     8
 71
     3
 72
     8
 73
     4
 74
     0
 42
0.00000001
 43
0.00000001
 40
0.0
 40
0.0
 40
0.0
 40
0.0
 40
0.0005912624853902
 40
0.0005912624853902
 40
0.0005912624853902
 40
0.0005912624853902
 10
3.214679175489474
 20
4.270489310014098
 30
0.0
 10
3.219173908481751
 20
4.27640883960979
 30
0.0
 10
3.223684741754733
 20
4.28231768752141
 30
0.0
 10
3.228210906534158
 20
4.288216201868209
 30
0.0
  0
LINE
  5
153
330
1F
100
AcDbEntity
  8
0
  6
HIDDEN
 62
     7
100
AcDbLine
 10
3.6415967333
 20
4.988993247
 30
0.0
 11
3.6415967333
 21
4.083481436
 31
0.0
  0
LINE
  5
154
330
1F
100
AcDbEntity
  8
0
  6
HIDDEN
 62
     7
100
AcDbLine
 10
4.0352975207
 20
4.083481436
 30
0.0
 11
4.0352975207
 21
4.988993247
 31
0.0
  0
LINE
  5
155
330
1F
100
AcDbEntity
  8
0
  6
HIDDEN
 62
     7
100
AcDbLine
 10
3.6415967333
 20
4.083481436
 30
0.0
 11
3.651439253
 21
4.0736389163
 31
0.0
  0
LINE
  5
156
330
1F
100
AcDbEntity
  8
0
  6
HIDDEN
 62
     7
100
AcDbLine
 10
4.025455001
 20
4.0736389163
 30
0.0
 11
4.0352975207
 21
4.083481436
 31
0.0
  0
LINE
  5
157
330
1F
100
AcDbEntity
  8
0
  6
HIDDEN
 62
     7
100
AcDbLine
 10
4.0352975207
 20
4.988993247
 30
0.0
 11
4.0267773131
 21
4.9975134546
 31
0.0
  0
LINE
  5
158
330
1F
100
AcDbEntity
  8
0
  6
HIDDEN
 62
     7
100
AcDbLine
 10
3.6501204291
 20
4.9975169428
 30
0.0
 11
3.6415967333
 21
4.988993247
 31
0.0
  0
LINE
  5
159
330
1F
100
AcDbEntity
  8
0
  6
HIDDEN
 62
     7
100
AcDbLine
 10
4.2518329538
 20
4.0933239557
 30
0.0
 11
4.2321479144
 21
4.0736389163
 31
0.0
  0
LINE
  5
15A
330
1F
100
AcDbEntity
  8
0
  6
HIDDEN
 62
     7
100
AcDbLine
 10
4.2321479144
 20
3.4437176565
 30
0.0
 11
4.2518329538
 21
3.4240326171
 31
0.0
  0
LINE
  5
15B
330
1F
100
AcDbEntity
  8
0
  6
HIDDEN
 62
     7
100
AcDbLine
 10
3.6420488866
 20
4.0736389163
 30
0.0
 11
3.4447463396
 21
4.0736389163
 31
0.0
  0
LINE
  5
15C
330
1F
100
AcDbEntity
  8
0
  6
HIDDEN
 62
     7
100
AcDbLine
 10
4.2321479144
 20
4.0736389163
 30
0.0
 11
4.0348811845
 21
4.0736389163
 31
0.0
  0
LINE
  5
15D
330
1F
100
AcDbEntity
  8
0
  6
HIDDEN
 62
     7
100
AcDbLine
 10
3.4447463396
 20
3.4437176565
 30
0.0
 11
4.2321479144
 21
3.4437176565
 31
0.0
  0
LINE
  5
15E
330
1F
100
AcDbEntity
  8
0
  6
HIDDEN
 62
     7
100
AcDbLine
 10
4.0352975207
 20
4.0733798879
 30
0.0
 11
4.0352975207
 21
4.9988357667
 31
0.0
  0
LINE
  5
15F
330
1F
100
AcDbEntity
  8
0
  6
HIDDEN
 62
     7
100
AcDbLine
 10
3.6415967333
 20
4.9988357667
 30
0.0
 11
3.6415967333
 21
4.0733568108
 31
0.0
  0
LINE
  5
160
330
1F
100
AcDbEntity
  8
0
  6
HIDDEN
 62
     7
100
AcDbLine
 10
2.401439253
 20
3.4240326171
 30
0.0
 11
2.4211242924
 21
3.4437176565
 31
0.0
  0
LINE
  5
161
330
1F
100
AcDbEntity
  8
0
  6
HIDDEN
 62
     7
100
AcDbLine
 10
2.4211242924
 20
4.0736389163
 30
0.0
 11
2.401439253
 21
4.0933239557
 31
0.0
  0
LINE
  5
162
330
1F
100
AcDbEntity
  8
0
  6
HIDDEN
 62
     7
100
AcDbLine
 10
2.4211242924
 20
3.4437176565
 30
0.0
 11
3.2085258672
 21
3.4437176565
 31
0.0
  0
LINE
  5
163
330
1F
100
AcDbEntity
  8
0
  6
HIDDEN
 62
     7
100
AcDbLine
 10
3.2085258672
 20
4.0736389163
 30
0.0
 11
2.4211242924
 21
4.0736389163
 31
0.0
  0
LINE
  5
164
330
1F
100
AcDbEntity
  8
0
  6
HIDDEN
 62
     7
100
AcDbLine
 10
3.2085258672
 20
3.4437176565
 30
0.0
 11
3.4447463396
 21
3.4437176565
 31
0.0
  0
LINE
  5
165
330
1F
100
AcDbEntity
  8
0
  6
HIDDEN
 62
     7
100
AcDbLine
 10
3.4447463396
 20
4.0736389163
 30
0.0
 11
3.2085258672
 21
4.0736389163
 31
0.0
  0
LINE
  5
166
330
1F
100
AcDbEntity
  8
0
  6
CONTINUOUS
 62
     7
100
AcDbLine
 10
8.0540342126
 20
4.988993247
 30
0.0
 11
8.0540342126
 21
4.9831130533
 31
0.0
  0
LINE
  5
167
330
1F
100
AcDbEntity
  8
0
  6
CONTINUOUS
 62
     7
100
AcDbLine
 10
8.447735
 20
4.9831130533
 30
0.0
 11
8.447735
 21
4.988993247
 31
0.0
  0
LINE
  5
168
330
1F
100
AcDbEntity
  8
0
  6
CONTINUOUS
 62
     7
100
AcDbLine
 10
8.447735
 20
4.988993247
 30
0.0
 11
8.4378924803
 21
4.9988357667
 31
0.0
  0
LINE
  5
169
330
1F
100
AcDbEntity
  8
0
  6
CONTINUOUS
 62
     7
100
AcDbLine
 10
8.0638767323
 20
4.9988357667
 30
0.0
 11
8.0540342126
 21
4.988993247
 31
0.0
  0
LINE
  5
16A
330
1F
100
AcDbEntity
  8
0
  6
CONTINUOUS
 62
     7
100
AcDbLine
 10
7.0205696457
 20
3.5618278927
 30
0.0
 11
7.0264498394
 21
3.5618278927
 31
0.0
  0
LINE
  5
16B
330
1F
100
AcDbEntity
  8
0
  6
CONTINUOUS
 62
     7
100
AcDbLine
 10
7.0264498394
 20
3.9555286801
 30
0.0
 11
7.0205696457
 21
3.9555286801
 31
0.0
  0
LINE
  5
16C
330
1F
100
AcDbEntity
  8
0
  6
CONTINUOUS
 62
     7
100
AcDbLine
 10
7.0205696457
 20
3.9555286801
 30
0.0
 11
7.010727126
 21
3.9456861604
 31
0.0
  0
LINE
  5
16D
330
1F
100
AcDbEntity
  8
0
  6
CONTINUOUS
 62
     7
100
AcDbLine
 10
7.010727126
 20
3.5716704124
 30
0.0
 11
7.0205696457
 21
3.5618278927
 31
0.0
  0
LINE
  5
16E
330
1F
100
AcDbEntity
  8
0
  6
CONTINUOUS
 62
     7
100
AcDbLine
 10
8.447735
 20
4.988993247
 30
0.0
 11
8.4068194441
 21
4.988993247
 31
0.0
  0
LINE
  5
16F
330
1F
100
AcDbEntity
  8
0
  6
CONTINUOUS
 62
     7
100
AcDbLine
 10
8.0949497686
 20
4.988993247
 30
0.0
 11
8.0540342126
 21
4.988993247
 31
0.0
  0
LINE
  5
170
330
1F
100
AcDbEntity
  8
0
  6
CONTINUOUS
 62
     7
100
AcDbLine
 10
8.2508846063
 20
4.9988357667
 30
0.0
 11
8.4378924803
 21
4.9988357667
 31
0.0
  0
LINE
  5
171
330
1F
100
AcDbEntity
  8
0
  6
CONTINUOUS
 62
     7
100
AcDbLine
 10
8.0638767323
 20
4.9988357667
 30
0.0
 11
8.2508846063
 21
4.9988357667
 31
0.0
  0
CIRCLE
  5
172
330
1F
100
AcDbEntity
  8
0
  6
CONTINUOUS
 62
     7
100
AcDbCircle
 10
8.2508846063
 20
3.7586782864
 30
0.0
 40
1.220472440944883
  0
CIRCLE
  5
173
330
1F
100
AcDbEntity
  8
0
  6
CONTINUOUS
 62
     7
100
AcDbCircle
 10
8.2508846063
 20
3.7586782864
 30
0.0
 40
1.240157480314961
  0
CIRCLE
  5
174
330
1F
100
AcDbEntity
  8
0
  6
CONTINUOUS
 62
     7
100
AcDbCircle
 10
8.2508846063
 20
3.7586782864
 30
0.0
 40
0.3346456692913407
  0
CIRCLE
  5
175
330
1F
100
AcDbEntity
  8
0
  6
CONTINUOUS
 62
     7
100
AcDbCircle
 10
8.2508846063
 20
3.7586782864
 30
0.0
 40
0.3149606299212611
  0
LINE
  5
176
330
1F
100
AcDbEntity
  8
0
  6
CONTINUOUS
 62
     7
100
AcDbLine
 10
7.0205696457
 20
3.5618278927
 30
0.0
 11
7.0205696457
 21
3.6027434486
 31
0.0
  0
LINE
  5
177
330
1F
100
AcDbEntity
  8
0
  6
CONTINUOUS
 62
     7
100
AcDbLine
 10
7.0205696457
 20
3.9146131242
 30
0.0
 11
7.0205696457
 21
3.9555286801
 31
0.0
  0
LINE
  5
178
330
1F
100
AcDbEntity
  8
0
  6
CONTINUOUS
 62
     7
100
AcDbLine
 10
7.010727126
 20
3.9456861604
 30
0.0
 11
7.010727126
 21
3.5716704124
 31
0.0
  0
LINE
  5
179
330
1F
100
AcDbEntity
  8
0
  6
HIDDEN
 62
     7
100
AcDbLine
 10
8.4068194441
 20
4.988993247
 30
0.0
 11
8.0949497686
 21
4.988993247
 31
0.0
  0
LINE
  5
17A
330
1F
100
AcDbEntity
  8
0
  6
HIDDEN
 62
     7
100
AcDbLine
 10
8.0540342126
 20
4.083481436
 30
0.0
 11
8.447735
 21
4.083481436
 31
0.0
  0
LINE
  5
17B
330
1F
100
AcDbEntity
  8
0
  6
HIDDEN
 62
     7
100
AcDbLine
 10
8.4378924803
 20
4.0736389163
 30
0.0
 11
8.0638767323
 21
4.0736389163
 31
0.0
  0
LINE
  5
17C
330
1F
100
AcDbEntity
  8
0
  6
HIDDEN
 62
     7
100
AcDbLine
 10
8.3077104202
 20
4.801985373
 30
0.0
 11
8.3645362341
 21
4.801985373
 31
0.0
  0
LINE
  5
17D
330
1F
100
AcDbEntity
  8
0
  6
HIDDEN
 62
     7
100
AcDbLine
 10
8.3077104202
 20
4.801985373
 30
0.0
 11
8.3077104202
 21
4.9988357667
 31
0.0
  0
LINE
  5
17E
330
1F
100
AcDbEntity
  8
0
  6
HIDDEN
 62
     7
100
AcDbLine
 10
8.1940587924
 20
4.801985373
 30
0.0
 11
8.3077104202
 21
4.801985373
 31
0.0
  0
LINE
  5
17F
330
1F
100
AcDbEntity
  8
0
  6
HIDDEN
 62
     7
100
AcDbLine
 10
8.1940587924
 20
4.801985373
 30
0.0
 11
8.1940587924
 21
4.9988357667
 31
0.0
  0
LINE
  5
180
330
1F
100
AcDbEntity
  8
0
  6
HIDDEN
 62
     7
100
AcDbLine
 10
8.1372329785
 20
4.801985373
 30
0.0
 11
8.1940587924
 21
4.801985373
 31
0.0
  0
LINE
  5
181
330
1F
100
AcDbEntity
  8
0
  6
HIDDEN
 62
     7
100
AcDbLine
 10
8.3645362341
 20
4.801985373
 30
0.0
 11
8.3645362341
 21
4.9988357667
 31
0.0
  0
LINE
  5
182
330
1F
100
AcDbEntity
  8
0
  6
HIDDEN
 62
     7
100
AcDbLine
 10
8.1372329785
 20
4.801985373
 30
0.0
 11
8.1372329785
 21
4.9988357667
 31
0.0
  0
SPLINE
  5
183
330
1F
100
AcDbEntity
  8
0
  6
HIDDEN
 62
     7
100
AcDbSpline
210
0.0
220
0.0
230
1.0
 70
    24
 71
     3
 72
     8
 73
     4
 74
     0
 42
0.00000001
 43
0.00000001
 40
0.0
 40
0.0
 40
0.0
 40
0.0
 40
0.0007431842497003
 40
0.0007431842497003
 40
0.0007431842497003
 40
0.0007431842497003
 10
7.739073582701943
 20
4.866650513121991
 30
0.0
 10
7.739073582701943
 20
4.873871761142995
 30
0.0
 10
7.739073582701943
 20
4.881087404115352
 30
0.0
 10
7.739073582701943
 20
4.888297714376581
 30
0.0
  0
SPLINE
  5
184
330
1F
100
AcDbEntity
  8
0
  6
HIDDEN
 62
     7
100
AcDbSpline
210
0.0
220
0.0
230
1.0
 70
    24
 71
     3
 72
     8
 73
     4
 74
     0
 42
0.00000001
 43
0.00000001
 40
0.0
 40
0.0
 40
0.0
 40
0.0
 40
0.0007431842497003
 40
0.0007431842497003
 40
0.0007431842497003
 40
0.0007431842497003
 10
7.739073582701943
 20
2.629058858407514
 30
0.0
 10
7.739073582701943
 20
2.636269168668742
 30
0.0
 10
7.739073582701943
 20
2.643484811641099
 30
0.0
 10
7.739073582701943
 20
2.650706059662103
 30
0.0
  0
LINE
  5
185
330
1F
100
AcDbEntity
  8
0
  6
HIDDEN
 62
     7
100
AcDbLine
 10
8.7626956299
 20
2.6290588584
 30
0.0
 11
8.7626956299
 21
4.8882977144
 31
0.0
  0
LINE
  5
186
330
1F
100
AcDbEntity
  8
0
  6
HIDDEN
 62
     7
100
AcDbLine
 10
7.7390735827
 20
2.6507060597
 30
0.0
 11
7.7390735827
 21
4.8666505131
 31
0.0
  0
LINE
  5
187
330
1F
100
AcDbEntity
  8
0
  6
HIDDEN
 62
     7
100
AcDbLine
 10
7.0205696457
 20
3.6027434486
 30
0.0
 11
7.0205696457
 21
3.9146131242
 31
0.0
  0
LINE
  5
188
330
1F
100
AcDbEntity
  8
0
  6
HIDDEN
 62
     7
100
AcDbLine
 10
7.9260814567
 20
3.9555286801
 30
0.0
 11
7.9260814567
 21
3.5618278927
 31
0.0
  0
LINE
  5
189
330
1F
100
AcDbEntity
  8
0
  6
HIDDEN
 62
     7
100
AcDbLine
 10
7.9359239764
 20
3.7586782864
 30
0.0
 11
7.9359239764
 21
3.9456861604
 31
0.0
  0
LINE
  5
18A
330
1F
100
AcDbEntity
  8
0
  6
HIDDEN
 62
     7
100
AcDbLine
 10
7.9359239764
 20
3.5716704124
 30
0.0
 11
7.9359239764
 21
3.7586782864
 31
0.0
  0
LINE
  5
18B
330
1F
100
AcDbEntity
  8
0
  6
HIDDEN
 62
     7
100
AcDbLine
 10
7.2075775197
 20
3.8155041003
 30
0.0
 11
7.2075775197
 21
3.7018524725
 31
0.0
  0
LINE
  5
18C
330
1F
100
AcDbEntity
  8
0
  6
HIDDEN
 62
     7
100
AcDbLine
 10
7.2075775197
 20
3.8723299142
 30
0.0
 11
7.2075775197
 21
3.8155041003
 31
0.0
  0
LINE
  5
18D
330
1F
100
AcDbEntity
  8
0
  6
HIDDEN
 62
     7
100
AcDbLine
 10
7.2075775197
 20
3.8155041003
 30
0.0
 11
7.010727126
 21
3.8155041003
 31
0.0
  0
LINE
  5
18E
330
1F
100
AcDbEntity
  8
0
  6
HIDDEN
 62
     7
100
AcDbLine
 10
7.2075775197
 20
3.7018524725
 30
0.0
 11
7.2075775197
 21
3.6450266586
 31
0.0
  0
LINE
  5
18F
330
1F
100
AcDbEntity
  8
0
  6
HIDDEN
 62
     7
100
AcDbLine
 10
7.2075775197
 20
3.7018524725
 30
0.0
 11
7.010727126
 21
3.7018524725
 31
0.0
  0
LINE
  5
190
330
1F
100
AcDbEntity
  8
0
  6
HIDDEN
 62
     7
100
AcDbLine
 10
7.2075775197
 20
3.8723299142
 30
0.0
 11
7.010727126
 21
3.8723299142
 31
0.0
  0
LINE
  5
191
330
1F
100
AcDbEntity
  8
0
  6
HIDDEN
 62
     7
100
AcDbLine
 10
7.2075775197
 20
3.6450266586
 30
0.0
 11
7.010727126
 21
3.6450266586
 31
0.0
  0
LINE
  5
192
330
1F
100
AcDbEntity
  8
0
  6
HIDDEN
 62
     7
100
AcDbLine
 10
9.3656583421
 20
4.27048931
 30
0.0
 11
9.3805040343
 21
4.27048931
 31
0.0
  0
LINE
  5
193
330
1F
100
AcDbEntity
  8
0
  6
HIDDEN
 62
     7
100
AcDbLine
 10
9.3805040343
 20
3.2468672628
 30
0.0
 11
9.3608439887
 21
3.2468672628
 31
0.0
  0
LINE
  5
194
330
1F
100
AcDbEntity
  8
0
  6
HIDDEN
 62
     7
100
AcDbLine
 10
9.3588568331
 20
4.27048931
 30
0.0
 11
7.142913167
 21
4.27048931
 31
0.0
  0
LINE
  5
195
330
1F
100
AcDbEntity
  8
0
  6
HIDDEN
 62
     7
100
AcDbLine
 10
7.1409494303
 20
4.27048931
 30
0.0
 11
7.1212651783
 21
4.27048931
 31
0.0
  0
LINE
  5
196
330
1F
100
AcDbEntity
  8
0
  6
HIDDEN
 62
     7
100
AcDbLine
 10
9.3588568331
 20
3.2468672628
 30
0.0
 11
7.1429152091
 21
3.2468672628
 31
0.0
  0
LINE
  5
197
330
1F
100
AcDbEntity
  8
0
  6
HIDDEN
 62
     7
100
AcDbLine
 10
7.1361350769
 20
3.2468672628
 30
0.0
 11
7.1212651783
 21
3.2468672628
 31
0.0
  0
SPLINE
  5
198
330
1F
100
AcDbEntity
  8
0
  6
HIDDEN
 62
     7
100
AcDbSpline
210
0.0
220
0.0
230
1.0
 70
    24
 71
     3
 72
     8
 73
     4
 74
     0
 42
0.00000001
 43
0.00000001
 40
0.0
 40
0.0
 40
0.0
 40
0.0
 40
0.0005912624853902
 40
0.0005912624853902
 40
0.0005912624853902
 40
0.0005912624853902
 10
8.780422521800148
 20
4.880097107374786
 30
0.0
 10
8.774524007453348
 20
4.877877000069515
 30
0.0
 10
8.76861515954173
 20
4.875653003374239
 30
0.0
 10
8.762695629946037
 20
4.873424986262389
 30
0.0
  0
SPLINE
  5
199
330
1F
100
AcDbEntity
  8
0
  6
HIDDEN
 62
     7
100
AcDbSpline
210
0.0
220
0.0
230
1.0
 70
    24
 71
     3
 72
     8
 73
     4
 74
     0
 42
0.00000001
 43
0.00000001
 40
0.0
 40
0.0
 40
0.0
 40
0.0
 40
0.0006642745501248
 40
0.0006642745501248
 40
0.0006642745501248
 40
0.0006642745501248
 10
8.762695629946037
 20
2.648743897777594
 30
0.0
 10
8.767191030056265
 20
2.644248497667366
 30
0.0
 10
8.771684335614442
 20
2.63975519210919
 30
0.0
 10
8.776175638418524
 20
2.635263889305107
 30
0.0
  0
LINE
  5
19A
330
1F
100
AcDbEntity
  8
0
  6
HIDDEN
 62
     7
100
AcDbLine
 10
8.7626956299
 20
2.6507060597
 30
0.0
 11
8.7626956299
 21
4.8666505131
 31
0.0
  0
SPLINE
  5
19B
330
1F
100
AcDbEntity
  8
0
  6
HIDDEN
 62
     7
100
AcDbSpline
210
0.0
220
0.0
230
1.0
 70
    24
 71
     3
 72
     8
 73
     4
 74
     0
 42
0.00000001
 43
0.00000001
 40
0.0
 40
0.0
 40
0.0
 40
0.0
 40
0.0005912624853902
 40
0.0005912624853902
 40
0.0005912624853902
 40
0.0005912624853902
 10
7.721346690847832
 20
2.637259465409308
 30
0.0
 10
7.727245205194632
 20
2.639479572714579
 30
0.0
 10
7.733154053106251
 20
2.641703569409855
 30
0.0
 10
7.739073582701943
 20
2.643931586521704
 30
0.0
  0
SPLINE
  5
19C
330
1F
100
AcDbEntity
  8
0
  6
HIDDEN
 62
     7
100
AcDbSpline
210
0.0
220
0.0
230
1.0
 70
    24
 71
     3
 72
     8
 73
     4
 74
     0
 42
0.00000001
 43
0.00000001
 40
0.0
 40
0.0
 40
0.0
 40
0.0
 40
0.0006642745501248
 40
0.0006642745501248
 40
0.0006642745501248
 40
0.0006642745501248
 10
7.725593574229457
 20
4.882092683478987
 30
0.0
 10
7.730084877033539
 20
4.877601380674905
 30
0.0
 10
7.734578182591715
 20
4.873108075116729
 30
0.0
 10
7.739073582701943
 20
4.868612675006501
 30
0.0
  0
SPLINE
  5
19D
330
1F
100
AcDbEntity
  8
0
  6
HIDDEN
 62
     7
100
AcDbSpline
210
0.0
220
0.0
230
1.0
 70
    24
 71
     3
 72
     8
 73
     4
 74
     0
 42
0.00000001
 43
0.00000001
 40
0.0
 40
0.0
 40
0.0
 40
0.0
 40
0.0006642745501248
 40
0.0006642745501248
 40
0.0006642745501248
 40
0.0006642745501248
 10
9.37429900341093
 20
3.233387254297518
 30
0.0
 10
9.369807700606849
 20
3.2378785571016
 30
0.0
 10
9.365314395048673
 20
3.242371862659776
 30
0.0
 10
9.360818994938445
 20
3.246867262770004
 30
0.0
  0
SPLINE
  5
19E
330
1F
100
AcDbEntity
  8
0
  6
HIDDEN
 62
     7
100
AcDbSpline
210
0.0
220
0.0
230
1.0
 70
    24
 71
     3
 72
     8
 73
     4
 74
     0
 42
0.00000001
 43
0.00000001
 40
0.0
 40
0.0
 40
0.0
 40
0.0
 40
0.0005912624853902
 40
0.0005912624853902
 40
0.0005912624853902
 40
0.0005912624853902
 10
9.36563130619433
 20
4.270489310014098
 30
0.0
 10
9.367859323306181
 20
4.27640883960979
 30
0.0
 10
9.370083320001457
 20
4.28231768752141
 30
0.0
 10
9.372303427306727
 20
4.288216201868209
 30
0.0
  0
SPLINE
  5
19F
330
1F
100
AcDbEntity
  8
0
  6
HIDDEN
 62
     7
100
AcDbSpline
210
0.0
220
0.0
230
1.0
 70
    24
 71
     3
 72
     8
 73
     4
 74
     0
 42
0.00000001
 43
0.00000001
 40
0.0
 40
0.0
 40
0.0
 40
0.0
 40
0.0006642745501248
 40
0.0006642745501248
 40
0.0006642745501248
 40
0.0006642745501248
 10
7.140950217709534
 20
4.27048931001409
 30
0.0
 10
7.136454817599306
 20
4.274984710124318
 30
0.0
 10
7.131961512041131
 20
4.279478015682494
 30
0.0
 10
7.127470209237049
 20
4.283969318486576
 30
0.0
  0
SPLINE
  5
1A0
330
1F
100
AcDbEntity
  8
0
  6
HIDDEN
 62
     7
100
AcDbSpline
210
0.0
220
0.0
230
1.0
 70
    24
 71
     3
 72
     8
 73
     4
 74
     0
 42
0.00000001
 43
0.00000001
 40
0.0
 40
0.0
 40
0.0
 40
0.0
 40
0.0005912624853902
 40
0.0005912624853902
 40
0.0005912624853902
 40
0.0005912624853902
 10
7.136137906453649
 20
3.246867262769996
 30
0.0
 10
7.133909889341798
 20
3.240947733174304
 30
0.0
 10
7.131685892646523
 20
3.235038885262685
 30
0.0
 10
7.129465785341252
 20
3.229140370915886
 30
0.0
  0
SPLINE
  5
1A1
330
1F
100
AcDbEntity
  8
0
  6
HIDDEN
 62
     7
100
AcDbSpline
210
0.0
220
0.0
230
1.0
 70
    24
 71
     3
 72
     8
 73
     4
 74
     0
 42
0.00000001
 43
0.00000001
 40
0.0
 40
0.0
 40
0.0
 40
0.0
 40
0.0002324574496811
 40
0.0002324574496811
 40
0.0002324574496811
 40
0.0002324574496811
 10
7.136137906453649
 20
3.246867262769996
 30
0.0
 10
7.138395521178087
 20
3.246867262769996
 30
0.0
 10
7.140653676050269
 20
3.246867262769996
 30
0.0
 10
7.142912379594047
 20
3.246867262769996
 30
0.0
  0
LINE
  5
1A2
330
1F
100
AcDbEntity
  8
0
  6
HIDDEN
 62
     7
100
AcDbLine
 10
9.3588568331
 20
3.2468672628
 30
0.0
 11
9.3608189949
 21
3.2468672628
 31
0.0
  0
LINE
  5
1A3
330
1F
100
AcDbEntity
  8
0
  6
HIDDEN
 62
     7
100
AcDbLine
 10
7.1429123796
 20
4.27048931
 30
0.0
 11
7.1409502177
 21
4.27048931
 31
0.0
  0
SPLINE
  5
1A4
330
1F
100
AcDbEntity
  8
0
  6
HIDDEN
 62
     7
100
AcDbSpline
210
0.0
220
0.0
230
1.0
 70
    24
 71
     3
 72
     8
 73
     4
 74
     0
 42
0.00000001
 43
0.00000001
 40
0.0
 40
0.0
 40
0.0
 40
0.0
 40
0.0002324574496811
 40
0.0002324574496811
 40
0.0002324574496811
 40
0.0002324574496811
 10
9.36563130619433
 20
4.270489310014098
 30
0.0
 10
9.363373691469892
 20
4.270489310014098
 30
0.0
 10
9.36111553659771
 20
4.270489310014098
 30
0.0
 10
9.358856833053933
 20
4.270489310014098
 30
0.0
  0
LINE
  5
1A5
330
1F
100
AcDbEntity
  8
0
  6
HIDDEN
 62
     7
100
AcDbLine
 10
7.1429123796
 20
4.27048931
 30
0.0
 11
9.3588568331
 21
4.27048931
 31
0.0
  0
LINE
  5
1A6
330
1F
100
AcDbEntity
  8
0
  6
HIDDEN
 62
     7
100
AcDbLine
 10
9.3588568331
 20
3.2468672628
 30
0.0
 11
7.1429123796
 21
3.2468672628
 31
0.0
  0
LINE
  5
1A7
330
1F
100
AcDbEntity
  8
0
  6
HIDDEN
 62
     7
100
AcDbLine
 10
8.0540342126
 20
4.9831130533
 30
0.0
 11
8.0540342126
 21
4.083481436
 31
0.0
  0
LINE
  5
1A8
330
1F
100
AcDbEntity
  8
0
  6
HIDDEN
 62
     7
100
AcDbLine
 10
8.447735
 20
4.083481436
 30
0.0
 11
8.447735
 21
4.9831130533
 31
0.0
  0
LINE
  5
1A9
330
1F
100
AcDbEntity
  8
0
  6
HIDDEN
 62
     7
100
AcDbLine
 10
8.0540342126
 20
4.083481436
 30
0.0
 11
8.0638767323
 21
4.0736389163
 31
0.0
  0
LINE
  5
1AA
330
1F
100
AcDbEntity
  8
0
  6
HIDDEN
 62
     7
100
AcDbLine
 10
8.4378924803
 20
4.0736389163
 30
0.0
 11
8.447735
 21
4.083481436
 31
0.0
  0
LINE
  5
1AB
330
1F
100
AcDbEntity
  8
0
  6
HIDDEN
 62
     7
100
AcDbLine
 10
8.447735
 20
4.0045443493
 30
0.0
 11
8.447735
 21
4.9831348775
 31
0.0
  0
LINE
  5
1AC
330
1F
100
AcDbEntity
  8
0
  6
HIDDEN
 62
     7
100
AcDbLine
 10
8.0540342126
 20
4.9832183485
 30
0.0
 11
8.0540342126
 21
4.0047463493
 31
0.0
  0
LINE
  5
1AD
330
1F
100
AcDbEntity
  8
0
  6
HIDDEN
 62
     7
100
AcDbLine
 10
7.0264498394
 20
3.5618278927
 30
0.0
 11
7.9260814567
 21
3.5618278927
 31
0.0
  0
LINE
  5
1AE
330
1F
100
AcDbEntity
  8
0
  6
HIDDEN
 62
     7
100
AcDbLine
 10
7.9260814567
 20
3.9555286801
 30
0.0
 11
7.0264498394
 21
3.9555286801
 31
0.0
  0
LINE
  5
1AF
330
1F
100
AcDbEntity
  8
0
  6
HIDDEN
 62
     7
100
AcDbLine
 10
7.9260814567
 20
3.5618278927
 30
0.0
 11
7.9359239764
 21
3.5716704124
 31
0.0
  0
LINE
  5
1B0
330
1F
100
AcDbEntity
  8
0
  6
HIDDEN
 62
     7
100
AcDbLine
 10
7.9359239764
 20
3.9456861604
 30
0.0
 11
7.9260814567
 21
3.9555286801
 31
0.0
  0
LINE
  5
1B1
330
1F
100
AcDbEntity
  8
0
  6
HIDDEN
 62
     7
100
AcDbLine
 10
8.0050185434
 20
3.9555286801
 30
0.0
 11
7.0264273687
 21
3.9555286801
 31
0.0
  0
LINE
  5
1B2
330
1F
100
AcDbEntity
  8
0
  6
HIDDEN
 62
     7
100
AcDbLine
 10
7.0263445975
 20
3.5618278927
 30
0.0
 11
8.004809143
 21
3.5618278927
 31
0.0
  0
LINE
  5
1B3
330
1F
100
AcDbEntity
  8
0
  6
CONTINUOUS
 62
     7
100
AcDbLine
 10
3.8581321664
 20
5.4318196586
 30
0.0
 11
4.2321479144
 21
5.4318196586
 31
0.0
  0
LINE
  5
1B4
330
1F
100
AcDbEntity
  8
0
  6
CONTINUOUS
 62
     7
100
AcDbLine
 10
4.2321479144
 20
7.9121346192
 30
0.0
 11
3.838447127
 21
7.9121346192
 31
0.0
  0
LINE
  5
1B5
330
1F
100
AcDbEntity
  8
0
  6
CONTINUOUS
 62
     7
100
AcDbLine
 10
4.2321479144
 20
5.4318196586
 30
0.0
 11
4.2518329538
 21
5.451504698
 31
0.0
  0
LINE
  5
1B6
330
1F
100
AcDbEntity
  8
0
  6
CONTINUOUS
 62
     7
100
AcDbLine
 10
4.2518329538
 20
7.8924495799
 30
0.0
 11
4.2321479144
 21
7.9121346192
 31
0.0
  0
LINE
  5
1B7
330
1F
100
AcDbEntity
  8
0
  6
CONTINUOUS
 62
     7
100
AcDbLine
 10
3.838447127
 20
5.451504698
 30
0.0
 11
3.8581321664
 21
5.4318196586
 31
0.0
  0
LINE
  5
1B8
330
1F
100
AcDbEntity
  8
0
  6
CONTINUOUS
 62
     7
100
AcDbLine
 10
2.6265010645
 20
5.4331357999
 30
0.0
 11
2.6278172057
 21
5.4318196586
 31
0.0
  0
LINE
  5
1B9
330
1F
100
AcDbEntity
  8
0
  6
CONTINUOUS
 62
     7
100
AcDbLine
 10
3.0018329538
 20
5.4318196586
 30
0.0
 11
3.0031486424
 21
5.4331353472
 31
0.0
  0
LINE
  5
1BA
330
1F
100
AcDbEntity
  8
0
  6
CONTINUOUS
 62
     7
100
AcDbLine
 10
3.1888408278
 20
7.9121346192
 30
0.0
 11
2.4211242924
 21
7.9121346192
 31
0.0
  0
LINE
  5
1BB
330
1F
100
AcDbEntity
  8
0
  6
CONTINUOUS
 62
     7
100
AcDbLine
 10
3.0116754735
 20
5.4318196586
 30
0.0
 11
3.2085258672
 21
5.4318196586
 31
0.0
  0
LINE
  5
1BC
330
1F
100
AcDbEntity
  8
0
  6
CONTINUOUS
 62
     7
100
AcDbLine
 10
2.4211242924
 20
5.4318196586
 30
0.0
 11
2.6185257202
 21
5.4318196586
 31
0.0
  0
LINE
  5
1BD
330
1F
100
AcDbEntity
  8
0
  6
CONTINUOUS
 62
     7
100
AcDbLine
 10
2.4211242924
 20
7.9121346192
 30
0.0
 11
2.401439253
 21
7.8924495799
 31
0.0
  0
LINE
  5
1BE
330
1F
100
AcDbEntity
  8
0
  6
CONTINUOUS
 62
     7
100
AcDbLine
 10
2.401439253
 20
5.451504698
 30
0.0
 11
2.4211242924
 21
5.4318196586
 31
0.0
  0
LINE
  5
1BF
330
1F
100
AcDbEntity
  8
0
  6
CONTINUOUS
 62
     7
100
AcDbLine
 10
3.2085258672
 20
7.8924495799
 30
0.0
 11
3.1888408278
 21
7.9121346192
 31
0.0
  0
LINE
  5
1C0
330
1F
100
AcDbEntity
  8
0
  6
CONTINUOUS
 62
     7
100
AcDbLine
 10
3.2282109065
 20
5.4318196586
 30
0.0
 11
3.8187620876
 21
5.4318196586
 31
0.0
  0
LINE
  5
1C1
330
1F
100
AcDbEntity
  8
0
  6
CONTINUOUS
 62
     7
100
AcDbLine
 10
3.8187620876
 20
7.9121346192
 30
0.0
 11
3.2282109065
 21
7.9121346192
 31
0.0
  0
LINE
  5
1C2
330
1F
100
AcDbEntity
  8
0
  6
CONTINUOUS
 62
     7
100
AcDbLine
 10
3.8187620876
 20
5.4318196586
 30
0.0
 11
3.838447127
 21
5.451504698
 31
0.0
  0
LINE
  5
1C3
330
1F
100
AcDbEntity
  8
0
  6
CONTINUOUS
 62
     7
100
AcDbLine
 10
3.838447127
 20
7.8924495799
 30
0.0
 11
3.8187620876
 21
7.9121346192
 31
0.0
  0
LINE
  5
1C4
330
1F
100
AcDbEntity
  8
0
  6
CONTINUOUS
 62
     7
100
AcDbLine
 10
3.2282109065
 20
7.9121346192
 30
0.0
 11
3.2085258672
 21
7.8924495799
 31
0.0
  0
LINE
  5
1C5
330
1F
100
AcDbEntity
  8
0
  6
CONTINUOUS
 62
     7
100
AcDbLine
 10
3.2085258672
 20
5.451504698
 30
0.0
 11
3.2282109065
 21
5.4318196586
 31
0.0
  0
CIRCLE
  5
1C6
330
1F
100
AcDbEntity
  8
0
  6
CONTINUOUS
 62
     7
100
AcDbCircle
 10
3.838447127
 20
6.6719771389
 30
0.0
 40
0.1870078740157477
  0
CIRCLE
  5
1C7
330
1F
100
AcDbEntity
  8
0
  6
CONTINUOUS
 62
     7
100
AcDbCircle
 10
3.838447127
 20
6.6719771389
 30
0.0
 40
0.1968503937007871
  0
LINE
  5
1C8
330
1F
100
AcDbEntity
  8
0
  6
CONTINUOUS
 62
     7
100
AcDbLine
 10
3.7400219302
 20
6.7288029528
 30
0.0
 11
3.7400219302
 21
6.615151325
 31
0.0
  0
LINE
  5
1C9
330
1F
100
AcDbEntity
  8
0
  6
CONTINUOUS
 62
     7
100
AcDbLine
 10
3.7400219302
 20
6.615151325
 30
0.0
 11
3.838447127
 21
6.5583255111
 31
0.0
  0
LINE
  5
1CA
330
1F
100
AcDbEntity
  8
0
  6
CONTINUOUS
 62
     7
100
AcDbLine
 10
3.838447127
 20
6.5583255111
 30
0.0
 11
3.9368723239
 21
6.615151325
 31
0.0
  0
LINE
  5
1CB
330
1F
100
AcDbEntity
  8
0
  6
CONTINUOUS
 62
     7
100
AcDbLine
 10
3.9368723239
 20
6.615151325
 30
0.0
 11
3.9368723239
 21
6.7288029528
 31
0.0
  0
LINE
  5
1CC
330
1F
100
AcDbEntity
  8
0
  6
CONTINUOUS
 62
     7
100
AcDbLine
 10
3.9368723239
 20
6.7288029528
 30
0.0
 11
3.838447127
 21
6.7856287667
 31
0.0
  0
LINE
  5
1CD
330
1F
100
AcDbEntity
  8
0
  6
CONTINUOUS
 62
     7
100
AcDbLine
 10
3.838447127
 20
6.7856287667
 30
0.0
 11
3.7400219302
 21
6.7288029528
 31
0.0
  0
LINE
  5
1CE
330
1F
100
AcDbEntity
  8
0
  6
CONTINUOUS
 62
     7
100
AcDbLine
 10
3.8581321664
 20
6.1601661153
 30
0.0
 11
3.8581321664
 21
5.4318196586
 31
0.0
  0
LINE
  5
1CF
330
1F
100
AcDbEntity
  8
0
  6
CONTINUOUS
 62
     7
100
AcDbLine
 10
3.464431379
 20
6.1601661153
 30
0.0
 11
3.8581321664
 21
6.1601661153
 31
0.0
  0
LINE
  5
1D0
330
1F
100
AcDbEntity
  8
0
  6
CONTINUOUS
 62
     7
100
AcDbLine
 10
3.464431379
 20
7.1837881625
 30
0.0
 11
3.464431379
 21
6.1601661153
 31
0.0
  0
LINE
  5
1D1
330
1F
100
AcDbEntity
  8
0
  6
CONTINUOUS
 62
     7
100
AcDbLine
 10
3.838447127
 20
7.1837881625
 30
0.0
 11
3.464431379
 21
7.1837881625
 31
0.0
  0
LINE
  5
1D2
330
1F
100
AcDbEntity
  8
0
  6
CONTINUOUS
 62
     7
100
AcDbLine
 10
3.838447127
 20
7.9121346192
 30
0.0
 11
3.838447127
 21
7.1837881625
 31
0.0
  0
SPLINE
  5
1D3
330
1F
100
AcDbEntity
  8
0
  6
CONTINUOUS
 62
     7
100
AcDbSpline
210
0.0
220
0.0
230
1.0
 70
     8
 71
     3
 72
    13
 73
     9
 74
     0
 42
0.00000001
 43
0.00000001
 40
0.0
 40
0.0
 40
0.0
 40
0.0
 40
0.1802503389429039
 40
0.3657677383598005
 40
0.5460068952018559
 40
0.7313975511382478
 40
0.9130270531588262
 40
1.0
 40
1.0
 40
1.0
 40
1.0
 10
3.641596733305813
 20
6.671977138916426
 30
0.0
 10
3.642114556345385
 20
6.661143194758643
 30
0.0
 10
3.643165333631941
 20
6.639158729845301
 30
0.0
 10
3.651635135070222
 20
6.607280248713163
 30
0.0
 10
3.664961306245328
 20
6.576899817250391
 30
0.0
 10
3.683298524852672
 20
6.54963785335846
 30
0.0
 10
3.701475003303269
 20
6.52911272292938
 30
0.0
 10
3.714514939956089
 20
6.519666627682311
 30
0.0
 10
3.7187372459035
 20
6.516608000542978
 30
0.0
  0
SPLINE
  5
1D4
330
1F
100
AcDbEntity
  8
0
  6
CONTINUOUS
 62
     7
100
AcDbSpline
210
0.0
220
0.0
230
1.0
 70
     8
 71
     3
 72
    23
 73
    19
 74
     0
 42
0.00000001
 43
0.00000001
 40
0.0
 40
0.0
 40
0.0
 40
0.0
 40
0.048666671249028
 40
0.1158105997604414
 40
0.184897381977363
 40
0.252064617756326
 40
0.3212205701454179
 40
0.3876760171285302
 40
0.456080687718423
 40
0.5221998344144904
 40
0.590207478748609
 40
0.6568678696601684
 40
0.7254257102152407
 40
0.7926863599032536
 40
0.8619108883175322
 40
0.928892047681086
 40
0.9978594564875682
 40
1.0
 40
1.0
 40
1.0
 40
1.0
 10
3.958220707705882
 20
6.516485821840776
 30
0.0
 10
3.964466106562378
 20
6.521355616126843
 30
0.0
 10
3.979328092573565
 20
6.532944117713352
 30
0.0
 10
3.998672939350049
 20
6.556220801469343
 30
0.0
 10
4.015901180103381
 20
6.584554551102123
 30
0.0
 10
4.028101532278273
 20
6.615849710086301
 30
0.0
 10
4.034816201355456
 20
6.64834228614326
 30
0.0
 10
4.035981459830957
 20
6.68171252277939
 30
0.0
 10
4.031629808757819
 20
6.714320888482201
 30
0.0
 10
4.021851479991651
 20
6.74595280123415
 30
0.0
 10
4.007106825592755
 20
6.775252145822496
 30
0.0
 10
3.987487280331284
 20
6.801980090083566
 30
0.0
 10
3.963771892971289
 20
6.824991743646044
 30
0.0
 10
3.93619334556052
 20
6.843901371837354
 30
0.0
 10
3.906001170674577
 20
6.857979609956314
 30
0.0
 10
3.873633368941827
 20
6.866221888493577
 30
0.0
 10
3.851063625442268
 20
6.869644936243805
 30
0.0
 10
3.839512237852954
 20
6.868769333584258
 30
0.0
 10
3.839164509547504
 20
6.868742975553529
 30
0.0
  0
SPLINE
  5
1D5
330
1F
100
AcDbEntity
  8
0
  6
CONTINUOUS
 62
     7
100
AcDbSpline
210
0.0
220
0.0
230
1.0
 70
     8
 71
     3
 72
    14
 73
    10
 74
     0
 42
0.00000001
 43
0.00000001
 40
0.0
 40
0.0
 40
0.0
 40
0.0
 40
0.001739041244379
 40
0.1833011599713963
 40
0.3700654326219788
 40
0.5526116128866843
 40
0.7405330096911847
 40
0.8693290336628048
 40
1.0
 40
1.0
 40
1.0
 40
1.0
 10
3.718318158251705
 20
6.827890058193831
 30
0.0
 10
3.718230647797734
 20
6.827833601454487
 30
0.0
 10
3.709006733313566
 20
6.82188285943317
 30
0.0
 10
3.693354336398691
 20
6.805764881840426
 30
0.0
 10
3.67268906957291
 20
6.780069976219194
 30
0.0
 10
3.656882383605092
 20
6.750410676018073
 30
0.0
 10
3.647356369394114
 20
6.721902376662626
 30
0.0
 10
3.64240911510946
 20
6.695415420884932
 30
0.0
 10
3.641868828633911
 20
6.679827446485672
 30
0.0
 10
3.641596733305812
 20
6.671977138916426
 30
0.0
  0
LINE
  5
1D6
330
1F
100
AcDbEntity
  8
0
  6
CONTINUOUS
 62
     7
100
AcDbLine
 10
4.2321479144
 20
5.4318196586
 30
0.0
 11
4.2321479144
 21
7.9121346192
 31
0.0
  0
LINE
  5
1D7
330
1F
100
AcDbEntity
  8
0
  6
CONTINUOUS
 62
     7
100
AcDbLine
 10
4.2518329538
 20
7.8924495799
 30
0.0
 11
4.2518329538
 21
5.451504698
 31
0.0
  0
SPLINE
  5
1D8
330
1F
100
AcDbEntity
  8
0
  6
CONTINUOUS
 62
     7
100
AcDbSpline
210
0.0
220
0.0
230
1.0
 70
    24
 71
     3
 72
     8
 73
     4
 74
     0
 42
0.00000001
 43
0.00000001
 40
0.0
 40
0.0
 40
0.0
 40
0.0
 40
0.0007431842497003
 40
0.0007431842497003
 40
0.0007431842497003
 40
0.0007431842497003
 10
3.464431378975104
 20
6.16016611529438
 30
0.0
 10
3.457863740040401
 20
6.16016611529438
 30
0.0
 10
3.451301950351473
 20
6.16016611529438
 30
0.0
 10
3.444746339605025
 20
6.16016611529438
 30
0.0
  0
LINE
  5
1D9
330
1F
100
AcDbEntity
  8
0
  6
CONTINUOUS
 62
     7
100
AcDbLine
 10
3.4447463396
 20
6.1601661153
 30
0.0
 11
3.4447463396
 21
7.1837881625
 31
0.0
  0
SPLINE
  5
1DA
330
1F
100
AcDbEntity
  8
0
  6
CONTINUOUS
 62
     7
100
AcDbSpline
210
0.0
220
0.0
230
1.0
 70
    24
 71
     3
 72
     8
 73
     4
 74
     0
 42
0.00000001
 43
0.00000001
 40
0.0
 40
0.0
 40
0.0
 40
0.0
 40
0.0007431842497003
 40
0.0007431842497003
 40
0.0007431842497003
 40
0.0007431842497003
 10
3.444746339605025
 20
7.183788162538473
 30
0.0
 10
3.451301950351473
 20
7.183788162538473
 30
0.0
 10
3.457863740040401
 20
7.183788162538473
 30
0.0
 10
3.464431378975104
 20
7.183788162538473
 30
0.0
  0
LINE
  5
1DB
330
1F
100
AcDbEntity
  8
0
  6
CONTINUOUS
 62
     7
100
AcDbLine
 10
3.838447127
 20
5.451504698
 30
0.0
 11
3.838447127
 21
6.1601661153
 31
0.0
  0
LINE
  5
1DC
330
1F
100
AcDbEntity
  8
0
  6
CONTINUOUS
 62
     7
100
AcDbLine
 10
2.8148250798
 20
5.4416621783
 30
0.0
 11
2.6946303146
 21
5.4416621783
 31
0.0
  0
LINE
  5
1DD
330
1F
100
AcDbEntity
  8
0
  6
CONTINUOUS
 62
     7
100
AcDbLine
 10
2.9350164924
 20
5.4416621783
 30
0.0
 11
2.8148250798
 21
5.4416621783
 31
0.0
  0
LINE
  5
1DE
330
1F
100
AcDbEntity
  8
0
  6
CONTINUOUS
 62
     7
100
AcDbLine
 10
2.6278172057
 20
5.4318196586
 30
0.0
 11
3.0018329538
 21
5.4318196586
 31
0.0
  0
LINE
  5
1DF
330
1F
100
AcDbEntity
  8
0
  6
CONTINUOUS
 62
     7
100
AcDbLine
 10
3.1888408278
 20
7.8015965669
 30
0.0
 11
3.1888408278
 21
7.9121346192
 31
0.0
  0
LINE
  5
1E0
330
1F
100
AcDbEntity
  8
0
  6
CONTINUOUS
 62
     7
100
AcDbLine
 10
3.1888408278
 20
7.8015965669
 30
0.0
 11
2.7951400404
 21
7.8015965669
 31
0.0
  0
LINE
  5
1E1
330
1F
100
AcDbEntity
  8
0
  6
CONTINUOUS
 62
     7
100
AcDbLine
 10
2.7951400404
 20
5.5423577109
 30
0.0
 11
2.7951400404
 21
7.8015965669
 31
0.0
  0
LINE
  5
1E2
330
1F
100
AcDbEntity
  8
0
  6
CONTINUOUS
 62
     7
100
AcDbLine
 10
2.7951400404
 20
5.5423577109
 30
0.0
 11
3.2085258672
 21
5.5423577109
 31
0.0
  0
LINE
  5
1E3
330
1F
100
AcDbEntity
  8
0
  6
CONTINUOUS
 62
     7
100
AcDbLine
 10
3.2085258672
 20
5.5423577109
 30
0.0
 11
3.2085258672
 21
5.4318196586
 31
0.0
  0
SPLINE
  5
1E4
330
1F
100
AcDbEntity
  8
0
  6
CONTINUOUS
 62
     7
100
AcDbSpline
210
0.0
220
0.0
230
1.0
 70
     8
 71
     3
 72
    27
 73
    23
 74
     0
 42
0.00000001
 43
0.00000001
 40
0.0
 40
0.0
 40
0.0
 40
0.0
 40
0.0151584375411942
 40
0.0691914772448185
 40
0.1214191752629454
 40
0.1751386028220095
 40
0.227793831152509
 40
0.2819478602379778
 40
0.3350772346468205
 40
0.3897578823280046
 40
0.4426664865515947
 40
0.497144034738887
 40
0.5494682197320224
 40
0.6033139053639209
 40
0.6556067543983713
 40
0.7093847568088284
 40
0.7622413959725298
 40
0.8166124940703955
 40
0.8697556147203076
 40
0.9244635765554995
 40
0.9619588702462661
 40
1.0
 40
1.0
 40
1.0
 40
1.0
 10
2.618525720165214
 20
5.431906900982755
 30
0.0
 10
2.618366001413303
 20
5.431881617052605
 30
0.0
 10
2.61763695685588
 20
5.431766207237253
 30
0.0
 10
2.621893566552358
 20
5.432442369549311
 30
0.0
 10
2.631352246502782
 20
5.433891124650179
 30
0.0
 10
2.646183498470922
 20
5.436022844603007
 30
0.0
 10
2.665780048188442
 20
5.438566666791735
 30
0.0
 10
2.68950125850444
 20
5.441234292084753
 30
0.0
 10
2.717079884175325
 20
5.443760770792468
 30
0.0
 10
2.747265861930761
 20
5.445813996338813
 30
0.0
 10
2.779657987221371
 20
5.447184286838325
 30
0.0
 10
2.81261266041361
 20
5.447690806864732
 30
0.0
 10
2.845803831976435
 20
5.447295369350995
 30
0.0
 10
2.877679475137067
 20
5.446062550527743
 30
0.0
 10
2.908046246595259
 20
5.444112759635934
 30
0.0
 10
2.935631668851241
 20
5.441688801641239
 30
0.0
 10
2.960163472977499
 20
5.439014543816596
 30
0.0
 10
2.980518221340967
 20
5.436425604423595
 30
0.0
 10
2.996407824997696
 20
5.434173997191341
 30
0.0
 10
3.005912650882501
 20
5.432726834006538
 30
0.0
 10
3.010863771900685
 20
5.431948984341129
 30
0.0
 10
3.011403605971918
 20
5.431862974354487
 30
0.0
 10
3.011675473463293
 20
5.431819658601466
 30
0.0
  0
LINE
  5
1E5
330
1F
100
AcDbEntity
  8
0
  6
CONTINUOUS
 62
     7
100
AcDbLine
 10
2.4211242924
 20
7.9121346192
 30
0.0
 11
2.4211242924
 21
5.4318196586
 31
0.0
  0
LINE
  5
1E6
330
1F
100
AcDbEntity
  8
0
  6
CONTINUOUS
 62
     7
100
AcDbLine
 10
2.401439253
 20
5.451504698
 30
0.0
 11
2.401439253
 21
7.8924495799
 31
0.0
  0
LINE
  5
1E7
330
1F
100
AcDbEntity
  8
0
  6
CONTINUOUS
 62
     7
100
AcDbLine
 10
2.8148250798
 20
7.7799493656
 30
0.0
 11
2.8148250798
 21
5.5640049122
 31
0.0
  0
SPLINE
  5
1E8
330
1F
100
AcDbEntity
  8
0
  6
CONTINUOUS
 62
     7
100
AcDbSpline
210
0.0
220
0.0
230
1.0
 70
     8
 71
     3
 72
     8
 73
     4
 74
     0
 42
0.00000001
 43
0.00000001
 40
0.0
 40
0.0
 40
0.0
 40
0.0
 40
0.0007431842497003
 40
0.0007431842497003
 40
0.0007431842497003
 40
0.0007431842497003
 10
2.814825079762505
 20
5.56400491218648
 30
0.0
 10
2.808269469016058
 20
5.556783664165476
 30
0.0
 10
2.80170767932713
 20
5.549568021193118
 30
0.0
 10
2.795140040392427
 20
5.542357710931891
 30
0.0
  0
SPLINE
  5
1E9
330
1F
100
AcDbEntity
  8
0
  6
CONTINUOUS
 62
     7
100
AcDbSpline
210
0.0
220
0.0
230
1.0
 70
     8
 71
     3
 72
     8
 73
     4
 74
     0
 42
0.00000001
 43
0.00000001
 40
0.0
 40
0.0
 40
0.0
 40
0.0
 40
0.0007431842497003
 40
0.0007431842497003
 40
0.0007431842497003
 40
0.0007431842497003
 10
2.795140040392427
 20
7.801596566900958
 30
0.0
 10
2.80170767932713
 20
7.794386256639729
 30
0.0
 10
2.808269469016058
 20
7.787170613667374
 30
0.0
 10
2.814825079762505
 20
7.779949365646369
 30
0.0
  0
LINE
  5
1EA
330
1F
100
AcDbEntity
  8
0
  6
CONTINUOUS
 62
     7
100
AcDbLine
 10
3.2085258672
 20
7.8924495799
 30
0.0
 11
3.2085258672
 21
7.7933959599
 31
0.0
  0
LINE
  5
1EB
330
1F
100
AcDbEntity
  8
0
  6
CONTINUOUS
 62
     7
100
AcDbLine
 10
3.1962981092
 20
7.7933959599
 30
0.0
 11
3.1888408278
 21
7.8015965669
 31
0.0
  0
LINE
  5
1EC
330
1F
100
AcDbEntity
  8
0
  6
CONTINUOUS
 62
     7
100
AcDbLine
 10
3.2085258672
 20
5.5485627418
 30
0.0
 11
3.2085258672
 21
5.5423577109
 31
0.0
  0
LINE
  5
1ED
330
1F
100
AcDbEntity
  8
0
  6
CONTINUOUS
 62
     7
100
AcDbLine
 10
3.4250613002
 20
7.2015150544
 30
0.0
 11
3.8187620876
 21
7.2015150544
 31
0.0
  0
LINE
  5
1EE
330
1F
100
AcDbEntity
  8
0
  6
CONTINUOUS
 62
     7
100
AcDbLine
 10
3.4250613002
 20
6.1466861068
 30
0.0
 11
3.4250613002
 21
7.2015150544
 31
0.0
  0
LINE
  5
1EF
330
1F
100
AcDbEntity
  8
0
  6
CONTINUOUS
 62
     7
100
AcDbLine
 10
3.8187620876
 20
6.1466861068
 30
0.0
 11
3.4250613002
 21
6.1466861068
 31
0.0
  0
LINE
  5
1F0
330
1F
100
AcDbEntity
  8
0
  6
CONTINUOUS
 62
     7
100
AcDbLine
 10
3.8187620876
 20
5.4318196586
 30
0.0
 11
3.8187620876
 21
6.1466861068
 31
0.0
  0
LINE
  5
1F1
330
1F
100
AcDbEntity
  8
0
  6
CONTINUOUS
 62
     7
100
AcDbLine
 10
3.8187620876
 20
7.2015150544
 30
0.0
 11
3.8187620876
 21
7.9121346192
 31
0.0
  0
LINE
  5
1F2
330
1F
100
AcDbEntity
  8
0
  6
CONTINUOUS
 62
     7
100
AcDbLine
 10
3.2282109065
 20
5.5485627418
 30
0.0
 11
3.2282109065
 21
5.4318196586
 31
0.0
  0
LINE
  5
1F3
330
1F
100
AcDbEntity
  8
0
  6
CONTINUOUS
 62
     7
100
AcDbLine
 10
2.8345101191
 20
5.5485627418
 30
0.0
 11
3.2282109065
 21
5.5485627418
 31
0.0
  0
LINE
  5
1F4
330
1F
100
AcDbEntity
  8
0
  6
CONTINUOUS
 62
     7
100
AcDbLine
 10
2.8345101191
 20
7.7933959599
 30
0.0
 11
2.8345101191
 21
5.5485627418
 31
0.0
  0
LINE
  5
1F5
330
1F
100
AcDbEntity
  8
0
  6
CONTINUOUS
 62
     7
100
AcDbLine
 10
3.2282109065
 20
7.7933959599
 30
0.0
 11
2.8345101191
 21
7.7933959599
 31
0.0
  0
LINE
  5
1F6
330
1F
100
AcDbEntity
  8
0
  6
CONTINUOUS
 62
     7
100
AcDbLine
 10
3.2282109065
 20
7.9121346192
 30
0.0
 11
3.2282109065
 21
7.7933959599
 31
0.0
  0
LINE
  5
1F7
330
1F
100
AcDbEntity
  8
0
  6
CONTINUOUS
 62
     7
100
AcDbLine
 10
2.8166066513
 20
5.5620427503
 30
0.0
 11
2.8148250798
 21
5.5640049122
 31
0.0
  0
SPLINE
  5
1F8
330
1F
100
AcDbEntity
  8
0
  6
CONTINUOUS
 62
     7
100
AcDbSpline
210
0.0
220
0.0
230
1.0
 70
     8
 71
     3
 72
     8
 73
     4
 74
     0
 42
0.00000001
 43
0.00000001
 40
0.0
 40
0.0
 40
0.0
 40
0.0
 40
0.0002324574496811
 40
0.0002324574496811
 40
0.0002324574496811
 40
0.0002324574496811
 10
2.814825079762505
 20
7.779949365646369
 30
0.0
 10
2.816875581446086
 20
7.782208069190145
 30
0.0
 10
2.818926687668971
 20
7.784466224062328
 30
0.0
 10
2.8209783880879
 20
7.786723838786767
 30
0.0
  0
SPLINE
  5
1F9
330
1F
100
AcDbEntity
  8
0
  6
CONTINUOUS
 62
     7
100
AcDbSpline
210
0.0
220
0.0
230
1.0
 70
     8
 71
     3
 72
     8
 73
     4
 74
     0
 42
0.00000001
 43
0.00000001
 40
0.0
 40
0.0
 40
0.0
 40
0.0
 40
0.0005912624853902
 40
0.0005912624853902
 40
0.0005912624853902
 40
0.0005912624853902
 10
2.8209783880879
 20
7.786723838786767
 30
0.0
 10
2.825473121080177
 20
7.788951855898618
 30
0.0
 10
2.829983954353159
 20
7.791175852593893
 30
0.0
 10
2.834510119132584
 20
7.793395959899164
 30
0.0
  0
SPLINE
  5
1FA
330
1F
100
AcDbEntity
  8
0
  6
CONTINUOUS
 62
     7
100
AcDbSpline
210
0.0
220
0.0
230
1.0
 70
     8
 71
     3
 72
     8
 73
     4
 74
     0
 42
0.00000001
 43
0.00000001
 40
0.0
 40
0.0
 40
0.0
 40
0.0
 40
0.0006642745501248
 40
0.0006642745501248
 40
0.0006642745501248
 40
0.0006642745501248
 10
2.816606651259387
 20
5.56204275030197
 30
0.0
 10
2.822571364347434
 20
5.557547350191742
 30
0.0
 10
2.828539236051423
 20
5.553054044633567
 30
0.0
 10
2.834510119132584
 20
5.548562741829485
 30
0.0
  0
SPLINE
  5
1FB
330
1F
100
AcDbEntity
  8
0
  6
CONTINUOUS
 62
     7
100
AcDbSpline
210
0.0
220
0.0
230
1.0
 70
     8
 71
     3
 72
     8
 73
     4
 74
     0
 42
0.00000001
 43
0.00000001
 40
0.0
 40
0.0
 40
0.0
 40
0.0
 40
0.0006642745501248
 40
0.0006642745501248
 40
0.0006642745501248
 40
0.0006642745501248
 10
3.425061300234947
 20
6.146686106821893
 30
0.0
 10
3.431032183316108
 20
6.151177409625975
 30
0.0
 10
3.437000055020097
 20
6.155670715184152
 30
0.0
 10
3.442964768108145
 20
6.16016611529438
 30
0.0
  0
SPLINE
  5
1FC
330
1F
100
AcDbEntity
  8
0
  6
CONTINUOUS
 62
     7
100
AcDbSpline
210
0.0
220
0.0
230
1.0
 70
     8
 71
     3
 72
     8
 73
     4
 74
     0
 42
0.00000001
 43
0.00000001
 40
0.0
 40
0.0
 40
0.0
 40
0.0
 40
0.0005912624853902
 40
0.0005912624853902
 40
0.0005912624853902
 40
0.0005912624853902
 10
3.425061300234947
 20
7.201515054392584
 30
0.0
 10
3.429587465014372
 20
7.195616540045784
 30
0.0
 10
3.434098298287354
 20
7.189707692134165
 30
0.0
 10
3.438593031279631
 20
7.183788162538473
 30
0.0
  0
SPLINE
  5
1FD
330
1F
100
AcDbEntity
  8
0
  6
CONTINUOUS
 62
     7
100
AcDbSpline
210
0.0
220
0.0
230
1.0
 70
     8
 71
     3
 72
     8
 73
     4
 74
     0
 42
0.00000001
 43
0.00000001
 40
0.0
 40
0.0
 40
0.0
 40
0.0
 40
0.0006642745501248
 40
0.0006642745501248
 40
0.0006642745501248
 40
0.0006642745501248
 10
3.818762087636522
 20
6.146686106821894
 30
0.0
 10
3.824732970717682
 20
6.151177409625975
 30
0.0
 10
3.830700842421672
 20
6.155670715184152
 30
0.0
 10
3.836665555509719
 20
6.16016611529438
 30
0.0
  0
LINE
  5
1FE
330
1F
100
AcDbEntity
  8
0
  6
CONTINUOUS
 62
     7
100
AcDbLine
 10
3.4429647681
 20
6.1601661153
 30
0.0
 11
3.4447213458
 21
6.1601661153
 31
0.0
  0
SPLINE
  5
1FF
330
1F
100
AcDbEntity
  8
0
  6
CONTINUOUS
 62
     7
100
AcDbSpline
210
0.0
220
0.0
230
1.0
 70
     8
 71
     3
 72
     8
 73
     4
 74
     0
 42
0.00000001
 43
0.00000001
 40
0.0
 40
0.0
 40
0.0
 40
0.0
 40
0.0005912624853902
 40
0.0005912624853902
 40
0.0005912624853902
 40
0.0005912624853902
 10
3.818762087636522
 20
7.201515054392584
 30
0.0
 10
3.823288252415947
 20
7.195616540045784
 30
0.0
 10
3.827799085688929
 20
7.189707692134165
 30
0.0
 10
3.832293818681206
 20
7.183788162538473
 30
0.0
  0
LINE
  5
200
330
1F
100
AcDbEntity
  8
0
  6
CONTINUOUS
 62
     7
100
AcDbLine
 10
3.4447213458
 20
7.1837881625
 30
0.0
 11
3.4385930313
 21
7.1837881625
 31
0.0
  0
SPLINE
  5
201
330
1F
100
AcDbEntity
  8
0
  6
HIDDEN
 62
     7
100
AcDbSpline
210
0.0
220
0.0
230
1.0
 70
     8
 71
     3
 72
    16
 73
    12
 74
     0
 42
0.00000001
 43
0.00000001
 40
0.0
 40
0.0
 40
0.0
 40
0.0
 40
0.0695801135222757
 40
0.1967836956575019
 40
0.3277351131205173
 40
0.4538612722610862
 40
0.5837144478672371
 40
0.708710958539701
 40
0.8373041649164641
 40
0.9628796998213344
 40
1.0
 40
1.0
 40
1.0
 40
1.0
 10
3.7187372459035
 20
6.516608000542978
 30
0.0
 10
3.72340568164987
 20
6.512860731336621
 30
0.0
 10
3.736608765010984
 20
6.502262854361123
 30
0.0
 10
3.762112038267655
 20
6.489690885388399
 30
0.0
 10
3.793605802286746
 20
6.479296758149918
 30
0.0
 10
3.826783899145331
 20
6.474546307083026
 30
0.0
 10
3.859740155397193
 20
6.475367145822361
 30
0.0
 10
3.892358424659736
 20
6.48163962700109
 30
0.0
 10
3.922843892521923
 20
6.493406589679039
 30
0.0
 10
3.945183740278114
 20
6.505298346050483
 30
0.0
 10
3.955798800467494
 20
6.514407498891368
 30
0.0
 10
3.958220707705882
 20
6.516485821840776
 30
0.0
  0
SPLINE
  5
202
330
1F
100
AcDbEntity
  8
0
  6
HIDDEN
 62
     7
100
AcDbSpline
210
0.0
220
0.0
230
1.0
 70
     8
 71
     3
 72
    11
 73
     7
 74
     0
 42
0.00000001
 43
0.00000001
 40
0.0
 40
0.0
 40
0.0
 40
0.0
 40
0.2410611742122436
 40
0.4974159421452959
 40
0.7463777860045775
 40
1.0
 40
1.0
 40
1.0
 40
1.0
 10
3.839164509547504
 20
6.868742975553529
 30
0.0
 10
3.828703520510915
 20
6.868336017604923
 30
0.0
 10
3.807117868095462
 20
6.867496283159585
 30
0.0
 10
3.775634402443877
 20
6.859365107616426
 30
0.0
 10
3.745170518929131
 20
6.846644385881141
 30
0.0
 10
3.727324107315511
 20
6.834180027329386
 30
0.0
 10
3.718318158251705
 20
6.827890058193831
 30
0.0
  0
LINE
  5
203
330
1F
100
AcDbEntity
  8
0
  6
HIDDEN
 62
     7
100
AcDbLine
 10
2.6179746861
 20
6.3471739893
 30
0.0
 11
3.0116754735
 21
6.3471739893
 31
0.0
  0
LINE
  5
204
330
1F
100
AcDbEntity
  8
0
  6
HIDDEN
 62
     7
100
AcDbLine
 10
3.0018329538
 20
6.357016509
 30
0.0
 11
2.6278172057
 21
6.357016509
 31
0.0
  0
LINE
  5
205
330
1F
100
AcDbEntity
  8
0
  6
HIDDEN
 62
     7
100
AcDbLine
 10
2.6946303146
 20
5.4416621783
 30
0.0
 11
2.6179746861
 21
5.4416621783
 31
0.0
  0
LINE
  5
206
330
1F
100
AcDbEntity
  8
0
  6
HIDDEN
 62
     7
100
AcDbLine
 10
3.0116754735
 20
5.4416621783
 30
0.0
 11
2.9350164924
 21
5.4416621783
 31
0.0
  0
LINE
  5
207
330
1F
100
AcDbEntity
  8
0
  6
HIDDEN
 62
     7
100
AcDbLine
 10
2.8148250798
 20
5.6286700523
 30
0.0
 11
2.9132502766
 21
5.6286700523
 31
0.0
  0
LINE
  5
208
330
1F
100
AcDbEntity
  8
0
  6
HIDDEN
 62
     7
100
AcDbLine
 10
2.8148250798
 20
5.5640049122
 30
0.0
 11
2.8148250798
 21
5.4318196586
 31
0.0
  0
LINE
  5
209
330
1F
100
AcDbEntity
  8
0
  6
HIDDEN
 62
     7
100
AcDbLine
 10
2.7163998829
 20
5.6286700523
 30
0.0
 11
2.8148250798
 21
5.6286700523
 31
0.0
  0
LINE
  5
20A
330
1F
100
AcDbEntity
  8
0
  6
HIDDEN
 62
     7
100
AcDbLine
 10
2.7163998829
 20
5.6286700523
 30
0.0
 11
2.7163998829
 21
5.4318196586
 31
0.0
  0
LINE
  5
20B
330
1F
100
AcDbEntity
  8
0
  6
HIDDEN
 62
     7
100
AcDbLine
 10
2.9132502766
 20
5.6286700523
 30
0.0
 11
2.9132502766
 21
5.4318196586
 31
0.0
  0
LINE
  5
20C
330
1F
100
AcDbEntity
  8
0
  6
HIDDEN
 62
     7
100
AcDbLine
 10
3.2085258672
 20
7.7933959599
 30
0.0
 11
3.2085258672
 21
7.7799493656
 31
0.0
  0
LINE
  5
20D
330
1F
100
AcDbEntity
  8
0
  6
HIDDEN
 62
     7
100
AcDbLine
 10
3.2085258672
 20
7.7799493656
 30
0.0
 11
3.1962981092
 21
7.7933959599
 31
0.0
  0
LINE
  5
20E
330
1F
100
AcDbEntity
  8
0
  6
HIDDEN
 62
     7
100
AcDbLine
 10
3.2085258672
 20
7.7799493656
 30
0.0
 11
3.2085258672
 21
5.5485627418
 31
0.0
  0
SPLINE
  5
20F
330
1F
100
AcDbEntity
  8
0
  6
HIDDEN
 62
     7
100
AcDbSpline
210
0.0
220
0.0
230
1.0
 70
     8
 71
     3
 72
    17
 73
    13
 74
     0
 42
0.00000001
 43
0.00000001
 40
0.0
 40
0.0
 40
0.0
 40
0.0
 40
0.0907517831506687
 40
0.1846708024395466
 40
0.275305296676321
 40
0.3680153867088326
 40
0.4708505417156492
 40
0.5760490006449819
 40
0.6905745283694024
 40
0.8091636148602355
 40
0.9117797108800823
 40
1.0
 40
1.0
 40
1.0
 40
1.0
 10
2.814825079762505
 20
6.426111075987355
 30
0.0
 10
2.805188920352331
 20
6.425778169860867
 30
0.0
 10
2.785580299684704
 20
6.425100739188089
 30
0.0
 10
2.757369798861046
 20
6.419919824927243
 30
0.0
 10
2.730733452830107
 20
6.412509811838418
 30
0.0
 10
2.705444398113872
 20
6.403191188999683
 30
0.0
 10
2.681590846710676
 20
6.392578016113834
 30
0.0
 10
2.659439524954779
 20
6.381301235768951
 30
0.0
 10
2.640396299858439
 20
6.370625443764212
 30
0.0
 10
2.626869215431121
 20
6.362534560539087
 30
0.0
 10
2.619087041059192
 20
6.357714198872333
 30
0.0
 10
2.618611059949236
 20
6.357414560850211
 30
0.0
 10
2.61839102229182
 20
6.35727604348664
 30
0.0
  0
LINE
  5
210
330
1F
100
AcDbEntity
  8
0
  6
HIDDEN
 62
     7
100
AcDbLine
 10
2.8126720424
 20
6.4259856527
 30
0.0
 11
2.8359722832
 21
6.4251525346
 31
0.0
  0
SPLINE
  5
211
330
1F
100
AcDbEntity
  8
0
  6
HIDDEN
 62
     7
100
AcDbSpline
210
0.0
220
0.0
230
1.0
 70
     8
 71
     3
 72
    18
 73
    14
 74
     0
 42
0.00000001
 43
0.00000001
 40
0.0
 40
0.0
 40
0.0
 40
0.0
 40
0.0636048624212571
 40
0.1576909797037834
 40
0.2460770633306802
 40
0.3365869338239699
 40
0.4342940127933009
 40
0.5341799350215776
 40
0.6456456394012887
 40
0.760318824979365
 40
0.8472063769028435
 40
0.9364006306619254
 40
1.0
 40
1.0
 40
1.0
 40
1.0
 10
3.011223320184838
 20
6.357298760536553
 30
0.0
 10
3.011200326936971
 20
6.357313404511877
 30
0.0
 10
3.011143321424426
 20
6.357349710271023
 30
0.0
 10
3.006065165672458
 20
6.3605099735928
 30
0.0
 10
2.997063419594362
 20
6.365975159847503
 30
0.0
 10
2.984222174920134
 20
6.373485921528887
 30
0.0
 10
2.967419972760466
 20
6.382754272349689
 30
0.0
 10
2.94593507992221
 20
6.393595234277155
 30
0.0
 10
2.919775990811547
 20
6.405085351380405
 30
0.0
 10
2.891386714504515
 20
6.414978684961121
 30
0.0
 10
2.862722227055845
 20
6.421919561612184
 30
0.0
 10
2.837788934095217
 20
6.425548894085075
 30
0.0
 10
2.821574312428018
 20
6.425945846910221
 30
0.0
 10
2.814825079762505
 20
6.426111075987355
 30
0.0
  0
LINE
  5
212
330
1F
100
AcDbEntity
  8
0
  6
HIDDEN
 62
     7
100
AcDbLine
 10
3.4250613002
 20
6.1424392234
 30
0.0
 11
3.8187620876
 21
6.1424392234
 31
0.0
  0
LINE
  5
213
330
1F
100
AcDbEntity
  8
0
  6
HIDDEN
 62
     7
100
AcDbLine
 10
3.4250613002
 20
6.1466861068
 30
0.0
 11
3.4250613002
 21
6.1424392234
 31
0.0
  0
LINE
  5
214
330
1F
100
AcDbEntity
  8
0
  6
HIDDEN
 62
     7
100
AcDbLine
 10
3.8187620876
 20
7.197268171
 30
0.0
 11
3.4250613002
 21
7.197268171
 31
0.0
  0
LINE
  5
215
330
1F
100
AcDbEntity
  8
0
  6
HIDDEN
 62
     7
100
AcDbLine
 10
3.8187620876
 20
7.2015150544
 30
0.0
 11
3.8187620876
 21
7.197268171
 31
0.0
  0
LINE
  5
216
330
1F
100
AcDbEntity
  8
0
  6
HIDDEN
 62
     7
100
AcDbLine
 10
3.2282109065
 20
5.5505583179
 30
0.0
 11
2.8345101191
 21
5.5505583179
 31
0.0
  0
LINE
  5
217
330
1F
100
AcDbEntity
  8
0
  6
HIDDEN
 62
     7
100
AcDbLine
 10
3.2282109065
 20
5.5485627418
 30
0.0
 11
3.2282109065
 21
5.5505583179
 31
0.0
  0
LINE
  5
218
330
1F
100
AcDbEntity
  8
0
  6
HIDDEN
 62
     7
100
AcDbLine
 10
2.8345101191
 20
7.795391536
 30
0.0
 11
3.2282109065
 21
7.795391536
 31
0.0
  0
LINE
  5
219
330
1F
100
AcDbEntity
  8
0
  6
HIDDEN
 62
     7
100
AcDbLine
 10
2.8345101191
 20
7.7933959599
 30
0.0
 11
2.8345101191
 21
7.795391536
 31
0.0
  0
SPLINE
  5
21A
330
1F
100
AcDbEntity
  8
0
  6
HIDDEN
 62
     7
100
AcDbSpline
210
0.0
220
0.0
230
1.0
 70
     8
 71
     3
 72
     8
 73
     4
 74
     0
 42
0.00000001
 43
0.00000001
 40
0.0
 40
0.0
 40
0.0
 40
0.0
 40
0.0005912624853902
 40
0.0005912624853902
 40
0.0005912624853902
 40
0.0005912624853902
 10
3.818762087636522
 20
6.142439223440268
 30
0.0
 10
3.823288252415946
 20
6.148337737787068
 30
0.0
 10
3.827799085688928
 20
6.154246585698687
 30
0.0
 10
3.832293818681205
 20
6.160166115294379
 30
0.0
  0
SPLINE
  5
21B
330
1F
100
AcDbEntity
  8
0
  6
HIDDEN
 62
     7
100
AcDbSpline
210
0.0
220
0.0
230
1.0
 70
     8
 71
     3
 72
     8
 73
     4
 74
     0
 42
0.00000001
 43
0.00000001
 40
0.0
 40
0.0
 40
0.0
 40
0.0
 40
0.0006642745501248
 40
0.0006642745501248
 40
0.0006642745501248
 40
0.0006642745501248
 10
3.83666555550972
 20
7.183788162538473
 30
0.0
 10
3.830700842421672
 20
7.188283562648701
 30
0.0
 10
3.824732970717683
 20
7.192776868206877
 30
0.0
 10
3.818762087636522
 20
7.197268171010959
 30
0.0
  0
SPLINE
  5
21C
330
1F
100
AcDbEntity
  8
0
  6
HIDDEN
 62
     7
100
AcDbSpline
210
0.0
220
0.0
230
1.0
 70
     8
 71
     3
 72
     8
 73
     4
 74
     0
 42
0.00000001
 43
0.00000001
 40
0.0
 40
0.0
 40
0.0
 40
0.0
 40
0.0002324574496811
 40
0.0002324574496811
 40
0.0002324574496811
 40
0.0002324574496811
 10
3.214679175489474
 20
7.786723838786767
 30
0.0
 10
3.212627475070545
 20
7.784466224062329
 30
0.0
 10
3.210576368847661
 20
7.782208069190147
 30
0.0
 10
3.20852586716408
 20
7.779949365646369
 30
0.0
  0
SPLINE
  5
21D
330
1F
100
AcDbEntity
  8
0
  6
HIDDEN
 62
     7
100
AcDbSpline
210
0.0
220
0.0
230
1.0
 70
     8
 71
     3
 72
     8
 73
     4
 74
     0
 42
0.00000001
 43
0.00000001
 40
0.0
 40
0.0
 40
0.0
 40
0.0
 40
0.0006642745501248
 40
0.0006642745501248
 40
0.0006642745501248
 40
0.0006642745501248
 10
3.228210906534158
 20
7.795391536003367
 30
0.0
 10
3.222240023452997
 20
7.790900233199285
 30
0.0
 10
3.216272151749007
 20
7.786406927641109
 30
0.0
 10
3.210307438660959
 20
7.781911527530881
 30
0.0
  0
SPLINE
  5
21E
330
1F
100
AcDbEntity
  8
0
  6
HIDDEN
 62
     7
100
AcDbSpline
210
0.0
220
0.0
230
1.0
 70
     8
 71
     3
 72
     8
 73
     4
 74
     0
 42
0.00000001
 43
0.00000001
 40
0.0
 40
0.0
 40
0.0
 40
0.0
 40
0.0005912624853902
 40
0.0005912624853902
 40
0.0005912624853902
 40
0.0005912624853902
 10
3.214679175489474
 20
7.786723838786767
 30
0.0
 10
3.219173908481751
 20
7.788951855898618
 30
0.0
 10
3.223684741754733
 20
7.791175852593893
 30
0.0
 10
3.228210906534158
 20
7.793395959899164
 30
0.0
  0
LINE
  5
21F
330
1F
100
AcDbEntity
  8
0
  6
HIDDEN
 62
     7
100
AcDbLine
 10
3.2085258672
 20
5.5640049122
 30
0.0
 11
3.2103074387
 21
5.5620427503
 31
0.0
  0
SPLINE
  5
220
330
1F
100
AcDbEntity
  8
0
  6
HIDDEN
 62
     7
100
AcDbSpline
210
0.0
220
0.0
230
1.0
 70
     8
 71
     3
 72
     8
 73
     4
 74
     0
 42
0.00000001
 43
0.00000001
 40
0.0
 40
0.0
 40
0.0
 40
0.0
 40
0.0005912624853902
 40
0.0005912624853902
 40
0.0005912624853902
 40
0.0005912624853902
 10
3.214679175489475
 20
5.557230439046085
 30
0.0
 10
3.219173908481751
 20
5.555002421934235
 30
0.0
 10
3.223684741754733
 20
5.55277842523896
 30
0.0
 10
3.228210906534158
 20
5.550558317933688
 30
0.0
  0
SPLINE
  5
221
330
1F
100
AcDbEntity
  8
0
  6
HIDDEN
 62
     7
100
AcDbSpline
210
0.0
220
0.0
230
1.0
 70
     8
 71
     3
 72
     8
 73
     4
 74
     0
 42
0.00000001
 43
0.00000001
 40
0.0
 40
0.0
 40
0.0
 40
0.0
 40
0.0002324574496811
 40
0.0002324574496811
 40
0.0002324574496811
 40
0.0002324574496811
 10
3.214679175489475
 20
5.557230439046085
 30
0.0
 10
3.212627475070545
 20
5.559488053770524
 30
0.0
 10
3.210576368847661
 20
5.561746208642706
 30
0.0
 10
3.20852586716408
 20
5.564004912186483
 30
0.0
  0
SPLINE
  5
222
330
1F
100
AcDbEntity
  8
0
  6
HIDDEN
 62
     7
100
AcDbSpline
210
0.0
220
0.0
230
1.0
 70
     8
 71
     3
 72
     8
 73
     4
 74
     0
 42
0.00000001
 43
0.00000001
 40
0.0
 40
0.0
 40
0.0
 40
0.0
 40
0.0006642745501248
 40
0.0006642745501248
 40
0.0006642745501248
 40
0.0006642745501248
 10
3.210307438660961
 20
5.56204275030197
 30
0.0
 10
3.216272151749008
 20
5.557547350191742
 30
0.0
 10
3.222240023452997
 20
5.553054044633567
 30
0.0
 10
3.228210906534158
 20
5.548562741829485
 30
0.0
  0
LINE
  5
223
330
1F
100
AcDbEntity
  8
0
  6
HIDDEN
 62
     7
100
AcDbLine
 10
3.2085258672
 20
5.5640049122
 30
0.0
 11
3.2085258672
 21
7.7799493656
 31
0.0
  0
LINE
  5
224
330
1F
100
AcDbEntity
  8
0
  6
HIDDEN
 62
     7
100
AcDbLine
 10
3.2103074387
 20
5.5620427503
 30
0.0
 11
2.8166066513
 21
5.5620427503
 31
0.0
  0
LINE
  5
225
330
1F
100
AcDbEntity
  8
0
  6
HIDDEN
 62
     7
100
AcDbLine
 10
2.8209783881
 20
7.7867238388
 30
0.0
 11
3.2146791755
 21
7.7867238388
 31
0.0
  0
LINE
  5
226
330
1F
100
AcDbEntity
  8
0
  6
HIDDEN
 62
     7
100
AcDbLine
 10
2.8209783881
 20
5.557230439
 30
0.0
 11
3.2146791755
 21
5.557230439
 31
0.0
  0
SPLINE
  5
227
330
1F
100
AcDbEntity
  8
0
  6
HIDDEN
 62
     7
100
AcDbSpline
210
0.0
220
0.0
230
1.0
 70
     8
 71
     3
 72
     8
 73
     4
 74
     0
 42
0.00000001
 43
0.00000001
 40
0.0
 40
0.0
 40
0.0
 40
0.0
 40
0.0002324574496811
 40
0.0002324574496811
 40
0.0002324574496811
 40
0.0002324574496811
 10
2.814825079762505
 20
5.564004912186484
 30
0.0
 10
2.816875581446086
 20
5.561746208642706
 30
0.0
 10
2.818926687668971
 20
5.559488053770524
 30
0.0
 10
2.820978388087901
 20
5.557230439046085
 30
0.0
  0
LINE
  5
228
330
1F
100
AcDbEntity
  8
0
  6
HIDDEN
 62
     7
100
AcDbLine
 10
3.2103074387
 20
7.7819115275
 30
0.0
 11
2.8166066513
 21
7.7819115275
 31
0.0
  0
SPLINE
  5
229
330
1F
100
AcDbEntity
  8
0
  6
HIDDEN
 62
     7
100
AcDbSpline
210
0.0
220
0.0
230
1.0
 70
     8
 71
     3
 72
     8
 73
     4
 74
     0
 42
0.00000001
 43
0.00000001
 40
0.0
 40
0.0
 40
0.0
 40
0.0
 40
0.0006642745501248
 40
0.0006642745501248
 40
0.0006642745501248
 40
0.0006642745501248
 10
2.816606651259385
 20
7.781911527530881
 30
0.0
 10
2.822571364347433
 20
7.786406927641109
 30
0.0
 10
2.828539236051423
 20
7.790900233199285
 30
0.0
 10
2.834510119132584
 20
7.795391536003367
 30
0.0
  0
SPLINE
  5
22A
330
1F
100
AcDbEntity
  8
0
  6
HIDDEN
 62
     7
100
AcDbSpline
210
0.0
220
0.0
230
1.0
 70
     8
 71
     3
 72
     8
 73
     4
 74
     0
 42
0.00000001
 43
0.00000001
 40
0.0
 40
0.0
 40
0.0
 40
0.0
 40
0.0005912624853902
 40
0.0005912624853902
 40
0.0005912624853902
 40
0.0005912624853902
 10
2.820978388087901
 20
5.557230439046085
 30
0.0
 10
2.825473121080178
 20
5.555002421934235
 30
0.0
 10
2.829983954353159
 20
5.55277842523896
 30
0.0
 10
2.834510119132584
 20
5.550558317933688
 30
0.0
  0
LINE
  5
22B
330
1F
100
AcDbEntity
  8
0
  6
HIDDEN
 62
     7
100
AcDbLine
 10
3.4385930313
 20
6.1601661153
 30
0.0
 11
3.4429619386
 21
6.1601661153
 31
0.0
  0
SPLINE
  5
22C
330
1F
100
AcDbEntity
  8
0
  6
HIDDEN
 62
     7
100
AcDbSpline
210
0.0
220
0.0
230
1.0
 70
     8
 71
     3
 72
     8
 73
     4
 74
     0
 42
0.00000001
 43
0.00000001
 40
0.0
 40
0.0
 40
0.0
 40
0.0
 40
0.0006642745501248
 40
0.0006642745501248
 40
0.0006642745501248
 40
0.0006642745501248
 10
3.425061300234947
 20
7.197268171010959
 30
0.0
 10
3.431032183316108
 20
7.192776868206877
 30
0.0
 10
3.437000055020097
 20
7.188283562648701
 30
0.0
 10
3.442964768108145
 20
7.183788162538473
 30
0.0
  0
SPLINE
  5
22D
330
1F
100
AcDbEntity
  8
0
  6
HIDDEN
 62
     7
100
AcDbSpline
210
0.0
220
0.0
230
1.0
 70
     8
 71
     3
 72
     8
 73
     4
 74
     0
 42
0.00000001
 43
0.00000001
 40
0.0
 40
0.0
 40
0.0
 40
0.0
 40
0.0005912624853902
 40
0.0005912624853902
 40
0.0005912624853902
 40
0.0005912624853902
 10
3.425061300234947
 20
6.142439223440268
 30
0.0
 10
3.429587465014372
 20
6.148337737787068
 30
0.0
 10
3.434098298287353
 20
6.154246585698687
 30
0.0
 10
3.43859303127963
 20
6.160166115294379
 30
0.0
  0
LINE
  5
22E
330
1F
100
AcDbEntity
  8
0
  6
HIDDEN
 62
     7
100
AcDbLine
 10
4.2518329538
 20
7.0066228082
 30
0.0
 11
4.2321479144
 21
6.9869377688
 31
0.0
  0
LINE
  5
22F
330
1F
100
AcDbEntity
  8
0
  6
HIDDEN
 62
     7
100
AcDbLine
 10
4.2321479144
 20
6.357016509
 30
0.0
 11
4.2518329538
 21
6.3373314696
 31
0.0
  0
LINE
  5
230
330
1F
100
AcDbEntity
  8
0
  6
HIDDEN
 62
     7
100
AcDbLine
 10
4.2321479144
 20
6.9869377688
 30
0.0
 11
3.4447463396
 21
6.9869377688
 31
0.0
  0
LINE
  5
231
330
1F
100
AcDbEntity
  8
0
  6
HIDDEN
 62
     7
100
AcDbLine
 10
3.4447463396
 20
6.357016509
 30
0.0
 11
4.2321479144
 21
6.357016509
 31
0.0
  0
LINE
  5
232
330
1F
100
AcDbEntity
  8
0
  6
HIDDEN
 62
     7
100
AcDbLine
 10
3.0116754735
 20
6.3471739893
 30
0.0
 11
3.0018329538
 21
6.357016509
 31
0.0
  0
LINE
  5
233
330
1F
100
AcDbEntity
  8
0
  6
HIDDEN
 62
     7
100
AcDbLine
 10
2.6278172057
 20
6.357016509
 30
0.0
 11
2.6179746861
 21
6.3471739893
 31
0.0
  0
LINE
  5
234
330
1F
100
AcDbEntity
  8
0
  6
HIDDEN
 62
     7
100
AcDbLine
 10
3.0116754735
 20
5.4416621783
 30
0.0
 11
3.0116754735
 21
6.3471739893
 31
0.0
  0
LINE
  5
235
330
1F
100
AcDbEntity
  8
0
  6
HIDDEN
 62
     7
100
AcDbLine
 10
2.6179746861
 20
6.3471739893
 30
0.0
 11
2.6179746861
 21
5.4416621783
 31
0.0
  0
LINE
  5
236
330
1F
100
AcDbEntity
  8
0
  6
HIDDEN
 62
     7
100
AcDbLine
 10
2.6179746861
 20
5.4416621783
 30
0.0
 11
2.6265010645
 21
5.4331357999
 31
0.0
  0
LINE
  5
237
330
1F
100
AcDbEntity
  8
0
  6
HIDDEN
 62
     7
100
AcDbLine
 10
3.0031486424
 20
5.4331353472
 30
0.0
 11
3.0116754735
 21
5.4416621783
 31
0.0
  0
LINE
  5
238
330
1F
100
AcDbEntity
  8
0
  6
HIDDEN
 62
     7
100
AcDbLine
 10
2.401439253
 20
6.3373314696
 30
0.0
 11
2.4211242924
 21
6.357016509
 31
0.0
  0
LINE
  5
239
330
1F
100
AcDbEntity
  8
0
  6
HIDDEN
 62
     7
100
AcDbLine
 10
2.4211242924
 20
6.9869377688
 30
0.0
 11
2.401439253
 21
7.0066228082
 31
0.0
  0
LINE
  5
23A
330
1F
100
AcDbEntity
  8
0
  6
HIDDEN
 62
     7
100
AcDbLine
 10
3.0112233202
 20
6.357016509
 30
0.0
 11
3.2085258672
 21
6.357016509
 31
0.0
  0
LINE
  5
23B
330
1F
100
AcDbEntity
  8
0
  6
HIDDEN
 62
     7
100
AcDbLine
 10
2.4211242924
 20
6.357016509
 30
0.0
 11
2.6183910223
 21
6.357016509
 31
0.0
  0
LINE
  5
23C
330
1F
100
AcDbEntity
  8
0
  6
HIDDEN
 62
     7
100
AcDbLine
 10
3.2085258672
 20
6.9869377688
 30
0.0
 11
2.4211242924
 21
6.9869377688
 31
0.0
  0
LINE
  5
23D
330
1F
100
AcDbEntity
  8
0
  6
HIDDEN
 62
     7
100
AcDbLine
 10
2.6179746861
 20
6.3572755374
 30
0.0
 11
2.6179746861
 21
5.4318196586
 31
0.0
  0
LINE
  5
23E
330
1F
100
AcDbEntity
  8
0
  6
HIDDEN
 62
     7
100
AcDbLine
 10
3.0116754735
 20
5.4318196586
 30
0.0
 11
3.0116754735
 21
6.3572986145
 31
0.0
  0
LINE
  5
23F
330
1F
100
AcDbEntity
  8
0
  6
HIDDEN
 62
     7
100
AcDbLine
 10
3.2085258672
 20
6.357016509
 30
0.0
 11
3.4447463396
 21
6.357016509
 31
0.0
  0
LINE
  5
240
330
1F
100
AcDbEntity
  8
0
  6
HIDDEN
 62
     7
100
AcDbLine
 10
3.4447463396
 20
6.9869377688
 30
0.0
 11
3.2085258672
 21
6.9869377688
 31
0.0
  0
LINE
  5
241
330
1F
100
AcDbEntity
  8
0
  6
CONTINUOUS
 62
     7
100
AcDbLine
 10
8.6746623002
 20
7.7284680907
 30
0.0
 11
8.6677014569
 21
7.7324878062
 31
0.0
  0
LINE
  5
242
330
1F
100
AcDbEntity
  8
0
  6
CONTINUOUS
 62
     7
100
AcDbLine
 10
8.403189412
 20
7.7324878062
 30
0.0
 11
8.3962285688
 21
7.7284680907
 31
0.0
  0
LINE
  5
243
330
1F
100
AcDbEntity
  8
0
  6
CONTINUOUS
 62
     7
100
AcDbLine
 10
8.8139764558
 20
5.4702564807
 30
0.0
 11
8.8278936183
 21
5.4782932996
 31
0.0
  0
LINE
  5
244
330
1F
100
AcDbEntity
  8
0
  6
CONTINUOUS
 62
     7
100
AcDbLine
 10
9.6907576951
 20
6.972979673
 30
0.0
 11
9.6907576951
 21
6.9890506988
 31
0.0
  0
LINE
  5
245
330
1F
100
AcDbEntity
  8
0
  6
CONTINUOUS
 62
     7
100
AcDbLine
 10
7.9293365113
 20
5.5614511557
 30
0.0
 11
8.193805583
 21
5.4087764104
 31
0.0
  0
LINE
  5
246
330
1F
100
AcDbEntity
  8
0
  6
CONTINUOUS
 62
     7
100
AcDbLine
 10
9.433862279
 20
7.5568503604
 30
0.0
 11
9.1554737825
 21
7.7175606186
 31
0.0
  0
LINE
  5
247
330
1F
100
AcDbEntity
  8
0
  6
CONTINUOUS
 62
     7
100
AcDbLine
 10
7.6724410952
 20
6.1453218431
 30
0.0
 11
7.6724410952
 21
6.1292508173
 31
0.0
  0
LINE
  5
248
330
1F
100
AcDbEntity
  8
0
  6
CONTINUOUS
 62
     7
100
AcDbLine
 10
8.270833838
 20
7.8087552936
 30
0.0
 11
8.2569166755
 21
7.8007184747
 31
0.0
  0
LINE
  5
249
330
1F
100
AcDbEntity
  8
0
  6
CONTINUOUS
 62
     7
100
AcDbLine
 10
6.8024770436
 20
6.6395058872
 30
0.0
 11
6.8024770436
 21
6.6314703743
 31
0.0
  0
LINE
  5
24A
330
1F
100
AcDbEntity
  8
0
  6
CONTINUOUS
 62
     7
100
AcDbLine
 10
6.9346900876
 20
6.4024458493
 30
0.0
 11
6.9416486689
 21
6.3984274399
 31
0.0
  0
LINE
  5
24B
330
1F
100
AcDbEntity
  8
0
  6
CONTINUOUS
 62
     7
100
AcDbLine
 10
8.4177442667
 20
8.143442803
 30
0.0
 11
8.153275195
 21
8.2961175483
 31
0.0
  0
LINE
  5
24C
330
1F
100
AcDbEntity
  8
0
  6
CONTINUOUS
 62
     7
100
AcDbLine
 10
6.913218499
 20
6.1480435983
 30
0.0
 11
7.1776875707
 21
5.995368853
 31
0.0
  0
LINE
  5
24D
330
1F
100
AcDbEntity
  8
0
  6
CONTINUOUS
 62
     7
100
AcDbLine
 10
7.5331043222
 20
8.2346374779
 30
0.0
 11
7.5191871597
 21
8.226600659
 31
0.0
  0
LINE
  5
24E
330
1F
100
AcDbEntity
  8
0
  6
CONTINUOUS
 62
     7
100
AcDbLine
 10
6.6563230829
 20
6.7319142857
 30
0.0
 11
6.6563230829
 21
6.7158432598
 31
0.0
  0
LINE
  5
24F
330
1F
100
AcDbEntity
  8
0
  6
CONTINUOUS
 62
     7
100
AcDbLine
 10
7.2055264203
 20
5.9792978271
 30
0.0
 11
7.9014976617
 21
5.5775221815
 31
0.0
  0
LINE
  5
250
330
1F
100
AcDbEntity
  8
0
  6
CONTINUOUS
 62
     7
100
AcDbLine
 10
9.1415543577
 20
7.7255961315
 30
0.0
 11
8.4455831163
 21
8.1273717771
 31
0.0
  0
LINE
  5
251
330
1F
100
AcDbEntity
  8
0
  6
CONTINUOUS
 62
     7
100
AcDbLine
 10
7.8254122436
 20
8.0658917068
 30
0.0
 11
7.811495081
 21
8.0578548879
 31
0.0
  0
LINE
  5
252
330
1F
100
AcDbEntity
  8
0
  6
CONTINUOUS
 62
     7
100
AcDbLine
 10
7.2270195008
 20
6.4024582563
 30
0.0
 11
7.2270195008
 21
6.3863872305
 31
0.0
  0
POLYLINE
  5
253
330
1F
100
AcDbEntity
  8
0
  6
CONTINUOUS
 62
     7
100
AcDb2dPolyline
 66
     1
 10
0.0
 20
0.0
 30
0.0
  0
VERTEX
  5
2A6
330
253
100
AcDbEntity
  8
0
  6
CONTINUOUS
 62
     7
100
AcDbVertex
100
AcDb2dVertex
 10
8.6676799703
 20
7.5798254668
 30
0.0
  0
VERTEX
  5
2A7
330
253
100
AcDbEntity
  8
0
  6
CONTINUOUS
 62
     7
100
AcDbVertex
100
AcDb2dVertex
 10
8.6826549437
 20
7.5895835057
 30
0.0
  0
VERTEX
  5
2A8
330
253
100
AcDbEntity
  8
0
  6
CONTINUOUS
 62
     7
100
AcDbVertex
100
AcDb2dVertex
 10
8.6954832708
 20
7.6003124212
 30
0.0
  0
VERTEX
  5
2A9
330
253
100
AcDbEntity
  8
0
  6
CONTINUOUS
 62
     7
100
AcDbVertex
100
AcDb2dVertex
 10
8.705977886
 20
7.6118557615
 30
0.0
  0
VERTEX
  5
2AA
330
253
100
AcDbEntity
  8
0
  6
CONTINUOUS
 62
     7
100
AcDbVertex
100
AcDb2dVertex
 10
8.713985754
 20
7.6240451988
 30
0.0
  0
VERTEX
  5
2AB
330
253
100
AcDbEntity
  8
0
  6
CONTINUOUS
 62
     7
100
AcDbVertex
100
AcDb2dVertex
 10
8.7193901021
 20
7.6367029837
 30
0.0
  0
VERTEX
  5
2AC
330
253
100
AcDbEntity
  8
0
  6
CONTINUOUS
 62
     7
100
AcDbVertex
100
AcDb2dVertex
 10
8.7221121228
 20
7.649644537
 30
0.0
  0
VERTEX
  5
2AD
330
253
100
AcDbEntity
  8
0
  6
CONTINUOUS
 62
     7
100
AcDbVertex
100
AcDb2dVertex
 10
8.7221121228
 20
7.6626811419
 30
0.0
  0
VERTEX
  5
2AE
330
253
100
AcDbEntity
  8
0
  6
CONTINUOUS
 62
     7
100
AcDbVertex
100
AcDb2dVertex
 10
8.7193901021
 20
7.6756226953
 30
0.0
  0
VERTEX
  5
2AF
330
253
100
AcDbEntity
  8
0
  6
CONTINUOUS
 62
     7
100
AcDbVertex
100
AcDb2dVertex
 10
8.713985754
 20
7.6882804801
 30
0.0
  0
VERTEX
  5
2B0
330
253
100
AcDbEntity
  8
0
  6
CONTINUOUS
 62
     7
100
AcDbVertex
100
AcDb2dVertex
 10
8.705977886
 20
7.7004699174
 30
0.0
  0
VERTEX
  5
2B1
330
253
100
AcDbEntity
  8
0
  6
CONTINUOUS
 62
     7
100
AcDbVertex
100
AcDb2dVertex
 10
8.6954832708
 20
7.7120132578
 30
0.0
  0
VERTEX
  5
2B2
330
253
100
AcDbEntity
  8
0
  6
CONTINUOUS
 62
     7
100
AcDbVertex
100
AcDb2dVertex
 10
8.6826549437
 20
7.7227421733
 30
0.0
  0
VERTEX
  5
2B3
330
253
100
AcDbEntity
  8
0
  6
CONTINUOUS
 62
     7
100
AcDbVertex
100
AcDb2dVertex
 10
8.6676799703
 20
7.7325002121
 30
0.0
  0
VERTEX
  5
2B4
330
253
100
AcDbEntity
  8
0
  6
CONTINUOUS
 62
     7
100
AcDbVertex
100
AcDb2dVertex
 10
8.6507767197
 20
7.7411450802
 30
0.0
  0
VERTEX
  5
2B5
330
253
100
AcDbEntity
  8
0
  6
CONTINUOUS
 62
     7
100
AcDbVertex
100
AcDb2dVertex
 10
8.6321916793
 20
7.7485507159
 30
0.0
  0
VERTEX
  5
2B6
330
253
100
AcDbEntity
  8
0
  6
CONTINUOUS
 62
     7
100
AcDbVertex
100
AcDb2dVertex
 10
8.6121958607
 20
7.7546091282
 30
0.0
  0
VERTEX
  5
2B7
330
253
100
AcDbEntity
  8
0
  6
CONTINUOUS
 62
     7
100
AcDbVertex
100
AcDb2dVertex
 10
8.5910808481
 20
7.7592319721
 30
0.0
  0
VERTEX
  5
2B8
330
253
100
AcDbEntity
  8
0
  6
CONTINUOUS
 62
     7
100
AcDbVertex
100
AcDb2dVertex
 10
8.5691545459
 20
7.7623518358
 30
0.0
  0
VERTEX
  5
2B9
330
253
100
AcDbEntity
  8
0
  6
CONTINUOUS
 62
     7
100
AcDbVertex
100
AcDb2dVertex
 10
8.5467366889
 20
7.7639232249
 30
0.0
  0
VERTEX
  5
2BA
330
253
100
AcDbEntity
  8
0
  6
CONTINUOUS
 62
     7
100
AcDbVertex
100
AcDb2dVertex
 10
8.5241541801
 20
7.7639232249
 30
0.0
  0
VERTEX
  5
2BB
330
253
100
AcDbEntity
  8
0
  6
CONTINUOUS
 62
     7
100
AcDbVertex
100
AcDb2dVertex
 10
8.5017363231
 20
7.7623518358
 30
0.0
  0
VERTEX
  5
2BC
330
253
100
AcDbEntity
  8
0
  6
CONTINUOUS
 62
     7
100
AcDbVertex
100
AcDb2dVertex
 10
8.4798100209
 20
7.7592319721
 30
0.0
  0
VERTEX
  5
2BD
330
253
100
AcDbEntity
  8
0
  6
CONTINUOUS
 62
     7
100
AcDbVertex
100
AcDb2dVertex
 10
8.4586950083
 20
7.7546091282
 30
0.0
  0
VERTEX
  5
2BE
330
253
100
AcDbEntity
  8
0
  6
CONTINUOUS
 62
     7
100
AcDbVertex
100
AcDb2dVertex
 10
8.4386991897
 20
7.7485507159
 30
0.0
  0
VERTEX
  5
2BF
330
253
100
AcDbEntity
  8
0
  6
CONTINUOUS
 62
     7
100
AcDbVertex
100
AcDb2dVertex
 10
8.4201141493
 20
7.7411450802
 30
0.0
  0
VERTEX
  5
2C0
330
253
100
AcDbEntity
  8
0
  6
CONTINUOUS
 62
     7
100
AcDbVertex
100
AcDb2dVertex
 10
8.4032108986
 20
7.7325002121
 30
0.0
  0
VERTEX
  5
2C1
330
253
100
AcDbEntity
  8
0
  6
CONTINUOUS
 62
     7
100
AcDbVertex
100
AcDb2dVertex
 10
8.3882359253
 20
7.7227421733
 30
0.0
  0
VERTEX
  5
2C2
330
253
100
AcDbEntity
  8
0
  6
CONTINUOUS
 62
     7
100
AcDbVertex
100
AcDb2dVertex
 10
8.3754075981
 20
7.7120132578
 30
0.0
  0
VERTEX
  5
2C3
330
253
100
AcDbEntity
  8
0
  6
CONTINUOUS
 62
     7
100
AcDbVertex
100
AcDb2dVertex
 10
8.364912983
 20
7.7004699174
 30
0.0
  0
VERTEX
  5
2C4
330
253
100
AcDbEntity
  8
0
  6
CONTINUOUS
 62
     7
100
AcDbVertex
100
AcDb2dVertex
 10
8.356905115
 20
7.6882804801
 30
0.0
  0
VERTEX
  5
2C5
330
253
100
AcDbEntity
  8
0
  6
CONTINUOUS
 62
     7
100
AcDbVertex
100
AcDb2dVertex
 10
8.3515007669
 20
7.6756226953
 30
0.0
  0
VERTEX
  5
2C6
330
253
100
AcDbEntity
  8
0
  6
CONTINUOUS
 62
     7
100
AcDbVertex
100
AcDb2dVertex
 10
8.3487787462
 20
7.6626811419
 30
0.0
  0
VERTEX
  5
2C7
330
253
100
AcDbEntity
  8
0
  6
CONTINUOUS
 62
     7
100
AcDbVertex
100
AcDb2dVertex
 10
8.3487787462
 20
7.649644537
 30
0.0
  0
VERTEX
  5
2C8
330
253
100
AcDbEntity
  8
0
  6
CONTINUOUS
 62
     7
100
AcDbVertex
100
AcDb2dVertex
 10
8.3515007669
 20
7.6367029837
 30
0.0
  0
VERTEX
  5
2C9
330
253
100
AcDbEntity
  8
0
  6
CONTINUOUS
 62
     7
100
AcDbVertex
100
AcDb2dVertex
 10
8.356905115
 20
7.6240451988
 30
0.0
  0
VERTEX
  5
2CA
330
253
100
AcDbEntity
  8
0
  6
CONTINUOUS
 62
     7
100
AcDbVertex
100
AcDb2dVertex
 10
8.364912983
 20
7.6118557615
 30
0.0
  0
VERTEX
  5
2CB
330
253
100
AcDbEntity
  8
0
  6
CONTINUOUS
 62
     7
100
AcDbVertex
100
AcDb2dVertex
 10
8.3754075981
 20
7.6003124212
 30
0.0
  0
VERTEX
  5
2CC
330
253
100
AcDbEntity
  8
0
  6
CONTINUOUS
 62
     7
100
AcDbVertex
100
AcDb2dVertex
 10
8.3882359253
 20
7.5895835057
 30
0.0
  0
VERTEX
  5
2CD
330
253
100
AcDbEntity
  8
0
  6
CONTINUOUS
 62
     7
100
AcDbVertex
100
AcDb2dVertex
 10
8.4032108986
 20
7.5798254668
 30
0.0
  0
VERTEX
  5
2CE
330
253
100
AcDbEntity
  8
0
  6
CONTINUOUS
 62
     7
100
AcDbVertex
100
AcDb2dVertex
 10
8.4201141493
 20
7.5711805987
 30
0.0
  0
VERTEX
  5
2CF
330
253
100
AcDbEntity
  8
0
  6
CONTINUOUS
 62
     7
100
AcDbVertex
100
AcDb2dVertex
 10
8.4386991897
 20
7.5637749631
 30
0.0
  0
VERTEX
  5
2D0
330
253
100
AcDbEntity
  8
0
  6
CONTINUOUS
 62
     7
100
AcDbVertex
100
AcDb2dVertex
 10
8.4586950083
 20
7.5577165507
 30
0.0
  0
VERTEX
  5
2D1
330
253
100
AcDbEntity
  8
0
  6
CONTINUOUS
 62
     7
100
AcDbVertex
100
AcDb2dVertex
 10
8.4798100209
 20
7.5530937069
 30
0.0
  0
VERTEX
  5
2D2
330
253
100
AcDbEntity
  8
0
  6
CONTINUOUS
 62
     7
100
AcDbVertex
100
AcDb2dVertex
 10
8.5017363231
 20
7.5499738431
 30
0.0
  0
VERTEX
  5
2D3
330
253
100
AcDbEntity
  8
0
  6
CONTINUOUS
 62
     7
100
AcDbVertex
100
AcDb2dVertex
 10
8.5241541801
 20
7.5484024541
 30
0.0
  0
VERTEX
  5
2D4
330
253
100
AcDbEntity
  8
0
  6
CONTINUOUS
 62
     7
100
AcDbVertex
100
AcDb2dVertex
 10
8.5467366889
 20
7.5484024541
 30
0.0
  0
VERTEX
  5
2D5
330
253
100
AcDbEntity
  8
0
  6
CONTINUOUS
 62
     7
100
AcDbVertex
100
AcDb2dVertex
 10
8.5691545459
 20
7.5499738431
 30
0.0
  0
VERTEX
  5
2D6
330
253
100
AcDbEntity
  8
0
  6
CONTINUOUS
 62
     7
100
AcDbVertex
100
AcDb2dVertex
 10
8.5910808481
 20
7.5530937069
 30
0.0
  0
VERTEX
  5
2D7
330
253
100
AcDbEntity
  8
0
  6
CONTINUOUS
 62
     7
100
AcDbVertex
100
AcDb2dVertex
 10
8.6121958607
 20
7.5577165507
 30
0.0
  0
VERTEX
  5
2D8
330
253
100
AcDbEntity
  8
0
  6
CONTINUOUS
 62
     7
100
AcDbVertex
100
AcDb2dVertex
 10
8.6321916793
 20
7.5637749631
 30
0.0
  0
VERTEX
  5
2D9
330
253
100
AcDbEntity
  8
0
  6
CONTINUOUS
 62
     7
100
AcDbVertex
100
AcDb2dVertex
 10
8.6507767197
 20
7.5711805987
 30
0.0
  0
VERTEX
  5
2DA
330
253
100
AcDbEntity
  8
0
  6
CONTINUOUS
 62
     7
100
AcDbVertex
100
AcDb2dVertex
 10
8.6676799703
 20
7.5798254668
 30
0.0
  0
SEQEND
  5
2DB
330
253
100
AcDbEntity
  8
0
  6
CONTINUOUS
 62
     7
  0
ARC
  5
254
330
1F
100
AcDbEntity
  8
0
  6
CONTINUOUS
 62
     7
100
AcDbCircle
 10
8.6351265005
 20
7.6386337664
 30
0.0
 40
0.0981521463747737
100
AcDbArc
 50
9.3190317625
 51
66.2610134159
  0
POLYLINE
  5
255
330
1F
100
AcDbEntity
  8
0
  6
CONTINUOUS
 62
     7
100
AcDb2dPolyline
 66
     1
 10
0.0
 20
0.0
 30
0.0
  0
VERTEX
  5
2DC
330
255
100
AcDbEntity
  8
0
  6
CONTINUOUS
 62
     7
100
AcDbVertex
100
AcDb2dVertex
 10
8.5156824078
 20
7.5350608651
 30
0.0
  0
VERTEX
  5
2DD
330
255
100
AcDbEntity
  8
0
  6
CONTINUOUS
 62
     7
100
AcDbVertex
100
AcDb2dVertex
 10
8.5092693582
 20
7.5354958851
 30
0.0
  0
VERTEX
  5
2DE
330
255
100
AcDbEntity
  8
0
  6
CONTINUOUS
 62
     7
100
AcDbVertex
100
AcDb2dVertex
 10
8.486377723
 20
7.5380736662
 30
0.0
  0
VERTEX
  5
2DF
330
255
100
AcDbEntity
  8
0
  6
CONTINUOUS
 62
     7
100
AcDbVertex
100
AcDb2dVertex
 10
8.4641748909
 20
7.542196341
 30
0.0
  0
VERTEX
  5
2E0
330
255
100
AcDbEntity
  8
0
  6
CONTINUOUS
 62
     7
100
AcDbVertex
100
AcDb2dVertex
 10
8.4429725411
 20
7.5478060364
 30
0.0
  0
VERTEX
  5
2E1
330
255
100
AcDbEntity
  8
0
  6
CONTINUOUS
 62
     7
100
AcDbVertex
100
AcDb2dVertex
 10
8.4230683079
 20
7.5548240044
 30
0.0
  0
VERTEX
  5
2E2
330
255
100
AcDbEntity
  8
0
  6
CONTINUOUS
 62
     7
100
AcDbVertex
100
AcDb2dVertex
 10
8.4047416033
 20
7.5631517282
 30
0.0
  0
VERTEX
  5
2E3
330
255
100
AcDbEntity
  8
0
  6
CONTINUOUS
 62
     7
100
AcDbVertex
100
AcDb2dVertex
 10
8.388249694
 20
7.5726723048
 30
0.0
  0
VERTEX
  5
2E4
330
255
100
AcDbEntity
  8
0
  6
CONTINUOUS
 62
     7
100
AcDbVertex
100
AcDb2dVertex
 10
8.3738240902
 20
7.5832520862
 30
0.0
  0
VERTEX
  5
2E5
330
255
100
AcDbEntity
  8
0
  6
CONTINUOUS
 62
     7
100
AcDbVertex
100
AcDb2dVertex
 10
8.3616672958
 20
7.5947425554
 30
0.0
  0
VERTEX
  5
2E6
330
255
100
AcDbEntity
  8
0
  6
CONTINUOUS
 62
     7
100
AcDbVertex
100
AcDb2dVertex
 10
8.3519499655
 20
7.6069824114
 30
0.0
  0
VERTEX
  5
2E7
330
255
100
AcDbEntity
  8
0
  6
CONTINUOUS
 62
     7
100
AcDbVertex
100
AcDb2dVertex
 10
8.3448085094
 20
7.6197998336
 30
0.0
  0
VERTEX
  5
2E8
330
255
100
AcDbEntity
  8
0
  6
CONTINUOUS
 62
     7
100
AcDbVertex
100
AcDb2dVertex
 10
8.3403431779
 20
7.6330148933
 30
0.0
  0
VERTEX
  5
2E9
330
255
100
AcDbEntity
  8
0
  6
CONTINUOUS
 62
     7
100
AcDbVertex
100
AcDb2dVertex
 10
8.3386166544
 20
7.6464420801
 30
0.0
  0
VERTEX
  5
2EA
330
255
100
AcDbEntity
  8
0
  6
CONTINUOUS
 62
     7
100
AcDbVertex
100
AcDb2dVertex
 10
8.3385950408
 20
7.6481260205
 30
0.0
  0
SEQEND
  5
2EB
330
255
100
AcDbEntity
  8
0
  6
CONTINUOUS
 62
     7
  0
ARC
  5
256
330
1F
100
AcDbEntity
  8
0
  6
CONTINUOUS
 62
     7
100
AcDbCircle
 10
8.4427628615
 20
7.6328426133
 30
0.0
 40
0.1063469431508425
100
AcDbArc
 50
115.9489764989
 51
166.8695157115
  0
LINE
  5
257
330
1F
100
AcDbEntity
  8
0
  6
CONTINUOUS
 62
     7
100
AcDbLine
 10
8.5060302287
 20
7.7195369317
 30
0.0
 11
8.425666392
 21
7.6731438763
 31
0.0
  0
LINE
  5
258
330
1F
100
AcDbEntity
  8
0
  6
CONTINUOUS
 62
     7
100
AcDbLine
 10
8.425666392
 20
7.6731438763
 30
0.0
 11
8.4550815978
 21
7.6097697841
 31
0.0
  0
LINE
  5
259
330
1F
100
AcDbEntity
  8
0
  6
CONTINUOUS
 62
     7
100
AcDbLine
 10
8.4550815978
 20
7.6097697841
 30
0.0
 11
8.5648606403
 21
7.5927887472
 31
0.0
  0
LINE
  5
25A
330
1F
100
AcDbEntity
  8
0
  6
CONTINUOUS
 62
     7
100
AcDbLine
 10
8.5648606403
 20
7.5927887472
 30
0.0
 11
8.645224477
 21
7.6391818026
 31
0.0
  0
LINE
  5
25B
330
1F
100
AcDbEntity
  8
0
  6
CONTINUOUS
 62
     7
100
AcDbLine
 10
8.645224477
 20
7.6391818026
 30
0.0
 11
8.6158092712
 21
7.7025558949
 31
0.0
  0
LINE
  5
25C
330
1F
100
AcDbEntity
  8
0
  6
CONTINUOUS
 62
     7
100
AcDbLine
 10
8.6158092712
 20
7.7025558949
 30
0.0
 11
8.5060302287
 21
7.7195369317
 31
0.0
  0
LINE
  5
25D
330
1F
100
AcDbEntity
  8
0
  6
CONTINUOUS
 62
     7
100
AcDbLine
 10
8.6158092712
 20
7.6222007658
 30
0.0
 11
8.6158092712
 21
7.7025558949
 31
0.0
  0
LINE
  5
25E
330
1F
100
AcDbEntity
  8
0
  6
CONTINUOUS
 62
     7
100
AcDbLine
 10
8.5060302287
 20
7.6018888574
 30
0.0
 11
8.5060302287
 21
7.7195369317
 31
0.0
  0
POLYLINE
  5
25F
330
1F
100
AcDbEntity
  8
0
  6
CONTINUOUS
 62
     7
100
AcDb2dPolyline
 66
     1
 10
0.0
 20
0.0
 30
0.0
  0
VERTEX
  5
2EC
330
25F
100
AcDbEntity
  8
0
  6
CONTINUOUS
 62
     7
100
AcDbVertex
100
AcDb2dVertex
 10
9.6907576951
 20
6.972979673
 30
0.0
  0
VERTEX
  5
2ED
330
25F
100
AcDbEntity
  8
0
  6
CONTINUOUS
 62
     7
100
AcDbVertex
100
AcDb2dVertex
 10
9.689794845
 20
7.0194860662
 30
0.0
  0
VERTEX
  5
2EE
330
25F
100
AcDbEntity
  8
0
  6
CONTINUOUS
 62
     7
100
AcDbVertex
100
AcDb2dVertex
 10
9.6869084433
 20
7.0647770024
 30
0.0
  0
VERTEX
  5
2EF
330
25F
100
AcDbEntity
  8
0
  6
CONTINUOUS
 62
     7
100
AcDbVertex
100
AcDb2dVertex
 10
9.6821049307
 20
7.1087514199
 30
0.0
  0
VERTEX
  5
2F0
330
25F
100
AcDbEntity
  8
0
  6
CONTINUOUS
 62
     7
100
AcDbVertex
100
AcDb2dVertex
 10
9.6753950256
 20
7.1513111944
 30
0.0
  0
VERTEX
  5
2F1
330
25F
100
AcDbEntity
  8
0
  6
CONTINUOUS
 62
     7
100
AcDbVertex
100
AcDb2dVertex
 10
9.6667937005
 20
7.1923613586
 30
0.0
  0
VERTEX
  5
2F2
330
25F
100
AcDbEntity
  8
0
  6
CONTINUOUS
 62
     7
100
AcDbVertex
100
AcDb2dVertex
 10
9.6563201483
 20
7.2318103135
 30
0.0
  0
VERTEX
  5
2F3
330
25F
100
AcDbEntity
  8
0
  6
CONTINUOUS
 62
     7
100
AcDbVertex
100
AcDb2dVertex
 10
9.6439977396
 20
7.2695700329
 30
0.0
  0
VERTEX
  5
2F4
330
25F
100
AcDbEntity
  8
0
  6
CONTINUOUS
 62
     7
100
AcDbVertex
100
AcDb2dVertex
 10
9.6298539705
 20
7.3055562603
 30
0.0
  0
VERTEX
  5
2F5
330
25F
100
AcDbEntity
  8
0
  6
CONTINUOUS
 62
     7
100
AcDbVertex
100
AcDb2dVertex
 10
9.6139204013
 20
7.3396886962
 30
0.0
  0
VERTEX
  5
2F6
330
25F
100
AcDbEntity
  8
0
  6
CONTINUOUS
 62
     7
100
AcDbVertex
100
AcDb2dVertex
 10
9.596232586
 20
7.3718911779
 30
0.0
  0
VERTEX
  5
2F7
330
25F
100
AcDbEntity
  8
0
  6
CONTINUOUS
 62
     7
100
AcDbVertex
100
AcDb2dVertex
 10
9.576829993
 20
7.402091849
 30
0.0
  0
VERTEX
  5
2F8
330
25F
100
AcDbEntity
  8
0
  6
CONTINUOUS
 62
     7
100
AcDbVertex
100
AcDb2dVertex
 10
9.5557559172
 20
7.43022332
 30
0.0
  0
VERTEX
  5
2F9
330
25F
100
AcDbEntity
  8
0
  6
CONTINUOUS
 62
     7
100
AcDbVertex
100
AcDb2dVertex
 10
9.533057383
 20
7.4562228186
 30
0.0
  0
VERTEX
  5
2FA
330
25F
100
AcDbEntity
  8
0
  6
CONTINUOUS
 62
     7
100
AcDbVertex
100
AcDb2dVertex
 10
9.5087850397
 20
7.4800323298
 30
0.0
  0
VERTEX
  5
2FB
330
25F
100
AcDbEntity
  8
0
  6
CONTINUOUS
 62
     7
100
AcDbVertex
100
AcDb2dVertex
 10
9.4829930485
 20
7.5015987252
 30
0.0
  0
VERTEX
  5
2FC
330
25F
100
AcDbEntity
  8
0
  6
CONTINUOUS
 62
     7
100
AcDbVertex
100
AcDb2dVertex
 10
9.4557389612
 20
7.5208738818
 30
0.0
  0
VERTEX
  5
2FD
330
25F
100
AcDbEntity
  8
0
  6
CONTINUOUS
 62
     7
100
AcDbVertex
100
AcDb2dVertex
 10
9.4270835925
 20
7.5378147891
 30
0.0
  0
VERTEX
  5
2FE
330
25F
100
AcDbEntity
  8
0
  6
CONTINUOUS
 62
     7
100
AcDbVertex
100
AcDb2dVertex
 10
9.3970908838
 20
7.5523836454
 30
0.0
  0
VERTEX
  5
2FF
330
25F
100
AcDbEntity
  8
0
  6
CONTINUOUS
 62
     7
100
AcDbVertex
100
AcDb2dVertex
 10
9.3658277603
 20
7.5645479418
 30
0.0
  0
VERTEX
  5
300
330
25F
100
AcDbEntity
  8
0
  6
CONTINUOUS
 62
     7
100
AcDbVertex
100
AcDb2dVertex
 10
9.3333639825
 20
7.5742805351
 30
0.0
  0
VERTEX
  5
301
330
25F
100
AcDbEntity
  8
0
  6
CONTINUOUS
 62
     7
100
AcDbVertex
100
AcDb2dVertex
 10
9.2997719896
 20
7.5815597081
 30
0.0
  0
VERTEX
  5
302
330
25F
100
AcDbEntity
  8
0
  6
CONTINUOUS
 62
     7
100
AcDbVertex
100
AcDb2dVertex
 10
9.2651267387
 20
7.5863692179
 30
0.0
  0
VERTEX
  5
303
330
25F
100
AcDbEntity
  8
0
  6
CONTINUOUS
 62
     7
100
AcDbVertex
100
AcDb2dVertex
 10
9.2295055366
 20
7.5886983329
 30
0.0
  0
VERTEX
  5
304
330
25F
100
AcDbEntity
  8
0
  6
CONTINUOUS
 62
     7
100
AcDbVertex
100
AcDb2dVertex
 10
9.1929878684
 20
7.5885418557
 30
0.0
  0
VERTEX
  5
305
330
25F
100
AcDbEntity
  8
0
  6
CONTINUOUS
 62
     7
100
AcDbVertex
100
AcDb2dVertex
 10
9.1556552191
 20
7.5859001355
 30
0.0
  0
VERTEX
  5
306
330
25F
100
AcDbEntity
  8
0
  6
CONTINUOUS
 62
     7
100
AcDbVertex
100
AcDb2dVertex
 10
9.1175908926
 20
7.5807790671
 30
0.0
  0
VERTEX
  5
307
330
25F
100
AcDbEntity
  8
0
  6
CONTINUOUS
 62
     7
100
AcDbVertex
100
AcDb2dVertex
 10
9.0788798252
 20
7.5731900776
 30
0.0
  0
VERTEX
  5
308
330
25F
100
AcDbEntity
  8
0
  6
CONTINUOUS
 62
     7
100
AcDbVertex
100
AcDb2dVertex
 10
9.0396083965
 20
7.563150101
 30
0.0
  0
VERTEX
  5
309
330
25F
100
AcDbEntity
  8
0
  6
CONTINUOUS
 62
     7
100
AcDbVertex
100
AcDb2dVertex
 10
8.9998642363
 20
7.5506815403
 30
0.0
  0
VERTEX
  5
30A
330
25F
100
AcDbEntity
  8
0
  6
CONTINUOUS
 62
     7
100
AcDbVertex
100
AcDb2dVertex
 10
8.9597360294
 20
7.5358122178
 30
0.0
  0
VERTEX
  5
30B
330
25F
100
AcDbEntity
  8
0
  6
CONTINUOUS
 62
     7
100
AcDbVertex
100
AcDb2dVertex
 10
8.9193133176
 20
7.5185753128
 30
0.0
  0
VERTEX
  5
30C
330
25F
100
AcDbEntity
  8
0
  6
CONTINUOUS
 62
     7
100
AcDbVertex
100
AcDb2dVertex
 10
8.8786862997
 20
7.4990092876
 30
0.0
  0
VERTEX
  5
30D
330
25F
100
AcDbEntity
  8
0
  6
CONTINUOUS
 62
     7
100
AcDbVertex
100
AcDb2dVertex
 10
8.8379456305
 20
7.4771578016
 30
0.0
  0
VERTEX
  5
30E
330
25F
100
AcDbEntity
  8
0
  6
CONTINUOUS
 62
     7
100
AcDbVertex
100
AcDb2dVertex
 10
8.7971822184
 20
7.4530696141
 30
0.0
  0
VERTEX
  5
30F
330
25F
100
AcDbEntity
  8
0
  6
CONTINUOUS
 62
     7
100
AcDbVertex
100
AcDb2dVertex
 10
8.7564870224
 20
7.4267984751
 30
0.0
  0
VERTEX
  5
310
330
25F
100
AcDbEntity
  8
0
  6
CONTINUOUS
 62
     7
100
AcDbVertex
100
AcDb2dVertex
 10
8.7159508494
 20
7.3984030059
 30
0.0
  0
VERTEX
  5
311
330
25F
100
AcDbEntity
  8
0
  6
CONTINUOUS
 62
     7
100
AcDbVertex
100
AcDb2dVertex
 10
8.6756641516
 20
7.3679465678
 30
0.0
  0
VERTEX
  5
312
330
25F
100
AcDbEntity
  8
0
  6
CONTINUOUS
 62
     7
100
AcDbVertex
100
AcDb2dVertex
 10
8.6357168243
 20
7.3354971212
 30
0.0
  0
VERTEX
  5
313
330
25F
100
AcDbEntity
  8
0
  6
CONTINUOUS
 62
     7
100
AcDbVertex
100
AcDb2dVertex
 10
8.5961980055
 20
7.3011270733
 30
0.0
  0
VERTEX
  5
314
330
25F
100
AcDbEntity
  8
0
  6
CONTINUOUS
 62
     7
100
AcDbVertex
100
AcDb2dVertex
 10
8.5571958773
 20
7.2649131173
 30
0.0
  0
VERTEX
  5
315
330
25F
100
AcDbEntity
  8
0
  6
CONTINUOUS
 62
     7
100
AcDbVertex
100
AcDb2dVertex
 10
8.5187974686
 20
7.2269360605
 30
0.0
  0
VERTEX
  5
316
330
25F
100
AcDbEntity
  8
0
  6
CONTINUOUS
 62
     7
100
AcDbVertex
100
AcDb2dVertex
 10
8.4810884613
 20
7.1872806448
 30
0.0
  0
VERTEX
  5
317
330
25F
100
AcDbEntity
  8
0
  6
CONTINUOUS
 62
     7
100
AcDbVertex
100
AcDb2dVertex
 10
8.444152999
 20
7.1460353567
 30
0.0
  0
VERTEX
  5
318
330
25F
100
AcDbEntity
  8
0
  6
CONTINUOUS
 62
     7
100
AcDbVertex
100
AcDb2dVertex
 10
8.408073499
 20
7.1032922307
 30
0.0
  0
VERTEX
  5
319
330
25F
100
AcDbEntity
  8
0
  6
CONTINUOUS
 62
     7
100
AcDbVertex
100
AcDb2dVertex
 10
8.3729304689
 20
7.0591466435
 30
0.0
  0
VERTEX
  5
31A
330
25F
100
AcDbEntity
  8
0
  6
CONTINUOUS
 62
     7
100
AcDbVertex
100
AcDb2dVertex
 10
8.3388023265
 20
7.013697101
 30
0.0
  0
VERTEX
  5
31B
330
25F
100
AcDbEntity
  8
0
  6
CONTINUOUS
 62
     7
100
AcDbVertex
100
AcDb2dVertex
 10
8.305765225
 20
6.9670450189
 30
0.0
  0
VERTEX
  5
31C
330
25F
100
AcDbEntity
  8
0
  6
CONTINUOUS
 62
     7
100
AcDbVertex
100
AcDb2dVertex
 10
8.2738928832
 20
6.9192944964
 30
0.0
  0
VERTEX
  5
31D
330
25F
100
AcDbEntity
  8
0
  6
CONTINUOUS
 62
     7
100
AcDbVertex
100
AcDb2dVertex
 10
8.2432564206
 20
6.8705520835
 30
0.0
  0
VERTEX
  5
31E
330
25F
100
AcDbEntity
  8
0
  6
CONTINUOUS
 62
     7
100
AcDbVertex
100
AcDb2dVertex
 10
8.2139241993
 20
6.8209265435
 30
0.0
  0
VERTEX
  5
31F
330
25F
100
AcDbEntity
  8
0
  6
CONTINUOUS
 62
     7
100
AcDbVertex
100
AcDb2dVertex
 10
8.1859616709
 20
6.7705286105
 30
0.0
  0
VERTEX
  5
320
330
25F
100
AcDbEntity
  8
0
  6
CONTINUOUS
 62
     7
100
AcDbVertex
100
AcDb2dVertex
 10
8.1594312306
 20
6.719470742
 30
0.0
  0
VERTEX
  5
321
330
25F
100
AcDbEntity
  8
0
  6
CONTINUOUS
 62
     7
100
AcDbVertex
100
AcDb2dVertex
 10
8.1343920783
 20
6.667866868
 30
0.0
  0
VERTEX
  5
322
330
25F
100
AcDbEntity
  8
0
  6
CONTINUOUS
 62
     7
100
AcDbVertex
100
AcDb2dVertex
 10
8.1109000862
 20
6.615832137
 30
0.0
  0
VERTEX
  5
323
330
25F
100
AcDbEntity
  8
0
  6
CONTINUOUS
 62
     7
100
AcDbVertex
100
AcDb2dVertex
 10
8.089007674
 20
6.5634826587
 30
0.0
  0
VERTEX
  5
324
330
25F
100
AcDbEntity
  8
0
  6
CONTINUOUS
 62
     7
100
AcDbVertex
100
AcDb2dVertex
 10
8.0687636923
 20
6.5109352454
 30
0.0
  0
VERTEX
  5
325
330
25F
100
AcDbEntity
  8
0
  6
CONTINUOUS
 62
     7
100
AcDbVertex
100
AcDb2dVertex
 10
8.0502133133
 20
6.4583071508
 30
0.0
  0
VERTEX
  5
326
330
25F
100
AcDbEntity
  8
0
  6
CONTINUOUS
 62
     7
100
AcDbVertex
100
AcDb2dVertex
 10
8.0333979302
 20
6.4057158088
 30
0.0
  0
VERTEX
  5
327
330
25F
100
AcDbEntity
  8
0
  6
CONTINUOUS
 62
     7
100
AcDbVertex
100
AcDb2dVertex
 10
8.0183550647
 20
6.3532785714
 30
0.0
  0
VERTEX
  5
328
330
25F
100
AcDbEntity
  8
0
  6
CONTINUOUS
 62
     7
100
AcDbVertex
100
AcDb2dVertex
 10
8.0051182832
 20
6.3011124463
 30
0.0
  0
VERTEX
  5
329
330
25F
100
AcDbEntity
  8
0
  6
CONTINUOUS
 62
     7
100
AcDbVertex
100
AcDb2dVertex
 10
7.9937171223
 20
6.2493338368
 30
0.0
  0
VERTEX
  5
32A
330
25F
100
AcDbEntity
  8
0
  6
CONTINUOUS
 62
     7
100
AcDbVertex
100
AcDb2dVertex
 10
7.9841770223
 20
6.198058281
 30
0.0
  0
VERTEX
  5
32B
330
25F
100
AcDbEntity
  8
0
  6
CONTINUOUS
 62
     7
100
AcDbVertex
100
AcDb2dVertex
 10
7.9765192709
 20
6.1474001948
 30
0.0
  0
VERTEX
  5
32C
330
25F
100
AcDbEntity
  8
0
  6
CONTINUOUS
 62
     7
100
AcDbVertex
100
AcDb2dVertex
 10
7.9707609557
 20
6.0974726163
 30
0.0
  0
VERTEX
  5
32D
330
25F
100
AcDbEntity
  8
0
  6
CONTINUOUS
 62
     7
100
AcDbVertex
100
AcDb2dVertex
 10
7.9669149256
 20
6.0483869533
 30
0.0
  0
VERTEX
  5
32E
330
25F
100
AcDbEntity
  8
0
  6
CONTINUOUS
 62
     7
100
AcDbVertex
100
AcDb2dVertex
 10
7.9649897627
 20
6.0002527352
 30
0.0
  0
VERTEX
  5
32F
330
25F
100
AcDbEntity
  8
0
  6
CONTINUOUS
 62
     7
100
AcDbVertex
100
AcDb2dVertex
 10
7.9649897627
 20
5.9531773682
 30
0.0
  0
VERTEX
  5
330
330
25F
100
AcDbEntity
  8
0
  6
CONTINUOUS
 62
     7
100
AcDbVertex
100
AcDb2dVertex
 10
7.9669149256
 20
5.9072658959
 30
0.0
  0
VERTEX
  5
331
330
25F
100
AcDbEntity
  8
0
  6
CONTINUOUS
 62
     7
100
AcDbVertex
100
AcDb2dVertex
 10
7.9707609557
 20
5.8626207648
 30
0.0
  0
VERTEX
  5
332
330
25F
100
AcDbEntity
  8
0
  6
CONTINUOUS
 62
     7
100
AcDbVertex
100
AcDb2dVertex
 10
7.9765192709
 20
5.8193415955
 30
0.0
  0
VERTEX
  5
333
330
25F
100
AcDbEntity
  8
0
  6
CONTINUOUS
 62
     7
100
AcDbVertex
100
AcDb2dVertex
 10
7.9841770223
 20
5.7775249608
 30
0.0
  0
VERTEX
  5
334
330
25F
100
AcDbEntity
  8
0
  6
CONTINUOUS
 62
     7
100
AcDbVertex
100
AcDb2dVertex
 10
7.9937171223
 20
5.7372641701
 30
0.0
  0
VERTEX
  5
335
330
25F
100
AcDbEntity
  8
0
  6
CONTINUOUS
 62
     7
100
AcDbVertex
100
AcDb2dVertex
 10
8.0051182832
 20
5.6986490607
 30
0.0
  0
VERTEX
  5
336
330
25F
100
AcDbEntity
  8
0
  6
CONTINUOUS
 62
     7
100
AcDbVertex
100
AcDb2dVertex
 10
8.0183550647
 20
5.6617657983
 30
0.0
  0
VERTEX
  5
337
330
25F
100
AcDbEntity
  8
0
  6
CONTINUOUS
 62
     7
100
AcDbVertex
100
AcDb2dVertex
 10
8.0333979302
 20
5.6266966837
 30
0.0
  0
VERTEX
  5
338
330
25F
100
AcDbEntity
  8
0
  6
CONTINUOUS
 62
     7
100
AcDbVertex
100
AcDb2dVertex
 10
8.0502133133
 20
5.5935199698
 30
0.0
  0
VERTEX
  5
339
330
25F
100
AcDbEntity
  8
0
  6
CONTINUOUS
 62
     7
100
AcDbVertex
100
AcDb2dVertex
 10
8.0687636923
 20
5.5623096869
 30
0.0
  0
VERTEX
  5
33A
330
25F
100
AcDbEntity
  8
0
  6
CONTINUOUS
 62
     7
100
AcDbVertex
100
AcDb2dVertex
 10
8.089007674
 20
5.5331354773
 30
0.0
  0
VERTEX
  5
33B
330
25F
100
AcDbEntity
  8
0
  6
CONTINUOUS
 62
     7
100
AcDbVertex
100
AcDb2dVertex
 10
8.1109000862
 20
5.5060624401
 30
0.0
  0
VERTEX
  5
33C
330
25F
100
AcDbEntity
  8
0
  6
CONTINUOUS
 62
     7
100
AcDbVertex
100
AcDb2dVertex
 10
8.1343920783
 20
5.4811509859
 30
0.0
  0
VERTEX
  5
33D
330
25F
100
AcDbEntity
  8
0
  6
CONTINUOUS
 62
     7
100
AcDbVertex
100
AcDb2dVertex
 10
8.1594312306
 20
5.4584567017
 30
0.0
  0
VERTEX
  5
33E
330
25F
100
AcDbEntity
  8
0
  6
CONTINUOUS
 62
     7
100
AcDbVertex
100
AcDb2dVertex
 10
8.1859616709
 20
5.4380302275
 30
0.0
  0
VERTEX
  5
33F
330
25F
100
AcDbEntity
  8
0
  6
CONTINUOUS
 62
     7
100
AcDbVertex
100
AcDb2dVertex
 10
8.2139241993
 20
5.4199171427
 30
0.0
  0
VERTEX
  5
340
330
25F
100
AcDbEntity
  8
0
  6
CONTINUOUS
 62
     7
100
AcDbVertex
100
AcDb2dVertex
 10
8.2432564206
 20
5.4041578646
 30
0.0
  0
VERTEX
  5
341
330
25F
100
AcDbEntity
  8
0
  6
CONTINUOUS
 62
     7
100
AcDbVertex
100
AcDb2dVertex
 10
8.2738928832
 20
5.3907875584
 30
0.0
  0
VERTEX
  5
342
330
25F
100
AcDbEntity
  8
0
  6
CONTINUOUS
 62
     7
100
AcDbVertex
100
AcDb2dVertex
 10
8.305765225
 20
5.3798360585
 30
0.0
  0
VERTEX
  5
343
330
25F
100
AcDbEntity
  8
0
  6
CONTINUOUS
 62
     7
100
AcDbVertex
100
AcDb2dVertex
 10
8.3388023265
 20
5.3713278019
 30
0.0
  0
VERTEX
  5
344
330
25F
100
AcDbEntity
  8
0
  6
CONTINUOUS
 62
     7
100
AcDbVertex
100
AcDb2dVertex
 10
8.3729304689
 20
5.3652817739
 30
0.0
  0
VERTEX
  5
345
330
25F
100
AcDbEntity
  8
0
  6
CONTINUOUS
 62
     7
100
AcDbVertex
100
AcDb2dVertex
 10
8.408073499
 20
5.3617114655
 30
0.0
  0
VERTEX
  5
346
330
25F
100
AcDbEntity
  8
0
  6
CONTINUOUS
 62
     7
100
AcDbVertex
100
AcDb2dVertex
 10
8.444152999
 20
5.3606248435
 30
0.0
  0
VERTEX
  5
347
330
25F
100
AcDbEntity
  8
0
  6
CONTINUOUS
 62
     7
100
AcDbVertex
100
AcDb2dVertex
 10
8.4810884613
 20
5.3620243326
 30
0.0
  0
VERTEX
  5
348
330
25F
100
AcDbEntity
  8
0
  6
CONTINUOUS
 62
     7
100
AcDbVertex
100
AcDb2dVertex
 10
8.5187974686
 20
5.3659068099
 30
0.0
  0
VERTEX
  5
349
330
25F
100
AcDbEntity
  8
0
  6
CONTINUOUS
 62
     7
100
AcDbVertex
100
AcDb2dVertex
 10
8.5571958773
 20
5.3722636122
 30
0.0
  0
VERTEX
  5
34A
330
25F
100
AcDbEntity
  8
0
  6
CONTINUOUS
 62
     7
100
AcDbVertex
100
AcDb2dVertex
 10
8.5961980055
 20
5.3810805548
 30
0.0
  0
VERTEX
  5
34B
330
25F
100
AcDbEntity
  8
0
  6
CONTINUOUS
 62
     7
100
AcDbVertex
100
AcDb2dVertex
 10
8.6357168243
 20
5.3923379639
 30
0.0
  0
VERTEX
  5
34C
330
25F
100
AcDbEntity
  8
0
  6
CONTINUOUS
 62
     7
100
AcDbVertex
100
AcDb2dVertex
 10
8.6756641516
 20
5.4060107197
 30
0.0
  0
VERTEX
  5
34D
330
25F
100
AcDbEntity
  8
0
  6
CONTINUOUS
 62
     7
100
AcDbVertex
100
AcDb2dVertex
 10
8.7159508494
 20
5.4220683129
 30
0.0
  0
VERTEX
  5
34E
330
25F
100
AcDbEntity
  8
0
  6
CONTINUOUS
 62
     7
100
AcDbVertex
100
AcDb2dVertex
 10
8.7564870224
 20
5.4404749127
 30
0.0
  0
VERTEX
  5
34F
330
25F
100
AcDbEntity
  8
0
  6
CONTINUOUS
 62
     7
100
AcDbVertex
100
AcDb2dVertex
 10
8.7971822184
 20
5.4611894469
 30
0.0
  0
VERTEX
  5
350
330
25F
100
AcDbEntity
  8
0
  6
CONTINUOUS
 62
     7
100
AcDbVertex
100
AcDb2dVertex
 10
8.8379456305
 20
5.4841656932
 30
0.0
  0
VERTEX
  5
351
330
25F
100
AcDbEntity
  8
0
  6
CONTINUOUS
 62
     7
100
AcDbVertex
100
AcDb2dVertex
 10
8.8786862997
 20
5.5093523826
 30
0.0
  0
VERTEX
  5
352
330
25F
100
AcDbEntity
  8
0
  6
CONTINUOUS
 62
     7
100
AcDbVertex
100
AcDb2dVertex
 10
8.9193133176
 20
5.5366933138
 30
0.0
  0
VERTEX
  5
353
330
25F
100
AcDbEntity
  8
0
  6
CONTINUOUS
 62
     7
100
AcDbVertex
100
AcDb2dVertex
 10
8.9597360294
 20
5.5661274785
 30
0.0
  0
VERTEX
  5
354
330
25F
100
AcDbEntity
  8
0
  6
CONTINUOUS
 62
     7
100
AcDbVertex
100
AcDb2dVertex
 10
8.9998642363
 20
5.5975891975
 30
0.0
  0
VERTEX
  5
355
330
25F
100
AcDbEntity
  8
0
  6
CONTINUOUS
 62
     7
100
AcDbVertex
100
AcDb2dVertex
 10
9.0396083965
 20
5.6310082674
 30
0.0
  0
VERTEX
  5
356
330
25F
100
AcDbEntity
  8
0
  6
CONTINUOUS
 62
     7
100
AcDbVertex
100
AcDb2dVertex
 10
9.0788798252
 20
5.6663101173
 30
0.0
  0
VERTEX
  5
357
330
25F
100
AcDbEntity
  8
0
  6
CONTINUOUS
 62
     7
100
AcDbVertex
100
AcDb2dVertex
 10
9.1175908926
 20
5.7034159748
 30
0.0
  0
VERTEX
  5
358
330
25F
100
AcDbEntity
  8
0
  6
CONTINUOUS
 62
     7
100
AcDbVertex
100
AcDb2dVertex
 10
9.1556552191
 20
5.7422430424
 30
0.0
  0
VERTEX
  5
359
330
25F
100
AcDbEntity
  8
0
  6
CONTINUOUS
 62
     7
100
AcDbVertex
100
AcDb2dVertex
 10
9.1929878684
 20
5.7827046816
 30
0.0
  0
VERTEX
  5
35A
330
25F
100
AcDbEntity
  8
0
  6
CONTINUOUS
 62
     7
100
AcDbVertex
100
AcDb2dVertex
 10
9.2295055366
 20
5.8247106067
 30
0.0
  0
VERTEX
  5
35B
330
25F
100
AcDbEntity
  8
0
  6
CONTINUOUS
 62
     7
100
AcDbVertex
100
AcDb2dVertex
 10
9.2651267387
 20
5.868167086
 30
0.0
  0
VERTEX
  5
35C
330
25F
100
AcDbEntity
  8
0
  6
CONTINUOUS
 62
     7
100
AcDbVertex
100
AcDb2dVertex
 10
9.2997719896
 20
5.9129771513
 30
0.0
  0
VERTEX
  5
35D
330
25F
100
AcDbEntity
  8
0
  6
CONTINUOUS
 62
     7
100
AcDbVertex
100
AcDb2dVertex
 10
9.3333639825
 20
5.9590408136
 30
0.0
  0
VERTEX
  5
35E
330
25F
100
AcDbEntity
  8
0
  6
CONTINUOUS
 62
     7
100
AcDbVertex
100
AcDb2dVertex
 10
9.3658277603
 20
6.0062552869
 30
0.0
  0
VERTEX
  5
35F
330
25F
100
AcDbEntity
  8
0
  6
CONTINUOUS
 62
     7
100
AcDbVertex
100
AcDb2dVertex
 10
9.3970908838
 20
6.0545152174
 30
0.0
  0
VERTEX
  5
360
330
25F
100
AcDbEntity
  8
0
  6
CONTINUOUS
 62
     7
100
AcDbVertex
100
AcDb2dVertex
 10
9.4270835925
 20
6.1037129182
 30
0.0
  0
VERTEX
  5
361
330
25F
100
AcDbEntity
  8
0
  6
CONTINUOUS
 62
     7
100
AcDbVertex
100
AcDb2dVertex
 10
9.4557389612
 20
6.1537386099
 30
0.0
  0
VERTEX
  5
362
330
25F
100
AcDbEntity
  8
0
  6
CONTINUOUS
 62
     7
100
AcDbVertex
100
AcDb2dVertex
 10
9.4829930485
 20
6.2044806658
 30
0.0
  0
VERTEX
  5
363
330
25F
100
AcDbEntity
  8
0
  6
CONTINUOUS
 62
     7
100
AcDbVertex
100
AcDb2dVertex
 10
9.5087850397
 20
6.2558258605
 30
0.0
  0
VERTEX
  5
364
330
25F
100
AcDbEntity
  8
0
  6
CONTINUOUS
 62
     7
100
AcDbVertex
100
AcDb2dVertex
 10
9.533057383
 20
6.3076596227
 30
0.0
  0
VERTEX
  5
365
330
25F
100
AcDbEntity
  8
0
  6
CONTINUOUS
 62
     7
100
AcDbVertex
100
AcDb2dVertex
 10
9.5557559172
 20
6.3598662911
 30
0.0
  0
VERTEX
  5
366
330
25F
100
AcDbEntity
  8
0
  6
CONTINUOUS
 62
     7
100
AcDbVertex
100
AcDb2dVertex
 10
9.576829993
 20
6.4123293721
 30
0.0
  0
VERTEX
  5
367
330
25F
100
AcDbEntity
  8
0
  6
CONTINUOUS
 62
     7
100
AcDbVertex
100
AcDb2dVertex
 10
9.596232586
 20
6.4649318002
 30
0.0
  0
VERTEX
  5
368
330
25F
100
AcDbEntity
  8
0
  6
CONTINUOUS
 62
     7
100
AcDbVertex
100
AcDb2dVertex
 10
9.6139204013
 20
6.5175561987
 30
0.0
  0
VERTEX
  5
369
330
25F
100
AcDbEntity
  8
0
  6
CONTINUOUS
 62
     7
100
AcDbVertex
100
AcDb2dVertex
 10
9.6298539705
 20
6.5700851421
 30
0.0
  0
VERTEX
  5
36A
330
25F
100
AcDbEntity
  8
0
  6
CONTINUOUS
 62
     7
100
AcDbVertex
100
AcDb2dVertex
 10
9.6439977396
 20
6.6224014176
 30
0.0
  0
VERTEX
  5
36B
330
25F
100
AcDbEntity
  8
0
  6
CONTINUOUS
 62
     7
100
AcDbVertex
100
AcDb2dVertex
 10
9.6563201483
 20
6.6743882873
 30
0.0
  0
VERTEX
  5
36C
330
25F
100
AcDbEntity
  8
0
  6
CONTINUOUS
 62
     7
100
AcDbVertex
100
AcDb2dVertex
 10
9.6667937005
 20
6.7259297481
 30
0.0
  0
VERTEX
  5
36D
330
25F
100
AcDbEntity
  8
0
  6
CONTINUOUS
 62
     7
100
AcDbVertex
100
AcDb2dVertex
 10
9.6753950256
 20
6.7769107909
 30
0.0
  0
VERTEX
  5
36E
330
25F
100
AcDbEntity
  8
0
  6
CONTINUOUS
 62
     7
100
AcDbVertex
100
AcDb2dVertex
 10
9.6821049307
 20
6.827217657
 30
0.0
  0
VERTEX
  5
36F
330
25F
100
AcDbEntity
  8
0
  6
CONTINUOUS
 62
     7
100
AcDbVertex
100
AcDb2dVertex
 10
9.6869084433
 20
6.8767380921
 30
0.0
  0
VERTEX
  5
370
330
25F
100
AcDbEntity
  8
0
  6
CONTINUOUS
 62
     7
100
AcDbVertex
100
AcDb2dVertex
 10
9.689794845
 20
6.9253615968
 30
0.0
  0
VERTEX
  5
371
330
25F
100
AcDbEntity
  8
0
  6
CONTINUOUS
 62
     7
100
AcDbVertex
100
AcDb2dVertex
 10
9.6907576951
 20
6.972979673
 30
0.0
  0
SEQEND
  5
372
330
25F
100
AcDbEntity
  8
0
  6
CONTINUOUS
 62
     7
  0
POLYLINE
  5
260
330
1F
100
AcDbEntity
  8
0
  6
CONTINUOUS
 62
     7
100
AcDb2dPolyline
 66
     1
 10
0.0
 20
0.0
 30
0.0
  0
VERTEX
  5
373
330
260
100
AcDbEntity
  8
0
  6
CONTINUOUS
 62
     7
100
AcDbVertex
100
AcDb2dVertex
 10
8.8139764558
 20
5.4702564807
 30
0.0
  0
VERTEX
  5
374
330
260
100
AcDbEntity
  8
0
  6
CONTINUOUS
 62
     7
100
AcDbVertex
100
AcDb2dVertex
 10
8.7932765811
 20
5.4585849724
 30
0.0
  0
VERTEX
  5
375
330
260
100
AcDbEntity
  8
0
  6
CONTINUOUS
 62
     7
100
AcDbVertex
100
AcDb2dVertex
 10
8.7522070709
 20
5.4371014378
 30
0.0
  0
VERTEX
  5
376
330
260
100
AcDbEntity
  8
0
  6
CONTINUOUS
 62
     7
100
AcDbVertex
100
AcDb2dVertex
 10
8.7112730298
 20
5.417916605
 30
0.0
  0
VERTEX
  5
377
330
260
100
AcDbEntity
  8
0
  6
CONTINUOUS
 62
     7
100
AcDbVertex
100
AcDb2dVertex
 10
8.6705644399
 20
5.4010726464
 30
0.0
  0
VERTEX
  5
378
330
260
100
AcDbEntity
  8
0
  6
CONTINUOUS
 62
     7
100
AcDbVertex
100
AcDb2dVertex
 10
8.6301707874
 20
5.3866065887
 30
0.0
  0
VERTEX
  5
379
330
260
100
AcDbEntity
  8
0
  6
CONTINUOUS
 62
     7
100
AcDbVertex
100
AcDb2dVertex
 10
8.5901808664
 20
5.3745502315
 30
0.0
  0
VERTEX
  5
37A
330
260
100
AcDbEntity
  8
0
  6
CONTINUOUS
 62
     7
100
AcDbVertex
100
AcDb2dVertex
 10
8.5506825834
 20
5.3649300772
 30
0.0
  0
VERTEX
  5
37B
330
260
100
AcDbEntity
  8
0
  6
CONTINUOUS
 62
     7
100
AcDbVertex
100
AcDb2dVertex
 10
8.5117627641
 20
5.3577672731
 30
0.0
  0
VERTEX
  5
37C
330
260
100
AcDbEntity
  8
0
  6
CONTINUOUS
 62
     7
100
AcDbVertex
100
AcDb2dVertex
 10
8.4735069628
 20
5.3530775644
 30
0.0
  0
VERTEX
  5
37D
330
260
100
AcDbEntity
  8
0
  6
CONTINUOUS
 62
     7
100
AcDbVertex
100
AcDb2dVertex
 10
8.435999274
 20
5.3508712603
 30
0.0
  0
VERTEX
  5
37E
330
260
100
AcDbEntity
  8
0
  6
CONTINUOUS
 62
     7
100
AcDbVertex
100
AcDb2dVertex
 10
8.3993221478
 20
5.3511532107
 30
0.0
  0
VERTEX
  5
37F
330
260
100
AcDbEntity
  8
0
  6
CONTINUOUS
 62
     7
100
AcDbVertex
100
AcDb2dVertex
 10
8.3635562085
 20
5.3539227957
 30
0.0
  0
VERTEX
  5
380
330
260
100
AcDbEntity
  8
0
  6
CONTINUOUS
 62
     7
100
AcDbVertex
100
AcDb2dVertex
 10
8.3287800773
 20
5.3591739272
 30
0.0
  0
VERTEX
  5
381
330
260
100
AcDbEntity
  8
0
  6
CONTINUOUS
 62
     7
100
AcDbVertex
100
AcDb2dVertex
 10
8.2950701998
 20
5.3668950621
 30
0.0
  0
VERTEX
  5
382
330
260
100
AcDbEntity
  8
0
  6
CONTINUOUS
 62
     7
100
AcDbVertex
100
AcDb2dVertex
 10
8.2625006775
 20
5.3770692277
 30
0.0
  0
VERTEX
  5
383
330
260
100
AcDbEntity
  8
0
  6
CONTINUOUS
 62
     7
100
AcDbVertex
100
AcDb2dVertex
 10
8.2311431054
 20
5.3896740589
 30
0.0
  0
VERTEX
  5
384
330
260
100
AcDbEntity
  8
0
  6
CONTINUOUS
 62
     7
100
AcDbVertex
100
AcDb2dVertex
 10
8.2010664142
 20
5.4046818476
 30
0.0
  0
VERTEX
  5
385
330
260
100
AcDbEntity
  8
0
  6
CONTINUOUS
 62
     7
100
AcDbVertex
100
AcDb2dVertex
 10
8.172336719
 20
5.4220596034
 30
0.0
  0
VERTEX
  5
386
330
260
100
AcDbEntity
  8
0
  6
CONTINUOUS
 62
     7
100
AcDbVertex
100
AcDb2dVertex
 10
8.1450171738
 20
5.4417691262
 30
0.0
  0
VERTEX
  5
387
330
260
100
AcDbEntity
  8
0
  6
CONTINUOUS
 62
     7
100
AcDbVertex
100
AcDb2dVertex
 10
8.1191678331
 20
5.4637670903
 30
0.0
  0
VERTEX
  5
388
330
260
100
AcDbEntity
  8
0
  6
CONTINUOUS
 62
     7
100
AcDbVertex
100
AcDb2dVertex
 10
8.0948455192
 20
5.4880051393
 30
0.0
  0
VERTEX
  5
389
330
260
100
AcDbEntity
  8
0
  6
CONTINUOUS
 62
     7
100
AcDbVertex
100
AcDb2dVertex
 10
8.0721036978
 20
5.5144299926
 30
0.0
  0
VERTEX
  5
38A
330
260
100
AcDbEntity
  8
0
  6
CONTINUOUS
 62
     7
100
AcDbVertex
100
AcDb2dVertex
 10
8.0509923605
 20
5.5429835629
 30
0.0
  0
VERTEX
  5
38B
330
260
100
AcDbEntity
  8
0
  6
CONTINUOUS
 62
     7
100
AcDbVertex
100
AcDb2dVertex
 10
8.0315579146
 20
5.5736030831
 30
0.0
  0
VERTEX
  5
38C
330
260
100
AcDbEntity
  8
0
  6
CONTINUOUS
 62
     7
100
AcDbVertex
100
AcDb2dVertex
 10
8.0138430811
 20
5.6062212448
 30
0.0
  0
VERTEX
  5
38D
330
260
100
AcDbEntity
  8
0
  6
CONTINUOUS
 62
     7
100
AcDbVertex
100
AcDb2dVertex
 10
7.997886801
 20
5.6407663463
 30
0.0
  0
VERTEX
  5
38E
330
260
100
AcDbEntity
  8
0
  6
CONTINUOUS
 62
     7
100
AcDbVertex
100
AcDb2dVertex
 10
7.9837241499
 20
5.67716245
 30
0.0
  0
VERTEX
  5
38F
330
260
100
AcDbEntity
  8
0
  6
CONTINUOUS
 62
     7
100
AcDbVertex
100
AcDb2dVertex
 10
7.9713862602
 20
5.7153295492
 30
0.0
  0
VERTEX
  5
390
330
260
100
AcDbEntity
  8
0
  6
CONTINUOUS
 62
     7
100
AcDbVertex
100
AcDb2dVertex
 10
7.9609002534
 20
5.7551837445
 30
0.0
  0
VERTEX
  5
391
330
260
100
AcDbEntity
  8
0
  6
CONTINUOUS
 62
     7
100
AcDbVertex
100
AcDb2dVertex
 10
7.9522891799
 20
5.7966374277
 30
0.0
  0
VERTEX
  5
392
330
260
100
AcDbEntity
  8
0
  6
CONTINUOUS
 62
     7
100
AcDbVertex
100
AcDb2dVertex
 10
7.9455719687
 20
5.8395994746
 30
0.0
  0
VERTEX
  5
393
330
260
100
AcDbEntity
  8
0
  6
CONTINUOUS
 62
     7
100
AcDbVertex
100
AcDb2dVertex
 10
7.9407633857
 20
5.8839754452
 30
0.0
  0
VERTEX
  5
394
330
260
100
AcDbEntity
  8
0
  6
CONTINUOUS
 62
     7
100
AcDbVertex
100
AcDb2dVertex
 10
7.9378740013
 20
5.9296677915
 30
0.0
  0
VERTEX
  5
395
330
260
100
AcDbEntity
  8
0
  6
CONTINUOUS
 62
     7
100
AcDbVertex
100
AcDb2dVertex
 10
7.9369101669
 20
5.976576072
 30
0.0
  0
VERTEX
  5
396
330
260
100
AcDbEntity
  8
0
  6
CONTINUOUS
 62
     7
100
AcDbVertex
100
AcDb2dVertex
 10
7.9378740013
 20
6.0245971719
 30
0.0
  0
VERTEX
  5
397
330
260
100
AcDbEntity
  8
0
  6
CONTINUOUS
 62
     7
100
AcDbVertex
100
AcDb2dVertex
 10
7.9407633857
 20
6.0736255305
 30
0.0
  0
VERTEX
  5
398
330
260
100
AcDbEntity
  8
0
  6
CONTINUOUS
 62
     7
100
AcDbVertex
100
AcDb2dVertex
 10
7.9455719687
 20
6.1235533728
 30
0.0
  0
VERTEX
  5
399
330
260
100
AcDbEntity
  8
0
  6
CONTINUOUS
 62
     7
100
AcDbVertex
100
AcDb2dVertex
 10
7.9522891799
 20
6.1742709466
 30
0.0
  0
VERTEX
  5
39A
330
260
100
AcDbEntity
  8
0
  6
CONTINUOUS
 62
     7
100
AcDbVertex
100
AcDb2dVertex
 10
7.9609002534
 20
6.2256667636
 30
0.0
  0
VERTEX
  5
39B
330
260
100
AcDbEntity
  8
0
  6
CONTINUOUS
 62
     7
100
AcDbVertex
100
AcDb2dVertex
 10
7.9713862602
 20
6.2776278447
 30
0.0
  0
VERTEX
  5
39C
330
260
100
AcDbEntity
  8
0
  6
CONTINUOUS
 62
     7
100
AcDbVertex
100
AcDb2dVertex
 10
7.9837241499
 20
6.3300399682
 30
0.0
  0
VERTEX
  5
39D
330
260
100
AcDbEntity
  8
0
  6
CONTINUOUS
 62
     7
100
AcDbVertex
100
AcDb2dVertex
 10
7.997886801
 20
6.3827879208
 30
0.0
  0
VERTEX
  5
39E
330
260
100
AcDbEntity
  8
0
  6
CONTINUOUS
 62
     7
100
AcDbVertex
100
AcDb2dVertex
 10
8.0138430811
 20
6.4357557511
 30
0.0
  0
VERTEX
  5
39F
330
260
100
AcDbEntity
  8
0
  6
CONTINUOUS
 62
     7
100
AcDbVertex
100
AcDb2dVertex
 10
8.0315579146
 20
6.4888270242
 30
0.0
  0
VERTEX
  5
3A0
330
260
100
AcDbEntity
  8
0
  6
CONTINUOUS
 62
     7
100
AcDbVertex
100
AcDb2dVertex
 10
8.0509923605
 20
6.5418850781
 30
0.0
  0
VERTEX
  5
3A1
330
260
100
AcDbEntity
  8
0
  6
CONTINUOUS
 62
     7
100
AcDbVertex
100
AcDb2dVertex
 10
8.0721036978
 20
6.5948132796
 30
0.0
  0
VERTEX
  5
3A2
330
260
100
AcDbEntity
  8
0
  6
CONTINUOUS
 62
     7
100
AcDbVertex
100
AcDb2dVertex
 10
8.0948455192
 20
6.647495281
 30
0.0
  0
VERTEX
  5
3A3
330
260
100
AcDbEntity
  8
0
  6
CONTINUOUS
 62
     7
100
AcDbVertex
100
AcDb2dVertex
 10
8.1191678331
 20
6.6998152758
 30
0.0
  0
VERTEX
  5
3A4
330
260
100
AcDbEntity
  8
0
  6
CONTINUOUS
 62
     7
100
AcDbVertex
100
AcDb2dVertex
 10
8.1450171738
 20
6.7516582534
 30
0.0
  0
VERTEX
  5
3A5
330
260
100
AcDbEntity
  8
0
  6
CONTINUOUS
 62
     7
100
AcDbVertex
100
AcDb2dVertex
 10
8.172336719
 20
6.8029102517
 30
0.0
  0
VERTEX
  5
3A6
330
260
100
AcDbEntity
  8
0
  6
CONTINUOUS
 62
     7
100
AcDbVertex
100
AcDb2dVertex
 10
8.2010664142
 20
6.8534586075
 30
0.0
  0
VERTEX
  5
3A7
330
260
100
AcDbEntity
  8
0
  6
CONTINUOUS
 62
     7
100
AcDbVertex
100
AcDb2dVertex
 10
8.2311431054
 20
6.9031922048
 30
0.0
  0
VERTEX
  5
3A8
330
260
100
AcDbEntity
  8
0
  6
CONTINUOUS
 62
     7
100
AcDbVertex
100
AcDb2dVertex
 10
8.2625006775
 20
6.9520017181
 30
0.0
  0
VERTEX
  5
3A9
330
260
100
AcDbEntity
  8
0
  6
CONTINUOUS
 62
     7
100
AcDbVertex
100
AcDb2dVertex
 10
8.2950701998
 20
6.9997798537
 30
0.0
  0
VERTEX
  5
3AA
330
260
100
AcDbEntity
  8
0
  6
CONTINUOUS
 62
     7
100
AcDbVertex
100
AcDb2dVertex
 10
8.3287800773
 20
7.0464215847
 30
0.0
  0
VERTEX
  5
3AB
330
260
100
AcDbEntity
  8
0
  6
CONTINUOUS
 62
     7
100
AcDbVertex
100
AcDb2dVertex
 10
8.3635562085
 20
7.0918243826
 30
0.0
  0
VERTEX
  5
3AC
330
260
100
AcDbEntity
  8
0
  6
CONTINUOUS
 62
     7
100
AcDbVertex
100
AcDb2dVertex
 10
8.3993221478
 20
7.1358884422
 30
0.0
  0
VERTEX
  5
3AD
330
260
100
AcDbEntity
  8
0
  6
CONTINUOUS
 62
     7
100
AcDbVertex
100
AcDb2dVertex
 10
8.435999274
 20
7.1785169011
 30
0.0
  0
VERTEX
  5
3AE
330
260
100
AcDbEntity
  8
0
  6
CONTINUOUS
 62
     7
100
AcDbVertex
100
AcDb2dVertex
 10
8.4735069628
 20
7.2196160526
 30
0.0
  0
VERTEX
  5
3AF
330
260
100
AcDbEntity
  8
0
  6
CONTINUOUS
 62
     7
100
AcDbVertex
100
AcDb2dVertex
 10
8.5117627641
 20
7.259095552
 30
0.0
  0
VERTEX
  5
3B0
330
260
100
AcDbEntity
  8
0
  6
CONTINUOUS
 62
     7
100
AcDbVertex
100
AcDb2dVertex
 10
8.5506825834
 20
7.2968686147
 30
0.0
  0
VERTEX
  5
3B1
330
260
100
AcDbEntity
  8
0
  6
CONTINUOUS
 62
     7
100
AcDbVertex
100
AcDb2dVertex
 10
8.5901808664
 20
7.3328522074
 30
0.0
  0
VERTEX
  5
3B2
330
260
100
AcDbEntity
  8
0
  6
CONTINUOUS
 62
     7
100
AcDbVertex
100
AcDb2dVertex
 10
8.6301707874
 20
7.3669672302
 30
0.0
  0
VERTEX
  5
3B3
330
260
100
AcDbEntity
  8
0
  6
CONTINUOUS
 62
     7
100
AcDbVertex
100
AcDb2dVertex
 10
8.6705644399
 20
7.399138691
 30
0.0
  0
VERTEX
  5
3B4
330
260
100
AcDbEntity
  8
0
  6
CONTINUOUS
 62
     7
100
AcDbVertex
100
AcDb2dVertex
 10
8.7112730298
 20
7.4292958699
 30
0.0
  0
VERTEX
  5
3B5
330
260
100
AcDbEntity
  8
0
  6
CONTINUOUS
 62
     7
100
AcDbVertex
100
AcDb2dVertex
 10
8.7522070709
 20
7.4573724748
 30
0.0
  0
VERTEX
  5
3B6
330
260
100
AcDbEntity
  8
0
  6
CONTINUOUS
 62
     7
100
AcDbVertex
100
AcDb2dVertex
 10
8.7932765811
 20
7.4833067874
 30
0.0
  0
VERTEX
  5
3B7
330
260
100
AcDbEntity
  8
0
  6
CONTINUOUS
 62
     7
100
AcDbVertex
100
AcDb2dVertex
 10
8.8343912809
 20
7.5070417984
 30
0.0
  0
VERTEX
  5
3B8
330
260
100
AcDbEntity
  8
0
  6
CONTINUOUS
 62
     7
100
AcDbVertex
100
AcDb2dVertex
 10
8.8754607912
 20
7.528525333
 30
0.0
  0
VERTEX
  5
3B9
330
260
100
AcDbEntity
  8
0
  6
CONTINUOUS
 62
     7
100
AcDbVertex
100
AcDb2dVertex
 10
8.9163948322
 20
7.5477101658
 30
0.0
  0
VERTEX
  5
3BA
330
260
100
AcDbEntity
  8
0
  6
CONTINUOUS
 62
     7
100
AcDbVertex
100
AcDb2dVertex
 10
8.9571034221
 20
7.5645541244
 30
0.0
  0
VERTEX
  5
3BB
330
260
100
AcDbEntity
  8
0
  6
CONTINUOUS
 62
     7
100
AcDbVertex
100
AcDb2dVertex
 10
8.9974970746
 20
7.5790201821
 30
0.0
  0
VERTEX
  5
3BC
330
260
100
AcDbEntity
  8
0
  6
CONTINUOUS
 62
     7
100
AcDbVertex
100
AcDb2dVertex
 10
9.0374869956
 20
7.5910765393
 30
0.0
  0
VERTEX
  5
3BD
330
260
100
AcDbEntity
  8
0
  6
CONTINUOUS
 62
     7
100
AcDbVertex
100
AcDb2dVertex
 10
9.0769852787
 20
7.6006966936
 30
0.0
  0
VERTEX
  5
3BE
330
260
100
AcDbEntity
  8
0
  6
CONTINUOUS
 62
     7
100
AcDbVertex
100
AcDb2dVertex
 10
9.115905098
 20
7.6078594977
 30
0.0
  0
VERTEX
  5
3BF
330
260
100
AcDbEntity
  8
0
  6
CONTINUOUS
 62
     7
100
AcDbVertex
100
AcDb2dVertex
 10
9.1541608993
 20
7.6125492064
 30
0.0
  0
VERTEX
  5
3C0
330
260
100
AcDbEntity
  8
0
  6
CONTINUOUS
 62
     7
100
AcDbVertex
100
AcDb2dVertex
 10
9.191668588
 20
7.6147555105
 30
0.0
  0
VERTEX
  5
3C1
330
260
100
AcDbEntity
  8
0
  6
CONTINUOUS
 62
     7
100
AcDbVertex
100
AcDb2dVertex
 10
9.2283457142
 20
7.6144735601
 30
0.0
  0
VERTEX
  5
3C2
330
260
100
AcDbEntity
  8
0
  6
CONTINUOUS
 62
     7
100
AcDbVertex
100
AcDb2dVertex
 10
9.2641116535
 20
7.6117039751
 30
0.0
  0
VERTEX
  5
3C3
330
260
100
AcDbEntity
  8
0
  6
CONTINUOUS
 62
     7
100
AcDbVertex
100
AcDb2dVertex
 10
9.2988877847
 20
7.6064528436
 30
0.0
  0
VERTEX
  5
3C4
330
260
100
AcDbEntity
  8
0
  6
CONTINUOUS
 62
     7
100
AcDbVertex
100
AcDb2dVertex
 10
9.3325976622
 20
7.5987317087
 30
0.0
  0
VERTEX
  5
3C5
330
260
100
AcDbEntity
  8
0
  6
CONTINUOUS
 62
     7
100
AcDbVertex
100
AcDb2dVertex
 10
9.3651671845
 20
7.5885575431
 30
0.0
  0
VERTEX
  5
3C6
330
260
100
AcDbEntity
  8
0
  6
CONTINUOUS
 62
     7
100
AcDbVertex
100
AcDb2dVertex
 10
9.3965247566
 20
7.5759527119
 30
0.0
  0
VERTEX
  5
3C7
330
260
100
AcDbEntity
  8
0
  6
CONTINUOUS
 62
     7
100
AcDbVertex
100
AcDb2dVertex
 10
9.4266014478
 20
7.5609449232
 30
0.0
  0
VERTEX
  5
3C8
330
260
100
AcDbEntity
  8
0
  6
CONTINUOUS
 62
     7
100
AcDbVertex
100
AcDb2dVertex
 10
9.4553311431
 20
7.5435671674
 30
0.0
  0
VERTEX
  5
3C9
330
260
100
AcDbEntity
  8
0
  6
CONTINUOUS
 62
     7
100
AcDbVertex
100
AcDb2dVertex
 10
9.4826506882
 20
7.5238576446
 30
0.0
  0
VERTEX
  5
3CA
330
260
100
AcDbEntity
  8
0
  6
CONTINUOUS
 62
     7
100
AcDbVertex
100
AcDb2dVertex
 10
9.508500029
 20
7.5018596805
 30
0.0
  0
VERTEX
  5
3CB
330
260
100
AcDbEntity
  8
0
  6
CONTINUOUS
 62
     7
100
AcDbVertex
100
AcDb2dVertex
 10
9.5328223429
 20
7.4776216316
 30
0.0
  0
VERTEX
  5
3CC
330
260
100
AcDbEntity
  8
0
  6
CONTINUOUS
 62
     7
100
AcDbVertex
100
AcDb2dVertex
 10
9.5555641642
 20
7.4511967782
 30
0.0
  0
VERTEX
  5
3CD
330
260
100
AcDbEntity
  8
0
  6
CONTINUOUS
 62
     7
100
AcDbVertex
100
AcDb2dVertex
 10
9.5766755015
 20
7.4226432079
 30
0.0
  0
VERTEX
  5
3CE
330
260
100
AcDbEntity
  8
0
  6
CONTINUOUS
 62
     7
100
AcDbVertex
100
AcDb2dVertex
 10
9.5961099475
 20
7.3920236877
 30
0.0
  0
VERTEX
  5
3CF
330
260
100
AcDbEntity
  8
0
  6
CONTINUOUS
 62
     7
100
AcDbVertex
100
AcDb2dVertex
 10
9.613824781
 20
7.359405526
 30
0.0
  0
VERTEX
  5
3D0
330
260
100
AcDbEntity
  8
0
  6
CONTINUOUS
 62
     7
100
AcDbVertex
100
AcDb2dVertex
 10
9.629781061
 20
7.3248604245
 30
0.0
  0
VERTEX
  5
3D1
330
260
100
AcDbEntity
  8
0
  6
CONTINUOUS
 62
     7
100
AcDbVertex
100
AcDb2dVertex
 10
9.6439437121
 20
7.2884643208
 30
0.0
  0
VERTEX
  5
3D2
330
260
100
AcDbEntity
  8
0
  6
CONTINUOUS
 62
     7
100
AcDbVertex
100
AcDb2dVertex
 10
9.6562816018
 20
7.2502972216
 30
0.0
  0
VERTEX
  5
3D3
330
260
100
AcDbEntity
  8
0
  6
CONTINUOUS
 62
     7
100
AcDbVertex
100
AcDb2dVertex
 10
9.6667676087
 20
7.2104430263
 30
0.0
  0
VERTEX
  5
3D4
330
260
100
AcDbEntity
  8
0
  6
CONTINUOUS
 62
     7
100
AcDbVertex
100
AcDb2dVertex
 10
9.6753786822
 20
7.1689893431
 30
0.0
  0
VERTEX
  5
3D5
330
260
100
AcDbEntity
  8
0
  6
CONTINUOUS
 62
     7
100
AcDbVertex
100
AcDb2dVertex
 10
9.6820958934
 20
7.1260272963
 30
0.0
  0
VERTEX
  5
3D6
330
260
100
AcDbEntity
  8
0
  6
CONTINUOUS
 62
     7
100
AcDbVertex
100
AcDb2dVertex
 10
9.6869044763
 20
7.0816513256
 30
0.0
  0
VERTEX
  5
3D7
330
260
100
AcDbEntity
  8
0
  6
CONTINUOUS
 62
     7
100
AcDbVertex
100
AcDb2dVertex
 10
9.6897938607
 20
7.0359589793
 30
0.0
  0
VERTEX
  5
3D8
330
260
100
AcDbEntity
  8
0
  6
CONTINUOUS
 62
     7
100
AcDbVertex
100
AcDb2dVertex
 10
9.6907576951
 20
6.9890506988
 30
0.0
  0
VERTEX
  5
3D9
330
260
100
AcDbEntity
  8
0
  6
CONTINUOUS
 62
     7
100
AcDbVertex
100
AcDb2dVertex
 10
9.6907576951
 20
6.9890506988
 30
0.0
  0
SEQEND
  5
3DA
330
260
100
AcDbEntity
  8
0
  6
CONTINUOUS
 62
     7
  0
POLYLINE
  5
261
330
1F
100
AcDbEntity
  8
0
  6
CONTINUOUS
 62
     7
100
AcDb2dPolyline
 66
     1
 10
0.0
 20
0.0
 30
0.0
  0
VERTEX
  5
3DB
330
261
100
AcDbEntity
  8
0
  6
CONTINUOUS
 62
     7
100
AcDbVertex
100
AcDb2dVertex
 10
8.1874598138
 20
7.3489451599
 30
0.0
  0
VERTEX
  5
3DC
330
261
100
AcDbEntity
  8
0
  6
CONTINUOUS
 62
     7
100
AcDbVertex
100
AcDb2dVertex
 10
8.1505265066
 20
7.3070857205
 30
0.0
  0
VERTEX
  5
3DD
330
261
100
AcDbEntity
  8
0
  6
CONTINUOUS
 62
     7
100
AcDbVertex
100
AcDb2dVertex
 10
8.1144647371
 20
7.2637587125
 30
0.0
  0
VERTEX
  5
3DE
330
261
100
AcDbEntity
  8
0
  6
CONTINUOUS
 62
     7
100
AcDbVertex
100
AcDb2dVertex
 10
8.0793533071
 20
7.2190588138
 30
0.0
  0
VERTEX
  5
3DF
330
261
100
AcDbEntity
  8
0
  6
CONTINUOUS
 62
     7
100
AcDbVertex
100
AcDb2dVertex
 10
8.0452689419
 20
7.173083702
 30
0.0
  0
VERTEX
  5
3E0
330
261
100
AcDbEntity
  8
0
  6
CONTINUOUS
 62
     7
100
AcDbVertex
100
AcDb2dVertex
 10
8.0122861222
 20
7.1259338416
 30
0.0
  0
VERTEX
  5
3E1
330
261
100
AcDbEntity
  8
0
  6
CONTINUOUS
 62
     7
100
AcDbVertex
100
AcDb2dVertex
 10
7.9804769217
 20
7.0777122639
 30
0.0
  0
VERTEX
  5
3E2
330
261
100
AcDbEntity
  8
0
  6
CONTINUOUS
 62
     7
100
AcDbVertex
100
AcDb2dVertex
 10
7.9499108497
 20
7.0285243423
 30
0.0
  0
VERTEX
  5
3E3
330
261
100
AcDbEntity
  8
0
  6
CONTINUOUS
 62
     7
100
AcDbVertex
100
AcDb2dVertex
 10
7.9206546988
 20
6.9784775618
 30
0.0
  0
VERTEX
  5
3E4
330
261
100
AcDbEntity
  8
0
  6
CONTINUOUS
 62
     7
100
AcDbVertex
100
AcDb2dVertex
 10
7.8927723993
 20
6.9276812841
 30
0.0
  0
VERTEX
  5
3E5
330
261
100
AcDbEntity
  8
0
  6
CONTINUOUS
 62
     7
100
AcDbVertex
100
AcDb2dVertex
 10
7.8663248793
 20
6.8762465088
 30
0.0
  0
VERTEX
  5
3E6
330
261
100
AcDbEntity
  8
0
  6
CONTINUOUS
 62
     7
100
AcDbVertex
100
AcDb2dVertex
 10
7.8413699316
 20
6.8242856305
 30
0.0
  0
VERTEX
  5
3E7
330
261
100
AcDbEntity
  8
0
  6
CONTINUOUS
 62
     7
100
AcDbVertex
100
AcDb2dVertex
 10
7.8179620876
 20
6.7719121938
 30
0.0
  0
VERTEX
  5
3E8
330
261
100
AcDbEntity
  8
0
  6
CONTINUOUS
 62
     7
100
AcDbVertex
100
AcDb2dVertex
 10
7.7961524979
 20
6.7192406446
 30
0.0
  0
VERTEX
  5
3E9
330
261
100
AcDbEntity
  8
0
  6
CONTINUOUS
 62
     7
100
AcDbVertex
100
AcDb2dVertex
 10
7.7759888206
 20
6.6663860801
 30
0.0
  0
VERTEX
  5
3EA
330
261
100
AcDbEntity
  8
0
  6
CONTINUOUS
 62
     7
100
AcDbVertex
100
AcDb2dVertex
 10
7.7575151171
 20
6.6134639978
 30
0.0
  0
VERTEX
  5
3EB
330
261
100
AcDbEntity
  8
0
  6
CONTINUOUS
 62
     7
100
AcDbVertex
100
AcDb2dVertex
 10
7.7407717561
 20
6.5605900424
 30
0.0
  0
VERTEX
  5
3EC
330
261
100
AcDbEntity
  8
0
  6
CONTINUOUS
 62
     7
100
AcDbVertex
100
AcDb2dVertex
 10
7.7257953248
 20
6.5078797535
 30
0.0
  0
VERTEX
  5
3ED
330
261
100
AcDbEntity
  8
0
  6
CONTINUOUS
 62
     7
100
AcDbVertex
100
AcDb2dVertex
 10
7.7126185498
 20
6.4554483133
 30
0.0
  0
VERTEX
  5
3EE
330
261
100
AcDbEntity
  8
0
  6
CONTINUOUS
 62
     7
100
AcDbVertex
100
AcDb2dVertex
 10
7.7012702248
 20
6.4034102943
 30
0.0
  0
VERTEX
  5
3EF
330
261
100
AcDbEntity
  8
0
  6
CONTINUOUS
 62
     7
100
AcDbVertex
100
AcDb2dVertex
 10
7.6917751479
 20
6.3518794096
 30
0.0
  0
VERTEX
  5
3F0
330
261
100
AcDbEntity
  8
0
  6
CONTINUOUS
 62
     7
100
AcDbVertex
100
AcDb2dVertex
 10
7.6841540678
 20
6.3009682639
 30
0.0
  0
VERTEX
  5
3F1
330
261
100
AcDbEntity
  8
0
  6
CONTINUOUS
 62
     7
100
AcDbVertex
100
AcDb2dVertex
 10
7.678423638
 20
6.2507881078
 30
0.0
  0
VERTEX
  5
3F2
330
261
100
AcDbEntity
  8
0
  6
CONTINUOUS
 62
     7
100
AcDbVertex
100
AcDb2dVertex
 10
7.6745963805
 20
6.2014485944
 30
0.0
  0
VERTEX
  5
3F3
330
261
100
AcDbEntity
  8
0
  6
CONTINUOUS
 62
     7
100
AcDbVertex
100
AcDb2dVertex
 10
7.6726806586
 20
6.1530575401
 30
0.0
  0
VERTEX
  5
3F4
330
261
100
AcDbEntity
  8
0
  6
CONTINUOUS
 62
     7
100
AcDbVertex
100
AcDb2dVertex
 10
7.6726806586
 20
6.1057206885
 30
0.0
  0
VERTEX
  5
3F5
330
261
100
AcDbEntity
  8
0
  6
CONTINUOUS
 62
     7
100
AcDbVertex
100
AcDb2dVertex
 10
7.6745963805
 20
6.0595414795
 30
0.0
  0
VERTEX
  5
3F6
330
261
100
AcDbEntity
  8
0
  6
CONTINUOUS
 62
     7
100
AcDbVertex
100
AcDb2dVertex
 10
7.678423638
 20
6.0146208236
 30
0.0
  0
VERTEX
  5
3F7
330
261
100
AcDbEntity
  8
0
  6
CONTINUOUS
 62
     7
100
AcDbVertex
100
AcDb2dVertex
 10
7.6841540678
 20
5.971056881
 30
0.0
  0
VERTEX
  5
3F8
330
261
100
AcDbEntity
  8
0
  6
CONTINUOUS
 62
     7
100
AcDbVertex
100
AcDb2dVertex
 10
7.6917751479
 20
5.9289448471
 30
0.0
  0
VERTEX
  5
3F9
330
261
100
AcDbEntity
  8
0
  6
CONTINUOUS
 62
     7
100
AcDbVertex
100
AcDb2dVertex
 10
7.7012702248
 20
5.8883767447
 30
0.0
  0
VERTEX
  5
3FA
330
261
100
AcDbEntity
  8
0
  6
CONTINUOUS
 62
     7
100
AcDbVertex
100
AcDb2dVertex
 10
7.7126185498
 20
5.849441223
 30
0.0
  0
VERTEX
  5
3FB
330
261
100
AcDbEntity
  8
0
  6
CONTINUOUS
 62
     7
100
AcDbVertex
100
AcDb2dVertex
 10
7.7257953248
 20
5.8122233633
 30
0.0
  0
VERTEX
  5
3FC
330
261
100
AcDbEntity
  8
0
  6
CONTINUOUS
 62
     7
100
AcDbVertex
100
AcDb2dVertex
 10
7.7407717561
 20
5.7768044939
 30
0.0
  0
VERTEX
  5
3FD
330
261
100
AcDbEntity
  8
0
  6
CONTINUOUS
 62
     7
100
AcDbVertex
100
AcDb2dVertex
 10
7.7575151171
 20
5.7432620117
 30
0.0
  0
VERTEX
  5
3FE
330
261
100
AcDbEntity
  8
0
  6
CONTINUOUS
 62
     7
100
AcDbVertex
100
AcDb2dVertex
 10
7.7759888206
 20
5.7116692134
 30
0.0
  0
VERTEX
  5
3FF
330
261
100
AcDbEntity
  8
0
  6
CONTINUOUS
 62
     7
100
AcDbVertex
100
AcDb2dVertex
 10
7.7961524979
 20
5.6820951352
 30
0.0
  0
VERTEX
  5
400
330
261
100
AcDbEntity
  8
0
  6
CONTINUOUS
 62
     7
100
AcDbVertex
100
AcDb2dVertex
 10
7.8179620876
 20
5.6546044022
 30
0.0
  0
VERTEX
  5
401
330
261
100
AcDbEntity
  8
0
  6
CONTINUOUS
 62
     7
100
AcDbVertex
100
AcDb2dVertex
 10
7.8413699316
 20
5.6292570869
 30
0.0
  0
VERTEX
  5
402
330
261
100
AcDbEntity
  8
0
  6
CONTINUOUS
 62
     7
100
AcDbVertex
100
AcDb2dVertex
 10
7.8663248793
 20
5.606108578
 30
0.0
  0
VERTEX
  5
403
330
261
100
AcDbEntity
  8
0
  6
CONTINUOUS
 62
     7
100
AcDbVertex
100
AcDb2dVertex
 10
7.8927723993
 20
5.5852094593
 30
0.0
  0
VERTEX
  5
404
330
261
100
AcDbEntity
  8
0
  6
CONTINUOUS
 62
     7
100
AcDbVertex
100
AcDb2dVertex
 10
7.9206546988
 20
5.5666053994
 30
0.0
  0
VERTEX
  5
405
330
261
100
AcDbEntity
  8
0
  6
CONTINUOUS
 62
     7
100
AcDbVertex
100
AcDb2dVertex
 10
7.9293365113
 20
5.5614511557
 30
0.0
  0
SEQEND
  5
406
330
261
100
AcDbEntity
  8
0
  6
CONTINUOUS
 62
     7
  0
LINE
  5
262
330
1F
100
AcDbEntity
  8
0
  6
CONTINUOUS
 62
     7
100
AcDbLine
 10
7.9090713173
 20
7.5096554181
 30
0.0
 11
8.1874598138
 21
7.3489451599
 31
0.0
  0
POLYLINE
  5
263
330
1F
100
AcDbEntity
  8
0
  6
CONTINUOUS
 62
     7
100
AcDb2dPolyline
 66
     1
 10
0.0
 20
0.0
 30
0.0
  0
VERTEX
  5
407
330
263
100
AcDbEntity
  8
0
  6
CONTINUOUS
 62
     7
100
AcDbVertex
100
AcDb2dVertex
 10
8.6328814083
 20
7.9275020895
 30
0.0
  0
VERTEX
  5
408
330
263
100
AcDbEntity
  8
0
  6
CONTINUOUS
 62
     7
100
AcDbVertex
100
AcDb2dVertex
 10
8.594735154
 20
7.9241972343
 30
0.0
  0
VERTEX
  5
409
330
263
100
AcDbEntity
  8
0
  6
CONTINUOUS
 62
     7
100
AcDbVertex
100
AcDb2dVertex
 10
8.5558656631
 20
7.9183725712
 30
0.0
  0
VERTEX
  5
40A
330
263
100
AcDbEntity
  8
0
  6
CONTINUOUS
 62
     7
100
AcDbVertex
100
AcDb2dVertex
 10
8.5163597653
 20
7.9100411117
 30
0.0
  0
VERTEX
  5
40B
330
263
100
AcDbEntity
  8
0
  6
CONTINUOUS
 62
     7
100
AcDbVertex
100
AcDb2dVertex
 10
8.4763057118
 20
7.8992214672
 30
0.0
  0
VERTEX
  5
40C
330
263
100
AcDbEntity
  8
0
  6
CONTINUOUS
 62
     7
100
AcDbVertex
100
AcDb2dVertex
 10
8.4357929782
 20
7.8859378075
 30
0.0
  0
VERTEX
  5
40D
330
263
100
AcDbEntity
  8
0
  6
CONTINUOUS
 62
     7
100
AcDbVertex
100
AcDb2dVertex
 10
8.394912065
 20
7.8702198066
 30
0.0
  0
VERTEX
  5
40E
330
263
100
AcDbEntity
  8
0
  6
CONTINUOUS
 62
     7
100
AcDbVertex
100
AcDb2dVertex
 10
8.353754295
 20
7.8521025766
 30
0.0
  0
VERTEX
  5
40F
330
263
100
AcDbEntity
  8
0
  6
CONTINUOUS
 62
     7
100
AcDbVertex
100
AcDb2dVertex
 10
8.3124116095
 20
7.8316265891
 30
0.0
  0
VERTEX
  5
410
330
263
100
AcDbEntity
  8
0
  6
CONTINUOUS
 62
     7
100
AcDbVertex
100
AcDb2dVertex
 10
8.2709763628
 20
7.8088375848
 30
0.0
  0
VERTEX
  5
411
330
263
100
AcDbEntity
  8
0
  6
CONTINUOUS
 62
     7
100
AcDbVertex
100
AcDb2dVertex
 10
8.2295411161
 20
7.7837864716
 30
0.0
  0
VERTEX
  5
412
330
263
100
AcDbEntity
  8
0
  6
CONTINUOUS
 62
     7
100
AcDbVertex
100
AcDb2dVertex
 10
8.1881984306
 20
7.7565292104
 30
0.0
  0
VERTEX
  5
413
330
263
100
AcDbEntity
  8
0
  6
CONTINUOUS
 62
     7
100
AcDbVertex
100
AcDb2dVertex
 10
8.1470406605
 20
7.7271266906
 30
0.0
  0
VERTEX
  5
414
330
263
100
AcDbEntity
  8
0
  6
CONTINUOUS
 62
     7
100
AcDbVertex
100
AcDb2dVertex
 10
8.1061597473
 20
7.6956445938
 30
0.0
  0
VERTEX
  5
415
330
263
100
AcDbEntity
  8
0
  6
CONTINUOUS
 62
     7
100
AcDbVertex
100
AcDb2dVertex
 10
8.0656470138
 20
7.662153247
 30
0.0
  0
VERTEX
  5
416
330
263
100
AcDbEntity
  8
0
  6
CONTINUOUS
 62
     7
100
AcDbVertex
100
AcDb2dVertex
 10
8.0255929602
 20
7.6267274656
 30
0.0
  0
VERTEX
  5
417
330
263
100
AcDbEntity
  8
0
  6
CONTINUOUS
 62
     7
100
AcDbVertex
100
AcDb2dVertex
 10
7.9860870624
 20
7.5894463864
 30
0.0
  0
VERTEX
  5
418
330
263
100
AcDbEntity
  8
0
  6
CONTINUOUS
 62
     7
100
AcDbVertex
100
AcDb2dVertex
 10
7.9472175716
 20
7.5503932906
 30
0.0
  0
VERTEX
  5
419
330
263
100
AcDbEntity
  8
0
  6
CONTINUOUS
 62
     7
100
AcDbVertex
100
AcDb2dVertex
 10
7.9090713173
 20
7.5096554181
 30
0.0
  0
SEQEND
  5
41A
330
263
100
AcDbEntity
  8
0
  6
CONTINUOUS
 62
     7
  0
LINE
  5
264
330
1F
100
AcDbEntity
  8
0
  6
CONTINUOUS
 62
     7
100
AcDbLine
 10
8.89735048
 20
7.7748273442
 30
0.0
 11
8.6328814083
 21
7.9275020895
 31
0.0
  0
ARC
  5
265
330
1F
100
AcDbEntity
  8
0
  6
CONTINUOUS
 62
     7
100
AcDbCircle
 10
8.9310835677
 20
7.3165112396
 30
0.0
 40
0.4595558430986507
100
AcDbArc
 50
60.772651093
 51
94.2095067646
  0
SPLINE
  5
266
330
1F
100
AcDbEntity
  8
0
  6
CONTINUOUS
 62
     7
100
AcDbSpline
210
0.0
220
0.0
230
1.0
 70
     8
 71
     3
 72
    33
 73
    29
 74
     0
 42
0.00000001
 43
0.00000001
 40
0.0
 40
0.0
 40
0.0
 40
0.0
 40
0.0392074304144189
 40
0.0795605336094478
 40
0.1187655317319583
 40
0.1590910661233914
 40
0.1985984873212684
 40
0.2392384602226292
 40
0.2789496028705862
 40
0.3198307662115507
 40
0.3592055527796331
 40
0.3997438606891088
 40
0.4387659871299686
 40
0.4789109506307384
 40
0.5181138401720058
 40
0.558428901800373
 40
0.5980621660937964
 40
0.6388422449406872
 40
0.6784892668904652
 40
0.719310175039061
 40
0.7585370471094308
 40
0.7989144937155368
 40
0.837942856725536
 40
0.8780859493568987
 40
0.9174337943441288
 40
0.9579016530819995
 40
0.9976038147626234
 40
1.0
 40
1.0
 40
1.0
 40
1.0
 10
8.396251186224442
 20
7.736517968594598
 30
0.0
 10
8.388957703446874
 20
7.731816569924662
 30
0.0
 10
8.37415761643476
 20
7.722276393918808
 30
0.0
 10
8.357587974749329
 20
7.704729305530964
 30
0.0
 10
8.345593366299042
 20
7.685290862480572
 30
0.0
 10
8.339037860837221
 20
7.664663831909681
 30
0.0
 10
8.33792147928637
 20
7.643271377198544
 30
0.0
 10
8.342375415523247
 20
7.622202247678738
 30
0.0
 10
8.352397681554761
 20
7.601903407715392
 30
0.0
 10
8.36753753384566
 20
7.583530472435704
 30
0.0
 10
8.387581737599337
 20
7.567418240200931
 30
0.0
 10
8.41147884134609
 20
7.554395951430693
 30
0.0
 10
8.438983884411845
 20
7.544516243858895
 30
0.0
 10
8.468827147508105
 20
7.538113516836767
 30
0.0
 10
8.500807720368154
 20
7.535103210640433
 30
0.0
 10
8.533604135252295
 20
7.53547461072045
 30
0.0
 10
8.566875801220807
 20
7.539085846636325
 30
0.0
 10
8.599111039405804
 20
7.545639972371567
 30
0.0
 10
8.629862274235967
 20
7.554903853647763
 30
0.0
 10
8.657587097623608
 20
7.566294121746245
 30
0.0
 10
8.682007700142265
 20
7.579591370786302
 30
0.0
 10
8.701985826840152
 20
7.594113602420482
 30
0.0
 10
8.717447717550831
 20
7.609794125504235
 30
0.0
 10
8.7277050383298
 20
7.626039661597932
 30
0.0
 10
8.732859353240965
 20
7.642893579197021
 30
0.0
 10
8.731876416375695
 20
7.659734137951192
 30
0.0
 10
8.728926843417556
 20
7.671414988320226
 30
0.0
 10
8.724871238827788
 20
7.67711676063619
 30
0.0
 10
8.7246403988885
 20
7.677441298382934
 30
0.0
  0
SPLINE
  5
267
330
1F
100
AcDbEntity
  8
0
  6
CONTINUOUS
 62
     7
100
AcDbSpline
210
0.0
220
0.0
230
1.0
 70
     8
 71
     3
 72
    12
 73
     8
 74
     0
 42
0.00000001
 43
0.00000001
 40
0.0
 40
0.0
 40
0.0
 40
0.0
 40
0.2067699745160564
 40
0.4366368824809185
 40
0.6732724032091515
 40
0.8354557134575159
 40
1.0
 40
1.0
 40
1.0
 40
1.0
 10
8.523853918659245
 20
7.763778808530802
 30
0.0
 10
8.51404367395319
 20
7.763901296821243
 30
0.0
 10
8.49332734570073
 20
7.764159955775008
 30
0.0
 10
8.462532652998703
 20
7.760336073695247
 30
0.0
 10
8.43562421510152
 20
7.753812297685843
 30
0.0
 10
8.413399448240911
 20
7.745646966087403
 30
0.0
 10
8.401994744190345
 20
7.739575591939762
 30
0.0
 10
8.396251186224442
 20
7.736517968594598
 30
0.0
  0
POLYLINE
  5
268
330
1F
100
AcDbEntity
  8
0
  6
CONTINUOUS
 62
     7
100
AcDb2dPolyline
 66
     1
 10
0.0
 20
0.0
 30
0.0
  0
VERTEX
  5
41B
330
268
100
AcDbEntity
  8
0
  6
CONTINUOUS
 62
     7
100
AcDbVertex
100
AcDb2dVertex
 10
9.0643835779
 20
6.611381592
 30
0.0
  0
VERTEX
  5
41C
330
268
100
AcDbEntity
  8
0
  6
CONTINUOUS
 62
     7
100
AcDbVertex
100
AcDb2dVertex
 10
9.0634031816
 20
6.5859675022
 30
0.0
  0
VERTEX
  5
41D
330
268
100
AcDbEntity
  8
0
  6
CONTINUOUS
 62
     7
100
AcDbVertex
100
AcDb2dVertex
 10
9.0604701167
 20
6.5596320602
 30
0.0
  0
VERTEX
  5
41E
330
268
100
AcDbEntity
  8
0
  6
CONTINUOUS
 62
     7
100
AcDbVertex
100
AcDb2dVertex
 10
9.0556086874
 20
6.5325934896
 30
0.0
  0
VERTEX
  5
41F
330
268
100
AcDbEntity
  8
0
  6
CONTINUOUS
 62
     7
100
AcDbVertex
100
AcDb2dVertex
 10
9.048859177
 20
6.5050758406
 30
0.0
  0
VERTEX
  5
420
330
268
100
AcDbEntity
  8
0
  6
CONTINUOUS
 62
     7
100
AcDbVertex
100
AcDb2dVertex
 10
9.0402775142
 20
6.4773071331
 30
0.0
  0
VERTEX
  5
421
330
268
100
AcDbEntity
  8
0
  6
CONTINUOUS
 62
     7
100
AcDbVertex
100
AcDb2dVertex
 10
9.0299348093
 20
6.4495174674
 30
0.0
  0
VERTEX
  5
422
330
268
100
AcDbEntity
  8
0
  6
CONTINUOUS
 62
     7
100
AcDbVertex
100
AcDb2dVertex
 10
9.0179167651
 20
6.4219371173
 30
0.0
  0
VERTEX
  5
423
330
268
100
AcDbEntity
  8
0
  6
CONTINUOUS
 62
     7
100
AcDbVertex
100
AcDb2dVertex
 10
9.0043229671
 20
6.3947946224
 30
0.0
  0
VERTEX
  5
424
330
268
100
AcDbEntity
  8
0
  6
CONTINUOUS
 62
     7
100
AcDbVertex
100
AcDb2dVertex
 10
8.9892660577
 20
6.3683148939
 30
0.0
  0
VERTEX
  5
425
330
268
100
AcDbEntity
  8
0
  6
CONTINUOUS
 62
     7
100
AcDbVertex
100
AcDb2dVertex
 10
8.9728708031
 20
6.3427173511
 30
0.0
  0
VERTEX
  5
426
330
268
100
AcDbEntity
  8
0
  6
CONTINUOUS
 62
     7
100
AcDbVertex
100
AcDb2dVertex
 10
8.9552730597
 20
6.3182141034
 30
0.0
  0
VERTEX
  5
427
330
268
100
AcDbEntity
  8
0
  6
CONTINUOUS
 62
     7
100
AcDbVertex
100
AcDb2dVertex
 10
8.9366186479
 20
6.2950081925
 30
0.0
  0
VERTEX
  5
428
330
268
100
AcDbEntity
  8
0
  6
CONTINUOUS
 62
     7
100
AcDbVertex
100
AcDb2dVertex
 10
8.9170621439
 20
6.2732919096
 30
0.0
  0
VERTEX
  5
429
330
268
100
AcDbEntity
  8
0
  6
CONTINUOUS
 62
     7
100
AcDbVertex
100
AcDb2dVertex
 10
8.8967655993
 20
6.253245203
 30
0.0
  0
VERTEX
  5
42A
330
268
100
AcDbEntity
  8
0
  6
CONTINUOUS
 62
     7
100
AcDbVertex
100
AcDb2dVertex
 10
8.8758971974
 20
6.2350341858
 30
0.0
  0
VERTEX
  5
42B
330
268
100
AcDbEntity
  8
0
  6
CONTINUOUS
 62
     7
100
AcDbVertex
100
AcDb2dVertex
 10
8.8546298605
 20
6.2188097603
 30
0.0
  0
VERTEX
  5
42C
330
268
100
AcDbEntity
  8
0
  6
CONTINUOUS
 62
     7
100
AcDbVertex
100
AcDb2dVertex
 10
8.8331398164
 20
6.2047063672
 30
0.0
  0
VERTEX
  5
42D
330
268
100
AcDbEntity
  8
0
  6
CONTINUOUS
 62
     7
100
AcDbVertex
100
AcDb2dVertex
 10
8.8116051384
 20
6.1928408716
 30
0.0
  0
VERTEX
  5
42E
330
268
100
AcDbEntity
  8
0
  6
CONTINUOUS
 62
     7
100
AcDbVertex
100
AcDb2dVertex
 10
8.7902042696
 20
6.1833115948
 30
0.0
  0
VERTEX
  5
42F
330
268
100
AcDbEntity
  8
0
  6
CONTINUOUS
 62
     7
100
AcDbVertex
100
AcDb2dVertex
 10
8.7691145444
 20
6.1761974994
 30
0.0
  0
VERTEX
  5
430
330
268
100
AcDbEntity
  8
0
  6
CONTINUOUS
 62
     7
100
AcDbVertex
100
AcDb2dVertex
 10
8.7485107189
 20
6.171557535
 30
0.0
  0
VERTEX
  5
431
330
268
100
AcDbEntity
  8
0
  6
CONTINUOUS
 62
     7
100
AcDbVertex
100
AcDb2dVertex
 10
8.7285635227
 20
6.1694301498
 30
0.0
  0
VERTEX
  5
432
330
268
100
AcDbEntity
  8
0
  6
CONTINUOUS
 62
     7
100
AcDbVertex
100
AcDb2dVertex
 10
8.7094382448
 20
6.169832972
 30
0.0
  0
VERTEX
  5
433
330
268
100
AcDbEntity
  8
0
  6
CONTINUOUS
 62
     7
100
AcDbVertex
100
AcDb2dVertex
 10
8.6912933632
 20
6.1727626637
 30
0.0
  0
VERTEX
  5
434
330
268
100
AcDbEntity
  8
0
  6
CONTINUOUS
 62
     7
100
AcDbVertex
100
AcDb2dVertex
 10
8.674279232
 20
6.1781949486
 30
0.0
  0
VERTEX
  5
435
330
268
100
AcDbEntity
  8
0
  6
CONTINUOUS
 62
     7
100
AcDbVertex
100
AcDb2dVertex
 10
8.6585368358
 20
6.1860848129
 30
0.0
  0
VERTEX
  5
436
330
268
100
AcDbEntity
  8
0
  6
CONTINUOUS
 62
     7
100
AcDbVertex
100
AcDb2dVertex
 10
8.6441966209
 20
6.1963668788
 30
0.0
  0
VERTEX
  5
437
330
268
100
AcDbEntity
  8
0
  6
CONTINUOUS
 62
     7
100
AcDbVertex
100
AcDb2dVertex
 10
8.6313774149
 20
6.208955946
 30
0.0
  0
VERTEX
  5
438
330
268
100
AcDbEntity
  8
0
  6
CONTINUOUS
 62
     7
100
AcDbVertex
100
AcDb2dVertex
 10
8.6201854419
 20
6.2237476973
 30
0.0
  0
VERTEX
  5
439
330
268
100
AcDbEntity
  8
0
  6
CONTINUOUS
 62
     7
100
AcDbVertex
100
AcDb2dVertex
 10
8.6107134419
 20
6.2406195637
 30
0.0
  0
VERTEX
  5
43A
330
268
100
AcDbEntity
  8
0
  6
CONTINUOUS
 62
     7
100
AcDbVertex
100
AcDb2dVertex
 10
8.603039903
 20
6.2594317396
 30
0.0
  0
VERTEX
  5
43B
330
268
100
AcDbEntity
  8
0
  6
CONTINUOUS
 62
     7
100
AcDbVertex
100
AcDb2dVertex
 10
8.5972284106
 20
6.2800283414
 30
0.0
  0
VERTEX
  5
43C
330
268
100
AcDbEntity
  8
0
  6
CONTINUOUS
 62
     7
100
AcDbVertex
100
AcDb2dVertex
 10
8.5933271205
 20
6.3022386991
 30
0.0
  0
VERTEX
  5
43D
330
268
100
AcDbEntity
  8
0
  6
CONTINUOUS
 62
     7
100
AcDbVertex
100
AcDb2dVertex
 10
8.5913683599
 20
6.3258787708
 30
0.0
  0
VERTEX
  5
43E
330
268
100
AcDbEntity
  8
0
  6
CONTINUOUS
 62
     7
100
AcDbVertex
100
AcDb2dVertex
 10
8.5913683599
 20
6.3507526673
 30
0.0
  0
VERTEX
  5
43F
330
268
100
AcDbEntity
  8
0
  6
CONTINUOUS
 62
     7
100
AcDbVertex
100
AcDb2dVertex
 10
8.5933271205
 20
6.3766542757
 30
0.0
  0
VERTEX
  5
440
330
268
100
AcDbEntity
  8
0
  6
CONTINUOUS
 62
     7
100
AcDbVertex
100
AcDb2dVertex
 10
8.5972284106
 20
6.4033689672
 30
0.0
  0
VERTEX
  5
441
330
268
100
AcDbEntity
  8
0
  6
CONTINUOUS
 62
     7
100
AcDbVertex
100
AcDb2dVertex
 10
8.603039903
 20
6.4306753753
 30
0.0
  0
VERTEX
  5
442
330
268
100
AcDbEntity
  8
0
  6
CONTINUOUS
 62
     7
100
AcDbVertex
100
AcDb2dVertex
 10
8.6107134419
 20
6.4583472306
 30
0.0
  0
VERTEX
  5
443
330
268
100
AcDbEntity
  8
0
  6
CONTINUOUS
 62
     7
100
AcDbVertex
100
AcDb2dVertex
 10
8.6201854419
 20
6.4861552354
 30
0.0
  0
VERTEX
  5
444
330
268
100
AcDbEntity
  8
0
  6
CONTINUOUS
 62
     7
100
AcDbVertex
100
AcDb2dVertex
 10
8.6313774149
 20
6.5138689637
 30
0.0
  0
VERTEX
  5
445
330
268
100
AcDbEntity
  8
0
  6
CONTINUOUS
 62
     7
100
AcDbVertex
100
AcDb2dVertex
 10
8.6441966209
 20
6.541258771
 30
0.0
  0
VERTEX
  5
446
330
268
100
AcDbEntity
  8
0
  6
CONTINUOUS
 62
     7
100
AcDbVertex
100
AcDb2dVertex
 10
8.6585368358
 20
6.5680976966
 30
0.0
  0
VERTEX
  5
447
330
268
100
AcDbEntity
  8
0
  6
CONTINUOUS
 62
     7
100
AcDbVertex
100
AcDb2dVertex
 10
8.674279232
 20
6.5941633448
 30
0.0
  0
VERTEX
  5
448
330
268
100
AcDbEntity
  8
0
  6
CONTINUOUS
 62
     7
100
AcDbVertex
100
AcDb2dVertex
 10
8.6912933632
 20
6.6192397273
 30
0.0
  0
VERTEX
  5
449
330
268
100
AcDbEntity
  8
0
  6
CONTINUOUS
 62
     7
100
AcDbVertex
100
AcDb2dVertex
 10
8.7094382448
 20
6.6431190534
 30
0.0
  0
VERTEX
  5
44A
330
268
100
AcDbEntity
  8
0
  6
CONTINUOUS
 62
     7
100
AcDbVertex
100
AcDb2dVertex
 10
8.7285635227
 20
6.6656034515
 30
0.0
  0
VERTEX
  5
44B
330
268
100
AcDbEntity
  8
0
  6
CONTINUOUS
 62
     7
100
AcDbVertex
100
AcDb2dVertex
 10
8.7485107189
 20
6.6865066087
 30
0.0
  0
VERTEX
  5
44C
330
268
100
AcDbEntity
  8
0
  6
CONTINUOUS
 62
     7
100
AcDbVertex
100
AcDb2dVertex
 10
8.7691145444
 20
6.705655315
 30
0.0
  0
VERTEX
  5
44D
330
268
100
AcDbEntity
  8
0
  6
CONTINUOUS
 62
     7
100
AcDbVertex
100
AcDb2dVertex
 10
8.7902042696
 20
6.722890898
 30
0.0
  0
VERTEX
  5
44E
330
268
100
AcDbEntity
  8
0
  6
CONTINUOUS
 62
     7
100
AcDbVertex
100
AcDb2dVertex
 10
8.8116051384
 20
6.7380705384
 30
0.0
  0
VERTEX
  5
44F
330
268
100
AcDbEntity
  8
0
  6
CONTINUOUS
 62
     7
100
AcDbVertex
100
AcDb2dVertex
 10
8.8331398164
 20
6.7510684528
 30
0.0
  0
VERTEX
  5
450
330
268
100
AcDbEntity
  8
0
  6
CONTINUOUS
 62
     7
100
AcDbVertex
100
AcDb2dVertex
 10
8.8546298605
 20
6.7617769364
 30
0.0
  0
VERTEX
  5
451
330
268
100
AcDbEntity
  8
0
  6
CONTINUOUS
 62
     7
100
AcDbVertex
100
AcDb2dVertex
 10
8.8758971974
 20
6.7701072555
 30
0.0
  0
VERTEX
  5
452
330
268
100
AcDbEntity
  8
0
  6
CONTINUOUS
 62
     7
100
AcDbVertex
100
AcDb2dVertex
 10
8.8967655993
 20
6.7759903822
 30
0.0
  0
VERTEX
  5
453
330
268
100
AcDbEntity
  8
0
  6
CONTINUOUS
 62
     7
100
AcDbVertex
100
AcDb2dVertex
 10
8.9170621439
 20
6.7793775672
 30
0.0
  0
VERTEX
  5
454
330
268
100
AcDbEntity
  8
0
  6
CONTINUOUS
 62
     7
100
AcDbVertex
100
AcDb2dVertex
 10
8.9366186479
 20
6.7802407433
 30
0.0
  0
VERTEX
  5
455
330
268
100
AcDbEntity
  8
0
  6
CONTINUOUS
 62
     7
100
AcDbVertex
100
AcDb2dVertex
 10
8.9552730597
 20
6.7785727577
 30
0.0
  0
VERTEX
  5
456
330
268
100
AcDbEntity
  8
0
  6
CONTINUOUS
 62
     7
100
AcDbVertex
100
AcDb2dVertex
 10
8.9728708031
 20
6.7743874321
 30
0.0
  0
VERTEX
  5
457
330
268
100
AcDbEntity
  8
0
  6
CONTINUOUS
 62
     7
100
AcDbVertex
100
AcDb2dVertex
 10
8.9892660577
 20
6.7677194473
 30
0.0
  0
VERTEX
  5
458
330
268
100
AcDbEntity
  8
0
  6
CONTINUOUS
 62
     7
100
AcDbVertex
100
AcDb2dVertex
 10
9.0043229671
 20
6.7586240564
 30
0.0
  0
VERTEX
  5
459
330
268
100
AcDbEntity
  8
0
  6
CONTINUOUS
 62
     7
100
AcDbVertex
100
AcDb2dVertex
 10
9.0179167651
 20
6.7471766266
 30
0.0
  0
VERTEX
  5
45A
330
268
100
AcDbEntity
  8
0
  6
CONTINUOUS
 62
     7
100
AcDbVertex
100
AcDb2dVertex
 10
9.0299348093
 20
6.7334720149
 30
0.0
  0
VERTEX
  5
45B
330
268
100
AcDbEntity
  8
0
  6
CONTINUOUS
 62
     7
100
AcDbVertex
100
AcDb2dVertex
 10
9.0402775142
 20
6.7176237821
 30
0.0
  0
VERTEX
  5
45C
330
268
100
AcDbEntity
  8
0
  6
CONTINUOUS
 62
     7
100
AcDbVertex
100
AcDb2dVertex
 10
9.048859177
 20
6.6997632516
 30
0.0
  0
VERTEX
  5
45D
330
268
100
AcDbEntity
  8
0
  6
CONTINUOUS
 62
     7
100
AcDbVertex
100
AcDb2dVertex
 10
9.0556086874
 20
6.6800384214
 30
0.0
  0
VERTEX
  5
45E
330
268
100
AcDbEntity
  8
0
  6
CONTINUOUS
 62
     7
100
AcDbVertex
100
AcDb2dVertex
 10
9.0604701167
 20
6.6586127377
 30
0.0
  0
VERTEX
  5
45F
330
268
100
AcDbEntity
  8
0
  6
CONTINUOUS
 62
     7
100
AcDbVertex
100
AcDb2dVertex
 10
9.0634031816
 20
6.6356637403
 30
0.0
  0
VERTEX
  5
460
330
268
100
AcDbEntity
  8
0
  6
CONTINUOUS
 62
     7
100
AcDbVertex
100
AcDb2dVertex
 10
9.0643835779
 20
6.611381592
 30
0.0
  0
SEQEND
  5
461
330
268
100
AcDbEntity
  8
0
  6
CONTINUOUS
 62
     7
  0
POLYLINE
  5
269
330
1F
100
AcDbEntity
  8
0
  6
CONTINUOUS
 62
     7
100
AcDb2dPolyline
 66
     1
 10
0.0
 20
0.0
 30
0.0
  0
VERTEX
  5
462
330
269
100
AcDbEntity
  8
0
  6
CONTINUOUS
 62
     7
100
AcDbVertex
100
AcDb2dVertex
 10
7.6724410952
 20
6.1453218431
 30
0.0
  0
VERTEX
  5
463
330
269
100
AcDbEntity
  8
0
  6
CONTINUOUS
 62
     7
100
AcDbVertex
100
AcDb2dVertex
 10
7.6734111825
 20
6.1931205373
 30
0.0
  0
VERTEX
  5
464
330
269
100
AcDbEntity
  8
0
  6
CONTINUOUS
 62
     7
100
AcDbVertex
100
AcDb2dVertex
 10
7.6763192634
 20
6.2419318111
 30
0.0
  0
VERTEX
  5
465
330
269
100
AcDbEntity
  8
0
  6
CONTINUOUS
 62
     7
100
AcDbVertex
100
AcDb2dVertex
 10
7.6811588001
 20
6.2916459289
 30
0.0
  0
VERTEX
  5
466
330
269
100
AcDbEntity
  8
0
  6
CONTINUOUS
 62
     7
100
AcDbVertex
100
AcDb2dVertex
 10
7.6879189125
 20
6.3421511252
 30
0.0
  0
VERTEX
  5
467
330
269
100
AcDbEntity
  8
0
  6
CONTINUOUS
 62
     7
100
AcDbVertex
100
AcDb2dVertex
 10
7.6965844028
 20
6.3933338561
 30
0.0
  0
VERTEX
  5
468
330
269
100
AcDbEntity
  8
0
  6
CONTINUOUS
 62
     7
100
AcDbVertex
100
AcDb2dVertex
 10
7.7071357896
 20
6.4450790544
 30
0.0
  0
VERTEX
  5
469
330
269
100
AcDbEntity
  8
0
  6
CONTINUOUS
 62
     7
100
AcDbVertex
100
AcDb2dVertex
 10
7.7195493515
 20
6.4972703886
 30
0.0
  0
VERTEX
  5
46A
330
269
100
AcDbEntity
  8
0
  6
CONTINUOUS
 62
     7
100
AcDbVertex
100
AcDb2dVertex
 10
7.733797181
 20
6.5497905239
 30
0.0
  0
VERTEX
  5
46B
330
269
100
AcDbEntity
  8
0
  6
CONTINUOUS
 62
     7
100
AcDbVertex
100
AcDb2dVertex
 10
7.7498472465
 20
6.6025213866
 30
0.0
  0
VERTEX
  5
46C
330
269
100
AcDbEntity
  8
0
  6
CONTINUOUS
 62
     7
100
AcDbVertex
100
AcDb2dVertex
 10
7.7676634649
 20
6.655344429
 30
0.0
  0
VERTEX
  5
46D
330
269
100
AcDbEntity
  8
0
  6
CONTINUOUS
 62
     7
100
AcDbVertex
100
AcDb2dVertex
 10
7.7872057824
 20
6.7081408964
 30
0.0
  0
VERTEX
  5
46E
330
269
100
AcDbEntity
  8
0
  6
CONTINUOUS
 62
     7
100
AcDbVertex
100
AcDb2dVertex
 10
7.8084302647
 20
6.7607920936
 30
0.0
  0
VERTEX
  5
46F
330
269
100
AcDbEntity
  8
0
  6
CONTINUOUS
 62
     7
100
AcDbVertex
100
AcDb2dVertex
 10
7.8312891957
 20
6.8131796523
 30
0.0
  0
VERTEX
  5
470
330
269
100
AcDbEntity
  8
0
  6
CONTINUOUS
 62
     7
100
AcDbVertex
100
AcDb2dVertex
 10
7.8557311849
 20
6.8651857965
 30
0.0
  0
VERTEX
  5
471
330
269
100
AcDbEntity
  8
0
  6
CONTINUOUS
 62
     7
100
AcDbVertex
100
AcDb2dVertex
 10
7.8817012825
 20
6.9166936081
 30
0.0
  0
VERTEX
  5
472
330
269
100
AcDbEntity
  8
0
  6
CONTINUOUS
 62
     7
100
AcDbVertex
100
AcDb2dVertex
 10
7.9091411036
 20
6.967587289
 30
0.0
  0
VERTEX
  5
473
330
269
100
AcDbEntity
  8
0
  6
CONTINUOUS
 62
     7
100
AcDbVertex
100
AcDb2dVertex
 10
7.9379889591
 20
7.017752422
 30
0.0
  0
VERTEX
  5
474
330
269
100
AcDbEntity
  8
0
  6
CONTINUOUS
 62
     7
100
AcDbVertex
100
AcDb2dVertex
 10
7.9681799942
 20
7.0670762277
 30
0.0
  0
VERTEX
  5
475
330
269
100
AcDbEntity
  8
0
  6
CONTINUOUS
 62
     7
100
AcDbVertex
100
AcDb2dVertex
 10
7.9996463345
 20
7.115447818
 30
0.0
  0
VERTEX
  5
476
330
269
100
AcDbEntity
  8
0
  6
CONTINUOUS
 62
     7
100
AcDbVertex
100
AcDb2dVertex
 10
8.0323172386
 20
7.1627584458
 30
0.0
  0
VERTEX
  5
477
330
269
100
AcDbEntity
  8
0
  6
CONTINUOUS
 62
     7
100
AcDbVertex
100
AcDb2dVertex
 10
8.066119257
 20
7.2089017491
 30
0.0
  0
VERTEX
  5
478
330
269
100
AcDbEntity
  8
0
  6
CONTINUOUS
 62
     7
100
AcDbVertex
100
AcDb2dVertex
 10
8.1009763972
 20
7.2537739902
 30
0.0
  0
VERTEX
  5
479
330
269
100
AcDbEntity
  8
0
  6
CONTINUOUS
 62
     7
100
AcDbVertex
100
AcDb2dVertex
 10
8.1368102947
 20
7.2972742889
 30
0.0
  0
VERTEX
  5
47A
330
269
100
AcDbEntity
  8
0
  6
CONTINUOUS
 62
     7
100
AcDbVertex
100
AcDb2dVertex
 10
8.173540389
 20
7.3393048495
 30
0.0
  0
SEQEND
  5
47B
330
269
100
AcDbEntity
  8
0
  6
CONTINUOUS
 62
     7
  0
SPLINE
  5
26A
330
1F
100
AcDbEntity
  8
0
  6
CONTINUOUS
 62
     7
100
AcDbSpline
210
0.0
220
0.0
230
1.0
 70
     8
 71
     3
 72
     8
 73
     4
 74
     0
 42
0.00000001
 43
0.00000001
 40
0.0
 40
0.0
 40
0.0
 40
0.0
 40
0.0007431842497003
 40
0.0007431842497003
 40
0.0007431842497003
 40
0.0007431842497003
 10
8.173540389000332
 20
7.339304849493896
 30
0.0
 10
8.178175905813964
 20
7.34252526632012
 30
0.0
 10
8.182815791799724
 20
7.345738584125987
 30
0.0
 10
8.187459813826838
 20
7.348945159869731
 30
0.0
  0
LINE
  5
26B
330
1F
100
AcDbEntity
  8
0
  6
CONTINUOUS
 62
     7
100
AcDbLine
 10
7.9090713173
 20
7.5096554181
 30
0.0
 11
7.8964149961
 21
7.5008899076
 31
0.0
  0
ARC
  5
26C
330
1F
100
AcDbEntity
  8
0
  6
CONTINUOUS
 62
     7
100
AcDbCircle
 10
9.0315941157
 20
6.5008527204
 30
0.0
 40
1.513200619752674
100
AcDbArc
 50
120.7935581823
 51
138.6242243499
  0
ARC
  5
26D
330
1F
100
AcDbEntity
  8
0
  6
CONTINUOUS
 62
     7
100
AcDbCircle
 10
8.9014420252
 20
6.6333216141
 30
0.0
 40
0.1368725865269873
100
AcDbArc
 50
350.7759674477
 51
126.1758554531
  0
POLYLINE
  5
26E
330
1F
100
AcDbEntity
  8
0
  6
CONTINUOUS
 62
     7
100
AcDb2dPolyline
 66
     1
 10
0.0
 20
0.0
 30
0.0
  0
VERTEX
  5
47C
330
26E
100
AcDbEntity
  8
0
  6
CONTINUOUS
 62
     7
100
AcDbVertex
100
AcDb2dVertex
 10
8.5912285981
 20
6.3463923553
 30
0.0
  0
VERTEX
  5
47D
330
26E
100
AcDbEntity
  8
0
  6
CONTINUOUS
 62
     7
100
AcDbVertex
100
AcDb2dVertex
 10
8.5913679171
 20
6.3423319647
 30
0.0
  0
VERTEX
  5
47E
330
26E
100
AcDbEntity
  8
0
  6
CONTINUOUS
 62
     7
100
AcDbVertex
100
AcDb2dVertex
 10
8.5933229565
 20
6.3194574715
 30
0.0
  0
VERTEX
  5
47F
330
26E
100
AcDbEntity
  8
0
  6
CONTINUOUS
 62
     7
100
AcDbVertex
100
AcDb2dVertex
 10
8.5972158542
 20
6.298018556
 30
0.0
  0
VERTEX
  5
480
330
26E
100
AcDbEntity
  8
0
  6
CONTINUOUS
 62
     7
100
AcDbVertex
100
AcDb2dVertex
 10
8.6030123993
 20
6.278203624
 30
0.0
  0
VERTEX
  5
481
330
26E
100
AcDbEntity
  8
0
  6
CONTINUOUS
 62
     7
100
AcDbVertex
100
AcDb2dVertex
 10
8.6106616517
 20
6.26018681
 30
0.0
  0
VERTEX
  5
482
330
26E
100
AcDbEntity
  8
0
  6
CONTINUOUS
 62
     7
100
AcDbVertex
100
AcDb2dVertex
 10
8.6200963893
 20
6.2441264464
 30
0.0
  0
VERTEX
  5
483
330
26E
100
AcDbEntity
  8
0
  6
CONTINUOUS
 62
     7
100
AcDbVertex
100
AcDb2dVertex
 10
8.6312336994
 20
6.2301636721
 30
0.0
  0
VERTEX
  5
484
330
26E
100
AcDbEntity
  8
0
  6
CONTINUOUS
 62
     7
100
AcDbVertex
100
AcDb2dVertex
 10
8.643975707
 20
6.2184211926
 30
0.0
  0
VERTEX
  5
485
330
26E
100
AcDbEntity
  8
0
  6
CONTINUOUS
 62
     7
100
AcDbVertex
100
AcDb2dVertex
 10
8.6582104347
 20
6.2090022012
 30
0.0
  0
VERTEX
  5
486
330
26E
100
AcDbEntity
  8
0
  6
CONTINUOUS
 62
     7
100
AcDbVertex
100
AcDb2dVertex
 10
8.6738127873
 20
6.2019894723
 30
0.0
  0
VERTEX
  5
487
330
26E
100
AcDbEntity
  8
0
  6
CONTINUOUS
 62
     7
100
AcDbVertex
100
AcDb2dVertex
 10
8.6906456507
 20
6.1974446341
 30
0.0
  0
VERTEX
  5
488
330
26E
100
AcDbEntity
  8
0
  6
CONTINUOUS
 62
     7
100
AcDbVertex
100
AcDb2dVertex
 10
8.7085610972
 20
6.1954076267
 30
0.0
  0
VERTEX
  5
489
330
26E
100
AcDbEntity
  8
0
  6
CONTINUOUS
 62
     7
100
AcDbVertex
100
AcDb2dVertex
 10
8.7274016851
 20
6.1958963515
 30
0.0
  0
VERTEX
  5
48A
330
26E
100
AcDbEntity
  8
0
  6
CONTINUOUS
 62
     7
100
AcDbVertex
100
AcDb2dVertex
 10
8.7470018427
 20
6.1989065135
 30
0.0
  0
VERTEX
  5
48B
330
26E
100
AcDbEntity
  8
0
  6
CONTINUOUS
 62
     7
100
AcDbVertex
100
AcDb2dVertex
 10
8.7671893231
 20
6.2044116593
 30
0.0
  0
VERTEX
  5
48C
330
26E
100
AcDbEntity
  8
0
  6
CONTINUOUS
 62
     7
100
AcDbVertex
100
AcDb2dVertex
 10
8.787786718
 20
6.2123634094
 30
0.0
  0
VERTEX
  5
48D
330
26E
100
AcDbEntity
  8
0
  6
CONTINUOUS
 62
     7
100
AcDbVertex
100
AcDb2dVertex
 10
8.8086130168
 20
6.2226918837
 30
0.0
  0
VERTEX
  5
48E
330
26E
100
AcDbEntity
  8
0
  6
CONTINUOUS
 62
     7
100
AcDbVertex
100
AcDb2dVertex
 10
8.8294851971
 20
6.2353063151
 30
0.0
  0
VERTEX
  5
48F
330
26E
100
AcDbEntity
  8
0
  6
CONTINUOUS
 62
     7
100
AcDbVertex
100
AcDb2dVertex
 10
8.8502198335
 20
6.2500958475
 30
0.0
  0
VERTEX
  5
490
330
26E
100
AcDbEntity
  8
0
  6
CONTINUOUS
 62
     7
100
AcDbVertex
100
AcDb2dVertex
 10
8.8706347093
 20
6.26693051
 30
0.0
  0
VERTEX
  5
491
330
26E
100
AcDbEntity
  8
0
  6
CONTINUOUS
 62
     7
100
AcDbVertex
100
AcDb2dVertex
 10
8.8905504179
 20
6.285662359
 30
0.0
  0
VERTEX
  5
492
330
26E
100
AcDbEntity
  8
0
  6
CONTINUOUS
 62
     7
100
AcDbVertex
100
AcDb2dVertex
 10
8.9097919392
 20
6.3061267782
 30
0.0
  0
VERTEX
  5
493
330
26E
100
AcDbEntity
  8
0
  6
CONTINUOUS
 62
     7
100
AcDbVertex
100
AcDb2dVertex
 10
8.928190178
 20
6.3281439258
 30
0.0
  0
VERTEX
  5
494
330
26E
100
AcDbEntity
  8
0
  6
CONTINUOUS
 62
     7
100
AcDbVertex
100
AcDb2dVertex
 10
8.9455834501
 20
6.3515203141
 30
0.0
  0
VERTEX
  5
495
330
26E
100
AcDbEntity
  8
0
  6
CONTINUOUS
 62
     7
100
AcDbVertex
100
AcDb2dVertex
 10
8.9618189026
 20
6.3760505106
 30
0.0
  0
VERTEX
  5
496
330
26E
100
AcDbEntity
  8
0
  6
CONTINUOUS
 62
     7
100
AcDbVertex
100
AcDb2dVertex
 10
8.9767538579
 20
6.4015189432
 30
0.0
  0
VERTEX
  5
497
330
26E
100
AcDbEntity
  8
0
  6
CONTINUOUS
 62
     7
100
AcDbVertex
100
AcDb2dVertex
 10
8.990257067
 20
6.4277017942
 30
0.0
  0
VERTEX
  5
498
330
26E
100
AcDbEntity
  8
0
  6
CONTINUOUS
 62
     7
100
AcDbVertex
100
AcDb2dVertex
 10
9.0022098633
 20
6.4543689678
 30
0.0
  0
VERTEX
  5
499
330
26E
100
AcDbEntity
  8
0
  6
CONTINUOUS
 62
     7
100
AcDbVertex
100
AcDb2dVertex
 10
9.012507205
 20
6.4812861121
 30
0.0
  0
VERTEX
  5
49A
330
26E
100
AcDbEntity
  8
0
  6
CONTINUOUS
 62
     7
100
AcDbVertex
100
AcDb2dVertex
 10
9.0210585989
 20
6.508216678
 30
0.0
  0
VERTEX
  5
49B
330
26E
100
AcDbEntity
  8
0
  6
CONTINUOUS
 62
     7
100
AcDbVertex
100
AcDb2dVertex
 10
9.027788895
 20
6.5349239989
 30
0.0
  0
VERTEX
  5
49C
330
26E
100
AcDbEntity
  8
0
  6
CONTINUOUS
 62
     7
100
AcDbVertex
100
AcDb2dVertex
 10
9.0326389472
 20
6.5611733699
 30
0.0
  0
VERTEX
  5
49D
330
26E
100
AcDbEntity
  8
0
  6
CONTINUOUS
 62
     7
100
AcDbVertex
100
AcDb2dVertex
 10
9.035566133
 20
6.5867341105
 30
0.0
  0
VERTEX
  5
49E
330
26E
100
AcDbEntity
  8
0
  6
CONTINUOUS
 62
     7
100
AcDbVertex
100
AcDb2dVertex
 10
9.0365447282
 20
6.611381592
 30
0.0
  0
SEQEND
  5
49F
330
26E
100
AcDbEntity
  8
0
  6
CONTINUOUS
 62
     7
  0
POLYLINE
  5
26F
330
1F
100
AcDbEntity
  8
0
  6
CONTINUOUS
 62
     7
100
AcDb2dPolyline
 66
     1
 10
0.0
 20
0.0
 30
0.0
  0
VERTEX
  5
4A0
330
26F
100
AcDbEntity
  8
0
  6
CONTINUOUS
 62
     7
100
AcDbVertex
100
AcDb2dVertex
 10
6.8024770436
 20
6.6314703743
 30
0.0
  0
VERTEX
  5
4A1
330
26F
100
AcDbEntity
  8
0
  6
CONTINUOUS
 62
     7
100
AcDbVertex
100
AcDb2dVertex
 10
6.8034411822
 20
6.6493196871
 30
0.0
  0
VERTEX
  5
4A2
330
26F
100
AcDbEntity
  8
0
  6
CONTINUOUS
 62
     7
100
AcDbVertex
100
AcDb2dVertex
 10
6.8063195389
 20
6.6657955459
 30
0.0
  0
VERTEX
  5
4A3
330
26F
100
AcDbEntity
  8
0
  6
CONTINUOUS
 62
     7
100
AcDbVertex
100
AcDb2dVertex
 10
6.8110701406
 20
6.6806576956
 30
0.0
  0
VERTEX
  5
4A4
330
26F
100
AcDbEntity
  8
0
  6
CONTINUOUS
 62
     7
100
AcDbVertex
100
AcDb2dVertex
 10
6.8176237129
 20
6.6936894127
 30
0.0
  0
VERTEX
  5
4A5
330
26F
100
AcDbEntity
  8
0
  6
CONTINUOUS
 62
     7
100
AcDbVertex
100
AcDb2dVertex
 10
6.8258846899
 20
6.7047006653
 30
0.0
  0
VERTEX
  5
4A6
330
26F
100
AcDbEntity
  8
0
  6
CONTINUOUS
 62
     7
100
AcDbVertex
100
AcDb2dVertex
 10
6.8357326081
 20
6.7135308845
 30
0.0
  0
VERTEX
  5
4A7
330
26F
100
AcDbEntity
  8
0
  6
CONTINUOUS
 62
     7
100
AcDbVertex
100
AcDb2dVertex
 10
6.8470238625
 20
6.7200513059
 30
0.0
  0
VERTEX
  5
4A8
330
26F
100
AcDbEntity
  8
0
  6
CONTINUOUS
 62
     7
100
AcDbVertex
100
AcDb2dVertex
 10
6.8595938013
 20
6.7241668471
 30
0.0
  0
VERTEX
  5
4A9
330
26F
100
AcDbEntity
  8
0
  6
CONTINUOUS
 62
     7
100
AcDbVertex
100
AcDb2dVertex
 10
6.8732591265
 20
6.7258174942
 30
0.0
  0
VERTEX
  5
4AA
330
26F
100
AcDbEntity
  8
0
  6
CONTINUOUS
 62
     7
100
AcDbVertex
100
AcDb2dVertex
 10
6.8878205668
 20
6.7249791771
 30
0.0
  0
VERTEX
  5
4AB
330
26F
100
AcDbEntity
  8
0
  6
CONTINUOUS
 62
     7
100
AcDbVertex
100
AcDb2dVertex
 10
6.9030657837
 20
6.7216641202
 30
0.0
  0
VERTEX
  5
4AC
330
26F
100
AcDbEntity
  8
0
  6
CONTINUOUS
 62
     7
100
AcDbVertex
100
AcDb2dVertex
 10
6.9187724675
 20
6.7159206646
 30
0.0
  0
VERTEX
  5
4AD
330
26F
100
AcDbEntity
  8
0
  6
CONTINUOUS
 62
     7
100
AcDbVertex
100
AcDb2dVertex
 10
6.9347115794
 20
6.7078325629
 30
0.0
  0
VERTEX
  5
4AE
330
26F
100
AcDbEntity
  8
0
  6
CONTINUOUS
 62
     7
100
AcDbVertex
100
AcDb2dVertex
 10
6.9506506914
 20
6.6975177577
 30
0.0
  0
VERTEX
  5
4AF
330
26F
100
AcDbEntity
  8
0
  6
CONTINUOUS
 62
     7
100
AcDbVertex
100
AcDb2dVertex
 10
6.9663573752
 20
6.6851266621
 30
0.0
  0
VERTEX
  5
4B0
330
26F
100
AcDbEntity
  8
0
  6
CONTINUOUS
 62
     7
100
AcDbVertex
100
AcDb2dVertex
 10
6.9816025921
 20
6.6708399662
 30
0.0
  0
VERTEX
  5
4B1
330
26F
100
AcDbEntity
  8
0
  6
CONTINUOUS
 62
     7
100
AcDbVertex
100
AcDb2dVertex
 10
6.9961640324
 20
6.6548660023
 30
0.0
  0
VERTEX
  5
4B2
330
26F
100
AcDbEntity
  8
0
  6
CONTINUOUS
 62
     7
100
AcDbVertex
100
AcDb2dVertex
 10
7.0098293576
 20
6.6374377066
 30
0.0
  0
VERTEX
  5
4B3
330
26F
100
AcDbEntity
  8
0
  6
CONTINUOUS
 62
     7
100
AcDbVertex
100
AcDb2dVertex
 10
7.0223992964
 20
6.618809223
 30
0.0
  0
VERTEX
  5
4B4
330
26F
100
AcDbEntity
  8
0
  6
CONTINUOUS
 62
     7
100
AcDbVertex
100
AcDb2dVertex
 10
7.0336905508
 20
6.5992521967
 30
0.0
  0
VERTEX
  5
4B5
330
26F
100
AcDbEntity
  8
0
  6
CONTINUOUS
 62
     7
100
AcDbVertex
100
AcDb2dVertex
 10
7.043538469
 20
6.5790518131
 30
0.0
  0
VERTEX
  5
4B6
330
26F
100
AcDbEntity
  8
0
  6
CONTINUOUS
 62
     7
100
AcDbVertex
100
AcDb2dVertex
 10
7.051799446
 20
6.5585026395
 30
0.0
  0
VERTEX
  5
4B7
330
26F
100
AcDbEntity
  8
0
  6
CONTINUOUS
 62
     7
100
AcDbVertex
100
AcDb2dVertex
 10
7.0583530183
 20
6.5379043289
 30
0.0
  0
VERTEX
  5
4B8
330
26F
100
AcDbEntity
  8
0
  6
CONTINUOUS
 62
     7
100
AcDbVertex
100
AcDb2dVertex
 10
7.06310362
 20
6.5175572512
 30
0.0
  0
VERTEX
  5
4B9
330
26F
100
AcDbEntity
  8
0
  6
CONTINUOUS
 62
     7
100
AcDbVertex
100
AcDb2dVertex
 10
7.0659819766
 20
6.4977581125
 30
0.0
  0
VERTEX
  5
4BA
330
26F
100
AcDbEntity
  8
0
  6
CONTINUOUS
 62
     7
100
AcDbVertex
100
AcDb2dVertex
 10
7.0669461153
 20
6.4787956289
 30
0.0
  0
VERTEX
  5
4BB
330
26F
100
AcDbEntity
  8
0
  6
CONTINUOUS
 62
     7
100
AcDbVertex
100
AcDb2dVertex
 10
7.0659819766
 20
6.4609463161
 30
0.0
  0
VERTEX
  5
4BC
330
26F
100
AcDbEntity
  8
0
  6
CONTINUOUS
 62
     7
100
AcDbVertex
100
AcDb2dVertex
 10
7.06310362
 20
6.4444704573
 30
0.0
  0
VERTEX
  5
4BD
330
26F
100
AcDbEntity
  8
0
  6
CONTINUOUS
 62
     7
100
AcDbVertex
100
AcDb2dVertex
 10
7.0583530183
 20
6.4296083076
 30
0.0
  0
VERTEX
  5
4BE
330
26F
100
AcDbEntity
  8
0
  6
CONTINUOUS
 62
     7
100
AcDbVertex
100
AcDb2dVertex
 10
7.051799446
 20
6.4165765905
 30
0.0
  0
VERTEX
  5
4BF
330
26F
100
AcDbEntity
  8
0
  6
CONTINUOUS
 62
     7
100
AcDbVertex
100
AcDb2dVertex
 10
7.043538469
 20
6.4055653379
 30
0.0
  0
VERTEX
  5
4C0
330
26F
100
AcDbEntity
  8
0
  6
CONTINUOUS
 62
     7
100
AcDbVertex
100
AcDb2dVertex
 10
7.0336905508
 20
6.3967351187
 30
0.0
  0
VERTEX
  5
4C1
330
26F
100
AcDbEntity
  8
0
  6
CONTINUOUS
 62
     7
100
AcDbVertex
100
AcDb2dVertex
 10
7.0223992964
 20
6.3902146973
 30
0.0
  0
VERTEX
  5
4C2
330
26F
100
AcDbEntity
  8
0
  6
CONTINUOUS
 62
     7
100
AcDbVertex
100
AcDb2dVertex
 10
7.0098293576
 20
6.3860991561
 30
0.0
  0
VERTEX
  5
4C3
330
26F
100
AcDbEntity
  8
0
  6
CONTINUOUS
 62
     7
100
AcDbVertex
100
AcDb2dVertex
 10
6.9961640324
 20
6.384448509
 30
0.0
  0
VERTEX
  5
4C4
330
26F
100
AcDbEntity
  8
0
  6
CONTINUOUS
 62
     7
100
AcDbVertex
100
AcDb2dVertex
 10
6.9816025921
 20
6.3852868262
 30
0.0
  0
VERTEX
  5
4C5
330
26F
100
AcDbEntity
  8
0
  6
CONTINUOUS
 62
     7
100
AcDbVertex
100
AcDb2dVertex
 10
6.9663573752
 20
6.388601883
 30
0.0
  0
VERTEX
  5
4C6
330
26F
100
AcDbEntity
  8
0
  6
CONTINUOUS
 62
     7
100
AcDbVertex
100
AcDb2dVertex
 10
6.9506506914
 20
6.3943453386
 30
0.0
  0
VERTEX
  5
4C7
330
26F
100
AcDbEntity
  8
0
  6
CONTINUOUS
 62
     7
100
AcDbVertex
100
AcDb2dVertex
 10
6.9347115794
 20
6.4024334403
 30
0.0
  0
VERTEX
  5
4C8
330
26F
100
AcDbEntity
  8
0
  6
CONTINUOUS
 62
     7
100
AcDbVertex
100
AcDb2dVertex
 10
6.9187724675
 20
6.4127482455
 30
0.0
  0
VERTEX
  5
4C9
330
26F
100
AcDbEntity
  8
0
  6
CONTINUOUS
 62
     7
100
AcDbVertex
100
AcDb2dVertex
 10
6.9030657837
 20
6.4251393411
 30
0.0
  0
VERTEX
  5
4CA
330
26F
100
AcDbEntity
  8
0
  6
CONTINUOUS
 62
     7
100
AcDbVertex
100
AcDb2dVertex
 10
6.8878205668
 20
6.439426037
 30
0.0
  0
VERTEX
  5
4CB
330
26F
100
AcDbEntity
  8
0
  6
CONTINUOUS
 62
     7
100
AcDbVertex
100
AcDb2dVertex
 10
6.8732591265
 20
6.4554000009
 30
0.0
  0
VERTEX
  5
4CC
330
26F
100
AcDbEntity
  8
0
  6
CONTINUOUS
 62
     7
100
AcDbVertex
100
AcDb2dVertex
 10
6.8595938013
 20
6.4728282966
 30
0.0
  0
VERTEX
  5
4CD
330
26F
100
AcDbEntity
  8
0
  6
CONTINUOUS
 62
     7
100
AcDbVertex
100
AcDb2dVertex
 10
6.8470238625
 20
6.4914567802
 30
0.0
  0
VERTEX
  5
4CE
330
26F
100
AcDbEntity
  8
0
  6
CONTINUOUS
 62
     7
100
AcDbVertex
100
AcDb2dVertex
 10
6.8357326081
 20
6.5110138065
 30
0.0
  0
VERTEX
  5
4CF
330
26F
100
AcDbEntity
  8
0
  6
CONTINUOUS
 62
     7
100
AcDbVertex
100
AcDb2dVertex
 10
6.8258846899
 20
6.5312141901
 30
0.0
  0
VERTEX
  5
4D0
330
26F
100
AcDbEntity
  8
0
  6
CONTINUOUS
 62
     7
100
AcDbVertex
100
AcDb2dVertex
 10
6.8176237129
 20
6.5517633637
 30
0.0
  0
VERTEX
  5
4D1
330
26F
100
AcDbEntity
  8
0
  6
CONTINUOUS
 62
     7
100
AcDbVertex
100
AcDb2dVertex
 10
6.8110701406
 20
6.5723616743
 30
0.0
  0
VERTEX
  5
4D2
330
26F
100
AcDbEntity
  8
0
  6
CONTINUOUS
 62
     7
100
AcDbVertex
100
AcDb2dVertex
 10
6.8063195389
 20
6.592708752
 30
0.0
  0
VERTEX
  5
4D3
330
26F
100
AcDbEntity
  8
0
  6
CONTINUOUS
 62
     7
100
AcDbVertex
100
AcDb2dVertex
 10
6.8034411822
 20
6.6125078907
 30
0.0
  0
VERTEX
  5
4D4
330
26F
100
AcDbEntity
  8
0
  6
CONTINUOUS
 62
     7
100
AcDbVertex
100
AcDb2dVertex
 10
6.8024770436
 20
6.6314703743
 30
0.0
  0
SEQEND
  5
4D5
330
26F
100
AcDbEntity
  8
0
  6
CONTINUOUS
 62
     7
  0
POLYLINE
  5
270
330
1F
100
AcDbEntity
  8
0
  6
CONTINUOUS
 62
     7
100
AcDb2dPolyline
 66
     1
 10
0.0
 20
0.0
 30
0.0
  0
VERTEX
  5
4D6
330
270
100
AcDbEntity
  8
0
  6
CONTINUOUS
 62
     7
100
AcDbVertex
100
AcDb2dVertex
 10
6.9416712919
 20
6.7198871384
 30
0.0
  0
VERTEX
  5
4D7
330
270
100
AcDbEntity
  8
0
  6
CONTINUOUS
 62
     7
100
AcDbVertex
100
AcDb2dVertex
 10
6.9252083467
 20
6.7282628011
 30
0.0
  0
VERTEX
  5
4D8
330
270
100
AcDbEntity
  8
0
  6
CONTINUOUS
 62
     7
100
AcDbVertex
100
AcDb2dVertex
 10
6.9089765053
 20
6.7342645014
 30
0.0
  0
VERTEX
  5
4D9
330
270
100
AcDbEntity
  8
0
  6
CONTINUOUS
 62
     7
100
AcDbVertex
100
AcDb2dVertex
 10
6.893203627
 20
6.7378079886
 30
0.0
  0
VERTEX
  5
4DA
330
270
100
AcDbEntity
  8
0
  6
CONTINUOUS
 62
     7
100
AcDbVertex
100
AcDb2dVertex
 10
6.8781111284
 20
6.7388435199
 30
0.0
  0
VERTEX
  5
4DB
330
270
100
AcDbEntity
  8
0
  6
CONTINUOUS
 62
     7
100
AcDbVertex
100
AcDb2dVertex
 10
6.8639108752
 20
6.7373565587
 30
0.0
  0
VERTEX
  5
4DC
330
270
100
AcDbEntity
  8
0
  6
CONTINUOUS
 62
     7
100
AcDbVertex
100
AcDb2dVertex
 10
6.8508022079
 20
6.7333679788
 30
0.0
  0
VERTEX
  5
4DD
330
270
100
AcDbEntity
  8
0
  6
CONTINUOUS
 62
     7
100
AcDbVertex
100
AcDb2dVertex
 10
6.8389691432
 20
6.7269337709
 30
0.0
  0
VERTEX
  5
4DE
330
270
100
AcDbEntity
  8
0
  6
CONTINUOUS
 62
     7
100
AcDbVertex
100
AcDb2dVertex
 10
6.8285777916
 20
6.7181442573
 30
0.0
  0
VERTEX
  5
4DF
330
270
100
AcDbEntity
  8
0
  6
CONTINUOUS
 62
     7
100
AcDbVertex
100
AcDb2dVertex
 10
6.8197740249
 20
6.7071228235
 30
0.0
  0
VERTEX
  5
4E0
330
270
100
AcDbEntity
  8
0
  6
CONTINUOUS
 62
     7
100
AcDbVertex
100
AcDb2dVertex
 10
6.8126814286
 20
6.6940241863
 30
0.0
  0
VERTEX
  5
4E1
330
270
100
AcDbEntity
  8
0
  6
CONTINUOUS
 62
     7
100
AcDbVertex
100
AcDb2dVertex
 10
6.8073995672
 20
6.6790322218
 30
0.0
  0
VERTEX
  5
4E2
330
270
100
AcDbEntity
  8
0
  6
CONTINUOUS
 62
     7
100
AcDbVertex
100
AcDb2dVertex
 10
6.8040025865
 20
6.6623573843
 30
0.0
  0
VERTEX
  5
4E3
330
270
100
AcDbEntity
  8
0
  6
CONTINUOUS
 62
     7
100
AcDbVertex
100
AcDb2dVertex
 10
6.8025381726
 20
6.644233752
 30
0.0
  0
VERTEX
  5
4E4
330
270
100
AcDbEntity
  8
0
  6
CONTINUOUS
 62
     7
100
AcDbVertex
100
AcDb2dVertex
 10
6.8024770436
 20
6.6395058872
 30
0.0
  0
SEQEND
  5
4E5
330
270
100
AcDbEntity
  8
0
  6
CONTINUOUS
 62
     7
  0
ARC
  5
271
330
1F
100
AcDbEntity
  8
0
  6
CONTINUOUS
 62
     7
100
AcDbCircle
 10
6.9989421138
 20
6.4772140055
 30
0.0
 40
0.0974159214734957
100
AcDbArc
 50
233.9754214265
 51
296.3043862798
  0
ARC
  5
272
330
1F
100
AcDbEntity
  8
0
  6
CONTINUOUS
 62
     7
100
AcDbCircle
 10
6.7982646145
 20
6.4870467964
 30
0.0
 40
0.2734595032911225
100
AcDbArc
 50
33.0223739137
 51
58.3710289522
  0
LINE
  5
273
330
1F
100
AcDbEntity
  8
0
  6
CONTINUOUS
 62
     7
100
AcDbLine
 10
6.8651144553
 20
6.6417111624
 30
0.0
 11
6.9347115794
 21
6.647934194
 31
0.0
  0
LINE
  5
274
330
1F
100
AcDbEntity
  8
0
  6
CONTINUOUS
 62
     7
100
AcDbLine
 10
6.8651144553
 20
6.54890997
 30
0.0
 11
6.8651144553
 21
6.6417111624
 31
0.0
  0
LINE
  5
275
330
1F
100
AcDbEntity
  8
0
  6
CONTINUOUS
 62
     7
100
AcDbLine
 10
6.9347115794
 20
6.4623318092
 30
0.0
 11
6.8651144553
 21
6.54890997
 31
0.0
  0
LINE
  5
276
330
1F
100
AcDbEntity
  8
0
  6
CONTINUOUS
 62
     7
100
AcDbLine
 10
7.0043087036
 20
6.4685548408
 30
0.0
 11
6.9347115794
 21
6.4623318092
 31
0.0
  0
LINE
  5
277
330
1F
100
AcDbEntity
  8
0
  6
CONTINUOUS
 62
     7
100
AcDbLine
 10
7.0043087036
 20
6.5613560333
 30
0.0
 11
7.0043087036
 21
6.4685548408
 31
0.0
  0
LINE
  5
278
330
1F
100
AcDbEntity
  8
0
  6
CONTINUOUS
 62
     7
100
AcDbLine
 10
6.9347115794
 20
6.647934194
 30
0.0
 11
7.0043087036
 21
6.5613560333
 31
0.0
  0
LINE
  5
279
330
1F
100
AcDbEntity
  8
0
  6
CONTINUOUS
 62
     7
100
AcDbLine
 10
7.0043087036
 20
6.5025093737
 30
0.0
 11
6.9347115794
 21
6.4623318092
 31
0.0
  0
LINE
  5
27A
330
1F
100
AcDbEntity
  8
0
  6
CONTINUOUS
 62
     7
100
AcDbLine
 10
6.9670222168
 20
6.6077400684
 30
0.0
 11
6.8651144553
 21
6.54890997
 31
0.0
  0
POLYLINE
  5
27B
330
1F
100
AcDbEntity
  8
0
  6
CONTINUOUS
 62
     7
100
AcDb2dPolyline
 66
     1
 10
0.0
 20
0.0
 30
0.0
  0
VERTEX
  5
4E6
330
27B
100
AcDbEntity
  8
0
  6
CONTINUOUS
 62
     7
100
AcDbVertex
100
AcDb2dVertex
 10
6.998954361
 20
7.0262051846
 30
0.0
  0
VERTEX
  5
4E7
330
27B
100
AcDbEntity
  8
0
  6
CONTINUOUS
 62
     7
100
AcDbVertex
100
AcDb2dVertex
 10
7.0167400827
 20
7.0791218831
 30
0.0
  0
VERTEX
  5
4E8
330
27B
100
AcDbEntity
  8
0
  6
CONTINUOUS
 62
     7
100
AcDbVertex
100
AcDb2dVertex
 10
7.0362323853
 20
7.1320173503
 30
0.0
  0
VERTEX
  5
4E9
330
27B
100
AcDbEntity
  8
0
  6
CONTINUOUS
 62
     7
100
AcDbVertex
100
AcDb2dVertex
 10
7.0573886743
 20
7.1847759993
 30
0.0
  0
VERTEX
  5
4EA
330
27B
100
AcDbEntity
  8
0
  6
CONTINUOUS
 62
     7
100
AcDbVertex
100
AcDb2dVertex
 10
7.0801627192
 20
7.2372825426
 30
0.0
  0
VERTEX
  5
4EB
330
27B
100
AcDbEntity
  8
0
  6
CONTINUOUS
 62
     7
100
AcDbVertex
100
AcDb2dVertex
 10
7.1045047545
 20
7.2894222433
 30
0.0
  0
VERTEX
  5
4EC
330
27B
100
AcDbEntity
  8
0
  6
CONTINUOUS
 62
     7
100
AcDbVertex
100
AcDb2dVertex
 10
7.1303615882
 20
7.3410811662
 30
0.0
  0
VERTEX
  5
4ED
330
27B
100
AcDbEntity
  8
0
  6
CONTINUOUS
 62
     7
100
AcDbVertex
100
AcDb2dVertex
 10
7.157676718
 20
7.3921464268
 30
0.0
  0
VERTEX
  5
4EE
330
27B
100
AcDbEntity
  8
0
  6
CONTINUOUS
 62
     7
100
AcDbVertex
100
AcDb2dVertex
 10
7.1863904554
 20
7.4425064378
 30
0.0
  0
VERTEX
  5
4EF
330
27B
100
AcDbEntity
  8
0
  6
CONTINUOUS
 62
     7
100
AcDbVertex
100
AcDb2dVertex
 10
7.2164400552
 20
7.4920511529
 30
0.0
  0
VERTEX
  5
4F0
330
27B
100
AcDbEntity
  8
0
  6
CONTINUOUS
 62
     7
100
AcDbVertex
100
AcDb2dVertex
 10
7.2477598535
 20
7.5406723076
 30
0.0
  0
VERTEX
  5
4F1
330
27B
100
AcDbEntity
  8
0
  6
CONTINUOUS
 62
     7
100
AcDbVertex
100
AcDb2dVertex
 10
7.2802814104
 20
7.5882636553
 30
0.0
  0
VERTEX
  5
4F2
330
27B
100
AcDbEntity
  8
0
  6
CONTINUOUS
 62
     7
100
AcDbVertex
100
AcDb2dVertex
 10
7.3139336603
 20
7.6347211998
 30
0.0
  0
VERTEX
  5
4F3
330
27B
100
AcDbEntity
  8
0
  6
CONTINUOUS
 62
     7
100
AcDbVertex
100
AcDb2dVertex
 10
7.3486430664
 20
7.6799434227
 30
0.0
  0
VERTEX
  5
4F4
330
27B
100
AcDbEntity
  8
0
  6
CONTINUOUS
 62
     7
100
AcDbVertex
100
AcDb2dVertex
 10
7.3843337823
 20
7.7238315047
 30
0.0
  0
VERTEX
  5
4F5
330
27B
100
AcDbEntity
  8
0
  6
CONTINUOUS
 62
     7
100
AcDbVertex
100
AcDb2dVertex
 10
7.4209278167
 20
7.7662895421
 30
0.0
  0
VERTEX
  5
4F6
330
27B
100
AcDbEntity
  8
0
  6
CONTINUOUS
 62
     7
100
AcDbVertex
100
AcDb2dVertex
 10
7.4583452049
 20
7.8072247558
 30
0.0
  0
VERTEX
  5
4F7
330
27B
100
AcDbEntity
  8
0
  6
CONTINUOUS
 62
     7
100
AcDbVertex
100
AcDb2dVertex
 10
7.4965041827
 20
7.8465476948
 30
0.0
  0
VERTEX
  5
4F8
330
27B
100
AcDbEntity
  8
0
  6
CONTINUOUS
 62
     7
100
AcDbVertex
100
AcDb2dVertex
 10
7.5353213655
 20
7.8841724309
 30
0.0
  0
VERTEX
  5
4F9
330
27B
100
AcDbEntity
  8
0
  6
CONTINUOUS
 62
     7
100
AcDbVertex
100
AcDb2dVertex
 10
7.5747119303
 20
7.9200167469
 30
0.0
  0
VERTEX
  5
4FA
330
27B
100
AcDbEntity
  8
0
  6
CONTINUOUS
 62
     7
100
AcDbVertex
100
AcDb2dVertex
 10
7.6145898013
 20
7.9540023161
 30
0.0
  0
VERTEX
  5
4FB
330
27B
100
AcDbEntity
  8
0
  6
CONTINUOUS
 62
     7
100
AcDbVertex
100
AcDb2dVertex
 10
7.6548678377
 20
7.9860548736
 30
0.0
  0
VERTEX
  5
4FC
330
27B
100
AcDbEntity
  8
0
  6
CONTINUOUS
 62
     7
100
AcDbVertex
100
AcDb2dVertex
 10
7.6954580243
 20
8.0161043784
 30
0.0
  0
VERTEX
  5
4FD
330
27B
100
AcDbEntity
  8
0
  6
CONTINUOUS
 62
     7
100
AcDbVertex
100
AcDb2dVertex
 10
7.736271664
 20
8.0440851667
 30
0.0
  0
VERTEX
  5
4FE
330
27B
100
AcDbEntity
  8
0
  6
CONTINUOUS
 62
     7
100
AcDbVertex
100
AcDb2dVertex
 10
7.777219571
 20
8.0699360952
 30
0.0
  0
VERTEX
  5
4FF
330
27B
100
AcDbEntity
  8
0
  6
CONTINUOUS
 62
     7
100
AcDbVertex
100
AcDb2dVertex
 10
7.8182122664
 20
8.0936006745
 30
0.0
  0
VERTEX
  5
500
330
27B
100
AcDbEntity
  8
0
  6
CONTINUOUS
 62
     7
100
AcDbVertex
100
AcDb2dVertex
 10
7.8591601734
 20
8.1150271932
 30
0.0
  0
VERTEX
  5
501
330
27B
100
AcDbEntity
  8
0
  6
CONTINUOUS
 62
     7
100
AcDbVertex
100
AcDb2dVertex
 10
7.899973813
 20
8.1341688301
 30
0.0
  0
VERTEX
  5
502
330
27B
100
AcDbEntity
  8
0
  6
CONTINUOUS
 62
     7
100
AcDbVertex
100
AcDb2dVertex
 10
7.9405639997
 20
8.1509837573
 30
0.0
  0
VERTEX
  5
503
330
27B
100
AcDbEntity
  8
0
  6
CONTINUOUS
 62
     7
100
AcDbVertex
100
AcDb2dVertex
 10
7.9808420361
 20
8.1654352307
 30
0.0
  0
VERTEX
  5
504
330
27B
100
AcDbEntity
  8
0
  6
CONTINUOUS
 62
     7
100
AcDbVertex
100
AcDb2dVertex
 10
8.0207199071
 20
8.1774916713
 30
0.0
  0
VERTEX
  5
505
330
27B
100
AcDbEntity
  8
0
  6
CONTINUOUS
 62
     7
100
AcDbVertex
100
AcDb2dVertex
 10
8.0601104719
 20
8.1871267335
 30
0.0
  0
VERTEX
  5
506
330
27B
100
AcDbEntity
  8
0
  6
CONTINUOUS
 62
     7
100
AcDbVertex
100
AcDb2dVertex
 10
8.0989276547
 20
8.1943193626
 30
0.0
  0
VERTEX
  5
507
330
27B
100
AcDbEntity
  8
0
  6
CONTINUOUS
 62
     7
100
AcDbVertex
100
AcDb2dVertex
 10
8.1370866325
 20
8.1990538416
 30
0.0
  0
VERTEX
  5
508
330
27B
100
AcDbEntity
  8
0
  6
CONTINUOUS
 62
     7
100
AcDbVertex
100
AcDb2dVertex
 10
8.1745040206
 20
8.2013198247
 30
0.0
  0
VERTEX
  5
509
330
27B
100
AcDbEntity
  8
0
  6
CONTINUOUS
 62
     7
100
AcDbVertex
100
AcDb2dVertex
 10
8.2110980551
 20
8.2011123602
 30
0.0
  0
VERTEX
  5
50A
330
27B
100
AcDbEntity
  8
0
  6
CONTINUOUS
 62
     7
100
AcDbVertex
100
AcDb2dVertex
 10
8.2467887709
 20
8.1984319016
 30
0.0
  0
VERTEX
  5
50B
330
27B
100
AcDbEntity
  8
0
  6
CONTINUOUS
 62
     7
100
AcDbVertex
100
AcDb2dVertex
 10
8.2814981771
 20
8.193284306
 30
0.0
  0
VERTEX
  5
50C
330
27B
100
AcDbEntity
  8
0
  6
CONTINUOUS
 62
     7
100
AcDbVertex
100
AcDb2dVertex
 10
8.3151504269
 20
8.1856808221
 30
0.0
  0
VERTEX
  5
50D
330
27B
100
AcDbEntity
  8
0
  6
CONTINUOUS
 62
     7
100
AcDbVertex
100
AcDb2dVertex
 10
8.3476719839
 20
8.1756380648
 30
0.0
  0
VERTEX
  5
50E
330
27B
100
AcDbEntity
  8
0
  6
CONTINUOUS
 62
     7
100
AcDbVertex
100
AcDb2dVertex
 10
8.3789917821
 20
8.1631779795
 30
0.0
  0
VERTEX
  5
50F
330
27B
100
AcDbEntity
  8
0
  6
CONTINUOUS
 62
     7
100
AcDbVertex
100
AcDb2dVertex
 10
8.409041382
 20
8.1483277939
 30
0.0
  0
VERTEX
  5
510
330
27B
100
AcDbEntity
  8
0
  6
CONTINUOUS
 62
     7
100
AcDbVertex
100
AcDb2dVertex
 10
8.4315074794
 20
8.1351366935
 30
0.0
  0
SEQEND
  5
511
330
27B
100
AcDbEntity
  8
0
  6
CONTINUOUS
 62
     7
  0
LINE
  5
27C
330
1F
100
AcDbEntity
  8
0
  6
CONTINUOUS
 62
     7
100
AcDbLine
 10
6.998954361
 20
7.0262051846
 30
0.0
 11
7.2912622824
 21
6.8574594134
 31
0.0
  0
POLYLINE
  5
27D
330
1F
100
AcDbEntity
  8
0
  6
CONTINUOUS
 62
     7
100
AcDb2dPolyline
 66
     1
 10
0.0
 20
0.0
 30
0.0
  0
VERTEX
  5
512
330
27D
100
AcDbEntity
  8
0
  6
CONTINUOUS
 62
     7
100
AcDbVertex
100
AcDb2dVertex
 10
7.2912622824
 20
6.8574594134
 30
0.0
  0
VERTEX
  5
513
330
27D
100
AcDbEntity
  8
0
  6
CONTINUOUS
 62
     7
100
AcDbVertex
100
AcDb2dVertex
 10
7.2750541884
 20
6.8040527934
 30
0.0
  0
VERTEX
  5
514
330
27D
100
AcDbEntity
  8
0
  6
CONTINUOUS
 62
     7
100
AcDbVertex
100
AcDb2dVertex
 10
7.2606666344
 20
6.750861982
 30
0.0
  0
VERTEX
  5
515
330
27D
100
AcDbEntity
  8
0
  6
CONTINUOUS
 62
     7
100
AcDbVertex
100
AcDb2dVertex
 10
7.2481317604
 20
6.6980058006
 30
0.0
  0
VERTEX
  5
516
330
27D
100
AcDbEntity
  8
0
  6
CONTINUOUS
 62
     7
100
AcDbVertex
100
AcDb2dVertex
 10
7.2374775677
 20
6.6456023234
 30
0.0
  0
VERTEX
  5
517
330
27D
100
AcDbEntity
  8
0
  6
CONTINUOUS
 62
     7
100
AcDbVertex
100
AcDb2dVertex
 10
7.2287278565
 20
6.5937686133
 30
0.0
  0
VERTEX
  5
518
330
27D
100
AcDbEntity
  8
0
  6
CONTINUOUS
 62
     7
100
AcDbVertex
100
AcDb2dVertex
 10
7.2219021725
 20
6.5426204601
 30
0.0
  0
VERTEX
  5
519
330
27D
100
AcDbEntity
  8
0
  6
CONTINUOUS
 62
     7
100
AcDbVertex
100
AcDb2dVertex
 10
7.2170157634
 20
6.4922721224
 30
0.0
  0
VERTEX
  5
51A
330
27D
100
AcDbEntity
  8
0
  6
CONTINUOUS
 62
     7
100
AcDbVertex
100
AcDb2dVertex
 10
7.2140795448
 20
6.4428360722
 30
0.0
  0
VERTEX
  5
51B
330
27D
100
AcDbEntity
  8
0
  6
CONTINUOUS
 62
     7
100
AcDbVertex
100
AcDb2dVertex
 10
7.213100076
 20
6.3944227434
 30
0.0
  0
VERTEX
  5
51C
330
27D
100
AcDbEntity
  8
0
  6
CONTINUOUS
 62
     7
100
AcDbVertex
100
AcDb2dVertex
 10
7.2140795448
 20
6.3471402852
 30
0.0
  0
VERTEX
  5
51D
330
27D
100
AcDbEntity
  8
0
  6
CONTINUOUS
 62
     7
100
AcDbVertex
100
AcDb2dVertex
 10
7.2170157634
 20
6.3010943208
 30
0.0
  0
VERTEX
  5
51E
330
27D
100
AcDbEntity
  8
0
  6
CONTINUOUS
 62
     7
100
AcDbVertex
100
AcDb2dVertex
 10
7.2219021725
 20
6.256387711
 30
0.0
  0
VERTEX
  5
51F
330
27D
100
AcDbEntity
  8
0
  6
CONTINUOUS
 62
     7
100
AcDbVertex
100
AcDb2dVertex
 10
7.2287278565
 20
6.2131203248
 30
0.0
  0
VERTEX
  5
520
330
27D
100
AcDbEntity
  8
0
  6
CONTINUOUS
 62
     7
100
AcDbVertex
100
AcDb2dVertex
 10
7.2374775677
 20
6.1713888162
 30
0.0
  0
VERTEX
  5
521
330
27D
100
AcDbEntity
  8
0
  6
CONTINUOUS
 62
     7
100
AcDbVertex
100
AcDb2dVertex
 10
7.2481317604
 20
6.1312864081
 30
0.0
  0
VERTEX
  5
522
330
27D
100
AcDbEntity
  8
0
  6
CONTINUOUS
 62
     7
100
AcDbVertex
100
AcDb2dVertex
 10
7.2606666344
 20
6.0929026842
 30
0.0
  0
VERTEX
  5
523
330
27D
100
AcDbEntity
  8
0
  6
CONTINUOUS
 62
     7
100
AcDbVertex
100
AcDb2dVertex
 10
7.2750541884
 20
6.0563233889
 30
0.0
  0
VERTEX
  5
524
330
27D
100
AcDbEntity
  8
0
  6
CONTINUOUS
 62
     7
100
AcDbVertex
100
AcDb2dVertex
 10
7.2912622824
 20
6.0216302359
 30
0.0
  0
SEQEND
  5
525
330
27D
100
AcDbEntity
  8
0
  6
CONTINUOUS
 62
     7
  0
LINE
  5
27E
330
1F
100
AcDbEntity
  8
0
  6
CONTINUOUS
 62
     7
100
AcDbLine
 10
7.2912622824
 20
6.0216302359
 30
0.0
 11
6.998954361
 21
6.1903760071
 31
0.0
  0
ARC
  5
27F
330
1F
100
AcDbEntity
  8
0
  6
CONTINUOUS
 62
     7
100
AcDbCircle
 10
7.4096693653
 20
6.3878568743
 30
0.0
 40
0.4557252546518105
100
AcDbArc
 50
205.6792779562
 51
241.4351934819
  0
SPLINE
  5
280
330
1F
100
AcDbEntity
  8
0
  6
CONTINUOUS
 62
     7
100
AcDbSpline
210
0.0
220
0.0
230
1.0
 70
     8
 71
     3
 72
    13
 73
     9
 74
     0
 42
0.00000001
 43
0.00000001
 40
0.0
 40
0.0
 40
0.0
 40
0.0
 40
0.1789673577137535
 40
0.3631642861538489
 40
0.5421205413584237
 40
0.726191628449502
 40
0.9065283326694277
 40
1.0
 40
1.0
 40
1.0
 40
1.0
 10
7.073905827706291
 20
6.474777872491167
 30
0.0
 10
7.073598247682662
 20
6.466176791372995
 30
0.0
 10
7.072974099898713
 20
6.448723298600148
 30
0.0
 10
7.067916421172685
 20
6.426687006957138
 30
0.0
 10
7.059880586054367
 20
6.408125590190582
 30
0.0
 10
7.048642403212583
 20
6.394329728038375
 30
0.0
 10
7.037162002875238
 20
6.385808502301349
 30
0.0
 10
7.028575281896177
 20
6.383885816643323
 30
0.0
 10
7.025643979532155
 20
6.383229457478004
 30
0.0
  0
POLYLINE
  5
281
330
1F
100
AcDbEntity
  8
0
  6
CONTINUOUS
 62
     7
100
AcDb2dPolyline
 66
     1
 10
0.0
 20
0.0
 30
0.0
  0
VERTEX
  5
526
330
281
100
AcDbEntity
  8
0
  6
CONTINUOUS
 62
     7
100
AcDbVertex
100
AcDb2dVertex
 10
6.8355546452
 20
6.511995682
 30
0.0
  0
VERTEX
  5
527
330
281
100
AcDbEntity
  8
0
  6
CONTINUOUS
 62
     7
100
AcDbVertex
100
AcDb2dVertex
 10
6.8258399498
 20
6.5280311267
 30
0.0
  0
VERTEX
  5
528
330
281
100
AcDbEntity
  8
0
  6
CONTINUOUS
 62
     7
100
AcDbVertex
100
AcDb2dVertex
 10
6.8118899959
 20
6.5577211069
 30
0.0
  0
VERTEX
  5
529
330
281
100
AcDbEntity
  8
0
  6
CONTINUOUS
 62
     7
100
AcDbVertex
100
AcDb2dVertex
 10
6.8022041209
 20
6.5868022049
 30
0.0
  0
VERTEX
  5
52A
330
281
100
AcDbEntity
  8
0
  6
CONTINUOUS
 62
     7
100
AcDbVertex
100
AcDb2dVertex
 10
6.7966297031
 20
6.6161717999
 30
0.0
  0
VERTEX
  5
52B
330
281
100
AcDbEntity
  8
0
  6
CONTINUOUS
 62
     7
100
AcDbVertex
100
AcDb2dVertex
 10
6.7957002694
 20
6.6430651673
 30
0.0
  0
VERTEX
  5
52C
330
281
100
AcDbEntity
  8
0
  6
CONTINUOUS
 62
     7
100
AcDbVertex
100
AcDb2dVertex
 10
6.7993159048
 20
6.6685960125
 30
0.0
  0
VERTEX
  5
52D
330
281
100
AcDbEntity
  8
0
  6
CONTINUOUS
 62
     7
100
AcDbVertex
100
AcDb2dVertex
 10
6.8070753978
 20
6.6904783356
 30
0.0
  0
VERTEX
  5
52E
330
281
100
AcDbEntity
  8
0
  6
CONTINUOUS
 62
     7
100
AcDbVertex
100
AcDb2dVertex
 10
6.8191106214
 20
6.7094493424
 30
0.0
  0
VERTEX
  5
52F
330
281
100
AcDbEntity
  8
0
  6
CONTINUOUS
 62
     7
100
AcDbVertex
100
AcDb2dVertex
 10
6.8344424215
 20
6.7239931849
 30
0.0
  0
VERTEX
  5
530
330
281
100
AcDbEntity
  8
0
  6
CONTINUOUS
 62
     7
100
AcDbVertex
100
AcDb2dVertex
 10
6.8532745782
 20
6.7342791921
 30
0.0
  0
VERTEX
  5
531
330
281
100
AcDbEntity
  8
0
  6
CONTINUOUS
 62
     7
100
AcDbVertex
100
AcDb2dVertex
 10
6.8741075423
 20
6.7393996026
 30
0.0
  0
VERTEX
  5
532
330
281
100
AcDbEntity
  8
0
  6
CONTINUOUS
 62
     7
100
AcDbVertex
100
AcDb2dVertex
 10
6.8972387405
 20
6.7392828487
 30
0.0
  0
VERTEX
  5
533
330
281
100
AcDbEntity
  8
0
  6
CONTINUOUS
 62
     7
100
AcDbVertex
100
AcDb2dVertex
 10
6.9204998979
 20
6.7338868333
 30
0.0
  0
VERTEX
  5
534
330
281
100
AcDbEntity
  8
0
  6
CONTINUOUS
 62
     7
100
AcDbVertex
100
AcDb2dVertex
 10
6.9445833671
 20
6.7229992083
 30
0.0
  0
VERTEX
  5
535
330
281
100
AcDbEntity
  8
0
  6
CONTINUOUS
 62
     7
100
AcDbVertex
100
AcDb2dVertex
 10
6.9671437968
 20
6.7077281316
 30
0.0
  0
VERTEX
  5
536
330
281
100
AcDbEntity
  8
0
  6
CONTINUOUS
 62
     7
100
AcDbVertex
100
AcDb2dVertex
 10
6.9891371143
 20
6.6875546712
 30
0.0
  0
VERTEX
  5
537
330
281
100
AcDbEntity
  8
0
  6
CONTINUOUS
 62
     7
100
AcDbVertex
100
AcDb2dVertex
 10
7.0087815632
 20
6.6642370344
 30
0.0
  0
VERTEX
  5
538
330
281
100
AcDbEntity
  8
0
  6
CONTINUOUS
 62
     7
100
AcDbVertex
100
AcDb2dVertex
 10
7.0267836951
 20
6.637167428
 30
0.0
  0
VERTEX
  5
539
330
281
100
AcDbEntity
  8
0
  6
CONTINUOUS
 62
     7
100
AcDbVertex
100
AcDb2dVertex
 10
7.0419633508
 20
6.6083246631
 30
0.0
  0
VERTEX
  5
53A
330
281
100
AcDbEntity
  8
0
  6
CONTINUOUS
 62
     7
100
AcDbVertex
100
AcDb2dVertex
 10
7.0547081035
 20
6.5772493829
 30
0.0
  0
VERTEX
  5
53B
330
281
100
AcDbEntity
  8
0
  6
CONTINUOUS
 62
     7
100
AcDbVertex
100
AcDb2dVertex
 10
7.0641515516
 20
6.5464258239
 30
0.0
  0
VERTEX
  5
53C
330
281
100
AcDbEntity
  8
0
  6
CONTINUOUS
 62
     7
100
AcDbVertex
100
AcDb2dVertex
 10
7.0706101048
 20
6.5152045733
 30
0.0
  0
VERTEX
  5
53D
330
281
100
AcDbEntity
  8
0
  6
CONTINUOUS
 62
     7
100
AcDbVertex
100
AcDb2dVertex
 10
7.0730683222
 20
6.494626402
 30
0.0
  0
VERTEX
  5
53E
330
281
100
AcDbEntity
  8
0
  6
CONTINUOUS
 62
     7
100
AcDbVertex
100
AcDb2dVertex
 10
7.0739058277
 20
6.4747778725
 30
0.0
  0
VERTEX
  5
53F
330
281
100
AcDbEntity
  8
0
  6
CONTINUOUS
 62
     7
100
AcDbVertex
100
AcDb2dVertex
 10
7.0739058277
 20
6.4747778725
 30
0.0
  0
SEQEND
  5
540
330
281
100
AcDbEntity
  8
0
  6
CONTINUOUS
 62
     7
  0
POLYLINE
  5
282
330
1F
100
AcDbEntity
  8
0
  6
CONTINUOUS
 62
     7
100
AcDb2dPolyline
 66
     1
 10
0.0
 20
0.0
 30
0.0
  0
VERTEX
  5
541
330
282
100
AcDbEntity
  8
0
  6
CONTINUOUS
 62
     7
100
AcDbVertex
100
AcDb2dVertex
 10
6.6563230829
 20
6.7158432598
 30
0.0
  0
VERTEX
  5
542
330
282
100
AcDbEntity
  8
0
  6
CONTINUOUS
 62
     7
100
AcDbVertex
100
AcDb2dVertex
 10
6.6572869173
 20
6.6689349794
 30
0.0
  0
VERTEX
  5
543
330
282
100
AcDbEntity
  8
0
  6
CONTINUOUS
 62
     7
100
AcDbVertex
100
AcDb2dVertex
 10
6.6601763017
 20
6.623242633
 30
0.0
  0
VERTEX
  5
544
330
282
100
AcDbEntity
  8
0
  6
CONTINUOUS
 62
     7
100
AcDbVertex
100
AcDb2dVertex
 10
6.6649848846
 20
6.5788666624
 30
0.0
  0
VERTEX
  5
545
330
282
100
AcDbEntity
  8
0
  6
CONTINUOUS
 62
     7
100
AcDbVertex
100
AcDb2dVertex
 10
6.6717020958
 20
6.5359046156
 30
0.0
  0
VERTEX
  5
546
330
282
100
AcDbEntity
  8
0
  6
CONTINUOUS
 62
     7
100
AcDbVertex
100
AcDb2dVertex
 10
6.6803131693
 20
6.4944509324
 30
0.0
  0
VERTEX
  5
547
330
282
100
AcDbEntity
  8
0
  6
CONTINUOUS
 62
     7
100
AcDbVertex
100
AcDb2dVertex
 10
6.6907991762
 20
6.4545967371
 30
0.0
  0
VERTEX
  5
548
330
282
100
AcDbEntity
  8
0
  6
CONTINUOUS
 62
     7
100
AcDbVertex
100
AcDb2dVertex
 10
6.7031370659
 20
6.4164296379
 30
0.0
  0
VERTEX
  5
549
330
282
100
AcDbEntity
  8
0
  6
CONTINUOUS
 62
     7
100
AcDbVertex
100
AcDb2dVertex
 10
6.717299717
 20
6.3800335342
 30
0.0
  0
VERTEX
  5
54A
330
282
100
AcDbEntity
  8
0
  6
CONTINUOUS
 62
     7
100
AcDbVertex
100
AcDb2dVertex
 10
6.733255997
 20
6.3454884327
 30
0.0
  0
VERTEX
  5
54B
330
282
100
AcDbEntity
  8
0
  6
CONTINUOUS
 62
     7
100
AcDbVertex
100
AcDb2dVertex
 10
6.7509708305
 20
6.3128702709
 30
0.0
  0
VERTEX
  5
54C
330
282
100
AcDbEntity
  8
0
  6
CONTINUOUS
 62
     7
100
AcDbVertex
100
AcDb2dVertex
 10
6.7704052765
 20
6.2822507508
 30
0.0
  0
VERTEX
  5
54D
330
282
100
AcDbEntity
  8
0
  6
CONTINUOUS
 62
     7
100
AcDbVertex
100
AcDb2dVertex
 10
6.7915166138
 20
6.2536971805
 30
0.0
  0
VERTEX
  5
54E
330
282
100
AcDbEntity
  8
0
  6
CONTINUOUS
 62
     7
100
AcDbVertex
100
AcDb2dVertex
 10
6.8142584351
 20
6.2272723271
 30
0.0
  0
VERTEX
  5
54F
330
282
100
AcDbEntity
  8
0
  6
CONTINUOUS
 62
     7
100
AcDbVertex
100
AcDb2dVertex
 10
6.838580749
 20
6.2030342782
 30
0.0
  0
VERTEX
  5
550
330
282
100
AcDbEntity
  8
0
  6
CONTINUOUS
 62
     7
100
AcDbVertex
100
AcDb2dVertex
 10
6.8644300898
 20
6.1810363141
 30
0.0
  0
VERTEX
  5
551
330
282
100
AcDbEntity
  8
0
  6
CONTINUOUS
 62
     7
100
AcDbVertex
100
AcDb2dVertex
 10
6.8917496349
 20
6.1613267913
 30
0.0
  0
VERTEX
  5
552
330
282
100
AcDbEntity
  8
0
  6
CONTINUOUS
 62
     7
100
AcDbVertex
100
AcDb2dVertex
 10
6.913218499
 20
6.1480435983
 30
0.0
  0
SEQEND
  5
553
330
282
100
AcDbEntity
  8
0
  6
CONTINUOUS
 62
     7
  0
POLYLINE
  5
283
330
1F
100
AcDbEntity
  8
0
  6
CONTINUOUS
 62
     7
100
AcDb2dPolyline
 66
     1
 10
0.0
 20
0.0
 30
0.0
  0
VERTEX
  5
554
330
283
100
AcDbEntity
  8
0
  6
CONTINUOUS
 62
     7
100
AcDbVertex
100
AcDb2dVertex
 10
8.153275195
 20
8.2961175483
 30
0.0
  0
VERTEX
  5
555
330
283
100
AcDbEntity
  8
0
  6
CONTINUOUS
 62
     7
100
AcDbVertex
100
AcDb2dVertex
 10
8.1460143638
 20
8.3002121111
 30
0.0
  0
VERTEX
  5
556
330
283
100
AcDbEntity
  8
0
  6
CONTINUOUS
 62
     7
100
AcDbVertex
100
AcDb2dVertex
 10
8.1159376726
 20
8.3152198998
 30
0.0
  0
VERTEX
  5
557
330
283
100
AcDbEntity
  8
0
  6
CONTINUOUS
 62
     7
100
AcDbVertex
100
AcDb2dVertex
 10
8.0845801005
 20
8.327824731
 30
0.0
  0
VERTEX
  5
558
330
283
100
AcDbEntity
  8
0
  6
CONTINUOUS
 62
     7
100
AcDbVertex
100
AcDb2dVertex
 10
8.0520105782
 20
8.3379988966
 30
0.0
  0
VERTEX
  5
559
330
283
100
AcDbEntity
  8
0
  6
CONTINUOUS
 62
     7
100
AcDbVertex
100
AcDb2dVertex
 10
8.0183007007
 20
8.3457200315
 30
0.0
  0
VERTEX
  5
55A
330
283
100
AcDbEntity
  8
0
  6
CONTINUOUS
 62
     7
100
AcDbVertex
100
AcDb2dVertex
 10
7.9835245695
 20
8.350971163
 30
0.0
  0
VERTEX
  5
55B
330
283
100
AcDbEntity
  8
0
  6
CONTINUOUS
 62
     7
100
AcDbVertex
100
AcDb2dVertex
 10
7.9477586302
 20
8.353740748
 30
0.0
  0
VERTEX
  5
55C
330
283
100
AcDbEntity
  8
0
  6
CONTINUOUS
 62
     7
100
AcDbVertex
100
AcDb2dVertex
 10
7.911081504
 20
8.3540226983
 30
0.0
  0
VERTEX
  5
55D
330
283
100
AcDbEntity
  8
0
  6
CONTINUOUS
 62
     7
100
AcDbVertex
100
AcDb2dVertex
 10
7.8735738152
 20
8.3518163942
 30
0.0
  0
VERTEX
  5
55E
330
283
100
AcDbEntity
  8
0
  6
CONTINUOUS
 62
     7
100
AcDbVertex
100
AcDb2dVertex
 10
7.8353180139
 20
8.3471266856
 30
0.0
  0
VERTEX
  5
55F
330
283
100
AcDbEntity
  8
0
  6
CONTINUOUS
 62
     7
100
AcDbVertex
100
AcDb2dVertex
 10
7.7963981946
 20
8.3399638814
 30
0.0
  0
VERTEX
  5
560
330
283
100
AcDbEntity
  8
0
  6
CONTINUOUS
 62
     7
100
AcDbVertex
100
AcDb2dVertex
 10
7.7568999116
 20
8.3303437272
 30
0.0
  0
VERTEX
  5
561
330
283
100
AcDbEntity
  8
0
  6
CONTINUOUS
 62
     7
100
AcDbVertex
100
AcDb2dVertex
 10
7.7169099906
 20
8.3182873699
 30
0.0
  0
VERTEX
  5
562
330
283
100
AcDbEntity
  8
0
  6
CONTINUOUS
 62
     7
100
AcDbVertex
100
AcDb2dVertex
 10
7.6765163381
 20
8.3038213123
 30
0.0
  0
VERTEX
  5
563
330
283
100
AcDbEntity
  8
0
  6
CONTINUOUS
 62
     7
100
AcDbVertex
100
AcDb2dVertex
 10
7.6358077482
 20
8.2869773537
 30
0.0
  0
VERTEX
  5
564
330
283
100
AcDbEntity
  8
0
  6
CONTINUOUS
 62
     7
100
AcDbVertex
100
AcDb2dVertex
 10
7.5948737071
 20
8.2677925209
 30
0.0
  0
VERTEX
  5
565
330
283
100
AcDbEntity
  8
0
  6
CONTINUOUS
 62
     7
100
AcDbVertex
100
AcDb2dVertex
 10
7.5538041969
 20
8.2463089863
 30
0.0
  0
VERTEX
  5
566
330
283
100
AcDbEntity
  8
0
  6
CONTINUOUS
 62
     7
100
AcDbVertex
100
AcDb2dVertex
 10
7.5126894971
 20
8.2225739753
 30
0.0
  0
VERTEX
  5
567
330
283
100
AcDbEntity
  8
0
  6
CONTINUOUS
 62
     7
100
AcDbVertex
100
AcDb2dVertex
 10
7.4716199868
 20
8.1966396627
 30
0.0
  0
VERTEX
  5
568
330
283
100
AcDbEntity
  8
0
  6
CONTINUOUS
 62
     7
100
AcDbVertex
100
AcDb2dVertex
 10
7.4306859458
 20
8.1685630577
 30
0.0
  0
VERTEX
  5
569
330
283
100
AcDbEntity
  8
0
  6
CONTINUOUS
 62
     7
100
AcDbVertex
100
AcDb2dVertex
 10
7.3899773559
 20
8.1384058788
 30
0.0
  0
VERTEX
  5
56A
330
283
100
AcDbEntity
  8
0
  6
CONTINUOUS
 62
     7
100
AcDbVertex
100
AcDb2dVertex
 10
7.3495837034
 20
8.106234418
 30
0.0
  0
VERTEX
  5
56B
330
283
100
AcDbEntity
  8
0
  6
CONTINUOUS
 62
     7
100
AcDbVertex
100
AcDb2dVertex
 10
7.3095937824
 20
8.0721193952
 30
0.0
  0
VERTEX
  5
56C
330
283
100
AcDbEntity
  8
0
  6
CONTINUOUS
 62
     7
100
AcDbVertex
100
AcDb2dVertex
 10
7.2700954993
 20
8.0361358026
 30
0.0
  0
VERTEX
  5
56D
330
283
100
AcDbEntity
  8
0
  6
CONTINUOUS
 62
     7
100
AcDbVertex
100
AcDb2dVertex
 10
7.23117568
 20
7.9983627399
 30
0.0
  0
VERTEX
  5
56E
330
283
100
AcDbEntity
  8
0
  6
CONTINUOUS
 62
     7
100
AcDbVertex
100
AcDb2dVertex
 10
7.1929198787
 20
7.9588832405
 30
0.0
  0
VERTEX
  5
56F
330
283
100
AcDbEntity
  8
0
  6
CONTINUOUS
 62
     7
100
AcDbVertex
100
AcDb2dVertex
 10
7.15541219
 20
7.917784089
 30
0.0
  0
VERTEX
  5
570
330
283
100
AcDbEntity
  8
0
  6
CONTINUOUS
 62
     7
100
AcDbVertex
100
AcDb2dVertex
 10
7.1187350638
 20
7.8751556301
 30
0.0
  0
VERTEX
  5
571
330
283
100
AcDbEntity
  8
0
  6
CONTINUOUS
 62
     7
100
AcDbVertex
100
AcDb2dVertex
 10
7.0829691245
 20
7.8310915705
 30
0.0
  0
VERTEX
  5
572
330
283
100
AcDbEntity
  8
0
  6
CONTINUOUS
 62
     7
100
AcDbVertex
100
AcDb2dVertex
 10
7.0481929933
 20
7.7856887726
 30
0.0
  0
VERTEX
  5
573
330
283
100
AcDbEntity
  8
0
  6
CONTINUOUS
 62
     7
100
AcDbVertex
100
AcDb2dVertex
 10
7.0144831158
 20
7.7390470415
 30
0.0
  0
VERTEX
  5
574
330
283
100
AcDbEntity
  8
0
  6
CONTINUOUS
 62
     7
100
AcDbVertex
100
AcDb2dVertex
 10
6.9819135935
 20
7.691268906
 30
0.0
  0
VERTEX
  5
575
330
283
100
AcDbEntity
  8
0
  6
CONTINUOUS
 62
     7
100
AcDbVertex
100
AcDb2dVertex
 10
6.9505560214
 20
7.6424593926
 30
0.0
  0
VERTEX
  5
576
330
283
100
AcDbEntity
  8
0
  6
CONTINUOUS
 62
     7
100
AcDbVertex
100
AcDb2dVertex
 10
6.9204793302
 20
7.5927257954
 30
0.0
  0
VERTEX
  5
577
330
283
100
AcDbEntity
  8
0
  6
CONTINUOUS
 62
     7
100
AcDbVertex
100
AcDb2dVertex
 10
6.8917496349
 20
7.5421774396
 30
0.0
  0
VERTEX
  5
578
330
283
100
AcDbEntity
  8
0
  6
CONTINUOUS
 62
     7
100
AcDbVertex
100
AcDb2dVertex
 10
6.8644300898
 20
7.4909254413
 30
0.0
  0
VERTEX
  5
579
330
283
100
AcDbEntity
  8
0
  6
CONTINUOUS
 62
     7
100
AcDbVertex
100
AcDb2dVertex
 10
6.838580749
 20
7.4390824637
 30
0.0
  0
VERTEX
  5
57A
330
283
100
AcDbEntity
  8
0
  6
CONTINUOUS
 62
     7
100
AcDbVertex
100
AcDb2dVertex
 10
6.8142584351
 20
7.3867624688
 30
0.0
  0
VERTEX
  5
57B
330
283
100
AcDbEntity
  8
0
  6
CONTINUOUS
 62
     7
100
AcDbVertex
100
AcDb2dVertex
 10
6.7915166138
 20
7.3340804674
 30
0.0
  0
VERTEX
  5
57C
330
283
100
AcDbEntity
  8
0
  6
CONTINUOUS
 62
     7
100
AcDbVertex
100
AcDb2dVertex
 10
6.7704052765
 20
7.281152266
 30
0.0
  0
VERTEX
  5
57D
330
283
100
AcDbEntity
  8
0
  6
CONTINUOUS
 62
     7
100
AcDbVertex
100
AcDb2dVertex
 10
6.7509708305
 20
7.2280942121
 30
0.0
  0
VERTEX
  5
57E
330
283
100
AcDbEntity
  8
0
  6
CONTINUOUS
 62
     7
100
AcDbVertex
100
AcDb2dVertex
 10
6.733255997
 20
7.1750229389
 30
0.0
  0
VERTEX
  5
57F
330
283
100
AcDbEntity
  8
0
  6
CONTINUOUS
 62
     7
100
AcDbVertex
100
AcDb2dVertex
 10
6.717299717
 20
7.1220551087
 30
0.0
  0
VERTEX
  5
580
330
283
100
AcDbEntity
  8
0
  6
CONTINUOUS
 62
     7
100
AcDbVertex
100
AcDb2dVertex
 10
6.7031370659
 20
7.0693071561
 30
0.0
  0
VERTEX
  5
581
330
283
100
AcDbEntity
  8
0
  6
CONTINUOUS
 62
     7
100
AcDbVertex
100
AcDb2dVertex
 10
6.6907991762
 20
7.0168950326
 30
0.0
  0
VERTEX
  5
582
330
283
100
AcDbEntity
  8
0
  6
CONTINUOUS
 62
     7
100
AcDbVertex
100
AcDb2dVertex
 10
6.6803131693
 20
6.9649339515
 30
0.0
  0
VERTEX
  5
583
330
283
100
AcDbEntity
  8
0
  6
CONTINUOUS
 62
     7
100
AcDbVertex
100
AcDb2dVertex
 10
6.6717020958
 20
6.9135381345
 30
0.0
  0
VERTEX
  5
584
330
283
100
AcDbEntity
  8
0
  6
CONTINUOUS
 62
     7
100
AcDbVertex
100
AcDb2dVertex
 10
6.6649848846
 20
6.8628205607
 30
0.0
  0
VERTEX
  5
585
330
283
100
AcDbEntity
  8
0
  6
CONTINUOUS
 62
     7
100
AcDbVertex
100
AcDb2dVertex
 10
6.6601763017
 20
6.8128927184
 30
0.0
  0
VERTEX
  5
586
330
283
100
AcDbEntity
  8
0
  6
CONTINUOUS
 62
     7
100
AcDbVertex
100
AcDb2dVertex
 10
6.6572869173
 20
6.7638643598
 30
0.0
  0
VERTEX
  5
587
330
283
100
AcDbEntity
  8
0
  6
CONTINUOUS
 62
     7
100
AcDbVertex
100
AcDb2dVertex
 10
6.6563230829
 20
6.7158432598
 30
0.0
  0
SEQEND
  5
588
330
283
100
AcDbEntity
  8
0
  6
CONTINUOUS
 62
     7
  0
POLYLINE
  5
284
330
1F
100
AcDbEntity
  8
0
  6
CONTINUOUS
 62
     7
100
AcDb2dPolyline
 66
     1
 10
0.0
 20
0.0
 30
0.0
  0
VERTEX
  5
589
330
284
100
AcDbEntity
  8
0
  6
CONTINUOUS
 62
     7
100
AcDbVertex
100
AcDb2dVertex
 10
7.811495081
 20
8.0578548879
 30
0.0
  0
VERTEX
  5
58A
330
284
100
AcDbEntity
  8
0
  6
CONTINUOUS
 62
     7
100
AcDbVertex
100
AcDb2dVertex
 10
7.7707276672
 20
8.033200153
 30
0.0
  0
VERTEX
  5
58B
330
284
100
AcDbEntity
  8
0
  6
CONTINUOUS
 62
     7
100
AcDbVertex
100
AcDb2dVertex
 10
7.729911958
 20
8.0062796012
 30
0.0
  0
VERTEX
  5
58C
330
284
100
AcDbEntity
  8
0
  6
CONTINUOUS
 62
     7
100
AcDbVertex
100
AcDb2dVertex
 10
7.6892799764
 20
7.9772347391
 30
0.0
  0
VERTEX
  5
58D
330
284
100
AcDbEntity
  8
0
  6
CONTINUOUS
 62
     7
100
AcDbVertex
100
AcDb2dVertex
 10
7.6489230695
 20
7.9461308644
 30
0.0
  0
VERTEX
  5
58E
330
284
100
AcDbEntity
  8
0
  6
CONTINUOUS
 62
     7
100
AcDbVertex
100
AcDb2dVertex
 10
7.6089319664
 20
7.9130379036
 30
0.0
  0
VERTEX
  5
58F
330
284
100
AcDbEntity
  8
0
  6
CONTINUOUS
 62
     7
100
AcDbVertex
100
AcDb2dVertex
 10
7.5693965736
 20
7.8780302552
 30
0.0
  0
VERTEX
  5
590
330
284
100
AcDbEntity
  8
0
  6
CONTINUOUS
 62
     7
100
AcDbVertex
100
AcDb2dVertex
 10
7.530405773
 20
7.8411866219
 30
0.0
  0
VERTEX
  5
591
330
284
100
AcDbEntity
  8
0
  6
CONTINUOUS
 62
     7
100
AcDbVertex
100
AcDb2dVertex
 10
7.4920472224
 20
7.8025898344
 30
0.0
  0
VERTEX
  5
592
330
284
100
AcDbEntity
  8
0
  6
CONTINUOUS
 62
     7
100
AcDbVertex
100
AcDb2dVertex
 10
7.454407158
 20
7.7623266645
 30
0.0
  0
VERTEX
  5
593
330
284
100
AcDbEntity
  8
0
  6
CONTINUOUS
 62
     7
100
AcDbVertex
100
AcDb2dVertex
 10
7.4175702008
 20
7.7204876304
 30
0.0
  0
VERTEX
  5
594
330
284
100
AcDbEntity
  8
0
  6
CONTINUOUS
 62
     7
100
AcDbVertex
100
AcDb2dVertex
 10
7.3816191664
 20
7.677166793
 30
0.0
  0
VERTEX
  5
595
330
284
100
AcDbEntity
  8
0
  6
CONTINUOUS
 62
     7
100
AcDbVertex
100
AcDb2dVertex
 10
7.3466348785
 20
7.6324615447
 30
0.0
  0
VERTEX
  5
596
330
284
100
AcDbEntity
  8
0
  6
CONTINUOUS
 62
     7
100
AcDbVertex
100
AcDb2dVertex
 10
7.3126959875
 20
7.5864723901
 30
0.0
  0
VERTEX
  5
597
330
284
100
AcDbEntity
  8
0
  6
CONTINUOUS
 62
     7
100
AcDbVertex
100
AcDb2dVertex
 10
7.2798787936
 20
7.5393027204
 30
0.0
  0
VERTEX
  5
598
330
284
100
AcDbEntity
  8
0
  6
CONTINUOUS
 62
     7
100
AcDbVertex
100
AcDb2dVertex
 10
7.2482570751
 20
7.4910585807
 30
0.0
  0
VERTEX
  5
599
330
284
100
AcDbEntity
  8
0
  6
CONTINUOUS
 62
     7
100
AcDbVertex
100
AcDb2dVertex
 10
7.2179019229
 20
7.4418484317
 30
0.0
  0
VERTEX
  5
59A
330
284
100
AcDbEntity
  8
0
  6
CONTINUOUS
 62
     7
100
AcDbVertex
100
AcDb2dVertex
 10
7.1888815803
 20
7.3917829058
 30
0.0
  0
VERTEX
  5
59B
330
284
100
AcDbEntity
  8
0
  6
CONTINUOUS
 62
     7
100
AcDbVertex
100
AcDb2dVertex
 10
7.1612612898
 20
7.3409745585
 30
0.0
  0
VERTEX
  5
59C
330
284
100
AcDbEntity
  8
0
  6
CONTINUOUS
 62
     7
100
AcDbVertex
100
AcDb2dVertex
 10
7.1351031462
 20
7.2895376152
 30
0.0
  0
VERTEX
  5
59D
330
284
100
AcDbEntity
  8
0
  6
CONTINUOUS
 62
     7
100
AcDbVertex
100
AcDb2dVertex
 10
7.1104659573
 20
7.2375877146
 30
0.0
  0
VERTEX
  5
59E
330
284
100
AcDbEntity
  8
0
  6
CONTINUOUS
 62
     7
100
AcDbVertex
100
AcDb2dVertex
 10
7.0874051117
 20
7.1852416486
 30
0.0
  0
VERTEX
  5
59F
330
284
100
AcDbEntity
  8
0
  6
CONTINUOUS
 62
     7
100
AcDbVertex
100
AcDb2dVertex
 10
7.0659724537
 20
7.1326170996
 30
0.0
  0
VERTEX
  5
5A0
330
284
100
AcDbEntity
  8
0
  6
CONTINUOUS
 62
     7
100
AcDbVertex
100
AcDb2dVertex
 10
7.0462161676
 20
7.0798323761
 30
0.0
  0
VERTEX
  5
5A1
330
284
100
AcDbEntity
  8
0
  6
CONTINUOUS
 62
     7
100
AcDbVertex
100
AcDb2dVertex
 10
7.0281806686
 20
7.027006147
 30
0.0
  0
SEQEND
  5
5A2
330
284
100
AcDbEntity
  8
0
  6
CONTINUOUS
 62
     7
  0
SPLINE
  5
285
330
1F
100
AcDbEntity
  8
0
  6
CONTINUOUS
 62
     7
100
AcDbSpline
210
0.0
220
0.0
230
1.0
 70
     8
 71
     3
 72
     8
 73
     4
 74
     0
 42
0.00000001
 43
0.00000001
 40
0.0
 40
0.0
 40
0.0
 40
0.0
 40
0.0007431842497003
 40
0.0007431842497003
 40
0.0007431842497003
 40
0.0007431842497003
 10
7.02818066862405
 20
7.027006147013071
 30
0.0
 10
7.018438958366136
 20
7.026734431177832
 30
0.0
 10
7.008696842304001
 20
7.026467525615566
 30
0.0
 10
6.998954360996714
 20
7.026205184573461
 30
0.0
  0
LINE
  5
286
330
1F
100
AcDbEntity
  8
0
  6
CONTINUOUS
 62
     7
100
AcDbLine
 10
7.3051817072
 20
6.8654949263
 30
0.0
 11
7.2912622824
 21
6.8574594134
 31
0.0
  0
LINE
  5
287
330
1F
100
AcDbEntity
  8
0
  6
CONTINUOUS
 62
     7
100
AcDbLine
 10
7.2990210814
 20
6.0261092953
 30
0.0
 11
7.2912622824
 21
6.0216302359
 31
0.0
  0
POLYLINE
  5
288
330
1F
100
AcDbEntity
  8
0
  6
CONTINUOUS
 62
     7
100
AcDb2dPolyline
 66
     1
 10
0.0
 20
0.0
 30
0.0
  0
VERTEX
  5
5A3
330
288
100
AcDbEntity
  8
0
  6
CONTINUOUS
 62
     7
100
AcDbVertex
100
AcDb2dVertex
 10
6.6563230829
 20
6.7319142857
 30
0.0
  0
VERTEX
  5
5A4
330
288
100
AcDbEntity
  8
0
  6
CONTINUOUS
 62
     7
100
AcDbVertex
100
AcDb2dVertex
 10
6.657285933
 20
6.7795323619
 30
0.0
  0
VERTEX
  5
5A5
330
288
100
AcDbEntity
  8
0
  6
CONTINUOUS
 62
     7
100
AcDbVertex
100
AcDb2dVertex
 10
6.6601723347
 20
6.8281558666
 30
0.0
  0
VERTEX
  5
5A6
330
288
100
AcDbEntity
  8
0
  6
CONTINUOUS
 62
     7
100
AcDbVertex
100
AcDb2dVertex
 10
6.6649758473
 20
6.8776763017
 30
0.0
  0
VERTEX
  5
5A7
330
288
100
AcDbEntity
  8
0
  6
CONTINUOUS
 62
     7
100
AcDbVertex
100
AcDb2dVertex
 10
6.6716857524
 20
6.9279831678
 30
0.0
  0
VERTEX
  5
5A8
330
288
100
AcDbEntity
  8
0
  6
CONTINUOUS
 62
     7
100
AcDbVertex
100
AcDb2dVertex
 10
6.6802870775
 20
6.9789642105
 30
0.0
  0
VERTEX
  5
5A9
330
288
100
AcDbEntity
  8
0
  6
CONTINUOUS
 62
     7
100
AcDbVertex
100
AcDb2dVertex
 10
6.6907606297
 20
7.0305056714
 30
0.0
  0
VERTEX
  5
5AA
330
288
100
AcDbEntity
  8
0
  6
CONTINUOUS
 62
     7
100
AcDbVertex
100
AcDb2dVertex
 10
6.7030830384
 20
7.0824925411
 30
0.0
  0
VERTEX
  5
5AB
330
288
100
AcDbEntity
  8
0
  6
CONTINUOUS
 62
     7
100
AcDbVertex
100
AcDb2dVertex
 10
6.7172268075
 20
7.1348088166
 30
0.0
  0
VERTEX
  5
5AC
330
288
100
AcDbEntity
  8
0
  6
CONTINUOUS
 62
     7
100
AcDbVertex
100
AcDb2dVertex
 10
6.7331603767
 20
7.1873377599
 30
0.0
  0
VERTEX
  5
5AD
330
288
100
AcDbEntity
  8
0
  6
CONTINUOUS
 62
     7
100
AcDbVertex
100
AcDb2dVertex
 10
6.750848192
 20
7.2399621585
 30
0.0
  0
VERTEX
  5
5AE
330
288
100
AcDbEntity
  8
0
  6
CONTINUOUS
 62
     7
100
AcDbVertex
100
AcDb2dVertex
 10
6.770250785
 20
7.2925645865
 30
0.0
  0
VERTEX
  5
5AF
330
288
100
AcDbEntity
  8
0
  6
CONTINUOUS
 62
     7
100
AcDbVertex
100
AcDb2dVertex
 10
6.7913248608
 20
7.3450276676
 30
0.0
  0
VERTEX
  5
5B0
330
288
100
AcDbEntity
  8
0
  6
CONTINUOUS
 62
     7
100
AcDbVertex
100
AcDb2dVertex
 10
6.814023395
 20
7.397234336
 30
0.0
  0
VERTEX
  5
5B1
330
288
100
AcDbEntity
  8
0
  6
CONTINUOUS
 62
     7
100
AcDbVertex
100
AcDb2dVertex
 10
6.8382957383
 20
7.4490680982
 30
0.0
  0
VERTEX
  5
5B2
330
288
100
AcDbEntity
  8
0
  6
CONTINUOUS
 62
     7
100
AcDbVertex
100
AcDb2dVertex
 10
6.8640877295
 20
7.5004132928
 30
0.0
  0
VERTEX
  5
5B3
330
288
100
AcDbEntity
  8
0
  6
CONTINUOUS
 62
     7
100
AcDbVertex
100
AcDb2dVertex
 10
6.8913418168
 20
7.5511553487
 30
0.0
  0
VERTEX
  5
5B4
330
288
100
AcDbEntity
  8
0
  6
CONTINUOUS
 62
     7
100
AcDbVertex
100
AcDb2dVertex
 10
6.9199971855
 20
7.6011810405
 30
0.0
  0
VERTEX
  5
5B5
330
288
100
AcDbEntity
  8
0
  6
CONTINUOUS
 62
     7
100
AcDbVertex
100
AcDb2dVertex
 10
6.9499898942
 20
7.6503787413
 30
0.0
  0
VERTEX
  5
5B6
330
288
100
AcDbEntity
  8
0
  6
CONTINUOUS
 62
     7
100
AcDbVertex
100
AcDb2dVertex
 10
6.9812530177
 20
7.6986386717
 30
0.0
  0
VERTEX
  5
5B7
330
288
100
AcDbEntity
  8
0
  6
CONTINUOUS
 62
     7
100
AcDbVertex
100
AcDb2dVertex
 10
7.0137167955
 20
7.7458531451
 30
0.0
  0
VERTEX
  5
5B8
330
288
100
AcDbEntity
  8
0
  6
CONTINUOUS
 62
     7
100
AcDbVertex
100
AcDb2dVertex
 10
7.0473087884
 20
7.7919168074
 30
0.0
  0
VERTEX
  5
5B9
330
288
100
AcDbEntity
  8
0
  6
CONTINUOUS
 62
     7
100
AcDbVertex
100
AcDb2dVertex
 10
7.0819540393
 20
7.8367268726
 30
0.0
  0
VERTEX
  5
5BA
330
288
100
AcDbEntity
  8
0
  6
CONTINUOUS
 62
     7
100
AcDbVertex
100
AcDb2dVertex
 10
7.1175752414
 20
7.880183352
 30
0.0
  0
VERTEX
  5
5BB
330
288
100
AcDbEntity
  8
0
  6
CONTINUOUS
 62
     7
100
AcDbVertex
100
AcDb2dVertex
 10
7.1540929096
 20
7.9221892771
 30
0.0
  0
VERTEX
  5
5BC
330
288
100
AcDbEntity
  8
0
  6
CONTINUOUS
 62
     7
100
AcDbVertex
100
AcDb2dVertex
 10
7.1914255589
 20
7.9626509163
 30
0.0
  0
VERTEX
  5
5BD
330
288
100
AcDbEntity
  8
0
  6
CONTINUOUS
 62
     7
100
AcDbVertex
100
AcDb2dVertex
 10
7.2294898854
 20
8.0014779839
 30
0.0
  0
VERTEX
  5
5BE
330
288
100
AcDbEntity
  8
0
  6
CONTINUOUS
 62
     7
100
AcDbVertex
100
AcDb2dVertex
 10
7.2682009528
 20
8.0385838414
 30
0.0
  0
VERTEX
  5
5BF
330
288
100
AcDbEntity
  8
0
  6
CONTINUOUS
 62
     7
100
AcDbVertex
100
AcDb2dVertex
 10
7.3074723815
 20
8.0738856913
 30
0.0
  0
VERTEX
  5
5C0
330
288
100
AcDbEntity
  8
0
  6
CONTINUOUS
 62
     7
100
AcDbVertex
100
AcDb2dVertex
 10
7.3472165417
 20
8.1073047612
 30
0.0
  0
VERTEX
  5
5C1
330
288
100
AcDbEntity
  8
0
  6
CONTINUOUS
 62
     7
100
AcDbVertex
100
AcDb2dVertex
 10
7.3873447486
 20
8.1387664802
 30
0.0
  0
VERTEX
  5
5C2
330
288
100
AcDbEntity
  8
0
  6
CONTINUOUS
 62
     7
100
AcDbVertex
100
AcDb2dVertex
 10
7.4277674604
 20
8.1682006448
 30
0.0
  0
VERTEX
  5
5C3
330
288
100
AcDbEntity
  8
0
  6
CONTINUOUS
 62
     7
100
AcDbVertex
100
AcDb2dVertex
 10
7.4683944783
 20
8.195541576
 30
0.0
  0
VERTEX
  5
5C4
330
288
100
AcDbEntity
  8
0
  6
CONTINUOUS
 62
     7
100
AcDbVertex
100
AcDb2dVertex
 10
7.5091351475
 20
8.2207282655
 30
0.0
  0
VERTEX
  5
5C5
330
288
100
AcDbEntity
  8
0
  6
CONTINUOUS
 62
     7
100
AcDbVertex
100
AcDb2dVertex
 10
7.5191871597
 20
8.226600659
 30
0.0
  0
SEQEND
  5
5C6
330
288
100
AcDbEntity
  8
0
  6
CONTINUOUS
 62
     7
  0
LINE
  5
289
330
1F
100
AcDbEntity
  8
0
  6
CONTINUOUS
 62
     7
100
AcDbLine
 10
8.6175773641
 20
7.9441131742
 30
0.0
 11
8.8959658606
 21
7.783402916
 31
0.0
  0
POLYLINE
  5
28A
330
1F
100
AcDbEntity
  8
0
  6
CONTINUOUS
 62
     7
100
AcDb2dPolyline
 66
     1
 10
0.0
 20
0.0
 30
0.0
  0
VERTEX
  5
5C7
330
28A
100
AcDbEntity
  8
0
  6
CONTINUOUS
 62
     7
100
AcDbVertex
100
AcDb2dVertex
 10
7.8717006622
 20
7.5151571888
 30
0.0
  0
VERTEX
  5
5C8
330
28A
100
AcDbEntity
  8
0
  6
CONTINUOUS
 62
     7
100
AcDbVertex
100
AcDb2dVertex
 10
7.9108994388
 20
7.5576202634
 30
0.0
  0
VERTEX
  5
5C9
330
28A
100
AcDbEntity
  8
0
  6
CONTINUOUS
 62
     7
100
AcDbVertex
100
AcDb2dVertex
 10
7.950889524
 20
7.5983080972
 30
0.0
  0
VERTEX
  5
5CA
330
28A
100
AcDbEntity
  8
0
  6
CONTINUOUS
 62
     7
100
AcDbVertex
100
AcDb2dVertex
 10
7.9915756714
 20
7.6371237821
 30
0.0
  0
VERTEX
  5
5CB
330
28A
100
AcDbEntity
  8
0
  6
CONTINUOUS
 62
     7
100
AcDbVertex
100
AcDb2dVertex
 10
8.0328609765
 20
7.6739748687
 30
0.0
  0
VERTEX
  5
5CC
330
28A
100
AcDbEntity
  8
0
  6
CONTINUOUS
 62
     7
100
AcDbVertex
100
AcDb2dVertex
 10
8.0746471082
 20
7.7087735869
 30
0.0
  0
VERTEX
  5
5CD
330
28A
100
AcDbEntity
  8
0
  6
CONTINUOUS
 62
     7
100
AcDbVertex
100
AcDb2dVertex
 10
8.1168345422
 20
7.7414370547
 30
0.0
  0
VERTEX
  5
5CE
330
28A
100
AcDbEntity
  8
0
  6
CONTINUOUS
 62
     7
100
AcDbVertex
100
AcDb2dVertex
 10
8.1593227985
 20
7.7718874759
 30
0.0
  0
VERTEX
  5
5CF
330
28A
100
AcDbEntity
  8
0
  6
CONTINUOUS
 62
     7
100
AcDbVertex
100
AcDb2dVertex
 10
8.2020106806
 20
7.8000523252
 30
0.0
  0
VERTEX
  5
5D0
330
28A
100
AcDbEntity
  8
0
  6
CONTINUOUS
 62
     7
100
AcDbVertex
100
AcDb2dVertex
 10
8.2447965167
 20
7.8258645208
 30
0.0
  0
VERTEX
  5
5D1
330
28A
100
AcDbEntity
  8
0
  6
CONTINUOUS
 62
     7
100
AcDbVertex
100
AcDb2dVertex
 10
8.2875784014
 20
7.8492625846
 30
0.0
  0
VERTEX
  5
5D2
330
28A
100
AcDbEntity
  8
0
  6
CONTINUOUS
 62
     7
100
AcDbVertex
100
AcDb2dVertex
 10
8.330254439
 20
7.8701907881
 30
0.0
  0
VERTEX
  5
5D3
330
28A
100
AcDbEntity
  8
0
  6
CONTINUOUS
 62
     7
100
AcDbVertex
100
AcDb2dVertex
 10
8.3727229856
 20
7.8885992856
 30
0.0
  0
VERTEX
  5
5D4
330
28A
100
AcDbEntity
  8
0
  6
CONTINUOUS
 62
     7
100
AcDbVertex
100
AcDb2dVertex
 10
8.4148828919
 20
7.9044442326
 30
0.0
  0
VERTEX
  5
5D5
330
28A
100
AcDbEntity
  8
0
  6
CONTINUOUS
 62
     7
100
AcDbVertex
100
AcDb2dVertex
 10
8.4566337433
 20
7.9176878903
 30
0.0
  0
VERTEX
  5
5D6
330
28A
100
AcDbEntity
  8
0
  6
CONTINUOUS
 62
     7
100
AcDbVertex
100
AcDb2dVertex
 10
8.4978760996
 20
7.9282987157
 30
0.0
  0
VERTEX
  5
5D7
330
28A
100
AcDbEntity
  8
0
  6
CONTINUOUS
 62
     7
100
AcDbVertex
100
AcDb2dVertex
 10
8.538511732
 20
7.9362514364
 30
0.0
  0
VERTEX
  5
5D8
330
28A
100
AcDbEntity
  8
0
  6
CONTINUOUS
 62
     7
100
AcDbVertex
100
AcDb2dVertex
 10
8.5784438562
 20
7.941527111
 30
0.0
  0
VERTEX
  5
5D9
330
28A
100
AcDbEntity
  8
0
  6
CONTINUOUS
 62
     7
100
AcDbVertex
100
AcDb2dVertex
 10
8.6175773641
 20
7.9441131742
 30
0.0
  0
SEQEND
  5
5DA
330
28A
100
AcDbEntity
  8
0
  6
CONTINUOUS
 62
     7
  0
LINE
  5
28B
330
1F
100
AcDbEntity
  8
0
  6
CONTINUOUS
 62
     7
100
AcDbLine
 10
8.1500891588
 20
7.3544469306
 30
0.0
 11
7.8717006622
 21
7.5151571888
 31
0.0
  0
POLYLINE
  5
28C
330
1F
100
AcDbEntity
  8
0
  6
CONTINUOUS
 62
     7
100
AcDb2dPolyline
 66
     1
 10
0.0
 20
0.0
 30
0.0
  0
VERTEX
  5
5DB
330
28C
100
AcDbEntity
  8
0
  6
CONTINUOUS
 62
     7
100
AcDbVertex
100
AcDb2dVertex
 10
7.9155732986
 20
5.5697572652
 30
0.0
  0
VERTEX
  5
5DC
330
28C
100
AcDbEntity
  8
0
  6
CONTINUOUS
 62
     7
100
AcDbVertex
100
AcDb2dVertex
 10
7.9103184718
 20
5.5725728819
 30
0.0
  0
VERTEX
  5
5DD
330
28C
100
AcDbEntity
  8
0
  6
CONTINUOUS
 62
     7
100
AcDbVertex
100
AcDb2dVertex
 10
7.8813615337
 20
5.5899271961
 30
0.0
  0
VERTEX
  5
5DE
330
28C
100
AcDbEntity
  8
0
  6
CONTINUOUS
 62
     7
100
AcDbVertex
100
AcDb2dVertex
 10
7.8538273048
 20
5.6096408941
 30
0.0
  0
VERTEX
  5
5DF
330
28C
100
AcDbEntity
  8
0
  6
CONTINUOUS
 62
     7
100
AcDbVertex
100
AcDb2dVertex
 10
7.8277769777
 20
5.6316701638
 30
0.0
  0
VERTEX
  5
5E0
330
28C
100
AcDbEntity
  8
0
  6
CONTINUOUS
 62
     7
100
AcDbVertex
100
AcDb2dVertex
 10
7.8032684468
 20
5.6559660472
 30
0.0
  0
VERTEX
  5
5E1
330
28C
100
AcDbEntity
  8
0
  6
CONTINUOUS
 62
     7
100
AcDbVertex
100
AcDb2dVertex
 10
7.7803561802
 20
5.6824745488
 30
0.0
  0
VERTEX
  5
5E2
330
28C
100
AcDbEntity
  8
0
  6
CONTINUOUS
 62
     7
100
AcDbVertex
100
AcDb2dVertex
 10
7.7590910985
 20
5.7111367557
 30
0.0
  0
VERTEX
  5
5E3
330
28C
100
AcDbEntity
  8
0
  6
CONTINUOUS
 62
     7
100
AcDbVertex
100
AcDb2dVertex
 10
7.7395204613
 20
5.7418889688
 30
0.0
  0
VERTEX
  5
5E4
330
28C
100
AcDbEntity
  8
0
  6
CONTINUOUS
 62
     7
100
AcDbVertex
100
AcDb2dVertex
 10
7.7216877627
 20
5.7746628439
 30
0.0
  0
VERTEX
  5
5E5
330
28C
100
AcDbEntity
  8
0
  6
CONTINUOUS
 62
     7
100
AcDbVertex
100
AcDb2dVertex
 10
7.7056326344
 20
5.809385544
 30
0.0
  0
VERTEX
  5
5E6
330
28C
100
AcDbEntity
  8
0
  6
CONTINUOUS
 62
     7
100
AcDbVertex
100
AcDb2dVertex
 10
7.6913907573
 20
5.845979901
 30
0.0
  0
VERTEX
  5
5E7
330
28C
100
AcDbEntity
  8
0
  6
CONTINUOUS
 62
     7
100
AcDbVertex
100
AcDb2dVertex
 10
7.6789937829
 20
5.884364587
 30
0.0
  0
VERTEX
  5
5E8
330
28C
100
AcDbEntity
  8
0
  6
CONTINUOUS
 62
     7
100
AcDbVertex
100
AcDb2dVertex
 10
7.6684692624
 20
5.9244542956
 30
0.0
  0
VERTEX
  5
5E9
330
28C
100
AcDbEntity
  8
0
  6
CONTINUOUS
 62
     7
100
AcDbVertex
100
AcDb2dVertex
 10
7.6598405854
 20
5.9661599308
 30
0.0
  0
VERTEX
  5
5EA
330
28C
100
AcDbEntity
  8
0
  6
CONTINUOUS
 62
     7
100
AcDbVertex
100
AcDb2dVertex
 10
7.6531269286
 20
6.0093888056
 30
0.0
  0
VERTEX
  5
5EB
330
28C
100
AcDbEntity
  8
0
  6
CONTINUOUS
 62
     7
100
AcDbVertex
100
AcDb2dVertex
 10
7.6483432125
 20
6.0540448475
 30
0.0
  0
VERTEX
  5
5EC
330
28C
100
AcDbEntity
  8
0
  6
CONTINUOUS
 62
     7
100
AcDbVertex
100
AcDb2dVertex
 10
7.6455000683
 20
6.1000288124
 30
0.0
  0
VERTEX
  5
5ED
330
28C
100
AcDbEntity
  8
0
  6
CONTINUOUS
 62
     7
100
AcDbVertex
100
AcDb2dVertex
 10
7.6446038149
 20
6.1472385051
 30
0.0
  0
VERTEX
  5
5EE
330
28C
100
AcDbEntity
  8
0
  6
CONTINUOUS
 62
     7
100
AcDbVertex
100
AcDb2dVertex
 10
7.6456564439
 20
6.1955690061
 30
0.0
  0
VERTEX
  5
5EF
330
28C
100
AcDbEntity
  8
0
  6
CONTINUOUS
 62
     7
100
AcDbVertex
100
AcDb2dVertex
 10
7.6486556161
 20
6.2449129052
 30
0.0
  0
VERTEX
  5
5F0
330
28C
100
AcDbEntity
  8
0
  6
CONTINUOUS
 62
     7
100
AcDbVertex
100
AcDb2dVertex
 10
7.653594666
 20
6.2951605398
 30
0.0
  0
VERTEX
  5
5F1
330
28C
100
AcDbEntity
  8
0
  6
CONTINUOUS
 62
     7
100
AcDbVertex
100
AcDb2dVertex
 10
7.6604626171
 20
6.346200239
 30
0.0
  0
VERTEX
  5
5F2
330
28C
100
AcDbEntity
  8
0
  6
CONTINUOUS
 62
     7
100
AcDbVertex
100
AcDb2dVertex
 10
7.6692442058
 20
6.3979185715
 30
0.0
  0
VERTEX
  5
5F3
330
28C
100
AcDbEntity
  8
0
  6
CONTINUOUS
 62
     7
100
AcDbVertex
100
AcDb2dVertex
 10
7.679919916
 20
6.450200598
 30
0.0
  0
VERTEX
  5
5F4
330
28C
100
AcDbEntity
  8
0
  6
CONTINUOUS
 62
     7
100
AcDbVertex
100
AcDb2dVertex
 10
7.6924660218
 20
6.5029301262
 30
0.0
  0
VERTEX
  5
5F5
330
28C
100
AcDbEntity
  8
0
  6
CONTINUOUS
 62
     7
100
AcDbVertex
100
AcDb2dVertex
 10
7.7068546405
 20
6.5559899693
 30
0.0
  0
VERTEX
  5
5F6
330
28C
100
AcDbEntity
  8
0
  6
CONTINUOUS
 62
     7
100
AcDbVertex
100
AcDb2dVertex
 10
7.7230537947
 20
6.6092622065
 30
0.0
  0
VERTEX
  5
5F7
330
28C
100
AcDbEntity
  8
0
  6
CONTINUOUS
 62
     7
100
AcDbVertex
100
AcDb2dVertex
 10
7.7410274833
 20
6.662628445
 30
0.0
  0
VERTEX
  5
5F8
330
28C
100
AcDbEntity
  8
0
  6
CONTINUOUS
 62
     7
100
AcDbVertex
100
AcDb2dVertex
 10
7.7607357612
 20
6.715970083
 30
0.0
  0
VERTEX
  5
5F9
330
28C
100
AcDbEntity
  8
0
  6
CONTINUOUS
 62
     7
100
AcDbVertex
100
AcDb2dVertex
 10
7.7821348286
 20
6.7691685733
 30
0.0
  0
VERTEX
  5
5FA
330
28C
100
AcDbEntity
  8
0
  6
CONTINUOUS
 62
     7
100
AcDbVertex
100
AcDb2dVertex
 10
7.8051771279
 20
6.8221056871
 30
0.0
  0
VERTEX
  5
5FB
330
28C
100
AcDbEntity
  8
0
  6
CONTINUOUS
 62
     7
100
AcDbVertex
100
AcDb2dVertex
 10
7.8298114497
 20
6.8746637762
 30
0.0
  0
VERTEX
  5
5FC
330
28C
100
AcDbEntity
  8
0
  6
CONTINUOUS
 62
     7
100
AcDbVertex
100
AcDb2dVertex
 10
7.8559830462
 20
6.9267260349
 30
0.0
  0
VERTEX
  5
5FD
330
28C
100
AcDbEntity
  8
0
  6
CONTINUOUS
 62
     7
100
AcDbVertex
100
AcDb2dVertex
 10
7.8836337535
 20
6.9781767593
 30
0.0
  0
VERTEX
  5
5FE
330
28C
100
AcDbEntity
  8
0
  6
CONTINUOUS
 62
     7
100
AcDbVertex
100
AcDb2dVertex
 10
7.9127021203
 20
7.0289016049
 30
0.0
  0
VERTEX
  5
5FF
330
28C
100
AcDbEntity
  8
0
  6
CONTINUOUS
 62
     7
100
AcDbVertex
100
AcDb2dVertex
 10
7.9431235447
 20
7.07878784
 30
0.0
  0
VERTEX
  5
600
330
28C
100
AcDbEntity
  8
0
  6
CONTINUOUS
 62
     7
100
AcDbVertex
100
AcDb2dVertex
 10
7.9748304178
 20
7.1277245969
 30
0.0
  0
VERTEX
  5
601
330
28C
100
AcDbEntity
  8
0
  6
CONTINUOUS
 62
     7
100
AcDbVertex
100
AcDb2dVertex
 10
8.0077522737
 20
7.175603118
 30
0.0
  0
VERTEX
  5
602
330
28C
100
AcDbEntity
  8
0
  6
CONTINUOUS
 62
     7
100
AcDbVertex
100
AcDb2dVertex
 10
8.0418159466
 20
7.2223169975
 30
0.0
  0
VERTEX
  5
603
330
28C
100
AcDbEntity
  8
0
  6
CONTINUOUS
 62
     7
100
AcDbVertex
100
AcDb2dVertex
 10
8.076945733
 20
7.2677624177
 30
0.0
  0
VERTEX
  5
604
330
28C
100
AcDbEntity
  8
0
  6
CONTINUOUS
 62
     7
100
AcDbVertex
100
AcDb2dVertex
 10
8.1130635599
 20
7.3118383804
 30
0.0
  0
VERTEX
  5
605
330
28C
100
AcDbEntity
  8
0
  6
CONTINUOUS
 62
     7
100
AcDbVertex
100
AcDb2dVertex
 10
8.1500891588
 20
7.3544469306
 30
0.0
  0
SEQEND
  5
606
330
28C
100
AcDbEntity
  8
0
  6
CONTINUOUS
 62
     7
  0
ARC
  5
28D
330
1F
100
AcDbEntity
  8
0
  6
CONTINUOUS
 62
     7
100
AcDbCircle
 10
8.9188361887
 20
7.3306673654
 30
0.0
 40
0.4533128397435254
100
AcDbArc
 50
59.5637640766
 51
92.8918876685
  0
LINE
  5
28E
330
1F
100
AcDbEntity
  8
0
  6
CONTINUOUS
 62
     7
100
AcDbLine
 10
7.310980412
 20
6.0024675134
 30
0.0
 11
7.0325919155
 21
6.1631777716
 31
0.0
  0
POLYLINE
  5
28F
330
1F
100
AcDbEntity
  8
0
  6
CONTINUOUS
 62
     7
100
AcDb2dPolyline
 66
     1
 10
0.0
 20
0.0
 30
0.0
  0
VERTEX
  5
607
330
28F
100
AcDbEntity
  8
0
  6
CONTINUOUS
 62
     7
100
AcDbVertex
100
AcDb2dVertex
 10
7.3095693266
 20
6.8629637964
 30
0.0
  0
VERTEX
  5
608
330
28F
100
AcDbEntity
  8
0
  6
CONTINUOUS
 62
     7
100
AcDbVertex
100
AcDb2dVertex
 10
7.2923934205
 20
6.8077830564
 30
0.0
  0
VERTEX
  5
609
330
28F
100
AcDbEntity
  8
0
  6
CONTINUOUS
 62
     7
100
AcDbVertex
100
AcDb2dVertex
 10
7.2771504245
 20
6.7528043878
 30
0.0
  0
VERTEX
  5
60A
330
28F
100
AcDbEntity
  8
0
  6
CONTINUOUS
 62
     7
100
AcDbVertex
100
AcDb2dVertex
 10
7.2638766438
 20
6.6981587361
 30
0.0
  0
VERTEX
  5
60B
330
28F
100
AcDbEntity
  8
0
  6
CONTINUOUS
 62
     7
100
AcDbVertex
100
AcDb2dVertex
 10
7.2526036933
 20
6.6439762537
 30
0.0
  0
VERTEX
  5
60C
330
28F
100
AcDbEntity
  8
0
  6
CONTINUOUS
 62
     7
100
AcDbVertex
100
AcDb2dVertex
 10
7.2433584222
 20
6.5903859897
 30
0.0
  0
VERTEX
  5
60D
330
28F
100
AcDbEntity
  8
0
  6
CONTINUOUS
 62
     7
100
AcDbVertex
100
AcDb2dVertex
 10
7.2361628505
 20
6.537515583
 30
0.0
  0
VERTEX
  5
60E
330
28F
100
AcDbEntity
  8
0
  6
CONTINUOUS
 62
     7
100
AcDbVertex
100
AcDb2dVertex
 10
7.2310341163
 20
6.4854909576
 30
0.0
  0
VERTEX
  5
60F
330
28F
100
AcDbEntity
  8
0
  6
CONTINUOUS
 62
     7
100
AcDbVertex
100
AcDb2dVertex
 10
7.227984435
 20
6.4344360233
 30
0.0
  0
VERTEX
  5
610
330
28F
100
AcDbEntity
  8
0
  6
CONTINUOUS
 62
     7
100
AcDbVertex
100
AcDb2dVertex
 10
7.2270210701
 20
6.3844723803
 30
0.0
  0
VERTEX
  5
611
330
28F
100
AcDbEntity
  8
0
  6
CONTINUOUS
 62
     7
100
AcDbVertex
100
AcDb2dVertex
 10
7.2281463161
 20
6.3357190296
 30
0.0
  0
VERTEX
  5
612
330
28F
100
AcDbEntity
  8
0
  6
CONTINUOUS
 62
     7
100
AcDbVertex
100
AcDb2dVertex
 10
7.231357493
 20
6.2882920896
 30
0.0
  0
VERTEX
  5
613
330
28F
100
AcDbEntity
  8
0
  6
CONTINUOUS
 62
     7
100
AcDbVertex
100
AcDb2dVertex
 10
7.2366469526
 20
6.2423045194
 30
0.0
  0
VERTEX
  5
614
330
28F
100
AcDbEntity
  8
0
  6
CONTINUOUS
 62
     7
100
AcDbVertex
100
AcDb2dVertex
 10
7.2440020966
 20
6.19786585
 30
0.0
  0
VERTEX
  5
615
330
28F
100
AcDbEntity
  8
0
  6
CONTINUOUS
 62
     7
100
AcDbVertex
100
AcDb2dVertex
 10
7.253405407
 20
6.1550819234
 30
0.0
  0
VERTEX
  5
616
330
28F
100
AcDbEntity
  8
0
  6
CONTINUOUS
 62
     7
100
AcDbVertex
100
AcDb2dVertex
 10
7.2648344873
 20
6.1140546401
 30
0.0
  0
VERTEX
  5
617
330
28F
100
AcDbEntity
  8
0
  6
CONTINUOUS
 62
     7
100
AcDbVertex
100
AcDb2dVertex
 10
7.2782621165
 20
6.0748817171
 30
0.0
  0
VERTEX
  5
618
330
28F
100
AcDbEntity
  8
0
  6
CONTINUOUS
 62
     7
100
AcDbVertex
100
AcDb2dVertex
 10
7.2936563131
 20
6.0376564544
 30
0.0
  0
VERTEX
  5
619
330
28F
100
AcDbEntity
  8
0
  6
CONTINUOUS
 62
     7
100
AcDbVertex
100
AcDb2dVertex
 10
7.310980412
 20
6.0024675134
 30
0.0
  0
SEQEND
  5
61A
330
28F
100
AcDbEntity
  8
0
  6
CONTINUOUS
 62
     7
  0
LINE
  5
290
330
1F
100
AcDbEntity
  8
0
  6
CONTINUOUS
 62
     7
100
AcDbLine
 10
7.0311808301
 20
7.0236740546
 30
0.0
 11
7.3095693266
 21
6.8629637964
 31
0.0
  0
POLYLINE
  5
291
330
1F
100
AcDbEntity
  8
0
  6
CONTINUOUS
 62
     7
100
AcDb2dPolyline
 66
     1
 10
0.0
 20
0.0
 30
0.0
  0
VERTEX
  5
61B
330
291
100
AcDbEntity
  8
0
  6
CONTINUOUS
 62
     7
100
AcDbVertex
100
AcDb2dVertex
 10
8.4455831163
 20
8.1273717771
 30
0.0
  0
VERTEX
  5
61C
330
291
100
AcDbEntity
  8
0
  6
CONTINUOUS
 62
     7
100
AcDbVertex
100
AcDb2dVertex
 10
8.424874993
 20
8.1385533121
 30
0.0
  0
VERTEX
  5
61D
330
291
100
AcDbEntity
  8
0
  6
CONTINUOUS
 62
     7
100
AcDbVertex
100
AcDb2dVertex
 10
8.3940384775
 20
8.1525472818
 30
0.0
  0
VERTEX
  5
61E
330
291
100
AcDbEntity
  8
0
  6
CONTINUOUS
 62
     7
100
AcDbVertex
100
AcDb2dVertex
 10
8.3619385569
 20
8.1640983483
 30
0.0
  0
VERTEX
  5
61F
330
291
100
AcDbEntity
  8
0
  6
CONTINUOUS
 62
     7
100
AcDbVertex
100
AcDb2dVertex
 10
8.3286465705
 20
8.1731808405
 30
0.0
  0
VERTEX
  5
620
330
291
100
AcDbEntity
  8
0
  6
CONTINUOUS
 62
     7
100
AcDbVertex
100
AcDb2dVertex
 10
8.2942365068
 20
8.1797745733
 30
0.0
  0
VERTEX
  5
621
330
291
100
AcDbEntity
  8
0
  6
CONTINUOUS
 62
     7
100
AcDbVertex
100
AcDb2dVertex
 10
8.2587848391
 20
8.1838648927
 30
0.0
  0
VERTEX
  5
622
330
291
100
AcDbEntity
  8
0
  6
CONTINUOUS
 62
     7
100
AcDbVertex
100
AcDb2dVertex
 10
8.2223703556
 20
8.1854427084
 30
0.0
  0
VERTEX
  5
623
330
291
100
AcDbEntity
  8
0
  6
CONTINUOUS
 62
     7
100
AcDbVertex
100
AcDb2dVertex
 10
8.1850739844
 20
8.1845045137
 30
0.0
  0
VERTEX
  5
624
330
291
100
AcDbEntity
  8
0
  6
CONTINUOUS
 62
     7
100
AcDbVertex
100
AcDb2dVertex
 10
8.1469786133
 20
8.1810523937
 30
0.0
  0
VERTEX
  5
625
330
291
100
AcDbEntity
  8
0
  6
CONTINUOUS
 62
     7
100
AcDbVertex
100
AcDb2dVertex
 10
8.108168906
 20
8.1750940205
 30
0.0
  0
VERTEX
  5
626
330
291
100
AcDbEntity
  8
0
  6
CONTINUOUS
 62
     7
100
AcDbVertex
100
AcDb2dVertex
 10
8.0687311136
 20
8.166642636
 30
0.0
  0
VERTEX
  5
627
330
291
100
AcDbEntity
  8
0
  6
CONTINUOUS
 62
     7
100
AcDbVertex
100
AcDb2dVertex
 10
8.0287528831
 20
8.1557170227
 30
0.0
  0
VERTEX
  5
628
330
291
100
AcDbEntity
  8
0
  6
CONTINUOUS
 62
     7
100
AcDbVertex
100
AcDb2dVertex
 10
7.9883230627
 20
8.1423414618
 30
0.0
  0
VERTEX
  5
629
330
291
100
AcDbEntity
  8
0
  6
CONTINUOUS
 62
     7
100
AcDbVertex
100
AcDb2dVertex
 10
7.9475315041
 20
8.1265456793
 30
0.0
  0
VERTEX
  5
62A
330
291
100
AcDbEntity
  8
0
  6
CONTINUOUS
 62
     7
100
AcDbVertex
100
AcDb2dVertex
 10
7.9064688629
 20
8.10836478
 30
0.0
  0
VERTEX
  5
62B
330
291
100
AcDbEntity
  8
0
  6
CONTINUOUS
 62
     7
100
AcDbVertex
100
AcDb2dVertex
 10
7.8652263972
 20
8.0878391692
 30
0.0
  0
VERTEX
  5
62C
330
291
100
AcDbEntity
  8
0
  6
CONTINUOUS
 62
     7
100
AcDbVertex
100
AcDb2dVertex
 10
7.8238957648
 20
8.0650144634
 30
0.0
  0
VERTEX
  5
62D
330
291
100
AcDbEntity
  8
0
  6
CONTINUOUS
 62
     7
100
AcDbVertex
100
AcDb2dVertex
 10
7.7825688194
 20
8.0399413885
 30
0.0
  0
VERTEX
  5
62E
330
291
100
AcDbEntity
  8
0
  6
CONTINUOUS
 62
     7
100
AcDbVertex
100
AcDb2dVertex
 10
7.7413374065
 20
8.0126756672
 30
0.0
  0
VERTEX
  5
62F
330
291
100
AcDbEntity
  8
0
  6
CONTINUOUS
 62
     7
100
AcDbVertex
100
AcDb2dVertex
 10
7.7002931592
 20
7.983277895
 30
0.0
  0
VERTEX
  5
630
330
291
100
AcDbEntity
  8
0
  6
CONTINUOUS
 62
     7
100
AcDbVertex
100
AcDb2dVertex
 10
7.6595272949
 20
7.9518134061
 30
0.0
  0
VERTEX
  5
631
330
291
100
AcDbEntity
  8
0
  6
CONTINUOUS
 62
     7
100
AcDbVertex
100
AcDb2dVertex
 10
7.6191304121
 20
7.9183521275
 30
0.0
  0
VERTEX
  5
632
330
291
100
AcDbEntity
  8
0
  6
CONTINUOUS
 62
     7
100
AcDbVertex
100
AcDb2dVertex
 10
7.5791922892
 20
7.8829684238
 30
0.0
  0
VERTEX
  5
633
330
291
100
AcDbEntity
  8
0
  6
CONTINUOUS
 62
     7
100
AcDbVertex
100
AcDb2dVertex
 10
7.5398016853
 20
7.8457409324
 30
0.0
  0
VERTEX
  5
634
330
291
100
AcDbEntity
  8
0
  6
CONTINUOUS
 62
     7
100
AcDbVertex
100
AcDb2dVertex
 10
7.5010461426
 20
7.806752388
 30
0.0
  0
VERTEX
  5
635
330
291
100
AcDbEntity
  8
0
  6
CONTINUOUS
 62
     7
100
AcDbVertex
100
AcDb2dVertex
 10
7.4630117917
 20
7.7660894392
 30
0.0
  0
VERTEX
  5
636
330
291
100
AcDbEntity
  8
0
  6
CONTINUOUS
 62
     7
100
AcDbVertex
100
AcDb2dVertex
 10
7.4257831607
 20
7.7238424558
 30
0.0
  0
VERTEX
  5
637
330
291
100
AcDbEntity
  8
0
  6
CONTINUOUS
 62
     7
100
AcDbVertex
100
AcDb2dVertex
 10
7.389442987
 20
7.6801053282
 30
0.0
  0
VERTEX
  5
638
330
291
100
AcDbEntity
  8
0
  6
CONTINUOUS
 62
     7
100
AcDbVertex
100
AcDb2dVertex
 10
7.3540720334
 20
7.6349752581
 30
0.0
  0
VERTEX
  5
639
330
291
100
AcDbEntity
  8
0
  6
CONTINUOUS
 62
     7
100
AcDbVertex
100
AcDb2dVertex
 10
7.3197489087
 20
7.5885525432
 30
0.0
  0
VERTEX
  5
63A
330
291
100
AcDbEntity
  8
0
  6
CONTINUOUS
 62
     7
100
AcDbVertex
100
AcDb2dVertex
 10
7.2865498932
 20
7.5409403539
 30
0.0
  0
VERTEX
  5
63B
330
291
100
AcDbEntity
  8
0
  6
CONTINUOUS
 62
     7
100
AcDbVertex
100
AcDb2dVertex
 10
7.2545487685
 20
7.4922445042
 30
0.0
  0
VERTEX
  5
63C
330
291
100
AcDbEntity
  8
0
  6
CONTINUOUS
 62
     7
100
AcDbVertex
100
AcDb2dVertex
 10
7.2238166546
 20
7.4425732162
 30
0.0
  0
VERTEX
  5
63D
330
291
100
AcDbEntity
  8
0
  6
CONTINUOUS
 62
     7
100
AcDbVertex
100
AcDb2dVertex
 10
7.1944218507
 20
7.39203688
 30
0.0
  0
VERTEX
  5
63E
330
291
100
AcDbEntity
  8
0
  6
CONTINUOUS
 62
     7
100
AcDbVertex
100
AcDb2dVertex
 10
7.1664296842
 20
7.3407478082
 30
0.0
  0
VERTEX
  5
63F
330
291
100
AcDbEntity
  8
0
  6
CONTINUOUS
 62
     7
100
AcDbVertex
100
AcDb2dVertex
 10
7.1399023653
 20
7.2888199863
 30
0.0
  0
VERTEX
  5
640
330
291
100
AcDbEntity
  8
0
  6
CONTINUOUS
 62
     7
100
AcDbVertex
100
AcDb2dVertex
 10
7.1148988486
 20
7.2363688193
 30
0.0
  0
VERTEX
  5
641
330
291
100
AcDbEntity
  8
0
  6
CONTINUOUS
 62
     7
100
AcDbVertex
100
AcDb2dVertex
 10
7.0914747023
 20
7.1835108752
 30
0.0
  0
VERTEX
  5
642
330
291
100
AcDbEntity
  8
0
  6
CONTINUOUS
 62
     7
100
AcDbVertex
100
AcDb2dVertex
 10
7.0696819844
 20
7.1303636263
 30
0.0
  0
VERTEX
  5
643
330
291
100
AcDbEntity
  8
0
  6
CONTINUOUS
 62
     7
100
AcDbVertex
100
AcDb2dVertex
 10
7.0495691273
 20
7.0770451876
 30
0.0
  0
VERTEX
  5
644
330
291
100
AcDbEntity
  8
0
  6
CONTINUOUS
 62
     7
100
AcDbVertex
100
AcDb2dVertex
 10
7.0311808301
 20
7.0236740546
 30
0.0
  0
SEQEND
  5
645
330
291
100
AcDbEntity
  8
0
  6
CONTINUOUS
 62
     7
  0
ARC
  5
292
330
1F
100
AcDbEntity
  8
0
  6
CONTINUOUS
 62
     7
100
AcDbCircle
 10
7.4371492717
 20
6.3703936141
 30
0.0
 40
0.4545382930969615
100
AcDbArc
 50
207.1217003534
 51
239.3642552986
  0
LINE
  5
293
330
1F
100
AcDbEntity
  8
0
  6
CONTINUOUS
 62
     7
100
AcDbLine
 10
8.1722806277
 20
7.3416342795
 30
0.0
 11
8.173540389
 21
7.3393048495
 31
0.0
  0
POLYLINE
  5
294
330
1F
100
AcDbEntity
  8
0
  6
CONTINUOUS
 62
     7
100
AcDb2dPolyline
 66
     1
 10
0.0
 20
0.0
 30
0.0
  0
VERTEX
  5
646
330
294
100
AcDbEntity
  8
0
  6
CONTINUOUS
 62
     7
100
AcDbVertex
100
AcDb2dVertex
 10
8.173540389
 20
7.3393048495
 30
0.0
  0
VERTEX
  5
647
330
294
100
AcDbEntity
  8
0
  6
CONTINUOUS
 62
     7
100
AcDbVertex
100
AcDb2dVertex
 10
8.1368102947
 20
7.2972742889
 30
0.0
  0
VERTEX
  5
648
330
294
100
AcDbEntity
  8
0
  6
CONTINUOUS
 62
     7
100
AcDbVertex
100
AcDb2dVertex
 10
8.1009763972
 20
7.2537739902
 30
0.0
  0
VERTEX
  5
649
330
294
100
AcDbEntity
  8
0
  6
CONTINUOUS
 62
     7
100
AcDbVertex
100
AcDb2dVertex
 10
8.066119257
 20
7.2089017491
 30
0.0
  0
VERTEX
  5
64A
330
294
100
AcDbEntity
  8
0
  6
CONTINUOUS
 62
     7
100
AcDbVertex
100
AcDb2dVertex
 10
8.0323172386
 20
7.1627584458
 30
0.0
  0
VERTEX
  5
64B
330
294
100
AcDbEntity
  8
0
  6
CONTINUOUS
 62
     7
100
AcDbVertex
100
AcDb2dVertex
 10
7.9996463345
 20
7.115447818
 30
0.0
  0
VERTEX
  5
64C
330
294
100
AcDbEntity
  8
0
  6
CONTINUOUS
 62
     7
100
AcDbVertex
100
AcDb2dVertex
 10
7.9681799942
 20
7.0670762277
 30
0.0
  0
VERTEX
  5
64D
330
294
100
AcDbEntity
  8
0
  6
CONTINUOUS
 62
     7
100
AcDbVertex
100
AcDb2dVertex
 10
7.9379889591
 20
7.017752422
 30
0.0
  0
VERTEX
  5
64E
330
294
100
AcDbEntity
  8
0
  6
CONTINUOUS
 62
     7
100
AcDbVertex
100
AcDb2dVertex
 10
7.9091411036
 20
6.967587289
 30
0.0
  0
VERTEX
  5
64F
330
294
100
AcDbEntity
  8
0
  6
CONTINUOUS
 62
     7
100
AcDbVertex
100
AcDb2dVertex
 10
7.8817012825
 20
6.9166936081
 30
0.0
  0
VERTEX
  5
650
330
294
100
AcDbEntity
  8
0
  6
CONTINUOUS
 62
     7
100
AcDbVertex
100
AcDb2dVertex
 10
7.8557311849
 20
6.8651857965
 30
0.0
  0
VERTEX
  5
651
330
294
100
AcDbEntity
  8
0
  6
CONTINUOUS
 62
     7
100
AcDbVertex
100
AcDb2dVertex
 10
7.8312891957
 20
6.8131796523
 30
0.0
  0
VERTEX
  5
652
330
294
100
AcDbEntity
  8
0
  6
CONTINUOUS
 62
     7
100
AcDbVertex
100
AcDb2dVertex
 10
7.8084302647
 20
6.7607920936
 30
0.0
  0
VERTEX
  5
653
330
294
100
AcDbEntity
  8
0
  6
CONTINUOUS
 62
     7
100
AcDbVertex
100
AcDb2dVertex
 10
7.7872057824
 20
6.7081408964
 30
0.0
  0
VERTEX
  5
654
330
294
100
AcDbEntity
  8
0
  6
CONTINUOUS
 62
     7
100
AcDbVertex
100
AcDb2dVertex
 10
7.7676634649
 20
6.655344429
 30
0.0
  0
VERTEX
  5
655
330
294
100
AcDbEntity
  8
0
  6
CONTINUOUS
 62
     7
100
AcDbVertex
100
AcDb2dVertex
 10
7.7498472465
 20
6.6025213866
 30
0.0
  0
VERTEX
  5
656
330
294
100
AcDbEntity
  8
0
  6
CONTINUOUS
 62
     7
100
AcDbVertex
100
AcDb2dVertex
 10
7.733797181
 20
6.5497905239
 30
0.0
  0
VERTEX
  5
657
330
294
100
AcDbEntity
  8
0
  6
CONTINUOUS
 62
     7
100
AcDbVertex
100
AcDb2dVertex
 10
7.7195493515
 20
6.4972703886
 30
0.0
  0
VERTEX
  5
658
330
294
100
AcDbEntity
  8
0
  6
CONTINUOUS
 62
     7
100
AcDbVertex
100
AcDb2dVertex
 10
7.7071357896
 20
6.4450790544
 30
0.0
  0
VERTEX
  5
659
330
294
100
AcDbEntity
  8
0
  6
CONTINUOUS
 62
     7
100
AcDbVertex
100
AcDb2dVertex
 10
7.6965844028
 20
6.3933338561
 30
0.0
  0
VERTEX
  5
65A
330
294
100
AcDbEntity
  8
0
  6
CONTINUOUS
 62
     7
100
AcDbVertex
100
AcDb2dVertex
 10
7.6879189125
 20
6.3421511252
 30
0.0
  0
VERTEX
  5
65B
330
294
100
AcDbEntity
  8
0
  6
CONTINUOUS
 62
     7
100
AcDbVertex
100
AcDb2dVertex
 10
7.6811588001
 20
6.2916459289
 30
0.0
  0
VERTEX
  5
65C
330
294
100
AcDbEntity
  8
0
  6
CONTINUOUS
 62
     7
100
AcDbVertex
100
AcDb2dVertex
 10
7.6763192634
 20
6.2419318111
 30
0.0
  0
VERTEX
  5
65D
330
294
100
AcDbEntity
  8
0
  6
CONTINUOUS
 62
     7
100
AcDbVertex
100
AcDb2dVertex
 10
7.6734111825
 20
6.1931205373
 30
0.0
  0
VERTEX
  5
65E
330
294
100
AcDbEntity
  8
0
  6
CONTINUOUS
 62
     7
100
AcDbVertex
100
AcDb2dVertex
 10
7.6724410952
 20
6.1453218431
 30
0.0
  0
SEQEND
  5
65F
330
294
100
AcDbEntity
  8
0
  6
CONTINUOUS
 62
     7
  0
SPLINE
  5
295
330
1F
100
AcDbEntity
  8
0
  6
CONTINUOUS
 62
     7
100
AcDbSpline
210
0.0
220
0.0
230
1.0
 70
     8
 71
     3
 72
     8
 73
     4
 74
     0
 42
0.00000001
 43
0.00000001
 40
0.0
 40
0.0
 40
0.0
 40
0.0
 40
0.0006642745501248
 40
0.0006642745501248
 40
0.0006642745501248
 40
0.0006642745501248
 10
8.150089158772477
 20
7.354446930593928
 30
0.0
 10
8.157487041357967
 20
7.350175627885708
 30
0.0
 10
8.16488421073924
 20
7.345904736635753
 30
0.0
 10
8.17228062771372
 20
7.341634279463048
 30
0.0
  0
SPLINE
  5
296
330
1F
100
AcDbEntity
  8
0
  6
CONTINUOUS
 62
     7
100
AcDbSpline
210
0.0
220
0.0
230
1.0
 70
     8
 71
     3
 72
     8
 73
     4
 74
     0
 42
0.00000001
 43
0.00000001
 40
0.0
 40
0.0
 40
0.0
 40
0.0
 40
0.0005912624853902
 40
0.0005912624853902
 40
0.0005912624853902
 40
0.0005912624853902
 10
8.617577364061448
 20
7.944113174185502
 30
0.0
 10
8.6166069663762
 20
7.938044969663082
 30
0.0
 10
8.61561842074502
 20
7.931975629475033
 30
0.0
 10
8.614610937404935
 20
7.925905218345894
 30
0.0
  0
ARC
  5
297
330
1F
100
AcDbEntity
  8
0
  6
CONTINUOUS
 62
     7
100
AcDbCircle
 10
9.0374756725
 20
6.4937705875
 30
0.0
 40
1.522296005322976
100
AcDbArc
 50
120.847255513
 51
138.5705270192
  0
LINE
  5
298
330
1F
100
AcDbEntity
  8
0
  6
CONTINUOUS
 62
     7
100
AcDbLine
 10
7.0280529719
 20
7.0254779399
 30
0.0
 11
7.0281806686
 21
7.027006147
 31
0.0
  0
POLYLINE
  5
299
330
1F
100
AcDbEntity
  8
0
  6
CONTINUOUS
 62
     7
100
AcDb2dPolyline
 66
     1
 10
0.0
 20
0.0
 30
0.0
  0
VERTEX
  5
660
330
299
100
AcDbEntity
  8
0
  6
CONTINUOUS
 62
     7
100
AcDbVertex
100
AcDb2dVertex
 10
7.0281806686
 20
7.027006147
 30
0.0
  0
VERTEX
  5
661
330
299
100
AcDbEntity
  8
0
  6
CONTINUOUS
 62
     7
100
AcDbVertex
100
AcDb2dVertex
 10
7.0462161676
 20
7.0798323761
 30
0.0
  0
VERTEX
  5
662
330
299
100
AcDbEntity
  8
0
  6
CONTINUOUS
 62
     7
100
AcDbVertex
100
AcDb2dVertex
 10
7.0659724537
 20
7.1326170996
 30
0.0
  0
VERTEX
  5
663
330
299
100
AcDbEntity
  8
0
  6
CONTINUOUS
 62
     7
100
AcDbVertex
100
AcDb2dVertex
 10
7.0874051117
 20
7.1852416486
 30
0.0
  0
VERTEX
  5
664
330
299
100
AcDbEntity
  8
0
  6
CONTINUOUS
 62
     7
100
AcDbVertex
100
AcDb2dVertex
 10
7.1104659573
 20
7.2375877146
 30
0.0
  0
VERTEX
  5
665
330
299
100
AcDbEntity
  8
0
  6
CONTINUOUS
 62
     7
100
AcDbVertex
100
AcDb2dVertex
 10
7.1351031462
 20
7.2895376152
 30
0.0
  0
VERTEX
  5
666
330
299
100
AcDbEntity
  8
0
  6
CONTINUOUS
 62
     7
100
AcDbVertex
100
AcDb2dVertex
 10
7.1612612898
 20
7.3409745585
 30
0.0
  0
VERTEX
  5
667
330
299
100
AcDbEntity
  8
0
  6
CONTINUOUS
 62
     7
100
AcDbVertex
100
AcDb2dVertex
 10
7.1888815803
 20
7.3917829058
 30
0.0
  0
VERTEX
  5
668
330
299
100
AcDbEntity
  8
0
  6
CONTINUOUS
 62
     7
100
AcDbVertex
100
AcDb2dVertex
 10
7.2179019229
 20
7.4418484317
 30
0.0
  0
VERTEX
  5
669
330
299
100
AcDbEntity
  8
0
  6
CONTINUOUS
 62
     7
100
AcDbVertex
100
AcDb2dVertex
 10
7.2482570751
 20
7.4910585807
 30
0.0
  0
VERTEX
  5
66A
330
299
100
AcDbEntity
  8
0
  6
CONTINUOUS
 62
     7
100
AcDbVertex
100
AcDb2dVertex
 10
7.2798787936
 20
7.5393027204
 30
0.0
  0
VERTEX
  5
66B
330
299
100
AcDbEntity
  8
0
  6
CONTINUOUS
 62
     7
100
AcDbVertex
100
AcDb2dVertex
 10
7.3126959875
 20
7.5864723901
 30
0.0
  0
VERTEX
  5
66C
330
299
100
AcDbEntity
  8
0
  6
CONTINUOUS
 62
     7
100
AcDbVertex
100
AcDb2dVertex
 10
7.3466348785
 20
7.6324615447
 30
0.0
  0
VERTEX
  5
66D
330
299
100
AcDbEntity
  8
0
  6
CONTINUOUS
 62
     7
100
AcDbVertex
100
AcDb2dVertex
 10
7.3816191664
 20
7.677166793
 30
0.0
  0
VERTEX
  5
66E
330
299
100
AcDbEntity
  8
0
  6
CONTINUOUS
 62
     7
100
AcDbVertex
100
AcDb2dVertex
 10
7.4175702008
 20
7.7204876304
 30
0.0
  0
VERTEX
  5
66F
330
299
100
AcDbEntity
  8
0
  6
CONTINUOUS
 62
     7
100
AcDbVertex
100
AcDb2dVertex
 10
7.454407158
 20
7.7623266645
 30
0.0
  0
VERTEX
  5
670
330
299
100
AcDbEntity
  8
0
  6
CONTINUOUS
 62
     7
100
AcDbVertex
100
AcDb2dVertex
 10
7.4920472224
 20
7.8025898344
 30
0.0
  0
VERTEX
  5
671
330
299
100
AcDbEntity
  8
0
  6
CONTINUOUS
 62
     7
100
AcDbVertex
100
AcDb2dVertex
 10
7.530405773
 20
7.8411866219
 30
0.0
  0
VERTEX
  5
672
330
299
100
AcDbEntity
  8
0
  6
CONTINUOUS
 62
     7
100
AcDbVertex
100
AcDb2dVertex
 10
7.5693965736
 20
7.8780302552
 30
0.0
  0
VERTEX
  5
673
330
299
100
AcDbEntity
  8
0
  6
CONTINUOUS
 62
     7
100
AcDbVertex
100
AcDb2dVertex
 10
7.6089319664
 20
7.9130379036
 30
0.0
  0
VERTEX
  5
674
330
299
100
AcDbEntity
  8
0
  6
CONTINUOUS
 62
     7
100
AcDbVertex
100
AcDb2dVertex
 10
7.6489230695
 20
7.9461308644
 30
0.0
  0
VERTEX
  5
675
330
299
100
AcDbEntity
  8
0
  6
CONTINUOUS
 62
     7
100
AcDbVertex
100
AcDb2dVertex
 10
7.6892799764
 20
7.9772347391
 30
0.0
  0
VERTEX
  5
676
330
299
100
AcDbEntity
  8
0
  6
CONTINUOUS
 62
     7
100
AcDbVertex
100
AcDb2dVertex
 10
7.729911958
 20
8.0062796012
 30
0.0
  0
VERTEX
  5
677
330
299
100
AcDbEntity
  8
0
  6
CONTINUOUS
 62
     7
100
AcDbVertex
100
AcDb2dVertex
 10
7.7707276672
 20
8.033200153
 30
0.0
  0
VERTEX
  5
678
330
299
100
AcDbEntity
  8
0
  6
CONTINUOUS
 62
     7
100
AcDbVertex
100
AcDb2dVertex
 10
7.811495081
 20
8.0578548879
 30
0.0
  0
SEQEND
  5
679
330
299
100
AcDbEntity
  8
0
  6
CONTINUOUS
 62
     7
  0
SPLINE
  5
29A
330
1F
100
AcDbEntity
  8
0
  6
CONTINUOUS
 62
     7
100
AcDbSpline
210
0.0
220
0.0
230
1.0
 70
     8
 71
     3
 72
     8
 73
     4
 74
     0
 42
0.00000001
 43
0.00000001
 40
0.0
 40
0.0
 40
0.0
 40
0.0
 40
0.0006642745501248
 40
0.0006642745501248
 40
0.0006642745501248
 40
0.0006642745501248
 10
7.028052971936342
 20
7.025477939862538
 30
0.0
 10
7.029091933106642
 20
7.024878756885466
 30
0.0
 10
7.030134608827655
 20
7.024277429265966
 30
0.0
 10
7.031180830074888
 20
7.023674054591981
 30
0.0
  0
SPLINE
  5
29B
330
1F
100
AcDbEntity
  8
0
  6
CONTINUOUS
 62
     7
100
AcDbSpline
210
0.0
220
0.0
230
1.0
 70
     8
 71
     3
 72
     8
 73
     4
 74
     0
 42
0.00000001
 43
0.00000001
 40
0.0
 40
0.0
 40
0.0
 40
0.0
 40
0.0006642745501248
 40
0.0006642745501248
 40
0.0006642745501248
 40
0.0006642745501248
 10
7.306441468466476
 20
6.864767681629722
 30
0.0
 10
7.307480429636778
 20
6.864168498652649
 30
0.0
 10
7.308523105357791
 20
6.86356717103315
 30
0.0
 10
7.309569326605024
 20
6.862963796359165
 30
0.0
  0
ARC
  5
29C
330
1F
100
AcDbEntity
  8
0
  6
CONTINUOUS
 62
     7
100
AcDbCircle
 10
8.7493269867
 20
6.380067798
 30
0.0
 40
1.522472139059907
100
AcDbArc
 50
161.4288932148
 51
179.1573408954
  0
LINE
  5
29D
330
1F
100
AcDbEntity
  8
0
  6
CONTINUOUS
 62
     7
100
AcDbLine
 10
7.3064414685
 20
6.8647676816
 30
0.0
 11
7.0280529719
 21
7.0254779399
 31
0.0
  0
LINE
  5
29E
330
1F
100
AcDbEntity
  8
0
  6
CONTINUOUS
 62
     7
100
AcDbLine
 10
8.8959658606
 20
7.783402916
 30
0.0
 11
8.8948078705
 21
7.7762951614
 31
0.0
  0
LINE
  5
29F
330
1F
100
AcDbEntity
  8
0
  6
CONTINUOUS
 62
     7
100
AcDbLine
 10
7.0325919155
 20
6.1631777716
 30
0.0
 11
7.0306977593
 21
6.1720509333
 31
0.0
  0
ENDSEC
  0
SECTION
  2
OBJECTS
  0
DICTIONARY
  5
C
330
0
100
AcDbDictionary
  3
ACAD_GROUP
350
D
  3
ACAD_LAYOUT
350
1A
  3
ACAD_MLEADERSTYLE
350
2A2
  3
ACAD_MLINESTYLE
350
17
  3
ACAD_PLOTSETTINGS
350
19
  3
ACAD_SCALELIST
350
6F
  3
ACAD_VISUALSTYLE
350
2A
  3
ACDBVARIABLEDICTIONARY
350
2A0
1001
ACAD
1000
TREAT_AS_HARD
1070
     0
  0
DICTIONARY
  5
D
102
{ACAD_REACTORS
330
C
102
}
330
C
100
AcDbDictionary
1001
ACAD
1000
TREAT_AS_HARD
1070
     0
  0
DICTIONARY
  5
1A
102
{ACAD_REACTORS
330
C
102
}
330
C
100
AcDbDictionary
1001
ACAD
1000
TREAT_AS_HARD
1070
     0
  0
DICTIONARY
  5
2A2
102
{ACAD_REACTORS
330
C
102
}
330
C
100
AcDbDictionary
1001
ACAD
1000
TREAT_AS_HARD
1070
     0
  0
DICTIONARY
  5
17
102
{ACAD_REACTORS
330
C
102
}
330
C
100
AcDbDictionary
  3
STANDARD
350
18
1001
ACAD
1000
TREAT_AS_HARD
1070
     0
  0
DICTIONARY
  5
19
102
{ACAD_REACTORS
330
C
102
}
330
C
100
AcDbDictionary
1001
ACAD
1000
TREAT_AS_HARD
1070
     0
  0
DICTIONARY
  5
6F
102
{ACAD_REACTORS
330
C
102
}
330
C
100
AcDbDictionary
  3
A0
350
70
  3
A1
350
71
  3
A2
350
72
  3
A3
350
73
  3
A4
350
74
  3
A5
350
75
  3
A6
350
76
  3
A7
350
77
  3
A8
350
78
  3
A9
350
79
  3
B0
350
7A
  3
B1
350
7B
  3
B2
350
7C
  3
B3
350
7D
  3
B4
350
7E
  3
B5
350
7F
  3
B6
350
80
  3
B7
350
81
  3
B8
350
82
  3
B9
350
83
  3
C0
350
84
  3
C1
350
85
  3
C2
350
86
  3
C3
350
87
  3
C4
350
88
  3
C5
350
89
  3
C6
350
8A
  3
C7
350
8B
  3
C8
350
8C
  3
C9
350
8D
  3
D0
350
8E
  3
D1
350
8F
  3
D2
350
90
1001
ACAD
1000
TREAT_AS_HARD
1070
     0
  0
DICTIONARY
  5
2A
102
{ACAD_REACTORS
330
C
102
}
330
C
100
AcDbDictionary
  3
2DWIREFRAME
350
2F
  3
3D_HIDDEN
350
31
  3
3DWIREFRAME
350
30
  3
BASIC
350
32
  3
BRIGHTEN
350
36
  3
COLORCHANGE
350
3A
  3
CONCEPTUAL
350
34
  3
DIM
350
35
  3
FACEPATTERN
350
39
  3
FLAT
350
2B
  3
FLATWITHEDGES
350
2C
  3
GOURAUD
350
2D
  3
GOURAUDWITHEDGES
350
2E
  3
LINEPATTERN
350
38
  3
REALISTIC
350
33
  3
THICKEN
350
37
1001
ACAD
1000
TREAT_AS_HARD
1070
     0
  0
DICTIONARY
  5
2A0
102
{ACAD_REACTORS
330
C
102
}
330
C
100
AcDbDictionary
  3
CANNOSCALE
350
2A3
  3
DIMASSOC
350
2A4
  3
HIDETEXT
350
2A5
1001
ACAD
1000
TREAT_AS_HARD
1070
     0
  0
MLINESTYLE
  5
18
102
{ACAD_REACTORS
330
17
102
}
330
17
100
AcDbMlineStyle
  2
Standard
 70
     0
  3

 62
   256
 51
90.0
 52
90.0
 71
     2
 49
0.5
 62
   256
  6
BYLAYER
 49
-0.5
 62
   256
  6
BYLAYER
  0
ACAD_PROXY_OBJECT
  5
70
102
{ACAD_REACTORS
330
6F
102
}
330
6F
100
AcDbZombieObject
 90
      499
 91
      502
 93
       41
310
903313A31580
  0
ACAD_PROXY_OBJECT
  5
71
102
{ACAD_REACTORS
330
6F
102
}
330
6F
100
AcDbZombieObject
 90
      499
 91
      502
 93
      105
310
903313A324000000000000004000
  0
ACAD_PROXY_OBJECT
  5
72
102
{ACAD_REACTORS
330
6F
102
}
330
6F
100
AcDbZombieObject
 90
      499
 91
      502
 93
      105
310
903313A344000000000000104000
  0
ACAD_PROXY_OBJECT
  5
73
102
{ACAD_REACTORS
330
6F
102
}
330
6F
100
AcDbZombieObject
 90
      499
 91
      502
 93
      105
310
903313A354000000000000144000
  0
ACAD_PROXY_OBJECT
  5
74
102
{ACAD_REACTORS
330
6F
102
}
330
6F
100
AcDbZombieObject
 90
      499
 91
      502
 93
      105
310
903313A384000000000000204000
  0
ACAD_PROXY_OBJECT
  5
75
102
{ACAD_REACTORS
330
6F
102
}
330
6F
100
AcDbZombieObject
 90
      499
 91
      502
 93
      113
310
904313A31304000000000000244000
  0
ACAD_PROXY_OBJECT
  5
76
102
{ACAD_REACTORS
330
6F
102
}
330
6F
100
AcDbZombieObject
 90
      499
 91
      502
 93
      113
310
904313A31364000000000000304000
  0
ACAD_PROXY_OBJECT
  5
77
102
{ACAD_REACTORS
330
6F
102
}
330
6F
100
AcDbZombieObject
 90
      499
 91
      502
 93
      113
310
904313A32304000000000000344000
  0
ACAD_PROXY_OBJECT
  5
78
102
{ACAD_REACTORS
330
6F
102
}
330
6F
100
AcDbZombieObject
 90
      499
 91
      502
 93
      113
310
904313A333040000000000003E4000
  0
ACAD_PROXY_OBJECT
  5
79
102
{ACAD_REACTORS
330
6F
102
}
330
6F
100
AcDbZombieObject
 90
      499
 91
      502
 93
      113
310
904313A34304000000000000444000
  0
ACAD_PROXY_OBJECT
  5
7A
102
{ACAD_REACTORS
330
6F
102
}
330
6F
100
AcDbZombieObject
 90
      499
 91
      502
 93
      113
310
904313A35304000000000000494000
  0
ACAD_PROXY_OBJECT
  5
7B
102
{ACAD_REACTORS
330
6F
102
}
330
6F
100
AcDbZombieObject
 90
      499
 91
      502
 93
      121
310
905313A3130304000000000000594000
  0
ACAD_PROXY_OBJECT
  5
7C
102
{ACAD_REACTORS
330
6F
102
}
330
6F
100
AcDbZombieObject
 90
      499
 91
      502
 93
      105
310
903323A310000000000000010100
  0
ACAD_PROXY_OBJECT
  5
7D
102
{ACAD_REACTORS
330
6F
102
}
330
6F
100
AcDbZombieObject
 90
      499
 91
      502
 93
      105
310
903343A310000000000000410100
  0
ACAD_PROXY_OBJECT
  5
7E
102
{ACAD_REACTORS
330
6F
102
}
330
6F
100
AcDbZombieObject
 90
      499
 91
      502
 93
      105
310
903383A310000000000000810100
  0
ACAD_PROXY_OBJECT
  5
7F
102
{ACAD_REACTORS
330
6F
102
}
330
6F
100
AcDbZombieObject
 90
      499
 91
      502
 93
      113
310
90431303A310000000000000910100
  0
ACAD_PROXY_OBJECT
  5
80
102
{ACAD_REACTORS
330
6F
102
}
330
6F
100
AcDbZombieObject
 90
      499
 91
      502
 93
      121
310
9053130303A310000000000001650100
  0
ACAD_PROXY_OBJECT
  5
81
102
{ACAD_REACTORS
330
6F
102
}
330
6F
100
AcDbZombieObject
 90
      499
 91
      502
 93
      257
310
90E312F31323822203D2031272D3022000000000000200FC000000000000284000
  0
ACAD_PROXY_OBJECT
  5
82
102
{ACAD_REACTORS
330
6F
102
}
330
6F
100
AcDbZombieObject
 90
      499
 91
      502
 93
      249
310
90D312F363422203D2031272D3022000000000000240FC000000000000284000
  0
ACAD_PROXY_OBJECT
  5
83
102
{ACAD_REACTORS
330
6F
102
}
330
6F
100
AcDbZombieObject
 90
      499
 91
      502
 93
      249
310
90D312F333222203D2031272D3022000000000000280FC000000000000284000
  0
ACAD_PROXY_OBJECT
  5
84
102
{ACAD_REACTORS
330
6F
102
}
330
6F
100
AcDbZombieObject
 90
      499
 91
      502
 93
      249
310
90D312F313622203D2031272D30220000000000002C0FC000000000000284000
  0
ACAD_PROXY_OBJECT
  5
85
102
{ACAD_REACTORS
330
6F
102
}
330
6F
100
AcDbZombieObject
 90
      499
 91
      502
 93
      249
310
90D332F333222203D2031272D30220000000000002E0FC000000000000284000
  0
ACAD_PROXY_OBJECT
  5
86
102
{ACAD_REACTORS
330
6F
102
}
330
6F
100
AcDbZombieObject
 90
      499
 91
      502
 93
      241
310
90C312F3822203D2031272D3022000000000000300FC000000000000284000
  0
ACAD_PROXY_OBJECT
  5
87
102
{ACAD_REACTORS
330
6F
102
}
330
6F
100
AcDbZombieObject
 90
      499
 91
      502
 93
      249
310
90D332F313622203D2031272D3022000000000000320FC000000000000284000
  0
ACAD_PROXY_OBJECT
  5
88
102
{ACAD_REACTORS
330
6F
102
}
330
6F
100
AcDbZombieObject
 90
      499
 91
      502
 93
      241
310
90C312F3422203D2031272D3022000000000000340FC000000000000284000
  0
ACAD_PROXY_OBJECT
  5
89
102
{ACAD_REACTORS
330
6F
102
}
330
6F
100
AcDbZombieObject
 90
      499
 91
      502
 93
      241
310
90C332F3822203D2031272D3022000000000000360FC000000000000284000
  0
ACAD_PROXY_OBJECT
  5
8A
102
{ACAD_REACTORS
330
6F
102
}
330
6F
100
AcDbZombieObject
 90
      499
 91
      502
 93
      241
310
90C312F3222203D2031272D3022000000000000380FC000000000000284000
  0
ACAD_PROXY_OBJECT
  5
8B
102
{ACAD_REACTORS
330
6F
102
}
330
6F
100
AcDbZombieObject
 90
      499
 91
      502
 93
      241
310
90C332F3422203D2031272D30220000000000003A0FC000000000000284000
  0
ACAD_PROXY_OBJECT
  5
8C
102
{ACAD_REACTORS
330
6F
102
}
330
6F
100
AcDbZombieObject
 90
      499
 91
      502
 93
      161
310
90A3122203D2031272D30224000000000000284000
  0
ACAD_PROXY_OBJECT
  5
8D
102
{ACAD_REACTORS
330
6F
102
}
330
6F
100
AcDbZombieObject
 90
      499
 91
      502
 93
      257
310
90E312D312F3222203D2031272D30220000000000003E0FC000000000000284000
  0
ACAD_PROXY_OBJECT
  5
8E
102
{ACAD_REACTORS
330
6F
102
}
330
6F
100
AcDbZombieObject
 90
      499
 91
      502
 93
      225
310
90A3322203D2031272D302200000000000002100000000000000284000
  0
ACAD_PROXY_OBJECT
  5
8F
102
{ACAD_REACTORS
330
6F
102
}
330
6F
100
AcDbZombieObject
 90
      499
 91
      502
 93
      225
310
90A3622203D2031272D302200000000000006100000000000000284000
  0
ACAD_PROXY_OBJECT
  5
90
102
{ACAD_REACTORS
330
6F
102
}
330
6F
100
AcDbZombieObject
 90
      499
 91
      502
 93
      249
310
90D31272D3022203D2031272D30220000000000000A100000000000000284000
  0
ACAD_PROXY_OBJECT
  5
2F
102
{ACAD_REACTORS
330
2A
102
}
330
2A
100
AcDbZombieObject
 90
      499
 91
      501
 93
      436
310
42CC9915DA5C99599C985B595049028333333333333E3BF0000000000000FB0107901411070040501600405405064090741402480A0340
1001
ACAD
1000
AcDbSavedByObjectVersion
1070
     0
  0
ACAD_PROXY_OBJECT
  5
31
102
{ACAD_REACTORS
330
2A
102
}
330
2A
100
AcDbZombieObject
 90
      499
 91
      501
 93
      500
310
424CD108121A5919195B90640502408333333333333E3BF0000000000000FB01079024090700405020000000000001110200405405064090740C02480A0340
1001
ACAD
1000
AcDbSavedByObjectVersion
1070
     0
  0
ACAD_PROXY_OBJECT
  5
30
102
{ACAD_REACTORS
330
2A
102
}
330
2A
100
AcDbZombieObject
 90
      499
 91
      501
 93
      436
310
42CCD915DA5C99599C985B595059028333333333333E3BF0000000000000FB0107901411070040501600405405064090741402480A0340
1001
ACAD
1000
AcDbSavedByObjectVersion
1070
     0
  0
ACAD_PROXY_OBJECT
  5
32
102
{ACAD_REACTORS
330
2A
102
}
330
2A
100
AcDbZombieObject
 90
      499
 91
      501
 93
      388
310
4150985CDA58D07406404333333333333E3BF0000000000000FB0107A41107004050150841D405064090741402480A0350
1001
ACAD
1000
AcDbSavedByObjectVersion
1070
     0
  0
ACAD_PROXY_OBJECT
  5
36
102
{ACAD_REACTORS
330
2A
102
}
330
2A
100
AcDbZombieObject
 90
      499
 91
      501
 93
      428
310
42109C9A59DA1D195B90C409028333333333333E3BF0000000000000FB010790141107004050150841D405064090741402480A029950
1001
ACAD
1000
AcDbSavedByObjectVersion
1070
     0
  0
ACAD_PROXY_OBJECT
  5
3A
102
{ACAD_REACTORS
330
2A
102
}
330
2A
100
AcDbZombieObject
 90
      499
 91
      501
 93
      452
310
42D0DBDB1BDC90DA185B99D95104090240C333333333333E3BF0000000000000FB0108901411070040501508421405064090741402480A0350
1001
ACAD
1000
AcDbSavedByObjectVersion
1070
     0
  0
ACAD_PROXY_OBJECT
  5
34
102
{ACAD_REACTORS
330
2A
102
}
330
2A
100
AcDbZombieObject
 90
      499
 91
      501
 93
      500
310
4290DBDB98D95C1D1D585B10940D028333333333333E3BF0000000000000FB0107902409070040501000000000000111010841D405064090740C02480A0340
1001
ACAD
1000
AcDbSavedByObjectVersion
1070
     0
  0
ACAD_PROXY_OBJECT
  5
35
102
{ACAD_REACTORS
330
2A
102
}
330
2A
100
AcDbZombieObject
 90
      499
 91
      501
 93
      412
310
40D11A5B50B409028333333333333E3BF0000000000000FB010790141107004050150841D405064090741402480A02677FFFFFD0
1001
ACAD
1000
AcDbSavedByObjectVersion
1070
     0
  0
ACAD_PROXY_OBJECT
  5
39
102
{ACAD_REACTORS
330
2A
102
}
330
2A
100
AcDbZombieObject
 90
      499
 91
      501
 93
      444
310
42D19858D95C185D1D195C9B90F409028333333333333E3BF0000000000000FB010790141107004050150841D405064090741402480A0350
1001
ACAD
1000
AcDbSavedByObjectVersion
1070
     0
  0
ACAD_PROXY_OBJECT
  5
2B
102
{ACAD_REACTORS
330
2A
102
}
330
2A
100
AcDbZombieObject
 90
      499
 91
      501
 93
      388
310
41119B185D240901404333333333333E3BF0000000000000F9010740A41107004050150841D405064090741402480A1B50
1001
ACAD
1000
AcDbSavedByObjectVersion
1070
     0
  0
ACAD_PROXY_OBJECT
  5
2C
102
{ACAD_REACTORS
330
2A
102
}
330
2A
100
AcDbZombieObject
 90
      499
 91
      501
 93
      476
310
43519B185D15DA5D1A115919D95CD0140901404333333333333E3BF0000000000000F9010740901411070040501600405405064090741402480A1B50
1001
ACAD
1000
AcDbSavedByObjectVersion
1070
     0
  0
ACAD_PROXY_OBJECT
  5
2D
102
{ACAD_REACTORS
330
2A
102
}
330
2A
100
AcDbZombieObject
 90
      499
 91
      501
 93
      412
310
41D1DBDD5C985D5910240902404333333333333E3BF0000000000000F9010740A411070040501641D405064090741402480A1B50
1001
ACAD
1000
AcDbSavedByObjectVersion
1070
     0
  0
ACAD_PROXY_OBJECT
  5
2E
102
{ACAD_REACTORS
330
2A
102
}
330
2A
100
AcDbZombieObject
 90
      499
 91
      501
 93
      500
310
4411DBDD5C985D5915DA5D1A115919D95CD0340902404333333333333E3BF0000000000000F9010740901411070040501600405405064090741402480A1B50
1001
ACAD
1000
AcDbSavedByObjectVersion
1070
     0
  0
ACAD_PROXY_OBJECT
  5
38
102
{ACAD_REACTORS
330
2A
102
}
330
2A
100
AcDbZombieObject
 90
      499
 91
      501
 93
      444
310
42D31A5B995C185D1D195C9B90E409028333333333333E3BF0000000000000FB010790141107004050750841D405064090741402483A0350
1001
ACAD
1000
AcDbSavedByObjectVersion
1070
     0
  0
ACAD_PROXY_OBJECT
  5
33
102
{ACAD_REACTORS
330
2A
102
}
330
2A
100
AcDbZombieObject
 90
      499
 91
      501
 93
      420
310
425499585B1A5CDD1A58D08409028333333333333E3BF0000000000000FB01079019070040501508421405064090741402480A1B40
1001
ACAD
1000
AcDbSavedByObjectVersion
1070
     0
  0
ACAD_PROXY_OBJECT
  5
37
102
{ACAD_REACTORS
330
2A
102
}
330
2A
100
AcDbZombieObject
 90
      499
 91
      501
 93
      412
310
41D51A1A58DAD95B90D409028333333333333E3BF0000000000000FB010790141107004050150C41D405064090741402480A0350
1001
ACAD
1000
AcDbSavedByObjectVersion
1070
     0
  0
DICTIONARYVAR
  5
2A3
102
{ACAD_REACTORS
330
2A0
102
}
330
2A0
100
DictionaryVariables
280
     0
  1
1:1
  0
DICTIONARYVAR
  5
2A4
102
{ACAD_REACTORS
330
2A0
102
}
330
2A0
100
DictionaryVariables
280
     0
  1
2
  0
DICTIONARYVAR
  5
2A5
102
{ACAD_REACTORS
330
2A0
102
}
330
2A0
100
DictionaryVariables
280
     0
  1
1
  0
ENDSEC
  0
EOF
