  0
SECTION
  2
HEADER
  9
$ACADVER
  1
AC1012
  9
$DWGCODEPAGE
  3
ansi_1252
  9
$INSBASE
 10
0.0
 20
0.0
 30
0.0
  9
$EXTMIN
 10
0.0
 20
0.0
 30
0.0
  9
$EXTMAX
 10
11.0
 20
8.5
 30
0.0
  9
$LIMMIN
 10
0.0
 20
0.0
  9
$LIMMAX
 10
11.0
 20
8.5
  9
$ORTHOMODE
 70
     0
  9
$REGENMODE
 70
     1
  9
$FILLMODE
 70
     1
  9
$QTEXTMODE
 70
     0
  9
$MIRRTEXT
 70
     1
  9
$DRAGMODE
 70
     2
  9
$LTSCALE
 40
1.0
  9
$OSMODE
 70
    37
  9
$ATTMODE
 70
     1
  9
$TEXTSIZE
 40
0.125
  9
$TRACEWID
 40
0.05
  9
$TEXTSTYLE
  7
STANDARD
  9
$CLAYER
  8
0
  9
$CELTYPE
  6
BYLAYER
  9
$CECOLOR
 62
   256
  9
$CELTSCALE
 40
1.0
  9
$DELOBJ
 70
     1
  9
$DISPSILH
 70
     0
  9
$DIMSCALE
 40
1.0
  9
$DIMASZ
 40
0.13
  9
$DIMEXO
 40
0.05
  9
$DIMDLI
 40
0.38
  9
$DIMRND
 40
0.0
  9
$DIMDLE
 40
0.0
  9
$DIMEXE
 40
0.125
  9
$DIMTP
 40
0.0
  9
$DIMTM
 40
0.0
  9
$DIMTXT
 40
0.125
  9
$DIMCEN
 40
0.09
  9
$DIMTSZ
 40
0.0
  9
$DIMTOL
 70
     0
  9
$DIMLIM
 70
     0
  9
$DIMTIH
 70
     1
  9
$DIMTOH
 70
     1
  9
$DIMSE1
 70
     0
  9
$DIMSE2
 70
     0
  9
$DIMTAD
 70
     0
  9
$DIMZIN
 70
     0
  9
$DIMBLK
  1

  9
$DIMASO
 70
     1
  9
$DIMSHO
 70
     1
  9
$DIMPOST
  1

  9
$DIMAPOST
  1

  9
$DIMALT
 70
     0
  9
$DIMALTD
 70
     2
  9
$DIMALTF
 40
25.4
  9
$DIMLFAC
 40
1.0
  9
$DIMTOFL
 70
     0
  9
$DIMTVP
 40
0.0
  9
$DIMTIX
 70
     0
  9
$DIMSOXD
 70
     0
  9
$DIMSAH
 70
     0
  9
$DIMBLK1
  1

  9
$DIMBLK2
  1

  9
$DIMSTYLE
  2
STANDARD
  9
$DIMCLRD
 70
     0
  9
$DIMCLRE
 70
     0
  9
$DIMCLRT
 70
     0
  9
$DIMTFAC
 40
1.0
  9
$DIMGAP
 40
0.06
  9
$DIMJUST
 70
     0
  9
$DIMSD1
 70
     0
  9
$DIMSD2
 70
     0
  9
$DIMTOLJ
 70
     1
  9
$DIMTZIN
 70
     0
  9
$DIMALTZ
 70
     0
  9
$DIMALTTZ
 70
     0
  9
$DIMFIT
 70
     3
  9
$DIMUPT
 70
     0
  9
$DIMUNIT
 70
     2
  9
$DIMDEC
 70
     3
  9
$DIMTDEC
 70
     3
  9
$DIMALTU
 70
     2
  9
$DIMALTTD
 70
     2
  9
$DIMTXSTY
  7
STANDARD
  9
$DIMAUNIT
 70
     0
  9
$LUNITS
 70
     2
  9
$LUPREC
 70
     2
  9
$SKETCHINC
 40
0.1
  9
$FILLETRAD
 40
0.5
  9
$AUNITS
 70
     0
  9
$AUPREC
 70
     2
  9
$MENU
  1
.
  9
$ELEVATION
 40
0.0
  9
$PELEVATION
 40
0.0
  9
$THICKNESS
 40
0.0
  9
$LIMCHECK
 70
     0
  9
$CHAMFERA
 40
0.5
  9
$CHAMFERB
 40
0.5
  9
$CHAMFERC
 40
1.0
  9
$CHAMFERD
 40
0.0
  9
$SKPOLY
 70
     0
  9
$TDCREATE
 40
2455784.0201325
  9
$TDUPDATE
 40
2455784.020132511
  9
$TDINDWG
 40
0.0000000116
  9
$TDUSRTIMER
 40
0.0000000116
  9
$USRTIMER
 70
     1
  9
$ANGBASE
 50
0.0
  9
$ANGDIR
 70
     0
  9
$PDMODE
 70
     0
  9
$PDSIZE
 40
-1.0
  9
$PLINEWID
 40
0.0
  9
$COORDS
 70
     1
  9
$SPLFRAME
 70
     0
  9
$SPLINETYPE
 70
     6
  9
$SPLINESEGS
 70
     8
  9
$ATTDIA
 70
     0
  9
$ATTREQ
 70
     1
  9
$HANDLING
 70
     1
  9
$HANDSEED
  5
6B5
  9
$SURFTAB1
 70
     6
  9
$SURFTAB2
 70
     6
  9
$SURFTYPE
 70
     6
  9
$SURFU
 70
     6
  9
$SURFV
 70
     6
  9
$UCSNAME
  2

  9
$UCSORG
 10
0.0
 20
0.0
 30
0.0
  9
$UCSXDIR
 10
1.0
 20
0.0
 30
0.0
  9
$UCSYDIR
 10
0.0
 20
1.0
 30
0.0
  9
$PUCSNAME
  2

  9
$PUCSORG
 10
0.0
 20
0.0
 30
0.0
  9
$PUCSXDIR
 10
1.0
 20
0.0
 30
0.0
  9
$PUCSYDIR
 10
0.0
 20
1.0
 30
0.0
  9
$USERI1
 70
     0
  9
$USERI2
 70
     0
  9
$USERI3
 70
     0
  9
$USERI4
 70
     0
  9
$USERI5
 70
     0
  9
$USERR1
 40
0.0
  9
$USERR2
 40
0.0
  9
$USERR3
 40
0.0
  9
$USERR4
 40
0.0
  9
$USERR5
 40
0.0
  9
$WORLDVIEW
 70
     1
  9
$SHADEDGE
 70
     3
  9
$SHADEDIF
 70
    70
  9
$TILEMODE
 70
     1
  9
$MAXACTVP
 70
    64
  9
$PINSBASE
 10
0.0
 20
0.0
 30
0.0
  9
$PLIMCHECK
 70
     0
  9
$PEXTMIN
 10
1.0000000000E+20
 20
1.0000000000E+20
 30
1.0000000000E+20
  9
$PEXTMAX
 10
-1.0000000000E+20
 20
-1.0000000000E+20
 30
-1.0000000000E+20
  9
$PLIMMIN
 10
0.0
 20
0.0
  9
$PLIMMAX
 10
12.0
 20
9.0
  9
$UNITMODE
 70
     0
  9
$VISRETAIN
 70
     1
  9
$PLINEGEN
 70
     0
  9
$PSLTSCALE
 70
     1
  9
$TREEDEPTH
 70
  3020
  9
$PICKSTYLE
 70
     1
  9
$CMLSTYLE
  2
STANDARD
  9
$CMLJUST
 70
     0
  9
$CMLSCALE
 40
1.0
  9
$SAVEIMAGES
 70
     1
  0
ENDSEC
  0
SECTION
  2
CLASSES
  0
CLASS
  1
ACDBDICTIONARYWDFLT
  2
AcDbDictionaryWithDefault
  3
ObjectDBX Classes
 90
    32768
280
     0
281
     0
  0
CLASS
  1
VISUALSTYLE
  2
AcDbVisualStyle
  3
ObjectDBX Classes
 90
     4095
280
     0
281
     0
  0
CLASS
  1
SCALE
  2
AcDbScale
  3
ObjectDBX Classes
 90
     1153
280
     0
281
     0
  0
CLASS
  1
DICTIONARYVAR
  2
AcDbDictionaryVar
  3
ObjectDBX Classes
 90
        0
280
     0
281
     0
  0
CLASS
  1
XRECORD
  2
AcDbXrecord
  3
AutoCAD 2000
 90
    32768
280
     0
281
     0
  0
CLASS
  1
LWPOLYLINE
  2
AcDbPolyline
  3
AutoCAD 2000
 90
    32768
280
     0
281
     1
  0
CLASS
  1
HATCH
  2
AcDbHatch
  3
AutoCAD 2000
 90
    32768
280
     0
281
     1
  0
CLASS
  1
ACDBPLACEHOLDER
  2
AcDbPlaceHolder
  3
ObjectDBX Classes
 90
        0
280
     0
281
     0
  0
CLASS
  1
LAYOUT
  2
AcDbLayout
  3
ObjectDBX Classes
 90
        0
280
     0
281
     0
  0
ENDSEC
  0
SECTION
  2
TABLES
  0
TABLE
  2
VPORT
  5
8
330
0
100
AcDbSymbolTable
 70
     1
  0
VPORT
  5
29
330
8
100
AcDbSymbolTableRecord
100
AcDbViewportTableRecord
  2
*ACTIVE
 70
     0
 10
0.0
 20
0.0
 11
1.0
 21
1.0
 12
5.5
 22
4.25
 13
0.0
 23
0.0
 14
0.5
 24
0.5
 15
0.5
 25
0.5
 16
0.0
 26
0.0
 36
1.0
 17
0.0
 27
0.0
 37
0.0
 40
8.5
 41
1.2941176471
 42
50.0
 43
0.0
 44
0.0
 50
0.0
 51
0.0
 71
     0
 72
  2000
 73
     1
 74
     3
 75
     0
 76
     0
 77
     0
 78
     0
  0
ENDTAB
  0
TABLE
  2
LTYPE
  5
5
330
0
100
AcDbSymbolTable
 70
     6
  0
LTYPE
  5
14
330
5
100
AcDbSymbolTableRecord
100
AcDbLinetypeTableRecord
  2
BYBLOCK
 70
     0
  3

 72
    65
 73
     0
 40
0.0
  0
LTYPE
  5
15
330
5
100
AcDbSymbolTableRecord
100
AcDbLinetypeTableRecord
  2
BYLAYER
 70
     0
  3

 72
    65
 73
     0
 40
0.0
  0
LTYPE
  5
16
330
5
100
AcDbSymbolTableRecord
100
AcDbLinetypeTableRecord
  2
CONTINUOUS
 70
     0
  3
Solid line
 72
    65
 73
     0
 40
0.0
  0
LTYPE
  5
3B
330
5
100
AcDbSymbolTableRecord
100
AcDbLinetypeTableRecord
  2
HIDDEN
 70
     0
  3
Hidden __ __ __ __ __ __ __ __ __ __ __ __ __ __
 72
    65
 73
     2
 40
0.075
 49
0.05
 74
     0
 49
-0.025
 74
     0
  0
LTYPE
  5
3C
330
5
100
AcDbSymbolTableRecord
100
AcDbLinetypeTableRecord
  2
PHANTOM
 70
     0
  3
Phantom ______  __  __  ______  __  __  ______
 72
    65
 73
     6
 40
0.5
 49
0.25
 74
     0
 49
-0.05
 74
     0
 49
0.05
 74
     0
 49
-0.05
 74
     0
 49
0.05
 74
     0
 49
-0.05
 74
     0
  0
LTYPE
  5
3D
330
5
100
AcDbSymbolTableRecord
100
AcDbLinetypeTableRecord
  2
CENTER
 70
     0
  3
Center ____ _ ____ _ ____ _ ____ _ ____ _ ____
 72
    65
 73
     4
 40
0.4
 49
0.25
 74
     0
 49
-0.05
 74
     0
 49
0.05
 74
     0
 49
-0.05
 74
     0
  0
LTYPE
  5
3E
330
5
100
AcDbSymbolTableRecord
100
AcDbLinetypeTableRecord
  2
CENTERX2
 70
     0
  3
Center (2x) ________  __  ________  __  _____
 72
    65
 73
     4
 40
0.8
 49
0.5
 74
     0
 49
-0.1
 74
     0
 49
0.1
 74
     0
 49
-0.1
 74
     0
  0
LTYPE
  5
3F
330
5
100
AcDbSymbolTableRecord
100
AcDbLinetypeTableRecord
  2
DOT2
 70
     0
  3
Dot (.5x) ........................................
 72
    65
 73
     2
 40
0.025
 49
0.0
 74
     0
 49
-0.025
 74
     0
  0
ENDTAB
  0
TABLE
  2
LAYER
  5
2
330
0
100
AcDbSymbolTable
 70
     2
  0
LAYER
  5
10
330
2
100
AcDbSymbolTableRecord
100
AcDbLayerTableRecord
  2
0
 70
     0
 62
     7
  6
CONTINUOUS
  0
LAYER
  5
40
330
2
100
AcDbSymbolTableRecord
100
AcDbLayerTableRecord
  2
FORMAT
 70
     0
 62
     7
  6
CONTINUOUS
  0
ENDTAB
  0
TABLE
  2
STYLE
  5
3
330
0
100
AcDbSymbolTable
 70
     4
  0
STYLE
  5
11
330
3
100
AcDbSymbolTableRecord
100
AcDbTextStyleTableRecord
  2
STANDARD
 70
     0
 40
0.0
 41
1.0
 50
0.0
 71
     0
 42
0.2
  3
txt
  4

  0
STYLE
  5
6E
330
3
100
AcDbSymbolTableRecord
100
AcDbTextStyleTableRecord
  2
SLDTEXTSTYLE0
 70
     0
 40
0.0
 41
0.75
 50
0.0
 71
     0
 42
0.2
  3
TXT
  4

  0
STYLE
  5
93
330
3
100
AcDbSymbolTableRecord
100
AcDbTextStyleTableRecord
  2
SLDTEXTSTYLE1
 70
     0
 40
0.0
 41
0.6875
 50
0.0
 71
     0
 42
0.2
  3
TXT
  4

  0
STYLE
  5
99
330
3
100
AcDbSymbolTableRecord
100
AcDbTextStyleTableRecord
  2
SLDTEXTSTYLE2
 70
     0
 40
0.0
 41
0.6944444444
 50
0.0
 71
     0
 42
0.2
  3
TXT
  4

  0
ENDTAB
  0
TABLE
  2
VIEW
  5
6
330
0
100
AcDbSymbolTable
 70
     0
  0
ENDTAB
  0
TABLE
  2
UCS
  5
7
330
0
100
AcDbSymbolTable
 70
     0
  0
ENDTAB
  0
TABLE
  2
APPID
  5
9
330
0
100
AcDbSymbolTable
 70
     1
  0
APPID
  5
12
330
9
100
AcDbSymbolTableRecord
100
AcDbRegAppTableRecord
  2
ACAD
 70
     0
  0
ENDTAB
  0
TABLE
  2
DIMSTYLE
  5
A
330
0
100
AcDbSymbolTable
 70
     1
  0
DIMSTYLE
105
27
330
A
100
AcDbSymbolTableRecord
100
AcDbDimStyleTableRecord
  2
STANDARD
 70
     0
  3

  4

  5

  6

  7

 40
1.0
 41
0.18
 42
0.0625
 43
0.38
 44
0.18
 45
0.0
 46
0.0
 47
0.0
 48
0.0
140
0.18
141
0.09
142
0.0
143
25.4
144
1.0
145
0.0
146
1.0
147
0.09
 71
     0
 72
     0
 73
     1
 74
     1
 75
     0
 76
     0
 77
     0
 78
     0
170
     0
171
     2
172
     0
173
     0
174
     0
175
     0
176
     0
177
     0
178
     0
270
     2
271
     4
272
     4
273
     2
274
     2
340
11
275
     0
280
     0
281
     0
282
     0
283
     1
284
     0
285
     0
286
     0
287
     3
288
     0
  0
ENDTAB
  0
TABLE
  2
BLOCK_RECORD
  5
1
330
0
100
AcDbSymbolTable
 70
     4
  0
BLOCK_RECORD
  5
1F
330
1
100
AcDbSymbolTableRecord
100
AcDbBlockTableRecord
  2
*MODEL_SPACE
  0
BLOCK_RECORD
  5
1B
330
1
100
AcDbSymbolTableRecord
100
AcDbBlockTableRecord
  2
*PAPER_SPACE
  0
BLOCK_RECORD
  5
A8
330
1
100
AcDbSymbolTableRecord
100
AcDbBlockTableRecord
  2
SW_NOTE_0
  0
BLOCK_RECORD
  5
AE
330
1
100
AcDbSymbolTableRecord
100
AcDbBlockTableRecord
  2
SW_NOTE_1
  0
BLOCK_RECORD
  5
C2
330
1
100
AcDbSymbolTableRecord
100
AcDbBlockTableRecord
  2
SW_NOTE_2
  0
ENDTAB
  0
ENDSEC
  0
SECTION
  2
BLOCKS
  0
BLOCK
  5
20
330
1F
100
AcDbEntity
  8
0
100
AcDbBlockBegin
  2
*MODEL_SPACE
 70
     0
 10
0.0
 20
0.0
 30
0.0
  3
*MODEL_SPACE
  1

  0
ENDBLK
  5
21
330
1F
100
AcDbEntity
  8
0
100
AcDbBlockEnd
  0
BLOCK
  5
1C
330
1B
100
AcDbEntity
 67
     1
  8
0
100
AcDbBlockBegin
  2
*PAPER_SPACE
 70
     0
 10
0.0
 20
0.0
 30
0.0
  3
*PAPER_SPACE
  1

  0
ENDBLK
  5
1D
330
1B
100
AcDbEntity
 67
     1
  8
0
100
AcDbBlockEnd
  0
BLOCK
  5
A9
330
A8
100
AcDbEntity
  8
0
100
AcDbBlockBegin
  2
SW_NOTE_0
 70
     0
 10
0.0
 20
0.0
 30
0.0
  3
SW_NOTE_0
  1

  0
MTEXT
  5
AB
330
A8
100
AcDbEntity
  8
0
  6
CONTINUOUS
 62
     0
100
AcDbMText
 10
0.0
 20
0.0773440644
 30
0.0
 40
0.06
 41
0.0
 71
     1
 72
     1
  1
INTERPRET GEOMETRIC
  7
SLDTEXTSTYLE0
  0
MTEXT
  5
AC
330
A8
100
AcDbEntity
  8
0
  6
CONTINUOUS
 62
     0
100
AcDbMText
 10
0.0
 20
-0.0220260102
 30
0.0
 40
0.06
 41
0.0
 71
     1
 72
     1
  1
TOLERANCING PER:
  7
SLDTEXTSTYLE0
  0
ENDBLK
  5
AA
330
A8
100
AcDbEntity
  8
0
100
AcDbBlockEnd
  0
BLOCK
  5
AF
330
AE
100
AcDbEntity
  8
0
100
AcDbBlockBegin
  2
SW_NOTE_1
 70
     0
 10
0.0
 20
0.0
 30
0.0
  3
SW_NOTE_1
  1

  0
MTEXT
  5
B1
330
AE
100
AcDbEntity
  8
0
  6
CONTINUOUS
 62
     0
100
AcDbMText
 10
0.0
 20
0.0837894031
 30
0.0
 40
0.065
 41
0.0
 71
     1
 72
     1
  1
DIMENSIONS ARE IN INCHES
  7
SLDTEXTSTYLE0
  0
MTEXT
  5
B2
330
AE
100
AcDbEntity
  8
0
  6
CONTINUOUS
 62
     0
100
AcDbMText
 10
0.0
 20
-0.0205806729
 30
0.0
 40
0.065
 41
0.0
 71
     1
 72
     1
  1
TOLERANCES:
  7
SLDTEXTSTYLE0
  0
MTEXT
  5
B3
330
AE
100
AcDbEntity
  8
0
  6
CONTINUOUS
 62
     0
100
AcDbMText
 10
0.0
 20
-0.1249507489
 30
0.0
 40
0.065
 41
0.0
 71
     1
 72
     1
  1
FRACTIONAL
  7
SLDTEXTSTYLE0
  0
MTEXT
  5
B4
330
AE
100
AcDbEntity
  8
0
  6
CONTINUOUS
 62
     0
100
AcDbMText
 10
0.5175850875
 20
-0.1249507489
 30
0.0
 40
0.065
 41
0.0
 71
     1
 72
     1
  1
%%p
  7
SLDTEXTSTYLE0
  0
MTEXT
  5
B5
330
AE
100
AcDbEntity
  8
0
  6
CONTINUOUS
 62
     0
100
AcDbMText
 10
0.0
 20
-0.2293208248
 30
0.0
 40
0.065
 41
0.0
 71
     1
 72
     1
  1
ANGULAR: MACH
  7
SLDTEXTSTYLE0
  0
MTEXT
  5
B6
330
AE
100
AcDbEntity
  8
0
  6
CONTINUOUS
 62
     0
100
AcDbMText
 10
0.7233732769
 20
-0.2293208248
 30
0.0
 40
0.065
 41
0.0
 71
     1
 72
     1
  1
%%p
  7
SLDTEXTSTYLE0
  0
MTEXT
  5
B7
330
AE
100
AcDbEntity
  8
0
  6
CONTINUOUS
 62
     0
100
AcDbMText
 10
0.7852857683
 20
-0.2293208248
 30
0.0
 40
0.065
 41
0.0
 71
     1
 72
     1
  1
     BEND 
  7
SLDTEXTSTYLE0
  0
MTEXT
  5
B8
330
AE
100
AcDbEntity
  8
0
  6
CONTINUOUS
 62
     0
100
AcDbMText
 10
1.14784136
 20
-0.2293208248
 30
0.0
 40
0.065
 41
0.0
 71
     1
 72
     1
  1
%%p
  7
SLDTEXTSTYLE0
  0
MTEXT
  5
B9
330
AE
100
AcDbEntity
  8
0
  6
CONTINUOUS
 62
     0
100
AcDbMText
 10
0.0
 20
-0.3336909008
 30
0.0
 40
0.065
 41
0.0
 71
     1
 72
     1
  1
TWO PLACE DECIMAL    
  7
SLDTEXTSTYLE0
  0
MTEXT
  5
BA
330
AE
100
AcDbEntity
  8
0
  6
CONTINUOUS
 62
     0
100
AcDbMText
 10
0.9794349188
 20
-0.3336909008
 30
0.0
 40
0.065
 41
0.0
 71
     1
 72
     1
  1
%%p
  7
SLDTEXTSTYLE0
  0
MTEXT
  5
BB
330
AE
100
AcDbEntity
  8
0
  6
CONTINUOUS
 62
     0
100
AcDbMText
 10
0.0
 20
-0.4380609768
 30
0.0
 40
0.065
 41
0.0
 71
     1
 72
     1
  1
THREE PLACE DECIMAL  
  7
SLDTEXTSTYLE0
  0
MTEXT
  5
BC
330
AE
100
AcDbEntity
  8
0
  6
CONTINUOUS
 62
     0
100
AcDbMText
 10
0.9738038639
 20
-0.4380609768
 30
0.0
 40
0.065
 41
0.0
 71
     1
 72
     1
  1
%%p
  7
SLDTEXTSTYLE0
  0
ENDBLK
  5
B0
330
AE
100
AcDbEntity
  8
0
100
AcDbBlockEnd
  0
BLOCK
  5
C3
330
C2
100
AcDbEntity
  8
0
100
AcDbBlockBegin
  2
SW_NOTE_2
 70
     0
 10
0.0
 20
0.0
 30
0.0
  3
SW_NOTE_2
  1

  0
MTEXT
  5
C5
330
C2
100
AcDbEntity
  8
0
  6
CONTINUOUS
 62
     0
100
AcDbMText
 10
0.0
 20
0.0773440644
 30
0.0
 40
0.06
 41
0.0
 71
     1
 72
     1
  1
THE INFORMATION CONTAINED IN THIS
  7
SLDTEXTSTYLE0
  0
MTEXT
  5
C6
330
C2
100
AcDbEntity
  8
0
  6
CONTINUOUS
 62
     0
100
AcDbMText
 10
0.0
 20
-0.0220260102
 30
0.0
 40
0.06
 41
0.0
 71
     1
 72
     1
  1
DRAWING IS THE SOLE PROPERTY OF
  7
SLDTEXTSTYLE0
  0
MTEXT
  5
C7
330
C2
100
AcDbEntity
  8
0
  6
CONTINUOUS
 62
     0
100
AcDbMText
 10
0.0
 20
-0.1213960848
 30
0.0
 40
0.06
 41
0.0
 71
     1
 72
     1
  1
Candy Controls.  ANY 
  7
SLDTEXTSTYLE0
  0
MTEXT
  5
C8
330
C2
100
AcDbEntity
  8
0
  6
CONTINUOUS
 62
     0
100
AcDbMText
 10
0.0
 20
-0.2207661593
 30
0.0
 40
0.06
 41
0.0
 71
     1
 72
     1
  1
REPRODUCTION IN PART OR AS A WHOLE
  7
SLDTEXTSTYLE0
  0
MTEXT
  5
C9
330
C2
100
AcDbEntity
  8
0
  6
CONTINUOUS
 62
     0
100
AcDbMText
 10
0.0
 20
-0.3201362339
 30
0.0
 40
0.06
 41
0.0
 71
     1
 72
     1
  1
WITHOUT THE WRITTEN PERMISSION OF
  7
SLDTEXTSTYLE0
  0
MTEXT
  5
CA
330
C2
100
AcDbEntity
  8
0
  6
CONTINUOUS
 62
     0
100
AcDbMText
 10
0.0
 20
-0.4195063085
 30
0.0
 40
0.06
 41
0.0
 71
     1
 72
     1
  1
Candy Controls IS 
  7
SLDTEXTSTYLE0
  0
MTEXT
  5
CB
330
C2
100
AcDbEntity
  8
0
  6
CONTINUOUS
 62
     0
100
AcDbMText
 10
0.0
 20
-0.518876383
 30
0.0
 40
0.06
 41
0.0
 71
     1
 72
     1
  1
PROHIBITED.
  7
SLDTEXTSTYLE0
  0
ENDBLK
  5
C4
330
C2
100
AcDbEntity
  8
0
100
AcDbBlockEnd
  0
ENDSEC
  0
SECTION
  2
ENTITIES
  0
LINE
  5
41
330
1F
100
AcDbEntity
  8
0
  6
CONTINUOUS
 62
     7
100
AcDbLine
 10
0.329927
 20
8.1920731707
 30
0.0
 11
10.629927
 21
8.1920731707
 31
0.0
  0
LINE
  5
42
330
1F
100
AcDbEntity
  8
0
  6
CONTINUOUS
 62
     7
100
AcDbLine
 10
0.329927
 20
8.1920731707
 30
0.0
 11
0.329927
 21
0.3920731707
 31
0.0
  0
LINE
  5
43
330
1F
100
AcDbEntity
  8
0
  6
CONTINUOUS
 62
     7
100
AcDbLine
 10
10.629927
 20
0.3920731707
 30
0.0
 11
0.329927
 21
0.3920731707
 31
0.0
  0
LINE
  5
44
330
1F
100
AcDbEntity
  8
0
  6
CONTINUOUS
 62
     7
100
AcDbLine
 10
10.629927
 20
0.3920731707
 30
0.0
 11
10.629927
 21
8.1920731707
 31
0.0
  0
LINE
  5
45
330
1F
100
AcDbEntity
  8
0
  6
CONTINUOUS
 62
     7
100
AcDbLine
 10
4.7981841288
 20
0.3920731707
 30
0.0
 11
4.7981841288
 21
2.3564211366
 31
0.0
  0
LINE
  5
46
330
1F
100
AcDbEntity
  8
0
  6
CONTINUOUS
 62
     7
100
AcDbLine
 10
2.8210345579
 20
2.3564211366
 30
0.0
 11
10.629927
 21
2.3564211366
 31
0.0
  0
LINE
  5
47
330
1F
100
AcDbEntity
  8
0
  6
CONTINUOUS
 62
     7
100
AcDbLine
 10
6.1796352514
 20
2.3564211366
 30
0.0
 11
6.1796352514
 21
0.3920731707
 31
0.0
  0
LINE
  5
48
330
1F
100
AcDbEntity
  8
0
  6
CONTINUOUS
 62
     7
100
AcDbLine
 10
7.8712070044
 20
2.3564211366
 30
0.0
 11
7.8712070044
 21
0.3920731707
 31
0.0
  0
LINE
  5
49
330
1F
100
AcDbEntity
  8
0
  6
CONTINUOUS
 62
     7
100
AcDbLine
 10
7.8712070044
 20
0.6049590101
 30
0.0
 11
10.629927
 21
0.6049590101
 31
0.0
  0
LINE
  5
4A
330
1F
100
AcDbEntity
  8
0
  6
CONTINUOUS
 62
     7
100
AcDbLine
 10
7.8712070044
 20
1.1119362457
 30
0.0
 11
10.629927
 21
1.1119362457
 31
0.0
  0
LINE
  5
4B
330
1F
100
AcDbEntity
  8
0
  6
CONTINUOUS
 62
     7
100
AcDbLine
 10
7.8712070044
 20
1.9892703708
 30
0.0
 11
10.629927
 21
1.9892703708
 31
0.0
  0
LINE
  5
4C
330
1F
100
AcDbEntity
  8
0
  6
CONTINUOUS
 62
     7
100
AcDbLine
 10
8.266751752
 20
1.1119362457
 30
0.0
 11
8.266751752
 21
0.6049590101
 31
0.0
  0
LINE
  5
4D
330
1F
100
AcDbEntity
  8
0
  6
CONTINUOUS
 62
     7
100
AcDbLine
 10
8.6943435176
 20
0.6049590101
 30
0.0
 11
8.6943435176
 21
0.3920731707
 31
0.0
  0
LINE
  5
4E
330
1F
100
AcDbEntity
  8
0
  6
CONTINUOUS
 62
     7
100
AcDbLine
 10
10.0579917045
 20
1.1119362457
 30
0.0
 11
10.0579917045
 21
0.6049590101
 31
0.0
  0
LINE
  5
4F
330
1F
100
AcDbEntity
  8
0
  6
CONTINUOUS
 62
     7
100
AcDbLine
 10
9.6662556631
 20
0.6049590101
 30
0.0
 11
9.6662556631
 21
0.3920731707
 31
0.0
  0
LINE
  5
50
330
1F
100
AcDbEntity
  8
0
  6
CONTINUOUS
 62
     7
100
AcDbLine
 10
2.8210345579
 20
0.5883479999
 30
0.0
 11
6.1796352514
 21
0.5883479999
 31
0.0
  0
LINE
  5
51
330
1F
100
AcDbEntity
  8
0
  6
CONTINUOUS
 62
     7
100
AcDbLine
 10
6.1796352514
 20
1.7939211366
 30
0.0
 11
7.8712070044
 21
1.7939211366
 31
0.0
  0
LINE
  5
52
330
1F
100
AcDbEntity
  8
0
  6
CONTINUOUS
 62
     7
100
AcDbLine
 10
6.1796352514
 20
1.9814211366
 30
0.0
 11
7.8712070044
 21
1.9814211366
 31
0.0
  0
LINE
  5
53
330
1F
100
AcDbEntity
  8
0
  6
CONTINUOUS
 62
     7
100
AcDbLine
 10
6.1796352514
 20
2.1689211366
 30
0.0
 11
7.8712070044
 21
2.1689211366
 31
0.0
  0
LINE
  5
54
330
1F
100
AcDbEntity
  8
0
  6
CONTINUOUS
 62
     7
100
AcDbLine
 10
7.8712070044
 20
1.2314211366
 30
0.0
 11
6.1796352514
 21
1.2314211366
 31
0.0
  0
LINE
  5
55
330
1F
100
AcDbEntity
  8
0
  6
CONTINUOUS
 62
     7
100
AcDbLine
 10
7.3921580388
 20
2.3564211366
 30
0.0
 11
7.3921580388
 21
1.2314211366
 31
0.0
  0
LINE
  5
56
330
1F
100
AcDbEntity
  8
0
  6
CONTINUOUS
 62
     7
100
AcDbLine
 10
6.9236308342
 20
2.3564211366
 30
0.0
 11
6.9236308342
 21
1.2314211366
 31
0.0
  0
LINE
  5
57
330
1F
100
AcDbEntity
  8
0
  6
CONTINUOUS
 62
     7
100
AcDbLine
 10
4.7981841288
 20
0.8557965305
 30
0.0
 11
6.1796352514
 21
0.8557965305
 31
0.0
  0
LINE
  5
58
330
1F
100
AcDbEntity
  8
0
  6
CONTINUOUS
 62
     7
100
AcDbLine
 10
4.7981841288
 20
1.1257965305
 30
0.0
 11
6.1796352514
 21
1.1257965305
 31
0.0
  0
LINE
  5
59
330
1F
100
AcDbEntity
  8
0
  6
CONTINUOUS
 62
     7
100
AcDbLine
 10
2.8210345579
 20
0.3920731707
 30
0.0
 11
2.8210345579
 21
2.3564211366
 31
0.0
  0
LINE
  5
5A
330
1F
100
AcDbEntity
  8
0
  6
CONTINUOUS
 62
     7
100
AcDbLine
 10
2.8210345579
 20
1.1064211366
 30
0.0
 11
4.7981841288
 21
1.1064211366
 31
0.0
  0
LINE
  5
5B
330
1F
100
AcDbEntity
  8
0
  6
CONTINUOUS
 62
     7
100
AcDbLine
 10
2.8210345579
 20
1.3564211366
 30
0.0
 11
4.7981841288
 21
1.3564211366
 31
0.0
  0
LINE
  5
5C
330
1F
100
AcDbEntity
  8
0
  6
CONTINUOUS
 62
     7
100
AcDbLine
 10
2.8210345579
 20
1.6064211366
 30
0.0
 11
4.7981841288
 21
1.6064211366
 31
0.0
  0
LINE
  5
5D
330
1F
100
AcDbEntity
  8
0
  6
CONTINUOUS
 62
     7
100
AcDbLine
 10
2.8210345579
 20
1.8564211366
 30
0.0
 11
4.7981841288
 21
1.8564211366
 31
0.0
  0
LINE
  5
5E
330
1F
100
AcDbEntity
  8
0
  6
CONTINUOUS
 62
     7
100
AcDbLine
 10
3.8190146875
 20
2.3564211366
 30
0.0
 11
3.8190146875
 21
0.5883479999
 31
0.0
  0
LINE
  5
5F
330
1F
100
AcDbEntity
  8
0
  6
CONTINUOUS
 62
     7
100
AcDbLine
 10
6.1796352514
 20
2.2020813496
 30
0.0
 11
4.7981841288
 21
2.2020813496
 31
0.0
  0
LINE
  5
60
330
1F
100
AcDbEntity
  8
0
  6
CONTINUOUS
 62
     7
100
AcDbLine
 10
7.8712070044
 20
1.6064211366
 30
0.0
 11
6.1796352514
 21
1.6064211366
 31
0.0
  0
LINE
  5
61
330
1F
100
AcDbEntity
  8
0
  6
CONTINUOUS
 62
     7
100
AcDbLine
 10
7.8712070044
 20
1.4189211366
 30
0.0
 11
6.1796352514
 21
1.4189211366
 31
0.0
  0
LINE
  5
62
330
1F
100
AcDbEntity
  8
0
  6
CONTINUOUS
 62
     7
100
AcDbLine
 10
2.8210345579
 20
2.1064211366
 30
0.0
 11
4.7981841288
 21
2.1064211366
 31
0.0
  0
LINE
  5
63
330
1F
100
AcDbEntity
  8
0
  6
CONTINUOUS
 62
     7
100
AcDbLine
 10
4.7981841288
 20
1.3957965305
 30
0.0
 11
6.1796352514
 21
1.3957965305
 31
0.0
  0
LINE
  5
64
330
1F
100
AcDbEntity
  8
0
  6
CONTINUOUS
 62
     7
100
AcDbLine
 10
2.8210345579
 20
0.8564211366
 30
0.0
 11
4.7981841288
 21
0.8564211366
 31
0.0
  0
LINE
  5
65
330
1F
100
AcDbEntity
  8
0
  6
CONTINUOUS
 62
     7
100
AcDbLine
 10
1.1838252943
 20
0.3920731707
 30
0.0
 11
1.1838252943
 21
1.3064211366
 31
0.0
  0
LINE
  5
66
330
1F
100
AcDbEntity
  8
0
  6
CONTINUOUS
 62
     7
100
AcDbLine
 10
2.8210345579
 20
1.3064211366
 30
0.0
 11
1.1838252943
 21
1.3064211366
 31
0.0
  0
LINE
  5
67
330
1F
100
AcDbEntity
  8
0
  6
CONTINUOUS
 62
     7
100
AcDbLine
 10
8.660927
 20
0.3920731707
 30
0.0
 11
8.660927
 21
0.3072739649
 31
0.0
  0
LINE
  5
68
330
1F
100
AcDbEntity
  8
0
  6
CONTINUOUS
 62
     7
100
AcDbLine
 10
6.692177
 20
0.3920731707
 30
0.0
 11
6.692177
 21
0.3072739649
 31
0.0
  0
LINE
  5
69
330
1F
100
AcDbEntity
  8
0
  6
CONTINUOUS
 62
     7
100
AcDbLine
 10
4.723427
 20
0.3920731707
 30
0.0
 11
4.723427
 21
0.3072739649
 31
0.0
  0
LINE
  5
6A
330
1F
100
AcDbEntity
  8
0
  6
CONTINUOUS
 62
     7
100
AcDbLine
 10
2.754677
 20
0.3920731707
 30
0.0
 11
2.754677
 21
0.3072739649
 31
0.0
  0
LINE
  5
6B
330
1F
100
AcDbEntity
  8
0
  6
CONTINUOUS
 62
     7
100
AcDbLine
 10
2.754677
 20
0.3920731707
 30
0.0
 11
2.7672319738
 21
0.3575
 31
0.0
  0
LINE
  5
6C
330
1F
100
AcDbEntity
  8
0
  6
CONTINUOUS
 62
     7
100
AcDbLine
 10
2.7672319738
 20
0.3575
 30
0.0
 11
2.7414258825
 21
0.3575
 31
0.0
  0
LINE
  5
6D
330
1F
100
AcDbEntity
  8
0
  6
CONTINUOUS
 62
     7
100
AcDbLine
 10
2.7414258825
 20
0.3575
 30
0.0
 11
2.754677
 21
0.3920731707
 31
0.0
  0
MTEXT
  5
91
330
1F
100
AcDbEntity
  8
0
  6
CONTINUOUS
 62
     7
100
AcDbMText
 10
4.9775846961
 20
0.5178452352
 30
0.0
 40
0.0625
 41
0.0
 71
     1
 72
     1
  1
DO NOT SCALE DRAWING
  7
SLDTEXTSTYLE0
  0
MTEXT
  5
92
330
1F
100
AcDbEntity
  8
0
  6
CONTINUOUS
 62
     7
100
AcDbMText
 10
8.5718717795
 20
0.9417064595
 30
0.0
 40
0.125
 41
0.0
 71
     1
 72
     1
  1
CL4-40_CLAMP
  7
SLDTEXTSTYLE0
  0
MTEXT
  5
94
330
1F
100
AcDbEntity
  8
0
  6
CONTINUOUS
 62
     7
100
AcDbMText
 10
9.7571278483
 20
0.5524239532
 30
0.0
 40
0.1
 41
0.0
 71
     1
 72
     1
  1
SHEET 1 OF 1
  7
SLDTEXTSTYLE1
  0
MTEXT
  5
95
330
1F
100
AcDbEntity
  8
0
  6
CONTINUOUS
 62
     7
100
AcDbMText
 10
4.8448077858
 20
2.3132954224
 30
0.0
 40
0.07
 41
0.0
 71
     1
 72
     1
  1
UNLESS OTHERWISE SPECIFIED:
  7
SLDTEXTSTYLE0
  0
MTEXT
  5
96
330
1F
100
AcDbEntity
  8
0
  6
CONTINUOUS
 62
     7
100
AcDbMText
 10
7.9586139647
 20
0.5520987879
 30
0.0
 40
0.1
 41
0.0
 71
     1
 72
     1
  1
SCALE: 1:1
  7
SLDTEXTSTYLE0
  0
MTEXT
  5
97
330
1F
100
AcDbEntity
  8
0
  6
CONTINUOUS
 62
     7
100
AcDbMText
 10
8.7023691647
 20
0.5486763345
 30
0.0
 40
0.1
 41
0.0
 71
     1
 72
     1
  1
WEIGHT: 
  7
SLDTEXTSTYLE0
  0
MTEXT
  5
98
330
1F
100
AcDbEntity
  8
0
  6
CONTINUOUS
 62
     7
100
AcDbMText
 10
10.2277580983
 20
1.081966299
 30
0.0
 40
0.1
 41
0.0
 71
     1
 72
     1
  1
REV
  7
SLDTEXTSTYLE0
  0
MTEXT
  5
9A
330
1F
100
AcDbEntity
  8
0
  6
CONTINUOUS
 62
     7
100
AcDbMText
 10
8.2984570898
 20
1.0858725293
 30
0.0
 40
0.1
 41
0.0
 71
     1
 72
     1
  1
DWG.  NO.
  7
SLDTEXTSTYLE2
  0
MTEXT
  5
9B
330
1F
100
AcDbEntity
  8
0
  6
CONTINUOUS
 62
     7
100
AcDbMText
 10
7.9598482632
 20
0.9442140768
 30
0.0
 40
0.25
 41
0.0
 71
     1
 72
     1
  1
A
  7
SLDTEXTSTYLE0
  0
MTEXT
  5
9C
330
1F
100
AcDbEntity
  8
0
  6
CONTINUOUS
 62
     7
100
AcDbMText
 10
7.9519581822
 20
1.0872713483
 30
0.0
 40
0.1
 41
0.0
 71
     1
 72
     1
  1
SIZE
  7
SLDTEXTSTYLE0
  0
MTEXT
  5
9D
330
1F
100
AcDbEntity
  8
0
  6
CONTINUOUS
 62
     7
100
AcDbMText
 10
7.9170704177
 20
1.9547881128
 30
0.0
 40
0.1
 41
0.0
 71
     1
 72
     1
  1
TITLE:
  7
SLDTEXTSTYLE0
  0
MTEXT
  5
9E
330
1F
100
AcDbEntity
  8
0
  6
CONTINUOUS
 62
     7
100
AcDbMText
 10
7.0363774929
 20
2.2906161274
 30
0.0
 40
0.065
 41
0.0
 71
     1
 72
     1
  1
NAME
  7
SLDTEXTSTYLE0
  0
MTEXT
  5
9F
330
1F
100
AcDbEntity
  8
0
  6
CONTINUOUS
 62
     7
100
AcDbMText
 10
7.5281510634
 20
2.2888799118
 30
0.0
 40
0.065
 41
0.0
 71
     1
 72
     1
  1
DATE
  7
SLDTEXTSTYLE0
  0
MTEXT
  5
A0
330
1F
100
AcDbEntity
  8
0
  6
CONTINUOUS
 62
     7
100
AcDbMText
 10
6.2277147029
 20
1.1876913145
 30
0.0
 40
0.065
 41
0.0
 71
     1
 72
     1
  1
COMMENTS:
  7
SLDTEXTSTYLE0
  0
MTEXT
  5
A1
330
1F
100
AcDbEntity
  8
0
  6
CONTINUOUS
 62
     7
100
AcDbMText
 10
6.2268411461
 20
1.3536101679
 30
0.0
 40
0.065
 41
0.0
 71
     1
 72
     1
  1
Q.A.
  7
SLDTEXTSTYLE0
  0
MTEXT
  5
A2
330
1F
100
AcDbEntity
  8
0
  6
CONTINUOUS
 62
     7
100
AcDbMText
 10
6.2284654509
 20
1.5395328424
 30
0.0
 40
0.065
 41
0.0
 71
     1
 72
     1
  1
MFG APPR.
  7
SLDTEXTSTYLE0
  0
MTEXT
  5
A3
330
1F
100
AcDbEntity
  8
0
  6
CONTINUOUS
 62
     7
100
AcDbMText
 10
6.2235171344
 20
1.7267501785
 30
0.0
 40
0.065
 41
0.0
 71
     1
 72
     1
  1
ENG APPR.
  7
SLDTEXTSTYLE0
  0
MTEXT
  5
A4
330
1F
100
AcDbEntity
  8
0
  6
CONTINUOUS
 62
     7
100
AcDbMText
 10
6.2264103951
 20
1.9092699088
 30
0.0
 40
0.065
 41
0.0
 71
     1
 72
     1
  1
CHECKED
  7
SLDTEXTSTYLE0
  0
MTEXT
  5
A5
330
1F
100
AcDbEntity
  8
0
  6
CONTINUOUS
 62
     7
100
AcDbMText
 10
6.2242794356
 20
2.1016301232
 30
0.0
 40
0.065
 41
0.0
 71
     1
 72
     1
  1
DRAWN
  7
SLDTEXTSTYLE0
  0
MTEXT
  5
A6
330
1F
100
AcDbEntity
  8
0
  6
CONTINUOUS
 62
     7
100
AcDbMText
 10
4.8208600979
 20
0.834523235
 30
0.0
 40
0.06
 41
0.0
 71
     1
 72
     1
  1
FINISH
  7
SLDTEXTSTYLE0
  0
MTEXT
  5
A7
330
1F
100
AcDbEntity
  8
0
  6
CONTINUOUS
 62
     7
100
AcDbMText
 10
4.8181240648
 20
1.1028217587
 30
0.0
 40
0.06
 41
0.0
 71
     1
 72
     1
  1
MATERIAL
  7
SLDTEXTSTYLE0
  0
INSERT
  5
AD
330
1F
100
AcDbEntity
  8
0
  6
CONTINUOUS
 62
     7
100
AcDbBlockReference
  2
SW_NOTE_0
 10
4.8231926633
 20
1.2646542947
 30
0.0
  0
INSERT
  5
BD
330
1F
100
AcDbEntity
  8
0
  6
CONTINUOUS
 62
     7
100
AcDbBlockReference
  2
SW_NOTE_1
 10
4.8353339353
 20
2.0049168724
 30
0.0
  0
MTEXT
  5
BE
330
1F
100
AcDbEntity
  8
0
  6
CONTINUOUS
 62
     7
100
AcDbMText
 10
3.5531400086
 20
0.5200091997
 30
0.0
 40
0.0625
 41
0.0
 71
     1
 72
     1
  1
APPLICATION
  7
SLDTEXTSTYLE0
  0
MTEXT
  5
BF
330
1F
100
AcDbEntity
  8
0
  6
CONTINUOUS
 62
     7
100
AcDbMText
 10
4.1005607758
 20
0.7502454275
 30
0.0
 40
0.0625
 41
0.0
 71
     1
 72
     1
  1
USED ON
  7
SLDTEXTSTYLE0
  0
MTEXT
  5
C0
330
1F
100
AcDbEntity
  8
0
  6
CONTINUOUS
 62
     7
100
AcDbMText
 10
3.1040019536
 20
0.7492094783
 30
0.0
 40
0.0625
 41
0.0
 71
     1
 72
     1
  1
NEXT ASSY
  7
SLDTEXTSTYLE0
  0
MTEXT
  5
C1
330
1F
100
AcDbEntity
  8
0
  6
CONTINUOUS
 62
     7
100
AcDbMText
 10
1.3712489489
 20
1.2496672684
 30
0.0
 40
0.06
 41
0.0
 71
     1
 72
     1
  1
PROPRIETARY AND CONFIDENTIAL
  7
SLDTEXTSTYLE0
  0
INSERT
  5
CC
330
1F
100
AcDbEntity
  8
0
  6
CONTINUOUS
 62
     7
100
AcDbBlockReference
  2
SW_NOTE_2
 10
1.2226209074
 20
1.0313492921
 30
0.0
  0
MTEXT
  5
CD
330
1F
100
AcDbEntity
  8
0
  6
CONTINUOUS
 62
     7
100
AcDbMText
 10
1.7387909509
 20
0.3105864247
 30
0.0
 40
0.09375
 41
0.0
 71
     1
 72
     1
  1
5
  7
SLDTEXTSTYLE0
  0
MTEXT
  5
CE
330
1F
100
AcDbEntity
  8
0
  6
CONTINUOUS
 62
     7
100
AcDbMText
 10
3.723800327
 20
0.3137237518
 30
0.0
 40
0.09375
 41
0.0
 71
     1
 72
     1
  1
4
  7
SLDTEXTSTYLE0
  0
MTEXT
  5
CF
330
1F
100
AcDbEntity
  8
0
  6
CONTINUOUS
 62
     7
100
AcDbMText
 10
5.6324457277
 20
0.3116191842
 30
0.0
 40
0.09375
 41
0.0
 71
     1
 72
     1
  1
3
  7
SLDTEXTSTYLE0
  0
MTEXT
  5
D0
330
1F
100
AcDbEntity
  8
0
  6
CONTINUOUS
 62
     7
100
AcDbMText
 10
7.6059721724
 20
0.3124391351
 30
0.0
 40
0.09375
 41
0.0
 71
     1
 72
     1
  1
2
  7
SLDTEXTSTYLE0
  0
MTEXT
  5
D1
330
1F
100
AcDbEntity
  8
0
  6
CONTINUOUS
 62
     7
100
AcDbMText
 10
9.6619921328
 20
0.301372012
 30
0.0
 40
0.09375
 41
0.0
 71
     1
 72
     1
  1
1
  7
SLDTEXTSTYLE0
  0
LINE
  5
D2
330
1F
100
AcDbEntity
  8
0
  6
CONTINUOUS
 62
     7
100
AcDbLine
 10
3.7974366283
 20
2.9712767116
 30
0.0
 11
4.2912030325
 21
2.9712767116
 31
0.0
  0
LINE
  5
D3
330
1F
100
AcDbEntity
  8
0
  6
CONTINUOUS
 62
     7
100
AcDbLine
 10
3.5759799354
 20
2.9712767116
 30
0.0
 11
3.7777515889
 21
2.9712767116
 31
0.0
  0
LINE
  5
D4
330
1F
100
AcDbEntity
  8
0
  6
CONTINUOUS
 62
     7
100
AcDbLine
 10
3.7777515889
 20
4.5460798612
 30
0.0
 11
3.5759799354
 21
4.5460798612
 31
0.0
  0
LINE
  5
D5
330
1F
100
AcDbEntity
  8
0
  6
CONTINUOUS
 62
     7
100
AcDbLine
 10
4.2912030325
 20
4.5460798612
 30
0.0
 11
3.7974366283
 21
4.5460798612
 31
0.0
  0
LINE
  5
D6
330
1F
100
AcDbEntity
  8
0
  6
CONTINUOUS
 62
     7
100
AcDbLine
 10
4.2912030325
 20
2.9712767116
 30
0.0
 11
4.3108880719
 21
2.990961751
 31
0.0
  0
LINE
  5
D7
330
1F
100
AcDbEntity
  8
0
  6
CONTINUOUS
 62
     7
100
AcDbLine
 10
4.3108880719
 20
4.5263948218
 30
0.0
 11
4.2912030325
 21
4.5460798612
 31
0.0
  0
LINE
  5
D8
330
1F
100
AcDbEntity
  8
0
  6
CONTINUOUS
 62
     7
100
AcDbLine
 10
3.5759799354
 20
4.5460798612
 30
0.0
 11
3.556294896
 21
4.5263948218
 31
0.0
  0
LINE
  5
D9
330
1F
100
AcDbEntity
  8
0
  6
CONTINUOUS
 62
     7
100
AcDbLine
 10
3.556294896
 20
2.990961751
 30
0.0
 11
3.5759799354
 21
2.9712767116
 31
0.0
  0
LINE
  5
DA
330
1F
100
AcDbEntity
  8
0
  6
CONTINUOUS
 62
     7
100
AcDbLine
 10
2.9657437149
 20
2.9712767116
 30
0.0
 11
3.5366098567
 21
2.9712767116
 31
0.0
  0
LINE
  5
DB
330
1F
100
AcDbEntity
  8
0
  6
CONTINUOUS
 62
     7
100
AcDbLine
 10
3.5366098567
 20
4.5460798612
 30
0.0
 11
2.9657437149
 21
4.5460798612
 31
0.0
  0
LINE
  5
DC
330
1F
100
AcDbEntity
  8
0
  6
CONTINUOUS
 62
     7
100
AcDbLine
 10
2.9657437149
 20
4.5460798612
 30
0.0
 11
2.9460586756
 21
4.5263948218
 31
0.0
  0
LINE
  5
DD
330
1F
100
AcDbEntity
  8
0
  6
CONTINUOUS
 62
     7
100
AcDbLine
 10
2.9460586756
 20
2.990961751
 30
0.0
 11
2.9657437149
 21
2.9712767116
 31
0.0
  0
LINE
  5
DE
330
1F
100
AcDbEntity
  8
0
  6
CONTINUOUS
 62
     7
100
AcDbLine
 10
3.5366098567
 20
2.9712767116
 30
0.0
 11
3.556294896
 21
2.990961751
 31
0.0
  0
LINE
  5
DF
330
1F
100
AcDbEntity
  8
0
  6
CONTINUOUS
 62
     7
100
AcDbLine
 10
3.556294896
 20
4.5263948218
 30
0.0
 11
3.5366098567
 21
4.5460798612
 31
0.0
  0
ARC
  5
E0
330
1F
100
AcDbEntity
  8
0
  6
CONTINUOUS
 62
     7
100
AcDbCircle
 10
3.8778172057
 20
4.3393869478
 30
0.0
 40
0.0098425196850398
100
AcDbArc
 50
90.0
 51
157.6931318984
  0
ARC
  5
E1
330
1F
100
AcDbEntity
  8
0
  6
CONTINUOUS
 62
     7
100
AcDbCircle
 10
4.1927778357
 20
4.3393869478
 30
0.0
 40
0.0098425196850398
100
AcDbArc
 50
26.0340791855
 51
90.0
  0
LINE
  5
E2
330
1F
100
AcDbEntity
  8
0
  6
CONTINUOUS
 62
     7
100
AcDbLine
 10
4.1337227176
 20
3.7488357667
 30
0.0
 11
4.1337227176
 21
3.7685208061
 31
0.0
  0
LINE
  5
E3
330
1F
100
AcDbEntity
  8
0
  6
CONTINUOUS
 62
     7
100
AcDbLine
 10
3.9368723239
 20
3.7685208061
 30
0.0
 11
3.9368723239
 21
3.7488357667
 31
0.0
  0
LINE
  5
E4
330
1F
100
AcDbEntity
  8
0
  6
CONTINUOUS
 62
     7
100
AcDbLine
 10
2.9460586756
 20
4.5460798612
 30
0.0
 11
2.3620691743
 21
4.5460798612
 31
0.0
  0
LINE
  5
E5
330
1F
100
AcDbEntity
  8
0
  6
CONTINUOUS
 62
     7
100
AcDbLine
 10
2.8755206178
 20
2.9712767116
 30
0.0
 11
2.9263736362
 21
2.9712767116
 31
0.0
  0
LINE
  5
E6
330
1F
100
AcDbEntity
  8
0
  6
CONTINUOUS
 62
     7
100
AcDbLine
 10
2.3620691743
 20
4.5460798612
 30
0.0
 11
2.3423841349
 21
4.5263948218
 31
0.0
  0
LINE
  5
E7
330
1F
100
AcDbEntity
  8
0
  6
CONTINUOUS
 62
     7
100
AcDbLine
 10
2.9263736362
 20
2.9712767116
 30
0.0
 11
2.9460586756
 21
2.990961751
 31
0.0
  0
LINE
  5
E8
330
1F
100
AcDbEntity
  8
0
  6
CONTINUOUS
 62
     7
100
AcDbLine
 10
3.7268985706
 20
4.4405880532
 30
0.0
 11
3.7268985706
 21
3.0767685196
 31
0.0
  0
SPLINE
  5
E9
330
1F
100
AcDbEntity
  8
0
  6
CONTINUOUS
 62
     7
100
AcDbSpline
210
0.0
220
0.0
230
1.0
 70
     8
 71
     3
 72
     8
 73
     4
 74
     0
 42
0.00000001
 43
0.00000001
 40
0.0
 40
0.0
 40
0.0
 40
0.0
 40
0.000765645677896
 40
0.000765645677896
 40
0.000765645677896
 40
0.000765645677896
 10
3.726898570576154
 20
3.076768519632647
 30
0.0
 10
3.720320712918722
 20
3.084363975411065
 30
0.0
 10
3.71375852536907
 20
3.09197303556941
 30
0.0
 10
3.707213531206075
 20
3.099596828014755
 30
0.0
  0
LINE
  5
EA
330
1F
100
AcDbEntity
  8
0
  6
CONTINUOUS
 62
     7
100
AcDbLine
 10
3.7072135312
 20
3.099596828
 30
0.0
 11
3.7072135312
 21
4.4177597448
 31
0.0
  0
SPLINE
  5
EB
330
1F
100
AcDbEntity
  8
0
  6
CONTINUOUS
 62
     7
100
AcDbSpline
210
0.0
220
0.0
230
1.0
 70
     8
 71
     3
 72
     8
 73
     4
 74
     0
 42
0.00000001
 43
0.00000001
 40
0.0
 40
0.0
 40
0.0
 40
0.0
 40
0.000765645677896
 40
0.000765645677896
 40
0.000765645677896
 40
0.000765645677896
 10
3.707213531206075
 20
4.417759744769339
 30
0.0
 10
3.71375852536907
 20
4.425383537214684
 30
0.0
 10
3.720320712918722
 20
4.432992597373029
 30
0.0
 10
3.726898570576154
 20
4.440588053151448
 30
0.0
  0
LINE
  5
EC
330
1F
100
AcDbEntity
  8
0
  6
CONTINUOUS
 62
     7
100
AcDbLine
 10
3.5759799354
 20
4.4405880532
 30
0.0
 11
3.7268985706
 21
4.4405880532
 31
0.0
  0
LINE
  5
ED
330
1F
100
AcDbEntity
  8
0
  6
CONTINUOUS
 62
     7
100
AcDbLine
 10
3.5759799354
 20
4.5460798612
 30
0.0
 11
3.5759799354
 21
4.4405880532
 31
0.0
  0
LINE
  5
EE
330
1F
100
AcDbEntity
  8
0
  6
CONTINUOUS
 62
     7
100
AcDbLine
 10
3.5759799354
 20
3.0767685196
 30
0.0
 11
3.5759799354
 21
2.9712767116
 31
0.0
  0
LINE
  5
EF
330
1F
100
AcDbEntity
  8
0
  6
CONTINUOUS
 62
     7
100
AcDbLine
 10
3.7268985706
 20
3.0767685196
 30
0.0
 11
3.5759799354
 21
3.0767685196
 31
0.0
  0
LINE
  5
F0
330
1F
100
AcDbEntity
  8
0
  6
CONTINUOUS
 62
     7
100
AcDbLine
 10
4.2912030325
 20
3.7685208061
 30
0.0
 11
3.7974366283
 21
3.7685208061
 31
0.0
  0
LINE
  5
F1
330
1F
100
AcDbEntity
  8
0
  6
CONTINUOUS
 62
     7
100
AcDbLine
 10
3.7974366283
 20
4.5460798612
 30
0.0
 11
3.7974366283
 21
3.7685208061
 31
0.0
  0
LINE
  5
F2
330
1F
100
AcDbEntity
  8
0
  6
CONTINUOUS
 62
     7
100
AcDbLine
 10
3.7777515889
 20
4.5098115159
 30
0.0
 11
3.7974366283
 21
4.5098115159
 31
0.0
  0
LINE
  5
F3
330
1F
100
AcDbEntity
  8
0
  6
CONTINUOUS
 62
     7
100
AcDbLine
 10
3.7974366283
 20
3.0075450569
 30
0.0
 11
3.7777515889
 21
3.0075450569
 31
0.0
  0
LINE
  5
F4
330
1F
100
AcDbEntity
  8
0
  6
CONTINUOUS
 62
     7
100
AcDbLine
 10
3.7974366283
 20
3.7488357667
 30
0.0
 11
3.7974366283
 21
2.9712767116
 31
0.0
  0
LINE
  5
F5
330
1F
100
AcDbEntity
  8
0
  6
CONTINUOUS
 62
     7
100
AcDbLine
 10
4.2912030325
 20
3.7488357667
 30
0.0
 11
3.7974366283
 21
3.7488357667
 31
0.0
  0
LINE
  5
F6
330
1F
100
AcDbEntity
  8
0
  6
CONTINUOUS
 62
     7
100
AcDbLine
 10
4.2912030325
 20
3.7685208061
 30
0.0
 11
4.2912030325
 21
4.5460798612
 31
0.0
  0
LINE
  5
F7
330
1F
100
AcDbEntity
  8
0
  6
CONTINUOUS
 62
     7
100
AcDbLine
 10
4.2912030325
 20
2.9712767116
 30
0.0
 11
4.2912030325
 21
3.7488357667
 31
0.0
  0
SPLINE
  5
F8
330
1F
100
AcDbEntity
  8
0
  6
CONTINUOUS
 62
     7
100
AcDbSpline
210
0.0
220
0.0
230
1.0
 70
     8
 71
     3
 72
    58
 73
    54
 74
     0
 42
0.00000001
 43
0.00000001
 40
-0.03125
 40
-0.03125
 40
0.0
 40
0.0
 40
0.0312499999999999
 40
0.0312499999999999
 40
0.0624999999999998
 40
0.0624999999999998
 40
0.0937499999999996
 40
0.0937499999999996
 40
0.1249999999999995
 40
0.1249999999999995
 40
0.1874999999999996
 40
0.1874999999999996
 40
0.2187499999999995
 40
0.2187499999999995
 40
0.2499999999999994
 40
0.2499999999999994
 40
0.3124999999999996
 40
0.3124999999999996
 40
0.3749999999999998
 40
0.3749999999999998
 40
0.4062499999999998
 40
0.4062499999999998
 40
0.4374999999999999
 40
0.4374999999999999
 40
0.4687499999999999
 40
0.4687499999999999
 40
0.5
 40
0.5
 40
0.53125
 40
0.53125
 40
0.5625
 40
0.5625
 40
0.59375
 40
0.59375
 40
0.625
 40
0.625
 40
0.6875000000000001
 40
0.6875000000000001
 40
0.75
 40
0.75
 40
0.8125
 40
0.8125
 40
0.84375
 40
0.84375
 40
0.875
 40
0.875
 40
0.90625
 40
0.90625
 40
0.9375
 40
0.9375
 40
0.96875
 40
0.96875
 40
1.0
 40
1.0
 40
1.03125
 40
1.03125
 10
4.027638331698036
 20
3.261071016322576
 30
0.0
 10
4.042956709716739
 20
3.261071016322576
 30
0.0
 10
4.050336756619492
 20
3.25998690767378
 30
0.0
 10
4.064616796703628
 20
3.255978193635103
 30
0.0
 10
4.071277501057343
 20
3.253110088303723
 30
0.0
 10
4.083514114027951
 20
3.24627565603121
 30
0.0
 10
4.089080676487526
 20
3.242315672459078
 30
0.0
 10
4.099062282673913
 20
3.233883152644313
 30
0.0
 10
4.103550560610443
 20
3.229355240122157
 30
0.0
 10
4.115639473485225
 20
3.21518324658587
 30
0.0
 10
4.121648047829463
 20
3.20531589272257
 30
0.0
 10
4.128174983121616
 20
3.190194866966751
 30
0.0
 10
4.129916194766213
 20
3.185086006177039
 30
0.0
 10
4.132440825522817
 20
3.175037582192217
 30
0.0
 10
4.133241344871314
 20
3.170063743963675
 30
0.0
 10
4.134206879478
 20
3.15529821516118
 30
0.0
 10
4.132898590618777
 20
3.145584348665726
 30
0.0
 10
4.125791245827915
 20
3.127711958258992
 30
0.0
 10
4.119870510907353
 20
3.119314323478109
 30
0.0
 10
4.107296318195444
 20
3.108624084721351
 30
0.0
 10
4.102399021349171
 20
3.105306273268208
 30
0.0
 10
4.091560466060622
 20
3.099527148373398
 30
0.0
 10
4.085633754121575
 20
3.097048326331125
 30
0.0
 10
4.072659851507558
 20
3.092926831002365
 30
0.0
 10
4.065580577582024
 20
3.091300328868193
 30
0.0
 10
4.051136616227785
 20
3.089133283606829
 30
0.0
 10
4.043553172638222
 20
3.088552501120396
 30
0.0
 10
4.02838979507402
 20
3.08848845144801
 30
0.0
 10
4.020916034841473
 20
3.088987943498272
 30
0.0
 10
4.006183346418915
 20
3.091063641902073
 30
0.0
 10
3.999176716913722
 20
3.092610493869175
 30
0.0
 10
3.986029074721041
 20
3.096643700469581
 30
0.0
 10
3.979880849335903
 20
3.09914643884961
 30
0.0
 10
3.968903866959541
 20
3.104867689407058
 30
0.0
 10
3.963949881269541
 20
3.108150083312239
 30
0.0
 10
3.951126810479115
 20
3.118828089746975
 30
0.0
 10
3.945111891405496
 20
3.127183621079615
 30
0.0
 10
3.937793453846983
 20
3.145107425834059
 30
0.0
 10
3.936415896993778
 20
3.154813305485739
 30
0.0
 10
3.937592182165223
 20
3.17457982830544
 30
0.0
 10
3.940154285255803
 20
3.184849803878703
 30
0.0
 10
3.946599595868928
 20
3.199923240362543
 30
0.0
 10
3.949186397059006
 20
3.204918385005906
 30
0.0
 10
3.955305542409278
 20
3.214817171438646
 30
0.0
 10
3.958859813896596
 20
3.219740391496345
 30
0.0
 10
3.966850872556225
 20
3.229147349018298
 30
0.0
 10
3.971300563633449
 20
3.233665757466702
 30
0.0
 10
3.98133070767552
 20
3.242180891231695
 30
0.0
 10
3.986917889829783
 20
3.246165985805403
 30
0.0
 10
3.999084547675757
 20
3.252997970608694
 30
0.0
 10
4.005827232924284
 20
3.255917859743048
 30
0.0
 10
4.020027911532963
 20
3.259939703186457
 30
0.0
 10
4.027638331698036
 20
3.261071016322576
 30
0.0
 10
4.042956709716739
 20
3.261071016322576
 30
0.0
  0
SPLINE
  5
F9
330
1F
100
AcDbEntity
  8
0
  6
CONTINUOUS
 62
     7
100
AcDbSpline
210
0.0
220
0.0
230
1.0
 70
     8
 71
     3
 72
    80
 73
    76
 74
     0
 42
0.00000001
 43
0.00000001
 40
-0.0312500000000001
 40
-0.0312500000000001
 40
0.0
 40
0.0
 40
0.0312500000000002
 40
0.0312500000000002
 40
0.0468750000000002
 40
0.0468750000000002
 40
0.0625000000000003
 40
0.0625000000000003
 40
0.0937500000000001
 40
0.0937500000000001
 40
0.1249999999999999
 40
0.1249999999999999
 40
0.1562499999999997
 40
0.1562499999999997
 40
0.1874999999999995
 40
0.1874999999999995
 40
0.2187499999999993
 40
0.2187499999999993
 40
0.2499999999999991
 40
0.2499999999999991
 40
0.2812499999999989
 40
0.2812499999999989
 40
0.3124999999999987
 40
0.3124999999999987
 40
0.3749999999999983
 40
0.3749999999999983
 40
0.4062499999999983
 40
0.4062499999999983
 40
0.4374999999999983
 40
0.4374999999999983
 40
0.4531249999999983
 40
0.4531249999999983
 40
0.4687499999999982
 40
0.4687499999999982
 40
0.4843749999999982
 40
0.4843749999999982
 40
0.4999999999999982
 40
0.4999999999999982
 40
0.5156249999999982
 40
0.5156249999999982
 40
0.5312499999999981
 40
0.5312499999999981
 40
0.5468749999999981
 40
0.5468749999999981
 40
0.5624999999999981
 40
0.5624999999999981
 40
0.5937499999999982
 40
0.5937499999999982
 40
0.6249999999999983
 40
0.6249999999999983
 40
0.6562499999999986
 40
0.6562499999999986
 40
0.6874999999999987
 40
0.6874999999999987
 40
0.749999999999999
 40
0.749999999999999
 40
0.7812499999999991
 40
0.7812499999999991
 40
0.8124999999999994
 40
0.8124999999999994
 40
0.8437499999999997
 40
0.8437499999999997
 40
0.8749999999999999
 40
0.8749999999999999
 40
0.8906249999999999
 40
0.8906249999999999
 40
0.9062499999999999
 40
0.9062499999999999
 40
0.9374999999999999
 40
0.9374999999999999
 40
0.9531249999999999
 40
0.9531249999999999
 40
0.9687499999999999
 40
0.9687499999999999
 40
1.0
 40
1.0
 40
1.03125
 40
1.03125
 10
4.048527157479818
 20
4.466724279007114
 30
0.0
 10
4.022067883934957
 20
4.466724279007114
 30
0.0
 10
4.009135299974391
 20
4.465977384362023
 30
0.0
 10
3.99016344411447
 20
4.463740151947798
 30
0.0
 10
3.983868114823193
 20
4.462796033417126
 30
0.0
 10
3.971712280894199
 20
4.460551457975181
 30
0.0
 10
3.965839030106832
 20
4.459252870234947
 30
0.0
 10
3.948808456219284
 20
4.454817208313832
 30
0.0
 10
3.938120796945893
 20
4.451083978636178
 30
0.0
 10
3.919117016487239
 20
4.442331502512362
 30
0.0
 10
3.910721407693333
 20
4.437310348135566
 30
0.0
 10
3.896074863588915
 20
4.425909522102269
 30
0.0
 10
3.890032740701461
 20
4.419697433134302
 30
0.0
 10
3.880151000168544
 20
4.406216810363736
 30
0.0
 10
3.876321655247783
 20
4.398908242065375
 30
0.0
 10
3.870861892750257
 20
4.383689098205491
 30
0.0
 10
3.869182174936844
 20
4.375724862597265
 30
0.0
 10
3.867680023506108
 20
4.359071915624529
 30
0.0
 10
3.867874938711187
 20
4.350499130709128
 30
0.0
 10
3.869871971342418
 20
4.333085966418403
 30
0.0
 10
3.871672784206665
 20
4.324210659161751
 30
0.0
 10
3.876746305783023
 20
4.306130828068983
 30
0.0
 10
3.880046968201027
 20
4.296869293643332
 30
0.0
 10
3.891906063727664
 20
4.269181608991025
 30
0.0
 10
3.902306210294185
 20
4.250757949595176
 30
0.0
 10
3.922250700393717
 20
4.223676198818598
 30
0.0
 10
3.92960452706696
 20
4.21481233744031
 30
0.0
 10
3.945826922615448
 20
4.197962538736223
 30
0.0
 10
3.954805074107269
 20
4.189856094363324
 30
0.0
 10
3.969689844158748
 20
4.179020005405508
 30
0.0
 10
3.974870374986344
 20
4.175642765049094
 30
0.0
 10
3.985778905371055
 20
4.169501633714317
 30
0.0
 10
3.991560729438352
 20
4.166716488031226
 30
0.0
 10
4.003565432223707
 20
4.162094544143263
 30
0.0
 10
4.009752092513364
 20
4.160263548648654
 30
0.0
 10
4.022565089420153
 20
4.157764924655177
 30
0.0
 10
4.029208490603484
 20
4.157120357938327
 30
0.0
 10
4.042259930005997
 20
4.157178412414986
 30
0.0
 10
4.048765551971729
 20
4.157860164479409
 30
0.0
 10
4.061667447595077
 20
4.160478743210682
 30
0.0
 10
4.067854800418793
 20
4.162366700432408
 30
0.0
 10
4.079802509697862
 20
4.167064312605294
 30
0.0
 10
4.085579393955207
 20
4.169891919964284
 30
0.0
 10
4.096453698600334
 20
4.176098391673306
 30
0.0
 10
4.101601765524362
 20
4.179494612470844
 30
0.0
 10
4.116362340257735
 20
4.190344718627164
 30
0.0
 10
4.125337993605604
 20
4.198503470511508
 30
0.0
 10
4.141458081821757
 20
4.215352358580277
 30
0.0
 10
4.14868973299212
 20
4.22411440576757
 30
0.0
 10
4.161851546718462
 20
4.242049156285542
 30
0.0
 10
4.167803585283809
 20
4.251278277256393
 30
0.0
 10
4.178318868780078
 20
4.269723157250396
 30
0.0
 10
4.182891037756828
 20
4.278939924293566
 30
0.0
 10
4.194623614591317
 20
4.306493447315272
 30
0.0
 10
4.199842202075485
 20
4.324899450094486
 30
0.0
 10
4.202743742306883
 20
4.350968903613291
 30
0.0
 10
4.202904749435898
 20
4.359445632405962
 30
0.0
 10
4.201366382313124
 20
4.375970391662292
 30
0.0
 10
4.199641609148645
 20
4.384030321925576
 30
0.0
 10
4.194145690175899
 20
4.399174619646483
 30
0.0
 10
4.190378019758591
 20
4.406331659076267
 30
0.0
 10
4.180447624465329
 20
4.419828635705681
 30
0.0
 10
4.174304036362486
 20
4.426095601540524
 30
0.0
 10
4.163445738419182
 20
4.434520668863915
 30
0.0
 10
4.159539934984325
 20
4.437182259909058
 30
0.0
 10
4.151113262703492
 20
4.442217592849282
 30
0.0
 10
4.14656289861509
 20
4.444602123733176
 30
0.0
 10
4.132286156328252
 20
4.451156452501605
 30
0.0
 10
4.121870523395088
 20
4.454791492509368
 30
0.0
 10
4.104819604282814
 20
4.459238216355149
 30
0.0
 10
4.098846375073553
 20
4.460558937737172
 30
0.0
 10
4.086698530659087
 20
4.462800511470335
 30
0.0
 10
4.080517047307764
 20
4.463727517196765
 30
0.0
 10
4.061653737982139
 20
4.465959550385611
 30
0.0
 10
4.048527157479818
 20
4.466724279007114
 30
0.0
 10
4.022067883934957
 20
4.466724279007114
 30
0.0
  0
LINE
  5
FA
330
1F
100
AcDbEntity
  8
0
  6
CONTINUOUS
 62
     7
100
AcDbLine
 10
3.7777515889
 20
4.5460798612
 30
0.0
 11
3.7777515889
 21
2.9712767116
 31
0.0
  0
LINE
  5
FB
330
1F
100
AcDbEntity
  8
0
  6
CONTINUOUS
 62
     7
100
AcDbLine
 10
4.3108880719
 20
3.7488357667
 30
0.0
 11
4.3108880719
 21
2.990961751
 31
0.0
  0
LINE
  5
FC
330
1F
100
AcDbEntity
  8
0
  6
CONTINUOUS
 62
     7
100
AcDbLine
 10
4.3108880719
 20
4.5263948218
 30
0.0
 11
4.3108880719
 21
3.7685208061
 31
0.0
  0
LINE
  5
FD
330
1F
100
AcDbEntity
  8
0
  6
CONTINUOUS
 62
     7
100
AcDbLine
 10
4.2912030325
 20
3.7488357667
 30
0.0
 11
4.3108880719
 21
3.7488357667
 31
0.0
  0
LINE
  5
FE
330
1F
100
AcDbEntity
  8
0
  6
CONTINUOUS
 62
     7
100
AcDbLine
 10
4.2912030325
 20
3.7685208061
 30
0.0
 11
4.3108880719
 21
3.7685208061
 31
0.0
  0
LINE
  5
FF
330
1F
100
AcDbEntity
  8
0
  6
CONTINUOUS
 62
     7
100
AcDbLine
 10
3.5759799354
 20
4.4405880532
 30
0.0
 11
3.5696839694
 21
4.4332867595
 31
0.0
  0
LINE
  5
100
330
1F
100
AcDbEntity
  8
0
  6
CONTINUOUS
 62
     7
100
AcDbLine
 10
3.5674168568
 20
3.0866989341
 30
0.0
 11
3.5759799354
 21
3.0767685196
 31
0.0
  0
LINE
  5
101
330
1F
100
AcDbEntity
  8
0
  6
CONTINUOUS
 62
     7
100
AcDbLine
 10
3.556294896
 20
4.4332867595
 30
0.0
 11
3.556294896
 21
4.5263948218
 31
0.0
  0
LINE
  5
102
330
1F
100
AcDbEntity
  8
0
  6
CONTINUOUS
 62
     7
100
AcDbLine
 10
3.556294896
 20
2.990961751
 30
0.0
 11
3.556294896
 21
3.0866989341
 31
0.0
  0
LINE
  5
103
330
1F
100
AcDbEntity
  8
0
  6
CONTINUOUS
 62
     7
100
AcDbLine
 10
3.7974366283
 20
3.7685208061
 30
0.0
 11
3.7974366283
 21
3.7586782864
 31
0.0
  0
LINE
  5
104
330
1F
100
AcDbEntity
  8
0
  6
CONTINUOUS
 62
     7
100
AcDbLine
 10
3.7974366283
 20
3.7586782864
 30
0.0
 11
3.7974366283
 21
3.7488357667
 31
0.0
  0
LINE
  5
105
330
1F
100
AcDbEntity
  8
0
  6
CONTINUOUS
 62
     7
100
AcDbLine
 10
4.3108880719
 20
3.7488357667
 30
0.0
 11
4.3108880719
 21
3.7685208061
 31
0.0
  0
LINE
  5
106
330
1F
100
AcDbEntity
  8
0
  6
CONTINUOUS
 62
     7
100
AcDbLine
 10
3.5366098567
 20
4.4332867595
 30
0.0
 11
3.5366098567
 21
4.5460798612
 31
0.0
  0
LINE
  5
107
330
1F
100
AcDbEntity
  8
0
  6
CONTINUOUS
 62
     7
100
AcDbLine
 10
3.6875284918
 20
4.4332867595
 30
0.0
 11
3.5366098567
 21
4.4332867595
 31
0.0
  0
LINE
  5
108
330
1F
100
AcDbEntity
  8
0
  6
CONTINUOUS
 62
     7
100
AcDbLine
 10
3.6875284918
 20
3.0866989341
 30
0.0
 11
3.6875284918
 21
4.4332867595
 31
0.0
  0
LINE
  5
109
330
1F
100
AcDbEntity
  8
0
  6
CONTINUOUS
 62
     7
100
AcDbLine
 10
3.5366098567
 20
3.0866989341
 30
0.0
 11
3.6875284918
 21
3.0866989341
 31
0.0
  0
LINE
  5
10A
330
1F
100
AcDbEntity
  8
0
  6
CONTINUOUS
 62
     7
100
AcDbLine
 10
3.5366098567
 20
2.9712767116
 30
0.0
 11
3.5366098567
 21
3.0866989341
 31
0.0
  0
LINE
  5
10B
330
1F
100
AcDbEntity
  8
0
  6
CONTINUOUS
 62
     7
100
AcDbLine
 10
3.1166623501
 20
3.3482577825
 30
0.0
 11
2.9657437149
 21
3.3482577825
 31
0.0
  0
LINE
  5
10C
330
1F
100
AcDbEntity
  8
0
  6
CONTINUOUS
 62
     7
100
AcDbLine
 10
3.1166623501
 20
4.1647628195
 30
0.0
 11
3.1166623501
 21
3.3482577825
 31
0.0
  0
LINE
  5
10D
330
1F
100
AcDbEntity
  8
0
  6
CONTINUOUS
 62
     7
100
AcDbLine
 10
2.9657437149
 20
4.1647628195
 30
0.0
 11
3.1166623501
 21
4.1647628195
 31
0.0
  0
LINE
  5
10E
330
1F
100
AcDbEntity
  8
0
  6
CONTINUOUS
 62
     7
100
AcDbLine
 10
2.9657437149
 20
4.5460798612
 30
0.0
 11
2.9657437149
 21
4.1647628195
 31
0.0
  0
LINE
  5
10F
330
1F
100
AcDbEntity
  8
0
  6
CONTINUOUS
 62
     7
100
AcDbLine
 10
2.9657437149
 20
3.3482577825
 30
0.0
 11
2.9657437149
 21
2.9712767116
 31
0.0
  0
SPLINE
  5
110
330
1F
100
AcDbEntity
  8
0
  6
CONTINUOUS
 62
     7
100
AcDbSpline
210
0.0
220
0.0
230
1.0
 70
     8
 71
     3
 72
     8
 73
     4
 74
     0
 42
0.00000001
 43
0.00000001
 40
0.0
 40
0.0
 40
0.0
 40
0.0
 40
0.0006196767744117
 40
0.0006196767744117
 40
0.0006196767744117
 40
0.0006196767744117
 10
3.099677480445566
 20
4.15237907379362
 30
0.0
 10
3.105337070533748
 20
4.156508382809391
 30
0.0
 10
3.110998739601344
 20
4.16063626755342
 30
0.0
 10
3.116662350103712
 20
4.164762819500212
 30
0.0
  0
SPLINE
  5
111
330
1F
100
AcDbEntity
  8
0
  6
CONTINUOUS
 62
     7
100
AcDbSpline
210
0.0
220
0.0
230
1.0
 70
     8
 71
     3
 72
     8
 73
     4
 74
     0
 42
0.00000001
 43
0.00000001
 40
0.0
 40
0.0
 40
0.0
 40
0.0
 40
0.0005415208961898
 40
0.0005415208961898
 40
0.0005415208961898
 40
0.0005415208961898
 10
3.10421603159137
 20
3.36497749899047
 30
0.0
 10
3.108344210486421
 20
3.359390010473756
 30
0.0
 10
3.112493462489304
 20
3.353816999210108
 30
0.0
 10
3.116662350103713
 20
3.348257782466722
 30
0.0
  0
LINE
  5
112
330
1F
100
AcDbEntity
  8
0
  6
CONTINUOUS
 62
     7
100
AcDbLine
 10
3.0969773107
 20
3.364977499
 30
0.0
 11
3.0969773107
 21
4.1523790738
 31
0.0
  0
SPLINE
  5
113
330
1F
100
AcDbEntity
  8
0
  6
CONTINUOUS
 62
     7
100
AcDbSpline
210
0.0
220
0.0
230
1.0
 70
     8
 71
     3
 72
     8
 73
     4
 74
     0
 42
0.00000001
 43
0.00000001
 40
0.0
 40
0.0
 40
0.0
 40
0.0
 40
0.0001052524529271
 40
0.0001052524529271
 40
0.0001052524529271
 40
0.0001052524529271
 10
3.704513361494144
 20
4.420903013781368
 30
0.0
 10
3.705413740235877
 20
4.419855534285513
 30
0.0
 10
3.706313798196491
 20
4.418807778969289
 30
0.0
 10
3.707213531206075
 20
4.417759744769339
 30
0.0
  0
SPLINE
  5
114
330
1F
100
AcDbEntity
  8
0
  6
CONTINUOUS
 62
     7
100
AcDbSpline
210
0.0
220
0.0
230
1.0
 70
     8
 71
     3
 72
     8
 73
     4
 74
     0
 42
0.00000001
 43
0.00000001
 40
0.0
 40
0.0
 40
0.0
 40
0.0
 40
0.0002819965571225
 40
0.0002819965571225
 40
0.0002819965571225
 40
0.0002819965571225
 10
3.707213531206075
 20
3.099596828014755
 30
0.0
 10
3.704802930749969
 20
3.096788893112397
 30
0.0
 10
3.702389997440207
 20
3.093982959379077
 30
0.0
 10
3.699974810348339
 20
3.091178968600538
 30
0.0
  0
SPLINE
  5
115
330
1F
100
AcDbEntity
  8
0
  6
CONTINUOUS
 62
     7
100
AcDbSpline
210
0.0
220
0.0
230
1.0
 70
     8
 71
     3
 72
     8
 73
     4
 74
     0
 42
0.00000001
 43
0.00000001
 40
0.0
 40
0.0
 40
0.0
 40
0.0
 40
0.0005415208961898
 40
0.0005415208961898
 40
0.0005415208961898
 40
0.0005415208961898
 10
3.687528491835996
 20
3.086698934060322
 30
0.0
 10
3.691697379450405
 20
3.088188521697262
 30
0.0
 10
3.695846631453289
 20
3.089681805564766
 30
0.0
 10
3.699974810348339
 20
3.091178968600538
 30
0.0
  0
SPLINE
  5
116
330
1F
100
AcDbEntity
  8
0
  6
CONTINUOUS
 62
     7
100
AcDbSpline
210
0.0
220
0.0
230
1.0
 70
     8
 71
     3
 72
     8
 73
     4
 74
     0
 42
0.00000001
 43
0.00000001
 40
0.0
 40
0.0
 40
0.0
 40
0.0
 40
0.0006196767744117
 40
0.0006196767744117
 40
0.0006196767744117
 40
0.0006196767744117
 10
3.687528491835996
 20
4.433286759487962
 30
0.0
 10
3.693192102338365
 20
4.429160207541169
 30
0.0
 10
3.698853771405961
 20
4.425032322797139
 30
0.0
 10
3.704513361494144
 20
4.420903013781368
 30
0.0
  0
SPLINE
  5
117
330
1F
100
AcDbEntity
  8
0
  6
CONTINUOUS
 62
     7
100
AcDbSpline
210
0.0
220
0.0
230
1.0
 70
     8
 71
     3
 72
     8
 73
     4
 74
     0
 42
0.00000001
 43
0.00000001
 40
0.0
 40
0.0
 40
0.0
 40
0.0
 40
0.0006196767744117
 40
0.0006196767744117
 40
0.0006196767744117
 40
0.0006196767744117
 10
2.948758845274961
 20
4.15237907379362
 30
0.0
 10
2.954418435363144
 20
4.156508382809391
 30
0.0
 10
2.96008010443074
 20
4.16063626755342
 30
0.0
 10
2.965743714933109
 20
4.164762819500212
 30
0.0
  0
LINE
  5
118
330
1F
100
AcDbEntity
  8
0
  6
CONTINUOUS
 62
     7
100
AcDbLine
 10
3.0996774804
 20
4.1523790738
 30
0.0
 11
3.0970437394
 21
4.1523790738
 31
0.0
  0
SPLINE
  5
119
330
1F
100
AcDbEntity
  8
0
  6
CONTINUOUS
 62
     7
100
AcDbSpline
210
0.0
220
0.0
230
1.0
 70
     8
 71
     3
 72
     8
 73
     4
 74
     0
 42
0.00000001
 43
0.00000001
 40
0.0
 40
0.0
 40
0.0
 40
0.0
 40
0.0005415208961898
 40
0.0005415208961898
 40
0.0005415208961898
 40
0.0005415208961898
 10
2.953297396420766
 20
3.36497749899047
 30
0.0
 10
2.957425575315816
 20
3.359390010473756
 30
0.0
 10
2.9615748273187
 20
3.353816999210108
 30
0.0
 10
2.965743714933109
 20
3.348257782466722
 30
0.0
  0
LINE
  5
11A
330
1F
100
AcDbEntity
  8
0
  6
CONTINUOUS
 62
     7
100
AcDbLine
 10
2.9460586756
 20
2.990961751
 30
0.0
 11
2.9460586756
 21
3.364977499
 31
0.0
  0
LINE
  5
11B
330
1F
100
AcDbEntity
  8
0
  6
CONTINUOUS
 62
     7
100
AcDbLine
 10
3.0970437394
 20
3.364977499
 30
0.0
 11
3.1042160316
 21
3.364977499
 31
0.0
  0
LINE
  5
11C
330
1F
100
AcDbEntity
  8
0
  6
CONTINUOUS
 62
     7
100
AcDbLine
 10
4.0352975207
 20
4.3492294675
 30
0.0
 11
4.1927778357
 21
4.3492294675
 31
0.0
  0
LINE
  5
11D
330
1F
100
AcDbEntity
  8
0
  6
CONTINUOUS
 62
     7
100
AcDbLine
 10
3.8778172057
 20
4.3492294675
 30
0.0
 11
4.0352975207
 21
4.3492294675
 31
0.0
  0
LINE
  5
11E
330
1F
100
AcDbEntity
  8
0
  6
CONTINUOUS
 62
     7
100
AcDbLine
 10
4.0825411577
 20
3.2468672628
 30
0.0
 11
3.9883748438
 21
3.2468672628
 31
0.0
  0
LINE
  5
11F
330
1F
100
AcDbEntity
  8
0
  6
CONTINUOUS
 62
     7
100
AcDbLine
 10
2.9460586756
 20
4.5460798612
 30
0.0
 11
2.9460586756
 21
4.1523790738
 31
0.0
  0
LINE
  5
120
330
1F
100
AcDbEntity
  8
0
  6
CONTINUOUS
 62
     7
100
AcDbLine
 10
2.9460586756
 20
4.1523790738
 30
0.0
 11
3.0772922714
 21
4.1523790738
 31
0.0
  0
LINE
  5
121
330
1F
100
AcDbEntity
  8
0
  6
CONTINUOUS
 62
     7
100
AcDbLine
 10
3.0772922714
 20
4.1523790738
 30
0.0
 11
3.0772922714
 21
3.364977499
 31
0.0
  0
LINE
  5
122
330
1F
100
AcDbEntity
  8
0
  6
CONTINUOUS
 62
     7
100
AcDbLine
 10
3.0772922714
 20
3.364977499
 30
0.0
 11
2.9263736362
 21
3.364977499
 31
0.0
  0
LINE
  5
123
330
1F
100
AcDbEntity
  8
0
  6
CONTINUOUS
 62
     7
100
AcDbLine
 10
2.9263736362
 20
3.364977499
 30
0.0
 11
2.9263736362
 21
2.9712767116
 31
0.0
  0
LINE
  5
124
330
1F
100
AcDbEntity
  8
0
  6
CONTINUOUS
 62
     7
100
AcDbLine
 10
2.8755206178
 20
3.9948987588
 30
0.0
 11
2.8755206178
 21
2.9712767116
 31
0.0
  0
LINE
  5
125
330
1F
100
AcDbEntity
  8
0
  6
CONTINUOUS
 62
     7
100
AcDbLine
 10
2.8755206178
 20
3.9948987588
 30
0.0
 11
2.8558355785
 21
3.9948987588
 31
0.0
  0
LINE
  5
126
330
1F
100
AcDbEntity
  8
0
  6
CONTINUOUS
 62
     7
100
AcDbLine
 10
2.8558355785
 20
3.9948987588
 30
0.0
 11
2.8558355785
 21
2.9713382297
 31
0.0
  0
LINE
  5
127
330
1F
100
AcDbEntity
  8
0
  6
CONTINUOUS
 62
     7
100
AcDbLine
 10
2.3620691743
 20
2.9713382297
 30
0.0
 11
2.8558355785
 21
2.9713382297
 31
0.0
  0
LINE
  5
128
330
1F
100
AcDbEntity
  8
0
  6
CONTINUOUS
 62
     7
100
AcDbLine
 10
2.3620691743
 20
2.9713382297
 30
0.0
 11
2.3620691743
 21
4.5460798612
 31
0.0
  0
SPLINE
  5
129
330
1F
100
AcDbEntity
  8
0
  6
CONTINUOUS
 62
     7
100
AcDbSpline
210
0.0
220
0.0
230
1.0
 70
     8
 71
     3
 72
    80
 73
    76
 74
     0
 42
0.00000001
 43
0.00000001
 40
-0.0312499999999999
 40
-0.0312499999999999
 40
0.0
 40
0.0
 40
0.0312499999999999
 40
0.0312499999999999
 40
0.0468749999999998
 40
0.0468749999999998
 40
0.0624999999999997
 40
0.0624999999999997
 40
0.0937499999999998
 40
0.0937499999999998
 40
0.1249999999999999
 40
0.1249999999999999
 40
0.1562499999999999
 40
0.1562499999999999
 40
0.1875
 40
0.1875
 40
0.2187500000000001
 40
0.2187500000000001
 40
0.2500000000000003
 40
0.2500000000000003
 40
0.2812500000000006
 40
0.2812500000000006
 40
0.3125000000000007
 40
0.3125000000000007
 40
0.3750000000000009
 40
0.3750000000000009
 40
0.406250000000001
 40
0.406250000000001
 40
0.4375000000000011
 40
0.4375000000000011
 40
0.4531250000000011
 40
0.4531250000000011
 40
0.468750000000001
 40
0.468750000000001
 40
0.484375000000001
 40
0.484375000000001
 40
0.500000000000001
 40
0.500000000000001
 40
0.5156250000000009
 40
0.5156250000000009
 40
0.5312500000000009
 40
0.5312500000000009
 40
0.5468750000000008
 40
0.5468750000000008
 40
0.5625000000000008
 40
0.5625000000000008
 40
0.5937500000000007
 40
0.5937500000000007
 40
0.6250000000000007
 40
0.6250000000000007
 40
0.6562500000000007
 40
0.6562500000000007
 40
0.6875000000000007
 40
0.6875000000000007
 40
0.7500000000000004
 40
0.7500000000000004
 40
0.7812500000000003
 40
0.7812500000000003
 40
0.8125000000000003
 40
0.8125000000000003
 40
0.8437500000000003
 40
0.8437500000000003
 40
0.8750000000000003
 40
0.8750000000000003
 40
0.8906250000000002
 40
0.8906250000000002
 40
0.9062500000000002
 40
0.9062500000000002
 40
0.9375
 40
0.9375
 40
0.9531250000000001
 40
0.9531250000000001
 40
0.9687500000000001
 40
0.9687500000000001
 40
1.0
 40
1.0
 40
1.03125
 40
1.03125
 10
2.604745049289287
 20
3.414190097415667
 30
0.0
 10
2.631204322834148
 20
3.414190097415667
 30
0.0
 10
2.644136906794715
 20
3.412642816824059
 30
0.0
 10
2.663108762654634
 20
3.408118967890919
 30
0.0
 10
2.669404091945912
 20
3.40622169907055
 30
0.0
 10
2.681559925874906
 20
3.401772838641777
 30
0.0
 10
2.687433176662273
 20
3.399224787226345
 30
0.0
 10
2.704463750549822
 20
3.390665863049286
 30
0.0
 10
2.715151409823212
 20
3.383636177369643
 30
0.0
 10
2.734155190281867
 20
3.367909164940009
 30
0.0
 10
2.742550799075773
 20
3.359203273995602
 30
0.0
 10
2.75719734318019
 20
3.340438834823918
 30
0.0
 10
2.763239466067644
 20
3.330657614467146
 30
0.0
 10
2.773121206600561
 20
3.310524442352448
 30
0.0
 10
2.776950551521323
 20
3.300126013935746
 30
0.0
 10
2.782410314018847
 20
3.279589497301122
 30
0.0
 10
2.784090031832261
 20
3.269365428000571
 30
0.0
 10
2.785592183262997
 20
3.249069573190568
 30
0.0
 10
2.785397268057918
 20
3.239142730203733
 30
0.0
 10
2.783400235426687
 20
3.219953010357199
 30
0.0
 10
2.781599422562441
 20
3.210647585918002
 30
0.0
 10
2.776525900986082
 20
3.192586219742048
 30
0.0
 10
2.773225238568079
 20
3.183780978880792
 30
0.0
 10
2.761366143041441
 20
3.158671173528098
 30
0.0
 10
2.75096599647492
 20
3.1435603324592
 30
0.0
 10
2.731021506375389
 20
3.123142296468602
 30
0.0
 10
2.723667679702145
 20
3.116768747165684
 30
0.0
 10
2.707445284153657
 20
3.105122263760537
 30
0.0
 10
2.698467132661837
 20
3.099769772132154
 30
0.0
 10
2.683582362610357
 20
3.092846136130853
 30
0.0
 10
2.678401831782762
 20
3.090730016233693
 30
0.0
 10
2.66749330139805
 20
3.086935444700224
 30
0.0
 10
2.661711477330753
 20
3.085244297696465
 30
0.0
 10
2.649706774545399
 20
3.082465424854069
 30
0.0
 10
2.643520114255741
 20
3.081380255957692
 30
0.0
 10
2.630707117348952
 20
3.079904981044968
 30
0.0
 10
2.624063716165622
 20
3.079527966685845
 30
0.0
 10
2.611012276763108
 20
3.079562029264574
 30
0.0
 10
2.604506654797376
 20
3.079960833633086
 30
0.0
 10
2.591604759174028
 20
3.081507742604662
 30
0.0
 10
2.585417406350313
 20
3.082627682015792
 30
0.0
 10
2.573469697071244
 20
3.08545498844279
 30
0.0
 10
2.567692812813898
 20
3.087174075878716
 30
0.0
 10
2.556818508168771
 20
3.091014439175654
 30
0.0
 10
2.551670441244743
 20
3.093145945057004
 30
0.0
 10
2.53690986651137
 20
3.100089581733821
 30
0.0
 10
2.527934213163501
 20
3.10548608930125
 30
0.0
 10
2.511814124947346
 20
3.117152736848587
 30
0.0
 10
2.504582473776985
 20
3.123464388125953
 30
0.0
 10
2.491420660050643
 20
3.137003065791965
 30
0.0
 10
2.485468621485296
 20
3.144276367875714
 30
0.0
 10
2.474953337989028
 20
3.159530885124647
 30
0.0
 10
2.470381169012277
 20
3.167507385662177
 30
0.0
 10
2.458648592177787
 20
3.19253726825066
 30
0.0
 10
2.453430004693621
 20
3.210896328834154
 30
0.0
 10
2.450528464462221
 20
3.239678648081803
 30
0.0
 10
2.450367457333206
 20
3.249512536521675
 30
0.0
 10
2.451905824455982
 20
3.269677650759852
 30
0.0
 10
2.45363059762046
 20
3.280036358499379
 30
0.0
 10
2.459126516593207
 20
3.300499597919568
 30
0.0
 10
2.462894187010515
 20
3.310689897427712
 30
0.0
 10
2.472824582303776
 20
3.330859746122266
 30
0.0
 10
2.47896817040662
 20
3.340739928016617
 30
0.0
 10
2.489826468349922
 20
3.35461444236861
 30
0.0
 10
2.493732271784779
 20
3.359105069030359
 30
0.0
 10
2.502158944065612
 20
3.367781350309011
 30
0.0
 10
2.506709308154015
 20
3.371987286869873
 30
0.0
 10
2.520986050440853
 20
3.383770259762785
 30
0.0
 10
2.531401683374017
 20
3.390616953497578
 30
0.0
 10
2.548452602486292
 20
3.399196159356916
 30
0.0
 10
2.554425831695553
 20
3.401787571030805
 30
0.0
 10
2.56657367611002
 20
3.40623066816415
 30
0.0
 10
2.572755159461341
 20
3.40809357682351
 30
0.0
 10
2.591618468786965
 20
3.412606445060598
 30
0.0
 10
2.604745049289287
 20
3.414190097415667
 30
0.0
 10
2.631204322834148
 20
3.414190097415667
 30
0.0
  0
LINE
  5
12A
330
1F
100
AcDbEntity
  8
0
  6
CONTINUOUS
 62
     7
100
AcDbLine
 10
2.3620691743
 20
2.9713382297
 30
0.0
 11
2.3423841349
 21
2.9910248466
 31
0.0
  0
LINE
  5
12B
330
1F
100
AcDbEntity
  8
0
  6
CONTINUOUS
 62
     7
100
AcDbLine
 10
2.3423841349
 20
4.5263948218
 30
0.0
 11
2.3423841349
 21
2.9910248466
 31
0.0
  0
SPLINE
  5
12C
330
1F
100
AcDbEntity
  8
0
  6
CONTINUOUS
 62
     7
100
AcDbSpline
210
0.0
220
0.0
230
1.0
 70
    24
 71
     3
 72
     8
 73
     4
 74
     0
 42
0.00000001
 43
0.00000001
 40
0.0
 40
0.0
 40
0.0
 40
0.0
 40
0.000765645677896
 40
0.000765645677896
 40
0.000765645677896
 40
0.000765645677896
 10
3.077292271363555
 20
3.36497749899047
 30
0.0
 10
3.083870129020987
 20
3.36497749899047
 30
0.0
 10
3.090432316570638
 20
3.36497749899047
 30
0.0
 10
3.096977310733634
 20
3.36497749899047
 30
0.0
  0
SPLINE
  5
12D
330
1F
100
AcDbEntity
  8
0
  6
CONTINUOUS
 62
     7
100
AcDbSpline
210
0.0
220
0.0
230
1.0
 70
    24
 71
     3
 72
     8
 73
     4
 74
     0
 42
0.00000001
 43
0.00000001
 40
0.0
 40
0.0
 40
0.0
 40
0.0
 40
0.000765645677896
 40
0.000765645677896
 40
0.000765645677896
 40
0.000765645677896
 10
3.096977310733634
 20
4.15237907379362
 30
0.0
 10
3.090432316570639
 20
4.15237907379362
 30
0.0
 10
3.083870129020987
 20
4.15237907379362
 30
0.0
 10
3.077292271363555
 20
4.15237907379362
 30
0.0
  0
CIRCLE
  5
12E
330
1F
100
AcDbEntity
  8
0
  6
CONTINUOUS
 62
     7
100
AcDbCircle
 10
2.6179746861
 20
3.2468672628
 30
0.0
 40
0.1574803149606296
  0
LINE
  5
12F
330
1F
100
AcDbEntity
  8
0
  6
CONTINUOUS
 62
     7
100
AcDbLine
 10
2.5392345286
 20
3.2014066117
 30
0.0
 11
2.5392345286
 21
3.2923279139
 31
0.0
  0
LINE
  5
130
330
1F
100
AcDbEntity
  8
0
  6
CONTINUOUS
 62
     7
100
AcDbLine
 10
2.6179746861
 20
3.1559459605
 30
0.0
 11
2.5392345286
 21
3.2014066117
 31
0.0
  0
LINE
  5
131
330
1F
100
AcDbEntity
  8
0
  6
CONTINUOUS
 62
     7
100
AcDbLine
 10
2.6967148435
 20
3.2014066117
 30
0.0
 11
2.6179746861
 21
3.1559459605
 31
0.0
  0
LINE
  5
132
330
1F
100
AcDbEntity
  8
0
  6
CONTINUOUS
 62
     7
100
AcDbLine
 10
2.6967148435
 20
3.2923279139
 30
0.0
 11
2.6967148435
 21
3.2014066117
 31
0.0
  0
LINE
  5
133
330
1F
100
AcDbEntity
  8
0
  6
CONTINUOUS
 62
     7
100
AcDbLine
 10
2.6179746861
 20
3.337788565
 30
0.0
 11
2.6967148435
 21
3.2923279139
 31
0.0
  0
LINE
  5
134
330
1F
100
AcDbEntity
  8
0
  6
CONTINUOUS
 62
     7
100
AcDbLine
 10
2.5392345286
 20
3.2923279139
 30
0.0
 11
2.6179746861
 21
3.337788565
 31
0.0
  0
ARC
  5
135
330
1F
100
AcDbEntity
  8
0
  6
CONTINUOUS
 62
     7
100
AcDbCircle
 10
2.6179746861
 20
3.2468672628
 30
0.0
 40
0.1673228346456694
100
AcDbArc
 50
270.0
 51
0.0
  0
ARC
  5
136
330
1F
100
AcDbEntity
  8
0
  6
CONTINUOUS
 62
     7
100
AcDbCircle
 10
2.6179746861
 20
3.2468672628
 30
0.0
 40
0.1673228346456695
100
AcDbArc
 50
186.8505872754
 51
270.0
  0
LINE
  5
137
330
1F
100
AcDbEntity
  8
0
  6
CONTINUOUS
 62
     8
100
AcDbLine
 10
4.0352975207
 20
4.3393869478
 30
0.0
 11
3.8679746861
 21
4.3393869478
 31
0.0
  0
LINE
  5
138
330
1F
100
AcDbEntity
  8
0
  6
CONTINUOUS
 62
     8
100
AcDbLine
 10
4.2014257674
 20
4.3393869478
 30
0.0
 11
4.0352975207
 21
4.3393869478
 31
0.0
  0
LINE
  5
139
330
1F
100
AcDbEntity
  8
0
  6
CONTINUOUS
 62
     8
100
AcDbLine
 10
4.009537569
 20
3.2567097825
 30
0.0
 11
4.0614150377
 21
3.2567097825
 31
0.0
  0
LINE
  5
13A
330
1F
100
AcDbEntity
  8
0
  6
HIDDEN
 62
     7
100
AcDbLine
 10
4.2912030325
 20
3.7685208061
 30
0.0
 11
4.2912030325
 21
3.7488357667
 31
0.0
  0
LINE
  5
13B
330
1F
100
AcDbEntity
  8
0
  6
HIDDEN
 62
     7
100
AcDbLine
 10
4.0352975207
 20
4.1523790738
 30
0.0
 11
4.2026203554
 21
4.1523790738
 31
0.0
  0
LINE
  5
13C
330
1F
100
AcDbEntity
  8
0
  6
HIDDEN
 62
     7
100
AcDbLine
 10
3.8679746861
 20
4.1523790738
 30
0.0
 11
4.0352975207
 21
4.1523790738
 31
0.0
  0
LINE
  5
13D
330
1F
100
AcDbEntity
  8
0
  6
HIDDEN
 62
     7
100
AcDbLine
 10
3.5696839694
 20
4.4332867595
 30
0.0
 11
3.556294896
 21
4.4177597448
 31
0.0
  0
LINE
  5
13E
330
1F
100
AcDbEntity
  8
0
  6
HIDDEN
 62
     7
100
AcDbLine
 10
3.556294896
 20
3.099596828
 30
0.0
 11
3.5674168568
 21
3.0866989341
 31
0.0
  0
LINE
  5
13F
330
1F
100
AcDbEntity
  8
0
  6
HIDDEN
 62
     7
100
AcDbLine
 10
3.556294896
 20
3.099596828
 30
0.0
 11
3.556294896
 21
4.4177597448
 31
0.0
  0
LINE
  5
140
330
1F
100
AcDbEntity
  8
0
  6
HIDDEN
 62
     7
100
AcDbLine
 10
3.556294896
 20
4.4177597448
 30
0.0
 11
3.556294896
 21
4.4332867595
 31
0.0
  0
LINE
  5
141
330
1F
100
AcDbEntity
  8
0
  6
HIDDEN
 62
     7
100
AcDbLine
 10
3.556294896
 20
3.0866989341
 30
0.0
 11
3.556294896
 21
3.099596828
 31
0.0
  0
SPLINE
  5
142
330
1F
100
AcDbEntity
  8
0
  6
HIDDEN
 62
     7
100
AcDbSpline
210
0.0
220
0.0
230
1.0
 70
     8
 71
     3
 72
     8
 73
     4
 74
     0
 42
0.00000001
 43
0.00000001
 40
0.0
 40
0.0
 40
0.0
 40
0.0
 40
1.0
 40
1.0
 40
1.0
 40
1.0
 10
4.034736574709851
 20
3.748835766707008
 30
0.0
 10
4.035165505188499
 20
3.755397446497034
 30
0.0
 10
4.035165505188499
 20
3.76195912628706
 30
0.0
 10
4.034736574709851
 20
3.768520806077087
 30
0.0
  0
LINE
  5
143
330
1F
100
AcDbEntity
  8
0
  6
HIDDEN
 62
     7
100
AcDbLine
 10
3.7072135312
 20
3.0767685196
 30
0.0
 11
3.7072135312
 21
3.099596828
 31
0.0
  0
LINE
  5
144
330
1F
100
AcDbEntity
  8
0
  6
HIDDEN
 62
     7
100
AcDbLine
 10
3.7072135312
 20
4.4177597448
 30
0.0
 11
3.7072135312
 21
4.4405880532
 31
0.0
  0
LINE
  5
145
330
1F
100
AcDbEntity
  8
0
  6
HIDDEN
 62
     7
100
AcDbLine
 10
3.5366098567
 20
4.4306576387
 30
0.0
 11
3.6875284918
 21
4.4306576387
 31
0.0
  0
LINE
  5
146
330
1F
100
AcDbEntity
  8
0
  6
HIDDEN
 62
     7
100
AcDbLine
 10
3.5366098567
 20
4.4332867595
 30
0.0
 11
3.5366098567
 21
4.4306576387
 31
0.0
  0
LINE
  5
147
330
1F
100
AcDbEntity
  8
0
  6
HIDDEN
 62
     7
100
AcDbLine
 10
3.6875284918
 20
3.0840698133
 30
0.0
 11
3.5366098567
 21
3.0840698133
 31
0.0
  0
LINE
  5
148
330
1F
100
AcDbEntity
  8
0
  6
HIDDEN
 62
     7
100
AcDbLine
 10
3.6875284918
 20
3.0866989341
 30
0.0
 11
3.6875284918
 21
3.0840698133
 31
0.0
  0
LINE
  5
149
330
1F
100
AcDbEntity
  8
0
  6
HIDDEN
 62
     7
100
AcDbLine
 10
3.1166623501
 20
4.1690987903
 30
0.0
 11
2.9657437149
 21
4.1690987903
 31
0.0
  0
LINE
  5
14A
330
1F
100
AcDbEntity
  8
0
  6
HIDDEN
 62
     7
100
AcDbLine
 10
3.1166623501
 20
4.1647628195
 30
0.0
 11
3.1166623501
 21
4.1690987903
 31
0.0
  0
LINE
  5
14B
330
1F
100
AcDbEntity
  8
0
  6
HIDDEN
 62
     7
100
AcDbLine
 10
2.9657437149
 20
3.3525937533
 30
0.0
 11
3.1166623501
 21
3.3525937533
 31
0.0
  0
LINE
  5
14C
330
1F
100
AcDbEntity
  8
0
  6
HIDDEN
 62
     7
100
AcDbLine
 10
2.9657437149
 20
3.3482577825
 30
0.0
 11
2.9657437149
 21
3.3525937533
 31
0.0
  0
SPLINE
  5
14D
330
1F
100
AcDbEntity
  8
0
  6
HIDDEN
 62
     7
100
AcDbSpline
210
0.0
220
0.0
230
1.0
 70
     8
 71
     3
 72
     8
 73
     4
 74
     0
 42
0.00000001
 43
0.00000001
 40
0.0
 40
0.0
 40
0.0
 40
0.0
 40
0.0005415208961897
 40
0.0005415208961897
 40
0.0005415208961897
 40
0.0005415208961897
 10
2.953297396420766
 20
4.152379073793624
 30
0.0
 10
2.957425575315817
 20
4.157966562310338
 30
0.0
 10
2.9615748273187
 20
4.163539573573986
 30
0.0
 10
2.965743714933108
 20
4.169098790317371
 30
0.0
  0
SPLINE
  5
14E
330
1F
100
AcDbEntity
  8
0
  6
HIDDEN
 62
     7
100
AcDbSpline
210
0.0
220
0.0
230
1.0
 70
     8
 71
     3
 72
     8
 73
     4
 74
     0
 42
0.00000001
 43
0.00000001
 40
0.0
 40
0.0
 40
0.0
 40
0.0
 40
0.0006196767744117
 40
0.0006196767744117
 40
0.0006196767744117
 40
0.0006196767744117
 10
2.948758845274961
 20
3.364977498990475
 30
0.0
 10
2.954418435363143
 20
3.360848189974703
 30
0.0
 10
2.960080104430739
 20
3.356720305230675
 30
0.0
 10
2.965743714933108
 20
3.352593753283882
 30
0.0
  0
SPLINE
  5
14F
330
1F
100
AcDbEntity
  8
0
  6
HIDDEN
 62
     7
100
AcDbSpline
210
0.0
220
0.0
230
1.0
 70
     8
 71
     3
 72
     8
 73
     4
 74
     0
 42
0.00000001
 43
0.00000001
 40
0.0
 40
0.0
 40
0.0
 40
0.0
 40
0.0002819965571225
 40
0.0002819965571225
 40
0.0002819965571225
 40
0.0002819965571225
 10
3.549056175177735
 20
3.091178968600538
 30
0.0
 10
3.551471362269603
 20
3.093982959379077
 30
0.0
 10
3.553884295579365
 20
3.096788893112397
 30
0.0
 10
3.556294896035471
 20
3.099596828014755
 30
0.0
  0
SPLINE
  5
150
330
1F
100
AcDbEntity
  8
0
  6
HIDDEN
 62
     7
100
AcDbSpline
210
0.0
220
0.0
230
1.0
 70
     8
 71
     3
 72
     8
 73
     4
 74
     0
 42
0.00000001
 43
0.00000001
 40
0.0
 40
0.0
 40
0.0
 40
0.0
 40
0.0006196767744117
 40
0.0006196767744117
 40
0.0006196767744117
 40
0.0006196767744117
 10
3.536609856665392
 20
3.084069813296133
 30
0.0
 10
3.542273467167762
 20
3.088196365242926
 30
0.0
 10
3.547935136235358
 20
3.092324249986955
 30
0.0
 10
3.553594726323541
 20
3.096453559002726
 30
0.0
  0
SPLINE
  5
151
330
1F
100
AcDbEntity
  8
0
  6
HIDDEN
 62
     7
100
AcDbSpline
210
0.0
220
0.0
230
1.0
 70
     8
 71
     3
 72
     8
 73
     4
 74
     0
 42
0.00000001
 43
0.00000001
 40
0.0
 40
0.0
 40
0.0
 40
0.0
 40
0.0005415208961898
 40
0.0005415208961898
 40
0.0005415208961898
 40
0.0005415208961898
 10
3.536609856665393
 20
3.086698934060322
 30
0.0
 10
3.540778744279801
 20
3.088188521697262
 30
0.0
 10
3.544927996282685
 20
3.089681805564766
 30
0.0
 10
3.549056175177735
 20
3.091178968600538
 30
0.0
  0
SPLINE
  5
152
330
1F
100
AcDbEntity
  8
0
  6
HIDDEN
 62
     7
100
AcDbSpline
210
0.0
220
0.0
230
1.0
 70
     8
 71
     3
 72
     8
 73
     4
 74
     0
 42
0.00000001
 43
0.00000001
 40
0.0
 40
0.0
 40
0.0
 40
0.0
 40
0.0001052524529271
 40
0.0001052524529271
 40
0.0001052524529271
 40
0.0001052524529271
 10
3.556294896035471
 20
4.417759744769339
 30
0.0
 10
3.555395163025887
 20
4.418807778969289
 30
0.0
 10
3.554495105065274
 20
4.419855534285513
 30
0.0
 10
3.553594726323541
 20
4.420903013781368
 30
0.0
  0
SPLINE
  5
153
330
1F
100
AcDbEntity
  8
0
  6
HIDDEN
 62
     7
100
AcDbSpline
210
0.0
220
0.0
230
1.0
 70
     8
 71
     3
 72
     8
 73
     4
 74
     0
 42
0.00000001
 43
0.00000001
 40
0.0
 40
0.0
 40
0.0
 40
0.0
 40
0.0006196767744117
 40
0.0006196767744117
 40
0.0006196767744117
 40
0.0006196767744117
 10
3.536609856665393
 20
4.433286759487962
 30
0.0
 10
3.542273467167762
 20
4.429160207541169
 30
0.0
 10
3.547935136235358
 20
4.425032322797139
 30
0.0
 10
3.553594726323541
 20
4.420903013781368
 30
0.0
  0
SPLINE
  5
154
330
1F
100
AcDbEntity
  8
0
  6
HIDDEN
 62
     7
100
AcDbSpline
210
0.0
220
0.0
230
1.0
 70
     8
 71
     3
 72
     8
 73
     4
 74
     0
 42
0.00000001
 43
0.00000001
 40
0.0
 40
0.0
 40
0.0
 40
0.0
 40
0.0005415208961897
 40
0.0005415208961897
 40
0.0005415208961897
 40
0.0005415208961897
 10
3.536609856665392
 20
4.430657638723772
 30
0.0
 10
3.5407787442798
 20
4.429168051086832
 30
0.0
 10
3.544927996282685
 20
4.427674767219329
 30
0.0
 10
3.549056175177735
 20
4.426177604183557
 30
0.0
  0
SPLINE
  5
155
330
1F
100
AcDbEntity
  8
0
  6
HIDDEN
 62
     7
100
AcDbSpline
210
0.0
220
0.0
230
1.0
 70
     8
 71
     3
 72
     8
 73
     4
 74
     0
 42
0.00000001
 43
0.00000001
 40
0.0
 40
0.0
 40
0.0
 40
0.0
 40
0.0002819965571225
 40
0.0002819965571225
 40
0.0002819965571225
 40
0.0002819965571225
 10
3.549056175177735
 20
4.426177604183557
 30
0.0
 10
3.551471362269603
 20
4.423373613405017
 30
0.0
 10
3.553884295579365
 20
4.420567679671698
 30
0.0
 10
3.556294896035471
 20
4.417759744769339
 30
0.0
  0
LINE
  5
156
330
1F
100
AcDbEntity
  8
0
  6
HIDDEN
 62
     7
100
AcDbLine
 10
3.5535947263
 20
4.4209030138
 30
0.0
 11
3.7045133615
 21
4.4209030138
 31
0.0
  0
LINE
  5
157
330
1F
100
AcDbEntity
  8
0
  6
HIDDEN
 62
     7
100
AcDbLine
 10
3.6999748103
 20
3.0911789686
 30
0.0
 11
3.5490561752
 21
3.0911789686
 31
0.0
  0
SPLINE
  5
158
330
1F
100
AcDbEntity
  8
0
  6
HIDDEN
 62
     7
100
AcDbSpline
210
0.0
220
0.0
230
1.0
 70
     8
 71
     3
 72
     8
 73
     4
 74
     0
 42
0.00000001
 43
0.00000001
 40
0.0
 40
0.0
 40
0.0
 40
0.0
 40
0.0005415208961897
 40
0.0005415208961897
 40
0.0005415208961897
 40
0.0005415208961897
 10
3.687528491835996
 20
4.430657638723772
 30
0.0
 10
3.691697379450405
 20
4.429168051086832
 30
0.0
 10
3.695846631453289
 20
4.427674767219329
 30
0.0
 10
3.699974810348339
 20
4.426177604183557
 30
0.0
  0
LINE
  5
159
330
1F
100
AcDbEntity
  8
0
  6
HIDDEN
 62
     7
100
AcDbLine
 10
3.6999748103
 20
4.4261776042
 30
0.0
 11
3.5490561752
 21
4.4261776042
 31
0.0
  0
SPLINE
  5
15A
330
1F
100
AcDbEntity
  8
0
  6
HIDDEN
 62
     7
100
AcDbSpline
210
0.0
220
0.0
230
1.0
 70
     8
 71
     3
 72
     8
 73
     4
 74
     0
 42
0.00000001
 43
0.00000001
 40
0.0
 40
0.0
 40
0.0
 40
0.0
 40
0.0002819965571225
 40
0.0002819965571225
 40
0.0002819965571225
 40
0.0002819965571225
 10
3.707213531206075
 20
4.417759744769339
 30
0.0
 10
3.704802930749969
 20
4.420567679671698
 30
0.0
 10
3.702389997440207
 20
4.423373613405017
 30
0.0
 10
3.699974810348339
 20
4.426177604183557
 30
0.0
  0
LINE
  5
15B
330
1F
100
AcDbEntity
  8
0
  6
HIDDEN
 62
     7
100
AcDbLine
 10
3.5535947263
 20
3.096453559
 30
0.0
 11
3.7045133615
 21
3.096453559
 31
0.0
  0
SPLINE
  5
15C
330
1F
100
AcDbEntity
  8
0
  6
HIDDEN
 62
     7
100
AcDbSpline
210
0.0
220
0.0
230
1.0
 70
     8
 71
     3
 72
     8
 73
     4
 74
     0
 42
0.00000001
 43
0.00000001
 40
0.0
 40
0.0
 40
0.0
 40
0.0
 40
0.0006196767744117
 40
0.0006196767744117
 40
0.0006196767744117
 40
0.0006196767744117
 10
3.704513361494145
 20
3.096453559002726
 30
0.0
 10
3.698853771405962
 20
3.092324249986955
 30
0.0
 10
3.693192102338366
 20
3.088196365242926
 30
0.0
 10
3.687528491835996
 20
3.084069813296133
 30
0.0
  0
LINE
  5
15D
330
1F
100
AcDbEntity
  8
0
  6
HIDDEN
 62
     7
100
AcDbLine
 10
3.1042160316
 20
4.1523790738
 30
0.0
 11
3.099686997
 21
4.1523790738
 31
0.0
  0
SPLINE
  5
15E
330
1F
100
AcDbEntity
  8
0
  6
HIDDEN
 62
     7
100
AcDbSpline
210
0.0
220
0.0
230
1.0
 70
     8
 71
     3
 72
     8
 73
     4
 74
     0
 42
0.00000001
 43
0.00000001
 40
0.0
 40
0.0
 40
0.0
 40
0.0
 40
0.0006196767744117
 40
0.0006196767744117
 40
0.0006196767744117
 40
0.0006196767744117
 10
3.116662350103713
 20
3.352593753283882
 30
0.0
 10
3.110998739601344
 20
3.356720305230675
 30
0.0
 10
3.105337070533748
 20
3.360848189974704
 30
0.0
 10
3.099677480445565
 20
3.364977498990475
 30
0.0
  0
SPLINE
  5
15F
330
1F
100
AcDbEntity
  8
0
  6
HIDDEN
 62
     7
100
AcDbSpline
210
0.0
220
0.0
230
1.0
 70
     8
 71
     3
 72
     8
 73
     4
 74
     0
 42
0.00000001
 43
0.00000001
 40
0.0
 40
0.0
 40
0.0
 40
0.0
 40
0.0005415208961897
 40
0.0005415208961897
 40
0.0005415208961897
 40
0.0005415208961897
 10
3.10421603159137
 20
4.152379073793624
 30
0.0
 10
3.108344210486421
 20
4.157966562310338
 30
0.0
 10
3.112493462489304
 20
4.163539573573986
 30
0.0
 10
3.116662350103713
 20
4.169098790317371
 30
0.0
  0
LINE
  5
160
330
1F
100
AcDbEntity
  8
0
  6
HIDDEN
 62
     7
100
AcDbLine
 10
4.1238801979
 20
3.2468672628
 30
0.0
 11
4.0825411577
 21
3.2468672628
 31
0.0
  0
LINE
  5
161
330
1F
100
AcDbEntity
  8
0
  6
HIDDEN
 62
     7
100
AcDbLine
 10
3.9883748438
 20
3.2468672628
 30
0.0
 11
3.9467148435
 21
3.2468672628
 31
0.0
  0
LINE
  5
162
330
1F
100
AcDbEntity
  8
0
  6
HIDDEN
 62
     7
100
AcDbLine
 10
4.0352975207
 20
4.1917491525
 30
0.0
 11
4.1140376782
 21
4.1917491525
 31
0.0
  0
LINE
  5
163
330
1F
100
AcDbEntity
  8
0
  6
HIDDEN
 62
     7
100
AcDbLine
 10
3.9565573632
 20
4.1917491525
 30
0.0
 11
4.0352975207
 21
4.1917491525
 31
0.0
  0
LINE
  5
164
330
1F
100
AcDbEntity
  8
0
  6
HIDDEN
 62
     7
100
AcDbLine
 10
4.0352975207
 20
4.1917491525
 30
0.0
 11
4.0352975207
 21
4.3492294675
 31
0.0
  0
LINE
  5
165
330
1F
100
AcDbEntity
  8
0
  6
HIDDEN
 62
     7
100
AcDbLine
 10
4.1140376782
 20
4.1917491525
 30
0.0
 11
4.1140376782
 21
4.3492294675
 31
0.0
  0
LINE
  5
166
330
1F
100
AcDbEntity
  8
0
  6
HIDDEN
 62
     7
100
AcDbLine
 10
3.9565573632
 20
4.1917491525
 30
0.0
 11
3.9565573632
 21
4.3492294675
 31
0.0
  0
CIRCLE
  5
167
330
1F
100
AcDbEntity
  8
0
  6
HIDDEN
 62
     7
100
AcDbCircle
 10
2.6179746861
 20
3.2468672628
 30
0.0
 40
0.098425196850394
  0
POLYLINE
  5
168
330
1F
100
AcDbEntity
  8
0
  6
HIDDEN
 62
     7
100
AcDb2dPolyline
 66
     1
 10
0.0
 20
0.0
 30
0.0
  0
VERTEX
  5
33E
330
168
100
AcDbEntity
  8
0
  6
HIDDEN
 62
     7
100
AcDbVertex
100
AcDb2dVertex
 10
2.6185356321
 20
3.9946936173
 30
0.0
  0
VERTEX
  5
33F
330
168
100
AcDbEntity
  8
0
  6
HIDDEN
 62
     7
100
AcDbVertex
100
AcDb2dVertex
 10
2.6185356321
 20
3.9946936173
 30
0.0
  0
SEQEND
  5
340
330
168
100
AcDbEntity
  8
0
  6
HIDDEN
 62
     7
  0
LINE
  5
169
330
1F
100
AcDbEntity
  8
0
  6
HIDDEN
 62
     7
100
AcDbLine
 10
2.3620691743
 20
3.9946936173
 30
0.0
 11
2.6185356321
 21
3.9946936173
 31
0.0
  0
LINE
  5
16A
330
1F
100
AcDbEntity
  8
0
  6
HIDDEN
 62
     7
100
AcDbLine
 10
2.8558355785
 20
3.5226629555
 30
0.0
 11
2.3620691743
 21
3.5226629555
 31
0.0
  0
LINE
  5
16B
330
1F
100
AcDbEntity
  8
0
  6
HIDDEN
 62
     7
100
AcDbLine
 10
2.3620691743
 20
3.9946936173
 30
0.0
 11
2.3423841349
 21
4.0143944489
 31
0.0
  0
ARC
  5
16C
330
1F
100
AcDbEntity
  8
0
  6
HIDDEN
 62
     7
100
AcDbCircle
 10
2.3423841349
 20
3.5618278927
 30
0.0
 40
0.5134514435695543
100
AcDbArc
 50
57.4637081763
 51
90.0
  0
LINE
  5
16D
330
1F
100
AcDbEntity
  8
0
  6
HIDDEN
 62
     7
100
AcDbLine
 10
2.3423841349
 20
3.5029621239
 30
0.0
 11
2.3620691743
 21
3.5226629555
 31
0.0
  0
POLYLINE
  5
16E
330
1F
100
AcDbEntity
  8
0
  6
HIDDEN
 62
     7
100
AcDb2dPolyline
 66
     1
 10
0.0
 20
0.0
 30
0.0
  0
VERTEX
  5
341
330
16E
100
AcDbEntity
  8
0
  6
HIDDEN
 62
     7
100
AcDbVertex
100
AcDb2dVertex
 10
2.7852975207
 20
3.2468672628
 30
0.0
  0
VERTEX
  5
342
330
16E
100
AcDbEntity
  8
0
  6
HIDDEN
 62
     7
100
AcDbVertex
100
AcDb2dVertex
 10
2.7847260284
 20
3.2606846729
 30
0.0
  0
VERTEX
  5
343
330
16E
100
AcDbEntity
  8
0
  6
HIDDEN
 62
     7
100
AcDbVertex
100
AcDb2dVertex
 10
2.7829487441
 20
3.2748045347
 30
0.0
  0
SEQEND
  5
344
330
16E
100
AcDbEntity
  8
0
  6
HIDDEN
 62
     7
  0
ARC
  5
16F
330
1F
100
AcDbEntity
  8
0
  6
HIDDEN
 62
     7
100
AcDbCircle
 10
2.6179746861
 20
3.2468672628
 30
0.0
 40
0.1673228346456695
100
AcDbArc
 50
87.9702376842
 51
186.8505872754
  0
CIRCLE
  5
170
330
1F
100
AcDbEntity
  8
0
  6
HIDDEN
 62
     7
100
AcDbCircle
 10
2.6179746861
 20
3.2468672628
 30
0.0
 40
0.0885826771653542
  0
LINE
  5
171
330
1F
100
AcDbEntity
  8
0
  6
HIDDEN
 62
     7
100
AcDbLine
 10
4.2026203554
 20
4.1523790738
 30
0.0
 11
4.2026203554
 21
4.3570237751
 31
0.0
  0
LINE
  5
172
330
1F
100
AcDbEntity
  8
0
  6
HIDDEN
 62
     7
100
AcDbLine
 10
3.8679746861
 20
4.3568444301
 30
0.0
 11
3.8679746861
 21
4.1523790738
 31
0.0
  0
LINE
  5
173
330
1F
100
AcDbEntity
  8
0
  6
HIDDEN
 62
     7
100
AcDbLine
 10
3.9368723239
 20
3.7488357667
 30
0.0
 11
3.9368723239
 21
3.1603905817
 31
0.0
  0
LINE
  5
174
330
1F
100
AcDbEntity
  8
0
  6
HIDDEN
 62
     7
100
AcDbLine
 10
4.1337227176
 20
3.160466696
 30
0.0
 11
4.1337227176
 21
3.7488357667
 31
0.0
  0
LINE
  5
175
330
1F
100
AcDbEntity
  8
0
  6
HIDDEN
 62
     7
100
AcDbLine
 10
3.9368723239
 20
4.1523790738
 30
0.0
 11
3.9368723239
 21
3.7685208061
 31
0.0
  0
LINE
  5
176
330
1F
100
AcDbEntity
  8
0
  6
HIDDEN
 62
     7
100
AcDbLine
 10
4.1337227176
 20
3.7685208061
 30
0.0
 11
4.1337227176
 21
4.1523790738
 31
0.0
  0
LINE
  5
177
330
1F
100
AcDbEntity
  8
0
  6
HIDDEN
 62
     7
100
AcDbLine
 10
4.3108880719
 20
4.0145837982
 30
0.0
 11
4.2912030325
 21
3.9948987588
 31
0.0
  0
LINE
  5
178
330
1F
100
AcDbEntity
  8
0
  6
HIDDEN
 62
     7
100
AcDbLine
 10
4.2912030325
 20
3.522457814
 30
0.0
 11
4.3108880719
 21
3.5027727746
 31
0.0
  0
LINE
  5
179
330
1F
100
AcDbEntity
  8
0
  6
HIDDEN
 62
     7
100
AcDbLine
 10
3.7777515889
 20
3.9948987588
 30
0.0
 11
3.556294896
 21
3.9948987588
 31
0.0
  0
LINE
  5
17A
330
1F
100
AcDbEntity
  8
0
  6
HIDDEN
 62
     7
100
AcDbLine
 10
3.556294896
 20
3.522457814
 30
0.0
 11
3.7777515889
 21
3.522457814
 31
0.0
  0
LINE
  5
17B
330
1F
100
AcDbEntity
  8
0
  6
HIDDEN
 62
     7
100
AcDbLine
 10
4.2912030325
 20
3.9948987588
 30
0.0
 11
3.7974366283
 21
3.9948987588
 31
0.0
  0
LINE
  5
17C
330
1F
100
AcDbEntity
  8
0
  6
HIDDEN
 62
     7
100
AcDbLine
 10
3.7974366283
 20
3.522457814
 30
0.0
 11
4.2912030325
 21
3.522457814
 31
0.0
  0
LINE
  5
17D
330
1F
100
AcDbEntity
  8
0
  6
HIDDEN
 62
     7
100
AcDbLine
 10
3.0969773107
 20
3.522457814
 30
0.0
 11
3.556294896
 21
3.522457814
 31
0.0
  0
LINE
  5
17E
330
1F
100
AcDbEntity
  8
0
  6
HIDDEN
 62
     7
100
AcDbLine
 10
3.556294896
 20
3.9948987588
 30
0.0
 11
3.0969773107
 21
3.9948987588
 31
0.0
  0
POLYLINE
  5
17F
330
1F
100
AcDbEntity
  8
0
  6
HIDDEN
 62
     7
100
AcDb2dPolyline
 66
     1
 10
0.0
 20
0.0
 30
0.0
  0
VERTEX
  5
345
330
17F
100
AcDbEntity
  8
0
  6
HIDDEN
 62
     7
100
AcDbVertex
100
AcDb2dVertex
 10
3.8687112586
 20
4.3431228441
 30
0.0
  0
VERTEX
  5
346
330
17F
100
AcDbEntity
  8
0
  6
HIDDEN
 62
     7
100
AcDbVertex
100
AcDb2dVertex
 10
3.8681638073
 20
4.3413071281
 30
0.0
  0
VERTEX
  5
347
330
17F
100
AcDbEntity
  8
0
  6
HIDDEN
 62
     7
100
AcDbVertex
100
AcDb2dVertex
 10
3.8679746861
 20
4.3393869478
 30
0.0
  0
SEQEND
  5
348
330
17F
100
AcDbEntity
  8
0
  6
HIDDEN
 62
     7
  0
ARC
  5
180
330
1F
100
AcDbEntity
  8
0
  6
HIDDEN
 62
     7
100
AcDbCircle
 10
4.1927778357
 20
4.3393869478
 30
0.0
 40
0.0098425196850398
100
AcDbArc
 50
0.0
 51
26.0340791855
  0
LINE
  5
181
330
1F
100
AcDbEntity
  8
0
  6
HIDDEN
 62
     7
100
AcDbLine
 10
4.2026203554
 20
4.1523790738
 30
0.0
 11
4.2026203554
 21
4.3393869478
 31
0.0
  0
LINE
  5
182
330
1F
100
AcDbEntity
  8
0
  6
HIDDEN
 62
     7
100
AcDbLine
 10
3.8679746861
 20
4.3393869478
 30
0.0
 11
3.8679746861
 21
4.1523790738
 31
0.0
  0
LINE
  5
183
330
1F
100
AcDbEntity
  8
0
  6
HIDDEN
 62
     7
100
AcDbLine
 10
4.1337227176
 20
3.2567097825
 30
0.0
 11
4.1337227176
 21
3.7488357667
 31
0.0
  0
LINE
  5
184
330
1F
100
AcDbEntity
  8
0
  6
HIDDEN
 62
     7
100
AcDbLine
 10
4.1337227176
 20
3.7685208061
 30
0.0
 11
4.1337227176
 21
4.1523790738
 31
0.0
  0
LINE
  5
185
330
1F
100
AcDbEntity
  8
0
  6
HIDDEN
 62
     7
100
AcDbLine
 10
3.9368723239
 20
4.1523790738
 30
0.0
 11
3.9368723239
 21
3.7685208061
 31
0.0
  0
LINE
  5
186
330
1F
100
AcDbEntity
  8
0
  6
HIDDEN
 62
     7
100
AcDbLine
 10
3.9368723239
 20
3.7488357667
 30
0.0
 11
3.9368723239
 21
3.2567097825
 31
0.0
  0
ARC
  5
187
330
1F
100
AcDbEntity
  8
0
  6
HIDDEN
 62
     7
100
AcDbCircle
 10
4.1238801979
 20
3.2567097825
 30
0.0
 40
0.0098425196850394
100
AcDbArc
 50
270.0
 51
0.0
  0
ARC
  5
188
330
1F
100
AcDbEntity
  8
0
  6
HIDDEN
 62
     7
100
AcDbCircle
 10
3.9467148435
 20
3.2567097825
 30
0.0
 40
0.0098425196850394
100
AcDbArc
 50
180.0
 51
270.0
  0
LINE
  5
189
330
1F
100
AcDbEntity
  8
0
  6
HIDDEN
 62
     7
100
AcDbLine
 10
2.8558355785
 20
3.9948987588
 30
0.0
 11
2.6185356321
 21
3.9948987588
 31
0.0
  0
LINE
  5
18A
330
1F
100
AcDbEntity
  8
0
  6
HIDDEN
 62
     7
100
AcDbLine
 10
2.8755206178
 20
3.522457814
 30
0.0
 11
3.0969773107
 21
3.522457814
 31
0.0
  0
LINE
  5
18B
330
1F
100
AcDbEntity
  8
0
  6
HIDDEN
 62
     7
100
AcDbLine
 10
3.0969773107
 20
3.9948987588
 30
0.0
 11
2.8755206178
 21
3.9948987588
 31
0.0
  0
LINE
  5
18C
330
1F
100
AcDbEntity
  8
0
  6
HIDDEN
 62
     7
100
AcDbLine
 10
3.8679746861
 20
4.3393869478
 30
0.0
 11
4.202556824
 21
4.3393869478
 31
0.0
  0
LINE
  5
18D
330
1F
100
AcDbEntity
  8
0
  6
HIDDEN
 62
     7
100
AcDbLine
 10
4.0352975207
 20
3.2567097825
 30
0.0
 11
3.9369379884
 21
3.2567097825
 31
0.0
  0
LINE
  5
18E
330
1F
100
AcDbEntity
  8
0
  6
HIDDEN
 62
     7
100
AcDbLine
 10
4.0352975207
 20
3.2567097825
 30
0.0
 11
4.133657053
 21
3.2567097825
 31
0.0
  0
LINE
  5
18F
330
1F
100
AcDbEntity
  8
0
  6
CONTINUOUS
 62
     7
100
AcDbLine
 10
7.5717507481
 20
4.3393869478
 30
0.0
 11
7.5717507481
 21
4.157148414
 31
0.0
  0
ARC
  5
190
330
1F
100
AcDbEntity
  8
0
  6
CONTINUOUS
 62
     7
100
AcDbCircle
 10
7.5815932677
 20
4.3393869478
 30
0.0
 40
0.0098425196850398
100
AcDbArc
 50
90.0
 51
180.0
  0
LINE
  5
191
330
1F
100
AcDbEntity
  8
0
  6
CONTINUOUS
 62
     7
100
AcDbLine
 10
7.8374987796
 20
3.7488357667
 30
0.0
 11
7.8374987796
 21
3.7685208061
 31
0.0
  0
LINE
  5
192
330
1F
100
AcDbEntity
  8
0
  6
CONTINUOUS
 62
     7
100
AcDbLine
 10
7.6406483859
 20
3.7685208061
 30
0.0
 11
7.6406483859
 21
3.7488357667
 31
0.0
  0
LINE
  5
193
330
1F
100
AcDbEntity
  8
0
  6
CONTINUOUS
 62
     7
100
AcDbLine
 10
7.6406483859
 20
3.2610710163
 30
0.0
 11
7.6406483859
 21
3.2567097825
 31
0.0
  0
ARC
  5
194
330
1F
100
AcDbEntity
  8
0
  6
CONTINUOUS
 62
     7
100
AcDbCircle
 10
7.6504909055
 20
3.2567097825
 30
0.0
 40
0.0098425196850398
100
AcDbArc
 50
180.0
 51
270.0
  0
LINE
  5
195
330
1F
100
AcDbEntity
  8
0
  6
CONTINUOUS
 62
     7
100
AcDbLine
 10
7.6701759449
 20
3.0795444281
 30
0.0
 11
7.8524144788
 21
3.0795444281
 31
0.0
  0
ARC
  5
196
330
1F
100
AcDbEntity
  8
0
  6
CONTINUOUS
 62
     7
100
AcDbCircle
 10
7.6701759449
 20
3.0893869478
 30
0.0
 40
0.0098425196850394
100
AcDbArc
 50
180.0
 51
270.0
  0
LINE
  5
197
330
1F
100
AcDbEntity
  8
0
  6
CONTINUOUS
 62
     7
100
AcDbLine
 10
8.7484918764
 20
3.1484420659
 30
0.0
 11
8.7528531103
 21
3.1484420659
 31
0.0
  0
ARC
  5
198
330
1F
100
AcDbEntity
  8
0
  6
CONTINUOUS
 62
     7
100
AcDbCircle
 10
8.7528531103
 20
3.1582845856
 30
0.0
 40
0.0098425196850394
100
AcDbArc
 50
270.0
 51
0.0
  0
ARC
  5
199
330
1F
100
AcDbEntity
  8
0
  6
CONTINUOUS
 62
     7
100
AcDbCircle
 10
8.2508846063
 20
3.7586782864
 30
0.0
 40
0.2559055118110248
100
AcDbArc
 50
182.204227504
 51
357.795772496
  0
LINE
  5
19A
330
1F
100
AcDbEntity
  8
0
  6
CONTINUOUS
 62
     7
100
AcDbLine
 10
8.5066007689
 20
3.7488357667
 30
0.0
 11
8.5674856562
 21
3.7488357667
 31
0.0
  0
LINE
  5
19B
330
1F
100
AcDbEntity
  8
0
  6
CONTINUOUS
 62
     7
100
AcDbLine
 10
8.5674856562
 20
3.7488357667
 30
0.0
 11
8.5674856562
 21
3.7685208061
 31
0.0
  0
LINE
  5
19C
330
1F
100
AcDbEntity
  8
0
  6
CONTINUOUS
 62
     7
100
AcDbLine
 10
8.5066007689
 20
3.7685208061
 30
0.0
 11
8.5674856562
 21
3.7685208061
 31
0.0
  0
ARC
  5
19D
330
1F
100
AcDbEntity
  8
0
  6
CONTINUOUS
 62
     7
100
AcDbCircle
 10
8.2508846063
 20
3.7586782864
 30
0.0
 40
0.2559055118110248
100
AcDbArc
 50
2.204227504
 51
177.795772496
  0
LINE
  5
19E
330
1F
100
AcDbEntity
  8
0
  6
CONTINUOUS
 62
     7
100
AcDbLine
 10
7.4832311666
 20
3.7685208061
 30
0.0
 11
7.9951684438
 21
3.7685208061
 31
0.0
  0
ARC
  5
19F
330
1F
100
AcDbEntity
  8
0
  6
CONTINUOUS
 62
     7
100
AcDbCircle
 10
8.2508846063
 20
3.7586782864
 30
0.0
 40
0.7677165354330701
100
AcDbArc
 50
180.7345814001
 51
179.2654185999
  0
LINE
  5
1A0
330
1F
100
AcDbEntity
  8
0
  6
CONTINUOUS
 62
     7
100
AcDbLine
 10
7.4832311666
 20
3.7488357667
 30
0.0
 11
7.9951684438
 21
3.7488357667
 31
0.0
  0
LINE
  5
1A1
330
1F
100
AcDbEntity
  8
0
  6
CONTINUOUS
 62
     7
100
AcDbLine
 10
7.4635445497
 20
3.7685208061
 30
0.0
 11
7.4832311666
 21
3.7685208061
 31
0.0
  0
ARC
  5
1A2
330
1F
100
AcDbEntity
  8
0
  6
CONTINUOUS
 62
     7
100
AcDbCircle
 10
8.2508846063
 20
3.7586782864
 30
0.0
 40
0.7874015748031487
100
AcDbArc
 50
180.7162158962
 51
179.2837841038
  0
LINE
  5
1A3
330
1F
100
AcDbEntity
  8
0
  6
CONTINUOUS
 62
     7
100
AcDbLine
 10
7.4635445497
 20
3.7488357667
 30
0.0
 11
7.4832311666
 21
3.7488357667
 31
0.0
  0
SPLINE
  5
1A4
330
1F
100
AcDbEntity
  8
0
  6
CONTINUOUS
 62
     7
100
AcDbSpline
210
0.0
220
0.0
230
1.0
 70
     8
 71
     3
 72
     8
 73
     4
 74
     0
 42
0.00000001
 43
0.00000001
 40
0.0
 40
0.0
 40
0.0
 40
0.0
 40
1.0
 40
1.0
 40
1.0
 40
1.0
 10
8.486899937195679
 20
3.748835766707008
 30
0.0
 10
8.487173578159009
 20
3.755397446497034
 30
0.0
 10
8.487173578159009
 20
3.76195912628706
 30
0.0
 10
8.486899937195679
 20
3.768520806077087
 30
0.0
  0
ARC
  5
1A5
330
1F
100
AcDbEntity
  8
0
  6
CONTINUOUS
 62
     7
100
AcDbCircle
 10
8.2508846063
 20
3.7586782864
 30
0.0
 40
0.2362204724409452
100
AcDbArc
 50
2.3880154633
 51
177.6119845367
  0
LINE
  5
1A6
330
1F
100
AcDbEntity
  8
0
  6
CONTINUOUS
 62
     7
100
AcDbLine
 10
7.9951684438
 20
3.7685208061
 30
0.0
 11
8.0148692755
 21
3.7685208061
 31
0.0
  0
LINE
  5
1A7
330
1F
100
AcDbEntity
  8
0
  6
CONTINUOUS
 62
     7
100
AcDbLine
 10
8.4868999372
 20
3.7685208061
 30
0.0
 11
8.5066007689
 21
3.7685208061
 31
0.0
  0
ARC
  5
1A8
330
1F
100
AcDbEntity
  8
0
  6
CONTINUOUS
 62
     7
100
AcDbCircle
 10
8.2508846063
 20
3.7586782864
 30
0.0
 40
0.2362204724409452
100
AcDbArc
 50
182.3880154633
 51
357.6119845367
  0
LINE
  5
1A9
330
1F
100
AcDbEntity
  8
0
  6
CONTINUOUS
 62
     7
100
AcDbLine
 10
7.9951684438
 20
3.7488357667
 30
0.0
 11
8.0148692755
 21
3.7488357667
 31
0.0
  0
LINE
  5
1AA
330
1F
100
AcDbEntity
  8
0
  6
CONTINUOUS
 62
     7
100
AcDbLine
 10
8.4868999372
 20
3.7488357667
 30
0.0
 11
8.5066007689
 21
3.7488357667
 31
0.0
  0
LINE
  5
1AB
330
1F
100
AcDbEntity
  8
0
  6
CONTINUOUS
 62
     7
100
AcDbLine
 10
8.0148692755
 20
3.7488357667
 30
0.0
 11
8.0148692755
 21
3.7685208061
 31
0.0
  0
LINE
  5
1AC
330
1F
100
AcDbEntity
  8
0
  6
CONTINUOUS
 62
     7
100
AcDbLine
 10
7.4635445497
 20
3.7685208061
 30
0.0
 11
7.4635445497
 21
3.7488357667
 31
0.0
  0
LINE
  5
1AD
330
1F
100
AcDbEntity
  8
0
  6
CONTINUOUS
 62
     7
100
AcDbLine
 10
7.5815932677
 20
4.3492294675
 30
0.0
 11
7.7300674191
 21
4.3492294675
 31
0.0
  0
LINE
  5
1AE
330
1F
100
AcDbEntity
  8
0
  6
CONTINUOUS
 62
     7
100
AcDbLine
 10
7.6525112145
 20
3.2468672628
 30
0.0
 11
7.6504909064
 21
3.2468672628
 31
0.0
  0
LINE
  5
1AF
330
1F
100
AcDbEntity
  8
0
  6
CONTINUOUS
 62
     7
100
AcDbLine
 10
7.6603334252
 20
3.2378610992
 30
0.0
 11
7.6603334252
 21
3.0893869478
 31
0.0
  0
LINE
  5
1B0
330
1F
100
AcDbEntity
  8
0
  6
CONTINUOUS
 62
     7
100
AcDbLine
 10
8.7626956299
 20
3.1582845865
 30
0.0
 11
8.7626956299
 21
3.1603048945
 31
0.0
  0
LINE
  5
1B1
330
1F
100
AcDbEntity
  8
0
  6
CONTINUOUS
 62
     8
100
AcDbLine
 10
7.7191152103
 20
4.3393869478
 30
0.0
 11
7.5717507481
 21
4.3393869478
 31
0.0
  0
LINE
  5
1B2
330
1F
100
AcDbEntity
  8
0
  6
CONTINUOUS
 62
     8
100
AcDbLine
 10
7.6406483859
 20
3.2567097825
 30
0.0
 11
7.6442307832
 21
3.2567097825
 31
0.0
  0
LINE
  5
1B3
330
1F
100
AcDbEntity
  8
0
  6
CONTINUOUS
 62
     8
100
AcDbLine
 10
7.6701759449
 20
3.0795444281
 30
0.0
 11
7.6701759449
 21
3.2269088904
 31
0.0
  0
LINE
  5
1B4
330
1F
100
AcDbEntity
  8
0
  6
CONTINUOUS
 62
     8
100
AcDbLine
 10
8.7528531103
 20
3.1520244633
 30
0.0
 11
8.7528531103
 21
3.1484420659
 31
0.0
  0
LINE
  5
1B5
330
1F
100
AcDbEntity
  8
0
  6
HIDDEN
 62
     7
100
AcDbLine
 10
7.5717507481
 20
4.1523790738
 30
0.0
 11
7.9063964173
 21
4.1523790738
 31
0.0
  0
LINE
  5
1B6
330
1F
100
AcDbEntity
  8
0
  6
HIDDEN
 62
     7
100
AcDbLine
 10
8.4871050788
 20
3.0075450569
 30
0.0
 11
8.4871050788
 21
3.7478420025
 31
0.0
  0
LINE
  5
1B7
330
1F
100
AcDbEntity
  8
0
  6
HIDDEN
 62
     7
100
AcDbLine
 10
8.4871050788
 20
3.7695145703
 30
0.0
 11
8.4871050788
 21
4.5098115159
 31
0.0
  0
POLYLINE
  5
1B8
330
1F
100
AcDbEntity
  8
0
  6
HIDDEN
 62
     7
100
AcDb2dPolyline
 66
     1
 10
0.0
 20
0.0
 30
0.0
  0
VERTEX
  5
349
330
1B8
100
AcDbEntity
  8
0
  6
HIDDEN
 62
     7
100
AcDbVertex
100
AcDb2dVertex
 10
8.4868999372
 20
3.7685208061
 30
0.0
  0
VERTEX
  5
34A
330
1B8
100
AcDbEntity
  8
0
  6
HIDDEN
 62
     7
100
AcDbVertex
100
AcDb2dVertex
 10
8.4871050788
 20
3.7586782864
 30
0.0
  0
VERTEX
  5
34B
330
1B8
100
AcDbEntity
  8
0
  6
HIDDEN
 62
     7
100
AcDbVertex
100
AcDb2dVertex
 10
8.4868999372
 20
3.7488357667
 30
0.0
  0
SEQEND
  5
34C
330
1B8
100
AcDbEntity
  8
0
  6
HIDDEN
 62
     7
  0
SPLINE
  5
1B9
330
1F
100
AcDbEntity
  8
0
  6
HIDDEN
 62
     7
100
AcDbSpline
210
0.0
220
0.0
230
1.0
 70
    24
 71
     3
 72
     8
 73
     4
 74
     0
 42
0.00000001
 43
0.00000001
 40
0.0
 40
0.0
 40
0.0
 40
0.0
 40
0.000765645677896
 40
0.000765645677896
 40
0.000765645677896
 40
0.000765645677896
 10
7.857183818922415
 20
4.417759744769339
 30
0.0
 10
7.857183818922415
 20
4.425383537214684
 30
0.0
 10
7.857183818922415
 20
4.432992597373029
 30
0.0
 10
7.857183818922415
 20
4.440588053151448
 30
0.0
  0
SPLINE
  5
1BA
330
1F
100
AcDbEntity
  8
0
  6
HIDDEN
 62
     7
100
AcDbSpline
210
0.0
220
0.0
230
1.0
 70
    24
 71
     3
 72
     8
 73
     4
 74
     0
 42
0.00000001
 43
0.00000001
 40
0.0
 40
0.0
 40
0.0
 40
0.0
 40
0.000765645677896
 40
0.000765645677896
 40
0.000765645677896
 40
0.000765645677896
 10
7.857183818922416
 20
3.076768519632647
 30
0.0
 10
7.857183818922416
 20
3.084363975411065
 30
0.0
 10
7.857183818922415
 20
3.09197303556941
 30
0.0
 10
7.857183818922415
 20
3.099596828014755
 30
0.0
  0
LINE
  5
1BB
330
1F
100
AcDbEntity
  8
0
  6
HIDDEN
 62
     7
100
AcDbLine
 10
8.6445853937
 20
3.0767685196
 30
0.0
 11
8.6445853937
 21
4.4405880532
 31
0.0
  0
POLYLINE
  5
1BC
330
1F
100
AcDbEntity
  8
0
  6
HIDDEN
 62
     7
100
AcDb2dPolyline
 66
     1
 10
0.0
 20
0.0
 30
0.0
  0
VERTEX
  5
34D
330
1BC
100
AcDbEntity
  8
0
  6
HIDDEN
 62
     7
100
AcDbVertex
100
AcDb2dVertex
 10
7.4832311666
 20
3.7488357667
 30
0.0
  0
VERTEX
  5
34E
330
1BC
100
AcDbEntity
  8
0
  6
HIDDEN
 62
     7
100
AcDbVertex
100
AcDb2dVertex
 10
7.4831680709
 20
3.7586782864
 30
0.0
  0
VERTEX
  5
34F
330
1BC
100
AcDbEntity
  8
0
  6
HIDDEN
 62
     7
100
AcDbVertex
100
AcDb2dVertex
 10
7.4832311666
 20
3.7685208061
 30
0.0
  0
SEQEND
  5
350
330
1BC
100
AcDbEntity
  8
0
  6
HIDDEN
 62
     7
  0
LINE
  5
1BD
330
1F
100
AcDbEntity
  8
0
  6
HIDDEN
 62
     7
100
AcDbLine
 10
7.8571838189
 20
3.099596828
 30
0.0
 11
7.8571838189
 21
4.4177597448
 31
0.0
  0
SPLINE
  5
1BE
330
1F
100
AcDbEntity
  8
0
  6
HIDDEN
 62
     7
100
AcDbSpline
210
0.0
220
0.0
230
1.0
 70
    24
 71
     3
 72
     8
 73
     4
 74
     0
 42
0.00000001
 43
0.00000001
 40
0.0
 40
0.0
 40
0.0
 40
0.0
 40
0.0005415208961897
 40
0.0005415208961897
 40
0.0005415208961897
 40
0.0005415208961897
 10
8.661305110249312
 20
4.430657638723772
 30
0.0
 10
8.655745893505927
 20
4.429168051086832
 30
0.0
 10
8.650172882242279
 20
4.427674767219329
 30
0.0
 10
8.644585393725565
 20
4.426177604183557
 30
0.0
  0
SPLINE
  5
1BF
330
1F
100
AcDbEntity
  8
0
  6
HIDDEN
 62
     7
100
AcDbSpline
210
0.0
220
0.0
230
1.0
 70
    24
 71
     3
 72
     8
 73
     4
 74
     0
 42
0.00000001
 43
0.00000001
 40
0.0
 40
0.0
 40
0.0
 40
0.0
 40
0.0006196767744117
 40
0.0006196767744117
 40
0.0006196767744117
 40
0.0006196767744117
 10
8.644585393725565
 20
3.096453559002726
 30
0.0
 10
8.648714702741337
 20
3.092324249986955
 30
0.0
 10
8.652842587485365
 20
3.088196365242926
 30
0.0
 10
8.656969139432158
 20
3.084069813296133
 30
0.0
  0
LINE
  5
1C0
330
1F
100
AcDbEntity
  8
0
  6
HIDDEN
 62
     7
100
AcDbLine
 10
8.6445853937
 20
3.099596828
 30
0.0
 11
8.6445853937
 21
4.4177597448
 31
0.0
  0
POLYLINE
  5
1C1
330
1F
100
AcDbEntity
  8
0
  6
HIDDEN
 62
     7
100
AcDb2dPolyline
 66
     1
 10
0.0
 20
0.0
 30
0.0
  0
VERTEX
  5
351
330
1C1
100
AcDbEntity
  8
0
  6
HIDDEN
 62
     7
100
AcDbVertex
100
AcDb2dVertex
 10
7.4832311666
 20
3.7685208061
 30
0.0
  0
VERTEX
  5
352
330
1C1
100
AcDbEntity
  8
0
  6
HIDDEN
 62
     7
100
AcDbVertex
100
AcDb2dVertex
 10
7.4831680709
 20
3.7586782864
 30
0.0
  0
VERTEX
  5
353
330
1C1
100
AcDbEntity
  8
0
  6
HIDDEN
 62
     7
100
AcDbVertex
100
AcDb2dVertex
 10
7.4832311666
 20
3.7488357667
 30
0.0
  0
SEQEND
  5
354
330
1C1
100
AcDbEntity
  8
0
  6
HIDDEN
 62
     7
  0
SPLINE
  5
1C2
330
1F
100
AcDbEntity
  8
0
  6
HIDDEN
 62
     7
100
AcDbSpline
210
0.0
220
0.0
230
1.0
 70
    24
 71
     3
 72
     8
 73
     4
 74
     0
 42
0.00000001
 43
0.00000001
 40
0.0
 40
0.0
 40
0.0
 40
0.0
 40
0.0005415208961898
 40
0.0005415208961898
 40
0.0005415208961898
 40
0.0005415208961898
 10
7.840464102398668
 20
3.086698934060322
 30
0.0
 10
7.846023319142053
 20
3.088188521697262
 30
0.0
 10
7.851596330405702
 20
3.089681805564766
 30
0.0
 10
7.857183818922416
 20
3.091178968600538
 30
0.0
  0
SPLINE
  5
1C3
330
1F
100
AcDbEntity
  8
0
  6
HIDDEN
 62
     7
100
AcDbSpline
210
0.0
220
0.0
230
1.0
 70
    24
 71
     3
 72
     8
 73
     4
 74
     0
 42
0.00000001
 43
0.00000001
 40
0.0
 40
0.0
 40
0.0
 40
0.0
 40
0.0006196767744117
 40
0.0006196767744117
 40
0.0006196767744117
 40
0.0006196767744117
 10
7.844800073215822
 20
4.433286759487962
 30
0.0
 10
7.848926625162616
 20
4.429160207541169
 30
0.0
 10
7.853054509906643
 20
4.425032322797139
 30
0.0
 10
7.857183818922415
 20
4.420903013781368
 30
0.0
  0
SPLINE
  5
1C4
330
1F
100
AcDbEntity
  8
0
  6
HIDDEN
 62
     7
100
AcDbSpline
210
0.0
220
0.0
230
1.0
 70
    24
 71
     3
 72
     8
 73
     4
 74
     0
 42
0.00000001
 43
0.00000001
 40
0.0
 40
0.0
 40
0.0
 40
0.0
 40
0.0005415208961897
 40
0.0005415208961897
 40
0.0005415208961897
 40
0.0005415208961897
 10
8.9183839241155
 20
4.152379073793624
 30
0.0
 10
8.91988108715127
 20
4.157966562310338
 30
0.0
 10
8.921374371018775
 20
4.163539573573986
 30
0.0
 10
8.922863958655713
 20
4.169098790317371
 30
0.0
  0
SPLINE
  5
1C5
330
1F
100
AcDbEntity
  8
0
  6
HIDDEN
 62
     7
100
AcDbSpline
210
0.0
220
0.0
230
1.0
 70
    24
 71
     3
 72
     8
 73
     4
 74
     0
 42
0.00000001
 43
0.00000001
 40
0.0
 40
0.0
 40
0.0
 40
0.0
 40
0.0006196767744117
 40
0.0006196767744117
 40
0.0006196767744117
 40
0.0006196767744117
 10
8.925493079419907
 20
3.352593753283882
 30
0.0
 10
8.921366527473113
 20
3.356720305230675
 30
0.0
 10
8.917238642729084
 20
3.360848189974704
 30
0.0
 10
8.913109333713313
 20
3.364977498990475
 30
0.0
  0
SPLINE
  5
1C6
330
1F
100
AcDbEntity
  8
0
  6
HIDDEN
 62
     7
100
AcDbSpline
210
0.0
220
0.0
230
1.0
 70
    24
 71
     3
 72
     8
 73
     4
 74
     0
 42
0.00000001
 43
0.00000001
 40
0.0
 40
0.0
 40
0.0
 40
0.0
 40
0.0005415208961898
 40
0.0005415208961898
 40
0.0005415208961898
 40
0.0005415208961898
 10
7.583385288532482
 20
3.36497749899047
 30
0.0
 10
7.58188812549671
 20
3.359390010473756
 30
0.0
 10
7.580394841629206
 20
3.353816999210108
 30
0.0
 10
7.578905253992267
 20
3.348257782466722
 30
0.0
  0
SPLINE
  5
1C7
330
1F
100
AcDbEntity
  8
0
  6
HIDDEN
 62
     7
100
AcDbSpline
210
0.0
220
0.0
230
1.0
 70
    24
 71
     3
 72
     8
 73
     4
 74
     0
 42
0.00000001
 43
0.00000001
 40
0.0
 40
0.0
 40
0.0
 40
0.0
 40
0.0006196767744117
 40
0.0006196767744117
 40
0.0006196767744117
 40
0.0006196767744117
 10
7.588659878934666
 20
4.15237907379362
 30
0.0
 10
7.584530569918895
 20
4.156508382809391
 30
0.0
 10
7.580402685174866
 20
4.16063626755342
 30
0.0
 10
7.576276133228074
 20
4.164762819500212
 30
0.0
  0
SPLINE
  5
1C8
330
1F
100
AcDbEntity
  8
0
  6
HIDDEN
 62
     7
100
AcDbSpline
210
0.0
220
0.0
230
1.0
 70
    24
 71
     3
 72
     8
 73
     4
 74
     0
 42
0.00000001
 43
0.00000001
 40
0.0
 40
0.0
 40
0.0
 40
0.0
 40
0.0002819965571226
 40
0.0002819965571226
 40
0.0002819965571226
 40
0.0002819965571226
 10
8.9183839241155
 20
4.152379073793624
 30
0.0
 10
8.915579933336959
 20
4.152379073793624
 30
0.0
 10
8.912773999603639
 20
4.152379073793624
 30
0.0
 10
8.90996606470128
 20
4.152379073793624
 30
0.0
  0
SPLINE
  5
1C9
330
1F
100
AcDbEntity
  8
0
  6
HIDDEN
 62
     7
100
AcDbSpline
210
0.0
220
0.0
230
1.0
 70
    24
 71
     3
 72
     8
 73
     4
 74
     0
 42
0.00000001
 43
0.00000001
 40
0.0
 40
0.0
 40
0.0
 40
0.0
 40
0.0002819965571225
 40
0.0002819965571225
 40
0.0002819965571225
 40
0.0002819965571225
 10
7.583385288532482
 20
3.36497749899047
 30
0.0
 10
7.586189279311021
 20
3.36497749899047
 30
0.0
 10
7.588995213044341
 20
3.36497749899047
 30
0.0
 10
7.5918031479467
 20
3.36497749899047
 30
0.0
  0
SPLINE
  5
1CA
330
1F
100
AcDbEntity
  8
0
  6
HIDDEN
 62
     7
100
AcDbSpline
210
0.0
220
0.0
230
1.0
 70
    24
 71
     3
 72
     8
 73
     4
 74
     0
 42
0.00000001
 43
0.00000001
 40
0.0
 40
0.0
 40
0.0
 40
0.0
 40
0.0001052524529271
 40
0.0001052524529271
 40
0.0001052524529271
 40
0.0001052524529271
 10
8.909966064701283
 20
3.364977498990475
 30
0.0
 10
8.911014098901234
 20
3.364977498990475
 30
0.0
 10
8.912061854217457
 20
3.364977498990475
 30
0.0
 10
8.913109333713313
 20
3.364977498990475
 30
0.0
  0
LINE
  5
1CB
330
1F
100
AcDbEntity
  8
0
  6
HIDDEN
 62
     7
100
AcDbLine
 10
8.9099660647
 20
3.364977499
 30
0.0
 11
7.5918031479
 21
3.364977499
 31
0.0
  0
LINE
  5
1CC
330
1F
100
AcDbEntity
  8
0
  6
HIDDEN
 62
     7
100
AcDbLine
 10
7.9063964173
 20
4.1523790738
 30
0.0
 11
8.9099660647
 21
4.1523790738
 31
0.0
  0
LINE
  5
1CD
330
1F
100
AcDbEntity
  8
0
  6
HIDDEN
 62
     7
100
AcDbLine
 10
7.7300674191
 20
4.3492294675
 30
0.0
 11
7.896553897
 21
4.3492294675
 31
0.0
  0
LINE
  5
1CE
330
1F
100
AcDbEntity
  8
0
  6
HIDDEN
 62
     7
100
AcDbLine
 10
7.8276562599
 20
3.2468672628
 30
0.0
 11
7.6525112145
 21
3.2468672628
 31
0.0
  0
LINE
  5
1CF
330
1F
100
AcDbEntity
  8
0
  6
HIDDEN
 62
     7
100
AcDbLine
 10
7.7845342338
 20
4.1917491525
 30
0.0
 11
7.8299948849
 21
4.1917491525
 31
0.0
  0
LINE
  5
1D0
330
1F
100
AcDbEntity
  8
0
  6
HIDDEN
 62
     7
100
AcDbLine
 10
7.6936129316
 20
4.1917491525
 30
0.0
 11
7.7845342338
 21
4.1917491525
 31
0.0
  0
LINE
  5
1D1
330
1F
100
AcDbEntity
  8
0
  6
HIDDEN
 62
     7
100
AcDbLine
 10
7.7845342338
 20
4.1917491525
 30
0.0
 11
7.7845342338
 21
4.3492294675
 31
0.0
  0
LINE
  5
1D2
330
1F
100
AcDbEntity
  8
0
  6
HIDDEN
 62
     7
100
AcDbLine
 10
7.6936129316
 20
4.1917491525
 30
0.0
 11
7.6936129316
 21
4.3492294675
 31
0.0
  0
LINE
  5
1D3
330
1F
100
AcDbEntity
  8
0
  6
HIDDEN
 62
     7
100
AcDbLine
 10
7.6481522805
 20
4.1917491525
 30
0.0
 11
7.6936129316
 21
4.1917491525
 31
0.0
  0
LINE
  5
1D4
330
1F
100
AcDbEntity
  8
0
  6
HIDDEN
 62
     7
100
AcDbLine
 10
7.8299948849
 20
4.1917491525
 30
0.0
 11
7.8299948849
 21
4.3492294675
 31
0.0
  0
LINE
  5
1D5
330
1F
100
AcDbEntity
  8
0
  6
HIDDEN
 62
     7
100
AcDbLine
 10
7.6481522805
 20
4.1917491525
 30
0.0
 11
7.6481522805
 21
4.3492294675
 31
0.0
  0
LINE
  5
1D6
330
1F
100
AcDbEntity
  8
0
  6
HIDDEN
 62
     7
100
AcDbLine
 10
8.9327943731
 20
4.1523790738
 30
0.0
 11
8.9184590819
 21
4.1523790738
 31
0.0
  0
LINE
  5
1D7
330
1F
100
AcDbEntity
  8
0
  6
HIDDEN
 62
     7
100
AcDbLine
 10
8.9131766482
 20
3.364977499
 30
0.0
 11
8.9327943731
 21
3.364977499
 31
0.0
  0
LINE
  5
1D8
330
1F
100
AcDbEntity
  8
0
  6
HIDDEN
 62
     7
100
AcDbLine
 10
7.5689748396
 20
3.364977499
 30
0.0
 11
7.5833101307
 21
3.364977499
 31
0.0
  0
LINE
  5
1D9
330
1F
100
AcDbEntity
  8
0
  6
HIDDEN
 62
     7
100
AcDbLine
 10
7.5706703898
 20
4.1523790738
 30
0.0
 11
7.5689748396
 21
4.1523790738
 31
0.0
  0
LINE
  5
1DA
330
1F
100
AcDbEntity
  8
0
  6
HIDDEN
 62
     7
100
AcDbLine
 10
9.0020178358
 20
3.9948987588
 30
0.0
 11
8.2508846063
 21
3.9948987588
 31
0.0
  0
LINE
  5
1DB
330
1F
100
AcDbEntity
  8
0
  6
HIDDEN
 62
     7
100
AcDbLine
 10
8.2508846063
 20
3.9948987588
 30
0.0
 11
7.4997513769
 21
3.9948987588
 31
0.0
  0
LINE
  5
1DC
330
1F
100
AcDbEntity
  8
0
  6
HIDDEN
 62
     7
100
AcDbLine
 10
8.260727126
 20
2.9713382297
 30
0.0
 11
8.260727126
 21
3.5226629555
 31
0.0
  0
LINE
  5
1DD
330
1F
100
AcDbEntity
  8
0
  6
HIDDEN
 62
     7
100
AcDbLine
 10
8.2410420866
 20
2.9713382297
 30
0.0
 11
8.2410420866
 21
3.5226629555
 31
0.0
  0
LINE
  5
1DE
330
1F
100
AcDbEntity
  8
0
  6
HIDDEN
 62
     7
100
AcDbLine
 10
8.260727126
 20
4.0752793363
 30
0.0
 11
8.2410420866
 21
4.0752793363
 31
0.0
  0
LINE
  5
1DF
330
1F
100
AcDbEntity
  8
0
  6
HIDDEN
 62
     7
100
AcDbLine
 10
8.2410420866
 20
4.0752793363
 30
0.0
 11
8.2410420866
 21
3.9946936173
 31
0.0
  0
LINE
  5
1E0
330
1F
100
AcDbEntity
  8
0
  6
HIDDEN
 62
     7
100
AcDbLine
 10
8.260727126
 20
4.0752793363
 30
0.0
 11
8.260727126
 21
3.9946936173
 31
0.0
  0
POLYLINE
  5
1E1
330
1F
100
AcDbEntity
  8
0
  6
HIDDEN
 62
     7
100
AcDb2dPolyline
 66
     1
 10
0.0
 20
0.0
 30
0.0
  0
VERTEX
  5
355
330
1E1
100
AcDbEntity
  8
0
  6
HIDDEN
 62
     7
100
AcDbVertex
100
AcDb2dVertex
 10
7.9951684438
 20
3.7488357667
 30
0.0
  0
VERTEX
  5
356
330
1E1
100
AcDbEntity
  8
0
  6
HIDDEN
 62
     7
100
AcDbVertex
100
AcDb2dVertex
 10
7.9949790945
 20
3.7586782864
 30
0.0
  0
VERTEX
  5
357
330
1E1
100
AcDbEntity
  8
0
  6
HIDDEN
 62
     7
100
AcDbVertex
100
AcDb2dVertex
 10
7.9951684438
 20
3.7685208061
 30
0.0
  0
SEQEND
  5
358
330
1E1
100
AcDbEntity
  8
0
  6
HIDDEN
 62
     7
  0
POLYLINE
  5
1E2
330
1F
100
AcDbEntity
  8
0
  6
HIDDEN
 62
     7
100
AcDb2dPolyline
 66
     1
 10
0.0
 20
0.0
 30
0.0
  0
VERTEX
  5
359
330
1E2
100
AcDbEntity
  8
0
  6
HIDDEN
 62
     7
100
AcDbVertex
100
AcDb2dVertex
 10
8.5066007689
 20
3.7685208061
 30
0.0
  0
VERTEX
  5
35A
330
1E2
100
AcDbEntity
  8
0
  6
HIDDEN
 62
     7
100
AcDbVertex
100
AcDb2dVertex
 10
8.5067901181
 20
3.7586782864
 30
0.0
  0
VERTEX
  5
35B
330
1E2
100
AcDbEntity
  8
0
  6
HIDDEN
 62
     7
100
AcDbVertex
100
AcDb2dVertex
 10
8.5066007689
 20
3.7488357667
 30
0.0
  0
SEQEND
  5
35C
330
1E2
100
AcDbEntity
  8
0
  6
HIDDEN
 62
     7
  0
LINE
  5
1E3
330
1F
100
AcDbEntity
  8
0
  6
HIDDEN
 62
     7
100
AcDbLine
 10
7.6603334252
 20
3.4043475771
 30
0.0
 11
7.6603334252
 21
3.2378610992
 31
0.0
  0
LINE
  5
1E4
330
1F
100
AcDbEntity
  8
0
  6
HIDDEN
 62
     7
100
AcDbLine
 10
8.7626956299
 20
3.1603048945
 30
0.0
 11
8.7626956299
 21
3.3354499399
 31
0.0
  0
LINE
  5
1E5
330
1F
100
AcDbEntity
  8
0
  6
HIDDEN
 62
     7
100
AcDbLine
 10
7.8178137402
 20
3.2923279139
 30
0.0
 11
7.6603334252
 21
3.2923279139
 31
0.0
  0
LINE
  5
1E6
330
1F
100
AcDbEntity
  8
0
  6
HIDDEN
 62
     7
100
AcDbLine
 10
7.8178137402
 20
3.2923279139
 30
0.0
 11
7.8178137402
 21
3.2014066117
 31
0.0
  0
LINE
  5
1E7
330
1F
100
AcDbEntity
  8
0
  6
HIDDEN
 62
     7
100
AcDbLine
 10
7.8178137402
 20
3.337788565
 30
0.0
 11
7.8178137402
 21
3.2923279139
 31
0.0
  0
LINE
  5
1E8
330
1F
100
AcDbEntity
  8
0
  6
HIDDEN
 62
     7
100
AcDbLine
 10
7.8178137402
 20
3.2014066117
 30
0.0
 11
7.8178137402
 21
3.1559459605
 31
0.0
  0
LINE
  5
1E9
330
1F
100
AcDbEntity
  8
0
  6
HIDDEN
 62
     7
100
AcDbLine
 10
7.8178137402
 20
3.2014066117
 30
0.0
 11
7.6603334252
 21
3.2014066117
 31
0.0
  0
LINE
  5
1EA
330
1F
100
AcDbEntity
  8
0
  6
HIDDEN
 62
     7
100
AcDbLine
 10
7.8178137402
 20
3.337788565
 30
0.0
 11
7.6603334252
 21
3.337788565
 31
0.0
  0
LINE
  5
1EB
330
1F
100
AcDbEntity
  8
0
  6
HIDDEN
 62
     7
100
AcDbLine
 10
7.8178137402
 20
3.1559459605
 30
0.0
 11
7.6603334252
 21
3.1559459605
 31
0.0
  0
LINE
  5
1EC
330
1F
100
AcDbEntity
  8
0
  6
HIDDEN
 62
     7
100
AcDbLine
 10
7.9063964173
 20
4.1523790738
 30
0.0
 11
7.9063964173
 21
4.466724279
 31
0.0
  0
LINE
  5
1ED
330
1F
100
AcDbEntity
  8
0
  6
HIDDEN
 62
     7
100
AcDbLine
 10
7.5717507481
 20
4.1573917699
 30
0.0
 11
7.5717507481
 21
4.1523790738
 31
0.0
  0
LINE
  5
1EE
330
1F
100
AcDbEntity
  8
0
  6
HIDDEN
 62
     7
100
AcDbLine
 10
7.6406483859
 20
4.1523790738
 30
0.0
 11
7.6406483859
 21
3.7685208061
 31
0.0
  0
LINE
  5
1EF
330
1F
100
AcDbEntity
  8
0
  6
HIDDEN
 62
     7
100
AcDbLine
 10
7.8374987796
 20
3.7685208061
 30
0.0
 11
7.8374987796
 21
4.1523790738
 31
0.0
  0
LINE
  5
1F0
330
1F
100
AcDbEntity
  8
0
  6
HIDDEN
 62
     7
100
AcDbLine
 10
7.6406483859
 20
3.7488357667
 30
0.0
 11
7.6406483859
 21
3.2610710163
 31
0.0
  0
LINE
  5
1F1
330
1F
100
AcDbEntity
  8
0
  6
HIDDEN
 62
     7
100
AcDbLine
 10
7.8374987796
 20
3.0886770327
 30
0.0
 11
7.8374987796
 21
3.7488357667
 31
0.0
  0
LINE
  5
1F2
330
1F
100
AcDbEntity
  8
0
  6
HIDDEN
 62
     7
100
AcDbLine
 10
7.9063964173
 20
4.1523790738
 30
0.0
 11
7.9063964173
 21
4.3393869478
 31
0.0
  0
LINE
  5
1F3
330
1F
100
AcDbEntity
  8
0
  6
HIDDEN
 62
     7
100
AcDbLine
 10
7.5717507481
 20
4.157148414
 30
0.0
 11
7.5717507481
 21
4.1523790738
 31
0.0
  0
ARC
  5
1F4
330
1F
100
AcDbEntity
  8
0
  6
HIDDEN
 62
     7
100
AcDbCircle
 10
7.8965538977
 20
4.3393869478
 30
0.0
 40
0.0098425196850398
100
AcDbArc
 50
0.0
 51
90.0
  0
LINE
  5
1F5
330
1F
100
AcDbEntity
  8
0
  6
HIDDEN
 62
     7
100
AcDbLine
 10
7.8374987796
 20
3.2567097825
 30
0.0
 11
7.8374987796
 21
3.7488357667
 31
0.0
  0
LINE
  5
1F6
330
1F
100
AcDbEntity
  8
0
  6
HIDDEN
 62
     7
100
AcDbLine
 10
7.8374987796
 20
3.7685208061
 30
0.0
 11
7.8374987796
 21
4.1523790738
 31
0.0
  0
LINE
  5
1F7
330
1F
100
AcDbEntity
  8
0
  6
HIDDEN
 62
     7
100
AcDbLine
 10
7.6406483859
 20
4.1523790738
 30
0.0
 11
7.6406483859
 21
3.7685208061
 31
0.0
  0
LINE
  5
1F8
330
1F
100
AcDbEntity
  8
0
  6
HIDDEN
 62
     7
100
AcDbLine
 10
7.6406483859
 20
3.7488357667
 30
0.0
 11
7.6406483859
 21
3.2610710163
 31
0.0
  0
ARC
  5
1F9
330
1F
100
AcDbEntity
  8
0
  6
HIDDEN
 62
     7
100
AcDbCircle
 10
7.8276562599
 20
3.2567097825
 30
0.0
 40
0.0098425196850398
100
AcDbArc
 50
270.0
 51
0.0
  0
LINE
  5
1FA
330
1F
100
AcDbEntity
  8
0
  6
HIDDEN
 62
     7
100
AcDbLine
 10
7.8571838189
 20
3.4141900974
 30
0.0
 11
7.5428386137
 21
3.4141900974
 31
0.0
  0
LINE
  5
1FB
330
1F
100
AcDbEntity
  8
0
  6
HIDDEN
 62
     7
100
AcDbLine
 10
7.8521711228
 20
3.0795444281
 30
0.0
 11
7.8571838189
 21
3.0795444281
 31
0.0
  0
LINE
  5
1FC
330
1F
100
AcDbEntity
  8
0
  6
HIDDEN
 62
     7
100
AcDbLine
 10
8.260727126
 20
3.1484420659
 30
0.0
 11
8.7484918764
 21
3.1484420659
 31
0.0
  0
LINE
  5
1FD
330
1F
100
AcDbEntity
  8
0
  6
HIDDEN
 62
     7
100
AcDbLine
 10
8.92088586
 20
3.3452924596
 30
0.0
 11
8.260727126
 21
3.3452924596
 31
0.0
  0
LINE
  5
1FE
330
1F
100
AcDbEntity
  8
0
  6
HIDDEN
 62
     7
100
AcDbLine
 10
7.8571838189
 20
3.1484420659
 30
0.0
 11
8.2410420866
 21
3.1484420659
 31
0.0
  0
LINE
  5
1FF
330
1F
100
AcDbEntity
  8
0
  6
HIDDEN
 62
     7
100
AcDbLine
 10
8.2410420866
 20
3.3452924596
 30
0.0
 11
7.8571838189
 21
3.3452924596
 31
0.0
  0
LINE
  5
200
330
1F
100
AcDbEntity
  8
0
  6
HIDDEN
 62
     7
100
AcDbLine
 10
7.8571838189
 20
3.4141900974
 30
0.0
 11
7.6701759449
 21
3.4141900974
 31
0.0
  0
LINE
  5
201
330
1F
100
AcDbEntity
  8
0
  6
HIDDEN
 62
     7
100
AcDbLine
 10
7.8524144788
 20
3.0795444281
 30
0.0
 11
7.8571838189
 21
3.0795444281
 31
0.0
  0
ARC
  5
202
330
1F
100
AcDbEntity
  8
0
  6
HIDDEN
 62
     7
100
AcDbCircle
 10
7.6701759449
 20
3.4043475777
 30
0.0
 40
0.0098425196850398
100
AcDbArc
 50
90.0
 51
180.0
  0
LINE
  5
203
330
1F
100
AcDbEntity
  8
0
  6
HIDDEN
 62
     7
100
AcDbLine
 10
8.7528531103
 20
3.3452924596
 30
0.0
 11
7.8571838189
 21
3.3452924596
 31
0.0
  0
LINE
  5
204
330
1F
100
AcDbEntity
  8
0
  6
HIDDEN
 62
     7
100
AcDbLine
 10
7.8571838189
 20
3.1484420659
 30
0.0
 11
8.7484918764
 21
3.1484420659
 31
0.0
  0
ARC
  5
205
330
1F
100
AcDbEntity
  8
0
  6
HIDDEN
 62
     7
100
AcDbCircle
 10
8.7528531103
 20
3.3354499399
 30
0.0
 40
0.0098425196850394
100
AcDbArc
 50
0.0
 51
90.0
  0
LINE
  5
206
330
1F
100
AcDbEntity
  8
0
  6
HIDDEN
 62
     7
100
AcDbLine
 10
7.5717507481
 20
4.3393869478
 30
0.0
 11
7.9061423404
 21
4.3393869478
 31
0.0
  0
LINE
  5
207
330
1F
100
AcDbEntity
  8
0
  6
HIDDEN
 62
     7
100
AcDbLine
 10
7.8374987796
 20
3.2567097825
 30
0.0
 11
7.6406483859
 21
3.2567097825
 31
0.0
  0
LINE
  5
208
330
1F
100
AcDbEntity
  8
0
  6
HIDDEN
 62
     7
100
AcDbLine
 10
7.6442307832
 20
3.2567097825
 30
0.0
 11
7.8374987796
 21
3.2567097825
 31
0.0
  0
LINE
  5
209
330
1F
100
AcDbEntity
  8
0
  6
HIDDEN
 62
     7
100
AcDbLine
 10
7.6701759449
 20
3.0795444281
 30
0.0
 11
7.6701759449
 21
3.4139360204
 31
0.0
  0
LINE
  5
20A
330
1F
100
AcDbEntity
  8
0
  6
HIDDEN
 62
     7
100
AcDbLine
 10
8.7528531103
 20
3.3452924596
 30
0.0
 11
8.7528531103
 21
3.1520244633
 31
0.0
  0
LINE
  5
20B
330
1F
100
AcDbEntity
  8
0
  6
HIDDEN
 62
     7
100
AcDbLine
 10
8.7528531103
 20
3.1484420659
 30
0.0
 11
8.7528531103
 21
3.3452924596
 31
0.0
  0
LINE
  5
20C
330
1F
100
AcDbEntity
  8
0
  6
CONTINUOUS
 62
     7
100
AcDbLine
 10
3.7268985706
 20
5.8845755641
 30
0.0
 11
3.7777515889
 21
5.8845755641
 31
0.0
  0
LINE
  5
20D
330
1F
100
AcDbEntity
  8
0
  6
CONTINUOUS
 62
     7
100
AcDbLine
 10
4.2912030325
 20
7.4593787137
 30
0.0
 11
3.7072135312
 21
7.4593787137
 31
0.0
  0
LINE
  5
20E
330
1F
100
AcDbEntity
  8
0
  6
CONTINUOUS
 62
     7
100
AcDbLine
 10
4.3108880719
 20
7.4396936743
 30
0.0
 11
4.2912030325
 21
7.4593787137
 31
0.0
  0
LINE
  5
20F
330
1F
100
AcDbEntity
  8
0
  6
CONTINUOUS
 62
     7
100
AcDbLine
 10
3.7072135312
 20
5.9042606035
 30
0.0
 11
3.7268985706
 21
5.8845755641
 31
0.0
  0
LINE
  5
210
330
1F
100
AcDbEntity
  8
0
  6
CONTINUOUS
 62
     7
100
AcDbLine
 10
3.1166623501
 20
5.8845755641
 30
0.0
 11
3.6875284918
 21
5.8845755641
 31
0.0
  0
LINE
  5
211
330
1F
100
AcDbEntity
  8
0
  6
CONTINUOUS
 62
     7
100
AcDbLine
 10
3.6875284918
 20
7.4593787137
 30
0.0
 11
3.1166623501
 21
7.4593787137
 31
0.0
  0
LINE
  5
212
330
1F
100
AcDbEntity
  8
0
  6
CONTINUOUS
 62
     7
100
AcDbLine
 10
3.6875284918
 20
5.8845755641
 30
0.0
 11
3.7072135312
 21
5.9042606035
 31
0.0
  0
LINE
  5
213
330
1F
100
AcDbEntity
  8
0
  6
CONTINUOUS
 62
     7
100
AcDbLine
 10
3.7072135312
 20
7.4396936743
 30
0.0
 11
3.6875284918
 21
7.4593787137
 31
0.0
  0
LINE
  5
214
330
1F
100
AcDbEntity
  8
0
  6
CONTINUOUS
 62
     7
100
AcDbLine
 10
3.1166623501
 20
7.4593787137
 30
0.0
 11
3.0969773107
 21
7.4396936743
 31
0.0
  0
LINE
  5
215
330
1F
100
AcDbEntity
  8
0
  6
CONTINUOUS
 62
     7
100
AcDbLine
 10
3.0969773107
 20
5.9042606035
 30
0.0
 11
3.1166623501
 21
5.8845755641
 31
0.0
  0
LINE
  5
216
330
1F
100
AcDbEntity
  8
0
  6
CONTINUOUS
 62
     7
100
AcDbLine
 10
2.8558355785
 20
7.4593787137
 30
0.0
 11
2.3620691743
 21
7.4593787137
 31
0.0
  0
LINE
  5
217
330
1F
100
AcDbEntity
  8
0
  6
CONTINUOUS
 62
     7
100
AcDbLine
 10
3.0772922714
 20
7.4593787137
 30
0.0
 11
2.8755206178
 21
7.4593787137
 31
0.0
  0
LINE
  5
218
330
1F
100
AcDbEntity
  8
0
  6
CONTINUOUS
 62
     7
100
AcDbLine
 10
2.8755206178
 20
5.8845755641
 30
0.0
 11
3.0772922714
 21
5.8845755641
 31
0.0
  0
LINE
  5
219
330
1F
100
AcDbEntity
  8
0
  6
CONTINUOUS
 62
     7
100
AcDbLine
 10
2.3620691743
 20
5.8845755641
 30
0.0
 11
2.8558355785
 21
5.8845755641
 31
0.0
  0
LINE
  5
21A
330
1F
100
AcDbEntity
  8
0
  6
CONTINUOUS
 62
     7
100
AcDbLine
 10
2.3620691743
 20
7.4593787137
 30
0.0
 11
2.3423841349
 21
7.4396936743
 31
0.0
  0
LINE
  5
21B
330
1F
100
AcDbEntity
  8
0
  6
CONTINUOUS
 62
     7
100
AcDbLine
 10
2.3423841349
 20
5.9042606035
 30
0.0
 11
2.3620691743
 21
5.8845755641
 31
0.0
  0
LINE
  5
21C
330
1F
100
AcDbEntity
  8
0
  6
CONTINUOUS
 62
     7
100
AcDbLine
 10
3.0969773107
 20
7.4396936743
 30
0.0
 11
3.0772922714
 21
7.4593787137
 31
0.0
  0
LINE
  5
21D
330
1F
100
AcDbEntity
  8
0
  6
CONTINUOUS
 62
     7
100
AcDbLine
 10
3.0772922714
 20
5.8845755641
 30
0.0
 11
3.0969773107
 21
5.9042606035
 31
0.0
  0
LINE
  5
21E
330
1F
100
AcDbEntity
  8
0
  6
CONTINUOUS
 62
     7
100
AcDbLine
 10
3.7268985706
 20
6.2782763515
 30
0.0
 11
3.7268985706
 21
5.8845755641
 31
0.0
  0
LINE
  5
21F
330
1F
100
AcDbEntity
  8
0
  6
CONTINUOUS
 62
     7
100
AcDbLine
 10
3.5759799354
 20
6.2782763515
 30
0.0
 11
3.7268985706
 21
6.2782763515
 31
0.0
  0
LINE
  5
220
330
1F
100
AcDbEntity
  8
0
  6
CONTINUOUS
 62
     7
100
AcDbLine
 10
3.5759799354
 20
7.0656779263
 30
0.0
 11
3.5759799354
 21
6.2782763515
 31
0.0
  0
LINE
  5
221
330
1F
100
AcDbEntity
  8
0
  6
CONTINUOUS
 62
     7
100
AcDbLine
 10
3.7072135312
 20
7.0656779263
 30
0.0
 11
3.5759799354
 21
7.0656779263
 31
0.0
  0
LINE
  5
222
330
1F
100
AcDbEntity
  8
0
  6
CONTINUOUS
 62
     7
100
AcDbLine
 10
3.7072135312
 20
7.4593787137
 30
0.0
 11
3.7072135312
 21
7.0656779263
 31
0.0
  0
LINE
  5
223
330
1F
100
AcDbEntity
  8
0
  6
CONTINUOUS
 62
     7
100
AcDbLine
 10
4.2912030325
 20
5.8846370823
 30
0.0
 11
3.7974366283
 21
5.8846370823
 31
0.0
  0
LINE
  5
224
330
1F
100
AcDbEntity
  8
0
  6
CONTINUOUS
 62
     7
100
AcDbLine
 10
3.7974366283
 20
6.9081976114
 30
0.0
 11
3.7974366283
 21
5.8846370823
 31
0.0
  0
LINE
  5
225
330
1F
100
AcDbEntity
  8
0
  6
CONTINUOUS
 62
     7
100
AcDbLine
 10
3.7777515889
 20
6.9081976114
 30
0.0
 11
3.7974366283
 21
6.9081976114
 31
0.0
  0
LINE
  5
226
330
1F
100
AcDbEntity
  8
0
  6
CONTINUOUS
 62
     7
100
AcDbLine
 10
3.7777515889
 20
6.9081976114
 30
0.0
 11
3.7777515889
 21
5.8845755641
 31
0.0
  0
LINE
  5
227
330
1F
100
AcDbEntity
  8
0
  6
CONTINUOUS
 62
     7
100
AcDbLine
 10
4.2912030325
 20
5.8846370823
 30
0.0
 11
4.2912030325
 21
7.4593787137
 31
0.0
  0
SPLINE
  5
228
330
1F
100
AcDbEntity
  8
0
  6
CONTINUOUS
 62
     7
100
AcDbSpline
210
0.0
220
0.0
230
1.0
 70
     8
 71
     3
 72
    80
 73
    76
 74
     0
 42
0.00000001
 43
0.00000001
 40
-0.0312500000000001
 40
-0.0312500000000001
 40
0.0
 40
0.0
 40
0.0312500000000002
 40
0.0312500000000002
 40
0.0468750000000002
 40
0.0468750000000002
 40
0.0625000000000003
 40
0.0625000000000003
 40
0.0937500000000001
 40
0.0937500000000001
 40
0.1249999999999999
 40
0.1249999999999999
 40
0.1562499999999997
 40
0.1562499999999997
 40
0.1874999999999995
 40
0.1874999999999995
 40
0.2187499999999993
 40
0.2187499999999993
 40
0.2499999999999991
 40
0.2499999999999991
 40
0.2812499999999989
 40
0.2812499999999989
 40
0.3124999999999987
 40
0.3124999999999987
 40
0.3749999999999983
 40
0.3749999999999983
 40
0.4062499999999983
 40
0.4062499999999983
 40
0.4374999999999983
 40
0.4374999999999983
 40
0.4531249999999983
 40
0.4531249999999983
 40
0.4687499999999982
 40
0.4687499999999982
 40
0.4843749999999982
 40
0.4843749999999982
 40
0.4999999999999982
 40
0.4999999999999982
 40
0.5156249999999982
 40
0.5156249999999982
 40
0.5312499999999981
 40
0.5312499999999981
 40
0.5468749999999981
 40
0.5468749999999981
 40
0.5624999999999981
 40
0.5624999999999981
 40
0.5937499999999982
 40
0.5937499999999982
 40
0.6249999999999983
 40
0.6249999999999983
 40
0.6562499999999986
 40
0.6562499999999986
 40
0.6874999999999987
 40
0.6874999999999987
 40
0.749999999999999
 40
0.749999999999999
 40
0.7812499999999991
 40
0.7812499999999991
 40
0.8124999999999994
 40
0.8124999999999994
 40
0.8437499999999997
 40
0.8437499999999997
 40
0.8749999999999999
 40
0.8749999999999999
 40
0.8906249999999999
 40
0.8906249999999999
 40
0.9062499999999999
 40
0.9062499999999999
 40
0.9374999999999999
 40
0.9374999999999999
 40
0.9531249999999999
 40
0.9531249999999999
 40
0.9687499999999999
 40
0.9687499999999999
 40
1.0
 40
1.0
 40
1.03125
 40
1.03125
 10
4.048527157479818
 20
6.327488949940049
 30
0.0
 10
4.022067883934957
 20
6.327488949940049
 30
0.0
 10
4.009135299974391
 20
6.32594166934844
 30
0.0
 10
3.99016344411447
 20
6.3214178204153
 30
0.0
 10
3.983868114823193
 20
6.319520551594931
 30
0.0
 10
3.971712280894199
 20
6.315071691166159
 30
0.0
 10
3.965839030106832
 20
6.312523639750727
 30
0.0
 10
3.948808456219284
 20
6.303964715573667
 30
0.0
 10
3.938120796945893
 20
6.296935029894024
 30
0.0
 10
3.919117016487239
 20
6.28120801746439
 30
0.0
 10
3.910721407693333
 20
6.272502126519983
 30
0.0
 10
3.896074863588915
 20
6.253737687348299
 30
0.0
 10
3.890032740701461
 20
6.243956466991527
 30
0.0
 10
3.880151000168544
 20
6.22382329487683
 30
0.0
 10
3.876321655247783
 20
6.213424866460127
 30
0.0
 10
3.870861892750257
 20
6.192888349825503
 30
0.0
 10
3.869182174936844
 20
6.182664280524952
 30
0.0
 10
3.867680023506108
 20
6.162368425714948
 30
0.0
 10
3.867874938711187
 20
6.152441582728114
 30
0.0
 10
3.869871971342418
 20
6.13325186288158
 30
0.0
 10
3.871672784206665
 20
6.123946438442382
 30
0.0
 10
3.876746305783023
 20
6.105885072266429
 30
0.0
 10
3.880046968201027
 20
6.097079831405172
 30
0.0
 10
3.891906063727664
 20
6.071970026052478
 30
0.0
 10
3.902306210294185
 20
6.056859184983581
 30
0.0
 10
3.922250700393717
 20
6.036441148992981
 30
0.0
 10
3.92960452706696
 20
6.030067599690065
 30
0.0
 10
3.945826922615448
 20
6.018421116284918
 30
0.0
 10
3.954805074107269
 20
6.013068624656534
 30
0.0
 10
3.969689844158748
 20
6.006144988655235
 30
0.0
 10
3.974870374986344
 20
6.004028868758073
 30
0.0
 10
3.985778905371055
 20
6.000234297224605
 30
0.0
 10
3.991560729438352
 20
5.998543150220845
 30
0.0
 10
4.003565432223707
 20
5.995764277378449
 30
0.0
 10
4.009752092513364
 20
5.994679108482072
 30
0.0
 10
4.022565089420153
 20
5.993203833569349
 30
0.0
 10
4.029208490603484
 20
5.992826819210226
 30
0.0
 10
4.042259930005997
 20
5.992860881788953
 30
0.0
 10
4.048765551971729
 20
5.993259686157466
 30
0.0
 10
4.061667447595077
 20
5.994806595129043
 30
0.0
 10
4.067854800418793
 20
5.995926534540172
 30
0.0
 10
4.079802509697862
 20
5.998753840967169
 30
0.0
 10
4.085579393955207
 20
6.000472928403096
 30
0.0
 10
4.096453698600334
 20
6.004313291700034
 30
0.0
 10
4.101601765524362
 20
6.006444797581386
 30
0.0
 10
4.116362340257735
 20
6.013388434258202
 30
0.0
 10
4.125337993605604
 20
6.018784941825631
 30
0.0
 10
4.141458081821757
 20
6.030451589372968
 30
0.0
 10
4.14868973299212
 20
6.036763240650333
 30
0.0
 10
4.161851546718462
 20
6.050301918316347
 30
0.0
 10
4.167803585283809
 20
6.057575220400095
 30
0.0
 10
4.178318868780078
 20
6.072829737649029
 30
0.0
 10
4.182891037756828
 20
6.080806238186558
 30
0.0
 10
4.194623614591317
 20
6.105836120775042
 30
0.0
 10
4.199842202075485
 20
6.124195181358536
 30
0.0
 10
4.202743742306883
 20
6.152977500606184
 30
0.0
 10
4.202904749435898
 20
6.162811389046056
 30
0.0
 10
4.201366382313124
 20
6.182976503284234
 30
0.0
 10
4.199641609148645
 20
6.19333521102376
 30
0.0
 10
4.194145690175899
 20
6.213798450443949
 30
0.0
 10
4.190378019758591
 20
6.223988749952094
 30
0.0
 10
4.180447624465329
 20
6.244158598646647
 30
0.0
 10
4.174304036362486
 20
6.254038780540998
 30
0.0
 10
4.163445738419182
 20
6.267913294892991
 30
0.0
 10
4.159539934984325
 20
6.27240392155474
 30
0.0
 10
4.151113262703492
 20
6.281080202833393
 30
0.0
 10
4.14656289861509
 20
6.285286139394255
 30
0.0
 10
4.132286156328252
 20
6.297069112287166
 30
0.0
 10
4.121870523395088
 20
6.30391580602196
 30
0.0
 10
4.104819604282814
 20
6.312495011881297
 30
0.0
 10
4.098846375073553
 20
6.315086423555186
 30
0.0
 10
4.086698530659087
 20
6.319529520688532
 30
0.0
 10
4.080517047307764
 20
6.321392429347892
 30
0.0
 10
4.061653737982139
 20
6.325905297584979
 30
0.0
 10
4.048527157479818
 20
6.327488949940049
 30
0.0
 10
4.022067883934957
 20
6.327488949940049
 30
0.0
  0
LINE
  5
229
330
1F
100
AcDbEntity
  8
0
  6
CONTINUOUS
 62
     7
100
AcDbLine
 10
4.3108880719
 20
7.4396936743
 30
0.0
 11
4.3108880719
 21
5.9043236992
 31
0.0
  0
LINE
  5
22A
330
1F
100
AcDbEntity
  8
0
  6
CONTINUOUS
 62
     7
100
AcDbLine
 10
4.2912030325
 20
5.8846370823
 30
0.0
 11
4.3108880719
 21
5.9043236992
 31
0.0
  0
SPLINE
  5
22B
330
1F
100
AcDbEntity
  8
0
  6
CONTINUOUS
 62
     7
100
AcDbSpline
210
0.0
220
0.0
230
1.0
 70
    24
 71
     3
 72
     8
 73
     4
 74
     0
 42
0.00000001
 43
0.00000001
 40
0.0
 40
0.0
 40
0.0
 40
0.0
 40
0.000765645677896
 40
0.000765645677896
 40
0.000765645677896
 40
0.000765645677896
 10
3.57597993540555
 20
6.278276351514852
 30
0.0
 10
3.569402077748118
 20
6.278276351514852
 30
0.0
 10
3.562839890198467
 20
6.278276351514851
 30
0.0
 10
3.556294896035471
 20
6.278276351514851
 30
0.0
  0
LINE
  5
22C
330
1F
100
AcDbEntity
  8
0
  6
CONTINUOUS
 62
     7
100
AcDbLine
 10
3.556294896
 20
6.2782763515
 30
0.0
 11
3.556294896
 21
7.0656779263
 31
0.0
  0
SPLINE
  5
22D
330
1F
100
AcDbEntity
  8
0
  6
CONTINUOUS
 62
     7
100
AcDbSpline
210
0.0
220
0.0
230
1.0
 70
    24
 71
     3
 72
     8
 73
     4
 74
     0
 42
0.00000001
 43
0.00000001
 40
0.0
 40
0.0
 40
0.0
 40
0.0
 40
0.000765645677896
 40
0.000765645677896
 40
0.000765645677896
 40
0.000765645677896
 10
3.556294896035471
 20
7.065677926318001
 30
0.0
 10
3.562839890198467
 20
7.065677926318001
 30
0.0
 10
3.569402077748118
 20
7.065677926318001
 30
0.0
 10
3.57597993540555
 20
7.065677926318001
 30
0.0
  0
LINE
  5
22E
330
1F
100
AcDbEntity
  8
0
  6
CONTINUOUS
 62
     7
100
AcDbLine
 10
3.7072135312
 20
5.9042606035
 30
0.0
 11
3.7072135312
 21
6.2782763515
 31
0.0
  0
LINE
  5
22F
330
1F
100
AcDbEntity
  8
0
  6
CONTINUOUS
 62
     7
100
AcDbLine
 10
3.5366098567
 20
7.0823976428
 30
0.0
 11
3.6875284918
 21
7.0823976428
 31
0.0
  0
LINE
  5
230
330
1F
100
AcDbEntity
  8
0
  6
CONTINUOUS
 62
     7
100
AcDbLine
 10
3.5366098567
 20
6.2658926058
 30
0.0
 11
3.5366098567
 21
7.0823976428
 31
0.0
  0
LINE
  5
231
330
1F
100
AcDbEntity
  8
0
  6
CONTINUOUS
 62
     7
100
AcDbLine
 10
3.6875284918
 20
6.2658926058
 30
0.0
 11
3.5366098567
 21
6.2658926058
 31
0.0
  0
LINE
  5
232
330
1F
100
AcDbEntity
  8
0
  6
CONTINUOUS
 62
     7
100
AcDbLine
 10
3.6875284918
 20
5.8845755641
 30
0.0
 11
3.6875284918
 21
6.2658926058
 31
0.0
  0
LINE
  5
233
330
1F
100
AcDbEntity
  8
0
  6
CONTINUOUS
 62
     7
100
AcDbLine
 10
3.6875284918
 20
7.0823976428
 30
0.0
 11
3.6875284918
 21
7.4593787137
 31
0.0
  0
LINE
  5
234
330
1F
100
AcDbEntity
  8
0
  6
CONTINUOUS
 62
     7
100
AcDbLine
 10
3.1166623501
 20
5.9973686658
 30
0.0
 11
3.1166623501
 21
5.8845755641
 31
0.0
  0
LINE
  5
235
330
1F
100
AcDbEntity
  8
0
  6
CONTINUOUS
 62
     7
100
AcDbLine
 10
2.9657437149
 20
5.9973686658
 30
0.0
 11
3.1166623501
 21
5.9973686658
 31
0.0
  0
LINE
  5
236
330
1F
100
AcDbEntity
  8
0
  6
CONTINUOUS
 62
     7
100
AcDbLine
 10
2.9657437149
 20
7.3439564912
 30
0.0
 11
2.9657437149
 21
5.9973686658
 31
0.0
  0
LINE
  5
237
330
1F
100
AcDbEntity
  8
0
  6
CONTINUOUS
 62
     7
100
AcDbLine
 10
3.1166623501
 20
7.3439564912
 30
0.0
 11
2.9657437149
 21
7.3439564912
 31
0.0
  0
LINE
  5
238
330
1F
100
AcDbEntity
  8
0
  6
CONTINUOUS
 62
     7
100
AcDbLine
 10
3.1166623501
 20
7.4593787137
 30
0.0
 11
3.1166623501
 21
7.3439564912
 31
0.0
  0
SPLINE
  5
239
330
1F
100
AcDbEntity
  8
0
  6
CONTINUOUS
 62
     7
100
AcDbSpline
210
0.0
220
0.0
230
1.0
 70
     8
 71
     3
 72
     8
 73
     4
 74
     0
 42
0.00000001
 43
0.00000001
 40
0.0
 40
0.0
 40
0.0
 40
0.0
 40
0.0001052524529271
 40
0.0001052524529271
 40
0.0001052524529271
 40
0.0001052524529271
 10
2.948758845274961
 20
6.009752411527102
 30
0.0
 10
2.947858466533229
 20
6.010799891022958
 30
0.0
 10
2.946958408572614
 20
6.011847646339183
 30
0.0
 10
2.94605867556303
 20
6.012895680539132
 30
0.0
  0
SPLINE
  5
23A
330
1F
100
AcDbEntity
  8
0
  6
CONTINUOUS
 62
     7
100
AcDbSpline
210
0.0
220
0.0
230
1.0
 70
     8
 71
     3
 72
     8
 73
     4
 74
     0
 42
0.00000001
 43
0.00000001
 40
0.0
 40
0.0
 40
0.0
 40
0.0
 40
0.0002819965571225
 40
0.0002819965571225
 40
0.0002819965571225
 40
0.0002819965571225
 10
2.94605867556303
 20
7.331058597293716
 30
0.0
 10
2.948469276019136
 20
7.333866532196076
 30
0.0
 10
2.950882209328898
 20
7.336672465929395
 30
0.0
 10
2.953297396420766
 20
7.339476456707934
 30
0.0
  0
SPLINE
  5
23B
330
1F
100
AcDbEntity
  8
0
  6
CONTINUOUS
 62
     7
100
AcDbSpline
210
0.0
220
0.0
230
1.0
 70
     8
 71
     3
 72
     8
 73
     4
 74
     0
 42
0.00000001
 43
0.00000001
 40
0.0
 40
0.0
 40
0.0
 40
0.0
 40
0.0005415208961897
 40
0.0005415208961897
 40
0.0005415208961897
 40
0.0005415208961897
 10
2.953297396420766
 20
7.339476456707934
 30
0.0
 10
2.957425575315817
 20
7.340973619743706
 30
0.0
 10
2.9615748273187
 20
7.342466903611211
 30
0.0
 10
2.965743714933108
 20
7.343956491248151
 30
0.0
  0
SPLINE
  5
23C
330
1F
100
AcDbEntity
  8
0
  6
CONTINUOUS
 62
     7
100
AcDbSpline
210
0.0
220
0.0
230
1.0
 70
     8
 71
     3
 72
     8
 73
     4
 74
     0
 42
0.00000001
 43
0.00000001
 40
0.0
 40
0.0
 40
0.0
 40
0.0
 40
0.0006196767744117
 40
0.0006196767744117
 40
0.0006196767744117
 40
0.0006196767744117
 10
2.948758845274961
 20
6.009752411527102
 30
0.0
 10
2.954418435363144
 20
6.005623102511331
 30
0.0
 10
2.96008010443074
 20
6.001495217767303
 30
0.0
 10
2.965743714933109
 20
5.99736866582051
 30
0.0
  0
SPLINE
  5
23D
330
1F
100
AcDbEntity
  8
0
  6
CONTINUOUS
 62
     7
100
AcDbSpline
210
0.0
220
0.0
230
1.0
 70
     8
 71
     3
 72
     8
 73
     4
 74
     0
 42
0.00000001
 43
0.00000001
 40
0.0
 40
0.0
 40
0.0
 40
0.0
 40
0.0006196767744117
 40
0.0006196767744117
 40
0.0006196767744117
 40
0.0006196767744117
 10
3.536609856665393
 20
6.265892605808259
 30
0.0
 10
3.542273467167762
 20
6.270019157755051
 30
0.0
 10
3.547935136235358
 20
6.27414704249908
 30
0.0
 10
3.553594726323541
 20
6.278276351514851
 30
0.0
  0
SPLINE
  5
23E
330
1F
100
AcDbEntity
  8
0
  6
CONTINUOUS
 62
     7
100
AcDbSpline
210
0.0
220
0.0
230
1.0
 70
     8
 71
     3
 72
     8
 73
     4
 74
     0
 42
0.00000001
 43
0.00000001
 40
0.0
 40
0.0
 40
0.0
 40
0.0
 40
0.0005415208961897
 40
0.0005415208961897
 40
0.0005415208961897
 40
0.0005415208961897
 10
3.536609856665392
 20
7.082397642841748
 30
0.0
 10
3.5407787442798
 20
7.076838426098363
 30
0.0
 10
3.544927996282685
 20
7.071265414834715
 30
0.0
 10
3.549056175177735
 20
7.065677926318001
 30
0.0
  0
SPLINE
  5
23F
330
1F
100
AcDbEntity
  8
0
  6
CONTINUOUS
 62
     7
100
AcDbSpline
210
0.0
220
0.0
230
1.0
 70
     8
 71
     3
 72
     8
 73
     4
 74
     0
 42
0.00000001
 43
0.00000001
 40
0.0
 40
0.0
 40
0.0
 40
0.0
 40
0.0006196767744117
 40
0.0006196767744117
 40
0.0006196767744117
 40
0.0006196767744117
 10
3.687528491835996
 20
6.265892605808259
 30
0.0
 10
3.693192102338365
 20
6.270019157755051
 30
0.0
 10
3.698853771405961
 20
6.27414704249908
 30
0.0
 10
3.704513361494144
 20
6.278276351514851
 30
0.0
  0
LINE
  5
240
330
1F
100
AcDbEntity
  8
0
  6
CONTINUOUS
 62
     7
100
AcDbLine
 10
3.5535947263
 20
6.2782763515
 30
0.0
 11
3.5562284673
 21
6.2782763515
 31
0.0
  0
SPLINE
  5
241
330
1F
100
AcDbEntity
  8
0
  6
CONTINUOUS
 62
     7
100
AcDbSpline
210
0.0
220
0.0
230
1.0
 70
     8
 71
     3
 72
     8
 73
     4
 74
     0
 42
0.00000001
 43
0.00000001
 40
0.0
 40
0.0
 40
0.0
 40
0.0
 40
0.0005415208961897
 40
0.0005415208961897
 40
0.0005415208961897
 40
0.0005415208961897
 10
3.687528491835996
 20
7.082397642841748
 30
0.0
 10
3.691697379450405
 20
7.076838426098363
 30
0.0
 10
3.695846631453289
 20
7.071265414834715
 30
0.0
 10
3.699974810348339
 20
7.065677926318001
 30
0.0
  0
LINE
  5
242
330
1F
100
AcDbEntity
  8
0
  6
CONTINUOUS
 62
     7
100
AcDbLine
 10
3.5562284673
 20
7.0656779263
 30
0.0
 11
3.5490561752
 21
7.0656779263
 31
0.0
  0
LINE
  5
243
330
1F
100
AcDbEntity
  8
0
  6
CONTINUOUS
 62
     7
100
AcDbLine
 10
3.0969773107
 20
7.3439564912
 30
0.0
 11
3.0969773107
 21
7.4396936743
 31
0.0
  0
LINE
  5
244
330
1F
100
AcDbEntity
  8
0
  6
CONTINUOUS
 62
     7
100
AcDbLine
 10
3.0969773107
 20
5.9042606035
 30
0.0
 11
3.0969773107
 21
5.9973686658
 31
0.0
  0
CIRCLE
  5
245
330
1F
100
AcDbEntity
  8
0
  6
CONTINUOUS
 62
     7
100
AcDbCircle
 10
4.0352975207
 20
6.1601661153
 30
0.0
 40
0.1574803149606296
  0
LINE
  5
246
330
1F
100
AcDbEntity
  8
0
  6
CONTINUOUS
 62
     7
100
AcDbLine
 10
4.0352975207
 20
6.2510874175
 30
0.0
 11
3.9565573632
 21
6.2056267664
 31
0.0
  0
LINE
  5
247
330
1F
100
AcDbEntity
  8
0
  6
CONTINUOUS
 62
     7
100
AcDbLine
 10
3.9565573632
 20
6.2056267664
 30
0.0
 11
3.9565573632
 21
6.1147054642
 31
0.0
  0
LINE
  5
248
330
1F
100
AcDbEntity
  8
0
  6
CONTINUOUS
 62
     7
100
AcDbLine
 10
3.9565573632
 20
6.1147054642
 30
0.0
 11
4.0352975207
 21
6.0692448131
 31
0.0
  0
LINE
  5
249
330
1F
100
AcDbEntity
  8
0
  6
CONTINUOUS
 62
     7
100
AcDbLine
 10
4.0352975207
 20
6.0692448131
 30
0.0
 11
4.1140376782
 21
6.1147054642
 31
0.0
  0
LINE
  5
24A
330
1F
100
AcDbEntity
  8
0
  6
CONTINUOUS
 62
     7
100
AcDbLine
 10
4.1140376782
 20
6.1147054642
 30
0.0
 11
4.1140376782
 21
6.2056267664
 31
0.0
  0
LINE
  5
24B
330
1F
100
AcDbEntity
  8
0
  6
CONTINUOUS
 62
     7
100
AcDbLine
 10
4.1140376782
 20
6.2056267664
 30
0.0
 11
4.0352975207
 21
6.2510874175
 31
0.0
  0
CIRCLE
  5
24C
330
1F
100
AcDbEntity
  8
0
  6
CONTINUOUS
 62
     7
100
AcDbCircle
 10
4.0352975207
 20
6.1601661153
 30
0.0
 40
0.1673228346456686
  0
LINE
  5
24D
330
1F
100
AcDbEntity
  8
0
  6
CONTINUOUS
 62
     7
100
AcDbLine
 10
3.0772922714
 20
7.4593787137
 30
0.0
 11
3.0772922714
 21
7.3538869057
 31
0.0
  0
LINE
  5
24E
330
1F
100
AcDbEntity
  8
0
  6
CONTINUOUS
 62
     7
100
AcDbLine
 10
3.0772922714
 20
7.3538869057
 30
0.0
 11
2.9460586756
 21
7.3538869057
 31
0.0
  0
LINE
  5
24F
330
1F
100
AcDbEntity
  8
0
  6
CONTINUOUS
 62
     7
100
AcDbLine
 10
2.9460586756
 20
7.3538869057
 30
0.0
 11
2.9460586756
 21
5.9900673722
 31
0.0
  0
LINE
  5
250
330
1F
100
AcDbEntity
  8
0
  6
CONTINUOUS
 62
     7
100
AcDbLine
 10
2.9460586756
 20
5.9900673722
 30
0.0
 11
3.0772922714
 21
5.9900673722
 31
0.0
  0
LINE
  5
251
330
1F
100
AcDbEntity
  8
0
  6
CONTINUOUS
 62
     7
100
AcDbLine
 10
3.0772922714
 20
5.9900673722
 30
0.0
 11
3.0772922714
 21
5.8845755641
 31
0.0
  0
LINE
  5
252
330
1F
100
AcDbEntity
  8
0
  6
CONTINUOUS
 62
     7
100
AcDbLine
 10
2.8558355785
 20
7.4593787137
 30
0.0
 11
2.8558355785
 21
7.4231103684
 31
0.0
  0
LINE
  5
253
330
1F
100
AcDbEntity
  8
0
  6
CONTINUOUS
 62
     7
100
AcDbLine
 10
2.8558355785
 20
7.4231103684
 30
0.0
 11
2.8755206178
 21
7.4231103684
 31
0.0
  0
LINE
  5
254
330
1F
100
AcDbEntity
  8
0
  6
CONTINUOUS
 62
     7
100
AcDbLine
 10
2.8755206178
 20
5.9208439095
 30
0.0
 11
2.8755206178
 21
5.8845755641
 31
0.0
  0
LINE
  5
255
330
1F
100
AcDbEntity
  8
0
  6
CONTINUOUS
 62
     7
100
AcDbLine
 10
2.8755206178
 20
7.4593787137
 30
0.0
 11
2.8755206178
 21
7.4231103684
 31
0.0
  0
LINE
  5
256
330
1F
100
AcDbEntity
  8
0
  6
CONTINUOUS
 62
     7
100
AcDbLine
 10
2.8755206178
 20
5.9208439095
 30
0.0
 11
2.8558355785
 21
5.9208439095
 31
0.0
  0
LINE
  5
257
330
1F
100
AcDbEntity
  8
0
  6
CONTINUOUS
 62
     7
100
AcDbLine
 10
2.8558355785
 20
5.9208439095
 30
0.0
 11
2.8558355785
 21
5.8845755641
 31
0.0
  0
LINE
  5
258
330
1F
100
AcDbEntity
  8
0
  6
CONTINUOUS
 62
     7
100
AcDbLine
 10
2.3620691743
 20
5.8845755641
 30
0.0
 11
2.3620691743
 21
7.4593787137
 31
0.0
  0
LINE
  5
259
330
1F
100
AcDbEntity
  8
0
  6
CONTINUOUS
 62
     7
100
AcDbLine
 10
2.3423841349
 20
7.4396936743
 30
0.0
 11
2.3423841349
 21
5.9042606035
 31
0.0
  0
LINE
  5
25A
330
1F
100
AcDbEntity
  8
0
  6
CONTINUOUS
 62
     7
100
AcDbLine
 10
3.0772922714
 20
7.3538869057
 30
0.0
 11
3.08585535
 21
7.3439564912
 31
0.0
  0
LINE
  5
25B
330
1F
100
AcDbEntity
  8
0
  6
CONTINUOUS
 62
     7
100
AcDbLine
 10
3.0835882374
 20
5.9973686658
 30
0.0
 11
3.0772922714
 21
5.9900673722
 31
0.0
  0
CIRCLE
  5
25C
330
1F
100
AcDbEntity
  8
0
  6
HIDDEN
 62
     7
100
AcDbCircle
 10
4.0352975207
 20
6.1601661153
 30
0.0
 40
0.0984251968503926
  0
LINE
  5
25D
330
1F
100
AcDbEntity
  8
0
  6
HIDDEN
 62
     7
100
AcDbLine
 10
3.7974366283
 20
6.435961808
 30
0.0
 11
4.2912030325
 21
6.435961808
 31
0.0
  0
LINE
  5
25E
330
1F
100
AcDbEntity
  8
0
  6
HIDDEN
 62
     7
100
AcDbLine
 10
4.2912030325
 20
6.9079924698
 30
0.0
 11
4.0347365747
 21
6.9079924698
 31
0.0
  0
POLYLINE
  5
25F
330
1F
100
AcDbEntity
  8
0
  6
HIDDEN
 62
     7
100
AcDb2dPolyline
 66
     1
 10
0.0
 20
0.0
 30
0.0
  0
VERTEX
  5
35D
330
25F
100
AcDbEntity
  8
0
  6
HIDDEN
 62
     7
100
AcDbVertex
100
AcDb2dVertex
 10
4.0347365747
 20
6.9079924698
 30
0.0
  0
VERTEX
  5
35E
330
25F
100
AcDbEntity
  8
0
  6
HIDDEN
 62
     7
100
AcDbVertex
100
AcDb2dVertex
 10
4.0347365747
 20
6.9079924698
 30
0.0
  0
SEQEND
  5
35F
330
25F
100
AcDbEntity
  8
0
  6
HIDDEN
 62
     7
  0
ARC
  5
260
330
1F
100
AcDbEntity
  8
0
  6
HIDDEN
 62
     7
100
AcDbCircle
 10
4.3108880719
 20
6.4751267452
 30
0.0
 40
0.5134514435695534
100
AcDbArc
 50
90.0
 51
122.5362918237
  0
LINE
  5
261
330
1F
100
AcDbEntity
  8
0
  6
HIDDEN
 62
     7
100
AcDbLine
 10
4.2912030325
 20
6.9079924698
 30
0.0
 11
4.3108880719
 21
6.9276933015
 31
0.0
  0
LINE
  5
262
330
1F
100
AcDbEntity
  8
0
  6
HIDDEN
 62
     7
100
AcDbLine
 10
4.3108880719
 20
6.4162609764
 30
0.0
 11
4.2912030325
 21
6.435961808
 31
0.0
  0
LINE
  5
263
330
1F
100
AcDbEntity
  8
0
  6
HIDDEN
 62
     7
100
AcDbLine
 10
3.5366098567
 20
6.261556635
 30
0.0
 11
3.6875284918
 21
6.261556635
 31
0.0
  0
LINE
  5
264
330
1F
100
AcDbEntity
  8
0
  6
HIDDEN
 62
     7
100
AcDbLine
 10
3.5366098567
 20
6.2658926058
 30
0.0
 11
3.5366098567
 21
6.261556635
 31
0.0
  0
LINE
  5
265
330
1F
100
AcDbEntity
  8
0
  6
HIDDEN
 62
     7
100
AcDbLine
 10
3.6875284918
 20
7.078061672
 30
0.0
 11
3.5366098567
 21
7.078061672
 31
0.0
  0
LINE
  5
266
330
1F
100
AcDbEntity
  8
0
  6
HIDDEN
 62
     7
100
AcDbLine
 10
3.6875284918
 20
7.0823976428
 30
0.0
 11
3.6875284918
 21
7.078061672
 31
0.0
  0
LINE
  5
267
330
1F
100
AcDbEntity
  8
0
  6
HIDDEN
 62
     7
100
AcDbLine
 10
3.1166623501
 20
5.9999977866
 30
0.0
 11
2.9657437149
 21
5.9999977866
 31
0.0
  0
LINE
  5
268
330
1F
100
AcDbEntity
  8
0
  6
HIDDEN
 62
     7
100
AcDbLine
 10
3.1166623501
 20
5.9973686658
 30
0.0
 11
3.1166623501
 21
5.9999977866
 31
0.0
  0
LINE
  5
269
330
1F
100
AcDbEntity
  8
0
  6
HIDDEN
 62
     7
100
AcDbLine
 10
2.9657437149
 20
7.346585612
 30
0.0
 11
3.1166623501
 21
7.346585612
 31
0.0
  0
LINE
  5
26A
330
1F
100
AcDbEntity
  8
0
  6
HIDDEN
 62
     7
100
AcDbLine
 10
2.9657437149
 20
7.3439564912
 30
0.0
 11
2.9657437149
 21
7.346585612
 31
0.0
  0
SPLINE
  5
26B
330
1F
100
AcDbEntity
  8
0
  6
HIDDEN
 62
     7
100
AcDbSpline
210
0.0
220
0.0
230
1.0
 70
     8
 71
     3
 72
     8
 73
     4
 74
     0
 42
0.00000001
 43
0.00000001
 40
0.0
 40
0.0
 40
0.0
 40
0.0
 40
0.0005415208961898
 40
0.0005415208961898
 40
0.0005415208961898
 40
0.0005415208961898
 10
3.687528491835996
 20
6.261556634991104
 30
0.0
 10
3.691697379450405
 20
6.26711585173449
 30
0.0
 10
3.695846631453289
 20
6.272688862998138
 30
0.0
 10
3.699974810348339
 20
6.278276351514852
 30
0.0
  0
SPLINE
  5
26C
330
1F
100
AcDbEntity
  8
0
  6
HIDDEN
 62
     7
100
AcDbSpline
210
0.0
220
0.0
230
1.0
 70
     8
 71
     3
 72
     8
 73
     4
 74
     0
 42
0.00000001
 43
0.00000001
 40
0.0
 40
0.0
 40
0.0
 40
0.0
 40
0.0006196767744117
 40
0.0006196767744117
 40
0.0006196767744117
 40
0.0006196767744117
 10
3.704513361494145
 20
7.065677926318001
 30
0.0
 10
3.698853771405962
 20
7.069807235333773
 30
0.0
 10
3.693192102338366
 20
7.073935120077801
 30
0.0
 10
3.687528491835996
 20
7.078061672024595
 30
0.0
  0
SPLINE
  5
26D
330
1F
100
AcDbEntity
  8
0
  6
HIDDEN
 62
     7
100
AcDbSpline
210
0.0
220
0.0
230
1.0
 70
     8
 71
     3
 72
     8
 73
     4
 74
     0
 42
0.00000001
 43
0.00000001
 40
0.0
 40
0.0
 40
0.0
 40
0.0
 40
0.0002819965571226
 40
0.0002819965571226
 40
0.0002819965571226
 40
0.0002819965571226
 10
3.10421603159137
 20
7.339476456707934
 30
0.0
 10
3.101800844499502
 20
7.336672465929395
 30
0.0
 10
3.09938791118974
 20
7.333866532196075
 30
0.0
 10
3.096977310733633
 20
7.331058597293715
 30
0.0
  0
LINE
  5
26E
330
1F
100
AcDbEntity
  8
0
  6
HIDDEN
 62
     7
100
AcDbLine
 10
3.0969773107
 20
7.3310585973
 30
0.0
 11
3.0969773107
 21
7.3439564912
 31
0.0
  0
SPLINE
  5
26F
330
1F
100
AcDbEntity
  8
0
  6
HIDDEN
 62
     7
100
AcDbSpline
210
0.0
220
0.0
230
1.0
 70
     8
 71
     3
 72
     8
 73
     4
 74
     0
 42
0.00000001
 43
0.00000001
 40
0.0
 40
0.0
 40
0.0
 40
0.0
 40
0.0006196767744117
 40
0.0006196767744117
 40
0.0006196767744117
 40
0.0006196767744117
 10
3.116662350103713
 20
7.346585612012342
 30
0.0
 10
3.110998739601344
 20
7.34245906006555
 30
0.0
 10
3.105337070533748
 20
7.33833117532152
 30
0.0
 10
3.099677480445565
 20
7.334201866305749
 30
0.0
  0
SPLINE
  5
270
330
1F
100
AcDbEntity
  8
0
  6
HIDDEN
 62
     7
100
AcDbSpline
210
0.0
220
0.0
230
1.0
 70
     8
 71
     3
 72
     8
 73
     4
 74
     0
 42
0.00000001
 43
0.00000001
 40
0.0
 40
0.0
 40
0.0
 40
0.0
 40
0.0005415208961897
 40
0.0005415208961897
 40
0.0005415208961897
 40
0.0005415208961897
 10
3.10421603159137
 20
7.339476456707934
 30
0.0
 10
3.108344210486421
 20
7.340973619743706
 30
0.0
 10
3.112493462489304
 20
7.342466903611211
 30
0.0
 10
3.116662350103713
 20
7.343956491248151
 30
0.0
  0
SPLINE
  5
271
330
1F
100
AcDbEntity
  8
0
  6
HIDDEN
 62
     7
100
AcDbSpline
210
0.0
220
0.0
230
1.0
 70
     8
 71
     3
 72
     8
 73
     4
 74
     0
 42
0.00000001
 43
0.00000001
 40
0.0
 40
0.0
 40
0.0
 40
0.0
 40
0.0001052524529271
 40
0.0001052524529271
 40
0.0001052524529271
 40
0.0001052524529271
 10
3.096977310733634
 20
6.012895680539134
 30
0.0
 10
3.097877043743218
 20
6.011847646339183
 30
0.0
 10
3.098777101703833
 20
6.010799891022958
 30
0.0
 10
3.099677480445566
 20
6.009752411527102
 30
0.0
  0
SPLINE
  5
272
330
1F
100
AcDbEntity
  8
0
  6
HIDDEN
 62
     7
100
AcDbSpline
210
0.0
220
0.0
230
1.0
 70
     8
 71
     3
 72
     8
 73
     4
 74
     0
 42
0.00000001
 43
0.00000001
 40
0.0
 40
0.0
 40
0.0
 40
0.0
 40
0.0005415208961898
 40
0.0005415208961898
 40
0.0005415208961898
 40
0.0005415208961898
 10
3.10421603159137
 20
6.004477821124918
 30
0.0
 10
3.108344210486421
 20
6.002980658089147
 30
0.0
 10
3.112493462489304
 20
6.001487374221643
 30
0.0
 10
3.116662350103713
 20
5.999997786584703
 30
0.0
  0
SPLINE
  5
273
330
1F
100
AcDbEntity
  8
0
  6
HIDDEN
 62
     7
100
AcDbSpline
210
0.0
220
0.0
230
1.0
 70
     8
 71
     3
 72
     8
 73
     4
 74
     0
 42
0.00000001
 43
0.00000001
 40
0.0
 40
0.0
 40
0.0
 40
0.0
 40
0.0002819965571225
 40
0.0002819965571225
 40
0.0002819965571225
 40
0.0002819965571225
 10
3.10421603159137
 20
6.004477821124918
 30
0.0
 10
3.101800844499502
 20
6.007281811903458
 30
0.0
 10
3.09938791118974
 20
6.010087745636778
 30
0.0
 10
3.096977310733634
 20
6.012895680539136
 30
0.0
  0
LINE
  5
274
330
1F
100
AcDbEntity
  8
0
  6
HIDDEN
 62
     7
100
AcDbLine
 10
3.0969773107
 20
5.9973686658
 30
0.0
 11
3.0969773107
 21
6.0128956805
 31
0.0
  0
SPLINE
  5
275
330
1F
100
AcDbEntity
  8
0
  6
HIDDEN
 62
     7
100
AcDbSpline
210
0.0
220
0.0
230
1.0
 70
     8
 71
     3
 72
     8
 73
     4
 74
     0
 42
0.00000001
 43
0.00000001
 40
0.0
 40
0.0
 40
0.0
 40
0.0
 40
0.0006196767744117
 40
0.0006196767744117
 40
0.0006196767744117
 40
0.0006196767744117
 10
3.099677480445566
 20
6.009752411527102
 30
0.0
 10
3.105337070533748
 20
6.005623102511331
 30
0.0
 10
3.110998739601344
 20
6.001495217767303
 30
0.0
 10
3.116662350103712
 20
5.99736866582051
 30
0.0
  0
LINE
  5
276
330
1F
100
AcDbEntity
  8
0
  6
HIDDEN
 62
     7
100
AcDbLine
 10
3.0969773107
 20
6.0128956805
 30
0.0
 11
3.0969773107
 21
7.3310585973
 31
0.0
  0
LINE
  5
277
330
1F
100
AcDbEntity
  8
0
  6
HIDDEN
 62
     7
100
AcDbLine
 10
3.0996774804
 20
6.0097524115
 30
0.0
 11
2.9487588453
 21
6.0097524115
 31
0.0
  0
LINE
  5
278
330
1F
100
AcDbEntity
  8
0
  6
HIDDEN
 62
     7
100
AcDbLine
 10
2.9532973964
 20
7.3394764567
 30
0.0
 11
3.1042160316
 21
7.3394764567
 31
0.0
  0
LINE
  5
279
330
1F
100
AcDbEntity
  8
0
  6
HIDDEN
 62
     7
100
AcDbLine
 10
2.9532973964
 20
6.0044778211
 30
0.0
 11
3.1042160316
 21
6.0044778211
 31
0.0
  0
LINE
  5
27A
330
1F
100
AcDbEntity
  8
0
  6
HIDDEN
 62
     7
100
AcDbLine
 10
3.0996774804
 20
7.3342018663
 30
0.0
 11
2.9487588453
 21
7.3342018663
 31
0.0
  0
SPLINE
  5
27B
330
1F
100
AcDbEntity
  8
0
  6
HIDDEN
 62
     7
100
AcDbSpline
210
0.0
220
0.0
230
1.0
 70
     8
 71
     3
 72
     8
 73
     4
 74
     0
 42
0.00000001
 43
0.00000001
 40
0.0
 40
0.0
 40
0.0
 40
0.0
 40
0.0002819965571225
 40
0.0002819965571225
 40
0.0002819965571225
 40
0.0002819965571225
 10
2.94605867556303
 20
6.012895680539136
 30
0.0
 10
2.948469276019136
 20
6.010087745636778
 30
0.0
 10
2.950882209328898
 20
6.007281811903457
 30
0.0
 10
2.953297396420766
 20
6.004477821124918
 30
0.0
  0
SPLINE
  5
27C
330
1F
100
AcDbEntity
  8
0
  6
HIDDEN
 62
     7
100
AcDbSpline
210
0.0
220
0.0
230
1.0
 70
     8
 71
     3
 72
     8
 73
     4
 74
     0
 42
0.00000001
 43
0.00000001
 40
0.0
 40
0.0
 40
0.0
 40
0.0
 40
0.0006196767744117
 40
0.0006196767744117
 40
0.0006196767744117
 40
0.0006196767744117
 10
2.948758845274961
 20
7.334201866305749
 30
0.0
 10
2.954418435363143
 20
7.33833117532152
 30
0.0
 10
2.960080104430739
 20
7.342459060065549
 30
0.0
 10
2.965743714933108
 20
7.346585612012342
 30
0.0
  0
SPLINE
  5
27D
330
1F
100
AcDbEntity
  8
0
  6
HIDDEN
 62
     7
100
AcDbSpline
210
0.0
220
0.0
230
1.0
 70
     8
 71
     3
 72
     8
 73
     4
 74
     0
 42
0.00000001
 43
0.00000001
 40
0.0
 40
0.0
 40
0.0
 40
0.0
 40
0.0005415208961898
 40
0.0005415208961898
 40
0.0005415208961898
 40
0.0005415208961898
 10
2.953297396420766
 20
6.004477821124918
 30
0.0
 10
2.957425575315816
 20
6.002980658089147
 30
0.0
 10
2.9615748273187
 20
6.001487374221643
 30
0.0
 10
2.965743714933109
 20
5.999997786584703
 30
0.0
  0
LINE
  5
27E
330
1F
100
AcDbEntity
  8
0
  6
HIDDEN
 62
     7
100
AcDbLine
 10
3.5490561752
 20
6.2782763515
 30
0.0
 11
3.5535852098
 21
6.2782763515
 31
0.0
  0
SPLINE
  5
27F
330
1F
100
AcDbEntity
  8
0
  6
HIDDEN
 62
     7
100
AcDbSpline
210
0.0
220
0.0
230
1.0
 70
     8
 71
     3
 72
     8
 73
     4
 74
     0
 42
0.00000001
 43
0.00000001
 40
0.0
 40
0.0
 40
0.0
 40
0.0
 40
0.0006196767744117
 40
0.0006196767744117
 40
0.0006196767744117
 40
0.0006196767744117
 10
3.536609856665392
 20
7.078061672024595
 30
0.0
 10
3.542273467167762
 20
7.073935120077801
 30
0.0
 10
3.547935136235358
 20
7.069807235333773
 30
0.0
 10
3.553594726323541
 20
7.065677926318001
 30
0.0
  0
SPLINE
  5
280
330
1F
100
AcDbEntity
  8
0
  6
HIDDEN
 62
     7
100
AcDbSpline
210
0.0
220
0.0
230
1.0
 70
     8
 71
     3
 72
     8
 73
     4
 74
     0
 42
0.00000001
 43
0.00000001
 40
0.0
 40
0.0
 40
0.0
 40
0.0
 40
0.0005415208961898
 40
0.0005415208961898
 40
0.0005415208961898
 40
0.0005415208961898
 10
3.536609856665393
 20
6.261556634991104
 30
0.0
 10
3.540778744279801
 20
6.26711585173449
 30
0.0
 10
3.544927996282685
 20
6.272688862998137
 30
0.0
 10
3.549056175177735
 20
6.278276351514852
 30
0.0
  0
CIRCLE
  5
281
330
1F
100
AcDbEntity
  8
0
  6
HIDDEN
 62
     7
100
AcDbCircle
 10
4.0352975207
 20
6.1601661153
 30
0.0
 40
0.0885826771653537
  0
LINE
  5
282
330
1F
100
AcDbEntity
  8
0
  6
HIDDEN
 62
     7
100
AcDbLine
 10
2.9460586756
 20
5.9900673722
 30
0.0
 11
2.9263736362
 21
5.9900673722
 31
0.0
  0
LINE
  5
283
330
1F
100
AcDbEntity
  8
0
  6
HIDDEN
 62
     7
100
AcDbLine
 10
2.9263736362
 20
5.9900673722
 30
0.0
 11
2.9263736362
 21
7.3538869057
 31
0.0
  0
LINE
  5
284
330
1F
100
AcDbEntity
  8
0
  6
HIDDEN
 62
     7
100
AcDbLine
 10
2.9263736362
 20
7.3538869057
 30
0.0
 11
2.9460586756
 21
7.3538869057
 31
0.0
  0
SPLINE
  5
285
330
1F
100
AcDbEntity
  8
0
  6
HIDDEN
 62
     7
100
AcDbSpline
210
0.0
220
0.0
230
1.0
 70
     8
 71
     3
 72
    58
 73
    54
 74
     0
 42
0.00000001
 43
0.00000001
 40
-0.03125
 40
-0.03125
 40
0.0
 40
0.0
 40
0.0312500000000002
 40
0.0312500000000002
 40
0.0625000000000004
 40
0.0625000000000004
 40
0.0937500000000007
 40
0.0937500000000007
 40
0.1250000000000009
 40
0.1250000000000009
 40
0.187500000000001
 40
0.187500000000001
 40
0.2187500000000011
 40
0.2187500000000011
 40
0.2500000000000011
 40
0.2500000000000011
 40
0.3125000000000014
 40
0.3125000000000014
 40
0.3750000000000017
 40
0.3750000000000017
 40
0.4062500000000016
 40
0.4062500000000016
 40
0.4375000000000014
 40
0.4375000000000014
 40
0.4687500000000013
 40
0.4687500000000013
 40
0.5000000000000012
 40
0.5000000000000012
 40
0.5312500000000011
 40
0.5312500000000011
 40
0.562500000000001
 40
0.562500000000001
 40
0.5937500000000009
 40
0.5937500000000009
 40
0.6250000000000008
 40
0.6250000000000008
 40
0.6875000000000007
 40
0.6875000000000007
 40
0.7500000000000003
 40
0.7500000000000003
 40
0.8125
 40
0.8125
 40
0.84375
 40
0.84375
 40
0.875
 40
0.875
 40
0.90625
 40
0.90625
 40
0.9375
 40
0.9375
 40
0.96875
 40
0.96875
 40
1.0
 40
1.0
 40
1.03125
 40
1.03125
 10
2.625633875071069
 20
7.169584408985898
 30
0.0
 10
2.610315497052366
 20
7.169584408985899
 30
0.0
 10
2.602935450149613
 20
7.170668517634695
 30
0.0
 10
2.588655410065476
 20
7.174677231673372
 30
0.0
 10
2.581994705711763
 20
7.177545337004752
 30
0.0
 10
2.569758092741154
 20
7.184379769277264
 30
0.0
 10
2.564191530281577
 20
7.188339752849397
 30
0.0
 10
2.554209924095193
 20
7.196772272664162
 30
0.0
 10
2.549721646158662
 20
7.201300185186318
 30
0.0
 10
2.53763273328388
 20
7.215472178722605
 30
0.0
 10
2.531624158939641
 20
7.225339532585904
 30
0.0
 10
2.525097223647489
 20
7.240460558341724
 30
0.0
 10
2.523356012002892
 20
7.245569419131435
 30
0.0
 10
2.520831381246288
 20
7.255617843116259
 30
0.0
 10
2.520030861897791
 20
7.2605916813448
 30
0.0
 10
2.519065327291103
 20
7.275357210147296
 30
0.0
 10
2.520373616150328
 20
7.28507107664275
 30
0.0
 10
2.527480960941189
 20
7.302943467049483
 30
0.0
 10
2.533401695861751
 20
7.311341101830367
 30
0.0
 10
2.545975888573661
 20
7.322031340587124
 30
0.0
 10
2.550873185419934
 20
7.325349152040267
 30
0.0
 10
2.561711740708483
 20
7.331128276935077
 30
0.0
 10
2.567638452647529
 20
7.33360709897735
 30
0.0
 10
2.580612355261546
 20
7.33772859430611
 30
0.0
 10
2.587691629187081
 20
7.339355096440282
 30
0.0
 10
2.60213559054132
 20
7.341522141701646
 30
0.0
 10
2.609719034130883
 20
7.342102924188078
 30
0.0
 10
2.624882411695085
 20
7.342166973860464
 30
0.0
 10
2.63235617192763
 20
7.341667481810203
 30
0.0
 10
2.647088860350189
 20
7.339591783406401
 30
0.0
 10
2.654095489855383
 20
7.3380449314393
 30
0.0
 10
2.667243132048064
 20
7.334011724838894
 30
0.0
 10
2.673391357433202
 20
7.331508986458865
 30
0.0
 10
2.684368339809565
 20
7.325787735901417
 30
0.0
 10
2.689322325499564
 20
7.322505341996235
 30
0.0
 10
2.70214539628999
 20
7.3118273355615
 30
0.0
 10
2.708160315363608
 20
7.30347180422886
 30
0.0
 10
2.715478752922122
 20
7.285547999474416
 30
0.0
 10
2.716856309775327
 20
7.275842119822736
 30
0.0
 10
2.715680024603882
 20
7.256075597003036
 30
0.0
 10
2.713117921513301
 20
7.245805621429772
 30
0.0
 10
2.706672610900176
 20
7.230732184945932
 30
0.0
 10
2.704085809710099
 20
7.225737040302569
 30
0.0
 10
2.697966664359827
 20
7.215838253869829
 30
0.0
 10
2.694412392872509
 20
7.210915033812131
 30
0.0
 10
2.686421334212879
 20
7.201508076290177
 30
0.0
 10
2.681971643135656
 20
7.196989667841772
 30
0.0
 10
2.671941499093585
 20
7.18847453407678
 30
0.0
 10
2.666354316939322
 20
7.184489439503073
 30
0.0
 10
2.654187659093348
 20
7.177657454699781
 30
0.0
 10
2.647444973844821
 20
7.174737565565427
 30
0.0
 10
2.633244295236142
 20
7.170715722122018
 30
0.0
 10
2.625633875071069
 20
7.169584408985898
 30
0.0
 10
2.610315497052366
 20
7.169584408985899
 30
0.0
  0
SPLINE
  5
286
330
1F
100
AcDbEntity
  8
0
  6
HIDDEN
 62
     7
100
AcDbSpline
210
0.0
220
0.0
230
1.0
 70
     8
 71
     3
 72
    80
 73
    76
 74
     0
 42
0.00000001
 43
0.00000001
 40
-0.0312499999999999
 40
-0.0312499999999999
 40
0.0
 40
0.0
 40
0.0312499999999999
 40
0.0312499999999999
 40
0.0468749999999998
 40
0.0468749999999998
 40
0.0624999999999997
 40
0.0624999999999997
 40
0.0937499999999998
 40
0.0937499999999998
 40
0.1249999999999999
 40
0.1249999999999999
 40
0.1562499999999999
 40
0.1562499999999999
 40
0.1875
 40
0.1875
 40
0.2187500000000001
 40
0.2187500000000001
 40
0.2500000000000003
 40
0.2500000000000003
 40
0.2812500000000006
 40
0.2812500000000006
 40
0.3125000000000007
 40
0.3125000000000007
 40
0.3750000000000009
 40
0.3750000000000009
 40
0.406250000000001
 40
0.406250000000001
 40
0.4375000000000011
 40
0.4375000000000011
 40
0.4531250000000011
 40
0.4531250000000011
 40
0.468750000000001
 40
0.468750000000001
 40
0.484375000000001
 40
0.484375000000001
 40
0.500000000000001
 40
0.500000000000001
 40
0.5156250000000009
 40
0.5156250000000009
 40
0.5312500000000009
 40
0.5312500000000009
 40
0.5468750000000008
 40
0.5468750000000008
 40
0.5625000000000008
 40
0.5625000000000008
 40
0.5937500000000007
 40
0.5937500000000007
 40
0.6250000000000007
 40
0.6250000000000007
 40
0.6562500000000007
 40
0.6562500000000007
 40
0.6875000000000007
 40
0.6875000000000007
 40
0.7500000000000004
 40
0.7500000000000004
 40
0.7812500000000003
 40
0.7812500000000003
 40
0.8125000000000003
 40
0.8125000000000003
 40
0.8437500000000003
 40
0.8437500000000003
 40
0.8750000000000003
 40
0.8750000000000003
 40
0.8906250000000002
 40
0.8906250000000002
 40
0.9062500000000002
 40
0.9062500000000002
 40
0.9375
 40
0.9375
 40
0.9531250000000001
 40
0.9531250000000001
 40
0.9687500000000001
 40
0.9687500000000001
 40
1.0
 40
1.0
 40
1.03125
 40
1.03125
 10
2.604745049289287
 20
5.963931146301361
 30
0.0
 10
2.631204322834148
 20
5.963931146301361
 30
0.0
 10
2.644136906794715
 20
5.964678040946452
 30
0.0
 10
2.663108762654634
 20
5.966915273360677
 30
0.0
 10
2.669404091945912
 20
5.967859391891349
 30
0.0
 10
2.681559925874906
 20
5.970103967333293
 30
0.0
 10
2.687433176662273
 20
5.971402555073528
 30
0.0
 10
2.704463750549822
 20
5.975838216994642
 30
0.0
 10
2.715151409823212
 20
5.979571446672296
 30
0.0
 10
2.734155190281867
 20
5.988323922796113
 30
0.0
 10
2.742550799075773
 20
5.993345077172909
 30
0.0
 10
2.75719734318019
 20
6.004745903206205
 30
0.0
 10
2.763239466067644
 20
6.010957992174173
 30
0.0
 10
2.773121206600561
 20
6.024438614944739
 30
0.0
 10
2.776950551521323
 20
6.0317471832431
 30
0.0
 10
2.782410314018847
 20
6.046966327102983
 30
0.0
 10
2.784090031832261
 20
6.05493056271121
 30
0.0
 10
2.785592183262997
 20
6.071583509683946
 30
0.0
 10
2.785397268057918
 20
6.080156294599346
 30
0.0
 10
2.783400235426687
 20
6.097569458890072
 30
0.0
 10
2.781599422562441
 20
6.106444766146724
 30
0.0
 10
2.776525900986082
 20
6.124524597239492
 30
0.0
 10
2.773225238568079
 20
6.133786131665143
 30
0.0
 10
2.761366143041441
 20
6.16147381631745
 30
0.0
 10
2.75096599647492
 20
6.179897475713299
 30
0.0
 10
2.731021506375389
 20
6.206979226489877
 30
0.0
 10
2.723667679702145
 20
6.215843087868167
 30
0.0
 10
2.707445284153657
 20
6.232692886572252
 30
0.0
 10
2.698467132661837
 20
6.240799330945151
 30
0.0
 10
2.683582362610357
 20
6.251635419902968
 30
0.0
 10
2.678401831782762
 20
6.25501266025938
 30
0.0
 10
2.66749330139805
 20
6.261153791594158
 30
0.0
 10
2.661711477330753
 20
6.26393893727725
 30
0.0
 10
2.649706774545399
 20
6.268560881165214
 30
0.0
 10
2.643520114255741
 20
6.270391876659821
 30
0.0
 10
2.630707117348952
 20
6.272890500653299
 30
0.0
 10
2.624063716165622
 20
6.273535067370149
 30
0.0
 10
2.611012276763108
 20
6.27347701289349
 30
0.0
 10
2.604506654797376
 20
6.272795260829066
 30
0.0
 10
2.591604759174028
 20
6.270176682097794
 30
0.0
 10
2.585417406350313
 20
6.268288724876068
 30
0.0
 10
2.573469697071244
 20
6.263591112703181
 30
0.0
 10
2.567692812813898
 20
6.260763505344192
 30
0.0
 10
2.556818508168771
 20
6.254557033635169
 30
0.0
 10
2.551670441244743
 20
6.251160812837631
 30
0.0
 10
2.53690986651137
 20
6.240310706681312
 30
0.0
 10
2.527934213163501
 20
6.232151954796968
 30
0.0
 10
2.511814124947346
 20
6.215303066728199
 30
0.0
 10
2.504582473776985
 20
6.206541019540905
 30
0.0
 10
2.491420660050643
 20
6.188606269022934
 30
0.0
 10
2.485468621485296
 20
6.179377148052082
 30
0.0
 10
2.474953337989028
 20
6.16093226805808
 30
0.0
 10
2.470381169012277
 20
6.151715501014908
 30
0.0
 10
2.458648592177787
 20
6.124161977993203
 30
0.0
 10
2.453430004693621
 20
6.105755975213989
 30
0.0
 10
2.450528464462221
 20
6.079686521695184
 30
0.0
 10
2.450367457333206
 20
6.071209792902512
 30
0.0
 10
2.451905824455982
 20
6.054685033646183
 30
0.0
 10
2.45363059762046
 20
6.046625103382898
 30
0.0
 10
2.459126516593207
 20
6.031480805661992
 30
0.0
 10
2.462894187010515
 20
6.024323766232208
 30
0.0
 10
2.472824582303776
 20
6.010826789602794
 30
0.0
 10
2.47896817040662
 20
6.004559823767949
 30
0.0
 10
2.489826468349922
 20
5.996134756444558
 30
0.0
 10
2.493732271784779
 20
5.993473165399417
 30
0.0
 10
2.502158944065612
 20
5.988437832459192
 30
0.0
 10
2.506709308154015
 20
5.986053301575298
 30
0.0
 10
2.520986050440853
 20
5.979498972806869
 30
0.0
 10
2.531401683374017
 20
5.975863932799107
 30
0.0
 10
2.548452602486292
 20
5.971417208953326
 30
0.0
 10
2.554425831695553
 20
5.970096487571302
 30
0.0
 10
2.56657367611002
 20
5.967854913838139
 30
0.0
 10
2.572755159461341
 20
5.966927908111709
 30
0.0
 10
2.591618468786965
 20
5.964695874922863
 30
0.0
 10
2.604745049289287
 20
5.963931146301361
 30
0.0
 10
2.631204322834148
 20
5.963931146301361
 30
0.0
  0
LINE
  5
287
330
1F
100
AcDbEntity
  8
0
  6
HIDDEN
 62
     7
100
AcDbLine
 10
3.08585535
 20
7.3439564912
 30
0.0
 11
3.0969773107
 21
7.3310585973
 31
0.0
  0
LINE
  5
288
330
1F
100
AcDbEntity
  8
0
  6
HIDDEN
 62
     7
100
AcDbLine
 10
3.0969773107
 20
6.0128956805
 30
0.0
 11
3.0835882374
 21
5.9973686658
 31
0.0
  0
LINE
  5
289
330
1F
100
AcDbEntity
  8
0
  6
HIDDEN
 62
     7
100
AcDbLine
 10
2.3423841349
 20
6.6818196586
 30
0.0
 11
2.6185356321
 21
6.6818196586
 31
0.0
  0
LINE
  5
28A
330
1F
100
AcDbEntity
  8
0
  6
HIDDEN
 62
     7
100
AcDbLine
 10
2.3423841349
 20
6.6621346192
 30
0.0
 11
2.6185356321
 21
6.6621346192
 31
0.0
  0
LINE
  5
28B
330
1F
100
AcDbEntity
  8
0
  6
HIDDEN
 62
     7
100
AcDbLine
 10
2.8755206178
 20
7.4231103684
 30
0.0
 11
2.8755206178
 21
6.6719771389
 31
0.0
  0
LINE
  5
28C
330
1F
100
AcDbEntity
  8
0
  6
HIDDEN
 62
     7
100
AcDbLine
 10
2.8755206178
 20
6.6719771389
 30
0.0
 11
2.8755206178
 21
5.9208439095
 31
0.0
  0
LINE
  5
28D
330
1F
100
AcDbEntity
  8
0
  6
HIDDEN
 62
     7
100
AcDbLine
 10
2.8558355785
 20
7.4231103684
 30
0.0
 11
2.8558355785
 21
6.6719771389
 31
0.0
  0
LINE
  5
28E
330
1F
100
AcDbEntity
  8
0
  6
HIDDEN
 62
     7
100
AcDbLine
 10
2.8558355785
 20
6.6818196586
 30
0.0
 11
2.6185356321
 21
6.6818196586
 31
0.0
  0
LINE
  5
28F
330
1F
100
AcDbEntity
  8
0
  6
HIDDEN
 62
     7
100
AcDbLine
 10
2.8558355785
 20
6.6621346192
 30
0.0
 11
2.6185356321
 21
6.6621346192
 31
0.0
  0
SPLINE
  5
290
330
1F
100
AcDbEntity
  8
0
  6
HIDDEN
 62
     7
100
AcDbSpline
210
0.0
220
0.0
230
1.0
 70
     8
 71
     3
 72
     8
 73
     4
 74
     0
 42
0.00000001
 43
0.00000001
 40
0.0
 40
0.0
 40
0.0
 40
0.0
 40
1.0
 40
1.0
 40
1.0
 40
1.0
 10
2.618535632059254
 20
6.681819658601465
 30
0.0
 10
2.618106701580606
 20
6.675257978811437
 30
0.0
 10
2.618106701580606
 20
6.668696299021413
 30
0.0
 10
2.618535632059254
 20
6.662134619231386
 30
0.0
  0
LINE
  5
291
330
1F
100
AcDbEntity
  8
0
  6
HIDDEN
 62
     7
100
AcDbLine
 10
2.8558355785
 20
6.6719771389
 30
0.0
 11
2.8558355785
 21
5.9208439095
 31
0.0
  0
LINE
  5
292
330
1F
100
AcDbEntity
  8
0
  6
HIDDEN
 62
     7
100
AcDbLine
 10
2.4506518514
 20
6.2782763515
 30
0.0
 11
2.7852975207
 21
6.2782763515
 31
0.0
  0
SPLINE
  5
293
330
1F
100
AcDbEntity
  8
0
  6
HIDDEN
 62
     7
100
AcDbSpline
210
0.0
220
0.0
230
1.0
 70
     8
 71
     3
 72
     8
 73
     4
 74
     0
 42
0.00000001
 43
0.00000001
 40
0.0
 40
0.0
 40
0.0
 40
0.0
 40
0.000765645677896
 40
0.000765645677896
 40
0.000765645677896
 40
0.000765645677896
 10
2.926373636192951
 20
7.353886905675828
 30
0.0
 10
2.932951493850383
 20
7.346291449897409
 30
0.0
 10
2.939513681400035
 20
7.338682389739065
 30
0.0
 10
2.94605867556303
 20
7.331058597293719
 30
0.0
  0
SPLINE
  5
294
330
1F
100
AcDbEntity
  8
0
  6
HIDDEN
 62
     7
100
AcDbSpline
210
0.0
220
0.0
230
1.0
 70
     8
 71
     3
 72
     8
 73
     4
 74
     0
 42
0.00000001
 43
0.00000001
 40
0.0
 40
0.0
 40
0.0
 40
0.0
 40
0.000765645677896
 40
0.000765645677896
 40
0.000765645677896
 40
0.000765645677896
 10
2.94605867556303
 20
6.012895680539136
 30
0.0
 10
2.939513681400035
 20
6.00527188809379
 30
0.0
 10
2.932951493850383
 20
5.997662827935446
 30
0.0
 10
2.926373636192951
 20
5.990067372157027
 30
0.0
  0
LINE
  5
295
330
1F
100
AcDbEntity
  8
0
  6
HIDDEN
 62
     7
100
AcDbLine
 10
2.4507153827
 20
6.0912684775
 30
0.0
 11
2.7852339894
 21
6.0912684775
 31
0.0
  0
LINE
  5
296
330
1F
100
AcDbEntity
  8
0
  6
HIDDEN
 62
     7
100
AcDbLine
 10
2.4604943711
 20
6.0814259578
 30
0.0
 11
2.775455001
 21
6.0814259578
 31
0.0
  0
LINE
  5
297
330
1F
100
AcDbEntity
  8
0
  6
HIDDEN
 62
     7
100
AcDbLine
 10
2.6179746861
 20
7.1837881625
 30
0.0
 11
2.5293920089
 21
7.1837881625
 31
0.0
  0
LINE
  5
298
330
1F
100
AcDbEntity
  8
0
  6
HIDDEN
 62
     7
100
AcDbLine
 10
2.7065573632
 20
7.1837881625
 30
0.0
 11
2.6179746861
 21
7.1837881625
 31
0.0
  0
LINE
  5
299
330
1F
100
AcDbEntity
  8
0
  6
HIDDEN
 62
     7
100
AcDbLine
 10
2.5196151537
 20
7.1739456429
 30
0.0
 11
2.7163342184
 21
7.1739456429
 31
0.0
  0
LINE
  5
29A
330
1F
100
AcDbEntity
  8
0
  6
HIDDEN
 62
     7
100
AcDbLine
 10
2.6179746861
 20
6.2389062728
 30
0.0
 11
2.6179746861
 21
6.0814259578
 31
0.0
  0
LINE
  5
29B
330
1F
100
AcDbEntity
  8
0
  6
HIDDEN
 62
     7
100
AcDbLine
 10
2.6179746861
 20
6.2389062728
 30
0.0
 11
2.6967148435
 21
6.2389062728
 31
0.0
  0
LINE
  5
29C
330
1F
100
AcDbEntity
  8
0
  6
HIDDEN
 62
     7
100
AcDbLine
 10
2.5392345286
 20
6.2389062728
 30
0.0
 11
2.6179746861
 21
6.2389062728
 31
0.0
  0
LINE
  5
29D
330
1F
100
AcDbEntity
  8
0
  6
HIDDEN
 62
     7
100
AcDbLine
 10
2.6967148435
 20
6.2389062728
 30
0.0
 11
2.6967148435
 21
6.0814259578
 31
0.0
  0
LINE
  5
29E
330
1F
100
AcDbEntity
  8
0
  6
HIDDEN
 62
     7
100
AcDbLine
 10
2.5392345286
 20
6.2389062728
 30
0.0
 11
2.5392345286
 21
6.0814259578
 31
0.0
  0
LINE
  5
29F
330
1F
100
AcDbEntity
  8
0
  6
HIDDEN
 62
     7
100
AcDbLine
 10
3.7777515889
 20
6.9081976114
 30
0.0
 11
3.556294896
 21
6.9081976114
 31
0.0
  0
LINE
  5
2A0
330
1F
100
AcDbEntity
  8
0
  6
HIDDEN
 62
     7
100
AcDbLine
 10
3.556294896
 20
6.4357566665
 30
0.0
 11
3.7777515889
 21
6.4357566665
 31
0.0
  0
LINE
  5
2A1
330
1F
100
AcDbEntity
  8
0
  6
HIDDEN
 62
     7
100
AcDbLine
 10
4.0347365747
 20
6.9081976114
 30
0.0
 11
3.7974366283
 21
6.9081976114
 31
0.0
  0
LINE
  5
2A2
330
1F
100
AcDbEntity
  8
0
  6
HIDDEN
 62
     7
100
AcDbLine
 10
3.0969773107
 20
6.4357566665
 30
0.0
 11
3.556294896
 21
6.4357566665
 31
0.0
  0
LINE
  5
2A3
330
1F
100
AcDbEntity
  8
0
  6
HIDDEN
 62
     7
100
AcDbLine
 10
3.556294896
 20
6.9081976114
 30
0.0
 11
3.0969773107
 21
6.9081976114
 31
0.0
  0
LINE
  5
2A4
330
1F
100
AcDbEntity
  8
0
  6
HIDDEN
 62
     7
100
AcDbLine
 10
2.3620691743
 20
6.9081976114
 30
0.0
 11
2.3423841349
 21
6.9278826507
 31
0.0
  0
LINE
  5
2A5
330
1F
100
AcDbEntity
  8
0
  6
HIDDEN
 62
     7
100
AcDbLine
 10
2.3423841349
 20
6.4160716271
 30
0.0
 11
2.3620691743
 21
6.4357566665
 31
0.0
  0
LINE
  5
2A6
330
1F
100
AcDbEntity
  8
0
  6
HIDDEN
 62
     7
100
AcDbLine
 10
2.8755206178
 20
6.4357566665
 30
0.0
 11
3.0969773107
 21
6.4357566665
 31
0.0
  0
LINE
  5
2A7
330
1F
100
AcDbEntity
  8
0
  6
HIDDEN
 62
     7
100
AcDbLine
 10
3.0969773107
 20
6.9081976114
 30
0.0
 11
2.8755206178
 21
6.9081976114
 31
0.0
  0
LINE
  5
2A8
330
1F
100
AcDbEntity
  8
0
  6
HIDDEN
 62
     7
100
AcDbLine
 10
2.3620691743
 20
6.4357566665
 30
0.0
 11
2.8558355785
 21
6.4357566665
 31
0.0
  0
LINE
  5
2A9
330
1F
100
AcDbEntity
  8
0
  6
HIDDEN
 62
     7
100
AcDbLine
 10
2.8558355785
 20
6.9081976114
 30
0.0
 11
2.3620691743
 21
6.9081976114
 31
0.0
  0
LINE
  5
2AA
330
1F
100
AcDbEntity
  8
0
  6
HIDDEN
 62
     7
100
AcDbLine
 10
2.4506518514
 20
6.2782763515
 30
0.0
 11
2.4506518514
 21
6.0736316502
 31
0.0
  0
LINE
  5
2AB
330
1F
100
AcDbEntity
  8
0
  6
HIDDEN
 62
     7
100
AcDbLine
 10
2.7852975207
 20
6.0738109952
 30
0.0
 11
2.7852975207
 21
6.2782763515
 31
0.0
  0
LINE
  5
2AC
330
1F
100
AcDbEntity
  8
0
  6
HIDDEN
 62
     7
100
AcDbLine
 10
2.7163998829
 20
6.6818196586
 30
0.0
 11
2.7163998829
 21
7.2702648436
 31
0.0
  0
LINE
  5
2AD
330
1F
100
AcDbEntity
  8
0
  6
HIDDEN
 62
     7
100
AcDbLine
 10
2.5195494892
 20
7.2701887293
 30
0.0
 11
2.5195494892
 21
6.6818196586
 31
0.0
  0
LINE
  5
2AE
330
1F
100
AcDbEntity
  8
0
  6
HIDDEN
 62
     7
100
AcDbLine
 10
2.7163998829
 20
6.2782763515
 30
0.0
 11
2.7163998829
 21
6.6621346192
 31
0.0
  0
LINE
  5
2AF
330
1F
100
AcDbEntity
  8
0
  6
HIDDEN
 62
     7
100
AcDbLine
 10
2.5195494892
 20
6.6621346192
 30
0.0
 11
2.5195494892
 21
6.2782763515
 31
0.0
  0
LINE
  5
2B0
330
1F
100
AcDbEntity
  8
0
  6
HIDDEN
 62
     7
100
AcDbLine
 10
2.4506518514
 20
6.2782763515
 30
0.0
 11
2.4506518514
 21
6.0912684775
 31
0.0
  0
LINE
  5
2B1
330
1F
100
AcDbEntity
  8
0
  6
HIDDEN
 62
     7
100
AcDbLine
 10
2.7852975207
 20
6.0912684775
 30
0.0
 11
2.7852975207
 21
6.2782763515
 31
0.0
  0
ARC
  5
2B2
330
1F
100
AcDbEntity
  8
0
  6
HIDDEN
 62
     7
100
AcDbCircle
 10
2.775455001
 20
6.0912684775
 30
0.0
 40
0.0098425196850394
100
AcDbArc
 50
270.0
 51
0.0
  0
ARC
  5
2B3
330
1F
100
AcDbEntity
  8
0
  6
HIDDEN
 62
     7
100
AcDbCircle
 10
2.4604943711
 20
6.0912684775
 30
0.0
 40
0.0098425196850394
100
AcDbArc
 50
180.0
 51
270.0
  0
ARC
  5
2B4
330
1F
100
AcDbEntity
  8
0
  6
HIDDEN
 62
     7
100
AcDbCircle
 10
2.5293920089
 20
7.1739456429
 30
0.0
 40
0.0098425196850394
100
AcDbArc
 50
90.0
 51
180.0
  0
ARC
  5
2B5
330
1F
100
AcDbEntity
  8
0
  6
HIDDEN
 62
     7
100
AcDbCircle
 10
2.7065573632
 20
7.1739456429
 30
0.0
 40
0.0098425196850394
100
AcDbArc
 50
0.0
 51
90.0
  0
LINE
  5
2B6
330
1F
100
AcDbEntity
  8
0
  6
HIDDEN
 62
     7
100
AcDbLine
 10
2.5195494892
 20
7.1739456429
 30
0.0
 11
2.5195494892
 21
6.2782763515
 31
0.0
  0
LINE
  5
2B7
330
1F
100
AcDbEntity
  8
0
  6
HIDDEN
 62
     7
100
AcDbLine
 10
2.7163998829
 20
6.2782763515
 30
0.0
 11
2.7163998829
 21
7.1739456429
 31
0.0
  0
LINE
  5
2B8
330
1F
100
AcDbEntity
  8
0
  6
CONTINUOUS
 62
     7
100
AcDbLine
 10
8.8556826974
 20
5.8158135739
 30
0.0
 11
8.8695998599
 21
5.8238503928
 31
0.0
  0
LINE
  5
2B9
330
1F
100
AcDbEntity
  8
0
  6
CONTINUOUS
 62
     7
100
AcDbLine
 10
9.4123691986
 20
6.7640563373
 30
0.0
 11
9.4123691986
 21
6.7801273631
 31
0.0
  0
LINE
  5
2BA
330
1F
100
AcDbEntity
  8
0
  6
CONTINUOUS
 62
     7
100
AcDbLine
 10
8.3425321967
 20
5.8457016907
 30
0.0
 11
8.4619234131
 21
5.7767786086
 31
0.0
  0
LINE
  5
2BB
330
1F
100
AcDbEntity
  8
0
  6
CONTINUOUS
 62
     7
100
AcDbLine
 10
8.1127778404
 20
5.9783360574
 30
0.0
 11
8.219358869
 21
5.9168081393
 31
0.0
  0
LINE
  5
2BC
330
1F
100
AcDbEntity
  8
0
  6
CONTINUOUS
 62
     7
100
AcDbLine
 10
8.0628999014
 20
6.0071299787
 30
0.0
 11
8.0988584156
 21
5.9863715704
 31
0.0
  0
LINE
  5
2BD
330
1F
100
AcDbEntity
  8
0
  6
CONTINUOUS
 62
     7
100
AcDbLine
 10
9.2492609979
 20
7.1406350848
 30
0.0
 11
8.8363180614
 21
7.3790219678
 31
0.0
  0
LINE
  5
2BE
330
1F
100
AcDbEntity
  8
0
  6
CONTINUOUS
 62
     7
100
AcDbLine
 10
7.8997917007
 20
6.3837087262
 30
0.0
 11
7.8997917007
 21
6.3676377003
 31
0.0
  0
LINE
  5
2BF
330
1F
100
AcDbEntity
  8
0
  6
CONTINUOUS
 62
     7
100
AcDbLine
 10
8.3497626115
 20
7.3935570886
 30
0.0
 11
8.335845449
 21
7.3855202697
 31
0.0
  0
LINE
  5
2C0
330
1F
100
AcDbEntity
  8
0
  6
CONTINUOUS
 62
     7
100
AcDbLine
 10
7.5246821415
 20
6.317836478
 30
0.0
 11
8.0350610518
 21
6.0232010045
 31
0.0
  0
LINE
  5
2C1
330
1F
100
AcDbEntity
  8
0
  6
CONTINUOUS
 62
     7
100
AcDbLine
 10
8.8223986365
 20
7.3870574807
 30
0.0
 11
8.3120197262
 21
7.6816929541
 31
0.0
  0
LINE
  5
2C2
330
1F
100
AcDbEntity
  8
0
  6
CONTINUOUS
 62
     7
100
AcDbLine
 10
7.9182604419
 20
7.6426579889
 30
0.0
 11
7.9043432794
 21
7.6346211699
 31
0.0
  0
LINE
  5
2C3
330
1F
100
AcDbEntity
  8
0
  6
CONTINUOUS
 62
     7
100
AcDbLine
 10
7.4682895311
 20
6.6328096264
 30
0.0
 11
7.4682895311
 21
6.6167386006
 31
0.0
  0
SPLINE
  5
2C4
330
1F
100
AcDbEntity
  8
0
  6
CONTINUOUS
 62
     7
100
AcDbSpline
210
0.0
220
0.0
230
1.0
 70
     8
 71
     3
 72
    35
 73
    31
 74
     0
 42
0.00000001
 43
0.00000001
 40
0.0
 40
0.0
 40
0.0
 40
0.0
 40
0.0120213394980076
 40
0.0484393088201246
 40
0.0853525424958941
 40
0.1226627610502534
 40
0.1602230940349989
 40
0.1979006354413163
 40
0.235595086426804
 40
0.2732566928855822
 40
0.3108720099360886
 40
0.3484419890525856
 40
0.385975088376263
 40
0.4234833954719376
 40
0.4609806604874823
 40
0.4984813991483963
 40
0.5359962558603482
 40
0.5735396918398398
 40
0.6111267701203271
 40
0.6487717620036872
 40
0.6864864788065104
 40
0.7242768246079483
 40
0.7621363245466035
 40
0.8000306710893336
 40
0.83786351901615
 40
0.8754976092990537
 40
0.9127582780365388
 40
0.9494959028421001
 40
0.9856769252841673
 40
1.0
 40
1.0
 40
1.0
 40
1.0
 10
8.471606473213816
 20
6.860002057979518
 30
0.0
 10
8.471057593753512
 20
6.861131121636805
 30
0.0
 10
8.468845914956226
 20
6.865680619900453
 30
0.0
 10
8.46322886100222
 20
6.873196759139292
 30
0.0
 10
8.454809176418735
 20
6.88245856606229
 30
0.0
 10
8.444674091830118
 20
6.891100790462594
 30
0.0
 10
8.433089897353202
 20
6.899058457578299
 30
0.0
 10
8.42015801593101
 20
6.906223098254975
 30
0.0
 10
8.406050645501741
 20
6.912517316708611
 30
0.0
 10
8.390933646273547
 20
6.917876654670862
 30
0.0
 10
8.37497942540046
 20
6.92225182599429
 30
0.0
 10
8.358362399850106
 20
6.925604203845683
 30
0.0
 10
8.341261445766937
 20
6.92790469118011
 30
0.0
 10
8.32385887008564
 20
6.929133428253302
 30
0.0
 10
8.306339325832134
 20
6.929279890006077
 30
0.0
 10
8.288888896618145
 20
6.928342990199956
 30
0.0
 10
8.271692744670199
 20
6.926331176484321
 30
0.0
 10
8.25493308686536
 20
6.923262155152983
 30
0.0
 10
8.238786848766205
 20
6.919162146704046
 30
0.0
 10
8.223424855822769
 20
6.914065168454601
 30
0.0
 10
8.209011050936258
 20
6.908012279670268
 30
0.0
 10
8.195702498934459
 20
6.901051073178713
 30
0.0
 10
8.183650376537358
 20
6.893236365565437
 30
0.0
 10
8.173004742165269
 20
6.884634431571676
 30
0.0
 10
8.163907533086137
 20
6.875328400197898
 30
0.0
 10
8.156505346697626
 20
6.865425667437983
 30
0.0
 10
8.150869266232357
 20
6.855061354578499
 30
0.0
 10
8.147226365992957
 20
6.844394969448822
 30
0.0
 10
8.145475447571796
 20
6.835726248914451
 30
0.0
 10
8.145602758496764
 20
6.830676236902931
 30
0.0
 10
8.145638864159338
 20
6.829244042221168
 30
0.0
  0
LINE
  5
2C5
330
1F
100
AcDbEntity
  8
0
  6
CONTINUOUS
 62
     7
100
AcDbLine
 10
8.1454118026
 20
6.8284175007
 30
0.0
 11
8.1454118026
 21
6.7397893392
 31
0.0
  0
SPLINE
  5
2C6
330
1F
100
AcDbEntity
  8
0
  6
CONTINUOUS
 62
     7
100
AcDbSpline
210
0.0
220
0.0
230
1.0
 70
     8
 71
     3
 72
    13
 73
     9
 74
     0
 42
0.00000001
 43
0.00000001
 40
0.0
 40
0.0
 40
0.0
 40
0.0
 40
0.0777901825454685
 40
0.2602288210831999
 40
0.4464502206763475
 40
0.6347193743026683
 40
0.8234892834622342
 40
0.9999999999999999
 40
0.9999999999999999
 40
0.9999999999999999
 40
0.9999999999999999
 10
8.224101098033966
 20
5.917768577979492
 30
0.0
 10
8.224888496349074
 20
5.916667095873284
 30
0.0
 10
8.227522552839991
 20
5.912982345682924
 30
0.0
 10
8.23365810264248
 20
5.90740325464632
 30
0.0
 10
8.24234920637353
 20
5.901085555558303
 30
0.0
 10
8.252514316310913
 20
5.895632993483561
 30
0.0
 10
8.263499156704489
 20
5.891097746955988
 30
0.0
 10
8.271456876135906
 20
5.888934665595592
 30
0.0
 10
8.27530220123675
 20
5.887889422530415
 30
0.0
  0
LINE
  5
2C7
330
1F
100
AcDbEntity
  8
0
  6
CONTINUOUS
 62
     7
100
AcDbLine
 10
8.2981003014
 20
7.6897284671
 30
0.0
 11
7.8851573649
 21
7.9281153501
 31
0.0
  0
LINE
  5
2C8
330
1F
100
AcDbEntity
  8
0
  6
CONTINUOUS
 62
     7
100
AcDbLine
 10
7.4608847777
 20
6.3546659121
 30
0.0
 11
7.4968432918
 21
6.3339075038
 31
0.0
  0
LINE
  5
2C9
330
1F
100
AcDbEntity
  8
0
  6
CONTINUOUS
 62
     7
100
AcDbLine
 10
7.392726069
 20
6.3940130971
 30
0.0
 11
7.4469653529
 21
6.362701425
 31
0.0
  0
LINE
  5
2CA
330
1F
100
AcDbEntity
  8
0
  6
CONTINUOUS
 62
     7
100
AcDbLine
 10
7.0978197801
 20
6.5642588739
 30
0.0
 11
7.1411802749
 21
6.5392273931
 31
0.0
  0
LINE
  5
2CB
330
1F
100
AcDbEntity
  8
0
  6
CONTINUOUS
 62
     7
100
AcDbLine
 10
7.4913980806
 20
7.8890803848
 30
0.0
 11
7.4774809181
 21
7.8810435659
 31
0.0
  0
LINE
  5
2CC
330
1F
100
AcDbEntity
  8
0
  6
CONTINUOUS
 62
     7
100
AcDbLine
 10
6.9347115794
 20
6.9408376214
 30
0.0
 11
6.9347115794
 21
6.9247665955
 31
0.0
  0
SPLINE
  5
2CD
330
1F
100
AcDbEntity
  8
0
  6
CONTINUOUS
 62
     7
100
AcDbSpline
210
0.0
220
0.0
230
1.0
 70
     8
 71
     3
 72
    25
 73
    21
 74
     0
 42
0.00000001
 43
0.00000001
 40
0.0
 40
0.0
 40
0.0
 40
0.0
 40
0.0567695751240453
 40
0.1150435352262264
 40
0.1735352499422526
 40
0.2320800688628157
 40
0.29058196134604
 40
0.3490139263518588
 40
0.40737407839233
 40
0.4656738562788048
 40
0.5239312305081876
 40
0.5821671882274081
 40
0.6404040939975127
 40
0.6986598701443106
 40
0.7569554323377183
 40
0.8153142415772239
 40
0.8737588309211927
 40
0.9323085807146922
 40
0.9878608211702974
 40
0.9999999999999999
 40
0.9999999999999999
 40
0.9999999999999999
 40
0.9999999999999999
 10
7.144806185408028
 20
6.584841034282203
 30
0.0
 10
7.143830821663095
 20
6.580690129629706
 30
0.0
 10
7.141854247184539
 20
6.572278321992131
 30
0.0
 10
7.140583690626495
 20
6.558457320292742
 30
0.0
 10
7.140556353678226
 20
6.543827295475937
 30
0.0
 10
7.141903755506606
 20
6.528557465229448
 30
0.0
 10
7.144564757752329
 20
6.512852150992376
 30
0.0
 10
7.1485081629609
 20
6.496878922570682
 30
0.0
 10
7.153679639783967
 20
6.480810373569004
 30
0.0
 10
7.160017637075896
 20
6.464815671530052
 30
0.0
 10
7.167449886566743
 20
6.449063158649521
 30
0.0
 10
7.175894989437268
 20
6.433718604072934
 30
0.0
 10
7.185262520897861
 20
6.418944482177752
 30
0.0
 10
7.195454017680057
 20
6.404898222880581
 30
0.0
 10
7.206364213821652
 20
6.391730023407435
 30
0.0
 10
7.217882733435225
 20
6.379582809400559
 30
0.0
 10
7.229895349933048
 20
6.368585597795031
 30
0.0
 10
7.242065285287414
 20
6.359047813658917
 30
0.0
 10
7.25113284672762
 20
6.353024403247174
 30
0.0
 10
7.256020664980406
 20
6.350163132258066
 30
0.0
 10
7.256897202959432
 20
6.349650017293367
 30
0.0
  0
SPLINE
  5
2CE
330
1F
100
AcDbEntity
  8
0
  6
CONTINUOUS
 62
     7
100
AcDbSpline
210
0.0
220
0.0
230
1.0
 70
     8
 71
     3
 72
    15
 73
    11
 74
     0
 42
0.00000001
 43
0.00000001
 40
0.0
 40
0.0
 40
0.0
 40
0.0
 40
0.0741181859130862
 40
0.2144264748674977
 40
0.354813475521819
 40
0.494749855441277
 40
0.6336423698816515
 40
0.7708497191991728
 40
0.9059867749612115
 40
1.0
 40
1.0
 40
1.0
 40
1.0
 10
7.256897202959432
 20
6.349650017293367
 30
0.0
 10
7.259143752337611
 20
6.348397423142353
 30
0.0
 10
7.265643097374786
 20
6.344773624948527
 30
0.0
 10
7.276436722359739
 20
6.339972092220924
 30
0.0
 10
7.289144443233419
 20
6.335852009249314
 30
0.0
 10
7.301613073671419
 20
6.333485156779955
 30
0.0
 10
7.313681021804821
 20
6.332874058766443
 30
0.0
 10
7.325130318282404
 20
6.334114201046666
 30
0.0
 10
7.334898526689562
 20
6.336607317239324
 30
0.0
 10
7.340419828337063
 20
6.339406333768197
 30
0.0
 10
7.342685046483335
 20
6.340554683095532
 30
0.0
  0
LINE
  5
2CF
330
1F
100
AcDbEntity
  8
0
  6
CONTINUOUS
 62
     7
100
AcDbLine
 10
7.3454726812
 20
6.3418534739
 30
0.0
 11
7.4142758288
 21
6.3815726856
 31
0.0
  0
POLYLINE
  5
2D0
330
1F
100
AcDbEntity
  8
0
  6
CONTINUOUS
 62
     7
100
AcDb2dPolyline
 66
     1
 10
0.0
 20
0.0
 30
0.0
  0
VERTEX
  5
360
330
2D0
100
AcDbEntity
  8
0
  6
CONTINUOUS
 62
     7
100
AcDbVertex
100
AcDb2dVertex
 10
8.3266986775
 20
6.1292752671
 30
0.0
  0
VERTEX
  5
361
330
2D0
100
AcDbEntity
  8
0
  6
CONTINUOUS
 62
     7
100
AcDbVertex
100
AcDb2dVertex
 10
8.3277841458
 20
6.0975109236
 30
0.0
  0
VERTEX
  5
362
330
2D0
100
AcDbEntity
  8
0
  6
CONTINUOUS
 62
     7
100
AcDbVertex
100
AcDb2dVertex
 10
8.3303181227
 20
6.066690885
 30
0.0
  0
VERTEX
  5
363
330
2D0
100
AcDbEntity
  8
0
  6
CONTINUOUS
 62
     7
100
AcDbVertex
100
AcDb2dVertex
 10
8.3342938329
 20
6.03689756
 30
0.0
  0
VERTEX
  5
364
330
2D0
100
AcDbEntity
  8
0
  6
CONTINUOUS
 62
     7
100
AcDbVertex
100
AcDb2dVertex
 10
8.3397006456
 20
6.0082106122
 30
0.0
  0
VERTEX
  5
365
330
2D0
100
AcDbEntity
  8
0
  6
CONTINUOUS
 62
     7
100
AcDbVertex
100
AcDb2dVertex
 10
8.3465241039
 20
5.9807067467
 30
0.0
  0
VERTEX
  5
366
330
2D0
100
AcDbEntity
  8
0
  6
CONTINUOUS
 62
     7
100
AcDbVertex
100
AcDb2dVertex
 10
8.3547459626
 20
5.9544595052
 30
0.0
  0
VERTEX
  5
367
330
2D0
100
AcDbEntity
  8
0
  6
CONTINUOUS
 62
     7
100
AcDbVertex
100
AcDb2dVertex
 10
8.3643442376
 20
5.9295390694
 30
0.0
  0
VERTEX
  5
368
330
2D0
100
AcDbEntity
  8
0
  6
CONTINUOUS
 62
     7
100
AcDbVertex
100
AcDb2dVertex
 10
8.3752932644
 20
5.9060120734
 30
0.0
  0
VERTEX
  5
369
330
2D0
100
AcDbEntity
  8
0
  6
CONTINUOUS
 62
     7
100
AcDbVertex
100
AcDb2dVertex
 10
8.3875637666
 20
5.8839414253
 30
0.0
  0
VERTEX
  5
36A
330
2D0
100
AcDbEntity
  8
0
  6
CONTINUOUS
 62
     7
100
AcDbVertex
100
AcDb2dVertex
 10
8.4011229347
 20
5.8633861391
 30
0.0
  0
VERTEX
  5
36B
330
2D0
100
AcDbEntity
  8
0
  6
CONTINUOUS
 62
     7
100
AcDbVertex
100
AcDb2dVertex
 10
8.415934513
 20
5.8444011769
 30
0.0
  0
VERTEX
  5
36C
330
2D0
100
AcDbEntity
  8
0
  6
CONTINUOUS
 62
     7
100
AcDbVertex
100
AcDb2dVertex
 10
8.4319588974
 20
5.8270373021
 30
0.0
  0
VERTEX
  5
36D
330
2D0
100
AcDbEntity
  8
0
  6
CONTINUOUS
 62
     7
100
AcDbVertex
100
AcDb2dVertex
 10
8.4491532408
 20
5.8113409433
 30
0.0
  0
VERTEX
  5
36E
330
2D0
100
AcDbEntity
  8
0
  6
CONTINUOUS
 62
     7
100
AcDbVertex
100
AcDb2dVertex
 10
8.4674715678
 20
5.7973540708
 30
0.0
  0
VERTEX
  5
36F
330
2D0
100
AcDbEntity
  8
0
  6
CONTINUOUS
 62
     7
100
AcDbVertex
100
AcDb2dVertex
 10
8.4868648974
 20
5.7851140834
 30
0.0
  0
VERTEX
  5
370
330
2D0
100
AcDbEntity
  8
0
  6
CONTINUOUS
 62
     7
100
AcDbVertex
100
AcDb2dVertex
 10
8.5072813745
 20
5.7746537093
 30
0.0
  0
VERTEX
  5
371
330
2D0
100
AcDbEntity
  8
0
  6
CONTINUOUS
 62
     7
100
AcDbVertex
100
AcDb2dVertex
 10
8.5286664082
 20
5.7660009183
 30
0.0
  0
VERTEX
  5
372
330
2D0
100
AcDbEntity
  8
0
  6
CONTINUOUS
 62
     7
100
AcDbVertex
100
AcDb2dVertex
 10
8.5509628175
 20
5.7591788466
 30
0.0
  0
VERTEX
  5
373
330
2D0
100
AcDbEntity
  8
0
  6
CONTINUOUS
 62
     7
100
AcDbVertex
100
AcDb2dVertex
 10
8.5741109848
 20
5.7542057358
 30
0.0
  0
VERTEX
  5
374
330
2D0
100
AcDbEntity
  8
0
  6
CONTINUOUS
 62
     7
100
AcDbVertex
100
AcDb2dVertex
 10
8.5980490149
 20
5.7510948832
 30
0.0
  0
VERTEX
  5
375
330
2D0
100
AcDbEntity
  8
0
  6
CONTINUOUS
 62
     7
100
AcDbVertex
100
AcDb2dVertex
 10
8.6227129007
 20
5.7498546068
 30
0.0
  0
VERTEX
  5
376
330
2D0
100
AcDbEntity
  8
0
  6
CONTINUOUS
 62
     7
100
AcDbVertex
100
AcDb2dVertex
 10
8.6480366941
 20
5.750488223
 30
0.0
  0
VERTEX
  5
377
330
2D0
100
AcDbEntity
  8
0
  6
CONTINUOUS
 62
     7
100
AcDbVertex
100
AcDb2dVertex
 10
8.6739526826
 20
5.7529940375
 30
0.0
  0
VERTEX
  5
378
330
2D0
100
AcDbEntity
  8
0
  6
CONTINUOUS
 62
     7
100
AcDbVertex
100
AcDb2dVertex
 10
8.7003915703
 20
5.7573653502
 30
0.0
  0
VERTEX
  5
379
330
2D0
100
AcDbEntity
  8
0
  6
CONTINUOUS
 62
     7
100
AcDbVertex
100
AcDb2dVertex
 10
8.7272826629
 20
5.7635904727
 30
0.0
  0
VERTEX
  5
37A
330
2D0
100
AcDbEntity
  8
0
  6
CONTINUOUS
 62
     7
100
AcDbVertex
100
AcDb2dVertex
 10
8.7545540573
 20
5.7716527599
 30
0.0
  0
VERTEX
  5
37B
330
2D0
100
AcDbEntity
  8
0
  6
CONTINUOUS
 62
     7
100
AcDbVertex
100
AcDb2dVertex
 10
8.7821328332
 20
5.7815306542
 30
0.0
  0
VERTEX
  5
37C
330
2D0
100
AcDbEntity
  8
0
  6
CONTINUOUS
 62
     7
100
AcDbVertex
100
AcDb2dVertex
 10
8.8099452486
 20
5.7931977435
 30
0.0
  0
VERTEX
  5
37D
330
2D0
100
AcDbEntity
  8
0
  6
CONTINUOUS
 62
     7
100
AcDbVertex
100
AcDb2dVertex
 10
8.8379169368
 20
5.8066228314
 30
0.0
  0
VERTEX
  5
37E
330
2D0
100
AcDbEntity
  8
0
  6
CONTINUOUS
 62
     7
100
AcDbVertex
100
AcDb2dVertex
 10
8.8659731051
 20
5.8217700211
 30
0.0
  0
VERTEX
  5
37F
330
2D0
100
AcDbEntity
  8
0
  6
CONTINUOUS
 62
     7
100
AcDbVertex
100
AcDb2dVertex
 10
8.8940387349
 20
5.8385988109
 30
0.0
  0
VERTEX
  5
380
330
2D0
100
AcDbEntity
  8
0
  6
CONTINUOUS
 62
     7
100
AcDbVertex
100
AcDb2dVertex
 10
8.9220387825
 20
5.8570642028
 30
0.0
  0
VERTEX
  5
381
330
2D0
100
AcDbEntity
  8
0
  6
CONTINUOUS
 62
     7
100
AcDbVertex
100
AcDb2dVertex
 10
8.9498983793
 20
5.8771168229
 30
0.0
  0
VERTEX
  5
382
330
2D0
100
AcDbEntity
  8
0
  6
CONTINUOUS
 62
     7
100
AcDbVertex
100
AcDb2dVertex
 10
8.9775430324
 20
5.8987030529
 30
0.0
  0
VERTEX
  5
383
330
2D0
100
AcDbEntity
  8
0
  6
CONTINUOUS
 62
     7
100
AcDbVertex
100
AcDb2dVertex
 10
9.0048988236
 20
5.9217651742
 30
0.0
  0
VERTEX
  5
384
330
2D0
100
AcDbEntity
  8
0
  6
CONTINUOUS
 62
     7
100
AcDbVertex
100
AcDb2dVertex
 10
9.0318926071
 20
5.9462415216
 30
0.0
  0
VERTEX
  5
385
330
2D0
100
AcDbEntity
  8
0
  6
CONTINUOUS
 62
     7
100
AcDbVertex
100
AcDb2dVertex
 10
9.058452205
 20
5.9720666485
 30
0.0
  0
VERTEX
  5
386
330
2D0
100
AcDbEntity
  8
0
  6
CONTINUOUS
 62
     7
100
AcDbVertex
100
AcDb2dVertex
 10
9.0845066005
 20
5.999171502
 30
0.0
  0
VERTEX
  5
387
330
2D0
100
AcDbEntity
  8
0
  6
CONTINUOUS
 62
     7
100
AcDbVertex
100
AcDb2dVertex
 10
9.1099861275
 20
6.0274836072
 30
0.0
  0
VERTEX
  5
388
330
2D0
100
AcDbEntity
  8
0
  6
CONTINUOUS
 62
     7
100
AcDbVertex
100
AcDb2dVertex
 10
9.134822657
 20
6.0569272612
 30
0.0
  0
VERTEX
  5
389
330
2D0
100
AcDbEntity
  8
0
  6
CONTINUOUS
 62
     7
100
AcDbVertex
100
AcDb2dVertex
 10
9.1589497794
 20
6.0874237355
 30
0.0
  0
VERTEX
  5
38A
330
2D0
100
AcDbEntity
  8
0
  6
CONTINUOUS
 62
     7
100
AcDbVertex
100
AcDb2dVertex
 10
9.1823029819
 20
6.1188914866
 30
0.0
  0
VERTEX
  5
38B
330
2D0
100
AcDbEntity
  8
0
  6
CONTINUOUS
 62
     7
100
AcDbVertex
100
AcDb2dVertex
 10
9.2048198211
 20
6.1512463737
 30
0.0
  0
VERTEX
  5
38C
330
2D0
100
AcDbEntity
  8
0
  6
CONTINUOUS
 62
     7
100
AcDbVertex
100
AcDb2dVertex
 10
9.2264400899
 20
6.1844018841
 30
0.0
  0
VERTEX
  5
38D
330
2D0
100
AcDbEntity
  8
0
  6
CONTINUOUS
 62
     7
100
AcDbVertex
100
AcDb2dVertex
 10
9.2471059786
 20
6.2182693643
 30
0.0
  0
VERTEX
  5
38E
330
2D0
100
AcDbEntity
  8
0
  6
CONTINUOUS
 62
     7
100
AcDbVertex
100
AcDb2dVertex
 10
9.2667622291
 20
6.2527582571
 30
0.0
  0
VERTEX
  5
38F
330
2D0
100
AcDbEntity
  8
0
  6
CONTINUOUS
 62
     7
100
AcDbVertex
100
AcDb2dVertex
 10
9.2853562834
 20
6.2877763437
 30
0.0
  0
VERTEX
  5
390
330
2D0
100
AcDbEntity
  8
0
  6
CONTINUOUS
 62
     7
100
AcDbVertex
100
AcDb2dVertex
 10
9.3028384233
 20
6.3232299902
 30
0.0
  0
VERTEX
  5
391
330
2D0
100
AcDbEntity
  8
0
  6
CONTINUOUS
 62
     7
100
AcDbVertex
100
AcDb2dVertex
 10
9.3191619038
 20
6.3590243983
 30
0.0
  0
VERTEX
  5
392
330
2D0
100
AcDbEntity
  8
0
  6
CONTINUOUS
 62
     7
100
AcDbVertex
100
AcDb2dVertex
 10
9.3342830781
 20
6.3950638583
 30
0.0
  0
VERTEX
  5
393
330
2D0
100
AcDbEntity
  8
0
  6
CONTINUOUS
 62
     7
100
AcDbVertex
100
AcDb2dVertex
 10
9.3481615141
 20
6.4312520055
 30
0.0
  0
VERTEX
  5
394
330
2D0
100
AcDbEntity
  8
0
  6
CONTINUOUS
 62
     7
100
AcDbVertex
100
AcDb2dVertex
 10
9.3607601028
 20
6.4674920774
 30
0.0
  0
VERTEX
  5
395
330
2D0
100
AcDbEntity
  8
0
  6
CONTINUOUS
 62
     7
100
AcDbVertex
100
AcDb2dVertex
 10
9.372045157
 20
6.5036871728
 30
0.0
  0
VERTEX
  5
396
330
2D0
100
AcDbEntity
  8
0
  6
CONTINUOUS
 62
     7
100
AcDbVertex
100
AcDb2dVertex
 10
9.3819865022
 20
6.5397405108
 30
0.0
  0
VERTEX
  5
397
330
2D0
100
AcDbEntity
  8
0
  6
CONTINUOUS
 62
     7
100
AcDbVertex
100
AcDb2dVertex
 10
9.3905575563
 20
6.5755556895
 30
0.0
  0
VERTEX
  5
398
330
2D0
100
AcDbEntity
  8
0
  6
CONTINUOUS
 62
     7
100
AcDbVertex
100
AcDb2dVertex
 10
9.3977354015
 20
6.6110369436
 30
0.0
  0
VERTEX
  5
399
330
2D0
100
AcDbEntity
  8
0
  6
CONTINUOUS
 62
     7
100
AcDbVertex
100
AcDb2dVertex
 10
9.4035008452
 20
6.646089401
 30
0.0
  0
VERTEX
  5
39A
330
2D0
100
AcDbEntity
  8
0
  6
CONTINUOUS
 62
     7
100
AcDbVertex
100
AcDb2dVertex
 10
9.4078384714
 20
6.680619336
 30
0.0
  0
VERTEX
  5
39B
330
2D0
100
AcDbEntity
  8
0
  6
CONTINUOUS
 62
     7
100
AcDbVertex
100
AcDb2dVertex
 10
9.4107366818
 20
6.71453442
 30
0.0
  0
VERTEX
  5
39C
330
2D0
100
AcDbEntity
  8
0
  6
CONTINUOUS
 62
     7
100
AcDbVertex
100
AcDb2dVertex
 10
9.4121877269
 20
6.7477439685
 30
0.0
  0
VERTEX
  5
39D
330
2D0
100
AcDbEntity
  8
0
  6
CONTINUOUS
 62
     7
100
AcDbVertex
100
AcDb2dVertex
 10
9.4121877269
 20
6.7801591835
 30
0.0
  0
VERTEX
  5
39E
330
2D0
100
AcDbEntity
  8
0
  6
CONTINUOUS
 62
     7
100
AcDbVertex
100
AcDb2dVertex
 10
9.4107366818
 20
6.8116933909
 30
0.0
  0
VERTEX
  5
39F
330
2D0
100
AcDbEntity
  8
0
  6
CONTINUOUS
 62
     7
100
AcDbVertex
100
AcDb2dVertex
 10
9.4078384714
 20
6.8422622724
 30
0.0
  0
VERTEX
  5
3A0
330
2D0
100
AcDbEntity
  8
0
  6
CONTINUOUS
 62
     7
100
AcDbVertex
100
AcDb2dVertex
 10
9.4035008452
 20
6.8717840908
 30
0.0
  0
VERTEX
  5
3A1
330
2D0
100
AcDbEntity
  8
0
  6
CONTINUOUS
 62
     7
100
AcDbVertex
100
AcDb2dVertex
 10
9.3977354015
 20
6.9001799086
 30
0.0
  0
VERTEX
  5
3A2
330
2D0
100
AcDbEntity
  8
0
  6
CONTINUOUS
 62
     7
100
AcDbVertex
100
AcDb2dVertex
 10
9.3905575563
 20
6.927373799
 30
0.0
  0
VERTEX
  5
3A3
330
2D0
100
AcDbEntity
  8
0
  6
CONTINUOUS
 62
     7
100
AcDbVertex
100
AcDb2dVertex
 10
9.3819865022
 20
6.9532930492
 30
0.0
  0
VERTEX
  5
3A4
330
2D0
100
AcDbEntity
  8
0
  6
CONTINUOUS
 62
     7
100
AcDbVertex
100
AcDb2dVertex
 10
9.372045157
 20
6.9778683544
 30
0.0
  0
VERTEX
  5
3A5
330
2D0
100
AcDbEntity
  8
0
  6
CONTINUOUS
 62
     7
100
AcDbVertex
100
AcDb2dVertex
 10
9.3607601028
 20
7.0010340036
 30
0.0
  0
VERTEX
  5
3A6
330
2D0
100
AcDbEntity
  8
0
  6
CONTINUOUS
 62
     7
100
AcDbVertex
100
AcDb2dVertex
 10
9.3481615141
 20
7.0227280547
 30
0.0
  0
VERTEX
  5
3A7
330
2D0
100
AcDbEntity
  8
0
  6
CONTINUOUS
 62
     7
100
AcDbVertex
100
AcDb2dVertex
 10
9.3342830781
 20
7.0428925007
 30
0.0
  0
VERTEX
  5
3A8
330
2D0
100
AcDbEntity
  8
0
  6
CONTINUOUS
 62
     7
100
AcDbVertex
100
AcDb2dVertex
 10
9.3191619038
 20
7.0614734245
 30
0.0
  0
VERTEX
  5
3A9
330
2D0
100
AcDbEntity
  8
0
  6
CONTINUOUS
 62
     7
100
AcDbVertex
100
AcDb2dVertex
 10
9.3028384233
 20
7.0784211431
 30
0.0
  0
VERTEX
  5
3AA
330
2D0
100
AcDbEntity
  8
0
  6
CONTINUOUS
 62
     7
100
AcDbVertex
100
AcDb2dVertex
 10
9.2853562834
 20
7.0936903406
 30
0.0
  0
VERTEX
  5
3AB
330
2D0
100
AcDbEntity
  8
0
  6
CONTINUOUS
 62
     7
100
AcDbVertex
100
AcDb2dVertex
 10
9.2667622291
 20
7.107240189
 30
0.0
  0
VERTEX
  5
3AC
330
2D0
100
AcDbEntity
  8
0
  6
CONTINUOUS
 62
     7
100
AcDbVertex
100
AcDb2dVertex
 10
9.2471059786
 20
7.119034458
 30
0.0
  0
VERTEX
  5
3AD
330
2D0
100
AcDbEntity
  8
0
  6
CONTINUOUS
 62
     7
100
AcDbVertex
100
AcDb2dVertex
 10
9.2264400899
 20
7.129041611
 30
0.0
  0
VERTEX
  5
3AE
330
2D0
100
AcDbEntity
  8
0
  6
CONTINUOUS
 62
     7
100
AcDbVertex
100
AcDb2dVertex
 10
9.2048198211
 20
7.1372348904
 30
0.0
  0
VERTEX
  5
3AF
330
2D0
100
AcDbEntity
  8
0
  6
CONTINUOUS
 62
     7
100
AcDbVertex
100
AcDb2dVertex
 10
9.1823029819
 20
7.1435923883
 30
0.0
  0
VERTEX
  5
3B0
330
2D0
100
AcDbEntity
  8
0
  6
CONTINUOUS
 62
     7
100
AcDbVertex
100
AcDb2dVertex
 10
9.1589497794
 20
7.1480971057
 30
0.0
  0
VERTEX
  5
3B1
330
2D0
100
AcDbEntity
  8
0
  6
CONTINUOUS
 62
     7
100
AcDbVertex
100
AcDb2dVertex
 10
9.134822657
 20
7.1507369974
 30
0.0
  0
VERTEX
  5
3B2
330
2D0
100
AcDbEntity
  8
0
  6
CONTINUOUS
 62
     7
100
AcDbVertex
100
AcDb2dVertex
 10
9.1099861275
 20
7.1515050048
 30
0.0
  0
VERTEX
  5
3B3
330
2D0
100
AcDbEntity
  8
0
  6
CONTINUOUS
 62
     7
100
AcDbVertex
100
AcDb2dVertex
 10
9.0845066005
 20
7.1503990744
 30
0.0
  0
VERTEX
  5
3B4
330
2D0
100
AcDbEntity
  8
0
  6
CONTINUOUS
 62
     7
100
AcDbVertex
100
AcDb2dVertex
 10
9.058452205
 20
7.1474221632
 30
0.0
  0
VERTEX
  5
3B5
330
2D0
100
AcDbEntity
  8
0
  6
CONTINUOUS
 62
     7
100
AcDbVertex
100
AcDb2dVertex
 10
9.0318926071
 20
7.1425822311
 30
0.0
  0
VERTEX
  5
3B6
330
2D0
100
AcDbEntity
  8
0
  6
CONTINUOUS
 62
     7
100
AcDbVertex
100
AcDb2dVertex
 10
9.0048988236
 20
7.1358922194
 30
0.0
  0
VERTEX
  5
3B7
330
2D0
100
AcDbEntity
  8
0
  6
CONTINUOUS
 62
     7
100
AcDbVertex
100
AcDb2dVertex
 10
8.9775430324
 20
7.1273700164
 30
0.0
  0
VERTEX
  5
3B8
330
2D0
100
AcDbEntity
  8
0
  6
CONTINUOUS
 62
     7
100
AcDbVertex
100
AcDb2dVertex
 10
8.9498983793
 20
7.1170384094
 30
0.0
  0
VERTEX
  5
3B9
330
2D0
100
AcDbEntity
  8
0
  6
CONTINUOUS
 62
     7
100
AcDbVertex
100
AcDb2dVertex
 10
8.9220387825
 20
7.1049250236
 30
0.0
  0
VERTEX
  5
3BA
330
2D0
100
AcDbEntity
  8
0
  6
CONTINUOUS
 62
     7
100
AcDbVertex
100
AcDb2dVertex
 10
8.8940387349
 20
7.0910622488
 30
0.0
  0
VERTEX
  5
3BB
330
2D0
100
AcDbEntity
  8
0
  6
CONTINUOUS
 62
     7
100
AcDbVertex
100
AcDb2dVertex
 10
8.8659731051
 20
7.0754871521
 30
0.0
  0
VERTEX
  5
3BC
330
2D0
100
AcDbEntity
  8
0
  6
CONTINUOUS
 62
     7
100
AcDbVertex
100
AcDb2dVertex
 10
8.8379169368
 20
7.0582413794
 30
0.0
  0
VERTEX
  5
3BD
330
2D0
100
AcDbEntity
  8
0
  6
CONTINUOUS
 62
     7
100
AcDbVertex
100
AcDb2dVertex
 10
8.8099452486
 20
7.0393710436
 30
0.0
  0
VERTEX
  5
3BE
330
2D0
100
AcDbEntity
  8
0
  6
CONTINUOUS
 62
     7
100
AcDbVertex
100
AcDb2dVertex
 10
8.7821328332
 20
7.0189266016
 30
0.0
  0
VERTEX
  5
3BF
330
2D0
100
AcDbEntity
  8
0
  6
CONTINUOUS
 62
     7
100
AcDbVertex
100
AcDb2dVertex
 10
8.7545540573
 20
6.996962719
 30
0.0
  0
VERTEX
  5
3C0
330
2D0
100
AcDbEntity
  8
0
  6
CONTINUOUS
 62
     7
100
AcDbVertex
100
AcDb2dVertex
 10
8.7272826629
 20
6.9735381244
 30
0.0
  0
VERTEX
  5
3C1
330
2D0
100
AcDbEntity
  8
0
  6
CONTINUOUS
 62
     7
100
AcDbVertex
100
AcDb2dVertex
 10
8.7003915703
 20
6.9487154522
 30
0.0
  0
VERTEX
  5
3C2
330
2D0
100
AcDbEntity
  8
0
  6
CONTINUOUS
 62
     7
100
AcDbVertex
100
AcDb2dVertex
 10
8.6739526826
 20
6.922561075
 30
0.0
  0
VERTEX
  5
3C3
330
2D0
100
AcDbEntity
  8
0
  6
CONTINUOUS
 62
     7
100
AcDbVertex
100
AcDb2dVertex
 10
8.6480366941
 20
6.8951449261
 30
0.0
  0
VERTEX
  5
3C4
330
2D0
100
AcDbEntity
  8
0
  6
CONTINUOUS
 62
     7
100
AcDbVertex
100
AcDb2dVertex
 10
8.6227129007
 20
6.8665403128
 30
0.0
  0
VERTEX
  5
3C5
330
2D0
100
AcDbEntity
  8
0
  6
CONTINUOUS
 62
     7
100
AcDbVertex
100
AcDb2dVertex
 10
8.5980490149
 20
6.83682372
 30
0.0
  0
VERTEX
  5
3C6
330
2D0
100
AcDbEntity
  8
0
  6
CONTINUOUS
 62
     7
100
AcDbVertex
100
AcDb2dVertex
 10
8.5741109848
 20
6.8060746061
 30
0.0
  0
VERTEX
  5
3C7
330
2D0
100
AcDbEntity
  8
0
  6
CONTINUOUS
 62
     7
100
AcDbVertex
100
AcDb2dVertex
 10
8.5509628175
 20
6.7743751901
 30
0.0
  0
VERTEX
  5
3C8
330
2D0
100
AcDbEntity
  8
0
  6
CONTINUOUS
 62
     7
100
AcDbVertex
100
AcDb2dVertex
 10
8.5286664082
 20
6.7418102323
 30
0.0
  0
VERTEX
  5
3C9
330
2D0
100
AcDbEntity
  8
0
  6
CONTINUOUS
 62
     7
100
AcDbVertex
100
AcDb2dVertex
 10
8.5072813745
 20
6.708466807
 30
0.0
  0
VERTEX
  5
3CA
330
2D0
100
AcDbEntity
  8
0
  6
CONTINUOUS
 62
     7
100
AcDbVertex
100
AcDb2dVertex
 10
8.4868648974
 20
6.6744340702
 30
0.0
  0
VERTEX
  5
3CB
330
2D0
100
AcDbEntity
  8
0
  6
CONTINUOUS
 62
     7
100
AcDbVertex
100
AcDb2dVertex
 10
8.4674715678
 20
6.639803021
 30
0.0
  0
VERTEX
  5
3CC
330
2D0
100
AcDbEntity
  8
0
  6
CONTINUOUS
 62
     7
100
AcDbVertex
100
AcDb2dVertex
 10
8.4491532408
 20
6.6046662583
 30
0.0
  0
VERTEX
  5
3CD
330
2D0
100
AcDbEntity
  8
0
  6
CONTINUOUS
 62
     7
100
AcDbVertex
100
AcDb2dVertex
 10
8.4319588974
 20
6.5691177333
 30
0.0
  0
VERTEX
  5
3CE
330
2D0
100
AcDbEntity
  8
0
  6
CONTINUOUS
 62
     7
100
AcDbVertex
100
AcDb2dVertex
 10
8.415934513
 20
6.533252498
 30
0.0
  0
VERTEX
  5
3CF
330
2D0
100
AcDbEntity
  8
0
  6
CONTINUOUS
 62
     7
100
AcDbVertex
100
AcDb2dVertex
 10
8.4011229347
 20
6.4971664515
 30
0.0
  0
VERTEX
  5
3D0
330
2D0
100
AcDbEntity
  8
0
  6
CONTINUOUS
 62
     7
100
AcDbVertex
100
AcDb2dVertex
 10
8.3875637666
 20
6.4609560831
 30
0.0
  0
VERTEX
  5
3D1
330
2D0
100
AcDbEntity
  8
0
  6
CONTINUOUS
 62
     7
100
AcDbVertex
100
AcDb2dVertex
 10
8.3752932644
 20
6.4247182146
 30
0.0
  0
VERTEX
  5
3D2
330
2D0
100
AcDbEntity
  8
0
  6
CONTINUOUS
 62
     7
100
AcDbVertex
100
AcDb2dVertex
 10
8.3643442376
 20
6.3885497414
 30
0.0
  0
VERTEX
  5
3D3
330
2D0
100
AcDbEntity
  8
0
  6
CONTINUOUS
 62
     7
100
AcDbVertex
100
AcDb2dVertex
 10
8.3547459626
 20
6.3525473732
 30
0.0
  0
VERTEX
  5
3D4
330
2D0
100
AcDbEntity
  8
0
  6
CONTINUOUS
 62
     7
100
AcDbVertex
100
AcDb2dVertex
 10
8.3465241039
 20
6.3168073757
 30
0.0
  0
VERTEX
  5
3D5
330
2D0
100
AcDbEntity
  8
0
  6
CONTINUOUS
 62
     7
100
AcDbVertex
100
AcDb2dVertex
 10
8.3397006456
 20
6.2814253129
 30
0.0
  0
VERTEX
  5
3D6
330
2D0
100
AcDbEntity
  8
0
  6
CONTINUOUS
 62
     7
100
AcDbVertex
100
AcDb2dVertex
 10
8.3342938329
 20
6.246495792
 30
0.0
  0
VERTEX
  5
3D7
330
2D0
100
AcDbEntity
  8
0
  6
CONTINUOUS
 62
     7
100
AcDbVertex
100
AcDb2dVertex
 10
8.3303181227
 20
6.2121122098
 30
0.0
  0
VERTEX
  5
3D8
330
2D0
100
AcDbEntity
  8
0
  6
CONTINUOUS
 62
     7
100
AcDbVertex
100
AcDb2dVertex
 10
8.3277841458
 20
6.1783665037
 30
0.0
  0
VERTEX
  5
3D9
330
2D0
100
AcDbEntity
  8
0
  6
CONTINUOUS
 62
     7
100
AcDbVertex
100
AcDb2dVertex
 10
8.3266986775
 20
6.1453489051
 30
0.0
  0
SEQEND
  5
3DA
330
2D0
100
AcDbEntity
  8
0
  6
CONTINUOUS
 62
     7
  0
LINE
  5
2D1
330
1F
100
AcDbEntity
  8
0
  6
CONTINUOUS
 62
     7
100
AcDbLine
 10
8.2988587123
 20
6.1453482612
 30
0.0
 11
8.3266986775
 21
6.1453489051
 31
0.0
  0
POLYLINE
  5
2D2
330
1F
100
AcDbEntity
  8
0
  6
CONTINUOUS
 62
     7
100
AcDb2dPolyline
 66
     1
 10
0.0
 20
0.0
 30
0.0
  0
VERTEX
  5
3DB
330
2D2
100
AcDbEntity
  8
0
  6
CONTINUOUS
 62
     7
100
AcDbVertex
100
AcDb2dVertex
 10
8.2988587123
 20
6.1453482612
 30
0.0
  0
VERTEX
  5
3DC
330
2D2
100
AcDbEntity
  8
0
  6
CONTINUOUS
 62
     7
100
AcDbVertex
100
AcDb2dVertex
 10
8.2999331271
 20
6.1786542192
 30
0.0
  0
VERTEX
  5
3DD
330
2D2
100
AcDbEntity
  8
0
  6
CONTINUOUS
 62
     7
100
AcDbVertex
100
AcDb2dVertex
 10
8.3024456822
 20
6.2126850011
 30
0.0
  0
VERTEX
  5
3DE
330
2D2
100
AcDbEntity
  8
0
  6
CONTINUOUS
 62
     7
100
AcDbVertex
100
AcDb2dVertex
 10
8.3063898746
 20
6.2473525294
 30
0.0
  0
VERTEX
  5
3DF
330
2D2
100
AcDbEntity
  8
0
  6
CONTINUOUS
 62
     7
100
AcDbVertex
100
AcDb2dVertex
 10
8.3117554961
 20
6.2825670786
 30
0.0
  0
VERTEX
  5
3E0
330
2D2
100
AcDbEntity
  8
0
  6
CONTINUOUS
 62
     7
100
AcDbVertex
100
AcDb2dVertex
 10
8.3185286596
 20
6.3182375075
 30
0.0
  0
VERTEX
  5
3E1
330
2D2
100
AcDbEntity
  8
0
  6
CONTINUOUS
 62
     7
100
AcDbVertex
100
AcDb2dVertex
 10
8.326691835
 20
6.354271495
 30
0.0
  0
VERTEX
  5
3E2
330
2D2
100
AcDbEntity
  8
0
  6
CONTINUOUS
 62
     7
100
AcDbVertex
100
AcDb2dVertex
 10
8.3362238945
 20
6.390575779
 30
0.0
  0
VERTEX
  5
3E3
330
2D2
100
AcDbEntity
  8
0
  6
CONTINUOUS
 62
     7
100
AcDbVertex
100
AcDb2dVertex
 10
8.3471001676
 20
6.4270563977
 30
0.0
  0
VERTEX
  5
3E4
330
2D2
100
AcDbEntity
  8
0
  6
CONTINUOUS
 62
     7
100
AcDbVertex
100
AcDb2dVertex
 10
8.3592925047
 20
6.4636189332
 30
0.0
  0
VERTEX
  5
3E5
330
2D2
100
AcDbEntity
  8
0
  6
CONTINUOUS
 62
     7
100
AcDbVertex
100
AcDb2dVertex
 10
8.3727693498
 20
6.5001687554
 30
0.0
  0
VERTEX
  5
3E6
330
2D2
100
AcDbEntity
  8
0
  6
CONTINUOUS
 62
     7
100
AcDbVertex
100
AcDb2dVertex
 10
8.3874958227
 20
6.5366112671
 30
0.0
  0
VERTEX
  5
3E7
330
2D2
100
AcDbEntity
  8
0
  6
CONTINUOUS
 62
     7
100
AcDbVertex
100
AcDb2dVertex
 10
8.4034338087
 20
6.5728521489
 30
0.0
  0
VERTEX
  5
3E8
330
2D2
100
AcDbEntity
  8
0
  6
CONTINUOUS
 62
     7
100
AcDbVertex
100
AcDb2dVertex
 10
8.4205420576
 20
6.6087976033
 30
0.0
  0
VERTEX
  5
3E9
330
2D2
100
AcDbEntity
  8
0
  6
CONTINUOUS
 62
     7
100
AcDbVertex
100
AcDb2dVertex
 10
8.4387762903
 20
6.6443545972
 30
0.0
  0
VERTEX
  5
3EA
330
2D2
100
AcDbEntity
  8
0
  6
CONTINUOUS
 62
     7
100
AcDbVertex
100
AcDb2dVertex
 10
8.4580893135
 20
6.6794311031
 30
0.0
  0
VERTEX
  5
3EB
330
2D2
100
AcDbEntity
  8
0
  6
CONTINUOUS
 62
     7
100
AcDbVertex
100
AcDb2dVertex
 10
8.4784311419
 20
6.7139363371
 30
0.0
  0
VERTEX
  5
3EC
330
2D2
100
AcDbEntity
  8
0
  6
CONTINUOUS
 62
     7
100
AcDbVertex
100
AcDb2dVertex
 10
8.4997491273
 20
6.7477809938
 30
0.0
  0
VERTEX
  5
3ED
330
2D2
100
AcDbEntity
  8
0
  6
CONTINUOUS
 62
     7
100
AcDbVertex
100
AcDb2dVertex
 10
8.5219880952
 20
6.7808774773
 30
0.0
  0
VERTEX
  5
3EE
330
2D2
100
AcDbEntity
  8
0
  6
CONTINUOUS
 62
     7
100
AcDbVertex
100
AcDb2dVertex
 10
8.5450904872
 20
6.8131401284
 30
0.0
  0
VERTEX
  5
3EF
330
2D2
100
AcDbEntity
  8
0
  6
CONTINUOUS
 62
     7
100
AcDbVertex
100
AcDb2dVertex
 10
8.5689965106
 20
6.8444854459
 30
0.0
  0
VERTEX
  5
3F0
330
2D2
100
AcDbEntity
  8
0
  6
CONTINUOUS
 62
     7
100
AcDbVertex
100
AcDb2dVertex
 10
8.5936442924
 20
6.8748323027
 30
0.0
  0
VERTEX
  5
3F1
330
2D2
100
AcDbEntity
  8
0
  6
CONTINUOUS
 62
     7
100
AcDbVertex
100
AcDb2dVertex
 10
8.61897004
 20
6.904102156
 30
0.0
  0
VERTEX
  5
3F2
330
2D2
100
AcDbEntity
  8
0
  6
CONTINUOUS
 62
     7
100
AcDbVertex
100
AcDb2dVertex
 10
8.644908206
 20
6.9322192504
 30
0.0
  0
VERTEX
  5
3F3
330
2D2
100
AcDbEntity
  8
0
  6
CONTINUOUS
 62
     7
100
AcDbVertex
100
AcDb2dVertex
 10
8.6713916581
 20
6.9591108141
 30
0.0
  0
VERTEX
  5
3F4
330
2D2
100
AcDbEntity
  8
0
  6
CONTINUOUS
 62
     7
100
AcDbVertex
100
AcDb2dVertex
 10
8.6983518525
 20
6.9847072472
 30
0.0
  0
VERTEX
  5
3F5
330
2D2
100
AcDbEntity
  8
0
  6
CONTINUOUS
 62
     7
100
AcDbVertex
100
AcDb2dVertex
 10
8.7257190118
 20
7.0089423017
 30
0.0
  0
VERTEX
  5
3F6
330
2D2
100
AcDbEntity
  8
0
  6
CONTINUOUS
 62
     7
100
AcDbVertex
100
AcDb2dVertex
 10
8.753422305
 20
7.0317532532
 30
0.0
  0
VERTEX
  5
3F7
330
2D2
100
AcDbEntity
  8
0
  6
CONTINUOUS
 62
     7
100
AcDbVertex
100
AcDb2dVertex
 10
8.7813900312
 20
7.0530810631
 30
0.0
  0
VERTEX
  5
3F8
330
2D2
100
AcDbEntity
  8
0
  6
CONTINUOUS
 62
     7
100
AcDbVertex
100
AcDb2dVertex
 10
8.8095498053
 20
7.0728705313
 30
0.0
  0
VERTEX
  5
3F9
330
2D2
100
AcDbEntity
  8
0
  6
CONTINUOUS
 62
     7
100
AcDbVertex
100
AcDb2dVertex
 10
8.837828745
 20
7.0910704394
 30
0.0
  0
VERTEX
  5
3FA
330
2D2
100
AcDbEntity
  8
0
  6
CONTINUOUS
 62
     7
100
AcDbVertex
100
AcDb2dVertex
 10
8.8661536596
 20
7.1076336829
 30
0.0
  0
VERTEX
  5
3FB
330
2D2
100
AcDbEntity
  8
0
  6
CONTINUOUS
 62
     7
100
AcDbVertex
100
AcDb2dVertex
 10
8.8944512393
 20
7.1225173933
 30
0.0
  0
VERTEX
  5
3FC
330
2D2
100
AcDbEntity
  8
0
  6
CONTINUOUS
 62
     7
100
AcDbVertex
100
AcDb2dVertex
 10
8.9226482452
 20
7.135683049
 30
0.0
  0
VERTEX
  5
3FD
330
2D2
100
AcDbEntity
  8
0
  6
CONTINUOUS
 62
     7
100
AcDbVertex
100
AcDb2dVertex
 10
8.9506716987
 20
7.147096575
 30
0.0
  0
VERTEX
  5
3FE
330
2D2
100
AcDbEntity
  8
0
  6
CONTINUOUS
 62
     7
100
AcDbVertex
100
AcDb2dVertex
 10
8.9784490702
 20
7.1567284313
 30
0.0
  0
VERTEX
  5
3FF
330
2D2
100
AcDbEntity
  8
0
  6
CONTINUOUS
 62
     7
100
AcDbVertex
100
AcDb2dVertex
 10
9.0059084673
 20
7.164553689
 30
0.0
  0
VERTEX
  5
400
330
2D2
100
AcDbEntity
  8
0
  6
CONTINUOUS
 62
     7
100
AcDbVertex
100
AcDb2dVertex
 10
9.0329788203
 20
7.1705520948
 30
0.0
  0
VERTEX
  5
401
330
2D2
100
AcDbEntity
  8
0
  6
CONTINUOUS
 62
     7
100
AcDbVertex
100
AcDb2dVertex
 10
9.0595900666
 20
7.174708124
 30
0.0
  0
VERTEX
  5
402
330
2D2
100
AcDbEntity
  8
0
  6
CONTINUOUS
 62
     7
100
AcDbVertex
100
AcDb2dVertex
 10
9.0856733317
 20
7.1770110201
 30
0.0
  0
VERTEX
  5
403
330
2D2
100
AcDbEntity
  8
0
  6
CONTINUOUS
 62
     7
100
AcDbVertex
100
AcDb2dVertex
 10
9.1111611076
 20
7.1774548226
 30
0.0
  0
VERTEX
  5
404
330
2D2
100
AcDbEntity
  8
0
  6
CONTINUOUS
 62
     7
100
AcDbVertex
100
AcDb2dVertex
 10
9.1359874278
 20
7.1760383831
 30
0.0
  0
VERTEX
  5
405
330
2D2
100
AcDbEntity
  8
0
  6
CONTINUOUS
 62
     7
100
AcDbVertex
100
AcDb2dVertex
 10
9.1600880374
 20
7.1727653675
 30
0.0
  0
VERTEX
  5
406
330
2D2
100
AcDbEntity
  8
0
  6
CONTINUOUS
 62
     7
100
AcDbVertex
100
AcDb2dVertex
 10
9.1834005599
 20
7.1676442469
 30
0.0
  0
VERTEX
  5
407
330
2D2
100
AcDbEntity
  8
0
  6
CONTINUOUS
 62
     7
100
AcDbVertex
100
AcDb2dVertex
 10
9.2058646586
 20
7.1606882756
 30
0.0
  0
VERTEX
  5
408
330
2D2
100
AcDbEntity
  8
0
  6
CONTINUOUS
 62
     7
100
AcDbVertex
100
AcDb2dVertex
 10
9.2274221926
 20
7.1519154569
 30
0.0
  0
VERTEX
  5
409
330
2D2
100
AcDbEntity
  8
0
  6
CONTINUOUS
 62
     7
100
AcDbVertex
100
AcDb2dVertex
 10
9.2480173674
 20
7.1413484964
 30
0.0
  0
VERTEX
  5
40A
330
2D2
100
AcDbEntity
  8
0
  6
CONTINUOUS
 62
     7
100
AcDbVertex
100
AcDb2dVertex
 10
9.267596879
 20
7.129014743
 30
0.0
  0
VERTEX
  5
40B
330
2D2
100
AcDbEntity
  8
0
  6
CONTINUOUS
 62
     7
100
AcDbVertex
100
AcDb2dVertex
 10
9.2861100523
 20
7.1149461188
 30
0.0
  0
VERTEX
  5
40C
330
2D2
100
AcDbEntity
  8
0
  6
CONTINUOUS
 62
     7
100
AcDbVertex
100
AcDb2dVertex
 10
9.3035089723
 20
7.0991790356
 30
0.0
  0
VERTEX
  5
40D
330
2D2
100
AcDbEntity
  8
0
  6
CONTINUOUS
 62
     7
100
AcDbVertex
100
AcDb2dVertex
 10
9.3197486074
 20
7.0817543014
 30
0.0
  0
VERTEX
  5
40E
330
2D2
100
AcDbEntity
  8
0
  6
CONTINUOUS
 62
     7
100
AcDbVertex
100
AcDb2dVertex
 10
9.3347869267
 20
7.0627170143
 30
0.0
  0
VERTEX
  5
40F
330
2D2
100
AcDbEntity
  8
0
  6
CONTINUOUS
 62
     7
100
AcDbVertex
100
AcDb2dVertex
 10
9.3485850085
 20
7.0421164461
 30
0.0
  0
VERTEX
  5
410
330
2D2
100
AcDbEntity
  8
0
  6
CONTINUOUS
 62
     7
100
AcDbVertex
100
AcDb2dVertex
 10
9.3611071411
 20
7.0200059146
 30
0.0
  0
VERTEX
  5
411
330
2D2
100
AcDbEntity
  8
0
  6
CONTINUOUS
 62
     7
100
AcDbVertex
100
AcDb2dVertex
 10
9.3723209149
 20
6.9964426455
 30
0.0
  0
VERTEX
  5
412
330
2D2
100
AcDbEntity
  8
0
  6
CONTINUOUS
 62
     7
100
AcDbVertex
100
AcDb2dVertex
 10
9.3821973069
 20
6.9714876247
 30
0.0
  0
VERTEX
  5
413
330
2D2
100
AcDbEntity
  8
0
  6
CONTINUOUS
 62
     7
100
AcDbVertex
100
AcDb2dVertex
 10
9.3907107553
 20
6.94520544
 30
0.0
  0
VERTEX
  5
414
330
2D2
100
AcDbEntity
  8
0
  6
CONTINUOUS
 62
     7
100
AcDbVertex
100
AcDb2dVertex
 10
9.3978392258
 20
6.917664114
 30
0.0
  0
VERTEX
  5
415
330
2D2
100
AcDbEntity
  8
0
  6
CONTINUOUS
 62
     7
100
AcDbVertex
100
AcDb2dVertex
 10
9.4035642687
 20
6.8889349286
 30
0.0
  0
VERTEX
  5
416
330
2D2
100
AcDbEntity
  8
0
  6
CONTINUOUS
 62
     7
100
AcDbVertex
100
AcDb2dVertex
 10
9.4078710666
 20
6.8590922397
 30
0.0
  0
VERTEX
  5
417
330
2D2
100
AcDbEntity
  8
0
  6
CONTINUOUS
 62
     7
100
AcDbVertex
100
AcDb2dVertex
 10
9.4107484729
 20
6.8282132852
 30
0.0
  0
VERTEX
  5
418
330
2D2
100
AcDbEntity
  8
0
  6
CONTINUOUS
 62
     7
100
AcDbVertex
100
AcDb2dVertex
 10
9.4121890402
 20
6.7963779851
 30
0.0
  0
VERTEX
  5
419
330
2D2
100
AcDbEntity
  8
0
  6
CONTINUOUS
 62
     7
100
AcDbVertex
100
AcDb2dVertex
 10
9.4123691986
 20
6.7801273631
 30
0.0
  0
SEQEND
  5
41A
330
2D2
100
AcDbEntity
  8
0
  6
CONTINUOUS
 62
     7
  0
POLYLINE
  5
2D3
330
1F
100
AcDbEntity
  8
0
  6
CONTINUOUS
 62
     7
100
AcDb2dPolyline
 66
     1
 10
0.0
 20
0.0
 30
0.0
  0
VERTEX
  5
41B
330
2D3
100
AcDbEntity
  8
0
  6
CONTINUOUS
 62
     7
100
AcDbVertex
100
AcDb2dVertex
 10
8.8556826974
 20
5.8158135739
 30
0.0
  0
VERTEX
  5
41C
330
2D3
100
AcDbEntity
  8
0
  6
CONTINUOUS
 62
     7
100
AcDbVertex
100
AcDb2dVertex
 10
8.837828745
 20
5.805833999
 30
0.0
  0
VERTEX
  5
41D
330
2D3
100
AcDbEntity
  8
0
  6
CONTINUOUS
 62
     7
100
AcDbVertex
100
AcDb2dVertex
 10
8.8095498053
 20
5.7913837383
 30
0.0
  0
VERTEX
  5
41E
330
2D3
100
AcDbEntity
  8
0
  6
CONTINUOUS
 62
     7
100
AcDbVertex
100
AcDb2dVertex
 10
8.7813900312
 20
5.7786606234
 30
0.0
  0
VERTEX
  5
41F
330
2D3
100
AcDbEntity
  8
0
  6
CONTINUOUS
 62
     7
100
AcDbVertex
100
AcDb2dVertex
 10
8.753422305
 20
5.7676975839
 30
0.0
  0
VERTEX
  5
420
330
2D3
100
AcDbEntity
  8
0
  6
CONTINUOUS
 62
     7
100
AcDbVertex
100
AcDb2dVertex
 10
8.7257190118
 20
5.7585229939
 30
0.0
  0
VERTEX
  5
421
330
2D3
100
AcDbEntity
  8
0
  6
CONTINUOUS
 62
     7
100
AcDbVertex
100
AcDb2dVertex
 10
8.6983518525
 20
5.751160599
 30
0.0
  0
VERTEX
  5
422
330
2D3
100
AcDbEntity
  8
0
  6
CONTINUOUS
 62
     7
100
AcDbVertex
100
AcDb2dVertex
 10
8.6713916581
 20
5.7456294541
 30
0.0
  0
VERTEX
  5
423
330
2D3
100
AcDbEntity
  8
0
  6
CONTINUOUS
 62
     7
100
AcDbVertex
100
AcDb2dVertex
 10
8.644908206
 20
5.7419438749
 30
0.0
  0
VERTEX
  5
424
330
2D3
100
AcDbEntity
  8
0
  6
CONTINUOUS
 62
     7
100
AcDbVertex
100
AcDb2dVertex
 10
8.61897004
 20
5.7401134003
 30
0.0
  0
VERTEX
  5
425
330
2D3
100
AcDbEntity
  8
0
  6
CONTINUOUS
 62
     7
100
AcDbVertex
100
AcDb2dVertex
 10
8.5936442924
 20
5.7401427678
 30
0.0
  0
VERTEX
  5
426
330
2D3
100
AcDbEntity
  8
0
  6
CONTINUOUS
 62
     7
100
AcDbVertex
100
AcDb2dVertex
 10
8.5689965106
 20
5.7420319014
 30
0.0
  0
VERTEX
  5
427
330
2D3
100
AcDbEntity
  8
0
  6
CONTINUOUS
 62
     7
100
AcDbVertex
100
AcDb2dVertex
 10
8.5450904872
 20
5.7457759118
 30
0.0
  0
VERTEX
  5
428
330
2D3
100
AcDbEntity
  8
0
  6
CONTINUOUS
 62
     7
100
AcDbVertex
100
AcDb2dVertex
 10
8.5219880952
 20
5.7513651088
 30
0.0
  0
VERTEX
  5
429
330
2D3
100
AcDbEntity
  8
0
  6
CONTINUOUS
 62
     7
100
AcDbVertex
100
AcDb2dVertex
 10
8.4997491273
 20
5.7587850266
 30
0.0
  0
VERTEX
  5
42A
330
2D3
100
AcDbEntity
  8
0
  6
CONTINUOUS
 62
     7
100
AcDbVertex
100
AcDb2dVertex
 10
8.4784311419
 20
5.7680164612
 30
0.0
  0
VERTEX
  5
42B
330
2D3
100
AcDbEntity
  8
0
  6
CONTINUOUS
 62
     7
100
AcDbVertex
100
AcDb2dVertex
 10
8.4580893135
 20
5.7790355201
 30
0.0
  0
VERTEX
  5
42C
330
2D3
100
AcDbEntity
  8
0
  6
CONTINUOUS
 62
     7
100
AcDbVertex
100
AcDb2dVertex
 10
8.4387762903
 20
5.791813684
 30
0.0
  0
VERTEX
  5
42D
330
2D3
100
AcDbEntity
  8
0
  6
CONTINUOUS
 62
     7
100
AcDbVertex
100
AcDb2dVertex
 10
8.4205420576
 20
5.806317881
 30
0.0
  0
VERTEX
  5
42E
330
2D3
100
AcDbEntity
  8
0
  6
CONTINUOUS
 62
     7
100
AcDbVertex
100
AcDb2dVertex
 10
8.4034338087
 20
5.8225105716
 30
0.0
  0
VERTEX
  5
42F
330
2D3
100
AcDbEntity
  8
0
  6
CONTINUOUS
 62
     7
100
AcDbVertex
100
AcDb2dVertex
 10
8.3874958227
 20
5.8403498465
 30
0.0
  0
VERTEX
  5
430
330
2D3
100
AcDbEntity
  8
0
  6
CONTINUOUS
 62
     7
100
AcDbVertex
100
AcDb2dVertex
 10
8.3727693498
 20
5.8597895345
 30
0.0
  0
VERTEX
  5
431
330
2D3
100
AcDbEntity
  8
0
  6
CONTINUOUS
 62
     7
100
AcDbVertex
100
AcDb2dVertex
 10
8.3592925047
 20
5.8807793225
 30
0.0
  0
VERTEX
  5
432
330
2D3
100
AcDbEntity
  8
0
  6
CONTINUOUS
 62
     7
100
AcDbVertex
100
AcDb2dVertex
 10
8.3471001676
 20
5.9032648853
 30
0.0
  0
VERTEX
  5
433
330
2D3
100
AcDbEntity
  8
0
  6
CONTINUOUS
 62
     7
100
AcDbVertex
100
AcDb2dVertex
 10
8.3362238945
 20
5.9271880264
 30
0.0
  0
VERTEX
  5
434
330
2D3
100
AcDbEntity
  8
0
  6
CONTINUOUS
 62
     7
100
AcDbVertex
100
AcDb2dVertex
 10
8.326691835
 20
5.9524868287
 30
0.0
  0
VERTEX
  5
435
330
2D3
100
AcDbEntity
  8
0
  6
CONTINUOUS
 62
     7
100
AcDbVertex
100
AcDb2dVertex
 10
8.3185286596
 20
5.9790958145
 30
0.0
  0
VERTEX
  5
436
330
2D3
100
AcDbEntity
  8
0
  6
CONTINUOUS
 62
     7
100
AcDbVertex
100
AcDb2dVertex
 10
8.3117554961
 20
6.0069461153
 30
0.0
  0
VERTEX
  5
437
330
2D3
100
AcDbEntity
  8
0
  6
CONTINUOUS
 62
     7
100
AcDbVertex
100
AcDb2dVertex
 10
8.3063898746
 20
6.0359656498
 30
0.0
  0
VERTEX
  5
438
330
2D3
100
AcDbEntity
  8
0
  6
CONTINUOUS
 62
     7
100
AcDbVertex
100
AcDb2dVertex
 10
8.3024456822
 20
6.0660793105
 30
0.0
  0
VERTEX
  5
439
330
2D3
100
AcDbEntity
  8
0
  6
CONTINUOUS
 62
     7
100
AcDbVertex
100
AcDb2dVertex
 10
8.2999331271
 20
6.097209158
 30
0.0
  0
VERTEX
  5
43A
330
2D3
100
AcDbEntity
  8
0
  6
CONTINUOUS
 62
     7
100
AcDbVertex
100
AcDb2dVertex
 10
8.2988587123
 20
6.1292746231
 30
0.0
  0
SEQEND
  5
43B
330
2D3
100
AcDbEntity
  8
0
  6
CONTINUOUS
 62
     7
  0
LINE
  5
2D4
330
1F
100
AcDbEntity
  8
0
  6
CONTINUOUS
 62
     7
100
AcDbLine
 10
8.2988587123
 20
6.1292746231
 30
0.0
 11
8.3266986775
 21
6.1292752671
 31
0.0
  0
POLYLINE
  5
2D5
330
1F
100
AcDbEntity
  8
0
  6
CONTINUOUS
 62
     7
100
AcDb2dPolyline
 66
     1
 10
0.0
 20
0.0
 30
0.0
  0
VERTEX
  5
43C
330
2D5
100
AcDbEntity
  8
0
  6
CONTINUOUS
 62
     7
100
AcDbVertex
100
AcDb2dVertex
 10
8.1781801973
 20
7.0851551132
 30
0.0
  0
VERTEX
  5
43D
330
2D5
100
AcDbEntity
  8
0
  6
CONTINUOUS
 62
     7
100
AcDbVertex
100
AcDb2dVertex
 10
8.1539227878
 20
7.0540106955
 30
0.0
  0
VERTEX
  5
43E
330
2D5
100
AcDbEntity
  8
0
  6
CONTINUOUS
 62
     7
100
AcDbVertex
100
AcDb2dVertex
 10
8.1304549469
 20
7.0219141585
 30
0.0
  0
VERTEX
  5
43F
330
2D5
100
AcDbEntity
  8
0
  6
CONTINUOUS
 62
     7
100
AcDbVertex
100
AcDb2dVertex
 10
8.1078378996
 20
6.9889492384
 30
0.0
  0
VERTEX
  5
440
330
2D5
100
AcDbEntity
  8
0
  6
CONTINUOUS
 62
     7
100
AcDbVertex
100
AcDb2dVertex
 10
8.0861306511
 20
6.9552019368
 30
0.0
  0
VERTEX
  5
441
330
2D5
100
AcDbEntity
  8
0
  6
CONTINUOUS
 62
     7
100
AcDbVertex
100
AcDb2dVertex
 10
8.0653898331
 20
6.9207602966
 30
0.0
  0
VERTEX
  5
442
330
2D5
100
AcDbEntity
  8
0
  6
CONTINUOUS
 62
     7
100
AcDbVertex
100
AcDb2dVertex
 10
8.0456695561
 20
6.8857141722
 30
0.0
  0
VERTEX
  5
443
330
2D5
100
AcDbEntity
  8
0
  6
CONTINUOUS
 62
     7
100
AcDbVertex
100
AcDb2dVertex
 10
8.0270212681
 20
6.8501549948
 30
0.0
  0
VERTEX
  5
444
330
2D5
100
AcDbEntity
  8
0
  6
CONTINUOUS
 62
     7
100
AcDbVertex
100
AcDb2dVertex
 10
8.0094936202
 20
6.8141755344
 30
0.0
  0
VERTEX
  5
445
330
2D5
100
AcDbEntity
  8
0
  6
CONTINUOUS
 62
     7
100
AcDbVertex
100
AcDb2dVertex
 10
7.9931323402
 20
6.7778696571
 30
0.0
  0
VERTEX
  5
446
330
2D5
100
AcDbEntity
  8
0
  6
CONTINUOUS
 62
     7
100
AcDbVertex
100
AcDb2dVertex
 10
7.9779801127
 20
6.741332081
 30
0.0
  0
VERTEX
  5
447
330
2D5
100
AcDbEntity
  8
0
  6
CONTINUOUS
 62
     7
100
AcDbVertex
100
AcDb2dVertex
 10
7.9640764682
 20
6.7046581283
 30
0.0
  0
VERTEX
  5
448
330
2D5
100
AcDbEntity
  8
0
  6
CONTINUOUS
 62
     7
100
AcDbVertex
100
AcDb2dVertex
 10
7.9514576796
 20
6.6679434772
 30
0.0
  0
VERTEX
  5
449
330
2D5
100
AcDbEntity
  8
0
  6
CONTINUOUS
 62
     7
100
AcDbVertex
100
AcDb2dVertex
 10
7.940156668
 20
6.631283912
 30
0.0
  0
VERTEX
  5
44A
330
2D5
100
AcDbEntity
  8
0
  6
CONTINUOUS
 62
     7
100
AcDbVertex
100
AcDb2dVertex
 10
7.9302029164
 20
6.5947750734
 30
0.0
  0
VERTEX
  5
44B
330
2D5
100
AcDbEntity
  8
0
  6
CONTINUOUS
 62
     7
100
AcDbVertex
100
AcDb2dVertex
 10
7.9216223931
 20
6.5585122088
 30
0.0
  0
VERTEX
  5
44C
330
2D5
100
AcDbEntity
  8
0
  6
CONTINUOUS
 62
     7
100
AcDbVertex
100
AcDb2dVertex
 10
7.9144374835
 20
6.5225899238
 30
0.0
  0
VERTEX
  5
44D
330
2D5
100
AcDbEntity
  8
0
  6
CONTINUOUS
 62
     7
100
AcDbVertex
100
AcDb2dVertex
 10
7.9086669324
 20
6.4871019356
 30
0.0
  0
VERTEX
  5
44E
330
2D5
100
AcDbEntity
  8
0
  6
CONTINUOUS
 62
     7
100
AcDbVertex
100
AcDb2dVertex
 10
7.9043257944
 20
6.4521408282
 30
0.0
  0
VERTEX
  5
44F
330
2D5
100
AcDbEntity
  8
0
  6
CONTINUOUS
 62
     7
100
AcDbVertex
100
AcDb2dVertex
 10
7.9014253951
 20
6.4177978113
 30
0.0
  0
VERTEX
  5
450
330
2D5
100
AcDbEntity
  8
0
  6
CONTINUOUS
 62
     7
100
AcDbVertex
100
AcDb2dVertex
 10
7.8999733013
 20
6.3841624818
 30
0.0
  0
VERTEX
  5
451
330
2D5
100
AcDbEntity
  8
0
  6
CONTINUOUS
 62
     7
100
AcDbVertex
100
AcDb2dVertex
 10
7.8999733013
 20
6.3513225904
 30
0.0
  0
VERTEX
  5
452
330
2D5
100
AcDbEntity
  8
0
  6
CONTINUOUS
 62
     7
100
AcDbVertex
100
AcDb2dVertex
 10
7.9014253951
 20
6.3193638128
 30
0.0
  0
VERTEX
  5
453
330
2D5
100
AcDbEntity
  8
0
  6
CONTINUOUS
 62
     7
100
AcDbVertex
100
AcDb2dVertex
 10
7.9043257944
 20
6.2883695256
 30
0.0
  0
VERTEX
  5
454
330
2D5
100
AcDbEntity
  8
0
  6
CONTINUOUS
 62
     7
100
AcDbVertex
100
AcDb2dVertex
 10
7.9086669324
 20
6.2584205895
 30
0.0
  0
VERTEX
  5
455
330
2D5
100
AcDbEntity
  8
0
  6
CONTINUOUS
 62
     7
100
AcDbVertex
100
AcDb2dVertex
 10
7.9144374835
 20
6.2295951377
 30
0.0
  0
VERTEX
  5
456
330
2D5
100
AcDbEntity
  8
0
  6
CONTINUOUS
 62
     7
100
AcDbVertex
100
AcDb2dVertex
 10
7.9216223931
 20
6.2019683727
 30
0.0
  0
VERTEX
  5
457
330
2D5
100
AcDbEntity
  8
0
  6
CONTINUOUS
 62
     7
100
AcDbVertex
100
AcDb2dVertex
 10
7.9302029164
 20
6.1756123695
 30
0.0
  0
VERTEX
  5
458
330
2D5
100
AcDbEntity
  8
0
  6
CONTINUOUS
 62
     7
100
AcDbVertex
100
AcDb2dVertex
 10
7.940156668
 20
6.1505958879
 30
0.0
  0
VERTEX
  5
459
330
2D5
100
AcDbEntity
  8
0
  6
CONTINUOUS
 62
     7
100
AcDbVertex
100
AcDb2dVertex
 10
7.9514576796
 20
6.126984193
 30
0.0
  0
VERTEX
  5
45A
330
2D5
100
AcDbEntity
  8
0
  6
CONTINUOUS
 62
     7
100
AcDbVertex
100
AcDb2dVertex
 10
7.9640764682
 20
6.104838885
 30
0.0
  0
VERTEX
  5
45B
330
2D5
100
AcDbEntity
  8
0
  6
CONTINUOUS
 62
     7
100
AcDbVertex
100
AcDb2dVertex
 10
7.9779801127
 20
6.0842177386
 30
0.0
  0
VERTEX
  5
45C
330
2D5
100
AcDbEntity
  8
0
  6
CONTINUOUS
 62
     7
100
AcDbVertex
100
AcDb2dVertex
 10
7.9931323402
 20
6.0651745519
 30
0.0
  0
VERTEX
  5
45D
330
2D5
100
AcDbEntity
  8
0
  6
CONTINUOUS
 62
     7
100
AcDbVertex
100
AcDb2dVertex
 10
8.0094936202
 20
6.0477590065
 30
0.0
  0
VERTEX
  5
45E
330
2D5
100
AcDbEntity
  8
0
  6
CONTINUOUS
 62
     7
100
AcDbVertex
100
AcDb2dVertex
 10
8.0270212681
 20
6.0320165375
 30
0.0
  0
VERTEX
  5
45F
330
2D5
100
AcDbEntity
  8
0
  6
CONTINUOUS
 62
     7
100
AcDbVertex
100
AcDb2dVertex
 10
8.0456695561
 20
6.0179882152
 30
0.0
  0
VERTEX
  5
460
330
2D5
100
AcDbEntity
  8
0
  6
CONTINUOUS
 62
     7
100
AcDbVertex
100
AcDb2dVertex
 10
8.0628999014
 20
6.0071299787
 30
0.0
  0
SEQEND
  5
461
330
2D5
100
AcDbEntity
  8
0
  6
CONTINUOUS
 62
     7
  0
LINE
  5
2D6
330
1F
100
AcDbEntity
  8
0
  6
CONTINUOUS
 62
     7
100
AcDbLine
 10
8.0714646069
 20
7.1467607121
 30
0.0
 11
8.1781801973
 21
7.0851551132
 31
0.0
  0
POLYLINE
  5
2D7
330
1F
100
AcDbEntity
  8
0
  6
CONTINUOUS
 62
     7
100
AcDb2dPolyline
 66
     1
 10
0.0
 20
0.0
 30
0.0
  0
VERTEX
  5
462
330
2D7
100
AcDbEntity
  8
0
  6
CONTINUOUS
 62
     7
100
AcDbVertex
100
AcDb2dVertex
 10
8.6282416
 20
7.4681812286
 30
0.0
  0
VERTEX
  5
463
330
2D7
100
AcDbEntity
  8
0
  6
CONTINUOUS
 62
     7
100
AcDbVertex
100
AcDb2dVertex
 10
8.6026245688
 20
7.4694543307
 30
0.0
  0
VERTEX
  5
464
330
2D7
100
AcDbEntity
  8
0
  6
CONTINUOUS
 62
     7
100
AcDbVertex
100
AcDb2dVertex
 10
8.5763147086
 20
7.4687572781
 30
0.0
  0
VERTEX
  5
465
330
2D7
100
AcDbEntity
  8
0
  6
CONTINUOUS
 62
     7
100
AcDbVertex
100
AcDb2dVertex
 10
8.5493841328
 20
7.4660919811
 30
0.0
  0
VERTEX
  5
466
330
2D7
100
AcDbEntity
  8
0
  6
CONTINUOUS
 62
     7
100
AcDbVertex
100
AcDb2dVertex
 10
8.5219066564
 20
7.4614657453
 30
0.0
  0
VERTEX
  5
467
330
2D7
100
AcDbEntity
  8
0
  6
CONTINUOUS
 62
     7
100
AcDbVertex
100
AcDb2dVertex
 10
8.4939575931
 20
7.4548912507
 30
0.0
  0
VERTEX
  5
468
330
2D7
100
AcDbEntity
  8
0
  6
CONTINUOUS
 62
     7
100
AcDbVertex
100
AcDb2dVertex
 10
8.4656135495
 20
7.4463865178
 30
0.0
  0
VERTEX
  5
469
330
2D7
100
AcDbEntity
  8
0
  6
CONTINUOUS
 62
     7
100
AcDbVertex
100
AcDb2dVertex
 10
8.4369522145
 20
7.4359748572
 30
0.0
  0
VERTEX
  5
46A
330
2D7
100
AcDbEntity
  8
0
  6
CONTINUOUS
 62
     7
100
AcDbVertex
100
AcDb2dVertex
 10
8.4080521469
 20
7.4236848068
 30
0.0
  0
VERTEX
  5
46B
330
2D7
100
AcDbEntity
  8
0
  6
CONTINUOUS
 62
     7
100
AcDbVertex
100
AcDb2dVertex
 10
8.3789925598
 20
7.4095500526
 30
0.0
  0
VERTEX
  5
46C
330
2D7
100
AcDbEntity
  8
0
  6
CONTINUOUS
 62
     7
100
AcDbVertex
100
AcDb2dVertex
 10
8.3498531035
 20
7.393609337
 30
0.0
  0
VERTEX
  5
46D
330
2D7
100
AcDbEntity
  8
0
  6
CONTINUOUS
 62
     7
100
AcDbVertex
100
AcDb2dVertex
 10
8.3207136471
 20
7.3759063524
 30
0.0
  0
VERTEX
  5
46E
330
2D7
100
AcDbEntity
  8
0
  6
CONTINUOUS
 62
     7
100
AcDbVertex
100
AcDb2dVertex
 10
8.29165406
 20
7.3564896215
 30
0.0
  0
VERTEX
  5
46F
330
2D7
100
AcDbEntity
  8
0
  6
CONTINUOUS
 62
     7
100
AcDbVertex
100
AcDb2dVertex
 10
8.2627539924
 20
7.3354123641
 30
0.0
  0
VERTEX
  5
470
330
2D7
100
AcDbEntity
  8
0
  6
CONTINUOUS
 62
     7
100
AcDbVertex
100
AcDb2dVertex
 10
8.2340926574
 20
7.3127323517
 30
0.0
  0
VERTEX
  5
471
330
2D7
100
AcDbEntity
  8
0
  6
CONTINUOUS
 62
     7
100
AcDbVertex
100
AcDb2dVertex
 10
8.2057486138
 20
7.2885117484
 30
0.0
  0
VERTEX
  5
472
330
2D7
100
AcDbEntity
  8
0
  6
CONTINUOUS
 62
     7
100
AcDbVertex
100
AcDb2dVertex
 10
8.1777995505
 20
7.2628169414
 30
0.0
  0
VERTEX
  5
473
330
2D7
100
AcDbEntity
  8
0
  6
CONTINUOUS
 62
     7
100
AcDbVertex
100
AcDb2dVertex
 10
8.1503220741
 20
7.2357183582
 30
0.0
  0
VERTEX
  5
474
330
2D7
100
AcDbEntity
  8
0
  6
CONTINUOUS
 62
     7
100
AcDbVertex
100
AcDb2dVertex
 10
8.1233914984
 20
7.2072902743
 30
0.0
  0
VERTEX
  5
475
330
2D7
100
AcDbEntity
  8
0
  6
CONTINUOUS
 62
     7
100
AcDbVertex
100
AcDb2dVertex
 10
8.0970816381
 20
7.177610609
 30
0.0
  0
VERTEX
  5
476
330
2D7
100
AcDbEntity
  8
0
  6
CONTINUOUS
 62
     7
100
AcDbVertex
100
AcDb2dVertex
 10
8.0714646069
 20
7.1467607121
 30
0.0
  0
SEQEND
  5
477
330
2D7
100
AcDbEntity
  8
0
  6
CONTINUOUS
 62
     7
  0
LINE
  5
2D8
330
1F
100
AcDbEntity
  8
0
  6
CONTINUOUS
 62
     7
100
AcDbLine
 10
8.7210377655
 20
7.4146111425
 30
0.0
 11
8.6282416
 21
7.4681812286
 31
0.0
  0
ARC
  5
2D9
330
1F
100
AcDbEntity
  8
0
  6
CONTINUOUS
 62
     7
100
AcDbCircle
 10
8.6987759294
 20
7.1379984054
 30
0.0
 40
0.2775071092996548
100
AcDbArc
 50
60.2883930933
 51
85.3987438563
  0
LINE
  5
2DA
330
1F
100
AcDbEntity
  8
0
  6
CONTINUOUS
 62
     7
100
AcDbLine
 10
8.2988587123
 20
6.1453482612
 30
0.0
 11
7.9497131396
 21
6.34690571
 31
0.0
  0
POLYLINE
  5
2DB
330
1F
100
AcDbEntity
  8
0
  6
CONTINUOUS
 62
     7
100
AcDb2dPolyline
 66
     1
 10
0.0
 20
0.0
 30
0.0
  0
VERTEX
  5
478
330
2DB
100
AcDbEntity
  8
0
  6
CONTINUOUS
 62
     7
100
AcDbVertex
100
AcDb2dVertex
 10
8.6734797307
 20
7.3700213875
 30
0.0
  0
VERTEX
  5
479
330
2DB
100
AcDbEntity
  8
0
  6
CONTINUOUS
 62
     7
100
AcDbVertex
100
AcDb2dVertex
 10
8.6457825046
 20
7.363188257
 30
0.0
  0
VERTEX
  5
47A
330
2DB
100
AcDbEntity
  8
0
  6
CONTINUOUS
 62
     7
100
AcDbVertex
100
AcDb2dVertex
 10
8.6177122161
 20
7.3544730952
 30
0.0
  0
VERTEX
  5
47B
330
2DB
100
AcDbEntity
  8
0
  6
CONTINUOUS
 62
     7
100
AcDbVertex
100
AcDb2dVertex
 10
8.5893440215
 20
7.3438992363
 30
0.0
  0
VERTEX
  5
47C
330
2DB
100
AcDbEntity
  8
0
  6
CONTINUOUS
 62
     7
100
AcDbVertex
100
AcDb2dVertex
 10
8.5607538748
 20
7.3314949912
 30
0.0
  0
VERTEX
  5
47D
330
2DB
100
AcDbEntity
  8
0
  6
CONTINUOUS
 62
     7
100
AcDbVertex
100
AcDb2dVertex
 10
8.5320183242
 20
7.3172935714
 30
0.0
  0
VERTEX
  5
47E
330
2DB
100
AcDbEntity
  8
0
  6
CONTINUOUS
 62
     7
100
AcDbVertex
100
AcDb2dVertex
 10
8.503214307
 20
7.3013330001
 30
0.0
  0
VERTEX
  5
47F
330
2DB
100
AcDbEntity
  8
0
  6
CONTINUOUS
 62
     7
100
AcDbVertex
100
AcDb2dVertex
 10
8.4744189442
 20
7.2836560108
 30
0.0
  0
VERTEX
  5
480
330
2DB
100
AcDbEntity
  8
0
  6
CONTINUOUS
 62
     7
100
AcDbVertex
100
AcDb2dVertex
 10
8.4457093334
 20
7.2643099324
 30
0.0
  0
VERTEX
  5
481
330
2DB
100
AcDbEntity
  8
0
  6
CONTINUOUS
 62
     7
100
AcDbVertex
100
AcDb2dVertex
 10
8.4171623426
 20
7.2433465627
 30
0.0
  0
VERTEX
  5
482
330
2DB
100
AcDbEntity
  8
0
  6
CONTINUOUS
 62
     7
100
AcDbVertex
100
AcDb2dVertex
 10
8.3888544044
 20
7.2208220298
 30
0.0
  0
VERTEX
  5
483
330
2DB
100
AcDbEntity
  8
0
  6
CONTINUOUS
 62
     7
100
AcDbVertex
100
AcDb2dVertex
 10
8.3608613114
 20
7.1967966414
 30
0.0
  0
VERTEX
  5
484
330
2DB
100
AcDbEntity
  8
0
  6
CONTINUOUS
 62
     7
100
AcDbVertex
100
AcDb2dVertex
 10
8.3332580133
 20
7.171334724
 30
0.0
  0
VERTEX
  5
485
330
2DB
100
AcDbEntity
  8
0
  6
CONTINUOUS
 62
     7
100
AcDbVertex
100
AcDb2dVertex
 10
8.306118416
 20
7.1445044502
 30
0.0
  0
VERTEX
  5
486
330
2DB
100
AcDbEntity
  8
0
  6
CONTINUOUS
 62
     7
100
AcDbVertex
100
AcDb2dVertex
 10
8.2795151839
 20
7.1163776562
 30
0.0
  0
VERTEX
  5
487
330
2DB
100
AcDbEntity
  8
0
  6
CONTINUOUS
 62
     7
100
AcDbVertex
100
AcDb2dVertex
 10
8.2535195454
 20
7.0870296495
 30
0.0
  0
VERTEX
  5
488
330
2DB
100
AcDbEntity
  8
0
  6
CONTINUOUS
 62
     7
100
AcDbVertex
100
AcDb2dVertex
 10
8.2282011021
 20
7.0565390074
 30
0.0
  0
VERTEX
  5
489
330
2DB
100
AcDbEntity
  8
0
  6
CONTINUOUS
 62
     7
100
AcDbVertex
100
AcDb2dVertex
 10
8.2036276423
 20
7.0249873667
 30
0.0
  0
VERTEX
  5
48A
330
2DB
100
AcDbEntity
  8
0
  6
CONTINUOUS
 62
     7
100
AcDbVertex
100
AcDb2dVertex
 10
8.1798649599
 20
6.9924592046
 30
0.0
  0
VERTEX
  5
48B
330
2DB
100
AcDbEntity
  8
0
  6
CONTINUOUS
 62
     7
100
AcDbVertex
100
AcDb2dVertex
 10
8.1569766778
 20
6.9590416132
 30
0.0
  0
VERTEX
  5
48C
330
2DB
100
AcDbEntity
  8
0
  6
CONTINUOUS
 62
     7
100
AcDbVertex
100
AcDb2dVertex
 10
8.1350240778
 20
6.9248240657
 30
0.0
  0
VERTEX
  5
48D
330
2DB
100
AcDbEntity
  8
0
  6
CONTINUOUS
 62
     7
100
AcDbVertex
100
AcDb2dVertex
 10
8.1140659365
 20
6.8898981774
 30
0.0
  0
VERTEX
  5
48E
330
2DB
100
AcDbEntity
  8
0
  6
CONTINUOUS
 62
     7
100
AcDbVertex
100
AcDb2dVertex
 10
8.094158368
 20
6.8543574599
 30
0.0
  0
VERTEX
  5
48F
330
2DB
100
AcDbEntity
  8
0
  6
CONTINUOUS
 62
     7
100
AcDbVertex
100
AcDb2dVertex
 10
8.0753546735
 20
6.818297071
 30
0.0
  0
VERTEX
  5
490
330
2DB
100
AcDbEntity
  8
0
  6
CONTINUOUS
 62
     7
100
AcDbVertex
100
AcDb2dVertex
 10
8.0577051984
 20
6.7818135602
 30
0.0
  0
VERTEX
  5
491
330
2DB
100
AcDbEntity
  8
0
  6
CONTINUOUS
 62
     7
100
AcDbVertex
100
AcDb2dVertex
 10
8.0412571981
 20
6.7450046094
 30
0.0
  0
VERTEX
  5
492
330
2DB
100
AcDbEntity
  8
0
  6
CONTINUOUS
 62
     7
100
AcDbVertex
100
AcDb2dVertex
 10
8.0260547111
 20
6.7079687721
 30
0.0
  0
VERTEX
  5
493
330
2DB
100
AcDbEntity
  8
0
  6
CONTINUOUS
 62
     7
100
AcDbVertex
100
AcDb2dVertex
 10
8.0121384409
 20
6.6708052094
 30
0.0
  0
VERTEX
  5
494
330
2DB
100
AcDbEntity
  8
0
  6
CONTINUOUS
 62
     7
100
AcDbVertex
100
AcDb2dVertex
 10
7.9995456474
 20
6.633613424
 30
0.0
  0
VERTEX
  5
495
330
2DB
100
AcDbEntity
  8
0
  6
CONTINUOUS
 62
     7
100
AcDbVertex
100
AcDb2dVertex
 10
7.988310047
 20
6.5964929946
 30
0.0
  0
VERTEX
  5
496
330
2DB
100
AcDbEntity
  8
0
  6
CONTINUOUS
 62
     7
100
AcDbVertex
100
AcDb2dVertex
 10
7.9784617221
 20
6.5595433085
 30
0.0
  0
VERTEX
  5
497
330
2DB
100
AcDbEntity
  8
0
  6
CONTINUOUS
 62
     7
100
AcDbVertex
100
AcDb2dVertex
 10
7.9700270412
 20
6.522863296
 30
0.0
  0
VERTEX
  5
498
330
2DB
100
AcDbEntity
  8
0
  6
CONTINUOUS
 62
     7
100
AcDbVertex
100
AcDb2dVertex
 10
7.9630285873
 20
6.4865511654
 30
0.0
  0
VERTEX
  5
499
330
2DB
100
AcDbEntity
  8
0
  6
CONTINUOUS
 62
     7
100
AcDbVertex
100
AcDb2dVertex
 10
7.9574850985
 20
6.45070414
 30
0.0
  0
VERTEX
  5
49A
330
2DB
100
AcDbEntity
  8
0
  6
CONTINUOUS
 62
     7
100
AcDbVertex
100
AcDb2dVertex
 10
7.9534114171
 20
6.4154181977
 30
0.0
  0
VERTEX
  5
49B
330
2DB
100
AcDbEntity
  8
0
  6
CONTINUOUS
 62
     7
100
AcDbVertex
100
AcDb2dVertex
 10
7.9508184499
 20
6.3807878142
 30
0.0
  0
VERTEX
  5
49C
330
2DB
100
AcDbEntity
  8
0
  6
CONTINUOUS
 62
     7
100
AcDbVertex
100
AcDb2dVertex
 10
7.9497131396
 20
6.34690571
 30
0.0
  0
SEQEND
  5
49D
330
2DB
100
AcDbEntity
  8
0
  6
CONTINUOUS
 62
     7
  0
LINE
  5
2DC
330
1F
100
AcDbEntity
  8
0
  6
CONTINUOUS
 62
     7
100
AcDbLine
 10
8.6595603059
 20
7.3780569004
 30
0.0
 11
8.6734797307
 21
7.3700213875
 31
0.0
  0
POLYLINE
  5
2DD
330
1F
100
AcDbEntity
  8
0
  6
CONTINUOUS
 62
     7
100
AcDb2dPolyline
 66
     1
 10
0.0
 20
0.0
 30
0.0
  0
VERTEX
  5
49E
330
2DD
100
AcDbEntity
  8
0
  6
CONTINUOUS
 62
     7
100
AcDbVertex
100
AcDb2dVertex
 10
8.6595603059
 20
7.3780569004
 30
0.0
  0
VERTEX
  5
49F
330
2DD
100
AcDbEntity
  8
0
  6
CONTINUOUS
 62
     7
100
AcDbVertex
100
AcDb2dVertex
 10
8.6320605957
 20
7.3712787939
 30
0.0
  0
VERTEX
  5
4A0
330
2DD
100
AcDbEntity
  8
0
  6
CONTINUOUS
 62
     7
100
AcDbVertex
100
AcDb2dVertex
 10
8.604192565
 20
7.3626450628
 30
0.0
  0
VERTEX
  5
4A1
330
2DD
100
AcDbEntity
  8
0
  6
CONTINUOUS
 62
     7
100
AcDbVertex
100
AcDb2dVertex
 10
8.5760297758
 20
7.3521784974
 30
0.0
  0
VERTEX
  5
4A2
330
2DD
100
AcDbEntity
  8
0
  6
CONTINUOUS
 62
     7
100
AcDbVertex
100
AcDb2dVertex
 10
8.5476465685
 20
7.3399067258
 30
0.0
  0
VERTEX
  5
4A3
330
2DD
100
AcDbEntity
  8
0
  6
CONTINUOUS
 62
     7
100
AcDbVertex
100
AcDb2dVertex
 10
8.5191178648
 20
7.3258621413
 30
0.0
  0
VERTEX
  5
4A4
330
2DD
100
AcDbEntity
  8
0
  6
CONTINUOUS
 62
     7
100
AcDbVertex
100
AcDb2dVertex
 10
8.4905189709
 20
7.3100818168
 30
0.0
  0
VERTEX
  5
4A5
330
2DD
100
AcDbEntity
  8
0
  6
CONTINUOUS
 62
     7
100
AcDbVertex
100
AcDb2dVertex
 10
8.461925378
 20
7.2926074068
 30
0.0
  0
VERTEX
  5
4A6
330
2DD
100
AcDbEntity
  8
0
  6
CONTINUOUS
 62
     7
100
AcDbVertex
100
AcDb2dVertex
 10
8.4334125635
 20
7.2734850381
 30
0.0
  0
VERTEX
  5
4A7
330
2DD
100
AcDbEntity
  8
0
  6
CONTINUOUS
 62
     7
100
AcDbVertex
100
AcDb2dVertex
 10
8.4050557915
 20
7.2527651869
 30
0.0
  0
VERTEX
  5
4A8
330
2DD
100
AcDbEntity
  8
0
  6
CONTINUOUS
 62
     7
100
AcDbVertex
100
AcDb2dVertex
 10
8.3769299142
 20
7.2305025468
 30
0.0
  0
VERTEX
  5
4A9
330
2DD
100
AcDbEntity
  8
0
  6
CONTINUOUS
 62
     7
100
AcDbVertex
100
AcDb2dVertex
 10
8.3491091742
 20
7.2067558834
 30
0.0
  0
VERTEX
  5
4AA
330
2DD
100
AcDbEntity
  8
0
  6
CONTINUOUS
 62
     7
100
AcDbVertex
100
AcDb2dVertex
 10
8.3216670089
 20
7.1815878798
 30
0.0
  0
VERTEX
  5
4AB
330
2DD
100
AcDbEntity
  8
0
  6
CONTINUOUS
 62
     7
100
AcDbVertex
100
AcDb2dVertex
 10
8.2946758562
 20
7.155064971
 30
0.0
  0
VERTEX
  5
4AC
330
2DD
100
AcDbEntity
  8
0
  6
CONTINUOUS
 62
     7
100
AcDbVertex
100
AcDb2dVertex
 10
8.2682069634
 20
7.1272571684
 30
0.0
  0
VERTEX
  5
4AD
330
2DD
100
AcDbEntity
  8
0
  6
CONTINUOUS
 62
     7
100
AcDbVertex
100
AcDb2dVertex
 10
8.2423301996
 20
7.098237875
 30
0.0
  0
VERTEX
  5
4AE
330
2DD
100
AcDbEntity
  8
0
  6
CONTINUOUS
 62
     7
100
AcDbVertex
100
AcDb2dVertex
 10
8.2171138703
 20
7.068083692
 30
0.0
  0
VERTEX
  5
4AF
330
2DD
100
AcDbEntity
  8
0
  6
CONTINUOUS
 62
     7
100
AcDbVertex
100
AcDb2dVertex
 10
8.1926245383
 20
7.0368742161
 30
0.0
  0
VERTEX
  5
4B0
330
2DD
100
AcDbEntity
  8
0
  6
CONTINUOUS
 62
     7
100
AcDbVertex
100
AcDb2dVertex
 10
8.1689268469
 20
7.0046918295
 30
0.0
  0
VERTEX
  5
4B1
330
2DD
100
AcDbEntity
  8
0
  6
CONTINUOUS
 62
     7
100
AcDbVertex
100
AcDb2dVertex
 10
8.1460833499
 20
6.9716214829
 30
0.0
  0
VERTEX
  5
4B2
330
2DD
100
AcDbEntity
  8
0
  6
CONTINUOUS
 62
     7
100
AcDbVertex
100
AcDb2dVertex
 10
8.1241543465
 20
6.9377504707
 30
0.0
  0
VERTEX
  5
4B3
330
2DD
100
AcDbEntity
  8
0
  6
CONTINUOUS
 62
     7
100
AcDbVertex
100
AcDb2dVertex
 10
8.1031977215
 20
6.9031682007
 30
0.0
  0
VERTEX
  5
4B4
330
2DD
100
AcDbEntity
  8
0
  6
CONTINUOUS
 62
     7
100
AcDbVertex
100
AcDb2dVertex
 10
8.0832687935
 20
6.8679659583
 30
0.0
  0
VERTEX
  5
4B5
330
2DD
100
AcDbEntity
  8
0
  6
CONTINUOUS
 62
     7
100
AcDbVertex
100
AcDb2dVertex
 10
8.064420168
 20
6.8322366656
 30
0.0
  0
VERTEX
  5
4B6
330
2DD
100
AcDbEntity
  8
0
  6
CONTINUOUS
 62
     7
100
AcDbVertex
100
AcDb2dVertex
 10
8.0467015988
 20
6.7960746354
 30
0.0
  0
VERTEX
  5
4B7
330
2DD
100
AcDbEntity
  8
0
  6
CONTINUOUS
 62
     7
100
AcDbVertex
100
AcDb2dVertex
 10
8.0301598571
 20
6.7595753234
 30
0.0
  0
VERTEX
  5
4B8
330
2DD
100
AcDbEntity
  8
0
  6
CONTINUOUS
 62
     7
100
AcDbVertex
100
AcDb2dVertex
 10
8.0148386072
 20
6.7228350752
 30
0.0
  0
VERTEX
  5
4B9
330
2DD
100
AcDbEntity
  8
0
  6
CONTINUOUS
 62
     7
100
AcDbVertex
100
AcDb2dVertex
 10
8.0007782922
 20
6.6859508725
 30
0.0
  0
VERTEX
  5
4BA
330
2DD
100
AcDbEntity
  8
0
  6
CONTINUOUS
 62
     7
100
AcDbVertex
100
AcDb2dVertex
 10
7.9880160263
 20
6.649020077
 30
0.0
  0
VERTEX
  5
4BB
330
2DD
100
AcDbEntity
  8
0
  6
CONTINUOUS
 62
     7
100
AcDbVertex
100
AcDb2dVertex
 10
7.9765854977
 20
6.6121401734
 30
0.0
  0
VERTEX
  5
4BC
330
2DD
100
AcDbEntity
  8
0
  6
CONTINUOUS
 62
     7
100
AcDbVertex
100
AcDb2dVertex
 10
7.966516879
 20
6.5754085121
 30
0.0
  0
VERTEX
  5
4BD
330
2DD
100
AcDbEntity
  8
0
  6
CONTINUOUS
 62
     7
100
AcDbVertex
100
AcDb2dVertex
 10
7.957836748
 20
6.5389220521
 30
0.0
  0
VERTEX
  5
4BE
330
2DD
100
AcDbEntity
  8
0
  6
CONTINUOUS
 62
     7
100
AcDbVertex
100
AcDb2dVertex
 10
7.9505680172
 20
6.5027771052
 30
0.0
  0
VERTEX
  5
4BF
330
2DD
100
AcDbEntity
  8
0
  6
CONTINUOUS
 62
     7
100
AcDbVertex
100
AcDb2dVertex
 10
7.9447298737
 20
6.4670690817
 30
0.0
  0
VERTEX
  5
4C0
330
2DD
100
AcDbEntity
  8
0
  6
CONTINUOUS
 62
     7
100
AcDbVertex
100
AcDb2dVertex
 10
7.940337728
 20
6.4318922386
 30
0.0
  0
VERTEX
  5
4C1
330
2DD
100
AcDbEntity
  8
0
  6
CONTINUOUS
 62
     7
100
AcDbVertex
100
AcDb2dVertex
 10
7.937403174
 20
6.3973394307
 30
0.0
  0
VERTEX
  5
4C2
330
2DD
100
AcDbEntity
  8
0
  6
CONTINUOUS
 62
     7
100
AcDbVertex
100
AcDb2dVertex
 10
7.9359339578
 20
6.3635018658
 30
0.0
  0
VERTEX
  5
4C3
330
2DD
100
AcDbEntity
  8
0
  6
CONTINUOUS
 62
     7
100
AcDbVertex
100
AcDb2dVertex
 10
7.9359339578
 20
6.3304688633
 30
0.0
  0
VERTEX
  5
4C4
330
2DD
100
AcDbEntity
  8
0
  6
CONTINUOUS
 62
     7
100
AcDbVertex
100
AcDb2dVertex
 10
7.937403174
 20
6.2983276192
 30
0.0
  0
VERTEX
  5
4C5
330
2DD
100
AcDbEntity
  8
0
  6
CONTINUOUS
 62
     7
100
AcDbVertex
100
AcDb2dVertex
 10
7.940337728
 20
6.2671629753
 30
0.0
  0
VERTEX
  5
4C6
330
2DD
100
AcDbEntity
  8
0
  6
CONTINUOUS
 62
     7
100
AcDbVertex
100
AcDb2dVertex
 10
7.9447298737
 20
6.2370571956
 30
0.0
  0
VERTEX
  5
4C7
330
2DD
100
AcDbEntity
  8
0
  6
CONTINUOUS
 62
     7
100
AcDbVertex
100
AcDb2dVertex
 10
7.9505680172
 20
6.2080897492
 30
0.0
  0
VERTEX
  5
4C8
330
2DD
100
AcDbEntity
  8
0
  6
CONTINUOUS
 62
     7
100
AcDbVertex
100
AcDb2dVertex
 10
7.957836748
 20
6.1803371002
 30
0.0
  0
VERTEX
  5
4C9
330
2DD
100
AcDbEntity
  8
0
  6
CONTINUOUS
 62
     7
100
AcDbVertex
100
AcDb2dVertex
 10
7.966516879
 20
6.1538725062
 30
0.0
  0
VERTEX
  5
4CA
330
2DD
100
AcDbEntity
  8
0
  6
CONTINUOUS
 62
     7
100
AcDbVertex
100
AcDb2dVertex
 10
7.9765854977
 20
6.1287658245
 30
0.0
  0
VERTEX
  5
4CB
330
2DD
100
AcDbEntity
  8
0
  6
CONTINUOUS
 62
     7
100
AcDbVertex
100
AcDb2dVertex
 10
7.9880160263
 20
6.1050833284
 30
0.0
  0
VERTEX
  5
4CC
330
2DD
100
AcDbEntity
  8
0
  6
CONTINUOUS
 62
     7
100
AcDbVertex
100
AcDb2dVertex
 10
8.0007782922
 20
6.0828875314
 30
0.0
  0
VERTEX
  5
4CD
330
2DD
100
AcDbEntity
  8
0
  6
CONTINUOUS
 62
     7
100
AcDbVertex
100
AcDb2dVertex
 10
8.0148386072
 20
6.0622370229
 30
0.0
  0
VERTEX
  5
4CE
330
2DD
100
AcDbEntity
  8
0
  6
CONTINUOUS
 62
     7
100
AcDbVertex
100
AcDb2dVertex
 10
8.0301598571
 20
6.0431863132
 30
0.0
  0
VERTEX
  5
4CF
330
2DD
100
AcDbEntity
  8
0
  6
CONTINUOUS
 62
     7
100
AcDbVertex
100
AcDb2dVertex
 10
8.0467015988
 20
6.0257856897
 30
0.0
  0
VERTEX
  5
4D0
330
2DD
100
AcDbEntity
  8
0
  6
CONTINUOUS
 62
     7
100
AcDbVertex
100
AcDb2dVertex
 10
8.064420168
 20
6.0100810841
 30
0.0
  0
VERTEX
  5
4D1
330
2DD
100
AcDbEntity
  8
0
  6
CONTINUOUS
 62
     7
100
AcDbVertex
100
AcDb2dVertex
 10
8.0832687935
 20
5.9961139511
 30
0.0
  0
VERTEX
  5
4D2
330
2DD
100
AcDbEntity
  8
0
  6
CONTINUOUS
 62
     7
100
AcDbVertex
100
AcDb2dVertex
 10
8.1031977215
 20
5.9839211593
 30
0.0
  0
VERTEX
  5
4D3
330
2DD
100
AcDbEntity
  8
0
  6
CONTINUOUS
 62
     7
100
AcDbVertex
100
AcDb2dVertex
 10
8.1058796335
 20
5.9824603562
 30
0.0
  0
SEQEND
  5
4D4
330
2DD
100
AcDbEntity
  8
0
  6
CONTINUOUS
 62
     7
  0
POLYLINE
  5
2DE
330
1F
100
AcDbEntity
  8
0
  6
CONTINUOUS
 62
     7
100
AcDb2dPolyline
 66
     1
 10
0.0
 20
0.0
 30
0.0
  0
VERTEX
  5
4D5
330
2DE
100
AcDbEntity
  8
0
  6
CONTINUOUS
 62
     7
100
AcDbVertex
100
AcDb2dVertex
 10
7.9497131396
 20
6.330832072
 30
0.0
  0
VERTEX
  5
4D6
330
2DE
100
AcDbEntity
  8
0
  6
CONTINUOUS
 62
     7
100
AcDbVertex
100
AcDb2dVertex
 10
7.9508184499
 20
6.298226132
 30
0.0
  0
VERTEX
  5
4D7
330
2DE
100
AcDbEntity
  8
0
  6
CONTINUOUS
 62
     7
100
AcDbVertex
100
AcDb2dVertex
 10
7.9534114171
 20
6.2665895246
 30
0.0
  0
VERTEX
  5
4D8
330
2DE
100
AcDbEntity
  8
0
  6
CONTINUOUS
 62
     7
100
AcDbVertex
100
AcDb2dVertex
 10
7.9574850985
 20
6.2360069548
 30
0.0
  0
VERTEX
  5
4D9
330
2DE
100
AcDbEntity
  8
0
  6
CONTINUOUS
 62
     7
100
AcDbVertex
100
AcDb2dVertex
 10
7.9630285873
 20
6.2065603053
 30
0.0
  0
VERTEX
  5
4DA
330
2DE
100
AcDbEntity
  8
0
  6
CONTINUOUS
 62
     7
100
AcDbVertex
100
AcDb2dVertex
 10
7.9700270412
 20
6.1783284175
 30
0.0
  0
VERTEX
  5
4DB
330
2DE
100
AcDbEntity
  8
0
  6
CONTINUOUS
 62
     7
100
AcDbVertex
100
AcDb2dVertex
 10
7.9784617221
 20
6.1513868804
 30
0.0
  0
VERTEX
  5
4DC
330
2DE
100
AcDbEntity
  8
0
  6
CONTINUOUS
 62
     7
100
AcDbVertex
100
AcDb2dVertex
 10
7.988310047
 20
6.1258078281
 30
0.0
  0
VERTEX
  5
4DD
330
2DE
100
AcDbEntity
  8
0
  6
CONTINUOUS
 62
     7
100
AcDbVertex
100
AcDb2dVertex
 10
7.9995456474
 20
6.1016597468
 30
0.0
  0
VERTEX
  5
4DE
330
2DE
100
AcDbEntity
  8
0
  6
CONTINUOUS
 62
     7
100
AcDbVertex
100
AcDb2dVertex
 10
8.0121384409
 20
6.0790072914
 30
0.0
  0
VERTEX
  5
4DF
330
2DE
100
AcDbEntity
  8
0
  6
CONTINUOUS
 62
     7
100
AcDbVertex
100
AcDb2dVertex
 10
8.0260547111
 20
6.0579111122
 30
0.0
  0
VERTEX
  5
4E0
330
2DE
100
AcDbEntity
  8
0
  6
CONTINUOUS
 62
     7
100
AcDbVertex
100
AcDb2dVertex
 10
8.0412571981
 20
6.0384276929
 30
0.0
  0
VERTEX
  5
4E1
330
2DE
100
AcDbEntity
  8
0
  6
CONTINUOUS
 62
     7
100
AcDbVertex
100
AcDb2dVertex
 10
8.0577051984
 20
6.020609199
 30
0.0
  0
VERTEX
  5
4E2
330
2DE
100
AcDbEntity
  8
0
  6
CONTINUOUS
 62
     7
100
AcDbVertex
100
AcDb2dVertex
 10
8.0753546735
 20
6.0045033382
 30
0.0
  0
VERTEX
  5
4E3
330
2DE
100
AcDbEntity
  8
0
  6
CONTINUOUS
 62
     7
100
AcDbVertex
100
AcDb2dVertex
 10
8.094158368
 20
5.9901532331
 30
0.0
  0
VERTEX
  5
4E4
330
2DE
100
AcDbEntity
  8
0
  6
CONTINUOUS
 62
     7
100
AcDbVertex
100
AcDb2dVertex
 10
8.1127778404
 20
5.9783360574
 30
0.0
  0
SEQEND
  5
4E5
330
2DE
100
AcDbEntity
  8
0
  6
CONTINUOUS
 62
     7
  0
LINE
  5
2DF
330
1F
100
AcDbEntity
  8
0
  6
CONTINUOUS
 62
     7
100
AcDbLine
 10
8.2988587123
 20
6.1292746231
 30
0.0
 11
7.9497131396
 21
6.330832072
 31
0.0
  0
SPLINE
  5
2E0
330
1F
100
AcDbEntity
  8
0
  6
CONTINUOUS
 62
     7
100
AcDbSpline
210
0.0
220
0.0
230
1.0
 70
     8
 71
     3
 72
    15
 73
    11
 74
     0
 42
0.00000001
 43
0.00000001
 40
0.0
 40
0.0
 40
0.0
 40
0.0
 40
0.0983145414439987
 40
0.2004800051914548
 40
0.2986395088196792
 40
0.3991168410828447
 40
0.5522164884579057
 40
0.7095525588885082
 40
0.9264878012551433
 40
1.0
 40
1.0
 40
1.0
 40
1.0
 10
8.243137513132865
 20
5.907750969955575
 30
0.0
 10
8.24615855387683
 20
5.905978744063017
 30
0.0
 10
8.252318967739702
 20
5.902364875240337
 30
0.0
 10
8.26253298357881
 20
5.896032913633316
 30
0.0
 10
8.273071871645824
 20
5.889340925573483
 30
0.0
 10
8.285486985289234
 20
5.881340493407159
 30
0.0
 10
8.299824422959304
 20
5.872048860201137
 30
0.0
 10
8.317483775271754
 20
5.860804859816539
 30
0.0
 10
8.332004306920501
 20
5.851737563396618
 30
0.0
 10
8.340445069207194
 20
5.846989386233222
 30
0.0
 10
8.342581424729564
 20
5.845787623387678
 30
0.0
  0
SPLINE
  5
2E1
330
1F
100
AcDbEntity
  8
0
  6
CONTINUOUS
 62
     7
100
AcDbSpline
210
0.0
220
0.0
230
1.0
 70
     8
 71
     3
 72
    16
 73
    12
 74
     0
 42
0.00000001
 43
0.00000001
 40
0.0
 40
0.0
 40
0.0
 40
0.0
 40
0.1649965234440711
 40
0.3452210358564948
 40
0.4767678483302352
 40
0.6112313352383385
 40
0.701822596860156
 40
0.7944520762773595
 40
0.8654151679017668
 40
0.9382324740863127
 40
1.0
 40
1.0
 40
1.0
 40
1.0
 10
8.22936519354077
 20
5.911793716060427
 30
0.0
 10
8.226207474195943
 20
5.913303026309446
 30
0.0
 10
8.219600600787881
 20
5.916460945256578
 30
0.0
 10
8.215057223896288
 20
5.919426910938583
 30
0.0
 10
8.213850740311369
 20
5.920995872129027
 30
0.0
 10
8.21549739233086
 20
5.92106363708228
 30
0.0
 10
8.219230869743612
 20
5.919889015038878
 30
0.0
 10
8.223895835163656
 20
5.917937881241858
 30
0.0
 10
8.229775443642316
 20
5.915088733810198
 30
0.0
 10
8.23601438601335
 20
5.911806721935894
 30
0.0
 10
8.240896756039872
 20
5.909026807781412
 30
0.0
 10
8.243137513132865
 20
5.907750969955575
 30
0.0
  0
SPLINE
  5
2E2
330
1F
100
AcDbEntity
  8
0
  6
CONTINUOUS
 62
     7
100
AcDbSpline
210
0.0
220
0.0
230
1.0
 70
     8
 71
     3
 72
    19
 73
    15
 74
     0
 42
0.00000001
 43
0.00000001
 40
0.0
 40
0.0
 40
0.0
 40
0.0
 40
0.082689115758923
 40
0.1653853568378768
 40
0.2479684971795361
 40
0.3305733243691615
 40
0.4152014710616425
 40
0.4998663936612371
 40
0.5917585349678091
 40
0.683704376975253
 40
0.7890453611906343
 40
0.8944557215479351
 40
0.99923971791507
 40
1.0
 40
1.0
 40
1.0
 40
1.0
 10
8.43104974829071
 20
7.000695488227861
 30
0.0
 10
8.424682509508314
 20
7.003893767092427
 30
0.0
 10
8.411947483278638
 20
7.010290600417203
 30
0.0
 10
8.3899037667173
 20
7.015586982720621
 30
0.0
 10
8.366501621161637
 20
7.017389620693774
 30
0.0
 10
8.342076022527637
 20
7.015499622239473
 30
0.0
 10
8.317369632105734
 20
7.009819022112596
 30
0.0
 10
8.292366259015417
 20
7.000333547154524
 30
0.0
 10
8.267976586859415
 20
6.98694828149223
 30
0.0
 10
8.243721921242939
 20
6.969122806467111
 30
0.0
 10
8.220931012589475
 20
6.947188800939522
 30
0.0
 10
8.200750367510382
 20
6.921313811564623
 30
0.0
 10
8.188493513595853
 20
6.90297696519577
 30
0.0
 10
8.183821463504044
 20
6.893097367960141
 30
0.0
 10
8.183787808662334
 20
6.893026200854783
 30
0.0
  0
SPLINE
  5
2E3
330
1F
100
AcDbEntity
  8
0
  6
CONTINUOUS
 62
     7
100
AcDbSpline
210
0.0
220
0.0
230
1.0
 70
     8
 71
     3
 72
    37
 73
    33
 74
     0
 42
0.00000001
 43
0.00000001
 40
0.0
 40
0.0
 40
0.0
 40
0.0
 40
0.0050896841286591
 40
0.0450519197688037
 40
0.0849649937146055
 40
0.112998774787364
 40
0.1409807674777016
 40
0.161266093189486
 40
0.1815268600545949
 40
0.2019305955662726
 40
0.2223392414106266
 40
0.2408362686930097
 40
0.2593506567443529
 40
0.2910726220753775
 40
0.3228652216143055
 40
0.359293188336284
 40
0.3958569924656394
 40
0.4323526997500897
 40
0.4909984951618598
 40
0.5496368891860312
 40
0.5889151597812123
 40
0.6282899749350211
 40
0.6675240930739882
 40
0.7136116118689311
 40
0.7596536166883979
 40
0.7984540353290608
 40
0.837227252211689
 40
0.8762279804354923
 40
0.9152078923905266
 40
0.950099813596266
 40
0.984986340495465
 40
1.0
 40
1.0
 40
1.0
 40
1.0
 10
8.145590510208653
 20
6.739834841309104
 30
0.0
 10
8.145532383714663
 20
6.73853320181238
 30
0.0
 10
8.145017870421205
 20
6.727011591297476
 30
0.0
 10
8.147044077281016
 20
6.705428593761011
 30
0.0
 10
8.151748272227724
 20
6.678672777230581
 30
0.0
 10
8.159057198519156
 20
6.65610906126327
 30
0.0
 10
8.167053739550717
 20
6.639516797449334
 30
0.0
 10
8.176219065211242
 20
6.626466268257317
 30
0.0
 10
8.185831431502054
 20
6.616702856595452
 30
0.0
 10
8.196855298513698
 20
6.609474369204809
 30
0.0
 10
8.208485207280276
 20
6.605078559793442
 30
0.0
 10
8.220241146799733
 20
6.603376145100978
 30
0.0
 10
8.234512572943428
 20
6.603798047194135
 30
0.0
 10
8.251554479183756
 20
6.607739773890239
 30
0.0
 10
8.271826939715861
 20
6.616321822645229
 30
0.0
 10
8.292557031936003
 20
6.628305447550015
 30
0.0
 10
8.313570862420907
 20
6.643395601502211
 30
0.0
 10
8.33811797157106
 20
6.663927694861123
 30
0.0
 10
8.365825434796971
 20
6.690764476106208
 30
0.0
 10
8.392425499822815
 20
6.721062403588513
 30
0.0
 10
8.414229966064378
 20
6.749367941485985
 30
0.0
 10
8.431584408876983
 20
6.774763762994427
 30
0.0
 10
8.44809342841487
 20
6.802587859613086
 30
0.0
 10
8.462754729312204
 20
6.832728872785573
 30
0.0
 10
8.473570343479869
 20
6.863191529439695
 30
0.0
 10
8.47943964416272
 20
6.891648843711392
 30
0.0
 10
8.480745429115471
 20
6.917700736097375
 30
0.0
 10
8.477046698006859
 20
6.942222144972697
 30
0.0
 10
8.46860107596841
 20
6.963787272621143
 30
0.0
 10
8.45574439358708
 20
6.981735899511121
 30
0.0
 10
8.442753049761267
 20
6.993504109231911
 30
0.0
 10
8.433756557306555
 20
6.999032223417367
 30
0.0
 10
8.43104974829071
 20
7.000695488227865
 30
0.0
  0
POLYLINE
  5
2E4
330
1F
100
AcDbEntity
  8
0
  6
CONTINUOUS
 62
     7
100
AcDb2dPolyline
 66
     1
 10
0.0
 20
0.0
 30
0.0
  0
VERTEX
  5
4E6
330
2E4
100
AcDbEntity
  8
0
  6
CONTINUOUS
 62
     7
100
AcDbVertex
100
AcDb2dVertex
 10
9.0503302629
 20
6.5470188895
 30
0.0
  0
VERTEX
  5
4E7
330
2E4
100
AcDbEntity
  8
0
  6
CONTINUOUS
 62
     7
100
AcDbVertex
100
AcDb2dVertex
 10
9.04896974
 20
6.5274707754
 30
0.0
  0
VERTEX
  5
4E8
330
2E4
100
AcDbEntity
  8
0
  6
CONTINUOUS
 62
     7
100
AcDbVertex
100
AcDb2dVertex
 10
9.0461521716
 20
6.5072991159
 30
0.0
  0
VERTEX
  5
4E9
330
2E4
100
AcDbEntity
  8
0
  6
CONTINUOUS
 62
     7
100
AcDbVertex
100
AcDb2dVertex
 10
9.0419004339
 20
6.4866676875
 30
0.0
  0
VERTEX
  5
4EA
330
2E4
100
AcDbEntity
  8
0
  6
CONTINUOUS
 62
     7
100
AcDbVertex
100
AcDb2dVertex
 10
9.0362490472
 20
6.4657439996
 30
0.0
  0
VERTEX
  5
4EB
330
2E4
100
AcDbEntity
  8
0
  6
CONTINUOUS
 62
     7
100
AcDbVertex
100
AcDb2dVertex
 10
9.0292438962
 20
6.4446979347
 30
0.0
  0
VERTEX
  5
4EC
330
2E4
100
AcDbEntity
  8
0
  6
CONTINUOUS
 62
     7
100
AcDbVertex
100
AcDb2dVertex
 10
9.0209418564
 20
6.4237003686
 30
0.0
  0
VERTEX
  5
4ED
330
2E4
100
AcDbEntity
  8
0
  6
CONTINUOUS
 62
     7
100
AcDbVertex
100
AcDb2dVertex
 10
9.0114103334
 20
6.4029217836
 30
0.0
  0
VERTEX
  5
4EE
330
2E4
100
AcDbEntity
  8
0
  6
CONTINUOUS
 62
     7
100
AcDbVertex
100
AcDb2dVertex
 10
9.000726715
 20
6.3825308839
 30
0.0
  0
VERTEX
  5
4EF
330
2E4
100
AcDbEntity
  8
0
  6
CONTINUOUS
 62
     7
100
AcDbVertex
100
AcDb2dVertex
 10
8.9889777429
 20
6.362693226
 30
0.0
  0
VERTEX
  5
4F0
330
2E4
100
AcDbEntity
  8
0
  6
CONTINUOUS
 62
     7
100
AcDbVertex
100
AcDb2dVertex
 10
8.9762588087
 20
6.3435698747
 30
0.0
  0
VERTEX
  5
4F1
330
2E4
100
AcDbEntity
  8
0
  6
CONTINUOUS
 62
     7
100
AcDbVertex
100
AcDb2dVertex
 10
8.9626731791
 20
6.3253160952
 30
0.0
  0
VERTEX
  5
4F2
330
2E4
100
AcDbEntity
  8
0
  6
CONTINUOUS
 62
     7
100
AcDbVertex
100
AcDb2dVertex
 10
8.9483311579
 20
6.3080800925
 30
0.0
  0
VERTEX
  5
4F3
330
2E4
100
AcDbEntity
  8
0
  6
CONTINUOUS
 62
     7
100
AcDbVertex
100
AcDb2dVertex
 10
8.9333491899
 20
6.292001808
 30
0.0
  0
VERTEX
  5
4F4
330
2E4
100
AcDbEntity
  8
0
  6
CONTINUOUS
 62
     7
100
AcDbVertex
100
AcDb2dVertex
 10
8.9178489158
 20
6.2772117836
 30
0.0
  0
VERTEX
  5
4F5
330
2E4
100
AcDbEntity
  8
0
  6
CONTINUOUS
 62
     7
100
AcDbVertex
100
AcDb2dVertex
 10
8.9019561845
 20
6.2638301017
 30
0.0
  0
VERTEX
  5
4F6
330
2E4
100
AcDbEntity
  8
0
  6
CONTINUOUS
 62
     7
100
AcDbVertex
100
AcDb2dVertex
 10
8.8858000313
 20
6.2519654099
 30
0.0
  0
VERTEX
  5
4F7
330
2E4
100
AcDbEntity
  8
0
  6
CONTINUOUS
 62
     7
100
AcDbVertex
100
AcDb2dVertex
 10
8.8695116303
 20
6.2417140394
 30
0.0
  0
VERTEX
  5
4F8
330
2E4
100
AcDbEntity
  8
0
  6
CONTINUOUS
 62
     7
100
AcDbVertex
100
AcDb2dVertex
 10
8.8532232293
 20
6.2331592224
 30
0.0
  0
VERTEX
  5
4F9
330
2E4
100
AcDbEntity
  8
0
  6
CONTINUOUS
 62
     7
100
AcDbVertex
100
AcDb2dVertex
 10
8.8370670761
 20
6.2263704168
 30
0.0
  0
VERTEX
  5
4FA
330
2E4
100
AcDbEntity
  8
0
  6
CONTINUOUS
 62
     7
100
AcDbVertex
100
AcDb2dVertex
 10
8.8211743448
 20
6.2214027417
 30
0.0
  0
VERTEX
  5
4FB
330
2E4
100
AcDbEntity
  8
0
  6
CONTINUOUS
 62
     7
100
AcDbVertex
100
AcDb2dVertex
 10
8.8056740707
 20
6.2182965305
 30
0.0
  0
VERTEX
  5
4FC
330
2E4
100
AcDbEntity
  8
0
  6
CONTINUOUS
 62
     7
100
AcDbVertex
100
AcDb2dVertex
 10
8.7906921027
 20
6.217077003
 30
0.0
  0
VERTEX
  5
4FD
330
2E4
100
AcDbEntity
  8
0
  6
CONTINUOUS
 62
     7
100
AcDbVertex
100
AcDb2dVertex
 10
8.7763500815
 20
6.2177540605
 30
0.0
  0
VERTEX
  5
4FE
330
2E4
100
AcDbEntity
  8
0
  6
CONTINUOUS
 62
     7
100
AcDbVertex
100
AcDb2dVertex
 10
8.762764452
 20
6.220322206
 30
0.0
  0
VERTEX
  5
4FF
330
2E4
100
AcDbEntity
  8
0
  6
CONTINUOUS
 62
     7
100
AcDbVertex
100
AcDb2dVertex
 10
8.7500455178
 20
6.2247605884
 30
0.0
  0
VERTEX
  5
500
330
2E4
100
AcDbEntity
  8
0
  6
CONTINUOUS
 62
     7
100
AcDbVertex
100
AcDb2dVertex
 10
8.7382965456
 20
6.2310331718
 30
0.0
  0
VERTEX
  5
501
330
2E4
100
AcDbEntity
  8
0
  6
CONTINUOUS
 62
     7
100
AcDbVertex
100
AcDb2dVertex
 10
8.7276129272
 20
6.2390890282
 30
0.0
  0
VERTEX
  5
502
330
2E4
100
AcDbEntity
  8
0
  6
CONTINUOUS
 62
     7
100
AcDbVertex
100
AcDb2dVertex
 10
8.7180814042
 20
6.2488627511
 30
0.0
  0
VERTEX
  5
503
330
2E4
100
AcDbEntity
  8
0
  6
CONTINUOUS
 62
     7
100
AcDbVertex
100
AcDb2dVertex
 10
8.7097793645
 20
6.2602749861
 30
0.0
  0
VERTEX
  5
504
330
2E4
100
AcDbEntity
  8
0
  6
CONTINUOUS
 62
     7
100
AcDbVertex
100
AcDb2dVertex
 10
8.7027742134
 20
6.2732330758
 30
0.0
  0
VERTEX
  5
505
330
2E4
100
AcDbEntity
  8
0
  6
CONTINUOUS
 62
     7
100
AcDbVertex
100
AcDb2dVertex
 10
8.6971228268
 20
6.2876318115
 30
0.0
  0
VERTEX
  5
506
330
2E4
100
AcDbEntity
  8
0
  6
CONTINUOUS
 62
     7
100
AcDbVertex
100
AcDb2dVertex
 10
8.692871089
 20
6.303354288
 30
0.0
  0
VERTEX
  5
507
330
2E4
100
AcDbEntity
  8
0
  6
CONTINUOUS
 62
     7
100
AcDbVertex
100
AcDb2dVertex
 10
8.6900535206
 20
6.3202728522
 30
0.0
  0
VERTEX
  5
508
330
2E4
100
AcDbEntity
  8
0
  6
CONTINUOUS
 62
     7
100
AcDbVertex
100
AcDb2dVertex
 10
8.6886929977
 20
6.33825014
 30
0.0
  0
SEQEND
  5
509
330
2E4
100
AcDbEntity
  8
0
  6
CONTINUOUS
 62
     7
  0
LINE
  5
2E5
330
1F
100
AcDbEntity
  8
0
  6
CONTINUOUS
 62
     7
100
AcDbLine
 10
9.0503302629
 20
6.5470188895
 30
0.0
 11
9.0933823796
 21
6.5718723474
 31
0.0
  0
LINE
  5
2E6
330
1F
100
AcDbEntity
  8
0
  6
CONTINUOUS
 62
     7
100
AcDbLine
 10
9.0933823796
 20
6.5718723474
 30
0.0
 11
9.0933823796
 21
6.5879459854
 31
0.0
  0
LINE
  5
2E7
330
1F
100
AcDbEntity
  8
0
  6
CONTINUOUS
 62
     7
100
AcDbLine
 10
9.0503302629
 20
6.5630925275
 30
0.0
 11
9.0933823796
 21
6.5879459854
 31
0.0
  0
POLYLINE
  5
2E8
330
1F
100
AcDbEntity
  8
0
  6
CONTINUOUS
 62
     7
100
AcDb2dPolyline
 66
     1
 10
0.0
 20
0.0
 30
0.0
  0
VERTEX
  5
50A
330
2E8
100
AcDbEntity
  8
0
  6
CONTINUOUS
 62
     7
100
AcDbVertex
100
AcDb2dVertex
 10
8.6886929977
 20
6.3543237781
 30
0.0
  0
VERTEX
  5
50B
330
2E8
100
AcDbEntity
  8
0
  6
CONTINUOUS
 62
     7
100
AcDbVertex
100
AcDb2dVertex
 10
8.6900535206
 20
6.3738718921
 30
0.0
  0
VERTEX
  5
50C
330
2E8
100
AcDbEntity
  8
0
  6
CONTINUOUS
 62
     7
100
AcDbVertex
100
AcDb2dVertex
 10
8.692871089
 20
6.3940435516
 30
0.0
  0
VERTEX
  5
50D
330
2E8
100
AcDbEntity
  8
0
  6
CONTINUOUS
 62
     7
100
AcDbVertex
100
AcDb2dVertex
 10
8.6971228268
 20
6.41467498
 30
0.0
  0
VERTEX
  5
50E
330
2E8
100
AcDbEntity
  8
0
  6
CONTINUOUS
 62
     7
100
AcDbVertex
100
AcDb2dVertex
 10
8.7027742134
 20
6.4355986679
 30
0.0
  0
VERTEX
  5
50F
330
2E8
100
AcDbEntity
  8
0
  6
CONTINUOUS
 62
     7
100
AcDbVertex
100
AcDb2dVertex
 10
8.7097793645
 20
6.4566447328
 30
0.0
  0
VERTEX
  5
510
330
2E8
100
AcDbEntity
  8
0
  6
CONTINUOUS
 62
     7
100
AcDbVertex
100
AcDb2dVertex
 10
8.7180814042
 20
6.4776422989
 30
0.0
  0
VERTEX
  5
511
330
2E8
100
AcDbEntity
  8
0
  6
CONTINUOUS
 62
     7
100
AcDbVertex
100
AcDb2dVertex
 10
8.7276129272
 20
6.4984208839
 30
0.0
  0
VERTEX
  5
512
330
2E8
100
AcDbEntity
  8
0
  6
CONTINUOUS
 62
     7
100
AcDbVertex
100
AcDb2dVertex
 10
8.7382965456
 20
6.5188117836
 30
0.0
  0
VERTEX
  5
513
330
2E8
100
AcDbEntity
  8
0
  6
CONTINUOUS
 62
     7
100
AcDbVertex
100
AcDb2dVertex
 10
8.7500455178
 20
6.5386494415
 30
0.0
  0
VERTEX
  5
514
330
2E8
100
AcDbEntity
  8
0
  6
CONTINUOUS
 62
     7
100
AcDbVertex
100
AcDb2dVertex
 10
8.762764452
 20
6.5577727928
 30
0.0
  0
VERTEX
  5
515
330
2E8
100
AcDbEntity
  8
0
  6
CONTINUOUS
 62
     7
100
AcDbVertex
100
AcDb2dVertex
 10
8.7763500815
 20
6.5760265723
 30
0.0
  0
VERTEX
  5
516
330
2E8
100
AcDbEntity
  8
0
  6
CONTINUOUS
 62
     7
100
AcDbVertex
100
AcDb2dVertex
 10
8.7906921027
 20
6.5932625751
 30
0.0
  0
VERTEX
  5
517
330
2E8
100
AcDbEntity
  8
0
  6
CONTINUOUS
 62
     7
100
AcDbVertex
100
AcDb2dVertex
 10
8.8056740707
 20
6.6093408595
 30
0.0
  0
VERTEX
  5
518
330
2E8
100
AcDbEntity
  8
0
  6
CONTINUOUS
 62
     7
100
AcDbVertex
100
AcDb2dVertex
 10
8.8211743448
 20
6.6241308839
 30
0.0
  0
VERTEX
  5
519
330
2E8
100
AcDbEntity
  8
0
  6
CONTINUOUS
 62
     7
100
AcDbVertex
100
AcDb2dVertex
 10
8.8370670761
 20
6.6375125658
 30
0.0
  0
VERTEX
  5
51A
330
2E8
100
AcDbEntity
  8
0
  6
CONTINUOUS
 62
     7
100
AcDbVertex
100
AcDb2dVertex
 10
8.8532232293
 20
6.6493772576
 30
0.0
  0
VERTEX
  5
51B
330
2E8
100
AcDbEntity
  8
0
  6
CONTINUOUS
 62
     7
100
AcDbVertex
100
AcDb2dVertex
 10
8.8695116303
 20
6.6596286281
 30
0.0
  0
VERTEX
  5
51C
330
2E8
100
AcDbEntity
  8
0
  6
CONTINUOUS
 62
     7
100
AcDbVertex
100
AcDb2dVertex
 10
8.8858000313
 20
6.6681834451
 30
0.0
  0
VERTEX
  5
51D
330
2E8
100
AcDbEntity
  8
0
  6
CONTINUOUS
 62
     7
100
AcDbVertex
100
AcDb2dVertex
 10
8.9019561845
 20
6.6749722507
 30
0.0
  0
VERTEX
  5
51E
330
2E8
100
AcDbEntity
  8
0
  6
CONTINUOUS
 62
     7
100
AcDbVertex
100
AcDb2dVertex
 10
8.9178489158
 20
6.6799399258
 30
0.0
  0
VERTEX
  5
51F
330
2E8
100
AcDbEntity
  8
0
  6
CONTINUOUS
 62
     7
100
AcDbVertex
100
AcDb2dVertex
 10
8.9333491899
 20
6.683046137
 30
0.0
  0
VERTEX
  5
520
330
2E8
100
AcDbEntity
  8
0
  6
CONTINUOUS
 62
     7
100
AcDbVertex
100
AcDb2dVertex
 10
8.9483311579
 20
6.6842656646
 30
0.0
  0
VERTEX
  5
521
330
2E8
100
AcDbEntity
  8
0
  6
CONTINUOUS
 62
     7
100
AcDbVertex
100
AcDb2dVertex
 10
8.9626731791
 20
6.683588607
 30
0.0
  0
VERTEX
  5
522
330
2E8
100
AcDbEntity
  8
0
  6
CONTINUOUS
 62
     7
100
AcDbVertex
100
AcDb2dVertex
 10
8.9762588087
 20
6.6810204615
 30
0.0
  0
VERTEX
  5
523
330
2E8
100
AcDbEntity
  8
0
  6
CONTINUOUS
 62
     7
100
AcDbVertex
100
AcDb2dVertex
 10
8.9889777429
 20
6.6765820791
 30
0.0
  0
VERTEX
  5
524
330
2E8
100
AcDbEntity
  8
0
  6
CONTINUOUS
 62
     7
100
AcDbVertex
100
AcDb2dVertex
 10
9.000726715
 20
6.6703094957
 30
0.0
  0
VERTEX
  5
525
330
2E8
100
AcDbEntity
  8
0
  6
CONTINUOUS
 62
     7
100
AcDbVertex
100
AcDb2dVertex
 10
9.0114103334
 20
6.6622536393
 30
0.0
  0
VERTEX
  5
526
330
2E8
100
AcDbEntity
  8
0
  6
CONTINUOUS
 62
     7
100
AcDbVertex
100
AcDb2dVertex
 10
9.0209418564
 20
6.6524799164
 30
0.0
  0
VERTEX
  5
527
330
2E8
100
AcDbEntity
  8
0
  6
CONTINUOUS
 62
     7
100
AcDbVertex
100
AcDb2dVertex
 10
9.0292438962
 20
6.6410676814
 30
0.0
  0
VERTEX
  5
528
330
2E8
100
AcDbEntity
  8
0
  6
CONTINUOUS
 62
     7
100
AcDbVertex
100
AcDb2dVertex
 10
9.0362490472
 20
6.6281095918
 30
0.0
  0
VERTEX
  5
529
330
2E8
100
AcDbEntity
  8
0
  6
CONTINUOUS
 62
     7
100
AcDbVertex
100
AcDb2dVertex
 10
9.0419004339
 20
6.613710856
 30
0.0
  0
VERTEX
  5
52A
330
2E8
100
AcDbEntity
  8
0
  6
CONTINUOUS
 62
     7
100
AcDbVertex
100
AcDb2dVertex
 10
9.0461521716
 20
6.5979883795
 30
0.0
  0
VERTEX
  5
52B
330
2E8
100
AcDbEntity
  8
0
  6
CONTINUOUS
 62
     7
100
AcDbVertex
100
AcDb2dVertex
 10
9.04896974
 20
6.5810698153
 30
0.0
  0
VERTEX
  5
52C
330
2E8
100
AcDbEntity
  8
0
  6
CONTINUOUS
 62
     7
100
AcDbVertex
100
AcDb2dVertex
 10
9.0503302629
 20
6.5630925275
 30
0.0
  0
SEQEND
  5
52D
330
2E8
100
AcDbEntity
  8
0
  6
CONTINUOUS
 62
     7
  0
LINE
  5
2E9
330
1F
100
AcDbEntity
  8
0
  6
CONTINUOUS
 62
     7
100
AcDbLine
 10
8.3266986775
 20
6.1453489051
 30
0.0
 11
8.6886929977
 21
6.3543237781
 31
0.0
  0
LINE
  5
2EA
330
1F
100
AcDbEntity
  8
0
  6
CONTINUOUS
 62
     7
100
AcDbLine
 10
8.3266986775
 20
6.1292752671
 30
0.0
 11
8.6886929977
 21
6.33825014
 31
0.0
  0
LINE
  5
2EB
330
1F
100
AcDbEntity
  8
0
  6
CONTINUOUS
 62
     7
100
AcDbLine
 10
8.6595603059
 20
7.3668111966
 30
0.0
 11
8.6595603059
 21
7.3780569004
 31
0.0
  0
ARC
  5
2EC
330
1F
100
AcDbEntity
  8
0
  6
CONTINUOUS
 62
     7
100
AcDbCircle
 10
9.0740952721
 20
6.3302030719
 30
0.0
 40
1.175521898060291
100
AcDbArc
 50
140.7129597603
 51
177.3911947472
  0
SPLINE
  5
2ED
330
1F
100
AcDbEntity
  8
0
  6
CONTINUOUS
 62
     7
100
AcDbSpline
210
0.0
220
0.0
230
1.0
 70
     8
 71
     3
 72
     8
 73
     4
 74
     0
 42
0.00000001
 43
0.00000001
 40
0.0
 40
0.0
 40
0.0
 40
0.0
 40
0.000765645677896
 40
0.000765645677896
 40
0.000765645677896
 40
0.000765645677896
 10
8.164260772449326
 20
7.074550380602654
 30
0.0
 10
8.168888782204808
 20
7.078103825112374
 30
0.0
 10
8.173528949520584
 20
7.081638221698337
 30
0.0
 10
8.178180197275834
 20
7.085155113151318
 30
0.0
  0
LINE
  5
2EE
330
1F
100
AcDbEntity
  8
0
  6
CONTINUOUS
 62
     7
100
AcDbLine
 10
8.6886933279
 20
6.3543338682
 30
0.0
 11
8.6887041646
 21
6.3543276123
 31
0.0
  0
LINE
  5
2EF
330
1F
100
AcDbEntity
  8
0
  6
CONTINUOUS
 62
     7
100
AcDbLine
 10
8.6886929977
 20
6.33825014
 30
0.0
 11
8.6887041646
 21
6.3543276123
 31
0.0
  0
LINE
  5
2F0
330
1F
100
AcDbEntity
  8
0
  6
CONTINUOUS
 62
     7
100
AcDbLine
 10
7.9497131396
 20
6.330832072
 30
0.0
 11
7.9636348269
 21
6.338868891
 31
0.0
  0
LINE
  5
2F1
330
1F
100
AcDbEntity
  8
0
  6
CONTINUOUS
 62
     7
100
AcDbLine
 10
9.0224802464
 20
6.563086081
 30
0.0
 11
9.0503302629
 21
6.5630925275
 31
0.0
  0
ARC
  5
2F2
330
1F
100
AcDbEntity
  8
0
  6
CONTINUOUS
 62
     7
100
AcDbCircle
 10
8.9220230979
 20
6.5737809961
 30
0.0
 40
0.1010248478776835
100
AcDbArc
 50
353.9230406774
 51
126.0823358553
  0
LINE
  5
2F3
330
1F
100
AcDbEntity
  8
0
  6
CONTINUOUS
 62
     7
100
AcDbLine
 10
8.0714646069
 20
7.1467607121
 30
0.0
 11
8.0594629988
 21
7.1376170984
 31
0.0
  0
LINE
  5
2F4
330
1F
100
AcDbEntity
  8
0
  6
CONTINUOUS
 62
     7
100
AcDbLine
 10
9.0224802464
 20
6.563086081
 30
0.0
 11
8.8625247938
 21
6.6554263983
 31
0.0
  0
LINE
  5
2F5
330
1F
100
AcDbEntity
  8
0
  6
CONTINUOUS
 62
     7
100
AcDbLine
 10
9.0224802464
 20
6.547012443
 30
0.0
 11
8.8495603222
 21
6.6468369904
 31
0.0
  0
POLYLINE
  5
2F6
330
1F
100
AcDbEntity
  8
0
  6
CONTINUOUS
 62
     7
100
AcDb2dPolyline
 66
     1
 10
0.0
 20
0.0
 30
0.0
  0
VERTEX
  5
52E
330
2F6
100
AcDbEntity
  8
0
  6
CONTINUOUS
 62
     7
100
AcDbVertex
100
AcDb2dVertex
 10
8.6887041646
 20
6.3543276123
 30
0.0
  0
VERTEX
  5
52F
330
2F6
100
AcDbEntity
  8
0
  6
CONTINUOUS
 62
     7
100
AcDbVertex
100
AcDb2dVertex
 10
8.6901298553
 20
6.3367974913
 30
0.0
  0
VERTEX
  5
530
330
2F6
100
AcDbEntity
  8
0
  6
CONTINUOUS
 62
     7
100
AcDbVertex
100
AcDb2dVertex
 10
8.6930656623
 20
6.3203799937
 30
0.0
  0
VERTEX
  5
531
330
2F6
100
AcDbEntity
  8
0
  6
CONTINUOUS
 62
     7
100
AcDbVertex
100
AcDb2dVertex
 10
8.6974847916
 20
6.3052249565
 30
0.0
  0
VERTEX
  5
532
330
2F6
100
AcDbEntity
  8
0
  6
CONTINUOUS
 62
     7
100
AcDbVertex
100
AcDb2dVertex
 10
8.7033469114
 20
6.2914706942
 30
0.0
  0
VERTEX
  5
533
330
2F6
100
AcDbEntity
  8
0
  6
CONTINUOUS
 62
     7
100
AcDbVertex
100
AcDb2dVertex
 10
8.7105985202
 20
6.2792427372
 30
0.0
  0
VERTEX
  5
534
330
2F6
100
AcDbEntity
  8
0
  6
CONTINUOUS
 62
     7
100
AcDbVertex
100
AcDb2dVertex
 10
8.719173435
 20
6.2686526856
 30
0.0
  0
VERTEX
  5
535
330
2F6
100
AcDbEntity
  8
0
  6
CONTINUOUS
 62
     7
100
AcDbVertex
100
AcDb2dVertex
 10
8.7289933958
 20
6.2597971911
 30
0.0
  0
VERTEX
  5
536
330
2F6
100
AcDbEntity
  8
0
  6
CONTINUOUS
 62
     7
100
AcDbVertex
100
AcDb2dVertex
 10
8.7399687791
 20
6.2527570747
 30
0.0
  0
VERTEX
  5
537
330
2F6
100
AcDbEntity
  8
0
  6
CONTINUOUS
 62
     7
100
AcDbVertex
100
AcDb2dVertex
 10
8.7519994165
 20
6.2475965891
 30
0.0
  0
VERTEX
  5
538
330
2F6
100
AcDbEntity
  8
0
  6
CONTINUOUS
 62
     7
100
AcDbVertex
100
AcDb2dVertex
 10
8.7649755087
 20
6.2443628321
 30
0.0
  0
VERTEX
  5
539
330
2F6
100
AcDbEntity
  8
0
  6
CONTINUOUS
 62
     7
100
AcDbVertex
100
AcDb2dVertex
 10
8.7787786274
 20
6.2430853172
 30
0.0
  0
VERTEX
  5
53A
330
2F6
100
AcDbEntity
  8
0
  6
CONTINUOUS
 62
     7
100
AcDbVertex
100
AcDb2dVertex
 10
8.7932827965
 20
6.2437757037
 30
0.0
  0
VERTEX
  5
53B
330
2F6
100
AcDbEntity
  8
0
  6
CONTINUOUS
 62
     7
100
AcDbVertex
100
AcDb2dVertex
 10
8.8083556416
 20
6.2464276908
 30
0.0
  0
VERTEX
  5
53C
330
2F6
100
AcDbEntity
  8
0
  6
CONTINUOUS
 62
     7
100
AcDbVertex
100
AcDb2dVertex
 10
8.823859598
 20
6.2510170746
 30
0.0
  0
VERTEX
  5
53D
330
2F6
100
AcDbEntity
  8
0
  6
CONTINUOUS
 62
     7
100
AcDbVertex
100
AcDb2dVertex
 10
8.8396531668
 20
6.2575019696
 30
0.0
  0
VERTEX
  5
53E
330
2F6
100
AcDbEntity
  8
0
  6
CONTINUOUS
 62
     7
100
AcDbVertex
100
AcDb2dVertex
 10
8.8555922055
 20
6.2658231903
 30
0.0
  0
VERTEX
  5
53F
330
2F6
100
AcDbEntity
  8
0
  6
CONTINUOUS
 62
     7
100
AcDbVertex
100
AcDb2dVertex
 10
8.8715312442
 20
6.275904792
 30
0.0
  0
VERTEX
  5
540
330
2F6
100
AcDbEntity
  8
0
  6
CONTINUOUS
 62
     7
100
AcDbVertex
100
AcDb2dVertex
 10
8.887324813
 20
6.2876547633
 30
0.0
  0
VERTEX
  5
541
330
2F6
100
AcDbEntity
  8
0
  6
CONTINUOUS
 62
     7
100
AcDbVertex
100
AcDb2dVertex
 10
8.9028287694
 20
6.3009658666
 30
0.0
  0
VERTEX
  5
542
330
2F6
100
AcDbEntity
  8
0
  6
CONTINUOUS
 62
     7
100
AcDbVertex
100
AcDb2dVertex
 10
8.9179016145
 20
6.315716616
 30
0.0
  0
VERTEX
  5
543
330
2F6
100
AcDbEntity
  8
0
  6
CONTINUOUS
 62
     7
100
AcDbVertex
100
AcDb2dVertex
 10
8.9324057836
 20
6.3317723867
 30
0.0
  0
VERTEX
  5
544
330
2F6
100
AcDbEntity
  8
0
  6
CONTINUOUS
 62
     7
100
AcDbVertex
100
AcDb2dVertex
 10
8.9462089023
 20
6.3489866433
 30
0.0
  0
VERTEX
  5
545
330
2F6
100
AcDbEntity
  8
0
  6
CONTINUOUS
 62
     7
100
AcDbVertex
100
AcDb2dVertex
 10
8.9591849945
 20
6.3672022774
 30
0.0
  0
VERTEX
  5
546
330
2F6
100
AcDbEntity
  8
0
  6
CONTINUOUS
 62
     7
100
AcDbVertex
100
AcDb2dVertex
 10
8.9712156319
 20
6.3862530413
 30
0.0
  0
VERTEX
  5
547
330
2F6
100
AcDbEntity
  8
0
  6
CONTINUOUS
 62
     7
100
AcDbVertex
100
AcDb2dVertex
 10
8.9821910152
 20
6.4059650655
 30
0.0
  0
VERTEX
  5
548
330
2F6
100
AcDbEntity
  8
0
  6
CONTINUOUS
 62
     7
100
AcDbVertex
100
AcDb2dVertex
 10
8.992010976
 20
6.4261584453
 30
0.0
  0
VERTEX
  5
549
330
2F6
100
AcDbEntity
  8
0
  6
CONTINUOUS
 62
     7
100
AcDbVertex
100
AcDb2dVertex
 10
9.0005858908
 20
6.4466488829
 30
0.0
  0
VERTEX
  5
54A
330
2F6
100
AcDbEntity
  8
0
  6
CONTINUOUS
 62
     7
100
AcDbVertex
100
AcDb2dVertex
 10
9.0078374996
 20
6.4672493692
 30
0.0
  0
VERTEX
  5
54B
330
2F6
100
AcDbEntity
  8
0
  6
CONTINUOUS
 62
     7
100
AcDbVertex
100
AcDb2dVertex
 10
9.0136996194
 20
6.4877718909
 30
0.0
  0
VERTEX
  5
54C
330
2F6
100
AcDbEntity
  8
0
  6
CONTINUOUS
 62
     7
100
AcDbVertex
100
AcDb2dVertex
 10
9.0181187487
 20
6.5080291463
 30
0.0
  0
VERTEX
  5
54D
330
2F6
100
AcDbEntity
  8
0
  6
CONTINUOUS
 62
     7
100
AcDbVertex
100
AcDb2dVertex
 10
9.0210545557
 20
6.5278362545
 30
0.0
  0
VERTEX
  5
54E
330
2F6
100
AcDbEntity
  8
0
  6
CONTINUOUS
 62
     7
100
AcDbVertex
100
AcDb2dVertex
 10
9.0224802464
 20
6.547012443
 30
0.0
  0
SEQEND
  5
54F
330
2F6
100
AcDbEntity
  8
0
  6
CONTINUOUS
 62
     7
  0
ARC
  5
2F7
330
1F
100
AcDbEntity
  8
0
  6
CONTINUOUS
 62
     7
100
AcDbCircle
 10
8.8556635705
 20
6.5255382336
 30
0.0
 40
1.004878092951964
100
AcDbArc
 50
121.1509602949
 51
142.4532639606
  0
LINE
  5
2F8
330
1F
100
AcDbEntity
  8
0
  6
CONTINUOUS
 62
     7
100
AcDbLine
 10
9.0224802464
 20
6.547012443
 30
0.0
 11
9.0503302629
 21
6.5470188895
 31
0.0
  0
LINE
  5
2F9
330
1F
100
AcDbEntity
  8
0
  6
CONTINUOUS
 62
     7
100
AcDbLine
 10
9.0933823796
 20
6.5718723474
 30
0.0
 11
9.0791936813
 21
6.5797550243
 31
0.0
  0
POLYLINE
  5
2FA
330
1F
100
AcDbEntity
  8
0
  6
CONTINUOUS
 62
     7
100
AcDb2dPolyline
 66
     1
 10
0.0
 20
0.0
 30
0.0
  0
VERTEX
  5
550
330
2FA
100
AcDbEntity
  8
0
  6
CONTINUOUS
 62
     7
100
AcDbVertex
100
AcDb2dVertex
 10
8.8788172843
 20
6.6460209437
 30
0.0
  0
VERTEX
  5
551
330
2FA
100
AcDbEntity
  8
0
  6
CONTINUOUS
 62
     7
100
AcDbVertex
100
AcDb2dVertex
 10
8.8725228959
 20
6.6470934956
 30
0.0
  0
VERTEX
  5
552
330
2FA
100
AcDbEntity
  8
0
  6
CONTINUOUS
 62
     7
100
AcDbVertex
100
AcDb2dVertex
 10
8.8540678849
 20
6.6499507197
 30
0.0
  0
SEQEND
  5
553
330
2FA
100
AcDbEntity
  8
0
  6
CONTINUOUS
 62
     7
  0
LINE
  5
2FB
330
1F
100
AcDbEntity
  8
0
  6
CONTINUOUS
 62
     7
100
AcDbLine
 10
8.6122253753
 20
7.4829687219
 30
0.0
 11
8.7189409656
 21
7.4213631229
 31
0.0
  0
POLYLINE
  5
2FC
330
1F
100
AcDbEntity
  8
0
  6
CONTINUOUS
 62
     7
100
AcDb2dPolyline
 66
     1
 10
0.0
 20
0.0
 30
0.0
  0
VERTEX
  5
554
330
2FC
100
AcDbEntity
  8
0
  6
CONTINUOUS
 62
     7
100
AcDbVertex
100
AcDb2dVertex
 10
8.0348691267
 20
7.1518148385
 30
0.0
  0
VERTEX
  5
555
330
2FC
100
AcDbEntity
  8
0
  6
CONTINUOUS
 62
     7
100
AcDbVertex
100
AcDb2dVertex
 10
8.0600079173
 20
7.1827905954
 30
0.0
  0
VERTEX
  5
556
330
2FC
100
AcDbEntity
  8
0
  6
CONTINUOUS
 62
     7
100
AcDbVertex
100
AcDb2dVertex
 10
8.0858526196
 20
7.2126453923
 30
0.0
  0
VERTEX
  5
557
330
2FC
100
AcDbEntity
  8
0
  6
CONTINUOUS
 62
     7
100
AcDbVertex
100
AcDb2dVertex
 10
8.1123336014
 20
7.2412987929
 30
0.0
  0
VERTEX
  5
558
330
2FC
100
AcDbEntity
  8
0
  6
CONTINUOUS
 62
     7
100
AcDbVertex
100
AcDb2dVertex
 10
8.1393795161
 20
7.2686735976
 30
0.0
  0
VERTEX
  5
559
330
2FC
100
AcDbEntity
  8
0
  6
CONTINUOUS
 62
     7
100
AcDbVertex
100
AcDb2dVertex
 10
8.1669174952
 20
7.2946960517
 30
0.0
  0
VERTEX
  5
55A
330
2FC
100
AcDbEntity
  8
0
  6
CONTINUOUS
 62
     7
100
AcDbVertex
100
AcDb2dVertex
 10
8.1948733444
 20
7.3192960441
 30
0.0
  0
VERTEX
  5
55B
330
2FC
100
AcDbEntity
  8
0
  6
CONTINUOUS
 62
     7
100
AcDbVertex
100
AcDb2dVertex
 10
8.2231717436
 20
7.3424072962
 30
0.0
  0
VERTEX
  5
55C
330
2FC
100
AcDbEntity
  8
0
  6
CONTINUOUS
 62
     7
100
AcDbVertex
100
AcDb2dVertex
 10
8.2517364496
 20
7.3639675403
 30
0.0
  0
VERTEX
  5
55D
330
2FC
100
AcDbEntity
  8
0
  6
CONTINUOUS
 62
     7
100
AcDbVertex
100
AcDb2dVertex
 10
8.2804905018
 20
7.3839186878
 30
0.0
  0
VERTEX
  5
55E
330
2FC
100
AcDbEntity
  8
0
  6
CONTINUOUS
 62
     7
100
AcDbVertex
100
AcDb2dVertex
 10
8.3093564296
 20
7.4022069852
 30
0.0
  0
VERTEX
  5
55F
330
2FC
100
AcDbEntity
  8
0
  6
CONTINUOUS
 62
     7
100
AcDbVertex
100
AcDb2dVertex
 10
8.3382564608
 20
7.418783159
 30
0.0
  0
VERTEX
  5
560
330
2FC
100
AcDbEntity
  8
0
  6
CONTINUOUS
 62
     7
100
AcDbVertex
100
AcDb2dVertex
 10
8.3671127313
 20
7.433602549
 30
0.0
  0
VERTEX
  5
561
330
2FC
100
AcDbEntity
  8
0
  6
CONTINUOUS
 62
     7
100
AcDbVertex
100
AcDb2dVertex
 10
8.3958474951
 20
7.4466252279
 30
0.0
  0
VERTEX
  5
562
330
2FC
100
AcDbEntity
  8
0
  6
CONTINUOUS
 62
     7
100
AcDbVertex
100
AcDb2dVertex
 10
8.4243833334
 20
7.4578161092
 30
0.0
  0
VERTEX
  5
563
330
2FC
100
AcDbEntity
  8
0
  6
CONTINUOUS
 62
     7
100
AcDbVertex
100
AcDb2dVertex
 10
8.4526433634
 20
7.467145042
 30
0.0
  0
VERTEX
  5
564
330
2FC
100
AcDbEntity
  8
0
  6
CONTINUOUS
 62
     7
100
AcDbVertex
100
AcDb2dVertex
 10
8.4805514453
 20
7.4745868917
 30
0.0
  0
VERTEX
  5
565
330
2FC
100
AcDbEntity
  8
0
  6
CONTINUOUS
 62
     7
100
AcDbVertex
100
AcDb2dVertex
 10
8.5080323878
 20
7.480121608
 30
0.0
  0
VERTEX
  5
566
330
2FC
100
AcDbEntity
  8
0
  6
CONTINUOUS
 62
     7
100
AcDbVertex
100
AcDb2dVertex
 10
8.5350121501
 20
7.4837342791
 30
0.0
  0
VERTEX
  5
567
330
2FC
100
AcDbEntity
  8
0
  6
CONTINUOUS
 62
     7
100
AcDbVertex
100
AcDb2dVertex
 10
8.5614180419
 20
7.4854151714
 30
0.0
  0
VERTEX
  5
568
330
2FC
100
AcDbEntity
  8
0
  6
CONTINUOUS
 62
     7
100
AcDbVertex
100
AcDb2dVertex
 10
8.5871789191
 20
7.4851597563
 30
0.0
  0
VERTEX
  5
569
330
2FC
100
AcDbEntity
  8
0
  6
CONTINUOUS
 62
     7
100
AcDbVertex
100
AcDb2dVertex
 10
8.6122253753
 20
7.4829687219
 30
0.0
  0
SEQEND
  5
56A
330
2FC
100
AcDbEntity
  8
0
  6
CONTINUOUS
 62
     7
  0
LINE
  5
2FD
330
1F
100
AcDbEntity
  8
0
  6
CONTINUOUS
 62
     7
100
AcDbLine
 10
8.1415847171
 20
7.0902092395
 30
0.0
 11
8.0348691267
 21
7.1518148385
 31
0.0
  0
POLYLINE
  5
2FE
330
1F
100
AcDbEntity
  8
0
  6
CONTINUOUS
 62
     7
100
AcDb2dPolyline
 66
     1
 10
0.0
 20
0.0
 30
0.0
  0
VERTEX
  5
56B
330
2FE
100
AcDbEntity
  8
0
  6
CONTINUOUS
 62
     7
100
AcDbVertex
100
AcDb2dVertex
 10
8.0492265565
 20
6.0155917607
 30
0.0
  0
VERTEX
  5
56C
330
2FE
100
AcDbEntity
  8
0
  6
CONTINUOUS
 62
     7
100
AcDbVertex
100
AcDb2dVertex
 10
8.047809774
 20
6.0163032056
 30
0.0
  0
VERTEX
  5
56D
330
2FE
100
AcDbEntity
  8
0
  6
CONTINUOUS
 62
     7
100
AcDbVertex
100
AcDb2dVertex
 10
8.0274935608
 20
6.0277408758
 30
0.0
  0
VERTEX
  5
56E
330
2FE
100
AcDbEntity
  8
0
  6
CONTINUOUS
 62
     7
100
AcDbVertex
100
AcDb2dVertex
 10
8.0082324696
 20
6.0409598587
 30
0.0
  0
VERTEX
  5
56F
330
2FE
100
AcDbEntity
  8
0
  6
CONTINUOUS
 62
     7
100
AcDbVertex
100
AcDb2dVertex
 10
7.9900771507
 20
6.0559253926
 30
0.0
  0
VERTEX
  5
570
330
2FE
100
AcDbEntity
  8
0
  6
CONTINUOUS
 62
     7
100
AcDbVertex
100
AcDb2dVertex
 10
7.9730753467
 20
6.0725981231
 30
0.0
  0
VERTEX
  5
571
330
2FE
100
AcDbEntity
  8
0
  6
CONTINUOUS
 62
     7
100
AcDbVertex
100
AcDb2dVertex
 10
7.957271767
 20
6.0909342062
 30
0.0
  0
VERTEX
  5
572
330
2FE
100
AcDbEntity
  8
0
  6
CONTINUOUS
 62
     7
100
AcDbVertex
100
AcDb2dVertex
 10
7.9427079699
 20
6.110885424
 30
0.0
  0
VERTEX
  5
573
330
2FE
100
AcDbEntity
  8
0
  6
CONTINUOUS
 62
     7
100
AcDbVertex
100
AcDb2dVertex
 10
7.9294222533
 20
6.1323993112
 30
0.0
  0
VERTEX
  5
574
330
2FE
100
AcDbEntity
  8
0
  6
CONTINUOUS
 62
     7
100
AcDbVertex
100
AcDb2dVertex
 10
7.9174495545
 20
6.1554192932
 30
0.0
  0
VERTEX
  5
575
330
2FE
100
AcDbEntity
  8
0
  6
CONTINUOUS
 62
     7
100
AcDbVertex
100
AcDb2dVertex
 10
7.9068213578
 20
6.1798848349
 30
0.0
  0
VERTEX
  5
576
330
2FE
100
AcDbEntity
  8
0
  6
CONTINUOUS
 62
     7
100
AcDbVertex
100
AcDb2dVertex
 10
7.897565612
 20
6.2057315998
 30
0.0
  0
VERTEX
  5
577
330
2FE
100
AcDbEntity
  8
0
  6
CONTINUOUS
 62
     7
100
AcDbVertex
100
AcDb2dVertex
 10
7.8897066566
 20
6.2328916193
 30
0.0
  0
VERTEX
  5
578
330
2FE
100
AcDbEntity
  8
0
  6
CONTINUOUS
 62
     7
100
AcDbVertex
100
AcDb2dVertex
 10
7.8832651581
 20
6.2612934713
 30
0.0
  0
VERTEX
  5
579
330
2FE
100
AcDbEntity
  8
0
  6
CONTINUOUS
 62
     7
100
AcDbVertex
100
AcDb2dVertex
 10
7.8782580557
 20
6.290862468
 30
0.0
  0
VERTEX
  5
57A
330
2FE
100
AcDbEntity
  8
0
  6
CONTINUOUS
 62
     7
100
AcDbVertex
100
AcDb2dVertex
 10
7.8746985163
 20
6.3215208527
 30
0.0
  0
VERTEX
  5
57B
330
2FE
100
AcDbEntity
  8
0
  6
CONTINUOUS
 62
     7
100
AcDbVertex
100
AcDb2dVertex
 10
7.8725959005
 20
6.3531880035
 30
0.0
  0
VERTEX
  5
57C
330
2FE
100
AcDbEntity
  8
0
  6
CONTINUOUS
 62
     7
100
AcDbVertex
100
AcDb2dVertex
 10
7.8719557375
 20
6.3857806462
 30
0.0
  0
VERTEX
  5
57D
330
2FE
100
AcDbEntity
  8
0
  6
CONTINUOUS
 62
     7
100
AcDbVertex
100
AcDb2dVertex
 10
7.8727797105
 20
6.4192130726
 30
0.0
  0
VERTEX
  5
57E
330
2FE
100
AcDbEntity
  8
0
  6
CONTINUOUS
 62
     7
100
AcDbVertex
100
AcDb2dVertex
 10
7.875065653
 20
6.4533973663
 30
0.0
  0
VERTEX
  5
57F
330
2FE
100
AcDbEntity
  8
0
  6
CONTINUOUS
 62
     7
100
AcDbVertex
100
AcDb2dVertex
 10
7.8788075535
 20
6.4882436335
 30
0.0
  0
VERTEX
  5
580
330
2FE
100
AcDbEntity
  8
0
  6
CONTINUOUS
 62
     7
100
AcDbVertex
100
AcDb2dVertex
 10
7.8839955721
 20
6.5236602398
 30
0.0
  0
VERTEX
  5
581
330
2FE
100
AcDbEntity
  8
0
  6
CONTINUOUS
 62
     7
100
AcDbVertex
100
AcDb2dVertex
 10
7.8906160659
 20
6.559554051
 30
0.0
  0
VERTEX
  5
582
330
2FE
100
AcDbEntity
  8
0
  6
CONTINUOUS
 62
     7
100
AcDbVertex
100
AcDb2dVertex
 10
7.8986516253
 20
6.595830678
 30
0.0
  0
VERTEX
  5
583
330
2FE
100
AcDbEntity
  8
0
  6
CONTINUOUS
 62
     7
100
AcDbVertex
100
AcDb2dVertex
 10
7.9080811193
 20
6.6323947249
 30
0.0
  0
VERTEX
  5
584
330
2FE
100
AcDbEntity
  8
0
  6
CONTINUOUS
 62
     7
100
AcDbVertex
100
AcDb2dVertex
 10
7.9188797513
 20
6.6691500401
 30
0.0
  0
VERTEX
  5
585
330
2FE
100
AcDbEntity
  8
0
  6
CONTINUOUS
 62
     7
100
AcDbVertex
100
AcDb2dVertex
 10
7.9310191245
 20
6.705999969
 30
0.0
  0
VERTEX
  5
586
330
2FE
100
AcDbEntity
  8
0
  6
CONTINUOUS
 62
     7
100
AcDbVertex
100
AcDb2dVertex
 10
7.9444673162
 20
6.7428476082
 30
0.0
  0
VERTEX
  5
587
330
2FE
100
AcDbEntity
  8
0
  6
CONTINUOUS
 62
     7
100
AcDbVertex
100
AcDb2dVertex
 10
7.959188962
 20
6.7795960602
 30
0.0
  0
VERTEX
  5
588
330
2FE
100
AcDbEntity
  8
0
  6
CONTINUOUS
 62
     7
100
AcDbVertex
100
AcDb2dVertex
 10
7.9751453487
 20
6.8161486886
 30
0.0
  0
VERTEX
  5
589
330
2FE
100
AcDbEntity
  8
0
  6
CONTINUOUS
 62
     7
100
AcDbVertex
100
AcDb2dVertex
 10
7.9922945162
 20
6.8524093716
 30
0.0
  0
VERTEX
  5
58A
330
2FE
100
AcDbEntity
  8
0
  6
CONTINUOUS
 62
     7
100
AcDbVertex
100
AcDb2dVertex
 10
8.0105913677
 20
6.8882827555
 30
0.0
  0
VERTEX
  5
58B
330
2FE
100
AcDbEntity
  8
0
  6
CONTINUOUS
 62
     7
100
AcDbVertex
100
AcDb2dVertex
 10
8.0299877884
 20
6.9236745048
 30
0.0
  0
VERTEX
  5
58C
330
2FE
100
AcDbEntity
  8
0
  6
CONTINUOUS
 62
     7
100
AcDbVertex
100
AcDb2dVertex
 10
8.050432772
 20
6.9584915505
 30
0.0
  0
VERTEX
  5
58D
330
2FE
100
AcDbEntity
  8
0
  6
CONTINUOUS
 62
     7
100
AcDbVertex
100
AcDb2dVertex
 10
8.0718725548
 20
6.9926423352
 30
0.0
  0
VERTEX
  5
58E
330
2FE
100
AcDbEntity
  8
0
  6
CONTINUOUS
 62
     7
100
AcDbVertex
100
AcDb2dVertex
 10
8.094250757
 20
7.0260370533
 30
0.0
  0
VERTEX
  5
58F
330
2FE
100
AcDbEntity
  8
0
  6
CONTINUOUS
 62
     7
100
AcDbVertex
100
AcDb2dVertex
 10
8.1175085312
 20
7.0585878875
 30
0.0
  0
VERTEX
  5
590
330
2FE
100
AcDbEntity
  8
0
  6
CONTINUOUS
 62
     7
100
AcDbVertex
100
AcDb2dVertex
 10
8.1415847171
 20
7.0902092395
 30
0.0
  0
SEQEND
  5
591
330
2FE
100
AcDbEntity
  8
0
  6
CONTINUOUS
 62
     7
  0
ARC
  5
2FF
330
1F
100
AcDbEntity
  8
0
  6
CONTINUOUS
 62
     7
100
AcDbCircle
 10
8.6860878569
 20
7.1493571436
 30
0.0
 40
0.2739828088245703
100
AcDbArc
 50
58.4869112766
 51
83.113127324
  0
LINE
  5
300
330
1F
100
AcDbEntity
  8
0
  6
CONTINUOUS
 62
     7
100
AcDbLine
 10
7.5499053673
 20
6.3287293285
 30
0.0
 11
7.443189777
 21
6.3903349275
 31
0.0
  0
POLYLINE
  5
301
330
1F
100
AcDbEntity
  8
0
  6
CONTINUOUS
 62
     7
100
AcDb2dPolyline
 66
     1
 10
0.0
 20
0.0
 30
0.0
  0
VERTEX
  5
592
330
301
100
AcDbEntity
  8
0
  6
CONTINUOUS
 62
     7
100
AcDbVertex
100
AcDb2dVertex
 10
7.5480462982
 20
6.9943657966
 30
0.0
  0
VERTEX
  5
593
330
301
100
AcDbEntity
  8
0
  6
CONTINUOUS
 62
     7
100
AcDbVertex
100
AcDb2dVertex
 10
7.5337893116
 20
6.9571060658
 30
0.0
  0
VERTEX
  5
594
330
301
100
AcDbEntity
  8
0
  6
CONTINUOUS
 62
     7
100
AcDbVertex
100
AcDb2dVertex
 10
7.5208559506
 20
6.9197952871
 30
0.0
  0
VERTEX
  5
595
330
301
100
AcDbEntity
  8
0
  6
CONTINUOUS
 62
     7
100
AcDbVertex
100
AcDb2dVertex
 10
7.509281061
 20
6.8825339853
 30
0.0
  0
VERTEX
  5
596
330
301
100
AcDbEntity
  8
0
  6
CONTINUOUS
 62
     7
100
AcDbVertex
100
AcDb2dVertex
 10
7.4990958286
 20
6.8454225517
 30
0.0
  0
VERTEX
  5
597
330
301
100
AcDbEntity
  8
0
  6
CONTINUOUS
 62
     7
100
AcDbVertex
100
AcDb2dVertex
 10
7.490327695
 20
6.808560974
 30
0.0
  0
VERTEX
  5
598
330
301
100
AcDbEntity
  8
0
  6
CONTINUOUS
 62
     7
100
AcDbVertex
100
AcDb2dVertex
 10
7.4830002836
 20
6.7720485667
 30
0.0
  0
VERTEX
  5
599
330
301
100
AcDbEntity
  8
0
  6
CONTINUOUS
 62
     7
100
AcDbVertex
100
AcDb2dVertex
 10
7.4771333365
 20
6.7359837034
 30
0.0
  0
VERTEX
  5
59A
330
301
100
AcDbEntity
  8
0
  6
CONTINUOUS
 62
     7
100
AcDbVertex
100
AcDb2dVertex
 10
7.4727426606
 20
6.700463552
 30
0.0
  0
VERTEX
  5
59B
330
301
100
AcDbEntity
  8
0
  6
CONTINUOUS
 62
     7
100
AcDbVertex
100
AcDb2dVertex
 10
7.4698400857
 20
6.6655838129
 30
0.0
  0
VERTEX
  5
59C
330
301
100
AcDbEntity
  8
0
  6
CONTINUOUS
 62
     7
100
AcDbVertex
100
AcDb2dVertex
 10
7.4684334318
 20
6.6314384609
 30
0.0
  0
VERTEX
  5
59D
330
301
100
AcDbEntity
  8
0
  6
CONTINUOUS
 62
     7
100
AcDbVertex
100
AcDb2dVertex
 10
7.468526489
 20
6.5981194924
 30
0.0
  0
VERTEX
  5
59E
330
301
100
AcDbEntity
  8
0
  6
CONTINUOUS
 62
     7
100
AcDbVertex
100
AcDb2dVertex
 10
7.4701190066
 20
6.565716677
 30
0.0
  0
VERTEX
  5
59F
330
301
100
AcDbEntity
  8
0
  6
CONTINUOUS
 62
     7
100
AcDbVertex
100
AcDb2dVertex
 10
7.4732066937
 20
6.5343173162
 30
0.0
  0
VERTEX
  5
5A0
330
301
100
AcDbEntity
  8
0
  6
CONTINUOUS
 62
     7
100
AcDbVertex
100
AcDb2dVertex
 10
7.4777812315
 20
6.5040060079
 30
0.0
  0
VERTEX
  5
5A1
330
301
100
AcDbEntity
  8
0
  6
CONTINUOUS
 62
     7
100
AcDbVertex
100
AcDb2dVertex
 10
7.483830295
 20
6.4748644184
 30
0.0
  0
VERTEX
  5
5A2
330
301
100
AcDbEntity
  8
0
  6
CONTINUOUS
 62
     7
100
AcDbVertex
100
AcDb2dVertex
 10
7.4913375865
 20
6.4469710626
 30
0.0
  0
VERTEX
  5
5A3
330
301
100
AcDbEntity
  8
0
  6
CONTINUOUS
 62
     7
100
AcDbVertex
100
AcDb2dVertex
 10
7.5002828794
 20
6.4204010922
 30
0.0
  0
VERTEX
  5
5A4
330
301
100
AcDbEntity
  8
0
  6
CONTINUOUS
 62
     7
100
AcDbVertex
100
AcDb2dVertex
 10
7.5106420728
 20
6.3952260936
 30
0.0
  0
VERTEX
  5
5A5
330
301
100
AcDbEntity
  8
0
  6
CONTINUOUS
 62
     7
100
AcDbVertex
100
AcDb2dVertex
 10
7.5223872564
 20
6.3715138945
 30
0.0
  0
VERTEX
  5
5A6
330
301
100
AcDbEntity
  8
0
  6
CONTINUOUS
 62
     7
100
AcDbVertex
100
AcDb2dVertex
 10
7.5354867857
 20
6.3493283816
 30
0.0
  0
VERTEX
  5
5A7
330
301
100
AcDbEntity
  8
0
  6
CONTINUOUS
 62
     7
100
AcDbVertex
100
AcDb2dVertex
 10
7.5499053673
 20
6.3287293285
 30
0.0
  0
SEQEND
  5
5A8
330
301
100
AcDbEntity
  8
0
  6
CONTINUOUS
 62
     7
  0
LINE
  5
302
330
1F
100
AcDbEntity
  8
0
  6
CONTINUOUS
 62
     7
100
AcDbLine
 10
7.4413307079
 20
7.0559713955
 30
0.0
 11
7.5480462982
 21
6.9943657966
 31
0.0
  0
POLYLINE
  5
303
330
1F
100
AcDbEntity
  8
0
  6
CONTINUOUS
 62
     7
100
AcDb2dPolyline
 66
     1
 10
0.0
 20
0.0
 30
0.0
  0
VERTEX
  5
5A9
330
303
100
AcDbEntity
  8
0
  6
CONTINUOUS
 62
     7
100
AcDbVertex
100
AcDb2dVertex
 10
8.3120197262
 20
7.6816929541
 30
0.0
  0
VERTEX
  5
5AA
330
303
100
AcDbEntity
  8
0
  6
CONTINUOUS
 62
     7
100
AcDbVertex
100
AcDb2dVertex
 10
8.3043691522
 20
7.6859411407
 30
0.0
  0
VERTEX
  5
5AB
330
303
100
AcDbEntity
  8
0
  6
CONTINUOUS
 62
     7
100
AcDbVertex
100
AcDb2dVertex
 10
8.2832928169
 20
7.6960160285
 30
0.0
  0
VERTEX
  5
5AC
330
303
100
AcDbEntity
  8
0
  6
CONTINUOUS
 62
     7
100
AcDbVertex
100
AcDb2dVertex
 10
8.2612568021
 20
7.7042600001
 30
0.0
  0
VERTEX
  5
5AD
330
303
100
AcDbEntity
  8
0
  6
CONTINUOUS
 62
     7
100
AcDbVertex
100
AcDb2dVertex
 10
8.2383190557
 20
7.7106513766
 30
0.0
  0
VERTEX
  5
5AE
330
303
100
AcDbEntity
  8
0
  6
CONTINUOUS
 62
     7
100
AcDbVertex
100
AcDb2dVertex
 10
8.2145398964
 20
7.7151733507
 30
0.0
  0
VERTEX
  5
5AF
330
303
100
AcDbEntity
  8
0
  6
CONTINUOUS
 62
     7
100
AcDbVertex
100
AcDb2dVertex
 10
8.1899818557
 20
7.717814031
 30
0.0
  0
VERTEX
  5
5B0
330
303
100
AcDbEntity
  8
0
  6
CONTINUOUS
 62
     7
100
AcDbVertex
100
AcDb2dVertex
 10
8.1647095134
 20
7.7185664735
 30
0.0
  0
VERTEX
  5
5B1
330
303
100
AcDbEntity
  8
0
  6
CONTINUOUS
 62
     7
100
AcDbVertex
100
AcDb2dVertex
 10
8.1387893276
 20
7.7174286993
 30
0.0
  0
VERTEX
  5
5B2
330
303
100
AcDbEntity
  8
0
  6
CONTINUOUS
 62
     7
100
AcDbVertex
100
AcDb2dVertex
 10
8.11228946
 20
7.7144037006
 30
0.0
  0
VERTEX
  5
5B3
330
303
100
AcDbEntity
  8
0
  6
CONTINUOUS
 62
     7
100
AcDbVertex
100
AcDb2dVertex
 10
8.0852795966
 20
7.7094994321
 30
0.0
  0
VERTEX
  5
5B4
330
303
100
AcDbEntity
  8
0
  6
CONTINUOUS
 62
     7
100
AcDbVertex
100
AcDb2dVertex
 10
8.0578307648
 20
7.7027287904
 30
0.0
  0
VERTEX
  5
5B5
330
303
100
AcDbEntity
  8
0
  6
CONTINUOUS
 62
     7
100
AcDbVertex
100
AcDb2dVertex
 10
8.030015146
 20
7.6941095802
 30
0.0
  0
VERTEX
  5
5B6
330
303
100
AcDbEntity
  8
0
  6
CONTINUOUS
 62
     7
100
AcDbVertex
100
AcDb2dVertex
 10
8.0019058864
 20
7.6836644671
 30
0.0
  0
VERTEX
  5
5B7
330
303
100
AcDbEntity
  8
0
  6
CONTINUOUS
 62
     7
100
AcDbVertex
100
AcDb2dVertex
 10
7.9735769043
 20
7.6714209185
 30
0.0
  0
VERTEX
  5
5B8
330
303
100
AcDbEntity
  8
0
  6
CONTINUOUS
 62
     7
100
AcDbVertex
100
AcDb2dVertex
 10
7.9451026957
 20
7.6574111308
 30
0.0
  0
VERTEX
  5
5B9
330
303
100
AcDbEntity
  8
0
  6
CONTINUOUS
 62
     7
100
AcDbVertex
100
AcDb2dVertex
 10
7.9165581386
 20
7.6416719455
 30
0.0
  0
VERTEX
  5
5BA
330
303
100
AcDbEntity
  8
0
  6
CONTINUOUS
 62
     7
100
AcDbVertex
100
AcDb2dVertex
 10
7.8880182959
 20
7.6242447513
 30
0.0
  0
VERTEX
  5
5BB
330
303
100
AcDbEntity
  8
0
  6
CONTINUOUS
 62
     7
100
AcDbVertex
100
AcDb2dVertex
 10
7.8595582184
 20
7.6051753763
 30
0.0
  0
VERTEX
  5
5BC
330
303
100
AcDbEntity
  8
0
  6
CONTINUOUS
 62
     7
100
AcDbVertex
100
AcDb2dVertex
 10
7.8312527466
 20
7.5845139667
 30
0.0
  0
VERTEX
  5
5BD
330
303
100
AcDbEntity
  8
0
  6
CONTINUOUS
 62
     7
100
AcDbVertex
100
AcDb2dVertex
 10
7.803176315
 20
7.5623148553
 30
0.0
  0
VERTEX
  5
5BE
330
303
100
AcDbEntity
  8
0
  6
CONTINUOUS
 62
     7
100
AcDbVertex
100
AcDb2dVertex
 10
7.7754027555
 20
7.5386364187
 30
0.0
  0
VERTEX
  5
5BF
330
303
100
AcDbEntity
  8
0
  6
CONTINUOUS
 62
     7
100
AcDbVertex
100
AcDb2dVertex
 10
7.7480051035
 20
7.5135409235
 30
0.0
  0
VERTEX
  5
5C0
330
303
100
AcDbEntity
  8
0
  6
CONTINUOUS
 62
     7
100
AcDbVertex
100
AcDb2dVertex
 10
7.721055406
 20
7.4870943627
 30
0.0
  0
VERTEX
  5
5C1
330
303
100
AcDbEntity
  8
0
  6
CONTINUOUS
 62
     7
100
AcDbVertex
100
AcDb2dVertex
 10
7.6946245321
 20
7.4593662823
 30
0.0
  0
VERTEX
  5
5C2
330
303
100
AcDbEntity
  8
0
  6
CONTINUOUS
 62
     7
100
AcDbVertex
100
AcDb2dVertex
 10
7.6687819864
 20
7.4304295981
 30
0.0
  0
VERTEX
  5
5C3
330
303
100
AcDbEntity
  8
0
  6
CONTINUOUS
 62
     7
100
AcDbVertex
100
AcDb2dVertex
 10
7.6435957265
 20
7.4003604044
 30
0.0
  0
VERTEX
  5
5C4
330
303
100
AcDbEntity
  8
0
  6
CONTINUOUS
 62
     7
100
AcDbVertex
100
AcDb2dVertex
 10
7.619131984
 20
7.3692377733
 30
0.0
  0
VERTEX
  5
5C5
330
303
100
AcDbEntity
  8
0
  6
CONTINUOUS
 62
     7
100
AcDbVertex
100
AcDb2dVertex
 10
7.5954550908
 20
7.3371435473
 30
0.0
  0
VERTEX
  5
5C6
330
303
100
AcDbEntity
  8
0
  6
CONTINUOUS
 62
     7
100
AcDbVertex
100
AcDb2dVertex
 10
7.5726273094
 20
7.304162124
 30
0.0
  0
VERTEX
  5
5C7
330
303
100
AcDbEntity
  8
0
  6
CONTINUOUS
 62
     7
100
AcDbVertex
100
AcDb2dVertex
 10
7.5507086695
 20
7.2703802337
 30
0.0
  0
VERTEX
  5
5C8
330
303
100
AcDbEntity
  8
0
  6
CONTINUOUS
 62
     7
100
AcDbVertex
100
AcDb2dVertex
 10
7.5297568101
 20
7.235886712
 30
0.0
  0
VERTEX
  5
5C9
330
303
100
AcDbEntity
  8
0
  6
CONTINUOUS
 62
     7
100
AcDbVertex
100
AcDb2dVertex
 10
7.5098268278
 20
7.2007722657
 30
0.0
  0
VERTEX
  5
5CA
330
303
100
AcDbEntity
  8
0
  6
CONTINUOUS
 62
     7
100
AcDbVertex
100
AcDb2dVertex
 10
7.490971132
 20
7.1651292344
 30
0.0
  0
VERTEX
  5
5CB
330
303
100
AcDbEntity
  8
0
  6
CONTINUOUS
 62
     7
100
AcDbVertex
100
AcDb2dVertex
 10
7.4732393071
 20
7.1290513478
 30
0.0
  0
VERTEX
  5
5CC
330
303
100
AcDbEntity
  8
0
  6
CONTINUOUS
 62
     7
100
AcDbVertex
100
AcDb2dVertex
 10
7.4566779821
 20
7.0926334791
 30
0.0
  0
VERTEX
  5
5CD
330
303
100
AcDbEntity
  8
0
  6
CONTINUOUS
 62
     7
100
AcDbVertex
100
AcDb2dVertex
 10
7.4413307079
 20
7.0559713955
 30
0.0
  0
SEQEND
  5
5CE
330
303
100
AcDbEntity
  8
0
  6
CONTINUOUS
 62
     7
  0
ARC
  5
304
330
1F
100
AcDbEntity
  8
0
  6
CONTINUOUS
 62
     7
100
AcDbCircle
 10
7.6629279062
 20
6.5552827914
 30
0.0
 40
0.2747592459649973
100
AcDbArc
 50
216.8939649636
 51
239.7912210689
  0
SPLINE
  5
305
330
1F
100
AcDbEntity
  8
0
  6
CONTINUOUS
 62
     7
100
AcDbSpline
210
0.0
220
0.0
230
1.0
 70
     8
 71
     3
 72
     8
 73
     4
 74
     0
 42
0.00000001
 43
0.00000001
 40
0.0
 40
0.0
 40
0.0
 40
0.0
 40
0.0001052524529271
 40
0.0001052524529271
 40
0.0001052524529271
 40
0.0001052524529271
 10
8.162351464135666
 20
7.07821920826177
 30
0.0
 10
8.162988128049582
 20
7.07699636024956
 30
0.0
 10
8.163624565136994
 20
7.075773417962915
 30
0.0
 10
8.164260772449326
 20
7.074550380602654
 30
0.0
  0
SPLINE
  5
306
330
1F
100
AcDbEntity
  8
0
  6
CONTINUOUS
 62
     7
100
AcDbSpline
210
0.0
220
0.0
230
1.0
 70
     8
 71
     3
 72
     8
 73
     4
 74
     0
 42
0.00000001
 43
0.00000001
 40
0.0
 40
0.0
 40
0.0
 40
0.0
 40
0.0006196767744117
 40
0.0006196767744117
 40
0.0006196767744117
 40
0.0006196767744117
 10
8.1415847170572
 20
7.090209239493994
 30
0.0
 10
8.14850740731392
 20
7.086212307880511
 30
0.0
 10
8.15542966719891
 20
7.082215624538478
 30
0.0
 10
8.162351464135666
 20
7.07821920826177
 30
0.0
  0
SPLINE
  5
307
330
1F
100
AcDbEntity
  8
0
  6
CONTINUOUS
 62
     7
100
AcDbSpline
210
0.0
220
0.0
230
1.0
 70
     8
 71
     3
 72
     8
 73
     4
 74
     0
 42
0.00000001
 43
0.00000001
 40
0.0
 40
0.0
 40
0.0
 40
0.0
 40
0.0005415208961897
 40
0.0005415208961897
 40
0.0005415208961897
 40
0.0005415208961897
 10
8.612225375280001
 20
7.482968721869025
 30
0.0
 10
8.61124226412482
 20
7.477781361115403
 30
0.0
 10
8.610235514296757
 20
7.472593366595819
 30
0.0
 10
8.609203626567428
 20
7.467404897031696
 30
0.0
  0
SPLINE
  5
308
330
1F
100
AcDbEntity
  8
0
  6
CONTINUOUS
 62
     7
100
AcDbSpline
210
0.0
220
0.0
230
1.0
 70
     8
 71
     3
 72
     8
 73
     4
 74
     0
 42
0.00000001
 43
0.00000001
 40
0.0
 40
0.0
 40
0.0
 40
0.0
 40
0.0001052524529271
 40
0.0001052524529271
 40
0.0001052524529271
 40
0.0001052524529271
 10
7.438077221928458
 20
7.057847949675113
 30
0.0
 10
7.438181237869215
 20
7.058643073308036
 30
0.0
 10
7.43828567567093
 20
7.0594381785878
 30
0.0
 10
7.438390540448296
 20
7.060233265062703
 30
0.0
  0
ARC
  5
309
330
1F
100
AcDbEntity
  8
0
  6
CONTINUOUS
 62
     7
100
AcDbCircle
 10
8.5378864911
 20
6.6444925478
 30
0.0
 40
1.175470837372127
100
AcDbArc
 50
122.6135320975
 51
159.2874237177
  0
SPLINE
  5
30A
330
1F
100
AcDbEntity
  8
0
  6
CONTINUOUS
 62
     7
100
AcDbSpline
210
0.0
220
0.0
230
1.0
 70
     8
 71
     3
 72
     8
 73
     4
 74
     0
 42
0.00000001
 43
0.00000001
 40
0.0
 40
0.0
 40
0.0
 40
0.0
 40
0.0006196767744117
 40
0.0006196767744117
 40
0.0006196767744117
 40
0.0006196767744117
 10
7.438077221928458
 20
7.057847949675113
 30
0.0
 10
7.439159294051881
 20
7.057223830694236
 30
0.0
 10
7.440243843347953
 20
7.056598281483028
 30
0.0
 10
7.441330707875681
 20
7.055971395540173
 30
0.0
  0
SPLINE
  5
30B
330
1F
100
AcDbEntity
  8
0
  6
CONTINUOUS
 62
     7
100
AcDbSpline
210
0.0
220
0.0
230
1.0
 70
     8
 71
     3
 72
     8
 73
     4
 74
     0
 42
0.00000001
 43
0.00000001
 40
0.0
 40
0.0
 40
0.0
 40
0.0
 40
0.0006196767744117
 40
0.0006196767744117
 40
0.0006196767744117
 40
0.0006196767744117
 10
7.54479281226501
 20
6.996242350685865
 30
0.0
 10
7.545874884388433
 20
6.995618231704989
 30
0.0
 10
7.546959433684505
 20
6.994992682493782
 30
0.0
 10
7.548046298212234
 20
6.994365796550926
 30
0.0
  0
ARC
  5
30C
330
1F
100
AcDbEntity
  8
0
  6
CONTINUOUS
 62
     7
100
AcDbCircle
 10
8.4730709664
 20
6.6127024699
 30
0.0
 40
1.004982602054518
100
AcDbArc
 50
157.5464236144
 51
178.8535800728
  0
LINE
  5
30D
330
1F
100
AcDbEntity
  8
0
  6
CONTINUOUS
 62
     7
100
AcDbLine
 10
7.5447928123
 20
6.9962423507
 30
0.0
 11
7.4380772219
 21
7.0578479497
 31
0.0
  0
LINE
  5
30E
330
1F
100
AcDbEntity
  8
0
  6
CONTINUOUS
 62
     7
100
AcDbLine
 10
8.7189409656
 20
7.4213631229
 30
0.0
 11
8.7179735022
 21
7.4163801041
 31
0.0
  0
LINE
  5
30F
330
1F
100
AcDbEntity
  8
0
  6
CONTINUOUS
 62
     7
100
AcDbLine
 10
7.443189777
 20
6.3903349275
 30
0.0
 11
7.4413852919
 21
6.3969216945
 31
0.0
  0
LINE
  5
310
330
1F
100
AcDbEntity
  8
0
  6
CONTINUOUS
 62
     7
100
AcDbLine
 10
8.1454118026
 20
6.8284175007
 30
0.0
 11
8.1454167377
 21
6.8291593748
 31
0.0
  0
LINE
  5
311
330
1F
100
AcDbEntity
  8
0
  6
CONTINUOUS
 62
     7
100
AcDbLine
 10
8.3770257066
 20
6.873568764
 30
0.0
 11
8.2892024726
 21
6.8871535935
 31
0.0
  0
LINE
  5
312
330
1F
100
AcDbEntity
  8
0
  6
CONTINUOUS
 62
     7
100
AcDbLine
 10
8.2892024726
 20
6.8871535935
 30
0.0
 11
8.2249114033
 21
6.8500391492
 31
0.0
  0
LINE
  5
313
330
1F
100
AcDbEntity
  8
0
  6
CONTINUOUS
 62
     7
100
AcDbLine
 10
8.2249114033
 20
6.8500391492
 30
0.0
 11
8.2484435679
 21
6.7993398754
 31
0.0
  0
LINE
  5
314
330
1F
100
AcDbEntity
  8
0
  6
CONTINUOUS
 62
     7
100
AcDbLine
 10
8.2484435679
 20
6.7993398754
 30
0.0
 11
8.3362668019
 21
6.7857550459
 31
0.0
  0
LINE
  5
315
330
1F
100
AcDbEntity
  8
0
  6
CONTINUOUS
 62
     7
100
AcDbLine
 10
8.3362668019
 20
6.7857550459
 30
0.0
 11
8.4005578713
 21
6.8228694902
 31
0.0
  0
LINE
  5
316
330
1F
100
AcDbEntity
  8
0
  6
CONTINUOUS
 62
     7
100
AcDbLine
 10
8.4005578713
 20
6.8228694902
 30
0.0
 11
8.3770257066
 21
6.873568764
 31
0.0
  0
LINE
  5
317
330
1F
100
AcDbEntity
  8
0
  6
CONTINUOUS
 62
     7
100
AcDbLine
 10
8.3770257066
 20
6.8092846607
 30
0.0
 11
8.3770257066
 21
6.873568764
 31
0.0
  0
LINE
  5
318
330
1F
100
AcDbEntity
  8
0
  6
CONTINUOUS
 62
     7
100
AcDbLine
 10
8.2892024726
 20
6.7930351341
 30
0.0
 11
8.2892024726
 21
6.8871535935
 31
0.0
  0
POLYLINE
  5
319
330
1F
100
AcDbEntity
  8
0
  6
CONTINUOUS
 62
     7
100
AcDb2dPolyline
 66
     1
 10
0.0
 20
0.0
 30
0.0
  0
VERTEX
  5
5CF
330
319
100
AcDbEntity
  8
0
  6
CONTINUOUS
 62
     7
100
AcDbVertex
100
AcDb2dVertex
 10
8.3049985083
 20
7.6856041683
 30
0.0
  0
VERTEX
  5
5D0
330
319
100
AcDbEntity
  8
0
  6
CONTINUOUS
 62
     7
100
AcDbVertex
100
AcDb2dVertex
 10
8.3006381709
 20
7.6882443764
 30
0.0
  0
VERTEX
  5
5D1
330
319
100
AcDbEntity
  8
0
  6
CONTINUOUS
 62
     7
100
AcDbVertex
100
AcDb2dVertex
 10
8.280147517
 20
7.6991876217
 30
0.0
  0
VERTEX
  5
5D2
330
319
100
AcDbEntity
  8
0
  6
CONTINUOUS
 62
     7
100
AcDbVertex
100
AcDb2dVertex
 10
8.2586766629
 20
7.7083271162
 30
0.0
  0
VERTEX
  5
5D3
330
319
100
AcDbEntity
  8
0
  6
CONTINUOUS
 62
     7
100
AcDbVertex
100
AcDb2dVertex
 10
8.2362816237
 20
7.715639016
 30
0.0
  0
VERTEX
  5
5D4
330
319
100
AcDbEntity
  8
0
  6
CONTINUOUS
 62
     7
100
AcDbVertex
100
AcDb2dVertex
 10
8.2130208254
 20
7.7211042453
 30
0.0
  0
VERTEX
  5
5D5
330
319
100
AcDbEntity
  8
0
  6
CONTINUOUS
 62
     7
100
AcDbVertex
100
AcDb2dVertex
 10
8.1889549528
 20
7.7247085458
 30
0.0
  0
VERTEX
  5
5D6
330
319
100
AcDbEntity
  8
0
  6
CONTINUOUS
 62
     7
100
AcDbVertex
100
AcDb2dVertex
 10
8.164146791
 20
7.7264425144
 30
0.0
  0
VERTEX
  5
5D7
330
319
100
AcDbEntity
  8
0
  6
CONTINUOUS
 62
     7
100
AcDbVertex
100
AcDb2dVertex
 10
8.1386610617
 20
7.7263016273
 30
0.0
  0
VERTEX
  5
5D8
330
319
100
AcDbEntity
  8
0
  6
CONTINUOUS
 62
     7
100
AcDbVertex
100
AcDb2dVertex
 10
8.1125642542
 20
7.7242862521
 30
0.0
  0
VERTEX
  5
5D9
330
319
100
AcDbEntity
  8
0
  6
CONTINUOUS
 62
     7
100
AcDbVertex
100
AcDb2dVertex
 10
8.0859244522
 20
7.7204016466
 30
0.0
  0
VERTEX
  5
5DA
330
319
100
AcDbEntity
  8
0
  6
CONTINUOUS
 62
     7
100
AcDbVertex
100
AcDb2dVertex
 10
8.0588111558
 20
7.7146579455
 30
0.0
  0
VERTEX
  5
5DB
330
319
100
AcDbEntity
  8
0
  6
CONTINUOUS
 62
     7
100
AcDbVertex
100
AcDb2dVertex
 10
8.0312951006
 20
7.7070701332
 30
0.0
  0
VERTEX
  5
5DC
330
319
100
AcDbEntity
  8
0
  6
CONTINUOUS
 62
     7
100
AcDbVertex
100
AcDb2dVertex
 10
8.0034480727
 20
7.6976580057
 30
0.0
  0
VERTEX
  5
5DD
330
319
100
AcDbEntity
  8
0
  6
CONTINUOUS
 62
     7
100
AcDbVertex
100
AcDb2dVertex
 10
7.9753427219
 20
7.6864461179
 30
0.0
  0
VERTEX
  5
5DE
330
319
100
AcDbEntity
  8
0
  6
CONTINUOUS
 62
     7
100
AcDbVertex
100
AcDb2dVertex
 10
7.9470523718
 20
7.6734637205
 30
0.0
  0
VERTEX
  5
5DF
330
319
100
AcDbEntity
  8
0
  6
CONTINUOUS
 62
     7
100
AcDbVertex
100
AcDb2dVertex
 10
7.9186508288
 20
7.6587446831
 30
0.0
  0
VERTEX
  5
5E0
330
319
100
AcDbEntity
  8
0
  6
CONTINUOUS
 62
     7
100
AcDbVertex
100
AcDb2dVertex
 10
7.8902121892
 20
7.6423274059
 30
0.0
  0
VERTEX
  5
5E1
330
319
100
AcDbEntity
  8
0
  6
CONTINUOUS
 62
     7
100
AcDbVertex
100
AcDb2dVertex
 10
7.8618106462
 20
7.6242547198
 30
0.0
  0
VERTEX
  5
5E2
330
319
100
AcDbEntity
  8
0
  6
CONTINUOUS
 62
     7
100
AcDbVertex
100
AcDb2dVertex
 10
7.8335202962
 20
7.6045737742
 30
0.0
  0
VERTEX
  5
5E3
330
319
100
AcDbEntity
  8
0
  6
CONTINUOUS
 62
     7
100
AcDbVertex
100
AcDb2dVertex
 10
7.8054149454
 20
7.5833359147
 30
0.0
  0
VERTEX
  5
5E4
330
319
100
AcDbEntity
  8
0
  6
CONTINUOUS
 62
     7
100
AcDbVertex
100
AcDb2dVertex
 10
7.7775679175
 20
7.5605965482
 30
0.0
  0
VERTEX
  5
5E5
330
319
100
AcDbEntity
  8
0
  6
CONTINUOUS
 62
     7
100
AcDbVertex
100
AcDb2dVertex
 10
7.7500518622
 20
7.5364149993
 30
0.0
  0
VERTEX
  5
5E6
330
319
100
AcDbEntity
  8
0
  6
CONTINUOUS
 62
     7
100
AcDbVertex
100
AcDb2dVertex
 10
7.7229385658
 20
7.5108543548
 30
0.0
  0
VERTEX
  5
5E7
330
319
100
AcDbEntity
  8
0
  6
CONTINUOUS
 62
     7
100
AcDbVertex
100
AcDb2dVertex
 10
7.6962987638
 20
7.4839812995
 30
0.0
  0
VERTEX
  5
5E8
330
319
100
AcDbEntity
  8
0
  6
CONTINUOUS
 62
     7
100
AcDbVertex
100
AcDb2dVertex
 10
7.6702019564
 20
7.4558659421
 30
0.0
  0
VERTEX
  5
5E9
330
319
100
AcDbEntity
  8
0
  6
CONTINUOUS
 62
     7
100
AcDbVertex
100
AcDb2dVertex
 10
7.6447162271
 20
7.4265816325
 30
0.0
  0
VERTEX
  5
5EA
330
319
100
AcDbEntity
  8
0
  6
CONTINUOUS
 62
     7
100
AcDbVertex
100
AcDb2dVertex
 10
7.6199080653
 20
7.39620477
 30
0.0
  0
VERTEX
  5
5EB
330
319
100
AcDbEntity
  8
0
  6
CONTINUOUS
 62
     7
100
AcDbVertex
100
AcDb2dVertex
 10
7.5958421927
 20
7.3648146045
 30
0.0
  0
VERTEX
  5
5EC
330
319
100
AcDbEntity
  8
0
  6
CONTINUOUS
 62
     7
100
AcDbVertex
100
AcDb2dVertex
 10
7.5725813944
 20
7.3324930291
 30
0.0
  0
VERTEX
  5
5ED
330
319
100
AcDbEntity
  8
0
  6
CONTINUOUS
 62
     7
100
AcDbVertex
100
AcDb2dVertex
 10
7.5501863551
 20
7.2993243674
 30
0.0
  0
VERTEX
  5
5EE
330
319
100
AcDbEntity
  8
0
  6
CONTINUOUS
 62
     7
100
AcDbVertex
100
AcDb2dVertex
 10
7.528715501
 20
7.2653951524
 30
0.0
  0
VERTEX
  5
5EF
330
319
100
AcDbEntity
  8
0
  6
CONTINUOUS
 62
     7
100
AcDbVertex
100
AcDb2dVertex
 10
7.5082248471
 20
7.2307939017
 30
0.0
  0
VERTEX
  5
5F0
330
319
100
AcDbEntity
  8
0
  6
CONTINUOUS
 62
     7
100
AcDbVertex
100
AcDb2dVertex
 10
7.4887678511
 20
7.1956108859
 30
0.0
  0
VERTEX
  5
5F1
330
319
100
AcDbEntity
  8
0
  6
CONTINUOUS
 62
     7
100
AcDbVertex
100
AcDb2dVertex
 10
7.4703952742
 20
7.1599378936
 30
0.0
  0
VERTEX
  5
5F2
330
319
100
AcDbEntity
  8
0
  6
CONTINUOUS
 62
     7
100
AcDbVertex
100
AcDb2dVertex
 10
7.4531550482
 20
7.1238679916
 30
0.0
  0
VERTEX
  5
5F3
330
319
100
AcDbEntity
  8
0
  6
CONTINUOUS
 62
     7
100
AcDbVertex
100
AcDb2dVertex
 10
7.437092151
 20
7.0874952819
 30
0.0
  0
VERTEX
  5
5F4
330
319
100
AcDbEntity
  8
0
  6
CONTINUOUS
 62
     7
100
AcDbVertex
100
AcDb2dVertex
 10
7.4222484888
 20
7.050914657
 30
0.0
  0
SEQEND
  5
5F5
330
319
100
AcDbEntity
  8
0
  6
CONTINUOUS
 62
     7
  0
LINE
  5
31A
330
1F
100
AcDbEntity
  8
0
  6
CONTINUOUS
 62
     7
100
AcDbLine
 10
7.4222484888
 20
7.050914657
 30
0.0
 11
7.5150446543
 21
6.9973445709
 31
0.0
  0
POLYLINE
  5
31B
330
1F
100
AcDbEntity
  8
0
  6
CONTINUOUS
 62
     7
100
AcDb2dPolyline
 66
     1
 10
0.0
 20
0.0
 30
0.0
  0
VERTEX
  5
5F6
330
31B
100
AcDbEntity
  8
0
  6
CONTINUOUS
 62
     7
100
AcDbVertex
100
AcDb2dVertex
 10
7.5150446543
 20
6.9973445709
 30
0.0
  0
VERTEX
  5
5F7
330
31B
100
AcDbEntity
  8
0
  6
CONTINUOUS
 62
     7
100
AcDbVertex
100
AcDb2dVertex
 10
7.5011357412
 20
6.9597335242
 30
0.0
  0
VERTEX
  5
5F8
330
31B
100
AcDbEntity
  8
0
  6
CONTINUOUS
 62
     7
100
AcDbVertex
100
AcDb2dVertex
 10
7.4885865816
 20
6.922107393
 30
0.0
  0
VERTEX
  5
5F9
330
31B
100
AcDbEntity
  8
0
  6
CONTINUOUS
 62
     7
100
AcDbVertex
100
AcDb2dVertex
 10
7.4774315719
 20
6.8845693081
 30
0.0
  0
VERTEX
  5
5FA
330
31B
100
AcDbEntity
  8
0
  6
CONTINUOUS
 62
     7
100
AcDbVertex
100
AcDb2dVertex
 10
7.4677012872
 20
6.8472221587
 30
0.0
  0
VERTEX
  5
5FB
330
31B
100
AcDbEntity
  8
0
  6
CONTINUOUS
 62
     7
100
AcDbVertex
100
AcDb2dVertex
 10
7.4594223975
 20
6.8101683108
 30
0.0
  0
VERTEX
  5
5FC
330
31B
100
AcDbEntity
  8
0
  6
CONTINUOUS
 62
     7
100
AcDbVertex
100
AcDb2dVertex
 10
7.4526175946
 20
6.7735093263
 30
0.0
  0
VERTEX
  5
5FD
330
31B
100
AcDbEntity
  8
0
  6
CONTINUOUS
 62
     7
100
AcDbVertex
100
AcDb2dVertex
 10
7.4473055302
 20
6.737345685
 30
0.0
  0
VERTEX
  5
5FE
330
31B
100
AcDbEntity
  8
0
  6
CONTINUOUS
 62
     7
100
AcDbVertex
100
AcDb2dVertex
 10
7.4435007641
 20
6.7017765089
 30
0.0
  0
VERTEX
  5
5FF
330
31B
100
AcDbEntity
  8
0
  6
CONTINUOUS
 62
     7
100
AcDbVertex
100
AcDb2dVertex
 10
7.441213725
 20
6.6668992907
 30
0.0
  0
VERTEX
  5
600
330
31B
100
AcDbEntity
  8
0
  6
CONTINUOUS
 62
     7
100
AcDbVertex
100
AcDb2dVertex
 10
7.4404506815
 20
6.6328096264
 30
0.0
  0
VERTEX
  5
601
330
31B
100
AcDbEntity
  8
0
  6
CONTINUOUS
 62
     7
100
AcDbVertex
100
AcDb2dVertex
 10
7.441213725
 20
6.5996009534
 30
0.0
  0
VERTEX
  5
602
330
31B
100
AcDbEntity
  8
0
  6
CONTINUOUS
 62
     7
100
AcDbVertex
100
AcDb2dVertex
 10
7.4435007641
 20
6.5673642943
 30
0.0
  0
VERTEX
  5
603
330
31B
100
AcDbEntity
  8
0
  6
CONTINUOUS
 62
     7
100
AcDbVertex
100
AcDb2dVertex
 10
7.4473055302
 20
6.5361880077
 30
0.0
  0
VERTEX
  5
604
330
31B
100
AcDbEntity
  8
0
  6
CONTINUOUS
 62
     7
100
AcDbVertex
100
AcDb2dVertex
 10
7.4526175946
 20
6.5061575455
 30
0.0
  0
VERTEX
  5
605
330
31B
100
AcDbEntity
  8
0
  6
CONTINUOUS
 62
     7
100
AcDbVertex
100
AcDb2dVertex
 10
7.4594223975
 20
6.4773552191
 30
0.0
  0
VERTEX
  5
606
330
31B
100
AcDbEntity
  8
0
  6
CONTINUOUS
 62
     7
100
AcDbVertex
100
AcDb2dVertex
 10
7.4677012872
 20
6.4498599737
 30
0.0
  0
VERTEX
  5
607
330
31B
100
AcDbEntity
  8
0
  6
CONTINUOUS
 62
     7
100
AcDbVertex
100
AcDb2dVertex
 10
7.4774315719
 20
6.4237471719
 30
0.0
  0
VERTEX
  5
608
330
31B
100
AcDbEntity
  8
0
  6
CONTINUOUS
 62
     7
100
AcDbVertex
100
AcDb2dVertex
 10
7.4885865816
 20
6.3990883871
 30
0.0
  0
VERTEX
  5
609
330
31B
100
AcDbEntity
  8
0
  6
CONTINUOUS
 62
     7
100
AcDbVertex
100
AcDb2dVertex
 10
7.5011357412
 20
6.3759512072
 30
0.0
  0
VERTEX
  5
60A
330
31B
100
AcDbEntity
  8
0
  6
CONTINUOUS
 62
     7
100
AcDbVertex
100
AcDb2dVertex
 10
7.5150446543
 20
6.3543990497
 30
0.0
  0
SEQEND
  5
60B
330
31B
100
AcDbEntity
  8
0
  6
CONTINUOUS
 62
     7
  0
LINE
  5
31C
330
1F
100
AcDbEntity
  8
0
  6
CONTINUOUS
 62
     7
100
AcDbLine
 10
7.5150446543
 20
6.3543990497
 30
0.0
 11
7.408329064
 21
6.4160046487
 31
0.0
  0
ARC
  5
31D
330
1F
100
AcDbEntity
  8
0
  6
CONTINUOUS
 62
     7
100
AcDbCircle
 10
7.6355888638
 20
6.5725129403
 30
0.0
 40
0.2759381487602023
100
AcDbArc
 50
214.5542384199
 51
243.1614346726
  0
POLYLINE
  5
31E
330
1F
100
AcDbEntity
  8
0
  6
CONTINUOUS
 62
     7
100
AcDb2dPolyline
 66
     1
 10
0.0
 20
0.0
 30
0.0
  0
VERTEX
  5
60C
330
31E
100
AcDbEntity
  8
0
  6
CONTINUOUS
 62
     7
100
AcDbVertex
100
AcDb2dVertex
 10
7.3234221699
 20
6.9228621758
 30
0.0
  0
VERTEX
  5
60D
330
31E
100
AcDbEntity
  8
0
  6
CONTINUOUS
 62
     7
100
AcDbVertex
100
AcDb2dVertex
 10
7.3155442439
 20
6.8865586955
 30
0.0
  0
VERTEX
  5
60E
330
31E
100
AcDbEntity
  8
0
  6
CONTINUOUS
 62
     7
100
AcDbVertex
100
AcDb2dVertex
 10
7.3090891184
 20
6.8506512577
 30
0.0
  0
VERTEX
  5
60F
330
31E
100
AcDbEntity
  8
0
  6
CONTINUOUS
 62
     7
100
AcDbVertex
100
AcDb2dVertex
 10
7.3040738328
 20
6.8152346455
 30
0.0
  0
VERTEX
  5
610
330
31E
100
AcDbEntity
  8
0
  6
CONTINUOUS
 62
     7
100
AcDbVertex
100
AcDb2dVertex
 10
7.3005116257
 20
6.7804023469
 30
0.0
  0
VERTEX
  5
611
330
31E
100
AcDbEntity
  8
0
  6
CONTINUOUS
 62
     7
100
AcDbVertex
100
AcDb2dVertex
 10
7.2984119002
 20
6.7462463071
 30
0.0
  0
VERTEX
  5
612
330
31E
100
AcDbEntity
  8
0
  6
CONTINUOUS
 62
     7
100
AcDbVertex
100
AcDb2dVertex
 10
7.2977801988
 20
6.7128566865
 30
0.0
  0
VERTEX
  5
613
330
31E
100
AcDbEntity
  8
0
  6
CONTINUOUS
 62
     7
100
AcDbVertex
100
AcDb2dVertex
 10
7.2986181889
 20
6.6803216223
 30
0.0
  0
VERTEX
  5
614
330
31E
100
AcDbEntity
  8
0
  6
CONTINUOUS
 62
     7
100
AcDbVertex
100
AcDb2dVertex
 10
7.3009236586
 20
6.6487269959
 30
0.0
  0
VERTEX
  5
615
330
31E
100
AcDbEntity
  8
0
  6
CONTINUOUS
 62
     7
100
AcDbVertex
100
AcDb2dVertex
 10
7.3046905223
 20
6.6181562063
 30
0.0
  0
VERTEX
  5
616
330
31E
100
AcDbEntity
  8
0
  6
CONTINUOUS
 62
     7
100
AcDbVertex
100
AcDb2dVertex
 10
7.3099088366
 20
6.58868995
 30
0.0
  0
VERTEX
  5
617
330
31E
100
AcDbEntity
  8
0
  6
CONTINUOUS
 62
     7
100
AcDbVertex
100
AcDb2dVertex
 10
7.316564827
 20
6.5604060078
 30
0.0
  0
VERTEX
  5
618
330
31E
100
AcDbEntity
  8
0
  6
CONTINUOUS
 62
     7
100
AcDbVertex
100
AcDb2dVertex
 10
7.3246409241
 20
6.5333790398
 30
0.0
  0
VERTEX
  5
619
330
31E
100
AcDbEntity
  8
0
  6
CONTINUOUS
 62
     7
100
AcDbVertex
100
AcDb2dVertex
 10
7.3341158095
 20
6.5076803878
 30
0.0
  0
VERTEX
  5
61A
330
31E
100
AcDbEntity
  8
0
  6
CONTINUOUS
 62
     7
100
AcDbVertex
100
AcDb2dVertex
 10
7.3449644729
 20
6.4833778875
 30
0.0
  0
VERTEX
  5
61B
330
31E
100
AcDbEntity
  8
0
  6
CONTINUOUS
 62
     7
100
AcDbVertex
100
AcDb2dVertex
 10
7.3571582776
 20
6.4605356892
 30
0.0
  0
VERTEX
  5
61C
330
31E
100
AcDbEntity
  8
0
  6
CONTINUOUS
 62
     7
100
AcDbVertex
100
AcDb2dVertex
 10
7.3706650359
 20
6.4392140886
 30
0.0
  0
VERTEX
  5
61D
330
31E
100
AcDbEntity
  8
0
  6
CONTINUOUS
 62
     7
100
AcDbVertex
100
AcDb2dVertex
 10
7.3854490948
 20
6.4194693673
 30
0.0
  0
VERTEX
  5
61E
330
31E
100
AcDbEntity
  8
0
  6
CONTINUOUS
 62
     7
100
AcDbVertex
100
AcDb2dVertex
 10
7.4014714292
 20
6.4013536448
 30
0.0
  0
VERTEX
  5
61F
330
31E
100
AcDbEntity
  8
0
  6
CONTINUOUS
 62
     7
100
AcDbVertex
100
AcDb2dVertex
 10
7.4186897459
 20
6.3849147402
 30
0.0
  0
VERTEX
  5
620
330
31E
100
AcDbEntity
  8
0
  6
CONTINUOUS
 62
     7
100
AcDbVertex
100
AcDb2dVertex
 10
7.4370585941
 20
6.3701960468
 30
0.0
  0
VERTEX
  5
621
330
31E
100
AcDbEntity
  8
0
  6
CONTINUOUS
 62
     7
100
AcDbVertex
100
AcDb2dVertex
 10
7.4565294866
 20
6.3572364168
 30
0.0
  0
VERTEX
  5
622
330
31E
100
AcDbEntity
  8
0
  6
CONTINUOUS
 62
     7
100
AcDbVertex
100
AcDb2dVertex
 10
7.4608847777
 20
6.3546659121
 30
0.0
  0
SEQEND
  5
623
330
31E
100
AcDbEntity
  8
0
  6
CONTINUOUS
 62
     7
  0
LINE
  5
31F
330
1F
100
AcDbEntity
  8
0
  6
CONTINUOUS
 62
     7
100
AcDbLine
 10
7.3234221699
 20
6.9228621758
 30
0.0
 11
7.3095027451
 21
6.9308976887
 31
0.0
  0
POLYLINE
  5
320
330
1F
100
AcDbEntity
  8
0
  6
CONTINUOUS
 62
     7
100
AcDb2dPolyline
 66
     1
 10
0.0
 20
0.0
 30
0.0
  0
VERTEX
  5
624
330
320
100
AcDbEntity
  8
0
  6
CONTINUOUS
 62
     7
100
AcDbVertex
100
AcDb2dVertex
 10
7.3095027451
 20
6.9308976887
 30
0.0
  0
VERTEX
  5
625
330
320
100
AcDbEntity
  8
0
  6
CONTINUOUS
 62
     7
100
AcDbVertex
100
AcDb2dVertex
 10
7.3015737267
 20
6.8943366294
 30
0.0
  0
VERTEX
  5
626
330
320
100
AcDbEntity
  8
0
  6
CONTINUOUS
 62
     7
100
AcDbVertex
100
AcDb2dVertex
 10
7.2950880061
 20
6.8581779695
 30
0.0
  0
VERTEX
  5
627
330
320
100
AcDbEntity
  8
0
  6
CONTINUOUS
 62
     7
100
AcDbVertex
100
AcDb2dVertex
 10
7.2900629483
 20
6.8225185213
 30
0.0
  0
VERTEX
  5
628
330
320
100
AcDbEntity
  8
0
  6
CONTINUOUS
 62
     7
100
AcDbVertex
100
AcDb2dVertex
 10
7.2865120076
 20
6.7874537607
 30
0.0
  0
VERTEX
  5
629
330
320
100
AcDbEntity
  8
0
  6
CONTINUOUS
 62
     7
100
AcDbVertex
100
AcDb2dVertex
 10
7.2844446914
 20
6.7530775712
 30
0.0
  0
VERTEX
  5
62A
330
320
100
AcDbEntity
  8
0
  6
CONTINUOUS
 62
     7
100
AcDbVertex
100
AcDb2dVertex
 10
7.2838665348
 20
6.7194819927
 30
0.0
  0
VERTEX
  5
62B
330
320
100
AcDbEntity
  8
0
  6
CONTINUOUS
 62
     7
100
AcDbVertex
100
AcDb2dVertex
 10
7.2847790857
 20
6.686756975
 30
0.0
  0
VERTEX
  5
62C
330
320
100
AcDbEntity
  8
0
  6
CONTINUOUS
 62
     7
100
AcDbVertex
100
AcDb2dVertex
 10
7.287179901
 20
6.6549901372
 30
0.0
  0
VERTEX
  5
62D
330
320
100
AcDbEntity
  8
0
  6
CONTINUOUS
 62
     7
100
AcDbVertex
100
AcDb2dVertex
 10
7.2910625525
 20
6.6242665329
 30
0.0
  0
VERTEX
  5
62E
330
320
100
AcDbEntity
  8
0
  6
CONTINUOUS
 62
     7
100
AcDbVertex
100
AcDb2dVertex
 10
7.2964166448
 20
6.5946684224
 30
0.0
  0
VERTEX
  5
62F
330
320
100
AcDbEntity
  8
0
  6
CONTINUOUS
 62
     7
100
AcDbVertex
100
AcDb2dVertex
 10
7.3032278425
 20
6.5662750526
 30
0.0
  0
VERTEX
  5
630
330
320
100
AcDbEntity
  8
0
  6
CONTINUOUS
 62
     7
100
AcDbVertex
100
AcDb2dVertex
 10
7.3114779092
 20
6.5391624449
 30
0.0
  0
VERTEX
  5
631
330
320
100
AcDbEntity
  8
0
  6
CONTINUOUS
 62
     7
100
AcDbVertex
100
AcDb2dVertex
 10
7.321144756
 20
6.5134031915
 30
0.0
  0
VERTEX
  5
632
330
320
100
AcDbEntity
  8
0
  6
CONTINUOUS
 62
     7
100
AcDbVertex
100
AcDb2dVertex
 10
7.3322025003
 20
6.4890662609
 30
0.0
  0
VERTEX
  5
633
330
320
100
AcDbEntity
  8
0
  6
CONTINUOUS
 62
     7
100
AcDbVertex
100
AcDb2dVertex
 10
7.344621536
 20
6.4662168138
 30
0.0
  0
VERTEX
  5
634
330
320
100
AcDbEntity
  8
0
  6
CONTINUOUS
 62
     7
100
AcDbVertex
100
AcDb2dVertex
 10
7.3583686119
 20
6.4449160279
 30
0.0
  0
VERTEX
  5
635
330
320
100
AcDbEntity
  8
0
  6
CONTINUOUS
 62
     7
100
AcDbVertex
100
AcDb2dVertex
 10
7.373406921
 20
6.4252209346
 30
0.0
  0
VERTEX
  5
636
330
320
100
AcDbEntity
  8
0
  6
CONTINUOUS
 62
     7
100
AcDbVertex
100
AcDb2dVertex
 10
7.3896961995
 20
6.4071842663
 30
0.0
  0
VERTEX
  5
637
330
320
100
AcDbEntity
  8
0
  6
CONTINUOUS
 62
     7
100
AcDbVertex
100
AcDb2dVertex
 10
7.4071928337
 20
6.3908543148
 30
0.0
  0
VERTEX
  5
638
330
320
100
AcDbEntity
  8
0
  6
CONTINUOUS
 62
     7
100
AcDbVertex
100
AcDb2dVertex
 10
7.4258499777
 20
6.3762748026
 30
0.0
  0
VERTEX
  5
639
330
320
100
AcDbEntity
  8
0
  6
CONTINUOUS
 62
     7
100
AcDbVertex
100
AcDb2dVertex
 10
7.4456176782
 20
6.3634847653
 30
0.0
  0
VERTEX
  5
63A
330
320
100
AcDbEntity
  8
0
  6
CONTINUOUS
 62
     7
100
AcDbVertex
100
AcDb2dVertex
 10
7.4539865708
 20
6.3587902109
 30
0.0
  0
SEQEND
  5
63B
330
320
100
AcDbEntity
  8
0
  6
CONTINUOUS
 62
     7
  0
POLYLINE
  5
321
330
1F
100
AcDbEntity
  8
0
  6
CONTINUOUS
 62
     7
100
AcDb2dPolyline
 66
     1
 10
0.0
 20
0.0
 30
0.0
  0
VERTEX
  5
63C
330
321
100
AcDbEntity
  8
0
  6
CONTINUOUS
 62
     7
100
AcDbVertex
100
AcDb2dVertex
 10
7.0978197801
 20
6.5642588739
 30
0.0
  0
VERTEX
  5
63D
330
321
100
AcDbEntity
  8
0
  6
CONTINUOUS
 62
     7
100
AcDbVertex
100
AcDb2dVertex
 10
7.0819154385
 20
6.5742138992
 30
0.0
  0
VERTEX
  5
63E
330
321
100
AcDbEntity
  8
0
  6
CONTINUOUS
 62
     7
100
AcDbVertex
100
AcDb2dVertex
 10
7.0632639542
 20
6.5880638492
 30
0.0
  0
VERTEX
  5
63F
330
321
100
AcDbEntity
  8
0
  6
CONTINUOUS
 62
     7
100
AcDbVertex
100
AcDb2dVertex
 10
7.0457207882
 20
6.6036171342
 30
0.0
  0
VERTEX
  5
640
330
321
100
AcDbEntity
  8
0
  6
CONTINUOUS
 62
     7
100
AcDbVertex
100
AcDb2dVertex
 10
7.029331345
 20
6.6208334997
 30
0.0
  0
VERTEX
  5
641
330
321
100
AcDbEntity
  8
0
  6
CONTINUOUS
 62
     7
100
AcDbVertex
100
AcDb2dVertex
 10
7.0141380434
 20
6.6396683868
 30
0.0
  0
VERTEX
  5
642
330
321
100
AcDbEntity
  8
0
  6
CONTINUOUS
 62
     7
100
AcDbVertex
100
AcDb2dVertex
 10
7.0001802062
 20
6.6600730476
 30
0.0
  0
VERTEX
  5
643
330
321
100
AcDbEntity
  8
0
  6
CONTINUOUS
 62
     7
100
AcDbVertex
100
AcDb2dVertex
 10
6.9874939586
 20
6.6819946714
 30
0.0
  0
VERTEX
  5
644
330
321
100
AcDbEntity
  8
0
  6
CONTINUOUS
 62
     7
100
AcDbVertex
100
AcDb2dVertex
 10
6.976112135
 20
6.7053765212
 30
0.0
  0
VERTEX
  5
645
330
321
100
AcDbEntity
  8
0
  6
CONTINUOUS
 62
     7
100
AcDbVertex
100
AcDb2dVertex
 10
6.9660641932
 20
6.7301580809
 30
0.0
  0
VERTEX
  5
646
330
321
100
AcDbEntity
  8
0
  6
CONTINUOUS
 62
     7
100
AcDbVertex
100
AcDb2dVertex
 10
6.9573761392
 20
6.7562752115
 30
0.0
  0
VERTEX
  5
647
330
321
100
AcDbEntity
  8
0
  6
CONTINUOUS
 62
     7
100
AcDbVertex
100
AcDb2dVertex
 10
6.9500704591
 20
6.7836603175
 30
0.0
  0
VERTEX
  5
648
330
321
100
AcDbEntity
  8
0
  6
CONTINUOUS
 62
     7
100
AcDbVertex
100
AcDb2dVertex
 10
6.9441660612
 20
6.8122425216
 30
0.0
  0
VERTEX
  5
649
330
321
100
AcDbEntity
  8
0
  6
CONTINUOUS
 62
     7
100
AcDbVertex
100
AcDb2dVertex
 10
6.9396782271
 20
6.8419478481
 30
0.0
  0
VERTEX
  5
64A
330
321
100
AcDbEntity
  8
0
  6
CONTINUOUS
 62
     7
100
AcDbVertex
100
AcDb2dVertex
 10
6.9366185721
 20
6.8726994147
 30
0.0
  0
VERTEX
  5
64B
330
321
100
AcDbEntity
  8
0
  6
CONTINUOUS
 62
     7
100
AcDbVertex
100
AcDb2dVertex
 10
6.9349950151
 20
6.9044176309
 30
0.0
  0
VERTEX
  5
64C
330
321
100
AcDbEntity
  8
0
  6
CONTINUOUS
 62
     7
100
AcDbVertex
100
AcDb2dVertex
 10
6.9348117581
 20
6.9370204048
 30
0.0
  0
VERTEX
  5
64D
330
321
100
AcDbEntity
  8
0
  6
CONTINUOUS
 62
     7
100
AcDbVertex
100
AcDb2dVertex
 10
6.9360692755
 20
6.9704233547
 30
0.0
  0
VERTEX
  5
64E
330
321
100
AcDbEntity
  8
0
  6
CONTINUOUS
 62
     7
100
AcDbVertex
100
AcDb2dVertex
 10
6.9387643125
 20
7.0045400282
 30
0.0
  0
VERTEX
  5
64F
330
321
100
AcDbEntity
  8
0
  6
CONTINUOUS
 62
     7
100
AcDbVertex
100
AcDb2dVertex
 10
6.9428898941
 20
7.0392821255
 30
0.0
  0
VERTEX
  5
650
330
321
100
AcDbEntity
  8
0
  6
CONTINUOUS
 62
     7
100
AcDbVertex
100
AcDb2dVertex
 10
6.9484353423
 20
7.074559728
 30
0.0
  0
VERTEX
  5
651
330
321
100
AcDbEntity
  8
0
  6
CONTINUOUS
 62
     7
100
AcDbVertex
100
AcDb2dVertex
 10
6.9553863048
 20
7.1102815315
 30
0.0
  0
VERTEX
  5
652
330
321
100
AcDbEntity
  8
0
  6
CONTINUOUS
 62
     7
100
AcDbVertex
100
AcDb2dVertex
 10
6.9637247912
 20
7.1463550817
 30
0.0
  0
VERTEX
  5
653
330
321
100
AcDbEntity
  8
0
  6
CONTINUOUS
 62
     7
100
AcDbVertex
100
AcDb2dVertex
 10
6.97342922
 20
7.1826870142
 30
0.0
  0
VERTEX
  5
654
330
321
100
AcDbEntity
  8
0
  6
CONTINUOUS
 62
     7
100
AcDbVertex
100
AcDb2dVertex
 10
6.9844744747
 20
7.2191832958
 30
0.0
  0
VERTEX
  5
655
330
321
100
AcDbEntity
  8
0
  6
CONTINUOUS
 62
     7
100
AcDbVertex
100
AcDb2dVertex
 10
6.9968319681
 20
7.2557494678
 30
0.0
  0
VERTEX
  5
656
330
321
100
AcDbEntity
  8
0
  6
CONTINUOUS
 62
     7
100
AcDbVertex
100
AcDb2dVertex
 10
7.010469717
 20
7.2922908909
 30
0.0
  0
VERTEX
  5
657
330
321
100
AcDbEntity
  8
0
  6
CONTINUOUS
 62
     7
100
AcDbVertex
100
AcDb2dVertex
 10
7.0253524246
 20
7.3287129895
 30
0.0
  0
VERTEX
  5
658
330
321
100
AcDbEntity
  8
0
  6
CONTINUOUS
 62
     7
100
AcDbVertex
100
AcDb2dVertex
 10
7.0414415719
 20
7.3649214971
 30
0.0
  0
VERTEX
  5
659
330
321
100
AcDbEntity
  8
0
  6
CONTINUOUS
 62
     7
100
AcDbVertex
100
AcDb2dVertex
 10
7.0586955174
 20
7.4008226999
 30
0.0
  0
VERTEX
  5
65A
330
321
100
AcDbEntity
  8
0
  6
CONTINUOUS
 62
     7
100
AcDbVertex
100
AcDb2dVertex
 10
7.077069605
 20
7.4363236794
 30
0.0
  0
VERTEX
  5
65B
330
321
100
AcDbEntity
  8
0
  6
CONTINUOUS
 62
     7
100
AcDbVertex
100
AcDb2dVertex
 10
7.0965162794
 20
7.4713325532
 30
0.0
  0
VERTEX
  5
65C
330
321
100
AcDbEntity
  8
0
  6
CONTINUOUS
 62
     7
100
AcDbVertex
100
AcDb2dVertex
 10
7.1169852093
 20
7.5057587123
 30
0.0
  0
VERTEX
  5
65D
330
321
100
AcDbEntity
  8
0
  6
CONTINUOUS
 62
     7
100
AcDbVertex
100
AcDb2dVertex
 10
7.1384234177
 20
7.5395130559
 30
0.0
  0
VERTEX
  5
65E
330
321
100
AcDbEntity
  8
0
  6
CONTINUOUS
 62
     7
100
AcDbVertex
100
AcDb2dVertex
 10
7.1607754188
 20
7.572508222
 30
0.0
  0
VERTEX
  5
65F
330
321
100
AcDbEntity
  8
0
  6
CONTINUOUS
 62
     7
100
AcDbVertex
100
AcDb2dVertex
 10
7.1839833618
 20
7.6046588135
 30
0.0
  0
VERTEX
  5
660
330
321
100
AcDbEntity
  8
0
  6
CONTINUOUS
 62
     7
100
AcDbVertex
100
AcDb2dVertex
 10
7.2079871806
 20
7.6358816193
 30
0.0
  0
VERTEX
  5
661
330
321
100
AcDbEntity
  8
0
  6
CONTINUOUS
 62
     7
100
AcDbVertex
100
AcDb2dVertex
 10
7.2327247493
 20
7.6660958293
 30
0.0
  0
VERTEX
  5
662
330
321
100
AcDbEntity
  8
0
  6
CONTINUOUS
 62
     7
100
AcDbVertex
100
AcDb2dVertex
 10
7.2581320428
 20
7.6952232441
 30
0.0
  0
VERTEX
  5
663
330
321
100
AcDbEntity
  8
0
  6
CONTINUOUS
 62
     7
100
AcDbVertex
100
AcDb2dVertex
 10
7.2841433028
 20
7.723188477
 30
0.0
  0
VERTEX
  5
664
330
321
100
AcDbEntity
  8
0
  6
CONTINUOUS
 62
     7
100
AcDbVertex
100
AcDb2dVertex
 10
7.3106912076
 20
7.7499191492
 30
0.0
  0
VERTEX
  5
665
330
321
100
AcDbEntity
  8
0
  6
CONTINUOUS
 62
     7
100
AcDbVertex
100
AcDb2dVertex
 10
7.3377070467
 20
7.7753460771
 30
0.0
  0
VERTEX
  5
666
330
321
100
AcDbEntity
  8
0
  6
CONTINUOUS
 62
     7
100
AcDbVertex
100
AcDb2dVertex
 10
7.3651208986
 20
7.7994034515
 30
0.0
  0
VERTEX
  5
667
330
321
100
AcDbEntity
  8
0
  6
CONTINUOUS
 62
     7
100
AcDbVertex
100
AcDb2dVertex
 10
7.3928618115
 20
7.8220290079
 30
0.0
  0
VERTEX
  5
668
330
321
100
AcDbEntity
  8
0
  6
CONTINUOUS
 62
     7
100
AcDbVertex
100
AcDb2dVertex
 10
7.4208579873
 20
7.8431641875
 30
0.0
  0
VERTEX
  5
669
330
321
100
AcDbEntity
  8
0
  6
CONTINUOUS
 62
     7
100
AcDbVertex
100
AcDb2dVertex
 10
7.4490369671
 20
7.8627542888
 30
0.0
  0
VERTEX
  5
66A
330
321
100
AcDbEntity
  8
0
  6
CONTINUOUS
 62
     7
100
AcDbVertex
100
AcDb2dVertex
 10
7.4773258188
 20
7.8807486093
 30
0.0
  0
VERTEX
  5
66B
330
321
100
AcDbEntity
  8
0
  6
CONTINUOUS
 62
     7
100
AcDbVertex
100
AcDb2dVertex
 10
7.5056513262
 20
7.8971005766
 30
0.0
  0
VERTEX
  5
66C
330
321
100
AcDbEntity
  8
0
  6
CONTINUOUS
 62
     7
100
AcDbVertex
100
AcDb2dVertex
 10
7.5339401779
 20
7.9117678691
 30
0.0
  0
VERTEX
  5
66D
330
321
100
AcDbEntity
  8
0
  6
CONTINUOUS
 62
     7
100
AcDbVertex
100
AcDb2dVertex
 10
7.5621191577
 20
7.9247125254
 30
0.0
  0
VERTEX
  5
66E
330
321
100
AcDbEntity
  8
0
  6
CONTINUOUS
 62
     7
100
AcDbVertex
100
AcDb2dVertex
 10
7.5901153335
 20
7.9359010423
 30
0.0
  0
VERTEX
  5
66F
330
321
100
AcDbEntity
  8
0
  6
CONTINUOUS
 62
     7
100
AcDbVertex
100
AcDb2dVertex
 10
7.6178562464
 20
7.9453044623
 30
0.0
  0
VERTEX
  5
670
330
321
100
AcDbEntity
  8
0
  6
CONTINUOUS
 62
     7
100
AcDbVertex
100
AcDb2dVertex
 10
7.6452700983
 20
7.9528984475
 30
0.0
  0
VERTEX
  5
671
330
321
100
AcDbEntity
  8
0
  6
CONTINUOUS
 62
     7
100
AcDbVertex
100
AcDb2dVertex
 10
7.6722859374
 20
7.9586633435
 30
0.0
  0
VERTEX
  5
672
330
321
100
AcDbEntity
  8
0
  6
CONTINUOUS
 62
     7
100
AcDbVertex
100
AcDb2dVertex
 10
7.6988338422
 20
7.9625842298
 30
0.0
  0
VERTEX
  5
673
330
321
100
AcDbEntity
  8
0
  6
CONTINUOUS
 62
     7
100
AcDbVertex
100
AcDb2dVertex
 10
7.7248451022
 20
7.9646509583
 30
0.0
  0
VERTEX
  5
674
330
321
100
AcDbEntity
  8
0
  6
CONTINUOUS
 62
     7
100
AcDbVertex
100
AcDb2dVertex
 10
7.7502523957
 20
7.9648581802
 30
0.0
  0
VERTEX
  5
675
330
321
100
AcDbEntity
  8
0
  6
CONTINUOUS
 62
     7
100
AcDbVertex
100
AcDb2dVertex
 10
7.7749899644
 20
7.963205359
 30
0.0
  0
VERTEX
  5
676
330
321
100
AcDbEntity
  8
0
  6
CONTINUOUS
 62
     7
100
AcDbVertex
100
AcDb2dVertex
 10
7.7989937832
 20
7.9596967726
 30
0.0
  0
VERTEX
  5
677
330
321
100
AcDbEntity
  8
0
  6
CONTINUOUS
 62
     7
100
AcDbVertex
100
AcDb2dVertex
 10
7.8222017262
 20
7.9543415017
 30
0.0
  0
VERTEX
  5
678
330
321
100
AcDbEntity
  8
0
  6
CONTINUOUS
 62
     7
100
AcDbVertex
100
AcDb2dVertex
 10
7.8445537273
 20
7.9471534067
 30
0.0
  0
VERTEX
  5
679
330
321
100
AcDbEntity
  8
0
  6
CONTINUOUS
 62
     7
100
AcDbVertex
100
AcDb2dVertex
 10
7.8659919357
 20
7.9381510917
 30
0.0
  0
VERTEX
  5
67A
330
321
100
AcDbEntity
  8
0
  6
CONTINUOUS
 62
     7
100
AcDbVertex
100
AcDb2dVertex
 10
7.8851573649
 20
7.9281153501
 30
0.0
  0
SEQEND
  5
67B
330
321
100
AcDbEntity
  8
0
  6
CONTINUOUS
 62
     7
  0
SPLINE
  5
322
330
1F
100
AcDbEntity
  8
0
  6
CONTINUOUS
 62
     7
100
AcDbSpline
210
0.0
220
0.0
230
1.0
 70
     8
 71
     3
 72
    21
 73
    17
 74
     0
 42
0.00000001
 43
0.00000001
 40
0.0
 40
0.0
 40
0.0
 40
0.0
 40
0.0720838995992919
 40
0.1463177623002185
 40
0.2183893359889394
 40
0.2924600785291451
 40
0.3664298724326898
 40
0.442232746512835
 40
0.5226545016970552
 40
0.6048715060221359
 40
0.6971612001290595
 40
0.7913179759253732
 40
0.8599762594861353
 40
0.9286457165069122
 40
0.9992751975287623
 40
1.0
 40
1.0
 40
1.0
 40
1.0
 10
7.171776972476013
 20
6.571409532688284
 30
0.0
 10
7.177905255913383
 20
6.567714110744229
 30
0.0
 10
7.190344604010281
 20
6.560213047779894
 30
0.0
 10
7.210113326628496
 20
6.546273145802703
 30
0.0
 10
7.230283059617802
 20
6.530792249916054
 30
0.0
 10
7.250326951358772
 20
6.514264810859145
 30
0.0
 10
7.270163115180825
 20
6.497060506199867
 30
0.0
 10
7.289679076592508
 20
6.479562887489187
 30
0.0
 10
7.308689758891811
 20
6.46224828613365
 30
0.0
 10
7.327499228505904
 20
6.44518286197631
 30
0.0
 10
7.345540107961956
 20
6.429244295847039
 30
0.0
 10
7.36084550359761
 20
6.416477010824551
 30
0.0
 10
7.373372011010734
 20
6.406787532631228
 30
0.0
 10
7.383471981133975
 20
6.399715052950846
 30
0.0
 10
7.389903044457781
 20
6.395503594481045
 30
0.0
 10
7.392693688649858
 20
6.3940358513197
 30
0.0
 10
7.392722035452709
 20
6.394020942279647
 30
0.0
  0
SPLINE
  5
323
330
1F
100
AcDbEntity
  8
0
  6
CONTINUOUS
 62
     7
100
AcDbSpline
210
0.0
220
0.0
230
1.0
 70
     8
 71
     3
 72
    19
 73
    15
 74
     0
 42
0.00000001
 43
0.00000001
 40
0.0
 40
0.0
 40
0.0
 40
0.0
 40
0.0143609413288193
 40
0.0894084754757277
 40
0.1644427844906757
 40
0.2787201801648982
 40
0.3959720917521693
 40
0.4921288062564604
 40
0.5909239307228906
 40
0.6871789805939251
 40
0.7869059642798839
 40
0.8731778996747463
 40
0.9622708123109509
 40
1.0
 40
1.0
 40
1.0
 40
1.0
 10
7.141051985949529
 20
6.54068933215301
 30
0.0
 10
7.140194476765195
 20
6.5412289457186
 30
0.0
 10
7.134855788504992
 20
6.544588476625438
 30
0.0
 10
7.127391119700131
 20
6.550653017447051
 30
0.0
 10
7.116266964698491
 20
6.560181080836369
 30
0.0
 10
7.107089255179013
 20
6.570591329248958
 30
0.0
 10
7.102205885574922
 20
6.580230968183392
 30
0.0
 10
7.102547559495692
 20
6.587321218048805
 30
0.0
 10
7.107301312639571
 20
6.591546252854587
 30
0.0
 10
7.116617537749746
 20
6.592773789747674
 30
0.0
 10
7.129614951177937
 20
6.590543023662947
 30
0.0
 10
7.145562769270923
 20
6.584919653287725
 30
0.0
 10
7.159842502570805
 20
6.578146089883522
 30
0.0
 10
7.169040574235338
 20
6.572954126072292
 30
0.0
 10
7.17177697247601
 20
6.571409532688282
 30
0.0
  0
LINE
  5
324
330
1F
100
AcDbEntity
  8
0
  6
CONTINUOUS
 62
     7
100
AcDbLine
 10
7.4383905404
 20
7.0602332651
 30
0.0
 11
7.4222484888
 21
7.050914657
 31
0.0
  0
LINE
  5
325
330
1F
100
AcDbEntity
  8
0
  6
CONTINUOUS
 62
     7
100
AcDbLine
 10
7.5150446543
 20
6.3543990497
 30
0.0
 11
7.5321052212
 21
6.3551272352
 31
0.0
  0
LINE
  5
326
330
1F
100
AcDbEntity
  8
0
  6
CONTINUOUS
 62
     7
100
AcDbLine
 10
7.5409669144
 20
6.9984509945
 30
0.0
 11
7.5150446543
 21
6.9973445709
 31
0.0
  0
ARC
  5
327
330
1F
100
AcDbEntity
  8
0
  6
CONTINUOUS
 62
     7
100
AcDbCircle
 10
8.1111892584
 20
6.8884415209
 30
0.0
 40
1.177643868235249
100
AcDbArc
 50
122.555440141
 51
177.4499363917
  0
POLYLINE
  5
328
330
1F
100
AcDbEntity
  8
0
  6
CONTINUOUS
 62
     7
100
AcDb2dPolyline
 66
     1
 10
0.0
 20
0.0
 30
0.0
  0
VERTEX
  5
67C
330
328
100
AcDbEntity
  8
0
  6
CONTINUOUS
 62
     7
100
AcDbVertex
100
AcDb2dVertex
 10
7.3430587483
 20
6.3405381267
 30
0.0
  0
VERTEX
  5
67D
330
328
100
AcDbEntity
  8
0
  6
CONTINUOUS
 62
     7
100
AcDbVertex
100
AcDb2dVertex
 10
7.3443188113
 20
6.3412054836
 30
0.0
  0
VERTEX
  5
67E
330
328
100
AcDbEntity
  8
0
  6
CONTINUOUS
 62
     7
100
AcDbVertex
100
AcDb2dVertex
 10
7.3454726812
 20
6.3418534739
 30
0.0
  0
SEQEND
  5
67F
330
328
100
AcDbEntity
  8
0
  6
CONTINUOUS
 62
     7
  0
LINE
  5
329
330
1F
100
AcDbEntity
  8
0
  6
CONTINUOUS
 62
     7
100
AcDbLine
 10
7.1991806511
 20
6.4777670427
 30
0.0
 11
7.1991806511
 21
6.5520079967
 31
0.0
  0
LINE
  5
32A
330
1F
100
AcDbEntity
  8
0
  6
CONTINUOUS
 62
     7
100
AcDbLine
 10
7.2548583505
 20
6.4085045141
 30
0.0
 11
7.1991806511
 21
6.4777670427
 31
0.0
  0
LINE
  5
32B
330
1F
100
AcDbEntity
  8
0
  6
CONTINUOUS
 62
     7
100
AcDbLine
 10
7.3105360498
 20
6.4134829394
 30
0.0
 11
7.2548583505
 21
6.4085045141
 31
0.0
  0
LINE
  5
32C
330
1F
100
AcDbEntity
  8
0
  6
CONTINUOUS
 62
     7
100
AcDbLine
 10
7.3105360498
 20
6.4605909566
 30
0.0
 11
7.3105360498
 21
6.4134829394
 31
0.0
  0
LINE
  5
32D
330
1F
100
AcDbEntity
  8
0
  6
CONTINUOUS
 62
     7
100
AcDbLine
 10
7.1991806511
 20
6.5520079967
 30
0.0
 11
7.2013312143
 21
6.5522002894
 31
0.0
  0
LINE
  5
32E
330
1F
100
AcDbEntity
  8
0
  6
CONTINUOUS
 62
     7
100
AcDbLine
 10
7.3105360498
 20
6.4406465657
 30
0.0
 11
7.2548583505
 21
6.4085045141
 31
0.0
  0
LINE
  5
32F
330
1F
100
AcDbEntity
  8
0
  6
CONTINUOUS
 62
     7
100
AcDbLine
 10
7.2550623647
 20
6.5100268693
 30
0.0
 11
7.1991806511
 21
6.4777670427
 31
0.0
  0
ARC
  5
330
330
1F
100
AcDbEntity
  8
0
  6
CONTINUOUS
 62
     8
100
AcDbCircle
 10
8.3120985493
 20
6.9807156609
 30
0.0
 40
0.2361143116803277
100
AcDbArc
 50
242.0356243543
 51
301.2316913263
  0
POLYLINE
  5
331
330
1F
100
AcDbEntity
  8
0
  6
CONTINUOUS
 62
     8
100
AcDb2dPolyline
 66
     1
 10
0.0
 20
0.0
 30
0.0
  0
VERTEX
  5
680
330
331
100
AcDbEntity
  8
0
  6
CONTINUOUS
 62
     8
100
AcDbVertex
100
AcDb2dVertex
 10
8.4683791935
 20
6.8502950467
 30
0.0
  0
VERTEX
  5
681
330
331
100
AcDbEntity
  8
0
  6
CONTINUOUS
 62
     8
100
AcDbVertex
100
AcDb2dVertex
 10
8.4682761082
 20
6.8506760039
 30
0.0
  0
VERTEX
  5
682
330
331
100
AcDbEntity
  8
0
  6
CONTINUOUS
 62
     8
100
AcDbVertex
100
AcDb2dVertex
 10
8.4644540296
 20
6.8608188403
 30
0.0
  0
VERTEX
  5
683
330
331
100
AcDbEntity
  8
0
  6
CONTINUOUS
 62
     8
100
AcDbVertex
100
AcDb2dVertex
 10
8.4586540567
 20
6.870644048
 30
0.0
  0
VERTEX
  5
684
330
331
100
AcDbEntity
  8
0
  6
CONTINUOUS
 62
     8
100
AcDbVertex
100
AcDb2dVertex
 10
8.450951801
 20
6.8800235403
 30
0.0
  0
VERTEX
  5
685
330
331
100
AcDbEntity
  8
0
  6
CONTINUOUS
 62
     8
100
AcDbVertex
100
AcDb2dVertex
 10
8.4414476732
 20
6.8888350412
 30
0.0
  0
VERTEX
  5
686
330
331
100
AcDbEntity
  8
0
  6
CONTINUOUS
 62
     8
100
AcDbVertex
100
AcDb2dVertex
 10
8.4302655741
 20
6.8969636793
 30
0.0
  0
VERTEX
  5
687
330
331
100
AcDbEntity
  8
0
  6
CONTINUOUS
 62
     8
100
AcDbVertex
100
AcDb2dVertex
 10
8.4175512795
 20
6.9043034853
 30
0.0
  0
VERTEX
  5
688
330
331
100
AcDbEntity
  8
0
  6
CONTINUOUS
 62
     8
100
AcDbVertex
100
AcDb2dVertex
 10
8.4034705397
 20
6.9107587737
 30
0.0
  0
VERTEX
  5
689
330
331
100
AcDbEntity
  8
0
  6
CONTINUOUS
 62
     8
100
AcDbVertex
100
AcDb2dVertex
 10
8.3882069186
 20
6.9162453899
 30
0.0
  0
VERTEX
  5
68A
330
331
100
AcDbEntity
  8
0
  6
CONTINUOUS
 62
     8
100
AcDbVertex
100
AcDb2dVertex
 10
8.371959401
 20
6.9206918075
 30
0.0
  0
VERTEX
  5
68B
330
331
100
AcDbEntity
  8
0
  6
CONTINUOUS
 62
     8
100
AcDbVertex
100
AcDb2dVertex
 10
8.3549397979
 20
6.9240400606
 30
0.0
  0
VERTEX
  5
68C
330
331
100
AcDbEntity
  8
0
  6
CONTINUOUS
 62
     8
100
AcDbVertex
100
AcDb2dVertex
 10
8.3373699861
 20
6.9262464996
 30
0.0
  0
VERTEX
  5
68D
330
331
100
AcDbEntity
  8
0
  6
CONTINUOUS
 62
     8
100
AcDbVertex
100
AcDb2dVertex
 10
8.3194790148
 20
6.9272823602
 30
0.0
  0
VERTEX
  5
68E
330
331
100
AcDbEntity
  8
0
  6
CONTINUOUS
 62
     8
100
AcDbVertex
100
AcDb2dVertex
 10
8.3015001202
 20
6.9271341385
 30
0.0
  0
VERTEX
  5
68F
330
331
100
AcDbEntity
  8
0
  6
CONTINUOUS
 62
     8
100
AcDbVertex
100
AcDb2dVertex
 10
8.2836676848
 20
6.9258037666
 30
0.0
  0
VERTEX
  5
690
330
331
100
AcDbEntity
  8
0
  6
CONTINUOUS
 62
     8
100
AcDbVertex
100
AcDb2dVertex
 10
8.2662141815
 20
6.923308588
 30
0.0
  0
VERTEX
  5
691
330
331
100
AcDbEntity
  8
0
  6
CONTINUOUS
 62
     8
100
AcDbVertex
100
AcDb2dVertex
 10
8.2493671435
 20
6.9196811312
 30
0.0
  0
VERTEX
  5
692
330
331
100
AcDbEntity
  8
0
  6
CONTINUOUS
 62
     8
100
AcDbVertex
100
AcDb2dVertex
 10
8.2333461977
 20
6.9149686857
 30
0.0
  0
VERTEX
  5
693
330
331
100
AcDbEntity
  8
0
  6
CONTINUOUS
 62
     8
100
AcDbVertex
100
AcDb2dVertex
 10
8.2183602016
 20
6.9092326853
 30
0.0
  0
VERTEX
  5
694
330
331
100
AcDbEntity
  8
0
  6
CONTINUOUS
 62
     8
100
AcDbVertex
100
AcDb2dVertex
 10
8.2046045206
 20
6.9025479076
 30
0.0
  0
VERTEX
  5
695
330
331
100
AcDbEntity
  8
0
  6
CONTINUOUS
 62
     8
100
AcDbVertex
100
AcDb2dVertex
 10
8.192258481
 20
6.8950014989
 30
0.0
  0
VERTEX
  5
696
330
331
100
AcDbEntity
  8
0
  6
CONTINUOUS
 62
     8
100
AcDbVertex
100
AcDb2dVertex
 10
8.1814830324
 20
6.8866918382
 30
0.0
  0
VERTEX
  5
697
330
331
100
AcDbEntity
  8
0
  6
CONTINUOUS
 62
     8
100
AcDbVertex
100
AcDb2dVertex
 10
8.1724186492
 20
6.8777272546
 30
0.0
  0
VERTEX
  5
698
330
331
100
AcDbEntity
  8
0
  6
CONTINUOUS
 62
     8
100
AcDbVertex
100
AcDb2dVertex
 10
8.1651834995
 20
6.8682246152
 30
0.0
  0
VERTEX
  5
699
330
331
100
AcDbEntity
  8
0
  6
CONTINUOUS
 62
     8
100
AcDbVertex
100
AcDb2dVertex
 10
8.1598719045
 20
6.8583078014
 30
0.0
  0
VERTEX
  5
69A
330
331
100
AcDbEntity
  8
0
  6
CONTINUOUS
 62
     8
100
AcDbVertex
100
AcDb2dVertex
 10
8.156553109
 20
6.8481060941
 30
0.0
  0
VERTEX
  5
69B
330
331
100
AcDbEntity
  8
0
  6
CONTINUOUS
 62
     8
100
AcDbVertex
100
AcDb2dVertex
 10
8.1552703785
 20
6.8377524881
 30
0.0
  0
VERTEX
  5
69C
330
331
100
AcDbEntity
  8
0
  6
CONTINUOUS
 62
     8
100
AcDbVertex
100
AcDb2dVertex
 10
8.1560404355
 20
6.8273819584
 30
0.0
  0
VERTEX
  5
69D
330
331
100
AcDbEntity
  8
0
  6
CONTINUOUS
 62
     8
100
AcDbVertex
100
AcDb2dVertex
 10
8.158853241
 20
6.8171297008
 30
0.0
  0
VERTEX
  5
69E
330
331
100
AcDbEntity
  8
0
  6
CONTINUOUS
 62
     8
100
AcDbVertex
100
AcDb2dVertex
 10
8.1636721259
 20
6.8071293693
 30
0.0
  0
VERTEX
  5
69F
330
331
100
AcDbEntity
  8
0
  6
CONTINUOUS
 62
     8
100
AcDbVertex
100
AcDb2dVertex
 10
8.1704342686
 20
6.7975113332
 30
0.0
  0
VERTEX
  5
6A0
330
331
100
AcDbEntity
  8
0
  6
CONTINUOUS
 62
     8
100
AcDbVertex
100
AcDb2dVertex
 10
8.1790515142
 20
6.7884009786
 30
0.0
  0
VERTEX
  5
6A1
330
331
100
AcDbEntity
  8
0
  6
CONTINUOUS
 62
     8
100
AcDbVertex
100
AcDb2dVertex
 10
8.1894115237
 20
6.7799170728
 30
0.0
  0
VERTEX
  5
6A2
330
331
100
AcDbEntity
  8
0
  6
CONTINUOUS
 62
     8
100
AcDbVertex
100
AcDb2dVertex
 10
8.2013792387
 20
6.7721702164
 30
0.0
  0
VERTEX
  5
6A3
330
331
100
AcDbEntity
  8
0
  6
CONTINUOUS
 62
     8
100
AcDbVertex
100
AcDb2dVertex
 10
8.2013792387
 20
6.7721702164
 30
0.0
  0
SEQEND
  5
6A4
330
331
100
AcDbEntity
  8
0
  6
CONTINUOUS
 62
     8
  0
ARC
  5
332
330
1F
100
AcDbEntity
  8
0
  6
CONTINUOUS
 62
     8
100
AcDbCircle
 10
8.2275842304
 20
6.8356447288
 30
0.0
 40
0.082489640031051
100
AcDbArc
 50
185.0263436272
 51
246.2937973304
  0
ARC
  5
333
330
1F
100
AcDbEntity
  8
0
  6
CONTINUOUS
 62
     8
100
AcDbCircle
 10
8.3133458176
 20
6.9905858246
 30
0.0
 40
0.2593452685449822
100
AcDbArc
 50
242.7055441418
 51
293.3985771957
  0
ARC
  5
334
330
1F
100
AcDbEntity
  8
0
  6
CONTINUOUS
 62
     8
100
AcDbCircle
 10
8.2909737028
 20
5.9841471856
 30
0.0
 40
0.0931439482159401
100
AcDbArc
 50
226.7428579464
 51
253.3441739934
  0
ARC
  5
335
330
1F
100
AcDbEntity
  8
0
  6
CONTINUOUS
 62
     8
100
AcDbCircle
 10
7.3682051661
 20
6.5456890971
 30
0.0
 40
0.2225585058604645
100
AcDbArc
 50
170.2686540346
 51
239.3834531578
  0
POLYLINE
  5
336
330
1F
100
AcDbEntity
  8
0
  6
CONTINUOUS
 62
     8
100
AcDb2dPolyline
 66
     1
 10
0.0
 20
0.0
 30
0.0
  0
VERTEX
  5
6A5
330
336
100
AcDbEntity
  8
0
  6
CONTINUOUS
 62
     8
100
AcDbVertex
100
AcDb2dVertex
 10
7.3660935304
 20
6.4125572197
 30
0.0
  0
VERTEX
  5
6A6
330
336
100
AcDbEntity
  8
0
  6
CONTINUOUS
 62
     8
100
AcDbVertex
100
AcDb2dVertex
 10
7.3658052675
 20
6.4076931625
 30
0.0
  0
VERTEX
  5
6A7
330
336
100
AcDbEntity
  8
0
  6
CONTINUOUS
 62
     8
100
AcDbVertex
100
AcDb2dVertex
 10
7.3639958347
 20
6.3942051692
 30
0.0
  0
VERTEX
  5
6A8
330
336
100
AcDbEntity
  8
0
  6
CONTINUOUS
 62
     8
100
AcDbVertex
100
AcDb2dVertex
 10
7.3607636279
 20
6.3818714342
 30
0.0
  0
VERTEX
  5
6A9
330
336
100
AcDbEntity
  8
0
  6
CONTINUOUS
 62
     8
100
AcDbVertex
100
AcDb2dVertex
 10
7.3561507839
 20
6.3708527465
 30
0.0
  0
VERTEX
  5
6AA
330
336
100
AcDbEntity
  8
0
  6
CONTINUOUS
 62
     8
100
AcDbVertex
100
AcDb2dVertex
 10
7.3502174381
 20
6.3612927515
 30
0.0
  0
VERTEX
  5
6AB
330
336
100
AcDbEntity
  8
0
  6
CONTINUOUS
 62
     8
100
AcDbVertex
100
AcDb2dVertex
 10
7.3430409407
 20
6.3533160784
 30
0.0
  0
VERTEX
  5
6AC
330
336
100
AcDbEntity
  8
0
  6
CONTINUOUS
 62
     8
100
AcDbVertex
100
AcDb2dVertex
 10
7.3347148484
 20
6.3470267154
 30
0.0
  0
VERTEX
  5
6AD
330
336
100
AcDbEntity
  8
0
  6
CONTINUOUS
 62
     8
100
AcDbVertex
100
AcDb2dVertex
 10
7.3253477046
 20
6.3425066538
 30
0.0
  0
VERTEX
  5
6AE
330
336
100
AcDbEntity
  8
0
  6
CONTINUOUS
 62
     8
100
AcDbVertex
100
AcDb2dVertex
 10
7.3150616242
 20
6.3398148197
 30
0.0
  0
VERTEX
  5
6AF
330
336
100
AcDbEntity
  8
0
  6
CONTINUOUS
 62
     8
100
AcDbVertex
100
AcDb2dVertex
 10
7.3039907021
 20
6.3389863051
 30
0.0
  0
VERTEX
  5
6B0
330
336
100
AcDbEntity
  8
0
  6
CONTINUOUS
 62
     8
100
AcDbVertex
100
AcDb2dVertex
 10
7.2922792646
 20
6.3400319111
 30
0.0
  0
VERTEX
  5
6B1
330
336
100
AcDbEntity
  8
0
  6
CONTINUOUS
 62
     8
100
AcDbVertex
100
AcDb2dVertex
 10
7.2800799883
 20
6.3429380065
 30
0.0
  0
VERTEX
  5
6B2
330
336
100
AcDbEntity
  8
0
  6
CONTINUOUS
 62
     8
100
AcDbVertex
100
AcDb2dVertex
 10
7.2675519093
 20
6.3476667061
 30
0.0
  0
VERTEX
  5
6B3
330
336
100
AcDbEntity
  8
0
  6
CONTINUOUS
 62
     8
100
AcDbVertex
100
AcDb2dVertex
 10
7.2548583505
 20
6.3541563638
 30
0.0
  0
SEQEND
  5
6B4
330
336
100
AcDbEntity
  8
0
  6
CONTINUOUS
 62
     8
  0
ARC
  5
337
330
1F
100
AcDbEntity
  8
0
  6
CONTINUOUS
 62
     8
100
AcDbCircle
 10
7.2991488646
 20
6.4074263754
 30
0.0
 40
0.0802851256609952
100
AcDbArc
 50
305.2392016665
 51
356.6388494414
  0
ENDSEC
  0
SECTION
  2
OBJECTS
  0
DICTIONARY
  5
C
330
0
100
AcDbDictionary
  3
ACAD_GROUP
350
D
  3
ACAD_LAYOUT
350
1A
  3
ACAD_MLEADERSTYLE
350
33A
  3
ACAD_MLINESTYLE
350
17
  3
ACAD_PLOTSETTINGS
350
19
  3
ACAD_SCALELIST
350
6F
  3
ACAD_VISUALSTYLE
350
2A
  3
ACDBVARIABLEDICTIONARY
350
338
1001
ACAD
1000
TREAT_AS_HARD
1070
     0
  0
DICTIONARY
  5
D
102
{ACAD_REACTORS
330
C
102
}
330
C
100
AcDbDictionary
1001
ACAD
1000
TREAT_AS_HARD
1070
     0
  0
DICTIONARY
  5
1A
102
{ACAD_REACTORS
330
C
102
}
330
C
100
AcDbDictionary
1001
ACAD
1000
TREAT_AS_HARD
1070
     0
  0
DICTIONARY
  5
33A
102
{ACAD_REACTORS
330
C
102
}
330
C
100
AcDbDictionary
1001
ACAD
1000
TREAT_AS_HARD
1070
     0
  0
DICTIONARY
  5
17
102
{ACAD_REACTORS
330
C
102
}
330
C
100
AcDbDictionary
  3
STANDARD
350
18
1001
ACAD
1000
TREAT_AS_HARD
1070
     0
  0
DICTIONARY
  5
19
102
{ACAD_REACTORS
330
C
102
}
330
C
100
AcDbDictionary
1001
ACAD
1000
TREAT_AS_HARD
1070
     0
  0
DICTIONARY
  5
6F
102
{ACAD_REACTORS
330
C
102
}
330
C
100
AcDbDictionary
  3
A0
350
70
  3
A1
350
71
  3
A2
350
72
  3
A3
350
73
  3
A4
350
74
  3
A5
350
75
  3
A6
350
76
  3
A7
350
77
  3
A8
350
78
  3
A9
350
79
  3
B0
350
7A
  3
B1
350
7B
  3
B2
350
7C
  3
B3
350
7D
  3
B4
350
7E
  3
B5
350
7F
  3
B6
350
80
  3
B7
350
81
  3
B8
350
82
  3
B9
350
83
  3
C0
350
84
  3
C1
350
85
  3
C2
350
86
  3
C3
350
87
  3
C4
350
88
  3
C5
350
89
  3
C6
350
8A
  3
C7
350
8B
  3
C8
350
8C
  3
C9
350
8D
  3
D0
350
8E
  3
D1
350
8F
  3
D2
350
90
1001
ACAD
1000
TREAT_AS_HARD
1070
     0
  0
DICTIONARY
  5
2A
102
{ACAD_REACTORS
330
C
102
}
330
C
100
AcDbDictionary
  3
2DWIREFRAME
350
2F
  3
3D_HIDDEN
350
31
  3
3DWIREFRAME
350
30
  3
BASIC
350
32
  3
BRIGHTEN
350
36
  3
COLORCHANGE
350
3A
  3
CONCEPTUAL
350
34
  3
DIM
350
35
  3
FACEPATTERN
350
39
  3
FLAT
350
2B
  3
FLATWITHEDGES
350
2C
  3
GOURAUD
350
2D
  3
GOURAUDWITHEDGES
350
2E
  3
LINEPATTERN
350
38
  3
REALISTIC
350
33
  3
THICKEN
350
37
1001
ACAD
1000
TREAT_AS_HARD
1070
     0
  0
DICTIONARY
  5
338
102
{ACAD_REACTORS
330
C
102
}
330
C
100
AcDbDictionary
  3
CANNOSCALE
350
33B
  3
DIMASSOC
350
33C
  3
HIDETEXT
350
33D
1001
ACAD
1000
TREAT_AS_HARD
1070
     0
  0
MLINESTYLE
  5
18
102
{ACAD_REACTORS
330
17
102
}
330
17
100
AcDbMlineStyle
  2
Standard
 70
     0
  3

 62
   256
 51
90.0
 52
90.0
 71
     2
 49
0.5
 62
   256
  6
BYLAYER
 49
-0.5
 62
   256
  6
BYLAYER
  0
ACAD_PROXY_OBJECT
  5
70
102
{ACAD_REACTORS
330
6F
102
}
330
6F
100
AcDbZombieObject
 90
      499
 91
      502
 93
       41
310
903313A31580
  0
ACAD_PROXY_OBJECT
  5
71
102
{ACAD_REACTORS
330
6F
102
}
330
6F
100
AcDbZombieObject
 90
      499
 91
      502
 93
      105
310
903313A324000000000000004000
  0
ACAD_PROXY_OBJECT
  5
72
102
{ACAD_REACTORS
330
6F
102
}
330
6F
100
AcDbZombieObject
 90
      499
 91
      502
 93
      105
310
903313A344000000000000104000
  0
ACAD_PROXY_OBJECT
  5
73
102
{ACAD_REACTORS
330
6F
102
}
330
6F
100
AcDbZombieObject
 90
      499
 91
      502
 93
      105
310
903313A354000000000000144000
  0
ACAD_PROXY_OBJECT
  5
74
102
{ACAD_REACTORS
330
6F
102
}
330
6F
100
AcDbZombieObject
 90
      499
 91
      502
 93
      105
310
903313A384000000000000204000
  0
ACAD_PROXY_OBJECT
  5
75
102
{ACAD_REACTORS
330
6F
102
}
330
6F
100
AcDbZombieObject
 90
      499
 91
      502
 93
      113
310
904313A31304000000000000244000
  0
ACAD_PROXY_OBJECT
  5
76
102
{ACAD_REACTORS
330
6F
102
}
330
6F
100
AcDbZombieObject
 90
      499
 91
      502
 93
      113
310
904313A31364000000000000304000
  0
ACAD_PROXY_OBJECT
  5
77
102
{ACAD_REACTORS
330
6F
102
}
330
6F
100
AcDbZombieObject
 90
      499
 91
      502
 93
      113
310
904313A32304000000000000344000
  0
ACAD_PROXY_OBJECT
  5
78
102
{ACAD_REACTORS
330
6F
102
}
330
6F
100
AcDbZombieObject
 90
      499
 91
      502
 93
      113
310
904313A333040000000000003E4000
  0
ACAD_PROXY_OBJECT
  5
79
102
{ACAD_REACTORS
330
6F
102
}
330
6F
100
AcDbZombieObject
 90
      499
 91
      502
 93
      113
310
904313A34304000000000000444000
  0
ACAD_PROXY_OBJECT
  5
7A
102
{ACAD_REACTORS
330
6F
102
}
330
6F
100
AcDbZombieObject
 90
      499
 91
      502
 93
      113
310
904313A35304000000000000494000
  0
ACAD_PROXY_OBJECT
  5
7B
102
{ACAD_REACTORS
330
6F
102
}
330
6F
100
AcDbZombieObject
 90
      499
 91
      502
 93
      121
310
905313A3130304000000000000594000
  0
ACAD_PROXY_OBJECT
  5
7C
102
{ACAD_REACTORS
330
6F
102
}
330
6F
100
AcDbZombieObject
 90
      499
 91
      502
 93
      105
310
903323A310000000000000010100
  0
ACAD_PROXY_OBJECT
  5
7D
102
{ACAD_REACTORS
330
6F
102
}
330
6F
100
AcDbZombieObject
 90
      499
 91
      502
 93
      105
310
903343A310000000000000410100
  0
ACAD_PROXY_OBJECT
  5
7E
102
{ACAD_REACTORS
330
6F
102
}
330
6F
100
AcDbZombieObject
 90
      499
 91
      502
 93
      105
310
903383A310000000000000810100
  0
ACAD_PROXY_OBJECT
  5
7F
102
{ACAD_REACTORS
330
6F
102
}
330
6F
100
AcDbZombieObject
 90
      499
 91
      502
 93
      113
310
90431303A310000000000000910100
  0
ACAD_PROXY_OBJECT
  5
80
102
{ACAD_REACTORS
330
6F
102
}
330
6F
100
AcDbZombieObject
 90
      499
 91
      502
 93
      121
310
9053130303A310000000000001650100
  0
ACAD_PROXY_OBJECT
  5
81
102
{ACAD_REACTORS
330
6F
102
}
330
6F
100
AcDbZombieObject
 90
      499
 91
      502
 93
      257
310
90E312F31323822203D2031272D3022000000000000200FC000000000000284000
  0
ACAD_PROXY_OBJECT
  5
82
102
{ACAD_REACTORS
330
6F
102
}
330
6F
100
AcDbZombieObject
 90
      499
 91
      502
 93
      249
310
90D312F363422203D2031272D3022000000000000240FC000000000000284000
  0
ACAD_PROXY_OBJECT
  5
83
102
{ACAD_REACTORS
330
6F
102
}
330
6F
100
AcDbZombieObject
 90
      499
 91
      502
 93
      249
310
90D312F333222203D2031272D3022000000000000280FC000000000000284000
  0
ACAD_PROXY_OBJECT
  5
84
102
{ACAD_REACTORS
330
6F
102
}
330
6F
100
AcDbZombieObject
 90
      499
 91
      502
 93
      249
310
90D312F313622203D2031272D30220000000000002C0FC000000000000284000
  0
ACAD_PROXY_OBJECT
  5
85
102
{ACAD_REACTORS
330
6F
102
}
330
6F
100
AcDbZombieObject
 90
      499
 91
      502
 93
      249
310
90D332F333222203D2031272D30220000000000002E0FC000000000000284000
  0
ACAD_PROXY_OBJECT
  5
86
102
{ACAD_REACTORS
330
6F
102
}
330
6F
100
AcDbZombieObject
 90
      499
 91
      502
 93
      241
310
90C312F3822203D2031272D3022000000000000300FC000000000000284000
  0
ACAD_PROXY_OBJECT
  5
87
102
{ACAD_REACTORS
330
6F
102
}
330
6F
100
AcDbZombieObject
 90
      499
 91
      502
 93
      249
310
90D332F313622203D2031272D3022000000000000320FC000000000000284000
  0
ACAD_PROXY_OBJECT
  5
88
102
{ACAD_REACTORS
330
6F
102
}
330
6F
100
AcDbZombieObject
 90
      499
 91
      502
 93
      241
310
90C312F3422203D2031272D3022000000000000340FC000000000000284000
  0
ACAD_PROXY_OBJECT
  5
89
102
{ACAD_REACTORS
330
6F
102
}
330
6F
100
AcDbZombieObject
 90
      499
 91
      502
 93
      241
310
90C332F3822203D2031272D3022000000000000360FC000000000000284000
  0
ACAD_PROXY_OBJECT
  5
8A
102
{ACAD_REACTORS
330
6F
102
}
330
6F
100
AcDbZombieObject
 90
      499
 91
      502
 93
      241
310
90C312F3222203D2031272D3022000000000000380FC000000000000284000
  0
ACAD_PROXY_OBJECT
  5
8B
102
{ACAD_REACTORS
330
6F
102
}
330
6F
100
AcDbZombieObject
 90
      499
 91
      502
 93
      241
310
90C332F3422203D2031272D30220000000000003A0FC000000000000284000
  0
ACAD_PROXY_OBJECT
  5
8C
102
{ACAD_REACTORS
330
6F
102
}
330
6F
100
AcDbZombieObject
 90
      499
 91
      502
 93
      161
310
90A3122203D2031272D30224000000000000284000
  0
ACAD_PROXY_OBJECT
  5
8D
102
{ACAD_REACTORS
330
6F
102
}
330
6F
100
AcDbZombieObject
 90
      499
 91
      502
 93
      257
310
90E312D312F3222203D2031272D30220000000000003E0FC000000000000284000
  0
ACAD_PROXY_OBJECT
  5
8E
102
{ACAD_REACTORS
330
6F
102
}
330
6F
100
AcDbZombieObject
 90
      499
 91
      502
 93
      225
310
90A3322203D2031272D302200000000000002100000000000000284000
  0
ACAD_PROXY_OBJECT
  5
8F
102
{ACAD_REACTORS
330
6F
102
}
330
6F
100
AcDbZombieObject
 90
      499
 91
      502
 93
      225
310
90A3622203D2031272D302200000000000006100000000000000284000
  0
ACAD_PROXY_OBJECT
  5
90
102
{ACAD_REACTORS
330
6F
102
}
330
6F
100
AcDbZombieObject
 90
      499
 91
      502
 93
      249
310
90D31272D3022203D2031272D30220000000000000A100000000000000284000
  0
ACAD_PROXY_OBJECT
  5
2F
102
{ACAD_REACTORS
330
2A
102
}
330
2A
100
AcDbZombieObject
 90
      499
 91
      501
 93
      436
310
42CC9915DA5C99599C985B595049028333333333333E3BF0000000000000FB0107901411070040501600405405064090741402480A0340
1001
ACAD
1000
AcDbSavedByObjectVersion
1070
     0
  0
ACAD_PROXY_OBJECT
  5
31
102
{ACAD_REACTORS
330
2A
102
}
330
2A
100
AcDbZombieObject
 90
      499
 91
      501
 93
      500
310
424CD108121A5919195B90640502408333333333333E3BF0000000000000FB01079024090700405020000000000001110200405405064090740C02480A0340
1001
ACAD
1000
AcDbSavedByObjectVersion
1070
     0
  0
ACAD_PROXY_OBJECT
  5
30
102
{ACAD_REACTORS
330
2A
102
}
330
2A
100
AcDbZombieObject
 90
      499
 91
      501
 93
      436
310
42CCD915DA5C99599C985B595059028333333333333E3BF0000000000000FB0107901411070040501600405405064090741402480A0340
1001
ACAD
1000
AcDbSavedByObjectVersion
1070
     0
  0
ACAD_PROXY_OBJECT
  5
32
102
{ACAD_REACTORS
330
2A
102
}
330
2A
100
AcDbZombieObject
 90
      499
 91
      501
 93
      388
310
4150985CDA58D07406404333333333333E3BF0000000000000FB0107A41107004050150841D405064090741402480A0350
1001
ACAD
1000
AcDbSavedByObjectVersion
1070
     0
  0
ACAD_PROXY_OBJECT
  5
36
102
{ACAD_REACTORS
330
2A
102
}
330
2A
100
AcDbZombieObject
 90
      499
 91
      501
 93
      428
310
42109C9A59DA1D195B90C409028333333333333E3BF0000000000000FB010790141107004050150841D405064090741402480A029950
1001
ACAD
1000
AcDbSavedByObjectVersion
1070
     0
  0
ACAD_PROXY_OBJECT
  5
3A
102
{ACAD_REACTORS
330
2A
102
}
330
2A
100
AcDbZombieObject
 90
      499
 91
      501
 93
      452
310
42D0DBDB1BDC90DA185B99D95104090240C333333333333E3BF0000000000000FB0108901411070040501508421405064090741402480A0350
1001
ACAD
1000
AcDbSavedByObjectVersion
1070
     0
  0
ACAD_PROXY_OBJECT
  5
34
102
{ACAD_REACTORS
330
2A
102
}
330
2A
100
AcDbZombieObject
 90
      499
 91
      501
 93
      500
310
4290DBDB98D95C1D1D585B10940D028333333333333E3BF0000000000000FB0107902409070040501000000000000111010841D405064090740C02480A0340
1001
ACAD
1000
AcDbSavedByObjectVersion
1070
     0
  0
ACAD_PROXY_OBJECT
  5
35
102
{ACAD_REACTORS
330
2A
102
}
330
2A
100
AcDbZombieObject
 90
      499
 91
      501
 93
      412
310
40D11A5B50B409028333333333333E3BF0000000000000FB010790141107004050150841D405064090741402480A02677FFFFFD0
1001
ACAD
1000
AcDbSavedByObjectVersion
1070
     0
  0
ACAD_PROXY_OBJECT
  5
39
102
{ACAD_REACTORS
330
2A
102
}
330
2A
100
AcDbZombieObject
 90
      499
 91
      501
 93
      444
310
42D19858D95C185D1D195C9B90F409028333333333333E3BF0000000000000FB010790141107004050150841D405064090741402480A0350
1001
ACAD
1000
AcDbSavedByObjectVersion
1070
     0
  0
ACAD_PROXY_OBJECT
  5
2B
102
{ACAD_REACTORS
330
2A
102
}
330
2A
100
AcDbZombieObject
 90
      499
 91
      501
 93
      388
310
41119B185D240901404333333333333E3BF0000000000000F9010740A41107004050150841D405064090741402480A1B50
1001
ACAD
1000
AcDbSavedByObjectVersion
1070
     0
  0
ACAD_PROXY_OBJECT
  5
2C
102
{ACAD_REACTORS
330
2A
102
}
330
2A
100
AcDbZombieObject
 90
      499
 91
      501
 93
      476
310
43519B185D15DA5D1A115919D95CD0140901404333333333333E3BF0000000000000F9010740901411070040501600405405064090741402480A1B50
1001
ACAD
1000
AcDbSavedByObjectVersion
1070
     0
  0
ACAD_PROXY_OBJECT
  5
2D
102
{ACAD_REACTORS
330
2A
102
}
330
2A
100
AcDbZombieObject
 90
      499
 91
      501
 93
      412
310
41D1DBDD5C985D5910240902404333333333333E3BF0000000000000F9010740A411070040501641D405064090741402480A1B50
1001
ACAD
1000
AcDbSavedByObjectVersion
1070
     0
  0
ACAD_PROXY_OBJECT
  5
2E
102
{ACAD_REACTORS
330
2A
102
}
330
2A
100
AcDbZombieObject
 90
      499
 91
      501
 93
      500
310
4411DBDD5C985D5915DA5D1A115919D95CD0340902404333333333333E3BF0000000000000F9010740901411070040501600405405064090741402480A1B50
1001
ACAD
1000
AcDbSavedByObjectVersion
1070
     0
  0
ACAD_PROXY_OBJECT
  5
38
102
{ACAD_REACTORS
330
2A
102
}
330
2A
100
AcDbZombieObject
 90
      499
 91
      501
 93
      444
310
42D31A5B995C185D1D195C9B90E409028333333333333E3BF0000000000000FB010790141107004050750841D405064090741402483A0350
1001
ACAD
1000
AcDbSavedByObjectVersion
1070
     0
  0
ACAD_PROXY_OBJECT
  5
33
102
{ACAD_REACTORS
330
2A
102
}
330
2A
100
AcDbZombieObject
 90
      499
 91
      501
 93
      420
310
425499585B1A5CDD1A58D08409028333333333333E3BF0000000000000FB01079019070040501508421405064090741402480A1B40
1001
ACAD
1000
AcDbSavedByObjectVersion
1070
     0
  0
ACAD_PROXY_OBJECT
  5
37
102
{ACAD_REACTORS
330
2A
102
}
330
2A
100
AcDbZombieObject
 90
      499
 91
      501
 93
      412
310
41D51A1A58DAD95B90D409028333333333333E3BF0000000000000FB010790141107004050150C41D405064090741402480A0350
1001
ACAD
1000
AcDbSavedByObjectVersion
1070
     0
  0
DICTIONARYVAR
  5
33B
102
{ACAD_REACTORS
330
338
102
}
330
338
100
DictionaryVariables
280
     0
  1
1:1
  0
DICTIONARYVAR
  5
33C
102
{ACAD_REACTORS
330
338
102
}
330
338
100
DictionaryVariables
280
     0
  1
2
  0
DICTIONARYVAR
  5
33D
102
{ACAD_REACTORS
330
338
102
}
330
338
100
DictionaryVariables
280
     0
  1
1
  0
ENDSEC
  0
EOF
