  0
SECTION
  2
HEADER
  9
$ACADVER
  1
AC1012
  9
$DWGCODEPAGE
  3
ansi_1252
  9
$INSBASE
 10
0.0
 20
0.0
 30
0.0
  9
$EXTMIN
 10
0.0
 20
0.0
 30
0.0
  9
$EXTMAX
 10
11.0
 20
8.5
 30
0.0
  9
$LIMMIN
 10
0.0
 20
0.0
  9
$LIMMAX
 10
11.0
 20
8.5
  9
$ORTHOMODE
 70
     0
  9
$REGENMODE
 70
     1
  9
$FILLMODE
 70
     1
  9
$QTEXTMODE
 70
     0
  9
$MIRRTEXT
 70
     1
  9
$DRAGMODE
 70
     2
  9
$LTSCALE
 40
1.0
  9
$OSMODE
 70
    37
  9
$ATTMODE
 70
     1
  9
$TEXTSIZE
 40
0.125
  9
$TRACEWID
 40
0.05
  9
$TEXTSTYLE
  7
STANDARD
  9
$CLAYER
  8
0
  9
$CELTYPE
  6
BYLAYER
  9
$CECOLOR
 62
   256
  9
$CELTSCALE
 40
1.0
  9
$DELOBJ
 70
     1
  9
$DISPSILH
 70
     0
  9
$DIMSCALE
 40
1.0
  9
$DIMASZ
 40
0.13
  9
$DIMEXO
 40
0.05
  9
$DIMDLI
 40
0.38
  9
$DIMRND
 40
0.0
  9
$DIMDLE
 40
0.0
  9
$DIMEXE
 40
0.125
  9
$DIMTP
 40
0.0
  9
$DIMTM
 40
0.0
  9
$DIMTXT
 40
0.125
  9
$DIMCEN
 40
0.09
  9
$DIMTSZ
 40
0.0
  9
$DIMTOL
 70
     0
  9
$DIMLIM
 70
     0
  9
$DIMTIH
 70
     1
  9
$DIMTOH
 70
     1
  9
$DIMSE1
 70
     0
  9
$DIMSE2
 70
     0
  9
$DIMTAD
 70
     0
  9
$DIMZIN
 70
     0
  9
$DIMBLK
  1

  9
$DIMASO
 70
     1
  9
$DIMSHO
 70
     1
  9
$DIMPOST
  1

  9
$DIMAPOST
  1

  9
$DIMALT
 70
     0
  9
$DIMALTD
 70
     2
  9
$DIMALTF
 40
25.4
  9
$DIMLFAC
 40
1.0
  9
$DIMTOFL
 70
     0
  9
$DIMTVP
 40
0.0
  9
$DIMTIX
 70
     0
  9
$DIMSOXD
 70
     0
  9
$DIMSAH
 70
     0
  9
$DIMBLK1
  1

  9
$DIMBLK2
  1

  9
$DIMSTYLE
  2
STANDARD
  9
$DIMCLRD
 70
     0
  9
$DIMCLRE
 70
     0
  9
$DIMCLRT
 70
     0
  9
$DIMTFAC
 40
1.0
  9
$DIMGAP
 40
0.06
  9
$DIMJUST
 70
     0
  9
$DIMSD1
 70
     0
  9
$DIMSD2
 70
     0
  9
$DIMTOLJ
 70
     1
  9
$DIMTZIN
 70
     0
  9
$DIMALTZ
 70
     0
  9
$DIMALTTZ
 70
     0
  9
$DIMFIT
 70
     3
  9
$DIMUPT
 70
     0
  9
$DIMUNIT
 70
     2
  9
$DIMDEC
 70
     3
  9
$DIMTDEC
 70
     3
  9
$DIMALTU
 70
     2
  9
$DIMALTTD
 70
     2
  9
$DIMTXSTY
  7
STANDARD
  9
$DIMAUNIT
 70
     0
  9
$LUNITS
 70
     2
  9
$LUPREC
 70
     2
  9
$SKETCHINC
 40
0.1
  9
$FILLETRAD
 40
0.5
  9
$AUNITS
 70
     0
  9
$AUPREC
 70
     2
  9
$MENU
  1
.
  9
$ELEVATION
 40
0.0
  9
$PELEVATION
 40
0.0
  9
$THICKNESS
 40
0.0
  9
$LIMCHECK
 70
     0
  9
$CHAMFERA
 40
0.5
  9
$CHAMFERB
 40
0.5
  9
$CHAMFERC
 40
1.0
  9
$CHAMFERD
 40
0.0
  9
$SKPOLY
 70
     0
  9
$TDCREATE
 40
2455784.019698079
  9
$TDUPDATE
 40
2455784.01969809
  9
$TDINDWG
 40
0.0000000116
  9
$TDUSRTIMER
 40
0.0000000116
  9
$USRTIMER
 70
     1
  9
$ANGBASE
 50
0.0
  9
$ANGDIR
 70
     0
  9
$PDMODE
 70
     0
  9
$PDSIZE
 40
-1.0
  9
$PLINEWID
 40
0.0
  9
$COORDS
 70
     1
  9
$SPLFRAME
 70
     0
  9
$SPLINETYPE
 70
     6
  9
$SPLINESEGS
 70
     8
  9
$ATTDIA
 70
     0
  9
$ATTREQ
 70
     1
  9
$HANDLING
 70
     1
  9
$HANDSEED
  5
5BB
  9
$SURFTAB1
 70
     6
  9
$SURFTAB2
 70
     6
  9
$SURFTYPE
 70
     6
  9
$SURFU
 70
     6
  9
$SURFV
 70
     6
  9
$UCSNAME
  2

  9
$UCSORG
 10
0.0
 20
0.0
 30
0.0
  9
$UCSXDIR
 10
1.0
 20
0.0
 30
0.0
  9
$UCSYDIR
 10
0.0
 20
1.0
 30
0.0
  9
$PUCSNAME
  2

  9
$PUCSORG
 10
0.0
 20
0.0
 30
0.0
  9
$PUCSXDIR
 10
1.0
 20
0.0
 30
0.0
  9
$PUCSYDIR
 10
0.0
 20
1.0
 30
0.0
  9
$USERI1
 70
     0
  9
$USERI2
 70
     0
  9
$USERI3
 70
     0
  9
$USERI4
 70
     0
  9
$USERI5
 70
     0
  9
$USERR1
 40
0.0
  9
$USERR2
 40
0.0
  9
$USERR3
 40
0.0
  9
$USERR4
 40
0.0
  9
$USERR5
 40
0.0
  9
$WORLDVIEW
 70
     1
  9
$SHADEDGE
 70
     3
  9
$SHADEDIF
 70
    70
  9
$TILEMODE
 70
     1
  9
$MAXACTVP
 70
    64
  9
$PINSBASE
 10
0.0
 20
0.0
 30
0.0
  9
$PLIMCHECK
 70
     0
  9
$PEXTMIN
 10
1.0000000000E+20
 20
1.0000000000E+20
 30
1.0000000000E+20
  9
$PEXTMAX
 10
-1.0000000000E+20
 20
-1.0000000000E+20
 30
-1.0000000000E+20
  9
$PLIMMIN
 10
0.0
 20
0.0
  9
$PLIMMAX
 10
12.0
 20
9.0
  9
$UNITMODE
 70
     0
  9
$VISRETAIN
 70
     1
  9
$PLINEGEN
 70
     0
  9
$PSLTSCALE
 70
     1
  9
$TREEDEPTH
 70
  3020
  9
$PICKSTYLE
 70
     1
  9
$CMLSTYLE
  2
STANDARD
  9
$CMLJUST
 70
     0
  9
$CMLSCALE
 40
1.0
  9
$SAVEIMAGES
 70
     1
  0
ENDSEC
  0
SECTION
  2
CLASSES
  0
CLASS
  1
ACDBDICTIONARYWDFLT
  2
AcDbDictionaryWithDefault
  3
ObjectDBX Classes
 90
    32768
280
     0
281
     0
  0
CLASS
  1
VISUALSTYLE
  2
AcDbVisualStyle
  3
ObjectDBX Classes
 90
     4095
280
     0
281
     0
  0
CLASS
  1
SCALE
  2
AcDbScale
  3
ObjectDBX Classes
 90
     1153
280
     0
281
     0
  0
CLASS
  1
DICTIONARYVAR
  2
AcDbDictionaryVar
  3
ObjectDBX Classes
 90
        0
280
     0
281
     0
  0
CLASS
  1
XRECORD
  2
AcDbXrecord
  3
AutoCAD 2000
 90
    32768
280
     0
281
     0
  0
CLASS
  1
LWPOLYLINE
  2
AcDbPolyline
  3
AutoCAD 2000
 90
    32768
280
     0
281
     1
  0
CLASS
  1
HATCH
  2
AcDbHatch
  3
AutoCAD 2000
 90
    32768
280
     0
281
     1
  0
CLASS
  1
ACDBPLACEHOLDER
  2
AcDbPlaceHolder
  3
ObjectDBX Classes
 90
        0
280
     0
281
     0
  0
CLASS
  1
LAYOUT
  2
AcDbLayout
  3
ObjectDBX Classes
 90
        0
280
     0
281
     0
  0
ENDSEC
  0
SECTION
  2
TABLES
  0
TABLE
  2
VPORT
  5
8
330
0
100
AcDbSymbolTable
 70
     1
  0
VPORT
  5
29
330
8
100
AcDbSymbolTableRecord
100
AcDbViewportTableRecord
  2
*ACTIVE
 70
     0
 10
0.0
 20
0.0
 11
1.0
 21
1.0
 12
5.5
 22
4.25
 13
0.0
 23
0.0
 14
0.5
 24
0.5
 15
0.5
 25
0.5
 16
0.0
 26
0.0
 36
1.0
 17
0.0
 27
0.0
 37
0.0
 40
8.5
 41
1.2941176471
 42
50.0
 43
0.0
 44
0.0
 50
0.0
 51
0.0
 71
     0
 72
  2000
 73
     1
 74
     3
 75
     0
 76
     0
 77
     0
 78
     0
  0
ENDTAB
  0
TABLE
  2
LTYPE
  5
5
330
0
100
AcDbSymbolTable
 70
     6
  0
LTYPE
  5
14
330
5
100
AcDbSymbolTableRecord
100
AcDbLinetypeTableRecord
  2
BYBLOCK
 70
     0
  3

 72
    65
 73
     0
 40
0.0
  0
LTYPE
  5
15
330
5
100
AcDbSymbolTableRecord
100
AcDbLinetypeTableRecord
  2
BYLAYER
 70
     0
  3

 72
    65
 73
     0
 40
0.0
  0
LTYPE
  5
16
330
5
100
AcDbSymbolTableRecord
100
AcDbLinetypeTableRecord
  2
CONTINUOUS
 70
     0
  3
Solid line
 72
    65
 73
     0
 40
0.0
  0
LTYPE
  5
3B
330
5
100
AcDbSymbolTableRecord
100
AcDbLinetypeTableRecord
  2
HIDDEN
 70
     0
  3
Hidden __ __ __ __ __ __ __ __ __ __ __ __ __ __
 72
    65
 73
     2
 40
0.075
 49
0.05
 74
     0
 49
-0.025
 74
     0
  0
LTYPE
  5
3C
330
5
100
AcDbSymbolTableRecord
100
AcDbLinetypeTableRecord
  2
PHANTOM
 70
     0
  3
Phantom ______  __  __  ______  __  __  ______
 72
    65
 73
     6
 40
0.5
 49
0.25
 74
     0
 49
-0.05
 74
     0
 49
0.05
 74
     0
 49
-0.05
 74
     0
 49
0.05
 74
     0
 49
-0.05
 74
     0
  0
LTYPE
  5
3D
330
5
100
AcDbSymbolTableRecord
100
AcDbLinetypeTableRecord
  2
CENTER
 70
     0
  3
Center ____ _ ____ _ ____ _ ____ _ ____ _ ____
 72
    65
 73
     4
 40
0.4
 49
0.25
 74
     0
 49
-0.05
 74
     0
 49
0.05
 74
     0
 49
-0.05
 74
     0
  0
LTYPE
  5
3E
330
5
100
AcDbSymbolTableRecord
100
AcDbLinetypeTableRecord
  2
CENTERX2
 70
     0
  3
Center (2x) ________  __  ________  __  _____
 72
    65
 73
     4
 40
0.8
 49
0.5
 74
     0
 49
-0.1
 74
     0
 49
0.1
 74
     0
 49
-0.1
 74
     0
  0
LTYPE
  5
3F
330
5
100
AcDbSymbolTableRecord
100
AcDbLinetypeTableRecord
  2
DOT2
 70
     0
  3
Dot (.5x) ........................................
 72
    65
 73
     2
 40
0.025
 49
0.0
 74
     0
 49
-0.025
 74
     0
  0
ENDTAB
  0
TABLE
  2
LAYER
  5
2
330
0
100
AcDbSymbolTable
 70
     2
  0
LAYER
  5
10
330
2
100
AcDbSymbolTableRecord
100
AcDbLayerTableRecord
  2
0
 70
     0
 62
     7
  6
CONTINUOUS
  0
LAYER
  5
40
330
2
100
AcDbSymbolTableRecord
100
AcDbLayerTableRecord
  2
FORMAT
 70
     0
 62
     7
  6
CONTINUOUS
  0
ENDTAB
  0
TABLE
  2
STYLE
  5
3
330
0
100
AcDbSymbolTable
 70
     4
  0
STYLE
  5
11
330
3
100
AcDbSymbolTableRecord
100
AcDbTextStyleTableRecord
  2
STANDARD
 70
     0
 40
0.0
 41
1.0
 50
0.0
 71
     0
 42
0.2
  3
txt
  4

  0
STYLE
  5
6E
330
3
100
AcDbSymbolTableRecord
100
AcDbTextStyleTableRecord
  2
SLDTEXTSTYLE0
 70
     0
 40
0.0
 41
0.75
 50
0.0
 71
     0
 42
0.2
  3
TXT
  4

  0
STYLE
  5
93
330
3
100
AcDbSymbolTableRecord
100
AcDbTextStyleTableRecord
  2
SLDTEXTSTYLE1
 70
     0
 40
0.0
 41
0.6875
 50
0.0
 71
     0
 42
0.2
  3
TXT
  4

  0
STYLE
  5
99
330
3
100
AcDbSymbolTableRecord
100
AcDbTextStyleTableRecord
  2
SLDTEXTSTYLE2
 70
     0
 40
0.0
 41
0.6944444444
 50
0.0
 71
     0
 42
0.2
  3
TXT
  4

  0
ENDTAB
  0
TABLE
  2
VIEW
  5
6
330
0
100
AcDbSymbolTable
 70
     0
  0
ENDTAB
  0
TABLE
  2
UCS
  5
7
330
0
100
AcDbSymbolTable
 70
     0
  0
ENDTAB
  0
TABLE
  2
APPID
  5
9
330
0
100
AcDbSymbolTable
 70
     1
  0
APPID
  5
12
330
9
100
AcDbSymbolTableRecord
100
AcDbRegAppTableRecord
  2
ACAD
 70
     0
  0
ENDTAB
  0
TABLE
  2
DIMSTYLE
  5
A
330
0
100
AcDbSymbolTable
 70
     1
  0
DIMSTYLE
105
27
330
A
100
AcDbSymbolTableRecord
100
AcDbDimStyleTableRecord
  2
STANDARD
 70
     0
  3

  4

  5

  6

  7

 40
1.0
 41
0.18
 42
0.0625
 43
0.38
 44
0.18
 45
0.0
 46
0.0
 47
0.0
 48
0.0
140
0.18
141
0.09
142
0.0
143
25.4
144
1.0
145
0.0
146
1.0
147
0.09
 71
     0
 72
     0
 73
     1
 74
     1
 75
     0
 76
     0
 77
     0
 78
     0
170
     0
171
     2
172
     0
173
     0
174
     0
175
     0
176
     0
177
     0
178
     0
270
     2
271
     4
272
     4
273
     2
274
     2
340
11
275
     0
280
     0
281
     0
282
     0
283
     1
284
     0
285
     0
286
     0
287
     3
288
     0
  0
ENDTAB
  0
TABLE
  2
BLOCK_RECORD
  5
1
330
0
100
AcDbSymbolTable
 70
     4
  0
BLOCK_RECORD
  5
1F
330
1
100
AcDbSymbolTableRecord
100
AcDbBlockTableRecord
  2
*MODEL_SPACE
  0
BLOCK_RECORD
  5
1B
330
1
100
AcDbSymbolTableRecord
100
AcDbBlockTableRecord
  2
*PAPER_SPACE
  0
BLOCK_RECORD
  5
A8
330
1
100
AcDbSymbolTableRecord
100
AcDbBlockTableRecord
  2
SW_NOTE_0
  0
BLOCK_RECORD
  5
AE
330
1
100
AcDbSymbolTableRecord
100
AcDbBlockTableRecord
  2
SW_NOTE_1
  0
BLOCK_RECORD
  5
C2
330
1
100
AcDbSymbolTableRecord
100
AcDbBlockTableRecord
  2
SW_NOTE_2
  0
ENDTAB
  0
ENDSEC
  0
SECTION
  2
BLOCKS
  0
BLOCK
  5
20
330
1F
100
AcDbEntity
  8
0
100
AcDbBlockBegin
  2
*MODEL_SPACE
 70
     0
 10
0.0
 20
0.0
 30
0.0
  3
*MODEL_SPACE
  1

  0
ENDBLK
  5
21
330
1F
100
AcDbEntity
  8
0
100
AcDbBlockEnd
  0
BLOCK
  5
1C
330
1B
100
AcDbEntity
 67
     1
  8
0
100
AcDbBlockBegin
  2
*PAPER_SPACE
 70
     0
 10
0.0
 20
0.0
 30
0.0
  3
*PAPER_SPACE
  1

  0
ENDBLK
  5
1D
330
1B
100
AcDbEntity
 67
     1
  8
0
100
AcDbBlockEnd
  0
BLOCK
  5
A9
330
A8
100
AcDbEntity
  8
0
100
AcDbBlockBegin
  2
SW_NOTE_0
 70
     0
 10
0.0
 20
0.0
 30
0.0
  3
SW_NOTE_0
  1

  0
MTEXT
  5
AB
330
A8
100
AcDbEntity
  8
0
  6
CONTINUOUS
 62
     0
100
AcDbMText
 10
0.0
 20
0.0773440644
 30
0.0
 40
0.06
 41
0.0
 71
     1
 72
     1
  1
INTERPRET GEOMETRIC
  7
SLDTEXTSTYLE0
  0
MTEXT
  5
AC
330
A8
100
AcDbEntity
  8
0
  6
CONTINUOUS
 62
     0
100
AcDbMText
 10
0.0
 20
-0.0220260102
 30
0.0
 40
0.06
 41
0.0
 71
     1
 72
     1
  1
TOLERANCING PER:
  7
SLDTEXTSTYLE0
  0
ENDBLK
  5
AA
330
A8
100
AcDbEntity
  8
0
100
AcDbBlockEnd
  0
BLOCK
  5
AF
330
AE
100
AcDbEntity
  8
0
100
AcDbBlockBegin
  2
SW_NOTE_1
 70
     0
 10
0.0
 20
0.0
 30
0.0
  3
SW_NOTE_1
  1

  0
MTEXT
  5
B1
330
AE
100
AcDbEntity
  8
0
  6
CONTINUOUS
 62
     0
100
AcDbMText
 10
0.0
 20
0.0837894031
 30
0.0
 40
0.065
 41
0.0
 71
     1
 72
     1
  1
DIMENSIONS ARE IN INCHES
  7
SLDTEXTSTYLE0
  0
MTEXT
  5
B2
330
AE
100
AcDbEntity
  8
0
  6
CONTINUOUS
 62
     0
100
AcDbMText
 10
0.0
 20
-0.0205806729
 30
0.0
 40
0.065
 41
0.0
 71
     1
 72
     1
  1
TOLERANCES:
  7
SLDTEXTSTYLE0
  0
MTEXT
  5
B3
330
AE
100
AcDbEntity
  8
0
  6
CONTINUOUS
 62
     0
100
AcDbMText
 10
0.0
 20
-0.1249507489
 30
0.0
 40
0.065
 41
0.0
 71
     1
 72
     1
  1
FRACTIONAL
  7
SLDTEXTSTYLE0
  0
MTEXT
  5
B4
330
AE
100
AcDbEntity
  8
0
  6
CONTINUOUS
 62
     0
100
AcDbMText
 10
0.5175850875
 20
-0.1249507489
 30
0.0
 40
0.065
 41
0.0
 71
     1
 72
     1
  1
%%p
  7
SLDTEXTSTYLE0
  0
MTEXT
  5
B5
330
AE
100
AcDbEntity
  8
0
  6
CONTINUOUS
 62
     0
100
AcDbMText
 10
0.0
 20
-0.2293208248
 30
0.0
 40
0.065
 41
0.0
 71
     1
 72
     1
  1
ANGULAR: MACH
  7
SLDTEXTSTYLE0
  0
MTEXT
  5
B6
330
AE
100
AcDbEntity
  8
0
  6
CONTINUOUS
 62
     0
100
AcDbMText
 10
0.7233732769
 20
-0.2293208248
 30
0.0
 40
0.065
 41
0.0
 71
     1
 72
     1
  1
%%p
  7
SLDTEXTSTYLE0
  0
MTEXT
  5
B7
330
AE
100
AcDbEntity
  8
0
  6
CONTINUOUS
 62
     0
100
AcDbMText
 10
0.7852857683
 20
-0.2293208248
 30
0.0
 40
0.065
 41
0.0
 71
     1
 72
     1
  1
     BEND 
  7
SLDTEXTSTYLE0
  0
MTEXT
  5
B8
330
AE
100
AcDbEntity
  8
0
  6
CONTINUOUS
 62
     0
100
AcDbMText
 10
1.14784136
 20
-0.2293208248
 30
0.0
 40
0.065
 41
0.0
 71
     1
 72
     1
  1
%%p
  7
SLDTEXTSTYLE0
  0
MTEXT
  5
B9
330
AE
100
AcDbEntity
  8
0
  6
CONTINUOUS
 62
     0
100
AcDbMText
 10
0.0
 20
-0.3336909008
 30
0.0
 40
0.065
 41
0.0
 71
     1
 72
     1
  1
TWO PLACE DECIMAL    
  7
SLDTEXTSTYLE0
  0
MTEXT
  5
BA
330
AE
100
AcDbEntity
  8
0
  6
CONTINUOUS
 62
     0
100
AcDbMText
 10
0.9794349188
 20
-0.3336909008
 30
0.0
 40
0.065
 41
0.0
 71
     1
 72
     1
  1
%%p
  7
SLDTEXTSTYLE0
  0
MTEXT
  5
BB
330
AE
100
AcDbEntity
  8
0
  6
CONTINUOUS
 62
     0
100
AcDbMText
 10
0.0
 20
-0.4380609768
 30
0.0
 40
0.065
 41
0.0
 71
     1
 72
     1
  1
THREE PLACE DECIMAL  
  7
SLDTEXTSTYLE0
  0
MTEXT
  5
BC
330
AE
100
AcDbEntity
  8
0
  6
CONTINUOUS
 62
     0
100
AcDbMText
 10
0.9738038639
 20
-0.4380609768
 30
0.0
 40
0.065
 41
0.0
 71
     1
 72
     1
  1
%%p
  7
SLDTEXTSTYLE0
  0
ENDBLK
  5
B0
330
AE
100
AcDbEntity
  8
0
100
AcDbBlockEnd
  0
BLOCK
  5
C3
330
C2
100
AcDbEntity
  8
0
100
AcDbBlockBegin
  2
SW_NOTE_2
 70
     0
 10
0.0
 20
0.0
 30
0.0
  3
SW_NOTE_2
  1

  0
MTEXT
  5
C5
330
C2
100
AcDbEntity
  8
0
  6
CONTINUOUS
 62
     0
100
AcDbMText
 10
0.0
 20
0.0773440644
 30
0.0
 40
0.06
 41
0.0
 71
     1
 72
     1
  1
THE INFORMATION CONTAINED IN THIS
  7
SLDTEXTSTYLE0
  0
MTEXT
  5
C6
330
C2
100
AcDbEntity
  8
0
  6
CONTINUOUS
 62
     0
100
AcDbMText
 10
0.0
 20
-0.0220260102
 30
0.0
 40
0.06
 41
0.0
 71
     1
 72
     1
  1
DRAWING IS THE SOLE PROPERTY OF
  7
SLDTEXTSTYLE0
  0
MTEXT
  5
C7
330
C2
100
AcDbEntity
  8
0
  6
CONTINUOUS
 62
     0
100
AcDbMText
 10
0.0
 20
-0.1213960848
 30
0.0
 40
0.06
 41
0.0
 71
     1
 72
     1
  1
Candy Controls.  ANY 
  7
SLDTEXTSTYLE0
  0
MTEXT
  5
C8
330
C2
100
AcDbEntity
  8
0
  6
CONTINUOUS
 62
     0
100
AcDbMText
 10
0.0
 20
-0.2207661593
 30
0.0
 40
0.06
 41
0.0
 71
     1
 72
     1
  1
REPRODUCTION IN PART OR AS A WHOLE
  7
SLDTEXTSTYLE0
  0
MTEXT
  5
C9
330
C2
100
AcDbEntity
  8
0
  6
CONTINUOUS
 62
     0
100
AcDbMText
 10
0.0
 20
-0.3201362339
 30
0.0
 40
0.06
 41
0.0
 71
     1
 72
     1
  1
WITHOUT THE WRITTEN PERMISSION OF
  7
SLDTEXTSTYLE0
  0
MTEXT
  5
CA
330
C2
100
AcDbEntity
  8
0
  6
CONTINUOUS
 62
     0
100
AcDbMText
 10
0.0
 20
-0.4195063085
 30
0.0
 40
0.06
 41
0.0
 71
     1
 72
     1
  1
Candy Controls IS 
  7
SLDTEXTSTYLE0
  0
MTEXT
  5
CB
330
C2
100
AcDbEntity
  8
0
  6
CONTINUOUS
 62
     0
100
AcDbMText
 10
0.0
 20
-0.518876383
 30
0.0
 40
0.06
 41
0.0
 71
     1
 72
     1
  1
PROHIBITED.
  7
SLDTEXTSTYLE0
  0
ENDBLK
  5
C4
330
C2
100
AcDbEntity
  8
0
100
AcDbBlockEnd
  0
ENDSEC
  0
SECTION
  2
ENTITIES
  0
LINE
  5
41
330
1F
100
AcDbEntity
  8
0
  6
CONTINUOUS
 62
     7
100
AcDbLine
 10
0.329927
 20
8.1920731707
 30
0.0
 11
10.629927
 21
8.1920731707
 31
0.0
  0
LINE
  5
42
330
1F
100
AcDbEntity
  8
0
  6
CONTINUOUS
 62
     7
100
AcDbLine
 10
0.329927
 20
8.1920731707
 30
0.0
 11
0.329927
 21
0.3920731707
 31
0.0
  0
LINE
  5
43
330
1F
100
AcDbEntity
  8
0
  6
CONTINUOUS
 62
     7
100
AcDbLine
 10
10.629927
 20
0.3920731707
 30
0.0
 11
0.329927
 21
0.3920731707
 31
0.0
  0
LINE
  5
44
330
1F
100
AcDbEntity
  8
0
  6
CONTINUOUS
 62
     7
100
AcDbLine
 10
10.629927
 20
0.3920731707
 30
0.0
 11
10.629927
 21
8.1920731707
 31
0.0
  0
LINE
  5
45
330
1F
100
AcDbEntity
  8
0
  6
CONTINUOUS
 62
     7
100
AcDbLine
 10
4.7981841288
 20
0.3920731707
 30
0.0
 11
4.7981841288
 21
2.3564211366
 31
0.0
  0
LINE
  5
46
330
1F
100
AcDbEntity
  8
0
  6
CONTINUOUS
 62
     7
100
AcDbLine
 10
2.8210345579
 20
2.3564211366
 30
0.0
 11
10.629927
 21
2.3564211366
 31
0.0
  0
LINE
  5
47
330
1F
100
AcDbEntity
  8
0
  6
CONTINUOUS
 62
     7
100
AcDbLine
 10
6.1796352514
 20
2.3564211366
 30
0.0
 11
6.1796352514
 21
0.3920731707
 31
0.0
  0
LINE
  5
48
330
1F
100
AcDbEntity
  8
0
  6
CONTINUOUS
 62
     7
100
AcDbLine
 10
7.8712070044
 20
2.3564211366
 30
0.0
 11
7.8712070044
 21
0.3920731707
 31
0.0
  0
LINE
  5
49
330
1F
100
AcDbEntity
  8
0
  6
CONTINUOUS
 62
     7
100
AcDbLine
 10
7.8712070044
 20
0.6049590101
 30
0.0
 11
10.629927
 21
0.6049590101
 31
0.0
  0
LINE
  5
4A
330
1F
100
AcDbEntity
  8
0
  6
CONTINUOUS
 62
     7
100
AcDbLine
 10
7.8712070044
 20
1.1119362457
 30
0.0
 11
10.629927
 21
1.1119362457
 31
0.0
  0
LINE
  5
4B
330
1F
100
AcDbEntity
  8
0
  6
CONTINUOUS
 62
     7
100
AcDbLine
 10
7.8712070044
 20
1.9892703708
 30
0.0
 11
10.629927
 21
1.9892703708
 31
0.0
  0
LINE
  5
4C
330
1F
100
AcDbEntity
  8
0
  6
CONTINUOUS
 62
     7
100
AcDbLine
 10
8.266751752
 20
1.1119362457
 30
0.0
 11
8.266751752
 21
0.6049590101
 31
0.0
  0
LINE
  5
4D
330
1F
100
AcDbEntity
  8
0
  6
CONTINUOUS
 62
     7
100
AcDbLine
 10
8.6943435176
 20
0.6049590101
 30
0.0
 11
8.6943435176
 21
0.3920731707
 31
0.0
  0
LINE
  5
4E
330
1F
100
AcDbEntity
  8
0
  6
CONTINUOUS
 62
     7
100
AcDbLine
 10
10.0579917045
 20
1.1119362457
 30
0.0
 11
10.0579917045
 21
0.6049590101
 31
0.0
  0
LINE
  5
4F
330
1F
100
AcDbEntity
  8
0
  6
CONTINUOUS
 62
     7
100
AcDbLine
 10
9.6662556631
 20
0.6049590101
 30
0.0
 11
9.6662556631
 21
0.3920731707
 31
0.0
  0
LINE
  5
50
330
1F
100
AcDbEntity
  8
0
  6
CONTINUOUS
 62
     7
100
AcDbLine
 10
2.8210345579
 20
0.5883479999
 30
0.0
 11
6.1796352514
 21
0.5883479999
 31
0.0
  0
LINE
  5
51
330
1F
100
AcDbEntity
  8
0
  6
CONTINUOUS
 62
     7
100
AcDbLine
 10
6.1796352514
 20
1.7939211366
 30
0.0
 11
7.8712070044
 21
1.7939211366
 31
0.0
  0
LINE
  5
52
330
1F
100
AcDbEntity
  8
0
  6
CONTINUOUS
 62
     7
100
AcDbLine
 10
6.1796352514
 20
1.9814211366
 30
0.0
 11
7.8712070044
 21
1.9814211366
 31
0.0
  0
LINE
  5
53
330
1F
100
AcDbEntity
  8
0
  6
CONTINUOUS
 62
     7
100
AcDbLine
 10
6.1796352514
 20
2.1689211366
 30
0.0
 11
7.8712070044
 21
2.1689211366
 31
0.0
  0
LINE
  5
54
330
1F
100
AcDbEntity
  8
0
  6
CONTINUOUS
 62
     7
100
AcDbLine
 10
7.8712070044
 20
1.2314211366
 30
0.0
 11
6.1796352514
 21
1.2314211366
 31
0.0
  0
LINE
  5
55
330
1F
100
AcDbEntity
  8
0
  6
CONTINUOUS
 62
     7
100
AcDbLine
 10
7.3921580388
 20
2.3564211366
 30
0.0
 11
7.3921580388
 21
1.2314211366
 31
0.0
  0
LINE
  5
56
330
1F
100
AcDbEntity
  8
0
  6
CONTINUOUS
 62
     7
100
AcDbLine
 10
6.9236308342
 20
2.3564211366
 30
0.0
 11
6.9236308342
 21
1.2314211366
 31
0.0
  0
LINE
  5
57
330
1F
100
AcDbEntity
  8
0
  6
CONTINUOUS
 62
     7
100
AcDbLine
 10
4.7981841288
 20
0.8557965305
 30
0.0
 11
6.1796352514
 21
0.8557965305
 31
0.0
  0
LINE
  5
58
330
1F
100
AcDbEntity
  8
0
  6
CONTINUOUS
 62
     7
100
AcDbLine
 10
4.7981841288
 20
1.1257965305
 30
0.0
 11
6.1796352514
 21
1.1257965305
 31
0.0
  0
LINE
  5
59
330
1F
100
AcDbEntity
  8
0
  6
CONTINUOUS
 62
     7
100
AcDbLine
 10
2.8210345579
 20
0.3920731707
 30
0.0
 11
2.8210345579
 21
2.3564211366
 31
0.0
  0
LINE
  5
5A
330
1F
100
AcDbEntity
  8
0
  6
CONTINUOUS
 62
     7
100
AcDbLine
 10
2.8210345579
 20
1.1064211366
 30
0.0
 11
4.7981841288
 21
1.1064211366
 31
0.0
  0
LINE
  5
5B
330
1F
100
AcDbEntity
  8
0
  6
CONTINUOUS
 62
     7
100
AcDbLine
 10
2.8210345579
 20
1.3564211366
 30
0.0
 11
4.7981841288
 21
1.3564211366
 31
0.0
  0
LINE
  5
5C
330
1F
100
AcDbEntity
  8
0
  6
CONTINUOUS
 62
     7
100
AcDbLine
 10
2.8210345579
 20
1.6064211366
 30
0.0
 11
4.7981841288
 21
1.6064211366
 31
0.0
  0
LINE
  5
5D
330
1F
100
AcDbEntity
  8
0
  6
CONTINUOUS
 62
     7
100
AcDbLine
 10
2.8210345579
 20
1.8564211366
 30
0.0
 11
4.7981841288
 21
1.8564211366
 31
0.0
  0
LINE
  5
5E
330
1F
100
AcDbEntity
  8
0
  6
CONTINUOUS
 62
     7
100
AcDbLine
 10
3.8190146875
 20
2.3564211366
 30
0.0
 11
3.8190146875
 21
0.5883479999
 31
0.0
  0
LINE
  5
5F
330
1F
100
AcDbEntity
  8
0
  6
CONTINUOUS
 62
     7
100
AcDbLine
 10
6.1796352514
 20
2.2020813496
 30
0.0
 11
4.7981841288
 21
2.2020813496
 31
0.0
  0
LINE
  5
60
330
1F
100
AcDbEntity
  8
0
  6
CONTINUOUS
 62
     7
100
AcDbLine
 10
7.8712070044
 20
1.6064211366
 30
0.0
 11
6.1796352514
 21
1.6064211366
 31
0.0
  0
LINE
  5
61
330
1F
100
AcDbEntity
  8
0
  6
CONTINUOUS
 62
     7
100
AcDbLine
 10
7.8712070044
 20
1.4189211366
 30
0.0
 11
6.1796352514
 21
1.4189211366
 31
0.0
  0
LINE
  5
62
330
1F
100
AcDbEntity
  8
0
  6
CONTINUOUS
 62
     7
100
AcDbLine
 10
2.8210345579
 20
2.1064211366
 30
0.0
 11
4.7981841288
 21
2.1064211366
 31
0.0
  0
LINE
  5
63
330
1F
100
AcDbEntity
  8
0
  6
CONTINUOUS
 62
     7
100
AcDbLine
 10
4.7981841288
 20
1.3957965305
 30
0.0
 11
6.1796352514
 21
1.3957965305
 31
0.0
  0
LINE
  5
64
330
1F
100
AcDbEntity
  8
0
  6
CONTINUOUS
 62
     7
100
AcDbLine
 10
2.8210345579
 20
0.8564211366
 30
0.0
 11
4.7981841288
 21
0.8564211366
 31
0.0
  0
LINE
  5
65
330
1F
100
AcDbEntity
  8
0
  6
CONTINUOUS
 62
     7
100
AcDbLine
 10
1.1838252943
 20
0.3920731707
 30
0.0
 11
1.1838252943
 21
1.3064211366
 31
0.0
  0
LINE
  5
66
330
1F
100
AcDbEntity
  8
0
  6
CONTINUOUS
 62
     7
100
AcDbLine
 10
2.8210345579
 20
1.3064211366
 30
0.0
 11
1.1838252943
 21
1.3064211366
 31
0.0
  0
LINE
  5
67
330
1F
100
AcDbEntity
  8
0
  6
CONTINUOUS
 62
     7
100
AcDbLine
 10
8.660927
 20
0.3920731707
 30
0.0
 11
8.660927
 21
0.3072739649
 31
0.0
  0
LINE
  5
68
330
1F
100
AcDbEntity
  8
0
  6
CONTINUOUS
 62
     7
100
AcDbLine
 10
6.692177
 20
0.3920731707
 30
0.0
 11
6.692177
 21
0.3072739649
 31
0.0
  0
LINE
  5
69
330
1F
100
AcDbEntity
  8
0
  6
CONTINUOUS
 62
     7
100
AcDbLine
 10
4.723427
 20
0.3920731707
 30
0.0
 11
4.723427
 21
0.3072739649
 31
0.0
  0
LINE
  5
6A
330
1F
100
AcDbEntity
  8
0
  6
CONTINUOUS
 62
     7
100
AcDbLine
 10
2.754677
 20
0.3920731707
 30
0.0
 11
2.754677
 21
0.3072739649
 31
0.0
  0
LINE
  5
6B
330
1F
100
AcDbEntity
  8
0
  6
CONTINUOUS
 62
     7
100
AcDbLine
 10
2.754677
 20
0.3920731707
 30
0.0
 11
2.7672319738
 21
0.3575
 31
0.0
  0
LINE
  5
6C
330
1F
100
AcDbEntity
  8
0
  6
CONTINUOUS
 62
     7
100
AcDbLine
 10
2.7672319738
 20
0.3575
 30
0.0
 11
2.7414258825
 21
0.3575
 31
0.0
  0
LINE
  5
6D
330
1F
100
AcDbEntity
  8
0
  6
CONTINUOUS
 62
     7
100
AcDbLine
 10
2.7414258825
 20
0.3575
 30
0.0
 11
2.754677
 21
0.3920731707
 31
0.0
  0
MTEXT
  5
91
330
1F
100
AcDbEntity
  8
0
  6
CONTINUOUS
 62
     7
100
AcDbMText
 10
4.9775846961
 20
0.5178452352
 30
0.0
 40
0.0625
 41
0.0
 71
     1
 72
     1
  1
DO NOT SCALE DRAWING
  7
SLDTEXTSTYLE0
  0
MTEXT
  5
92
330
1F
100
AcDbEntity
  8
0
  6
CONTINUOUS
 62
     7
100
AcDbMText
 10
8.9022681977
 20
0.9417064595
 30
0.0
 40
0.125
 41
0.0
 71
     1
 72
     1
  1
CL4-32
  7
SLDTEXTSTYLE0
  0
MTEXT
  5
94
330
1F
100
AcDbEntity
  8
0
  6
CONTINUOUS
 62
     7
100
AcDbMText
 10
9.7571278483
 20
0.5524239532
 30
0.0
 40
0.1
 41
0.0
 71
     1
 72
     1
  1
SHEET 1 OF 1
  7
SLDTEXTSTYLE1
  0
MTEXT
  5
95
330
1F
100
AcDbEntity
  8
0
  6
CONTINUOUS
 62
     7
100
AcDbMText
 10
4.8448077858
 20
2.3132954224
 30
0.0
 40
0.07
 41
0.0
 71
     1
 72
     1
  1
UNLESS OTHERWISE SPECIFIED:
  7
SLDTEXTSTYLE0
  0
MTEXT
  5
96
330
1F
100
AcDbEntity
  8
0
  6
CONTINUOUS
 62
     7
100
AcDbMText
 10
7.9586139647
 20
0.5520987879
 30
0.0
 40
0.1
 41
0.0
 71
     1
 72
     1
  1
SCALE: 1:1
  7
SLDTEXTSTYLE0
  0
MTEXT
  5
97
330
1F
100
AcDbEntity
  8
0
  6
CONTINUOUS
 62
     7
100
AcDbMText
 10
8.7023691647
 20
0.5486763345
 30
0.0
 40
0.1
 41
0.0
 71
     1
 72
     1
  1
WEIGHT: 
  7
SLDTEXTSTYLE0
  0
MTEXT
  5
98
330
1F
100
AcDbEntity
  8
0
  6
CONTINUOUS
 62
     7
100
AcDbMText
 10
10.2277580983
 20
1.081966299
 30
0.0
 40
0.1
 41
0.0
 71
     1
 72
     1
  1
REV
  7
SLDTEXTSTYLE0
  0
MTEXT
  5
9A
330
1F
100
AcDbEntity
  8
0
  6
CONTINUOUS
 62
     7
100
AcDbMText
 10
8.2984570898
 20
1.0858725293
 30
0.0
 40
0.1
 41
0.0
 71
     1
 72
     1
  1
DWG.  NO.
  7
SLDTEXTSTYLE2
  0
MTEXT
  5
9B
330
1F
100
AcDbEntity
  8
0
  6
CONTINUOUS
 62
     7
100
AcDbMText
 10
7.9598482632
 20
0.9442140768
 30
0.0
 40
0.25
 41
0.0
 71
     1
 72
     1
  1
A
  7
SLDTEXTSTYLE0
  0
MTEXT
  5
9C
330
1F
100
AcDbEntity
  8
0
  6
CONTINUOUS
 62
     7
100
AcDbMText
 10
7.9519581822
 20
1.0872713483
 30
0.0
 40
0.1
 41
0.0
 71
     1
 72
     1
  1
SIZE
  7
SLDTEXTSTYLE0
  0
MTEXT
  5
9D
330
1F
100
AcDbEntity
  8
0
  6
CONTINUOUS
 62
     7
100
AcDbMText
 10
7.9170704177
 20
1.9547881128
 30
0.0
 40
0.1
 41
0.0
 71
     1
 72
     1
  1
TITLE:
  7
SLDTEXTSTYLE0
  0
MTEXT
  5
9E
330
1F
100
AcDbEntity
  8
0
  6
CONTINUOUS
 62
     7
100
AcDbMText
 10
7.0363774929
 20
2.2906161274
 30
0.0
 40
0.065
 41
0.0
 71
     1
 72
     1
  1
NAME
  7
SLDTEXTSTYLE0
  0
MTEXT
  5
9F
330
1F
100
AcDbEntity
  8
0
  6
CONTINUOUS
 62
     7
100
AcDbMText
 10
7.5281510634
 20
2.2888799118
 30
0.0
 40
0.065
 41
0.0
 71
     1
 72
     1
  1
DATE
  7
SLDTEXTSTYLE0
  0
MTEXT
  5
A0
330
1F
100
AcDbEntity
  8
0
  6
CONTINUOUS
 62
     7
100
AcDbMText
 10
6.2277147029
 20
1.1876913145
 30
0.0
 40
0.065
 41
0.0
 71
     1
 72
     1
  1
COMMENTS:
  7
SLDTEXTSTYLE0
  0
MTEXT
  5
A1
330
1F
100
AcDbEntity
  8
0
  6
CONTINUOUS
 62
     7
100
AcDbMText
 10
6.2268411461
 20
1.3536101679
 30
0.0
 40
0.065
 41
0.0
 71
     1
 72
     1
  1
Q.A.
  7
SLDTEXTSTYLE0
  0
MTEXT
  5
A2
330
1F
100
AcDbEntity
  8
0
  6
CONTINUOUS
 62
     7
100
AcDbMText
 10
6.2284654509
 20
1.5395328424
 30
0.0
 40
0.065
 41
0.0
 71
     1
 72
     1
  1
MFG APPR.
  7
SLDTEXTSTYLE0
  0
MTEXT
  5
A3
330
1F
100
AcDbEntity
  8
0
  6
CONTINUOUS
 62
     7
100
AcDbMText
 10
6.2235171344
 20
1.7267501785
 30
0.0
 40
0.065
 41
0.0
 71
     1
 72
     1
  1
ENG APPR.
  7
SLDTEXTSTYLE0
  0
MTEXT
  5
A4
330
1F
100
AcDbEntity
  8
0
  6
CONTINUOUS
 62
     7
100
AcDbMText
 10
6.2264103951
 20
1.9092699088
 30
0.0
 40
0.065
 41
0.0
 71
     1
 72
     1
  1
CHECKED
  7
SLDTEXTSTYLE0
  0
MTEXT
  5
A5
330
1F
100
AcDbEntity
  8
0
  6
CONTINUOUS
 62
     7
100
AcDbMText
 10
6.2242794356
 20
2.1016301232
 30
0.0
 40
0.065
 41
0.0
 71
     1
 72
     1
  1
DRAWN
  7
SLDTEXTSTYLE0
  0
MTEXT
  5
A6
330
1F
100
AcDbEntity
  8
0
  6
CONTINUOUS
 62
     7
100
AcDbMText
 10
4.8208600979
 20
0.834523235
 30
0.0
 40
0.06
 41
0.0
 71
     1
 72
     1
  1
FINISH
  7
SLDTEXTSTYLE0
  0
MTEXT
  5
A7
330
1F
100
AcDbEntity
  8
0
  6
CONTINUOUS
 62
     7
100
AcDbMText
 10
4.8181240648
 20
1.1028217587
 30
0.0
 40
0.06
 41
0.0
 71
     1
 72
     1
  1
MATERIAL
  7
SLDTEXTSTYLE0
  0
INSERT
  5
AD
330
1F
100
AcDbEntity
  8
0
  6
CONTINUOUS
 62
     7
100
AcDbBlockReference
  2
SW_NOTE_0
 10
4.8231926633
 20
1.2646542947
 30
0.0
  0
INSERT
  5
BD
330
1F
100
AcDbEntity
  8
0
  6
CONTINUOUS
 62
     7
100
AcDbBlockReference
  2
SW_NOTE_1
 10
4.8353339353
 20
2.0049168724
 30
0.0
  0
MTEXT
  5
BE
330
1F
100
AcDbEntity
  8
0
  6
CONTINUOUS
 62
     7
100
AcDbMText
 10
3.5531400086
 20
0.5200091997
 30
0.0
 40
0.0625
 41
0.0
 71
     1
 72
     1
  1
APPLICATION
  7
SLDTEXTSTYLE0
  0
MTEXT
  5
BF
330
1F
100
AcDbEntity
  8
0
  6
CONTINUOUS
 62
     7
100
AcDbMText
 10
4.1005607758
 20
0.7502454275
 30
0.0
 40
0.0625
 41
0.0
 71
     1
 72
     1
  1
USED ON
  7
SLDTEXTSTYLE0
  0
MTEXT
  5
C0
330
1F
100
AcDbEntity
  8
0
  6
CONTINUOUS
 62
     7
100
AcDbMText
 10
3.1040019536
 20
0.7492094783
 30
0.0
 40
0.0625
 41
0.0
 71
     1
 72
     1
  1
NEXT ASSY
  7
SLDTEXTSTYLE0
  0
MTEXT
  5
C1
330
1F
100
AcDbEntity
  8
0
  6
CONTINUOUS
 62
     7
100
AcDbMText
 10
1.3712489489
 20
1.2496672684
 30
0.0
 40
0.06
 41
0.0
 71
     1
 72
     1
  1
PROPRIETARY AND CONFIDENTIAL
  7
SLDTEXTSTYLE0
  0
INSERT
  5
CC
330
1F
100
AcDbEntity
  8
0
  6
CONTINUOUS
 62
     7
100
AcDbBlockReference
  2
SW_NOTE_2
 10
1.2226209074
 20
1.0313492921
 30
0.0
  0
MTEXT
  5
CD
330
1F
100
AcDbEntity
  8
0
  6
CONTINUOUS
 62
     7
100
AcDbMText
 10
1.7387909509
 20
0.3105864247
 30
0.0
 40
0.09375
 41
0.0
 71
     1
 72
     1
  1
5
  7
SLDTEXTSTYLE0
  0
MTEXT
  5
CE
330
1F
100
AcDbEntity
  8
0
  6
CONTINUOUS
 62
     7
100
AcDbMText
 10
3.723800327
 20
0.3137237518
 30
0.0
 40
0.09375
 41
0.0
 71
     1
 72
     1
  1
4
  7
SLDTEXTSTYLE0
  0
MTEXT
  5
CF
330
1F
100
AcDbEntity
  8
0
  6
CONTINUOUS
 62
     7
100
AcDbMText
 10
5.6324457277
 20
0.3116191842
 30
0.0
 40
0.09375
 41
0.0
 71
     1
 72
     1
  1
3
  7
SLDTEXTSTYLE0
  0
MTEXT
  5
D0
330
1F
100
AcDbEntity
  8
0
  6
CONTINUOUS
 62
     7
100
AcDbMText
 10
7.6059721724
 20
0.3124391351
 30
0.0
 40
0.09375
 41
0.0
 71
     1
 72
     1
  1
2
  7
SLDTEXTSTYLE0
  0
MTEXT
  5
D1
330
1F
100
AcDbEntity
  8
0
  6
CONTINUOUS
 62
     7
100
AcDbMText
 10
9.6619921328
 20
0.301372012
 30
0.0
 40
0.09375
 41
0.0
 71
     1
 72
     1
  1
1
  7
SLDTEXTSTYLE0
  0
LINE
  5
D2
330
1F
100
AcDbEntity
  8
0
  6
CONTINUOUS
 62
     7
100
AcDbLine
 10
3.8301052174
 20
4.3870989362
 30
0.0
 11
3.8286046073
 21
4.3885995462
 31
0.0
  0
LINE
  5
D3
330
1F
100
AcDbEntity
  8
0
  6
CONTINUOUS
 62
     7
100
AcDbLine
 10
3.6120691743
 20
4.3885995462
 30
0.0
 11
3.6105671698
 21
4.3870975418
 31
0.0
  0
LINE
  5
D4
330
1F
100
AcDbEntity
  8
0
  6
CONTINUOUS
 62
     7
100
AcDbLine
 10
3.5038014577
 20
3.1287570265
 30
0.0
 11
3.9565573632
 21
3.1287570265
 31
0.0
  0
LINE
  5
D5
330
1F
100
AcDbEntity
  8
0
  6
CONTINUOUS
 62
     7
100
AcDbLine
 10
3.6022266546
 20
4.3885995462
 30
0.0
 11
3.5038014577
 21
4.3885995462
 31
0.0
  0
LINE
  5
D6
330
1F
100
AcDbEntity
  8
0
  6
CONTINUOUS
 62
     7
100
AcDbLine
 10
3.9565573632
 20
4.3885995462
 30
0.0
 11
3.8381406677
 21
4.3885995462
 31
0.0
  0
LINE
  5
D7
330
1F
100
AcDbEntity
  8
0
  6
CONTINUOUS
 62
     7
100
AcDbLine
 10
3.9565573632
 20
3.1287570265
 30
0.0
 11
3.9762424026
 21
3.1484420659
 31
0.0
  0
LINE
  5
D8
330
1F
100
AcDbEntity
  8
0
  6
CONTINUOUS
 62
     7
100
AcDbLine
 10
3.9762424026
 20
4.3689145069
 30
0.0
 11
3.9565573632
 21
4.3885995462
 31
0.0
  0
LINE
  5
D9
330
1F
100
AcDbEntity
  8
0
  6
CONTINUOUS
 62
     7
100
AcDbLine
 10
3.5038014577
 20
4.3885995462
 30
0.0
 11
3.4841164183
 21
4.3689145069
 31
0.0
  0
LINE
  5
DA
330
1F
100
AcDbEntity
  8
0
  6
CONTINUOUS
 62
     7
100
AcDbLine
 10
3.4841164183
 20
3.1484420659
 30
0.0
 11
3.5038014577
 21
3.1287570265
 31
0.0
  0
LINE
  5
DB
330
1F
100
AcDbEntity
  8
0
  6
CONTINUOUS
 62
     7
100
AcDbLine
 10
2.6967148435
 20
4.3885995462
 30
0.0
 11
2.6770298042
 21
4.3689145069
 31
0.0
  0
LINE
  5
DC
330
1F
100
AcDbEntity
  8
0
  6
CONTINUOUS
 62
     7
100
AcDbLine
 10
2.6770298042
 20
3.1484420659
 30
0.0
 11
2.6967148435
 21
3.1287570265
 31
0.0
  0
LINE
  5
DD
330
1F
100
AcDbEntity
  8
0
  6
CONTINUOUS
 62
     7
100
AcDbLine
 10
2.9132502766
 20
4.3885995462
 30
0.0
 11
2.6967148435
 21
4.3885995462
 31
0.0
  0
LINE
  5
DE
330
1F
100
AcDbEntity
  8
0
  6
CONTINUOUS
 62
     7
100
AcDbLine
 10
2.6967148435
 20
3.1287570265
 30
0.0
 11
2.9132502766
 21
3.1287570265
 31
0.0
  0
LINE
  5
DF
330
1F
100
AcDbEntity
  8
0
  6
CONTINUOUS
 62
     7
100
AcDbLine
 10
2.932935316
 20
4.3689145069
 30
0.0
 11
2.9132502766
 21
4.3885995462
 31
0.0
  0
LINE
  5
E0
330
1F
100
AcDbEntity
  8
0
  6
CONTINUOUS
 62
     7
100
AcDbLine
 10
2.9132502766
 20
3.1287570265
 30
0.0
 11
2.932935316
 21
3.1484420659
 31
0.0
  0
LINE
  5
E1
330
1F
100
AcDbEntity
  8
0
  6
CONTINUOUS
 62
     7
100
AcDbLine
 10
2.9526203554
 20
3.1287570265
 30
0.0
 11
3.464431379
 21
3.1287570265
 31
0.0
  0
LINE
  5
E2
330
1F
100
AcDbEntity
  8
0
  6
CONTINUOUS
 62
     7
100
AcDbLine
 10
3.464431379
 20
4.3885995462
 30
0.0
 11
2.9526203554
 21
4.3885995462
 31
0.0
  0
LINE
  5
E3
330
1F
100
AcDbEntity
  8
0
  6
CONTINUOUS
 62
     7
100
AcDbLine
 10
2.9526203554
 20
4.3885995462
 30
0.0
 11
2.932935316
 21
4.3689145069
 31
0.0
  0
LINE
  5
E4
330
1F
100
AcDbEntity
  8
0
  6
CONTINUOUS
 62
     7
100
AcDbLine
 10
2.932935316
 20
3.1484420659
 30
0.0
 11
2.9526203554
 21
3.1287570265
 31
0.0
  0
LINE
  5
E5
330
1F
100
AcDbEntity
  8
0
  6
CONTINUOUS
 62
     7
100
AcDbLine
 10
3.464431379
 20
3.1287570265
 30
0.0
 11
3.4841164183
 21
3.1484420659
 31
0.0
  0
LINE
  5
E6
330
1F
100
AcDbEntity
  8
0
  6
CONTINUOUS
 62
     7
100
AcDbLine
 10
3.4841164183
 20
4.3689145069
 30
0.0
 11
3.464431379
 21
4.3885995462
 31
0.0
  0
LINE
  5
E7
330
1F
100
AcDbEntity
  8
0
  6
CONTINUOUS
 62
     7
100
AcDbLine
 10
3.7610284748
 20
4.3787570265
 30
0.0
 11
3.6800852929
 21
4.3787570265
 31
0.0
  0
LINE
  5
E8
330
1F
100
AcDbEntity
  8
0
  6
CONTINUOUS
 62
     7
100
AcDbLine
 10
3.6120691743
 20
4.3885995462
 30
0.0
 11
3.8286046073
 21
4.3885995462
 31
0.0
  0
LINE
  5
E9
330
1F
100
AcDbEntity
  8
0
  6
CONTINUOUS
 62
     7
100
AcDbLine
 10
3.7400219302
 20
4.3251150805
 30
0.0
 11
3.7400219302
 21
3.1922414923
 31
0.0
  0
LINE
  5
EA
330
1F
100
AcDbEntity
  8
0
  6
CONTINUOUS
 62
     7
100
AcDbLine
 10
3.5038014577
 20
4.3251150805
 30
0.0
 11
3.7400219302
 21
4.3251150805
 31
0.0
  0
LINE
  5
EB
330
1F
100
AcDbEntity
  8
0
  6
CONTINUOUS
 62
     7
100
AcDbLine
 10
3.5038014577
 20
4.3885995462
 30
0.0
 11
3.5038014577
 21
4.3251150805
 31
0.0
  0
LINE
  5
EC
330
1F
100
AcDbEntity
  8
0
  6
CONTINUOUS
 62
     7
100
AcDbLine
 10
3.5038014577
 20
3.1922414923
 30
0.0
 11
3.5038014577
 21
3.1287570265
 31
0.0
  0
LINE
  5
ED
330
1F
100
AcDbEntity
  8
0
  6
CONTINUOUS
 62
     7
100
AcDbLine
 10
3.7400219302
 20
3.1922414923
 30
0.0
 11
3.5038014577
 21
3.1922414923
 31
0.0
  0
SPLINE
  5
EE
330
1F
100
AcDbEntity
  8
0
  6
CONTINUOUS
 62
     7
100
AcDbSpline
210
0.0
220
0.0
230
1.0
 70
     8
 71
     3
 72
    26
 73
    22
 74
     0
 42
0.00000001
 43
0.00000001
 40
0.0
 40
0.0
 40
0.0
 40
0.0
 40
0.0522934596786193
 40
0.1061194839287614
 40
0.1584084671302237
 40
0.2121837321855255
 40
0.2650306040301135
 40
0.3193851021238926
 40
0.372620602261113
 40
0.4274341576487908
 40
0.480045497282254
 40
0.534223682691641
 40
0.5861687139691165
 40
0.6396041797576569
 40
0.6918791833579814
 40
0.7456242078003789
 40
0.7987057333628894
 40
0.8533211141069121
 40
0.9064414078131019
 40
0.9611471354018679
 40
1.0
 40
1.0
 40
1.0
 40
1.0
 10
3.602226654565655
 20
4.388599546234567
 30
0.0
 10
3.602536073096704
 20
4.388541156023411
 30
0.0
 10
3.603163978288571
 20
4.388422664359016
 30
0.0
 10
3.608210668853858
 20
4.387494186590351
 30
0.0
 10
3.61618014831416
 20
4.386110634762789
 30
0.0
 10
3.62702904896637
 20
4.384384517114378
 30
0.0
 10
3.640605861555672
 20
4.382486730859264
 30
0.0
 10
3.656391685410357
 20
4.380647666452791
 30
0.0
 10
3.674211616554972
 20
4.379052757766165
 30
0.0
 10
3.693192890633017
 20
4.377920216907117
 30
0.0
 10
3.713073652009841
 20
4.377363461674301
 30
0.0
 10
3.732822379988811
 20
4.377449026015253
 30
0.0
 10
3.752299196907695
 20
4.378156340689218
 30
0.0
 10
3.770652677341905
 20
4.37938548213858
 30
0.0
 10
3.787790545077285
 20
4.381023806804007
 30
0.0
 10
3.803022432525016
 20
4.382875144349419
 30
0.0
 10
3.816137279861775
 20
4.384763655761967
 30
0.0
 10
3.826535495439332
 20
4.386455351790492
 30
0.0
 10
3.833890073714718
 20
4.38775224597284
 30
0.0
 10
3.837971942857209
 20
4.388510098964022
 30
0.0
 10
3.838091159547103
 20
4.388532812954903
 30
0.0
 10
3.838140667666048
 20
4.38854224558521
 30
0.0
  0
LINE
  5
EF
330
1F
100
AcDbEntity
  8
0
  6
CONTINUOUS
 62
     7
100
AcDbLine
 10
3.9565573632
 20
3.1287570265
 30
0.0
 11
3.9565573632
 21
4.3885995462
 31
0.0
  0
SPLINE
  5
F0
330
1F
100
AcDbEntity
  8
0
  6
CONTINUOUS
 62
     7
100
AcDbSpline
210
0.0
220
0.0
230
1.0
 70
     8
 71
     3
 72
     8
 73
     4
 74
     0
 42
0.00000001
 43
0.00000001
 40
0.0
 40
0.0
 40
0.0
 40
0.0
 40
0.000749374772851
 40
0.000749374772851
 40
0.000749374772851
 40
0.000749374772851
 10
3.740021930156206
 20
3.19224149230001
 30
0.0
 10
3.733446278860359
 20
3.199554122043995
 30
0.0
 10
3.726884072871229
 20
3.206878869640486
 30
0.0
 10
3.720336890786127
 20
3.214216999544059
 30
0.0
  0
LINE
  5
F1
330
1F
100
AcDbEntity
  8
0
  6
CONTINUOUS
 62
     7
100
AcDbLine
 10
3.7203368908
 20
3.2142169995
 30
0.0
 11
3.7203368908
 21
4.3031395732
 31
0.0
  0
SPLINE
  5
F2
330
1F
100
AcDbEntity
  8
0
  6
CONTINUOUS
 62
     7
100
AcDbSpline
210
0.0
220
0.0
230
1.0
 70
     8
 71
     3
 72
     8
 73
     4
 74
     0
 42
0.00000001
 43
0.00000001
 40
0.0
 40
0.0
 40
0.0
 40
0.0
 40
0.000749374772851
 40
0.000749374772851
 40
0.000749374772851
 40
0.000749374772851
 10
3.720336890786127
 20
4.303139573240035
 30
0.0
 10
3.726884072871229
 20
4.310477703143609
 30
0.0
 10
3.733446278860359
 20
4.317802450740099
 30
0.0
 10
3.740021930156206
 20
4.325115080484084
 30
0.0
  0
LINE
  5
F3
330
1F
100
AcDbEntity
  8
0
  6
CONTINUOUS
 62
     7
100
AcDbLine
 10
3.9762424026
 20
4.3689145069
 30
0.0
 11
3.9762424026
 21
3.1484420659
 31
0.0
  0
LINE
  5
F4
330
1F
100
AcDbEntity
  8
0
  6
CONTINUOUS
 62
     7
100
AcDbLine
 10
3.5038014577
 20
4.3251150805
 30
0.0
 11
3.4979157348
 21
4.3185445198
 31
0.0
  0
LINE
  5
F5
330
1F
100
AcDbEntity
  8
0
  6
CONTINUOUS
 62
     7
100
AcDbLine
 10
3.4959634731
 20
3.2009914716
 30
0.0
 11
3.5038014577
 21
3.1922414923
 31
0.0
  0
LINE
  5
F6
330
1F
100
AcDbEntity
  8
0
  6
CONTINUOUS
 62
     7
100
AcDbLine
 10
3.4841164183
 20
4.3185445198
 30
0.0
 11
3.4841164183
 21
4.3689145069
 31
0.0
  0
LINE
  5
F7
330
1F
100
AcDbEntity
  8
0
  6
CONTINUOUS
 62
     7
100
AcDbLine
 10
3.4841164183
 20
3.1484420659
 30
0.0
 11
3.4841164183
 21
3.2009914716
 31
0.0
  0
CIRCLE
  5
F8
330
1F
100
AcDbEntity
  8
0
  6
CONTINUOUS
 62
     7
100
AcDbCircle
 10
2.932935316
 20
3.7586782864
 30
0.0
 40
0.1082677165353987
  0
LINE
  5
F9
330
1F
100
AcDbEntity
  8
0
  6
CONTINUOUS
 62
     7
100
AcDbLine
 10
2.8148250798
 20
3.7586782864
 30
0.0
 11
2.8149093901
 21
3.7542163684
 31
0.0
  0
ARC
  5
FA
330
1F
100
AcDbEntity
  8
0
  6
CONTINUOUS
 62
     7
100
AcDbCircle
 10
2.932935316
 20
3.7586782864
 30
0.0
 40
0.1181102362204693
100
AcDbArc
 50
249.9041218457
 51
180.0
  0
LINE
  5
FB
330
1F
100
AcDbEntity
  8
0
  6
CONTINUOUS
 62
     7
100
AcDbLine
 10
2.8738801979
 20
3.7927737747
 30
0.0
 11
2.932935316
 21
3.8268692631
 31
0.0
  0
LINE
  5
FC
330
1F
100
AcDbEntity
  8
0
  6
CONTINUOUS
 62
     7
100
AcDbLine
 10
2.8738801979
 20
3.7245827981
 30
0.0
 11
2.8738801979
 21
3.7927737747
 31
0.0
  0
LINE
  5
FD
330
1F
100
AcDbEntity
  8
0
  6
CONTINUOUS
 62
     7
100
AcDbLine
 10
2.932935316
 20
3.6904873097
 30
0.0
 11
2.8738801979
 21
3.7245827981
 31
0.0
  0
LINE
  5
FE
330
1F
100
AcDbEntity
  8
0
  6
CONTINUOUS
 62
     7
100
AcDbLine
 10
2.9919904341
 20
3.7245827981
 30
0.0
 11
2.932935316
 21
3.6904873097
 31
0.0
  0
LINE
  5
FF
330
1F
100
AcDbEntity
  8
0
  6
CONTINUOUS
 62
     7
100
AcDbLine
 10
2.9919904341
 20
3.7927737747
 30
0.0
 11
2.9919904341
 21
3.7245827981
 31
0.0
  0
LINE
  5
100
330
1F
100
AcDbEntity
  8
0
  6
CONTINUOUS
 62
     7
100
AcDbLine
 10
2.932935316
 20
3.8268692631
 30
0.0
 11
2.9919904341
 21
3.7927737747
 31
0.0
  0
LINE
  5
101
330
1F
100
AcDbEntity
  8
0
  6
CONTINUOUS
 62
     7
100
AcDbLine
 10
2.6967148435
 20
3.7586782864
 30
0.0
 11
2.6967148435
 21
3.1287570265
 31
0.0
  0
LINE
  5
102
330
1F
100
AcDbEntity
  8
0
  6
CONTINUOUS
 62
     7
100
AcDbLine
 10
2.6967148435
 20
4.3885995462
 30
0.0
 11
2.6967148435
 21
3.7586782864
 31
0.0
  0
LINE
  5
103
330
1F
100
AcDbEntity
  8
0
  6
CONTINUOUS
 62
     7
100
AcDbLine
 10
2.6770298042
 20
3.7586782864
 30
0.0
 11
2.6770298042
 21
4.3689145069
 31
0.0
  0
LINE
  5
104
330
1F
100
AcDbEntity
  8
0
  6
CONTINUOUS
 62
     7
100
AcDbLine
 10
2.6770298042
 20
3.1484420659
 30
0.0
 11
2.6770298042
 21
3.7586782864
 31
0.0
  0
LINE
  5
105
330
1F
100
AcDbEntity
  8
0
  6
CONTINUOUS
 62
     7
100
AcDbLine
 10
2.9132502766
 20
4.0342688376
 30
0.0
 11
2.9132502766
 21
4.3885995462
 31
0.0
  0
LINE
  5
106
330
1F
100
AcDbEntity
  8
0
  6
CONTINUOUS
 62
     7
100
AcDbLine
 10
2.9132502766
 20
4.0342688376
 30
0.0
 11
3.1691557884
 21
4.0342688376
 31
0.0
  0
LINE
  5
107
330
1F
100
AcDbEntity
  8
0
  6
CONTINUOUS
 62
     7
100
AcDbLine
 10
3.1691557884
 20
4.0342688376
 30
0.0
 11
3.1691557884
 21
3.4830877352
 31
0.0
  0
LINE
  5
108
330
1F
100
AcDbEntity
  8
0
  6
CONTINUOUS
 62
     7
100
AcDbLine
 10
3.1691557884
 20
3.4830877352
 30
0.0
 11
2.9132502766
 21
3.4830877352
 31
0.0
  0
LINE
  5
109
330
1F
100
AcDbEntity
  8
0
  6
CONTINUOUS
 62
     7
100
AcDbLine
 10
2.9132502766
 20
3.1287570265
 30
0.0
 11
2.9132502766
 21
3.4830877352
 31
0.0
  0
SPLINE
  5
10A
330
1F
100
AcDbEntity
  8
0
  6
CONTINUOUS
 62
     7
100
AcDbSpline
210
0.0
220
0.0
230
1.0
 70
     8
 71
     3
 72
    15
 73
    11
 74
     0
 42
0.00000001
 43
0.00000001
 40
0.0
 40
0.0
 40
0.0
 40
0.0
 40
0.1365625150181493
 40
0.2731316114257439
 40
0.4096223569810459
 40
0.5461227142256965
 40
0.6840828071317874
 40
0.8220409187875645
 40
0.9610959274213629
 40
1.0
 40
1.0
 40
1.0
 40
1.0
 10
3.05104555220345
 20
3.758678286392045
 30
0.0
 10
3.050720791496554
 20
3.752102507756253
 30
0.0
 10
3.050071254431492
 20
3.738950633576621
 30
0.0
 10
3.045009409659214
 20
3.719783277518995
 30
0.0
 10
3.037028787325348
 20
3.701744009264079
 30
0.0
 10
3.026134224887677
 20
3.68523244702789
 30
0.0
 10
3.012594595758154
 20
3.670698445071609
 30
0.0
 10
2.996673996476062
 20
3.65874678954512
 30
0.0
 10
2.983372574284525
 20
3.651152087461061
 30
0.0
 10
2.975193564508946
 20
3.648641325868264
 30
0.0
 10
2.973405531058995
 20
3.648092442099207
 30
0.0
  0
SPLINE
  5
10B
330
1F
100
AcDbEntity
  8
0
  6
CONTINUOUS
 62
     7
100
AcDbSpline
210
0.0
220
0.0
230
1.0
 70
     8
 71
     3
 72
    23
 73
    19
 74
     0
 42
0.00000001
 43
0.00000001
 40
0.0
 40
0.0
 40
0.0
 40
0.0
 40
0.0361934580962295
 40
0.1044089033708861
 40
0.1726277978089243
 40
0.2419254208358551
 40
0.3112197375977138
 40
0.3806009269101248
 40
0.4499769287977041
 40
0.5183252912986442
 40
0.5866746064933688
 40
0.6544884542246558
 40
0.7223074449767416
 40
0.7908698423481295
 40
0.8594339068729276
 40
0.9289117013610818
 40
0.9983845441248316
 40
1.0
 40
1.0
 40
1.0
 40
1.0
 10
2.892499388546315
 20
3.648140667811211
 30
0.0
 10
2.889206349643683
 20
3.649270956493289
 30
0.0
 10
2.879706771579952
 20
3.652531551307813
 30
0.0
 10
2.865452988471889
 20
3.661225781901284
 30
0.0
 10
2.850101073210106
 20
3.673660193668284
 30
0.0
 10
2.837093457886261
 20
3.688745009749936
 30
0.0
 10
2.826658505107938
 20
3.705837976237222
 30
0.0
 10
2.819307074176036
 20
3.724516580174111
 30
0.0
 10
2.815153086044513
 20
3.744088929430638
 30
0.0
 10
2.814416558461374
 20
3.763996326285088
 30
0.0
 10
2.816913826896068
 20
3.783603150241828
 30
0.0
 10
2.822670177600562
 20
3.802430210308583
 30
0.0
 10
2.831385128358928
 20
3.820079513647231
 30
0.0
 10
2.842989397661092
 20
3.836016998350232
 30
0.0
 10
2.857113182481035
 20
3.850058821992505
 30
0.0
 10
2.873617178135709
 20
3.861154562926891
 30
0.0
 10
2.885626226714411
 20
3.867711535826918
 30
0.0
 10
2.892214469790589
 20
3.869519469302427
 30
0.0
 10
2.892364185231642
 20
3.869560553936759
 30
0.0
  0
SPLINE
  5
10C
330
1F
100
AcDbEntity
  8
0
  6
CONTINUOUS
 62
     7
100
AcDbSpline
210
0.0
220
0.0
230
1.0
 70
     8
 71
     3
 72
    15
 73
    11
 74
     0
 42
0.00000001
 43
0.00000001
 40
0.0
 40
0.0
 40
0.0
 40
0.0
 40
0.1074270213622268
 40
0.2432204450466054
 40
0.3810634127123833
 40
0.5189048957280455
 40
0.6579433509416499
 40
0.7969705080151289
 40
0.8984860437321373
 40
0.9999999999999999
 40
0.9999999999999999
 40
0.9999999999999999
 40
0.9999999999999999
 10
2.973409589106768
 20
3.869349679333281
 30
0.0
 10
2.978229845906947
 20
3.867486972885782
 30
0.0
 10
2.989143161656675
 20
3.863269707197811
 30
0.0
 10
3.004558373395222
 20
3.853219201601527
 30
0.0
 10
3.019303203181453
 20
3.840046738954979
 30
0.0
 10
3.031738114303454
 20
3.824422445607357
 30
0.0
 10
3.04138167417694
 20
3.806851969263378
 30
0.0
 10
3.047361560753891
 20
3.789545131426204
 30
0.0
 10
3.050511647339876
 20
3.773339254842383
 30
0.0
 10
3.050867584838586
 20
3.76356525053017
 30
0.0
 10
3.05104555220345
 20
3.758678286392045
 30
0.0
  0
LINE
  5
10D
330
1F
100
AcDbEntity
  8
0
  6
CONTINUOUS
 62
     7
100
AcDbLine
 10
2.932935316
 20
4.3689145069
 30
0.0
 11
2.932935316
 21
4.0342688376
 31
0.0
  0
LINE
  5
10E
330
1F
100
AcDbEntity
  8
0
  6
CONTINUOUS
 62
     7
100
AcDbLine
 10
2.932935316
 20
3.4830877352
 30
0.0
 11
2.932935316
 21
3.1484420659
 31
0.0
  0
SPLINE
  5
10F
330
1F
100
AcDbEntity
  8
0
  6
CONTINUOUS
 62
     7
100
AcDbSpline
210
0.0
220
0.0
230
1.0
 70
     8
 71
     3
 72
     8
 73
     4
 74
     0
 42
0.00000001
 43
0.00000001
 40
0.0
 40
0.0
 40
0.0
 40
0.0
 40
0.000650145288803
 40
0.000650145288803
 40
0.000650145288803
 40
0.000650145288803
 10
3.17120024965874
 20
4.034268837573181
 30
0.0
 10
3.17707575125468
 20
4.038643483139523
 30
0.0
 10
3.182956085052116
 20
4.043014885802166
 30
0.0
 10
3.188840827794035
 20
4.047383316271313
 30
0.0
  0
LINE
  5
110
330
1F
100
AcDbEntity
  8
0
  6
CONTINUOUS
 62
     7
100
AcDbLine
 10
3.1888408278
 20
4.0473833163
 30
0.0
 11
3.1888408278
 21
3.4657854558
 31
0.0
  0
SPLINE
  5
111
330
1F
100
AcDbEntity
  8
0
  6
CONTINUOUS
 62
     7
100
AcDbSpline
210
0.0
220
0.0
230
1.0
 70
     8
 71
     3
 72
     8
 73
     4
 74
     0
 42
0.00000001
 43
0.00000001
 40
0.0
 40
0.0
 40
0.0
 40
0.0
 40
0.0005733614293614
 40
0.0005733614293614
 40
0.0005733614293614
 40
0.0005733614293614
 10
3.175632239806072
 20
3.483087735210909
 30
0.0
 10
3.180006412491243
 20
3.477300837960847
 30
0.0
 10
3.184410156797944
 20
3.471533824799478
 30
0.0
 10
3.188840827794035
 20
3.465785455805784
 30
0.0
  0
LINE
  5
112
330
1F
100
AcDbEntity
  8
0
  6
CONTINUOUS
 62
     7
100
AcDbLine
 10
3.464431379
 20
4.3185445198
 30
0.0
 11
3.464431379
 21
4.3885995462
 31
0.0
  0
LINE
  5
113
330
1F
100
AcDbEntity
  8
0
  6
CONTINUOUS
 62
     7
100
AcDbLine
 10
3.7006518514
 20
4.3185445198
 30
0.0
 11
3.464431379
 21
4.3185445198
 31
0.0
  0
LINE
  5
114
330
1F
100
AcDbEntity
  8
0
  6
CONTINUOUS
 62
     7
100
AcDbLine
 10
3.7006518514
 20
3.2009914716
 30
0.0
 11
3.7006518514
 21
4.3185445198
 31
0.0
  0
LINE
  5
115
330
1F
100
AcDbEntity
  8
0
  6
CONTINUOUS
 62
     7
100
AcDbLine
 10
3.464431379
 20
3.2009914716
 30
0.0
 11
3.7006518514
 21
3.2009914716
 31
0.0
  0
LINE
  5
116
330
1F
100
AcDbEntity
  8
0
  6
CONTINUOUS
 62
     7
100
AcDbLine
 10
3.464431379
 20
3.1287570265
 30
0.0
 11
3.464431379
 21
3.2009914716
 31
0.0
  0
LINE
  5
117
330
1F
100
AcDbEntity
  8
0
  6
CONTINUOUS
 62
     7
100
AcDbLine
 10
3.1888408278
 20
3.4657854558
 30
0.0
 11
2.9526203554
 21
3.4657854558
 31
0.0
  0
LINE
  5
118
330
1F
100
AcDbEntity
  8
0
  6
CONTINUOUS
 62
     7
100
AcDbLine
 10
2.9526203554
 20
4.0473833163
 30
0.0
 11
3.1888408278
 21
4.0473833163
 31
0.0
  0
LINE
  5
119
330
1F
100
AcDbEntity
  8
0
  6
CONTINUOUS
 62
     7
100
AcDbLine
 10
2.9526203554
 20
4.3885995462
 30
0.0
 11
2.9526203554
 21
4.0473833163
 31
0.0
  0
LINE
  5
11A
330
1F
100
AcDbEntity
  8
0
  6
CONTINUOUS
 62
     7
100
AcDbLine
 10
2.9526203554
 20
3.4657854558
 30
0.0
 11
2.9526203554
 21
3.1287570265
 31
0.0
  0
SPLINE
  5
11B
330
1F
100
AcDbEntity
  8
0
  6
CONTINUOUS
 62
     7
100
AcDbSpline
210
0.0
220
0.0
230
1.0
 70
     8
 71
     3
 72
     8
 73
     4
 74
     0
 42
0.00000001
 43
0.00000001
 40
0.0
 40
0.0
 40
0.0
 40
0.0
 40
0.0000779828184968
 40
0.0000779828184968
 40
0.0000779828184968
 40
0.0000779828184968
 10
3.718292429551345
 20
4.305430041114005
 30
0.0
 10
3.718974078147991
 20
4.304666696023963
 30
0.0
 10
3.719655565859395
 20
4.303903207236145
 30
0.0
 10
3.720336890786128
 20
4.303139573240035
 30
0.0
  0
SPLINE
  5
11C
330
1F
100
AcDbEntity
  8
0
  6
CONTINUOUS
 62
     7
100
AcDbSpline
210
0.0
220
0.0
230
1.0
 70
     8
 71
     3
 72
     8
 73
     4
 74
     0
 42
0.00000001
 43
0.00000001
 40
0.0
 40
0.0
 40
0.0
 40
0.0
 40
0.0002469085042363
 40
0.0002469085042363
 40
0.0002469085042363
 40
0.0002469085042363
 10
3.720336890786127
 20
3.214216999544059
 30
0.0
 10
3.718179685881237
 20
3.211799188397989
 30
0.0
 10
3.716020848990205
 20
3.20938283241175
 30
0.0
 10
3.713860439404012
 20
3.206967884346133
 30
0.0
  0
SPLINE
  5
11D
330
1F
100
AcDbEntity
  8
0
  6
CONTINUOUS
 62
     7
100
AcDbSpline
210
0.0
220
0.0
230
1.0
 70
     8
 71
     3
 72
     8
 73
     4
 74
     0
 42
0.00000001
 43
0.00000001
 40
0.0
 40
0.0
 40
0.0
 40
0.0
 40
0.0005733614293614
 40
0.0005733614293614
 40
0.0005733614293614
 40
0.0005733614293614
 10
3.700651851416049
 20
3.200991471600129
 30
0.0
 10
3.70508252241214
 20
3.202977026504096
 30
0.0
 10
3.70948626671884
 20
3.20496902132495
 30
0.0
 10
3.713860439404012
 20
3.206967884346134
 30
0.0
  0
SPLINE
  5
11E
330
1F
100
AcDbEntity
  8
0
  6
CONTINUOUS
 62
     7
100
AcDbSpline
210
0.0
220
0.0
230
1.0
 70
     8
 71
     3
 72
     8
 73
     4
 74
     0
 42
0.00000001
 43
0.00000001
 40
0.0
 40
0.0
 40
0.0
 40
0.0
 40
0.000650145288803
 40
0.000650145288803
 40
0.000650145288803
 40
0.000650145288803
 10
3.700651851416049
 20
4.318544519812137
 30
0.0
 10
3.706536594157968
 20
4.314176089342991
 30
0.0
 10
3.712416927955405
 20
4.309804686680347
 30
0.0
 10
3.718292429551345
 20
4.305430041114005
 30
0.0
  0
SPLINE
  5
11F
330
1F
100
AcDbEntity
  8
0
  6
CONTINUOUS
 62
     7
100
AcDbSpline
210
0.0
220
0.0
230
1.0
 70
     8
 71
     3
 72
     8
 73
     4
 74
     0
 42
0.00000001
 43
0.00000001
 40
0.0
 40
0.0
 40
0.0
 40
0.0
 40
0.000650145288803
 40
0.000650145288803
 40
0.000650145288803
 40
0.000650145288803
 10
2.934979777217761
 20
4.034268837573181
 30
0.0
 10
2.940855278813701
 20
4.038643483139523
 30
0.0
 10
2.946735612611137
 20
4.043014885802166
 30
0.0
 10
2.952620355353057
 20
4.047383316271313
 30
0.0
  0
LINE
  5
120
330
1F
100
AcDbEntity
  8
0
  6
CONTINUOUS
 62
     7
100
AcDbLine
 10
3.1712002497
 20
4.0342688376
 30
0.0
 11
3.1691557884
 21
4.0342688376
 31
0.0
  0
SPLINE
  5
121
330
1F
100
AcDbEntity
  8
0
  6
CONTINUOUS
 62
     7
100
AcDbSpline
210
0.0
220
0.0
230
1.0
 70
     8
 71
     3
 72
     8
 73
     4
 74
     0
 42
0.00000001
 43
0.00000001
 40
0.0
 40
0.0
 40
0.0
 40
0.0
 40
0.0005733614293614
 40
0.0005733614293614
 40
0.0005733614293614
 40
0.0005733614293614
 10
2.939411767365093
 20
3.483087735210909
 30
0.0
 10
2.943785940050264
 20
3.477300837960847
 30
0.0
 10
2.948189684356966
 20
3.471533824799478
 30
0.0
 10
2.952620355353057
 20
3.465785455805784
 30
0.0
  0
LINE
  5
122
330
1F
100
AcDbEntity
  8
0
  6
CONTINUOUS
 62
     7
100
AcDbLine
 10
3.1691557884
 20
3.4830877352
 30
0.0
 11
3.1756322398
 21
3.4830877352
 31
0.0
  0
LINE
  5
123
330
1F
100
AcDbEntity
  8
0
  6
HIDDEN
 62
     7
100
AcDbLine
 10
3.838447127
 20
4.3787570265
 30
0.0
 11
3.7610284748
 21
4.3787570265
 31
0.0
  0
LINE
  5
124
330
1F
100
AcDbEntity
  8
0
  6
HIDDEN
 62
     7
100
AcDbLine
 10
3.6800852929
 20
4.3787570265
 30
0.0
 11
3.6022266546
 21
4.3787570265
 31
0.0
  0
LINE
  5
125
330
1F
100
AcDbEntity
  8
0
  6
HIDDEN
 62
     7
100
AcDbLine
 10
3.6022266546
 20
3.926001121
 30
0.0
 11
3.838447127
 21
3.926001121
 31
0.0
  0
LINE
  5
126
330
1F
100
AcDbEntity
  8
0
  6
HIDDEN
 62
     7
100
AcDbLine
 10
3.8286046073
 20
3.9161586014
 30
0.0
 11
3.6120691743
 21
3.9161586014
 31
0.0
  0
LINE
  5
127
330
1F
100
AcDbEntity
  8
0
  6
HIDDEN
 62
     7
100
AcDbLine
 10
3.6612817727
 20
4.27048931
 30
0.0
 11
3.7203368908
 21
4.27048931
 31
0.0
  0
LINE
  5
128
330
1F
100
AcDbEntity
  8
0
  6
HIDDEN
 62
     7
100
AcDbLine
 10
3.7203368908
 20
4.3031395732
 30
0.0
 11
3.7203368908
 21
4.3885995462
 31
0.0
  0
LINE
  5
129
330
1F
100
AcDbEntity
  8
0
  6
HIDDEN
 62
     7
100
AcDbLine
 10
3.7203368908
 20
4.27048931
 30
0.0
 11
3.7793920089
 21
4.27048931
 31
0.0
  0
LINE
  5
12A
330
1F
100
AcDbEntity
  8
0
  6
HIDDEN
 62
     7
100
AcDbLine
 10
3.6612817727
 20
4.27048931
 30
0.0
 11
3.6612817727
 21
4.3885995462
 31
0.0
  0
LINE
  5
12B
330
1F
100
AcDbEntity
  8
0
  6
HIDDEN
 62
     7
100
AcDbLine
 10
3.7793920089
 20
4.27048931
 30
0.0
 11
3.7793920089
 21
4.3885995462
 31
0.0
  0
LINE
  5
12C
330
1F
100
AcDbEntity
  8
0
  6
HIDDEN
 62
     7
100
AcDbLine
 10
3.4979157348
 20
4.3185445198
 30
0.0
 11
3.4841164183
 21
4.3031395732
 31
0.0
  0
LINE
  5
12D
330
1F
100
AcDbEntity
  8
0
  6
HIDDEN
 62
     7
100
AcDbLine
 10
3.4841164183
 20
3.2142169995
 30
0.0
 11
3.4959634731
 21
3.2009914716
 31
0.0
  0
LINE
  5
12E
330
1F
100
AcDbEntity
  8
0
  6
HIDDEN
 62
     7
100
AcDbLine
 10
3.4841164183
 20
3.2142169995
 30
0.0
 11
3.4841164183
 21
4.3031395732
 31
0.0
  0
LINE
  5
12F
330
1F
100
AcDbEntity
  8
0
  6
HIDDEN
 62
     7
100
AcDbLine
 10
3.4841164183
 20
4.3031395732
 30
0.0
 11
3.4841164183
 21
4.3185445198
 31
0.0
  0
LINE
  5
130
330
1F
100
AcDbEntity
  8
0
  6
HIDDEN
 62
     7
100
AcDbLine
 10
3.4841164183
 20
3.2009914716
 30
0.0
 11
3.4841164183
 21
3.2142169995
 31
0.0
  0
SPLINE
  5
131
330
1F
100
AcDbEntity
  8
0
  6
HIDDEN
 62
     7
100
AcDbSpline
210
0.0
220
0.0
230
1.0
 70
     8
 71
     3
 72
    30
 73
    26
 74
     0
 42
0.00000001
 43
0.00000001
 40
0.0
 40
0.0
 40
0.0
 40
0.0
 40
0.0206268853743504
 40
0.0640476844454838
 40
0.1048676592093906
 40
0.146662648613843
 40
0.1920027438142837
 40
0.2382720662591933
 40
0.2924939036272381
 40
0.3479754250594601
 40
0.3914724253719316
 40
0.4359769409495731
 40
0.4707085574366145
 40
0.5064114913048915
 40
0.5411643293877431
 40
0.5768873633392672
 40
0.6247316365731219
 40
0.6739146729165673
 40
0.7237262360958514
 40
0.7745057266697043
 40
0.8345593031492562
 40
0.8969361608420032
 40
0.9388563270013027
 40
0.9819507707674192
 40
1.0
 40
1.0
 40
1.0
 40
1.0
 10
3.838163194399049
 20
3.915945764215375
 30
0.0
 10
3.838219382396762
 20
3.915987865329075
 30
0.0
 10
3.838393849413077
 20
3.916118591747346
 30
0.0
 10
3.836196076889941
 20
3.914471808006843
 30
0.0
 10
3.831886714669311
 20
3.911286626683047
 30
0.0
 10
3.825489329865554
 20
3.906658623742089
 30
0.0
 10
3.81702176881213
 20
3.900740704799467
 30
0.0
 10
3.805939701835417
 20
3.893394699086036
 30
0.0
 10
3.792205151969197
 20
3.885018538729832
 30
0.0
 10
3.776857454523388
 20
3.876913386405157
 30
0.0
 10
3.760964811029992
 20
3.87018485062623
 30
0.0
 10
3.746223903228514
 20
3.865685785581322
 30
0.0
 10
3.731653164881052
 20
3.863161714856823
 30
0.0
 10
3.717967782376722
 20
3.862563667609467
 30
0.0
 10
3.704235575493997
 20
3.863796591033504
 30
0.0
 10
3.689453850118553
 20
3.866986318741362
 30
0.0
 10
3.673898639755993
 20
3.872400838081105
 30
0.0
 10
3.6582287242879
 20
3.879724833134763
 30
0.0
 10
3.643849496495096
 20
3.887753182270036
 30
0.0
 10
3.630238393383856
 20
3.896282757792381
 30
0.0
 10
3.617942156547426
 20
3.904666869344787
 30
0.0
 10
3.609187697704624
 20
3.910988104802154
 30
0.0
 10
3.604288866968599
 20
3.914612660215674
 30
0.0
 10
3.602219865853076
 20
3.916163656575317
 30
0.0
 10
3.602438508600014
 20
3.915999791107757
 30
0.0
 10
3.602503050569215
 20
3.915951419048274
 30
0.0
  0
LINE
  5
132
330
1F
100
AcDbEntity
  8
0
  6
HIDDEN
 62
     7
100
AcDbLine
 10
3.7203368908
 20
3.1922414923
 30
0.0
 11
3.7203368908
 21
3.2142169995
 31
0.0
  0
ARC
  5
133
330
1F
100
AcDbEntity
  8
0
  6
HIDDEN
 62
     7
100
AcDbCircle
 10
2.932935316
 20
3.7586782864
 30
0.0
 40
0.1181102362204693
100
AcDbArc
 50
182.1650106321
 51
249.9041218457
  0
LINE
  5
134
330
1F
100
AcDbEntity
  8
0
  6
HIDDEN
 62
     7
100
AcDbLine
 10
3.1494707491
 20
4.0342688376
 30
0.0
 11
3.1494707491
 21
3.4830877352
 31
0.0
  0
SPLINE
  5
135
330
1F
100
AcDbEntity
  8
0
  6
HIDDEN
 62
     7
100
AcDbSpline
210
0.0
220
0.0
230
1.0
 70
     8
 71
     3
 72
    12
 73
     8
 74
     0
 42
0.00000001
 43
0.00000001
 40
0.0
 40
0.0
 40
0.0
 40
0.0
 40
0.1745084399191877
 40
0.4140005833043192
 40
0.6534878626035647
 40
0.8898104805033984
 40
1.0
 40
1.0
 40
1.0
 40
1.0
 10
2.973405531058995
 20
3.648092442099207
 30
0.0
 10
2.96887162836882
 20
3.646465347594085
 30
0.0
 10
2.958115481793637
 20
3.642605258795378
 30
0.0
 10
2.940061488064928
 20
3.640291283547746
 30
0.0
 10
2.920308122933117
 20
3.640772514531208
 30
0.0
 10
2.904204121295351
 20
3.643490598698234
 30
0.0
 10
2.8953234178836
 20
3.647018734326952
 30
0.0
 10
2.892499388546315
 20
3.648140667811211
 30
0.0
  0
SPLINE
  5
136
330
1F
100
AcDbEntity
  8
0
  6
HIDDEN
 62
     7
100
AcDbSpline
210
0.0
220
0.0
230
1.0
 70
     8
 71
     3
 72
    12
 73
     8
 74
     0
 42
0.00000001
 43
0.00000001
 40
0.0
 40
0.0
 40
0.0
 40
0.0
 40
0.2353470301219076
 40
0.476311150772728
 40
0.7134356154400636
 40
0.9505710526809207
 40
1.0
 40
1.0
 40
1.0
 40
1.0
 10
2.892364185231642
 20
3.869560553936759
 30
0.0
 10
2.898564669789938
 20
3.871505690324558
 30
0.0
 10
2.911113627530261
 20
3.875442388190693
 30
0.0
 10
2.930886941837072
 20
3.877341642982084
 30
0.0
 10
2.950570338173988
 20
3.87583177477193
 30
0.0
 10
2.964928066606744
 20
3.873059319865555
 30
0.0
 10
2.972161847889718
 20
3.869895415242434
 30
0.0
 10
2.973409589106768
 20
3.869349679333281
 30
0.0
  0
LINE
  5
137
330
1F
100
AcDbEntity
  8
0
  6
HIDDEN
 62
     7
100
AcDbLine
 10
3.464431379
 20
4.3163651012
 30
0.0
 11
3.7006518514
 21
4.3163651012
 31
0.0
  0
LINE
  5
138
330
1F
100
AcDbEntity
  8
0
  6
HIDDEN
 62
     7
100
AcDbLine
 10
3.464431379
 20
4.3185445198
 30
0.0
 11
3.464431379
 21
4.3163651012
 31
0.0
  0
LINE
  5
139
330
1F
100
AcDbEntity
  8
0
  6
HIDDEN
 62
     7
100
AcDbLine
 10
3.7006518514
 20
3.198812053
 30
0.0
 11
3.464431379
 21
3.198812053
 31
0.0
  0
LINE
  5
13A
330
1F
100
AcDbEntity
  8
0
  6
HIDDEN
 62
     7
100
AcDbLine
 10
3.7006518514
 20
3.2009914716
 30
0.0
 11
3.7006518514
 21
3.198812053
 31
0.0
  0
LINE
  5
13B
330
1F
100
AcDbEntity
  8
0
  6
HIDDEN
 62
     7
100
AcDbLine
 10
3.1888408278
 20
4.051571117
 30
0.0
 11
2.9526203554
 21
4.051571117
 31
0.0
  0
LINE
  5
13C
330
1F
100
AcDbEntity
  8
0
  6
HIDDEN
 62
     7
100
AcDbLine
 10
3.1888408278
 20
4.0473833163
 30
0.0
 11
3.1888408278
 21
4.051571117
 31
0.0
  0
LINE
  5
13D
330
1F
100
AcDbEntity
  8
0
  6
HIDDEN
 62
     7
100
AcDbLine
 10
2.9526203554
 20
3.4699732565
 30
0.0
 11
3.1888408278
 21
3.4699732565
 31
0.0
  0
LINE
  5
13E
330
1F
100
AcDbEntity
  8
0
  6
HIDDEN
 62
     7
100
AcDbLine
 10
2.9526203554
 20
3.4657854558
 30
0.0
 11
2.9526203554
 21
3.4699732565
 31
0.0
  0
SPLINE
  5
13F
330
1F
100
AcDbEntity
  8
0
  6
HIDDEN
 62
     7
100
AcDbSpline
210
0.0
220
0.0
230
1.0
 70
     8
 71
     3
 72
     8
 73
     4
 74
     0
 42
0.00000001
 43
0.00000001
 40
0.0
 40
0.0
 40
0.0
 40
0.0
 40
0.0005733614293614
 40
0.0005733614293614
 40
0.0005733614293614
 40
0.0005733614293614
 10
2.939411767365093
 20
4.034268837573185
 30
0.0
 10
2.943785940050264
 20
4.040055734823247
 30
0.0
 10
2.948189684356965
 20
4.045822747984616
 30
0.0
 10
2.952620355353057
 20
4.05157111697831
 30
0.0
  0
SPLINE
  5
140
330
1F
100
AcDbEntity
  8
0
  6
HIDDEN
 62
     7
100
AcDbSpline
210
0.0
220
0.0
230
1.0
 70
     8
 71
     3
 72
     8
 73
     4
 74
     0
 42
0.00000001
 43
0.00000001
 40
0.0
 40
0.0
 40
0.0
 40
0.0
 40
0.000650145288803
 40
0.000650145288803
 40
0.000650145288803
 40
0.000650145288803
 10
2.93497977721776
 20
3.483087735210913
 30
0.0
 10
2.9408552788137
 20
3.478713089644571
 30
0.0
 10
2.946735612611136
 20
3.474341686981928
 30
0.0
 10
2.952620355353056
 20
3.469973256512781
 30
0.0
  0
SPLINE
  5
141
330
1F
100
AcDbEntity
  8
0
  6
HIDDEN
 62
     7
100
AcDbSpline
210
0.0
220
0.0
230
1.0
 70
     8
 71
     3
 72
     8
 73
     4
 74
     0
 42
0.00000001
 43
0.00000001
 40
0.0
 40
0.0
 40
0.0
 40
0.0
 40
0.0002469085042363
 40
0.0002469085042363
 40
0.0002469085042363
 40
0.0002469085042363
 10
3.477639966963033
 20
3.206967884346134
 30
0.0
 10
3.479800376549227
 20
3.20938283241175
 30
0.0
 10
3.481959213440259
 20
3.211799188397989
 30
0.0
 10
3.484116418345149
 20
3.214216999544059
 30
0.0
  0
SPLINE
  5
142
330
1F
100
AcDbEntity
  8
0
  6
HIDDEN
 62
     7
100
AcDbSpline
210
0.0
220
0.0
230
1.0
 70
     8
 71
     3
 72
     8
 73
     4
 74
     0
 42
0.00000001
 43
0.00000001
 40
0.0
 40
0.0
 40
0.0
 40
0.0
 40
0.000650145288803
 40
0.000650145288803
 40
0.000650145288803
 40
0.000650145288803
 10
3.46443137897507
 20
3.198812052971957
 30
0.0
 10
3.470316121716989
 20
3.203180483441104
 30
0.0
 10
3.476196455514426
 20
3.207551886103748
 30
0.0
 10
3.482071957110366
 20
3.211926531670089
 30
0.0
  0
SPLINE
  5
143
330
1F
100
AcDbEntity
  8
0
  6
HIDDEN
 62
     7
100
AcDbSpline
210
0.0
220
0.0
230
1.0
 70
     8
 71
     3
 72
     8
 73
     4
 74
     0
 42
0.00000001
 43
0.00000001
 40
0.0
 40
0.0
 40
0.0
 40
0.0
 40
0.0005733614293614
 40
0.0005733614293614
 40
0.0005733614293614
 40
0.0005733614293614
 10
3.46443137897507
 20
3.200991471600129
 30
0.0
 10
3.468862049971161
 20
3.202977026504096
 30
0.0
 10
3.473265794277862
 20
3.20496902132495
 30
0.0
 10
3.477639966963033
 20
3.206967884346134
 30
0.0
  0
SPLINE
  5
144
330
1F
100
AcDbEntity
  8
0
  6
HIDDEN
 62
     7
100
AcDbSpline
210
0.0
220
0.0
230
1.0
 70
     8
 71
     3
 72
     8
 73
     4
 74
     0
 42
0.00000001
 43
0.00000001
 40
0.0
 40
0.0
 40
0.0
 40
0.0
 40
0.0000779828184968
 40
0.0000779828184968
 40
0.0000779828184968
 40
0.0000779828184968
 10
3.484116418345149
 20
4.303139573240035
 30
0.0
 10
3.483435093418416
 20
4.303903207236145
 30
0.0
 10
3.482753605707012
 20
4.304666696023963
 30
0.0
 10
3.482071957110366
 20
4.305430041114005
 30
0.0
  0
SPLINE
  5
145
330
1F
100
AcDbEntity
  8
0
  6
HIDDEN
 62
     7
100
AcDbSpline
210
0.0
220
0.0
230
1.0
 70
     8
 71
     3
 72
     8
 73
     4
 74
     0
 42
0.00000001
 43
0.00000001
 40
0.0
 40
0.0
 40
0.0
 40
0.0
 40
0.000650145288803
 40
0.000650145288803
 40
0.000650145288803
 40
0.000650145288803
 10
3.46443137897507
 20
4.318544519812137
 30
0.0
 10
3.470316121716989
 20
4.314176089342991
 30
0.0
 10
3.476196455514426
 20
4.309804686680347
 30
0.0
 10
3.482071957110366
 20
4.305430041114005
 30
0.0
  0
SPLINE
  5
146
330
1F
100
AcDbEntity
  8
0
  6
HIDDEN
 62
     7
100
AcDbSpline
210
0.0
220
0.0
230
1.0
 70
     8
 71
     3
 72
     8
 73
     4
 74
     0
 42
0.00000001
 43
0.00000001
 40
0.0
 40
0.0
 40
0.0
 40
0.0
 40
0.0005733614293614
 40
0.0005733614293614
 40
0.0005733614293614
 40
0.0005733614293614
 10
3.46443137897507
 20
4.316365101183965
 30
0.0
 10
3.468862049971161
 20
4.314379546279998
 30
0.0
 10
3.473265794277862
 20
4.312387551459144
 30
0.0
 10
3.477639966963033
 20
4.310388688437961
 30
0.0
  0
SPLINE
  5
147
330
1F
100
AcDbEntity
  8
0
  6
HIDDEN
 62
     7
100
AcDbSpline
210
0.0
220
0.0
230
1.0
 70
     8
 71
     3
 72
     8
 73
     4
 74
     0
 42
0.00000001
 43
0.00000001
 40
0.0
 40
0.0
 40
0.0
 40
0.0
 40
0.0002469085042363
 40
0.0002469085042363
 40
0.0002469085042363
 40
0.0002469085042363
 10
3.477639966963033
 20
4.310388688437961
 30
0.0
 10
3.479800376549226
 20
4.307973740372343
 30
0.0
 10
3.481959213440258
 20
4.305557384386105
 30
0.0
 10
3.484116418345149
 20
4.303139573240035
 30
0.0
  0
LINE
  5
148
330
1F
100
AcDbEntity
  8
0
  6
HIDDEN
 62
     7
100
AcDbLine
 10
3.4820719571
 20
4.3054300411
 30
0.0
 11
3.7182924296
 21
4.3054300411
 31
0.0
  0
LINE
  5
149
330
1F
100
AcDbEntity
  8
0
  6
HIDDEN
 62
     7
100
AcDbLine
 10
3.7138604394
 20
3.2069678843
 30
0.0
 11
3.477639967
 21
3.2069678843
 31
0.0
  0
SPLINE
  5
14A
330
1F
100
AcDbEntity
  8
0
  6
HIDDEN
 62
     7
100
AcDbSpline
210
0.0
220
0.0
230
1.0
 70
     8
 71
     3
 72
     8
 73
     4
 74
     0
 42
0.00000001
 43
0.00000001
 40
0.0
 40
0.0
 40
0.0
 40
0.0
 40
0.0005733614293614
 40
0.0005733614293614
 40
0.0005733614293614
 40
0.0005733614293614
 10
3.700651851416049
 20
4.316365101183965
 30
0.0
 10
3.70508252241214
 20
4.314379546279998
 30
0.0
 10
3.709486266718841
 20
4.312387551459144
 30
0.0
 10
3.713860439404012
 20
4.310388688437961
 30
0.0
  0
LINE
  5
14B
330
1F
100
AcDbEntity
  8
0
  6
HIDDEN
 62
     7
100
AcDbLine
 10
3.7138604394
 20
4.3103886884
 30
0.0
 11
3.477639967
 21
4.3103886884
 31
0.0
  0
LINE
  5
14C
330
1F
100
AcDbEntity
  8
0
  6
HIDDEN
 62
     7
100
AcDbLine
 10
3.4820719571
 20
3.2119265317
 30
0.0
 11
3.7182924296
 21
3.2119265317
 31
0.0
  0
SPLINE
  5
14D
330
1F
100
AcDbEntity
  8
0
  6
HIDDEN
 62
     7
100
AcDbSpline
210
0.0
220
0.0
230
1.0
 70
     8
 71
     3
 72
     8
 73
     4
 74
     0
 42
0.00000001
 43
0.00000001
 40
0.0
 40
0.0
 40
0.0
 40
0.0
 40
0.000650145288803
 40
0.000650145288803
 40
0.000650145288803
 40
0.000650145288803
 10
3.718292429551345
 20
3.211926531670089
 30
0.0
 10
3.712416927955405
 20
3.207551886103748
 30
0.0
 10
3.706536594157968
 20
3.203180483441104
 30
0.0
 10
3.700651851416049
 20
3.198812052971957
 30
0.0
  0
SPLINE
  5
14E
330
1F
100
AcDbEntity
  8
0
  6
HIDDEN
 62
     7
100
AcDbSpline
210
0.0
220
0.0
230
1.0
 70
     8
 71
     3
 72
     8
 73
     4
 74
     0
 42
0.00000001
 43
0.00000001
 40
0.0
 40
0.0
 40
0.0
 40
0.0
 40
0.0002469085042363
 40
0.0002469085042363
 40
0.0002469085042363
 40
0.0002469085042363
 10
3.720336890786127
 20
4.303139573240035
 30
0.0
 10
3.718179685881237
 20
4.305557384386105
 30
0.0
 10
3.716020848990205
 20
4.307973740372343
 30
0.0
 10
3.713860439404012
 20
4.310388688437961
 30
0.0
  0
LINE
  5
14F
330
1F
100
AcDbEntity
  8
0
  6
HIDDEN
 62
     7
100
AcDbLine
 10
3.1756322398
 20
4.0342688376
 30
0.0
 11
3.1712071272
 21
4.0342688376
 31
0.0
  0
SPLINE
  5
150
330
1F
100
AcDbEntity
  8
0
  6
HIDDEN
 62
     7
100
AcDbSpline
210
0.0
220
0.0
230
1.0
 70
     8
 71
     3
 72
     8
 73
     4
 74
     0
 42
0.00000001
 43
0.00000001
 40
0.0
 40
0.0
 40
0.0
 40
0.0
 40
0.000650145288803
 40
0.000650145288803
 40
0.000650145288803
 40
0.000650145288803
 10
3.188840827794035
 20
3.469973256512781
 30
0.0
 10
3.182956085052116
 20
3.474341686981928
 30
0.0
 10
3.177075751254679
 20
3.478713089644571
 30
0.0
 10
3.171200249658739
 20
3.483087735210913
 30
0.0
  0
SPLINE
  5
151
330
1F
100
AcDbEntity
  8
0
  6
HIDDEN
 62
     7
100
AcDbSpline
210
0.0
220
0.0
230
1.0
 70
     8
 71
     3
 72
     8
 73
     4
 74
     0
 42
0.00000001
 43
0.00000001
 40
0.0
 40
0.0
 40
0.0
 40
0.0
 40
0.0005733614293614
 40
0.0005733614293614
 40
0.0005733614293614
 40
0.0005733614293614
 10
3.175632239806072
 20
4.034268837573185
 30
0.0
 10
3.180006412491243
 20
4.040055734823247
 30
0.0
 10
3.184410156797945
 20
4.045822747984616
 30
0.0
 10
3.188840827794035
 20
4.05157111697831
 30
0.0
  0
LINE
  5
152
330
1F
100
AcDbEntity
  8
0
  6
HIDDEN
 62
     7
100
AcDbLine
 10
3.6022266546
 20
4.3787570265
 30
0.0
 11
3.6022266546
 21
3.926001121
 31
0.0
  0
LINE
  5
153
330
1F
100
AcDbEntity
  8
0
  6
HIDDEN
 62
     7
100
AcDbLine
 10
3.838447127
 20
3.926001121
 30
0.0
 11
3.838447127
 21
4.3787570265
 31
0.0
  0
LINE
  5
154
330
1F
100
AcDbEntity
  8
0
  6
HIDDEN
 62
     7
100
AcDbLine
 10
3.6022266546
 20
3.926001121
 30
0.0
 11
3.6120691743
 21
3.9161586014
 31
0.0
  0
LINE
  5
155
330
1F
100
AcDbEntity
  8
0
  6
HIDDEN
 62
     7
100
AcDbLine
 10
3.8286046073
 20
3.9161586014
 30
0.0
 11
3.838447127
 21
3.926001121
 31
0.0
  0
LINE
  5
156
330
1F
100
AcDbEntity
  8
0
  6
HIDDEN
 62
     7
100
AcDbLine
 10
3.838447127
 20
4.3787570265
 30
0.0
 11
3.8301052174
 21
4.3870989362
 31
0.0
  0
LINE
  5
157
330
1F
100
AcDbEntity
  8
0
  6
HIDDEN
 62
     7
100
AcDbLine
 10
3.6105671698
 20
4.3870975418
 30
0.0
 11
3.6022266546
 21
4.3787570265
 31
0.0
  0
LINE
  5
158
330
1F
100
AcDbEntity
  8
0
  6
HIDDEN
 62
     7
100
AcDbLine
 10
3.9762424026
 20
3.9358436407
 30
0.0
 11
3.9565573632
 21
3.9161586014
 31
0.0
  0
LINE
  5
159
330
1F
100
AcDbEntity
  8
0
  6
HIDDEN
 62
     7
100
AcDbLine
 10
3.9565573632
 20
3.6011979714
 30
0.0
 11
3.9762424026
 21
3.5815129321
 31
0.0
  0
LINE
  5
15A
330
1F
100
AcDbEntity
  8
0
  6
HIDDEN
 62
     7
100
AcDbLine
 10
3.6025030506
 20
3.9161586014
 30
0.0
 11
3.4841164183
 21
3.9161586014
 31
0.0
  0
LINE
  5
15B
330
1F
100
AcDbEntity
  8
0
  6
HIDDEN
 62
     7
100
AcDbLine
 10
3.9565573632
 20
3.9161586014
 30
0.0
 11
3.8381631944
 21
3.9161586014
 31
0.0
  0
LINE
  5
15C
330
1F
100
AcDbEntity
  8
0
  6
HIDDEN
 62
     7
100
AcDbLine
 10
3.4841164183
 20
3.6011979714
 30
0.0
 11
3.9565573632
 21
3.6011979714
 31
0.0
  0
LINE
  5
15D
330
1F
100
AcDbEntity
  8
0
  6
HIDDEN
 62
     7
100
AcDbLine
 10
3.838447127
 20
3.9159457644
 30
0.0
 11
3.838447127
 21
4.3885995462
 31
0.0
  0
LINE
  5
15E
330
1F
100
AcDbEntity
  8
0
  6
HIDDEN
 62
     7
100
AcDbLine
 10
3.6022266546
 20
4.3885995462
 30
0.0
 11
3.6022266546
 21
3.9159514275
 31
0.0
  0
LINE
  5
15F
330
1F
100
AcDbEntity
  8
0
  6
HIDDEN
 62
     7
100
AcDbLine
 10
2.6770298042
 20
3.5815129321
 30
0.0
 11
2.6967148435
 21
3.6011979714
 31
0.0
  0
LINE
  5
160
330
1F
100
AcDbEntity
  8
0
  6
HIDDEN
 62
     7
100
AcDbLine
 10
2.6967148435
 20
3.9161586014
 30
0.0
 11
2.6770298042
 21
3.9358436407
 31
0.0
  0
LINE
  5
161
330
1F
100
AcDbEntity
  8
0
  6
HIDDEN
 62
     7
100
AcDbLine
 10
2.6967148435
 20
3.6011979714
 30
0.0
 11
3.1691557884
 21
3.6011979714
 31
0.0
  0
LINE
  5
162
330
1F
100
AcDbEntity
  8
0
  6
HIDDEN
 62
     7
100
AcDbLine
 10
3.1691557884
 20
3.9161586014
 30
0.0
 11
2.6967148435
 21
3.9161586014
 31
0.0
  0
LINE
  5
163
330
1F
100
AcDbEntity
  8
0
  6
HIDDEN
 62
     7
100
AcDbLine
 10
3.1691557884
 20
3.6011979714
 30
0.0
 11
3.4841164183
 21
3.6011979714
 31
0.0
  0
LINE
  5
164
330
1F
100
AcDbEntity
  8
0
  6
HIDDEN
 62
     7
100
AcDbLine
 10
3.4841164183
 20
3.9161586014
 30
0.0
 11
3.1691557884
 21
3.9161586014
 31
0.0
  0
LINE
  5
165
330
1F
100
AcDbEntity
  8
0
  6
CONTINUOUS
 62
     7
100
AcDbLine
 10
8.1327743701
 20
4.3787570265
 30
0.0
 11
8.1327743701
 21
4.3774276425
 31
0.0
  0
LINE
  5
166
330
1F
100
AcDbEntity
  8
0
  6
CONTINUOUS
 62
     7
100
AcDbLine
 10
8.3689948425
 20
4.3774276425
 30
0.0
 11
8.3689948425
 21
4.3787570265
 31
0.0
  0
LINE
  5
167
330
1F
100
AcDbEntity
  8
0
  6
CONTINUOUS
 62
     7
100
AcDbLine
 10
8.3689948425
 20
4.3787570265
 30
0.0
 11
8.3591523229
 21
4.3885995462
 31
0.0
  0
LINE
  5
168
330
1F
100
AcDbEntity
  8
0
  6
CONTINUOUS
 62
     7
100
AcDbLine
 10
8.1426168898
 20
4.3885995462
 30
0.0
 11
8.1327743701
 21
4.3787570265
 31
0.0
  0
LINE
  5
169
330
1F
100
AcDbEntity
  8
0
  6
CONTINUOUS
 62
     7
100
AcDbLine
 10
7.6308058662
 20
3.6405680502
 30
0.0
 11
7.6321352502
 21
3.6405680502
 31
0.0
  0
LINE
  5
16A
330
1F
100
AcDbEntity
  8
0
  6
CONTINUOUS
 62
     7
100
AcDbLine
 10
7.6321352502
 20
3.8767885226
 30
0.0
 11
7.6308058662
 21
3.8767885226
 31
0.0
  0
LINE
  5
16B
330
1F
100
AcDbEntity
  8
0
  6
CONTINUOUS
 62
     7
100
AcDbLine
 10
7.6308058662
 20
3.8767885226
 30
0.0
 11
7.6209633465
 21
3.8669460029
 31
0.0
  0
LINE
  5
16C
330
1F
100
AcDbEntity
  8
0
  6
CONTINUOUS
 62
     7
100
AcDbLine
 10
7.6209633465
 20
3.6504105699
 30
0.0
 11
7.6308058662
 21
3.6405680502
 31
0.0
  0
LINE
  5
16D
330
1F
100
AcDbEntity
  8
0
  6
CONTINUOUS
 62
     7
100
AcDbLine
 10
8.1399650426
 20
4.3787570265
 30
0.0
 11
8.1327743701
 21
4.3787570265
 31
0.0
  0
LINE
  5
16E
330
1F
100
AcDbEntity
  8
0
  6
CONTINUOUS
 62
     7
100
AcDbLine
 10
8.3689948425
 20
4.3787570265
 30
0.0
 11
8.36180417
 21
4.3787570265
 31
0.0
  0
LINE
  5
16F
330
1F
100
AcDbEntity
  8
0
  6
CONTINUOUS
 62
     7
100
AcDbLine
 10
8.2508846063
 20
4.3885995462
 30
0.0
 11
8.3591523229
 21
4.3885995462
 31
0.0
  0
LINE
  5
170
330
1F
100
AcDbEntity
  8
0
  6
CONTINUOUS
 62
     7
100
AcDbLine
 10
8.1426168898
 20
4.3885995462
 30
0.0
 11
8.2508846063
 21
4.3885995462
 31
0.0
  0
CIRCLE
  5
171
330
1F
100
AcDbEntity
  8
0
  6
CONTINUOUS
 62
     7
100
AcDbCircle
 10
8.2508846063
 20
3.7586782864
 30
0.0
 40
0.6102362204724407
  0
CIRCLE
  5
172
330
1F
100
AcDbEntity
  8
0
  6
CONTINUOUS
 62
     7
100
AcDbCircle
 10
8.2508846063
 20
3.7586782864
 30
0.0
 40
0.6299212598425203
  0
CIRCLE
  5
173
330
1F
100
AcDbEntity
  8
0
  6
CONTINUOUS
 62
     7
100
AcDbCircle
 10
8.2508846063
 20
3.7586782864
 30
0.0
 40
0.1771653543307092
  0
CIRCLE
  5
174
330
1F
100
AcDbEntity
  8
0
  6
CONTINUOUS
 62
     7
100
AcDbCircle
 10
8.2508846063
 20
3.7586782864
 30
0.0
 40
0.1574803149606314
  0
LINE
  5
175
330
1F
100
AcDbEntity
  8
0
  6
CONTINUOUS
 62
     7
100
AcDbLine
 10
7.6308058662
 20
3.6405680502
 30
0.0
 11
7.6308058662
 21
3.6477587227
 31
0.0
  0
LINE
  5
176
330
1F
100
AcDbEntity
  8
0
  6
CONTINUOUS
 62
     7
100
AcDbLine
 10
7.6308058662
 20
3.8695978501
 30
0.0
 11
7.6308058662
 21
3.8767885226
 31
0.0
  0
LINE
  5
177
330
1F
100
AcDbEntity
  8
0
  6
CONTINUOUS
 62
     7
100
AcDbLine
 10
7.6209633465
 20
3.8669460029
 30
0.0
 11
7.6209633465
 21
3.6504105699
 31
0.0
  0
LINE
  5
178
330
1F
100
AcDbEntity
  8
0
  6
HIDDEN
 62
     7
100
AcDbLine
 10
8.2508846063
 20
4.3787570265
 30
0.0
 11
8.1399650426
 21
4.3787570265
 31
0.0
  0
LINE
  5
179
330
1F
100
AcDbEntity
  8
0
  6
HIDDEN
 62
     7
100
AcDbLine
 10
8.36180417
 20
4.3787570265
 30
0.0
 11
8.2508846063
 21
4.3787570265
 31
0.0
  0
LINE
  5
17A
330
1F
100
AcDbEntity
  8
0
  6
HIDDEN
 62
     7
100
AcDbLine
 10
8.1327743701
 20
3.926001121
 30
0.0
 11
8.3689948425
 21
3.926001121
 31
0.0
  0
LINE
  5
17B
330
1F
100
AcDbEntity
  8
0
  6
HIDDEN
 62
     7
100
AcDbLine
 10
8.3591523229
 20
3.9161586014
 30
0.0
 11
8.1426168898
 21
3.9161586014
 31
0.0
  0
LINE
  5
17C
330
1F
100
AcDbEntity
  8
0
  6
HIDDEN
 62
     7
100
AcDbLine
 10
8.2849800947
 20
4.27048931
 30
0.0
 11
8.319075583
 21
4.27048931
 31
0.0
  0
LINE
  5
17D
330
1F
100
AcDbEntity
  8
0
  6
HIDDEN
 62
     7
100
AcDbLine
 10
8.2849800947
 20
4.27048931
 30
0.0
 11
8.2849800947
 21
4.3885995462
 31
0.0
  0
LINE
  5
17E
330
1F
100
AcDbEntity
  8
0
  6
HIDDEN
 62
     7
100
AcDbLine
 10
8.216789118
 20
4.27048931
 30
0.0
 11
8.2849800947
 21
4.27048931
 31
0.0
  0
LINE
  5
17F
330
1F
100
AcDbEntity
  8
0
  6
HIDDEN
 62
     7
100
AcDbLine
 10
8.216789118
 20
4.27048931
 30
0.0
 11
8.216789118
 21
4.3885995462
 31
0.0
  0
LINE
  5
180
330
1F
100
AcDbEntity
  8
0
  6
HIDDEN
 62
     7
100
AcDbLine
 10
8.1826936296
 20
4.27048931
 30
0.0
 11
8.216789118
 21
4.27048931
 31
0.0
  0
LINE
  5
181
330
1F
100
AcDbEntity
  8
0
  6
HIDDEN
 62
     7
100
AcDbLine
 10
8.319075583
 20
4.27048931
 30
0.0
 11
8.319075583
 21
4.3885995462
 31
0.0
  0
LINE
  5
182
330
1F
100
AcDbEntity
  8
0
  6
HIDDEN
 62
     7
100
AcDbLine
 10
8.1826936296
 20
4.27048931
 30
0.0
 11
8.1826936296
 21
4.3885995462
 31
0.0
  0
SPLINE
  5
183
330
1F
100
AcDbEntity
  8
0
  6
HIDDEN
 62
     7
100
AcDbSpline
210
0.0
220
0.0
230
1.0
 70
    24
 71
     3
 72
     8
 73
     4
 74
     0
 42
0.00000001
 43
0.00000001
 40
0.0
 40
0.0
 40
0.0
 40
0.0
 40
0.000749374772851
 40
0.000749374772851
 40
0.000749374772851
 40
0.000749374772851
 10
7.975294055142854
 20
4.303139573240035
 30
0.0
 10
7.975294055142854
 20
4.310477703143609
 30
0.0
 10
7.975294055142854
 20
4.317802450740099
 30
0.0
 10
7.975294055142854
 20
4.325115080484084
 30
0.0
  0
SPLINE
  5
184
330
1F
100
AcDbEntity
  8
0
  6
HIDDEN
 62
     7
100
AcDbSpline
210
0.0
220
0.0
230
1.0
 70
    24
 71
     3
 72
     8
 73
     4
 74
     0
 42
0.00000001
 43
0.00000001
 40
0.0
 40
0.0
 40
0.0
 40
0.0
 40
0.000749374772851
 40
0.000749374772851
 40
0.000749374772851
 40
0.000749374772851
 10
7.975294055142854
 20
3.19224149230001
 30
0.0
 10
7.975294055142854
 20
3.199554122043995
 30
0.0
 10
7.975294055142854
 20
3.206878869640486
 30
0.0
 10
7.975294055142854
 20
3.214216999544059
 30
0.0
  0
LINE
  5
185
330
1F
100
AcDbEntity
  8
0
  6
HIDDEN
 62
     7
100
AcDbLine
 10
8.5264751575
 20
3.1922414923
 30
0.0
 11
8.5264751575
 21
4.3251150805
 31
0.0
  0
LINE
  5
186
330
1F
100
AcDbEntity
  8
0
  6
HIDDEN
 62
     7
100
AcDbLine
 10
7.9752940551
 20
3.2142169995
 30
0.0
 11
7.9752940551
 21
4.3031395732
 31
0.0
  0
LINE
  5
187
330
1F
100
AcDbEntity
  8
0
  6
HIDDEN
 62
     7
100
AcDbLine
 10
7.6308058662
 20
3.6477587227
 30
0.0
 11
7.6308058662
 21
3.8695978501
 31
0.0
  0
LINE
  5
188
330
1F
100
AcDbEntity
  8
0
  6
HIDDEN
 62
     7
100
AcDbLine
 10
8.0835617717
 20
3.7586782864
 30
0.0
 11
8.0835617717
 21
3.6405680502
 31
0.0
  0
LINE
  5
189
330
1F
100
AcDbEntity
  8
0
  6
HIDDEN
 62
     7
100
AcDbLine
 10
8.0835617717
 20
3.8767885226
 30
0.0
 11
8.0835617717
 21
3.7586782864
 31
0.0
  0
LINE
  5
18A
330
1F
100
AcDbEntity
  8
0
  6
HIDDEN
 62
     7
100
AcDbLine
 10
8.0934042914
 20
3.7586782864
 30
0.0
 11
8.0934042914
 21
3.8669460029
 31
0.0
  0
LINE
  5
18B
330
1F
100
AcDbEntity
  8
0
  6
HIDDEN
 62
     7
100
AcDbLine
 10
8.0934042914
 20
3.6504105699
 30
0.0
 11
8.0934042914
 21
3.7586782864
 31
0.0
  0
LINE
  5
18C
330
1F
100
AcDbEntity
  8
0
  6
HIDDEN
 62
     7
100
AcDbLine
 10
7.7390735827
 20
3.7927737747
 30
0.0
 11
7.7390735827
 21
3.7245827981
 31
0.0
  0
LINE
  5
18D
330
1F
100
AcDbEntity
  8
0
  6
HIDDEN
 62
     7
100
AcDbLine
 10
7.7390735827
 20
3.8268692631
 30
0.0
 11
7.7390735827
 21
3.7927737747
 31
0.0
  0
LINE
  5
18E
330
1F
100
AcDbEntity
  8
0
  6
HIDDEN
 62
     7
100
AcDbLine
 10
7.7390735827
 20
3.7927737747
 30
0.0
 11
7.6209633465
 21
3.7927737747
 31
0.0
  0
LINE
  5
18F
330
1F
100
AcDbEntity
  8
0
  6
HIDDEN
 62
     7
100
AcDbLine
 10
7.7390735827
 20
3.7245827981
 30
0.0
 11
7.7390735827
 21
3.6904873097
 31
0.0
  0
LINE
  5
190
330
1F
100
AcDbEntity
  8
0
  6
HIDDEN
 62
     7
100
AcDbLine
 10
7.7390735827
 20
3.7245827981
 30
0.0
 11
7.6209633465
 21
3.7245827981
 31
0.0
  0
LINE
  5
191
330
1F
100
AcDbEntity
  8
0
  6
HIDDEN
 62
     7
100
AcDbLine
 10
7.7390735827
 20
3.8268692631
 30
0.0
 11
7.6209633465
 21
3.8268692631
 31
0.0
  0
LINE
  5
192
330
1F
100
AcDbEntity
  8
0
  6
HIDDEN
 62
     7
100
AcDbLine
 10
7.7390735827
 20
3.6904873097
 30
0.0
 11
7.6209633465
 21
3.6904873097
 31
0.0
  0
LINE
  5
193
330
1F
100
AcDbEntity
  8
0
  6
HIDDEN
 62
     7
100
AcDbLine
 10
8.8026598317
 20
4.0342688376
 30
0.0
 11
8.8173214004
 21
4.0342688376
 31
0.0
  0
LINE
  5
194
330
1F
100
AcDbEntity
  8
0
  6
HIDDEN
 62
     7
100
AcDbLine
 10
8.8173214004
 20
3.4830877352
 30
0.0
 11
8.7976953525
 21
3.4830877352
 31
0.0
  0
LINE
  5
195
330
1F
100
AcDbEntity
  8
0
  6
HIDDEN
 62
     7
100
AcDbLine
 10
8.7953458932
 20
4.0342688376
 30
0.0
 11
7.7064243652
 21
4.0342688376
 31
0.0
  0
LINE
  5
196
330
1F
100
AcDbEntity
  8
0
  6
HIDDEN
 62
     7
100
AcDbLine
 10
7.7041318059
 20
4.0342688376
 30
0.0
 11
7.6844478122
 21
4.0342688376
 31
0.0
  0
LINE
  5
197
330
1F
100
AcDbEntity
  8
0
  6
HIDDEN
 62
     7
100
AcDbLine
 10
8.7953458932
 20
3.4830877352
 30
0.0
 11
7.706430197
 21
3.4830877352
 31
0.0
  0
LINE
  5
198
330
1F
100
AcDbEntity
  8
0
  6
HIDDEN
 62
     7
100
AcDbLine
 10
7.6991673267
 20
3.4830877352
 30
0.0
 11
7.6844478122
 21
3.4830877352
 31
0.0
  0
SPLINE
  5
199
330
1F
100
AcDbEntity
  8
0
  6
HIDDEN
 62
     7
100
AcDbSpline
210
0.0
220
0.0
230
1.0
 70
    24
 71
     3
 72
     8
 73
     4
 74
     0
 42
0.00000001
 43
0.00000001
 40
0.0
 40
0.0
 40
0.0
 40
0.0
 40
0.0005733614293614
 40
0.0005733614293614
 40
0.0005733614293614
 40
0.0005733614293614
 10
8.54377743691025
 20
4.316365101183965
 30
0.0
 10
8.538029067916556
 20
4.314379546279998
 30
0.0
 10
8.532262054755188
 20
4.312387551459144
 30
0.0
 10
8.526475157505127
 20
4.310388688437961
 30
0.0
  0
SPLINE
  5
19A
330
1F
100
AcDbEntity
  8
0
  6
HIDDEN
 62
     7
100
AcDbSpline
210
0.0
220
0.0
230
1.0
 70
    24
 71
     3
 72
     8
 73
     4
 74
     0
 42
0.00000001
 43
0.00000001
 40
0.0
 40
0.0
 40
0.0
 40
0.0
 40
0.000650145288803
 40
0.000650145288803
 40
0.000650145288803
 40
0.000650145288803
 10
8.526475157505127
 20
3.211926531670089
 30
0.0
 10
8.530849803071467
 20
3.207551886103748
 30
0.0
 10
8.53522120573411
 20
3.203180483441104
 30
0.0
 10
8.539589636203258
 20
3.198812052971957
 30
0.0
  0
LINE
  5
19B
330
1F
100
AcDbEntity
  8
0
  6
HIDDEN
 62
     7
100
AcDbLine
 10
8.5264751575
 20
3.2142169995
 30
0.0
 11
8.5264751575
 21
4.3031395732
 31
0.0
  0
SPLINE
  5
19C
330
1F
100
AcDbEntity
  8
0
  6
HIDDEN
 62
     7
100
AcDbSpline
210
0.0
220
0.0
230
1.0
 70
    24
 71
     3
 72
     8
 73
     4
 74
     0
 42
0.00000001
 43
0.00000001
 40
0.0
 40
0.0
 40
0.0
 40
0.0
 40
0.0005733614293614
 40
0.0005733614293614
 40
0.0005733614293614
 40
0.0005733614293614
 10
7.957991775737729
 20
3.200991471600129
 30
0.0
 10
7.963740144731424
 20
3.202977026504096
 30
0.0
 10
7.969507157892791
 20
3.20496902132495
 30
0.0
 10
7.975294055142854
 20
3.206967884346134
 30
0.0
  0
SPLINE
  5
19D
330
1F
100
AcDbEntity
  8
0
  6
HIDDEN
 62
     7
100
AcDbSpline
210
0.0
220
0.0
230
1.0
 70
    24
 71
     3
 72
     8
 73
     4
 74
     0
 42
0.00000001
 43
0.00000001
 40
0.0
 40
0.0
 40
0.0
 40
0.0
 40
0.000650145288803
 40
0.000650145288803
 40
0.000650145288803
 40
0.000650145288803
 10
7.962179576444723
 20
4.318544519812137
 30
0.0
 10
7.966548006913869
 20
4.314176089342991
 30
0.0
 10
7.970919409576513
 20
4.309804686680347
 30
0.0
 10
7.975294055142854
 20
4.305430041114005
 30
0.0
  0
SPLINE
  5
19E
330
1F
100
AcDbEntity
  8
0
  6
HIDDEN
 62
     7
100
AcDbSpline
210
0.0
220
0.0
230
1.0
 70
    24
 71
     3
 72
     8
 73
     4
 74
     0
 42
0.00000001
 43
0.00000001
 40
0.0
 40
0.0
 40
0.0
 40
0.0
 40
0.000650145288803
 40
0.000650145288803
 40
0.000650145288803
 40
0.000650145288803
 10
8.810750839744081
 20
3.469973256512781
 30
0.0
 10
8.806382409274933
 20
3.474341686981928
 30
0.0
 10
8.80201100661229
 20
3.478713089644571
 30
0.0
 10
8.797636361045948
 20
3.483087735210913
 30
0.0
  0
SPLINE
  5
19F
330
1F
100
AcDbEntity
  8
0
  6
HIDDEN
 62
     7
100
AcDbSpline
210
0.0
220
0.0
230
1.0
 70
    24
 71
     3
 72
     8
 73
     4
 74
     0
 42
0.00000001
 43
0.00000001
 40
0.0
 40
0.0
 40
0.0
 40
0.0
 40
0.0005733614293614
 40
0.0005733614293614
 40
0.0005733614293614
 40
0.0005733614293614
 10
8.802595008369902
 20
4.034268837573185
 30
0.0
 10
8.804593871391086
 20
4.040055734823247
 30
0.0
 10
8.80658586621194
 20
4.045822747984616
 30
0.0
 10
8.808571421115907
 20
4.05157111697831
 30
0.0
  0
SPLINE
  5
1A0
330
1F
100
AcDbEntity
  8
0
  6
HIDDEN
 62
     7
100
AcDbSpline
210
0.0
220
0.0
230
1.0
 70
    24
 71
     3
 72
     8
 73
     4
 74
     0
 42
0.00000001
 43
0.00000001
 40
0.0
 40
0.0
 40
0.0
 40
0.0
 40
0.000650145288803
 40
0.000650145288803
 40
0.000650145288803
 40
0.000650145288803
 10
7.704132851602031
 20
4.034268837573181
 30
0.0
 10
7.699758206035689
 20
4.038643483139523
 30
0.0
 10
7.695386803373045
 20
4.043014885802166
 30
0.0
 10
7.691018372903899
 20
4.047383316271313
 30
0.0
  0
SPLINE
  5
1A1
330
1F
100
AcDbEntity
  8
0
  6
HIDDEN
 62
     7
100
AcDbSpline
210
0.0
220
0.0
230
1.0
 70
    24
 71
     3
 72
     8
 73
     4
 74
     0
 42
0.00000001
 43
0.00000001
 40
0.0
 40
0.0
 40
0.0
 40
0.0
 40
0.0005733614293614
 40
0.0005733614293614
 40
0.0005733614293614
 40
0.0005733614293614
 10
7.699174204278077
 20
3.483087735210909
 30
0.0
 10
7.697175341256894
 20
3.477300837960847
 30
0.0
 10
7.695183346436041
 20
3.471533824799478
 30
0.0
 10
7.693197791532073
 20
3.465785455805784
 30
0.0
  0
SPLINE
  5
1A2
330
1F
100
AcDbEntity
  8
0
  6
HIDDEN
 62
     7
100
AcDbSpline
210
0.0
220
0.0
230
1.0
 70
    24
 71
     3
 72
     8
 73
     4
 74
     0
 42
0.00000001
 43
0.00000001
 40
0.0
 40
0.0
 40
0.0
 40
0.0
 40
0.0000779828184968
 40
0.0000779828184968
 40
0.0000779828184968
 40
0.0000779828184968
 10
7.706423319476001
 20
4.034268837573181
 30
0.0
 10
7.70565968547989
 20
4.034268837573181
 30
0.0
 10
7.704896196692073
 20
4.034268837573181
 30
0.0
 10
7.704132851602031
 20
4.034268837573181
 30
0.0
  0
SPLINE
  5
1A3
330
1F
100
AcDbEntity
  8
0
  6
HIDDEN
 62
     7
100
AcDbSpline
210
0.0
220
0.0
230
1.0
 70
    24
 71
     3
 72
     8
 73
     4
 74
     0
 42
0.00000001
 43
0.00000001
 40
0.0
 40
0.0
 40
0.0
 40
0.0
 40
0.0002469085042363
 40
0.0002469085042363
 40
0.0002469085042363
 40
0.0002469085042363
 10
8.802595008369902
 20
4.034268837573185
 30
0.0
 10
8.800180060304285
 20
4.034268837573185
 30
0.0
 10
8.797763704318047
 20
4.034268837573185
 30
0.0
 10
8.795345893171977
 20
4.034268837573185
 30
0.0
  0
SPLINE
  5
1A4
330
1F
100
AcDbEntity
  8
0
  6
HIDDEN
 62
     7
100
AcDbSpline
210
0.0
220
0.0
230
1.0
 70
    24
 71
     3
 72
     8
 73
     4
 74
     0
 42
0.00000001
 43
0.00000001
 40
0.0
 40
0.0
 40
0.0
 40
0.0
 40
0.0002469085042363
 40
0.0002469085042363
 40
0.0002469085042363
 40
0.0002469085042363
 10
7.699174204278077
 20
3.483087735210909
 30
0.0
 10
7.701589152343695
 20
3.483087735210909
 30
0.0
 10
7.704005508329932
 20
3.483087735210909
 30
0.0
 10
7.706423319476003
 20
3.483087735210909
 30
0.0
  0
SPLINE
  5
1A5
330
1F
100
AcDbEntity
  8
0
  6
HIDDEN
 62
     7
100
AcDbSpline
210
0.0
220
0.0
230
1.0
 70
    24
 71
     3
 72
     8
 73
     4
 74
     0
 42
0.00000001
 43
0.00000001
 40
0.0
 40
0.0
 40
0.0
 40
0.0
 40
0.0000779828184968
 40
0.0000779828184968
 40
0.0000779828184968
 40
0.0000779828184968
 10
8.795345893171978
 20
3.483087735210913
 30
0.0
 10
8.796109527168088
 20
3.483087735210913
 30
0.0
 10
8.796873015955905
 20
3.483087735210913
 30
0.0
 10
8.797636361045948
 20
3.483087735210913
 30
0.0
  0
LINE
  5
1A6
330
1F
100
AcDbEntity
  8
0
  6
HIDDEN
 62
     7
100
AcDbLine
 10
8.7953458932
 20
3.4830877352
 30
0.0
 11
7.7064233195
 21
3.4830877352
 31
0.0
  0
LINE
  5
1A7
330
1F
100
AcDbEntity
  8
0
  6
HIDDEN
 62
     7
100
AcDbLine
 10
7.7064233195
 20
4.0342688376
 30
0.0
 11
8.7953458932
 21
4.0342688376
 31
0.0
  0
LINE
  5
1A8
330
1F
100
AcDbEntity
  8
0
  6
HIDDEN
 62
     7
100
AcDbLine
 10
8.1327743701
 20
4.3774276425
 30
0.0
 11
8.1327743701
 21
3.926001121
 31
0.0
  0
LINE
  5
1A9
330
1F
100
AcDbEntity
  8
0
  6
HIDDEN
 62
     7
100
AcDbLine
 10
8.3689948425
 20
3.926001121
 30
0.0
 11
8.3689948425
 21
4.3774276425
 31
0.0
  0
LINE
  5
1AA
330
1F
100
AcDbEntity
  8
0
  6
HIDDEN
 62
     7
100
AcDbLine
 10
8.1327743701
 20
3.926001121
 30
0.0
 11
8.1426168898
 21
3.9161586014
 31
0.0
  0
LINE
  5
1AB
330
1F
100
AcDbEntity
  8
0
  6
HIDDEN
 62
     7
100
AcDbLine
 10
8.3591523229
 20
3.9161586014
 30
0.0
 11
8.3689948425
 21
3.926001121
 31
0.0
  0
LINE
  5
1AC
330
1F
100
AcDbEntity
  8
0
  6
HIDDEN
 62
     7
100
AcDbLine
 10
8.3689948425
 20
3.8628417238
 30
0.0
 11
8.3689948425
 21
4.3774550709
 31
0.0
  0
LINE
  5
1AD
330
1F
100
AcDbEntity
  8
0
  6
HIDDEN
 62
     7
100
AcDbLine
 10
8.1327743701
 20
4.3775037368
 30
0.0
 11
8.1327743701
 21
3.862976627
 31
0.0
  0
LINE
  5
1AE
330
1F
100
AcDbEntity
  8
0
  6
HIDDEN
 62
     7
100
AcDbLine
 10
7.6321352502
 20
3.6405680502
 30
0.0
 11
8.0835617717
 21
3.6405680502
 31
0.0
  0
LINE
  5
1AF
330
1F
100
AcDbEntity
  8
0
  6
HIDDEN
 62
     7
100
AcDbLine
 10
8.0835617717
 20
3.8767885226
 30
0.0
 11
7.6321352502
 21
3.8767885226
 31
0.0
  0
LINE
  5
1B0
330
1F
100
AcDbEntity
  8
0
  6
HIDDEN
 62
     7
100
AcDbLine
 10
8.0835617717
 20
3.6405680502
 30
0.0
 11
8.0934042914
 21
3.6504105699
 31
0.0
  0
LINE
  5
1B1
330
1F
100
AcDbEntity
  8
0
  6
HIDDEN
 62
     7
100
AcDbLine
 10
8.0934042914
 20
3.8669460029
 30
0.0
 11
8.0835617717
 21
3.8767885226
 31
0.0
  0
LINE
  5
1B2
330
1F
100
AcDbEntity
  8
0
  6
HIDDEN
 62
     7
100
AcDbLine
 10
8.1467211689
 20
3.8767885226
 30
0.0
 11
7.6321069611
 21
3.8767885226
 31
0.0
  0
LINE
  5
1B3
330
1F
100
AcDbEntity
  8
0
  6
HIDDEN
 62
     7
100
AcDbLine
 10
7.6320591827
 20
3.6405680502
 30
0.0
 11
8.146585971
 21
3.6405680502
 31
0.0
  0
LINE
  5
1B4
330
1F
100
AcDbEntity
  8
0
  6
CONTINUOUS
 62
     7
100
AcDbLine
 10
3.7400219302
 20
6.0420558791
 30
0.0
 11
3.9565573632
 21
6.0420558791
 31
0.0
  0
LINE
  5
1B5
330
1F
100
AcDbEntity
  8
0
  6
CONTINUOUS
 62
     7
100
AcDbLine
 10
3.9565573632
 20
7.3018983988
 30
0.0
 11
3.7203368908
 21
7.3018983988
 31
0.0
  0
LINE
  5
1B6
330
1F
100
AcDbEntity
  8
0
  6
CONTINUOUS
 62
     7
100
AcDbLine
 10
3.9565573632
 20
6.0420558791
 30
0.0
 11
3.9762424026
 21
6.0617409184
 31
0.0
  0
LINE
  5
1B7
330
1F
100
AcDbEntity
  8
0
  6
CONTINUOUS
 62
     7
100
AcDbLine
 10
3.9762424026
 20
7.2822133594
 30
0.0
 11
3.9565573632
 21
7.3018983988
 31
0.0
  0
LINE
  5
1B8
330
1F
100
AcDbEntity
  8
0
  6
CONTINUOUS
 62
     7
100
AcDbLine
 10
3.7203368908
 20
6.0617409184
 30
0.0
 11
3.7400219302
 21
6.0420558791
 31
0.0
  0
LINE
  5
1B9
330
1F
100
AcDbEntity
  8
0
  6
CONTINUOUS
 62
     7
100
AcDbLine
 10
2.823159039
 20
6.0435644395
 30
0.0
 11
2.8246675994
 21
6.0420558791
 31
0.0
  0
LINE
  5
1BA
330
1F
100
AcDbEntity
  8
0
  6
CONTINUOUS
 62
     7
100
AcDbLine
 10
3.0412030325
 20
6.0420558791
 30
0.0
 11
3.0427061805
 21
6.0435590271
 31
0.0
  0
LINE
  5
1BB
330
1F
100
AcDbEntity
  8
0
  6
CONTINUOUS
 62
     7
100
AcDbLine
 10
3.1494707491
 20
7.3018983988
 30
0.0
 11
2.6967148435
 21
7.3018983988
 31
0.0
  0
LINE
  5
1BC
330
1F
100
AcDbEntity
  8
0
  6
CONTINUOUS
 62
     7
100
AcDbLine
 10
3.0510455522
 20
6.0420558791
 30
0.0
 11
3.1691557884
 21
6.0420558791
 31
0.0
  0
LINE
  5
1BD
330
1F
100
AcDbEntity
  8
0
  6
CONTINUOUS
 62
     7
100
AcDbLine
 10
2.6967148435
 20
6.0420558791
 30
0.0
 11
2.8151315391
 21
6.0420558791
 31
0.0
  0
LINE
  5
1BE
330
1F
100
AcDbEntity
  8
0
  6
CONTINUOUS
 62
     7
100
AcDbLine
 10
2.6967148435
 20
7.3018983988
 30
0.0
 11
2.6770298042
 21
7.2822133594
 31
0.0
  0
LINE
  5
1BF
330
1F
100
AcDbEntity
  8
0
  6
CONTINUOUS
 62
     7
100
AcDbLine
 10
2.6770298042
 20
6.0617409184
 30
0.0
 11
2.6967148435
 21
6.0420558791
 31
0.0
  0
LINE
  5
1C0
330
1F
100
AcDbEntity
  8
0
  6
CONTINUOUS
 62
     7
100
AcDbLine
 10
3.1691557884
 20
7.2822133594
 30
0.0
 11
3.1494707491
 21
7.3018983988
 31
0.0
  0
LINE
  5
1C1
330
1F
100
AcDbEntity
  8
0
  6
CONTINUOUS
 62
     7
100
AcDbLine
 10
3.1888408278
 20
6.0420558791
 30
0.0
 11
3.7006518514
 21
6.0420558791
 31
0.0
  0
LINE
  5
1C2
330
1F
100
AcDbEntity
  8
0
  6
CONTINUOUS
 62
     7
100
AcDbLine
 10
3.7006518514
 20
7.3018983988
 30
0.0
 11
3.1888408278
 21
7.3018983988
 31
0.0
  0
LINE
  5
1C3
330
1F
100
AcDbEntity
  8
0
  6
CONTINUOUS
 62
     7
100
AcDbLine
 10
3.7006518514
 20
6.0420558791
 30
0.0
 11
3.7203368908
 21
6.0617409184
 31
0.0
  0
LINE
  5
1C4
330
1F
100
AcDbEntity
  8
0
  6
CONTINUOUS
 62
     7
100
AcDbLine
 10
3.7203368908
 20
7.2822133594
 30
0.0
 11
3.7006518514
 21
7.3018983988
 31
0.0
  0
LINE
  5
1C5
330
1F
100
AcDbEntity
  8
0
  6
CONTINUOUS
 62
     7
100
AcDbLine
 10
3.1888408278
 20
7.3018983988
 30
0.0
 11
3.1691557884
 21
7.2822133594
 31
0.0
  0
LINE
  5
1C6
330
1F
100
AcDbEntity
  8
0
  6
CONTINUOUS
 62
     7
100
AcDbLine
 10
3.1691557884
 20
6.0617409184
 30
0.0
 11
3.1888408278
 21
6.0420558791
 31
0.0
  0
CIRCLE
  5
1C7
330
1F
100
AcDbEntity
  8
0
  6
CONTINUOUS
 62
     7
100
AcDbCircle
 10
3.7203368908
 20
6.6719771389
 30
0.0
 40
0.1082677165353987
  0
CIRCLE
  5
1C8
330
1F
100
AcDbEntity
  8
0
  6
CONTINUOUS
 62
     7
100
AcDbCircle
 10
3.7203368908
 20
6.6719771389
 30
0.0
 40
0.1181102362204696
  0
LINE
  5
1C9
330
1F
100
AcDbEntity
  8
0
  6
CONTINUOUS
 62
     7
100
AcDbLine
 10
3.6612817727
 20
6.7060726273
 30
0.0
 11
3.6612817727
 21
6.6378816506
 31
0.0
  0
LINE
  5
1CA
330
1F
100
AcDbEntity
  8
0
  6
CONTINUOUS
 62
     7
100
AcDbLine
 10
3.6612817727
 20
6.6378816506
 30
0.0
 11
3.7203368908
 21
6.6037861622
 31
0.0
  0
LINE
  5
1CB
330
1F
100
AcDbEntity
  8
0
  6
CONTINUOUS
 62
     7
100
AcDbLine
 10
3.7203368908
 20
6.6037861622
 30
0.0
 11
3.7793920089
 21
6.6378816506
 31
0.0
  0
LINE
  5
1CC
330
1F
100
AcDbEntity
  8
0
  6
CONTINUOUS
 62
     7
100
AcDbLine
 10
3.7793920089
 20
6.6378816506
 30
0.0
 11
3.7793920089
 21
6.7060726273
 31
0.0
  0
LINE
  5
1CD
330
1F
100
AcDbEntity
  8
0
  6
CONTINUOUS
 62
     7
100
AcDbLine
 10
3.7793920089
 20
6.7060726273
 30
0.0
 11
3.7203368908
 21
6.7401681156
 31
0.0
  0
LINE
  5
1CE
330
1F
100
AcDbEntity
  8
0
  6
CONTINUOUS
 62
     7
100
AcDbLine
 10
3.7203368908
 20
6.7401681156
 30
0.0
 11
3.6612817727
 21
6.7060726273
 31
0.0
  0
LINE
  5
1CF
330
1F
100
AcDbEntity
  8
0
  6
CONTINUOUS
 62
     7
100
AcDbLine
 10
3.7400219302
 20
6.3963865877
 30
0.0
 11
3.7400219302
 21
6.0420558791
 31
0.0
  0
LINE
  5
1D0
330
1F
100
AcDbEntity
  8
0
  6
CONTINUOUS
 62
     7
100
AcDbLine
 10
3.5038014577
 20
6.3963865877
 30
0.0
 11
3.7400219302
 21
6.3963865877
 31
0.0
  0
LINE
  5
1D1
330
1F
100
AcDbEntity
  8
0
  6
CONTINUOUS
 62
     7
100
AcDbLine
 10
3.5038014577
 20
6.9475676901
 30
0.0
 11
3.5038014577
 21
6.3963865877
 31
0.0
  0
LINE
  5
1D2
330
1F
100
AcDbEntity
  8
0
  6
CONTINUOUS
 62
     7
100
AcDbLine
 10
3.7203368908
 20
6.9475676901
 30
0.0
 11
3.5038014577
 21
6.9475676901
 31
0.0
  0
LINE
  5
1D3
330
1F
100
AcDbEntity
  8
0
  6
CONTINUOUS
 62
     7
100
AcDbLine
 10
3.7203368908
 20
7.3018983988
 30
0.0
 11
3.7203368908
 21
6.9475676901
 31
0.0
  0
SPLINE
  5
1D4
330
1F
100
AcDbEntity
  8
0
  6
CONTINUOUS
 62
     7
100
AcDbSpline
210
0.0
220
0.0
230
1.0
 70
     8
 71
     3
 72
    15
 73
    11
 74
     0
 42
0.00000001
 43
0.00000001
 40
0.0
 40
0.0
 40
0.0
 40
0.0
 40
0.1345931444880159
 40
0.2731308106443224
 40
0.4077124335550609
 40
0.546119455464702
 40
0.6821369747038516
 40
0.8220348292437897
 40
0.9590526017510128
 40
0.9999999999999999
 40
0.9999999999999999
 40
0.9999999999999999
 40
0.9999999999999999
 10
3.602226654565655
 20
6.671977138916426
 30
0.0
 10
3.602536051309127
 20
6.665495183563872
 30
0.0
 10
3.603163912287313
 20
6.652341306174811
 30
0.0
 10
3.608210938652299
 20
6.633261454386557
 30
0.0
 10
3.616179157984847
 20
6.615114583156617
 30
0.0
 10
3.627032838972456
 20
6.598682877953252
 30
0.0
 10
3.640591833321948
 20
6.58404549277815
 30
0.0
 10
3.65644526208082
 20
6.572159243701993
 30
0.0
 10
3.669805335936935
 20
6.564484707158665
 30
0.0
 10
3.67798721079276
 20
6.561976955681414
 30
0.0
 10
3.679869750430832
 20
6.561399955709946
 30
0.0
  0
SPLINE
  5
1D5
330
1F
100
AcDbEntity
  8
0
  6
CONTINUOUS
 62
     7
100
AcDbSpline
210
0.0
220
0.0
230
1.0
 70
     8
 71
     3
 72
    23
 73
    19
 74
     0
 42
0.00000001
 43
0.00000001
 40
0.0
 40
0.0
 40
0.0
 40
0.0
 40
0.0361909358626021
 40
0.1034621370149844
 40
0.1726250657800775
 40
0.2409341568877977
 40
0.3112171221867669
 40
0.3795761029054319
 40
0.4499753329647574
 40
0.5173320145636698
 40
0.586674049849024
 40
0.653540705092772
 40
0.7223071036183262
 40
0.7899154102718441
 40
0.8594333465235391
 40
0.9279075563172949
 40
0.9983843607013878
 40
1.0
 40
1.0
 40
1.0
 40
1.0
 10
3.76077092431956
 20
6.561445329696092
 30
0.0
 10
3.764064500295186
 20
6.562573613628754
 30
0.0
 10
3.773480128842432
 20
6.565799135822378
 30
0.0
 10
3.787754168963666
 20
6.574457339567982
 30
0.0
 10
3.803030901810111
 20
6.586837995450749
 30
0.0
 10
3.816139570771863
 20
6.601951747005816
 30
0.0
 10
3.826517189301065
 20
6.618969916473215
 30
0.0
 10
3.833959490631165
 20
6.637711111974182
 30
0.0
 10
3.838083606453963
 20
6.657197392578791
 30
0.0
 10
3.838884143411237
 20
6.67719807459148
 30
0.0
 10
3.836386585782813
 20
6.696717679940341
 30
0.0
 10
3.830657110955452
 20
6.715650605037442
 30
0.0
 10
3.821971756639557
 20
6.733216840757136
 30
0.0
 10
3.810360739816538
 20
6.749259512359783
 30
0.0
 10
3.79629505913444
 20
6.763228054096936
 30
0.0
 10
3.779755889507368
 20
6.774432912771825
 30
0.0
 10
3.767735716036626
 20
6.780972472402628
 30
0.0
 10
3.761057848802683
 20
6.782818889756602
 30
0.0
 10
3.760908193385514
 20
6.782860269189539
 30
0.0
  0
SPLINE
  5
1D6
330
1F
100
AcDbEntity
  8
0
  6
CONTINUOUS
 62
     7
100
AcDbSpline
210
0.0
220
0.0
230
1.0
 70
     8
 71
     3
 72
    15
 73
    11
 74
     0
 42
0.00000001
 43
0.00000001
 40
0.0
 40
0.0
 40
0.0
 40
0.0
 40
0.1055444158677632
 40
0.2432201598411089
 40
0.379127357949869
 40
0.5189062607946897
 40
0.6559132218813779
 40
0.7969752337855917
 40
0.8976797548954196
 40
1.0
 40
1.0
 40
1.0
 40
1.0
 10
3.679859420397988
 20
6.782654742840529
 30
0.0
 10
3.675120712963834
 20
6.780831437949752
 30
0.0
 10
3.664200673565264
 20
6.776629751831852
 30
0.0
 10
3.648865766346143
 20
6.766620597991553
 30
0.0
 10
3.634018356972579
 20
6.753430245868183
 30
0.0
 10
3.621648958935996
 20
6.737872743139683
 30
0.0
 10
3.611910283620486
 20
6.720252717602728
 30
0.0
 10
3.605948136681399
 20
6.702975061448204
 30
0.0
 10
3.60275900311084
 20
6.686678481233286
 30
0.0
 10
3.602405043049518
 20
6.676903516926434
 30
0.0
 10
3.602226654565655
 20
6.671977138916426
 30
0.0
  0
LINE
  5
1D7
330
1F
100
AcDbEntity
  8
0
  6
CONTINUOUS
 62
     7
100
AcDbLine
 10
3.9565573632
 20
6.0420558791
 30
0.0
 11
3.9565573632
 21
7.3018983988
 31
0.0
  0
LINE
  5
1D8
330
1F
100
AcDbEntity
  8
0
  6
CONTINUOUS
 62
     7
100
AcDbLine
 10
3.9762424026
 20
7.2822133594
 30
0.0
 11
3.9762424026
 21
6.0617409184
 31
0.0
  0
SPLINE
  5
1D9
330
1F
100
AcDbEntity
  8
0
  6
CONTINUOUS
 62
     7
100
AcDbSpline
210
0.0
220
0.0
230
1.0
 70
    24
 71
     3
 72
     8
 73
     4
 74
     0
 42
0.00000001
 43
0.00000001
 40
0.0
 40
0.0
 40
0.0
 40
0.0
 40
0.000749374772851
 40
0.000749374772851
 40
0.000749374772851
 40
0.000749374772851
 10
3.503801457715227
 20
6.396386587735289
 30
0.0
 10
3.49722580641938
 20
6.396386587735289
 30
0.0
 10
3.49066360043025
 20
6.396386587735289
 30
0.0
 10
3.484116418345149
 20
6.396386587735289
 30
0.0
  0
LINE
  5
1DA
330
1F
100
AcDbEntity
  8
0
  6
CONTINUOUS
 62
     7
100
AcDbLine
 10
3.4841164183
 20
6.3963865877
 30
0.0
 11
3.4841164183
 21
6.9475676901
 31
0.0
  0
SPLINE
  5
1DB
330
1F
100
AcDbEntity
  8
0
  6
CONTINUOUS
 62
     7
100
AcDbSpline
210
0.0
220
0.0
230
1.0
 70
    24
 71
     3
 72
     8
 73
     4
 74
     0
 42
0.00000001
 43
0.00000001
 40
0.0
 40
0.0
 40
0.0
 40
0.0
 40
0.000749374772851
 40
0.000749374772851
 40
0.000749374772851
 40
0.000749374772851
 10
3.484116418345149
 20
6.947567690097562
 30
0.0
 10
3.49066360043025
 20
6.947567690097562
 30
0.0
 10
3.49722580641938
 20
6.947567690097562
 30
0.0
 10
3.503801457715227
 20
6.947567690097562
 30
0.0
  0
LINE
  5
1DC
330
1F
100
AcDbEntity
  8
0
  6
CONTINUOUS
 62
     7
100
AcDbLine
 10
3.7203368908
 20
6.0617409184
 30
0.0
 11
3.7203368908
 21
6.3963865877
 31
0.0
  0
LINE
  5
1DD
330
1F
100
AcDbEntity
  8
0
  6
CONTINUOUS
 62
     7
100
AcDbLine
 10
2.9731379799
 20
6.0518983988
 30
0.0
 11
2.8922203896
 21
6.0518983988
 31
0.0
  0
LINE
  5
1DE
330
1F
100
AcDbEntity
  8
0
  6
CONTINUOUS
 62
     7
100
AcDbLine
 10
2.8246675994
 20
6.0420558791
 30
0.0
 11
3.0412030325
 21
6.0420558791
 31
0.0
  0
LINE
  5
1DF
330
1F
100
AcDbEntity
  8
0
  6
CONTINUOUS
 62
     7
100
AcDbLine
 10
3.1494707491
 20
7.238413933
 30
0.0
 11
3.1494707491
 21
7.3018983988
 31
0.0
  0
LINE
  5
1E0
330
1F
100
AcDbEntity
  8
0
  6
CONTINUOUS
 62
     7
100
AcDbLine
 10
3.1494707491
 20
7.238413933
 30
0.0
 11
2.9132502766
 21
7.238413933
 31
0.0
  0
LINE
  5
1E1
330
1F
100
AcDbEntity
  8
0
  6
CONTINUOUS
 62
     7
100
AcDbLine
 10
2.9132502766
 20
6.1055403448
 30
0.0
 11
2.9132502766
 21
7.238413933
 31
0.0
  0
LINE
  5
1E2
330
1F
100
AcDbEntity
  8
0
  6
CONTINUOUS
 62
     7
100
AcDbLine
 10
2.9132502766
 20
6.1055403448
 30
0.0
 11
3.1691557884
 21
6.1055403448
 31
0.0
  0
LINE
  5
1E3
330
1F
100
AcDbEntity
  8
0
  6
CONTINUOUS
 62
     7
100
AcDbLine
 10
3.1691557884
 20
6.1055403448
 30
0.0
 11
3.1691557884
 21
6.0420558791
 31
0.0
  0
SPLINE
  5
1E4
330
1F
100
AcDbEntity
  8
0
  6
CONTINUOUS
 62
     7
100
AcDbSpline
210
0.0
220
0.0
230
1.0
 70
     8
 71
     3
 72
    27
 73
    23
 74
     0
 42
0.00000001
 43
0.00000001
 40
0.0
 40
0.0
 40
0.0
 40
0.0
 40
0.0134874080644755
 40
0.0673669945180125
 40
0.1193231812269613
 40
0.1727554910691637
 40
0.2252879497477287
 40
0.2793042133449957
 40
0.332509489066107
 40
0.3872708046109331
 40
0.4401946291739939
 40
0.4947022247948661
 40
0.5468024585540228
 40
0.6004208861341722
 40
0.6524502517273644
 40
0.7059455521201786
 40
0.7587536661608145
 40
0.8130661701681242
 40
0.8663016082178213
 40
0.9211126772053373
 40
0.9602424356668403
 40
1.0
 40
1.0
 40
1.0
 40
1.0
 10
2.815131539103057
 20
6.042113179723263
 30
0.0
 10
2.81504011310279
 20
6.042096087392004
 30
0.0
 10
2.814583457915271
 20
6.042010714503399
 30
0.0
 10
2.817043288412625
 20
6.042472451274308
 30
0.0
 10
2.82257182222489
 20
6.043474749998137
 30
0.0
 10
2.83131325029452
 20
6.044965083965321
 30
0.0
 10
2.842903170943345
 20
6.046754800657837
 30
0.0
 10
2.856997748334378
 20
6.048647184016261
 30
0.0
 10
2.873442718233152
 20
6.050454273581981
 30
0.0
 10
2.89150165752183
 20
6.051936960722189
 30
0.0
 10
2.910914724619448
 20
6.052940478283684
 30
0.0
 10
2.930662554421546
 20
6.053330526006675
 30
0.0
 10
2.950548811439949
 20
6.053079789375147
 30
0.0
 10
2.969635354985218
 20
6.052234254150285
 30
0.0
 10
2.987839271013647
 20
6.050877498447293
 30
0.0
 10
3.004429191421327
 20
6.049176558786858
 30
0.0
 10
3.019247590366019
 20
6.04728556765314
 30
0.0
 10
3.031624907186321
 20
6.045438424439517
 30
0.0
 10
3.041361462951635
 20
6.04381647943819
 30
0.0
 10
3.047324155334584
 20
6.042747445618487
 30
0.0
 10
3.050513185049514
 20
6.042156099294495
 30
0.0
 10
3.050867157483848
 20
6.04208946258487
 30
0.0
 10
3.05104555220345
 20
6.042055879073906
 30
0.0
  0
LINE
  5
1E5
330
1F
100
AcDbEntity
  8
0
  6
CONTINUOUS
 62
     7
100
AcDbLine
 10
2.6967148435
 20
7.3018983988
 30
0.0
 11
2.6967148435
 21
6.0420558791
 31
0.0
  0
LINE
  5
1E6
330
1F
100
AcDbEntity
  8
0
  6
CONTINUOUS
 62
     7
100
AcDbLine
 10
2.6770298042
 20
6.0617409184
 30
0.0
 11
2.6770298042
 21
7.2822133594
 31
0.0
  0
LINE
  5
1E7
330
1F
100
AcDbEntity
  8
0
  6
CONTINUOUS
 62
     7
100
AcDbLine
 10
2.932935316
 20
7.2164384258
 30
0.0
 11
2.932935316
 21
6.1275158521
 31
0.0
  0
SPLINE
  5
1E8
330
1F
100
AcDbEntity
  8
0
  6
CONTINUOUS
 62
     7
100
AcDbSpline
210
0.0
220
0.0
230
1.0
 70
     8
 71
     3
 72
     8
 73
     4
 74
     0
 42
0.00000001
 43
0.00000001
 40
0.0
 40
0.0
 40
0.0
 40
0.0
 40
0.000749374772851
 40
0.000749374772851
 40
0.000749374772851
 40
0.000749374772851
 10
2.932935315982978
 20
6.127515852068437
 30
0.0
 10
2.926388133897876
 20
6.120177722164863
 30
0.0
 10
2.919825927908746
 20
6.112852974568374
 30
0.0
 10
2.913250276612898
 20
6.105540344824388
 30
0.0
  0
SPLINE
  5
1E9
330
1F
100
AcDbEntity
  8
0
  6
CONTINUOUS
 62
     7
100
AcDbSpline
210
0.0
220
0.0
230
1.0
 70
     8
 71
     3
 72
     8
 73
     4
 74
     0
 42
0.00000001
 43
0.00000001
 40
0.0
 40
0.0
 40
0.0
 40
0.0
 40
0.000749374772851
 40
0.000749374772851
 40
0.000749374772851
 40
0.000749374772851
 10
2.913250276612899
 20
7.238413933008462
 30
0.0
 10
2.919825927908746
 20
7.231101303264477
 30
0.0
 10
2.926388133897876
 20
7.223776555667987
 30
0.0
 10
2.932935315982978
 20
7.216438425764413
 30
0.0
  0
LINE
  5
1EA
330
1F
100
AcDbEntity
  8
0
  6
CONTINUOUS
 62
     7
100
AcDbLine
 10
3.1691557884
 20
7.2822133594
 30
0.0
 11
3.1691557884
 21
7.2296639537
 31
0.0
  0
LINE
  5
1EB
330
1F
100
AcDbEntity
  8
0
  6
CONTINUOUS
 62
     7
100
AcDbLine
 10
3.1573087336
 20
7.2296639537
 30
0.0
 11
3.1494707491
 21
7.238413933
 31
0.0
  0
LINE
  5
1EC
330
1F
100
AcDbEntity
  8
0
  6
CONTINUOUS
 62
     7
100
AcDbLine
 10
3.1691557884
 20
6.1121109055
 30
0.0
 11
3.1691557884
 21
6.1055403448
 31
0.0
  0
LINE
  5
1ED
330
1F
100
AcDbEntity
  8
0
  6
CONTINUOUS
 62
     7
100
AcDbLine
 10
3.464431379
 20
6.9648699695
 30
0.0
 11
3.7006518514
 21
6.9648699695
 31
0.0
  0
LINE
  5
1EE
330
1F
100
AcDbEntity
  8
0
  6
CONTINUOUS
 62
     7
100
AcDbLine
 10
3.464431379
 20
6.383272109
 30
0.0
 11
3.464431379
 21
6.9648699695
 31
0.0
  0
LINE
  5
1EF
330
1F
100
AcDbEntity
  8
0
  6
CONTINUOUS
 62
     7
100
AcDbLine
 10
3.7006518514
 20
6.383272109
 30
0.0
 11
3.464431379
 21
6.383272109
 31
0.0
  0
LINE
  5
1F0
330
1F
100
AcDbEntity
  8
0
  6
CONTINUOUS
 62
     7
100
AcDbLine
 10
3.7006518514
 20
6.0420558791
 30
0.0
 11
3.7006518514
 21
6.383272109
 31
0.0
  0
LINE
  5
1F1
330
1F
100
AcDbEntity
  8
0
  6
CONTINUOUS
 62
     7
100
AcDbLine
 10
3.7006518514
 20
6.9648699695
 30
0.0
 11
3.7006518514
 21
7.3018983988
 31
0.0
  0
LINE
  5
1F2
330
1F
100
AcDbEntity
  8
0
  6
CONTINUOUS
 62
     7
100
AcDbLine
 10
3.1888408278
 20
6.1121109055
 30
0.0
 11
3.1888408278
 21
6.0420558791
 31
0.0
  0
LINE
  5
1F3
330
1F
100
AcDbEntity
  8
0
  6
CONTINUOUS
 62
     7
100
AcDbLine
 10
2.9526203554
 20
6.1121109055
 30
0.0
 11
3.1888408278
 21
6.1121109055
 31
0.0
  0
LINE
  5
1F4
330
1F
100
AcDbEntity
  8
0
  6
CONTINUOUS
 62
     7
100
AcDbLine
 10
2.9526203554
 20
7.2296639537
 30
0.0
 11
2.9526203554
 21
6.1121109055
 31
0.0
  0
LINE
  5
1F5
330
1F
100
AcDbEntity
  8
0
  6
CONTINUOUS
 62
     7
100
AcDbLine
 10
3.1888408278
 20
7.2296639537
 30
0.0
 11
2.9526203554
 21
7.2296639537
 31
0.0
  0
LINE
  5
1F6
330
1F
100
AcDbEntity
  8
0
  6
CONTINUOUS
 62
     7
100
AcDbLine
 10
3.1888408278
 20
7.3018983988
 30
0.0
 11
3.1888408278
 21
7.2296639537
 31
0.0
  0
SPLINE
  5
1F7
330
1F
100
AcDbEntity
  8
0
  6
CONTINUOUS
 62
     7
100
AcDbSpline
210
0.0
220
0.0
230
1.0
 70
     8
 71
     3
 72
     8
 73
     4
 74
     0
 42
0.00000001
 43
0.00000001
 40
0.0
 40
0.0
 40
0.0
 40
0.0
 40
0.0000779828184968
 40
0.0000779828184968
 40
0.0000779828184968
 40
0.0000779828184968
 10
2.934979777217761
 20
6.125225384194467
 30
0.0
 10
2.934298128621115
 20
6.12598872928451
 30
0.0
 10
2.93361664090971
 20
6.126752218072327
 30
0.0
 10
2.932935315982977
 20
6.127515852068437
 30
0.0
  0
SPLINE
  5
1F8
330
1F
100
AcDbEntity
  8
0
  6
CONTINUOUS
 62
     7
100
AcDbSpline
210
0.0
220
0.0
230
1.0
 70
     8
 71
     3
 72
     8
 73
     4
 74
     0
 42
0.00000001
 43
0.00000001
 40
0.0
 40
0.0
 40
0.0
 40
0.0
 40
0.0002469085042363
 40
0.0002469085042363
 40
0.0002469085042363
 40
0.0002469085042363
 10
2.932935315982978
 20
7.216438425764413
 30
0.0
 10
2.935092520887868
 20
7.218856236910483
 30
0.0
 10
2.9372513577789
 20
7.221272592896721
 30
0.0
 10
2.939411767365093
 20
7.223687540962338
 30
0.0
  0
SPLINE
  5
1F9
330
1F
100
AcDbEntity
  8
0
  6
CONTINUOUS
 62
     7
100
AcDbSpline
210
0.0
220
0.0
230
1.0
 70
     8
 71
     3
 72
     8
 73
     4
 74
     0
 42
0.00000001
 43
0.00000001
 40
0.0
 40
0.0
 40
0.0
 40
0.0
 40
0.0005733614293614
 40
0.0005733614293614
 40
0.0005733614293614
 40
0.0005733614293614
 10
2.939411767365093
 20
7.223687540962338
 30
0.0
 10
2.943785940050264
 20
7.225686403983523
 30
0.0
 10
2.948189684356965
 20
7.227678398804377
 30
0.0
 10
2.952620355353057
 20
7.229663953708343
 30
0.0
  0
SPLINE
  5
1FA
330
1F
100
AcDbEntity
  8
0
  6
CONTINUOUS
 62
     7
100
AcDbSpline
210
0.0
220
0.0
230
1.0
 70
     8
 71
     3
 72
     8
 73
     4
 74
     0
 42
0.00000001
 43
0.00000001
 40
0.0
 40
0.0
 40
0.0
 40
0.0
 40
0.000650145288803
 40
0.000650145288803
 40
0.000650145288803
 40
0.000650145288803
 10
2.934979777217761
 20
6.125225384194467
 30
0.0
 10
2.940855278813701
 20
6.120850738628125
 30
0.0
 10
2.946735612611137
 20
6.116479335965481
 30
0.0
 10
2.952620355353057
 20
6.112110905496335
 30
0.0
  0
SPLINE
  5
1FB
330
1F
100
AcDbEntity
  8
0
  6
CONTINUOUS
 62
     7
100
AcDbSpline
210
0.0
220
0.0
230
1.0
 70
     8
 71
     3
 72
     8
 73
     4
 74
     0
 42
0.00000001
 43
0.00000001
 40
0.0
 40
0.0
 40
0.0
 40
0.0
 40
0.000650145288803
 40
0.000650145288803
 40
0.000650145288803
 40
0.000650145288803
 10
3.46443137897507
 20
6.383272109037159
 30
0.0
 10
3.470316121716989
 20
6.387640539506305
 30
0.0
 10
3.476196455514426
 20
6.392011942168949
 30
0.0
 10
3.482071957110366
 20
6.396386587735289
 30
0.0
  0
SPLINE
  5
1FC
330
1F
100
AcDbEntity
  8
0
  6
CONTINUOUS
 62
     7
100
AcDbSpline
210
0.0
220
0.0
230
1.0
 70
     8
 71
     3
 72
     8
 73
     4
 74
     0
 42
0.00000001
 43
0.00000001
 40
0.0
 40
0.0
 40
0.0
 40
0.0
 40
0.0005733614293614
 40
0.0005733614293614
 40
0.0005733614293614
 40
0.0005733614293614
 10
3.46443137897507
 20
6.964869969502687
 30
0.0
 10
3.468862049971161
 20
6.959121600508992
 30
0.0
 10
3.473265794277862
 20
6.953354587347625
 30
0.0
 10
3.477639966963033
 20
6.947567690097562
 30
0.0
  0
SPLINE
  5
1FD
330
1F
100
AcDbEntity
  8
0
  6
CONTINUOUS
 62
     7
100
AcDbSpline
210
0.0
220
0.0
230
1.0
 70
     8
 71
     3
 72
     8
 73
     4
 74
     0
 42
0.00000001
 43
0.00000001
 40
0.0
 40
0.0
 40
0.0
 40
0.0
 40
0.000650145288803
 40
0.000650145288803
 40
0.000650145288803
 40
0.000650145288803
 10
3.700651851416049
 20
6.383272109037159
 30
0.0
 10
3.706536594157968
 20
6.387640539506305
 30
0.0
 10
3.712416927955405
 20
6.392011942168949
 30
0.0
 10
3.718292429551345
 20
6.396386587735289
 30
0.0
  0
LINE
  5
1FE
330
1F
100
AcDbEntity
  8
0
  6
CONTINUOUS
 62
     7
100
AcDbLine
 10
3.4820719571
 20
6.3963865877
 30
0.0
 11
3.4840576852
 21
6.3963865877
 31
0.0
  0
SPLINE
  5
1FF
330
1F
100
AcDbEntity
  8
0
  6
CONTINUOUS
 62
     7
100
AcDbSpline
210
0.0
220
0.0
230
1.0
 70
     8
 71
     3
 72
     8
 73
     4
 74
     0
 42
0.00000001
 43
0.00000001
 40
0.0
 40
0.0
 40
0.0
 40
0.0
 40
0.0005733614293614
 40
0.0005733614293614
 40
0.0005733614293614
 40
0.0005733614293614
 10
3.700651851416049
 20
6.964869969502687
 30
0.0
 10
3.70508252241214
 20
6.959121600508992
 30
0.0
 10
3.709486266718841
 20
6.953354587347625
 30
0.0
 10
3.713860439404012
 20
6.947567690097562
 30
0.0
  0
LINE
  5
200
330
1F
100
AcDbEntity
  8
0
  6
CONTINUOUS
 62
     7
100
AcDbLine
 10
3.4840576852
 20
6.9475676901
 30
0.0
 11
3.477639967
 21
6.9475676901
 31
0.0
  0
SPLINE
  5
201
330
1F
100
AcDbEntity
  8
0
  6
HIDDEN
 62
     7
100
AcDbSpline
210
0.0
220
0.0
230
1.0
 70
     8
 71
     3
 72
    12
 73
     8
 74
     0
 42
0.00000001
 43
0.00000001
 40
0.0
 40
0.0
 40
0.0
 40
0.0
 40
0.1744968682609274
 40
0.4104739127846722
 40
0.6534787128836016
 40
0.8864671721007777
 40
1.0
 40
1.0
 40
1.0
 40
1.0
 10
3.679869750430832
 20
6.561399955709946
 30
0.0
 10
3.68440247599476
 20
6.559770174788899
 30
0.0
 10
3.695064934389273
 20
6.555936395086654
 30
0.0
 10
3.713110393777966
 20
6.553574991364237
 30
0.0
 10
3.732774943464288
 20
6.55406312865349
 30
0.0
 10
3.748980195145907
 20
6.556755462132919
 30
0.0
 10
3.757861190915625
 20
6.560287957314146
 30
0.0
 10
3.76077092431956
 20
6.561445329696092
 30
0.0
  0
SPLINE
  5
202
330
1F
100
AcDbEntity
  8
0
  6
HIDDEN
 62
     7
100
AcDbSpline
210
0.0
220
0.0
230
1.0
 70
     8
 71
     3
 72
    12
 73
     8
 74
     0
 42
0.00000001
 43
0.00000001
 40
0.0
 40
0.0
 40
0.0
 40
0.0
 40
0.2317867729956309
 40
0.4763100519249698
 40
0.7100338081586001
 40
0.9505682432880954
 40
1.0
 40
1.0
 40
1.0
 40
1.0
 10
3.760908193385514
 20
6.782860269189539
 30
0.0
 10
3.754804465740057
 20
6.784786607841457
 30
0.0
 10
3.742261615282416
 20
6.788745135981185
 30
0.0
 10
3.722577443932567
 20
6.790626279180541
 30
0.0
 10
3.702791512741377
 20
6.789173781634132
 30
0.0
 10
3.688434687023255
 20
6.786384643407218
 30
0.0
 10
3.681108368705916
 20
6.783197985774547
 30
0.0
 10
3.679859420397988
 20
6.782654742840529
 30
0.0
  0
LINE
  5
203
330
1F
100
AcDbEntity
  8
0
  6
HIDDEN
 62
     7
100
AcDbLine
 10
2.8148250798
 20
6.5046543043
 30
0.0
 11
3.0510455522
 21
6.5046543043
 31
0.0
  0
LINE
  5
204
330
1F
100
AcDbEntity
  8
0
  6
HIDDEN
 62
     7
100
AcDbLine
 10
3.0412030325
 20
6.514496824
 30
0.0
 11
2.8246675994
 21
6.514496824
 31
0.0
  0
LINE
  5
205
330
1F
100
AcDbEntity
  8
0
  6
HIDDEN
 62
     7
100
AcDbLine
 10
3.0510455522
 20
6.0518983988
 30
0.0
 11
2.9731379799
 21
6.0518983988
 31
0.0
  0
LINE
  5
206
330
1F
100
AcDbEntity
  8
0
  6
HIDDEN
 62
     7
100
AcDbLine
 10
2.8922203896
 20
6.0518983988
 30
0.0
 11
2.8148250798
 21
6.0518983988
 31
0.0
  0
LINE
  5
207
330
1F
100
AcDbEntity
  8
0
  6
HIDDEN
 62
     7
100
AcDbLine
 10
2.932935316
 20
6.1601661153
 30
0.0
 11
2.9919904341
 21
6.1601661153
 31
0.0
  0
LINE
  5
208
330
1F
100
AcDbEntity
  8
0
  6
HIDDEN
 62
     7
100
AcDbLine
 10
2.932935316
 20
6.1275158521
 30
0.0
 11
2.932935316
 21
6.0420558791
 31
0.0
  0
LINE
  5
209
330
1F
100
AcDbEntity
  8
0
  6
HIDDEN
 62
     7
100
AcDbLine
 10
2.8738801979
 20
6.1601661153
 30
0.0
 11
2.932935316
 21
6.1601661153
 31
0.0
  0
LINE
  5
20A
330
1F
100
AcDbEntity
  8
0
  6
HIDDEN
 62
     7
100
AcDbLine
 10
2.8738801979
 20
6.1601661153
 30
0.0
 11
2.8738801979
 21
6.0420558791
 31
0.0
  0
LINE
  5
20B
330
1F
100
AcDbEntity
  8
0
  6
HIDDEN
 62
     7
100
AcDbLine
 10
2.9919904341
 20
6.1601661153
 30
0.0
 11
2.9919904341
 21
6.0420558791
 31
0.0
  0
LINE
  5
20C
330
1F
100
AcDbEntity
  8
0
  6
HIDDEN
 62
     7
100
AcDbLine
 10
3.1691557884
 20
7.2296639537
 30
0.0
 11
3.1691557884
 21
7.2164384258
 31
0.0
  0
LINE
  5
20D
330
1F
100
AcDbEntity
  8
0
  6
HIDDEN
 62
     7
100
AcDbLine
 10
3.1691557884
 20
7.2164384258
 30
0.0
 11
3.1573087336
 21
7.2296639537
 31
0.0
  0
LINE
  5
20E
330
1F
100
AcDbEntity
  8
0
  6
HIDDEN
 62
     7
100
AcDbLine
 10
3.1691557884
 20
7.2164384258
 30
0.0
 11
3.1691557884
 21
6.1121109055
 31
0.0
  0
SPLINE
  5
20F
330
1F
100
AcDbEntity
  8
0
  6
HIDDEN
 62
     7
100
AcDbSpline
210
0.0
220
0.0
230
1.0
 70
     8
 71
     3
 72
    18
 73
    14
 74
     0
 42
0.00000001
 43
0.00000001
 40
0.0
 40
0.0
 40
0.0
 40
0.0
 40
0.0833723140695996
 40
0.1701496667051643
 40
0.253325424967012
 40
0.3381911807456596
 40
0.4388768232725107
 40
0.5415662267383515
 40
0.6616753505868286
 40
0.7863549079658507
 40
0.8705217000607567
 40
0.9570390590014809
 40
1.0
 40
1.0
 40
1.0
 40
1.0
 10
2.932935315982978
 20
6.567813701472939
 30
0.0
 10
2.927524026626678
 20
6.567564433237931
 30
0.0
 10
2.916480443505655
 20
6.567055716314576
 30
0.0
 10
2.900727765102759
 20
6.563243886243051
 30
0.0
 10
2.885952695554843
 20
6.557955437015114
 30
0.0
 10
2.871577579724089
 20
6.55129276748235
 30
0.0
 10
2.857599547305509
 20
6.543590381086567
 30
0.0
 10
2.843747634465451
 20
6.534972001273852
 30
0.0
 10
2.831243076349375
 20
6.526483589412827
 30
0.0
 10
2.822289098042194
 20
6.520035579765631
 30
0.0
 10
2.817159312310999
 20
6.516245758838409
 30
0.0
 10
2.814899848820642
 20
6.51455295448346
 30
0.0
 10
2.815056902056554
 20
6.514670619727721
 30
0.0
 10
2.815109012370057
 20
6.514709661093098
 30
0.0
  0
LINE
  5
210
330
1F
100
AcDbEntity
  8
0
  6
HIDDEN
 62
     7
100
AcDbLine
 10
2.9289998448
 20
6.5675109329
 30
0.0
 11
2.9342886477
 21
6.5677362654
 31
0.0
  0
SPLINE
  5
211
330
1F
100
AcDbEntity
  8
0
  6
HIDDEN
 62
     7
100
AcDbSpline
210
0.0
220
0.0
230
1.0
 70
     8
 71
     3
 72
    19
 73
    15
 74
     0
 42
0.00000001
 43
0.00000001
 40
0.0
 40
0.0
 40
0.0
 40
0.0
 40
0.0477856044158554
 40
0.1342602894841457
 40
0.2160171280842962
 40
0.2997094016837047
 40
0.3909243945036001
 40
0.4840052043424256
 40
0.5931648284884373
 40
0.7049008273379295
 40
0.7904116159404753
 40
0.8778982920256198
 40
0.9383176204359571
 40
1.0
 40
1.0
 40
1.0
 40
1.0
 10
3.050769156199889
 20
6.5147040062602
 30
0.0
 10
3.050805733919299
 20
6.514676628045025
 30
0.0
 10
3.050908504099912
 20
6.514599705148688
 30
0.0
 10
3.048543187725724
 20
6.516370933368962
 30
0.0
 10
3.0440740231949
 20
6.519669937117762
 30
0.0
 10
3.037523210930442
 20
6.524398868996161
 30
0.0
 10
3.028885580815118
 20
6.530416416869294
 30
0.0
 10
3.017599671115122
 20
6.537859745059807
 30
0.0
 10
3.003633666645776
 20
6.546308852372646
 30
0.0
 10
2.988139565369338
 20
6.554369987152037
 30
0.0
 10
2.972242931170963
 20
6.5609487588789
 30
0.0
 10
2.958144474862236
 20
6.565071332074351
 30
0.0
 10
2.944859264548191
 20
6.567412070398381
 30
0.0
 10
2.936937281175682
 20
6.567678904381866
 30
0.0
 10
2.932935315982978
 20
6.567813701472939
 30
0.0
  0
LINE
  5
212
330
1F
100
AcDbEntity
  8
0
  6
HIDDEN
 62
     7
100
AcDbLine
 10
3.464431379
 20
6.3790843083
 30
0.0
 11
3.7006518514
 21
6.3790843083
 31
0.0
  0
LINE
  5
213
330
1F
100
AcDbEntity
  8
0
  6
HIDDEN
 62
     7
100
AcDbLine
 10
3.464431379
 20
6.383272109
 30
0.0
 11
3.464431379
 21
6.3790843083
 31
0.0
  0
LINE
  5
214
330
1F
100
AcDbEntity
  8
0
  6
HIDDEN
 62
     7
100
AcDbLine
 10
3.7006518514
 20
6.9606821688
 30
0.0
 11
3.464431379
 21
6.9606821688
 31
0.0
  0
LINE
  5
215
330
1F
100
AcDbEntity
  8
0
  6
HIDDEN
 62
     7
100
AcDbLine
 10
3.7006518514
 20
6.9648699695
 30
0.0
 11
3.7006518514
 21
6.9606821688
 31
0.0
  0
LINE
  5
216
330
1F
100
AcDbEntity
  8
0
  6
HIDDEN
 62
     7
100
AcDbLine
 10
3.1888408278
 20
6.1142903241
 30
0.0
 11
2.9526203554
 21
6.1142903241
 31
0.0
  0
LINE
  5
217
330
1F
100
AcDbEntity
  8
0
  6
HIDDEN
 62
     7
100
AcDbLine
 10
3.1888408278
 20
6.1121109055
 30
0.0
 11
3.1888408278
 21
6.1142903241
 31
0.0
  0
LINE
  5
218
330
1F
100
AcDbEntity
  8
0
  6
HIDDEN
 62
     7
100
AcDbLine
 10
2.9526203554
 20
7.2318433723
 30
0.0
 11
3.1888408278
 21
7.2318433723
 31
0.0
  0
LINE
  5
219
330
1F
100
AcDbEntity
  8
0
  6
HIDDEN
 62
     7
100
AcDbLine
 10
2.9526203554
 20
7.2296639537
 30
0.0
 11
2.9526203554
 21
7.2318433723
 31
0.0
  0
SPLINE
  5
21A
330
1F
100
AcDbEntity
  8
0
  6
HIDDEN
 62
     7
100
AcDbSpline
210
0.0
220
0.0
230
1.0
 70
     8
 71
     3
 72
     8
 73
     4
 74
     0
 42
0.00000001
 43
0.00000001
 40
0.0
 40
0.0
 40
0.0
 40
0.0
 40
0.0005733614293614
 40
0.0005733614293614
 40
0.0005733614293614
 40
0.0005733614293614
 10
3.700651851416049
 20
6.379084308330165
 30
0.0
 10
3.70508252241214
 20
6.38483267732386
 30
0.0
 10
3.70948626671884
 20
6.390599690485228
 30
0.0
 10
3.713860439404012
 20
6.396386587735289
 30
0.0
  0
SPLINE
  5
21B
330
1F
100
AcDbEntity
  8
0
  6
HIDDEN
 62
     7
100
AcDbSpline
210
0.0
220
0.0
230
1.0
 70
     8
 71
     3
 72
     8
 73
     4
 74
     0
 42
0.00000001
 43
0.00000001
 40
0.0
 40
0.0
 40
0.0
 40
0.0
 40
0.000650145288803
 40
0.000650145288803
 40
0.000650145288803
 40
0.000650145288803
 10
3.718292429551345
 20
6.947567690097562
 30
0.0
 10
3.712416927955405
 20
6.951942335663904
 30
0.0
 10
3.706536594157968
 20
6.956313738326547
 30
0.0
 10
3.700651851416049
 20
6.960682168795695
 30
0.0
  0
SPLINE
  5
21C
330
1F
100
AcDbEntity
  8
0
  6
HIDDEN
 62
     7
100
AcDbSpline
210
0.0
220
0.0
230
1.0
 70
     8
 71
     3
 72
     8
 73
     4
 74
     0
 42
0.00000001
 43
0.00000001
 40
0.0
 40
0.0
 40
0.0
 40
0.0
 40
0.0002469085042363
 40
0.0002469085042363
 40
0.0002469085042363
 40
0.0002469085042363
 10
3.175632239806072
 20
7.223687540962338
 30
0.0
 10
3.173471830219879
 20
7.221272592896721
 30
0.0
 10
3.171312993328847
 20
7.218856236910483
 30
0.0
 10
3.169155788423956
 20
7.216438425764412
 30
0.0
  0
SPLINE
  5
21D
330
1F
100
AcDbEntity
  8
0
  6
HIDDEN
 62
     7
100
AcDbSpline
210
0.0
220
0.0
230
1.0
 70
     8
 71
     3
 72
     8
 73
     4
 74
     0
 42
0.00000001
 43
0.00000001
 40
0.0
 40
0.0
 40
0.0
 40
0.0
 40
0.000650145288803
 40
0.000650145288803
 40
0.000650145288803
 40
0.000650145288803
 10
3.188840827794035
 20
7.231843372336517
 30
0.0
 10
3.182956085052116
 20
7.22747494186737
 30
0.0
 10
3.177075751254679
 20
7.223103539204726
 30
0.0
 10
3.171200249658739
 20
7.218728893638385
 30
0.0
  0
SPLINE
  5
21E
330
1F
100
AcDbEntity
  8
0
  6
HIDDEN
 62
     7
100
AcDbSpline
210
0.0
220
0.0
230
1.0
 70
     8
 71
     3
 72
     8
 73
     4
 74
     0
 42
0.00000001
 43
0.00000001
 40
0.0
 40
0.0
 40
0.0
 40
0.0
 40
0.0005733614293614
 40
0.0005733614293614
 40
0.0005733614293614
 40
0.0005733614293614
 10
3.175632239806072
 20
7.223687540962338
 30
0.0
 10
3.180006412491243
 20
7.225686403983523
 30
0.0
 10
3.184410156797945
 20
7.227678398804377
 30
0.0
 10
3.188840827794035
 20
7.229663953708343
 30
0.0
  0
SPLINE
  5
21F
330
1F
100
AcDbEntity
  8
0
  6
HIDDEN
 62
     7
100
AcDbSpline
210
0.0
220
0.0
230
1.0
 70
     8
 71
     3
 72
     8
 73
     4
 74
     0
 42
0.00000001
 43
0.00000001
 40
0.0
 40
0.0
 40
0.0
 40
0.0
 40
0.0000779828184968
 40
0.0000779828184968
 40
0.0000779828184968
 40
0.0000779828184968
 10
3.169155788423956
 20
6.127515852068437
 30
0.0
 10
3.169837113350689
 20
6.126752218072327
 30
0.0
 10
3.170518601062093
 20
6.12598872928451
 30
0.0
 10
3.17120024965874
 20
6.125225384194467
 30
0.0
  0
SPLINE
  5
220
330
1F
100
AcDbEntity
  8
0
  6
HIDDEN
 62
     7
100
AcDbSpline
210
0.0
220
0.0
230
1.0
 70
     8
 71
     3
 72
     8
 73
     4
 74
     0
 42
0.00000001
 43
0.00000001
 40
0.0
 40
0.0
 40
0.0
 40
0.0
 40
0.0005733614293614
 40
0.0005733614293614
 40
0.0005733614293614
 40
0.0005733614293614
 10
3.175632239806072
 20
6.120266736870515
 30
0.0
 10
3.180006412491243
 20
6.11826787384933
 30
0.0
 10
3.184410156797944
 20
6.116275879028477
 30
0.0
 10
3.188840827794035
 20
6.11429032412451
 30
0.0
  0
SPLINE
  5
221
330
1F
100
AcDbEntity
  8
0
  6
HIDDEN
 62
     7
100
AcDbSpline
210
0.0
220
0.0
230
1.0
 70
     8
 71
     3
 72
     8
 73
     4
 74
     0
 42
0.00000001
 43
0.00000001
 40
0.0
 40
0.0
 40
0.0
 40
0.0
 40
0.0002469085042363
 40
0.0002469085042363
 40
0.0002469085042363
 40
0.0002469085042363
 10
3.175632239806072
 20
6.120266736870515
 30
0.0
 10
3.173471830219878
 20
6.122681684936131
 30
0.0
 10
3.171312993328846
 20
6.12509804092237
 30
0.0
 10
3.169155788423956
 20
6.12751585206844
 30
0.0
  0
SPLINE
  5
222
330
1F
100
AcDbEntity
  8
0
  6
HIDDEN
 62
     7
100
AcDbSpline
210
0.0
220
0.0
230
1.0
 70
     8
 71
     3
 72
     8
 73
     4
 74
     0
 42
0.00000001
 43
0.00000001
 40
0.0
 40
0.0
 40
0.0
 40
0.0
 40
0.000650145288803
 40
0.000650145288803
 40
0.000650145288803
 40
0.000650145288803
 10
3.17120024965874
 20
6.125225384194467
 30
0.0
 10
3.17707575125468
 20
6.120850738628125
 30
0.0
 10
3.182956085052116
 20
6.116479335965482
 30
0.0
 10
3.188840827794035
 20
6.112110905496335
 30
0.0
  0
LINE
  5
223
330
1F
100
AcDbEntity
  8
0
  6
HIDDEN
 62
     7
100
AcDbLine
 10
3.1691557884
 20
6.1275158521
 30
0.0
 11
3.1691557884
 21
7.2164384258
 31
0.0
  0
LINE
  5
224
330
1F
100
AcDbEntity
  8
0
  6
HIDDEN
 62
     7
100
AcDbLine
 10
3.1712002497
 20
6.1252253842
 30
0.0
 11
2.9349797772
 21
6.1252253842
 31
0.0
  0
LINE
  5
225
330
1F
100
AcDbEntity
  8
0
  6
HIDDEN
 62
     7
100
AcDbLine
 10
2.9394117674
 20
7.223687541
 30
0.0
 11
3.1756322398
 21
7.223687541
 31
0.0
  0
LINE
  5
226
330
1F
100
AcDbEntity
  8
0
  6
HIDDEN
 62
     7
100
AcDbLine
 10
2.9394117674
 20
6.1202667369
 30
0.0
 11
3.1756322398
 21
6.1202667369
 31
0.0
  0
LINE
  5
227
330
1F
100
AcDbEntity
  8
0
  6
HIDDEN
 62
     7
100
AcDbLine
 10
3.1712002497
 20
7.2187288936
 30
0.0
 11
2.9349797772
 21
7.2187288936
 31
0.0
  0
SPLINE
  5
228
330
1F
100
AcDbEntity
  8
0
  6
HIDDEN
 62
     7
100
AcDbSpline
210
0.0
220
0.0
230
1.0
 70
     8
 71
     3
 72
     8
 73
     4
 74
     0
 42
0.00000001
 43
0.00000001
 40
0.0
 40
0.0
 40
0.0
 40
0.0
 40
0.0002469085042363
 40
0.0002469085042363
 40
0.0002469085042363
 40
0.0002469085042363
 10
2.932935315982978
 20
6.12751585206844
 30
0.0
 10
2.935092520887868
 20
6.125098040922369
 30
0.0
 10
2.9372513577789
 20
6.122681684936131
 30
0.0
 10
2.939411767365093
 20
6.120266736870515
 30
0.0
  0
SPLINE
  5
229
330
1F
100
AcDbEntity
  8
0
  6
HIDDEN
 62
     7
100
AcDbSpline
210
0.0
220
0.0
230
1.0
 70
     8
 71
     3
 72
     8
 73
     4
 74
     0
 42
0.00000001
 43
0.00000001
 40
0.0
 40
0.0
 40
0.0
 40
0.0
 40
0.000650145288803
 40
0.000650145288803
 40
0.000650145288803
 40
0.000650145288803
 10
2.93497977721776
 20
7.218728893638385
 30
0.0
 10
2.9408552788137
 20
7.223103539204726
 30
0.0
 10
2.946735612611136
 20
7.22747494186737
 30
0.0
 10
2.952620355353056
 20
7.231843372336517
 30
0.0
  0
SPLINE
  5
22A
330
1F
100
AcDbEntity
  8
0
  6
HIDDEN
 62
     7
100
AcDbSpline
210
0.0
220
0.0
230
1.0
 70
     8
 71
     3
 72
     8
 73
     4
 74
     0
 42
0.00000001
 43
0.00000001
 40
0.0
 40
0.0
 40
0.0
 40
0.0
 40
0.0005733614293614
 40
0.0005733614293614
 40
0.0005733614293614
 40
0.0005733614293614
 10
2.939411767365093
 20
6.120266736870515
 30
0.0
 10
2.943785940050264
 20
6.11826787384933
 30
0.0
 10
2.948189684356966
 20
6.116275879028477
 30
0.0
 10
2.952620355353057
 20
6.11429032412451
 30
0.0
  0
LINE
  5
22B
330
1F
100
AcDbEntity
  8
0
  6
HIDDEN
 62
     7
100
AcDbLine
 10
3.477639967
 20
6.3963865877
 30
0.0
 11
3.4820650795
 21
6.3963865877
 31
0.0
  0
SPLINE
  5
22C
330
1F
100
AcDbEntity
  8
0
  6
HIDDEN
 62
     7
100
AcDbSpline
210
0.0
220
0.0
230
1.0
 70
     8
 71
     3
 72
     8
 73
     4
 74
     0
 42
0.00000001
 43
0.00000001
 40
0.0
 40
0.0
 40
0.0
 40
0.0
 40
0.000650145288803
 40
0.000650145288803
 40
0.000650145288803
 40
0.000650145288803
 10
3.46443137897507
 20
6.960682168795695
 30
0.0
 10
3.470316121716989
 20
6.956313738326547
 30
0.0
 10
3.476196455514426
 20
6.951942335663904
 30
0.0
 10
3.482071957110366
 20
6.947567690097562
 30
0.0
  0
SPLINE
  5
22D
330
1F
100
AcDbEntity
  8
0
  6
HIDDEN
 62
     7
100
AcDbSpline
210
0.0
220
0.0
230
1.0
 70
     8
 71
     3
 72
     8
 73
     4
 74
     0
 42
0.00000001
 43
0.00000001
 40
0.0
 40
0.0
 40
0.0
 40
0.0
 40
0.0005733614293614
 40
0.0005733614293614
 40
0.0005733614293614
 40
0.0005733614293614
 10
3.46443137897507
 20
6.379084308330165
 30
0.0
 10
3.468862049971161
 20
6.38483267732386
 30
0.0
 10
3.473265794277862
 20
6.390599690485228
 30
0.0
 10
3.477639966963033
 20
6.396386587735289
 30
0.0
  0
LINE
  5
22E
330
1F
100
AcDbEntity
  8
0
  6
HIDDEN
 62
     7
100
AcDbLine
 10
3.9762424026
 20
6.8491424932
 30
0.0
 11
3.9565573632
 21
6.8294574539
 31
0.0
  0
LINE
  5
22F
330
1F
100
AcDbEntity
  8
0
  6
HIDDEN
 62
     7
100
AcDbLine
 10
3.9565573632
 20
6.514496824
 30
0.0
 11
3.9762424026
 21
6.4948117846
 31
0.0
  0
LINE
  5
230
330
1F
100
AcDbEntity
  8
0
  6
HIDDEN
 62
     7
100
AcDbLine
 10
3.9565573632
 20
6.8294574539
 30
0.0
 11
3.4841164183
 21
6.8294574539
 31
0.0
  0
LINE
  5
231
330
1F
100
AcDbEntity
  8
0
  6
HIDDEN
 62
     7
100
AcDbLine
 10
3.4841164183
 20
6.514496824
 30
0.0
 11
3.9565573632
 21
6.514496824
 31
0.0
  0
LINE
  5
232
330
1F
100
AcDbEntity
  8
0
  6
HIDDEN
 62
     7
100
AcDbLine
 10
3.0510455522
 20
6.5046543043
 30
0.0
 11
3.0412030325
 21
6.514496824
 31
0.0
  0
LINE
  5
233
330
1F
100
AcDbEntity
  8
0
  6
HIDDEN
 62
     7
100
AcDbLine
 10
2.8246675994
 20
6.514496824
 30
0.0
 11
2.8148250798
 21
6.5046543043
 31
0.0
  0
LINE
  5
234
330
1F
100
AcDbEntity
  8
0
  6
HIDDEN
 62
     7
100
AcDbLine
 10
3.0510455522
 20
6.0518983988
 30
0.0
 11
3.0510455522
 21
6.5046543043
 31
0.0
  0
LINE
  5
235
330
1F
100
AcDbEntity
  8
0
  6
HIDDEN
 62
     7
100
AcDbLine
 10
2.8148250798
 20
6.5046543043
 30
0.0
 11
2.8148250798
 21
6.0518983988
 31
0.0
  0
LINE
  5
236
330
1F
100
AcDbEntity
  8
0
  6
HIDDEN
 62
     7
100
AcDbLine
 10
2.8148250798
 20
6.0518983988
 30
0.0
 11
2.823159039
 21
6.0435644395
 31
0.0
  0
LINE
  5
237
330
1F
100
AcDbEntity
  8
0
  6
HIDDEN
 62
     7
100
AcDbLine
 10
3.0427061805
 20
6.0435590271
 30
0.0
 11
3.0510455522
 21
6.0518983988
 31
0.0
  0
LINE
  5
238
330
1F
100
AcDbEntity
  8
0
  6
HIDDEN
 62
     7
100
AcDbLine
 10
2.6770298042
 20
6.4948117846
 30
0.0
 11
2.6967148435
 21
6.514496824
 31
0.0
  0
LINE
  5
239
330
1F
100
AcDbEntity
  8
0
  6
HIDDEN
 62
     7
100
AcDbLine
 10
2.6967148435
 20
6.8294574539
 30
0.0
 11
2.6770298042
 21
6.8491424932
 31
0.0
  0
LINE
  5
23A
330
1F
100
AcDbEntity
  8
0
  6
HIDDEN
 62
     7
100
AcDbLine
 10
3.0507691562
 20
6.514496824
 30
0.0
 11
3.1691557884
 21
6.514496824
 31
0.0
  0
LINE
  5
23B
330
1F
100
AcDbEntity
  8
0
  6
HIDDEN
 62
     7
100
AcDbLine
 10
2.6967148435
 20
6.514496824
 30
0.0
 11
2.8151090124
 21
6.514496824
 31
0.0
  0
LINE
  5
23C
330
1F
100
AcDbEntity
  8
0
  6
HIDDEN
 62
     7
100
AcDbLine
 10
3.1691557884
 20
6.8294574539
 30
0.0
 11
2.6967148435
 21
6.8294574539
 31
0.0
  0
LINE
  5
23D
330
1F
100
AcDbEntity
  8
0
  6
HIDDEN
 62
     7
100
AcDbLine
 10
2.8148250798
 20
6.5147096609
 30
0.0
 11
2.8148250798
 21
6.0420558791
 31
0.0
  0
LINE
  5
23E
330
1F
100
AcDbEntity
  8
0
  6
HIDDEN
 62
     7
100
AcDbLine
 10
3.0510455522
 20
6.0420558791
 30
0.0
 11
3.0510455522
 21
6.5147039978
 31
0.0
  0
LINE
  5
23F
330
1F
100
AcDbEntity
  8
0
  6
HIDDEN
 62
     7
100
AcDbLine
 10
3.1691557884
 20
6.514496824
 30
0.0
 11
3.4841164183
 21
6.514496824
 31
0.0
  0
LINE
  5
240
330
1F
100
AcDbEntity
  8
0
  6
HIDDEN
 62
     7
100
AcDbLine
 10
3.4841164183
 20
6.8294574539
 30
0.0
 11
3.1691557884
 21
6.8294574539
 31
0.0
  0
LINE
  5
241
330
1F
100
AcDbEntity
  8
0
  6
CONTINUOUS
 62
     7
100
AcDbLine
 10
8.535459005
 20
7.2462615612
 30
0.0
 11
8.5284981617
 21
7.2502812767
 31
0.0
  0
LINE
  5
242
330
1F
100
AcDbEntity
  8
0
  6
CONTINUOUS
 62
     7
100
AcDbLine
 10
8.3753596094
 20
7.2502812767
 30
0.0
 11
8.3683987661
 21
7.2462615612
 31
0.0
  0
LINE
  5
243
330
1F
100
AcDbEntity
  8
0
  6
CONTINUOUS
 62
     7
100
AcDbLine
 10
8.619034377
 20
6.0809959479
 30
0.0
 11
8.6329515395
 21
6.0890327668
 31
0.0
  0
LINE
  5
244
330
1F
100
AcDbEntity
  8
0
  6
CONTINUOUS
 62
     7
100
AcDbLine
 10
9.0643835779
 20
6.8363759535
 30
0.0
 11
9.0643835779
 21
6.8524469793
 31
0.0
  0
LINE
  5
245
330
1F
100
AcDbEntity
  8
0
  6
CONTINUOUS
 62
     7
100
AcDbLine
 10
8.1509132765
 20
6.1381586177
 30
0.0
 11
8.3040269495
 21
6.0497679757
 31
0.0
  0
LINE
  5
246
330
1F
100
AcDbEntity
  8
0
  6
CONTINUOUS
 62
     7
100
AcDbLine
 10
8.9338970173
 20
7.1408531566
 30
0.0
 11
8.7668639194
 21
7.2372793116
 31
0.0
  0
LINE
  5
247
330
1F
100
AcDbEntity
  8
0
  6
CONTINUOUS
 62
     7
100
AcDbLine
 10
8.0204267159
 20
6.4426358208
 30
0.0
 11
8.0204267159
 21
6.426564795
 31
0.0
  0
LINE
  5
248
330
1F
100
AcDbEntity
  8
0
  6
CONTINUOUS
 62
     7
100
AcDbLine
 10
8.2987428189
 20
7.2944419814
 30
0.0
 11
8.2848256564
 21
7.2864051625
 31
0.0
  0
LINE
  5
249
330
1F
100
AcDbEntity
  8
0
  6
CONTINUOUS
 62
     7
100
AcDbLine
 10
7.3731734615
 20
6.8082516583
 30
0.0
 11
7.3731734615
 21
6.8002161454
 31
0.0
  0
LINE
  5
24A
330
1F
100
AcDbEntity
  8
0
  6
CONTINUOUS
 62
     7
100
AcDbLine
 10
7.4497178554
 20
6.6676229994
 30
0.0
 11
7.4566764366
 21
6.6636045899
 31
0.0
  0
LINE
  5
24B
330
1F
100
AcDbEntity
  8
0
  6
CONTINUOUS
 62
     7
100
AcDbLine
 10
8.1961675015
 20
7.566735341
 30
0.0
 11
8.0430538285
 21
7.655125983
 31
0.0
  0
LINE
  5
24C
330
1F
100
AcDbEntity
  8
0
  6
CONTINUOUS
 62
     7
100
AcDbLine
 10
7.4131837607
 20
6.564040802
 30
0.0
 11
7.5662974337
 21
6.47565016
 31
0.0
  0
LINE
  5
24D
330
1F
100
AcDbEntity
  8
0
  6
CONTINUOUS
 62
     7
100
AcDbLine
 10
7.728046401
 20
7.6238980108
 30
0.0
 11
7.7141292385
 21
7.6158611918
 31
0.0
  0
LINE
  5
24E
330
1F
100
AcDbEntity
  8
0
  6
CONTINUOUS
 62
     7
100
AcDbLine
 10
7.2826972001
 20
6.8685180052
 30
0.0
 11
7.2826972001
 21
6.8524469793
 31
0.0
  0
LINE
  5
24F
330
1F
100
AcDbEntity
  8
0
  6
CONTINUOUS
 62
     7
100
AcDbLine
 10
7.5941362834
 20
6.4595791342
 30
0.0
 11
8.1230744268
 21
6.1542296435
 31
0.0
  0
LINE
  5
250
330
1F
100
AcDbEntity
  8
0
  6
CONTINUOUS
 62
     7
100
AcDbLine
 10
8.7529444946
 20
7.2453148245
 30
0.0
 11
8.2240063512
 21
7.5506643151
 31
0.0
  0
LINE
  5
251
330
1F
100
AcDbEntity
  8
0
  6
CONTINUOUS
 62
     7
100
AcDbLine
 10
7.9089989238
 20
7.5194363429
 30
0.0
 11
7.8950817612
 21
7.511399524
 31
0.0
  0
LINE
  5
252
330
1F
100
AcDbEntity
  8
0
  6
CONTINUOUS
 62
     7
100
AcDbLine
 10
7.6306828208
 20
6.6676301824
 30
0.0
 11
7.6306828208
 21
6.6515591565
 31
0.0
  0
POLYLINE
  5
253
330
1F
100
AcDbEntity
  8
0
  6
CONTINUOUS
 62
     7
100
AcDb2dPolyline
 66
     1
 10
0.0
 20
0.0
 30
0.0
  0
VERTEX
  5
2A5
330
253
100
AcDbEntity
  8
0
  6
CONTINUOUS
 62
     7
100
AcDbVertex
100
AcDb2dVertex
 10
8.5284857221
 20
7.161897817
 30
0.0
  0
VERTEX
  5
2A6
330
253
100
AcDbEntity
  8
0
  6
CONTINUOUS
 62
     7
100
AcDbVertex
100
AcDb2dVertex
 10
8.5370029968
 20
7.1674351405
 30
0.0
  0
VERTEX
  5
2A7
330
253
100
AcDbEntity
  8
0
  6
CONTINUOUS
 62
     7
100
AcDbVertex
100
AcDb2dVertex
 10
8.5443260175
 20
7.1735151375
 30
0.0
  0
VERTEX
  5
2A8
330
253
100
AcDbEntity
  8
0
  6
CONTINUOUS
 62
     7
100
AcDbVertex
100
AcDb2dVertex
 10
8.550351985
 20
7.1800524582
 30
0.0
  0
VERTEX
  5
2A9
330
253
100
AcDbEntity
  8
0
  6
CONTINUOUS
 62
     7
100
AcDbVertex
100
AcDb2dVertex
 10
8.5549963079
 20
7.186955333
 30
0.0
  0
VERTEX
  5
2AA
330
253
100
AcDbEntity
  8
0
  6
CONTINUOUS
 62
     7
100
AcDbVertex
100
AcDb2dVertex
 10
8.5581937902
 20
7.1941268607
 30
0.0
  0
VERTEX
  5
2AB
330
253
100
AcDbEntity
  8
0
  6
CONTINUOUS
 62
     7
100
AcDbVertex
100
AcDb2dVertex
 10
8.5598995461
 20
7.2014663686
 30
0.0
  0
VERTEX
  5
2AC
330
253
100
AcDbEntity
  8
0
  6
CONTINUOUS
 62
     7
100
AcDbVertex
100
AcDb2dVertex
 10
8.5600896306
 20
7.2088708262
 30
0.0
  0
VERTEX
  5
2AD
330
253
100
AcDbEntity
  8
0
  6
CONTINUOUS
 62
     7
100
AcDbVertex
100
AcDb2dVertex
 10
8.5587613753
 20
7.2162362912
 30
0.0
  0
VERTEX
  5
2AE
330
253
100
AcDbEntity
  8
0
  6
CONTINUOUS
 62
     7
100
AcDbVertex
100
AcDb2dVertex
 10
8.5559334261
 20
7.2234593686
 30
0.0
  0
VERTEX
  5
2AF
330
253
100
AcDbEntity
  8
0
  6
CONTINUOUS
 62
     7
100
AcDbVertex
100
AcDb2dVertex
 10
8.5516454811
 20
7.2304386621
 30
0.0
  0
VERTEX
  5
2B0
330
253
100
AcDbEntity
  8
0
  6
CONTINUOUS
 62
     7
100
AcDbVertex
100
AcDb2dVertex
 10
8.5459577337
 20
7.2370761978
 30
0.0
  0
VERTEX
  5
2B1
330
253
100
AcDbEntity
  8
0
  6
CONTINUOUS
 62
     7
100
AcDbVertex
100
AcDb2dVertex
 10
8.5389500274
 20
7.2432787993
 30
0.0
  0
VERTEX
  5
2B2
330
253
100
AcDbEntity
  8
0
  6
CONTINUOUS
 62
     7
100
AcDbVertex
100
AcDb2dVertex
 10
8.5307207349
 20
7.2489593956
 30
0.0
  0
VERTEX
  5
2B3
330
253
100
AcDbEntity
  8
0
  6
CONTINUOUS
 62
     7
100
AcDbVertex
100
AcDb2dVertex
 10
8.5213853777
 20
7.2540382437
 30
0.0
  0
VERTEX
  5
2B4
330
253
100
AcDbEntity
  8
0
  6
CONTINUOUS
 62
     7
100
AcDbVertex
100
AcDb2dVertex
 10
8.5110750035
 20
7.2584440475
 30
0.0
  0
VERTEX
  5
2B5
330
253
100
AcDbEntity
  8
0
  6
CONTINUOUS
 62
     7
100
AcDbVertex
100
AcDb2dVertex
 10
8.4999343475
 20
7.2621149594
 30
0.0
  0
VERTEX
  5
2B6
330
253
100
AcDbEntity
  8
0
  6
CONTINUOUS
 62
     7
100
AcDbVertex
100
AcDb2dVertex
 10
8.4881198
 20
7.2649994476
 30
0.0
  0
VERTEX
  5
2B7
330
253
100
AcDbEntity
  8
0
  6
CONTINUOUS
 62
     7
100
AcDbVertex
100
AcDb2dVertex
 10
8.4757972115
 20
7.2670570204
 30
0.0
  0
VERTEX
  5
2B8
330
253
100
AcDbEntity
  8
0
  6
CONTINUOUS
 62
     7
100
AcDbVertex
100
AcDb2dVertex
 10
8.4631395639
 20
7.2682587939
 30
0.0
  0
VERTEX
  5
2B9
330
253
100
AcDbEntity
  8
0
  6
CONTINUOUS
 62
     7
100
AcDbVertex
100
AcDb2dVertex
 10
8.450324543
 20
7.2685878979
 30
0.0
  0
VERTEX
  5
2BA
330
253
100
AcDbEntity
  8
0
  6
CONTINUOUS
 62
     7
100
AcDbVertex
100
AcDb2dVertex
 10
8.4375320436
 20
7.2680397125
 30
0.0
  0
VERTEX
  5
2BB
330
253
100
AcDbEntity
  8
0
  6
CONTINUOUS
 62
     7
100
AcDbVertex
100
AcDb2dVertex
 10
8.4249416442
 20
7.2666219329
 30
0.0
  0
VERTEX
  5
2BC
330
253
100
AcDbEntity
  8
0
  6
CONTINUOUS
 62
     7
100
AcDbVertex
100
AcDb2dVertex
 10
8.4127300866
 20
7.2643544617
 30
0.0
  0
VERTEX
  5
2BD
330
253
100
AcDbEntity
  8
0
  6
CONTINUOUS
 62
     7
100
AcDbVertex
100
AcDb2dVertex
 10
8.4010687942
 20
7.2612691293
 30
0.0
  0
VERTEX
  5
2BE
330
253
100
AcDbEntity
  8
0
  6
CONTINUOUS
 62
     7
100
AcDbVertex
100
AcDb2dVertex
 10
8.3901214659
 20
7.2574092469
 30
0.0
  0
VERTEX
  5
2BF
330
253
100
AcDbEntity
  8
0
  6
CONTINUOUS
 62
     7
100
AcDbVertex
100
AcDb2dVertex
 10
8.3800417784
 20
7.2528289988
 30
0.0
  0
VERTEX
  5
2C0
330
253
100
AcDbEntity
  8
0
  6
CONTINUOUS
 62
     7
100
AcDbVertex
100
AcDb2dVertex
 10
8.3709712283
 20
7.2475926817
 30
0.0
  0
VERTEX
  5
2C1
330
253
100
AcDbEntity
  8
0
  6
CONTINUOUS
 62
     7
100
AcDbVertex
100
AcDb2dVertex
 10
8.3630371462
 20
7.2417738019
 30
0.0
  0
VERTEX
  5
2C2
330
253
100
AcDbEntity
  8
0
  6
CONTINUOUS
 62
     7
100
AcDbVertex
100
AcDb2dVertex
 10
8.3563509093
 20
7.2354540438
 30
0.0
  0
VERTEX
  5
2C3
330
253
100
AcDbEntity
  8
0
  6
CONTINUOUS
 62
     7
100
AcDbVertex
100
AcDb2dVertex
 10
8.3510063776
 20
7.228722123
 30
0.0
  0
VERTEX
  5
2C4
330
253
100
AcDbEntity
  8
0
  6
CONTINUOUS
 62
     7
100
AcDbVertex
100
AcDb2dVertex
 10
8.3470785768
 20
7.2216725408
 30
0.0
  0
VERTEX
  5
2C5
330
253
100
AcDbEntity
  8
0
  6
CONTINUOUS
 62
     7
100
AcDbVertex
100
AcDb2dVertex
 10
8.3446226444
 20
7.214404258
 30
0.0
  0
VERTEX
  5
2C6
330
253
100
AcDbEntity
  8
0
  6
CONTINUOUS
 62
     7
100
AcDbVertex
100
AcDb2dVertex
 10
8.3436730565
 20
7.2070193053
 30
0.0
  0
VERTEX
  5
2C7
330
253
100
AcDbEntity
  8
0
  6
CONTINUOUS
 62
     7
100
AcDbVertex
100
AcDb2dVertex
 10
8.344243143
 20
7.1996213512
 30
0.0
  0
VERTEX
  5
2C8
330
253
100
AcDbEntity
  8
0
  6
CONTINUOUS
 62
     7
100
AcDbVertex
100
AcDb2dVertex
 10
8.3463249014
 20
7.1923142468
 30
0.0
  0
VERTEX
  5
2C9
330
253
100
AcDbEntity
  8
0
  6
CONTINUOUS
 62
     7
100
AcDbVertex
100
AcDb2dVertex
 10
8.3498891082
 20
7.1852005678
 30
0.0
  0
VERTEX
  5
2CA
330
253
100
AcDbEntity
  8
0
  6
CONTINUOUS
 62
     7
100
AcDbVertex
100
AcDb2dVertex
 10
8.3548857299
 20
7.1783801747
 30
0.0
  0
VERTEX
  5
2CB
330
253
100
AcDbEntity
  8
0
  6
CONTINUOUS
 62
     7
100
AcDbVertex
100
AcDb2dVertex
 10
8.3612446247
 20
7.1719488109
 30
0.0
  0
VERTEX
  5
2CC
330
253
100
AcDbEntity
  8
0
  6
CONTINUOUS
 62
     7
100
AcDbVertex
100
AcDb2dVertex
 10
8.3688765277
 20
7.1659967586
 30
0.0
  0
VERTEX
  5
2CD
330
253
100
AcDbEntity
  8
0
  6
CONTINUOUS
 62
     7
100
AcDbVertex
100
AcDb2dVertex
 10
8.3776743038
 20
7.1606075716
 30
0.0
  0
VERTEX
  5
2CE
330
253
100
AcDbEntity
  8
0
  6
CONTINUOUS
 62
     7
100
AcDbVertex
100
AcDb2dVertex
 10
8.3875144514
 20
7.1558569022
 30
0.0
  0
VERTEX
  5
2CF
330
253
100
AcDbEntity
  8
0
  6
CONTINUOUS
 62
     7
100
AcDbVertex
100
AcDb2dVertex
 10
8.3982588365
 20
7.1518114394
 30
0.0
  0
VERTEX
  5
2D0
330
253
100
AcDbEntity
  8
0
  6
CONTINUOUS
 62
     7
100
AcDbVertex
100
AcDb2dVertex
 10
8.4097566315
 20
7.1485279727
 30
0.0
  0
VERTEX
  5
2D1
330
253
100
AcDbEntity
  8
0
  6
CONTINUOUS
 62
     7
100
AcDbVertex
100
AcDb2dVertex
 10
8.4218464325
 20
7.1460525948
 30
0.0
  0
VERTEX
  5
2D2
330
253
100
AcDbEntity
  8
0
  6
CONTINUOUS
 62
     7
100
AcDbVertex
100
AcDb2dVertex
 10
8.4343585251
 20
7.1444200544
 30
0.0
  0
VERTEX
  5
2D3
330
253
100
AcDbEntity
  8
0
  6
CONTINUOUS
 62
     7
100
AcDbVertex
100
AcDb2dVertex
 10
8.4471172671
 20
7.143653269
 30
0.0
  0
VERTEX
  5
2D4
330
253
100
AcDbEntity
  8
0
  6
CONTINUOUS
 62
     7
100
AcDbVertex
100
AcDb2dVertex
 10
8.4599435537
 20
7.1437630024
 30
0.0
  0
VERTEX
  5
2D5
330
253
100
AcDbEntity
  8
0
  6
CONTINUOUS
 62
     7
100
AcDbVertex
100
AcDb2dVertex
 10
8.4726573319
 20
7.1447477144
 30
0.0
  0
VERTEX
  5
2D6
330
253
100
AcDbEntity
  8
0
  6
CONTINUOUS
 62
     7
100
AcDbVertex
100
AcDb2dVertex
 10
8.4850801281
 20
7.1465935816
 30
0.0
  0
VERTEX
  5
2D7
330
253
100
AcDbEntity
  8
0
  6
CONTINUOUS
 62
     7
100
AcDbVertex
100
AcDb2dVertex
 10
8.4970375536
 20
7.1492746921
 30
0.0
  0
VERTEX
  5
2D8
330
253
100
AcDbEntity
  8
0
  6
CONTINUOUS
 62
     7
100
AcDbVertex
100
AcDb2dVertex
 10
8.5083617523
 20
7.1527534091
 30
0.0
  0
VERTEX
  5
2D9
330
253
100
AcDbEntity
  8
0
  6
CONTINUOUS
 62
     7
100
AcDbVertex
100
AcDb2dVertex
 10
8.5188937572
 20
7.156980899
 30
0.0
  0
VERTEX
  5
2DA
330
253
100
AcDbEntity
  8
0
  6
CONTINUOUS
 62
     7
100
AcDbVertex
100
AcDb2dVertex
 10
8.5284857221
 20
7.161897817
 30
0.0
  0
SEQEND
  5
2DB
330
253
100
AcDbEntity
  8
0
  6
CONTINUOUS
 62
     7
  0
ARC
  5
254
330
1F
100
AcDbEntity
  8
0
  6
CONTINUOUS
 62
     7
100
AcDbCircle
 10
8.4255640787
 20
7.242654844
 30
0.0
 40
0.1090737789900965
100
AcDbArc
 50
222.2309261101
 51
258.6474161662
  0
ARC
  5
255
330
1F
100
AcDbEntity
  8
0
  6
CONTINUOUS
 62
     7
100
AcDbCircle
 10
8.3921610014
 20
7.1930349802
 30
0.0
 40
0.058289902599774
100
AcDbArc
 50
114.0576804523
 51
177.7723896417
  0
ARC
  5
256
330
1F
100
AcDbEntity
  8
0
  6
CONTINUOUS
 62
     7
100
AcDbCircle
 10
8.4954895079
 20
7.1738465603
 30
0.0
 40
0.0827133184513928
100
AcDbArc
 50
39.7786734692
 51
61.1034755584
  0
POLYLINE
  5
257
330
1F
100
AcDbEntity
  8
0
  6
CONTINUOUS
 62
     7
100
AcDb2dPolyline
 66
     1
 10
0.0
 20
0.0
 30
0.0
  0
VERTEX
  5
2DC
330
257
100
AcDbEntity
  8
0
  6
CONTINUOUS
 62
     7
100
AcDbVertex
100
AcDb2dVertex
 10
8.5698409268
 20
7.2020046643
 30
0.0
  0
VERTEX
  5
2DD
330
257
100
AcDbEntity
  8
0
  6
CONTINUOUS
 62
     7
100
AcDbVertex
100
AcDb2dVertex
 10
8.5700270796
 20
7.1990299453
 30
0.0
  0
VERTEX
  5
2DE
330
257
100
AcDbEntity
  8
0
  6
CONTINUOUS
 62
     7
100
AcDbVertex
100
AcDb2dVertex
 10
8.5700391218
 20
7.198056319
 30
0.0
  0
SEQEND
  5
2DF
330
257
100
AcDbEntity
  8
0
  6
CONTINUOUS
 62
     7
  0
LINE
  5
258
330
1F
100
AcDbEntity
  8
0
  6
CONTINUOUS
 62
     7
100
AcDbLine
 10
8.4342797621
 20
7.2441175934
 30
0.0
 11
8.38606146
 21
7.2162817601
 31
0.0
  0
LINE
  5
259
330
1F
100
AcDbEntity
  8
0
  6
CONTINUOUS
 62
     7
100
AcDbLine
 10
8.38606146
 20
7.2162817601
 30
0.0
 11
8.4037105835
 21
7.1782573048
 31
0.0
  0
LINE
  5
25A
330
1F
100
AcDbEntity
  8
0
  6
CONTINUOUS
 62
     7
100
AcDbLine
 10
8.4037105835
 20
7.1782573048
 30
0.0
 11
8.469578009
 21
7.1680686827
 31
0.0
  0
LINE
  5
25B
330
1F
100
AcDbEntity
  8
0
  6
CONTINUOUS
 62
     7
100
AcDbLine
 10
8.469578009
 20
7.1680686827
 30
0.0
 11
8.517796311
 21
7.1959045159
 31
0.0
  0
LINE
  5
25C
330
1F
100
AcDbEntity
  8
0
  6
CONTINUOUS
 62
     7
100
AcDbLine
 10
8.517796311
 20
7.1959045159
 30
0.0
 11
8.5001471876
 21
7.2339289713
 31
0.0
  0
LINE
  5
25D
330
1F
100
AcDbEntity
  8
0
  6
CONTINUOUS
 62
     7
100
AcDbLine
 10
8.5001471876
 20
7.2339289713
 30
0.0
 11
8.4342797621
 21
7.2441175934
 31
0.0
  0
LINE
  5
25E
330
1F
100
AcDbEntity
  8
0
  6
CONTINUOUS
 62
     7
100
AcDbLine
 10
8.5001471876
 20
7.1857158938
 30
0.0
 11
8.5001471876
 21
7.2339289713
 31
0.0
  0
LINE
  5
25F
330
1F
100
AcDbEntity
  8
0
  6
CONTINUOUS
 62
     7
100
AcDbLine
 10
8.4342797621
 20
7.1735287488
 30
0.0
 11
8.4342797621
 21
7.2441175934
 31
0.0
  0
POLYLINE
  5
260
330
1F
100
AcDbEntity
  8
0
  6
CONTINUOUS
 62
     7
100
AcDb2dPolyline
 66
     1
 10
0.0
 20
0.0
 30
0.0
  0
VERTEX
  5
2E0
330
260
100
AcDbEntity
  8
0
  6
CONTINUOUS
 62
     7
100
AcDbVertex
100
AcDb2dVertex
 10
9.0643835779
 20
6.8363759535
 30
0.0
  0
VERTEX
  5
2E1
330
260
100
AcDbEntity
  8
0
  6
CONTINUOUS
 62
     7
100
AcDbVertex
100
AcDb2dVertex
 10
9.0638471867
 20
6.8609036479
 30
0.0
  0
VERTEX
  5
2E2
330
260
100
AcDbEntity
  8
0
  6
CONTINUOUS
 62
     7
100
AcDbVertex
100
AcDb2dVertex
 10
9.0622393467
 20
6.8847510585
 30
0.0
  0
VERTEX
  5
2E3
330
260
100
AcDbEntity
  8
0
  6
CONTINUOUS
 62
     7
100
AcDbVertex
100
AcDb2dVertex
 10
9.0595640552
 20
6.9078588968
 30
0.0
  0
VERTEX
  5
2E4
330
260
100
AcDbEntity
  8
0
  6
CONTINUOUS
 62
     7
100
AcDbVertex
100
AcDb2dVertex
 10
9.0558279634
 20
6.9301697133
 30
0.0
  0
VERTEX
  5
2E5
330
260
100
AcDbEntity
  8
0
  6
CONTINUOUS
 62
     7
100
AcDbVertex
100
AcDb2dVertex
 10
9.0510403598
 20
6.9516280395
 30
0.0
  0
VERTEX
  5
2E6
330
260
100
AcDbEntity
  8
0
  6
CONTINUOUS
 62
     7
100
AcDbVertex
100
AcDb2dVertex
 10
9.0452131472
 20
6.9721805268
 30
0.0
  0
VERTEX
  5
2E7
330
260
100
AcDbEntity
  8
0
  6
CONTINUOUS
 62
     7
100
AcDbVertex
100
AcDb2dVertex
 10
9.0383608129
 20
6.9917760785
 30
0.0
  0
VERTEX
  5
2E8
330
260
100
AcDbEntity
  8
0
  6
CONTINUOUS
 62
     7
100
AcDbVertex
100
AcDb2dVertex
 10
9.030500393
 20
7.0103659769
 30
0.0
  0
VERTEX
  5
2E9
330
260
100
AcDbEntity
  8
0
  6
CONTINUOUS
 62
     7
100
AcDbVertex
100
AcDb2dVertex
 10
9.0216514295
 20
7.0279040046
 30
0.0
  0
VERTEX
  5
2EA
330
260
100
AcDbEntity
  8
0
  6
CONTINUOUS
 62
     7
100
AcDbVertex
100
AcDb2dVertex
 10
9.0118359226
 20
7.0443465593
 30
0.0
  0
VERTEX
  5
2EB
330
260
100
AcDbEntity
  8
0
  6
CONTINUOUS
 62
     7
100
AcDbVertex
100
AcDb2dVertex
 10
9.001078275
 20
7.0596527622
 30
0.0
  0
VERTEX
  5
2EC
330
260
100
AcDbEntity
  8
0
  6
CONTINUOUS
 62
     7
100
AcDbVertex
100
AcDb2dVertex
 10
8.989405232
 20
7.0737845597
 30
0.0
  0
VERTEX
  5
2ED
330
260
100
AcDbEntity
  8
0
  6
CONTINUOUS
 62
     7
100
AcDbVertex
100
AcDb2dVertex
 10
8.9768458146
 20
7.0867068179
 30
0.0
  0
VERTEX
  5
2EE
330
260
100
AcDbEntity
  8
0
  6
CONTINUOUS
 62
     7
100
AcDbVertex
100
AcDb2dVertex
 10
8.9634312475
 20
7.0983874101
 30
0.0
  0
VERTEX
  5
2EF
330
260
100
AcDbEntity
  8
0
  6
CONTINUOUS
 62
     7
100
AcDbVertex
100
AcDb2dVertex
 10
8.9491948814
 20
7.1087972964
 30
0.0
  0
VERTEX
  5
2F0
330
260
100
AcDbEntity
  8
0
  6
CONTINUOUS
 62
     7
100
AcDbVertex
100
AcDb2dVertex
 10
8.9341721102
 20
7.1179105962
 30
0.0
  0
VERTEX
  5
2F1
330
260
100
AcDbEntity
  8
0
  6
CONTINUOUS
 62
     7
100
AcDbVertex
100
AcDb2dVertex
 10
8.9184002828
 20
7.1257046525
 30
0.0
  0
VERTEX
  5
2F2
330
260
100
AcDbEntity
  8
0
  6
CONTINUOUS
 62
     7
100
AcDbVertex
100
AcDb2dVertex
 10
8.9019186105
 20
7.1321600879
 30
0.0
  0
VERTEX
  5
2F3
330
260
100
AcDbEntity
  8
0
  6
CONTINUOUS
 62
     7
100
AcDbVertex
100
AcDb2dVertex
 10
8.8847680693
 20
7.1372608533
 30
0.0
  0
VERTEX
  5
2F4
330
260
100
AcDbEntity
  8
0
  6
CONTINUOUS
 62
     7
100
AcDbVertex
100
AcDb2dVertex
 10
8.8669912983
 20
7.1409942674
 30
0.0
  0
VERTEX
  5
2F5
330
260
100
AcDbEntity
  8
0
  6
CONTINUOUS
 62
     7
100
AcDbVertex
100
AcDb2dVertex
 10
8.8486324931
 20
7.1433510482
 30
0.0
  0
VERTEX
  5
2F6
330
260
100
AcDbEntity
  8
0
  6
CONTINUOUS
 62
     7
100
AcDbVertex
100
AcDb2dVertex
 10
8.8297372967
 20
7.1443253365
 30
0.0
  0
VERTEX
  5
2F7
330
260
100
AcDbEntity
  8
0
  6
CONTINUOUS
 62
     7
100
AcDbVertex
100
AcDb2dVertex
 10
8.8103526856
 20
7.14391471
 30
0.0
  0
VERTEX
  5
2F8
330
260
100
AcDbEntity
  8
0
  6
CONTINUOUS
 62
     7
100
AcDbVertex
100
AcDb2dVertex
 10
8.7905268529
 20
7.1421201896
 30
0.0
  0
VERTEX
  5
2F9
330
260
100
AcDbEntity
  8
0
  6
CONTINUOUS
 62
     7
100
AcDbVertex
100
AcDb2dVertex
 10
8.7703090889
 20
7.1389462368
 30
0.0
  0
VERTEX
  5
2FA
330
260
100
AcDbEntity
  8
0
  6
CONTINUOUS
 62
     7
100
AcDbVertex
100
AcDb2dVertex
 10
8.7497496579
 20
7.1344007425
 30
0.0
  0
VERTEX
  5
2FB
330
260
100
AcDbEntity
  8
0
  6
CONTINUOUS
 62
     7
100
AcDbVertex
100
AcDb2dVertex
 10
8.7288996741
 20
7.1284950075
 30
0.0
  0
VERTEX
  5
2FC
330
260
100
AcDbEntity
  8
0
  6
CONTINUOUS
 62
     7
100
AcDbVertex
100
AcDb2dVertex
 10
8.7078109737
 20
7.1212437145
 30
0.0
  0
VERTEX
  5
2FD
330
260
100
AcDbEntity
  8
0
  6
CONTINUOUS
 62
     7
100
AcDbVertex
100
AcDb2dVertex
 10
8.6865359866
 20
7.1126648912
 30
0.0
  0
VERTEX
  5
2FE
330
260
100
AcDbEntity
  8
0
  6
CONTINUOUS
 62
     7
100
AcDbVertex
100
AcDb2dVertex
 10
8.6651276058
 20
7.102779866
 30
0.0
  0
VERTEX
  5
2FF
330
260
100
AcDbEntity
  8
0
  6
CONTINUOUS
 62
     7
100
AcDbVertex
100
AcDb2dVertex
 10
8.6436390559
 20
7.0916132147
 30
0.0
  0
VERTEX
  5
300
330
260
100
AcDbEntity
  8
0
  6
CONTINUOUS
 62
     7
100
AcDbVertex
100
AcDb2dVertex
 10
8.6221237607
 20
7.0791926991
 30
0.0
  0
VERTEX
  5
301
330
260
100
AcDbEntity
  8
0
  6
CONTINUOUS
 62
     7
100
AcDbVertex
100
AcDb2dVertex
 10
8.6006352108
 20
7.0655491989
 30
0.0
  0
VERTEX
  5
302
330
260
100
AcDbEntity
  8
0
  6
CONTINUOUS
 62
     7
100
AcDbVertex
100
AcDb2dVertex
 10
8.5792268299
 20
7.0507166337
 30
0.0
  0
VERTEX
  5
303
330
260
100
AcDbEntity
  8
0
  6
CONTINUOUS
 62
     7
100
AcDbVertex
100
AcDb2dVertex
 10
8.5579518429
 20
7.0347318797
 30
0.0
  0
VERTEX
  5
304
330
260
100
AcDbEntity
  8
0
  6
CONTINUOUS
 62
     7
100
AcDbVertex
100
AcDb2dVertex
 10
8.5368631425
 20
7.0176346776
 30
0.0
  0
VERTEX
  5
305
330
260
100
AcDbEntity
  8
0
  6
CONTINUOUS
 62
     7
100
AcDbVertex
100
AcDb2dVertex
 10
8.5160131586
 20
6.9994675336
 30
0.0
  0
VERTEX
  5
306
330
260
100
AcDbEntity
  8
0
  6
CONTINUOUS
 62
     7
100
AcDbVertex
100
AcDb2dVertex
 10
8.4954537277
 20
6.9802756142
 30
0.0
  0
VERTEX
  5
307
330
260
100
AcDbEntity
  8
0
  6
CONTINUOUS
 62
     7
100
AcDbVertex
100
AcDb2dVertex
 10
8.4752359636
 20
6.9601066335
 30
0.0
  0
VERTEX
  5
308
330
260
100
AcDbEntity
  8
0
  6
CONTINUOUS
 62
     7
100
AcDbVertex
100
AcDb2dVertex
 10
8.4554101309
 20
6.9390107347
 30
0.0
  0
VERTEX
  5
309
330
260
100
AcDbEntity
  8
0
  6
CONTINUOUS
 62
     7
100
AcDbVertex
100
AcDb2dVertex
 10
8.4360255198
 20
6.9170403656
 30
0.0
  0
VERTEX
  5
30A
330
260
100
AcDbEntity
  8
0
  6
CONTINUOUS
 62
     7
100
AcDbVertex
100
AcDb2dVertex
 10
8.4171303235
 20
6.8942501479
 30
0.0
  0
VERTEX
  5
30B
330
260
100
AcDbEntity
  8
0
  6
CONTINUOUS
 62
     7
100
AcDbVertex
100
AcDb2dVertex
 10
8.3987715183
 20
6.8706967418
 30
0.0
  0
VERTEX
  5
30C
330
260
100
AcDbEntity
  8
0
  6
CONTINUOUS
 62
     7
100
AcDbVertex
100
AcDb2dVertex
 10
8.3809947472
 20
6.8464387048
 30
0.0
  0
VERTEX
  5
30D
330
260
100
AcDbEntity
  8
0
  6
CONTINUOUS
 62
     7
100
AcDbVertex
100
AcDb2dVertex
 10
8.363844206
 20
6.821536346
 30
0.0
  0
VERTEX
  5
30E
330
260
100
AcDbEntity
  8
0
  6
CONTINUOUS
 62
     7
100
AcDbVertex
100
AcDb2dVertex
 10
8.3473625337
 20
6.7960515768
 30
0.0
  0
VERTEX
  5
30F
330
260
100
AcDbEntity
  8
0
  6
CONTINUOUS
 62
     7
100
AcDbVertex
100
AcDb2dVertex
 10
8.3315907064
 20
6.7700477562
 30
0.0
  0
VERTEX
  5
310
330
260
100
AcDbEntity
  8
0
  6
CONTINUOUS
 62
     7
100
AcDbVertex
100
AcDb2dVertex
 10
8.3165679351
 20
6.743589534
 30
0.0
  0
VERTEX
  5
311
330
260
100
AcDbEntity
  8
0
  6
CONTINUOUS
 62
     7
100
AcDbVertex
100
AcDb2dVertex
 10
8.302331569
 20
6.7167426892
 30
0.0
  0
VERTEX
  5
312
330
260
100
AcDbEntity
  8
0
  6
CONTINUOUS
 62
     7
100
AcDbVertex
100
AcDb2dVertex
 10
8.2889170019
 20
6.6895739676
 30
0.0
  0
VERTEX
  5
313
330
260
100
AcDbEntity
  8
0
  6
CONTINUOUS
 62
     7
100
AcDbVertex
100
AcDb2dVertex
 10
8.2763575845
 20
6.6621509147
 30
0.0
  0
VERTEX
  5
314
330
260
100
AcDbEntity
  8
0
  6
CONTINUOUS
 62
     7
100
AcDbVertex
100
AcDb2dVertex
 10
8.2646845415
 20
6.6345417086
 30
0.0
  0
VERTEX
  5
315
330
260
100
AcDbEntity
  8
0
  6
CONTINUOUS
 62
     7
100
AcDbVertex
100
AcDb2dVertex
 10
8.253926894
 20
6.6068149902
 30
0.0
  0
VERTEX
  5
316
330
260
100
AcDbEntity
  8
0
  6
CONTINUOUS
 62
     7
100
AcDbVertex
100
AcDb2dVertex
 10
8.244111387
 20
6.5790396924
 30
0.0
  0
VERTEX
  5
317
330
260
100
AcDbEntity
  8
0
  6
CONTINUOUS
 62
     7
100
AcDbVertex
100
AcDb2dVertex
 10
8.2352624236
 20
6.551284869
 30
0.0
  0
VERTEX
  5
318
330
260
100
AcDbEntity
  8
0
  6
CONTINUOUS
 62
     7
100
AcDbVertex
100
AcDb2dVertex
 10
8.2274020036
 20
6.5236195229
 30
0.0
  0
VERTEX
  5
319
330
260
100
AcDbEntity
  8
0
  6
CONTINUOUS
 62
     7
100
AcDbVertex
100
AcDb2dVertex
 10
8.2205496693
 20
6.4961124345
 30
0.0
  0
VERTEX
  5
31A
330
260
100
AcDbEntity
  8
0
  6
CONTINUOUS
 62
     7
100
AcDbVertex
100
AcDb2dVertex
 10
8.2147224567
 20
6.4688319907
 30
0.0
  0
VERTEX
  5
31B
330
260
100
AcDbEntity
  8
0
  6
CONTINUOUS
 62
     7
100
AcDbVertex
100
AcDb2dVertex
 10
8.2099348532
 20
6.441846015
 30
0.0
  0
VERTEX
  5
31C
330
260
100
AcDbEntity
  8
0
  6
CONTINUOUS
 62
     7
100
AcDbVertex
100
AcDb2dVertex
 10
8.2061987614
 20
6.4152215988
 30
0.0
  0
VERTEX
  5
31D
330
260
100
AcDbEntity
  8
0
  6
CONTINUOUS
 62
     7
100
AcDbVertex
100
AcDb2dVertex
 10
8.2035234699
 20
6.3890249346
 30
0.0
  0
VERTEX
  5
31E
330
260
100
AcDbEntity
  8
0
  6
CONTINUOUS
 62
     7
100
AcDbVertex
100
AcDb2dVertex
 10
8.2019156298
 20
6.3633211515
 30
0.0
  0
VERTEX
  5
31F
330
260
100
AcDbEntity
  8
0
  6
CONTINUOUS
 62
     7
100
AcDbVertex
100
AcDb2dVertex
 10
8.2013792387
 20
6.338174153
 30
0.0
  0
VERTEX
  5
320
330
260
100
AcDbEntity
  8
0
  6
CONTINUOUS
 62
     7
100
AcDbVertex
100
AcDb2dVertex
 10
8.2019156298
 20
6.3136464586
 30
0.0
  0
VERTEX
  5
321
330
260
100
AcDbEntity
  8
0
  6
CONTINUOUS
 62
     7
100
AcDbVertex
100
AcDb2dVertex
 10
8.2035234699
 20
6.289799048
 30
0.0
  0
VERTEX
  5
322
330
260
100
AcDbEntity
  8
0
  6
CONTINUOUS
 62
     7
100
AcDbVertex
100
AcDb2dVertex
 10
8.2061987614
 20
6.2666912097
 30
0.0
  0
VERTEX
  5
323
330
260
100
AcDbEntity
  8
0
  6
CONTINUOUS
 62
     7
100
AcDbVertex
100
AcDb2dVertex
 10
8.2099348532
 20
6.2443803933
 30
0.0
  0
VERTEX
  5
324
330
260
100
AcDbEntity
  8
0
  6
CONTINUOUS
 62
     7
100
AcDbVertex
100
AcDb2dVertex
 10
8.2147224567
 20
6.222922067
 30
0.0
  0
VERTEX
  5
325
330
260
100
AcDbEntity
  8
0
  6
CONTINUOUS
 62
     7
100
AcDbVertex
100
AcDb2dVertex
 10
8.2205496693
 20
6.2023695797
 30
0.0
  0
VERTEX
  5
326
330
260
100
AcDbEntity
  8
0
  6
CONTINUOUS
 62
     7
100
AcDbVertex
100
AcDb2dVertex
 10
8.2274020036
 20
6.182774028
 30
0.0
  0
VERTEX
  5
327
330
260
100
AcDbEntity
  8
0
  6
CONTINUOUS
 62
     7
100
AcDbVertex
100
AcDb2dVertex
 10
8.2352624236
 20
6.1641841296
 30
0.0
  0
VERTEX
  5
328
330
260
100
AcDbEntity
  8
0
  6
CONTINUOUS
 62
     7
100
AcDbVertex
100
AcDb2dVertex
 10
8.244111387
 20
6.1466461019
 30
0.0
  0
VERTEX
  5
329
330
260
100
AcDbEntity
  8
0
  6
CONTINUOUS
 62
     7
100
AcDbVertex
100
AcDb2dVertex
 10
8.253926894
 20
6.1302035472
 30
0.0
  0
VERTEX
  5
32A
330
260
100
AcDbEntity
  8
0
  6
CONTINUOUS
 62
     7
100
AcDbVertex
100
AcDb2dVertex
 10
8.2646845415
 20
6.1148973443
 30
0.0
  0
VERTEX
  5
32B
330
260
100
AcDbEntity
  8
0
  6
CONTINUOUS
 62
     7
100
AcDbVertex
100
AcDb2dVertex
 10
8.2763575845
 20
6.1007655468
 30
0.0
  0
VERTEX
  5
32C
330
260
100
AcDbEntity
  8
0
  6
CONTINUOUS
 62
     7
100
AcDbVertex
100
AcDb2dVertex
 10
8.2889170019
 20
6.0878432886
 30
0.0
  0
VERTEX
  5
32D
330
260
100
AcDbEntity
  8
0
  6
CONTINUOUS
 62
     7
100
AcDbVertex
100
AcDb2dVertex
 10
8.302331569
 20
6.0761626964
 30
0.0
  0
VERTEX
  5
32E
330
260
100
AcDbEntity
  8
0
  6
CONTINUOUS
 62
     7
100
AcDbVertex
100
AcDb2dVertex
 10
8.3165679351
 20
6.0657528101
 30
0.0
  0
VERTEX
  5
32F
330
260
100
AcDbEntity
  8
0
  6
CONTINUOUS
 62
     7
100
AcDbVertex
100
AcDb2dVertex
 10
8.3315907064
 20
6.0566395103
 30
0.0
  0
VERTEX
  5
330
330
260
100
AcDbEntity
  8
0
  6
CONTINUOUS
 62
     7
100
AcDbVertex
100
AcDb2dVertex
 10
8.3473625337
 20
6.048845454
 30
0.0
  0
VERTEX
  5
331
330
260
100
AcDbEntity
  8
0
  6
CONTINUOUS
 62
     7
100
AcDbVertex
100
AcDb2dVertex
 10
8.363844206
 20
6.0423900186
 30
0.0
  0
VERTEX
  5
332
330
260
100
AcDbEntity
  8
0
  6
CONTINUOUS
 62
     7
100
AcDbVertex
100
AcDb2dVertex
 10
8.3809947472
 20
6.0372892532
 30
0.0
  0
VERTEX
  5
333
330
260
100
AcDbEntity
  8
0
  6
CONTINUOUS
 62
     7
100
AcDbVertex
100
AcDb2dVertex
 10
8.3987715183
 20
6.0335558392
 30
0.0
  0
VERTEX
  5
334
330
260
100
AcDbEntity
  8
0
  6
CONTINUOUS
 62
     7
100
AcDbVertex
100
AcDb2dVertex
 10
8.4171303235
 20
6.0311990583
 30
0.0
  0
VERTEX
  5
335
330
260
100
AcDbEntity
  8
0
  6
CONTINUOUS
 62
     7
100
AcDbVertex
100
AcDb2dVertex
 10
8.4360255198
 20
6.03022477
 30
0.0
  0
VERTEX
  5
336
330
260
100
AcDbEntity
  8
0
  6
CONTINUOUS
 62
     7
100
AcDbVertex
100
AcDb2dVertex
 10
8.4554101309
 20
6.0306353965
 30
0.0
  0
VERTEX
  5
337
330
260
100
AcDbEntity
  8
0
  6
CONTINUOUS
 62
     7
100
AcDbVertex
100
AcDb2dVertex
 10
8.4752359636
 20
6.0324299169
 30
0.0
  0
VERTEX
  5
338
330
260
100
AcDbEntity
  8
0
  6
CONTINUOUS
 62
     7
100
AcDbVertex
100
AcDb2dVertex
 10
8.4954537277
 20
6.0356038697
 30
0.0
  0
VERTEX
  5
339
330
260
100
AcDbEntity
  8
0
  6
CONTINUOUS
 62
     7
100
AcDbVertex
100
AcDb2dVertex
 10
8.5160131586
 20
6.040149364
 30
0.0
  0
VERTEX
  5
33A
330
260
100
AcDbEntity
  8
0
  6
CONTINUOUS
 62
     7
100
AcDbVertex
100
AcDb2dVertex
 10
8.5368631425
 20
6.046055099
 30
0.0
  0
VERTEX
  5
33B
330
260
100
AcDbEntity
  8
0
  6
CONTINUOUS
 62
     7
100
AcDbVertex
100
AcDb2dVertex
 10
8.5579518429
 20
6.053306392
 30
0.0
  0
VERTEX
  5
33C
330
260
100
AcDbEntity
  8
0
  6
CONTINUOUS
 62
     7
100
AcDbVertex
100
AcDb2dVertex
 10
8.5792268299
 20
6.0618852153
 30
0.0
  0
VERTEX
  5
33D
330
260
100
AcDbEntity
  8
0
  6
CONTINUOUS
 62
     7
100
AcDbVertex
100
AcDb2dVertex
 10
8.6006352108
 20
6.0717702405
 30
0.0
  0
VERTEX
  5
33E
330
260
100
AcDbEntity
  8
0
  6
CONTINUOUS
 62
     7
100
AcDbVertex
100
AcDb2dVertex
 10
8.6221237607
 20
6.0829368918
 30
0.0
  0
VERTEX
  5
33F
330
260
100
AcDbEntity
  8
0
  6
CONTINUOUS
 62
     7
100
AcDbVertex
100
AcDb2dVertex
 10
8.6436390559
 20
6.0953574074
 30
0.0
  0
VERTEX
  5
340
330
260
100
AcDbEntity
  8
0
  6
CONTINUOUS
 62
     7
100
AcDbVertex
100
AcDb2dVertex
 10
8.6651276058
 20
6.1090009076
 30
0.0
  0
VERTEX
  5
341
330
260
100
AcDbEntity
  8
0
  6
CONTINUOUS
 62
     7
100
AcDbVertex
100
AcDb2dVertex
 10
8.6865359866
 20
6.1238334728
 30
0.0
  0
VERTEX
  5
342
330
260
100
AcDbEntity
  8
0
  6
CONTINUOUS
 62
     7
100
AcDbVertex
100
AcDb2dVertex
 10
8.7078109737
 20
6.1398182268
 30
0.0
  0
VERTEX
  5
343
330
260
100
AcDbEntity
  8
0
  6
CONTINUOUS
 62
     7
100
AcDbVertex
100
AcDb2dVertex
 10
8.7288996741
 20
6.1569154289
 30
0.0
  0
VERTEX
  5
344
330
260
100
AcDbEntity
  8
0
  6
CONTINUOUS
 62
     7
100
AcDbVertex
100
AcDb2dVertex
 10
8.7497496579
 20
6.1750825729
 30
0.0
  0
VERTEX
  5
345
330
260
100
AcDbEntity
  8
0
  6
CONTINUOUS
 62
     7
100
AcDbVertex
100
AcDb2dVertex
 10
8.7703090889
 20
6.1942744923
 30
0.0
  0
VERTEX
  5
346
330
260
100
AcDbEntity
  8
0
  6
CONTINUOUS
 62
     7
100
AcDbVertex
100
AcDb2dVertex
 10
8.7905268529
 20
6.214443473
 30
0.0
  0
VERTEX
  5
347
330
260
100
AcDbEntity
  8
0
  6
CONTINUOUS
 62
     7
100
AcDbVertex
100
AcDb2dVertex
 10
8.8103526856
 20
6.2355393718
 30
0.0
  0
VERTEX
  5
348
330
260
100
AcDbEntity
  8
0
  6
CONTINUOUS
 62
     7
100
AcDbVertex
100
AcDb2dVertex
 10
8.8297372967
 20
6.2575097409
 30
0.0
  0
VERTEX
  5
349
330
260
100
AcDbEntity
  8
0
  6
CONTINUOUS
 62
     7
100
AcDbVertex
100
AcDb2dVertex
 10
8.8486324931
 20
6.2802999586
 30
0.0
  0
VERTEX
  5
34A
330
260
100
AcDbEntity
  8
0
  6
CONTINUOUS
 62
     7
100
AcDbVertex
100
AcDb2dVertex
 10
8.8669912983
 20
6.3038533647
 30
0.0
  0
VERTEX
  5
34B
330
260
100
AcDbEntity
  8
0
  6
CONTINUOUS
 62
     7
100
AcDbVertex
100
AcDb2dVertex
 10
8.8847680693
 20
6.3281114017
 30
0.0
  0
VERTEX
  5
34C
330
260
100
AcDbEntity
  8
0
  6
CONTINUOUS
 62
     7
100
AcDbVertex
100
AcDb2dVertex
 10
8.9019186105
 20
6.3530137605
 30
0.0
  0
VERTEX
  5
34D
330
260
100
AcDbEntity
  8
0
  6
CONTINUOUS
 62
     7
100
AcDbVertex
100
AcDb2dVertex
 10
8.9184002828
 20
6.3784985297
 30
0.0
  0
VERTEX
  5
34E
330
260
100
AcDbEntity
  8
0
  6
CONTINUOUS
 62
     7
100
AcDbVertex
100
AcDb2dVertex
 10
8.9341721102
 20
6.4045023503
 30
0.0
  0
VERTEX
  5
34F
330
260
100
AcDbEntity
  8
0
  6
CONTINUOUS
 62
     7
100
AcDbVertex
100
AcDb2dVertex
 10
8.9491948814
 20
6.4309605726
 30
0.0
  0
VERTEX
  5
350
330
260
100
AcDbEntity
  8
0
  6
CONTINUOUS
 62
     7
100
AcDbVertex
100
AcDb2dVertex
 10
8.9634312475
 20
6.4578074173
 30
0.0
  0
VERTEX
  5
351
330
260
100
AcDbEntity
  8
0
  6
CONTINUOUS
 62
     7
100
AcDbVertex
100
AcDb2dVertex
 10
8.9768458146
 20
6.4849761389
 30
0.0
  0
VERTEX
  5
352
330
260
100
AcDbEntity
  8
0
  6
CONTINUOUS
 62
     7
100
AcDbVertex
100
AcDb2dVertex
 10
8.989405232
 20
6.5123991918
 30
0.0
  0
VERTEX
  5
353
330
260
100
AcDbEntity
  8
0
  6
CONTINUOUS
 62
     7
100
AcDbVertex
100
AcDb2dVertex
 10
9.001078275
 20
6.5400083979
 30
0.0
  0
VERTEX
  5
354
330
260
100
AcDbEntity
  8
0
  6
CONTINUOUS
 62
     7
100
AcDbVertex
100
AcDb2dVertex
 10
9.0118359226
 20
6.5677351163
 30
0.0
  0
VERTEX
  5
355
330
260
100
AcDbEntity
  8
0
  6
CONTINUOUS
 62
     7
100
AcDbVertex
100
AcDb2dVertex
 10
9.0216514295
 20
6.5955104141
 30
0.0
  0
VERTEX
  5
356
330
260
100
AcDbEntity
  8
0
  6
CONTINUOUS
 62
     7
100
AcDbVertex
100
AcDb2dVertex
 10
9.030500393
 20
6.6232652375
 30
0.0
  0
VERTEX
  5
357
330
260
100
AcDbEntity
  8
0
  6
CONTINUOUS
 62
     7
100
AcDbVertex
100
AcDb2dVertex
 10
9.0383608129
 20
6.6509305836
 30
0.0
  0
VERTEX
  5
358
330
260
100
AcDbEntity
  8
0
  6
CONTINUOUS
 62
     7
100
AcDbVertex
100
AcDb2dVertex
 10
9.0452131472
 20
6.678437672
 30
0.0
  0
VERTEX
  5
359
330
260
100
AcDbEntity
  8
0
  6
CONTINUOUS
 62
     7
100
AcDbVertex
100
AcDb2dVertex
 10
9.0510403598
 20
6.7057181158
 30
0.0
  0
VERTEX
  5
35A
330
260
100
AcDbEntity
  8
0
  6
CONTINUOUS
 62
     7
100
AcDbVertex
100
AcDb2dVertex
 10
9.0558279634
 20
6.7327040915
 30
0.0
  0
VERTEX
  5
35B
330
260
100
AcDbEntity
  8
0
  6
CONTINUOUS
 62
     7
100
AcDbVertex
100
AcDb2dVertex
 10
9.0595640552
 20
6.7593285077
 30
0.0
  0
VERTEX
  5
35C
330
260
100
AcDbEntity
  8
0
  6
CONTINUOUS
 62
     7
100
AcDbVertex
100
AcDb2dVertex
 10
9.0622393467
 20
6.7855251719
 30
0.0
  0
VERTEX
  5
35D
330
260
100
AcDbEntity
  8
0
  6
CONTINUOUS
 62
     7
100
AcDbVertex
100
AcDb2dVertex
 10
9.0638471867
 20
6.811228955
 30
0.0
  0
VERTEX
  5
35E
330
260
100
AcDbEntity
  8
0
  6
CONTINUOUS
 62
     7
100
AcDbVertex
100
AcDb2dVertex
 10
9.0643835779
 20
6.8363759535
 30
0.0
  0
SEQEND
  5
35F
330
260
100
AcDbEntity
  8
0
  6
CONTINUOUS
 62
     7
  0
POLYLINE
  5
261
330
1F
100
AcDbEntity
  8
0
  6
CONTINUOUS
 62
     7
100
AcDb2dPolyline
 66
     1
 10
0.0
 20
0.0
 30
0.0
  0
VERTEX
  5
360
330
261
100
AcDbEntity
  8
0
  6
CONTINUOUS
 62
     7
100
AcDbVertex
100
AcDb2dVertex
 10
8.619034377
 20
6.0809959479
 30
0.0
  0
VERTEX
  5
361
330
261
100
AcDbEntity
  8
0
  6
CONTINUOUS
 62
     7
100
AcDbVertex
100
AcDb2dVertex
 10
8.6189619834
 20
6.0809541492
 30
0.0
  0
VERTEX
  5
362
330
261
100
AcDbEntity
  8
0
  6
CONTINUOUS
 62
     7
100
AcDbVertex
100
AcDb2dVertex
 10
8.5971061817
 20
6.0689566283
 30
0.0
  0
VERTEX
  5
363
330
261
100
AcDbEntity
  8
0
  6
CONTINUOUS
 62
     7
100
AcDbVertex
100
AcDb2dVertex
 10
8.5753030325
 20
6.0582271401
 30
0.0
  0
VERTEX
  5
364
330
261
100
AcDbEntity
  8
0
  6
CONTINUOUS
 62
     7
100
AcDbVertex
100
AcDb2dVertex
 10
8.5536050616
 20
6.0487915329
 30
0.0
  0
VERTEX
  5
365
330
261
100
AcDbEntity
  8
0
  6
CONTINUOUS
 62
     7
100
AcDbVertex
100
AcDb2dVertex
 10
8.5320645412
 20
6.0406725379
 30
0.0
  0
VERTEX
  5
366
330
261
100
AcDbEntity
  8
0
  6
CONTINUOUS
 62
     7
100
AcDbVertex
100
AcDb2dVertex
 10
8.5107333643
 20
6.0338897145
 30
0.0
  0
VERTEX
  5
367
330
261
100
AcDbEntity
  8
0
  6
CONTINUOUS
 62
     7
100
AcDbVertex
100
AcDb2dVertex
 10
8.4896629197
 20
6.0284594031
 30
0.0
  0
VERTEX
  5
368
330
261
100
AcDbEntity
  8
0
  6
CONTINUOUS
 62
     7
100
AcDbVertex
100
AcDb2dVertex
 10
8.4689039678
 20
6.0243946859
 30
0.0
  0
VERTEX
  5
369
330
261
100
AcDbEntity
  8
0
  6
CONTINUOUS
 62
     7
100
AcDbVertex
100
AcDb2dVertex
 10
8.4485065188
 20
6.021705355
 30
0.0
  0
VERTEX
  5
36A
330
261
100
AcDbEntity
  8
0
  6
CONTINUOUS
 62
     7
100
AcDbVertex
100
AcDb2dVertex
 10
8.428519712
 20
6.0203978892
 30
0.0
  0
VERTEX
  5
36B
330
261
100
AcDbEntity
  8
0
  6
CONTINUOUS
 62
     7
100
AcDbVertex
100
AcDb2dVertex
 10
8.4089916973
 20
6.0204754385
 30
0.0
  0
VERTEX
  5
36C
330
261
100
AcDbEntity
  8
0
  6
CONTINUOUS
 62
     7
100
AcDbVertex
100
AcDb2dVertex
 10
8.3899695194
 20
6.021937816
 30
0.0
  0
VERTEX
  5
36D
330
261
100
AcDbEntity
  8
0
  6
CONTINUOUS
 62
     7
100
AcDbVertex
100
AcDb2dVertex
 10
8.3714990044
 20
6.0247814986
 30
0.0
  0
VERTEX
  5
36E
330
261
100
AcDbEntity
  8
0
  6
CONTINUOUS
 62
     7
100
AcDbVertex
100
AcDb2dVertex
 10
8.3536246494
 20
6.0289996357
 30
0.0
  0
VERTEX
  5
36F
330
261
100
AcDbEntity
  8
0
  6
CONTINUOUS
 62
     7
100
AcDbVertex
100
AcDb2dVertex
 10
8.3363895153
 20
6.0345820655
 30
0.0
  0
VERTEX
  5
370
330
261
100
AcDbEntity
  8
0
  6
CONTINUOUS
 62
     7
100
AcDbVertex
100
AcDb2dVertex
 10
8.319835123
 20
6.0415153393
 30
0.0
  0
VERTEX
  5
371
330
261
100
AcDbEntity
  8
0
  6
CONTINUOUS
 62
     7
100
AcDbVertex
100
AcDb2dVertex
 10
8.3040013535
 20
6.0497827544
 30
0.0
  0
VERTEX
  5
372
330
261
100
AcDbEntity
  8
0
  6
CONTINUOUS
 62
     7
100
AcDbVertex
100
AcDb2dVertex
 10
8.2889263518
 20
6.0593643937
 30
0.0
  0
VERTEX
  5
373
330
261
100
AcDbEntity
  8
0
  6
CONTINUOUS
 62
     7
100
AcDbVertex
100
AcDb2dVertex
 10
8.2746464348
 20
6.0702371743
 30
0.0
  0
VERTEX
  5
374
330
261
100
AcDbEntity
  8
0
  6
CONTINUOUS
 62
     7
100
AcDbVertex
100
AcDb2dVertex
 10
8.2611960041
 20
6.0823749027
 30
0.0
  0
VERTEX
  5
375
330
261
100
AcDbEntity
  8
0
  6
CONTINUOUS
 62
     7
100
AcDbVertex
100
AcDb2dVertex
 10
8.248607463
 20
6.095748338
 30
0.0
  0
VERTEX
  5
376
330
261
100
AcDbEntity
  8
0
  6
CONTINUOUS
 62
     7
100
AcDbVertex
100
AcDb2dVertex
 10
8.2369111384
 20
6.1103252625
 30
0.0
  0
VERTEX
  5
377
330
261
100
AcDbEntity
  8
0
  6
CONTINUOUS
 62
     7
100
AcDbVertex
100
AcDb2dVertex
 10
8.2261352077
 20
6.126070559
 30
0.0
  0
VERTEX
  5
378
330
261
100
AcDbEntity
  8
0
  6
CONTINUOUS
 62
     7
100
AcDbVertex
100
AcDb2dVertex
 10
8.2163056311
 20
6.1429462959
 30
0.0
  0
VERTEX
  5
379
330
261
100
AcDbEntity
  8
0
  6
CONTINUOUS
 62
     7
100
AcDbVertex
100
AcDb2dVertex
 10
8.207446089
 20
6.1609118179
 30
0.0
  0
VERTEX
  5
37A
330
261
100
AcDbEntity
  8
0
  6
CONTINUOUS
 62
     7
100
AcDbVertex
100
AcDb2dVertex
 10
8.1995779247
 20
6.1799238445
 30
0.0
  0
VERTEX
  5
37B
330
261
100
AcDbEntity
  8
0
  6
CONTINUOUS
 62
     7
100
AcDbVertex
100
AcDb2dVertex
 10
8.1927200933
 20
6.1999365741
 30
0.0
  0
VERTEX
  5
37C
330
261
100
AcDbEntity
  8
0
  6
CONTINUOUS
 62
     7
100
AcDbVertex
100
AcDb2dVertex
 10
8.186889116
 20
6.2209017943
 30
0.0
  0
VERTEX
  5
37D
330
261
100
AcDbEntity
  8
0
  6
CONTINUOUS
 62
     7
100
AcDbVertex
100
AcDb2dVertex
 10
8.18209904
 20
6.2427689981
 30
0.0
  0
VERTEX
  5
37E
330
261
100
AcDbEntity
  8
0
  6
CONTINUOUS
 62
     7
100
AcDbVertex
100
AcDb2dVertex
 10
8.1783614052
 20
6.2654855053
 30
0.0
  0
VERTEX
  5
37F
330
261
100
AcDbEntity
  8
0
  6
CONTINUOUS
 62
     7
100
AcDbVertex
100
AcDb2dVertex
 10
8.1756852157
 20
6.28899659
 30
0.0
  0
VERTEX
  5
380
330
261
100
AcDbEntity
  8
0
  6
CONTINUOUS
 62
     7
100
AcDbVertex
100
AcDb2dVertex
 10
8.1740769188
 20
6.3132456119
 30
0.0
  0
VERTEX
  5
381
330
261
100
AcDbEntity
  8
0
  6
CONTINUOUS
 62
     7
100
AcDbVertex
100
AcDb2dVertex
 10
8.173540389
 20
6.338174153
 30
0.0
  0
VERTEX
  5
382
330
261
100
AcDbEntity
  8
0
  6
CONTINUOUS
 62
     7
100
AcDbVertex
100
AcDb2dVertex
 10
8.1740769188
 20
6.3637221582
 30
0.0
  0
VERTEX
  5
383
330
261
100
AcDbEntity
  8
0
  6
CONTINUOUS
 62
     7
100
AcDbVertex
100
AcDb2dVertex
 10
8.1756852157
 20
6.3898280802
 30
0.0
  0
VERTEX
  5
384
330
261
100
AcDbEntity
  8
0
  6
CONTINUOUS
 62
     7
100
AcDbVertex
100
AcDb2dVertex
 10
8.1783614052
 20
6.4164290275
 30
0.0
  0
VERTEX
  5
385
330
261
100
AcDbEntity
  8
0
  6
CONTINUOUS
 62
     7
100
AcDbVertex
100
AcDb2dVertex
 10
8.18209904
 20
6.4434609161
 30
0.0
  0
VERTEX
  5
386
330
261
100
AcDbEntity
  8
0
  6
CONTINUOUS
 62
     7
100
AcDbVertex
100
AcDb2dVertex
 10
8.186889116
 20
6.4708586238
 30
0.0
  0
VERTEX
  5
387
330
261
100
AcDbEntity
  8
0
  6
CONTINUOUS
 62
     7
100
AcDbVertex
100
AcDb2dVertex
 10
8.1927200933
 20
6.4985561471
 30
0.0
  0
VERTEX
  5
388
330
261
100
AcDbEntity
  8
0
  6
CONTINUOUS
 62
     7
100
AcDbVertex
100
AcDb2dVertex
 10
8.1995779247
 20
6.5264867603
 30
0.0
  0
VERTEX
  5
389
330
261
100
AcDbEntity
  8
0
  6
CONTINUOUS
 62
     7
100
AcDbVertex
100
AcDb2dVertex
 10
8.207446089
 20
6.5545831761
 30
0.0
  0
VERTEX
  5
38A
330
261
100
AcDbEntity
  8
0
  6
CONTINUOUS
 62
     7
100
AcDbVertex
100
AcDb2dVertex
 10
8.2163056311
 20
6.5827777077
 30
0.0
  0
VERTEX
  5
38B
330
261
100
AcDbEntity
  8
0
  6
CONTINUOUS
 62
     7
100
AcDbVertex
100
AcDb2dVertex
 10
8.2261352077
 20
6.6110024321
 30
0.0
  0
VERTEX
  5
38C
330
261
100
AcDbEntity
  8
0
  6
CONTINUOUS
 62
     7
100
AcDbVertex
100
AcDb2dVertex
 10
8.2369111384
 20
6.6391893534
 30
0.0
  0
VERTEX
  5
38D
330
261
100
AcDbEntity
  8
0
  6
CONTINUOUS
 62
     7
100
AcDbVertex
100
AcDb2dVertex
 10
8.248607463
 20
6.6672705668
 30
0.0
  0
VERTEX
  5
38E
330
261
100
AcDbEntity
  8
0
  6
CONTINUOUS
 62
     7
100
AcDbVertex
100
AcDb2dVertex
 10
8.2611960041
 20
6.6951784223
 30
0.0
  0
VERTEX
  5
38F
330
261
100
AcDbEntity
  8
0
  6
CONTINUOUS
 62
     7
100
AcDbVertex
100
AcDb2dVertex
 10
8.2746464348
 20
6.7228456874
 30
0.0
  0
VERTEX
  5
390
330
261
100
AcDbEntity
  8
0
  6
CONTINUOUS
 62
     7
100
AcDbVertex
100
AcDb2dVertex
 10
8.2889263518
 20
6.7502057092
 30
0.0
  0
VERTEX
  5
391
330
261
100
AcDbEntity
  8
0
  6
CONTINUOUS
 62
     7
100
AcDbVertex
100
AcDb2dVertex
 10
8.3040013535
 20
6.7771925751
 30
0.0
  0
VERTEX
  5
392
330
261
100
AcDbEntity
  8
0
  6
CONTINUOUS
 62
     7
100
AcDbVertex
100
AcDb2dVertex
 10
8.319835123
 20
6.8037412712
 30
0.0
  0
VERTEX
  5
393
330
261
100
AcDbEntity
  8
0
  6
CONTINUOUS
 62
     7
100
AcDbVertex
100
AcDb2dVertex
 10
8.3363895153
 20
6.8297878396
 30
0.0
  0
VERTEX
  5
394
330
261
100
AcDbEntity
  8
0
  6
CONTINUOUS
 62
     7
100
AcDbVertex
100
AcDb2dVertex
 10
8.3536246494
 20
6.8552695316
 30
0.0
  0
VERTEX
  5
395
330
261
100
AcDbEntity
  8
0
  6
CONTINUOUS
 62
     7
100
AcDbVertex
100
AcDb2dVertex
 10
8.3714990044
 20
6.8801249598
 30
0.0
  0
VERTEX
  5
396
330
261
100
AcDbEntity
  8
0
  6
CONTINUOUS
 62
     7
100
AcDbVertex
100
AcDb2dVertex
 10
8.3899695194
 20
6.9042942451
 30
0.0
  0
VERTEX
  5
397
330
261
100
AcDbEntity
  8
0
  6
CONTINUOUS
 62
     7
100
AcDbVertex
100
AcDb2dVertex
 10
8.4089916973
 20
6.9277191616
 30
0.0
  0
VERTEX
  5
398
330
261
100
AcDbEntity
  8
0
  6
CONTINUOUS
 62
     7
100
AcDbVertex
100
AcDb2dVertex
 10
8.428519712
 20
6.9503432768
 30
0.0
  0
VERTEX
  5
399
330
261
100
AcDbEntity
  8
0
  6
CONTINUOUS
 62
     7
100
AcDbVertex
100
AcDb2dVertex
 10
8.4485065188
 20
6.972112087
 30
0.0
  0
VERTEX
  5
39A
330
261
100
AcDbEntity
  8
0
  6
CONTINUOUS
 62
     7
100
AcDbVertex
100
AcDb2dVertex
 10
8.4689039678
 20
6.9929731494
 30
0.0
  0
VERTEX
  5
39B
330
261
100
AcDbEntity
  8
0
  6
CONTINUOUS
 62
     7
100
AcDbVertex
100
AcDb2dVertex
 10
8.4896629197
 20
7.0128762078
 30
0.0
  0
VERTEX
  5
39C
330
261
100
AcDbEntity
  8
0
  6
CONTINUOUS
 62
     7
100
AcDbVertex
100
AcDb2dVertex
 10
8.5107333643
 20
7.0317733139
 30
0.0
  0
VERTEX
  5
39D
330
261
100
AcDbEntity
  8
0
  6
CONTINUOUS
 62
     7
100
AcDbVertex
100
AcDb2dVertex
 10
8.5320645412
 20
7.0496189431
 30
0.0
  0
VERTEX
  5
39E
330
261
100
AcDbEntity
  8
0
  6
CONTINUOUS
 62
     7
100
AcDbVertex
100
AcDb2dVertex
 10
8.5536050616
 20
7.0663701036
 30
0.0
  0
VERTEX
  5
39F
330
261
100
AcDbEntity
  8
0
  6
CONTINUOUS
 62
     7
100
AcDbVertex
100
AcDb2dVertex
 10
8.5753030325
 20
7.0819864405
 30
0.0
  0
VERTEX
  5
3A0
330
261
100
AcDbEntity
  8
0
  6
CONTINUOUS
 62
     7
100
AcDbVertex
100
AcDb2dVertex
 10
8.5971061817
 20
7.0964303325
 30
0.0
  0
VERTEX
  5
3A1
330
261
100
AcDbEntity
  8
0
  6
CONTINUOUS
 62
     7
100
AcDbVertex
100
AcDb2dVertex
 10
8.6189619834
 20
7.1096669831
 30
0.0
  0
VERTEX
  5
3A2
330
261
100
AcDbEntity
  8
0
  6
CONTINUOUS
 62
     7
100
AcDbVertex
100
AcDb2dVertex
 10
8.6408177852
 20
7.1216645041
 30
0.0
  0
VERTEX
  5
3A3
330
261
100
AcDbEntity
  8
0
  6
CONTINUOUS
 62
     7
100
AcDbVertex
100
AcDb2dVertex
 10
8.6626209344
 20
7.1323939923
 30
0.0
  0
VERTEX
  5
3A4
330
261
100
AcDbEntity
  8
0
  6
CONTINUOUS
 62
     7
100
AcDbVertex
100
AcDb2dVertex
 10
8.6843189053
 20
7.1418295995
 30
0.0
  0
VERTEX
  5
3A5
330
261
100
AcDbEntity
  8
0
  6
CONTINUOUS
 62
     7
100
AcDbVertex
100
AcDb2dVertex
 10
8.7058594257
 20
7.1499485944
 30
0.0
  0
VERTEX
  5
3A6
330
261
100
AcDbEntity
  8
0
  6
CONTINUOUS
 62
     7
100
AcDbVertex
100
AcDb2dVertex
 10
8.7271906026
 20
7.1567314178
 30
0.0
  0
VERTEX
  5
3A7
330
261
100
AcDbEntity
  8
0
  6
CONTINUOUS
 62
     7
100
AcDbVertex
100
AcDb2dVertex
 10
8.7482610472
 20
7.1621617292
 30
0.0
  0
VERTEX
  5
3A8
330
261
100
AcDbEntity
  8
0
  6
CONTINUOUS
 62
     7
100
AcDbVertex
100
AcDb2dVertex
 10
8.7690199991
 20
7.1662264465
 30
0.0
  0
VERTEX
  5
3A9
330
261
100
AcDbEntity
  8
0
  6
CONTINUOUS
 62
     7
100
AcDbVertex
100
AcDb2dVertex
 10
8.7894174481
 20
7.1689157774
 30
0.0
  0
VERTEX
  5
3AA
330
261
100
AcDbEntity
  8
0
  6
CONTINUOUS
 62
     7
100
AcDbVertex
100
AcDb2dVertex
 10
8.8094042549
 20
7.1702232431
 30
0.0
  0
VERTEX
  5
3AB
330
261
100
AcDbEntity
  8
0
  6
CONTINUOUS
 62
     7
100
AcDbVertex
100
AcDb2dVertex
 10
8.8289322696
 20
7.1701456938
 30
0.0
  0
VERTEX
  5
3AC
330
261
100
AcDbEntity
  8
0
  6
CONTINUOUS
 62
     7
100
AcDbVertex
100
AcDb2dVertex
 10
8.8479544475
 20
7.1686833164
 30
0.0
  0
VERTEX
  5
3AD
330
261
100
AcDbEntity
  8
0
  6
CONTINUOUS
 62
     7
100
AcDbVertex
100
AcDb2dVertex
 10
8.8664249625
 20
7.1658396337
 30
0.0
  0
VERTEX
  5
3AE
330
261
100
AcDbEntity
  8
0
  6
CONTINUOUS
 62
     7
100
AcDbVertex
100
AcDb2dVertex
 10
8.8842993175
 20
7.1616214966
 30
0.0
  0
VERTEX
  5
3AF
330
261
100
AcDbEntity
  8
0
  6
CONTINUOUS
 62
     7
100
AcDbVertex
100
AcDb2dVertex
 10
8.9015344516
 20
7.1560390668
 30
0.0
  0
VERTEX
  5
3B0
330
261
100
AcDbEntity
  8
0
  6
CONTINUOUS
 62
     7
100
AcDbVertex
100
AcDb2dVertex
 10
8.9180888439
 20
7.149105793
 30
0.0
  0
VERTEX
  5
3B1
330
261
100
AcDbEntity
  8
0
  6
CONTINUOUS
 62
     7
100
AcDbVertex
100
AcDb2dVertex
 10
8.9339226134
 20
7.140838378
 30
0.0
  0
VERTEX
  5
3B2
330
261
100
AcDbEntity
  8
0
  6
CONTINUOUS
 62
     7
100
AcDbVertex
100
AcDb2dVertex
 10
8.9489976151
 20
7.1312567387
 30
0.0
  0
VERTEX
  5
3B3
330
261
100
AcDbEntity
  8
0
  6
CONTINUOUS
 62
     7
100
AcDbVertex
100
AcDb2dVertex
 10
8.9632775321
 20
7.1203839581
 30
0.0
  0
VERTEX
  5
3B4
330
261
100
AcDbEntity
  8
0
  6
CONTINUOUS
 62
     7
100
AcDbVertex
100
AcDb2dVertex
 10
8.9767279628
 20
7.1082462297
 30
0.0
  0
VERTEX
  5
3B5
330
261
100
AcDbEntity
  8
0
  6
CONTINUOUS
 62
     7
100
AcDbVertex
100
AcDb2dVertex
 10
8.9893165039
 20
7.0948727943
 30
0.0
  0
VERTEX
  5
3B6
330
261
100
AcDbEntity
  8
0
  6
CONTINUOUS
 62
     7
100
AcDbVertex
100
AcDb2dVertex
 10
9.0010128285
 20
7.0802958699
 30
0.0
  0
VERTEX
  5
3B7
330
261
100
AcDbEntity
  8
0
  6
CONTINUOUS
 62
     7
100
AcDbVertex
100
AcDb2dVertex
 10
9.0117887592
 20
7.0645505733
 30
0.0
  0
VERTEX
  5
3B8
330
261
100
AcDbEntity
  8
0
  6
CONTINUOUS
 62
     7
100
AcDbVertex
100
AcDb2dVertex
 10
9.0216183358
 20
7.0476748364
 30
0.0
  0
VERTEX
  5
3B9
330
261
100
AcDbEntity
  8
0
  6
CONTINUOUS
 62
     7
100
AcDbVertex
100
AcDb2dVertex
 10
9.0304778779
 20
7.0297093145
 30
0.0
  0
VERTEX
  5
3BA
330
261
100
AcDbEntity
  8
0
  6
CONTINUOUS
 62
     7
100
AcDbVertex
100
AcDb2dVertex
 10
9.0383460422
 20
7.0106972878
 30
0.0
  0
VERTEX
  5
3BB
330
261
100
AcDbEntity
  8
0
  6
CONTINUOUS
 62
     7
100
AcDbVertex
100
AcDb2dVertex
 10
9.0452038736
 20
6.9906845582
 30
0.0
  0
VERTEX
  5
3BC
330
261
100
AcDbEntity
  8
0
  6
CONTINUOUS
 62
     7
100
AcDbVertex
100
AcDb2dVertex
 10
9.0510348509
 20
6.969719338
 30
0.0
  0
VERTEX
  5
3BD
330
261
100
AcDbEntity
  8
0
  6
CONTINUOUS
 62
     7
100
AcDbVertex
100
AcDb2dVertex
 10
9.0558249269
 20
6.9478521343
 30
0.0
  0
VERTEX
  5
3BE
330
261
100
AcDbEntity
  8
0
  6
CONTINUOUS
 62
     7
100
AcDbVertex
100
AcDb2dVertex
 10
9.0595625617
 20
6.925135627
 30
0.0
  0
VERTEX
  5
3BF
330
261
100
AcDbEntity
  8
0
  6
CONTINUOUS
 62
     7
100
AcDbVertex
100
AcDb2dVertex
 10
9.0622387512
 20
6.9016245423
 30
0.0
  0
VERTEX
  5
3C0
330
261
100
AcDbEntity
  8
0
  6
CONTINUOUS
 62
     7
100
AcDbVertex
100
AcDb2dVertex
 10
9.0638470481
 20
6.8773755204
 30
0.0
  0
VERTEX
  5
3C1
330
261
100
AcDbEntity
  8
0
  6
CONTINUOUS
 62
     7
100
AcDbVertex
100
AcDb2dVertex
 10
9.0643835779
 20
6.8524469793
 30
0.0
  0
VERTEX
  5
3C2
330
261
100
AcDbEntity
  8
0
  6
CONTINUOUS
 62
     7
100
AcDbVertex
100
AcDb2dVertex
 10
9.0643835779
 20
6.8524469793
 30
0.0
  0
SEQEND
  5
3C3
330
261
100
AcDbEntity
  8
0
  6
CONTINUOUS
 62
     7
  0
POLYLINE
  5
262
330
1F
100
AcDbEntity
  8
0
  6
CONTINUOUS
 62
     7
100
AcDb2dPolyline
 66
     1
 10
0.0
 20
0.0
 30
0.0
  0
VERTEX
  5
3C4
330
262
100
AcDbEntity
  8
0
  6
CONTINUOUS
 62
     7
100
AcDbVertex
100
AcDb2dVertex
 10
8.2709763628
 20
7.0337227872
 30
0.0
  0
VERTEX
  5
3C5
330
262
100
AcDbEntity
  8
0
  6
CONTINUOUS
 62
     7
100
AcDbVertex
100
AcDb2dVertex
 10
8.2513234664
 20
7.0106298397
 30
0.0
  0
VERTEX
  5
3C6
330
262
100
AcDbEntity
  8
0
  6
CONTINUOUS
 62
     7
100
AcDbVertex
100
AcDb2dVertex
 10
8.2322001006
 20
6.9867299054
 30
0.0
  0
VERTEX
  5
3C7
330
262
100
AcDbEntity
  8
0
  6
CONTINUOUS
 62
     7
100
AcDbVertex
100
AcDb2dVertex
 10
8.2136534693
 20
6.9620819787
 30
0.0
  0
VERTEX
  5
3C8
330
262
100
AcDbEntity
  8
0
  6
CONTINUOUS
 62
     7
100
AcDbVertex
100
AcDb2dVertex
 10
8.1957293527
 20
6.9367469001
 30
0.0
  0
VERTEX
  5
3C9
330
262
100
AcDbEntity
  8
0
  6
CONTINUOUS
 62
     7
100
AcDbVertex
100
AcDb2dVertex
 10
8.1784719946
 20
6.9107872065
 30
0.0
  0
VERTEX
  5
3CA
330
262
100
AcDbEntity
  8
0
  6
CONTINUOUS
 62
     7
100
AcDbVertex
100
AcDb2dVertex
 10
8.1619239929
 20
6.8842669766
 30
0.0
  0
VERTEX
  5
3CB
330
262
100
AcDbEntity
  8
0
  6
CONTINUOUS
 62
     7
100
AcDbVertex
100
AcDb2dVertex
 10
8.1461261944
 20
6.8572516724
 30
0.0
  0
VERTEX
  5
3CC
330
262
100
AcDbEntity
  8
0
  6
CONTINUOUS
 62
     7
100
AcDbVertex
100
AcDb2dVertex
 10
8.1311175941
 20
6.8298079783
 30
0.0
  0
VERTEX
  5
3CD
330
262
100
AcDbEntity
  8
0
  6
CONTINUOUS
 62
     7
100
AcDbVertex
100
AcDb2dVertex
 10
8.1169352393
 20
6.802003636
 30
0.0
  0
VERTEX
  5
3CE
330
262
100
AcDbEntity
  8
0
  6
CONTINUOUS
 62
     7
100
AcDbVertex
100
AcDb2dVertex
 10
8.1036141374
 20
6.7739072773
 30
0.0
  0
VERTEX
  5
3CF
330
262
100
AcDbEntity
  8
0
  6
CONTINUOUS
 62
     7
100
AcDbVertex
100
AcDb2dVertex
 10
8.09118717
 20
6.7455882551
 30
0.0
  0
VERTEX
  5
3D0
330
262
100
AcDbEntity
  8
0
  6
CONTINUOUS
 62
     7
100
AcDbVertex
100
AcDb2dVertex
 10
8.0796850118
 20
6.7171164715
 30
0.0
  0
VERTEX
  5
3D1
330
262
100
AcDbEntity
  8
0
  6
CONTINUOUS
 62
     7
100
AcDbVertex
100
AcDb2dVertex
 10
8.0691360545
 20
6.6885622062
 30
0.0
  0
VERTEX
  5
3D2
330
262
100
AcDbEntity
  8
0
  6
CONTINUOUS
 62
     7
100
AcDbVertex
100
AcDb2dVertex
 10
8.0595663372
 20
6.659995942
 30
0.0
  0
VERTEX
  5
3D3
330
262
100
AcDbEntity
  8
0
  6
CONTINUOUS
 62
     7
100
AcDbVertex
100
AcDb2dVertex
 10
8.0509994814
 20
6.6314881916
 30
0.0
  0
VERTEX
  5
3D4
330
262
100
AcDbEntity
  8
0
  6
CONTINUOUS
 62
     7
100
AcDbVertex
100
AcDb2dVertex
 10
8.0434566337
 20
6.6031093232
 30
0.0
  0
VERTEX
  5
3D5
330
262
100
AcDbEntity
  8
0
  6
CONTINUOUS
 62
     7
100
AcDbVertex
100
AcDb2dVertex
 10
8.0369564126
 20
6.5749293869
 30
0.0
  0
VERTEX
  5
3D6
330
262
100
AcDbEntity
  8
0
  6
CONTINUOUS
 62
     7
100
AcDbVertex
100
AcDb2dVertex
 10
8.0315148632
 20
6.5470179416
 30
0.0
  0
VERTEX
  5
3D7
330
262
100
AcDbEntity
  8
0
  6
CONTINUOUS
 62
     7
100
AcDbVertex
100
AcDb2dVertex
 10
8.0271454174
 20
6.5194438838
 30
0.0
  0
VERTEX
  5
3D8
330
262
100
AcDbEntity
  8
0
  6
CONTINUOUS
 62
     7
100
AcDbVertex
100
AcDb2dVertex
 10
8.0238588606
 20
6.4922752767
 30
0.0
  0
VERTEX
  5
3D9
330
262
100
AcDbEntity
  8
0
  6
CONTINUOUS
 62
     7
100
AcDbVertex
100
AcDb2dVertex
 10
8.0216633054
 20
6.4655791832
 30
0.0
  0
VERTEX
  5
3DA
330
262
100
AcDbEntity
  8
0
  6
CONTINUOUS
 62
     7
100
AcDbVertex
100
AcDb2dVertex
 10
8.0205641713
 20
6.4394214996
 30
0.0
  0
VERTEX
  5
3DB
330
262
100
AcDbEntity
  8
0
  6
CONTINUOUS
 62
     7
100
AcDbVertex
100
AcDb2dVertex
 10
8.0205641713
 20
6.4138667931
 30
0.0
  0
VERTEX
  5
3DC
330
262
100
AcDbEntity
  8
0
  6
CONTINUOUS
 62
     7
100
AcDbVertex
100
AcDb2dVertex
 10
8.0216633054
 20
6.3889781427
 30
0.0
  0
VERTEX
  5
3DD
330
262
100
AcDbEntity
  8
0
  6
CONTINUOUS
 62
     7
100
AcDbVertex
100
AcDb2dVertex
 10
8.0238588606
 20
6.3648169832
 30
0.0
  0
VERTEX
  5
3DE
330
262
100
AcDbEntity
  8
0
  6
CONTINUOUS
 62
     7
100
AcDbVertex
100
AcDb2dVertex
 10
8.0271454174
 20
6.3414429539
 30
0.0
  0
VERTEX
  5
3DF
330
262
100
AcDbEntity
  8
0
  6
CONTINUOUS
 62
     7
100
AcDbVertex
100
AcDb2dVertex
 10
8.0315148632
 20
6.3189137507
 30
0.0
  0
VERTEX
  5
3E0
330
262
100
AcDbEntity
  8
0
  6
CONTINUOUS
 62
     7
100
AcDbVertex
100
AcDb2dVertex
 10
8.0369564126
 20
6.2972849847
 30
0.0
  0
VERTEX
  5
3E1
330
262
100
AcDbEntity
  8
0
  6
CONTINUOUS
 62
     7
100
AcDbVertex
100
AcDb2dVertex
 10
8.0434566337
 20
6.2766100439
 30
0.0
  0
VERTEX
  5
3E2
330
262
100
AcDbEntity
  8
0
  6
CONTINUOUS
 62
     7
100
AcDbVertex
100
AcDb2dVertex
 10
8.0509994814
 20
6.2569399622
 30
0.0
  0
VERTEX
  5
3E3
330
262
100
AcDbEntity
  8
0
  6
CONTINUOUS
 62
     7
100
AcDbVertex
100
AcDb2dVertex
 10
8.0595663372
 20
6.2383232929
 30
0.0
  0
VERTEX
  5
3E4
330
262
100
AcDbEntity
  8
0
  6
CONTINUOUS
 62
     7
100
AcDbVertex
100
AcDb2dVertex
 10
8.0691360545
 20
6.2208059892
 30
0.0
  0
VERTEX
  5
3E5
330
262
100
AcDbEntity
  8
0
  6
CONTINUOUS
 62
     7
100
AcDbVertex
100
AcDb2dVertex
 10
8.0796850118
 20
6.2044312906
 30
0.0
  0
VERTEX
  5
3E6
330
262
100
AcDbEntity
  8
0
  6
CONTINUOUS
 62
     7
100
AcDbVertex
100
AcDb2dVertex
 10
8.09118717
 20
6.1892396163
 30
0.0
  0
VERTEX
  5
3E7
330
262
100
AcDbEntity
  8
0
  6
CONTINUOUS
 62
     7
100
AcDbVertex
100
AcDb2dVertex
 10
8.1036141374
 20
6.1752684651
 30
0.0
  0
VERTEX
  5
3E8
330
262
100
AcDbEntity
  8
0
  6
CONTINUOUS
 62
     7
100
AcDbVertex
100
AcDb2dVertex
 10
8.1169352393
 20
6.1625523234
 30
0.0
  0
VERTEX
  5
3E9
330
262
100
AcDbEntity
  8
0
  6
CONTINUOUS
 62
     7
100
AcDbVertex
100
AcDb2dVertex
 10
8.1311175941
 20
6.1511225794
 30
0.0
  0
VERTEX
  5
3EA
330
262
100
AcDbEntity
  8
0
  6
CONTINUOUS
 62
     7
100
AcDbVertex
100
AcDb2dVertex
 10
8.1461261944
 20
6.1410074463
 30
0.0
  0
VERTEX
  5
3EB
330
262
100
AcDbEntity
  8
0
  6
CONTINUOUS
 62
     7
100
AcDbVertex
100
AcDb2dVertex
 10
8.1509132765
 20
6.1381586177
 30
0.0
  0
SEQEND
  5
3EC
330
262
100
AcDbEntity
  8
0
  6
CONTINUOUS
 62
     7
  0
LINE
  5
263
330
1F
100
AcDbEntity
  8
0
  6
CONTINUOUS
 62
     7
100
AcDbLine
 10
8.1039432649
 20
7.1301489421
 30
0.0
 11
8.2709763628
 21
7.0337227872
 31
0.0
  0
POLYLINE
  5
264
330
1F
100
AcDbEntity
  8
0
  6
CONTINUOUS
 62
     7
100
AcDb2dPolyline
 66
     1
 10
0.0
 20
0.0
 30
0.0
  0
VERTEX
  5
3ED
330
264
100
AcDbEntity
  8
0
  6
CONTINUOUS
 62
     7
100
AcDbVertex
100
AcDb2dVertex
 10
8.49368716
 20
7.3551433036
 30
0.0
  0
VERTEX
  5
3EE
330
264
100
AcDbEntity
  8
0
  6
CONTINUOUS
 62
     7
100
AcDbVertex
100
AcDb2dVertex
 10
8.4732971511
 20
7.3541043121
 30
0.0
  0
VERTEX
  5
3EF
330
264
100
AcDbEntity
  8
0
  6
CONTINUOUS
 62
     7
100
AcDbVertex
100
AcDb2dVertex
 10
8.4524655529
 20
7.3516126655
 30
0.0
  0
VERTEX
  5
3F0
330
264
100
AcDbEntity
  8
0
  6
CONTINUOUS
 62
     7
100
AcDbVertex
100
AcDb2dVertex
 10
8.4312450872
 20
7.3476746699
 30
0.0
  0
VERTEX
  5
3F1
330
264
100
AcDbEntity
  8
0
  6
CONTINUOUS
 62
     7
100
AcDbVertex
100
AcDb2dVertex
 10
8.4096894602
 20
7.3423002919
 30
0.0
  0
VERTEX
  5
3F2
330
264
100
AcDbEntity
  8
0
  6
CONTINUOUS
 62
     7
100
AcDbVertex
100
AcDb2dVertex
 10
8.387853226
 20
7.3355031332
 30
0.0
  0
VERTEX
  5
3F3
330
264
100
AcDbEntity
  8
0
  6
CONTINUOUS
 62
     7
100
AcDbVertex
100
AcDb2dVertex
 10
8.3657916492
 20
7.3273003964
 30
0.0
  0
VERTEX
  5
3F4
330
264
100
AcDbEntity
  8
0
  6
CONTINUOUS
 62
     7
100
AcDbVertex
100
AcDb2dVertex
 10
8.3435605643
 20
7.3177128415
 30
0.0
  0
VERTEX
  5
3F5
330
264
100
AcDbEntity
  8
0
  6
CONTINUOUS
 62
     7
100
AcDbVertex
100
AcDb2dVertex
 10
8.3212162353
 20
7.3067647334
 30
0.0
  0
VERTEX
  5
3F6
330
264
100
AcDbEntity
  8
0
  6
CONTINUOUS
 62
     7
100
AcDbVertex
100
AcDb2dVertex
 10
8.2988152124
 20
7.2944837801
 30
0.0
  0
VERTEX
  5
3F7
330
264
100
AcDbEntity
  8
0
  6
CONTINUOUS
 62
     7
100
AcDbVertex
100
AcDb2dVertex
 10
8.2764141896
 20
7.2809010629
 30
0.0
  0
VERTEX
  5
3F8
330
264
100
AcDbEntity
  8
0
  6
CONTINUOUS
 62
     7
100
AcDbVertex
100
AcDb2dVertex
 10
8.2540698605
 20
7.2660509579
 30
0.0
  0
VERTEX
  5
3F9
330
264
100
AcDbEntity
  8
0
  6
CONTINUOUS
 62
     7
100
AcDbVertex
100
AcDb2dVertex
 10
8.2318387757
 20
7.2499710485
 30
0.0
  0
VERTEX
  5
3FA
330
264
100
AcDbEntity
  8
0
  6
CONTINUOUS
 62
     7
100
AcDbVertex
100
AcDb2dVertex
 10
8.2097771988
 20
7.2327020308
 30
0.0
  0
VERTEX
  5
3FB
330
264
100
AcDbEntity
  8
0
  6
CONTINUOUS
 62
     7
100
AcDbVertex
100
AcDb2dVertex
 10
8.1879409647
 20
7.2142876102
 30
0.0
  0
VERTEX
  5
3FC
330
264
100
AcDbEntity
  8
0
  6
CONTINUOUS
 62
     7
100
AcDbVertex
100
AcDb2dVertex
 10
8.1663853376
 20
7.1947743911
 30
0.0
  0
VERTEX
  5
3FD
330
264
100
AcDbEntity
  8
0
  6
CONTINUOUS
 62
     7
100
AcDbVertex
100
AcDb2dVertex
 10
8.145164872
 20
7.1742117585
 30
0.0
  0
VERTEX
  5
3FE
330
264
100
AcDbEntity
  8
0
  6
CONTINUOUS
 62
     7
100
AcDbVertex
100
AcDb2dVertex
 10
8.1243332738
 20
7.1526517538
 30
0.0
  0
VERTEX
  5
3FF
330
264
100
AcDbEntity
  8
0
  6
CONTINUOUS
 62
     7
100
AcDbVertex
100
AcDb2dVertex
 10
8.1039432649
 20
7.1301489421
 30
0.0
  0
SEQEND
  5
400
330
264
100
AcDbEntity
  8
0
  6
CONTINUOUS
 62
     7
  0
LINE
  5
265
330
1F
100
AcDbEntity
  8
0
  6
CONTINUOUS
 62
     7
100
AcDbLine
 10
8.6468008331
 20
7.2667526616
 30
0.0
 11
8.49368716
 21
7.3551433036
 31
0.0
  0
ARC
  5
266
330
1F
100
AcDbEntity
  8
0
  6
CONTINUOUS
 62
     7
100
AcDbCircle
 10
8.6535634954
 20
7.0350190642
 30
0.0
 40
0.2318322534735505
100
AcDbArc
 50
60.7436942822
 51
91.6715835388
  0
SPLINE
  5
267
330
1F
100
AcDbEntity
  8
0
  6
CONTINUOUS
 62
     7
100
AcDbSpline
210
0.0
220
0.0
230
1.0
 70
     8
 71
     3
 72
    34
 73
    30
 74
     0
 42
0.00000001
 43
0.00000001
 40
0.0
 40
0.0
 40
0.0
 40
0.0
 40
0.0372614665629444
 40
0.07561495503242
 40
0.1128732319019509
 40
0.1511905521382874
 40
0.1888463500199952
 40
0.2275764001202194
 40
0.2655091133221285
 40
0.3045662626066906
 40
0.342054233083915
 40
0.3806586523837585
 40
0.4176718478761218
 40
0.4557470456922865
 40
0.4929953614606862
 40
0.5312911338860058
 40
0.5691141332058661
 40
0.6080300740505286
 40
0.6458806974346274
 40
0.6848610145120951
 40
0.7221566611235575
 40
0.7605516054992596
 40
0.7975759226844693
 40
0.8356521348325671
 40
0.8730871071782014
 40
0.9115794485770873
 40
0.9494938747311853
 40
0.9885171450025154
 40
0.9999999999999999
 40
0.9999999999999999
 40
0.9999999999999999
 40
0.9999999999999999
 10
8.368412336571428
 20
7.254306215511222
 30
0.0
 10
8.3640477377071
 20
7.251486296429533
 30
0.0
 10
8.355190626667115
 20
7.245763814889609
 30
0.0
 10
8.345267008459347
 20
7.235156732932585
 30
0.0
 10
8.338073037785948
 20
7.223367667850205
 30
0.0
 10
8.334115793371813
 20
7.210816623275477
 30
0.0
 10
8.33340165872395
 20
7.197770522250386
 30
0.0
 10
8.336023231291884
 20
7.184894578120076
 30
0.0
 10
8.341992396011973
 20
7.172489859079648
 30
0.0
 10
8.351044684411624
 20
7.161294402399833
 30
0.0
 10
8.363039313648695
 20
7.151533324698782
 30
0.0
 10
8.377317219572486
 20
7.14372263519234
 30
0.0
 10
8.39373143803959
 20
7.137874860695036
 30
0.0
 10
8.411523789609836
 20
7.134165960075642
 30
0.0
 10
8.430600476244784
 20
7.132524666181885
 30
0.0
 10
8.450211325267649
 20
7.132923146909211
 30
0.0
 10
8.470153039109485
 20
7.135266028821881
 30
0.0
 10
8.489528752907546
 20
7.139359475039966
 30
0.0
 10
8.508042232425264
 20
7.145042889957239
 30
0.0
 10
8.524737577809402
 20
7.151938951682367
 30
0.0
 10
8.539446224814316
 20
7.159900139695321
 30
0.0
 10
8.551482506575285
 20
7.168504206066348
 30
0.0
 10
8.560819276273042
 20
7.177722763782968
 30
0.0
 10
8.567097020164047
 20
7.187229103532186
 30
0.0
 10
8.570238088908816
 20
7.197057714972113
 30
0.0
 10
8.570141216055665
 20
7.206942130672895
 30
0.0
 10
8.566474579057909
 20
7.216846411686177
 30
0.0
 10
8.561764908437873
 20
7.224359804004932
 30
0.0
 10
8.557323124115639
 20
7.228395667287581
 30
0.0
 10
8.556313259172905
 20
7.229313243771971
 30
0.0
  0
SPLINE
  5
268
330
1F
100
AcDbEntity
  8
0
  6
CONTINUOUS
 62
     7
100
AcDbSpline
210
0.0
220
0.0
230
1.0
 70
     8
 71
     3
 72
    14
 73
    10
 74
     0
 42
0.00000001
 43
0.00000001
 40
0.0
 40
0.0
 40
0.0
 40
0.0
 40
0.0239744540216584
 40
0.1992551501996099
 40
0.3795292176704421
 40
0.5562282877320764
 40
0.7381571921234864
 40
0.8680366894130424
 40
0.9999999999999999
 40
0.9999999999999999
 40
0.9999999999999999
 40
0.9999999999999999
 10
8.470790333833138
 20
7.267316109977796
 30
0.0
 10
8.469922419268435
 20
7.26749567632307
 30
0.0
 10
8.462709055961227
 20
7.268988078154877
 30
0.0
 10
8.448442193721382
 20
7.2701944815955
 30
0.0
 10
8.42875348636741
 20
7.270544898241312
 30
0.0
 10
8.409392280256139
 20
7.268613661701082
 30
0.0
 10
8.392963293804733
 20
7.264877422107004
 30
0.0
 10
8.379184044990517
 20
7.260007885010481
 30
0.0
 10
8.372021905435433
 20
7.256216828748849
 30
0.0
 10
8.368412336571428
 20
7.254306215511222
 30
0.0
  0
POLYLINE
  5
269
330
1F
100
AcDbEntity
  8
0
  6
CONTINUOUS
 62
     7
100
AcDb2dPolyline
 66
     1
 10
0.0
 20
0.0
 30
0.0
  0
VERTEX
  5
401
330
269
100
AcDbEntity
  8
0
  6
CONTINUOUS
 62
     7
100
AcDbVertex
100
AcDb2dVertex
 10
8.7581562317
 20
6.6595946695
 30
0.0
  0
VERTEX
  5
402
330
269
100
AcDbEntity
  8
0
  6
CONTINUOUS
 62
     7
100
AcDbVertex
100
AcDb2dVertex
 10
8.7576218314
 20
6.6459383728
 30
0.0
  0
VERTEX
  5
403
330
269
100
AcDbEntity
  8
0
  6
CONTINUOUS
 62
     7
100
AcDbVertex
100
AcDb2dVertex
 10
8.7560231898
 20
6.6317815814
 30
0.0
  0
VERTEX
  5
404
330
269
100
AcDbEntity
  8
0
  6
CONTINUOUS
 62
     7
100
AcDbVertex
100
AcDb2dVertex
 10
8.7533739459
 20
6.617245076
 30
0.0
  0
VERTEX
  5
405
330
269
100
AcDbEntity
  8
0
  6
CONTINUOUS
 62
     7
100
AcDbVertex
100
AcDb2dVertex
 10
8.7496967022
 20
6.602452877
 30
0.0
  0
VERTEX
  5
406
330
269
100
AcDbEntity
  8
0
  6
CONTINUOUS
 62
     7
100
AcDbVertex
100
AcDb2dVertex
 10
8.7450228315
 20
6.587531186
 30
0.0
  0
VERTEX
  5
407
330
269
100
AcDbEntity
  8
0
  6
CONTINUOUS
 62
     7
100
AcDbVertex
100
AcDb2dVertex
 10
8.7393922098
 20
6.5726073099
 30
0.0
  0
VERTEX
  5
408
330
269
100
AcDbEntity
  8
0
  6
CONTINUOUS
 62
     7
100
AcDbVertex
100
AcDb2dVertex
 10
8.7328528755
 20
6.5578085738
 30
0.0
  0
VERTEX
  5
409
330
269
100
AcDbEntity
  8
0
  6
CONTINUOUS
 62
     7
100
AcDbVertex
100
AcDb2dVertex
 10
8.7254606199
 20
6.5432612353
 30
0.0
  0
VERTEX
  5
40A
330
269
100
AcDbEntity
  8
0
  6
CONTINUOUS
 62
     7
100
AcDbVertex
100
AcDb2dVertex
 10
8.7172785111
 20
6.5290894071
 30
0.0
  0
VERTEX
  5
40B
330
269
100
AcDbEntity
  8
0
  6
CONTINUOUS
 62
     7
100
AcDbVertex
100
AcDb2dVertex
 10
8.7083763559
 20
6.5154139984
 30
0.0
  0
VERTEX
  5
40C
330
269
100
AcDbEntity
  8
0
  6
CONTINUOUS
 62
     7
100
AcDbVertex
100
AcDb2dVertex
 10
8.6988301045
 20
6.5023516829
 30
0.0
  0
VERTEX
  5
40D
330
269
100
AcDbEntity
  8
0
  6
CONTINUOUS
 62
     7
100
AcDbVertex
100
AcDb2dVertex
 10
8.6887212021
 20
6.4900139036
 30
0.0
  0
VERTEX
  5
40E
330
269
100
AcDbEntity
  8
0
  6
CONTINUOUS
 62
     7
100
AcDbVertex
100
AcDb2dVertex
 10
8.6781358942
 20
6.4785059221
 30
0.0
  0
VERTEX
  5
40F
330
269
100
AcDbEntity
  8
0
  6
CONTINUOUS
 62
     7
100
AcDbVertex
100
AcDb2dVertex
 10
8.667164491
 20
6.4679259205
 30
0.0
  0
VERTEX
  5
410
330
269
100
AcDbEntity
  8
0
  6
CONTINUOUS
 62
     7
100
AcDbVertex
100
AcDb2dVertex
 10
8.6559005967
 20
6.4583641637
 30
0.0
  0
VERTEX
  5
411
330
269
100
AcDbEntity
  8
0
  6
CONTINUOUS
 62
     7
100
AcDbVertex
100
AcDb2dVertex
 10
8.6444403107
 20
6.4499022291
 30
0.0
  0
VERTEX
  5
412
330
269
100
AcDbEntity
  8
0
  6
CONTINUOUS
 62
     7
100
AcDbVertex
100
AcDb2dVertex
 10
8.6328814083
 20
6.442612311
 30
0.0
  0
VERTEX
  5
413
330
269
100
AcDbEntity
  8
0
  6
CONTINUOUS
 62
     7
100
AcDbVertex
100
AcDb2dVertex
 10
8.6213225058
 20
6.4365566044
 30
0.0
  0
VERTEX
  5
414
330
269
100
AcDbEntity
  8
0
  6
CONTINUOUS
 62
     7
100
AcDbVertex
100
AcDb2dVertex
 10
8.6098622199
 20
6.4317867745
 30
0.0
  0
VERTEX
  5
415
330
269
100
AcDbEntity
  8
0
  6
CONTINUOUS
 62
     7
100
AcDbVertex
100
AcDb2dVertex
 10
8.5985983255
 20
6.4283435157
 30
0.0
  0
VERTEX
  5
416
330
269
100
AcDbEntity
  8
0
  6
CONTINUOUS
 62
     7
100
AcDbVertex
100
AcDb2dVertex
 10
8.5876269223
 20
6.4262562048
 30
0.0
  0
VERTEX
  5
417
330
269
100
AcDbEntity
  8
0
  6
CONTINUOUS
 62
     7
100
AcDbVertex
100
AcDb2dVertex
 10
8.5770416145
 20
6.4255426499
 30
0.0
  0
VERTEX
  5
418
330
269
100
AcDbEntity
  8
0
  6
CONTINUOUS
 62
     7
100
AcDbVertex
100
AcDb2dVertex
 10
8.566932712
 20
6.4262089389
 30
0.0
  0
VERTEX
  5
419
330
269
100
AcDbEntity
  8
0
  6
CONTINUOUS
 62
     7
100
AcDbVertex
100
AcDb2dVertex
 10
8.5573864606
 20
6.4282493872
 30
0.0
  0
VERTEX
  5
41A
330
269
100
AcDbEntity
  8
0
  6
CONTINUOUS
 62
     7
100
AcDbVertex
100
AcDb2dVertex
 10
8.5484843055
 20
6.4316465863
 30
0.0
  0
VERTEX
  5
41B
330
269
100
AcDbEntity
  8
0
  6
CONTINUOUS
 62
     7
100
AcDbVertex
100
AcDb2dVertex
 10
8.5403021967
 20
6.4363715527
 30
0.0
  0
VERTEX
  5
41C
330
269
100
AcDbEntity
  8
0
  6
CONTINUOUS
 62
     7
100
AcDbVertex
100
AcDb2dVertex
 10
8.532909941
 20
6.4423839746
 30
0.0
  0
VERTEX
  5
41D
330
269
100
AcDbEntity
  8
0
  6
CONTINUOUS
 62
     7
100
AcDbVertex
100
AcDb2dVertex
 10
8.5263706067
 20
6.449632556
 30
0.0
  0
VERTEX
  5
41E
330
269
100
AcDbEntity
  8
0
  6
CONTINUOUS
 62
     7
100
AcDbVertex
100
AcDb2dVertex
 10
8.520739985
 20
6.4580554547
 30
0.0
  0
VERTEX
  5
41F
330
269
100
AcDbEntity
  8
0
  6
CONTINUOUS
 62
     7
100
AcDbVertex
100
AcDb2dVertex
 10
8.5160661144
 20
6.4675808095
 30
0.0
  0
VERTEX
  5
420
330
269
100
AcDbEntity
  8
0
  6
CONTINUOUS
 62
     7
100
AcDbVertex
100
AcDb2dVertex
 10
8.5123888706
 20
6.4781273533
 30
0.0
  0
VERTEX
  5
421
330
269
100
AcDbEntity
  8
0
  6
CONTINUOUS
 62
     7
100
AcDbVertex
100
AcDb2dVertex
 10
8.5097396268
 20
6.4896051068
 30
0.0
  0
VERTEX
  5
422
330
269
100
AcDbEntity
  8
0
  6
CONTINUOUS
 62
     7
100
AcDbVertex
100
AcDb2dVertex
 10
8.5081409851
 20
6.5019161459
 30
0.0
  0
VERTEX
  5
423
330
269
100
AcDbEntity
  8
0
  6
CONTINUOUS
 62
     7
100
AcDbVertex
100
AcDb2dVertex
 10
8.5076065848
 20
6.514955437
 30
0.0
  0
VERTEX
  5
424
330
269
100
AcDbEntity
  8
0
  6
CONTINUOUS
 62
     7
100
AcDbVertex
100
AcDb2dVertex
 10
8.5081409851
 20
6.5286117337
 30
0.0
  0
VERTEX
  5
425
330
269
100
AcDbEntity
  8
0
  6
CONTINUOUS
 62
     7
100
AcDbVertex
100
AcDb2dVertex
 10
8.5097396268
 20
6.5427685251
 30
0.0
  0
VERTEX
  5
426
330
269
100
AcDbEntity
  8
0
  6
CONTINUOUS
 62
     7
100
AcDbVertex
100
AcDb2dVertex
 10
8.5123888706
 20
6.5573050305
 30
0.0
  0
VERTEX
  5
427
330
269
100
AcDbEntity
  8
0
  6
CONTINUOUS
 62
     7
100
AcDbVertex
100
AcDb2dVertex
 10
8.5160661144
 20
6.5720972296
 30
0.0
  0
VERTEX
  5
428
330
269
100
AcDbEntity
  8
0
  6
CONTINUOUS
 62
     7
100
AcDbVertex
100
AcDb2dVertex
 10
8.520739985
 20
6.5870189205
 30
0.0
  0
VERTEX
  5
429
330
269
100
AcDbEntity
  8
0
  6
CONTINUOUS
 62
     7
100
AcDbVertex
100
AcDb2dVertex
 10
8.5263706067
 20
6.6019427966
 30
0.0
  0
VERTEX
  5
42A
330
269
100
AcDbEntity
  8
0
  6
CONTINUOUS
 62
     7
100
AcDbVertex
100
AcDb2dVertex
 10
8.532909941
 20
6.6167415327
 30
0.0
  0
VERTEX
  5
42B
330
269
100
AcDbEntity
  8
0
  6
CONTINUOUS
 62
     7
100
AcDbVertex
100
AcDb2dVertex
 10
8.5403021967
 20
6.6312888712
 30
0.0
  0
VERTEX
  5
42C
330
269
100
AcDbEntity
  8
0
  6
CONTINUOUS
 62
     7
100
AcDbVertex
100
AcDb2dVertex
 10
8.5484843055
 20
6.6454606994
 30
0.0
  0
VERTEX
  5
42D
330
269
100
AcDbEntity
  8
0
  6
CONTINUOUS
 62
     7
100
AcDbVertex
100
AcDb2dVertex
 10
8.5573864606
 20
6.6591361081
 30
0.0
  0
VERTEX
  5
42E
330
269
100
AcDbEntity
  8
0
  6
CONTINUOUS
 62
     7
100
AcDbVertex
100
AcDb2dVertex
 10
8.566932712
 20
6.6721984237
 30
0.0
  0
VERTEX
  5
42F
330
269
100
AcDbEntity
  8
0
  6
CONTINUOUS
 62
     7
100
AcDbVertex
100
AcDb2dVertex
 10
8.5770416145
 20
6.6845362029
 30
0.0
  0
VERTEX
  5
430
330
269
100
AcDbEntity
  8
0
  6
CONTINUOUS
 62
     7
100
AcDbVertex
100
AcDb2dVertex
 10
8.5876269223
 20
6.6960441844
 30
0.0
  0
VERTEX
  5
431
330
269
100
AcDbEntity
  8
0
  6
CONTINUOUS
 62
     7
100
AcDbVertex
100
AcDb2dVertex
 10
8.5985983255
 20
6.706624186
 30
0.0
  0
VERTEX
  5
432
330
269
100
AcDbEntity
  8
0
  6
CONTINUOUS
 62
     7
100
AcDbVertex
100
AcDb2dVertex
 10
8.6098622199
 20
6.7161859428
 30
0.0
  0
VERTEX
  5
433
330
269
100
AcDbEntity
  8
0
  6
CONTINUOUS
 62
     7
100
AcDbVertex
100
AcDb2dVertex
 10
8.6213225058
 20
6.7246478774
 30
0.0
  0
VERTEX
  5
434
330
269
100
AcDbEntity
  8
0
  6
CONTINUOUS
 62
     7
100
AcDbVertex
100
AcDb2dVertex
 10
8.6328814083
 20
6.7319377955
 30
0.0
  0
VERTEX
  5
435
330
269
100
AcDbEntity
  8
0
  6
CONTINUOUS
 62
     7
100
AcDbVertex
100
AcDb2dVertex
 10
8.6444403107
 20
6.7379935021
 30
0.0
  0
VERTEX
  5
436
330
269
100
AcDbEntity
  8
0
  6
CONTINUOUS
 62
     7
100
AcDbVertex
100
AcDb2dVertex
 10
8.6559005967
 20
6.742763332
 30
0.0
  0
VERTEX
  5
437
330
269
100
AcDbEntity
  8
0
  6
CONTINUOUS
 62
     7
100
AcDbVertex
100
AcDb2dVertex
 10
8.667164491
 20
6.7462065908
 30
0.0
  0
VERTEX
  5
438
330
269
100
AcDbEntity
  8
0
  6
CONTINUOUS
 62
     7
100
AcDbVertex
100
AcDb2dVertex
 10
8.6781358942
 20
6.7482939017
 30
0.0
  0
VERTEX
  5
439
330
269
100
AcDbEntity
  8
0
  6
CONTINUOUS
 62
     7
100
AcDbVertex
100
AcDb2dVertex
 10
8.6887212021
 20
6.7490074566
 30
0.0
  0
VERTEX
  5
43A
330
269
100
AcDbEntity
  8
0
  6
CONTINUOUS
 62
     7
100
AcDbVertex
100
AcDb2dVertex
 10
8.6988301045
 20
6.7483411676
 30
0.0
  0
VERTEX
  5
43B
330
269
100
AcDbEntity
  8
0
  6
CONTINUOUS
 62
     7
100
AcDbVertex
100
AcDb2dVertex
 10
8.7083763559
 20
6.7463007193
 30
0.0
  0
VERTEX
  5
43C
330
269
100
AcDbEntity
  8
0
  6
CONTINUOUS
 62
     7
100
AcDbVertex
100
AcDb2dVertex
 10
8.7172785111
 20
6.7429035202
 30
0.0
  0
VERTEX
  5
43D
330
269
100
AcDbEntity
  8
0
  6
CONTINUOUS
 62
     7
100
AcDbVertex
100
AcDb2dVertex
 10
8.7254606199
 20
6.7381785538
 30
0.0
  0
VERTEX
  5
43E
330
269
100
AcDbEntity
  8
0
  6
CONTINUOUS
 62
     7
100
AcDbVertex
100
AcDb2dVertex
 10
8.7328528755
 20
6.7321661319
 30
0.0
  0
VERTEX
  5
43F
330
269
100
AcDbEntity
  8
0
  6
CONTINUOUS
 62
     7
100
AcDbVertex
100
AcDb2dVertex
 10
8.7393922098
 20
6.7249175505
 30
0.0
  0
VERTEX
  5
440
330
269
100
AcDbEntity
  8
0
  6
CONTINUOUS
 62
     7
100
AcDbVertex
100
AcDb2dVertex
 10
8.7450228315
 20
6.7164946518
 30
0.0
  0
VERTEX
  5
441
330
269
100
AcDbEntity
  8
0
  6
CONTINUOUS
 62
     7
100
AcDbVertex
100
AcDb2dVertex
 10
8.7496967022
 20
6.7069692971
 30
0.0
  0
VERTEX
  5
442
330
269
100
AcDbEntity
  8
0
  6
CONTINUOUS
 62
     7
100
AcDbVertex
100
AcDb2dVertex
 10
8.7533739459
 20
6.6964227532
 30
0.0
  0
VERTEX
  5
443
330
269
100
AcDbEntity
  8
0
  6
CONTINUOUS
 62
     7
100
AcDbVertex
100
AcDb2dVertex
 10
8.7560231898
 20
6.6849449997
 30
0.0
  0
VERTEX
  5
444
330
269
100
AcDbEntity
  8
0
  6
CONTINUOUS
 62
     7
100
AcDbVertex
100
AcDb2dVertex
 10
8.7576218314
 20
6.6726339606
 30
0.0
  0
VERTEX
  5
445
330
269
100
AcDbEntity
  8
0
  6
CONTINUOUS
 62
     7
100
AcDbVertex
100
AcDb2dVertex
 10
8.7581562317
 20
6.6595946695
 30
0.0
  0
SEQEND
  5
446
330
269
100
AcDbEntity
  8
0
  6
CONTINUOUS
 62
     7
  0
ARC
  5
26A
330
1F
100
AcDbEntity
  8
0
  6
CONTINUOUS
 62
     7
100
AcDbCircle
 10
8.9619599823
 20
6.3980470758
 30
0.0
 40
0.94258848280863
100
AcDbArc
 50
138.4034038231
 51
177.2886357986
  0
SPLINE
  5
26B
330
1F
100
AcDbEntity
  8
0
  6
CONTINUOUS
 62
     7
100
AcDbSpline
210
0.0
220
0.0
230
1.0
 70
     8
 71
     3
 72
     8
 73
     4
 74
     0
 42
0.00000001
 43
0.00000001
 40
0.0
 40
0.0
 40
0.0
 40
0.0
 40
0.000749374772851
 40
0.000749374772851
 40
0.000749374772851
 40
0.000749374772851
 10
8.25705693795935
 20
7.023814401545702
 30
0.0
 10
8.261686494809387
 20
7.027133697812961
 30
0.0
 10
8.266326675163844
 20
7.030435934061769
 30
0.0
 10
8.270976362785856
 20
7.033722787160719
 30
0.0
  0
LINE
  5
26C
330
1F
100
AcDbEntity
  8
0
  6
CONTINUOUS
 62
     7
100
AcDbLine
 10
8.1039432649
 20
7.1301489421
 30
0.0
 11
8.0914759868
 21
7.1212742508
 31
0.0
  0
ARC
  5
26D
330
1F
100
AcDbEntity
  8
0
  6
CONTINUOUS
 62
     7
100
AcDbCircle
 10
8.6802940108
 20
6.6256108761
 30
0.0
 40
0.770093700944711
100
AcDbArc
 50
120.8994338849
 51
139.9151722048
  0
ARC
  5
26E
330
1F
100
AcDbEntity
  8
0
  6
CONTINUOUS
 62
     7
100
AcDbCircle
 10
8.6634783171
 20
6.6712063032
 30
0.0
 40
0.0678401845639015
100
AcDbArc
 50
350.1446368862
 51
123.8423308779
  0
POLYLINE
  5
26F
330
1F
100
AcDbEntity
  8
0
  6
CONTINUOUS
 62
     7
100
AcDb2dPolyline
 66
     1
 10
0.0
 20
0.0
 30
0.0
  0
VERTEX
  5
447
330
26F
100
AcDbEntity
  8
0
  6
CONTINUOUS
 62
     7
100
AcDbVertex
100
AcDb2dVertex
 10
8.5078115709
 20
6.5233460348
 30
0.0
  0
VERTEX
  5
448
330
26F
100
AcDbEntity
  8
0
  6
CONTINUOUS
 62
     7
100
AcDbVertex
100
AcDb2dVertex
 10
8.5081427915
 20
6.5187320721
 30
0.0
  0
VERTEX
  5
449
330
26F
100
AcDbEntity
  8
0
  6
CONTINUOUS
 62
     7
100
AcDbVertex
100
AcDb2dVertex
 10
8.5097462476
 20
6.5071751741
 30
0.0
  0
VERTEX
  5
44A
330
26F
100
AcDbEntity
  8
0
  6
CONTINUOUS
 62
     7
100
AcDbVertex
100
AcDb2dVertex
 10
8.5124015109
 20
6.4964670682
 30
0.0
  0
VERTEX
  5
44B
330
26F
100
AcDbEntity
  8
0
  6
CONTINUOUS
 62
     7
100
AcDbVertex
100
AcDb2dVertex
 10
8.5160830098
 20
6.4867108791
 30
0.0
  0
VERTEX
  5
44C
330
26F
100
AcDbEntity
  8
0
  6
CONTINUOUS
 62
     7
100
AcDbVertex
100
AcDb2dVertex
 10
8.5207552895
 20
6.4780005644
 30
0.0
  0
VERTEX
  5
44D
330
26F
100
AcDbEntity
  8
0
  6
CONTINUOUS
 62
     7
100
AcDbVertex
100
AcDb2dVertex
 10
8.5263733533
 20
6.4704200091
 30
0.0
  0
VERTEX
  5
44E
330
26F
100
AcDbEntity
  8
0
  6
CONTINUOUS
 62
     7
100
AcDbVertex
100
AcDb2dVertex
 10
8.5328830963
 20
6.4640422182
 30
0.0
  0
VERTEX
  5
44F
330
26F
100
AcDbEntity
  8
0
  6
CONTINUOUS
 62
     7
100
AcDbVertex
100
AcDb2dVertex
 10
8.540221826
 20
6.4589286132
 30
0.0
  0
VERTEX
  5
450
330
26F
100
AcDbEntity
  8
0
  6
CONTINUOUS
 62
     7
100
AcDbVertex
100
AcDb2dVertex
 10
8.5483188664
 20
6.455128441
 30
0.0
  0
VERTEX
  5
451
330
26F
100
AcDbEntity
  8
0
  6
CONTINUOUS
 62
     7
100
AcDbVertex
100
AcDb2dVertex
 10
8.5570962387
 20
6.4526782993
 30
0.0
  0
VERTEX
  5
452
330
26F
100
AcDbEntity
  8
0
  6
CONTINUOUS
 62
     7
100
AcDbVertex
100
AcDb2dVertex
 10
8.5664694119
 20
6.4516017843
 30
0.0
  0
VERTEX
  5
453
330
26F
100
AcDbEntity
  8
0
  6
CONTINUOUS
 62
     7
100
AcDbVertex
100
AcDb2dVertex
 10
8.5763481173
 20
6.4519092634
 30
0.0
  0
VERTEX
  5
454
330
26F
100
AcDbEntity
  8
0
  6
CONTINUOUS
 62
     7
100
AcDbVertex
100
AcDb2dVertex
 10
8.5866372175
 20
6.4535977754
 30
0.0
  0
VERTEX
  5
455
330
26F
100
AcDbEntity
  8
0
  6
CONTINUOUS
 62
     7
100
AcDbVertex
100
AcDb2dVertex
 10
8.5972376229
 20
6.4566510591
 30
0.0
  0
VERTEX
  5
456
330
26F
100
AcDbEntity
  8
0
  6
CONTINUOUS
 62
     7
100
AcDbVertex
100
AcDb2dVertex
 10
8.6080472457
 20
6.4610397096
 30
0.0
  0
VERTEX
  5
457
330
26F
100
AcDbEntity
  8
0
  6
CONTINUOUS
 62
     7
100
AcDbVertex
100
AcDb2dVertex
 10
8.6189619834
 20
6.4667214619
 30
0.0
  0
VERTEX
  5
458
330
26F
100
AcDbEntity
  8
0
  6
CONTINUOUS
 62
     7
100
AcDbVertex
100
AcDb2dVertex
 10
8.6298767212
 20
6.4736415976
 30
0.0
  0
VERTEX
  5
459
330
26F
100
AcDbEntity
  8
0
  6
CONTINUOUS
 62
     7
100
AcDbVertex
100
AcDb2dVertex
 10
8.640686344
 20
6.4817334719
 30
0.0
  0
VERTEX
  5
45A
330
26F
100
AcDbEntity
  8
0
  6
CONTINUOUS
 62
     7
100
AcDbVertex
100
AcDb2dVertex
 10
8.6512867494
 20
6.4909191558
 30
0.0
  0
VERTEX
  5
45B
330
26F
100
AcDbEntity
  8
0
  6
CONTINUOUS
 62
     7
100
AcDbVertex
100
AcDb2dVertex
 10
8.6615758496
 20
6.501110186
 30
0.0
  0
VERTEX
  5
45C
330
26F
100
AcDbEntity
  8
0
  6
CONTINUOUS
 62
     7
100
AcDbVertex
100
AcDb2dVertex
 10
8.671454555
 20
6.5122084173
 30
0.0
  0
VERTEX
  5
45D
330
26F
100
AcDbEntity
  8
0
  6
CONTINUOUS
 62
     7
100
AcDbVertex
100
AcDb2dVertex
 10
8.6808277282
 20
6.5241069678
 30
0.0
  0
VERTEX
  5
45E
330
26F
100
AcDbEntity
  8
0
  6
CONTINUOUS
 62
     7
100
AcDbVertex
100
AcDb2dVertex
 10
8.6896051005
 20
6.5366912478
 30
0.0
  0
VERTEX
  5
45F
330
26F
100
AcDbEntity
  8
0
  6
CONTINUOUS
 62
     7
100
AcDbVertex
100
AcDb2dVertex
 10
8.6977021409
 20
6.5498400639
 30
0.0
  0
VERTEX
  5
460
330
26F
100
AcDbEntity
  8
0
  6
CONTINUOUS
 62
     7
100
AcDbVertex
100
AcDb2dVertex
 10
8.7050408706
 20
6.5634267859
 30
0.0
  0
VERTEX
  5
461
330
26F
100
AcDbEntity
  8
0
  6
CONTINUOUS
 62
     7
100
AcDbVertex
100
AcDb2dVertex
 10
8.7115506136
 20
6.577320566
 30
0.0
  0
VERTEX
  5
462
330
26F
100
AcDbEntity
  8
0
  6
CONTINUOUS
 62
     7
100
AcDbVertex
100
AcDb2dVertex
 10
8.7171686774
 20
6.5913875997
 30
0.0
  0
VERTEX
  5
463
330
26F
100
AcDbEntity
  8
0
  6
CONTINUOUS
 62
     7
100
AcDbVertex
100
AcDb2dVertex
 10
8.7218409571
 20
6.6054924137
 30
0.0
  0
VERTEX
  5
464
330
26F
100
AcDbEntity
  8
0
  6
CONTINUOUS
 62
     7
100
AcDbVertex
100
AcDb2dVertex
 10
8.725522456
 20
6.6194991709
 30
0.0
  0
VERTEX
  5
465
330
26F
100
AcDbEntity
  8
0
  6
CONTINUOUS
 62
     7
100
AcDbVertex
100
AcDb2dVertex
 10
8.7281777193
 20
6.6332729787
 30
0.0
  0
VERTEX
  5
466
330
26F
100
AcDbEntity
  8
0
  6
CONTINUOUS
 62
     7
100
AcDbVertex
100
AcDb2dVertex
 10
8.7297811754
 20
6.6466811877
 30
0.0
  0
VERTEX
  5
467
330
26F
100
AcDbEntity
  8
0
  6
CONTINUOUS
 62
     7
100
AcDbVertex
100
AcDb2dVertex
 10
8.7303173821
 20
6.6595946695
 30
0.0
  0
SEQEND
  5
468
330
26F
100
AcDbEntity
  8
0
  6
CONTINUOUS
 62
     7
  0
POLYLINE
  5
270
330
1F
100
AcDbEntity
  8
0
  6
CONTINUOUS
 62
     7
100
AcDb2dPolyline
 66
     1
 10
0.0
 20
0.0
 30
0.0
  0
VERTEX
  5
469
330
270
100
AcDbEntity
  8
0
  6
CONTINUOUS
 62
     7
100
AcDbVertex
100
AcDb2dVertex
 10
7.3731734615
 20
6.8002161454
 30
0.0
  0
VERTEX
  5
46A
330
270
100
AcDbEntity
  8
0
  6
CONTINUOUS
 62
     7
100
AcDbVertex
100
AcDb2dVertex
 10
7.3737108066
 20
6.8103618835
 30
0.0
  0
VERTEX
  5
46B
330
270
100
AcDbEntity
  8
0
  6
CONTINUOUS
 62
     7
100
AcDbVertex
100
AcDb2dVertex
 10
7.3753152987
 20
6.8197447921
 30
0.0
  0
VERTEX
  5
46C
330
270
100
AcDbEntity
  8
0
  6
CONTINUOUS
 62
     7
100
AcDbVertex
100
AcDb2dVertex
 10
7.3779644142
 20
6.828233156
 30
0.0
  0
VERTEX
  5
46D
330
270
100
AcDbEntity
  8
0
  6
CONTINUOUS
 62
     7
100
AcDbVertex
100
AcDb2dVertex
 10
7.3816209655
 20
6.835707817
 30
0.0
  0
VERTEX
  5
46E
330
270
100
AcDbEntity
  8
0
  6
CONTINUOUS
 62
     7
100
AcDbVertex
100
AcDb2dVertex
 10
7.3862336225
 20
6.8420638474
 30
0.0
  0
VERTEX
  5
46F
330
270
100
AcDbEntity
  8
0
  6
CONTINUOUS
 62
     7
100
AcDbVertex
100
AcDb2dVertex
 10
7.3917376337
 20
6.8472120223
 30
0.0
  0
VERTEX
  5
470
330
270
100
AcDbEntity
  8
0
  6
CONTINUOUS
 62
     7
100
AcDbVertex
100
AcDb2dVertex
 10
7.3980557347
 20
6.8510800726
 30
0.0
  0
VERTEX
  5
471
330
270
100
AcDbEntity
  8
0
  6
CONTINUOUS
 62
     7
100
AcDbVertex
100
AcDb2dVertex
 10
7.4050992333
 20
6.8536136995
 30
0.0
  0
VERTEX
  5
472
330
270
100
AcDbEntity
  8
0
  6
CONTINUOUS
 62
     7
100
AcDbVertex
100
AcDb2dVertex
 10
7.4127692543
 20
6.8547773364
 30
0.0
  0
VERTEX
  5
473
330
270
100
AcDbEntity
  8
0
  6
CONTINUOUS
 62
     7
100
AcDbVertex
100
AcDb2dVertex
 10
7.4209581272
 20
6.8545546483
 30
0.0
  0
VERTEX
  5
474
330
270
100
AcDbEntity
  8
0
  6
CONTINUOUS
 62
     7
100
AcDbVertex
100
AcDb2dVertex
 10
7.4295508984
 20
6.8529487613
 30
0.0
  0
VERTEX
  5
475
330
270
100
AcDbEntity
  8
0
  6
CONTINUOUS
 62
     7
100
AcDbVertex
100
AcDb2dVertex
 10
7.4384269442
 20
6.8499822185
 30
0.0
  0
VERTEX
  5
476
330
270
100
AcDbEntity
  8
0
  6
CONTINUOUS
 62
     7
100
AcDbVertex
100
AcDb2dVertex
 10
7.4474616642
 20
6.8456966637
 30
0.0
  0
VERTEX
  5
477
330
270
100
AcDbEntity
  8
0
  6
CONTINUOUS
 62
     7
100
AcDbVertex
100
AcDb2dVertex
 10
7.4565282309
 20
6.8401522568
 30
0.0
  0
VERTEX
  5
478
330
270
100
AcDbEntity
  8
0
  6
CONTINUOUS
 62
     7
100
AcDbVertex
100
AcDb2dVertex
 10
7.4654993695
 20
6.8334268289
 30
0.0
  0
VERTEX
  5
479
330
270
100
AcDbEntity
  8
0
  6
CONTINUOUS
 62
     7
100
AcDbVertex
100
AcDb2dVertex
 10
7.4742491449
 20
6.8256147904
 30
0.0
  0
VERTEX
  5
47A
330
270
100
AcDbEntity
  8
0
  6
CONTINUOUS
 62
     7
100
AcDbVertex
100
AcDb2dVertex
 10
7.4826547294
 20
6.8168258052
 30
0.0
  0
VERTEX
  5
47B
330
270
100
AcDbEntity
  8
0
  6
CONTINUOUS
 62
     7
100
AcDbVertex
100
AcDb2dVertex
 10
7.4905981271
 20
6.8071832513
 30
0.0
  0
VERTEX
  5
47C
330
270
100
AcDbEntity
  8
0
  6
CONTINUOUS
 62
     7
100
AcDbVertex
100
AcDb2dVertex
 10
7.4979678301
 20
6.7968224891
 30
0.0
  0
VERTEX
  5
47D
330
270
100
AcDbEntity
  8
0
  6
CONTINUOUS
 62
     7
100
AcDbVertex
100
AcDb2dVertex
 10
7.5046603838
 20
6.7858889609
 30
0.0
  0
VERTEX
  5
47E
330
270
100
AcDbEntity
  8
0
  6
CONTINUOUS
 62
     7
100
AcDbVertex
100
AcDb2dVertex
 10
7.5105818396
 20
6.7745361497
 30
0.0
  0
VERTEX
  5
47F
330
270
100
AcDbEntity
  8
0
  6
CONTINUOUS
 62
     7
100
AcDbVertex
100
AcDb2dVertex
 10
7.5156490731
 20
6.7629234238
 30
0.0
  0
VERTEX
  5
480
330
270
100
AcDbEntity
  8
0
  6
CONTINUOUS
 62
     7
100
AcDbVertex
100
AcDb2dVertex
 10
7.5197909515
 20
6.7512138005
 30
0.0
  0
VERTEX
  5
481
330
270
100
AcDbEntity
  8
0
  6
CONTINUOUS
 62
     7
100
AcDbVertex
100
AcDb2dVertex
 10
7.5229493318
 20
6.7395716574
 30
0.0
  0
VERTEX
  5
482
330
270
100
AcDbEntity
  8
0
  6
CONTINUOUS
 62
     7
100
AcDbVertex
100
AcDb2dVertex
 10
7.5250798775
 20
6.7281604244
 30
0.0
  0
VERTEX
  5
483
330
270
100
AcDbEntity
  8
0
  6
CONTINUOUS
 62
     7
100
AcDbVertex
100
AcDb2dVertex
 10
7.5261526802
 20
6.7171402905
 30
0.0
  0
VERTEX
  5
484
330
270
100
AcDbEntity
  8
0
  6
CONTINUOUS
 62
     7
100
AcDbVertex
100
AcDb2dVertex
 10
7.5261526802
 20
6.706665954
 30
0.0
  0
VERTEX
  5
485
330
270
100
AcDbEntity
  8
0
  6
CONTINUOUS
 62
     7
100
AcDbVertex
100
AcDb2dVertex
 10
7.5250798775
 20
6.6968844517
 30
0.0
  0
VERTEX
  5
486
330
270
100
AcDbEntity
  8
0
  6
CONTINUOUS
 62
     7
100
AcDbVertex
100
AcDb2dVertex
 10
7.5229493318
 20
6.6879330944
 30
0.0
  0
VERTEX
  5
487
330
270
100
AcDbEntity
  8
0
  6
CONTINUOUS
 62
     7
100
AcDbVertex
100
AcDb2dVertex
 10
7.5197909515
 20
6.6799375396
 30
0.0
  0
VERTEX
  5
488
330
270
100
AcDbEntity
  8
0
  6
CONTINUOUS
 62
     7
100
AcDbVertex
100
AcDb2dVertex
 10
7.5156490731
 20
6.6730100274
 30
0.0
  0
VERTEX
  5
489
330
270
100
AcDbEntity
  8
0
  6
CONTINUOUS
 62
     7
100
AcDbVertex
100
AcDb2dVertex
 10
7.5105818396
 20
6.6672478048
 30
0.0
  0
VERTEX
  5
48A
330
270
100
AcDbEntity
  8
0
  6
CONTINUOUS
 62
     7
100
AcDbVertex
100
AcDb2dVertex
 10
7.5046603838
 20
6.6627317607
 30
0.0
  0
VERTEX
  5
48B
330
270
100
AcDbEntity
  8
0
  6
CONTINUOUS
 62
     7
100
AcDbVertex
100
AcDb2dVertex
 10
7.4979678301
 20
6.6595252907
 30
0.0
  0
VERTEX
  5
48C
330
270
100
AcDbEntity
  8
0
  6
CONTINUOUS
 62
     7
100
AcDbVertex
100
AcDb2dVertex
 10
7.4905981271
 20
6.6576734064
 30
0.0
  0
VERTEX
  5
48D
330
270
100
AcDbEntity
  8
0
  6
CONTINUOUS
 62
     7
100
AcDbVertex
100
AcDb2dVertex
 10
7.4826547294
 20
6.6572021043
 30
0.0
  0
VERTEX
  5
48E
330
270
100
AcDbEntity
  8
0
  6
CONTINUOUS
 62
     7
100
AcDbVertex
100
AcDb2dVertex
 10
7.4742491449
 20
6.6581180004
 30
0.0
  0
VERTEX
  5
48F
330
270
100
AcDbEntity
  8
0
  6
CONTINUOUS
 62
     7
100
AcDbVertex
100
AcDb2dVertex
 10
7.4654993695
 20
6.6604082376
 30
0.0
  0
VERTEX
  5
490
330
270
100
AcDbEntity
  8
0
  6
CONTINUOUS
 62
     7
100
AcDbVertex
100
AcDb2dVertex
 10
7.4565282309
 20
6.6640406658
 30
0.0
  0
VERTEX
  5
491
330
270
100
AcDbEntity
  8
0
  6
CONTINUOUS
 62
     7
100
AcDbVertex
100
AcDb2dVertex
 10
7.4474616642
 20
6.6689642939
 30
0.0
  0
VERTEX
  5
492
330
270
100
AcDbEntity
  8
0
  6
CONTINUOUS
 62
     7
100
AcDbVertex
100
AcDb2dVertex
 10
7.4384269442
 20
6.6751100049
 30
0.0
  0
VERTEX
  5
493
330
270
100
AcDbEntity
  8
0
  6
CONTINUOUS
 62
     7
100
AcDbVertex
100
AcDb2dVertex
 10
7.4295508984
 20
6.6823915264
 30
0.0
  0
VERTEX
  5
494
330
270
100
AcDbEntity
  8
0
  6
CONTINUOUS
 62
     7
100
AcDbVertex
100
AcDb2dVertex
 10
7.4209581272
 20
6.6907066418
 30
0.0
  0
VERTEX
  5
495
330
270
100
AcDbEntity
  8
0
  6
CONTINUOUS
 62
     7
100
AcDbVertex
100
AcDb2dVertex
 10
7.4127692543
 20
6.6999386252
 30
0.0
  0
VERTEX
  5
496
330
270
100
AcDbEntity
  8
0
  6
CONTINUOUS
 62
     7
100
AcDbVertex
100
AcDb2dVertex
 10
7.4050992333
 20
6.7099578797
 30
0.0
  0
VERTEX
  5
497
330
270
100
AcDbEntity
  8
0
  6
CONTINUOUS
 62
     7
100
AcDbVertex
100
AcDb2dVertex
 10
7.3980557347
 20
6.720623757
 30
0.0
  0
VERTEX
  5
498
330
270
100
AcDbEntity
  8
0
  6
CONTINUOUS
 62
     7
100
AcDbVertex
100
AcDb2dVertex
 10
7.3917376337
 20
6.7317865316
 30
0.0
  0
VERTEX
  5
499
330
270
100
AcDbEntity
  8
0
  6
CONTINUOUS
 62
     7
100
AcDbVertex
100
AcDb2dVertex
 10
7.3862336225
 20
6.7432895025
 30
0.0
  0
VERTEX
  5
49A
330
270
100
AcDbEntity
  8
0
  6
CONTINUOUS
 62
     7
100
AcDbVertex
100
AcDb2dVertex
 10
7.3816209655
 20
6.7549711932
 30
0.0
  0
VERTEX
  5
49B
330
270
100
AcDbEntity
  8
0
  6
CONTINUOUS
 62
     7
100
AcDbVertex
100
AcDb2dVertex
 10
7.3779644142
 20
6.7666676185
 30
0.0
  0
VERTEX
  5
49C
330
270
100
AcDbEntity
  8
0
  6
CONTINUOUS
 62
     7
100
AcDbVertex
100
AcDb2dVertex
 10
7.3753152987
 20
6.7782145861
 30
0.0
  0
VERTEX
  5
49D
330
270
100
AcDbEntity
  8
0
  6
CONTINUOUS
 62
     7
100
AcDbVertex
100
AcDb2dVertex
 10
7.3737108066
 20
6.7894500019
 30
0.0
  0
VERTEX
  5
49E
330
270
100
AcDbEntity
  8
0
  6
CONTINUOUS
 62
     7
100
AcDbVertex
100
AcDb2dVertex
 10
7.3731734615
 20
6.8002161454
 30
0.0
  0
SEQEND
  5
49F
330
270
100
AcDbEntity
  8
0
  6
CONTINUOUS
 62
     7
  0
ARC
  5
271
330
1F
100
AcDbEntity
  8
0
  6
CONTINUOUS
 62
     7
100
AcDbCircle
 10
7.5003712271
 20
6.7369616777
 30
0.0
 40
0.0853844074695292
100
AcDbArc
 50
239.220064366
 51
259.8918185349
  0
ARC
  5
272
330
1F
100
AcDbEntity
  8
0
  6
CONTINUOUS
 62
     7
100
AcDbCircle
 10
7.4065298401
 20
6.7634066879
 30
0.0
 40
0.1059646118759706
100
AcDbArc
 50
40.941731429
 51
78.3131062614
  0
ARC
  5
273
330
1F
100
AcDbEntity
  8
0
  6
CONTINUOUS
 62
     7
100
AcDbCircle
 10
7.4338857986
 20
6.8133557865
 30
0.0
 40
0.0609265131113611
100
AcDbArc
 50
126.5065850978
 51
184.8055952956
  0
LINE
  5
274
330
1F
100
AcDbEntity
  8
0
  6
CONTINUOUS
 62
     7
100
AcDbLine
 10
7.4079720235
 20
6.8079677209
 30
0.0
 11
7.449730298
 21
6.8117015399
 31
0.0
  0
LINE
  5
275
330
1F
100
AcDbEntity
  8
0
  6
CONTINUOUS
 62
     7
100
AcDbLine
 10
7.4079720235
 20
6.7522870054
 30
0.0
 11
7.4079720235
 21
6.8079677209
 31
0.0
  0
LINE
  5
276
330
1F
100
AcDbEntity
  8
0
  6
CONTINUOUS
 62
     7
100
AcDbLine
 10
7.449730298
 20
6.7003401089
 30
0.0
 11
7.4079720235
 21
6.7522870054
 31
0.0
  0
LINE
  5
277
330
1F
100
AcDbEntity
  8
0
  6
CONTINUOUS
 62
     7
100
AcDbLine
 10
7.4914885725
 20
6.7040739279
 30
0.0
 11
7.449730298
 21
6.7003401089
 31
0.0
  0
LINE
  5
278
330
1F
100
AcDbEntity
  8
0
  6
CONTINUOUS
 62
     7
100
AcDbLine
 10
7.4914885725
 20
6.7597546434
 30
0.0
 11
7.4914885725
 21
6.7040739279
 31
0.0
  0
LINE
  5
279
330
1F
100
AcDbEntity
  8
0
  6
CONTINUOUS
 62
     7
100
AcDbLine
 10
7.449730298
 20
6.8117015399
 30
0.0
 11
7.4914885725
 21
6.7597546434
 31
0.0
  0
LINE
  5
27A
330
1F
100
AcDbEntity
  8
0
  6
CONTINUOUS
 62
     7
100
AcDbLine
 10
7.4914885725
 20
6.7244466477
 30
0.0
 11
7.449730298
 21
6.7003401089
 31
0.0
  0
LINE
  5
27B
330
1F
100
AcDbEntity
  8
0
  6
CONTINUOUS
 62
     7
100
AcDbLine
 10
7.4691166804
 20
6.7875850645
 30
0.0
 11
7.4079720235
 21
6.7522870054
 31
0.0
  0
POLYLINE
  5
27C
330
1F
100
AcDbEntity
  8
0
  6
CONTINUOUS
 62
     7
100
AcDb2dPolyline
 66
     1
 10
0.0
 20
0.0
 30
0.0
  0
VERTEX
  5
4A0
330
27C
100
AcDbEntity
  8
0
  6
CONTINUOUS
 62
     7
100
AcDbVertex
100
AcDb2dVertex
 10
7.4807011694
 20
7.0150018861
 30
0.0
  0
VERTEX
  5
4A1
330
27C
100
AcDbEntity
  8
0
  6
CONTINUOUS
 62
     7
100
AcDbVertex
100
AcDb2dVertex
 10
7.490874314
 20
7.0435691569
 30
0.0
  0
VERTEX
  5
4A2
330
27C
100
AcDbEntity
  8
0
  6
CONTINUOUS
 62
     7
100
AcDbVertex
100
AcDb2dVertex
 10
7.5020110141
 20
7.072081194
 30
0.0
  0
VERTEX
  5
4A3
330
27C
100
AcDbEntity
  8
0
  6
CONTINUOUS
 62
     7
100
AcDbVertex
100
AcDb2dVertex
 10
7.5140837799
 20
7.1004676186
 30
0.0
  0
VERTEX
  5
4A4
330
27C
100
AcDbEntity
  8
0
  6
CONTINUOUS
 62
     7
100
AcDbVertex
100
AcDb2dVertex
 10
7.5270628112
 20
7.1286583621
 30
0.0
  0
VERTEX
  5
4A5
330
27C
100
AcDbEntity
  8
0
  6
CONTINUOUS
 62
     7
100
AcDbVertex
100
AcDb2dVertex
 10
7.5409160708
 20
7.1565838388
 30
0.0
  0
VERTEX
  5
4A6
330
27C
100
AcDbEntity
  8
0
  6
CONTINUOUS
 62
     7
100
AcDbVertex
100
AcDb2dVertex
 10
7.5556093633
 20
7.1841751177
 30
0.0
  0
VERTEX
  5
4A7
330
27C
100
AcDbEntity
  8
0
  6
CONTINUOUS
 62
     7
100
AcDbVertex
100
AcDb2dVertex
 10
7.5711064201
 20
7.2113640928
 30
0.0
  0
VERTEX
  5
4A8
330
27C
100
AcDbEntity
  8
0
  6
CONTINUOUS
 62
     7
100
AcDbVertex
100
AcDb2dVertex
 10
7.5873689884
 20
7.2380836512
 30
0.0
  0
VERTEX
  5
4A9
330
27C
100
AcDbEntity
  8
0
  6
CONTINUOUS
 62
     7
100
AcDbVertex
100
AcDb2dVertex
 10
7.6043569259
 20
7.2642678387
 30
0.0
  0
VERTEX
  5
4AA
330
27C
100
AcDbEntity
  8
0
  6
CONTINUOUS
 62
     7
100
AcDbVertex
100
AcDb2dVertex
 10
7.6220282996
 20
7.2898520224
 30
0.0
  0
VERTEX
  5
4AB
330
27C
100
AcDbEntity
  8
0
  6
CONTINUOUS
 62
     7
100
AcDbVertex
100
AcDb2dVertex
 10
7.6403394899
 20
7.3147730508
 30
0.0
  0
VERTEX
  5
4AC
330
27C
100
AcDbEntity
  8
0
  6
CONTINUOUS
 62
     7
100
AcDbVertex
100
AcDb2dVertex
 10
7.6592452976
 20
7.338969409
 30
0.0
  0
VERTEX
  5
4AD
330
27C
100
AcDbEntity
  8
0
  6
CONTINUOUS
 62
     7
100
AcDbVertex
100
AcDb2dVertex
 10
7.6786990559
 20
7.3623813711
 30
0.0
  0
VERTEX
  5
4AE
330
27C
100
AcDbEntity
  8
0
  6
CONTINUOUS
 62
     7
100
AcDbVertex
100
AcDb2dVertex
 10
7.6986527452
 20
7.3849511472
 30
0.0
  0
VERTEX
  5
4AF
330
27C
100
AcDbEntity
  8
0
  6
CONTINUOUS
 62
     7
100
AcDbVertex
100
AcDb2dVertex
 10
7.7190571121
 20
7.4066230263
 30
0.0
  0
VERTEX
  5
4B0
330
27C
100
AcDbEntity
  8
0
  6
CONTINUOUS
 62
     7
100
AcDbVertex
100
AcDb2dVertex
 10
7.7398617908
 20
7.4273435138
 30
0.0
  0
VERTEX
  5
4B1
330
27C
100
AcDbEntity
  8
0
  6
CONTINUOUS
 62
     7
100
AcDbVertex
100
AcDb2dVertex
 10
7.7610154272
 20
7.4470614636
 30
0.0
  0
VERTEX
  5
4B2
330
27C
100
AcDbEntity
  8
0
  6
CONTINUOUS
 62
     7
100
AcDbVertex
100
AcDb2dVertex
 10
7.782465806
 20
7.4657282041
 30
0.0
  0
VERTEX
  5
4B3
330
27C
100
AcDbEntity
  8
0
  6
CONTINUOUS
 62
     7
100
AcDbVertex
100
AcDb2dVertex
 10
7.8041599792
 20
7.4832976584
 30
0.0
  0
VERTEX
  5
4B4
330
27C
100
AcDbEntity
  8
0
  6
CONTINUOUS
 62
     7
100
AcDbVertex
100
AcDb2dVertex
 10
7.8260443972
 20
7.4997264585
 30
0.0
  0
VERTEX
  5
4B5
330
27C
100
AcDbEntity
  8
0
  6
CONTINUOUS
 62
     7
100
AcDbVertex
100
AcDb2dVertex
 10
7.8480650408
 20
7.5149740515
 30
0.0
  0
VERTEX
  5
4B6
330
27C
100
AcDbEntity
  8
0
  6
CONTINUOUS
 62
     7
100
AcDbVertex
100
AcDb2dVertex
 10
7.8701675545
 20
7.5290028006
 30
0.0
  0
VERTEX
  5
4B7
330
27C
100
AcDbEntity
  8
0
  6
CONTINUOUS
 62
     7
100
AcDbVertex
100
AcDb2dVertex
 10
7.8922973807
 20
7.5417780774
 30
0.0
  0
VERTEX
  5
4B8
330
27C
100
AcDbEntity
  8
0
  6
CONTINUOUS
 62
     7
100
AcDbVertex
100
AcDb2dVertex
 10
7.9143998945
 20
7.5532683474
 30
0.0
  0
VERTEX
  5
4B9
330
27C
100
AcDbEntity
  8
0
  6
CONTINUOUS
 62
     7
100
AcDbVertex
100
AcDb2dVertex
 10
7.9364205381
 20
7.5634452483
 30
0.0
  0
VERTEX
  5
4BA
330
27C
100
AcDbEntity
  8
0
  6
CONTINUOUS
 62
     7
100
AcDbVertex
100
AcDb2dVertex
 10
7.9583049561
 20
7.5722836595
 30
0.0
  0
VERTEX
  5
4BB
330
27C
100
AcDbEntity
  8
0
  6
CONTINUOUS
 62
     7
100
AcDbVertex
100
AcDb2dVertex
 10
7.9799991293
 20
7.5797617644
 30
0.0
  0
VERTEX
  5
4BC
330
27C
100
AcDbEntity
  8
0
  6
CONTINUOUS
 62
     7
100
AcDbVertex
100
AcDb2dVertex
 10
8.0014495081
 20
7.585861104
 30
0.0
  0
VERTEX
  5
4BD
330
27C
100
AcDbEntity
  8
0
  6
CONTINUOUS
 62
     7
100
AcDbVertex
100
AcDb2dVertex
 10
8.0226031445
 20
7.590566623
 30
0.0
  0
VERTEX
  5
4BE
330
27C
100
AcDbEntity
  8
0
  6
CONTINUOUS
 62
     7
100
AcDbVertex
100
AcDb2dVertex
 10
8.0434078232
 20
7.5938667062
 30
0.0
  0
VERTEX
  5
4BF
330
27C
100
AcDbEntity
  8
0
  6
CONTINUOUS
 62
     7
100
AcDbVertex
100
AcDb2dVertex
 10
8.0638121901
 20
7.5957532077
 30
0.0
  0
VERTEX
  5
4C0
330
27C
100
AcDbEntity
  8
0
  6
CONTINUOUS
 62
     7
100
AcDbVertex
100
AcDb2dVertex
 10
8.0837658794
 20
7.5962214709
 30
0.0
  0
VERTEX
  5
4C1
330
27C
100
AcDbEntity
  8
0
  6
CONTINUOUS
 62
     7
100
AcDbVertex
100
AcDb2dVertex
 10
8.1032196376
 20
7.59527034
 30
0.0
  0
VERTEX
  5
4C2
330
27C
100
AcDbEntity
  8
0
  6
CONTINUOUS
 62
     7
100
AcDbVertex
100
AcDb2dVertex
 10
8.1221254453
 20
7.5929021627
 30
0.0
  0
VERTEX
  5
4C3
330
27C
100
AcDbEntity
  8
0
  6
CONTINUOUS
 62
     7
100
AcDbVertex
100
AcDb2dVertex
 10
8.1404366356
 20
7.5891227847
 30
0.0
  0
VERTEX
  5
4C4
330
27C
100
AcDbEntity
  8
0
  6
CONTINUOUS
 62
     7
100
AcDbVertex
100
AcDb2dVertex
 10
8.1581080094
 20
7.5839415348
 30
0.0
  0
VERTEX
  5
4C5
330
27C
100
AcDbEntity
  8
0
  6
CONTINUOUS
 62
     7
100
AcDbVertex
100
AcDb2dVertex
 10
8.1750959469
 20
7.5773712024
 30
0.0
  0
VERTEX
  5
4C6
330
27C
100
AcDbEntity
  8
0
  6
CONTINUOUS
 62
     7
100
AcDbVertex
100
AcDb2dVertex
 10
8.1913585152
 20
7.5694280056
 30
0.0
  0
VERTEX
  5
4C7
330
27C
100
AcDbEntity
  8
0
  6
CONTINUOUS
 62
     7
100
AcDbVertex
100
AcDb2dVertex
 10
8.206855572
 20
7.5601315514
 30
0.0
  0
VERTEX
  5
4C8
330
27C
100
AcDbEntity
  8
0
  6
CONTINUOUS
 62
     7
100
AcDbVertex
100
AcDb2dVertex
 10
8.2097792723
 20
7.5581668979
 30
0.0
  0
SEQEND
  5
4C9
330
27C
100
AcDbEntity
  8
0
  6
CONTINUOUS
 62
     7
  0
LINE
  5
27D
330
1F
100
AcDbEntity
  8
0
  6
CONTINUOUS
 62
     7
100
AcDbLine
 10
7.4807011694
 20
7.0150018861
 30
0.0
 11
7.6616536922
 21
6.9105402183
 31
0.0
  0
POLYLINE
  5
27E
330
1F
100
AcDbEntity
  8
0
  6
CONTINUOUS
 62
     7
100
AcDb2dPolyline
 66
     1
 10
0.0
 20
0.0
 30
0.0
  0
VERTEX
  5
4CA
330
27E
100
AcDbEntity
  8
0
  6
CONTINUOUS
 62
     7
100
AcDbVertex
100
AcDb2dVertex
 10
7.6616536922
 20
6.9105402183
 30
0.0
  0
VERTEX
  5
4CB
330
27E
100
AcDbEntity
  8
0
  6
CONTINUOUS
 62
     7
100
AcDbVertex
100
AcDb2dVertex
 10
7.6523600889
 20
6.8816295056
 30
0.0
  0
VERTEX
  5
4CC
330
27E
100
AcDbEntity
  8
0
  6
CONTINUOUS
 62
     7
100
AcDbVertex
100
AcDb2dVertex
 10
7.6441036948
 20
6.85280763
 30
0.0
  0
VERTEX
  5
4CD
330
27E
100
AcDbEntity
  8
0
  6
CONTINUOUS
 62
     7
100
AcDbVertex
100
AcDb2dVertex
 10
7.6369054058
 20
6.8241475357
 30
0.0
  0
VERTEX
  5
4CE
330
27E
100
AcDbEntity
  8
0
  6
CONTINUOUS
 62
     7
100
AcDbVertex
100
AcDb2dVertex
 10
7.6307834396
 20
6.7957217574
 30
0.0
  0
VERTEX
  5
4CF
330
27E
100
AcDbEntity
  8
0
  6
CONTINUOUS
 62
     7
100
AcDbVertex
100
AcDb2dVertex
 10
7.6257532902
 20
6.7676022367
 30
0.0
  0
VERTEX
  5
4D0
330
27E
100
AcDbEntity
  8
0
  6
CONTINUOUS
 62
     7
100
AcDbVertex
100
AcDb2dVertex
 10
7.621827688
 20
6.7398601401
 30
0.0
  0
VERTEX
  5
4D1
330
27E
100
AcDbEntity
  8
0
  6
CONTINUOUS
 62
     7
100
AcDbVertex
100
AcDb2dVertex
 10
7.6190165684
 20
6.712565679
 30
0.0
  0
VERTEX
  5
4D2
330
27E
100
AcDbEntity
  8
0
  6
CONTINUOUS
 62
     7
100
AcDbVertex
100
AcDb2dVertex
 10
7.6173270457
 20
6.6857879319
 30
0.0
  0
VERTEX
  5
4D3
330
27E
100
AcDbEntity
  8
0
  6
CONTINUOUS
 62
     7
100
AcDbVertex
100
AcDb2dVertex
 10
7.6167633959
 20
6.6595946695
 30
0.0
  0
VERTEX
  5
4D4
330
27E
100
AcDbEntity
  8
0
  6
CONTINUOUS
 62
     7
100
AcDbVertex
100
AcDb2dVertex
 10
7.6173270457
 20
6.6340521831
 30
0.0
  0
VERTEX
  5
4D5
330
27E
100
AcDbEntity
  8
0
  6
CONTINUOUS
 62
     7
100
AcDbVertex
100
AcDb2dVertex
 10
7.6190165684
 20
6.6092251174
 30
0.0
  0
VERTEX
  5
4D6
330
27E
100
AcDbEntity
  8
0
  6
CONTINUOUS
 62
     7
100
AcDbVertex
100
AcDb2dVertex
 10
7.621827688
 20
6.585176306
 30
0.0
  0
VERTEX
  5
4D7
330
27E
100
AcDbEntity
  8
0
  6
CONTINUOUS
 62
     7
100
AcDbVertex
100
AcDb2dVertex
 10
7.6257532902
 20
6.5619666132
 30
0.0
  0
VERTEX
  5
4D8
330
27E
100
AcDbEntity
  8
0
  6
CONTINUOUS
 62
     7
100
AcDbVertex
100
AcDb2dVertex
 10
7.6307834396
 20
6.5396547794
 30
0.0
  0
VERTEX
  5
4D9
330
27E
100
AcDbEntity
  8
0
  6
CONTINUOUS
 62
     7
100
AcDbVertex
100
AcDb2dVertex
 10
7.6369054058
 20
6.5182972728
 30
0.0
  0
VERTEX
  5
4DA
330
27E
100
AcDbEntity
  8
0
  6
CONTINUOUS
 62
     7
100
AcDbVertex
100
AcDb2dVertex
 10
7.6441036948
 20
6.4979481461
 30
0.0
  0
VERTEX
  5
4DB
330
27E
100
AcDbEntity
  8
0
  6
CONTINUOUS
 62
     7
100
AcDbVertex
100
AcDb2dVertex
 10
7.6523600889
 20
6.4786589002
 30
0.0
  0
VERTEX
  5
4DC
330
27E
100
AcDbEntity
  8
0
  6
CONTINUOUS
 62
     7
100
AcDbVertex
100
AcDb2dVertex
 10
7.6616536922
 20
6.4604783535
 30
0.0
  0
SEQEND
  5
4DD
330
27E
100
AcDbEntity
  8
0
  6
CONTINUOUS
 62
     7
  0
LINE
  5
27F
330
1F
100
AcDbEntity
  8
0
  6
CONTINUOUS
 62
     7
100
AcDbLine
 10
7.6616536922
 20
6.4604783535
 30
0.0
 11
7.4807011694
 21
6.5649400213
 31
0.0
  0
ARC
  5
280
330
1F
100
AcDbEntity
  8
0
  6
CONTINUOUS
 62
     7
100
AcDbCircle
 10
7.6807084074
 20
6.671339366
 30
0.0
 40
0.2265473809238396
100
AcDbArc
 50
208.0119713595
 51
243.7543565357
  0
SPLINE
  5
281
330
1F
100
AcDbEntity
  8
0
  6
CONTINUOUS
 62
     7
100
AcDbSpline
210
0.0
220
0.0
230
1.0
 70
     8
 71
     3
 72
    15
 73
    11
 74
     0
 42
0.00000001
 43
0.00000001
 40
0.0
 40
0.0
 40
0.0
 40
0.0
 40
0.1290077858088187
 40
0.2617964031632322
 40
0.3907931455182462
 40
0.5234565401129486
 40
0.6538295918385771
 40
0.7879219523540755
 40
0.9192537487457353
 40
1.0
 40
1.0
 40
1.0
 40
1.0
 10
7.533246846981017
 20
6.707807746928752
 30
0.0
 10
7.533069355771888
 20
6.702665125049562
 30
0.0
 10
7.532709171618259
 20
6.692229166457143
 30
0.0
 10
7.52979696094713
 20
6.679088496435733
 30
0.0
 10
7.525140736652618
 20
6.668089832634755
 30
0.0
 10
7.51868718642639
 20
6.659801857937644
 30
0.0
 10
7.51043918702848
 20
6.6541815028964
 30
0.0
 10
7.500538185895306
 20
6.651614014827655
 30
0.0
 10
7.490751098024896
 20
6.651522662400406
 30
0.0
 10
7.483919125876853
 20
6.65345757392241
 30
0.0
 10
7.481317931902504
 20
6.654194268991253
 30
0.0
  0
POLYLINE
  5
282
330
1F
100
AcDbEntity
  8
0
  6
CONTINUOUS
 62
     7
100
AcDb2dPolyline
 66
     1
 10
0.0
 20
0.0
 30
0.0
  0
VERTEX
  5
4DE
330
282
100
AcDbEntity
  8
0
  6
CONTINUOUS
 62
     7
100
AcDbVertex
100
AcDb2dVertex
 10
7.4080521344
 20
6.7066452611
 30
0.0
  0
VERTEX
  5
4DF
330
282
100
AcDbEntity
  8
0
  6
CONTINUOUS
 62
     7
100
AcDbVertex
100
AcDb2dVertex
 10
7.4077017791
 20
6.7070248919
 30
0.0
  0
VERTEX
  5
4E0
330
282
100
AcDbEntity
  8
0
  6
CONTINUOUS
 62
     7
100
AcDbVertex
100
AcDb2dVertex
 10
7.3955362605
 20
6.7228436068
 30
0.0
  0
VERTEX
  5
4E1
330
282
100
AcDbEntity
  8
0
  6
CONTINUOUS
 62
     7
100
AcDbVertex
100
AcDb2dVertex
 10
7.3851308473
 20
6.7394496746
 30
0.0
  0
VERTEX
  5
4E2
330
282
100
AcDbEntity
  8
0
  6
CONTINUOUS
 62
     7
100
AcDbVertex
100
AcDb2dVertex
 10
7.3765023581
 20
6.7571519305
 30
0.0
  0
VERTEX
  5
4E3
330
282
100
AcDbEntity
  8
0
  6
CONTINUOUS
 62
     7
100
AcDbVertex
100
AcDb2dVertex
 10
7.3704698848
 20
6.7745445886
 30
0.0
  0
VERTEX
  5
4E4
330
282
100
AcDbEntity
  8
0
  6
CONTINUOUS
 62
     7
100
AcDbVertex
100
AcDb2dVertex
 10
7.3669551346
 20
6.7921670459
 30
0.0
  0
VERTEX
  5
4E5
330
282
100
AcDbEntity
  8
0
  6
CONTINUOUS
 62
     7
100
AcDbVertex
100
AcDb2dVertex
 10
7.3663028773
 20
6.8082866105
 30
0.0
  0
VERTEX
  5
4E6
330
282
100
AcDbEntity
  8
0
  6
CONTINUOUS
 62
     7
100
AcDbVertex
100
AcDb2dVertex
 10
7.3684305496
 20
6.8236485754
 30
0.0
  0
VERTEX
  5
4E7
330
282
100
AcDbEntity
  8
0
  6
CONTINUOUS
 62
     7
100
AcDbVertex
100
AcDb2dVertex
 10
7.3730828121
 20
6.836843108
 30
0.0
  0
VERTEX
  5
4E8
330
282
100
AcDbEntity
  8
0
  6
CONTINUOUS
 62
     7
100
AcDbVertex
100
AcDb2dVertex
 10
7.3803299652
 20
6.8483507248
 30
0.0
  0
VERTEX
  5
4E9
330
282
100
AcDbEntity
  8
0
  6
CONTINUOUS
 62
     7
100
AcDbVertex
100
AcDb2dVertex
 10
7.3896039322
 20
6.857278797
 30
0.0
  0
VERTEX
  5
4EA
330
282
100
AcDbEntity
  8
0
  6
CONTINUOUS
 62
     7
100
AcDbVertex
100
AcDb2dVertex
 10
7.4009950495
 20
6.8636909583
 30
0.0
  0
VERTEX
  5
4EB
330
282
100
AcDbEntity
  8
0
  6
CONTINUOUS
 62
     7
100
AcDbVertex
100
AcDb2dVertex
 10
7.4136400458
 20
6.8670284369
 30
0.0
  0
VERTEX
  5
4EC
330
282
100
AcDbEntity
  8
0
  6
CONTINUOUS
 62
     7
100
AcDbVertex
100
AcDb2dVertex
 10
7.4276640917
 20
6.8672099635
 30
0.0
  0
VERTEX
  5
4ED
330
282
100
AcDbEntity
  8
0
  6
CONTINUOUS
 62
     7
100
AcDbVertex
100
AcDb2dVertex
 10
7.4417214938
 20
6.8641808063
 30
0.0
  0
VERTEX
  5
4EE
330
282
100
AcDbEntity
  8
0
  6
CONTINUOUS
 62
     7
100
AcDbVertex
100
AcDb2dVertex
 10
7.456237901
 20
6.8578108205
 30
0.0
  0
VERTEX
  5
4EF
330
282
100
AcDbEntity
  8
0
  6
CONTINUOUS
 62
     7
100
AcDbVertex
100
AcDb2dVertex
 10
7.4697228984
 20
6.8487979597
 30
0.0
  0
VERTEX
  5
4F0
330
282
100
AcDbEntity
  8
0
  6
CONTINUOUS
 62
     7
100
AcDbVertex
100
AcDb2dVertex
 10
7.4828202367
 20
6.8368153896
 30
0.0
  0
VERTEX
  5
4F1
330
282
100
AcDbEntity
  8
0
  6
CONTINUOUS
 62
     7
100
AcDbVertex
100
AcDb2dVertex
 10
7.4944668366
 20
6.8229258792
 30
0.0
  0
VERTEX
  5
4F2
330
282
100
AcDbEntity
  8
0
  6
CONTINUOUS
 62
     7
100
AcDbVertex
100
AcDb2dVertex
 10
7.5051069516
 20
6.8067677075
 30
0.0
  0
VERTEX
  5
4F3
330
282
100
AcDbEntity
  8
0
  6
CONTINUOUS
 62
     7
100
AcDbVertex
100
AcDb2dVertex
 10
7.5141018296
 20
6.7894433984
 30
0.0
  0
VERTEX
  5
4F4
330
282
100
AcDbEntity
  8
0
  6
CONTINUOUS
 62
     7
100
AcDbVertex
100
AcDb2dVertex
 10
7.5216519462
 20
6.7707504116
 30
0.0
  0
VERTEX
  5
4F5
330
282
100
AcDbEntity
  8
0
  6
CONTINUOUS
 62
     7
100
AcDbVertex
100
AcDb2dVertex
 10
7.5272781339
 20
6.7521306587
 30
0.0
  0
VERTEX
  5
4F6
330
282
100
AcDbEntity
  8
0
  6
CONTINUOUS
 62
     7
100
AcDbVertex
100
AcDb2dVertex
 10
7.5311605866
 20
6.7332483831
 30
0.0
  0
VERTEX
  5
4F7
330
282
100
AcDbEntity
  8
0
  6
CONTINUOUS
 62
     7
100
AcDbVertex
100
AcDb2dVertex
 10
7.5327159803
 20
6.7202897176
 30
0.0
  0
VERTEX
  5
4F8
330
282
100
AcDbEntity
  8
0
  6
CONTINUOUS
 62
     7
100
AcDbVertex
100
AcDb2dVertex
 10
7.533246847
 20
6.7078077469
 30
0.0
  0
VERTEX
  5
4F9
330
282
100
AcDbEntity
  8
0
  6
CONTINUOUS
 62
     7
100
AcDbVertex
100
AcDb2dVertex
 10
7.533246847
 20
6.7078077469
 30
0.0
  0
SEQEND
  5
4FA
330
282
100
AcDbEntity
  8
0
  6
CONTINUOUS
 62
     7
  0
POLYLINE
  5
283
330
1F
100
AcDbEntity
  8
0
  6
CONTINUOUS
 62
     7
100
AcDb2dPolyline
 66
     1
 10
0.0
 20
0.0
 30
0.0
  0
VERTEX
  5
4FB
330
283
100
AcDbEntity
  8
0
  6
CONTINUOUS
 62
     7
100
AcDbVertex
100
AcDb2dVertex
 10
7.2826972001
 20
6.8524469793
 30
0.0
  0
VERTEX
  5
4FC
330
283
100
AcDbEntity
  8
0
  6
CONTINUOUS
 62
     7
100
AcDbVertex
100
AcDb2dVertex
 10
7.2832337299
 20
6.8275184383
 30
0.0
  0
VERTEX
  5
4FD
330
283
100
AcDbEntity
  8
0
  6
CONTINUOUS
 62
     7
100
AcDbVertex
100
AcDb2dVertex
 10
7.2848420268
 20
6.8032694164
 30
0.0
  0
VERTEX
  5
4FE
330
283
100
AcDbEntity
  8
0
  6
CONTINUOUS
 62
     7
100
AcDbVertex
100
AcDb2dVertex
 10
7.2875182163
 20
6.7797583316
 30
0.0
  0
VERTEX
  5
4FF
330
283
100
AcDbEntity
  8
0
  6
CONTINUOUS
 62
     7
100
AcDbVertex
100
AcDb2dVertex
 10
7.2912558511
 20
6.7570418244
 30
0.0
  0
VERTEX
  5
500
330
283
100
AcDbEntity
  8
0
  6
CONTINUOUS
 62
     7
100
AcDbVertex
100
AcDb2dVertex
 10
7.2960459271
 20
6.7351746207
 30
0.0
  0
VERTEX
  5
501
330
283
100
AcDbEntity
  8
0
  6
CONTINUOUS
 62
     7
100
AcDbVertex
100
AcDb2dVertex
 10
7.3018769044
 20
6.7142094005
 30
0.0
  0
VERTEX
  5
502
330
283
100
AcDbEntity
  8
0
  6
CONTINUOUS
 62
     7
100
AcDbVertex
100
AcDb2dVertex
 10
7.3087347358
 20
6.6941966709
 30
0.0
  0
VERTEX
  5
503
330
283
100
AcDbEntity
  8
0
  6
CONTINUOUS
 62
     7
100
AcDbVertex
100
AcDb2dVertex
 10
7.3166029001
 20
6.6751846442
 30
0.0
  0
VERTEX
  5
504
330
283
100
AcDbEntity
  8
0
  6
CONTINUOUS
 62
     7
100
AcDbVertex
100
AcDb2dVertex
 10
7.3254624422
 20
6.6572191222
 30
0.0
  0
VERTEX
  5
505
330
283
100
AcDbEntity
  8
0
  6
CONTINUOUS
 62
     7
100
AcDbVertex
100
AcDb2dVertex
 10
7.3352920188
 20
6.6403433854
 30
0.0
  0
VERTEX
  5
506
330
283
100
AcDbEntity
  8
0
  6
CONTINUOUS
 62
     7
100
AcDbVertex
100
AcDb2dVertex
 10
7.3460679495
 20
6.6245980888
 30
0.0
  0
VERTEX
  5
507
330
283
100
AcDbEntity
  8
0
  6
CONTINUOUS
 62
     7
100
AcDbVertex
100
AcDb2dVertex
 10
7.3577642741
 20
6.6100211643
 30
0.0
  0
VERTEX
  5
508
330
283
100
AcDbEntity
  8
0
  6
CONTINUOUS
 62
     7
100
AcDbVertex
100
AcDb2dVertex
 10
7.3703528152
 20
6.596647729
 30
0.0
  0
VERTEX
  5
509
330
283
100
AcDbEntity
  8
0
  6
CONTINUOUS
 62
     7
100
AcDbVertex
100
AcDb2dVertex
 10
7.3838032459
 20
6.5845100006
 30
0.0
  0
VERTEX
  5
50A
330
283
100
AcDbEntity
  8
0
  6
CONTINUOUS
 62
     7
100
AcDbVertex
100
AcDb2dVertex
 10
7.3980831629
 20
6.57363722
 30
0.0
  0
VERTEX
  5
50B
330
283
100
AcDbEntity
  8
0
  6
CONTINUOUS
 62
     7
100
AcDbVertex
100
AcDb2dVertex
 10
7.4131581646
 20
6.5640555807
 30
0.0
  0
VERTEX
  5
50C
330
283
100
AcDbEntity
  8
0
  6
CONTINUOUS
 62
     7
100
AcDbVertex
100
AcDb2dVertex
 10
7.4131837607
 20
6.564040802
 30
0.0
  0
SEQEND
  5
50D
330
283
100
AcDbEntity
  8
0
  6
CONTINUOUS
 62
     7
  0
POLYLINE
  5
284
330
1F
100
AcDbEntity
  8
0
  6
CONTINUOUS
 62
     7
100
AcDb2dPolyline
 66
     1
 10
0.0
 20
0.0
 30
0.0
  0
VERTEX
  5
50E
330
284
100
AcDbEntity
  8
0
  6
CONTINUOUS
 62
     7
100
AcDbVertex
100
AcDb2dVertex
 10
8.0430538285
 20
7.655125983
 30
0.0
  0
VERTEX
  5
50F
330
284
100
AcDbEntity
  8
0
  6
CONTINUOUS
 62
     7
100
AcDbVertex
100
AcDb2dVertex
 10
8.027245655
 20
7.6633786194
 30
0.0
  0
VERTEX
  5
510
330
284
100
AcDbEntity
  8
0
  6
CONTINUOUS
 62
     7
100
AcDbVertex
100
AcDb2dVertex
 10
8.0106912627
 20
7.6703118932
 30
0.0
  0
VERTEX
  5
511
330
284
100
AcDbEntity
  8
0
  6
CONTINUOUS
 62
     7
100
AcDbVertex
100
AcDb2dVertex
 10
7.9934561286
 20
7.6758943229
 30
0.0
  0
VERTEX
  5
512
330
284
100
AcDbEntity
  8
0
  6
CONTINUOUS
 62
     7
100
AcDbVertex
100
AcDb2dVertex
 10
7.9755817736
 20
7.6801124601
 30
0.0
  0
VERTEX
  5
513
330
284
100
AcDbEntity
  8
0
  6
CONTINUOUS
 62
     7
100
AcDbVertex
100
AcDb2dVertex
 10
7.9571112586
 20
7.6829561427
 30
0.0
  0
VERTEX
  5
514
330
284
100
AcDbEntity
  8
0
  6
CONTINUOUS
 62
     7
100
AcDbVertex
100
AcDb2dVertex
 10
7.9380890807
 20
7.6844185201
 30
0.0
  0
VERTEX
  5
515
330
284
100
AcDbEntity
  8
0
  6
CONTINUOUS
 62
     7
100
AcDbVertex
100
AcDb2dVertex
 10
7.918561066
 20
7.6844960694
 30
0.0
  0
VERTEX
  5
516
330
284
100
AcDbEntity
  8
0
  6
CONTINUOUS
 62
     7
100
AcDbVertex
100
AcDb2dVertex
 10
7.8985742592
 20
7.6831886037
 30
0.0
  0
VERTEX
  5
517
330
284
100
AcDbEntity
  8
0
  6
CONTINUOUS
 62
     7
100
AcDbVertex
100
AcDb2dVertex
 10
7.8781768102
 20
7.6804992728
 30
0.0
  0
VERTEX
  5
518
330
284
100
AcDbEntity
  8
0
  6
CONTINUOUS
 62
     7
100
AcDbVertex
100
AcDb2dVertex
 10
7.8574178583
 20
7.6764345555
 30
0.0
  0
VERTEX
  5
519
330
284
100
AcDbEntity
  8
0
  6
CONTINUOUS
 62
     7
100
AcDbVertex
100
AcDb2dVertex
 10
7.8363474137
 20
7.6710042442
 30
0.0
  0
VERTEX
  5
51A
330
284
100
AcDbEntity
  8
0
  6
CONTINUOUS
 62
     7
100
AcDbVertex
100
AcDb2dVertex
 10
7.8150162368
 20
7.6642214208
 30
0.0
  0
VERTEX
  5
51B
330
284
100
AcDbEntity
  8
0
  6
CONTINUOUS
 62
     7
100
AcDbVertex
100
AcDb2dVertex
 10
7.7934757164
 20
7.6561024258
 30
0.0
  0
VERTEX
  5
51C
330
284
100
AcDbEntity
  8
0
  6
CONTINUOUS
 62
     7
100
AcDbVertex
100
AcDb2dVertex
 10
7.7717777455
 20
7.6466668186
 30
0.0
  0
VERTEX
  5
51D
330
284
100
AcDbEntity
  8
0
  6
CONTINUOUS
 62
     7
100
AcDbVertex
100
AcDb2dVertex
 10
7.7499745963
 20
7.6359373304
 30
0.0
  0
VERTEX
  5
51E
330
284
100
AcDbEntity
  8
0
  6
CONTINUOUS
 62
     7
100
AcDbVertex
100
AcDb2dVertex
 10
7.7281187946
 20
7.6239398094
 30
0.0
  0
VERTEX
  5
51F
330
284
100
AcDbEntity
  8
0
  6
CONTINUOUS
 62
     7
100
AcDbVertex
100
AcDb2dVertex
 10
7.7062629928
 20
7.6107031588
 30
0.0
  0
VERTEX
  5
520
330
284
100
AcDbEntity
  8
0
  6
CONTINUOUS
 62
     7
100
AcDbVertex
100
AcDb2dVertex
 10
7.6844598436
 20
7.5962592668
 30
0.0
  0
VERTEX
  5
521
330
284
100
AcDbEntity
  8
0
  6
CONTINUOUS
 62
     7
100
AcDbVertex
100
AcDb2dVertex
 10
7.6627618727
 20
7.58064293
 30
0.0
  0
VERTEX
  5
522
330
284
100
AcDbEntity
  8
0
  6
CONTINUOUS
 62
     7
100
AcDbVertex
100
AcDb2dVertex
 10
7.6412213523
 20
7.5638917695
 30
0.0
  0
VERTEX
  5
523
330
284
100
AcDbEntity
  8
0
  6
CONTINUOUS
 62
     7
100
AcDbVertex
100
AcDb2dVertex
 10
7.6198901754
 20
7.5460461403
 30
0.0
  0
VERTEX
  5
524
330
284
100
AcDbEntity
  8
0
  6
CONTINUOUS
 62
     7
100
AcDbVertex
100
AcDb2dVertex
 10
7.5988197308
 20
7.5271490341
 30
0.0
  0
VERTEX
  5
525
330
284
100
AcDbEntity
  8
0
  6
CONTINUOUS
 62
     7
100
AcDbVertex
100
AcDb2dVertex
 10
7.5780607789
 20
7.5072459757
 30
0.0
  0
VERTEX
  5
526
330
284
100
AcDbEntity
  8
0
  6
CONTINUOUS
 62
     7
100
AcDbVertex
100
AcDb2dVertex
 10
7.5576633299
 20
7.4863849134
 30
0.0
  0
VERTEX
  5
527
330
284
100
AcDbEntity
  8
0
  6
CONTINUOUS
 62
     7
100
AcDbVertex
100
AcDb2dVertex
 10
7.5376765231
 20
7.4646161031
 30
0.0
  0
VERTEX
  5
528
330
284
100
AcDbEntity
  8
0
  6
CONTINUOUS
 62
     7
100
AcDbVertex
100
AcDb2dVertex
 10
7.5181485084
 20
7.441991988
 30
0.0
  0
VERTEX
  5
529
330
284
100
AcDbEntity
  8
0
  6
CONTINUOUS
 62
     7
100
AcDbVertex
100
AcDb2dVertex
 10
7.4991263305
 20
7.4185670714
 30
0.0
  0
VERTEX
  5
52A
330
284
100
AcDbEntity
  8
0
  6
CONTINUOUS
 62
     7
100
AcDbVertex
100
AcDb2dVertex
 10
7.4806558155
 20
7.3943977861
 30
0.0
  0
VERTEX
  5
52B
330
284
100
AcDbEntity
  8
0
  6
CONTINUOUS
 62
     7
100
AcDbVertex
100
AcDb2dVertex
 10
7.4627814605
 20
7.369542358
 30
0.0
  0
VERTEX
  5
52C
330
284
100
AcDbEntity
  8
0
  6
CONTINUOUS
 62
     7
100
AcDbVertex
100
AcDb2dVertex
 10
7.4455463264
 20
7.3440606659
 30
0.0
  0
VERTEX
  5
52D
330
284
100
AcDbEntity
  8
0
  6
CONTINUOUS
 62
     7
100
AcDbVertex
100
AcDb2dVertex
 10
7.4289919341
 20
7.3180140976
 30
0.0
  0
VERTEX
  5
52E
330
284
100
AcDbEntity
  8
0
  6
CONTINUOUS
 62
     7
100
AcDbVertex
100
AcDb2dVertex
 10
7.4131581646
 20
7.2914654014
 30
0.0
  0
VERTEX
  5
52F
330
284
100
AcDbEntity
  8
0
  6
CONTINUOUS
 62
     7
100
AcDbVertex
100
AcDb2dVertex
 10
7.3980831629
 20
7.2644785356
 30
0.0
  0
VERTEX
  5
530
330
284
100
AcDbEntity
  8
0
  6
CONTINUOUS
 62
     7
100
AcDbVertex
100
AcDb2dVertex
 10
7.3838032459
 20
7.2371185138
 30
0.0
  0
VERTEX
  5
531
330
284
100
AcDbEntity
  8
0
  6
CONTINUOUS
 62
     7
100
AcDbVertex
100
AcDb2dVertex
 10
7.3703528152
 20
7.2094512487
 30
0.0
  0
VERTEX
  5
532
330
284
100
AcDbEntity
  8
0
  6
CONTINUOUS
 62
     7
100
AcDbVertex
100
AcDb2dVertex
 10
7.3577642741
 20
7.1815433932
 30
0.0
  0
VERTEX
  5
533
330
284
100
AcDbEntity
  8
0
  6
CONTINUOUS
 62
     7
100
AcDbVertex
100
AcDb2dVertex
 10
7.3460679495
 20
7.1534621797
 30
0.0
  0
VERTEX
  5
534
330
284
100
AcDbEntity
  8
0
  6
CONTINUOUS
 62
     7
100
AcDbVertex
100
AcDb2dVertex
 10
7.3352920188
 20
7.1252752584
 30
0.0
  0
VERTEX
  5
535
330
284
100
AcDbEntity
  8
0
  6
CONTINUOUS
 62
     7
100
AcDbVertex
100
AcDb2dVertex
 10
7.3254624422
 20
7.097050534
 30
0.0
  0
VERTEX
  5
536
330
284
100
AcDbEntity
  8
0
  6
CONTINUOUS
 62
     7
100
AcDbVertex
100
AcDb2dVertex
 10
7.3166029001
 20
7.0688560024
 30
0.0
  0
VERTEX
  5
537
330
284
100
AcDbEntity
  8
0
  6
CONTINUOUS
 62
     7
100
AcDbVertex
100
AcDb2dVertex
 10
7.3087347358
 20
7.0407595866
 30
0.0
  0
VERTEX
  5
538
330
284
100
AcDbEntity
  8
0
  6
CONTINUOUS
 62
     7
100
AcDbVertex
100
AcDb2dVertex
 10
7.3018769044
 20
7.0128289734
 30
0.0
  0
VERTEX
  5
539
330
284
100
AcDbEntity
  8
0
  6
CONTINUOUS
 62
     7
100
AcDbVertex
100
AcDb2dVertex
 10
7.2960459271
 20
6.9851314501
 30
0.0
  0
VERTEX
  5
53A
330
284
100
AcDbEntity
  8
0
  6
CONTINUOUS
 62
     7
100
AcDbVertex
100
AcDb2dVertex
 10
7.2912558511
 20
6.9577337424
 30
0.0
  0
VERTEX
  5
53B
330
284
100
AcDbEntity
  8
0
  6
CONTINUOUS
 62
     7
100
AcDbVertex
100
AcDb2dVertex
 10
7.2875182163
 20
6.9307018538
 30
0.0
  0
VERTEX
  5
53C
330
284
100
AcDbEntity
  8
0
  6
CONTINUOUS
 62
     7
100
AcDbVertex
100
AcDb2dVertex
 10
7.2848420268
 20
6.9041009065
 30
0.0
  0
VERTEX
  5
53D
330
284
100
AcDbEntity
  8
0
  6
CONTINUOUS
 62
     7
100
AcDbVertex
100
AcDb2dVertex
 10
7.2832337299
 20
6.8779949846
 30
0.0
  0
VERTEX
  5
53E
330
284
100
AcDbEntity
  8
0
  6
CONTINUOUS
 62
     7
100
AcDbVertex
100
AcDb2dVertex
 10
7.2826972001
 20
6.8524469793
 30
0.0
  0
SEQEND
  5
53F
330
284
100
AcDbEntity
  8
0
  6
CONTINUOUS
 62
     7
  0
ARC
  5
285
330
1F
100
AcDbEntity
  8
0
  6
CONTINUOUS
 62
     7
100
AcDbCircle
 10
8.4045122662
 20
6.7183726023
 30
0.0
 40
0.9425556417958575
100
AcDbArc
 50
122.7161782959
 51
161.5969581754
  0
SPLINE
  5
286
330
1F
100
AcDbEntity
  8
0
  6
CONTINUOUS
 62
     7
100
AcDbSpline
210
0.0
220
0.0
230
1.0
 70
     8
 71
     3
 72
     8
 73
     4
 74
     0
 42
0.00000001
 43
0.00000001
 40
0.0
 40
0.0
 40
0.0
 40
0.0
 40
0.000749374772851
 40
0.000749374772851
 40
0.000749374772851
 40
0.000749374772851
 10
7.510159624446429
 20
7.015936864402526
 30
0.0
 10
7.500341226180345
 20
7.015613996295011
 30
0.0
 10
7.490521667129931
 20
7.015302723718086
 30
0.0
 10
7.480701169427641
 20
7.015001886126437
 30
0.0
  0
LINE
  5
287
330
1F
100
AcDbEntity
  8
0
  6
CONTINUOUS
 62
     7
100
AcDbLine
 10
7.675573117
 20
6.9185757312
 30
0.0
 11
7.6616536922
 21
6.9105402183
 31
0.0
  0
LINE
  5
288
330
1F
100
AcDbEntity
  8
0
  6
CONTINUOUS
 62
     7
100
AcDbLine
 10
7.6690961074
 20
6.4647747683
 30
0.0
 11
7.6616536922
 21
6.4604783535
 31
0.0
  0
ARC
  5
289
330
1F
100
AcDbEntity
  8
0
  6
CONTINUOUS
 62
     7
100
AcDbCircle
 10
8.2190496231
 20
6.8261750577
 30
0.0
 40
0.9373093327874213
100
AcDbArc
 50
122.5945944533
 51
177.4107820794
  0
LINE
  5
28A
330
1F
100
AcDbEntity
  8
0
  6
CONTINUOUS
 62
     7
100
AcDbLine
 10
8.4780828695
 20
7.3711324749
 30
0.0
 11
8.6451159674
 21
7.2747063199
 31
0.0
  0
POLYLINE
  5
28B
330
1F
100
AcDbEntity
  8
0
  6
CONTINUOUS
 62
     7
100
AcDb2dPolyline
 66
     1
 10
0.0
 20
0.0
 30
0.0
  0
VERTEX
  5
540
330
28B
100
AcDbEntity
  8
0
  6
CONTINUOUS
 62
     7
100
AcDbVertex
100
AcDb2dVertex
 10
8.0668310784
 20
7.1355014536
 30
0.0
  0
VERTEX
  5
541
330
28B
100
AcDbEntity
  8
0
  6
CONTINUOUS
 62
     7
100
AcDbVertex
100
AcDb2dVertex
 10
8.0870793312
 20
7.1585097453
 30
0.0
  0
VERTEX
  5
542
330
28B
100
AcDbEntity
  8
0
  6
CONTINUOUS
 62
     7
100
AcDbVertex
100
AcDb2dVertex
 10
8.1077966641
 20
7.1805938618
 30
0.0
  0
VERTEX
  5
543
330
28B
100
AcDbEntity
  8
0
  6
CONTINUOUS
 62
     7
100
AcDbVertex
100
AcDb2dVertex
 10
8.1289302319
 20
7.2016974717
 30
0.0
  0
VERTEX
  5
544
330
28B
100
AcDbEntity
  8
0
  6
CONTINUOUS
 62
     7
100
AcDbVertex
100
AcDb2dVertex
 10
8.1504261276
 20
7.2217667443
 30
0.0
  0
VERTEX
  5
545
330
28B
100
AcDbEntity
  8
0
  6
CONTINUOUS
 62
     7
100
AcDbVertex
100
AcDb2dVertex
 10
8.1722295198
 20
7.2407504873
 30
0.0
  0
VERTEX
  5
546
330
28B
100
AcDbEntity
  8
0
  6
CONTINUOUS
 62
     7
100
AcDbVertex
100
AcDb2dVertex
 10
8.1942847932
 20
7.2586002776
 30
0.0
  0
VERTEX
  5
547
330
28B
100
AcDbEntity
  8
0
  6
CONTINUOUS
 62
     7
100
AcDbVertex
100
AcDb2dVertex
 10
8.2165356895
 20
7.2752705842
 30
0.0
  0
VERTEX
  5
548
330
28B
100
AcDbEntity
  8
0
  6
CONTINUOUS
 62
     7
100
AcDbVertex
100
AcDb2dVertex
 10
8.2389254519
 20
7.290718885
 30
0.0
  0
VERTEX
  5
549
330
28B
100
AcDbEntity
  8
0
  6
CONTINUOUS
 62
     7
100
AcDbVertex
100
AcDb2dVertex
 10
8.2613969689
 20
7.3049057748
 30
0.0
  0
VERTEX
  5
54A
330
28B
100
AcDbEntity
  8
0
  6
CONTINUOUS
 62
     7
100
AcDbVertex
100
AcDb2dVertex
 10
8.2838929208
 20
7.3177950661
 30
0.0
  0
VERTEX
  5
54B
330
28B
100
AcDbEntity
  8
0
  6
CONTINUOUS
 62
     7
100
AcDbVertex
100
AcDb2dVertex
 10
8.3063559254
 20
7.3293538811
 30
0.0
  0
VERTEX
  5
54C
330
28B
100
AcDbEntity
  8
0
  6
CONTINUOUS
 62
     7
100
AcDbVertex
100
AcDb2dVertex
 10
8.3287286847
 20
7.3395527359
 30
0.0
  0
VERTEX
  5
54D
330
28B
100
AcDbEntity
  8
0
  6
CONTINUOUS
 62
     7
100
AcDbVertex
100
AcDb2dVertex
 10
8.3509541308
 20
7.3483656156
 30
0.0
  0
VERTEX
  5
54E
330
28B
100
AcDbEntity
  8
0
  6
CONTINUOUS
 62
     7
100
AcDbVertex
100
AcDb2dVertex
 10
8.3729755715
 20
7.3557700403
 30
0.0
  0
VERTEX
  5
54F
330
28B
100
AcDbEntity
  8
0
  6
CONTINUOUS
 62
     7
100
AcDbVertex
100
AcDb2dVertex
 10
8.3947368351
 20
7.3617471232
 30
0.0
  0
VERTEX
  5
550
330
28B
100
AcDbEntity
  8
0
  6
CONTINUOUS
 62
     7
100
AcDbVertex
100
AcDb2dVertex
 10
8.4161824134
 20
7.3662816179
 30
0.0
  0
VERTEX
  5
551
330
28B
100
AcDbEntity
  8
0
  6
CONTINUOUS
 62
     7
100
AcDbVertex
100
AcDb2dVertex
 10
8.4372576037
 20
7.3693619581
 30
0.0
  0
VERTEX
  5
552
330
28B
100
AcDbEntity
  8
0
  6
CONTINUOUS
 62
     7
100
AcDbVertex
100
AcDb2dVertex
 10
8.4579086478
 20
7.3709802864
 30
0.0
  0
VERTEX
  5
553
330
28B
100
AcDbEntity
  8
0
  6
CONTINUOUS
 62
     7
100
AcDbVertex
100
AcDb2dVertex
 10
8.4780828695
 20
7.3711324749
 30
0.0
  0
SEQEND
  5
554
330
28B
100
AcDbEntity
  8
0
  6
CONTINUOUS
 62
     7
  0
LINE
  5
28C
330
1F
100
AcDbEntity
  8
0
  6
CONTINUOUS
 62
     7
100
AcDbLine
 10
8.2338641763
 20
7.0390752986
 30
0.0
 11
8.0668310784
 21
7.1355014536
 31
0.0
  0
POLYLINE
  5
28D
330
1F
100
AcDbEntity
  8
0
  6
CONTINUOUS
 62
     7
100
AcDb2dPolyline
 66
     1
 10
0.0
 20
0.0
 30
0.0
  0
VERTEX
  5
555
330
28D
100
AcDbEntity
  8
0
  6
CONTINUOUS
 62
     7
100
AcDbVertex
100
AcDb2dVertex
 10
8.1373015057
 20
6.1467270608
 30
0.0
  0
VERTEX
  5
556
330
28D
100
AcDbEntity
  8
0
  6
CONTINUOUS
 62
     7
100
AcDbVertex
100
AcDb2dVertex
 10
8.1243964926
 20
6.1534728112
 30
0.0
  0
VERTEX
  5
557
330
28D
100
AcDbEntity
  8
0
  6
CONTINUOUS
 62
     7
100
AcDbVertex
100
AcDb2dVertex
 10
8.1091034779
 20
6.1630443646
 30
0.0
  0
VERTEX
  5
558
330
28D
100
AcDbEntity
  8
0
  6
CONTINUOUS
 62
     7
100
AcDbVertex
100
AcDb2dVertex
 10
8.094619082
 20
6.173935469
 30
0.0
  0
VERTEX
  5
559
330
28D
100
AcDbEntity
  8
0
  6
CONTINUOUS
 62
     7
100
AcDbVertex
100
AcDb2dVertex
 10
8.0809789149
 20
6.1861193485
 30
0.0
  0
VERTEX
  5
55A
330
28D
100
AcDbEntity
  8
0
  6
CONTINUOUS
 62
     7
100
AcDbVertex
100
AcDb2dVertex
 10
8.068216511
 20
6.1995660489
 30
0.0
  0
VERTEX
  5
55B
330
28D
100
AcDbEntity
  8
0
  6
CONTINUOUS
 62
     7
100
AcDbVertex
100
AcDb2dVertex
 10
8.0563632469
 20
6.2142425113
 30
0.0
  0
VERTEX
  5
55C
330
28D
100
AcDbEntity
  8
0
  6
CONTINUOUS
 62
     7
100
AcDbVertex
100
AcDb2dVertex
 10
8.045448264
 20
6.2301126536
 30
0.0
  0
VERTEX
  5
55D
330
28D
100
AcDbEntity
  8
0
  6
CONTINUOUS
 62
     7
100
AcDbVertex
100
AcDb2dVertex
 10
8.0354983968
 20
6.2471374588
 30
0.0
  0
VERTEX
  5
55E
330
28D
100
AcDbEntity
  8
0
  6
CONTINUOUS
 62
     7
100
AcDbVertex
100
AcDb2dVertex
 10
8.0265381072
 20
6.2652750712
 30
0.0
  0
VERTEX
  5
55F
330
28D
100
AcDbEntity
  8
0
  6
CONTINUOUS
 62
     7
100
AcDbVertex
100
AcDb2dVertex
 10
8.0185894242
 20
6.2844808994
 30
0.0
  0
VERTEX
  5
560
330
28D
100
AcDbEntity
  8
0
  6
CONTINUOUS
 62
     7
100
AcDbVertex
100
AcDb2dVertex
 10
8.0116718897
 20
6.3047077256
 30
0.0
  0
VERTEX
  5
561
330
28D
100
AcDbEntity
  8
0
  6
CONTINUOUS
 62
     7
100
AcDbVertex
100
AcDb2dVertex
 10
8.0058025104
 20
6.325905822
 30
0.0
  0
VERTEX
  5
562
330
28D
100
AcDbEntity
  8
0
  6
CONTINUOUS
 62
     7
100
AcDbVertex
100
AcDb2dVertex
 10
8.0009957164
 20
6.3480230728
 30
0.0
  0
VERTEX
  5
563
330
28D
100
AcDbEntity
  8
0
  6
CONTINUOUS
 62
     7
100
AcDbVertex
100
AcDb2dVertex
 10
7.9972633252
 20
6.3710051025
 30
0.0
  0
VERTEX
  5
564
330
28D
100
AcDbEntity
  8
0
  6
CONTINUOUS
 62
     7
100
AcDbVertex
100
AcDb2dVertex
 10
7.9946145129
 20
6.3947954096
 30
0.0
  0
VERTEX
  5
565
330
28D
100
AcDbEntity
  8
0
  6
CONTINUOUS
 62
     7
100
AcDbVertex
100
AcDb2dVertex
 10
7.9930557917
 20
6.4193355054
 30
0.0
  0
VERTEX
  5
566
330
28D
100
AcDbEntity
  8
0
  6
CONTINUOUS
 62
     7
100
AcDbVertex
100
AcDb2dVertex
 10
7.9925909936
 20
6.4445650578
 30
0.0
  0
VERTEX
  5
567
330
28D
100
AcDbEntity
  8
0
  6
CONTINUOUS
 62
     7
100
AcDbVertex
100
AcDb2dVertex
 10
7.9932212614
 20
6.4704220396
 30
0.0
  0
VERTEX
  5
568
330
28D
100
AcDbEntity
  8
0
  6
CONTINUOUS
 62
     7
100
AcDbVertex
100
AcDb2dVertex
 10
7.9949450456
 20
6.4968428813
 30
0.0
  0
VERTEX
  5
569
330
28D
100
AcDbEntity
  8
0
  6
CONTINUOUS
 62
     7
100
AcDbVertex
100
AcDb2dVertex
 10
7.9977581082
 20
6.5237626268
 30
0.0
  0
VERTEX
  5
56A
330
28D
100
AcDbEntity
  8
0
  6
CONTINUOUS
 62
     7
100
AcDbVertex
100
AcDb2dVertex
 10
8.0016535333
 20
6.5511150938
 30
0.0
  0
VERTEX
  5
56B
330
28D
100
AcDbEntity
  8
0
  6
CONTINUOUS
 62
     7
100
AcDbVertex
100
AcDb2dVertex
 10
8.0066217439
 20
6.5788330359
 30
0.0
  0
VERTEX
  5
56C
330
28D
100
AcDbEntity
  8
0
  6
CONTINUOUS
 62
     7
100
AcDbVertex
100
AcDb2dVertex
 10
8.0126505257
 20
6.6068483083
 30
0.0
  0
VERTEX
  5
56D
330
28D
100
AcDbEntity
  8
0
  6
CONTINUOUS
 62
     7
100
AcDbVertex
100
AcDb2dVertex
 10
8.0197250568
 20
6.6350920351
 30
0.0
  0
VERTEX
  5
56E
330
28D
100
AcDbEntity
  8
0
  6
CONTINUOUS
 62
     7
100
AcDbVertex
100
AcDb2dVertex
 10
8.0278279444
 20
6.6634947788
 30
0.0
  0
VERTEX
  5
56F
330
28D
100
AcDbEntity
  8
0
  6
CONTINUOUS
 62
     7
100
AcDbVertex
100
AcDb2dVertex
 10
8.0369392675
 20
6.691986711
 30
0.0
  0
VERTEX
  5
570
330
28D
100
AcDbEntity
  8
0
  6
CONTINUOUS
 62
     7
100
AcDbVertex
100
AcDb2dVertex
 10
8.0470366258
 20
6.720497784
 30
0.0
  0
VERTEX
  5
571
330
28D
100
AcDbEntity
  8
0
  6
CONTINUOUS
 62
     7
100
AcDbVertex
100
AcDb2dVertex
 10
8.0580951949
 20
6.7489579031
 30
0.0
  0
VERTEX
  5
572
330
28D
100
AcDbEntity
  8
0
  6
CONTINUOUS
 62
     7
100
AcDbVertex
100
AcDb2dVertex
 10
8.070087787
 20
6.7772970986
 30
0.0
  0
VERTEX
  5
573
330
28D
100
AcDbEntity
  8
0
  6
CONTINUOUS
 62
     7
100
AcDbVertex
100
AcDb2dVertex
 10
8.0829849184
 20
6.8054456985
 30
0.0
  0
VERTEX
  5
574
330
28D
100
AcDbEntity
  8
0
  6
CONTINUOUS
 62
     7
100
AcDbVertex
100
AcDb2dVertex
 10
8.0967548813
 20
6.8333344991
 30
0.0
  0
VERTEX
  5
575
330
28D
100
AcDbEntity
  8
0
  6
CONTINUOUS
 62
     7
100
AcDbVertex
100
AcDb2dVertex
 10
8.1113638221
 20
6.8608949355
 30
0.0
  0
VERTEX
  5
576
330
28D
100
AcDbEntity
  8
0
  6
CONTINUOUS
 62
     7
100
AcDbVertex
100
AcDb2dVertex
 10
8.1267758246
 20
6.88805925
 30
0.0
  0
VERTEX
  5
577
330
28D
100
AcDbEntity
  8
0
  6
CONTINUOUS
 62
     7
100
AcDbVertex
100
AcDb2dVertex
 10
8.1429529981
 20
6.914760659
 30
0.0
  0
VERTEX
  5
578
330
28D
100
AcDbEntity
  8
0
  6
CONTINUOUS
 62
     7
100
AcDbVertex
100
AcDb2dVertex
 10
8.1598555711
 20
6.9409335167
 30
0.0
  0
VERTEX
  5
579
330
28D
100
AcDbEntity
  8
0
  6
CONTINUOUS
 62
     7
100
AcDbVertex
100
AcDb2dVertex
 10
8.1774419882
 20
6.966513477
 30
0.0
  0
VERTEX
  5
57A
330
28D
100
AcDbEntity
  8
0
  6
CONTINUOUS
 62
     7
100
AcDbVertex
100
AcDb2dVertex
 10
8.1956690131
 20
6.9914376511
 30
0.0
  0
VERTEX
  5
57B
330
28D
100
AcDbEntity
  8
0
  6
CONTINUOUS
 62
     7
100
AcDbVertex
100
AcDb2dVertex
 10
8.2144918345
 20
7.0156447628
 30
0.0
  0
VERTEX
  5
57C
330
28D
100
AcDbEntity
  8
0
  6
CONTINUOUS
 62
     7
100
AcDbVertex
100
AcDb2dVertex
 10
8.2338641763
 20
7.0390752986
 30
0.0
  0
SEQEND
  5
57D
330
28D
100
AcDbEntity
  8
0
  6
CONTINUOUS
 62
     7
  0
ARC
  5
28E
330
1F
100
AcDbEntity
  8
0
  6
CONTINUOUS
 62
     7
100
AcDbCircle
 10
8.6420146622
 20
7.0511790274
 30
0.0
 40
0.2235488058745908
100
AcDbArc
 50
58.196284387
 51
89.2051069136
  0
LINE
  5
28F
330
1F
100
AcDbEntity
  8
0
  6
CONTINUOUS
 62
     7
100
AcDbLine
 10
7.6817602867
 20
6.4418866003
 30
0.0
 11
7.5147271888
 21
6.5383127553
 31
0.0
  0
POLYLINE
  5
290
330
1F
100
AcDbEntity
  8
0
  6
CONTINUOUS
 62
     7
100
AcDb2dPolyline
 66
     1
 10
0.0
 20
0.0
 30
0.0
  0
VERTEX
  5
57E
330
290
100
AcDbEntity
  8
0
  6
CONTINUOUS
 62
     7
100
AcDbVertex
100
AcDb2dVertex
 10
7.680219205
 20
6.915895342
 30
0.0
  0
VERTEX
  5
57F
330
290
100
AcDbEntity
  8
0
  6
CONTINUOUS
 62
     7
100
AcDbVertex
100
AcDb2dVertex
 10
7.6704170004
 20
6.8868547147
 30
0.0
  0
VERTEX
  5
580
330
290
100
AcDbEntity
  8
0
  6
CONTINUOUS
 62
     7
100
AcDbVertex
100
AcDb2dVertex
 10
7.6616496134
 20
6.8578697985
 30
0.0
  0
VERTEX
  5
581
330
290
100
AcDbEntity
  8
0
  6
CONTINUOUS
 62
     7
100
AcDbVertex
100
AcDb2dVertex
 10
7.6539394078
 20
6.8290145275
 30
0.0
  0
VERTEX
  5
582
330
290
100
AcDbEntity
  8
0
  6
CONTINUOUS
 62
     7
100
AcDbVertex
100
AcDb2dVertex
 10
7.6473060505
 20
6.800362505
 30
0.0
  0
VERTEX
  5
583
330
290
100
AcDbEntity
  8
0
  6
CONTINUOUS
 62
     7
100
AcDbVertex
100
AcDb2dVertex
 10
7.6417664618
 20
6.7719868158
 30
0.0
  0
VERTEX
  5
584
330
290
100
AcDbEntity
  8
0
  6
CONTINUOUS
 62
     7
100
AcDbVertex
100
AcDb2dVertex
 10
7.6373347718
 20
6.7439598401
 30
0.0
  0
VERTEX
  5
585
330
290
100
AcDbEntity
  8
0
  6
CONTINUOUS
 62
     7
100
AcDbVertex
100
AcDb2dVertex
 10
7.634022285
 20
6.7163530683
 30
0.0
  0
VERTEX
  5
586
330
290
100
AcDbEntity
  8
0
  6
CONTINUOUS
 62
     7
100
AcDbVertex
100
AcDb2dVertex
 10
7.6318374505
 20
6.6892369191
 30
0.0
  0
VERTEX
  5
587
330
290
100
AcDbEntity
  8
0
  6
CONTINUOUS
 62
     7
100
AcDbVertex
100
AcDb2dVertex
 10
7.6307858416
 20
6.6626805597
 30
0.0
  0
VERTEX
  5
588
330
290
100
AcDbEntity
  8
0
  6
CONTINUOUS
 62
     7
100
AcDbVertex
100
AcDb2dVertex
 10
7.6308701406
 20
6.6367517296
 30
0.0
  0
VERTEX
  5
589
330
290
100
AcDbEntity
  8
0
  6
CONTINUOUS
 62
     7
100
AcDbVertex
100
AcDb2dVertex
 10
7.6320901324
 20
6.6115165672
 30
0.0
  0
VERTEX
  5
58A
330
290
100
AcDbEntity
  8
0
  6
CONTINUOUS
 62
     7
100
AcDbVertex
100
AcDb2dVertex
 10
7.6344427052
 20
6.5870394419
 30
0.0
  0
VERTEX
  5
58B
330
290
100
AcDbEntity
  8
0
  6
CONTINUOUS
 62
     7
100
AcDbVertex
100
AcDb2dVertex
 10
7.637921858
 20
6.5633827893
 30
0.0
  0
VERTEX
  5
58C
330
290
100
AcDbEntity
  8
0
  6
CONTINUOUS
 62
     7
100
AcDbVertex
100
AcDb2dVertex
 10
7.6425187164
 20
6.5406069522
 30
0.0
  0
VERTEX
  5
58D
330
290
100
AcDbEntity
  8
0
  6
CONTINUOUS
 62
     7
100
AcDbVertex
100
AcDb2dVertex
 10
7.6482215547
 20
6.5187700267
 30
0.0
  0
VERTEX
  5
58E
330
290
100
AcDbEntity
  8
0
  6
CONTINUOUS
 62
     7
100
AcDbVertex
100
AcDb2dVertex
 10
7.6550158264
 20
6.4979277139
 30
0.0
  0
VERTEX
  5
58F
330
290
100
AcDbEntity
  8
0
  6
CONTINUOUS
 62
     7
100
AcDbVertex
100
AcDb2dVertex
 10
7.6628842007
 20
6.4781331778
 30
0.0
  0
VERTEX
  5
590
330
290
100
AcDbEntity
  8
0
  6
CONTINUOUS
 62
     7
100
AcDbVertex
100
AcDb2dVertex
 10
7.6718066071
 20
6.45943691
 30
0.0
  0
VERTEX
  5
591
330
290
100
AcDbEntity
  8
0
  6
CONTINUOUS
 62
     7
100
AcDbVertex
100
AcDb2dVertex
 10
7.6817602867
 20
6.4418866003
 30
0.0
  0
SEQEND
  5
592
330
290
100
AcDbEntity
  8
0
  6
CONTINUOUS
 62
     7
  0
LINE
  5
291
330
1F
100
AcDbEntity
  8
0
  6
CONTINUOUS
 62
     7
100
AcDbLine
 10
7.5131861071
 20
7.0123214969
 30
0.0
 11
7.680219205
 21
6.915895342
 31
0.0
  0
POLYLINE
  5
292
330
1F
100
AcDbEntity
  8
0
  6
CONTINUOUS
 62
     7
100
AcDb2dPolyline
 66
     1
 10
0.0
 20
0.0
 30
0.0
  0
VERTEX
  5
593
330
292
100
AcDbEntity
  8
0
  6
CONTINUOUS
 62
     7
100
AcDbVertex
100
AcDb2dVertex
 10
8.2240063512
 20
7.5506643151
 30
0.0
  0
VERTEX
  5
594
330
292
100
AcDbEntity
  8
0
  6
CONTINUOUS
 62
     7
100
AcDbVertex
100
AcDb2dVertex
 10
8.2094398431
 20
7.5583292728
 30
0.0
  0
VERTEX
  5
595
330
292
100
AcDbEntity
  8
0
  6
CONTINUOUS
 62
     7
100
AcDbVertex
100
AcDb2dVertex
 10
8.1927673599
 20
7.565430499
 30
0.0
  0
VERTEX
  5
596
330
292
100
AcDbEntity
  8
0
  6
CONTINUOUS
 62
     7
100
AcDbVertex
100
AcDb2dVertex
 10
8.1753974072
 20
7.5711542002
 30
0.0
  0
VERTEX
  5
597
330
292
100
AcDbEntity
  8
0
  6
CONTINUOUS
 62
     7
100
AcDbVertex
100
AcDb2dVertex
 10
8.157372689
 20
7.5754863048
 30
0.0
  0
VERTEX
  5
598
330
292
100
AcDbEntity
  8
0
  6
CONTINUOUS
 62
     7
100
AcDbVertex
100
AcDb2dVertex
 10
8.1387375193
 20
7.5784161622
 30
0.0
  0
VERTEX
  5
599
330
292
100
AcDbEntity
  8
0
  6
CONTINUOUS
 62
     7
100
AcDbVertex
100
AcDb2dVertex
 10
8.1195377128
 20
7.5799365693
 30
0.0
  0
VERTEX
  5
59A
330
292
100
AcDbEntity
  8
0
  6
CONTINUOUS
 62
     7
100
AcDbVertex
100
AcDb2dVertex
 10
8.0998204726
 20
7.5800437882
 30
0.0
  0
VERTEX
  5
59B
330
292
100
AcDbEntity
  8
0
  6
CONTINUOUS
 62
     7
100
AcDbVertex
100
AcDb2dVertex
 10
8.0796342736
 20
7.5787375552
 30
0.0
  0
VERTEX
  5
59C
330
292
100
AcDbEntity
  8
0
  6
CONTINUOUS
 62
     7
100
AcDbVertex
100
AcDb2dVertex
 10
8.0590287439
 20
7.5760210819
 30
0.0
  0
VERTEX
  5
59D
330
292
100
AcDbEntity
  8
0
  6
CONTINUOUS
 62
     7
100
AcDbVertex
100
AcDb2dVertex
 10
8.0380545422
 20
7.5719010466
 30
0.0
  0
VERTEX
  5
59E
330
292
100
AcDbEntity
  8
0
  6
CONTINUOUS
 62
     7
100
AcDbVertex
100
AcDb2dVertex
 10
8.016763234
 20
7.5663875785
 30
0.0
  0
VERTEX
  5
59F
330
292
100
AcDbEntity
  8
0
  6
CONTINUOUS
 62
     7
100
AcDbVertex
100
AcDb2dVertex
 10
7.9952071641
 20
7.5594942325
 30
0.0
  0
VERTEX
  5
5A0
330
292
100
AcDbEntity
  8
0
  6
CONTINUOUS
 62
     7
100
AcDbVertex
100
AcDb2dVertex
 10
7.9734393283
 20
7.551237956
 30
0.0
  0
VERTEX
  5
5A1
330
292
100
AcDbEntity
  8
0
  6
CONTINUOUS
 62
     7
100
AcDbVertex
100
AcDb2dVertex
 10
7.9515132431
 20
7.5416390471
 30
0.0
  0
VERTEX
  5
5A2
330
292
100
AcDbEntity
  8
0
  6
CONTINUOUS
 62
     7
100
AcDbVertex
100
AcDb2dVertex
 10
7.929482814
 20
7.5307211048
 30
0.0
  0
VERTEX
  5
5A3
330
292
100
AcDbEntity
  8
0
  6
CONTINUOUS
 62
     7
100
AcDbVertex
100
AcDb2dVertex
 10
7.907402203
 20
7.5185109711
 30
0.0
  0
VERTEX
  5
5A4
330
292
100
AcDbEntity
  8
0
  6
CONTINUOUS
 62
     7
100
AcDbVertex
100
AcDb2dVertex
 10
7.8853256955
 20
7.5050386646
 30
0.0
  0
VERTEX
  5
5A5
330
292
100
AcDbEntity
  8
0
  6
CONTINUOUS
 62
     7
100
AcDbVertex
100
AcDb2dVertex
 10
7.8633075669
 20
7.4903373072
 30
0.0
  0
VERTEX
  5
5A6
330
292
100
AcDbEntity
  8
0
  6
CONTINUOUS
 62
     7
100
AcDbVertex
100
AcDb2dVertex
 10
7.841401949
 20
7.4744430422
 30
0.0
  0
VERTEX
  5
5A7
330
292
100
AcDbEntity
  8
0
  6
CONTINUOUS
 62
     7
100
AcDbVertex
100
AcDb2dVertex
 10
7.8196626969
 20
7.457394946
 30
0.0
  0
VERTEX
  5
5A8
330
292
100
AcDbEntity
  8
0
  6
CONTINUOUS
 62
     7
100
AcDbVertex
100
AcDb2dVertex
 10
7.7981432568
 20
7.4392349314
 30
0.0
  0
VERTEX
  5
5A9
330
292
100
AcDbEntity
  8
0
  6
CONTINUOUS
 62
     7
100
AcDbVertex
100
AcDb2dVertex
 10
7.7768965345
 20
7.420007645
 30
0.0
  0
VERTEX
  5
5AA
330
292
100
AcDbEntity
  8
0
  6
CONTINUOUS
 62
     7
100
AcDbVertex
100
AcDb2dVertex
 10
7.7559747652
 20
7.3997603573
 30
0.0
  0
VERTEX
  5
5AB
330
292
100
AcDbEntity
  8
0
  6
CONTINUOUS
 62
     7
100
AcDbVertex
100
AcDb2dVertex
 10
7.7354293854
 20
7.3785428465
 30
0.0
  0
VERTEX
  5
5AC
330
292
100
AcDbEntity
  8
0
  6
CONTINUOUS
 62
     7
100
AcDbVertex
100
AcDb2dVertex
 10
7.7153109061
 20
7.3564072759
 30
0.0
  0
VERTEX
  5
5AD
330
292
100
AcDbEntity
  8
0
  6
CONTINUOUS
 62
     7
100
AcDbVertex
100
AcDb2dVertex
 10
7.6956687888
 20
7.3334080663
 30
0.0
  0
VERTEX
  5
5AE
330
292
100
AcDbEntity
  8
0
  6
CONTINUOUS
 62
     7
100
AcDbVertex
100
AcDb2dVertex
 10
7.6765513237
 20
7.3096017613
 30
0.0
  0
VERTEX
  5
5AF
330
292
100
AcDbEntity
  8
0
  6
CONTINUOUS
 62
     7
100
AcDbVertex
100
AcDb2dVertex
 10
7.6580055115
 20
7.2850468889
 30
0.0
  0
VERTEX
  5
5B0
330
292
100
AcDbEntity
  8
0
  6
CONTINUOUS
 62
     7
100
AcDbVertex
100
AcDb2dVertex
 10
7.6400769471
 20
7.2598038177
 30
0.0
  0
VERTEX
  5
5B1
330
292
100
AcDbEntity
  8
0
  6
CONTINUOUS
 62
     7
100
AcDbVertex
100
AcDb2dVertex
 10
7.6228097082
 20
7.233934608
 30
0.0
  0
VERTEX
  5
5B2
330
292
100
AcDbEntity
  8
0
  6
CONTINUOUS
 62
     7
100
AcDbVertex
100
AcDb2dVertex
 10
7.6062462463
 20
7.2075028594
 30
0.0
  0
VERTEX
  5
5B3
330
292
100
AcDbEntity
  8
0
  6
CONTINUOUS
 62
     7
100
AcDbVertex
100
AcDb2dVertex
 10
7.5904272831
 20
7.1805735546
 30
0.0
  0
VERTEX
  5
5B4
330
292
100
AcDbEntity
  8
0
  6
CONTINUOUS
 62
     7
100
AcDbVertex
100
AcDb2dVertex
 10
7.5753917094
 20
7.1532128998
 30
0.0
  0
VERTEX
  5
5B5
330
292
100
AcDbEntity
  8
0
  6
CONTINUOUS
 62
     7
100
AcDbVertex
100
AcDb2dVertex
 10
7.5611764906
 20
7.1254881613
 30
0.0
  0
VERTEX
  5
5B6
330
292
100
AcDbEntity
  8
0
  6
CONTINUOUS
 62
     7
100
AcDbVertex
100
AcDb2dVertex
 10
7.5478165747
 20
7.0974675007
 30
0.0
  0
VERTEX
  5
5B7
330
292
100
AcDbEntity
  8
0
  6
CONTINUOUS
 62
     7
100
AcDbVertex
100
AcDb2dVertex
 10
7.5353448073
 20
7.069219807
 30
0.0
  0
VERTEX
  5
5B8
330
292
100
AcDbEntity
  8
0
  6
CONTINUOUS
 62
     7
100
AcDbVertex
100
AcDb2dVertex
 10
7.5237918504
 20
7.0408145275
 30
0.0
  0
VERTEX
  5
5B9
330
292
100
AcDbEntity
  8
0
  6
CONTINUOUS
 62
     7
100
AcDbVertex
100
AcDb2dVertex
 10
7.5131861071
 20
7.0123214969
 30
0.0
  0
SEQEND
  5
5BA
330
292
100
AcDbEntity
  8
0
  6
CONTINUOUS
 62
     7
  0
ARC
  5
293
330
1F
100
AcDbEntity
  8
0
  6
CONTINUOUS
 62
     7
100
AcDbCircle
 10
7.7075007585
 20
6.6533281809
 30
0.0
 40
0.2244776098730999
100
AcDbArc
 50
210.8217738697
 51
239.6676770421
  0
SPLINE
  5
294
330
1F
100
AcDbEntity
  8
0
  6
CONTINUOUS
 62
     7
100
AcDbSpline
210
0.0
220
0.0
230
1.0
 70
     8
 71
     3
 72
     8
 73
     4
 74
     0
 42
0.00000001
 43
0.00000001
 40
0.0
 40
0.0
 40
0.0
 40
0.0
 40
0.0000779828184968
 40
0.0000779828184968
 40
0.0000779828184968
 40
0.0000779828184968
 10
8.25561128555636
 20
7.026519219411304
 30
0.0
 10
8.256093283901436
 20
7.025617665269874
 30
0.0
 10
8.256575168483465
 20
7.024716059467355
 30
0.0
 10
8.25705693795935
 20
7.023814401545702
 30
0.0
  0
SPLINE
  5
295
330
1F
100
AcDbEntity
  8
0
  6
CONTINUOUS
 62
     7
100
AcDbSpline
210
0.0
220
0.0
230
1.0
 70
     8
 71
     3
 72
     8
 73
     4
 74
     0
 42
0.00000001
 43
0.00000001
 40
0.0
 40
0.0
 40
0.0
 40
0.0
 40
0.000650145288803
 40
0.000650145288803
 40
0.000650145288803
 40
0.000650145288803
 10
8.233864176313666
 20
7.039075298642643
 30
0.0
 10
8.241114264619892
 20
7.034889332060926
 30
0.0
 10
8.248363336989753
 20
7.030703951572377
 30
0.0
 10
8.25561128555636
 20
7.026519219411304
 30
0.0
  0
SPLINE
  5
296
330
1F
100
AcDbEntity
  8
0
  6
CONTINUOUS
 62
     7
100
AcDbSpline
210
0.0
220
0.0
230
1.0
 70
     8
 71
     3
 72
     8
 73
     4
 74
     0
 42
0.00000001
 43
0.00000001
 40
0.0
 40
0.0
 40
0.0
 40
0.0
 40
0.0005733614293614
 40
0.0005733614293614
 40
0.0005733614293614
 40
0.0005733614293614
 10
8.478082869454324
 20
7.371132474877655
 30
0.0
 10
8.477151116264665
 20
7.365356062855213
 30
0.0
 10
8.476187139612948
 20
7.359577773336763
 30
0.0
 10
8.475188192493164
 20
7.353797830142636
 30
0.0
  0
ARC
  5
297
330
1F
100
AcDbEntity
  8
0
  6
CONTINUOUS
 62
     7
100
AcDbCircle
 10
8.6834908062
 20
6.621855624
 30
0.0
 40
0.7749580574014349
100
AcDbArc
 50
120.9596627233
 51
139.8549433664
  0
SPLINE
  5
298
330
1F
100
AcDbEntity
  8
0
  6
CONTINUOUS
 62
     7
100
AcDbSpline
210
0.0
220
0.0
230
1.0
 70
     8
 71
     3
 72
     8
 73
     4
 74
     0
 42
0.00000001
 43
0.00000001
 40
0.0
 40
0.0
 40
0.0
 40
0.0
 40
0.0000779828184968
 40
0.0000779828184968
 40
0.0000779828184968
 40
0.0000779828184968
 10
7.509985671483642
 20
7.014167328758244
 30
0.0
 10
7.510043439628122
 20
7.014757181041918
 30
0.0
 10
7.510101423145319
 20
7.015347026309597
 30
0.0
 10
7.510159624446429
 20
7.015936864402526
 30
0.0
  0
SPLINE
  5
299
330
1F
100
AcDbEntity
  8
0
  6
CONTINUOUS
 62
     7
100
AcDbSpline
210
0.0
220
0.0
230
1.0
 70
     8
 71
     3
 72
     8
 73
     4
 74
     0
 42
0.00000001
 43
0.00000001
 40
0.0
 40
0.0
 40
0.0
 40
0.0
 40
0.000650145288803
 40
0.000650145288803
 40
0.000650145288803
 40
0.000650145288803
 10
7.509985671483642
 20
7.014167328758244
 30
0.0
 10
7.511046936959756
 20
7.013555253755366
 30
0.0
 10
7.512113912397512
 20
7.012939882031461
 30
0.0
 10
7.513186107087986
 20
7.012321496902686
 30
0.0
  0
SPLINE
  5
29A
330
1F
100
AcDbEntity
  8
0
  6
CONTINUOUS
 62
     7
100
AcDbSpline
210
0.0
220
0.0
230
1.0
 70
     8
 71
     3
 72
     8
 73
     4
 74
     0
 42
0.00000001
 43
0.00000001
 40
0.0
 40
0.0
 40
0.0
 40
0.0
 40
0.000650145288803
 40
0.000650145288803
 40
0.000650145288803
 40
0.000650145288803
 10
7.677018769401748
 20
6.91774117381854
 30
0.0
 10
7.678080034877862
 20
6.917129098815662
 30
0.0
 10
7.679147010315618
 20
6.916513727091757
 30
0.0
 10
7.680219205006092
 20
6.915895341962982
 30
0.0
  0
ARC
  5
29B
330
1F
100
AcDbEntity
  8
0
  6
CONTINUOUS
 62
     7
100
AcDbCircle
 10
8.4056200108
 20
6.6547111711
 30
0.0
 40
0.7750448692359329
100
AcDbArc
 50
160.1445232248
 51
179.0449080664
  0
LINE
  5
29C
330
1F
100
AcDbEntity
  8
0
  6
CONTINUOUS
 62
     7
100
AcDbLine
 10
7.6770187694
 20
6.9177411738
 30
0.0
 11
7.5099856715
 21
7.0141673288
 31
0.0
  0
LINE
  5
29D
330
1F
100
AcDbEntity
  8
0
  6
CONTINUOUS
 62
     7
100
AcDbLine
 10
8.6451159674
 20
7.2747063199
 30
0.0
 11
8.6440527205
 21
7.2683391132
 31
0.0
  0
LINE
  5
29E
330
1F
100
AcDbEntity
  8
0
  6
CONTINUOUS
 62
     7
100
AcDbLine
 10
7.5147271888
 20
6.5383127553
 30
0.0
 11
7.5128480077
 21
6.5463820466
 31
0.0
  0
ENDSEC
  0
SECTION
  2
OBJECTS
  0
DICTIONARY
  5
C
330
0
100
AcDbDictionary
  3
ACAD_GROUP
350
D
  3
ACAD_LAYOUT
350
1A
  3
ACAD_MLEADERSTYLE
350
2A1
  3
ACAD_MLINESTYLE
350
17
  3
ACAD_PLOTSETTINGS
350
19
  3
ACAD_SCALELIST
350
6F
  3
ACAD_VISUALSTYLE
350
2A
  3
ACDBVARIABLEDICTIONARY
350
29F
1001
ACAD
1000
TREAT_AS_HARD
1070
     0
  0
DICTIONARY
  5
D
102
{ACAD_REACTORS
330
C
102
}
330
C
100
AcDbDictionary
1001
ACAD
1000
TREAT_AS_HARD
1070
     0
  0
DICTIONARY
  5
1A
102
{ACAD_REACTORS
330
C
102
}
330
C
100
AcDbDictionary
1001
ACAD
1000
TREAT_AS_HARD
1070
     0
  0
DICTIONARY
  5
2A1
102
{ACAD_REACTORS
330
C
102
}
330
C
100
AcDbDictionary
1001
ACAD
1000
TREAT_AS_HARD
1070
     0
  0
DICTIONARY
  5
17
102
{ACAD_REACTORS
330
C
102
}
330
C
100
AcDbDictionary
  3
STANDARD
350
18
1001
ACAD
1000
TREAT_AS_HARD
1070
     0
  0
DICTIONARY
  5
19
102
{ACAD_REACTORS
330
C
102
}
330
C
100
AcDbDictionary
1001
ACAD
1000
TREAT_AS_HARD
1070
     0
  0
DICTIONARY
  5
6F
102
{ACAD_REACTORS
330
C
102
}
330
C
100
AcDbDictionary
  3
A0
350
70
  3
A1
350
71
  3
A2
350
72
  3
A3
350
73
  3
A4
350
74
  3
A5
350
75
  3
A6
350
76
  3
A7
350
77
  3
A8
350
78
  3
A9
350
79
  3
B0
350
7A
  3
B1
350
7B
  3
B2
350
7C
  3
B3
350
7D
  3
B4
350
7E
  3
B5
350
7F
  3
B6
350
80
  3
B7
350
81
  3
B8
350
82
  3
B9
350
83
  3
C0
350
84
  3
C1
350
85
  3
C2
350
86
  3
C3
350
87
  3
C4
350
88
  3
C5
350
89
  3
C6
350
8A
  3
C7
350
8B
  3
C8
350
8C
  3
C9
350
8D
  3
D0
350
8E
  3
D1
350
8F
  3
D2
350
90
1001
ACAD
1000
TREAT_AS_HARD
1070
     0
  0
DICTIONARY
  5
2A
102
{ACAD_REACTORS
330
C
102
}
330
C
100
AcDbDictionary
  3
2DWIREFRAME
350
2F
  3
3D_HIDDEN
350
31
  3
3DWIREFRAME
350
30
  3
BASIC
350
32
  3
BRIGHTEN
350
36
  3
COLORCHANGE
350
3A
  3
CONCEPTUAL
350
34
  3
DIM
350
35
  3
FACEPATTERN
350
39
  3
FLAT
350
2B
  3
FLATWITHEDGES
350
2C
  3
GOURAUD
350
2D
  3
GOURAUDWITHEDGES
350
2E
  3
LINEPATTERN
350
38
  3
REALISTIC
350
33
  3
THICKEN
350
37
1001
ACAD
1000
TREAT_AS_HARD
1070
     0
  0
DICTIONARY
  5
29F
102
{ACAD_REACTORS
330
C
102
}
330
C
100
AcDbDictionary
  3
CANNOSCALE
350
2A2
  3
DIMASSOC
350
2A3
  3
HIDETEXT
350
2A4
1001
ACAD
1000
TREAT_AS_HARD
1070
     0
  0
MLINESTYLE
  5
18
102
{ACAD_REACTORS
330
17
102
}
330
17
100
AcDbMlineStyle
  2
Standard
 70
     0
  3

 62
   256
 51
90.0
 52
90.0
 71
     2
 49
0.5
 62
   256
  6
BYLAYER
 49
-0.5
 62
   256
  6
BYLAYER
  0
ACAD_PROXY_OBJECT
  5
70
102
{ACAD_REACTORS
330
6F
102
}
330
6F
100
AcDbZombieObject
 90
      499
 91
      502
 93
       41
310
903313A31580
  0
ACAD_PROXY_OBJECT
  5
71
102
{ACAD_REACTORS
330
6F
102
}
330
6F
100
AcDbZombieObject
 90
      499
 91
      502
 93
      105
310
903313A324000000000000004000
  0
ACAD_PROXY_OBJECT
  5
72
102
{ACAD_REACTORS
330
6F
102
}
330
6F
100
AcDbZombieObject
 90
      499
 91
      502
 93
      105
310
903313A344000000000000104000
  0
ACAD_PROXY_OBJECT
  5
73
102
{ACAD_REACTORS
330
6F
102
}
330
6F
100
AcDbZombieObject
 90
      499
 91
      502
 93
      105
310
903313A354000000000000144000
  0
ACAD_PROXY_OBJECT
  5
74
102
{ACAD_REACTORS
330
6F
102
}
330
6F
100
AcDbZombieObject
 90
      499
 91
      502
 93
      105
310
903313A384000000000000204000
  0
ACAD_PROXY_OBJECT
  5
75
102
{ACAD_REACTORS
330
6F
102
}
330
6F
100
AcDbZombieObject
 90
      499
 91
      502
 93
      113
310
904313A31304000000000000244000
  0
ACAD_PROXY_OBJECT
  5
76
102
{ACAD_REACTORS
330
6F
102
}
330
6F
100
AcDbZombieObject
 90
      499
 91
      502
 93
      113
310
904313A31364000000000000304000
  0
ACAD_PROXY_OBJECT
  5
77
102
{ACAD_REACTORS
330
6F
102
}
330
6F
100
AcDbZombieObject
 90
      499
 91
      502
 93
      113
310
904313A32304000000000000344000
  0
ACAD_PROXY_OBJECT
  5
78
102
{ACAD_REACTORS
330
6F
102
}
330
6F
100
AcDbZombieObject
 90
      499
 91
      502
 93
      113
310
904313A333040000000000003E4000
  0
ACAD_PROXY_OBJECT
  5
79
102
{ACAD_REACTORS
330
6F
102
}
330
6F
100
AcDbZombieObject
 90
      499
 91
      502
 93
      113
310
904313A34304000000000000444000
  0
ACAD_PROXY_OBJECT
  5
7A
102
{ACAD_REACTORS
330
6F
102
}
330
6F
100
AcDbZombieObject
 90
      499
 91
      502
 93
      113
310
904313A35304000000000000494000
  0
ACAD_PROXY_OBJECT
  5
7B
102
{ACAD_REACTORS
330
6F
102
}
330
6F
100
AcDbZombieObject
 90
      499
 91
      502
 93
      121
310
905313A3130304000000000000594000
  0
ACAD_PROXY_OBJECT
  5
7C
102
{ACAD_REACTORS
330
6F
102
}
330
6F
100
AcDbZombieObject
 90
      499
 91
      502
 93
      105
310
903323A310000000000000010100
  0
ACAD_PROXY_OBJECT
  5
7D
102
{ACAD_REACTORS
330
6F
102
}
330
6F
100
AcDbZombieObject
 90
      499
 91
      502
 93
      105
310
903343A310000000000000410100
  0
ACAD_PROXY_OBJECT
  5
7E
102
{ACAD_REACTORS
330
6F
102
}
330
6F
100
AcDbZombieObject
 90
      499
 91
      502
 93
      105
310
903383A310000000000000810100
  0
ACAD_PROXY_OBJECT
  5
7F
102
{ACAD_REACTORS
330
6F
102
}
330
6F
100
AcDbZombieObject
 90
      499
 91
      502
 93
      113
310
90431303A310000000000000910100
  0
ACAD_PROXY_OBJECT
  5
80
102
{ACAD_REACTORS
330
6F
102
}
330
6F
100
AcDbZombieObject
 90
      499
 91
      502
 93
      121
310
9053130303A310000000000001650100
  0
ACAD_PROXY_OBJECT
  5
81
102
{ACAD_REACTORS
330
6F
102
}
330
6F
100
AcDbZombieObject
 90
      499
 91
      502
 93
      257
310
90E312F31323822203D2031272D3022000000000000200FC000000000000284000
  0
ACAD_PROXY_OBJECT
  5
82
102
{ACAD_REACTORS
330
6F
102
}
330
6F
100
AcDbZombieObject
 90
      499
 91
      502
 93
      249
310
90D312F363422203D2031272D3022000000000000240FC000000000000284000
  0
ACAD_PROXY_OBJECT
  5
83
102
{ACAD_REACTORS
330
6F
102
}
330
6F
100
AcDbZombieObject
 90
      499
 91
      502
 93
      249
310
90D312F333222203D2031272D3022000000000000280FC000000000000284000
  0
ACAD_PROXY_OBJECT
  5
84
102
{ACAD_REACTORS
330
6F
102
}
330
6F
100
AcDbZombieObject
 90
      499
 91
      502
 93
      249
310
90D312F313622203D2031272D30220000000000002C0FC000000000000284000
  0
ACAD_PROXY_OBJECT
  5
85
102
{ACAD_REACTORS
330
6F
102
}
330
6F
100
AcDbZombieObject
 90
      499
 91
      502
 93
      249
310
90D332F333222203D2031272D30220000000000002E0FC000000000000284000
  0
ACAD_PROXY_OBJECT
  5
86
102
{ACAD_REACTORS
330
6F
102
}
330
6F
100
AcDbZombieObject
 90
      499
 91
      502
 93
      241
310
90C312F3822203D2031272D3022000000000000300FC000000000000284000
  0
ACAD_PROXY_OBJECT
  5
87
102
{ACAD_REACTORS
330
6F
102
}
330
6F
100
AcDbZombieObject
 90
      499
 91
      502
 93
      249
310
90D332F313622203D2031272D3022000000000000320FC000000000000284000
  0
ACAD_PROXY_OBJECT
  5
88
102
{ACAD_REACTORS
330
6F
102
}
330
6F
100
AcDbZombieObject
 90
      499
 91
      502
 93
      241
310
90C312F3422203D2031272D3022000000000000340FC000000000000284000
  0
ACAD_PROXY_OBJECT
  5
89
102
{ACAD_REACTORS
330
6F
102
}
330
6F
100
AcDbZombieObject
 90
      499
 91
      502
 93
      241
310
90C332F3822203D2031272D3022000000000000360FC000000000000284000
  0
ACAD_PROXY_OBJECT
  5
8A
102
{ACAD_REACTORS
330
6F
102
}
330
6F
100
AcDbZombieObject
 90
      499
 91
      502
 93
      241
310
90C312F3222203D2031272D3022000000000000380FC000000000000284000
  0
ACAD_PROXY_OBJECT
  5
8B
102
{ACAD_REACTORS
330
6F
102
}
330
6F
100
AcDbZombieObject
 90
      499
 91
      502
 93
      241
310
90C332F3422203D2031272D30220000000000003A0FC000000000000284000
  0
ACAD_PROXY_OBJECT
  5
8C
102
{ACAD_REACTORS
330
6F
102
}
330
6F
100
AcDbZombieObject
 90
      499
 91
      502
 93
      161
310
90A3122203D2031272D30224000000000000284000
  0
ACAD_PROXY_OBJECT
  5
8D
102
{ACAD_REACTORS
330
6F
102
}
330
6F
100
AcDbZombieObject
 90
      499
 91
      502
 93
      257
310
90E312D312F3222203D2031272D30220000000000003E0FC000000000000284000
  0
ACAD_PROXY_OBJECT
  5
8E
102
{ACAD_REACTORS
330
6F
102
}
330
6F
100
AcDbZombieObject
 90
      499
 91
      502
 93
      225
310
90A3322203D2031272D302200000000000002100000000000000284000
  0
ACAD_PROXY_OBJECT
  5
8F
102
{ACAD_REACTORS
330
6F
102
}
330
6F
100
AcDbZombieObject
 90
      499
 91
      502
 93
      225
310
90A3622203D2031272D302200000000000006100000000000000284000
  0
ACAD_PROXY_OBJECT
  5
90
102
{ACAD_REACTORS
330
6F
102
}
330
6F
100
AcDbZombieObject
 90
      499
 91
      502
 93
      249
310
90D31272D3022203D2031272D30220000000000000A100000000000000284000
  0
ACAD_PROXY_OBJECT
  5
2F
102
{ACAD_REACTORS
330
2A
102
}
330
2A
100
AcDbZombieObject
 90
      499
 91
      501
 93
      436
310
42CC9915DA5C99599C985B595049028333333333333E3BF0000000000000FB0107901411070040501600405405064090741402480A0340
1001
ACAD
1000
AcDbSavedByObjectVersion
1070
     0
  0
ACAD_PROXY_OBJECT
  5
31
102
{ACAD_REACTORS
330
2A
102
}
330
2A
100
AcDbZombieObject
 90
      499
 91
      501
 93
      500
310
424CD108121A5919195B90640502408333333333333E3BF0000000000000FB01079024090700405020000000000001110200405405064090740C02480A0340
1001
ACAD
1000
AcDbSavedByObjectVersion
1070
     0
  0
ACAD_PROXY_OBJECT
  5
30
102
{ACAD_REACTORS
330
2A
102
}
330
2A
100
AcDbZombieObject
 90
      499
 91
      501
 93
      436
310
42CCD915DA5C99599C985B595059028333333333333E3BF0000000000000FB0107901411070040501600405405064090741402480A0340
1001
ACAD
1000
AcDbSavedByObjectVersion
1070
     0
  0
ACAD_PROXY_OBJECT
  5
32
102
{ACAD_REACTORS
330
2A
102
}
330
2A
100
AcDbZombieObject
 90
      499
 91
      501
 93
      388
310
4150985CDA58D07406404333333333333E3BF0000000000000FB0107A41107004050150841D405064090741402480A0350
1001
ACAD
1000
AcDbSavedByObjectVersion
1070
     0
  0
ACAD_PROXY_OBJECT
  5
36
102
{ACAD_REACTORS
330
2A
102
}
330
2A
100
AcDbZombieObject
 90
      499
 91
      501
 93
      428
310
42109C9A59DA1D195B90C409028333333333333E3BF0000000000000FB010790141107004050150841D405064090741402480A029950
1001
ACAD
1000
AcDbSavedByObjectVersion
1070
     0
  0
ACAD_PROXY_OBJECT
  5
3A
102
{ACAD_REACTORS
330
2A
102
}
330
2A
100
AcDbZombieObject
 90
      499
 91
      501
 93
      452
310
42D0DBDB1BDC90DA185B99D95104090240C333333333333E3BF0000000000000FB0108901411070040501508421405064090741402480A0350
1001
ACAD
1000
AcDbSavedByObjectVersion
1070
     0
  0
ACAD_PROXY_OBJECT
  5
34
102
{ACAD_REACTORS
330
2A
102
}
330
2A
100
AcDbZombieObject
 90
      499
 91
      501
 93
      500
310
4290DBDB98D95C1D1D585B10940D028333333333333E3BF0000000000000FB0107902409070040501000000000000111010841D405064090740C02480A0340
1001
ACAD
1000
AcDbSavedByObjectVersion
1070
     0
  0
ACAD_PROXY_OBJECT
  5
35
102
{ACAD_REACTORS
330
2A
102
}
330
2A
100
AcDbZombieObject
 90
      499
 91
      501
 93
      412
310
40D11A5B50B409028333333333333E3BF0000000000000FB010790141107004050150841D405064090741402480A02677FFFFFD0
1001
ACAD
1000
AcDbSavedByObjectVersion
1070
     0
  0
ACAD_PROXY_OBJECT
  5
39
102
{ACAD_REACTORS
330
2A
102
}
330
2A
100
AcDbZombieObject
 90
      499
 91
      501
 93
      444
310
42D19858D95C185D1D195C9B90F409028333333333333E3BF0000000000000FB010790141107004050150841D405064090741402480A0350
1001
ACAD
1000
AcDbSavedByObjectVersion
1070
     0
  0
ACAD_PROXY_OBJECT
  5
2B
102
{ACAD_REACTORS
330
2A
102
}
330
2A
100
AcDbZombieObject
 90
      499
 91
      501
 93
      388
310
41119B185D240901404333333333333E3BF0000000000000F9010740A41107004050150841D405064090741402480A1B50
1001
ACAD
1000
AcDbSavedByObjectVersion
1070
     0
  0
ACAD_PROXY_OBJECT
  5
2C
102
{ACAD_REACTORS
330
2A
102
}
330
2A
100
AcDbZombieObject
 90
      499
 91
      501
 93
      476
310
43519B185D15DA5D1A115919D95CD0140901404333333333333E3BF0000000000000F9010740901411070040501600405405064090741402480A1B50
1001
ACAD
1000
AcDbSavedByObjectVersion
1070
     0
  0
ACAD_PROXY_OBJECT
  5
2D
102
{ACAD_REACTORS
330
2A
102
}
330
2A
100
AcDbZombieObject
 90
      499
 91
      501
 93
      412
310
41D1DBDD5C985D5910240902404333333333333E3BF0000000000000F9010740A411070040501641D405064090741402480A1B50
1001
ACAD
1000
AcDbSavedByObjectVersion
1070
     0
  0
ACAD_PROXY_OBJECT
  5
2E
102
{ACAD_REACTORS
330
2A
102
}
330
2A
100
AcDbZombieObject
 90
      499
 91
      501
 93
      500
310
4411DBDD5C985D5915DA5D1A115919D95CD0340902404333333333333E3BF0000000000000F9010740901411070040501600405405064090741402480A1B50
1001
ACAD
1000
AcDbSavedByObjectVersion
1070
     0
  0
ACAD_PROXY_OBJECT
  5
38
102
{ACAD_REACTORS
330
2A
102
}
330
2A
100
AcDbZombieObject
 90
      499
 91
      501
 93
      444
310
42D31A5B995C185D1D195C9B90E409028333333333333E3BF0000000000000FB010790141107004050750841D405064090741402483A0350
1001
ACAD
1000
AcDbSavedByObjectVersion
1070
     0
  0
ACAD_PROXY_OBJECT
  5
33
102
{ACAD_REACTORS
330
2A
102
}
330
2A
100
AcDbZombieObject
 90
      499
 91
      501
 93
      420
310
425499585B1A5CDD1A58D08409028333333333333E3BF0000000000000FB01079019070040501508421405064090741402480A1B40
1001
ACAD
1000
AcDbSavedByObjectVersion
1070
     0
  0
ACAD_PROXY_OBJECT
  5
37
102
{ACAD_REACTORS
330
2A
102
}
330
2A
100
AcDbZombieObject
 90
      499
 91
      501
 93
      412
310
41D51A1A58DAD95B90D409028333333333333E3BF0000000000000FB010790141107004050150C41D405064090741402480A0350
1001
ACAD
1000
AcDbSavedByObjectVersion
1070
     0
  0
DICTIONARYVAR
  5
2A2
102
{ACAD_REACTORS
330
29F
102
}
330
29F
100
DictionaryVariables
280
     0
  1
1:1
  0
DICTIONARYVAR
  5
2A3
102
{ACAD_REACTORS
330
29F
102
}
330
29F
100
DictionaryVariables
280
     0
  1
2
  0
DICTIONARYVAR
  5
2A4
102
{ACAD_REACTORS
330
29F
102
}
330
29F
100
DictionaryVariables
280
     0
  1
1
  0
ENDSEC
  0
EOF
