  0
SECTION
  2
HEADER
  9
$ACADVER
  1
AC1012
  9
$DWGCODEPAGE
  3
ansi_1252
  9
$INSBASE
 10
0.0
 20
0.0
 30
0.0
  9
$EXTMIN
 10
0.0
 20
0.0
 30
0.0
  9
$EXTMAX
 10
11.0
 20
8.5
 30
0.0
  9
$LIMMIN
 10
0.0
 20
0.0
  9
$LIMMAX
 10
11.0
 20
8.5
  9
$ORTHOMODE
 70
     0
  9
$REGENMODE
 70
     1
  9
$FILLMODE
 70
     1
  9
$QTEXTMODE
 70
     0
  9
$MIRRTEXT
 70
     1
  9
$DRAGMODE
 70
     2
  9
$LTSCALE
 40
1.0
  9
$OSMODE
 70
    37
  9
$ATTMODE
 70
     1
  9
$TEXTSIZE
 40
0.125
  9
$TRACEWID
 40
0.05
  9
$TEXTSTYLE
  7
STANDARD
  9
$CLAYER
  8
0
  9
$CELTYPE
  6
BYLAYER
  9
$CECOLOR
 62
   256
  9
$CELTSCALE
 40
1.0
  9
$DELOBJ
 70
     1
  9
$DISPSILH
 70
     0
  9
$DIMSCALE
 40
1.0
  9
$DIMASZ
 40
0.13
  9
$DIMEXO
 40
0.05
  9
$DIMDLI
 40
0.38
  9
$DIMRND
 40
0.0
  9
$DIMDLE
 40
0.0
  9
$DIMEXE
 40
0.125
  9
$DIMTP
 40
0.0
  9
$DIMTM
 40
0.0
  9
$DIMTXT
 40
0.125
  9
$DIMCEN
 40
0.09
  9
$DIMTSZ
 40
0.0
  9
$DIMTOL
 70
     0
  9
$DIMLIM
 70
     0
  9
$DIMTIH
 70
     1
  9
$DIMTOH
 70
     1
  9
$DIMSE1
 70
     0
  9
$DIMSE2
 70
     0
  9
$DIMTAD
 70
     0
  9
$DIMZIN
 70
     0
  9
$DIMBLK
  1

  9
$DIMASO
 70
     1
  9
$DIMSHO
 70
     1
  9
$DIMPOST
  1

  9
$DIMAPOST
  1

  9
$DIMALT
 70
     0
  9
$DIMALTD
 70
     2
  9
$DIMALTF
 40
25.4
  9
$DIMLFAC
 40
0.5
  9
$DIMTOFL
 70
     0
  9
$DIMTVP
 40
0.0
  9
$DIMTIX
 70
     0
  9
$DIMSOXD
 70
     0
  9
$DIMSAH
 70
     0
  9
$DIMBLK1
  1

  9
$DIMBLK2
  1

  9
$DIMSTYLE
  2
STANDARD
  9
$DIMCLRD
 70
     0
  9
$DIMCLRE
 70
     0
  9
$DIMCLRT
 70
     0
  9
$DIMTFAC
 40
1.0
  9
$DIMGAP
 40
0.06
  9
$DIMJUST
 70
     0
  9
$DIMSD1
 70
     0
  9
$DIMSD2
 70
     0
  9
$DIMTOLJ
 70
     1
  9
$DIMTZIN
 70
     0
  9
$DIMALTZ
 70
     0
  9
$DIMALTTZ
 70
     0
  9
$DIMFIT
 70
     3
  9
$DIMUPT
 70
     0
  9
$DIMUNIT
 70
     2
  9
$DIMDEC
 70
     3
  9
$DIMTDEC
 70
     3
  9
$DIMALTU
 70
     2
  9
$DIMALTTD
 70
     2
  9
$DIMTXSTY
  7
STANDARD
  9
$DIMAUNIT
 70
     0
  9
$LUNITS
 70
     2
  9
$LUPREC
 70
     2
  9
$SKETCHINC
 40
0.1
  9
$FILLETRAD
 40
0.5
  9
$AUNITS
 70
     0
  9
$AUPREC
 70
     2
  9
$MENU
  1
.
  9
$ELEVATION
 40
0.0
  9
$PELEVATION
 40
0.0
  9
$THICKNESS
 40
0.0
  9
$LIMCHECK
 70
     0
  9
$CHAMFERA
 40
0.5
  9
$CHAMFERB
 40
0.5
  9
$CHAMFERC
 40
1.0
  9
$CHAMFERD
 40
0.0
  9
$SKPOLY
 70
     0
  9
$TDCREATE
 40
2455784.019407384
  9
$TDUPDATE
 40
2455784.019407396
  9
$TDINDWG
 40
0.0000000116
  9
$TDUSRTIMER
 40
0.0000000116
  9
$USRTIMER
 70
     1
  9
$ANGBASE
 50
0.0
  9
$ANGDIR
 70
     0
  9
$PDMODE
 70
     0
  9
$PDSIZE
 40
-1.0
  9
$PLINEWID
 40
0.0
  9
$COORDS
 70
     1
  9
$SPLFRAME
 70
     0
  9
$SPLINETYPE
 70
     6
  9
$SPLINESEGS
 70
     8
  9
$ATTDIA
 70
     0
  9
$ATTREQ
 70
     1
  9
$HANDLING
 70
     1
  9
$HANDSEED
  5
571
  9
$SURFTAB1
 70
     6
  9
$SURFTAB2
 70
     6
  9
$SURFTYPE
 70
     6
  9
$SURFU
 70
     6
  9
$SURFV
 70
     6
  9
$UCSNAME
  2

  9
$UCSORG
 10
0.0
 20
0.0
 30
0.0
  9
$UCSXDIR
 10
1.0
 20
0.0
 30
0.0
  9
$UCSYDIR
 10
0.0
 20
1.0
 30
0.0
  9
$PUCSNAME
  2

  9
$PUCSORG
 10
0.0
 20
0.0
 30
0.0
  9
$PUCSXDIR
 10
1.0
 20
0.0
 30
0.0
  9
$PUCSYDIR
 10
0.0
 20
1.0
 30
0.0
  9
$USERI1
 70
     0
  9
$USERI2
 70
     0
  9
$USERI3
 70
     0
  9
$USERI4
 70
     0
  9
$USERI5
 70
     0
  9
$USERR1
 40
0.0
  9
$USERR2
 40
0.0
  9
$USERR3
 40
0.0
  9
$USERR4
 40
0.0
  9
$USERR5
 40
0.0
  9
$WORLDVIEW
 70
     1
  9
$SHADEDGE
 70
     3
  9
$SHADEDIF
 70
    70
  9
$TILEMODE
 70
     1
  9
$MAXACTVP
 70
    64
  9
$PINSBASE
 10
0.0
 20
0.0
 30
0.0
  9
$PLIMCHECK
 70
     0
  9
$PEXTMIN
 10
1.0000000000E+20
 20
1.0000000000E+20
 30
1.0000000000E+20
  9
$PEXTMAX
 10
-1.0000000000E+20
 20
-1.0000000000E+20
 30
-1.0000000000E+20
  9
$PLIMMIN
 10
0.0
 20
0.0
  9
$PLIMMAX
 10
12.0
 20
9.0
  9
$UNITMODE
 70
     0
  9
$VISRETAIN
 70
     1
  9
$PLINEGEN
 70
     0
  9
$PSLTSCALE
 70
     1
  9
$TREEDEPTH
 70
  3020
  9
$PICKSTYLE
 70
     1
  9
$CMLSTYLE
  2
STANDARD
  9
$CMLJUST
 70
     0
  9
$CMLSCALE
 40
1.0
  9
$SAVEIMAGES
 70
     1
  0
ENDSEC
  0
SECTION
  2
CLASSES
  0
CLASS
  1
ACDBDICTIONARYWDFLT
  2
AcDbDictionaryWithDefault
  3
ObjectDBX Classes
 90
    32768
280
     0
281
     0
  0
CLASS
  1
VISUALSTYLE
  2
AcDbVisualStyle
  3
ObjectDBX Classes
 90
     4095
280
     0
281
     0
  0
CLASS
  1
SCALE
  2
AcDbScale
  3
ObjectDBX Classes
 90
     1153
280
     0
281
     0
  0
CLASS
  1
DICTIONARYVAR
  2
AcDbDictionaryVar
  3
ObjectDBX Classes
 90
        0
280
     0
281
     0
  0
CLASS
  1
XRECORD
  2
AcDbXrecord
  3
AutoCAD 2000
 90
    32768
280
     0
281
     0
  0
CLASS
  1
LWPOLYLINE
  2
AcDbPolyline
  3
AutoCAD 2000
 90
    32768
280
     0
281
     1
  0
CLASS
  1
HATCH
  2
AcDbHatch
  3
AutoCAD 2000
 90
    32768
280
     0
281
     1
  0
CLASS
  1
ACDBPLACEHOLDER
  2
AcDbPlaceHolder
  3
ObjectDBX Classes
 90
        0
280
     0
281
     0
  0
CLASS
  1
LAYOUT
  2
AcDbLayout
  3
ObjectDBX Classes
 90
        0
280
     0
281
     0
  0
ENDSEC
  0
SECTION
  2
TABLES
  0
TABLE
  2
VPORT
  5
8
330
0
100
AcDbSymbolTable
 70
     1
  0
VPORT
  5
29
330
8
100
AcDbSymbolTableRecord
100
AcDbViewportTableRecord
  2
*ACTIVE
 70
     0
 10
0.0
 20
0.0
 11
1.0
 21
1.0
 12
5.5
 22
4.25
 13
0.0
 23
0.0
 14
0.5
 24
0.5
 15
0.5
 25
0.5
 16
0.0
 26
0.0
 36
1.0
 17
0.0
 27
0.0
 37
0.0
 40
8.5
 41
1.2941176471
 42
50.0
 43
0.0
 44
0.0
 50
0.0
 51
0.0
 71
     0
 72
  2000
 73
     1
 74
     3
 75
     0
 76
     0
 77
     0
 78
     0
  0
ENDTAB
  0
TABLE
  2
LTYPE
  5
5
330
0
100
AcDbSymbolTable
 70
     6
  0
LTYPE
  5
14
330
5
100
AcDbSymbolTableRecord
100
AcDbLinetypeTableRecord
  2
BYBLOCK
 70
     0
  3

 72
    65
 73
     0
 40
0.0
  0
LTYPE
  5
15
330
5
100
AcDbSymbolTableRecord
100
AcDbLinetypeTableRecord
  2
BYLAYER
 70
     0
  3

 72
    65
 73
     0
 40
0.0
  0
LTYPE
  5
16
330
5
100
AcDbSymbolTableRecord
100
AcDbLinetypeTableRecord
  2
CONTINUOUS
 70
     0
  3
Solid line
 72
    65
 73
     0
 40
0.0
  0
LTYPE
  5
3B
330
5
100
AcDbSymbolTableRecord
100
AcDbLinetypeTableRecord
  2
HIDDEN
 70
     0
  3
Hidden __ __ __ __ __ __ __ __ __ __ __ __ __ __
 72
    65
 73
     2
 40
0.075
 49
0.05
 74
     0
 49
-0.025
 74
     0
  0
LTYPE
  5
3C
330
5
100
AcDbSymbolTableRecord
100
AcDbLinetypeTableRecord
  2
PHANTOM
 70
     0
  3
Phantom ______  __  __  ______  __  __  ______
 72
    65
 73
     6
 40
0.5
 49
0.25
 74
     0
 49
-0.05
 74
     0
 49
0.05
 74
     0
 49
-0.05
 74
     0
 49
0.05
 74
     0
 49
-0.05
 74
     0
  0
LTYPE
  5
3D
330
5
100
AcDbSymbolTableRecord
100
AcDbLinetypeTableRecord
  2
CENTER
 70
     0
  3
Center ____ _ ____ _ ____ _ ____ _ ____ _ ____
 72
    65
 73
     4
 40
0.4
 49
0.25
 74
     0
 49
-0.05
 74
     0
 49
0.05
 74
     0
 49
-0.05
 74
     0
  0
LTYPE
  5
3E
330
5
100
AcDbSymbolTableRecord
100
AcDbLinetypeTableRecord
  2
CENTERX2
 70
     0
  3
Center (2x) ________  __  ________  __  _____
 72
    65
 73
     4
 40
0.8
 49
0.5
 74
     0
 49
-0.1
 74
     0
 49
0.1
 74
     0
 49
-0.1
 74
     0
  0
LTYPE
  5
3F
330
5
100
AcDbSymbolTableRecord
100
AcDbLinetypeTableRecord
  2
DOT2
 70
     0
  3
Dot (.5x) ........................................
 72
    65
 73
     2
 40
0.025
 49
0.0
 74
     0
 49
-0.025
 74
     0
  0
ENDTAB
  0
TABLE
  2
LAYER
  5
2
330
0
100
AcDbSymbolTable
 70
     2
  0
LAYER
  5
10
330
2
100
AcDbSymbolTableRecord
100
AcDbLayerTableRecord
  2
0
 70
     0
 62
     7
  6
CONTINUOUS
  0
LAYER
  5
40
330
2
100
AcDbSymbolTableRecord
100
AcDbLayerTableRecord
  2
FORMAT
 70
     0
 62
     7
  6
CONTINUOUS
  0
ENDTAB
  0
TABLE
  2
STYLE
  5
3
330
0
100
AcDbSymbolTable
 70
     4
  0
STYLE
  5
11
330
3
100
AcDbSymbolTableRecord
100
AcDbTextStyleTableRecord
  2
STANDARD
 70
     0
 40
0.0
 41
1.0
 50
0.0
 71
     0
 42
0.2
  3
txt
  4

  0
STYLE
  5
6E
330
3
100
AcDbSymbolTableRecord
100
AcDbTextStyleTableRecord
  2
SLDTEXTSTYLE0
 70
     0
 40
0.0
 41
0.75
 50
0.0
 71
     0
 42
0.2
  3
TXT
  4

  0
STYLE
  5
93
330
3
100
AcDbSymbolTableRecord
100
AcDbTextStyleTableRecord
  2
SLDTEXTSTYLE1
 70
     0
 40
0.0
 41
0.6875
 50
0.0
 71
     0
 42
0.2
  3
TXT
  4

  0
STYLE
  5
99
330
3
100
AcDbSymbolTableRecord
100
AcDbTextStyleTableRecord
  2
SLDTEXTSTYLE2
 70
     0
 40
0.0
 41
0.6944444444
 50
0.0
 71
     0
 42
0.2
  3
TXT
  4

  0
ENDTAB
  0
TABLE
  2
VIEW
  5
6
330
0
100
AcDbSymbolTable
 70
     0
  0
ENDTAB
  0
TABLE
  2
UCS
  5
7
330
0
100
AcDbSymbolTable
 70
     0
  0
ENDTAB
  0
TABLE
  2
APPID
  5
9
330
0
100
AcDbSymbolTable
 70
     1
  0
APPID
  5
12
330
9
100
AcDbSymbolTableRecord
100
AcDbRegAppTableRecord
  2
ACAD
 70
     0
  0
ENDTAB
  0
TABLE
  2
DIMSTYLE
  5
A
330
0
100
AcDbSymbolTable
 70
     1
  0
DIMSTYLE
105
27
330
A
100
AcDbSymbolTableRecord
100
AcDbDimStyleTableRecord
  2
STANDARD
 70
     0
  3

  4

  5

  6

  7

 40
1.0
 41
0.18
 42
0.0625
 43
0.38
 44
0.18
 45
0.0
 46
0.0
 47
0.0
 48
0.0
140
0.18
141
0.09
142
0.0
143
25.4
144
1.0
145
0.0
146
1.0
147
0.09
 71
     0
 72
     0
 73
     1
 74
     1
 75
     0
 76
     0
 77
     0
 78
     0
170
     0
171
     2
172
     0
173
     0
174
     0
175
     0
176
     0
177
     0
178
     0
270
     2
271
     4
272
     4
273
     2
274
     2
340
11
275
     0
280
     0
281
     0
282
     0
283
     1
284
     0
285
     0
286
     0
287
     3
288
     0
  0
ENDTAB
  0
TABLE
  2
BLOCK_RECORD
  5
1
330
0
100
AcDbSymbolTable
 70
     4
  0
BLOCK_RECORD
  5
1F
330
1
100
AcDbSymbolTableRecord
100
AcDbBlockTableRecord
  2
*MODEL_SPACE
  0
BLOCK_RECORD
  5
1B
330
1
100
AcDbSymbolTableRecord
100
AcDbBlockTableRecord
  2
*PAPER_SPACE
  0
BLOCK_RECORD
  5
A8
330
1
100
AcDbSymbolTableRecord
100
AcDbBlockTableRecord
  2
SW_NOTE_0
  0
BLOCK_RECORD
  5
AE
330
1
100
AcDbSymbolTableRecord
100
AcDbBlockTableRecord
  2
SW_NOTE_1
  0
BLOCK_RECORD
  5
C2
330
1
100
AcDbSymbolTableRecord
100
AcDbBlockTableRecord
  2
SW_NOTE_2
  0
ENDTAB
  0
ENDSEC
  0
SECTION
  2
BLOCKS
  0
BLOCK
  5
20
330
1F
100
AcDbEntity
  8
0
100
AcDbBlockBegin
  2
*MODEL_SPACE
 70
     0
 10
0.0
 20
0.0
 30
0.0
  3
*MODEL_SPACE
  1

  0
ENDBLK
  5
21
330
1F
100
AcDbEntity
  8
0
100
AcDbBlockEnd
  0
BLOCK
  5
1C
330
1B
100
AcDbEntity
 67
     1
  8
0
100
AcDbBlockBegin
  2
*PAPER_SPACE
 70
     0
 10
0.0
 20
0.0
 30
0.0
  3
*PAPER_SPACE
  1

  0
ENDBLK
  5
1D
330
1B
100
AcDbEntity
 67
     1
  8
0
100
AcDbBlockEnd
  0
BLOCK
  5
A9
330
A8
100
AcDbEntity
  8
0
100
AcDbBlockBegin
  2
SW_NOTE_0
 70
     0
 10
0.0
 20
0.0
 30
0.0
  3
SW_NOTE_0
  1

  0
MTEXT
  5
AB
330
A8
100
AcDbEntity
  8
0
  6
CONTINUOUS
 62
     0
100
AcDbMText
 10
0.0
 20
0.0773440644
 30
0.0
 40
0.06
 41
0.0
 71
     1
 72
     1
  1
INTERPRET GEOMETRIC
  7
SLDTEXTSTYLE0
  0
MTEXT
  5
AC
330
A8
100
AcDbEntity
  8
0
  6
CONTINUOUS
 62
     0
100
AcDbMText
 10
0.0
 20
-0.0220260102
 30
0.0
 40
0.06
 41
0.0
 71
     1
 72
     1
  1
TOLERANCING PER:
  7
SLDTEXTSTYLE0
  0
ENDBLK
  5
AA
330
A8
100
AcDbEntity
  8
0
100
AcDbBlockEnd
  0
BLOCK
  5
AF
330
AE
100
AcDbEntity
  8
0
100
AcDbBlockBegin
  2
SW_NOTE_1
 70
     0
 10
0.0
 20
0.0
 30
0.0
  3
SW_NOTE_1
  1

  0
MTEXT
  5
B1
330
AE
100
AcDbEntity
  8
0
  6
CONTINUOUS
 62
     0
100
AcDbMText
 10
0.0
 20
0.0837894031
 30
0.0
 40
0.065
 41
0.0
 71
     1
 72
     1
  1
DIMENSIONS ARE IN INCHES
  7
SLDTEXTSTYLE0
  0
MTEXT
  5
B2
330
AE
100
AcDbEntity
  8
0
  6
CONTINUOUS
 62
     0
100
AcDbMText
 10
0.0
 20
-0.0205806729
 30
0.0
 40
0.065
 41
0.0
 71
     1
 72
     1
  1
TOLERANCES:
  7
SLDTEXTSTYLE0
  0
MTEXT
  5
B3
330
AE
100
AcDbEntity
  8
0
  6
CONTINUOUS
 62
     0
100
AcDbMText
 10
0.0
 20
-0.1249507489
 30
0.0
 40
0.065
 41
0.0
 71
     1
 72
     1
  1
FRACTIONAL
  7
SLDTEXTSTYLE0
  0
MTEXT
  5
B4
330
AE
100
AcDbEntity
  8
0
  6
CONTINUOUS
 62
     0
100
AcDbMText
 10
0.5175850875
 20
-0.1249507489
 30
0.0
 40
0.065
 41
0.0
 71
     1
 72
     1
  1
%%p
  7
SLDTEXTSTYLE0
  0
MTEXT
  5
B5
330
AE
100
AcDbEntity
  8
0
  6
CONTINUOUS
 62
     0
100
AcDbMText
 10
0.0
 20
-0.2293208248
 30
0.0
 40
0.065
 41
0.0
 71
     1
 72
     1
  1
ANGULAR: MACH
  7
SLDTEXTSTYLE0
  0
MTEXT
  5
B6
330
AE
100
AcDbEntity
  8
0
  6
CONTINUOUS
 62
     0
100
AcDbMText
 10
0.7233732769
 20
-0.2293208248
 30
0.0
 40
0.065
 41
0.0
 71
     1
 72
     1
  1
%%p
  7
SLDTEXTSTYLE0
  0
MTEXT
  5
B7
330
AE
100
AcDbEntity
  8
0
  6
CONTINUOUS
 62
     0
100
AcDbMText
 10
0.7852857683
 20
-0.2293208248
 30
0.0
 40
0.065
 41
0.0
 71
     1
 72
     1
  1
     BEND 
  7
SLDTEXTSTYLE0
  0
MTEXT
  5
B8
330
AE
100
AcDbEntity
  8
0
  6
CONTINUOUS
 62
     0
100
AcDbMText
 10
1.14784136
 20
-0.2293208248
 30
0.0
 40
0.065
 41
0.0
 71
     1
 72
     1
  1
%%p
  7
SLDTEXTSTYLE0
  0
MTEXT
  5
B9
330
AE
100
AcDbEntity
  8
0
  6
CONTINUOUS
 62
     0
100
AcDbMText
 10
0.0
 20
-0.3336909008
 30
0.0
 40
0.065
 41
0.0
 71
     1
 72
     1
  1
TWO PLACE DECIMAL    
  7
SLDTEXTSTYLE0
  0
MTEXT
  5
BA
330
AE
100
AcDbEntity
  8
0
  6
CONTINUOUS
 62
     0
100
AcDbMText
 10
0.9794349188
 20
-0.3336909008
 30
0.0
 40
0.065
 41
0.0
 71
     1
 72
     1
  1
%%p
  7
SLDTEXTSTYLE0
  0
MTEXT
  5
BB
330
AE
100
AcDbEntity
  8
0
  6
CONTINUOUS
 62
     0
100
AcDbMText
 10
0.0
 20
-0.4380609768
 30
0.0
 40
0.065
 41
0.0
 71
     1
 72
     1
  1
THREE PLACE DECIMAL  
  7
SLDTEXTSTYLE0
  0
MTEXT
  5
BC
330
AE
100
AcDbEntity
  8
0
  6
CONTINUOUS
 62
     0
100
AcDbMText
 10
0.9738038639
 20
-0.4380609768
 30
0.0
 40
0.065
 41
0.0
 71
     1
 72
     1
  1
%%p
  7
SLDTEXTSTYLE0
  0
ENDBLK
  5
B0
330
AE
100
AcDbEntity
  8
0
100
AcDbBlockEnd
  0
BLOCK
  5
C3
330
C2
100
AcDbEntity
  8
0
100
AcDbBlockBegin
  2
SW_NOTE_2
 70
     0
 10
0.0
 20
0.0
 30
0.0
  3
SW_NOTE_2
  1

  0
MTEXT
  5
C5
330
C2
100
AcDbEntity
  8
0
  6
CONTINUOUS
 62
     0
100
AcDbMText
 10
0.0
 20
0.0773440644
 30
0.0
 40
0.06
 41
0.0
 71
     1
 72
     1
  1
THE INFORMATION CONTAINED IN THIS
  7
SLDTEXTSTYLE0
  0
MTEXT
  5
C6
330
C2
100
AcDbEntity
  8
0
  6
CONTINUOUS
 62
     0
100
AcDbMText
 10
0.0
 20
-0.0220260102
 30
0.0
 40
0.06
 41
0.0
 71
     1
 72
     1
  1
DRAWING IS THE SOLE PROPERTY OF
  7
SLDTEXTSTYLE0
  0
MTEXT
  5
C7
330
C2
100
AcDbEntity
  8
0
  6
CONTINUOUS
 62
     0
100
AcDbMText
 10
0.0
 20
-0.1213960848
 30
0.0
 40
0.06
 41
0.0
 71
     1
 72
     1
  1
Candy Controls.  ANY 
  7
SLDTEXTSTYLE0
  0
MTEXT
  5
C8
330
C2
100
AcDbEntity
  8
0
  6
CONTINUOUS
 62
     0
100
AcDbMText
 10
0.0
 20
-0.2207661593
 30
0.0
 40
0.06
 41
0.0
 71
     1
 72
     1
  1
REPRODUCTION IN PART OR AS A WHOLE
  7
SLDTEXTSTYLE0
  0
MTEXT
  5
C9
330
C2
100
AcDbEntity
  8
0
  6
CONTINUOUS
 62
     0
100
AcDbMText
 10
0.0
 20
-0.3201362339
 30
0.0
 40
0.06
 41
0.0
 71
     1
 72
     1
  1
WITHOUT THE WRITTEN PERMISSION OF
  7
SLDTEXTSTYLE0
  0
MTEXT
  5
CA
330
C2
100
AcDbEntity
  8
0
  6
CONTINUOUS
 62
     0
100
AcDbMText
 10
0.0
 20
-0.4195063085
 30
0.0
 40
0.06
 41
0.0
 71
     1
 72
     1
  1
Candy Controls IS 
  7
SLDTEXTSTYLE0
  0
MTEXT
  5
CB
330
C2
100
AcDbEntity
  8
0
  6
CONTINUOUS
 62
     0
100
AcDbMText
 10
0.0
 20
-0.518876383
 30
0.0
 40
0.06
 41
0.0
 71
     1
 72
     1
  1
PROHIBITED.
  7
SLDTEXTSTYLE0
  0
ENDBLK
  5
C4
330
C2
100
AcDbEntity
  8
0
100
AcDbBlockEnd
  0
ENDSEC
  0
SECTION
  2
ENTITIES
  0
LINE
  5
41
330
1F
100
AcDbEntity
  8
0
  6
CONTINUOUS
 62
     7
100
AcDbLine
 10
0.329927
 20
8.1920731707
 30
0.0
 11
10.629927
 21
8.1920731707
 31
0.0
  0
LINE
  5
42
330
1F
100
AcDbEntity
  8
0
  6
CONTINUOUS
 62
     7
100
AcDbLine
 10
0.329927
 20
8.1920731707
 30
0.0
 11
0.329927
 21
0.3920731707
 31
0.0
  0
LINE
  5
43
330
1F
100
AcDbEntity
  8
0
  6
CONTINUOUS
 62
     7
100
AcDbLine
 10
10.629927
 20
0.3920731707
 30
0.0
 11
0.329927
 21
0.3920731707
 31
0.0
  0
LINE
  5
44
330
1F
100
AcDbEntity
  8
0
  6
CONTINUOUS
 62
     7
100
AcDbLine
 10
10.629927
 20
0.3920731707
 30
0.0
 11
10.629927
 21
8.1920731707
 31
0.0
  0
LINE
  5
45
330
1F
100
AcDbEntity
  8
0
  6
CONTINUOUS
 62
     7
100
AcDbLine
 10
4.7981841288
 20
0.3920731707
 30
0.0
 11
4.7981841288
 21
2.3564211366
 31
0.0
  0
LINE
  5
46
330
1F
100
AcDbEntity
  8
0
  6
CONTINUOUS
 62
     7
100
AcDbLine
 10
2.8210345579
 20
2.3564211366
 30
0.0
 11
10.629927
 21
2.3564211366
 31
0.0
  0
LINE
  5
47
330
1F
100
AcDbEntity
  8
0
  6
CONTINUOUS
 62
     7
100
AcDbLine
 10
6.1796352514
 20
2.3564211366
 30
0.0
 11
6.1796352514
 21
0.3920731707
 31
0.0
  0
LINE
  5
48
330
1F
100
AcDbEntity
  8
0
  6
CONTINUOUS
 62
     7
100
AcDbLine
 10
7.8712070044
 20
2.3564211366
 30
0.0
 11
7.8712070044
 21
0.3920731707
 31
0.0
  0
LINE
  5
49
330
1F
100
AcDbEntity
  8
0
  6
CONTINUOUS
 62
     7
100
AcDbLine
 10
7.8712070044
 20
0.6049590101
 30
0.0
 11
10.629927
 21
0.6049590101
 31
0.0
  0
LINE
  5
4A
330
1F
100
AcDbEntity
  8
0
  6
CONTINUOUS
 62
     7
100
AcDbLine
 10
7.8712070044
 20
1.1119362457
 30
0.0
 11
10.629927
 21
1.1119362457
 31
0.0
  0
LINE
  5
4B
330
1F
100
AcDbEntity
  8
0
  6
CONTINUOUS
 62
     7
100
AcDbLine
 10
7.8712070044
 20
1.9892703708
 30
0.0
 11
10.629927
 21
1.9892703708
 31
0.0
  0
LINE
  5
4C
330
1F
100
AcDbEntity
  8
0
  6
CONTINUOUS
 62
     7
100
AcDbLine
 10
8.266751752
 20
1.1119362457
 30
0.0
 11
8.266751752
 21
0.6049590101
 31
0.0
  0
LINE
  5
4D
330
1F
100
AcDbEntity
  8
0
  6
CONTINUOUS
 62
     7
100
AcDbLine
 10
8.6943435176
 20
0.6049590101
 30
0.0
 11
8.6943435176
 21
0.3920731707
 31
0.0
  0
LINE
  5
4E
330
1F
100
AcDbEntity
  8
0
  6
CONTINUOUS
 62
     7
100
AcDbLine
 10
10.0579917045
 20
1.1119362457
 30
0.0
 11
10.0579917045
 21
0.6049590101
 31
0.0
  0
LINE
  5
4F
330
1F
100
AcDbEntity
  8
0
  6
CONTINUOUS
 62
     7
100
AcDbLine
 10
9.6662556631
 20
0.6049590101
 30
0.0
 11
9.6662556631
 21
0.3920731707
 31
0.0
  0
LINE
  5
50
330
1F
100
AcDbEntity
  8
0
  6
CONTINUOUS
 62
     7
100
AcDbLine
 10
2.8210345579
 20
0.5883479999
 30
0.0
 11
6.1796352514
 21
0.5883479999
 31
0.0
  0
LINE
  5
51
330
1F
100
AcDbEntity
  8
0
  6
CONTINUOUS
 62
     7
100
AcDbLine
 10
6.1796352514
 20
1.7939211366
 30
0.0
 11
7.8712070044
 21
1.7939211366
 31
0.0
  0
LINE
  5
52
330
1F
100
AcDbEntity
  8
0
  6
CONTINUOUS
 62
     7
100
AcDbLine
 10
6.1796352514
 20
1.9814211366
 30
0.0
 11
7.8712070044
 21
1.9814211366
 31
0.0
  0
LINE
  5
53
330
1F
100
AcDbEntity
  8
0
  6
CONTINUOUS
 62
     7
100
AcDbLine
 10
6.1796352514
 20
2.1689211366
 30
0.0
 11
7.8712070044
 21
2.1689211366
 31
0.0
  0
LINE
  5
54
330
1F
100
AcDbEntity
  8
0
  6
CONTINUOUS
 62
     7
100
AcDbLine
 10
7.8712070044
 20
1.2314211366
 30
0.0
 11
6.1796352514
 21
1.2314211366
 31
0.0
  0
LINE
  5
55
330
1F
100
AcDbEntity
  8
0
  6
CONTINUOUS
 62
     7
100
AcDbLine
 10
7.3921580388
 20
2.3564211366
 30
0.0
 11
7.3921580388
 21
1.2314211366
 31
0.0
  0
LINE
  5
56
330
1F
100
AcDbEntity
  8
0
  6
CONTINUOUS
 62
     7
100
AcDbLine
 10
6.9236308342
 20
2.3564211366
 30
0.0
 11
6.9236308342
 21
1.2314211366
 31
0.0
  0
LINE
  5
57
330
1F
100
AcDbEntity
  8
0
  6
CONTINUOUS
 62
     7
100
AcDbLine
 10
4.7981841288
 20
0.8557965305
 30
0.0
 11
6.1796352514
 21
0.8557965305
 31
0.0
  0
LINE
  5
58
330
1F
100
AcDbEntity
  8
0
  6
CONTINUOUS
 62
     7
100
AcDbLine
 10
4.7981841288
 20
1.1257965305
 30
0.0
 11
6.1796352514
 21
1.1257965305
 31
0.0
  0
LINE
  5
59
330
1F
100
AcDbEntity
  8
0
  6
CONTINUOUS
 62
     7
100
AcDbLine
 10
2.8210345579
 20
0.3920731707
 30
0.0
 11
2.8210345579
 21
2.3564211366
 31
0.0
  0
LINE
  5
5A
330
1F
100
AcDbEntity
  8
0
  6
CONTINUOUS
 62
     7
100
AcDbLine
 10
2.8210345579
 20
1.1064211366
 30
0.0
 11
4.7981841288
 21
1.1064211366
 31
0.0
  0
LINE
  5
5B
330
1F
100
AcDbEntity
  8
0
  6
CONTINUOUS
 62
     7
100
AcDbLine
 10
2.8210345579
 20
1.3564211366
 30
0.0
 11
4.7981841288
 21
1.3564211366
 31
0.0
  0
LINE
  5
5C
330
1F
100
AcDbEntity
  8
0
  6
CONTINUOUS
 62
     7
100
AcDbLine
 10
2.8210345579
 20
1.6064211366
 30
0.0
 11
4.7981841288
 21
1.6064211366
 31
0.0
  0
LINE
  5
5D
330
1F
100
AcDbEntity
  8
0
  6
CONTINUOUS
 62
     7
100
AcDbLine
 10
2.8210345579
 20
1.8564211366
 30
0.0
 11
4.7981841288
 21
1.8564211366
 31
0.0
  0
LINE
  5
5E
330
1F
100
AcDbEntity
  8
0
  6
CONTINUOUS
 62
     7
100
AcDbLine
 10
3.8190146875
 20
2.3564211366
 30
0.0
 11
3.8190146875
 21
0.5883479999
 31
0.0
  0
LINE
  5
5F
330
1F
100
AcDbEntity
  8
0
  6
CONTINUOUS
 62
     7
100
AcDbLine
 10
6.1796352514
 20
2.2020813496
 30
0.0
 11
4.7981841288
 21
2.2020813496
 31
0.0
  0
LINE
  5
60
330
1F
100
AcDbEntity
  8
0
  6
CONTINUOUS
 62
     7
100
AcDbLine
 10
7.8712070044
 20
1.6064211366
 30
0.0
 11
6.1796352514
 21
1.6064211366
 31
0.0
  0
LINE
  5
61
330
1F
100
AcDbEntity
  8
0
  6
CONTINUOUS
 62
     7
100
AcDbLine
 10
7.8712070044
 20
1.4189211366
 30
0.0
 11
6.1796352514
 21
1.4189211366
 31
0.0
  0
LINE
  5
62
330
1F
100
AcDbEntity
  8
0
  6
CONTINUOUS
 62
     7
100
AcDbLine
 10
2.8210345579
 20
2.1064211366
 30
0.0
 11
4.7981841288
 21
2.1064211366
 31
0.0
  0
LINE
  5
63
330
1F
100
AcDbEntity
  8
0
  6
CONTINUOUS
 62
     7
100
AcDbLine
 10
4.7981841288
 20
1.3957965305
 30
0.0
 11
6.1796352514
 21
1.3957965305
 31
0.0
  0
LINE
  5
64
330
1F
100
AcDbEntity
  8
0
  6
CONTINUOUS
 62
     7
100
AcDbLine
 10
2.8210345579
 20
0.8564211366
 30
0.0
 11
4.7981841288
 21
0.8564211366
 31
0.0
  0
LINE
  5
65
330
1F
100
AcDbEntity
  8
0
  6
CONTINUOUS
 62
     7
100
AcDbLine
 10
1.1838252943
 20
0.3920731707
 30
0.0
 11
1.1838252943
 21
1.3064211366
 31
0.0
  0
LINE
  5
66
330
1F
100
AcDbEntity
  8
0
  6
CONTINUOUS
 62
     7
100
AcDbLine
 10
2.8210345579
 20
1.3064211366
 30
0.0
 11
1.1838252943
 21
1.3064211366
 31
0.0
  0
LINE
  5
67
330
1F
100
AcDbEntity
  8
0
  6
CONTINUOUS
 62
     7
100
AcDbLine
 10
8.660927
 20
0.3920731707
 30
0.0
 11
8.660927
 21
0.3072739649
 31
0.0
  0
LINE
  5
68
330
1F
100
AcDbEntity
  8
0
  6
CONTINUOUS
 62
     7
100
AcDbLine
 10
6.692177
 20
0.3920731707
 30
0.0
 11
6.692177
 21
0.3072739649
 31
0.0
  0
LINE
  5
69
330
1F
100
AcDbEntity
  8
0
  6
CONTINUOUS
 62
     7
100
AcDbLine
 10
4.723427
 20
0.3920731707
 30
0.0
 11
4.723427
 21
0.3072739649
 31
0.0
  0
LINE
  5
6A
330
1F
100
AcDbEntity
  8
0
  6
CONTINUOUS
 62
     7
100
AcDbLine
 10
2.754677
 20
0.3920731707
 30
0.0
 11
2.754677
 21
0.3072739649
 31
0.0
  0
LINE
  5
6B
330
1F
100
AcDbEntity
  8
0
  6
CONTINUOUS
 62
     7
100
AcDbLine
 10
2.754677
 20
0.3920731707
 30
0.0
 11
2.7672319738
 21
0.3575
 31
0.0
  0
LINE
  5
6C
330
1F
100
AcDbEntity
  8
0
  6
CONTINUOUS
 62
     7
100
AcDbLine
 10
2.7672319738
 20
0.3575
 30
0.0
 11
2.7414258825
 21
0.3575
 31
0.0
  0
LINE
  5
6D
330
1F
100
AcDbEntity
  8
0
  6
CONTINUOUS
 62
     7
100
AcDbLine
 10
2.7414258825
 20
0.3575
 30
0.0
 11
2.754677
 21
0.3920731707
 31
0.0
  0
MTEXT
  5
91
330
1F
100
AcDbEntity
  8
0
  6
CONTINUOUS
 62
     7
100
AcDbMText
 10
4.9775846961
 20
0.5178452352
 30
0.0
 40
0.0625
 41
0.0
 71
     1
 72
     1
  1
DO NOT SCALE DRAWING
  7
SLDTEXTSTYLE0
  0
MTEXT
  5
92
330
1F
100
AcDbEntity
  8
0
  6
CONTINUOUS
 62
     7
100
AcDbMText
 10
8.9023839531
 20
0.9417064595
 30
0.0
 40
0.125
 41
0.0
 71
     1
 72
     1
  1
CL4-25
  7
SLDTEXTSTYLE0
  0
MTEXT
  5
94
330
1F
100
AcDbEntity
  8
0
  6
CONTINUOUS
 62
     7
100
AcDbMText
 10
9.7571278483
 20
0.5524239532
 30
0.0
 40
0.1
 41
0.0
 71
     1
 72
     1
  1
SHEET 1 OF 1
  7
SLDTEXTSTYLE1
  0
MTEXT
  5
95
330
1F
100
AcDbEntity
  8
0
  6
CONTINUOUS
 62
     7
100
AcDbMText
 10
4.8448077858
 20
2.3132954224
 30
0.0
 40
0.07
 41
0.0
 71
     1
 72
     1
  1
UNLESS OTHERWISE SPECIFIED:
  7
SLDTEXTSTYLE0
  0
MTEXT
  5
96
330
1F
100
AcDbEntity
  8
0
  6
CONTINUOUS
 62
     7
100
AcDbMText
 10
7.9586139647
 20
0.5520987879
 30
0.0
 40
0.1
 41
0.0
 71
     1
 72
     1
  1
SCALE: 2:1
  7
SLDTEXTSTYLE0
  0
MTEXT
  5
97
330
1F
100
AcDbEntity
  8
0
  6
CONTINUOUS
 62
     7
100
AcDbMText
 10
8.7023691647
 20
0.5486763345
 30
0.0
 40
0.1
 41
0.0
 71
     1
 72
     1
  1
WEIGHT: 
  7
SLDTEXTSTYLE0
  0
MTEXT
  5
98
330
1F
100
AcDbEntity
  8
0
  6
CONTINUOUS
 62
     7
100
AcDbMText
 10
10.2277580983
 20
1.081966299
 30
0.0
 40
0.1
 41
0.0
 71
     1
 72
     1
  1
REV
  7
SLDTEXTSTYLE0
  0
MTEXT
  5
9A
330
1F
100
AcDbEntity
  8
0
  6
CONTINUOUS
 62
     7
100
AcDbMText
 10
8.2984570898
 20
1.0858725293
 30
0.0
 40
0.1
 41
0.0
 71
     1
 72
     1
  1
DWG.  NO.
  7
SLDTEXTSTYLE2
  0
MTEXT
  5
9B
330
1F
100
AcDbEntity
  8
0
  6
CONTINUOUS
 62
     7
100
AcDbMText
 10
7.9598482632
 20
0.9442140768
 30
0.0
 40
0.25
 41
0.0
 71
     1
 72
     1
  1
A
  7
SLDTEXTSTYLE0
  0
MTEXT
  5
9C
330
1F
100
AcDbEntity
  8
0
  6
CONTINUOUS
 62
     7
100
AcDbMText
 10
7.9519581822
 20
1.0872713483
 30
0.0
 40
0.1
 41
0.0
 71
     1
 72
     1
  1
SIZE
  7
SLDTEXTSTYLE0
  0
MTEXT
  5
9D
330
1F
100
AcDbEntity
  8
0
  6
CONTINUOUS
 62
     7
100
AcDbMText
 10
7.9170704177
 20
1.9547881128
 30
0.0
 40
0.1
 41
0.0
 71
     1
 72
     1
  1
TITLE:
  7
SLDTEXTSTYLE0
  0
MTEXT
  5
9E
330
1F
100
AcDbEntity
  8
0
  6
CONTINUOUS
 62
     7
100
AcDbMText
 10
7.0363774929
 20
2.2906161274
 30
0.0
 40
0.065
 41
0.0
 71
     1
 72
     1
  1
NAME
  7
SLDTEXTSTYLE0
  0
MTEXT
  5
9F
330
1F
100
AcDbEntity
  8
0
  6
CONTINUOUS
 62
     7
100
AcDbMText
 10
7.5281510634
 20
2.2888799118
 30
0.0
 40
0.065
 41
0.0
 71
     1
 72
     1
  1
DATE
  7
SLDTEXTSTYLE0
  0
MTEXT
  5
A0
330
1F
100
AcDbEntity
  8
0
  6
CONTINUOUS
 62
     7
100
AcDbMText
 10
6.2277147029
 20
1.1876913145
 30
0.0
 40
0.065
 41
0.0
 71
     1
 72
     1
  1
COMMENTS:
  7
SLDTEXTSTYLE0
  0
MTEXT
  5
A1
330
1F
100
AcDbEntity
  8
0
  6
CONTINUOUS
 62
     7
100
AcDbMText
 10
6.2268411461
 20
1.3536101679
 30
0.0
 40
0.065
 41
0.0
 71
     1
 72
     1
  1
Q.A.
  7
SLDTEXTSTYLE0
  0
MTEXT
  5
A2
330
1F
100
AcDbEntity
  8
0
  6
CONTINUOUS
 62
     7
100
AcDbMText
 10
6.2284654509
 20
1.5395328424
 30
0.0
 40
0.065
 41
0.0
 71
     1
 72
     1
  1
MFG APPR.
  7
SLDTEXTSTYLE0
  0
MTEXT
  5
A3
330
1F
100
AcDbEntity
  8
0
  6
CONTINUOUS
 62
     7
100
AcDbMText
 10
6.2235171344
 20
1.7267501785
 30
0.0
 40
0.065
 41
0.0
 71
     1
 72
     1
  1
ENG APPR.
  7
SLDTEXTSTYLE0
  0
MTEXT
  5
A4
330
1F
100
AcDbEntity
  8
0
  6
CONTINUOUS
 62
     7
100
AcDbMText
 10
6.2264103951
 20
1.9092699088
 30
0.0
 40
0.065
 41
0.0
 71
     1
 72
     1
  1
CHECKED
  7
SLDTEXTSTYLE0
  0
MTEXT
  5
A5
330
1F
100
AcDbEntity
  8
0
  6
CONTINUOUS
 62
     7
100
AcDbMText
 10
6.2242794356
 20
2.1016301232
 30
0.0
 40
0.065
 41
0.0
 71
     1
 72
     1
  1
DRAWN
  7
SLDTEXTSTYLE0
  0
MTEXT
  5
A6
330
1F
100
AcDbEntity
  8
0
  6
CONTINUOUS
 62
     7
100
AcDbMText
 10
4.8208600979
 20
0.834523235
 30
0.0
 40
0.06
 41
0.0
 71
     1
 72
     1
  1
FINISH
  7
SLDTEXTSTYLE0
  0
MTEXT
  5
A7
330
1F
100
AcDbEntity
  8
0
  6
CONTINUOUS
 62
     7
100
AcDbMText
 10
4.8181240648
 20
1.1028217587
 30
0.0
 40
0.06
 41
0.0
 71
     1
 72
     1
  1
MATERIAL
  7
SLDTEXTSTYLE0
  0
INSERT
  5
AD
330
1F
100
AcDbEntity
  8
0
  6
CONTINUOUS
 62
     7
100
AcDbBlockReference
  2
SW_NOTE_0
 10
4.8231926633
 20
1.2646542947
 30
0.0
  0
INSERT
  5
BD
330
1F
100
AcDbEntity
  8
0
  6
CONTINUOUS
 62
     7
100
AcDbBlockReference
  2
SW_NOTE_1
 10
4.8353339353
 20
2.0049168724
 30
0.0
  0
MTEXT
  5
BE
330
1F
100
AcDbEntity
  8
0
  6
CONTINUOUS
 62
     7
100
AcDbMText
 10
3.5531400086
 20
0.5200091997
 30
0.0
 40
0.0625
 41
0.0
 71
     1
 72
     1
  1
APPLICATION
  7
SLDTEXTSTYLE0
  0
MTEXT
  5
BF
330
1F
100
AcDbEntity
  8
0
  6
CONTINUOUS
 62
     7
100
AcDbMText
 10
4.1005607758
 20
0.7502454275
 30
0.0
 40
0.0625
 41
0.0
 71
     1
 72
     1
  1
USED ON
  7
SLDTEXTSTYLE0
  0
MTEXT
  5
C0
330
1F
100
AcDbEntity
  8
0
  6
CONTINUOUS
 62
     7
100
AcDbMText
 10
3.1040019536
 20
0.7492094783
 30
0.0
 40
0.0625
 41
0.0
 71
     1
 72
     1
  1
NEXT ASSY
  7
SLDTEXTSTYLE0
  0
MTEXT
  5
C1
330
1F
100
AcDbEntity
  8
0
  6
CONTINUOUS
 62
     7
100
AcDbMText
 10
1.3712489489
 20
1.2496672684
 30
0.0
 40
0.06
 41
0.0
 71
     1
 72
     1
  1
PROPRIETARY AND CONFIDENTIAL
  7
SLDTEXTSTYLE0
  0
INSERT
  5
CC
330
1F
100
AcDbEntity
  8
0
  6
CONTINUOUS
 62
     7
100
AcDbBlockReference
  2
SW_NOTE_2
 10
1.2226209074
 20
1.0313492921
 30
0.0
  0
MTEXT
  5
CD
330
1F
100
AcDbEntity
  8
0
  6
CONTINUOUS
 62
     7
100
AcDbMText
 10
1.7387909509
 20
0.3105864247
 30
0.0
 40
0.09375
 41
0.0
 71
     1
 72
     1
  1
5
  7
SLDTEXTSTYLE0
  0
MTEXT
  5
CE
330
1F
100
AcDbEntity
  8
0
  6
CONTINUOUS
 62
     7
100
AcDbMText
 10
3.723800327
 20
0.3137237518
 30
0.0
 40
0.09375
 41
0.0
 71
     1
 72
     1
  1
4
  7
SLDTEXTSTYLE0
  0
MTEXT
  5
CF
330
1F
100
AcDbEntity
  8
0
  6
CONTINUOUS
 62
     7
100
AcDbMText
 10
5.6324457277
 20
0.3116191842
 30
0.0
 40
0.09375
 41
0.0
 71
     1
 72
     1
  1
3
  7
SLDTEXTSTYLE0
  0
MTEXT
  5
D0
330
1F
100
AcDbEntity
  8
0
  6
CONTINUOUS
 62
     7
100
AcDbMText
 10
7.6059721724
 20
0.3124391351
 30
0.0
 40
0.09375
 41
0.0
 71
     1
 72
     1
  1
2
  7
SLDTEXTSTYLE0
  0
MTEXT
  5
D1
330
1F
100
AcDbEntity
  8
0
  6
CONTINUOUS
 62
     7
100
AcDbMText
 10
9.6619921328
 20
0.301372012
 30
0.0
 40
0.09375
 41
0.0
 71
     1
 72
     1
  1
1
  7
SLDTEXTSTYLE0
  0
LINE
  5
D2
330
1F
100
AcDbEntity
  8
0
  6
CONTINUOUS
 62
     7
100
AcDbLine
 10
4.1762483307
 20
4.7397747205
 30
0.0
 11
4.1730927963
 21
4.7429302549
 31
0.0
  0
LINE
  5
D3
330
1F
100
AcDbEntity
  8
0
  6
CONTINUOUS
 62
     7
100
AcDbLine
 10
3.8187620876
 20
4.7429302549
 30
0.0
 11
3.8156097952
 21
4.7397779624
 31
0.0
  0
LINE
  5
D4
330
1F
100
AcDbEntity
  8
0
  6
CONTINUOUS
 62
     7
100
AcDbLine
 10
3.6415967333
 20
2.7744263179
 30
0.0
 11
4.3896282294
 21
2.7744263179
 31
0.0
  0
LINE
  5
D5
330
1F
100
AcDbEntity
  8
0
  6
CONTINUOUS
 62
     7
100
AcDbLine
 10
3.7990770483
 20
4.7429302549
 30
0.0
 11
3.6415967333
 21
4.7429302549
 31
0.0
  0
LINE
  5
D6
330
1F
100
AcDbEntity
  8
0
  6
CONTINUOUS
 62
     7
100
AcDbLine
 10
4.3896282294
 20
4.7429302549
 30
0.0
 11
4.1922883483
 21
4.7429302549
 31
0.0
  0
LINE
  5
D7
330
1F
100
AcDbEntity
  8
0
  6
CONTINUOUS
 62
     7
100
AcDbLine
 10
4.3896282294
 20
2.7744263179
 30
0.0
 11
4.4289983081
 21
2.8137963966
 31
0.0
  0
LINE
  5
D8
330
1F
100
AcDbEntity
  8
0
  6
CONTINUOUS
 62
     7
100
AcDbLine
 10
4.4289983081
 20
4.7035601762
 30
0.0
 11
4.3896282294
 21
4.7429302549
 31
0.0
  0
LINE
  5
D9
330
1F
100
AcDbEntity
  8
0
  6
CONTINUOUS
 62
     7
100
AcDbLine
 10
3.6415967333
 20
4.7429302549
 30
0.0
 11
3.6022266546
 21
4.7035601762
 31
0.0
  0
LINE
  5
DA
330
1F
100
AcDbEntity
  8
0
  6
CONTINUOUS
 62
     7
100
AcDbLine
 10
3.6022266546
 20
2.8137963966
 30
0.0
 11
3.6415967333
 21
2.7744263179
 31
0.0
  0
LINE
  5
DB
330
1F
100
AcDbEntity
  8
0
  6
CONTINUOUS
 62
     7
100
AcDbLine
 10
2.6179746861
 20
4.7429302549
 30
0.0
 11
2.2636439774
 21
4.7429302549
 31
0.0
  0
LINE
  5
DC
330
1F
100
AcDbEntity
  8
0
  6
CONTINUOUS
 62
     7
100
AcDbLine
 10
2.2636439774
 20
2.7744263179
 30
0.0
 11
2.6179746861
 21
2.7744263179
 31
0.0
  0
LINE
  5
DD
330
1F
100
AcDbEntity
  8
0
  6
CONTINUOUS
 62
     7
100
AcDbLine
 10
2.2636439774
 20
4.7429302549
 30
0.0
 11
2.2242738987
 21
4.7035601762
 31
0.0
  0
LINE
  5
DE
330
1F
100
AcDbEntity
  8
0
  6
CONTINUOUS
 62
     7
100
AcDbLine
 10
2.2242738987
 20
2.8137963966
 30
0.0
 11
2.2636439774
 21
2.7744263179
 31
0.0
  0
LINE
  5
DF
330
1F
100
AcDbEntity
  8
0
  6
CONTINUOUS
 62
     7
100
AcDbLine
 10
2.6573447648
 20
4.7035601762
 30
0.0
 11
2.6179746861
 21
4.7429302549
 31
0.0
  0
LINE
  5
E0
330
1F
100
AcDbEntity
  8
0
  6
CONTINUOUS
 62
     7
100
AcDbLine
 10
2.6179746861
 20
2.7744263179
 30
0.0
 11
2.6573447648
 21
2.8137963966
 31
0.0
  0
LINE
  5
E1
330
1F
100
AcDbEntity
  8
0
  6
CONTINUOUS
 62
     7
100
AcDbLine
 10
2.6967148435
 20
2.7744263179
 30
0.0
 11
3.5628565758
 21
2.7744263179
 31
0.0
  0
LINE
  5
E2
330
1F
100
AcDbEntity
  8
0
  6
CONTINUOUS
 62
     7
100
AcDbLine
 10
3.5628565758
 20
4.7429302549
 30
0.0
 11
2.6967148435
 21
4.7429302549
 31
0.0
  0
LINE
  5
E3
330
1F
100
AcDbEntity
  8
0
  6
CONTINUOUS
 62
     7
100
AcDbLine
 10
2.6967148435
 20
4.7429302549
 30
0.0
 11
2.6573447648
 21
4.7035601762
 31
0.0
  0
LINE
  5
E4
330
1F
100
AcDbEntity
  8
0
  6
CONTINUOUS
 62
     7
100
AcDbLine
 10
2.6573447648
 20
2.8137963966
 30
0.0
 11
2.6967148435
 21
2.7744263179
 31
0.0
  0
LINE
  5
E5
330
1F
100
AcDbEntity
  8
0
  6
CONTINUOUS
 62
     7
100
AcDbLine
 10
3.5628565758
 20
2.7744263179
 30
0.0
 11
3.6022266546
 21
2.8137963966
 31
0.0
  0
LINE
  5
E6
330
1F
100
AcDbEntity
  8
0
  6
CONTINUOUS
 62
     7
100
AcDbLine
 10
3.6022266546
 20
4.7035601762
 30
0.0
 11
3.5628565758
 21
4.7429302549
 31
0.0
  0
LINE
  5
E7
330
1F
100
AcDbEntity
  8
0
  6
CONTINUOUS
 62
     7
100
AcDbLine
 10
4.0156124813
 20
4.7232452155
 30
0.0
 11
3.9762424026
 21
4.7232452155
 31
0.0
  0
LINE
  5
E8
330
1F
100
AcDbEntity
  8
0
  6
CONTINUOUS
 62
     7
100
AcDbLine
 10
3.8187620876
 20
4.7429302549
 30
0.0
 11
4.1730927963
 21
4.7429302549
 31
0.0
  0
LINE
  5
E9
330
1F
100
AcDbEntity
  8
0
  6
CONTINUOUS
 62
     7
100
AcDbLine
 10
4.0352975207
 20
4.6356484473
 30
0.0
 11
4.0352975207
 21
2.8817081255
 31
0.0
  0
SPLINE
  5
EA
330
1F
100
AcDbEntity
  8
0
  6
CONTINUOUS
 62
     7
100
AcDbSpline
210
0.0
220
0.0
230
1.0
 70
     8
 71
     3
 72
     8
 73
     4
 74
     0
 42
0.00000001
 43
0.00000001
 40
0.0
 40
0.0
 40
0.0
 40
0.0
 40
0.0007538973953194
 40
0.0007538973953194
 40
0.0007538973953194
 40
0.0007538973953194
 10
4.035297520707387
 20
2.881708125466758
 30
0.0
 10
4.022134104488763
 20
2.896481853128996
 30
0.0
 10
4.009008767349323
 20
2.91128962489713
 30
0.0
 10
3.99592744196723
 20
2.926136088510749
 30
0.0
  0
LINE
  5
EB
330
1F
100
AcDbEntity
  8
0
  6
CONTINUOUS
 62
     7
100
AcDbLine
 10
3.995927442
 20
2.9261360885
 30
0.0
 11
3.995927442
 21
4.5912204843
 31
0.0
  0
SPLINE
  5
EC
330
1F
100
AcDbEntity
  8
0
  6
CONTINUOUS
 62
     7
100
AcDbSpline
210
0.0
220
0.0
230
1.0
 70
     8
 71
     3
 72
     8
 73
     4
 74
     0
 42
0.00000001
 43
0.00000001
 40
0.0
 40
0.0
 40
0.0
 40
0.0
 40
0.0007538973953194
 40
0.0007538973953194
 40
0.0007538973953194
 40
0.0007538973953194
 10
3.99592744196723
 20
4.591220484273345
 30
0.0
 10
4.009008767349323
 20
4.606066947886964
 30
0.0
 10
4.022134104488763
 20
4.620874719655099
 30
0.0
 10
4.035297520707387
 20
4.635648447317336
 30
0.0
  0
LINE
  5
ED
330
1F
100
AcDbEntity
  8
0
  6
CONTINUOUS
 62
     7
100
AcDbLine
 10
3.6415967333
 20
4.6356484473
 30
0.0
 11
4.0352975207
 21
4.6356484473
 31
0.0
  0
LINE
  5
EE
330
1F
100
AcDbEntity
  8
0
  6
CONTINUOUS
 62
     7
100
AcDbLine
 10
3.6415967333
 20
4.7429302549
 30
0.0
 11
3.6415967333
 21
4.6356484473
 31
0.0
  0
LINE
  5
EF
330
1F
100
AcDbEntity
  8
0
  6
CONTINUOUS
 62
     7
100
AcDbLine
 10
3.6415967333
 20
2.8817081255
 30
0.0
 11
3.6415967333
 21
2.7744263179
 31
0.0
  0
LINE
  5
F0
330
1F
100
AcDbEntity
  8
0
  6
CONTINUOUS
 62
     7
100
AcDbLine
 10
4.0352975207
 20
2.8817081255
 30
0.0
 11
3.6415967333
 21
2.8817081255
 31
0.0
  0
SPLINE
  5
F1
330
1F
100
AcDbEntity
  8
0
  6
CONTINUOUS
 62
     7
100
AcDbSpline
210
0.0
220
0.0
230
1.0
 70
     8
 71
     3
 72
    26
 73
    22
 74
     0
 42
0.00000001
 43
0.00000001
 40
0.0
 40
0.0
 40
0.0
 40
0.0
 40
0.0522070796145147
 40
0.1059463689802733
 40
0.1581483911836045
 40
0.2118303230218923
 40
0.2646633161135599
 40
0.3189999090950809
 40
0.3722795670504767
 40
0.4271431982570221
 40
0.4797149575201305
 40
0.5338584642844734
 40
0.5856678136181004
 40
0.6389617207878794
 40
0.6911423130532666
 40
0.7447839680130744
 40
0.7978837017681171
 40
0.8525166484476226
 40
0.9056677209456072
 40
0.9604112533930347
 40
1.0
 40
1.0
 40
1.0
 40
1.0
 10
3.799077048266442
 20
4.742930254895985
 30
0.0
 10
3.799591387950998
 20
4.74282672856057
 30
0.0
 10
3.800635162519571
 20
4.742616637526711
 30
0.0
 10
3.809023127615522
 20
4.740970321219267
 30
0.0
 10
3.822265348855665
 20
4.738516690602032
 30
0.0
 10
3.840296101488335
 20
4.735452829414875
 30
0.0
 10
3.862872115083907
 20
4.732079534512098
 30
0.0
 10
3.889151166678637
 20
4.728803641244757
 30
0.0
 10
3.918841837987646
 20
4.725956903032096
 30
0.0
 10
3.950479965498715
 20
4.723931938370413
 30
0.0
 10
3.983613401823328
 20
4.722932748845032
 30
0.0
 10
4.016496280429184
 20
4.723077728117796
 30
0.0
 10
4.048909600333184
 20
4.724327853019605
 30
0.0
 10
4.079447009175023
 20
4.72650405657955
 30
0.0
 10
4.107978658046965
 20
4.729408349021231
 30
0.0
 10
4.133378939964536
 20
4.73269650233065
 30
0.0
 10
4.155287300508045
 20
4.736057581785223
 30
0.0
 10
4.172694746241603
 20
4.739075616904296
 30
0.0
 10
4.185043626649032
 20
4.741396816359146
 30
0.0
 10
4.191943953750773
 20
4.742762807138917
 30
0.0
 10
4.192186540901759
 20
4.742811998847804
 30
0.0
 10
4.192288348271907
 20
4.742832643298653
 30
0.0
  0
LINE
  5
F2
330
1F
100
AcDbEntity
  8
0
  6
CONTINUOUS
 62
     7
100
AcDbLine
 10
4.3896282294
 20
2.7744263179
 30
0.0
 11
4.3896282294
 21
4.7429302549
 31
0.0
  0
LINE
  5
F3
330
1F
100
AcDbEntity
  8
0
  6
CONTINUOUS
 62
     7
100
AcDbLine
 10
4.4289983081
 20
4.7035601762
 30
0.0
 11
4.4289983081
 21
2.8137963966
 31
0.0
  0
LINE
  5
F4
330
1F
100
AcDbEntity
  8
0
  6
CONTINUOUS
 62
     7
100
AcDbLine
 10
3.6415967333
 20
4.6356484473
 30
0.0
 11
3.6295363281
 21
4.6220386387
 31
0.0
  0
LINE
  5
F5
330
1F
100
AcDbEntity
  8
0
  6
CONTINUOUS
 62
     7
100
AcDbLine
 10
3.6022266546
 20
4.6220386387
 30
0.0
 11
3.6022266546
 21
4.7035601762
 31
0.0
  0
LINE
  5
F6
330
1F
100
AcDbEntity
  8
0
  6
CONTINUOUS
 62
     7
100
AcDbLine
 10
3.6254641662
 20
2.8999132477
 30
0.0
 11
3.6415967333
 21
2.8817081255
 31
0.0
  0
LINE
  5
F7
330
1F
100
AcDbEntity
  8
0
  6
CONTINUOUS
 62
     7
100
AcDbLine
 10
3.6022266546
 20
2.8137963966
 30
0.0
 11
3.6022266546
 21
2.8999132477
 31
0.0
  0
CIRCLE
  5
F8
330
1F
100
AcDbEntity
  8
0
  6
CONTINUOUS
 62
     7
100
AcDbCircle
 10
2.6573447648
 20
3.7586782864
 30
0.0
 40
0.1771653543307088
  0
LINE
  5
F9
330
1F
100
AcDbEntity
  8
0
  6
CONTINUOUS
 62
     7
100
AcDbLine
 10
2.558919568
 20
3.8155041003
 30
0.0
 11
2.6573447648
 21
3.8723299142
 31
0.0
  0
LINE
  5
FA
330
1F
100
AcDbEntity
  8
0
  6
CONTINUOUS
 62
     7
100
AcDbLine
 10
2.558919568
 20
3.7018524725
 30
0.0
 11
2.558919568
 21
3.8155041003
 31
0.0
  0
LINE
  5
FB
330
1F
100
AcDbEntity
  8
0
  6
CONTINUOUS
 62
     7
100
AcDbLine
 10
2.6573447648
 20
3.6450266586
 30
0.0
 11
2.558919568
 21
3.7018524725
 31
0.0
  0
LINE
  5
FC
330
1F
100
AcDbEntity
  8
0
  6
CONTINUOUS
 62
     7
100
AcDbLine
 10
2.7557699617
 20
3.7018524725
 30
0.0
 11
2.6573447648
 21
3.6450266586
 31
0.0
  0
LINE
  5
FD
330
1F
100
AcDbEntity
  8
0
  6
CONTINUOUS
 62
     7
100
AcDbLine
 10
2.7557699617
 20
3.8155041003
 30
0.0
 11
2.7557699617
 21
3.7018524725
 31
0.0
  0
LINE
  5
FE
330
1F
100
AcDbEntity
  8
0
  6
CONTINUOUS
 62
     7
100
AcDbLine
 10
2.6573447648
 20
3.8723299142
 30
0.0
 11
2.7557699617
 21
3.8155041003
 31
0.0
  0
LINE
  5
FF
330
1F
100
AcDbEntity
  8
0
  6
CONTINUOUS
 62
     7
100
AcDbLine
 10
2.6573447648
 20
3.9555286801
 30
0.0
 11
2.6376597254
 21
3.9545419551
 31
0.0
  0
ARC
  5
100
330
1F
100
AcDbEntity
  8
0
  6
CONTINUOUS
 62
     7
100
AcDbCircle
 10
2.6573447648
 20
3.7586782864
 30
0.0
 40
0.1968503937007879
100
AcDbArc
 50
264.2608295227
 51
90.0
  0
LINE
  5
101
330
1F
100
AcDbEntity
  8
0
  6
CONTINUOUS
 62
     7
100
AcDbLine
 10
2.6179746861
 20
4.2055286801
 30
0.0
 11
2.6179746861
 21
4.7429302549
 31
0.0
  0
LINE
  5
102
330
1F
100
AcDbEntity
  8
0
  6
CONTINUOUS
 62
     7
100
AcDbLine
 10
2.6179746861
 20
4.2055286801
 30
0.0
 11
3.0510455522
 21
4.2055286801
 31
0.0
  0
LINE
  5
103
330
1F
100
AcDbEntity
  8
0
  6
CONTINUOUS
 62
     7
100
AcDbLine
 10
3.0510455522
 20
4.2055286801
 30
0.0
 11
3.0510455522
 21
3.3118278927
 31
0.0
  0
LINE
  5
104
330
1F
100
AcDbEntity
  8
0
  6
CONTINUOUS
 62
     7
100
AcDbLine
 10
3.0510455522
 20
3.3118278927
 30
0.0
 11
2.6179746861
 21
3.3118278927
 31
0.0
  0
LINE
  5
105
330
1F
100
AcDbEntity
  8
0
  6
CONTINUOUS
 62
     7
100
AcDbLine
 10
2.6179746861
 20
2.7744263179
 30
0.0
 11
2.6179746861
 21
3.3118278927
 31
0.0
  0
SPLINE
  5
106
330
1F
100
AcDbEntity
  8
0
  6
CONTINUOUS
 62
     7
100
AcDbSpline
210
0.0
220
0.0
230
1.0
 70
     8
 71
     3
 72
    62
 73
    58
 74
     0
 42
0.00000001
 43
0.00000001
 40
-0.0312500000000001
 40
-0.0312500000000001
 40
0.0
 40
0.0
 40
0.03125
 40
0.03125
 40
0.0625
 40
0.0625
 40
0.09375
 40
0.09375
 40
0.125
 40
0.125
 40
0.1874999999999999
 40
0.1874999999999999
 40
0.2187499999999999
 40
0.2187499999999999
 40
0.2499999999999999
 40
0.2499999999999999
 40
0.2812499999999999
 40
0.2812499999999999
 40
0.3124999999999998
 40
0.3124999999999998
 40
0.3437499999999998
 40
0.3437499999999998
 40
0.3749999999999998
 40
0.3749999999999998
 40
0.4062499999999997
 40
0.4062499999999997
 40
0.4374999999999997
 40
0.4374999999999997
 40
0.4687499999999997
 40
0.4687499999999997
 40
0.4999999999999996
 40
0.4999999999999996
 40
0.5624999999999996
 40
0.5624999999999996
 40
0.5937499999999994
 40
0.5937499999999994
 40
0.6249999999999994
 40
0.6249999999999994
 40
0.6562499999999994
 40
0.6562499999999994
 40
0.6874999999999994
 40
0.6874999999999994
 40
0.7499999999999993
 40
0.7499999999999993
 40
0.7812499999999993
 40
0.7812499999999993
 40
0.8124999999999994
 40
0.8124999999999994
 40
0.8437499999999996
 40
0.8437499999999996
 40
0.8749999999999997
 40
0.8749999999999997
 40
0.9374999999999998
 40
0.9374999999999998
 40
0.9687499999999999
 40
0.9687499999999999
 40
1.0
 40
1.0
 40
1.03125
 40
1.03125
 10
2.854195158502663
 20
3.771718375545506
 30
0.0
 10
2.854195158502663
 20
3.745638197238581
 30
0.0
 10
2.852912282594012
 20
3.732822486136901
 30
0.0
 10
2.847891810632503
 20
3.707619499220469
 30
0.0
 10
2.844090975169583
 20
3.695099342745022
 30
0.0
 10
2.834198612922139
 20
3.671276080658858
 30
0.0
 10
2.828149922273786
 20
3.6599823409633
 30
0.0
 10
2.813865427220326
 20
3.638609249171089
 30
0.0
 10
2.805573558291465
 20
3.628515861070308
 30
0.0
 10
2.778407068457512
 20
3.601357547539248
 30
0.0
 10
2.756499565962547
 20
3.58670360717016
 30
0.0
 10
2.720993650604299
 20
3.571961606143875
 30
0.0
 10
2.708553946043802
 20
3.568163920507319
 30
0.0
 10
2.683129540886744
 20
3.56309390773623
 30
0.0
 10
2.670335784084661
 20
3.561835591186537
 30
0.0
 10
2.644588110101371
 20
3.561820263952963
 30
0.0
 10
2.631507186483518
 20
3.563106043952661
 30
0.0
 10
2.606235558522549
 20
3.56814238032806
 30
0.0
 10
2.593949033130731
 20
3.571868263315476
 30
0.0
 10
2.570076058855022
 20
3.581756901369348
 30
0.0
 10
2.558600815752396
 20
3.587904608476836
 30
0.0
 10
2.537310906948897
 20
3.602134715743154
 30
0.0
 10
2.527331148936679
 20
3.610307480200908
 30
0.0
 10
2.509031785132406
 20
3.628598708818491
 30
0.0
 10
2.500910534614746
 20
3.638501435213142
 30
0.0
 10
2.486656006379093
 20
3.65978697392424
 30
0.0
 10
2.480474844020482
 20
3.671311268832315
 30
0.0
 10
2.470598797915918
 20
3.695102280805605
 30
0.0
 10
2.46686068252418
 20
3.707372389273346
 30
0.0
 10
2.461794200071267
 20
3.732669493381402
 30
0.0
 10
2.460499600050303
 20
3.745734689607899
 30
0.0
 10
2.460483961689847
 20
3.784326171933731
 30
0.0
 10
2.465657114242207
 20
3.810293954680034
 30
0.0
 10
2.480382314235118
 20
3.845850141723909
 30
0.0
 10
2.486520904583013
 20
3.857346634037131
 30
0.0
 10
2.500846446640662
 20
3.878780369886866
 30
0.0
 10
2.508964746849906
 20
3.888670934663462
 30
0.0
 10
2.527095134067326
 20
3.906832773416761
 30
0.0
 10
2.537194194270727
 20
3.915133526853452
 30
0.0
 10
2.558499616746015
 20
3.929394538027945
 30
0.0
 10
2.569785510323135
 20
3.935457042034266
 30
0.0
 10
2.605608881460091
 20
3.950361806391863
 30
0.0
 10
2.631208429350291
 20
3.955510280554622
 30
0.0
 10
2.67020450953674
 20
3.955537806303284
 30
0.0
 10
2.683008432568141
 20
3.954271907228233
 30
0.0
 10
2.708239837274248
 20
3.949269944008688
 30
0.0
 10
2.720792217551658
 20
3.945467454867188
 30
0.0
 10
2.744576615000188
 20
3.935614368159023
 30
0.0
 10
2.755879825994572
 20
3.929578569383472
 30
0.0
 10
2.777314275872039
 20
3.915277716226206
 30
0.0
 10
2.787381208794723
 20
3.90701676749094
 30
0.0
 10
2.814543090797245
 20
3.879895367564293
 30
0.0
 10
2.829226981529191
 20
3.857996767553263
 30
0.0
 10
2.844007986862378
 20
3.822485135059913
 30
0.0
 10
2.847829143709481
 20
3.809997211090253
 30
0.0
 10
2.852912054835678
 20
3.78458901214088
 30
0.0
 10
2.854195158502663
 20
3.771718375545506
 30
0.0
 10
2.854195158502663
 20
3.745638197238581
 30
0.0
  0
LINE
  5
107
330
1F
100
AcDbEntity
  8
0
  6
CONTINUOUS
 62
     7
100
AcDbLine
 10
2.2636439774
 20
3.7586782864
 30
0.0
 11
2.2636439774
 21
2.7744263179
 31
0.0
  0
LINE
  5
108
330
1F
100
AcDbEntity
  8
0
  6
CONTINUOUS
 62
     7
100
AcDbLine
 10
2.2636439774
 20
4.7429302549
 30
0.0
 11
2.2636439774
 21
3.7586782864
 31
0.0
  0
LINE
  5
109
330
1F
100
AcDbEntity
  8
0
  6
CONTINUOUS
 62
     7
100
AcDbLine
 10
2.2242738987
 20
3.7586782864
 30
0.0
 11
2.2242738987
 21
4.7035601762
 31
0.0
  0
LINE
  5
10A
330
1F
100
AcDbEntity
  8
0
  6
CONTINUOUS
 62
     7
100
AcDbLine
 10
2.2242738987
 20
2.8137963966
 30
0.0
 11
2.2242738987
 21
3.7586782864
 31
0.0
  0
LINE
  5
10B
330
1F
100
AcDbEntity
  8
0
  6
CONTINUOUS
 62
     7
100
AcDbLine
 10
2.6573447648
 20
4.7035601762
 30
0.0
 11
2.6573447648
 21
4.2055286801
 31
0.0
  0
LINE
  5
10C
330
1F
100
AcDbEntity
  8
0
  6
CONTINUOUS
 62
     7
100
AcDbLine
 10
2.6573447648
 20
3.3118278927
 30
0.0
 11
2.6573447648
 21
2.8137963966
 31
0.0
  0
SPLINE
  5
10D
330
1F
100
AcDbEntity
  8
0
  6
CONTINUOUS
 62
     7
100
AcDbSpline
210
0.0
220
0.0
230
1.0
 70
     8
 71
     3
 72
     8
 73
     4
 74
     0
 42
0.00000001
 43
0.00000001
 40
0.0
 40
0.0
 40
0.0
 40
0.0
 40
0.000640806303695
 40
0.000640806303695
 40
0.000640806303695
 40
0.000640806303695
 10
3.055505103664631
 20
4.205528680092831
 30
0.0
 10
3.067132010281445
 20
4.214122163836905
 30
0.0
 10
3.07876922721272
 20
4.222708677398148
 30
0.0
 10
3.090415630943607
 20
4.231288950218187
 30
0.0
  0
LINE
  5
10E
330
1F
100
AcDbEntity
  8
0
  6
CONTINUOUS
 62
     7
100
AcDbLine
 10
3.0904156309
 20
4.2312889502
 30
0.0
 11
3.0904156309
 21
3.2777681641
 31
0.0
  0
SPLINE
  5
10F
330
1F
100
AcDbEntity
  8
0
  6
CONTINUOUS
 62
     7
100
AcDbSpline
210
0.0
220
0.0
230
1.0
 70
     8
 71
     3
 72
     8
 73
     4
 74
     0
 42
0.00000001
 43
0.00000001
 40
0.0
 40
0.0
 40
0.0
 40
0.0
 40
0.0005619575253672
 40
0.0005619575253672
 40
0.0005619575253672
 40
0.0005619575253672
 10
3.064426918588437
 20
3.311827892691257
 30
0.0
 10
3.073020217754595
 20
3.300426903612158
 30
0.0
 10
3.081685798058142
 20
3.289074940854666
 30
0.0
 10
3.090415630943607
 20
3.277768164071924
 30
0.0
  0
LINE
  5
110
330
1F
100
AcDbEntity
  8
0
  6
CONTINUOUS
 62
     7
100
AcDbLine
 10
3.5628565758
 20
4.6220386387
 30
0.0
 11
3.5628565758
 21
4.7429302549
 31
0.0
  0
LINE
  5
111
330
1F
100
AcDbEntity
  8
0
  6
CONTINUOUS
 62
     7
100
AcDbLine
 10
3.9565573632
 20
4.6220386387
 30
0.0
 11
3.5628565758
 21
4.6220386387
 31
0.0
  0
LINE
  5
112
330
1F
100
AcDbEntity
  8
0
  6
CONTINUOUS
 62
     7
100
AcDbLine
 10
3.9565573632
 20
2.8999132477
 30
0.0
 11
3.9565573632
 21
4.6220386387
 31
0.0
  0
LINE
  5
113
330
1F
100
AcDbEntity
  8
0
  6
CONTINUOUS
 62
     7
100
AcDbLine
 10
3.5628565758
 20
2.8999132477
 30
0.0
 11
3.9565573632
 21
2.8999132477
 31
0.0
  0
LINE
  5
114
330
1F
100
AcDbEntity
  8
0
  6
CONTINUOUS
 62
     7
100
AcDbLine
 10
3.5628565758
 20
2.7744263179
 30
0.0
 11
3.5628565758
 21
2.8999132477
 31
0.0
  0
LINE
  5
115
330
1F
100
AcDbEntity
  8
0
  6
CONTINUOUS
 62
     7
100
AcDbLine
 10
3.0904156309
 20
3.2777681641
 30
0.0
 11
2.6967148435
 21
3.2777681641
 31
0.0
  0
LINE
  5
116
330
1F
100
AcDbEntity
  8
0
  6
CONTINUOUS
 62
     7
100
AcDbLine
 10
2.6967148435
 20
4.2312889502
 30
0.0
 11
3.0904156309
 21
4.2312889502
 31
0.0
  0
LINE
  5
117
330
1F
100
AcDbEntity
  8
0
  6
CONTINUOUS
 62
     7
100
AcDbLine
 10
2.6967148435
 20
4.7429302549
 30
0.0
 11
2.6967148435
 21
4.2312889502
 31
0.0
  0
LINE
  5
118
330
1F
100
AcDbEntity
  8
0
  6
CONTINUOUS
 62
     7
100
AcDbLine
 10
2.6967148435
 20
3.2777681641
 30
0.0
 11
2.6967148435
 21
2.7744263179
 31
0.0
  0
SPLINE
  5
119
330
1F
100
AcDbEntity
  8
0
  6
CONTINUOUS
 62
     7
100
AcDbSpline
210
0.0
220
0.0
230
1.0
 70
     8
 71
     3
 72
     8
 73
     4
 74
     0
 42
0.00000001
 43
0.00000001
 40
0.0
 40
0.0
 40
0.0
 40
0.0
 40
0.000085637742213
 40
0.000085637742213
 40
0.000085637742213
 40
0.000085637742213
 10
3.991467890506048
 20
4.596278368577178
 30
0.0
 10
3.992954969887549
 20
4.594592903027118
 30
0.0
 10
3.994441490194706
 20
4.59290694403778
 30
0.0
 10
3.99592744196723
 20
4.591220484273345
 30
0.0
  0
SPLINE
  5
11A
330
1F
100
AcDbEntity
  8
0
  6
CONTINUOUS
 62
     7
100
AcDbSpline
210
0.0
220
0.0
230
1.0
 70
     8
 71
     3
 72
     8
 73
     4
 74
     0
 42
0.00000001
 43
0.00000001
 40
0.0
 40
0.0
 40
0.0
 40
0.0
 40
0.0002567732876691
 40
0.0002567732876691
 40
0.0002567732876691
 40
0.0002567732876691
 10
3.99592744196723
 20
2.926136088510749
 30
0.0
 10
3.991472014814565
 20
2.921079465028567
 30
0.0
 10
3.987011476191829
 20
2.916027341132068
 30
0.0
 10
3.982546075582241
 20
2.910979522836095
 30
0.0
  0
SPLINE
  5
11B
330
1F
100
AcDbEntity
  8
0
  6
CONTINUOUS
 62
     7
100
AcDbSpline
210
0.0
220
0.0
230
1.0
 70
     8
 71
     3
 72
     8
 73
     4
 74
     0
 42
0.00000001
 43
0.00000001
 40
0.0
 40
0.0
 40
0.0
 40
0.0
 40
0.0005619575253672
 40
0.0005619575253672
 40
0.0005619575253672
 40
0.0005619575253672
 10
3.956557363227072
 20
2.899913247656816
 30
0.0
 10
3.965287196112537
 20
2.903586908849685
 30
0.0
 10
3.973952776416084
 20
2.907275251323091
 30
0.0
 10
3.982546075582241
 20
2.910979522836095
 30
0.0
  0
SPLINE
  5
11C
330
1F
100
AcDbEntity
  8
0
  6
CONTINUOUS
 62
     7
100
AcDbSpline
210
0.0
220
0.0
230
1.0
 70
     8
 71
     3
 72
     8
 73
     4
 74
     0
 42
0.00000001
 43
0.00000001
 40
0.0
 40
0.0
 40
0.0
 40
0.0
 40
0.000640806303695
 40
0.000640806303695
 40
0.000640806303695
 40
0.000640806303695
 10
3.956557363227072
 20
4.622038638702534
 30
0.0
 10
3.968203766957959
 20
4.613458365882495
 30
0.0
 10
3.979840983889235
 20
4.604871852321252
 30
0.0
 10
3.991467890506048
 20
4.596278368577178
 30
0.0
  0
SPLINE
  5
11D
330
1F
100
AcDbEntity
  8
0
  6
CONTINUOUS
 62
     7
100
AcDbSpline
210
0.0
220
0.0
230
1.0
 70
     8
 71
     3
 72
     8
 73
     4
 74
     0
 42
0.00000001
 43
0.00000001
 40
0.0
 40
0.0
 40
0.0
 40
0.0
 40
0.000640806303695
 40
0.000640806303695
 40
0.000640806303695
 40
0.000640806303695
 10
2.661804316263057
 20
4.205528680092831
 30
0.0
 10
2.67343122287987
 20
4.214122163836905
 30
0.0
 10
2.685068439811146
 20
4.222708677398148
 30
0.0
 10
2.696714843542032
 20
4.231288950218187
 30
0.0
  0
LINE
  5
11E
330
1F
100
AcDbEntity
  8
0
  6
CONTINUOUS
 62
     7
100
AcDbLine
 10
3.0555051037
 20
4.2055286801
 30
0.0
 11
3.0510455522
 21
4.2055286801
 31
0.0
  0
SPLINE
  5
11F
330
1F
100
AcDbEntity
  8
0
  6
CONTINUOUS
 62
     7
100
AcDbSpline
210
0.0
220
0.0
230
1.0
 70
     8
 71
     3
 72
     8
 73
     4
 74
     0
 42
0.00000001
 43
0.00000001
 40
0.0
 40
0.0
 40
0.0
 40
0.0
 40
0.0005619575253672
 40
0.0005619575253672
 40
0.0005619575253672
 40
0.0005619575253672
 10
2.670726131186863
 20
3.311827892691257
 30
0.0
 10
2.679319430353021
 20
3.300426903612158
 30
0.0
 10
2.687985010656568
 20
3.289074940854666
 30
0.0
 10
2.696714843542032
 20
3.277768164071924
 30
0.0
  0
LINE
  5
120
330
1F
100
AcDbEntity
  8
0
  6
CONTINUOUS
 62
     7
100
AcDbLine
 10
3.0510455522
 20
3.3118278927
 30
0.0
 11
3.0644269186
 21
3.3118278927
 31
0.0
  0
LINE
  5
121
330
1F
100
AcDbEntity
  8
0
  6
HIDDEN
 62
     7
100
AcDbLine
 10
4.1927778357
 20
4.7232452155
 30
0.0
 11
4.0156124813
 21
4.7232452155
 31
0.0
  0
LINE
  5
122
330
1F
100
AcDbEntity
  8
0
  6
HIDDEN
 62
     7
100
AcDbLine
 10
3.9762424026
 20
4.7232452155
 30
0.0
 11
3.7990770483
 21
4.7232452155
 31
0.0
  0
LINE
  5
123
330
1F
100
AcDbEntity
  8
0
  6
HIDDEN
 62
     7
100
AcDbLine
 10
3.995927442
 20
4.0283633258
 30
0.0
 11
4.1927778357
 21
4.0283633258
 31
0.0
  0
LINE
  5
124
330
1F
100
AcDbEntity
  8
0
  6
HIDDEN
 62
     7
100
AcDbLine
 10
3.7990770483
 20
4.0283633258
 30
0.0
 11
3.995927442
 21
4.0283633258
 31
0.0
  0
LINE
  5
125
330
1F
100
AcDbEntity
  8
0
  6
HIDDEN
 62
     7
100
AcDbLine
 10
4.1730927963
 20
4.0086782864
 30
0.0
 11
3.8187620876
 21
4.0086782864
 31
0.0
  0
LINE
  5
126
330
1F
100
AcDbEntity
  8
0
  6
HIDDEN
 62
     7
100
AcDbLine
 10
3.8975022451
 20
4.5460798612
 30
0.0
 11
3.995927442
 21
4.5460798612
 31
0.0
  0
LINE
  5
127
330
1F
100
AcDbEntity
  8
0
  6
HIDDEN
 62
     7
100
AcDbLine
 10
3.995927442
 20
4.5912204843
 30
0.0
 11
3.995927442
 21
4.7429302549
 31
0.0
  0
LINE
  5
128
330
1F
100
AcDbEntity
  8
0
  6
HIDDEN
 62
     7
100
AcDbLine
 10
3.995927442
 20
4.5460798612
 30
0.0
 11
4.0943526388
 21
4.5460798612
 31
0.0
  0
LINE
  5
129
330
1F
100
AcDbEntity
  8
0
  6
HIDDEN
 62
     7
100
AcDbLine
 10
3.8975022451
 20
4.5460798612
 30
0.0
 11
3.8975022451
 21
4.7429302549
 31
0.0
  0
LINE
  5
12A
330
1F
100
AcDbEntity
  8
0
  6
HIDDEN
 62
     7
100
AcDbLine
 10
4.0943526388
 20
4.5460798612
 30
0.0
 11
4.0943526388
 21
4.7429302549
 31
0.0
  0
LINE
  5
12B
330
1F
100
AcDbEntity
  8
0
  6
HIDDEN
 62
     7
100
AcDbLine
 10
3.6295363281
 20
4.6220386387
 30
0.0
 11
3.6022266546
 21
4.5912204843
 31
0.0
  0
LINE
  5
12C
330
1F
100
AcDbEntity
  8
0
  6
HIDDEN
 62
     7
100
AcDbLine
 10
3.6022266546
 20
4.5912204843
 30
0.0
 11
3.6022266546
 21
4.6220386387
 31
0.0
  0
LINE
  5
12D
330
1F
100
AcDbEntity
  8
0
  6
HIDDEN
 62
     7
100
AcDbLine
 10
3.6022266546
 20
2.9261360885
 30
0.0
 11
3.6254641662
 21
2.8999132477
 31
0.0
  0
LINE
  5
12E
330
1F
100
AcDbEntity
  8
0
  6
HIDDEN
 62
     7
100
AcDbLine
 10
3.6022266546
 20
2.9261360885
 30
0.0
 11
3.6022266546
 21
4.5912204843
 31
0.0
  0
LINE
  5
12F
330
1F
100
AcDbEntity
  8
0
  6
HIDDEN
 62
     7
100
AcDbLine
 10
3.6022266546
 20
2.8999132477
 30
0.0
 11
3.6022266546
 21
2.9261360885
 31
0.0
  0
SPLINE
  5
130
330
1F
100
AcDbEntity
  8
0
  6
HIDDEN
 62
     7
100
AcDbSpline
210
0.0
220
0.0
230
1.0
 70
     8
 71
     3
 72
    30
 73
    26
 74
     0
 42
0.00000001
 43
0.00000001
 40
0.0
 40
0.0
 40
0.0
 40
0.0
 40
0.0126686794442349
 40
0.0556309563427652
 40
0.0953290420883715
 40
0.1359906660296593
 40
0.17974850495743
 40
0.2243925347008043
 40
0.2771155261920504
 40
0.3309605824720568
 40
0.3768838171446475
 40
0.4238355406144023
 40
0.4570738297870554
 40
0.4911844019703337
 40
0.5244656089286817
 40
0.5588059569597816
 40
0.6018210745479071
 40
0.6460333883761099
 40
0.7065986048989599
 40
0.7688978372826044
 40
0.8203567631889224
 40
0.8731771667616824
 40
0.9154968301976347
 40
0.9589791913732585
 40
1.0
 40
1.0
 40
1.0
 40
1.0
 10
4.19238049249581
 20
4.008365624978865
 30
0.0
 10
4.192493716693162
 20
4.008454715543295
 30
0.0
 10
4.192990909033337
 20
4.008845931796118
 30
0.0
 10
4.190001188666546
 20
4.006491445280796
 30
0.0
 10
4.183661696032162
 20
4.001549031617082
 30
0.0
 10
4.173934173734222
 20
3.994089335413118
 30
0.0
 10
4.16095306215996
 20
3.984399838826878
 30
0.0
 10
4.14385642479476
 20
3.972153873787897
 30
0.0
 10
4.122579318969764
 20
3.957871365191954
 30
0.0
 10
4.098176349823734
 20
3.943218353185593
 30
0.0
 10
4.072112789606955
 20
3.930071983317015
 30
0.0
 10
4.047543727325223
 20
3.92063544069851
 30
0.0
 10
4.023738184526641
 20
3.914798298888988
 30
0.0
 10
4.001933728602335
 20
3.912374291434598
 30
0.0
 10
3.979691978054818
 20
3.913122733519375
 30
0.0
 10
3.956083315853299
 20
3.917268971461118
 30
0.0
 10
3.931556090249436
 20
3.92514483890155
 30
0.0
 10
3.904107508092112
 20
3.937516631487953
 30
0.0
 10
3.876199421043966
 20
3.953397242938862
 30
0.0
 10
3.85089273191045
 20
3.970095913700902
 30
0.0
 10
3.83046544956535
 20
3.984689713409467
 30
0.0
 10
3.815981381651495
 20
3.995556627930668
 30
0.0
 10
3.806057976607809
 20
4.00320369362916
 30
0.0
 10
3.800146226276419
 20
4.007834946485271
 30
0.0
 10
3.799466344671891
 20
4.008371327896336
 30
0.0
 10
3.799136306245482
 20
4.008631706285286
 30
0.0
  0
LINE
  5
131
330
1F
100
AcDbEntity
  8
0
  6
HIDDEN
 62
     7
100
AcDbLine
 10
3.995927442
 20
2.8817081255
 30
0.0
 11
3.995927442
 21
2.9261360885
 31
0.0
  0
ARC
  5
132
330
1F
100
AcDbEntity
  8
0
  6
HIDDEN
 62
     7
100
AcDbCircle
 10
2.6573447648
 20
3.7586782864
 30
0.0
 40
0.1968503937007881
100
AcDbArc
 50
95.7391704773
 51
264.2608295227
  0
LINE
  5
133
330
1F
100
AcDbEntity
  8
0
  6
HIDDEN
 62
     7
100
AcDbLine
 10
3.0116754735
 20
4.2055286801
 30
0.0
 11
3.0116754735
 21
3.3118278927
 31
0.0
  0
LINE
  5
134
330
1F
100
AcDbEntity
  8
0
  6
HIDDEN
 62
     7
100
AcDbLine
 10
3.5628565758
 20
4.6174433251
 30
0.0
 11
3.9565573632
 21
4.6174433251
 31
0.0
  0
LINE
  5
135
330
1F
100
AcDbEntity
  8
0
  6
HIDDEN
 62
     7
100
AcDbLine
 10
3.5628565758
 20
4.6220386387
 30
0.0
 11
3.5628565758
 21
4.6174433251
 31
0.0
  0
LINE
  5
136
330
1F
100
AcDbEntity
  8
0
  6
HIDDEN
 62
     7
100
AcDbLine
 10
3.9565573632
 20
2.8953179341
 30
0.0
 11
3.5628565758
 21
2.8953179341
 31
0.0
  0
LINE
  5
137
330
1F
100
AcDbEntity
  8
0
  6
HIDDEN
 62
     7
100
AcDbLine
 10
3.9565573632
 20
2.8999132477
 30
0.0
 11
3.9565573632
 21
2.8953179341
 31
0.0
  0
LINE
  5
138
330
1F
100
AcDbEntity
  8
0
  6
HIDDEN
 62
     7
100
AcDbLine
 10
3.0904156309
 20
4.2395884087
 30
0.0
 11
2.6967148435
 21
4.2395884087
 31
0.0
  0
LINE
  5
139
330
1F
100
AcDbEntity
  8
0
  6
HIDDEN
 62
     7
100
AcDbLine
 10
3.0904156309
 20
4.2312889502
 30
0.0
 11
3.0904156309
 21
4.2395884087
 31
0.0
  0
LINE
  5
13A
330
1F
100
AcDbEntity
  8
0
  6
HIDDEN
 62
     7
100
AcDbLine
 10
2.6967148435
 20
3.2860676226
 30
0.0
 11
3.0904156309
 21
3.2860676226
 31
0.0
  0
LINE
  5
13B
330
1F
100
AcDbEntity
  8
0
  6
HIDDEN
 62
     7
100
AcDbLine
 10
2.6967148435
 20
3.2777681641
 30
0.0
 11
2.6967148435
 21
3.2860676226
 31
0.0
  0
SPLINE
  5
13C
330
1F
100
AcDbEntity
  8
0
  6
HIDDEN
 62
     7
100
AcDbSpline
210
0.0
220
0.0
230
1.0
 70
     8
 71
     3
 72
     8
 73
     4
 74
     0
 42
0.00000001
 43
0.00000001
 40
0.0
 40
0.0
 40
0.0
 40
0.0
 40
0.0005619575253672
 40
0.0005619575253672
 40
0.0005619575253672
 40
0.0005619575253672
 10
2.670726131186863
 20
4.205528680092837
 30
0.0
 10
2.679319430353021
 20
4.216929669171936
 30
0.0
 10
2.687985010656567
 20
4.228281631929429
 30
0.0
 10
2.696714843542032
 20
4.23958840871217
 30
0.0
  0
SPLINE
  5
13D
330
1F
100
AcDbEntity
  8
0
  6
HIDDEN
 62
     7
100
AcDbSpline
210
0.0
220
0.0
230
1.0
 70
     8
 71
     3
 72
     8
 73
     4
 74
     0
 42
0.00000001
 43
0.00000001
 40
0.0
 40
0.0
 40
0.0
 40
0.0
 40
0.000640806303695
 40
0.000640806303695
 40
0.000640806303695
 40
0.000640806303695
 10
2.661804316263056
 20
3.311827892691263
 30
0.0
 10
2.673431222879869
 20
3.303234408947189
 30
0.0
 10
2.685068439811145
 20
3.294647895385946
 30
0.0
 10
2.696714843542032
 20
3.286067622565907
 30
0.0
  0
SPLINE
  5
13E
330
1F
100
AcDbEntity
  8
0
  6
HIDDEN
 62
     7
100
AcDbSpline
210
0.0
220
0.0
230
1.0
 70
     8
 71
     3
 72
     8
 73
     4
 74
     0
 42
0.00000001
 43
0.00000001
 40
0.0
 40
0.0
 40
0.0
 40
0.0
 40
0.0002567732876691
 40
0.0002567732876691
 40
0.0002567732876691
 40
0.0002567732876691
 10
3.588845288180667
 20
2.910979522836095
 30
0.0
 10
3.593310688790254
 20
2.916027341132068
 30
0.0
 10
3.59777122741299
 20
2.921079465028566
 30
0.0
 10
3.602226654565655
 20
2.926136088510749
 30
0.0
  0
SPLINE
  5
13F
330
1F
100
AcDbEntity
  8
0
  6
HIDDEN
 62
     7
100
AcDbSpline
210
0.0
220
0.0
230
1.0
 70
     8
 71
     3
 72
     8
 73
     4
 74
     0
 42
0.00000001
 43
0.00000001
 40
0.0
 40
0.0
 40
0.0
 40
0.0
 40
0.000640806303695
 40
0.000640806303695
 40
0.000640806303695
 40
0.000640806303695
 10
3.562856575825498
 20
2.89531793408156
 30
0.0
 10
3.574502979556385
 20
2.9038982069016
 30
0.0
 10
3.586140196487661
 20
2.912484720462843
 30
0.0
 10
3.597767103104474
 20
2.921078204206917
 30
0.0
  0
SPLINE
  5
140
330
1F
100
AcDbEntity
  8
0
  6
HIDDEN
 62
     7
100
AcDbSpline
210
0.0
220
0.0
230
1.0
 70
     8
 71
     3
 72
     8
 73
     4
 74
     0
 42
0.00000001
 43
0.00000001
 40
0.0
 40
0.0
 40
0.0
 40
0.0
 40
0.0005619575253672
 40
0.0005619575253672
 40
0.0005619575253672
 40
0.0005619575253672
 10
3.562856575825498
 20
2.899913247656816
 30
0.0
 10
3.571586408710962
 20
2.903586908849685
 30
0.0
 10
3.580251989014509
 20
2.907275251323091
 30
0.0
 10
3.588845288180667
 20
2.910979522836095
 30
0.0
  0
SPLINE
  5
141
330
1F
100
AcDbEntity
  8
0
  6
HIDDEN
 62
     7
100
AcDbSpline
210
0.0
220
0.0
230
1.0
 70
     8
 71
     3
 72
     8
 73
     4
 74
     0
 42
0.00000001
 43
0.00000001
 40
0.0
 40
0.0
 40
0.0
 40
0.0
 40
0.000085637742213
 40
0.000085637742213
 40
0.000085637742213
 40
0.000085637742213
 10
3.602226654565655
 20
4.591220484273344
 30
0.0
 10
3.600740702793131
 20
4.592906944037778
 30
0.0
 10
3.599254182485974
 20
4.594592903027118
 30
0.0
 10
3.597767103104473
 20
4.596278368577178
 30
0.0
  0
SPLINE
  5
142
330
1F
100
AcDbEntity
  8
0
  6
HIDDEN
 62
     7
100
AcDbSpline
210
0.0
220
0.0
230
1.0
 70
     8
 71
     3
 72
     8
 73
     4
 74
     0
 42
0.00000001
 43
0.00000001
 40
0.0
 40
0.0
 40
0.0
 40
0.0
 40
0.000640806303695
 40
0.000640806303695
 40
0.000640806303695
 40
0.000640806303695
 10
3.562856575825498
 20
4.622038638702534
 30
0.0
 10
3.574502979556384
 20
4.613458365882495
 30
0.0
 10
3.586140196487661
 20
4.604871852321252
 30
0.0
 10
3.597767103104473
 20
4.596278368577178
 30
0.0
  0
SPLINE
  5
143
330
1F
100
AcDbEntity
  8
0
  6
HIDDEN
 62
     7
100
AcDbSpline
210
0.0
220
0.0
230
1.0
 70
     8
 71
     3
 72
     8
 73
     4
 74
     0
 42
0.00000001
 43
0.00000001
 40
0.0
 40
0.0
 40
0.0
 40
0.0
 40
0.0005619575253672
 40
0.0005619575253672
 40
0.0005619575253672
 40
0.0005619575253672
 10
3.562856575825498
 20
4.617443325127278
 30
0.0
 10
3.571586408710962
 20
4.613769663934408
 30
0.0
 10
3.580251989014509
 20
4.610081321461004
 30
0.0
 10
3.588845288180667
 20
4.606377049947999
 30
0.0
  0
SPLINE
  5
144
330
1F
100
AcDbEntity
  8
0
  6
HIDDEN
 62
     7
100
AcDbSpline
210
0.0
220
0.0
230
1.0
 70
     8
 71
     3
 72
     8
 73
     4
 74
     0
 42
0.00000001
 43
0.00000001
 40
0.0
 40
0.0
 40
0.0
 40
0.0
 40
0.0002567732876691
 40
0.0002567732876691
 40
0.0002567732876691
 40
0.0002567732876691
 10
3.588845288180667
 20
4.606377049947999
 30
0.0
 10
3.593310688790254
 20
4.601329231652025
 30
0.0
 10
3.59777122741299
 20
4.596277107755528
 30
0.0
 10
3.602226654565655
 20
4.591220484273345
 30
0.0
  0
LINE
  5
145
330
1F
100
AcDbEntity
  8
0
  6
HIDDEN
 62
     7
100
AcDbLine
 10
3.5977671031
 20
4.5962783686
 30
0.0
 11
3.9914678905
 21
4.5962783686
 31
0.0
  0
LINE
  5
146
330
1F
100
AcDbEntity
  8
0
  6
HIDDEN
 62
     7
100
AcDbLine
 10
3.9825460756
 20
2.9109795228
 30
0.0
 11
3.5888452882
 21
2.9109795228
 31
0.0
  0
SPLINE
  5
147
330
1F
100
AcDbEntity
  8
0
  6
HIDDEN
 62
     7
100
AcDbSpline
210
0.0
220
0.0
230
1.0
 70
     8
 71
     3
 72
     8
 73
     4
 74
     0
 42
0.00000001
 43
0.00000001
 40
0.0
 40
0.0
 40
0.0
 40
0.0
 40
0.0005619575253672
 40
0.0005619575253672
 40
0.0005619575253672
 40
0.0005619575253672
 10
3.956557363227073
 20
4.617443325127278
 30
0.0
 10
3.965287196112537
 20
4.613769663934408
 30
0.0
 10
3.973952776416084
 20
4.610081321461004
 30
0.0
 10
3.982546075582243
 20
4.606377049947999
 30
0.0
  0
LINE
  5
148
330
1F
100
AcDbEntity
  8
0
  6
HIDDEN
 62
     7
100
AcDbLine
 10
3.9825460756
 20
4.6063770499
 30
0.0
 11
3.5888452882
 21
4.6063770499
 31
0.0
  0
LINE
  5
149
330
1F
100
AcDbEntity
  8
0
  6
HIDDEN
 62
     7
100
AcDbLine
 10
3.5977671031
 20
2.9210782042
 30
0.0
 11
3.9914678905
 21
2.9210782042
 31
0.0
  0
SPLINE
  5
14A
330
1F
100
AcDbEntity
  8
0
  6
HIDDEN
 62
     7
100
AcDbSpline
210
0.0
220
0.0
230
1.0
 70
     8
 71
     3
 72
     8
 73
     4
 74
     0
 42
0.00000001
 43
0.00000001
 40
0.0
 40
0.0
 40
0.0
 40
0.0
 40
0.0002567732876691
 40
0.0002567732876691
 40
0.0002567732876691
 40
0.0002567732876691
 10
3.99592744196723
 20
4.591220484273346
 30
0.0
 10
3.991472014814565
 20
4.596277107755529
 30
0.0
 10
3.987011476191829
 20
4.601329231652025
 30
0.0
 10
3.982546075582243
 20
4.606377049947999
 30
0.0
  0
SPLINE
  5
14B
330
1F
100
AcDbEntity
  8
0
  6
HIDDEN
 62
     7
100
AcDbSpline
210
0.0
220
0.0
230
1.0
 70
     8
 71
     3
 72
     8
 73
     4
 74
     0
 42
0.00000001
 43
0.00000001
 40
0.0
 40
0.0
 40
0.0
 40
0.0
 40
0.000640806303695
 40
0.000640806303695
 40
0.000640806303695
 40
0.000640806303695
 10
3.991467890506049
 20
2.921078204206917
 30
0.0
 10
3.979840983889236
 20
2.912484720462843
 30
0.0
 10
3.96820376695796
 20
2.9038982069016
 30
0.0
 10
3.956557363227073
 20
2.89531793408156
 30
0.0
  0
LINE
  5
14C
330
1F
100
AcDbEntity
  8
0
  6
HIDDEN
 62
     7
100
AcDbLine
 10
3.0644269186
 20
4.2055286801
 30
0.0
 11
3.055526005
 21
4.2055286801
 31
0.0
  0
SPLINE
  5
14D
330
1F
100
AcDbEntity
  8
0
  6
HIDDEN
 62
     7
100
AcDbSpline
210
0.0
220
0.0
230
1.0
 70
     8
 71
     3
 72
     8
 73
     4
 74
     0
 42
0.00000001
 43
0.00000001
 40
0.0
 40
0.0
 40
0.0
 40
0.0
 40
0.000640806303695
 40
0.000640806303695
 40
0.000640806303695
 40
0.000640806303695
 10
3.090415630943607
 20
3.286067622565907
 30
0.0
 10
3.07876922721272
 20
3.294647895385946
 30
0.0
 10
3.067132010281445
 20
3.303234408947189
 30
0.0
 10
3.055505103664631
 20
3.311827892691263
 30
0.0
  0
SPLINE
  5
14E
330
1F
100
AcDbEntity
  8
0
  6
HIDDEN
 62
     7
100
AcDbSpline
210
0.0
220
0.0
230
1.0
 70
     8
 71
     3
 72
     8
 73
     4
 74
     0
 42
0.00000001
 43
0.00000001
 40
0.0
 40
0.0
 40
0.0
 40
0.0
 40
0.0005619575253672
 40
0.0005619575253672
 40
0.0005619575253672
 40
0.0005619575253672
 10
3.064426918588438
 20
4.205528680092837
 30
0.0
 10
3.073020217754596
 20
4.216929669171935
 30
0.0
 10
3.081685798058143
 20
4.228281631929429
 30
0.0
 10
3.090415630943607
 20
4.239588408712169
 30
0.0
  0
LINE
  5
14F
330
1F
100
AcDbEntity
  8
0
  6
HIDDEN
 62
     7
100
AcDbLine
 10
3.7990770483
 20
4.7232452155
 30
0.0
 11
3.7990770483
 21
4.0283633258
 31
0.0
  0
LINE
  5
150
330
1F
100
AcDbEntity
  8
0
  6
HIDDEN
 62
     7
100
AcDbLine
 10
4.1927778357
 20
4.0283633258
 30
0.0
 11
4.1927778357
 21
4.7232452155
 31
0.0
  0
LINE
  5
151
330
1F
100
AcDbEntity
  8
0
  6
HIDDEN
 62
     7
100
AcDbLine
 10
3.7990770483
 20
4.0283633258
 30
0.0
 11
3.8187620876
 21
4.0086782864
 31
0.0
  0
LINE
  5
152
330
1F
100
AcDbEntity
  8
0
  6
HIDDEN
 62
     7
100
AcDbLine
 10
4.1730927963
 20
4.0086782864
 30
0.0
 11
4.1927778357
 21
4.0283633258
 31
0.0
  0
LINE
  5
153
330
1F
100
AcDbEntity
  8
0
  6
HIDDEN
 62
     7
100
AcDbLine
 10
4.1927778357
 20
4.7232452155
 30
0.0
 11
4.1762483307
 21
4.7397747205
 31
0.0
  0
LINE
  5
154
330
1F
100
AcDbEntity
  8
0
  6
HIDDEN
 62
     7
100
AcDbLine
 10
3.8156097952
 20
4.7397779624
 30
0.0
 11
3.7990770483
 21
4.7232452155
 31
0.0
  0
LINE
  5
155
330
1F
100
AcDbEntity
  8
0
  6
HIDDEN
 62
     7
100
AcDbLine
 10
4.4289983081
 20
4.0480483651
 30
0.0
 11
4.3896282294
 21
4.0086782864
 31
0.0
  0
LINE
  5
156
330
1F
100
AcDbEntity
  8
0
  6
HIDDEN
 62
     7
100
AcDbLine
 10
4.3896282294
 20
3.5086782864
 30
0.0
 11
4.4289983081
 21
3.4693082077
 31
0.0
  0
LINE
  5
157
330
1F
100
AcDbEntity
  8
0
  6
HIDDEN
 62
     7
100
AcDbLine
 10
3.7991363062
 20
4.0086782864
 30
0.0
 11
3.6022266546
 21
4.0086782864
 31
0.0
  0
LINE
  5
158
330
1F
100
AcDbEntity
  8
0
  6
HIDDEN
 62
     7
100
AcDbLine
 10
4.3896282294
 20
4.0086782864
 30
0.0
 11
4.1923804925
 21
4.0086782864
 31
0.0
  0
LINE
  5
159
330
1F
100
AcDbEntity
  8
0
  6
HIDDEN
 62
     7
100
AcDbLine
 10
3.6022266546
 20
3.5086782864
 30
0.0
 11
4.3896282294
 21
3.5086782864
 31
0.0
  0
LINE
  5
15A
330
1F
100
AcDbEntity
  8
0
  6
HIDDEN
 62
     7
100
AcDbLine
 10
4.1927778357
 20
4.0083657119
 30
0.0
 11
4.1927778357
 21
4.7429302549
 31
0.0
  0
LINE
  5
15B
330
1F
100
AcDbEntity
  8
0
  6
HIDDEN
 62
     7
100
AcDbLine
 10
3.7990770483
 20
4.7429302549
 30
0.0
 11
3.7990770483
 21
4.0086317832
 31
0.0
  0
LINE
  5
15C
330
1F
100
AcDbEntity
  8
0
  6
HIDDEN
 62
     7
100
AcDbLine
 10
2.2242738987
 20
3.4693082077
 30
0.0
 11
2.2636439774
 21
3.5086782864
 31
0.0
  0
LINE
  5
15D
330
1F
100
AcDbEntity
  8
0
  6
HIDDEN
 62
     7
100
AcDbLine
 10
2.2636439774
 20
4.0086782864
 30
0.0
 11
2.2242738987
 21
4.0480483651
 31
0.0
  0
LINE
  5
15E
330
1F
100
AcDbEntity
  8
0
  6
HIDDEN
 62
     7
100
AcDbLine
 10
2.2636439774
 20
3.5086782864
 30
0.0
 11
3.0510455522
 21
3.5086782864
 31
0.0
  0
LINE
  5
15F
330
1F
100
AcDbEntity
  8
0
  6
HIDDEN
 62
     7
100
AcDbLine
 10
3.0510455522
 20
4.0086782864
 30
0.0
 11
2.2636439774
 21
4.0086782864
 31
0.0
  0
LINE
  5
160
330
1F
100
AcDbEntity
  8
0
  6
HIDDEN
 62
     7
100
AcDbLine
 10
3.0510455522
 20
3.5086782864
 30
0.0
 11
3.6022266546
 21
3.5086782864
 31
0.0
  0
LINE
  5
161
330
1F
100
AcDbEntity
  8
0
  6
HIDDEN
 62
     7
100
AcDbLine
 10
3.6022266546
 20
4.0086782864
 30
0.0
 11
3.0510455522
 21
4.0086782864
 31
0.0
  0
LINE
  5
162
330
1F
100
AcDbEntity
  8
0
  6
CONTINUOUS
 62
     7
100
AcDbLine
 10
8.0540342126
 20
4.7232452155
 30
0.0
 11
8.0540342126
 21
4.7230443269
 31
0.0
  0
LINE
  5
163
330
1F
100
AcDbEntity
  8
0
  6
CONTINUOUS
 62
     7
100
AcDbLine
 10
8.447735
 20
4.7230443269
 30
0.0
 11
8.447735
 21
4.7232452155
 31
0.0
  0
LINE
  5
164
330
1F
100
AcDbEntity
  8
0
  6
CONTINUOUS
 62
     7
100
AcDbLine
 10
8.447735
 20
4.7232452155
 30
0.0
 11
8.4280499607
 21
4.7429302549
 31
0.0
  0
LINE
  5
165
330
1F
100
AcDbEntity
  8
0
  6
CONTINUOUS
 62
     7
100
AcDbLine
 10
8.073719252
 20
4.7429302549
 30
0.0
 11
8.0540342126
 21
4.7232452155
 31
0.0
  0
LINE
  5
166
330
1F
100
AcDbEntity
  8
0
  6
CONTINUOUS
 62
     7
100
AcDbLine
 10
7.2863176772
 20
3.5618278927
 30
0.0
 11
7.2865185659
 21
3.5618278927
 31
0.0
  0
LINE
  5
167
330
1F
100
AcDbEntity
  8
0
  6
CONTINUOUS
 62
     7
100
AcDbLine
 10
7.2865185659
 20
3.9555286801
 30
0.0
 11
7.2863176772
 21
3.9555286801
 31
0.0
  0
LINE
  5
168
330
1F
100
AcDbEntity
  8
0
  6
CONTINUOUS
 62
     7
100
AcDbLine
 10
7.2863176772
 20
3.9555286801
 30
0.0
 11
7.2666326378
 21
3.9358436407
 31
0.0
  0
LINE
  5
169
330
1F
100
AcDbEntity
  8
0
  6
CONTINUOUS
 62
     7
100
AcDbLine
 10
7.2666326378
 20
3.5815129321
 30
0.0
 11
7.2863176772
 21
3.5618278927
 31
0.0
  0
LINE
  5
16A
330
1F
100
AcDbEntity
  8
0
  6
CONTINUOUS
 62
     7
100
AcDbLine
 10
8.447735
 20
4.7232452155
 30
0.0
 11
8.446748275
 21
4.7232452155
 31
0.0
  0
LINE
  5
16B
330
1F
100
AcDbEntity
  8
0
  6
CONTINUOUS
 62
     7
100
AcDbLine
 10
8.0550209376
 20
4.7232452155
 30
0.0
 11
8.0540342126
 21
4.7232452155
 31
0.0
  0
LINE
  5
16C
330
1F
100
AcDbEntity
  8
0
  6
CONTINUOUS
 62
     7
100
AcDbLine
 10
8.2508846063
 20
4.7429302549
 30
0.0
 11
8.4280499607
 21
4.7429302549
 31
0.0
  0
LINE
  5
16D
330
1F
100
AcDbEntity
  8
0
  6
CONTINUOUS
 62
     7
100
AcDbLine
 10
8.073719252
 20
4.7429302549
 30
0.0
 11
8.2508846063
 21
4.7429302549
 31
0.0
  0
CIRCLE
  5
16E
330
1F
100
AcDbEntity
  8
0
  6
CONTINUOUS
 62
     7
100
AcDbCircle
 10
8.2508846063
 20
3.7586782864
 30
0.0
 40
0.9448818897637796
  0
CIRCLE
  5
16F
330
1F
100
AcDbEntity
  8
0
  6
CONTINUOUS
 62
     7
100
AcDbCircle
 10
8.2508846063
 20
3.7586782864
 30
0.0
 40
0.984251968503937
  0
CIRCLE
  5
170
330
1F
100
AcDbEntity
  8
0
  6
CONTINUOUS
 62
     7
100
AcDbCircle
 10
8.2508846063
 20
3.7586782864
 30
0.0
 40
0.2893700787401574
  0
CIRCLE
  5
171
330
1F
100
AcDbEntity
  8
0
  6
CONTINUOUS
 62
     7
100
AcDbCircle
 10
8.2508846063
 20
3.7586782864
 30
0.0
 40
0.25
  0
LINE
  5
172
330
1F
100
AcDbEntity
  8
0
  6
CONTINUOUS
 62
     7
100
AcDbLine
 10
7.2863176772
 20
3.5618278927
 30
0.0
 11
7.2863176772
 21
3.5628146177
 31
0.0
  0
LINE
  5
173
330
1F
100
AcDbEntity
  8
0
  6
CONTINUOUS
 62
     7
100
AcDbLine
 10
7.2863176772
 20
3.9545419551
 30
0.0
 11
7.2863176772
 21
3.9555286801
 31
0.0
  0
LINE
  5
174
330
1F
100
AcDbEntity
  8
0
  6
CONTINUOUS
 62
     7
100
AcDbLine
 10
7.2666326378
 20
3.9358436407
 30
0.0
 11
7.2666326378
 21
3.5815129321
 31
0.0
  0
LINE
  5
175
330
1F
100
AcDbEntity
  8
0
  6
HIDDEN
 62
     7
100
AcDbLine
 10
8.446748275
 20
4.7232452155
 30
0.0
 11
8.0550209376
 21
4.7232452155
 31
0.0
  0
LINE
  5
176
330
1F
100
AcDbEntity
  8
0
  6
HIDDEN
 62
     7
100
AcDbLine
 10
8.0540342126
 20
4.0283633258
 30
0.0
 11
8.447735
 21
4.0283633258
 31
0.0
  0
LINE
  5
177
330
1F
100
AcDbEntity
  8
0
  6
HIDDEN
 62
     7
100
AcDbLine
 10
8.4280499607
 20
4.0086782864
 30
0.0
 11
8.073719252
 21
4.0086782864
 31
0.0
  0
LINE
  5
178
330
1F
100
AcDbEntity
  8
0
  6
HIDDEN
 62
     7
100
AcDbLine
 10
8.3077104202
 20
4.5460798612
 30
0.0
 11
8.3645362341
 21
4.5460798612
 31
0.0
  0
LINE
  5
179
330
1F
100
AcDbEntity
  8
0
  6
HIDDEN
 62
     7
100
AcDbLine
 10
8.3077104202
 20
4.5460798612
 30
0.0
 11
8.3077104202
 21
4.7429302549
 31
0.0
  0
LINE
  5
17A
330
1F
100
AcDbEntity
  8
0
  6
HIDDEN
 62
     7
100
AcDbLine
 10
8.1940587924
 20
4.5460798612
 30
0.0
 11
8.3077104202
 21
4.5460798612
 31
0.0
  0
LINE
  5
17B
330
1F
100
AcDbEntity
  8
0
  6
HIDDEN
 62
     7
100
AcDbLine
 10
8.1940587924
 20
4.5460798612
 30
0.0
 11
8.1940587924
 21
4.7429302549
 31
0.0
  0
LINE
  5
17C
330
1F
100
AcDbEntity
  8
0
  6
HIDDEN
 62
     7
100
AcDbLine
 10
8.1372329785
 20
4.5460798612
 30
0.0
 11
8.1940587924
 21
4.5460798612
 31
0.0
  0
LINE
  5
17D
330
1F
100
AcDbEntity
  8
0
  6
HIDDEN
 62
     7
100
AcDbLine
 10
8.3645362341
 20
4.5460798612
 30
0.0
 11
8.3645362341
 21
4.7429302549
 31
0.0
  0
LINE
  5
17E
330
1F
100
AcDbEntity
  8
0
  6
HIDDEN
 62
     7
100
AcDbLine
 10
8.1372329785
 20
4.5460798612
 30
0.0
 11
8.1372329785
 21
4.7429302549
 31
0.0
  0
SPLINE
  5
17F
330
1F
100
AcDbEntity
  8
0
  6
HIDDEN
 62
     7
100
AcDbSpline
210
0.0
220
0.0
230
1.0
 70
    24
 71
     3
 72
     8
 73
     4
 74
     0
 42
0.00000001
 43
0.00000001
 40
0.0
 40
0.0
 40
0.0
 40
0.0
 40
0.0007538973953194
 40
0.0007538973953194
 40
0.0007538973953194
 40
0.0007538973953194
 10
7.804034212623202
 20
4.591220484273345
 30
0.0
 10
7.804034212623202
 20
4.606066947886964
 30
0.0
 10
7.804034212623202
 20
4.620874719655099
 30
0.0
 10
7.804034212623202
 20
4.635648447317336
 30
0.0
  0
SPLINE
  5
180
330
1F
100
AcDbEntity
  8
0
  6
HIDDEN
 62
     7
100
AcDbSpline
210
0.0
220
0.0
230
1.0
 70
    24
 71
     3
 72
     8
 73
     4
 74
     0
 42
0.00000001
 43
0.00000001
 40
0.0
 40
0.0
 40
0.0
 40
0.0
 40
0.0007538973953194
 40
0.0007538973953194
 40
0.0007538973953194
 40
0.0007538973953194
 10
7.804034212623202
 20
2.881708125466758
 30
0.0
 10
7.804034212623202
 20
2.896481853128996
 30
0.0
 10
7.804034212623202
 20
2.91128962489713
 30
0.0
 10
7.804034212623202
 20
2.926136088510749
 30
0.0
  0
LINE
  5
181
330
1F
100
AcDbEntity
  8
0
  6
HIDDEN
 62
     7
100
AcDbLine
 10
8.697735
 20
2.8817081255
 30
0.0
 11
8.697735
 21
4.6356484473
 31
0.0
  0
LINE
  5
182
330
1F
100
AcDbEntity
  8
0
  6
HIDDEN
 62
     7
100
AcDbLine
 10
7.8040342126
 20
2.9261360885
 30
0.0
 11
7.8040342126
 21
4.5912204843
 31
0.0
  0
LINE
  5
183
330
1F
100
AcDbEntity
  8
0
  6
HIDDEN
 62
     7
100
AcDbLine
 10
7.2863176772
 20
3.5628146177
 30
0.0
 11
7.2863176772
 21
3.9545419551
 31
0.0
  0
LINE
  5
184
330
1F
100
AcDbEntity
  8
0
  6
HIDDEN
 62
     7
100
AcDbLine
 10
7.981199567
 20
3.9555286801
 30
0.0
 11
7.981199567
 21
3.5618278927
 31
0.0
  0
LINE
  5
185
330
1F
100
AcDbEntity
  8
0
  6
HIDDEN
 62
     7
100
AcDbLine
 10
8.0008846063
 20
3.7586782864
 30
0.0
 11
8.0008846063
 21
3.9358436407
 31
0.0
  0
LINE
  5
186
330
1F
100
AcDbEntity
  8
0
  6
HIDDEN
 62
     7
100
AcDbLine
 10
8.0008846063
 20
3.5815129321
 30
0.0
 11
8.0008846063
 21
3.7586782864
 31
0.0
  0
LINE
  5
187
330
1F
100
AcDbEntity
  8
0
  6
HIDDEN
 62
     7
100
AcDbLine
 10
7.4634830315
 20
3.8155041003
 30
0.0
 11
7.4634830315
 21
3.7018524725
 31
0.0
  0
LINE
  5
188
330
1F
100
AcDbEntity
  8
0
  6
HIDDEN
 62
     7
100
AcDbLine
 10
7.4634830315
 20
3.8723299142
 30
0.0
 11
7.4634830315
 21
3.8155041003
 31
0.0
  0
LINE
  5
189
330
1F
100
AcDbEntity
  8
0
  6
HIDDEN
 62
     7
100
AcDbLine
 10
7.4634830315
 20
3.8155041003
 30
0.0
 11
7.2666326378
 21
3.8155041003
 31
0.0
  0
LINE
  5
18A
330
1F
100
AcDbEntity
  8
0
  6
HIDDEN
 62
     7
100
AcDbLine
 10
7.4634830315
 20
3.7018524725
 30
0.0
 11
7.4634830315
 21
3.6450266586
 31
0.0
  0
LINE
  5
18B
330
1F
100
AcDbEntity
  8
0
  6
HIDDEN
 62
     7
100
AcDbLine
 10
7.4634830315
 20
3.7018524725
 30
0.0
 11
7.2666326378
 21
3.7018524725
 31
0.0
  0
LINE
  5
18C
330
1F
100
AcDbEntity
  8
0
  6
HIDDEN
 62
     7
100
AcDbLine
 10
7.4634830315
 20
3.8723299142
 30
0.0
 11
7.2666326378
 21
3.8723299142
 31
0.0
  0
LINE
  5
18D
330
1F
100
AcDbEntity
  8
0
  6
HIDDEN
 62
     7
100
AcDbLine
 10
7.4634830315
 20
3.6450266586
 30
0.0
 11
7.2666326378
 21
3.6450266586
 31
0.0
  0
LINE
  5
18E
330
1F
100
AcDbEntity
  8
0
  6
HIDDEN
 62
     7
100
AcDbLine
 10
9.0987717633
 20
4.2055286801
 30
0.0
 11
9.1278547672
 21
4.2055286801
 31
0.0
  0
LINE
  5
18F
330
1F
100
AcDbEntity
  8
0
  6
HIDDEN
 62
     7
100
AcDbLine
 10
9.1278547672
 20
3.3118278927
 30
0.0
 11
9.0886552289
 21
3.3118278927
 31
0.0
  0
LINE
  5
190
330
1F
100
AcDbEntity
  8
0
  6
HIDDEN
 62
     7
100
AcDbLine
 10
9.0834268042
 20
4.2055286801
 30
0.0
 11
7.4183454568
 21
4.2055286801
 31
0.0
  0
LINE
  5
191
330
1F
100
AcDbEntity
  8
0
  6
HIDDEN
 62
     7
100
AcDbLine
 10
7.4132814758
 20
4.2055286801
 30
0.0
 11
7.3739144454
 21
4.2055286801
 31
0.0
  0
LINE
  5
192
330
1F
100
AcDbEntity
  8
0
  6
HIDDEN
 62
     7
100
AcDbLine
 10
9.0834268042
 20
3.3118278927
 30
0.0
 11
7.4183633098
 21
3.3118278927
 31
0.0
  0
LINE
  5
193
330
1F
100
AcDbEntity
  8
0
  6
HIDDEN
 62
     7
100
AcDbLine
 10
7.4031649414
 20
3.3118278927
 30
0.0
 11
7.3739144454
 21
3.3118278927
 31
0.0
  0
SPLINE
  5
194
330
1F
100
AcDbEntity
  8
0
  6
HIDDEN
 62
     7
100
AcDbSpline
210
0.0
220
0.0
230
1.0
 70
    24
 71
     3
 72
     8
 73
     4
 74
     0
 42
0.00000001
 43
0.00000001
 40
0.0
 40
0.0
 40
0.0
 40
0.0
 40
0.0005619575253672
 40
0.0005619575253672
 40
0.0005619575253672
 40
0.0005619575253672
 10
8.73179472864411
 20
4.617443325127278
 30
0.0
 10
8.720487951861369
 20
4.613769663934408
 30
0.0
 10
8.709135989103876
 20
4.610081321461004
 30
0.0
 10
8.697735000024778
 20
4.606377049947999
 30
0.0
  0
SPLINE
  5
195
330
1F
100
AcDbEntity
  8
0
  6
HIDDEN
 62
     7
100
AcDbSpline
210
0.0
220
0.0
230
1.0
 70
    24
 71
     3
 72
     8
 73
     4
 74
     0
 42
0.00000001
 43
0.00000001
 40
0.0
 40
0.0
 40
0.0
 40
0.0
 40
0.000640806303695
 40
0.000640806303695
 40
0.000640806303695
 40
0.000640806303695
 10
8.697735000024778
 20
2.921078204206917
 30
0.0
 10
8.70632848376885
 20
2.912484720462843
 30
0.0
 10
8.714914997330094
 20
2.9038982069016
 30
0.0
 10
8.723495270150133
 20
2.89531793408156
 30
0.0
  0
LINE
  5
196
330
1F
100
AcDbEntity
  8
0
  6
HIDDEN
 62
     7
100
AcDbLine
 10
8.697735
 20
2.9261360885
 30
0.0
 11
8.697735
 21
4.5912204843
 31
0.0
  0
SPLINE
  5
197
330
1F
100
AcDbEntity
  8
0
  6
HIDDEN
 62
     7
100
AcDbSpline
210
0.0
220
0.0
230
1.0
 70
    24
 71
     3
 72
     8
 73
     4
 74
     0
 42
0.00000001
 43
0.00000001
 40
0.0
 40
0.0
 40
0.0
 40
0.0
 40
0.0005619575253672
 40
0.0005619575253672
 40
0.0005619575253672
 40
0.0005619575253672
 10
7.76997448400387
 20
2.899913247656816
 30
0.0
 10
7.781281260786612
 20
2.903586908849685
 30
0.0
 10
7.792633223544104
 20
2.907275251323091
 30
0.0
 10
7.804034212623202
 20
2.910979522836095
 30
0.0
  0
SPLINE
  5
198
330
1F
100
AcDbEntity
  8
0
  6
HIDDEN
 62
     7
100
AcDbSpline
210
0.0
220
0.0
230
1.0
 70
    24
 71
     3
 72
     8
 73
     4
 74
     0
 42
0.00000001
 43
0.00000001
 40
0.0
 40
0.0
 40
0.0
 40
0.0
 40
0.000640806303695
 40
0.000640806303695
 40
0.000640806303695
 40
0.000640806303695
 10
7.778273942497847
 20
4.622038638702534
 30
0.0
 10
7.786854215317886
 20
4.613458365882495
 30
0.0
 10
7.79544072887913
 20
4.604871852321252
 30
0.0
 10
7.804034212623202
 20
4.596278368577178
 30
0.0
  0
SPLINE
  5
199
330
1F
100
AcDbEntity
  8
0
  6
HIDDEN
 62
     7
100
AcDbSpline
210
0.0
220
0.0
230
1.0
 70
    24
 71
     3
 72
     8
 73
     4
 74
     0
 42
0.00000001
 43
0.00000001
 40
0.0
 40
0.0
 40
0.0
 40
0.0
 40
0.000640806303695
 40
0.000640806303695
 40
0.000640806303695
 40
0.000640806303695
 10
9.114244958634478
 20
3.286067622565907
 30
0.0
 10
9.105664685814439
 20
3.294647895385946
 30
0.0
 10
9.097078172253196
 20
3.303234408947189
 30
0.0
 10
9.088484688509121
 20
3.311827892691263
 30
0.0
  0
SPLINE
  5
19A
330
1F
100
AcDbEntity
  8
0
  6
HIDDEN
 62
     7
100
AcDbSpline
210
0.0
220
0.0
230
1.0
 70
    24
 71
     3
 72
     8
 73
     4
 74
     0
 42
0.00000001
 43
0.00000001
 40
0.0
 40
0.0
 40
0.0
 40
0.0
 40
0.0005619575253672
 40
0.0005619575253672
 40
0.0005619575253672
 40
0.0005619575253672
 10
9.098583369879941
 20
4.205528680092837
 30
0.0
 10
9.102287641392945
 20
4.216929669171935
 30
0.0
 10
9.10597598386635
 20
4.228281631929429
 30
0.0
 10
9.10964964505922
 20
4.239588408712169
 30
0.0
  0
SPLINE
  5
19B
330
1F
100
AcDbEntity
  8
0
  6
HIDDEN
 62
     7
100
AcDbSpline
210
0.0
220
0.0
230
1.0
 70
    24
 71
     3
 72
     8
 73
     4
 74
     0
 42
0.00000001
 43
0.00000001
 40
0.0
 40
0.0
 40
0.0
 40
0.0
 40
0.000640806303695
 40
0.000640806303695
 40
0.000640806303695
 40
0.000640806303695
 10
7.413284524138857
 20
4.205528680092831
 30
0.0
 10
7.404691040394783
 20
4.214122163836905
 30
0.0
 10
7.39610452683354
 20
4.222708677398148
 30
0.0
 10
7.387524254013501
 20
4.231288950218187
 30
0.0
  0
SPLINE
  5
19C
330
1F
100
AcDbEntity
  8
0
  6
HIDDEN
 62
     7
100
AcDbSpline
210
0.0
220
0.0
230
1.0
 70
    24
 71
     3
 72
     8
 73
     4
 74
     0
 42
0.00000001
 43
0.00000001
 40
0.0
 40
0.0
 40
0.0
 40
0.0
 40
0.0005619575253672
 40
0.0005619575253672
 40
0.0005619575253672
 40
0.0005619575253672
 10
7.40318584276804
 20
3.311827892691257
 30
0.0
 10
7.399481571255035
 20
3.300426903612158
 30
0.0
 10
7.39579322878163
 20
3.289074940854666
 30
0.0
 10
7.392119567588761
 20
3.277768164071924
 30
0.0
  0
SPLINE
  5
19D
330
1F
100
AcDbEntity
  8
0
  6
HIDDEN
 62
     7
100
AcDbSpline
210
0.0
220
0.0
230
1.0
 70
    24
 71
     3
 72
     8
 73
     4
 74
     0
 42
0.00000001
 43
0.00000001
 40
0.0
 40
0.0
 40
0.0
 40
0.0
 40
0.000085637742213
 40
0.000085637742213
 40
0.000085637742213
 40
0.000085637742213
 10
7.41834240844269
 20
4.205528680092831
 30
0.0
 10
7.416655948678256
 20
4.205528680092831
 30
0.0
 10
7.414969989688916
 20
4.205528680092831
 30
0.0
 10
7.413284524138857
 20
4.205528680092831
 30
0.0
  0
SPLINE
  5
19E
330
1F
100
AcDbEntity
  8
0
  6
HIDDEN
 62
     7
100
AcDbSpline
210
0.0
220
0.0
230
1.0
 70
    24
 71
     3
 72
     8
 73
     4
 74
     0
 42
0.00000001
 43
0.00000001
 40
0.0
 40
0.0
 40
0.0
 40
0.0
 40
0.0002567732876691
 40
0.0002567732876691
 40
0.0002567732876691
 40
0.0002567732876691
 10
9.098583369879941
 20
4.205528680092837
 30
0.0
 10
9.093535551583967
 20
4.205528680092837
 30
0.0
 10
9.08848342768747
 20
4.205528680092837
 30
0.0
 10
9.083426804205287
 20
4.205528680092837
 30
0.0
  0
SPLINE
  5
19F
330
1F
100
AcDbEntity
  8
0
  6
HIDDEN
 62
     7
100
AcDbSpline
210
0.0
220
0.0
230
1.0
 70
    24
 71
     3
 72
     8
 73
     4
 74
     0
 42
0.00000001
 43
0.00000001
 40
0.0
 40
0.0
 40
0.0
 40
0.0
 40
0.0002567732876691
 40
0.0002567732876691
 40
0.0002567732876691
 40
0.0002567732876691
 10
7.40318584276804
 20
3.311827892691257
 30
0.0
 10
7.408233661064012
 20
3.311827892691257
 30
0.0
 10
7.41328578496051
 20
3.311827892691257
 30
0.0
 10
7.418342408442692
 20
3.311827892691257
 30
0.0
  0
SPLINE
  5
1A0
330
1F
100
AcDbEntity
  8
0
  6
HIDDEN
 62
     7
100
AcDbSpline
210
0.0
220
0.0
230
1.0
 70
    24
 71
     3
 72
     8
 73
     4
 74
     0
 42
0.00000001
 43
0.00000001
 40
0.0
 40
0.0
 40
0.0
 40
0.0
 40
0.000085637742213
 40
0.000085637742213
 40
0.000085637742213
 40
0.000085637742213
 10
9.083426804205288
 20
3.311827892691263
 30
0.0
 10
9.085113263969722
 20
3.311827892691263
 30
0.0
 10
9.086799222959064
 20
3.311827892691263
 30
0.0
 10
9.088484688509121
 20
3.311827892691263
 30
0.0
  0
LINE
  5
1A1
330
1F
100
AcDbEntity
  8
0
  6
HIDDEN
 62
     7
100
AcDbLine
 10
9.0834268042
 20
3.3118278927
 30
0.0
 11
7.4183424084
 21
3.3118278927
 31
0.0
  0
LINE
  5
1A2
330
1F
100
AcDbEntity
  8
0
  6
HIDDEN
 62
     7
100
AcDbLine
 10
7.4183424084
 20
4.2055286801
 30
0.0
 11
9.0834268042
 21
4.2055286801
 31
0.0
  0
LINE
  5
1A3
330
1F
100
AcDbEntity
  8
0
  6
HIDDEN
 62
     7
100
AcDbLine
 10
8.0540342126
 20
4.7230443269
 30
0.0
 11
8.0540342126
 21
4.0283633258
 31
0.0
  0
LINE
  5
1A4
330
1F
100
AcDbEntity
  8
0
  6
HIDDEN
 62
     7
100
AcDbLine
 10
8.447735
 20
4.0283633258
 30
0.0
 11
8.447735
 21
4.7230443269
 31
0.0
  0
LINE
  5
1A5
330
1F
100
AcDbEntity
  8
0
  6
HIDDEN
 62
     7
100
AcDbLine
 10
8.0540342126
 20
4.0283633258
 30
0.0
 11
8.073719252
 21
4.0086782864
 31
0.0
  0
LINE
  5
1A6
330
1F
100
AcDbEntity
  8
0
  6
HIDDEN
 62
     7
100
AcDbLine
 10
8.4280499607
 20
4.0086782864
 30
0.0
 11
8.447735
 21
4.0283633258
 31
0.0
  0
LINE
  5
1A7
330
1F
100
AcDbEntity
  8
0
  6
HIDDEN
 62
     7
100
AcDbLine
 10
8.447735
 20
3.912788385
 30
0.0
 11
8.447735
 21
4.7231025647
 31
0.0
  0
LINE
  5
1A8
330
1F
100
AcDbEntity
  8
0
  6
HIDDEN
 62
     7
100
AcDbLine
 10
8.0540342126
 20
4.7231808125
 30
0.0
 11
8.0540342126
 21
3.9130867514
 31
0.0
  0
LINE
  5
1A9
330
1F
100
AcDbEntity
  8
0
  6
HIDDEN
 62
     7
100
AcDbLine
 10
7.2865185659
 20
3.5618278927
 30
0.0
 11
7.981199567
 21
3.5618278927
 31
0.0
  0
LINE
  5
1AA
330
1F
100
AcDbEntity
  8
0
  6
HIDDEN
 62
     7
100
AcDbLine
 10
7.981199567
 20
3.9555286801
 30
0.0
 11
7.2865185659
 21
3.9555286801
 31
0.0
  0
LINE
  5
1AB
330
1F
100
AcDbEntity
  8
0
  6
HIDDEN
 62
     7
100
AcDbLine
 10
7.981199567
 20
3.5618278927
 30
0.0
 11
8.0008846063
 21
3.5815129321
 31
0.0
  0
LINE
  5
1AC
330
1F
100
AcDbEntity
  8
0
  6
HIDDEN
 62
     7
100
AcDbLine
 10
8.0008846063
 20
3.9358436407
 30
0.0
 11
7.981199567
 21
3.9555286801
 31
0.0
  0
LINE
  5
1AD
330
1F
100
AcDbEntity
  8
0
  6
HIDDEN
 62
     7
100
AcDbLine
 10
8.0967745077
 20
3.9555286801
 30
0.0
 11
7.2864584462
 21
3.9555286801
 31
0.0
  0
LINE
  5
1AE
330
1F
100
AcDbEntity
  8
0
  6
HIDDEN
 62
     7
100
AcDbLine
 10
7.2863821186
 20
3.5618278927
 30
0.0
 11
8.0964626963
 21
3.5618278927
 31
0.0
  0
LINE
  5
1AF
330
1F
100
AcDbEntity
  8
0
  6
CONTINUOUS
 62
     7
100
AcDbLine
 10
4.0352975207
 20
5.6877251704
 30
0.0
 11
4.3896282294
 21
5.6877251704
 31
0.0
  0
LINE
  5
1B0
330
1F
100
AcDbEntity
  8
0
  6
CONTINUOUS
 62
     7
100
AcDbLine
 10
4.3896282294
 20
7.6562291074
 30
0.0
 11
3.995927442
 21
7.6562291074
 31
0.0
  0
LINE
  5
1B1
330
1F
100
AcDbEntity
  8
0
  6
CONTINUOUS
 62
     7
100
AcDbLine
 10
4.3896282294
 20
5.6877251704
 30
0.0
 11
4.4289983081
 21
5.7270952492
 31
0.0
  0
LINE
  5
1B2
330
1F
100
AcDbEntity
  8
0
  6
CONTINUOUS
 62
     7
100
AcDbLine
 10
4.4289983081
 20
7.6168590287
 30
0.0
 11
4.3896282294
 21
7.6562291074
 31
0.0
  0
LINE
  5
1B3
330
1F
100
AcDbEntity
  8
0
  6
CONTINUOUS
 62
     7
100
AcDbLine
 10
3.995927442
 20
5.7270952492
 30
0.0
 11
4.0352975207
 21
5.6877251704
 31
0.0
  0
LINE
  5
1B4
330
1F
100
AcDbEntity
  8
0
  6
CONTINUOUS
 62
     7
100
AcDbLine
 10
2.4770243043
 20
5.6908802766
 30
0.0
 11
2.4801794105
 21
5.6877251704
 31
0.0
  0
LINE
  5
1B5
330
1F
100
AcDbEntity
  8
0
  6
CONTINUOUS
 62
     7
100
AcDbLine
 10
2.8345101191
 20
5.6877251704
 30
0.0
 11
2.8376752317
 21
5.690890283
 31
0.0
  0
LINE
  5
1B6
330
1F
100
AcDbEntity
  8
0
  6
CONTINUOUS
 62
     7
100
AcDbLine
 10
3.0116754735
 20
7.6562291074
 30
0.0
 11
2.2636439774
 21
7.6562291074
 31
0.0
  0
LINE
  5
1B7
330
1F
100
AcDbEntity
  8
0
  6
CONTINUOUS
 62
     7
100
AcDbLine
 10
2.8541951585
 20
5.6877251704
 30
0.0
 11
3.0510455522
 21
5.6877251704
 31
0.0
  0
LINE
  5
1B8
330
1F
100
AcDbEntity
  8
0
  6
CONTINUOUS
 62
     7
100
AcDbLine
 10
2.2636439774
 20
5.6877251704
 30
0.0
 11
2.4609838585
 21
5.6877251704
 31
0.0
  0
LINE
  5
1B9
330
1F
100
AcDbEntity
  8
0
  6
CONTINUOUS
 62
     7
100
AcDbLine
 10
2.2636439774
 20
7.6562291074
 30
0.0
 11
2.2242738987
 21
7.6168590287
 31
0.0
  0
LINE
  5
1BA
330
1F
100
AcDbEntity
  8
0
  6
CONTINUOUS
 62
     7
100
AcDbLine
 10
2.2242738987
 20
5.7270952492
 30
0.0
 11
2.2636439774
 21
5.6877251704
 31
0.0
  0
LINE
  5
1BB
330
1F
100
AcDbEntity
  8
0
  6
CONTINUOUS
 62
     7
100
AcDbLine
 10
3.0510455522
 20
7.6168590287
 30
0.0
 11
3.0116754735
 21
7.6562291074
 31
0.0
  0
LINE
  5
1BC
330
1F
100
AcDbEntity
  8
0
  6
CONTINUOUS
 62
     7
100
AcDbLine
 10
3.0904156309
 20
5.6877251704
 30
0.0
 11
3.9565573632
 21
5.6877251704
 31
0.0
  0
LINE
  5
1BD
330
1F
100
AcDbEntity
  8
0
  6
CONTINUOUS
 62
     7
100
AcDbLine
 10
3.9565573632
 20
7.6562291074
 30
0.0
 11
3.0904156309
 21
7.6562291074
 31
0.0
  0
LINE
  5
1BE
330
1F
100
AcDbEntity
  8
0
  6
CONTINUOUS
 62
     7
100
AcDbLine
 10
3.9565573632
 20
5.6877251704
 30
0.0
 11
3.995927442
 21
5.7270952492
 31
0.0
  0
LINE
  5
1BF
330
1F
100
AcDbEntity
  8
0
  6
CONTINUOUS
 62
     7
100
AcDbLine
 10
3.995927442
 20
7.6168590287
 30
0.0
 11
3.9565573632
 21
7.6562291074
 31
0.0
  0
LINE
  5
1C0
330
1F
100
AcDbEntity
  8
0
  6
CONTINUOUS
 62
     7
100
AcDbLine
 10
3.0904156309
 20
7.6562291074
 30
0.0
 11
3.0510455522
 21
7.6168590287
 31
0.0
  0
LINE
  5
1C1
330
1F
100
AcDbEntity
  8
0
  6
CONTINUOUS
 62
     7
100
AcDbLine
 10
3.0510455522
 20
5.7270952492
 30
0.0
 11
3.0904156309
 21
5.6877251704
 31
0.0
  0
CIRCLE
  5
1C2
330
1F
100
AcDbEntity
  8
0
  6
CONTINUOUS
 62
     7
100
AcDbCircle
 10
3.995927442
 20
6.6719771389
 30
0.0
 40
0.1771653543307083
  0
LINE
  5
1C3
330
1F
100
AcDbEntity
  8
0
  6
CONTINUOUS
 62
     7
100
AcDbLine
 10
3.8975022451
 20
6.7288029528
 30
0.0
 11
3.8975022451
 21
6.615151325
 31
0.0
  0
LINE
  5
1C4
330
1F
100
AcDbEntity
  8
0
  6
CONTINUOUS
 62
     7
100
AcDbLine
 10
3.8975022451
 20
6.615151325
 30
0.0
 11
3.995927442
 21
6.5583255111
 31
0.0
  0
LINE
  5
1C5
330
1F
100
AcDbEntity
  8
0
  6
CONTINUOUS
 62
     7
100
AcDbLine
 10
3.995927442
 20
6.5583255111
 30
0.0
 11
4.0943526388
 21
6.615151325
 31
0.0
  0
LINE
  5
1C6
330
1F
100
AcDbEntity
  8
0
  6
CONTINUOUS
 62
     7
100
AcDbLine
 10
4.0943526388
 20
6.615151325
 30
0.0
 11
4.0943526388
 21
6.7288029528
 31
0.0
  0
LINE
  5
1C7
330
1F
100
AcDbEntity
  8
0
  6
CONTINUOUS
 62
     7
100
AcDbLine
 10
4.0943526388
 20
6.7288029528
 30
0.0
 11
3.995927442
 21
6.7856287667
 31
0.0
  0
LINE
  5
1C8
330
1F
100
AcDbEntity
  8
0
  6
CONTINUOUS
 62
     7
100
AcDbLine
 10
3.995927442
 20
6.7856287667
 30
0.0
 11
3.8975022451
 21
6.7288029528
 31
0.0
  0
CIRCLE
  5
1C9
330
1F
100
AcDbEntity
  8
0
  6
CONTINUOUS
 62
     7
100
AcDbCircle
 10
3.995927442
 20
6.6719771389
 30
0.0
 40
0.1968503937007879
  0
LINE
  5
1CA
330
1F
100
AcDbEntity
  8
0
  6
CONTINUOUS
 62
     7
100
AcDbLine
 10
4.0352975207
 20
6.2251267452
 30
0.0
 11
4.0352975207
 21
5.6877251704
 31
0.0
  0
LINE
  5
1CB
330
1F
100
AcDbEntity
  8
0
  6
CONTINUOUS
 62
     7
100
AcDbLine
 10
3.6415967333
 20
6.2251267452
 30
0.0
 11
4.0352975207
 21
6.2251267452
 31
0.0
  0
LINE
  5
1CC
330
1F
100
AcDbEntity
  8
0
  6
CONTINUOUS
 62
     7
100
AcDbLine
 10
3.6415967333
 20
7.1188275326
 30
0.0
 11
3.6415967333
 21
6.2251267452
 31
0.0
  0
LINE
  5
1CD
330
1F
100
AcDbEntity
  8
0
  6
CONTINUOUS
 62
     7
100
AcDbLine
 10
3.995927442
 20
7.1188275326
 30
0.0
 11
3.6415967333
 21
7.1188275326
 31
0.0
  0
LINE
  5
1CE
330
1F
100
AcDbEntity
  8
0
  6
CONTINUOUS
 62
     7
100
AcDbLine
 10
3.995927442
 20
7.6562291074
 30
0.0
 11
3.995927442
 21
7.1188275326
 31
0.0
  0
SPLINE
  5
1CF
330
1F
100
AcDbEntity
  8
0
  6
CONTINUOUS
 62
     7
100
AcDbSpline
210
0.0
220
0.0
230
1.0
 70
     8
 71
     3
 72
    62
 73
    58
 74
     0
 42
0.00000001
 43
0.00000001
 40
-0.0312500000000002
 40
-0.0312500000000002
 40
0.0
 40
0.0
 40
0.03125
 40
0.03125
 40
0.0625
 40
0.0625
 40
0.09375
 40
0.09375
 40
0.125
 40
0.125
 40
0.1874999999999999
 40
0.1874999999999999
 40
0.2187499999999999
 40
0.2187499999999999
 40
0.2499999999999999
 40
0.2499999999999999
 40
0.2812499999999999
 40
0.2812499999999999
 40
0.3124999999999998
 40
0.3124999999999998
 40
0.3437499999999998
 40
0.3437499999999998
 40
0.3749999999999998
 40
0.3749999999999998
 40
0.4062499999999997
 40
0.4062499999999997
 40
0.4374999999999997
 40
0.4374999999999997
 40
0.4687499999999997
 40
0.4687499999999997
 40
0.4999999999999996
 40
0.4999999999999996
 40
0.5624999999999994
 40
0.5624999999999994
 40
0.5937499999999992
 40
0.5937499999999992
 40
0.6249999999999991
 40
0.6249999999999991
 40
0.6562499999999991
 40
0.6562499999999991
 40
0.6874999999999991
 40
0.6874999999999991
 40
0.7499999999999991
 40
0.7499999999999991
 40
0.7812499999999991
 40
0.7812499999999991
 40
0.8124999999999992
 40
0.8124999999999992
 40
0.8437499999999993
 40
0.8437499999999993
 40
0.8749999999999994
 40
0.8749999999999994
 40
0.9374999999999997
 40
0.9374999999999997
 40
0.9687499999999998
 40
0.9687499999999998
 40
1.0
 40
1.0
 40
1.03125
 40
1.03125
 10
3.799077048266442
 20
6.685017228069889
 30
0.0
 10
3.799077048266442
 20
6.658937049762963
 30
0.0
 10
3.800359924175093
 20
6.646121338661283
 30
0.0
 10
3.805380396136602
 20
6.620918351744852
 30
0.0
 10
3.809181231599522
 20
6.608398195269404
 30
0.0
 10
3.819073593846966
 20
6.584574933183241
 30
0.0
 10
3.825122284495319
 20
6.573281193487683
 30
0.0
 10
3.839406779548779
 20
6.551908101695473
 30
0.0
 10
3.84769864847764
 20
6.54181471359469
 30
0.0
 10
3.874865138311593
 20
6.51465640006363
 30
0.0
 10
3.896772640806557
 20
6.500002459694542
 30
0.0
 10
3.932278556164806
 20
6.485260458668257
 30
0.0
 10
3.944718260725303
 20
6.481462773031702
 30
0.0
 10
3.970142665882361
 20
6.476392760260613
 30
0.0
 10
3.982936422684443
 20
6.47513444371092
 30
0.0
 10
4.008684096667734
 20
6.475119116477345
 30
0.0
 10
4.021765020285587
 20
6.476404896477043
 30
0.0
 10
4.047036648246555
 20
6.481441232852442
 30
0.0
 10
4.059323173638374
 20
6.485167115839859
 30
0.0
 10
4.083196147914082
 20
6.49505575389373
 30
0.0
 10
4.094671391016709
 20
6.501203461001219
 30
0.0
 10
4.115961299820208
 20
6.515433568267537
 30
0.0
 10
4.125941057832426
 20
6.523606332725291
 30
0.0
 10
4.1442404216367
 20
6.541897561342873
 30
0.0
 10
4.152361672154359
 20
6.551800287737524
 30
0.0
 10
4.166616200390012
 20
6.573085826448622
 30
0.0
 10
4.172797362748623
 20
6.584610121356698
 30
0.0
 10
4.182673408853188
 20
6.608401133329988
 30
0.0
 10
4.186411524244925
 20
6.620671241797727
 30
0.0
 10
4.191478006697838
 20
6.645968345905785
 30
0.0
 10
4.192772606718803
 20
6.659033542132281
 30
0.0
 10
4.192788245079258
 20
6.697625024458114
 30
0.0
 10
4.187615092526899
 20
6.723592807204416
 30
0.0
 10
4.172889892533988
 20
6.759148994248291
 30
0.0
 10
4.166751302186093
 20
6.770645486561514
 30
0.0
 10
4.152425760128443
 20
6.792079222411248
 30
0.0
 10
4.1443074599192
 20
6.801969787187844
 30
0.0
 10
4.12617707270178
 20
6.820131625941142
 30
0.0
 10
4.116078012498378
 20
6.828432379377833
 30
0.0
 10
4.09477259002309
 20
6.842693390552328
 30
0.0
 10
4.08348669644597
 20
6.848755894558648
 30
0.0
 10
4.047663325309014
 20
6.863660658916245
 30
0.0
 10
4.022063777418814
 20
6.868809133079004
 30
0.0
 10
3.983067697232365
 20
6.868836658827667
 30
0.0
 10
3.970263774200963
 20
6.867570759752615
 30
0.0
 10
3.945032369494857
 20
6.86256879653307
 30
0.0
 10
3.932479989217446
 20
6.858766307391571
 30
0.0
 10
3.908695591768917
 20
6.848913220683405
 30
0.0
 10
3.897392380774533
 20
6.842877421907854
 30
0.0
 10
3.875957930897067
 20
6.82857656875059
 30
0.0
 10
3.865890997974382
 20
6.820315620015323
 30
0.0
 10
3.83872911597186
 20
6.793194220088676
 30
0.0
 10
3.824045225239915
 20
6.771295620077646
 30
0.0
 10
3.809264219906727
 20
6.735783987584296
 30
0.0
 10
3.805443063059624
 20
6.723296063614637
 30
0.0
 10
3.800360151933427
 20
6.697887864665264
 30
0.0
 10
3.799077048266442
 20
6.685017228069889
 30
0.0
 10
3.799077048266442
 20
6.658937049762963
 30
0.0
  0
LINE
  5
1D0
330
1F
100
AcDbEntity
  8
0
  6
CONTINUOUS
 62
     7
100
AcDbLine
 10
4.3896282294
 20
5.6877251704
 30
0.0
 11
4.3896282294
 21
7.6562291074
 31
0.0
  0
LINE
  5
1D1
330
1F
100
AcDbEntity
  8
0
  6
CONTINUOUS
 62
     7
100
AcDbLine
 10
4.4289983081
 20
7.6168590287
 30
0.0
 11
4.4289983081
 21
5.7270952492
 31
0.0
  0
SPLINE
  5
1D2
330
1F
100
AcDbEntity
  8
0
  6
CONTINUOUS
 62
     7
100
AcDbSpline
210
0.0
220
0.0
230
1.0
 70
    24
 71
     3
 72
     8
 73
     4
 74
     0
 42
0.00000001
 43
0.00000001
 40
0.0
 40
0.0
 40
0.0
 40
0.0
 40
0.0007538973953194
 40
0.0007538973953194
 40
0.0007538973953194
 40
0.0007538973953194
 10
3.641596733305813
 20
6.225126745215639
 30
0.0
 10
3.628433317087187
 20
6.225126745215639
 30
0.0
 10
3.615307979947748
 20
6.225126745215639
 30
0.0
 10
3.602226654565655
 20
6.225126745215639
 30
0.0
  0
LINE
  5
1D3
330
1F
100
AcDbEntity
  8
0
  6
CONTINUOUS
 62
     7
100
AcDbLine
 10
3.6022266546
 20
6.2251267452
 30
0.0
 11
3.6022266546
 21
7.1188275326
 31
0.0
  0
SPLINE
  5
1D4
330
1F
100
AcDbEntity
  8
0
  6
CONTINUOUS
 62
     7
100
AcDbSpline
210
0.0
220
0.0
230
1.0
 70
    24
 71
     3
 72
     8
 73
     4
 74
     0
 42
0.00000001
 43
0.00000001
 40
0.0
 40
0.0
 40
0.0
 40
0.0
 40
0.0007538973953194
 40
0.0007538973953194
 40
0.0007538973953194
 40
0.0007538973953194
 10
3.602226654565655
 20
7.118827532617214
 30
0.0
 10
3.615307979947748
 20
7.118827532617214
 30
0.0
 10
3.628433317087187
 20
7.118827532617214
 30
0.0
 10
3.641596733305813
 20
7.118827532617214
 30
0.0
  0
LINE
  5
1D5
330
1F
100
AcDbEntity
  8
0
  6
CONTINUOUS
 62
     7
100
AcDbLine
 10
3.995927442
 20
5.7270952492
 30
0.0
 11
3.995927442
 21
6.2251267452
 31
0.0
  0
LINE
  5
1D6
330
1F
100
AcDbEntity
  8
0
  6
CONTINUOUS
 62
     7
100
AcDbLine
 10
2.6770298042
 20
5.7074102098
 30
0.0
 11
2.6376597254
 21
5.7074102098
 31
0.0
  0
LINE
  5
1D7
330
1F
100
AcDbEntity
  8
0
  6
CONTINUOUS
 62
     7
100
AcDbLine
 10
2.4801794105
 20
5.6877251704
 30
0.0
 11
2.8345101191
 21
5.6877251704
 31
0.0
  0
LINE
  5
1D8
330
1F
100
AcDbEntity
  8
0
  6
CONTINUOUS
 62
     7
100
AcDbLine
 10
3.0116754735
 20
7.5489472998
 30
0.0
 11
3.0116754735
 21
7.6562291074
 31
0.0
  0
LINE
  5
1D9
330
1F
100
AcDbEntity
  8
0
  6
CONTINUOUS
 62
     7
100
AcDbLine
 10
3.0116754735
 20
7.5489472998
 30
0.0
 11
2.6179746861
 21
7.5489472998
 31
0.0
  0
LINE
  5
1DA
330
1F
100
AcDbEntity
  8
0
  6
CONTINUOUS
 62
     7
100
AcDbLine
 10
2.6179746861
 20
5.795006978
 30
0.0
 11
2.6179746861
 21
7.5489472998
 31
0.0
  0
LINE
  5
1DB
330
1F
100
AcDbEntity
  8
0
  6
CONTINUOUS
 62
     7
100
AcDbLine
 10
2.6179746861
 20
5.795006978
 30
0.0
 11
3.0510455522
 21
5.795006978
 31
0.0
  0
LINE
  5
1DC
330
1F
100
AcDbEntity
  8
0
  6
CONTINUOUS
 62
     7
100
AcDbLine
 10
3.0510455522
 20
5.795006978
 30
0.0
 11
3.0510455522
 21
5.6877251704
 31
0.0
  0
SPLINE
  5
1DD
330
1F
100
AcDbEntity
  8
0
  6
CONTINUOUS
 62
     7
100
AcDbSpline
210
0.0
220
0.0
230
1.0
 70
     8
 71
     3
 72
    27
 73
    23
 74
     0
 42
0.00000001
 43
0.00000001
 40
0.0
 40
0.0
 40
0.0
 40
0.0
 40
0.0126782465502488
 40
0.0664861417833189
 40
0.1183111199440924
 40
0.1716049115977547
 40
0.2240743909558968
 40
0.2780202618232738
 40
0.3312609746699859
 40
0.3860596608049137
 40
0.4389950941255072
 40
0.4935217605644903
 40
0.5455159671616581
 40
0.5990271660763208
 40
0.6509257383059048
 40
0.704281002857559
 40
0.7570608521854651
 40
0.8113398015234178
 40
0.8646208400495446
 40
0.9194824965338251
 40
0.9594059361093136
 40
1.0
 40
1.0
 40
1.0
 40
1.0
 10
2.460983858497198
 20
5.687822782009821
 30
0.0
 10
2.460836004973133
 20
5.687793301332382
 30
0.0
 10
2.460060644569372
 20
5.687638701365245
 30
0.0
 10
2.464086619602679
 20
5.688444925970205
 30
0.0
 10
2.473183193751904
 20
5.690205722543844
 30
0.0
 10
2.487626068969673
 20
5.692837442761884
 30
0.0
 10
2.506806800816155
 20
5.696007378917772
 30
0.0
 10
2.530184661440372
 20
5.699372500528426
 30
0.0
 10
2.557508119400821
 20
5.702598786733792
 30
0.0
 10
2.587562450107701
 20
5.705258252400139
 30
0.0
 10
2.619899641173066
 20
5.707070343565773
 30
0.0
 10
2.652793986011412
 20
5.707790715269394
 30
0.0
 10
2.685916198915959
 20
5.70737046369046
 30
0.0
 10
2.717695436047908
 20
5.70589158926336
 30
0.0
 10
2.748020464470535
 20
5.703501364159
 30
0.0
 10
2.775698183924218
 20
5.70049259098582
 30
0.0
 10
2.800472125320765
 20
5.697135281760614
 30
0.0
 10
2.82123166218993
 20
5.693841555472305
 30
0.0
 10
2.837622400573641
 20
5.690935985994753
 30
0.0
 10
2.847773160887102
 20
5.688997771970791
 30
0.0
 10
2.853269805508743
 20
5.687911009611665
 30
0.0
 10
2.853884999536212
 20
5.687787459824553
 30
0.0
 10
2.854195158502663
 20
5.68772517041249
 30
0.0
  0
LINE
  5
1DE
330
1F
100
AcDbEntity
  8
0
  6
CONTINUOUS
 62
     7
100
AcDbLine
 10
2.2636439774
 20
7.6562291074
 30
0.0
 11
2.2636439774
 21
5.6877251704
 31
0.0
  0
LINE
  5
1DF
330
1F
100
AcDbEntity
  8
0
  6
CONTINUOUS
 62
     7
100
AcDbLine
 10
2.2242738987
 20
5.7270952492
 30
0.0
 11
2.2242738987
 21
7.6168590287
 31
0.0
  0
LINE
  5
1E0
330
1F
100
AcDbEntity
  8
0
  6
CONTINUOUS
 62
     7
100
AcDbLine
 10
2.6573447648
 20
7.5045193368
 30
0.0
 11
2.6573447648
 21
5.839434941
 31
0.0
  0
SPLINE
  5
1E1
330
1F
100
AcDbEntity
  8
0
  6
CONTINUOUS
 62
     7
100
AcDbSpline
210
0.0
220
0.0
230
1.0
 70
     8
 71
     3
 72
     8
 73
     4
 74
     0
 42
0.00000001
 43
0.00000001
 40
0.0
 40
0.0
 40
0.0
 40
0.0
 40
0.0007538973953194
 40
0.0007538973953194
 40
0.0007538973953194
 40
0.0007538973953194
 10
2.657344764801875
 20
5.839434941035126
 30
0.0
 10
2.644263439419782
 20
5.824588477421507
 30
0.0
 10
2.631138102280343
 20
5.809780705653373
 30
0.0
 10
2.617974686061718
 20
5.795006977991136
 30
0.0
  0
SPLINE
  5
1E2
330
1F
100
AcDbEntity
  8
0
  6
CONTINUOUS
 62
     7
100
AcDbSpline
210
0.0
220
0.0
230
1.0
 70
     8
 71
     3
 72
     8
 73
     4
 74
     0
 42
0.00000001
 43
0.00000001
 40
0.0
 40
0.0
 40
0.0
 40
0.0
 40
0.0007538973953194
 40
0.0007538973953194
 40
0.0007538973953194
 40
0.0007538973953194
 10
2.617974686061718
 20
7.548947299841714
 30
0.0
 10
2.631138102280343
 20
7.534173572179476
 30
0.0
 10
2.644263439419782
 20
7.519365800411342
 30
0.0
 10
2.657344764801875
 20
7.504519336797724
 30
0.0
  0
LINE
  5
1E3
330
1F
100
AcDbEntity
  8
0
  6
CONTINUOUS
 62
     7
100
AcDbLine
 10
3.0510455522
 20
7.6168590287
 30
0.0
 11
3.0510455522
 21
7.5307421777
 31
0.0
  0
LINE
  5
1E4
330
1F
100
AcDbEntity
  8
0
  6
CONTINUOUS
 62
     7
100
AcDbLine
 10
3.0278080405
 20
7.5307421777
 30
0.0
 11
3.0116754735
 21
7.5489472998
 31
0.0
  0
LINE
  5
1E5
330
1F
100
AcDbEntity
  8
0
  6
CONTINUOUS
 62
     7
100
AcDbLine
 10
3.0510455522
 20
5.8086167866
 30
0.0
 11
3.0510455522
 21
5.795006978
 31
0.0
  0
LINE
  5
1E6
330
1F
100
AcDbEntity
  8
0
  6
CONTINUOUS
 62
     7
100
AcDbLine
 10
3.5628565758
 20
7.1528872612
 30
0.0
 11
3.9565573632
 21
7.1528872612
 31
0.0
  0
LINE
  5
1E7
330
1F
100
AcDbEntity
  8
0
  6
CONTINUOUS
 62
     7
100
AcDbLine
 10
3.5628565758
 20
6.1993664751
 30
0.0
 11
3.5628565758
 21
7.1528872612
 31
0.0
  0
LINE
  5
1E8
330
1F
100
AcDbEntity
  8
0
  6
CONTINUOUS
 62
     7
100
AcDbLine
 10
3.9565573632
 20
6.1993664751
 30
0.0
 11
3.5628565758
 21
6.1993664751
 31
0.0
  0
LINE
  5
1E9
330
1F
100
AcDbEntity
  8
0
  6
CONTINUOUS
 62
     7
100
AcDbLine
 10
3.9565573632
 20
5.6877251704
 30
0.0
 11
3.9565573632
 21
6.1993664751
 31
0.0
  0
LINE
  5
1EA
330
1F
100
AcDbEntity
  8
0
  6
CONTINUOUS
 62
     7
100
AcDbLine
 10
3.9565573632
 20
7.1528872612
 30
0.0
 11
3.9565573632
 21
7.6562291074
 31
0.0
  0
LINE
  5
1EB
330
1F
100
AcDbEntity
  8
0
  6
CONTINUOUS
 62
     7
100
AcDbLine
 10
3.0904156309
 20
5.8086167866
 30
0.0
 11
3.0904156309
 21
5.6877251704
 31
0.0
  0
LINE
  5
1EC
330
1F
100
AcDbEntity
  8
0
  6
CONTINUOUS
 62
     7
100
AcDbLine
 10
2.6967148435
 20
5.8086167866
 30
0.0
 11
3.0904156309
 21
5.8086167866
 31
0.0
  0
LINE
  5
1ED
330
1F
100
AcDbEntity
  8
0
  6
CONTINUOUS
 62
     7
100
AcDbLine
 10
2.6967148435
 20
7.5307421777
 30
0.0
 11
2.6967148435
 21
5.8086167866
 31
0.0
  0
LINE
  5
1EE
330
1F
100
AcDbEntity
  8
0
  6
CONTINUOUS
 62
     7
100
AcDbLine
 10
3.0904156309
 20
7.5307421777
 30
0.0
 11
2.6967148435
 21
7.5307421777
 31
0.0
  0
LINE
  5
1EF
330
1F
100
AcDbEntity
  8
0
  6
CONTINUOUS
 62
     7
100
AcDbLine
 10
3.0904156309
 20
7.6562291074
 30
0.0
 11
3.0904156309
 21
7.5307421777
 31
0.0
  0
SPLINE
  5
1F0
330
1F
100
AcDbEntity
  8
0
  6
CONTINUOUS
 62
     7
100
AcDbSpline
210
0.0
220
0.0
230
1.0
 70
     8
 71
     3
 72
     8
 73
     4
 74
     0
 42
0.00000001
 43
0.00000001
 40
0.0
 40
0.0
 40
0.0
 40
0.0
 40
0.000085637742213
 40
0.000085637742213
 40
0.000085637742213
 40
0.000085637742213
 10
2.661804316263057
 20
5.834377056731292
 30
0.0
 10
2.660317236881556
 20
5.836062522281352
 30
0.0
 10
2.658830716574399
 20
5.837748481270692
 30
0.0
 10
2.657344764801875
 20
5.839434941035126
 30
0.0
  0
SPLINE
  5
1F1
330
1F
100
AcDbEntity
  8
0
  6
CONTINUOUS
 62
     7
100
AcDbSpline
210
0.0
220
0.0
230
1.0
 70
     8
 71
     3
 72
     8
 73
     4
 74
     0
 42
0.00000001
 43
0.00000001
 40
0.0
 40
0.0
 40
0.0
 40
0.0
 40
0.0002567732876691
 40
0.0002567732876691
 40
0.0002567732876691
 40
0.0002567732876691
 10
2.657344764801875
 20
7.504519336797722
 30
0.0
 10
2.66180019195454
 20
7.509575960279906
 30
0.0
 10
2.666260730577276
 20
7.514628084176404
 30
0.0
 10
2.670726131186863
 20
7.519675902472377
 30
0.0
  0
SPLINE
  5
1F2
330
1F
100
AcDbEntity
  8
0
  6
CONTINUOUS
 62
     7
100
AcDbSpline
210
0.0
220
0.0
230
1.0
 70
     8
 71
     3
 72
     8
 73
     4
 74
     0
 42
0.00000001
 43
0.00000001
 40
0.0
 40
0.0
 40
0.0
 40
0.0
 40
0.0005619575253672
 40
0.0005619575253672
 40
0.0005619575253672
 40
0.0005619575253672
 10
2.670726131186863
 20
7.519675902472377
 30
0.0
 10
2.679319430353021
 20
7.523380173985381
 30
0.0
 10
2.687985010656567
 20
7.527068516458786
 30
0.0
 10
2.696714843542032
 20
7.530742177651655
 30
0.0
  0
SPLINE
  5
1F3
330
1F
100
AcDbEntity
  8
0
  6
CONTINUOUS
 62
     7
100
AcDbSpline
210
0.0
220
0.0
230
1.0
 70
     8
 71
     3
 72
     8
 73
     4
 74
     0
 42
0.00000001
 43
0.00000001
 40
0.0
 40
0.0
 40
0.0
 40
0.0
 40
0.000640806303695
 40
0.000640806303695
 40
0.000640806303695
 40
0.000640806303695
 10
2.661804316263057
 20
5.834377056731292
 30
0.0
 10
2.67343122287987
 20
5.82578357298722
 30
0.0
 10
2.685068439811146
 20
5.817197059425976
 30
0.0
 10
2.696714843542032
 20
5.808616786605937
 30
0.0
  0
SPLINE
  5
1F4
330
1F
100
AcDbEntity
  8
0
  6
CONTINUOUS
 62
     7
100
AcDbSpline
210
0.0
220
0.0
230
1.0
 70
     8
 71
     3
 72
     8
 73
     4
 74
     0
 42
0.00000001
 43
0.00000001
 40
0.0
 40
0.0
 40
0.0
 40
0.0
 40
0.000640806303695
 40
0.000640806303695
 40
0.000640806303695
 40
0.000640806303695
 10
3.562856575825498
 20
6.199366475090283
 30
0.0
 10
3.574502979556384
 20
6.207946747910322
 30
0.0
 10
3.586140196487661
 20
6.216533261471565
 30
0.0
 10
3.597767103104473
 20
6.225126745215639
 30
0.0
  0
SPLINE
  5
1F5
330
1F
100
AcDbEntity
  8
0
  6
CONTINUOUS
 62
     7
100
AcDbSpline
210
0.0
220
0.0
230
1.0
 70
     8
 71
     3
 72
     8
 73
     4
 74
     0
 42
0.00000001
 43
0.00000001
 40
0.0
 40
0.0
 40
0.0
 40
0.0
 40
0.0005619575253672
 40
0.0005619575253672
 40
0.0005619575253672
 40
0.0005619575253672
 10
3.562856575825498
 20
7.152887261236546
 30
0.0
 10
3.571586408710962
 20
7.141580484453804
 30
0.0
 10
3.580251989014509
 20
7.130228521696312
 30
0.0
 10
3.588845288180667
 20
7.118827532617214
 30
0.0
  0
SPLINE
  5
1F6
330
1F
100
AcDbEntity
  8
0
  6
CONTINUOUS
 62
     7
100
AcDbSpline
210
0.0
220
0.0
230
1.0
 70
     8
 71
     3
 72
     8
 73
     4
 74
     0
 42
0.00000001
 43
0.00000001
 40
0.0
 40
0.0
 40
0.0
 40
0.0
 40
0.000640806303695
 40
0.000640806303695
 40
0.000640806303695
 40
0.000640806303695
 10
3.956557363227072
 20
6.199366475090283
 30
0.0
 10
3.968203766957959
 20
6.207946747910322
 30
0.0
 10
3.979840983889235
 20
6.216533261471565
 30
0.0
 10
3.991467890506048
 20
6.225126745215639
 30
0.0
  0
LINE
  5
1F7
330
1F
100
AcDbEntity
  8
0
  6
CONTINUOUS
 62
     7
100
AcDbLine
 10
3.5977671031
 20
6.2251267452
 30
0.0
 11
3.6020575877
 21
6.2251267452
 31
0.0
  0
SPLINE
  5
1F8
330
1F
100
AcDbEntity
  8
0
  6
CONTINUOUS
 62
     7
100
AcDbSpline
210
0.0
220
0.0
230
1.0
 70
     8
 71
     3
 72
     8
 73
     4
 74
     0
 42
0.00000001
 43
0.00000001
 40
0.0
 40
0.0
 40
0.0
 40
0.0
 40
0.0005619575253672
 40
0.0005619575253672
 40
0.0005619575253672
 40
0.0005619575253672
 10
3.956557363227073
 20
7.152887261236546
 30
0.0
 10
3.965287196112537
 20
7.141580484453804
 30
0.0
 10
3.973952776416084
 20
7.130228521696312
 30
0.0
 10
3.982546075582243
 20
7.118827532617214
 30
0.0
  0
LINE
  5
1F9
330
1F
100
AcDbEntity
  8
0
  6
CONTINUOUS
 62
     7
100
AcDbLine
 10
3.6020575877
 20
7.1188275326
 30
0.0
 11
3.5888452882
 21
7.1188275326
 31
0.0
  0
LINE
  5
1FA
330
1F
100
AcDbEntity
  8
0
  6
HIDDEN
 62
     7
100
AcDbLine
 10
2.4604943711
 20
6.4022920995
 30
0.0
 11
2.8541951585
 21
6.4022920995
 31
0.0
  0
LINE
  5
1FB
330
1F
100
AcDbEntity
  8
0
  6
HIDDEN
 62
     7
100
AcDbLine
 10
2.8345101191
 20
6.4219771389
 30
0.0
 11
2.4801794105
 21
6.4219771389
 31
0.0
  0
LINE
  5
1FC
330
1F
100
AcDbEntity
  8
0
  6
HIDDEN
 62
     7
100
AcDbLine
 10
2.6376597254
 20
5.7074102098
 30
0.0
 11
2.4604943711
 21
5.7074102098
 31
0.0
  0
LINE
  5
1FD
330
1F
100
AcDbEntity
  8
0
  6
HIDDEN
 62
     7
100
AcDbLine
 10
2.8541951585
 20
5.7074102098
 30
0.0
 11
2.6770298042
 21
5.7074102098
 31
0.0
  0
LINE
  5
1FE
330
1F
100
AcDbEntity
  8
0
  6
HIDDEN
 62
     7
100
AcDbLine
 10
2.6573447648
 20
5.8845755641
 30
0.0
 11
2.7557699617
 21
5.8845755641
 31
0.0
  0
LINE
  5
1FF
330
1F
100
AcDbEntity
  8
0
  6
HIDDEN
 62
     7
100
AcDbLine
 10
2.6573447648
 20
5.839434941
 30
0.0
 11
2.6573447648
 21
5.6877251704
 31
0.0
  0
LINE
  5
200
330
1F
100
AcDbEntity
  8
0
  6
HIDDEN
 62
     7
100
AcDbLine
 10
2.558919568
 20
5.8845755641
 30
0.0
 11
2.6573447648
 21
5.8845755641
 31
0.0
  0
LINE
  5
201
330
1F
100
AcDbEntity
  8
0
  6
HIDDEN
 62
     7
100
AcDbLine
 10
2.7557699617
 20
5.8845755641
 30
0.0
 11
2.7557699617
 21
5.6877251704
 31
0.0
  0
LINE
  5
202
330
1F
100
AcDbEntity
  8
0
  6
HIDDEN
 62
     7
100
AcDbLine
 10
2.558919568
 20
5.8845755641
 30
0.0
 11
2.558919568
 21
5.6877251704
 31
0.0
  0
LINE
  5
203
330
1F
100
AcDbEntity
  8
0
  6
HIDDEN
 62
     7
100
AcDbLine
 10
3.0510455522
 20
7.5307421777
 30
0.0
 11
3.0510455522
 21
7.5045193368
 31
0.0
  0
LINE
  5
204
330
1F
100
AcDbEntity
  8
0
  6
HIDDEN
 62
     7
100
AcDbLine
 10
3.0510455522
 20
7.5045193368
 30
0.0
 11
3.0278080405
 21
7.5307421777
 31
0.0
  0
LINE
  5
205
330
1F
100
AcDbEntity
  8
0
  6
HIDDEN
 62
     7
100
AcDbLine
 10
3.0510455522
 20
7.5045193368
 30
0.0
 11
3.0510455522
 21
5.8086167866
 31
0.0
  0
SPLINE
  5
206
330
1F
100
AcDbEntity
  8
0
  6
HIDDEN
 62
     7
100
AcDbSpline
210
0.0
220
0.0
230
1.0
 70
     8
 71
     3
 72
    18
 73
    14
 74
     0
 42
0.00000001
 43
0.00000001
 40
0.0
 40
0.0
 40
0.0
 40
0.0
 40
0.0683120127878301
 40
0.1388130017448898
 40
0.2304606100039182
 40
0.3246470747874454
 40
0.4470485290924081
 40
0.5729820021356925
 40
0.6719012804899325
 40
0.7734156285482588
 40
0.8565983444425598
 40
0.9420941779750555
 40
1.0
 40
1.0
 40
1.0
 40
1.0
 10
2.657344764801875
 20
6.517867040286112
 30
0.0
 10
2.649902265933136
 20
6.517549305850158
 30
0.0
 10
2.634778782283761
 20
6.516903655560954
 30
0.0
 10
2.610502299763358
 20
6.511454902050513
 30
0.0
 10
2.585194471086449
 20
6.502386483578403
 30
0.0
 10
2.557408767589937
 20
6.48880350637554
 30
0.0
 10
2.529811351342703
 20
6.472322420332095
 30
0.0
 10
2.505719963412969
 20
6.455951372280595
 30
0.0
 10
2.486900844874244
 20
6.442271259037196
 30
0.0
 10
2.47395916509824
 20
6.432465541444751
 30
0.0
 10
2.465428517230784
 20
6.425854478316846
 30
0.0
 10
2.46095750722184
 20
6.422342171554765
 30
0.0
 10
2.460910639525425
 20
6.422304864841268
 30
0.0
 10
2.460891714273294
 20
6.422289800329609
 30
0.0
  0
LINE
  5
207
330
1F
100
AcDbEntity
  8
0
  6
HIDDEN
 62
     7
100
AcDbLine
 10
2.6544857209
 20
6.5176621148
 30
0.0
 11
2.6700600728
 21
6.5171520281
 31
0.0
  0
SPLINE
  5
208
330
1F
100
AcDbEntity
  8
0
  6
HIDDEN
 62
     7
100
AcDbSpline
210
0.0
220
0.0
230
1.0
 70
     8
 71
     3
 72
    20
 73
    16
 74
     0
 42
0.00000001
 43
0.00000001
 40
0.0
 40
0.0
 40
0.0
 40
0.0
 40
0.0026747016351184
 40
0.090221458791104
 40
0.169482909358755
 40
0.2507383589994751
 40
0.3365552850385307
 40
0.4241342666533426
 40
0.5268738750918407
 40
0.6317343480723779
 40
0.7302668083779881
 40
0.8311205258199926
 40
0.8998742950690145
 40
0.9704395936564063
 40
1.0
 40
1.0
 40
1.0
 40
1.0
 10
2.854135900523623
 20
6.422023719023187
 30
0.0
 10
2.85415556822889
 20
6.422008259327692
 30
0.0
 10
2.854818987668633
 20
6.421486781992906
 30
0.0
 10
2.852475923436411
 20
6.423332671471923
 30
0.0
 10
2.847092661394294
 20
6.42754294962171
 30
0.0
 10
2.838173518348058
 20
6.434419157734285
 30
0.0
 10
2.826091450858288
 20
6.443509984405677
 30
0.0
 10
2.810078655947113
 20
6.455124191604542
 30
0.0
 10
2.790042887263546
 20
6.468845545294749
 30
0.0
 10
2.766327390319437
 20
6.483593091811111
 30
0.0
 10
2.740029665578612
 20
6.497624891301657
 30
0.0
 10
2.714393639127584
 20
6.508256065855615
 30
0.0
 10
2.689673222706209
 20
6.514985404559383
 30
0.0
 10
2.671460068234548
 20
6.51759702264969
 30
0.0
 10
2.660562180306374
 20
6.517805492977969
 30
0.0
 10
2.657344764801875
 20
6.517867040286112
 30
0.0
  0
LINE
  5
209
330
1F
100
AcDbEntity
  8
0
  6
HIDDEN
 62
     7
100
AcDbLine
 10
3.5628565758
 20
6.1910670166
 30
0.0
 11
3.9565573632
 21
6.1910670166
 31
0.0
  0
LINE
  5
20A
330
1F
100
AcDbEntity
  8
0
  6
HIDDEN
 62
     7
100
AcDbLine
 10
3.5628565758
 20
6.1993664751
 30
0.0
 11
3.5628565758
 21
6.1910670166
 31
0.0
  0
LINE
  5
20B
330
1F
100
AcDbEntity
  8
0
  6
HIDDEN
 62
     7
100
AcDbLine
 10
3.9565573632
 20
7.1445878027
 30
0.0
 11
3.5628565758
 21
7.1445878027
 31
0.0
  0
LINE
  5
20C
330
1F
100
AcDbEntity
  8
0
  6
HIDDEN
 62
     7
100
AcDbLine
 10
3.9565573632
 20
7.1528872612
 30
0.0
 11
3.9565573632
 21
7.1445878027
 31
0.0
  0
LINE
  5
20D
330
1F
100
AcDbEntity
  8
0
  6
HIDDEN
 62
     7
100
AcDbLine
 10
3.0904156309
 20
5.8132121002
 30
0.0
 11
2.6967148435
 21
5.8132121002
 31
0.0
  0
LINE
  5
20E
330
1F
100
AcDbEntity
  8
0
  6
HIDDEN
 62
     7
100
AcDbLine
 10
3.0904156309
 20
5.8086167866
 30
0.0
 11
3.0904156309
 21
5.8132121002
 31
0.0
  0
LINE
  5
20F
330
1F
100
AcDbEntity
  8
0
  6
HIDDEN
 62
     7
100
AcDbLine
 10
2.6967148435
 20
7.5353374912
 30
0.0
 11
3.0904156309
 21
7.5353374912
 31
0.0
  0
LINE
  5
210
330
1F
100
AcDbEntity
  8
0
  6
HIDDEN
 62
     7
100
AcDbLine
 10
2.6967148435
 20
7.5307421777
 30
0.0
 11
2.6967148435
 21
7.5353374912
 31
0.0
  0
SPLINE
  5
211
330
1F
100
AcDbEntity
  8
0
  6
HIDDEN
 62
     7
100
AcDbSpline
210
0.0
220
0.0
230
1.0
 70
     8
 71
     3
 72
     8
 73
     4
 74
     0
 42
0.00000001
 43
0.00000001
 40
0.0
 40
0.0
 40
0.0
 40
0.0
 40
0.0005619575253672
 40
0.0005619575253672
 40
0.0005619575253672
 40
0.0005619575253672
 10
3.956557363227072
 20
6.191067016596306
 30
0.0
 10
3.965287196112537
 20
6.202373793379048
 30
0.0
 10
3.973952776416084
 20
6.21372575613654
 30
0.0
 10
3.982546075582241
 20
6.225126745215639
 30
0.0
  0
SPLINE
  5
212
330
1F
100
AcDbEntity
  8
0
  6
HIDDEN
 62
     7
100
AcDbSpline
210
0.0
220
0.0
230
1.0
 70
     8
 71
     3
 72
     8
 73
     4
 74
     0
 42
0.00000001
 43
0.00000001
 40
0.0
 40
0.0
 40
0.0
 40
0.0
 40
0.000640806303695
 40
0.000640806303695
 40
0.000640806303695
 40
0.000640806303695
 10
3.991467890506049
 20
7.118827532617214
 30
0.0
 10
3.979840983889236
 20
7.127421016361287
 30
0.0
 10
3.96820376695796
 20
7.13600752992253
 30
0.0
 10
3.956557363227073
 20
7.144587802742569
 30
0.0
  0
SPLINE
  5
213
330
1F
100
AcDbEntity
  8
0
  6
HIDDEN
 62
     7
100
AcDbSpline
210
0.0
220
0.0
230
1.0
 70
     8
 71
     3
 72
     8
 73
     4
 74
     0
 42
0.00000001
 43
0.00000001
 40
0.0
 40
0.0
 40
0.0
 40
0.0
 40
0.0002567732876691
 40
0.0002567732876691
 40
0.0002567732876691
 40
0.0002567732876691
 10
3.064426918588438
 20
7.519675902472377
 30
0.0
 10
3.059961517978851
 20
7.514628084176404
 30
0.0
 10
3.055500979356115
 20
7.509575960279906
 30
0.0
 10
3.05104555220345
 20
7.504519336797722
 30
0.0
  0
SPLINE
  5
214
330
1F
100
AcDbEntity
  8
0
  6
HIDDEN
 62
     7
100
AcDbSpline
210
0.0
220
0.0
230
1.0
 70
     8
 71
     3
 72
     8
 73
     4
 74
     0
 42
0.00000001
 43
0.00000001
 40
0.0
 40
0.0
 40
0.0
 40
0.0
 40
0.000640806303695
 40
0.000640806303695
 40
0.000640806303695
 40
0.000640806303695
 10
3.090415630943607
 20
7.535337491226914
 30
0.0
 10
3.07876922721272
 20
7.526757218406876
 30
0.0
 10
3.067132010281445
 20
7.518170704845632
 30
0.0
 10
3.055505103664631
 20
7.509577221101558
 30
0.0
  0
SPLINE
  5
215
330
1F
100
AcDbEntity
  8
0
  6
HIDDEN
 62
     7
100
AcDbSpline
210
0.0
220
0.0
230
1.0
 70
     8
 71
     3
 72
     8
 73
     4
 74
     0
 42
0.00000001
 43
0.00000001
 40
0.0
 40
0.0
 40
0.0
 40
0.0
 40
0.0005619575253672
 40
0.0005619575253672
 40
0.0005619575253672
 40
0.0005619575253672
 10
3.064426918588438
 20
7.519675902472377
 30
0.0
 10
3.073020217754596
 20
7.523380173985381
 30
0.0
 10
3.081685798058143
 20
7.527068516458786
 30
0.0
 10
3.090415630943607
 20
7.530742177651655
 30
0.0
  0
SPLINE
  5
216
330
1F
100
AcDbEntity
  8
0
  6
HIDDEN
 62
     7
100
AcDbSpline
210
0.0
220
0.0
230
1.0
 70
     8
 71
     3
 72
     8
 73
     4
 74
     0
 42
0.00000001
 43
0.00000001
 40
0.0
 40
0.0
 40
0.0
 40
0.0
 40
0.000085637742213
 40
0.000085637742213
 40
0.000085637742213
 40
0.000085637742213
 10
3.05104555220345
 20
5.839434941035126
 30
0.0
 10
3.052531503975974
 20
5.837748481270693
 30
0.0
 10
3.054018024283131
 20
5.836062522281352
 30
0.0
 10
3.055505103664631
 20
5.834377056731292
 30
0.0
  0
SPLINE
  5
217
330
1F
100
AcDbEntity
  8
0
  6
HIDDEN
 62
     7
100
AcDbSpline
210
0.0
220
0.0
230
1.0
 70
     8
 71
     3
 72
     8
 73
     4
 74
     0
 42
0.00000001
 43
0.00000001
 40
0.0
 40
0.0
 40
0.0
 40
0.0
 40
0.0005619575253672
 40
0.0005619575253672
 40
0.0005619575253672
 40
0.0005619575253672
 10
3.064426918588437
 20
5.824278375360477
 30
0.0
 10
3.073020217754595
 20
5.820574103847471
 30
0.0
 10
3.081685798058142
 20
5.816885761374066
 30
0.0
 10
3.090415630943607
 20
5.813212100181198
 30
0.0
  0
SPLINE
  5
218
330
1F
100
AcDbEntity
  8
0
  6
HIDDEN
 62
     7
100
AcDbSpline
210
0.0
220
0.0
230
1.0
 70
     8
 71
     3
 72
     8
 73
     4
 74
     0
 42
0.00000001
 43
0.00000001
 40
0.0
 40
0.0
 40
0.0
 40
0.0
 40
0.0002567732876691
 40
0.0002567732876691
 40
0.0002567732876691
 40
0.0002567732876691
 10
3.064426918588437
 20
5.824278375360477
 30
0.0
 10
3.05996151797885
 20
5.829326193656449
 30
0.0
 10
3.055500979356114
 20
5.834378317552947
 30
0.0
 10
3.05104555220345
 20
5.839434941035129
 30
0.0
  0
SPLINE
  5
219
330
1F
100
AcDbEntity
  8
0
  6
HIDDEN
 62
     7
100
AcDbSpline
210
0.0
220
0.0
230
1.0
 70
     8
 71
     3
 72
     8
 73
     4
 74
     0
 42
0.00000001
 43
0.00000001
 40
0.0
 40
0.0
 40
0.0
 40
0.0
 40
0.000640806303695
 40
0.000640806303695
 40
0.000640806303695
 40
0.000640806303695
 10
3.055505103664631
 20
5.834377056731292
 30
0.0
 10
3.067132010281445
 20
5.82578357298722
 30
0.0
 10
3.07876922721272
 20
5.817197059425976
 30
0.0
 10
3.090415630943607
 20
5.808616786605937
 30
0.0
  0
LINE
  5
21A
330
1F
100
AcDbEntity
  8
0
  6
HIDDEN
 62
     7
100
AcDbLine
 10
3.0510455522
 20
5.839434941
 30
0.0
 11
3.0510455522
 21
7.5045193368
 31
0.0
  0
LINE
  5
21B
330
1F
100
AcDbEntity
  8
0
  6
HIDDEN
 62
     7
100
AcDbLine
 10
3.0555051037
 20
5.8343770567
 30
0.0
 11
2.6618043163
 21
5.8343770567
 31
0.0
  0
LINE
  5
21C
330
1F
100
AcDbEntity
  8
0
  6
HIDDEN
 62
     7
100
AcDbLine
 10
2.6707261312
 20
7.5196759025
 30
0.0
 11
3.0644269186
 21
7.5196759025
 31
0.0
  0
LINE
  5
21D
330
1F
100
AcDbEntity
  8
0
  6
HIDDEN
 62
     7
100
AcDbLine
 10
2.6707261312
 20
5.8242783754
 30
0.0
 11
3.0644269186
 21
5.8242783754
 31
0.0
  0
LINE
  5
21E
330
1F
100
AcDbEntity
  8
0
  6
HIDDEN
 62
     7
100
AcDbLine
 10
3.0555051037
 20
7.5095772211
 30
0.0
 11
2.6618043163
 21
7.5095772211
 31
0.0
  0
SPLINE
  5
21F
330
1F
100
AcDbEntity
  8
0
  6
HIDDEN
 62
     7
100
AcDbSpline
210
0.0
220
0.0
230
1.0
 70
     8
 71
     3
 72
     8
 73
     4
 74
     0
 42
0.00000001
 43
0.00000001
 40
0.0
 40
0.0
 40
0.0
 40
0.0
 40
0.0002567732876691
 40
0.0002567732876691
 40
0.0002567732876691
 40
0.0002567732876691
 10
2.657344764801875
 20
5.839434941035129
 30
0.0
 10
2.66180019195454
 20
5.834378317552947
 30
0.0
 10
2.666260730577276
 20
5.829326193656449
 30
0.0
 10
2.670726131186863
 20
5.824278375360477
 30
0.0
  0
SPLINE
  5
220
330
1F
100
AcDbEntity
  8
0
  6
HIDDEN
 62
     7
100
AcDbSpline
210
0.0
220
0.0
230
1.0
 70
     8
 71
     3
 72
     8
 73
     4
 74
     0
 42
0.00000001
 43
0.00000001
 40
0.0
 40
0.0
 40
0.0
 40
0.0
 40
0.000640806303695
 40
0.000640806303695
 40
0.000640806303695
 40
0.000640806303695
 10
2.661804316263056
 20
7.509577221101558
 30
0.0
 10
2.673431222879869
 20
7.518170704845632
 30
0.0
 10
2.685068439811145
 20
7.526757218406876
 30
0.0
 10
2.696714843542032
 20
7.535337491226914
 30
0.0
  0
SPLINE
  5
221
330
1F
100
AcDbEntity
  8
0
  6
HIDDEN
 62
     7
100
AcDbSpline
210
0.0
220
0.0
230
1.0
 70
     8
 71
     3
 72
     8
 73
     4
 74
     0
 42
0.00000001
 43
0.00000001
 40
0.0
 40
0.0
 40
0.0
 40
0.0
 40
0.0005619575253672
 40
0.0005619575253672
 40
0.0005619575253672
 40
0.0005619575253672
 10
2.670726131186863
 20
5.824278375360477
 30
0.0
 10
2.679319430353021
 20
5.820574103847471
 30
0.0
 10
2.687985010656568
 20
5.816885761374066
 30
0.0
 10
2.696714843542032
 20
5.813212100181198
 30
0.0
  0
LINE
  5
222
330
1F
100
AcDbEntity
  8
0
  6
HIDDEN
 62
     7
100
AcDbLine
 10
3.5888452882
 20
6.2251267452
 30
0.0
 11
3.5977462017
 21
6.2251267452
 31
0.0
  0
SPLINE
  5
223
330
1F
100
AcDbEntity
  8
0
  6
HIDDEN
 62
     7
100
AcDbSpline
210
0.0
220
0.0
230
1.0
 70
     8
 71
     3
 72
     8
 73
     4
 74
     0
 42
0.00000001
 43
0.00000001
 40
0.0
 40
0.0
 40
0.0
 40
0.0
 40
0.000640806303695
 40
0.000640806303695
 40
0.000640806303695
 40
0.000640806303695
 10
3.562856575825498
 20
7.144587802742569
 30
0.0
 10
3.574502979556385
 20
7.13600752992253
 30
0.0
 10
3.586140196487661
 20
7.127421016361287
 30
0.0
 10
3.597767103104474
 20
7.118827532617214
 30
0.0
  0
SPLINE
  5
224
330
1F
100
AcDbEntity
  8
0
  6
HIDDEN
 62
     7
100
AcDbSpline
210
0.0
220
0.0
230
1.0
 70
     8
 71
     3
 72
     8
 73
     4
 74
     0
 42
0.00000001
 43
0.00000001
 40
0.0
 40
0.0
 40
0.0
 40
0.0
 40
0.0005619575253672
 40
0.0005619575253672
 40
0.0005619575253672
 40
0.0005619575253672
 10
3.562856575825498
 20
6.191067016596306
 30
0.0
 10
3.571586408710962
 20
6.202373793379048
 30
0.0
 10
3.580251989014509
 20
6.21372575613654
 30
0.0
 10
3.588845288180667
 20
6.225126745215639
 30
0.0
  0
LINE
  5
225
330
1F
100
AcDbEntity
  8
0
  6
HIDDEN
 62
     7
100
AcDbLine
 10
4.4289983081
 20
6.9613472177
 30
0.0
 11
4.3896282294
 21
6.9219771389
 31
0.0
  0
LINE
  5
226
330
1F
100
AcDbEntity
  8
0
  6
HIDDEN
 62
     7
100
AcDbLine
 10
4.3896282294
 20
6.4219771389
 30
0.0
 11
4.4289983081
 21
6.3826070602
 31
0.0
  0
LINE
  5
227
330
1F
100
AcDbEntity
  8
0
  6
HIDDEN
 62
     7
100
AcDbLine
 10
4.3896282294
 20
6.9219771389
 30
0.0
 11
3.6022266546
 21
6.9219771389
 31
0.0
  0
LINE
  5
228
330
1F
100
AcDbEntity
  8
0
  6
HIDDEN
 62
     7
100
AcDbLine
 10
3.6022266546
 20
6.4219771389
 30
0.0
 11
4.3896282294
 21
6.4219771389
 31
0.0
  0
LINE
  5
229
330
1F
100
AcDbEntity
  8
0
  6
HIDDEN
 62
     7
100
AcDbLine
 10
2.8541951585
 20
6.4022920995
 30
0.0
 11
2.8345101191
 21
6.4219771389
 31
0.0
  0
LINE
  5
22A
330
1F
100
AcDbEntity
  8
0
  6
HIDDEN
 62
     7
100
AcDbLine
 10
2.4801794105
 20
6.4219771389
 30
0.0
 11
2.4604943711
 21
6.4022920995
 31
0.0
  0
LINE
  5
22B
330
1F
100
AcDbEntity
  8
0
  6
HIDDEN
 62
     7
100
AcDbLine
 10
2.8541951585
 20
5.7074102098
 30
0.0
 11
2.8541951585
 21
6.4022920995
 31
0.0
  0
LINE
  5
22C
330
1F
100
AcDbEntity
  8
0
  6
HIDDEN
 62
     7
100
AcDbLine
 10
2.4604943711
 20
6.4022920995
 30
0.0
 11
2.4604943711
 21
5.7074102098
 31
0.0
  0
LINE
  5
22D
330
1F
100
AcDbEntity
  8
0
  6
HIDDEN
 62
     7
100
AcDbLine
 10
2.4604943711
 20
5.7074102098
 30
0.0
 11
2.4770243043
 21
5.6908802766
 31
0.0
  0
LINE
  5
22E
330
1F
100
AcDbEntity
  8
0
  6
HIDDEN
 62
     7
100
AcDbLine
 10
2.8376752317
 20
5.690890283
 30
0.0
 11
2.8541951585
 21
5.7074102098
 31
0.0
  0
LINE
  5
22F
330
1F
100
AcDbEntity
  8
0
  6
HIDDEN
 62
     7
100
AcDbLine
 10
2.2242738987
 20
6.3826070602
 30
0.0
 11
2.2636439774
 21
6.4219771389
 31
0.0
  0
LINE
  5
230
330
1F
100
AcDbEntity
  8
0
  6
HIDDEN
 62
     7
100
AcDbLine
 10
2.2636439774
 20
6.9219771389
 30
0.0
 11
2.2242738987
 21
6.9613472177
 31
0.0
  0
LINE
  5
231
330
1F
100
AcDbEntity
  8
0
  6
HIDDEN
 62
     7
100
AcDbLine
 10
2.8541359005
 20
6.4219771389
 30
0.0
 11
3.0510455522
 21
6.4219771389
 31
0.0
  0
LINE
  5
232
330
1F
100
AcDbEntity
  8
0
  6
HIDDEN
 62
     7
100
AcDbLine
 10
2.2636439774
 20
6.4219771389
 30
0.0
 11
2.4608917143
 21
6.4219771389
 31
0.0
  0
LINE
  5
233
330
1F
100
AcDbEntity
  8
0
  6
HIDDEN
 62
     7
100
AcDbLine
 10
3.0510455522
 20
6.9219771389
 30
0.0
 11
2.2636439774
 21
6.9219771389
 31
0.0
  0
LINE
  5
234
330
1F
100
AcDbEntity
  8
0
  6
HIDDEN
 62
     7
100
AcDbLine
 10
2.4604943711
 20
6.4222897134
 30
0.0
 11
2.4604943711
 21
5.6877251704
 31
0.0
  0
LINE
  5
235
330
1F
100
AcDbEntity
  8
0
  6
HIDDEN
 62
     7
100
AcDbLine
 10
2.8541951585
 20
5.6877251704
 30
0.0
 11
2.8541951585
 21
6.4220236421
 31
0.0
  0
LINE
  5
236
330
1F
100
AcDbEntity
  8
0
  6
HIDDEN
 62
     7
100
AcDbLine
 10
3.0510455522
 20
6.4219771389
 30
0.0
 11
3.6022266546
 21
6.4219771389
 31
0.0
  0
LINE
  5
237
330
1F
100
AcDbEntity
  8
0
  6
HIDDEN
 62
     7
100
AcDbLine
 10
3.6022266546
 20
6.9219771389
 30
0.0
 11
3.0510455522
 21
6.9219771389
 31
0.0
  0
LINE
  5
238
330
1F
100
AcDbEntity
  8
0
  6
CONTINUOUS
 62
     7
100
AcDbLine
 10
8.7860176988
 20
7.447189874
 30
0.0
 11
8.7720960123
 21
7.455229305
 31
0.0
  0
LINE
  5
239
330
1F
100
AcDbEntity
  8
0
  6
CONTINUOUS
 62
     7
100
AcDbLine
 10
8.5215056539
 20
7.455229305
 30
0.0
 11
8.5075839674
 21
7.447189874
 31
0.0
  0
LINE
  5
23A
330
1F
100
AcDbEntity
  8
0
  6
CONTINUOUS
 62
     7
100
AcDbLine
 10
8.9253024445
 20
5.6149126911
 30
0.0
 11
8.9531367696
 21
5.6309863289
 31
0.0
  0
LINE
  5
23B
330
1F
100
AcDbEntity
  8
0
  6
CONTINUOUS
 62
     7
100
AcDbLine
 10
9.621160571
 20
6.788162876
 30
0.0
 11
9.621160571
 21
6.8203049277
 31
0.0
  0
LINE
  5
23C
330
1F
100
AcDbEntity
  8
0
  6
CONTINUOUS
 62
     7
100
AcDbLine
 10
8.1825536923
 20
5.7107582169
 30
0.0
 11
8.4331033392
 21
5.5661189845
 31
0.0
  0
LINE
  5
23D
330
1F
100
AcDbEntity
  8
0
  6
CONTINUOUS
 62
     7
100
AcDbLine
 10
9.4172753201
 20
7.2709395797
 30
0.0
 11
9.1388868236
 21
7.431649838
 31
0.0
  0
LINE
  5
23E
330
1F
100
AcDbEntity
  8
0
  6
CONTINUOUS
 62
     7
100
AcDbLine
 10
7.9786684414
 20
6.1935349206
 30
0.0
 11
7.9786684414
 21
6.1613928689
 31
0.0
  0
LINE
  5
23F
330
1F
100
AcDbEntity
  8
0
  6
CONTINUOUS
 62
     7
100
AcDbLine
 10
8.3961380713
 20
7.5274953638
 30
0.0
 11
8.3683037463
 21
7.5114217259
 31
0.0
  0
LINE
  5
240
330
1F
100
AcDbEntity
  8
0
  6
CONTINUOUS
 62
     7
100
AcDbLine
 10
6.8790338801
 20
6.8122694148
 30
0.0
 11
6.8790338801
 21
6.796198389
 31
0.0
  0
LINE
  5
241
330
1F
100
AcDbEntity
  8
0
  6
CONTINUOUS
 62
     7
100
AcDbLine
 10
7.0042883429
 20
6.5792277864
 30
0.0
 11
7.0182055054
 21
6.5711909675
 31
0.0
  0
LINE
  5
242
330
1F
100
AcDbEntity
  8
0
  6
CONTINUOUS
 62
     7
100
AcDbLine
 10
8.1645270857
 20
7.9941357418
 30
0.0
 11
7.9139774388
 21
8.1387749742
 31
0.0
  0
LINE
  5
243
330
1F
100
AcDbEntity
  8
0
  6
CONTINUOUS
 62
     7
100
AcDbLine
 10
6.9298054579
 20
6.4339543789
 30
0.0
 11
7.1803551048
 21
6.2893151465
 31
0.0
  0
LINE
  5
244
330
1F
100
AcDbEntity
  8
0
  6
CONTINUOUS
 62
     7
100
AcDbLine
 10
7.4217783335
 20
8.0899812676
 30
0.0
 11
7.3939440084
 21
8.0739076298
 31
0.0
  0
LINE
  5
245
330
1F
100
AcDbEntity
  8
0
  6
CONTINUOUS
 62
     7
100
AcDbLine
 10
6.725920207
 20
6.9167310826
 30
0.0
 11
6.725920207
 21
6.884589031
 31
0.0
  0
LINE
  5
246
330
1F
100
AcDbEntity
  8
0
  6
CONTINUOUS
 62
     7
100
AcDbLine
 10
7.2360328041
 20
6.2571730949
 30
0.0
 11
8.126875993
 21
5.7429002685
 31
0.0
  0
LINE
  5
247
330
1F
100
AcDbEntity
  8
0
  6
CONTINUOUS
 62
     7
100
AcDbLine
 10
9.1110479739
 20
7.4477208638
 30
0.0
 11
8.220204785
 21
7.9619936901
 31
0.0
  0
LINE
  5
248
330
1F
100
AcDbEntity
  8
0
  6
CONTINUOUS
 62
     7
100
AcDbLine
 10
7.3105360498
 20
6.5792395403
 30
0.0
 11
7.3105360498
 21
6.5470974887
 31
0.0
  0
LINE
  5
249
330
1F
100
AcDbEntity
  8
0
  6
CONTINUOUS
 62
     7
100
AcDbLine
 10
7.7280056797
 20
7.9131999835
 30
0.0
 11
7.7001713546
 21
7.8971263457
 31
0.0
  0
POLYLINE
  5
24A
330
1F
100
AcDbEntity
  8
0
  6
CONTINUOUS
 62
     7
100
AcDb2dPolyline
 66
     1
 10
0.0
 20
0.0
 30
0.0
  0
VERTEX
  5
29D
330
24A
100
AcDbEntity
  8
0
  6
CONTINUOUS
 62
     7
100
AcDbVertex
100
AcDb2dVertex
 10
8.7720756565
 20
7.3106018256
 30
0.0
  0
VERTEX
  5
29E
330
24A
100
AcDbEntity
  8
0
  6
CONTINUOUS
 62
     7
100
AcDbVertex
100
AcDb2dVertex
 10
8.7860130152
 20
7.3196629004
 30
0.0
  0
VERTEX
  5
29F
330
24A
100
AcDbEntity
  8
0
  6
CONTINUOUS
 62
     7
100
AcDbVertex
100
AcDb2dVertex
 10
8.79799614
 20
7.3296119864
 30
0.0
  0
VERTEX
  5
2A0
330
24A
100
AcDbEntity
  8
0
  6
CONTINUOUS
 62
     7
100
AcDbVertex
100
AcDb2dVertex
 10
8.807856814
 20
7.3403094203
 30
0.0
  0
VERTEX
  5
2A1
330
24A
100
AcDbEntity
  8
0
  6
CONTINUOUS
 62
     7
100
AcDbVertex
100
AcDb2dVertex
 10
8.8154566152
 20
7.3516050336
 30
0.0
  0
VERTEX
  5
2A2
330
24A
100
AcDbEntity
  8
0
  6
CONTINUOUS
 62
     7
100
AcDbVertex
100
AcDb2dVertex
 10
8.8206888589
 20
7.3633402607
 30
0.0
  0
VERTEX
  5
2A3
330
24A
100
AcDbEntity
  8
0
  6
CONTINUOUS
 62
     7
100
AcDbVertex
100
AcDb2dVertex
 10
8.8234800958
 20
7.3753503645
 30
0.0
  0
VERTEX
  5
2A4
330
24A
100
AcDbEntity
  8
0
  6
CONTINUOUS
 62
     7
100
AcDbVertex
100
AcDb2dVertex
 10
8.8237911432
 20
7.3874667498
 30
0.0
  0
VERTEX
  5
2A5
330
24A
100
AcDbEntity
  8
0
  6
CONTINUOUS
 62
     7
100
AcDbVertex
100
AcDb2dVertex
 10
8.8216176346
 20
7.3995193288
 30
0.0
  0
VERTEX
  5
2A6
330
24A
100
AcDbEntity
  8
0
  6
CONTINUOUS
 62
     7
100
AcDbVertex
100
AcDb2dVertex
 10
8.8169900813
 20
7.4113389099
 30
0.0
  0
VERTEX
  5
2A7
330
24A
100
AcDbEntity
  8
0
  6
CONTINUOUS
 62
     7
100
AcDbVertex
100
AcDb2dVertex
 10
8.809973444
 20
7.4227595721
 30
0.0
  0
VERTEX
  5
2A8
330
24A
100
AcDbEntity
  8
0
  6
CONTINUOUS
 62
     7
100
AcDbVertex
100
AcDb2dVertex
 10
8.800666221
 20
7.4336209942
 30
0.0
  0
VERTEX
  5
2A9
330
24A
100
AcDbEntity
  8
0
  6
CONTINUOUS
 62
     7
100
AcDbVertex
100
AcDb2dVertex
 10
8.7891990652
 20
7.4437707057
 30
0.0
  0
VERTEX
  5
2AA
330
24A
100
AcDbEntity
  8
0
  6
CONTINUOUS
 62
     7
100
AcDbVertex
100
AcDb2dVertex
 10
8.7757329503
 20
7.453066227
 30
0.0
  0
VERTEX
  5
2AB
330
24A
100
AcDbEntity
  8
0
  6
CONTINUOUS
 62
     7
100
AcDbVertex
100
AcDb2dVertex
 10
8.7604569112
 20
7.4613770692
 30
0.0
  0
VERTEX
  5
2AC
330
24A
100
AcDbEntity
  8
0
  6
CONTINUOUS
 62
     7
100
AcDbVertex
100
AcDb2dVertex
 10
8.7435853898
 20
7.4685865664
 30
0.0
  0
VERTEX
  5
2AD
330
24A
100
AcDbEntity
  8
0
  6
CONTINUOUS
 62
     7
100
AcDbVertex
100
AcDb2dVertex
 10
8.7253552254
 20
7.474593513
 30
0.0
  0
VERTEX
  5
2AE
330
24A
100
AcDbEntity
  8
0
  6
CONTINUOUS
 62
     7
100
AcDbVertex
100
AcDb2dVertex
 10
8.7060223296
 20
7.4793135848
 30
0.0
  0
VERTEX
  5
2AF
330
24A
100
AcDbEntity
  8
0
  6
CONTINUOUS
 62
     7
100
AcDbVertex
100
AcDb2dVertex
 10
8.6858580937
 20
7.4826805221
 30
0.0
  0
VERTEX
  5
2B0
330
24A
100
AcDbEntity
  8
0
  6
CONTINUOUS
 62
     7
100
AcDbVertex
100
AcDb2dVertex
 10
8.6651455795
 20
7.4846470606
 30
0.0
  0
VERTEX
  5
2B1
330
24A
100
AcDbEntity
  8
0
  6
CONTINUOUS
 62
     7
100
AcDbVertex
100
AcDb2dVertex
 10
8.6441755453
 20
7.4851855943
 30
0.0
  0
VERTEX
  5
2B2
330
24A
100
AcDbEntity
  8
0
  6
CONTINUOUS
 62
     7
100
AcDbVertex
100
AcDb2dVertex
 10
8.6232423644
 20
7.4842885636
 30
0.0
  0
VERTEX
  5
2B3
330
24A
100
AcDbEntity
  8
0
  6
CONTINUOUS
 62
     7
100
AcDbVertex
100
AcDb2dVertex
 10
8.6026398928
 20
7.4819685607
 30
0.0
  0
VERTEX
  5
2B4
330
24A
100
AcDbEntity
  8
0
  6
CONTINUOUS
 62
     7
100
AcDbVertex
100
AcDb2dVertex
 10
8.5826573439
 20
7.4782581533
 30
0.0
  0
VERTEX
  5
2B5
330
24A
100
AcDbEntity
  8
0
  6
CONTINUOUS
 62
     7
100
AcDbVertex
100
AcDb2dVertex
 10
8.563575229
 20
7.4732094275
 30
0.0
  0
VERTEX
  5
2B6
330
24A
100
AcDbEntity
  8
0
  6
CONTINUOUS
 62
     7
100
AcDbVertex
100
AcDb2dVertex
 10
8.5456614192
 20
7.4668932563
 30
0.0
  0
VERTEX
  5
2B7
330
24A
100
AcDbEntity
  8
0
  6
CONTINUOUS
 62
     7
100
AcDbVertex
100
AcDb2dVertex
 10
8.5291673851
 20
7.4593983048
 30
0.0
  0
VERTEX
  5
2B8
330
24A
100
AcDbEntity
  8
0
  6
CONTINUOUS
 62
     7
100
AcDbVertex
100
AcDb2dVertex
 10
8.5143246667
 20
7.4508297859
 30
0.0
  0
VERTEX
  5
2B9
330
24A
100
AcDbEntity
  8
0
  6
CONTINUOUS
 62
     7
100
AcDbVertex
100
AcDb2dVertex
 10
8.5013416232
 20
7.4413079827
 30
0.0
  0
VERTEX
  5
2BA
330
24A
100
AcDbEntity
  8
0
  6
CONTINUOUS
 62
     7
100
AcDbVertex
100
AcDb2dVertex
 10
8.4904005083
 20
7.4309665604
 30
0.0
  0
VERTEX
  5
2BB
330
24A
100
AcDbEntity
  8
0
  6
CONTINUOUS
 62
     7
100
AcDbVertex
100
AcDb2dVertex
 10
8.4816549111
 20
7.4199506899
 30
0.0
  0
VERTEX
  5
2BC
330
24A
100
AcDbEntity
  8
0
  6
CONTINUOUS
 62
     7
100
AcDbVertex
100
AcDb2dVertex
 10
8.4752276006
 20
7.40841501
 30
0.0
  0
VERTEX
  5
2BD
330
24A
100
AcDbEntity
  8
0
  6
CONTINUOUS
 62
     7
100
AcDbVertex
100
AcDb2dVertex
 10
8.4712088022
 20
7.3965214563
 30
0.0
  0
VERTEX
  5
2BE
330
24A
100
AcDbEntity
  8
0
  6
CONTINUOUS
 62
     7
100
AcDbVertex
100
AcDb2dVertex
 10
8.469654931
 20
7.3844369882
 30
0.0
  0
VERTEX
  5
2BF
330
24A
100
AcDbEntity
  8
0
  6
CONTINUOUS
 62
     7
100
AcDbVertex
100
AcDb2dVertex
 10
8.4705877999
 20
7.3723312451
 30
0.0
  0
VERTEX
  5
2C0
330
24A
100
AcDbEntity
  8
0
  6
CONTINUOUS
 62
     7
100
AcDbVertex
100
AcDb2dVertex
 10
8.4739943136
 20
7.3603741652
 30
0.0
  0
VERTEX
  5
2C1
330
24A
100
AcDbEntity
  8
0
  6
CONTINUOUS
 62
     7
100
AcDbVertex
100
AcDb2dVertex
 10
8.4798266521
 20
7.3487335996
 30
0.0
  0
VERTEX
  5
2C2
330
24A
100
AcDbEntity
  8
0
  6
CONTINUOUS
 62
     7
100
AcDbVertex
100
AcDb2dVertex
 10
8.488002942
 20
7.3375729564
 30
0.0
  0
VERTEX
  5
2C3
330
24A
100
AcDbEntity
  8
0
  6
CONTINUOUS
 62
     7
100
AcDbVertex
100
AcDb2dVertex
 10
8.4984084062
 20
7.3270489065
 30
0.0
  0
VERTEX
  5
2C4
330
24A
100
AcDbEntity
  8
0
  6
CONTINUOUS
 62
     7
100
AcDbVertex
100
AcDb2dVertex
 10
8.5108969748
 20
7.3173091845
 30
0.0
  0
VERTEX
  5
2C5
330
24A
100
AcDbEntity
  8
0
  6
CONTINUOUS
 62
     7
100
AcDbVertex
100
AcDb2dVertex
 10
8.5252933357
 20
7.3084905148
 30
0.0
  0
VERTEX
  5
2C6
330
24A
100
AcDbEntity
  8
0
  6
CONTINUOUS
 62
     7
100
AcDbVertex
100
AcDb2dVertex
 10
8.5413953955
 20
7.3007166922
 30
0.0
  0
VERTEX
  5
2C7
330
24A
100
AcDbEntity
  8
0
  6
CONTINUOUS
 62
     7
100
AcDbVertex
100
AcDb2dVertex
 10
8.5589771166
 20
7.2940968441
 30
0.0
  0
VERTEX
  5
2C8
330
24A
100
AcDbEntity
  8
0
  6
CONTINUOUS
 62
     7
100
AcDbVertex
100
AcDb2dVertex
 10
8.5777916901
 20
7.2887238986
 30
0.0
  0
VERTEX
  5
2C9
330
24A
100
AcDbEntity
  8
0
  6
CONTINUOUS
 62
     7
100
AcDbVertex
100
AcDb2dVertex
 10
8.5975750008
 20
7.2846732801
 30
0.0
  0
VERTEX
  5
2CA
330
24A
100
AcDbEntity
  8
0
  6
CONTINUOUS
 62
     7
100
AcDbVertex
100
AcDb2dVertex
 10
8.6180493342
 20
7.2820018504
 30
0.0
  0
VERTEX
  5
2CB
330
24A
100
AcDbEntity
  8
0
  6
CONTINUOUS
 62
     7
100
AcDbVertex
100
AcDb2dVertex
 10
8.6389272757
 20
7.2807471106
 30
0.0
  0
VERTEX
  5
2CC
330
24A
100
AcDbEntity
  8
0
  6
CONTINUOUS
 62
     7
100
AcDbVertex
100
AcDb2dVertex
 10
8.6599157446
 20
7.2809266745
 30
0.0
  0
VERTEX
  5
2CD
330
24A
100
AcDbEntity
  8
0
  6
CONTINUOUS
 62
     7
100
AcDbVertex
100
AcDb2dVertex
 10
8.680720109
 20
7.2825380213
 30
0.0
  0
VERTEX
  5
2CE
330
24A
100
AcDbEntity
  8
0
  6
CONTINUOUS
 62
     7
100
AcDbVertex
100
AcDb2dVertex
 10
8.701048321
 20
7.2855585312
 30
0.0
  0
VERTEX
  5
2CF
330
24A
100
AcDbEntity
  8
0
  6
CONTINUOUS
 62
     7
100
AcDbVertex
100
AcDb2dVertex
 10
8.7206150172
 20
7.2899458031
 30
0.0
  0
VERTEX
  5
2D0
330
24A
100
AcDbEntity
  8
0
  6
CONTINUOUS
 62
     7
100
AcDbVertex
100
AcDb2dVertex
 10
8.7391455241
 20
7.295638249
 30
0.0
  0
VERTEX
  5
2D1
330
24A
100
AcDbEntity
  8
0
  6
CONTINUOUS
 62
     7
100
AcDbVertex
100
AcDb2dVertex
 10
8.756379714
 20
7.3025559597
 30
0.0
  0
VERTEX
  5
2D2
330
24A
100
AcDbEntity
  8
0
  6
CONTINUOUS
 62
     7
100
AcDbVertex
100
AcDb2dVertex
 10
8.7720756565
 20
7.3106018256
 30
0.0
  0
SEQEND
  5
2D3
330
24A
100
AcDbEntity
  8
0
  6
CONTINUOUS
 62
     7
  0
ARC
  5
24B
330
1F
100
AcDbEntity
  8
0
  6
CONTINUOUS
 62
     7
100
AcDbCircle
 10
8.7472659444
 20
7.3585519435
 30
0.0
 40
0.0967416351089296
100
AcDbArc
 50
4.9193117152
 51
66.4008292424
  0
ARC
  5
24C
330
1F
100
AcDbEntity
  8
0
  6
CONTINUOUS
 62
     7
100
AcDbCircle
 10
8.6063245451
 20
7.4564576806
 30
0.0
 40
0.1965231945996022
100
AcDbArc
 50
235.2776437548
 51
247.938512993
  0
ARC
  5
24D
330
1F
100
AcDbEntity
  8
0
  6
CONTINUOUS
 62
     7
100
AcDbCircle
 10
8.5454876294
 20
7.3594965941
 30
0.0
 40
0.0955342814725769
100
AcDbArc
 50
113.3754466584
 51
177.6072429011
  0
LINE
  5
24E
330
1F
100
AcDbEntity
  8
0
  6
CONTINUOUS
 62
     7
100
AcDbLine
 10
8.6173856273
 20
7.4462955341
 30
0.0
 11
8.5370217906
 21
7.3999024786
 31
0.0
  0
LINE
  5
24F
330
1F
100
AcDbEntity
  8
0
  6
CONTINUOUS
 62
     7
100
AcDbLine
 10
8.5370217906
 20
7.3999024786
 30
0.0
 11
8.5664369964
 21
7.3365283864
 31
0.0
  0
LINE
  5
250
330
1F
100
AcDbEntity
  8
0
  6
CONTINUOUS
 62
     7
100
AcDbLine
 10
8.5664369964
 20
7.3365283864
 30
0.0
 11
8.6762160389
 21
7.3195473495
 31
0.0
  0
LINE
  5
251
330
1F
100
AcDbEntity
  8
0
  6
CONTINUOUS
 62
     7
100
AcDbLine
 10
8.6762160389
 20
7.3195473495
 30
0.0
 11
8.7565798756
 21
7.365940405
 31
0.0
  0
LINE
  5
252
330
1F
100
AcDbEntity
  8
0
  6
CONTINUOUS
 62
     7
100
AcDbLine
 10
8.7565798756
 20
7.365940405
 30
0.0
 11
8.7271646698
 21
7.4293144972
 31
0.0
  0
LINE
  5
253
330
1F
100
AcDbEntity
  8
0
  6
CONTINUOUS
 62
     7
100
AcDbLine
 10
8.7271646698
 20
7.4293144972
 30
0.0
 11
8.6173856273
 21
7.4462955341
 31
0.0
  0
LINE
  5
254
330
1F
100
AcDbEntity
  8
0
  6
CONTINUOUS
 62
     7
100
AcDbLine
 10
8.7271646698
 20
7.3489593681
 30
0.0
 11
8.7271646698
 21
7.4293144972
 31
0.0
  0
LINE
  5
255
330
1F
100
AcDbEntity
  8
0
  6
CONTINUOUS
 62
     7
100
AcDbLine
 10
8.6173856273
 20
7.3286474598
 30
0.0
 11
8.6173856273
 21
7.4462955341
 31
0.0
  0
POLYLINE
  5
256
330
1F
100
AcDbEntity
  8
0
  6
CONTINUOUS
 62
     7
100
AcDb2dPolyline
 66
     1
 10
0.0
 20
0.0
 30
0.0
  0
VERTEX
  5
2D4
330
256
100
AcDbEntity
  8
0
  6
CONTINUOUS
 62
     7
100
AcDbVertex
100
AcDb2dVertex
 10
9.621160571
 20
6.788162876
 30
0.0
  0
VERTEX
  5
2D5
330
256
100
AcDbEntity
  8
0
  6
CONTINUOUS
 62
     7
100
AcDbVertex
100
AcDb2dVertex
 10
9.6203030278
 20
6.8267454144
 30
0.0
  0
VERTEX
  5
2D6
330
256
100
AcDbEntity
  8
0
  6
CONTINUOUS
 62
     7
100
AcDbVertex
100
AcDb2dVertex
 10
9.6177325997
 20
6.8642388138
 30
0.0
  0
VERTEX
  5
2D7
330
256
100
AcDbEntity
  8
0
  6
CONTINUOUS
 62
     7
100
AcDbVertex
100
AcDb2dVertex
 10
9.6134558849
 20
6.9005468291
 30
0.0
  0
VERTEX
  5
2D8
330
256
100
AcDbEntity
  8
0
  6
CONTINUOUS
 62
     7
100
AcDbVertex
100
AcDb2dVertex
 10
9.6074838616
 20
6.9355762581
 30
0.0
  0
VERTEX
  5
2D9
330
256
100
AcDbEntity
  8
0
  6
CONTINUOUS
 62
     7
100
AcDbVertex
100
AcDb2dVertex
 10
9.59983186
 20
6.9692371809
 30
0.0
  0
VERTEX
  5
2DA
330
256
100
AcDbEntity
  8
0
  6
CONTINUOUS
 62
     7
100
AcDbVertex
100
AcDb2dVertex
 10
9.5905195227
 20
7.0014431903
 30
0.0
  0
VERTEX
  5
2DB
330
256
100
AcDbEntity
  8
0
  6
CONTINUOUS
 62
     7
100
AcDbVertex
100
AcDb2dVertex
 10
9.5795707541
 20
7.032111614
 30
0.0
  0
VERTEX
  5
2DC
330
256
100
AcDbEntity
  8
0
  6
CONTINUOUS
 62
     7
100
AcDbVertex
100
AcDb2dVertex
 10
9.5670136598
 20
7.0611637265
 30
0.0
  0
VERTEX
  5
2DD
330
256
100
AcDbEntity
  8
0
  6
CONTINUOUS
 62
     7
100
AcDbVertex
100
AcDb2dVertex
 10
9.5528804736
 20
7.0885249516
 30
0.0
  0
VERTEX
  5
2DE
330
256
100
AcDbEntity
  8
0
  6
CONTINUOUS
 62
     7
100
AcDbVertex
100
AcDb2dVertex
 10
9.5372074751
 20
7.1141250533
 30
0.0
  0
VERTEX
  5
2DF
330
256
100
AcDbEntity
  8
0
  6
CONTINUOUS
 62
     7
100
AcDbVertex
100
AcDb2dVertex
 10
9.5200348967
 20
7.1378983165
 30
0.0
  0
VERTEX
  5
2E0
330
256
100
AcDbEntity
  8
0
  6
CONTINUOUS
 62
     7
100
AcDbVertex
100
AcDb2dVertex
 10
9.5014068203
 20
7.1597837156
 30
0.0
  0
VERTEX
  5
2E1
330
256
100
AcDbEntity
  8
0
  6
CONTINUOUS
 62
     7
100
AcDbVertex
100
AcDb2dVertex
 10
9.4813710637
 20
7.1797250712
 30
0.0
  0
VERTEX
  5
2E2
330
256
100
AcDbEntity
  8
0
  6
CONTINUOUS
 62
     7
100
AcDbVertex
100
AcDb2dVertex
 10
9.4599790585
 20
7.1976711939
 30
0.0
  0
VERTEX
  5
2E3
330
256
100
AcDbEntity
  8
0
  6
CONTINUOUS
 62
     7
100
AcDbVertex
100
AcDb2dVertex
 10
9.4372857177
 20
7.2135760165
 30
0.0
  0
VERTEX
  5
2E4
330
256
100
AcDbEntity
  8
0
  6
CONTINUOUS
 62
     7
100
AcDbVertex
100
AcDb2dVertex
 10
9.4133492947
 20
7.2273987114
 30
0.0
  0
VERTEX
  5
2E5
330
256
100
AcDbEntity
  8
0
  6
CONTINUOUS
 62
     7
100
AcDbVertex
100
AcDb2dVertex
 10
9.388231234
 20
7.239103796
 30
0.0
  0
VERTEX
  5
2E6
330
256
100
AcDbEntity
  8
0
  6
CONTINUOUS
 62
     7
100
AcDbVertex
100
AcDb2dVertex
 10
9.3619960134
 20
7.2486612235
 30
0.0
  0
VERTEX
  5
2E7
330
256
100
AcDbEntity
  8
0
  6
CONTINUOUS
 62
     7
100
AcDbVertex
100
AcDb2dVertex
 10
9.3347109781
 20
7.2560464601
 30
0.0
  0
VERTEX
  5
2E8
330
256
100
AcDbEntity
  8
0
  6
CONTINUOUS
 62
     7
100
AcDbVertex
100
AcDb2dVertex
 10
9.3064461686
 20
7.2612405481
 30
0.0
  0
VERTEX
  5
2E9
330
256
100
AcDbEntity
  8
0
  6
CONTINUOUS
 62
     7
100
AcDbVertex
100
AcDb2dVertex
 10
9.2772741402
 20
7.2642301542
 30
0.0
  0
VERTEX
  5
2EA
330
256
100
AcDbEntity
  8
0
  6
CONTINUOUS
 62
     7
100
AcDbVertex
100
AcDb2dVertex
 10
9.247269777
 20
7.2650076042
 30
0.0
  0
VERTEX
  5
2EB
330
256
100
AcDbEntity
  8
0
  6
CONTINUOUS
 62
     7
100
AcDbVertex
100
AcDb2dVertex
 10
9.2165100999
 20
7.2635709024
 30
0.0
  0
VERTEX
  5
2EC
330
256
100
AcDbEntity
  8
0
  6
CONTINUOUS
 62
     7
100
AcDbVertex
100
AcDb2dVertex
 10
9.1850740685
 20
7.2599237368
 30
0.0
  0
VERTEX
  5
2ED
330
256
100
AcDbEntity
  8
0
  6
CONTINUOUS
 62
     7
100
AcDbVertex
100
AcDb2dVertex
 10
9.1530423786
 20
7.2540754696
 30
0.0
  0
VERTEX
  5
2EE
330
256
100
AcDbEntity
  8
0
  6
CONTINUOUS
 62
     7
100
AcDbVertex
100
AcDb2dVertex
 10
9.1204972551
 20
7.2460411132
 30
0.0
  0
VERTEX
  5
2EF
330
256
100
AcDbEntity
  8
0
  6
CONTINUOUS
 62
     7
100
AcDbVertex
100
AcDb2dVertex
 10
9.087522241
 20
7.2358412917
 30
0.0
  0
VERTEX
  5
2F0
330
256
100
AcDbEntity
  8
0
  6
CONTINUOUS
 62
     7
100
AcDbVertex
100
AcDb2dVertex
 10
9.0542019824
 20
7.223502188
 30
0.0
  0
VERTEX
  5
2F1
330
256
100
AcDbEntity
  8
0
  6
CONTINUOUS
 62
     7
100
AcDbVertex
100
AcDb2dVertex
 10
9.0206220122
 20
7.2090554762
 30
0.0
  0
VERTEX
  5
2F2
330
256
100
AcDbEntity
  8
0
  6
CONTINUOUS
 62
     7
100
AcDbVertex
100
AcDb2dVertex
 10
8.9868685296
 20
7.1925382409
 30
0.0
  0
VERTEX
  5
2F3
330
256
100
AcDbEntity
  8
0
  6
CONTINUOUS
 62
     7
100
AcDbVertex
100
AcDb2dVertex
 10
8.9530281793
 20
7.1739928817
 30
0.0
  0
VERTEX
  5
2F4
330
256
100
AcDbEntity
  8
0
  6
CONTINUOUS
 62
     7
100
AcDbVertex
100
AcDb2dVertex
 10
8.919187829
 20
7.1534670041
 30
0.0
  0
VERTEX
  5
2F5
330
256
100
AcDbEntity
  8
0
  6
CONTINUOUS
 62
     7
100
AcDbVertex
100
AcDb2dVertex
 10
8.8854343464
 20
7.1310132979
 30
0.0
  0
VERTEX
  5
2F6
330
256
100
AcDbEntity
  8
0
  6
CONTINUOUS
 62
     7
100
AcDbVertex
100
AcDb2dVertex
 10
8.8518543761
 20
7.1066894013
 30
0.0
  0
VERTEX
  5
2F7
330
256
100
AcDbEntity
  8
0
  6
CONTINUOUS
 62
     7
100
AcDbVertex
100
AcDb2dVertex
 10
8.8185341176
 20
7.0805577534
 30
0.0
  0
VERTEX
  5
2F8
330
256
100
AcDbEntity
  8
0
  6
CONTINUOUS
 62
     7
100
AcDbVertex
100
AcDb2dVertex
 10
8.7855591034
 20
7.0526854339
 30
0.0
  0
VERTEX
  5
2F9
330
256
100
AcDbEntity
  8
0
  6
CONTINUOUS
 62
     7
100
AcDbVertex
100
AcDb2dVertex
 10
8.75301398
 20
7.0231439905
 30
0.0
  0
VERTEX
  5
2FA
330
256
100
AcDbEntity
  8
0
  6
CONTINUOUS
 62
     7
100
AcDbVertex
100
AcDb2dVertex
 10
8.7209822901
 20
6.9920092558
 30
0.0
  0
VERTEX
  5
2FB
330
256
100
AcDbEntity
  8
0
  6
CONTINUOUS
 62
     7
100
AcDbVertex
100
AcDb2dVertex
 10
8.6895462586
 20
6.9593611521
 30
0.0
  0
VERTEX
  5
2FC
330
256
100
AcDbEntity
  8
0
  6
CONTINUOUS
 62
     7
100
AcDbVertex
100
AcDb2dVertex
 10
8.6587865815
 20
6.9252834866
 30
0.0
  0
VERTEX
  5
2FD
330
256
100
AcDbEntity
  8
0
  6
CONTINUOUS
 62
     7
100
AcDbVertex
100
AcDb2dVertex
 10
8.6287822184
 20
6.8898637363
 30
0.0
  0
VERTEX
  5
2FE
330
256
100
AcDbEntity
  8
0
  6
CONTINUOUS
 62
     7
100
AcDbVertex
100
AcDb2dVertex
 10
8.59961019
 20
6.8531928231
 30
0.0
  0
VERTEX
  5
2FF
330
256
100
AcDbEntity
  8
0
  6
CONTINUOUS
 62
     7
100
AcDbVertex
100
AcDb2dVertex
 10
8.5713453804
 20
6.8153648808
 30
0.0
  0
VERTEX
  5
300
330
256
100
AcDbEntity
  8
0
  6
CONTINUOUS
 62
     7
100
AcDbVertex
100
AcDb2dVertex
 10
8.5440603452
 20
6.776477013
 30
0.0
  0
VERTEX
  5
301
330
256
100
AcDbEntity
  8
0
  6
CONTINUOUS
 62
     7
100
AcDbVertex
100
AcDb2dVertex
 10
8.5178251245
 20
6.7366290445
 30
0.0
  0
VERTEX
  5
302
330
256
100
AcDbEntity
  8
0
  6
CONTINUOUS
 62
     7
100
AcDbVertex
100
AcDb2dVertex
 10
8.4927070639
 20
6.6959232643
 30
0.0
  0
VERTEX
  5
303
330
256
100
AcDbEntity
  8
0
  6
CONTINUOUS
 62
     7
100
AcDbVertex
100
AcDb2dVertex
 10
8.4687706409
 20
6.6544641637
 30
0.0
  0
VERTEX
  5
304
330
256
100
AcDbEntity
  8
0
  6
CONTINUOUS
 62
     7
100
AcDbVertex
100
AcDb2dVertex
 10
8.4460773001
 20
6.6123581675
 30
0.0
  0
VERTEX
  5
305
330
256
100
AcDbEntity
  8
0
  6
CONTINUOUS
 62
     7
100
AcDbVertex
100
AcDb2dVertex
 10
8.4246852949
 20
6.5697133613
 30
0.0
  0
VERTEX
  5
306
330
256
100
AcDbEntity
  8
0
  6
CONTINUOUS
 62
     7
100
AcDbVertex
100
AcDb2dVertex
 10
8.4046495383
 20
6.5266392136
 30
0.0
  0
VERTEX
  5
307
330
256
100
AcDbEntity
  8
0
  6
CONTINUOUS
 62
     7
100
AcDbVertex
100
AcDb2dVertex
 10
8.3860214618
 20
6.4832462952
 30
0.0
  0
VERTEX
  5
308
330
256
100
AcDbEntity
  8
0
  6
CONTINUOUS
 62
     7
100
AcDbVertex
100
AcDb2dVertex
 10
8.3688488835
 20
6.439645995
 30
0.0
  0
VERTEX
  5
309
330
256
100
AcDbEntity
  8
0
  6
CONTINUOUS
 62
     7
100
AcDbVertex
100
AcDb2dVertex
 10
8.353175885
 20
6.3959502345
 30
0.0
  0
VERTEX
  5
30A
330
256
100
AcDbEntity
  8
0
  6
CONTINUOUS
 62
     7
100
AcDbVertex
100
AcDb2dVertex
 10
8.3390426988
 20
6.3522711799
 30
0.0
  0
VERTEX
  5
30B
330
256
100
AcDbEntity
  8
0
  6
CONTINUOUS
 62
     7
100
AcDbVertex
100
AcDb2dVertex
 10
8.3264856044
 20
6.3087209549
 30
0.0
  0
VERTEX
  5
30C
330
256
100
AcDbEntity
  8
0
  6
CONTINUOUS
 62
     7
100
AcDbVertex
100
AcDb2dVertex
 10
8.3155368359
 20
6.2654113521
 30
0.0
  0
VERTEX
  5
30D
330
256
100
AcDbEntity
  8
0
  6
CONTINUOUS
 62
     7
100
AcDbVertex
100
AcDb2dVertex
 10
8.3062244985
 20
6.2224535468
 30
0.0
  0
VERTEX
  5
30E
330
256
100
AcDbEntity
  8
0
  6
CONTINUOUS
 62
     7
100
AcDbVertex
100
AcDb2dVertex
 10
8.2985724969
 20
6.179957811
 30
0.0
  0
VERTEX
  5
30F
330
256
100
AcDbEntity
  8
0
  6
CONTINUOUS
 62
     7
100
AcDbVertex
100
AcDb2dVertex
 10
8.2926004737
 20
6.1380332307
 30
0.0
  0
VERTEX
  5
310
330
256
100
AcDbEntity
  8
0
  6
CONTINUOUS
 62
     7
100
AcDbVertex
100
AcDb2dVertex
 10
8.2883237588
 20
6.0967874256
 30
0.0
  0
VERTEX
  5
311
330
256
100
AcDbEntity
  8
0
  6
CONTINUOUS
 62
     7
100
AcDbVertex
100
AcDb2dVertex
 10
8.2857533307
 20
6.0563262731
 30
0.0
  0
VERTEX
  5
312
330
256
100
AcDbEntity
  8
0
  6
CONTINUOUS
 62
     7
100
AcDbVertex
100
AcDb2dVertex
 10
8.2848957876
 20
6.0167536365
 30
0.0
  0
VERTEX
  5
313
330
256
100
AcDbEntity
  8
0
  6
CONTINUOUS
 62
     7
100
AcDbVertex
100
AcDb2dVertex
 10
8.2857533307
 20
5.9781710981
 30
0.0
  0
VERTEX
  5
314
330
256
100
AcDbEntity
  8
0
  6
CONTINUOUS
 62
     7
100
AcDbVertex
100
AcDb2dVertex
 10
8.2883237588
 20
5.9406776988
 30
0.0
  0
VERTEX
  5
315
330
256
100
AcDbEntity
  8
0
  6
CONTINUOUS
 62
     7
100
AcDbVertex
100
AcDb2dVertex
 10
8.2926004737
 20
5.9043696835
 30
0.0
  0
VERTEX
  5
316
330
256
100
AcDbEntity
  8
0
  6
CONTINUOUS
 62
     7
100
AcDbVertex
100
AcDb2dVertex
 10
8.2985724969
 20
5.8693402545
 30
0.0
  0
VERTEX
  5
317
330
256
100
AcDbEntity
  8
0
  6
CONTINUOUS
 62
     7
100
AcDbVertex
100
AcDb2dVertex
 10
8.3062244985
 20
5.8356793317
 30
0.0
  0
VERTEX
  5
318
330
256
100
AcDbEntity
  8
0
  6
CONTINUOUS
 62
     7
100
AcDbVertex
100
AcDb2dVertex
 10
8.3155368359
 20
5.8034733223
 30
0.0
  0
VERTEX
  5
319
330
256
100
AcDbEntity
  8
0
  6
CONTINUOUS
 62
     7
100
AcDbVertex
100
AcDb2dVertex
 10
8.3264856044
 20
5.7728048986
 30
0.0
  0
VERTEX
  5
31A
330
256
100
AcDbEntity
  8
0
  6
CONTINUOUS
 62
     7
100
AcDbVertex
100
AcDb2dVertex
 10
8.3390426988
 20
5.743752786
 30
0.0
  0
VERTEX
  5
31B
330
256
100
AcDbEntity
  8
0
  6
CONTINUOUS
 62
     7
100
AcDbVertex
100
AcDb2dVertex
 10
8.353175885
 20
5.716391561
 30
0.0
  0
VERTEX
  5
31C
330
256
100
AcDbEntity
  8
0
  6
CONTINUOUS
 62
     7
100
AcDbVertex
100
AcDb2dVertex
 10
8.3688488835
 20
5.6907914593
 30
0.0
  0
VERTEX
  5
31D
330
256
100
AcDbEntity
  8
0
  6
CONTINUOUS
 62
     7
100
AcDbVertex
100
AcDb2dVertex
 10
8.3860214618
 20
5.6670181961
 30
0.0
  0
VERTEX
  5
31E
330
256
100
AcDbEntity
  8
0
  6
CONTINUOUS
 62
     7
100
AcDbVertex
100
AcDb2dVertex
 10
8.4046495383
 20
5.6451327969
 30
0.0
  0
VERTEX
  5
31F
330
256
100
AcDbEntity
  8
0
  6
CONTINUOUS
 62
     7
100
AcDbVertex
100
AcDb2dVertex
 10
8.4246852949
 20
5.6251914414
 30
0.0
  0
VERTEX
  5
320
330
256
100
AcDbEntity
  8
0
  6
CONTINUOUS
 62
     7
100
AcDbVertex
100
AcDb2dVertex
 10
8.4460773001
 20
5.6072453186
 30
0.0
  0
VERTEX
  5
321
330
256
100
AcDbEntity
  8
0
  6
CONTINUOUS
 62
     7
100
AcDbVertex
100
AcDb2dVertex
 10
8.4687706409
 20
5.5913404961
 30
0.0
  0
VERTEX
  5
322
330
256
100
AcDbEntity
  8
0
  6
CONTINUOUS
 62
     7
100
AcDbVertex
100
AcDb2dVertex
 10
8.4927070639
 20
5.5775178011
 30
0.0
  0
VERTEX
  5
323
330
256
100
AcDbEntity
  8
0
  6
CONTINUOUS
 62
     7
100
AcDbVertex
100
AcDb2dVertex
 10
8.5178251245
 20
5.5658127166
 30
0.0
  0
VERTEX
  5
324
330
256
100
AcDbEntity
  8
0
  6
CONTINUOUS
 62
     7
100
AcDbVertex
100
AcDb2dVertex
 10
8.5440603452
 20
5.5562552891
 30
0.0
  0
VERTEX
  5
325
330
256
100
AcDbEntity
  8
0
  6
CONTINUOUS
 62
     7
100
AcDbVertex
100
AcDb2dVertex
 10
8.5713453804
 20
5.5488700524
 30
0.0
  0
VERTEX
  5
326
330
256
100
AcDbEntity
  8
0
  6
CONTINUOUS
 62
     7
100
AcDbVertex
100
AcDb2dVertex
 10
8.59961019
 20
5.5436759645
 30
0.0
  0
VERTEX
  5
327
330
256
100
AcDbEntity
  8
0
  6
CONTINUOUS
 62
     7
100
AcDbVertex
100
AcDb2dVertex
 10
8.6287822184
 20
5.5406863584
 30
0.0
  0
VERTEX
  5
328
330
256
100
AcDbEntity
  8
0
  6
CONTINUOUS
 62
     7
100
AcDbVertex
100
AcDb2dVertex
 10
8.6587865815
 20
5.5399089084
 30
0.0
  0
VERTEX
  5
329
330
256
100
AcDbEntity
  8
0
  6
CONTINUOUS
 62
     7
100
AcDbVertex
100
AcDb2dVertex
 10
8.6895462586
 20
5.5413456102
 30
0.0
  0
VERTEX
  5
32A
330
256
100
AcDbEntity
  8
0
  6
CONTINUOUS
 62
     7
100
AcDbVertex
100
AcDb2dVertex
 10
8.7209822901
 20
5.5449927758
 30
0.0
  0
VERTEX
  5
32B
330
256
100
AcDbEntity
  8
0
  6
CONTINUOUS
 62
     7
100
AcDbVertex
100
AcDb2dVertex
 10
8.75301398
 20
5.550841043
 30
0.0
  0
VERTEX
  5
32C
330
256
100
AcDbEntity
  8
0
  6
CONTINUOUS
 62
     7
100
AcDbVertex
100
AcDb2dVertex
 10
8.7855591034
 20
5.5588753994
 30
0.0
  0
VERTEX
  5
32D
330
256
100
AcDbEntity
  8
0
  6
CONTINUOUS
 62
     7
100
AcDbVertex
100
AcDb2dVertex
 10
8.8185341176
 20
5.5690752208
 30
0.0
  0
VERTEX
  5
32E
330
256
100
AcDbEntity
  8
0
  6
CONTINUOUS
 62
     7
100
AcDbVertex
100
AcDb2dVertex
 10
8.8518543761
 20
5.5814143246
 30
0.0
  0
VERTEX
  5
32F
330
256
100
AcDbEntity
  8
0
  6
CONTINUOUS
 62
     7
100
AcDbVertex
100
AcDb2dVertex
 10
8.8854343464
 20
5.5958610364
 30
0.0
  0
VERTEX
  5
330
330
256
100
AcDbEntity
  8
0
  6
CONTINUOUS
 62
     7
100
AcDbVertex
100
AcDb2dVertex
 10
8.919187829
 20
5.6123782716
 30
0.0
  0
VERTEX
  5
331
330
256
100
AcDbEntity
  8
0
  6
CONTINUOUS
 62
     7
100
AcDbVertex
100
AcDb2dVertex
 10
8.9530281793
 20
5.6309236309
 30
0.0
  0
VERTEX
  5
332
330
256
100
AcDbEntity
  8
0
  6
CONTINUOUS
 62
     7
100
AcDbVertex
100
AcDb2dVertex
 10
8.9868685296
 20
5.6514495084
 30
0.0
  0
VERTEX
  5
333
330
256
100
AcDbEntity
  8
0
  6
CONTINUOUS
 62
     7
100
AcDbVertex
100
AcDb2dVertex
 10
9.0206220122
 20
5.6739032147
 30
0.0
  0
VERTEX
  5
334
330
256
100
AcDbEntity
  8
0
  6
CONTINUOUS
 62
     7
100
AcDbVertex
100
AcDb2dVertex
 10
9.0542019824
 20
5.6982271113
 30
0.0
  0
VERTEX
  5
335
330
256
100
AcDbEntity
  8
0
  6
CONTINUOUS
 62
     7
100
AcDbVertex
100
AcDb2dVertex
 10
9.087522241
 20
5.7243587591
 30
0.0
  0
VERTEX
  5
336
330
256
100
AcDbEntity
  8
0
  6
CONTINUOUS
 62
     7
100
AcDbVertex
100
AcDb2dVertex
 10
9.1204972551
 20
5.7522310787
 30
0.0
  0
VERTEX
  5
337
330
256
100
AcDbEntity
  8
0
  6
CONTINUOUS
 62
     7
100
AcDbVertex
100
AcDb2dVertex
 10
9.1530423786
 20
5.781772522
 30
0.0
  0
VERTEX
  5
338
330
256
100
AcDbEntity
  8
0
  6
CONTINUOUS
 62
     7
100
AcDbVertex
100
AcDb2dVertex
 10
9.1850740685
 20
5.8129072568
 30
0.0
  0
VERTEX
  5
339
330
256
100
AcDbEntity
  8
0
  6
CONTINUOUS
 62
     7
100
AcDbVertex
100
AcDb2dVertex
 10
9.2165100999
 20
5.8455553605
 30
0.0
  0
VERTEX
  5
33A
330
256
100
AcDbEntity
  8
0
  6
CONTINUOUS
 62
     7
100
AcDbVertex
100
AcDb2dVertex
 10
9.247269777
 20
5.8796330259
 30
0.0
  0
VERTEX
  5
33B
330
256
100
AcDbEntity
  8
0
  6
CONTINUOUS
 62
     7
100
AcDbVertex
100
AcDb2dVertex
 10
9.2772741402
 20
5.9150527763
 30
0.0
  0
VERTEX
  5
33C
330
256
100
AcDbEntity
  8
0
  6
CONTINUOUS
 62
     7
100
AcDbVertex
100
AcDb2dVertex
 10
9.3064461686
 20
5.9517236894
 30
0.0
  0
VERTEX
  5
33D
330
256
100
AcDbEntity
  8
0
  6
CONTINUOUS
 62
     7
100
AcDbVertex
100
AcDb2dVertex
 10
9.3347109781
 20
5.9895516318
 30
0.0
  0
VERTEX
  5
33E
330
256
100
AcDbEntity
  8
0
  6
CONTINUOUS
 62
     7
100
AcDbVertex
100
AcDb2dVertex
 10
9.3619960134
 20
6.0284394996
 30
0.0
  0
VERTEX
  5
33F
330
256
100
AcDbEntity
  8
0
  6
CONTINUOUS
 62
     7
100
AcDbVertex
100
AcDb2dVertex
 10
9.388231234
 20
6.0682874681
 30
0.0
  0
VERTEX
  5
340
330
256
100
AcDbEntity
  8
0
  6
CONTINUOUS
 62
     7
100
AcDbVertex
100
AcDb2dVertex
 10
9.4133492947
 20
6.1089932482
 30
0.0
  0
VERTEX
  5
341
330
256
100
AcDbEntity
  8
0
  6
CONTINUOUS
 62
     7
100
AcDbVertex
100
AcDb2dVertex
 10
9.4372857177
 20
6.1504523489
 30
0.0
  0
VERTEX
  5
342
330
256
100
AcDbEntity
  8
0
  6
CONTINUOUS
 62
     7
100
AcDbVertex
100
AcDb2dVertex
 10
9.4599790585
 20
6.192558345
 30
0.0
  0
VERTEX
  5
343
330
256
100
AcDbEntity
  8
0
  6
CONTINUOUS
 62
     7
100
AcDbVertex
100
AcDb2dVertex
 10
9.4813710637
 20
6.2352031513
 30
0.0
  0
VERTEX
  5
344
330
256
100
AcDbEntity
  8
0
  6
CONTINUOUS
 62
     7
100
AcDbVertex
100
AcDb2dVertex
 10
9.5014068203
 20
6.278277299
 30
0.0
  0
VERTEX
  5
345
330
256
100
AcDbEntity
  8
0
  6
CONTINUOUS
 62
     7
100
AcDbVertex
100
AcDb2dVertex
 10
9.5200348967
 20
6.3216702174
 30
0.0
  0
VERTEX
  5
346
330
256
100
AcDbEntity
  8
0
  6
CONTINUOUS
 62
     7
100
AcDbVertex
100
AcDb2dVertex
 10
9.5372074751
 20
6.3652705175
 30
0.0
  0
VERTEX
  5
347
330
256
100
AcDbEntity
  8
0
  6
CONTINUOUS
 62
     7
100
AcDbVertex
100
AcDb2dVertex
 10
9.5528804736
 20
6.4089662781
 30
0.0
  0
VERTEX
  5
348
330
256
100
AcDbEntity
  8
0
  6
CONTINUOUS
 62
     7
100
AcDbVertex
100
AcDb2dVertex
 10
9.5670136598
 20
6.4526453326
 30
0.0
  0
VERTEX
  5
349
330
256
100
AcDbEntity
  8
0
  6
CONTINUOUS
 62
     7
100
AcDbVertex
100
AcDb2dVertex
 10
9.5795707541
 20
6.4961955577
 30
0.0
  0
VERTEX
  5
34A
330
256
100
AcDbEntity
  8
0
  6
CONTINUOUS
 62
     7
100
AcDbVertex
100
AcDb2dVertex
 10
9.5905195227
 20
6.5395051604
 30
0.0
  0
VERTEX
  5
34B
330
256
100
AcDbEntity
  8
0
  6
CONTINUOUS
 62
     7
100
AcDbVertex
100
AcDb2dVertex
 10
9.59983186
 20
6.5824629657
 30
0.0
  0
VERTEX
  5
34C
330
256
100
AcDbEntity
  8
0
  6
CONTINUOUS
 62
     7
100
AcDbVertex
100
AcDb2dVertex
 10
9.6074838616
 20
6.6249587015
 30
0.0
  0
VERTEX
  5
34D
330
256
100
AcDbEntity
  8
0
  6
CONTINUOUS
 62
     7
100
AcDbVertex
100
AcDb2dVertex
 10
9.6134558849
 20
6.6668832819
 30
0.0
  0
VERTEX
  5
34E
330
256
100
AcDbEntity
  8
0
  6
CONTINUOUS
 62
     7
100
AcDbVertex
100
AcDb2dVertex
 10
9.6177325997
 20
6.708129087
 30
0.0
  0
VERTEX
  5
34F
330
256
100
AcDbEntity
  8
0
  6
CONTINUOUS
 62
     7
100
AcDbVertex
100
AcDb2dVertex
 10
9.6203030278
 20
6.7485902394
 30
0.0
  0
VERTEX
  5
350
330
256
100
AcDbEntity
  8
0
  6
CONTINUOUS
 62
     7
100
AcDbVertex
100
AcDb2dVertex
 10
9.621160571
 20
6.788162876
 30
0.0
  0
SEQEND
  5
351
330
256
100
AcDbEntity
  8
0
  6
CONTINUOUS
 62
     7
  0
POLYLINE
  5
257
330
1F
100
AcDbEntity
  8
0
  6
CONTINUOUS
 62
     7
100
AcDb2dPolyline
 66
     1
 10
0.0
 20
0.0
 30
0.0
  0
VERTEX
  5
352
330
257
100
AcDbEntity
  8
0
  6
CONTINUOUS
 62
     7
100
AcDbVertex
100
AcDb2dVertex
 10
8.9253024445
 20
5.6149126911
 30
0.0
  0
VERTEX
  5
353
330
257
100
AcDbEntity
  8
0
  6
CONTINUOUS
 62
     7
100
AcDbVertex
100
AcDb2dVertex
 10
8.9078382852
 20
5.6050806347
 30
0.0
  0
VERTEX
  5
354
330
257
100
AcDbEntity
  8
0
  6
CONTINUOUS
 62
     7
100
AcDbVertex
100
AcDb2dVertex
 10
8.8731793336
 20
5.5870699067
 30
0.0
  0
VERTEX
  5
355
330
257
100
AcDbEntity
  8
0
  6
CONTINUOUS
 62
     7
100
AcDbVertex
100
AcDb2dVertex
 10
8.8386496872
 20
5.5711263176
 30
0.0
  0
VERTEX
  5
356
330
257
100
AcDbEntity
  8
0
  6
CONTINUOUS
 62
     7
100
AcDbVertex
100
AcDb2dVertex
 10
8.8043351919
 20
5.5572895059
 30
0.0
  0
VERTEX
  5
357
330
257
100
AcDbEntity
  8
0
  6
CONTINUOUS
 62
     7
100
AcDbVertex
100
AcDb2dVertex
 10
8.770321159
 20
5.545593872
 30
0.0
  0
VERTEX
  5
358
330
257
100
AcDbEntity
  8
0
  6
CONTINUOUS
 62
     7
100
AcDbVertex
100
AcDb2dVertex
 10
8.7366921528
 20
5.536068493
 30
0.0
  0
VERTEX
  5
359
330
257
100
AcDbEntity
  8
0
  6
CONTINUOUS
 62
     7
100
AcDbVertex
100
AcDb2dVertex
 10
8.7035317803
 20
5.5287370506
 30
0.0
  0
VERTEX
  5
35A
330
257
100
AcDbEntity
  8
0
  6
CONTINUOUS
 62
     7
100
AcDbVertex
100
AcDb2dVertex
 10
8.6709224834
 20
5.5236177719
 30
0.0
  0
VERTEX
  5
35B
330
257
100
AcDbEntity
  8
0
  6
CONTINUOUS
 62
     7
100
AcDbVertex
100
AcDb2dVertex
 10
8.6389453339
 20
5.5207233841
 30
0.0
  0
VERTEX
  5
35C
330
257
100
AcDbEntity
  8
0
  6
CONTINUOUS
 62
     7
100
AcDbVertex
100
AcDb2dVertex
 10
8.6076798321
 20
5.5200610834
 30
0.0
  0
VERTEX
  5
35D
330
257
100
AcDbEntity
  8
0
  6
CONTINUOUS
 62
     7
100
AcDbVertex
100
AcDb2dVertex
 10
8.577203709
 20
5.5216325161
 30
0.0
  0
VERTEX
  5
35E
330
257
100
AcDbEntity
  8
0
  6
CONTINUOUS
 62
     7
100
AcDbVertex
100
AcDb2dVertex
 10
8.5475927329
 20
5.5254337755
 30
0.0
  0
VERTEX
  5
35F
330
257
100
AcDbEntity
  8
0
  6
CONTINUOUS
 62
     7
100
AcDbVertex
100
AcDb2dVertex
 10
8.5189205215
 20
5.531455411
 30
0.0
  0
VERTEX
  5
360
330
257
100
AcDbEntity
  8
0
  6
CONTINUOUS
 62
     7
100
AcDbVertex
100
AcDb2dVertex
 10
8.4912583583
 20
5.539682452
 30
0.0
  0
VERTEX
  5
361
330
257
100
AcDbEntity
  8
0
  6
CONTINUOUS
 62
     7
100
AcDbVertex
100
AcDb2dVertex
 10
8.4646750159
 20
5.5500944447
 30
0.0
  0
VERTEX
  5
362
330
257
100
AcDbEntity
  8
0
  6
CONTINUOUS
 62
     7
100
AcDbVertex
100
AcDb2dVertex
 10
8.4392365846
 20
5.5626655031
 30
0.0
  0
VERTEX
  5
363
330
257
100
AcDbEntity
  8
0
  6
CONTINUOUS
 62
     7
100
AcDbVertex
100
AcDb2dVertex
 10
8.4150063084
 20
5.5773643738
 30
0.0
  0
VERTEX
  5
364
330
257
100
AcDbEntity
  8
0
  6
CONTINUOUS
 62
     7
100
AcDbVertex
100
AcDb2dVertex
 10
8.3920444276
 20
5.594154513
 30
0.0
  0
VERTEX
  5
365
330
257
100
AcDbEntity
  8
0
  6
CONTINUOUS
 62
     7
100
AcDbVertex
100
AcDb2dVertex
 10
8.3704080291
 20
5.6129941778
 30
0.0
  0
VERTEX
  5
366
330
257
100
AcDbEntity
  8
0
  6
CONTINUOUS
 62
     7
100
AcDbVertex
100
AcDb2dVertex
 10
8.3501509042
 20
5.6338365298
 30
0.0
  0
VERTEX
  5
367
330
257
100
AcDbEntity
  8
0
  6
CONTINUOUS
 62
     7
100
AcDbVertex
100
AcDb2dVertex
 10
8.3313234155
 20
5.6566297515
 30
0.0
  0
VERTEX
  5
368
330
257
100
AcDbEntity
  8
0
  6
CONTINUOUS
 62
     7
100
AcDbVertex
100
AcDb2dVertex
 10
8.3139723711
 20
5.6813171756
 30
0.0
  0
VERTEX
  5
369
330
257
100
AcDbEntity
  8
0
  6
CONTINUOUS
 62
     7
100
AcDbVertex
100
AcDb2dVertex
 10
8.2981409082
 20
5.7078374251
 30
0.0
  0
VERTEX
  5
36A
330
257
100
AcDbEntity
  8
0
  6
CONTINUOUS
 62
     7
100
AcDbVertex
100
AcDb2dVertex
 10
8.2838683866
 20
5.7361245665
 30
0.0
  0
VERTEX
  5
36B
330
257
100
AcDbEntity
  8
0
  6
CONTINUOUS
 62
     7
100
AcDbVertex
100
AcDb2dVertex
 10
8.2711902899
 20
5.7661082736
 30
0.0
  0
VERTEX
  5
36C
330
257
100
AcDbEntity
  8
0
  6
CONTINUOUS
 62
     7
100
AcDbVertex
100
AcDb2dVertex
 10
8.2601381378
 20
5.7977140021
 30
0.0
  0
VERTEX
  5
36D
330
257
100
AcDbEntity
  8
0
  6
CONTINUOUS
 62
     7
100
AcDbVertex
100
AcDb2dVertex
 10
8.2507394078
 20
5.8308631752
 30
0.0
  0
VERTEX
  5
36E
330
257
100
AcDbEntity
  8
0
  6
CONTINUOUS
 62
     7
100
AcDbVertex
100
AcDb2dVertex
 10
8.2430174666
 20
5.8654733789
 30
0.0
  0
VERTEX
  5
36F
330
257
100
AcDbEntity
  8
0
  6
CONTINUOUS
 62
     7
100
AcDbVertex
100
AcDb2dVertex
 10
8.236991512
 20
5.9014585667
 30
0.0
  0
VERTEX
  5
370
330
257
100
AcDbEntity
  8
0
  6
CONTINUOUS
 62
     7
100
AcDbVertex
100
AcDb2dVertex
 10
8.2326765257
 20
5.9387292737
 30
0.0
  0
VERTEX
  5
371
330
257
100
AcDbEntity
  8
0
  6
CONTINUOUS
 62
     7
100
AcDbVertex
100
AcDb2dVertex
 10
8.2300832354
 20
5.9771928391
 30
0.0
  0
VERTEX
  5
372
330
257
100
AcDbEntity
  8
0
  6
CONTINUOUS
 62
     7
100
AcDbVertex
100
AcDb2dVertex
 10
8.2292180883
 20
6.0167536365
 30
0.0
  0
VERTEX
  5
373
330
257
100
AcDbEntity
  8
0
  6
CONTINUOUS
 62
     7
100
AcDbVertex
100
AcDb2dVertex
 10
8.2300832354
 20
6.0573133115
 30
0.0
  0
VERTEX
  5
374
330
257
100
AcDbEntity
  8
0
  6
CONTINUOUS
 62
     7
100
AcDbVertex
100
AcDb2dVertex
 10
8.2326765257
 20
6.0987710262
 30
0.0
  0
VERTEX
  5
375
330
257
100
AcDbEntity
  8
0
  6
CONTINUOUS
 62
     7
100
AcDbVertex
100
AcDb2dVertex
 10
8.236991512
 20
6.1410237104
 30
0.0
  0
VERTEX
  5
376
330
257
100
AcDbEntity
  8
0
  6
CONTINUOUS
 62
     7
100
AcDbVertex
100
AcDb2dVertex
 10
8.2430174666
 20
6.1839663172
 30
0.0
  0
VERTEX
  5
377
330
257
100
AcDbEntity
  8
0
  6
CONTINUOUS
 62
     7
100
AcDbVertex
100
AcDb2dVertex
 10
8.2507394078
 20
6.2274920844
 30
0.0
  0
VERTEX
  5
378
330
257
100
AcDbEntity
  8
0
  6
CONTINUOUS
 62
     7
100
AcDbVertex
100
AcDb2dVertex
 10
8.2601381378
 20
6.2714928002
 30
0.0
  0
VERTEX
  5
379
330
257
100
AcDbEntity
  8
0
  6
CONTINUOUS
 62
     7
100
AcDbVertex
100
AcDb2dVertex
 10
8.2711902899
 20
6.3158590719
 30
0.0
  0
VERTEX
  5
37A
330
257
100
AcDbEntity
  8
0
  6
CONTINUOUS
 62
     7
100
AcDbVertex
100
AcDb2dVertex
 10
8.2838683866
 20
6.3604805979
 30
0.0
  0
VERTEX
  5
37B
330
257
100
AcDbEntity
  8
0
  6
CONTINUOUS
 62
     7
100
AcDbVertex
100
AcDb2dVertex
 10
8.2981409082
 20
6.405246442
 30
0.0
  0
VERTEX
  5
37C
330
257
100
AcDbEntity
  8
0
  6
CONTINUOUS
 62
     7
100
AcDbVertex
100
AcDb2dVertex
 10
8.3139723711
 20
6.4500453094
 30
0.0
  0
VERTEX
  5
37D
330
257
100
AcDbEntity
  8
0
  6
CONTINUOUS
 62
     7
100
AcDbVertex
100
AcDb2dVertex
 10
8.3313234155
 20
6.494765823
 30
0.0
  0
VERTEX
  5
37E
330
257
100
AcDbEntity
  8
0
  6
CONTINUOUS
 62
     7
100
AcDbVertex
100
AcDb2dVertex
 10
8.3501509042
 20
6.5392968006
 30
0.0
  0
VERTEX
  5
37F
330
257
100
AcDbEntity
  8
0
  6
CONTINUOUS
 62
     7
100
AcDbVertex
100
AcDb2dVertex
 10
8.3704080291
 20
6.583527531
 30
0.0
  0
VERTEX
  5
380
330
257
100
AcDbEntity
  8
0
  6
CONTINUOUS
 62
     7
100
AcDbVertex
100
AcDb2dVertex
 10
8.3920444276
 20
6.6273480498
 30
0.0
  0
VERTEX
  5
381
330
257
100
AcDbEntity
  8
0
  6
CONTINUOUS
 62
     7
100
AcDbVertex
100
AcDb2dVertex
 10
8.4150063084
 20
6.6706494123
 30
0.0
  0
VERTEX
  5
382
330
257
100
AcDbEntity
  8
0
  6
CONTINUOUS
 62
     7
100
AcDbVertex
100
AcDb2dVertex
 10
8.4392365846
 20
6.7133239644
 30
0.0
  0
VERTEX
  5
383
330
257
100
AcDbEntity
  8
0
  6
CONTINUOUS
 62
     7
100
AcDbVertex
100
AcDb2dVertex
 10
8.4646750159
 20
6.7552656104
 30
0.0
  0
VERTEX
  5
384
330
257
100
AcDbEntity
  8
0
  6
CONTINUOUS
 62
     7
100
AcDbVertex
100
AcDb2dVertex
 10
8.4912583583
 20
6.7963700769
 30
0.0
  0
VERTEX
  5
385
330
257
100
AcDbEntity
  8
0
  6
CONTINUOUS
 62
     7
100
AcDbVertex
100
AcDb2dVertex
 10
8.5189205215
 20
6.8365351716
 30
0.0
  0
VERTEX
  5
386
330
257
100
AcDbEntity
  8
0
  6
CONTINUOUS
 62
     7
100
AcDbVertex
100
AcDb2dVertex
 10
8.5475927329
 20
6.8756610379
 30
0.0
  0
VERTEX
  5
387
330
257
100
AcDbEntity
  8
0
  6
CONTINUOUS
 62
     7
100
AcDbVertex
100
AcDb2dVertex
 10
8.577203709
 20
6.9136504025
 30
0.0
  0
VERTEX
  5
388
330
257
100
AcDbEntity
  8
0
  6
CONTINUOUS
 62
     7
100
AcDbVertex
100
AcDb2dVertex
 10
8.6076798321
 20
6.9504088181
 30
0.0
  0
VERTEX
  5
389
330
257
100
AcDbEntity
  8
0
  6
CONTINUOUS
 62
     7
100
AcDbVertex
100
AcDb2dVertex
 10
8.6389453339
 20
6.9858448973
 30
0.0
  0
VERTEX
  5
38A
330
257
100
AcDbEntity
  8
0
  6
CONTINUOUS
 62
     7
100
AcDbVertex
100
AcDb2dVertex
 10
8.6709224834
 20
7.0198705405
 30
0.0
  0
VERTEX
  5
38B
330
257
100
AcDbEntity
  8
0
  6
CONTINUOUS
 62
     7
100
AcDbVertex
100
AcDb2dVertex
 10
8.7035317803
 20
7.0524011546
 30
0.0
  0
VERTEX
  5
38C
330
257
100
AcDbEntity
  8
0
  6
CONTINUOUS
 62
     7
100
AcDbVertex
100
AcDb2dVertex
 10
8.7366921528
 20
7.0833558634
 30
0.0
  0
VERTEX
  5
38D
330
257
100
AcDbEntity
  8
0
  6
CONTINUOUS
 62
     7
100
AcDbVertex
100
AcDb2dVertex
 10
8.770321159
 20
7.1126577085
 30
0.0
  0
VERTEX
  5
38E
330
257
100
AcDbEntity
  8
0
  6
CONTINUOUS
 62
     7
100
AcDbVertex
100
AcDb2dVertex
 10
8.8043351919
 20
7.1402338409
 30
0.0
  0
VERTEX
  5
38F
330
257
100
AcDbEntity
  8
0
  6
CONTINUOUS
 62
     7
100
AcDbVertex
100
AcDb2dVertex
 10
8.8386496872
 20
7.1660157022
 30
0.0
  0
VERTEX
  5
390
330
257
100
AcDbEntity
  8
0
  6
CONTINUOUS
 62
     7
100
AcDbVertex
100
AcDb2dVertex
 10
8.8731793336
 20
7.1899391944
 30
0.0
  0
VERTEX
  5
391
330
257
100
AcDbEntity
  8
0
  6
CONTINUOUS
 62
     7
100
AcDbVertex
100
AcDb2dVertex
 10
8.9078382852
 20
7.21194484
 30
0.0
  0
VERTEX
  5
392
330
257
100
AcDbEntity
  8
0
  6
CONTINUOUS
 62
     7
100
AcDbVertex
100
AcDb2dVertex
 10
8.9425403741
 20
7.2319779295
 30
0.0
  0
VERTEX
  5
393
330
257
100
AcDbEntity
  8
0
  6
CONTINUOUS
 62
     7
100
AcDbVertex
100
AcDb2dVertex
 10
8.9771993256
 20
7.2499886576
 30
0.0
  0
VERTEX
  5
394
330
257
100
AcDbEntity
  8
0
  6
CONTINUOUS
 62
     7
100
AcDbVertex
100
AcDb2dVertex
 10
9.0117289721
 20
7.2659322466
 30
0.0
  0
VERTEX
  5
395
330
257
100
AcDbEntity
  8
0
  6
CONTINUOUS
 62
     7
100
AcDbVertex
100
AcDb2dVertex
 10
9.0460434674
 20
7.2797690583
 30
0.0
  0
VERTEX
  5
396
330
257
100
AcDbEntity
  8
0
  6
CONTINUOUS
 62
     7
100
AcDbVertex
100
AcDb2dVertex
 10
9.0800575003
 20
7.2914646923
 30
0.0
  0
VERTEX
  5
397
330
257
100
AcDbEntity
  8
0
  6
CONTINUOUS
 62
     7
100
AcDbVertex
100
AcDb2dVertex
 10
9.1136865064
 20
7.3009900712
 30
0.0
  0
VERTEX
  5
398
330
257
100
AcDbEntity
  8
0
  6
CONTINUOUS
 62
     7
100
AcDbVertex
100
AcDb2dVertex
 10
9.146846879
 20
7.3083215136
 30
0.0
  0
VERTEX
  5
399
330
257
100
AcDbEntity
  8
0
  6
CONTINUOUS
 62
     7
100
AcDbVertex
100
AcDb2dVertex
 10
9.1794561759
 20
7.3134407924
 30
0.0
  0
VERTEX
  5
39A
330
257
100
AcDbEntity
  8
0
  6
CONTINUOUS
 62
     7
100
AcDbVertex
100
AcDb2dVertex
 10
9.2114333253
 20
7.3163351801
 30
0.0
  0
VERTEX
  5
39B
330
257
100
AcDbEntity
  8
0
  6
CONTINUOUS
 62
     7
100
AcDbVertex
100
AcDb2dVertex
 10
9.2426988271
 20
7.3169974809
 30
0.0
  0
VERTEX
  5
39C
330
257
100
AcDbEntity
  8
0
  6
CONTINUOUS
 62
     7
100
AcDbVertex
100
AcDb2dVertex
 10
9.2731749503
 20
7.3154260481
 30
0.0
  0
VERTEX
  5
39D
330
257
100
AcDbEntity
  8
0
  6
CONTINUOUS
 62
     7
100
AcDbVertex
100
AcDb2dVertex
 10
9.3027859264
 20
7.3116247887
 30
0.0
  0
VERTEX
  5
39E
330
257
100
AcDbEntity
  8
0
  6
CONTINUOUS
 62
     7
100
AcDbVertex
100
AcDb2dVertex
 10
9.3314581378
 20
7.3056031532
 30
0.0
  0
VERTEX
  5
39F
330
257
100
AcDbEntity
  8
0
  6
CONTINUOUS
 62
     7
100
AcDbVertex
100
AcDb2dVertex
 10
9.359120301
 20
7.2973761122
 30
0.0
  0
VERTEX
  5
3A0
330
257
100
AcDbEntity
  8
0
  6
CONTINUOUS
 62
     7
100
AcDbVertex
100
AcDb2dVertex
 10
9.3857036434
 20
7.2869641196
 30
0.0
  0
VERTEX
  5
3A1
330
257
100
AcDbEntity
  8
0
  6
CONTINUOUS
 62
     7
100
AcDbVertex
100
AcDb2dVertex
 10
9.4111420747
 20
7.2743930611
 30
0.0
  0
VERTEX
  5
3A2
330
257
100
AcDbEntity
  8
0
  6
CONTINUOUS
 62
     7
100
AcDbVertex
100
AcDb2dVertex
 10
9.4353723508
 20
7.2596941904
 30
0.0
  0
VERTEX
  5
3A3
330
257
100
AcDbEntity
  8
0
  6
CONTINUOUS
 62
     7
100
AcDbVertex
100
AcDb2dVertex
 10
9.4583342316
 20
7.2429040512
 30
0.0
  0
VERTEX
  5
3A4
330
257
100
AcDbEntity
  8
0
  6
CONTINUOUS
 62
     7
100
AcDbVertex
100
AcDb2dVertex
 10
9.4799706302
 20
7.2240643864
 30
0.0
  0
VERTEX
  5
3A5
330
257
100
AcDbEntity
  8
0
  6
CONTINUOUS
 62
     7
100
AcDbVertex
100
AcDb2dVertex
 10
9.500227755
 20
7.2032220345
 30
0.0
  0
VERTEX
  5
3A6
330
257
100
AcDbEntity
  8
0
  6
CONTINUOUS
 62
     7
100
AcDbVertex
100
AcDb2dVertex
 10
9.5190552437
 20
7.1804288127
 30
0.0
  0
VERTEX
  5
3A7
330
257
100
AcDbEntity
  8
0
  6
CONTINUOUS
 62
     7
100
AcDbVertex
100
AcDb2dVertex
 10
9.5364062882
 20
7.1557413886
 30
0.0
  0
VERTEX
  5
3A8
330
257
100
AcDbEntity
  8
0
  6
CONTINUOUS
 62
     7
100
AcDbVertex
100
AcDb2dVertex
 10
9.552237751
 20
7.1292211391
 30
0.0
  0
VERTEX
  5
3A9
330
257
100
AcDbEntity
  8
0
  6
CONTINUOUS
 62
     7
100
AcDbVertex
100
AcDb2dVertex
 10
9.5665102727
 20
7.1009339977
 30
0.0
  0
VERTEX
  5
3AA
330
257
100
AcDbEntity
  8
0
  6
CONTINUOUS
 62
     7
100
AcDbVertex
100
AcDb2dVertex
 10
9.5791883694
 20
7.0709502906
 30
0.0
  0
VERTEX
  5
3AB
330
257
100
AcDbEntity
  8
0
  6
CONTINUOUS
 62
     7
100
AcDbVertex
100
AcDb2dVertex
 10
9.5902405215
 20
7.0393445621
 30
0.0
  0
VERTEX
  5
3AC
330
257
100
AcDbEntity
  8
0
  6
CONTINUOUS
 62
     7
100
AcDbVertex
100
AcDb2dVertex
 10
9.5996392515
 20
7.006195389
 30
0.0
  0
VERTEX
  5
3AD
330
257
100
AcDbEntity
  8
0
  6
CONTINUOUS
 62
     7
100
AcDbVertex
100
AcDb2dVertex
 10
9.6073611927
 20
6.9715851853
 30
0.0
  0
VERTEX
  5
3AE
330
257
100
AcDbEntity
  8
0
  6
CONTINUOUS
 62
     7
100
AcDbVertex
100
AcDb2dVertex
 10
9.6133871472
 20
6.9355999976
 30
0.0
  0
VERTEX
  5
3AF
330
257
100
AcDbEntity
  8
0
  6
CONTINUOUS
 62
     7
100
AcDbVertex
100
AcDb2dVertex
 10
9.6177021335
 20
6.8983292905
 30
0.0
  0
VERTEX
  5
3B0
330
257
100
AcDbEntity
  8
0
  6
CONTINUOUS
 62
     7
100
AcDbVertex
100
AcDb2dVertex
 10
9.6202954239
 20
6.8598657251
 30
0.0
  0
VERTEX
  5
3B1
330
257
100
AcDbEntity
  8
0
  6
CONTINUOUS
 62
     7
100
AcDbVertex
100
AcDb2dVertex
 10
9.621160571
 20
6.8203049277
 30
0.0
  0
VERTEX
  5
3B2
330
257
100
AcDbEntity
  8
0
  6
CONTINUOUS
 62
     7
100
AcDbVertex
100
AcDb2dVertex
 10
9.621160571
 20
6.8203049277
 30
0.0
  0
SEQEND
  5
3B3
330
257
100
AcDbEntity
  8
0
  6
CONTINUOUS
 62
     7
  0
POLYLINE
  5
258
330
1F
100
AcDbEntity
  8
0
  6
CONTINUOUS
 62
     7
100
AcDb2dPolyline
 66
     1
 10
0.0
 20
0.0
 30
0.0
  0
VERTEX
  5
3B4
330
258
100
AcDbEntity
  8
0
  6
CONTINUOUS
 62
     7
100
AcDbVertex
100
AcDb2dVertex
 10
8.3586687392
 20
7.0968442986
 30
0.0
  0
VERTEX
  5
3B5
330
258
100
AcDbEntity
  8
0
  6
CONTINUOUS
 62
     7
100
AcDbVertex
100
AcDb2dVertex
 10
8.3280833946
 20
7.0600651051
 30
0.0
  0
VERTEX
  5
3B6
330
258
100
AcDbEntity
  8
0
  6
CONTINUOUS
 62
     7
100
AcDbVertex
100
AcDb2dVertex
 10
8.2983635467
 20
7.022044952
 30
0.0
  0
VERTEX
  5
3B7
330
258
100
AcDbEntity
  8
0
  6
CONTINUOUS
 62
     7
100
AcDbVertex
100
AcDb2dVertex
 10
8.2695834185
 20
6.9828787915
 30
0.0
  0
VERTEX
  5
3B8
330
258
100
AcDbEntity
  8
0
  6
CONTINUOUS
 62
     7
100
AcDbVertex
100
AcDb2dVertex
 10
8.2418148861
 20
6.942664438
 30
0.0
  0
VERTEX
  5
3B9
330
258
100
AcDbEntity
  8
0
  6
CONTINUOUS
 62
     7
100
AcDbVertex
100
AcDb2dVertex
 10
8.2151272991
 20
6.9015023237
 30
0.0
  0
VERTEX
  5
3BA
330
258
100
AcDbEntity
  8
0
  6
CONTINUOUS
 62
     7
100
AcDbVertex
100
AcDb2dVertex
 10
8.1895873077
 20
6.8594952477
 30
0.0
  0
VERTEX
  5
3BB
330
258
100
AcDbEntity
  8
0
  6
CONTINUOUS
 62
     7
100
AcDbVertex
100
AcDb2dVertex
 10
8.1652586959
 20
6.8167481192
 30
0.0
  0
VERTEX
  5
3BC
330
258
100
AcDbEntity
  8
0
  6
CONTINUOUS
 62
     7
100
AcDbVertex
100
AcDb2dVertex
 10
8.1422022226
 20
6.7733676959
 30
0.0
  0
VERTEX
  5
3BD
330
258
100
AcDbEntity
  8
0
  6
CONTINUOUS
 62
     7
100
AcDbVertex
100
AcDb2dVertex
 10
8.1204754695
 20
6.7294623169
 30
0.0
  0
VERTEX
  5
3BE
330
258
100
AcDbEntity
  8
0
  6
CONTINUOUS
 62
     7
100
AcDbVertex
100
AcDb2dVertex
 10
8.1001326973
 20
6.6851416323
 30
0.0
  0
VERTEX
  5
3BF
330
258
100
AcDbEntity
  8
0
  6
CONTINUOUS
 62
     7
100
AcDbVertex
100
AcDb2dVertex
 10
8.0812247105
 20
6.6405163297
 30
0.0
  0
VERTEX
  5
3C0
330
258
100
AcDbEntity
  8
0
  6
CONTINUOUS
 62
     7
100
AcDbVertex
100
AcDb2dVertex
 10
8.0637987304
 20
6.5956978569
 30
0.0
  0
VERTEX
  5
3C1
330
258
100
AcDbEntity
  8
0
  6
CONTINUOUS
 62
     7
100
AcDbVertex
100
AcDb2dVertex
 10
8.0478982768
 20
6.5507981448
 30
0.0
  0
VERTEX
  5
3C2
330
258
100
AcDbEntity
  8
0
  6
CONTINUOUS
 62
     7
100
AcDbVertex
100
AcDb2dVertex
 10
8.0335630601
 20
6.5059293267
 30
0.0
  0
VERTEX
  5
3C3
330
258
100
AcDbEntity
  8
0
  6
CONTINUOUS
 62
     7
100
AcDbVertex
100
AcDb2dVertex
 10
8.0208288811
 20
6.4612034589
 30
0.0
  0
VERTEX
  5
3C4
330
258
100
AcDbEntity
  8
0
  6
CONTINUOUS
 62
     7
100
AcDbVertex
100
AcDb2dVertex
 10
8.0097275425
 20
6.4167322406
 30
0.0
  0
VERTEX
  5
3C5
330
258
100
AcDbEntity
  8
0
  6
CONTINUOUS
 62
     7
100
AcDbVertex
100
AcDb2dVertex
 10
8.000286769
 20
6.3726267353
 30
0.0
  0
VERTEX
  5
3C6
330
258
100
AcDbEntity
  8
0
  6
CONTINUOUS
 62
     7
100
AcDbVertex
100
AcDb2dVertex
 10
7.9925301382
 20
6.328997093
 30
0.0
  0
VERTEX
  5
3C7
330
258
100
AcDbEntity
  8
0
  6
CONTINUOUS
 62
     7
100
AcDbVertex
100
AcDb2dVertex
 10
7.9864770216
 20
6.2859522751
 30
0.0
  0
VERTEX
  5
3C8
330
258
100
AcDbEntity
  8
0
  6
CONTINUOUS
 62
     7
100
AcDbVertex
100
AcDb2dVertex
 10
7.9821425365
 20
6.2435997826
 30
0.0
  0
VERTEX
  5
3C9
330
258
100
AcDbEntity
  8
0
  6
CONTINUOUS
 62
     7
100
AcDbVertex
100
AcDb2dVertex
 10
7.9795375078
 20
6.2020453877
 30
0.0
  0
VERTEX
  5
3CA
330
258
100
AcDbEntity
  8
0
  6
CONTINUOUS
 62
     7
100
AcDbVertex
100
AcDb2dVertex
 10
7.9786684414
 20
6.1613928689
 30
0.0
  0
VERTEX
  5
3CB
330
258
100
AcDbEntity
  8
0
  6
CONTINUOUS
 62
     7
100
AcDbVertex
100
AcDb2dVertex
 10
7.9795375078
 20
6.1217437529
 30
0.0
  0
VERTEX
  5
3CC
330
258
100
AcDbEntity
  8
0
  6
CONTINUOUS
 62
     7
100
AcDbVertex
100
AcDb2dVertex
 10
7.9821425365
 20
6.08319706
 30
0.0
  0
VERTEX
  5
3CD
330
258
100
AcDbEntity
  8
0
  6
CONTINUOUS
 62
     7
100
AcDbVertex
100
AcDb2dVertex
 10
7.9864770216
 20
6.0458490576
 30
0.0
  0
VERTEX
  5
3CE
330
258
100
AcDbEntity
  8
0
  6
CONTINUOUS
 62
     7
100
AcDbVertex
100
AcDb2dVertex
 10
7.9925301382
 20
6.0097930193
 30
0.0
  0
VERTEX
  5
3CF
330
258
100
AcDbEntity
  8
0
  6
CONTINUOUS
 62
     7
100
AcDbVertex
100
AcDb2dVertex
 10
8.000286769
 20
5.9751189922
 30
0.0
  0
VERTEX
  5
3D0
330
258
100
AcDbEntity
  8
0
  6
CONTINUOUS
 62
     7
100
AcDbVertex
100
AcDb2dVertex
 10
8.0097275425
 20
5.941913572
 30
0.0
  0
VERTEX
  5
3D1
330
258
100
AcDbEntity
  8
0
  6
CONTINUOUS
 62
     7
100
AcDbVertex
100
AcDb2dVertex
 10
8.0208288811
 20
5.9102596865
 30
0.0
  0
VERTEX
  5
3D2
330
258
100
AcDbEntity
  8
0
  6
CONTINUOUS
 62
     7
100
AcDbVertex
100
AcDb2dVertex
 10
8.0335630601
 20
5.8802363888
 30
0.0
  0
VERTEX
  5
3D3
330
258
100
AcDbEntity
  8
0
  6
CONTINUOUS
 62
     7
100
AcDbVertex
100
AcDb2dVertex
 10
8.0478982768
 20
5.8519186597
 30
0.0
  0
VERTEX
  5
3D4
330
258
100
AcDbEntity
  8
0
  6
CONTINUOUS
 62
     7
100
AcDbVertex
100
AcDb2dVertex
 10
8.0637987304
 20
5.8253772204
 30
0.0
  0
VERTEX
  5
3D5
330
258
100
AcDbEntity
  8
0
  6
CONTINUOUS
 62
     7
100
AcDbVertex
100
AcDb2dVertex
 10
8.0812247105
 20
5.8006783561
 30
0.0
  0
VERTEX
  5
3D6
330
258
100
AcDbEntity
  8
0
  6
CONTINUOUS
 62
     7
100
AcDbVertex
100
AcDb2dVertex
 10
8.1001326973
 20
5.7778837502
 30
0.0
  0
VERTEX
  5
3D7
330
258
100
AcDbEntity
  8
0
  6
CONTINUOUS
 62
     7
100
AcDbVertex
100
AcDb2dVertex
 10
8.1204754695
 20
5.7570503305
 30
0.0
  0
VERTEX
  5
3D8
330
258
100
AcDbEntity
  8
0
  6
CONTINUOUS
 62
     7
100
AcDbVertex
100
AcDb2dVertex
 10
8.1422022226
 20
5.7382301267
 30
0.0
  0
VERTEX
  5
3D9
330
258
100
AcDbEntity
  8
0
  6
CONTINUOUS
 62
     7
100
AcDbVertex
100
AcDb2dVertex
 10
8.1652586959
 20
5.7214701409
 30
0.0
  0
VERTEX
  5
3DA
330
258
100
AcDbEntity
  8
0
  6
CONTINUOUS
 62
     7
100
AcDbVertex
100
AcDb2dVertex
 10
8.1825536923
 20
5.7107582169
 30
0.0
  0
SEQEND
  5
3DB
330
258
100
AcDbEntity
  8
0
  6
CONTINUOUS
 62
     7
  0
LINE
  5
259
330
1F
100
AcDbEntity
  8
0
  6
CONTINUOUS
 62
     7
100
AcDbLine
 10
8.0802802427
 20
7.2575545569
 30
0.0
 11
8.3586687392
 21
7.0968442986
 31
0.0
  0
ARC
  5
25A
330
1F
100
AcDbEntity
  8
0
  6
CONTINUOUS
 62
     7
100
AcDbCircle
 10
8.8095660553
 20
6.7240007714
 30
0.0
 40
0.9036246114692622
100
AcDbArc
 50
96.1842498257
 51
143.8103736416
  0
LINE
  5
25B
330
1F
100
AcDbEntity
  8
0
  6
CONTINUOUS
 62
     7
100
AcDbLine
 10
8.9627717767
 20
7.4777276106
 30
0.0
 11
8.7122221298
 21
7.622366843
 31
0.0
  0
ARC
  5
25C
330
1F
100
AcDbEntity
  8
0
  6
CONTINUOUS
 62
     7
100
AcDbCircle
 10
8.9632468129
 20
7.1199374343
 30
0.0
 40
0.3577904917368221
100
AcDbArc
 50
60.6001258586
 51
90.0760712754
  0
SPLINE
  5
25D
330
1F
100
AcDbEntity
  8
0
  6
CONTINUOUS
 62
     7
100
AcDbSpline
210
0.0
220
0.0
230
1.0
 70
     8
 71
     3
 72
    35
 73
    31
 74
     0
 42
0.00000001
 43
0.00000001
 40
0.0
 40
0.0
 40
0.0
 40
0.0
 40
0.0355578436025258
 40
0.0721592635763653
 40
0.1077136626147205
 40
0.1442760168142187
 40
0.1802601653105186
 40
0.2172684042198229
 40
0.2535567727469014
 40
0.2909239733701406
 40
0.3267301974989374
 40
0.3636069268589063
 40
0.3988938794016713
 40
0.4351919529599494
 40
0.4707317562310742
 40
0.5072666781559393
 40
0.5434325016829199
 40
0.5806425848348398
 40
0.6168433747879405
 40
0.6541287770626587
 40
0.6897281630864798
 40
0.726379432659766
 40
0.7616800374682737
 40
0.7979811251807784
 40
0.8337207322402147
 40
0.8704659839725435
 40
0.9067309170342531
 40
0.9440570642305621
 40
0.9801140560197409
 40
1.0
 40
1.0
 40
1.0
 40
1.0
 10
8.507606584836497
 20
7.463276570921261
 30
0.0
 10
8.500341517346097
 20
7.458578092162892
 30
0.0
 10
8.485598162102178
 20
7.449043240417579
 30
0.0
 10
8.469073472043572
 20
7.431311452700641
 30
0.0
 10
8.457085852618164
 20
7.411576600933031
 30
0.0
 10
8.450471338414879
 20
7.390535902752611
 30
0.0
 10
8.449245525943336
 20
7.368642582672096
 30
0.0
 10
8.453573660000487
 20
7.34701182988659
 30
0.0
 10
8.46348630245395
 20
7.326170093556608
 30
0.0
 10
8.478547933698497
 20
7.307381898641466
 30
0.0
 10
8.498513623797704
 20
7.291041558526977
 30
0.0
 10
8.52226193835065
 20
7.278023710576613
 30
0.0
 10
8.549547604902708
 20
7.268333637797904
 30
0.0
 10
8.579109457175534
 20
7.26224542896483
 30
0.0
 10
8.610812945217964
 20
7.2596249974332
 30
0.0
 10
8.643442311769023
 20
7.260411229734649
 30
0.0
 10
8.676659919626221
 20
7.264438943428885
 30
0.0
 10
8.708980028653107
 20
7.271375119305095
 30
0.0
 10
8.73988659890777
 20
7.280936921790556
 30
0.0
 10
8.767761699363344
 20
7.292475024599559
 30
0.0
 10
8.792322911077724
 20
7.305731471110234
 30
0.0
 10
8.812421653348252
 20
7.319991620577206
 30
0.0
 10
8.828037262027367
 20
7.335218230405284
 30
0.0
 10
8.838573259901654
 20
7.350882716250775
 30
0.0
 10
8.843939954077618
 20
7.367066930732006
 30
0.0
 10
8.843820011911687
 20
7.383335334753609
 30
0.0
 10
8.83817065801492
 20
7.399733126193535
 30
0.0
 10
8.826873520720069
 20
7.415632100401405
 30
0.0
 10
8.813572094731006
 20
7.428810311706552
 30
0.0
 10
8.802565843672358
 20
7.436048655654671
 30
0.0
 10
8.798653469590187
 20
7.438621657952143
 30
0.0
  0
SPLINE
  5
25E
330
1F
100
AcDbEntity
  8
0
  6
CONTINUOUS
 62
     7
100
AcDbSpline
210
0.0
220
0.0
230
1.0
 70
     8
 71
     3
 72
    14
 73
    10
 74
     0
 42
0.00000001
 43
0.00000001
 40
0.0
 40
0.0
 40
0.0
 40
0.0
 40
0.0706529232593001
 40
0.2365225466439531
 40
0.4071033459271499
 40
0.5745480413253073
 40
0.7469600965922875
 40
0.8724262730011124
 40
1.0
 40
1.0
 40
1.0
 40
1.0
 10
8.68841139485743
 20
7.48219245662146
 30
0.0
 10
8.683925050074302
 20
7.483187059083242
 30
0.0
 10
8.668906256169143
 20
7.486516658147328
 30
0.0
 10
8.64206456076891
 20
7.489275687587003
 30
0.0
 10
8.60921754039316
 20
7.490050135569392
 30
0.0
 10
8.576899003697314
 20
7.48712058095718
 30
0.0
 10
8.54927928475969
 20
7.481052695703188
 30
0.0
 10
8.525952690326138
 20
7.472960100945143
 30
0.0
 10
8.513755815621343
 20
7.466522287619143
 30
0.0
 10
8.507606584836497
 20
7.463276570921261
 30
0.0
  0
POLYLINE
  5
25F
330
1F
100
AcDbEntity
  8
0
  6
CONTINUOUS
 62
     7
100
AcDb2dPolyline
 66
     1
 10
0.0
 20
0.0
 30
0.0
  0
VERTEX
  5
3DC
330
25F
100
AcDbEntity
  8
0
  6
CONTINUOUS
 62
     7
100
AcDbVertex
100
AcDb2dVertex
 10
9.1576437242
 20
6.5205802961
 30
0.0
  0
VERTEX
  5
3DD
330
25F
100
AcDbEntity
  8
0
  6
CONTINUOUS
 62
     7
100
AcDbVertex
100
AcDb2dVertex
 10
9.1567708704
 20
6.4982750116
 30
0.0
  0
VERTEX
  5
3DE
330
25F
100
AcDbEntity
  8
0
  6
CONTINUOUS
 62
     7
100
AcDbVertex
100
AcDb2dVertex
 10
9.1541597557
 20
6.4751522523
 30
0.0
  0
VERTEX
  5
3DF
330
25F
100
AcDbEntity
  8
0
  6
CONTINUOUS
 62
     7
100
AcDbVertex
100
AcDb2dVertex
 10
9.1498326574
 20
6.4514092935
 30
0.0
  0
VERTEX
  5
3E0
330
25F
100
AcDbEntity
  8
0
  6
CONTINUOUS
 62
     7
100
AcDbVertex
100
AcDb2dVertex
 10
9.1438264927
 20
6.4272487017
 30
0.0
  0
VERTEX
  5
3E1
330
25F
100
AcDbEntity
  8
0
  6
CONTINUOUS
 62
     7
100
AcDbVertex
100
AcDb2dVertex
 10
9.136192504
 20
6.4028766065
 30
0.0
  0
VERTEX
  5
3E2
330
25F
100
AcDbEntity
  8
0
  6
CONTINUOUS
 62
     7
100
AcDbVertex
100
AcDb2dVertex
 10
9.1269958218
 20
6.3785009421
 30
0.0
  0
VERTEX
  5
3E3
330
25F
100
AcDbEntity
  8
0
  6
CONTINUOUS
 62
     7
100
AcDbVertex
100
AcDb2dVertex
 10
9.1163149091
 20
6.3543296731
 30
0.0
  0
VERTEX
  5
3E4
330
25F
100
AcDbEntity
  8
0
  6
CONTINUOUS
 62
     7
100
AcDbVertex
100
AcDb2dVertex
 10
9.1042408916
 20
6.3305690202
 30
0.0
  0
VERTEX
  5
3E5
330
25F
100
AcDbEntity
  8
0
  6
CONTINUOUS
 62
     7
100
AcDbVertex
100
AcDb2dVertex
 10
9.0908767805
 20
6.3074217009
 30
0.0
  0
VERTEX
  5
3E6
330
25F
100
AcDbEntity
  8
0
  6
CONTINUOUS
 62
     7
100
AcDbVertex
100
AcDb2dVertex
 10
9.0763365938
 20
6.2850852
 30
0.0
  0
VERTEX
  5
3E7
330
25F
100
AcDbEntity
  8
0
  6
CONTINUOUS
 62
     7
100
AcDbVertex
100
AcDb2dVertex
 10
9.0607443832
 20
6.2637500846
 30
0.0
  0
VERTEX
  5
3E8
330
25F
100
AcDbEntity
  8
0
  6
CONTINUOUS
 62
     7
100
AcDbVertex
100
AcDb2dVertex
 10
9.0442331759
 20
6.2435983785
 30
0.0
  0
VERTEX
  5
3E9
330
25F
100
AcDbEntity
  8
0
  6
CONTINUOUS
 62
     7
100
AcDbVertex
100
AcDb2dVertex
 10
9.0269438397
 20
6.2248020088
 30
0.0
  0
VERTEX
  5
3EA
330
25F
100
AcDbEntity
  8
0
  6
CONTINUOUS
 62
     7
100
AcDbVertex
100
AcDb2dVertex
 10
9.0090238811
 20
6.2075213395
 30
0.0
  0
VERTEX
  5
3EB
330
25F
100
AcDbEntity
  8
0
  6
CONTINUOUS
 62
     7
100
AcDbVertex
100
AcDb2dVertex
 10
8.990626187
 20
6.1919038033
 30
0.0
  0
VERTEX
  5
3EC
330
25F
100
AcDbEntity
  8
0
  6
CONTINUOUS
 62
     7
100
AcDbVertex
100
AcDb2dVertex
 10
8.9719077199
 20
6.1780826435
 30
0.0
  0
VERTEX
  5
3ED
330
25F
100
AcDbEntity
  8
0
  6
CONTINUOUS
 62
     7
100
AcDbVertex
100
AcDb2dVertex
 10
8.9530281793
 20
6.1661757773
 30
0.0
  0
VERTEX
  5
3EE
330
25F
100
AcDbEntity
  8
0
  6
CONTINUOUS
 62
     7
100
AcDbVertex
100
AcDb2dVertex
 10
8.9341486386
 20
6.1562847898
 30
0.0
  0
VERTEX
  5
3EF
330
25F
100
AcDbEntity
  8
0
  6
CONTINUOUS
 62
     7
100
AcDbVertex
100
AcDb2dVertex
 10
8.9154301716
 20
6.1484940676
 30
0.0
  0
VERTEX
  5
3F0
330
25F
100
AcDbEntity
  8
0
  6
CONTINUOUS
 62
     7
100
AcDbVertex
100
AcDb2dVertex
 10
8.8970324774
 20
6.1428700783
 30
0.0
  0
VERTEX
  5
3F1
330
25F
100
AcDbEntity
  8
0
  6
CONTINUOUS
 62
     7
100
AcDbVertex
100
AcDb2dVertex
 10
8.8791125189
 20
6.1394608038
 30
0.0
  0
VERTEX
  5
3F2
330
25F
100
AcDbEntity
  8
0
  6
CONTINUOUS
 62
     7
100
AcDbVertex
100
AcDb2dVertex
 10
8.8618231827
 20
6.1382953309
 30
0.0
  0
VERTEX
  5
3F3
330
25F
100
AcDbEntity
  8
0
  6
CONTINUOUS
 62
     7
100
AcDbVertex
100
AcDb2dVertex
 10
8.8453119754
 20
6.1393836028
 30
0.0
  0
VERTEX
  5
3F4
330
25F
100
AcDbEntity
  8
0
  6
CONTINUOUS
 62
     7
100
AcDbVertex
100
AcDb2dVertex
 10
8.8297197648
 20
6.142716335
 30
0.0
  0
VERTEX
  5
3F5
330
25F
100
AcDbEntity
  8
0
  6
CONTINUOUS
 62
     7
100
AcDbVertex
100
AcDb2dVertex
 10
8.815179578
 20
6.1482650937
 30
0.0
  0
VERTEX
  5
3F6
330
25F
100
AcDbEntity
  8
0
  6
CONTINUOUS
 62
     7
100
AcDbVertex
100
AcDb2dVertex
 10
8.801815467
 20
6.1559825388
 30
0.0
  0
VERTEX
  5
3F7
330
25F
100
AcDbEntity
  8
0
  6
CONTINUOUS
 62
     7
100
AcDbVertex
100
AcDb2dVertex
 10
8.7897414494
 20
6.1658028278
 30
0.0
  0
VERTEX
  5
3F8
330
25F
100
AcDbEntity
  8
0
  6
CONTINUOUS
 62
     7
100
AcDbVertex
100
AcDb2dVertex
 10
8.7790605367
 20
6.1776421775
 30
0.0
  0
VERTEX
  5
3F9
330
25F
100
AcDbEntity
  8
0
  6
CONTINUOUS
 62
     7
100
AcDbVertex
100
AcDb2dVertex
 10
8.7698638546
 20
6.1913995787
 30
0.0
  0
VERTEX
  5
3FA
330
25F
100
AcDbEntity
  8
0
  6
CONTINUOUS
 62
     7
100
AcDbVertex
100
AcDb2dVertex
 10
8.7622298659
 20
6.2069576581
 30
0.0
  0
VERTEX
  5
3FB
330
25F
100
AcDbEntity
  8
0
  6
CONTINUOUS
 62
     7
100
AcDbVertex
100
AcDb2dVertex
 10
8.7562237012
 20
6.2241836797
 30
0.0
  0
VERTEX
  5
3FC
330
25F
100
AcDbEntity
  8
0
  6
CONTINUOUS
 62
     7
100
AcDbVertex
100
AcDb2dVertex
 10
8.7518966028
 20
6.2429306771
 30
0.0
  0
VERTEX
  5
3FD
330
25F
100
AcDbEntity
  8
0
  6
CONTINUOUS
 62
     7
100
AcDbVertex
100
AcDb2dVertex
 10
8.7492854882
 20
6.2630387076
 30
0.0
  0
VERTEX
  5
3FE
330
25F
100
AcDbEntity
  8
0
  6
CONTINUOUS
 62
     7
100
AcDbVertex
100
AcDb2dVertex
 10
8.7484126343
 20
6.2843362165
 30
0.0
  0
VERTEX
  5
3FF
330
25F
100
AcDbEntity
  8
0
  6
CONTINUOUS
 62
     7
100
AcDbVertex
100
AcDb2dVertex
 10
8.7492854882
 20
6.306641501
 30
0.0
  0
VERTEX
  5
400
330
25F
100
AcDbEntity
  8
0
  6
CONTINUOUS
 62
     7
100
AcDbVertex
100
AcDb2dVertex
 10
8.7518966028
 20
6.3297642603
 30
0.0
  0
VERTEX
  5
401
330
25F
100
AcDbEntity
  8
0
  6
CONTINUOUS
 62
     7
100
AcDbVertex
100
AcDb2dVertex
 10
8.7562237012
 20
6.3535072191
 30
0.0
  0
VERTEX
  5
402
330
25F
100
AcDbEntity
  8
0
  6
CONTINUOUS
 62
     7
100
AcDbVertex
100
AcDb2dVertex
 10
8.7622298659
 20
6.3776678109
 30
0.0
  0
VERTEX
  5
403
330
25F
100
AcDbEntity
  8
0
  6
CONTINUOUS
 62
     7
100
AcDbVertex
100
AcDb2dVertex
 10
8.7698638546
 20
6.4020399061
 30
0.0
  0
VERTEX
  5
404
330
25F
100
AcDbEntity
  8
0
  6
CONTINUOUS
 62
     7
100
AcDbVertex
100
AcDb2dVertex
 10
8.7790605367
 20
6.4264155704
 30
0.0
  0
VERTEX
  5
405
330
25F
100
AcDbEntity
  8
0
  6
CONTINUOUS
 62
     7
100
AcDbVertex
100
AcDb2dVertex
 10
8.7897414494
 20
6.4505868394
 30
0.0
  0
VERTEX
  5
406
330
25F
100
AcDbEntity
  8
0
  6
CONTINUOUS
 62
     7
100
AcDbVertex
100
AcDb2dVertex
 10
8.801815467
 20
6.4743474923
 30
0.0
  0
VERTEX
  5
407
330
25F
100
AcDbEntity
  8
0
  6
CONTINUOUS
 62
     7
100
AcDbVertex
100
AcDb2dVertex
 10
8.815179578
 20
6.4974948116
 30
0.0
  0
VERTEX
  5
408
330
25F
100
AcDbEntity
  8
0
  6
CONTINUOUS
 62
     7
100
AcDbVertex
100
AcDb2dVertex
 10
8.8297197648
 20
6.5198313126
 30
0.0
  0
VERTEX
  5
409
330
25F
100
AcDbEntity
  8
0
  6
CONTINUOUS
 62
     7
100
AcDbVertex
100
AcDb2dVertex
 10
8.8453119754
 20
6.5411664279
 30
0.0
  0
VERTEX
  5
40A
330
25F
100
AcDbEntity
  8
0
  6
CONTINUOUS
 62
     7
100
AcDbVertex
100
AcDb2dVertex
 10
8.8618231827
 20
6.5613181341
 30
0.0
  0
VERTEX
  5
40B
330
25F
100
AcDbEntity
  8
0
  6
CONTINUOUS
 62
     7
100
AcDbVertex
100
AcDb2dVertex
 10
8.8791125189
 20
6.5801145038
 30
0.0
  0
VERTEX
  5
40C
330
25F
100
AcDbEntity
  8
0
  6
CONTINUOUS
 62
     7
100
AcDbVertex
100
AcDb2dVertex
 10
8.8970324774
 20
6.597395173
 30
0.0
  0
VERTEX
  5
40D
330
25F
100
AcDbEntity
  8
0
  6
CONTINUOUS
 62
     7
100
AcDbVertex
100
AcDb2dVertex
 10
8.9154301716
 20
6.6130127092
 30
0.0
  0
VERTEX
  5
40E
330
25F
100
AcDbEntity
  8
0
  6
CONTINUOUS
 62
     7
100
AcDbVertex
100
AcDb2dVertex
 10
8.9341486386
 20
6.6268338691
 30
0.0
  0
VERTEX
  5
40F
330
25F
100
AcDbEntity
  8
0
  6
CONTINUOUS
 62
     7
100
AcDbVertex
100
AcDb2dVertex
 10
8.9530281793
 20
6.6387407353
 30
0.0
  0
VERTEX
  5
410
330
25F
100
AcDbEntity
  8
0
  6
CONTINUOUS
 62
     7
100
AcDbVertex
100
AcDb2dVertex
 10
8.9719077199
 20
6.6486317227
 30
0.0
  0
VERTEX
  5
411
330
25F
100
AcDbEntity
  8
0
  6
CONTINUOUS
 62
     7
100
AcDbVertex
100
AcDb2dVertex
 10
8.990626187
 20
6.656422445
 30
0.0
  0
VERTEX
  5
412
330
25F
100
AcDbEntity
  8
0
  6
CONTINUOUS
 62
     7
100
AcDbVertex
100
AcDb2dVertex
 10
9.0090238811
 20
6.6620464343
 30
0.0
  0
VERTEX
  5
413
330
25F
100
AcDbEntity
  8
0
  6
CONTINUOUS
 62
     7
100
AcDbVertex
100
AcDb2dVertex
 10
9.0269438397
 20
6.6654557087
 30
0.0
  0
VERTEX
  5
414
330
25F
100
AcDbEntity
  8
0
  6
CONTINUOUS
 62
     7
100
AcDbVertex
100
AcDb2dVertex
 10
9.0442331759
 20
6.6666211817
 30
0.0
  0
VERTEX
  5
415
330
25F
100
AcDbEntity
  8
0
  6
CONTINUOUS
 62
     7
100
AcDbVertex
100
AcDb2dVertex
 10
9.0607443832
 20
6.6655329097
 30
0.0
  0
VERTEX
  5
416
330
25F
100
AcDbEntity
  8
0
  6
CONTINUOUS
 62
     7
100
AcDbVertex
100
AcDb2dVertex
 10
9.0763365938
 20
6.6622001776
 30
0.0
  0
VERTEX
  5
417
330
25F
100
AcDbEntity
  8
0
  6
CONTINUOUS
 62
     7
100
AcDbVertex
100
AcDb2dVertex
 10
9.0908767805
 20
6.6566514189
 30
0.0
  0
VERTEX
  5
418
330
25F
100
AcDbEntity
  8
0
  6
CONTINUOUS
 62
     7
100
AcDbVertex
100
AcDb2dVertex
 10
9.1042408916
 20
6.6489339738
 30
0.0
  0
VERTEX
  5
419
330
25F
100
AcDbEntity
  8
0
  6
CONTINUOUS
 62
     7
100
AcDbVertex
100
AcDb2dVertex
 10
9.1163149091
 20
6.6391136848
 30
0.0
  0
VERTEX
  5
41A
330
25F
100
AcDbEntity
  8
0
  6
CONTINUOUS
 62
     7
100
AcDbVertex
100
AcDb2dVertex
 10
9.1269958218
 20
6.6272743351
 30
0.0
  0
VERTEX
  5
41B
330
25F
100
AcDbEntity
  8
0
  6
CONTINUOUS
 62
     7
100
AcDbVertex
100
AcDb2dVertex
 10
9.136192504
 20
6.6135169339
 30
0.0
  0
VERTEX
  5
41C
330
25F
100
AcDbEntity
  8
0
  6
CONTINUOUS
 62
     7
100
AcDbVertex
100
AcDb2dVertex
 10
9.1438264927
 20
6.5979588545
 30
0.0
  0
VERTEX
  5
41D
330
25F
100
AcDbEntity
  8
0
  6
CONTINUOUS
 62
     7
100
AcDbVertex
100
AcDb2dVertex
 10
9.1498326574
 20
6.5807328329
 30
0.0
  0
VERTEX
  5
41E
330
25F
100
AcDbEntity
  8
0
  6
CONTINUOUS
 62
     7
100
AcDbVertex
100
AcDb2dVertex
 10
9.1541597557
 20
6.5619858355
 30
0.0
  0
VERTEX
  5
41F
330
25F
100
AcDbEntity
  8
0
  6
CONTINUOUS
 62
     7
100
AcDbVertex
100
AcDb2dVertex
 10
9.1567708704
 20
6.541877805
 30
0.0
  0
VERTEX
  5
420
330
25F
100
AcDbEntity
  8
0
  6
CONTINUOUS
 62
     7
100
AcDbVertex
100
AcDb2dVertex
 10
9.1576437242
 20
6.5205802961
 30
0.0
  0
SEQEND
  5
421
330
25F
100
AcDbEntity
  8
0
  6
CONTINUOUS
 62
     7
  0
ARC
  5
260
330
1F
100
AcDbEntity
  8
0
  6
CONTINUOUS
 62
     7
100
AcDbCircle
 10
9.4349868801
 20
6.1245568263
 30
0.0
 40
1.457951087098279
100
AcDbArc
 50
139.2297934901
 51
177.2882289301
  0
SPLINE
  5
261
330
1F
100
AcDbEntity
  8
0
  6
CONTINUOUS
 62
     7
100
AcDbSpline
210
0.0
220
0.0
230
1.0
 70
     8
 71
     3
 72
     8
 73
     4
 74
     0
 42
0.00000001
 43
0.00000001
 40
0.0
 40
0.0
 40
0.0
 40
0.0
 40
0.0007538973953194
 40
0.0007538973953194
 40
0.0007538973953194
 40
0.0007538973953194
 10
8.33082988953986
 20
7.076638079435394
 30
0.0
 10
8.340079783424445
 20
7.083420972810424
 30
0.0
 10
8.349360798321102
 20
7.090154306936673
 30
0.0
 10
8.358668739192874
 20
7.096844298626483
 30
0.0
  0
LINE
  5
262
330
1F
100
AcDbEntity
  8
0
  6
CONTINUOUS
 62
     7
100
AcDbLine
 10
8.0802802427
 20
7.2575545569
 30
0.0
 11
8.0556133193
 21
7.2396506109
 31
0.0
  0
ARC
  5
263
330
1F
100
AcDbEntity
  8
0
  6
CONTINUOUS
 62
     7
100
AcDbCircle
 10
8.9876488141
 20
6.4788210124
 30
0.0
 40
1.204098229661523
100
AcDbArc
 50
120.954969204
 51
140.7822936086
  0
ARC
  5
264
330
1F
100
AcDbEntity
  8
0
  6
CONTINUOUS
 62
     7
100
AcDbCircle
 10
8.9961742492
 20
6.5391481031
 30
0.0
 40
0.1074088602968567
100
AcDbArc
 50
350.0452507308
 51
122.4335831705
  0
POLYLINE
  5
265
330
1F
100
AcDbEntity
  8
0
  6
CONTINUOUS
 62
     7
100
AcDb2dPolyline
 66
     1
 10
0.0
 20
0.0
 30
0.0
  0
VERTEX
  5
422
330
265
100
AcDbEntity
  8
0
  6
CONTINUOUS
 62
     7
100
AcDbVertex
100
AcDb2dVertex
 10
8.7489218373
 20
6.3012893034
 30
0.0
  0
VERTEX
  5
423
330
265
100
AcDbEntity
  8
0
  6
CONTINUOUS
 62
     7
100
AcDbVertex
100
AcDb2dVertex
 10
8.750387084
 20
6.2871933204
 30
0.0
  0
VERTEX
  5
424
330
265
100
AcDbEntity
  8
0
  6
CONTINUOUS
 62
     7
100
AcDbVertex
100
AcDb2dVertex
 10
8.7538790495
 20
6.269262091
 30
0.0
  0
VERTEX
  5
425
330
265
100
AcDbEntity
  8
0
  6
CONTINUOUS
 62
     7
100
AcDbVertex
100
AcDb2dVertex
 10
8.7590735735
 20
6.252814346
 30
0.0
  0
VERTEX
  5
426
330
265
100
AcDbEntity
  8
0
  6
CONTINUOUS
 62
     7
100
AcDbVertex
100
AcDb2dVertex
 10
8.7659190306
 20
6.2380135504
 30
0.0
  0
VERTEX
  5
427
330
265
100
AcDbEntity
  8
0
  6
CONTINUOUS
 62
     7
100
AcDbVertex
100
AcDb2dVertex
 10
8.7743473875
 20
6.2250068013
 30
0.0
  0
VERTEX
  5
428
330
265
100
AcDbEntity
  8
0
  6
CONTINUOUS
 62
     7
100
AcDbVertex
100
AcDb2dVertex
 10
8.7842748793
 20
6.2139233656
 30
0.0
  0
VERTEX
  5
429
330
265
100
AcDbEntity
  8
0
  6
CONTINUOUS
 62
     7
100
AcDbVertex
100
AcDb2dVertex
 10
8.7956028422
 20
6.2048733954
 30
0.0
  0
VERTEX
  5
42A
330
265
100
AcDbEntity
  8
0
  6
CONTINUOUS
 62
     7
100
AcDbVertex
100
AcDb2dVertex
 10
8.8082186939
 20
6.1979468334
 30
0.0
  0
VERTEX
  5
42B
330
265
100
AcDbEntity
  8
0
  6
CONTINUOUS
 62
     7
100
AcDbVertex
100
AcDb2dVertex
 10
8.8219970524
 20
6.1932125189
 30
0.0
  0
VERTEX
  5
42C
330
265
100
AcDbEntity
  8
0
  6
CONTINUOUS
 62
     7
100
AcDbVertex
100
AcDb2dVertex
 10
8.836800982
 20
6.1907175035
 30
0.0
  0
VERTEX
  5
42D
330
265
100
AcDbEntity
  8
0
  6
CONTINUOUS
 62
     7
100
AcDbVertex
100
AcDb2dVertex
 10
8.8524833547
 20
6.190486584
 30
0.0
  0
VERTEX
  5
42E
330
265
100
AcDbEntity
  8
0
  6
CONTINUOUS
 62
     7
100
AcDbVertex
100
AcDb2dVertex
 10
8.8688883121
 20
6.1925220553
 30
0.0
  0
VERTEX
  5
42F
330
265
100
AcDbEntity
  8
0
  6
CONTINUOUS
 62
     7
100
AcDbVertex
100
AcDb2dVertex
 10
8.8858528143
 20
6.1968036879
 30
0.0
  0
VERTEX
  5
430
330
265
100
AcDbEntity
  8
0
  6
CONTINUOUS
 62
     7
100
AcDbVertex
100
AcDb2dVertex
 10
8.9032082604
 20
6.2032889291
 30
0.0
  0
VERTEX
  5
431
330
265
100
AcDbEntity
  8
0
  6
CONTINUOUS
 62
     7
100
AcDbVertex
100
AcDb2dVertex
 10
8.9207821643
 20
6.2119133257
 30
0.0
  0
VERTEX
  5
432
330
265
100
AcDbEntity
  8
0
  6
CONTINUOUS
 62
     7
100
AcDbVertex
100
AcDb2dVertex
 10
8.9383998686
 20
6.2225911644
 30
0.0
  0
VERTEX
  5
433
330
265
100
AcDbEntity
  8
0
  6
CONTINUOUS
 62
     7
100
AcDbVertex
100
AcDb2dVertex
 10
8.9558862806
 20
6.2352163242
 30
0.0
  0
VERTEX
  5
434
330
265
100
AcDbEntity
  8
0
  6
CONTINUOUS
 62
     7
100
AcDbVertex
100
AcDb2dVertex
 10
8.9730676125
 20
6.2496633305
 30
0.0
  0
VERTEX
  5
435
330
265
100
AcDbEntity
  8
0
  6
CONTINUOUS
 62
     7
100
AcDbVertex
100
AcDb2dVertex
 10
8.9897731086
 20
6.2657886025
 30
0.0
  0
VERTEX
  5
436
330
265
100
AcDbEntity
  8
0
  6
CONTINUOUS
 62
     7
100
AcDbVertex
100
AcDb2dVertex
 10
9.005836742
 20
6.28343188
 30
0.0
  0
VERTEX
  5
437
330
265
100
AcDbEntity
  8
0
  6
CONTINUOUS
 62
     7
100
AcDbVertex
100
AcDb2dVertex
 10
9.0210988652
 20
6.3024178161
 30
0.0
  0
VERTEX
  5
438
330
265
100
AcDbEntity
  8
0
  6
CONTINUOUS
 62
     7
100
AcDbVertex
100
AcDb2dVertex
 10
9.0354077964
 20
6.3225577202
 30
0.0
  0
VERTEX
  5
439
330
265
100
AcDbEntity
  8
0
  6
CONTINUOUS
 62
     7
100
AcDbVertex
100
AcDb2dVertex
 10
9.0486213269
 20
6.3436514328
 30
0.0
  0
VERTEX
  5
43A
330
265
100
AcDbEntity
  8
0
  6
CONTINUOUS
 62
     7
100
AcDbVertex
100
AcDb2dVertex
 10
9.0606081347
 20
6.3654893151
 30
0.0
  0
VERTEX
  5
43B
330
265
100
AcDbEntity
  8
0
  6
CONTINUOUS
 62
     7
100
AcDbVertex
100
AcDb2dVertex
 10
9.0712490897
 20
6.3878543324
 30
0.0
  0
VERTEX
  5
43C
330
265
100
AcDbEntity
  8
0
  6
CONTINUOUS
 62
     7
100
AcDbVertex
100
AcDb2dVertex
 10
9.0804384371
 20
6.4105242112
 30
0.0
  0
VERTEX
  5
43D
330
265
100
AcDbEntity
  8
0
  6
CONTINUOUS
 62
     7
100
AcDbVertex
100
AcDb2dVertex
 10
9.0880848492
 20
6.4332736479
 30
0.0
  0
VERTEX
  5
43E
330
265
100
AcDbEntity
  8
0
  6
CONTINUOUS
 62
     7
100
AcDbVertex
100
AcDb2dVertex
 10
9.0941123324
 20
6.4558765485
 30
0.0
  0
VERTEX
  5
43F
330
265
100
AcDbEntity
  8
0
  6
CONTINUOUS
 62
     7
100
AcDbVertex
100
AcDb2dVertex
 10
9.0984609829
 20
6.4781082752
 30
0.0
  0
VERTEX
  5
440
330
265
100
AcDbEntity
  8
0
  6
CONTINUOUS
 62
     7
100
AcDbVertex
100
AcDb2dVertex
 10
9.1010875818
 20
6.4997478791
 30
0.0
  0
VERTEX
  5
441
330
265
100
AcDbEntity
  8
0
  6
CONTINUOUS
 62
     7
100
AcDbVertex
100
AcDb2dVertex
 10
9.1019660249
 20
6.5205802961
 30
0.0
  0
SEQEND
  5
442
330
265
100
AcDbEntity
  8
0
  6
CONTINUOUS
 62
     7
  0
POLYLINE
  5
266
330
1F
100
AcDbEntity
  8
0
  6
CONTINUOUS
 62
     7
100
AcDb2dPolyline
 66
     1
 10
0.0
 20
0.0
 30
0.0
  0
VERTEX
  5
443
330
266
100
AcDbEntity
  8
0
  6
CONTINUOUS
 62
     7
100
AcDbVertex
100
AcDb2dVertex
 10
6.8790338801
 20
6.796198389
 30
0.0
  0
VERTEX
  5
444
330
266
100
AcDbEntity
  8
0
  6
CONTINUOUS
 62
     7
100
AcDbVertex
100
AcDb2dVertex
 10
6.8799131721
 20
6.8128005058
 30
0.0
  0
VERTEX
  5
445
330
266
100
AcDbEntity
  8
0
  6
CONTINUOUS
 62
     7
100
AcDbVertex
100
AcDb2dVertex
 10
6.8825387046
 20
6.8281543563
 30
0.0
  0
VERTEX
  5
446
330
266
100
AcDbEntity
  8
0
  6
CONTINUOUS
 62
     7
100
AcDbVertex
100
AcDb2dVertex
 10
6.886873621
 20
6.8420444063
 30
0.0
  0
VERTEX
  5
447
330
266
100
AcDbEntity
  8
0
  6
CONTINUOUS
 62
     7
100
AcDbVertex
100
AcDb2dVertex
 10
6.8928570686
 20
6.8542756698
 30
0.0
  0
VERTEX
  5
448
330
266
100
AcDbEntity
  8
0
  6
CONTINUOUS
 62
     7
100
AcDbVertex
100
AcDb2dVertex
 10
6.9004050528
 20
6.8646764467
 30
0.0
  0
VERTEX
  5
449
330
266
100
AcDbEntity
  8
0
  6
CONTINUOUS
 62
     7
100
AcDbVertex
100
AcDb2dVertex
 10
6.9094116165
 20
6.8731007329
 30
0.0
  0
VERTEX
  5
44A
330
266
100
AcDbEntity
  8
0
  6
CONTINUOUS
 62
     7
100
AcDbVertex
100
AcDb2dVertex
 10
6.9197503272
 20
6.8794302698
 30
0.0
  0
VERTEX
  5
44B
330
266
100
AcDbEntity
  8
0
  6
CONTINUOUS
 62
     7
100
AcDbVertex
100
AcDb2dVertex
 10
6.9312760523
 20
6.8835762048
 30
0.0
  0
VERTEX
  5
44C
330
266
100
AcDbEntity
  8
0
  6
CONTINUOUS
 62
     7
100
AcDbVertex
100
AcDb2dVertex
 10
6.9438269956
 20
6.8854803378
 30
0.0
  0
VERTEX
  5
44D
330
266
100
AcDbEntity
  8
0
  6
CONTINUOUS
 62
     7
100
AcDbVertex
100
AcDb2dVertex
 10
6.9572269696
 20
6.8851159391
 30
0.0
  0
VERTEX
  5
44E
330
266
100
AcDbEntity
  8
0
  6
CONTINUOUS
 62
     7
100
AcDbVertex
100
AcDb2dVertex
 10
6.9712878679
 20
6.882488124
 30
0.0
  0
VERTEX
  5
44F
330
266
100
AcDbEntity
  8
0
  6
CONTINUOUS
 62
     7
100
AcDbVertex
100
AcDb2dVertex
 10
6.9858123063
 20
6.8776337813
 30
0.0
  0
VERTEX
  5
450
330
266
100
AcDbEntity
  8
0
  6
CONTINUOUS
 62
     7
100
AcDbVertex
100
AcDb2dVertex
 10
7.0005963937
 20
6.8706210553
 30
0.0
  0
VERTEX
  5
451
330
266
100
AcDbEntity
  8
0
  6
CONTINUOUS
 62
     7
100
AcDbVertex
100
AcDb2dVertex
 10
7.0154325937
 20
6.8615483893
 30
0.0
  0
VERTEX
  5
452
330
266
100
AcDbEntity
  8
0
  6
CONTINUOUS
 62
     7
100
AcDbVertex
100
AcDb2dVertex
 10
7.0301126387
 20
6.8505431437
 30
0.0
  0
VERTEX
  5
453
330
266
100
AcDbEntity
  8
0
  6
CONTINUOUS
 62
     7
100
AcDbVertex
100
AcDb2dVertex
 10
7.044430453
 20
6.837759808
 30
0.0
  0
VERTEX
  5
454
330
266
100
AcDbEntity
  8
0
  6
CONTINUOUS
 62
     7
100
AcDbVertex
100
AcDb2dVertex
 10
7.0581850459
 20
6.8233778322
 30
0.0
  0
VERTEX
  5
455
330
266
100
AcDbEntity
  8
0
  6
CONTINUOUS
 62
     7
100
AcDbVertex
100
AcDb2dVertex
 10
7.071183333
 20
6.8075991076
 30
0.0
  0
VERTEX
  5
456
330
266
100
AcDbEntity
  8
0
  6
CONTINUOUS
 62
     7
100
AcDbVertex
100
AcDb2dVertex
 10
7.0832428469
 20
6.7906451331
 30
0.0
  0
VERTEX
  5
457
330
266
100
AcDbEntity
  8
0
  6
CONTINUOUS
 62
     7
100
AcDbVertex
100
AcDb2dVertex
 10
7.0941942985
 20
6.7727539053
 30
0.0
  0
VERTEX
  5
458
330
266
100
AcDbEntity
  8
0
  6
CONTINUOUS
 62
     7
100
AcDbVertex
100
AcDb2dVertex
 10
7.1038839534
 20
6.7541765777
 30
0.0
  0
VERTEX
  5
459
330
266
100
AcDbEntity
  8
0
  6
CONTINUOUS
 62
     7
100
AcDbVertex
100
AcDb2dVertex
 10
7.11217579
 20
6.7351739354
 30
0.0
  0
VERTEX
  5
45A
330
266
100
AcDbEntity
  8
0
  6
CONTINUOUS
 62
     7
100
AcDbVertex
100
AcDb2dVertex
 10
7.1189534092
 20
6.7160127337
 30
0.0
  0
VERTEX
  5
45B
330
266
100
AcDbEntity
  8
0
  6
CONTINUOUS
 62
     7
100
AcDbVertex
100
AcDb2dVertex
 10
7.124121668
 20
6.696961954
 30
0.0
  0
VERTEX
  5
45C
330
266
100
AcDbEntity
  8
0
  6
CONTINUOUS
 62
     7
100
AcDbVertex
100
AcDb2dVertex
 10
7.1276080154
 20
6.6782890274
 30
0.0
  0
VERTEX
  5
45D
330
266
100
AcDbEntity
  8
0
  6
CONTINUOUS
 62
     7
100
AcDbVertex
100
AcDb2dVertex
 10
7.1293635108
 20
6.6602560809
 30
0.0
  0
VERTEX
  5
45E
330
266
100
AcDbEntity
  8
0
  6
CONTINUOUS
 62
     7
100
AcDbVertex
100
AcDb2dVertex
 10
7.1293635108
 20
6.6431162575
 30
0.0
  0
VERTEX
  5
45F
330
266
100
AcDbEntity
  8
0
  6
CONTINUOUS
 62
     7
100
AcDbVertex
100
AcDb2dVertex
 10
7.1276080154
 20
6.6271101628
 30
0.0
  0
VERTEX
  5
460
330
266
100
AcDbEntity
  8
0
  6
CONTINUOUS
 62
     7
100
AcDbVertex
100
AcDb2dVertex
 10
7.124121668
 20
6.6124624873
 30
0.0
  0
VERTEX
  5
461
330
266
100
AcDbEntity
  8
0
  6
CONTINUOUS
 62
     7
100
AcDbVertex
100
AcDb2dVertex
 10
7.1189534092
 20
6.5993788522
 30
0.0
  0
VERTEX
  5
462
330
266
100
AcDbEntity
  8
0
  6
CONTINUOUS
 62
     7
100
AcDbVertex
100
AcDb2dVertex
 10
7.11217579
 20
6.5880429231
 30
0.0
  0
VERTEX
  5
463
330
266
100
AcDbEntity
  8
0
  6
CONTINUOUS
 62
     7
100
AcDbVertex
100
AcDb2dVertex
 10
7.1038839534
 20
6.5786138315
 30
0.0
  0
VERTEX
  5
464
330
266
100
AcDbEntity
  8
0
  6
CONTINUOUS
 62
     7
100
AcDbVertex
100
AcDb2dVertex
 10
7.0941942985
 20
6.5712239413
 30
0.0
  0
VERTEX
  5
465
330
266
100
AcDbEntity
  8
0
  6
CONTINUOUS
 62
     7
100
AcDbVertex
100
AcDb2dVertex
 10
7.0832428469
 20
6.5659769903
 30
0.0
  0
VERTEX
  5
466
330
266
100
AcDbEntity
  8
0
  6
CONTINUOUS
 62
     7
100
AcDbVertex
100
AcDb2dVertex
 10
7.071183333
 20
6.5629466342
 30
0.0
  0
VERTEX
  5
467
330
266
100
AcDbEntity
  8
0
  6
CONTINUOUS
 62
     7
100
AcDbVertex
100
AcDb2dVertex
 10
7.0581850459
 20
6.5621754126
 30
0.0
  0
VERTEX
  5
468
330
266
100
AcDbEntity
  8
0
  6
CONTINUOUS
 62
     7
100
AcDbVertex
100
AcDb2dVertex
 10
7.044430453
 20
6.5636741517
 30
0.0
  0
VERTEX
  5
469
330
266
100
AcDbEntity
  8
0
  6
CONTINUOUS
 62
     7
100
AcDbVertex
100
AcDb2dVertex
 10
7.0301126387
 20
6.5674218125
 30
0.0
  0
VERTEX
  5
46A
330
266
100
AcDbEntity
  8
0
  6
CONTINUOUS
 62
     7
100
AcDbVertex
100
AcDb2dVertex
 10
7.0154325937
 20
6.573365786
 30
0.0
  0
VERTEX
  5
46B
330
266
100
AcDbEntity
  8
0
  6
CONTINUOUS
 62
     7
100
AcDbVertex
100
AcDb2dVertex
 10
7.0005963937
 20
6.581422632
 30
0.0
  0
VERTEX
  5
46C
330
266
100
AcDbEntity
  8
0
  6
CONTINUOUS
 62
     7
100
AcDbVertex
100
AcDb2dVertex
 10
6.9858123063
 20
6.5914792499
 30
0.0
  0
VERTEX
  5
46D
330
266
100
AcDbEntity
  8
0
  6
CONTINUOUS
 62
     7
100
AcDbVertex
100
AcDb2dVertex
 10
6.9712878679
 20
6.6033944669
 30
0.0
  0
VERTEX
  5
46E
330
266
100
AcDbEntity
  8
0
  6
CONTINUOUS
 62
     7
100
AcDbVertex
100
AcDb2dVertex
 10
6.9572269696
 20
6.6170010194
 30
0.0
  0
VERTEX
  5
46F
330
266
100
AcDbEntity
  8
0
  6
CONTINUOUS
 62
     7
100
AcDbVertex
100
AcDb2dVertex
 10
6.9438269956
 20
6.6321079013
 30
0.0
  0
VERTEX
  5
470
330
266
100
AcDbEntity
  8
0
  6
CONTINUOUS
 62
     7
100
AcDbVertex
100
AcDb2dVertex
 10
6.9312760523
 20
6.6485030451
 30
0.0
  0
VERTEX
  5
471
330
266
100
AcDbEntity
  8
0
  6
CONTINUOUS
 62
     7
100
AcDbVertex
100
AcDb2dVertex
 10
6.9197503272
 20
6.6659562989
 30
0.0
  0
VERTEX
  5
472
330
266
100
AcDbEntity
  8
0
  6
CONTINUOUS
 62
     7
100
AcDbVertex
100
AcDb2dVertex
 10
6.9094116165
 20
6.6842226572
 30
0.0
  0
VERTEX
  5
473
330
266
100
AcDbEntity
  8
0
  6
CONTINUOUS
 62
     7
100
AcDbVertex
100
AcDb2dVertex
 10
6.9004050528
 20
6.7030457005
 30
0.0
  0
VERTEX
  5
474
330
266
100
AcDbEntity
  8
0
  6
CONTINUOUS
 62
     7
100
AcDbVertex
100
AcDb2dVertex
 10
6.8928570686
 20
6.7221611944
 30
0.0
  0
VERTEX
  5
475
330
266
100
AcDbEntity
  8
0
  6
CONTINUOUS
 62
     7
100
AcDbVertex
100
AcDb2dVertex
 10
6.886873621
 20
6.7413007994
 30
0.0
  0
VERTEX
  5
476
330
266
100
AcDbEntity
  8
0
  6
CONTINUOUS
 62
     7
100
AcDbVertex
100
AcDb2dVertex
 10
6.8825387046
 20
6.7601958373
 30
0.0
  0
VERTEX
  5
477
330
266
100
AcDbEntity
  8
0
  6
CONTINUOUS
 62
     7
100
AcDbVertex
100
AcDb2dVertex
 10
6.8799131721
 20
6.7785810633
 30
0.0
  0
VERTEX
  5
478
330
266
100
AcDbEntity
  8
0
  6
CONTINUOUS
 62
     7
100
AcDbVertex
100
AcDb2dVertex
 10
6.8790338801
 20
6.796198389
 30
0.0
  0
SEQEND
  5
479
330
266
100
AcDbEntity
  8
0
  6
CONTINUOUS
 62
     7
  0
LINE
  5
267
330
1F
100
AcDbEntity
  8
0
  6
CONTINUOUS
 62
     7
100
AcDbLine
 10
7.0182281284
 20
6.892650666
 30
0.0
 11
7.0043087036
 21
6.8998804777
 31
0.0
  0
ARC
  5
268
330
1F
100
AcDbEntity
  8
0
  6
CONTINUOUS
 62
     7
100
AcDbCircle
 10
6.9751969672
 20
6.8230494189
 30
0.0
 40
0.0967654266404057
100
AcDbArc
 50
124.9159547339
 51
186.3962256595
  0
ARC
  5
269
330
1F
100
AcDbEntity
  8
0
  6
CONTINUOUS
 62
     7
100
AcDbCircle
 10
7.0762031633
 20
6.6548557903
 30
0.0
 40
0.101801428806031
100
AcDbArc
 50
235.269743776
 51
293.4073227653
  0
POLYLINE
  5
26A
330
1F
100
AcDbEntity
  8
0
  6
CONTINUOUS
 62
     7
100
AcDb2dPolyline
 66
     1
 10
0.0
 20
0.0
 30
0.0
  0
VERTEX
  5
47A
330
26A
100
AcDbEntity
  8
0
  6
CONTINUOUS
 62
     7
100
AcDbVertex
100
AcDb2dVertex
 10
7.0436320429
 20
6.8752856612
 30
0.0
  0
VERTEX
  5
47B
330
26A
100
AcDbEntity
  8
0
  6
CONTINUOUS
 62
     7
100
AcDbVertex
100
AcDb2dVertex
 10
7.0338129395
 20
6.8826430694
 30
0.0
  0
VERTEX
  5
47C
330
26A
100
AcDbEntity
  8
0
  6
CONTINUOUS
 62
     7
100
AcDbVertex
100
AcDb2dVertex
 10
7.0182281284
 20
6.892650666
 30
0.0
  0
SEQEND
  5
47D
330
26A
100
AcDbEntity
  8
0
  6
CONTINUOUS
 62
     7
  0
LINE
  5
26B
330
1F
100
AcDbEntity
  8
0
  6
CONTINUOUS
 62
     7
100
AcDbLine
 10
6.9347115794
 20
6.8104569335
 30
0.0
 11
7.0043087036
 21
6.8166799652
 31
0.0
  0
LINE
  5
26C
330
1F
100
AcDbEntity
  8
0
  6
CONTINUOUS
 62
     7
100
AcDbLine
 10
6.9347115794
 20
6.7176557411
 30
0.0
 11
6.9347115794
 21
6.8104569335
 31
0.0
  0
LINE
  5
26D
330
1F
100
AcDbEntity
  8
0
  6
CONTINUOUS
 62
     7
100
AcDbLine
 10
7.0043087036
 20
6.6310775803
 30
0.0
 11
6.9347115794
 21
6.7176557411
 31
0.0
  0
LINE
  5
26E
330
1F
100
AcDbEntity
  8
0
  6
CONTINUOUS
 62
     7
100
AcDbLine
 10
7.0739058277
 20
6.637300612
 30
0.0
 11
7.0043087036
 21
6.6310775803
 31
0.0
  0
LINE
  5
26F
330
1F
100
AcDbEntity
  8
0
  6
CONTINUOUS
 62
     7
100
AcDbLine
 10
7.0739058277
 20
6.7301018044
 30
0.0
 11
7.0739058277
 21
6.637300612
 31
0.0
  0
LINE
  5
270
330
1F
100
AcDbEntity
  8
0
  6
CONTINUOUS
 62
     7
100
AcDbLine
 10
7.0043087036
 20
6.8166799652
 30
0.0
 11
7.0739058277
 21
6.7301018044
 31
0.0
  0
LINE
  5
271
330
1F
100
AcDbEntity
  8
0
  6
CONTINUOUS
 62
     7
100
AcDbLine
 10
7.0739058277
 20
6.6712551449
 30
0.0
 11
7.0043087036
 21
6.6310775803
 31
0.0
  0
LINE
  5
272
330
1F
100
AcDbEntity
  8
0
  6
CONTINUOUS
 62
     7
100
AcDbLine
 10
7.0366193409
 20
6.7764858395
 30
0.0
 11
6.9347115794
 21
6.7176557411
 31
0.0
  0
POLYLINE
  5
273
330
1F
100
AcDbEntity
  8
0
  6
CONTINUOUS
 62
     7
100
AcDb2dPolyline
 66
     1
 10
0.0
 20
0.0
 30
0.0
  0
VERTEX
  5
47E
330
273
100
AcDbEntity
  8
0
  6
CONTINUOUS
 62
     7
100
AcDbVertex
100
AcDb2dVertex
 10
7.0523295476
 20
7.1486142508
 30
0.0
  0
VERTEX
  5
47F
330
273
100
AcDbEntity
  8
0
  6
CONTINUOUS
 62
     7
100
AcDbVertex
100
AcDb2dVertex
 10
7.0688893511
 20
7.1934928489
 30
0.0
  0
VERTEX
  5
480
330
273
100
AcDbEntity
  8
0
  6
CONTINUOUS
 62
     7
100
AcDbVertex
100
AcDb2dVertex
 10
7.086956477
 20
7.2382421621
 30
0.0
  0
VERTEX
  5
481
330
273
100
AcDbEntity
  8
0
  6
CONTINUOUS
 62
     7
100
AcDbVertex
100
AcDb2dVertex
 10
7.1064858041
 20
7.2827504324
 30
0.0
  0
VERTEX
  5
482
330
273
100
AcDbEntity
  8
0
  6
CONTINUOUS
 62
     7
100
AcDbVertex
100
AcDb2dVertex
 10
7.1274285595
 20
7.3269065041
 30
0.0
  0
VERTEX
  5
483
330
273
100
AcDbEntity
  8
0
  6
CONTINUOUS
 62
     7
100
AcDbVertex
100
AcDb2dVertex
 10
7.1497324402
 20
7.3706001008
 30
0.0
  0
VERTEX
  5
484
330
273
100
AcDbEntity
  8
0
  6
CONTINUOUS
 62
     7
100
AcDbVertex
100
AcDb2dVertex
 10
7.1733417442
 20
7.4137221013
 30
0.0
  0
VERTEX
  5
485
330
273
100
AcDbEntity
  8
0
  6
CONTINUOUS
 62
     7
100
AcDbVertex
100
AcDb2dVertex
 10
7.1981975091
 20
7.4561648118
 30
0.0
  0
VERTEX
  5
486
330
273
100
AcDbEntity
  8
0
  6
CONTINUOUS
 62
     7
100
AcDbVertex
100
AcDb2dVertex
 10
7.2242376595
 20
7.4978222351
 30
0.0
  0
VERTEX
  5
487
330
273
100
AcDbEntity
  8
0
  6
CONTINUOUS
 62
     7
100
AcDbVertex
100
AcDb2dVertex
 10
7.2513971623
 20
7.538590335
 30
0.0
  0
VERTEX
  5
488
330
273
100
AcDbEntity
  8
0
  6
CONTINUOUS
 62
     7
100
AcDbVertex
100
AcDb2dVertex
 10
7.2796081888
 20
7.5783672964
 30
0.0
  0
VERTEX
  5
489
330
273
100
AcDbEntity
  8
0
  6
CONTINUOUS
 62
     7
100
AcDbVertex
100
AcDb2dVertex
 10
7.3088002842
 20
7.6170537796
 30
0.0
  0
VERTEX
  5
48A
330
273
100
AcDbEntity
  8
0
  6
CONTINUOUS
 62
     7
100
AcDbVertex
100
AcDb2dVertex
 10
7.3389005435
 20
7.6545531681
 30
0.0
  0
VERTEX
  5
48B
330
273
100
AcDbEntity
  8
0
  6
CONTINUOUS
 62
     7
100
AcDbVertex
100
AcDb2dVertex
 10
7.3698337938
 20
7.6907718102
 30
0.0
  0
VERTEX
  5
48C
330
273
100
AcDbEntity
  8
0
  6
CONTINUOUS
 62
     7
100
AcDbVertex
100
AcDb2dVertex
 10
7.4015227817
 20
7.7256192528
 30
0.0
  0
VERTEX
  5
48D
330
273
100
AcDbEntity
  8
0
  6
CONTINUOUS
 62
     7
100
AcDbVertex
100
AcDb2dVertex
 10
7.4338883666
 20
7.7590084671
 30
0.0
  0
VERTEX
  5
48E
330
273
100
AcDbEntity
  8
0
  6
CONTINUOUS
 62
     7
100
AcDbVertex
100
AcDb2dVertex
 10
7.4668497179
 20
7.7908560662
 30
0.0
  0
VERTEX
  5
48F
330
273
100
AcDbEntity
  8
0
  6
CONTINUOUS
 62
     7
100
AcDbVertex
100
AcDb2dVertex
 10
7.5003245172
 20
7.8210825133
 30
0.0
  0
VERTEX
  5
490
330
273
100
AcDbEntity
  8
0
  6
CONTINUOUS
 62
     7
100
AcDbVertex
100
AcDb2dVertex
 10
7.534229164
 20
7.8496123203
 30
0.0
  0
VERTEX
  5
491
330
273
100
AcDbEntity
  8
0
  6
CONTINUOUS
 62
     7
100
AcDbVertex
100
AcDb2dVertex
 10
7.5684789841
 20
7.8763742362
 30
0.0
  0
VERTEX
  5
492
330
273
100
AcDbEntity
  8
0
  6
CONTINUOUS
 62
     7
100
AcDbVertex
100
AcDb2dVertex
 10
7.6029884413
 20
7.9013014252
 30
0.0
  0
VERTEX
  5
493
330
273
100
AcDbEntity
  8
0
  6
CONTINUOUS
 62
     7
100
AcDbVertex
100
AcDb2dVertex
 10
7.6376713509
 20
7.9243316337
 30
0.0
  0
VERTEX
  5
494
330
273
100
AcDbEntity
  8
0
  6
CONTINUOUS
 62
     7
100
AcDbVertex
100
AcDb2dVertex
 10
7.6724410952
 20
7.9454073456
 30
0.0
  0
VERTEX
  5
495
330
273
100
AcDbEntity
  8
0
  6
CONTINUOUS
 62
     7
100
AcDbVertex
100
AcDb2dVertex
 10
7.7072108396
 20
7.964475926
 30
0.0
  0
VERTEX
  5
496
330
273
100
AcDbEntity
  8
0
  6
CONTINUOUS
 62
     7
100
AcDbVertex
100
AcDb2dVertex
 10
7.7418937492
 20
7.9814897526
 30
0.0
  0
VERTEX
  5
497
330
273
100
AcDbEntity
  8
0
  6
CONTINUOUS
 62
     7
100
AcDbVertex
100
AcDb2dVertex
 10
7.7764032064
 20
7.9964063347
 30
0.0
  0
VERTEX
  5
498
330
273
100
AcDbEntity
  8
0
  6
CONTINUOUS
 62
     7
100
AcDbVertex
100
AcDb2dVertex
 10
7.8106530265
 20
8.0091884194
 30
0.0
  0
VERTEX
  5
499
330
273
100
AcDbEntity
  8
0
  6
CONTINUOUS
 62
     7
100
AcDbVertex
100
AcDb2dVertex
 10
7.8445576733
 20
8.0198040844
 30
0.0
  0
VERTEX
  5
49A
330
273
100
AcDbEntity
  8
0
  6
CONTINUOUS
 62
     7
100
AcDbVertex
100
AcDb2dVertex
 10
7.8780324726
 20
8.028226818
 30
0.0
  0
VERTEX
  5
49B
330
273
100
AcDbEntity
  8
0
  6
CONTINUOUS
 62
     7
100
AcDbVertex
100
AcDb2dVertex
 10
7.9109938239
 20
8.034435585
 30
0.0
  0
VERTEX
  5
49C
330
273
100
AcDbEntity
  8
0
  6
CONTINUOUS
 62
     7
100
AcDbVertex
100
AcDb2dVertex
 10
7.9433594087
 20
8.0384148795
 30
0.0
  0
VERTEX
  5
49D
330
273
100
AcDbEntity
  8
0
  6
CONTINUOUS
 62
     7
100
AcDbVertex
100
AcDb2dVertex
 10
7.9750483967
 20
8.0401547636
 30
0.0
  0
VERTEX
  5
49E
330
273
100
AcDbEntity
  8
0
  6
CONTINUOUS
 62
     7
100
AcDbVertex
100
AcDb2dVertex
 10
8.005981647
 20
8.0396508921
 30
0.0
  0
VERTEX
  5
49F
330
273
100
AcDbEntity
  8
0
  6
CONTINUOUS
 62
     7
100
AcDbVertex
100
AcDb2dVertex
 10
8.0360819063
 20
8.0369045232
 30
0.0
  0
VERTEX
  5
4A0
330
273
100
AcDbEntity
  8
0
  6
CONTINUOUS
 62
     7
100
AcDbVertex
100
AcDb2dVertex
 10
8.0652740017
 20
8.031922516
 30
0.0
  0
VERTEX
  5
4A1
330
273
100
AcDbEntity
  8
0
  6
CONTINUOUS
 62
     7
100
AcDbVertex
100
AcDb2dVertex
 10
8.0934850282
 20
8.0247173124
 30
0.0
  0
VERTEX
  5
4A2
330
273
100
AcDbEntity
  8
0
  6
CONTINUOUS
 62
     7
100
AcDbVertex
100
AcDb2dVertex
 10
8.120644531
 20
8.015306907
 30
0.0
  0
VERTEX
  5
4A3
330
273
100
AcDbEntity
  8
0
  6
CONTINUOUS
 62
     7
100
AcDbVertex
100
AcDb2dVertex
 10
8.1466846814
 20
8.0037148015
 30
0.0
  0
VERTEX
  5
4A4
330
273
100
AcDbEntity
  8
0
  6
CONTINUOUS
 62
     7
100
AcDbVertex
100
AcDb2dVertex
 10
8.1715404463
 20
7.9899699462
 30
0.0
  0
VERTEX
  5
4A5
330
273
100
AcDbEntity
  8
0
  6
CONTINUOUS
 62
     7
100
AcDbVertex
100
AcDb2dVertex
 10
8.1915780951
 20
7.9766999886
 30
0.0
  0
SEQEND
  5
4A6
330
273
100
AcDbEntity
  8
0
  6
CONTINUOUS
 62
     7
  0
LINE
  5
274
330
1F
100
AcDbEntity
  8
0
  6
CONTINUOUS
 62
     7
100
AcDbLine
 10
7.0523295476
 20
7.1486142508
 30
0.0
 11
7.3585568937
 21
6.9718329668
 31
0.0
  0
ARC
  5
275
330
1F
100
AcDbEntity
  8
0
  6
CONTINUOUS
 62
     7
100
AcDbCircle
 10
8.1854683791
 20
6.6069613835
 30
0.0
 40
0.903832881046642
100
AcDbArc
 50
156.1907103945
 51
203.8092896055
  0
LINE
  5
276
330
1F
100
AcDbEntity
  8
0
  6
CONTINUOUS
 62
     7
100
AcDbLine
 10
7.3585568937
 20
6.2420898002
 30
0.0
 11
7.0523295476
 21
6.4188710843
 31
0.0
  0
ARC
  5
277
330
1F
100
AcDbEntity
  8
0
  6
CONTINUOUS
 62
     7
100
AcDbCircle
 10
7.3561967394
 20
6.5916517053
 30
0.0
 40
0.3495545927004429
100
AcDbArc
 50
209.6228075302
 51
245.0927818469
  0
SPLINE
  5
278
330
1F
100
AcDbEntity
  8
0
  6
CONTINUOUS
 62
     7
100
AcDbSpline
210
0.0
220
0.0
230
1.0
 70
     8
 71
     3
 72
    16
 73
    12
 74
     0
 42
0.00000001
 43
0.00000001
 40
0.0
 40
0.0
 40
0.0
 40
0.0
 40
0.1115017003778488
 40
0.2262758303545316
 40
0.3377667293247814
 40
0.452418357489647
 40
0.5652568577327111
 40
0.6813066838274511
 40
0.7950991522329269
 40
0.9122746045585967
 40
1.0
 40
1.0
 40
1.0
 40
1.0
 10
7.143502951838825
 20
6.643523643635625
 30
0.0
 10
7.143212460266077
 20
6.6349664571785
 30
0.0
 10
7.142622951571482
 20
6.617600941993324
 30
0.0
 10
7.137855927115008
 20
6.595765615672877
 30
0.0
 10
7.130227087235176
 20
6.577517586980856
 30
0.0
 10
7.119644482347503
 20
6.563765419545462
 30
0.0
 10
7.106063924150264
 20
6.554515857996163
 30
0.0
 10
7.089806532574429
 20
6.5500915612388
 30
0.0
 10
7.070794137001845
 20
6.550683699287766
 30
0.0
 10
7.051460472797542
 20
6.555229827618105
 30
0.0
 10
7.037857968535508
 20
6.56158904315572
 30
0.0
 10
7.032034249022466
 20
6.56431165120646
 30
0.0
  0
POLYLINE
  5
279
330
1F
100
AcDbEntity
  8
0
  6
CONTINUOUS
 62
     7
100
AcDb2dPolyline
 66
     1
 10
0.0
 20
0.0
 30
0.0
  0
VERTEX
  5
4A7
330
279
100
AcDbEntity
  8
0
  6
CONTINUOUS
 62
     7
100
AcDbVertex
100
AcDb2dVertex
 10
6.9443933586
 20
6.6323264706
 30
0.0
  0
VERTEX
  5
4A8
330
279
100
AcDbEntity
  8
0
  6
CONTINUOUS
 62
     7
100
AcDbVertex
100
AcDb2dVertex
 10
6.9351522227
 20
6.642227503
 30
0.0
  0
VERTEX
  5
4A9
330
279
100
AcDbEntity
  8
0
  6
CONTINUOUS
 62
     7
100
AcDbVertex
100
AcDb2dVertex
 10
6.9147391405
 20
6.6684197329
 30
0.0
  0
VERTEX
  5
4AA
330
279
100
AcDbEntity
  8
0
  6
CONTINUOUS
 62
     7
100
AcDbVertex
100
AcDb2dVertex
 10
6.8972021086
 20
6.6959925283
 30
0.0
  0
VERTEX
  5
4AB
330
279
100
AcDbEntity
  8
0
  6
CONTINUOUS
 62
     7
100
AcDbVertex
100
AcDb2dVertex
 10
6.8826265033
 20
6.7254126912
 30
0.0
  0
VERTEX
  5
4AC
330
279
100
AcDbEntity
  8
0
  6
CONTINUOUS
 62
     7
100
AcDbVertex
100
AcDb2dVertex
 10
6.8724027422
 20
6.7543610342
 30
0.0
  0
VERTEX
  5
4AD
330
279
100
AcDbEntity
  8
0
  6
CONTINUOUS
 62
     7
100
AcDbVertex
100
AcDb2dVertex
 10
6.8664114904
 20
6.7837356271
 30
0.0
  0
VERTEX
  5
4AE
330
279
100
AcDbEntity
  8
0
  6
CONTINUOUS
 62
     7
100
AcDbVertex
100
AcDb2dVertex
 10
6.8652471477
 20
6.8105886997
 30
0.0
  0
VERTEX
  5
4AF
330
279
100
AcDbEntity
  8
0
  6
CONTINUOUS
 62
     7
100
AcDbVertex
100
AcDb2dVertex
 10
6.8687532402
 20
6.8362240483
 30
0.0
  0
VERTEX
  5
4B0
330
279
100
AcDbEntity
  8
0
  6
CONTINUOUS
 62
     7
100
AcDbVertex
100
AcDb2dVertex
 10
6.8764931318
 20
6.8582601482
 30
0.0
  0
VERTEX
  5
4B1
330
279
100
AcDbEntity
  8
0
  6
CONTINUOUS
 62
     7
100
AcDbVertex
100
AcDb2dVertex
 10
6.8885775304
 20
6.8775302843
 30
0.0
  0
VERTEX
  5
4B2
330
279
100
AcDbEntity
  8
0
  6
CONTINUOUS
 62
     7
100
AcDbVertex
100
AcDb2dVertex
 10
6.9040767177
 20
6.8925615436
 30
0.0
  0
VERTEX
  5
4B3
330
279
100
AcDbEntity
  8
0
  6
CONTINUOUS
 62
     7
100
AcDbVertex
100
AcDb2dVertex
 10
6.9231172903
 20
6.9034311719
 30
0.0
  0
VERTEX
  5
4B4
330
279
100
AcDbEntity
  8
0
  6
CONTINUOUS
 62
     7
100
AcDbVertex
100
AcDb2dVertex
 10
6.9442943667
 20
6.9091999717
 30
0.0
  0
VERTEX
  5
4B5
330
279
100
AcDbEntity
  8
0
  6
CONTINUOUS
 62
     7
100
AcDbVertex
100
AcDb2dVertex
 10
6.9677732876
 20
6.9097006379
 30
0.0
  0
VERTEX
  5
4B6
330
279
100
AcDbEntity
  8
0
  6
CONTINUOUS
 62
     7
100
AcDbVertex
100
AcDb2dVertex
 10
6.9912797395
 20
6.9048179098
 30
0.0
  0
VERTEX
  5
4B7
330
279
100
AcDbEntity
  8
0
  6
CONTINUOUS
 62
     7
100
AcDbVertex
100
AcDb2dVertex
 10
7.0155292612
 20
6.8943325491
 30
0.0
  0
VERTEX
  5
4B8
330
279
100
AcDbEntity
  8
0
  6
CONTINUOUS
 62
     7
100
AcDbVertex
100
AcDb2dVertex
 10
7.0379692562
 20
6.8794342325
 30
0.0
  0
VERTEX
  5
4B9
330
279
100
AcDbEntity
  8
0
  6
CONTINUOUS
 62
     7
100
AcDbVertex
100
AcDb2dVertex
 10
7.0597302777
 20
6.8595661061
 30
0.0
  0
VERTEX
  5
4BA
330
279
100
AcDbEntity
  8
0
  6
CONTINUOUS
 62
     7
100
AcDbVertex
100
AcDb2dVertex
 10
7.0790411148
 20
6.8365079009
 30
0.0
  0
VERTEX
  5
4BB
330
279
100
AcDbEntity
  8
0
  6
CONTINUOUS
 62
     7
100
AcDbVertex
100
AcDb2dVertex
 10
7.0966601895
 20
6.8096567962
 30
0.0
  0
VERTEX
  5
4BC
330
279
100
AcDbEntity
  8
0
  6
CONTINUOUS
 62
     7
100
AcDbVertex
100
AcDb2dVertex
 10
7.1115752376
 20
6.7807812773
 30
0.0
  0
VERTEX
  5
4BD
330
279
100
AcDbEntity
  8
0
  6
CONTINUOUS
 62
     7
100
AcDbVertex
100
AcDb2dVertex
 10
7.1240943136
 20
6.7496012978
 30
0.0
  0
VERTEX
  5
4BE
330
279
100
AcDbEntity
  8
0
  6
CONTINUOUS
 62
     7
100
AcDbVertex
100
AcDb2dVertex
 10
7.1334502527
 20
6.7184747149
 30
0.0
  0
VERTEX
  5
4BF
330
279
100
AcDbEntity
  8
0
  6
CONTINUOUS
 62
     7
100
AcDbVertex
100
AcDb2dVertex
 10
7.1399336717
 20
6.6868884485
 30
0.0
  0
VERTEX
  5
4C0
330
279
100
AcDbEntity
  8
0
  6
CONTINUOUS
 62
     7
100
AcDbVertex
100
AcDb2dVertex
 10
7.1425941003
 20
6.6647936342
 30
0.0
  0
VERTEX
  5
4C1
330
279
100
AcDbEntity
  8
0
  6
CONTINUOUS
 62
     7
100
AcDbVertex
100
AcDb2dVertex
 10
7.1435029518
 20
6.6435236436
 30
0.0
  0
VERTEX
  5
4C2
330
279
100
AcDbEntity
  8
0
  6
CONTINUOUS
 62
     7
100
AcDbVertex
100
AcDb2dVertex
 10
7.1435029518
 20
6.6435236436
 30
0.0
  0
SEQEND
  5
4C3
330
279
100
AcDbEntity
  8
0
  6
CONTINUOUS
 62
     7
  0
ARC
  5
27A
330
1F
100
AcDbEntity
  8
0
  6
CONTINUOUS
 62
     7
100
AcDbCircle
 10
7.217301266
 20
6.8354693239
 30
0.0
 40
0.4938300221234521
100
AcDbArc
 50
174.2915309646
 51
234.3962886421
  0
POLYLINE
  5
27B
330
1F
100
AcDbEntity
  8
0
  6
CONTINUOUS
 62
     7
100
AcDb2dPolyline
 66
     1
 10
0.0
 20
0.0
 30
0.0
  0
VERTEX
  5
4C4
330
27B
100
AcDbEntity
  8
0
  6
CONTINUOUS
 62
     7
100
AcDbVertex
100
AcDb2dVertex
 10
7.9139774388
 20
8.1387749742
 30
0.0
  0
VERTEX
  5
4C5
330
27B
100
AcDbEntity
  8
0
  6
CONTINUOUS
 62
     7
100
AcDbVertex
100
AcDb2dVertex
 10
7.9078441934
 20
8.1422284555
 30
0.0
  0
VERTEX
  5
4C6
330
27B
100
AcDbEntity
  8
0
  6
CONTINUOUS
 62
     7
100
AcDbVertex
100
AcDb2dVertex
 10
7.8824057621
 20
8.154799514
 30
0.0
  0
VERTEX
  5
4C7
330
27B
100
AcDbEntity
  8
0
  6
CONTINUOUS
 62
     7
100
AcDbVertex
100
AcDb2dVertex
 10
7.8558224197
 20
8.1652115067
 30
0.0
  0
VERTEX
  5
4C8
330
27B
100
AcDbEntity
  8
0
  6
CONTINUOUS
 62
     7
100
AcDbVertex
100
AcDb2dVertex
 10
7.8281602566
 20
8.1734385476
 30
0.0
  0
VERTEX
  5
4C9
330
27B
100
AcDbEntity
  8
0
  6
CONTINUOUS
 62
     7
100
AcDbVertex
100
AcDb2dVertex
 10
7.7994880451
 20
8.1794601832
 30
0.0
  0
VERTEX
  5
4CA
330
27B
100
AcDbEntity
  8
0
  6
CONTINUOUS
 62
     7
100
AcDbVertex
100
AcDb2dVertex
 10
7.769877069
 20
8.1832614426
 30
0.0
  0
VERTEX
  5
4CB
330
27B
100
AcDbEntity
  8
0
  6
CONTINUOUS
 62
     7
100
AcDbVertex
100
AcDb2dVertex
 10
7.7394009459
 20
8.1848328753
 30
0.0
  0
VERTEX
  5
4CC
330
27B
100
AcDbEntity
  8
0
  6
CONTINUOUS
 62
     7
100
AcDbVertex
100
AcDb2dVertex
 10
7.7081354441
 20
8.1841705745
 30
0.0
  0
VERTEX
  5
4CD
330
27B
100
AcDbEntity
  8
0
  6
CONTINUOUS
 62
     7
100
AcDbVertex
100
AcDb2dVertex
 10
7.6761582946
 20
8.1812761868
 30
0.0
  0
VERTEX
  5
4CE
330
27B
100
AcDbEntity
  8
0
  6
CONTINUOUS
 62
     7
100
AcDbVertex
100
AcDb2dVertex
 10
7.6435489977
 20
8.1761569081
 30
0.0
  0
VERTEX
  5
4CF
330
27B
100
AcDbEntity
  8
0
  6
CONTINUOUS
 62
     7
100
AcDbVertex
100
AcDb2dVertex
 10
7.6103886252
 20
8.1688254657
 30
0.0
  0
VERTEX
  5
4D0
330
27B
100
AcDbEntity
  8
0
  6
CONTINUOUS
 62
     7
100
AcDbVertex
100
AcDb2dVertex
 10
7.576759619
 20
8.1593000867
 30
0.0
  0
VERTEX
  5
4D1
330
27B
100
AcDbEntity
  8
0
  6
CONTINUOUS
 62
     7
100
AcDbVertex
100
AcDb2dVertex
 10
7.5427455861
 20
8.1476044528
 30
0.0
  0
VERTEX
  5
4D2
330
27B
100
AcDbEntity
  8
0
  6
CONTINUOUS
 62
     7
100
AcDbVertex
100
AcDb2dVertex
 10
7.5084310908
 20
8.133767641
 30
0.0
  0
VERTEX
  5
4D3
330
27B
100
AcDbEntity
  8
0
  6
CONTINUOUS
 62
     7
100
AcDbVertex
100
AcDb2dVertex
 10
7.4739014444
 20
8.117824052
 30
0.0
  0
VERTEX
  5
4D4
330
27B
100
AcDbEntity
  8
0
  6
CONTINUOUS
 62
     7
100
AcDbVertex
100
AcDb2dVertex
 10
7.4392424928
 20
8.099813324
 30
0.0
  0
VERTEX
  5
4D5
330
27B
100
AcDbEntity
  8
0
  6
CONTINUOUS
 62
     7
100
AcDbVertex
100
AcDb2dVertex
 10
7.4045404039
 20
8.0797802345
 30
0.0
  0
VERTEX
  5
4D6
330
27B
100
AcDbEntity
  8
0
  6
CONTINUOUS
 62
     7
100
AcDbVertex
100
AcDb2dVertex
 10
7.3698814524
 20
8.0577745888
 30
0.0
  0
VERTEX
  5
4D7
330
27B
100
AcDbEntity
  8
0
  6
CONTINUOUS
 62
     7
100
AcDbVertex
100
AcDb2dVertex
 10
7.3353518059
 20
8.0338510966
 30
0.0
  0
VERTEX
  5
4D8
330
27B
100
AcDbEntity
  8
0
  6
CONTINUOUS
 62
     7
100
AcDbVertex
100
AcDb2dVertex
 10
7.3010373106
 20
8.0080692354
 30
0.0
  0
VERTEX
  5
4D9
330
27B
100
AcDbEntity
  8
0
  6
CONTINUOUS
 62
     7
100
AcDbVertex
100
AcDb2dVertex
 10
7.2670232777
 20
7.9804931029
 30
0.0
  0
VERTEX
  5
4DA
330
27B
100
AcDbEntity
  8
0
  6
CONTINUOUS
 62
     7
100
AcDbVertex
100
AcDb2dVertex
 10
7.2333942716
 20
7.9511912578
 30
0.0
  0
VERTEX
  5
4DB
330
27B
100
AcDbEntity
  8
0
  6
CONTINUOUS
 62
     7
100
AcDbVertex
100
AcDb2dVertex
 10
7.200233899
 20
7.9202365491
 30
0.0
  0
VERTEX
  5
4DC
330
27B
100
AcDbEntity
  8
0
  6
CONTINUOUS
 62
     7
100
AcDbVertex
100
AcDb2dVertex
 10
7.1676246021
 20
7.887705935
 30
0.0
  0
VERTEX
  5
4DD
330
27B
100
AcDbEntity
  8
0
  6
CONTINUOUS
 62
     7
100
AcDbVertex
100
AcDb2dVertex
 10
7.1356474527
 20
7.8536802918
 30
0.0
  0
VERTEX
  5
4DE
330
27B
100
AcDbEntity
  8
0
  6
CONTINUOUS
 62
     7
100
AcDbVertex
100
AcDb2dVertex
 10
7.1043819509
 20
7.8182442126
 30
0.0
  0
VERTEX
  5
4DF
330
27B
100
AcDbEntity
  8
0
  6
CONTINUOUS
 62
     7
100
AcDbVertex
100
AcDb2dVertex
 10
7.0739058277
 20
7.781485797
 30
0.0
  0
VERTEX
  5
4E0
330
27B
100
AcDbEntity
  8
0
  6
CONTINUOUS
 62
     7
100
AcDbVertex
100
AcDb2dVertex
 10
7.0442948516
 20
7.7434964323
 30
0.0
  0
VERTEX
  5
4E1
330
27B
100
AcDbEntity
  8
0
  6
CONTINUOUS
 62
     7
100
AcDbVertex
100
AcDb2dVertex
 10
7.0156226402
 20
7.7043705661
 30
0.0
  0
VERTEX
  5
4E2
330
27B
100
AcDbEntity
  8
0
  6
CONTINUOUS
 62
     7
100
AcDbVertex
100
AcDb2dVertex
 10
6.987960477
 20
7.6642054714
 30
0.0
  0
VERTEX
  5
4E3
330
27B
100
AcDbEntity
  8
0
  6
CONTINUOUS
 62
     7
100
AcDbVertex
100
AcDb2dVertex
 10
6.9613771346
 20
7.6231010049
 30
0.0
  0
VERTEX
  5
4E4
330
27B
100
AcDbEntity
  8
0
  6
CONTINUOUS
 62
     7
100
AcDbVertex
100
AcDb2dVertex
 10
6.9359387033
 20
7.5811593588
 30
0.0
  0
VERTEX
  5
4E5
330
27B
100
AcDbEntity
  8
0
  6
CONTINUOUS
 62
     7
100
AcDbVertex
100
AcDb2dVertex
 10
6.9117084272
 20
7.5384848067
 30
0.0
  0
VERTEX
  5
4E6
330
27B
100
AcDbEntity
  8
0
  6
CONTINUOUS
 62
     7
100
AcDbVertex
100
AcDb2dVertex
 10
6.8887465464
 20
7.4951834443
 30
0.0
  0
VERTEX
  5
4E7
330
27B
100
AcDbEntity
  8
0
  6
CONTINUOUS
 62
     7
100
AcDbVertex
100
AcDb2dVertex
 10
6.8671101478
 20
7.4513629255
 30
0.0
  0
VERTEX
  5
4E8
330
27B
100
AcDbEntity
  8
0
  6
CONTINUOUS
 62
     7
100
AcDbVertex
100
AcDb2dVertex
 10
6.846853023
 20
7.407132195
 30
0.0
  0
VERTEX
  5
4E9
330
27B
100
AcDbEntity
  8
0
  6
CONTINUOUS
 62
     7
100
AcDbVertex
100
AcDb2dVertex
 10
6.8280255343
 20
7.3626012175
 30
0.0
  0
VERTEX
  5
4EA
330
27B
100
AcDbEntity
  8
0
  6
CONTINUOUS
 62
     7
100
AcDbVertex
100
AcDb2dVertex
 10
6.8106744898
 20
7.3178807039
 30
0.0
  0
VERTEX
  5
4EB
330
27B
100
AcDbEntity
  8
0
  6
CONTINUOUS
 62
     7
100
AcDbVertex
100
AcDb2dVertex
 10
6.794843027
 20
7.2730818365
 30
0.0
  0
VERTEX
  5
4EC
330
27B
100
AcDbEntity
  8
0
  6
CONTINUOUS
 62
     7
100
AcDbVertex
100
AcDb2dVertex
 10
6.7805705053
 20
7.2283159923
 30
0.0
  0
VERTEX
  5
4ED
330
27B
100
AcDbEntity
  8
0
  6
CONTINUOUS
 62
     7
100
AcDbVertex
100
AcDb2dVertex
 10
6.7678924086
 20
7.1836944663
 30
0.0
  0
VERTEX
  5
4EE
330
27B
100
AcDbEntity
  8
0
  6
CONTINUOUS
 62
     7
100
AcDbVertex
100
AcDb2dVertex
 10
6.7568402565
 20
7.1393281947
 30
0.0
  0
VERTEX
  5
4EF
330
27B
100
AcDbEntity
  8
0
  6
CONTINUOUS
 62
     7
100
AcDbVertex
100
AcDb2dVertex
 10
6.7474415265
 20
7.0953274788
 30
0.0
  0
VERTEX
  5
4F0
330
27B
100
AcDbEntity
  8
0
  6
CONTINUOUS
 62
     7
100
AcDbVertex
100
AcDb2dVertex
 10
6.7397195853
 20
7.0518017116
 30
0.0
  0
VERTEX
  5
4F1
330
27B
100
AcDbEntity
  8
0
  6
CONTINUOUS
 62
     7
100
AcDbVertex
100
AcDb2dVertex
 10
6.7336936308
 20
7.0088591049
 30
0.0
  0
VERTEX
  5
4F2
330
27B
100
AcDbEntity
  8
0
  6
CONTINUOUS
 62
     7
100
AcDbVertex
100
AcDb2dVertex
 10
6.7293786445
 20
6.9666064207
 30
0.0
  0
VERTEX
  5
4F3
330
27B
100
AcDbEntity
  8
0
  6
CONTINUOUS
 62
     7
100
AcDbVertex
100
AcDb2dVertex
 10
6.7267853541
 20
6.9251487059
 30
0.0
  0
VERTEX
  5
4F4
330
27B
100
AcDbEntity
  8
0
  6
CONTINUOUS
 62
     7
100
AcDbVertex
100
AcDb2dVertex
 10
6.725920207
 20
6.884589031
 30
0.0
  0
SEQEND
  5
4F5
330
27B
100
AcDbEntity
  8
0
  6
CONTINUOUS
 62
     7
  0
ARC
  5
27C
330
1F
100
AcDbEntity
  8
0
  6
CONTINUOUS
 62
     7
100
AcDbCircle
 10
8.4881406992
 20
6.6705180608
 30
0.0
 40
1.457896969129055
100
AcDbArc
 50
122.7165629686
 51
160.7705692095
  0
SPLINE
  5
27D
330
1F
100
AcDbEntity
  8
0
  6
CONTINUOUS
 62
     7
100
AcDbSpline
210
0.0
220
0.0
230
1.0
 70
     8
 71
     3
 72
     8
 73
     4
 74
     0
 42
0.00000001
 43
0.00000001
 40
0.0
 40
0.0
 40
0.0
 40
0.0
 40
0.0007538973953194
 40
0.0007538973953194
 40
0.0007538973953194
 40
0.0007538973953194
 10
7.11158371115328
 20
7.150678899705483
 30
0.0
 10
7.091835782170865
 20
7.149958363120129
 30
0.0
 10
7.072084091442697
 20
7.149271586480891
 30
0.0
 10
7.052329547557555
 20
7.148614250818327
 30
0.0
  0
LINE
  5
27E
330
1F
100
AcDbEntity
  8
0
  6
CONTINUOUS
 62
     7
100
AcDbLine
 10
7.3863957434
 20
6.9879039926
 30
0.0
 11
7.3585568937
 21
6.9718329668
 31
0.0
  0
LINE
  5
27F
330
1F
100
AcDbEntity
  8
0
  6
CONTINUOUS
 62
     7
100
AcDbLine
 10
7.372982818
 20
6.250417709
 30
0.0
 11
7.3585568937
 21
6.2420898002
 31
0.0
  0
ARC
  5
280
330
1F
100
AcDbEntity
  8
0
  6
CONTINUOUS
 62
     7
100
AcDbCircle
 10
8.1748539908
 20
6.8516886531
 30
0.0
 40
1.450392921750414
100
AcDbArc
 50
122.5756503221
 51
177.4297262106
  0
LINE
  5
281
330
1F
100
AcDbEntity
  8
0
  6
CONTINUOUS
 62
     7
100
AcDbLine
 10
8.6806282956
 20
7.6535469888
 30
0.0
 11
8.9590167921
 21
7.4928367306
 31
0.0
  0
POLYLINE
  5
282
330
1F
100
AcDbEntity
  8
0
  6
CONTINUOUS
 62
     7
100
AcDb2dPolyline
 66
     1
 10
0.0
 20
0.0
 30
0.0
  0
VERTEX
  5
4F6
330
282
100
AcDbEntity
  8
0
  6
CONTINUOUS
 62
     7
100
AcDbVertex
100
AcDb2dVertex
 10
8.0063872817
 20
7.2680681976
 30
0.0
  0
VERTEX
  5
4F7
330
282
100
AcDbEntity
  8
0
  6
CONTINUOUS
 62
     7
100
AcDbVertex
100
AcDb2dVertex
 10
8.0376718763
 20
7.3047330989
 30
0.0
  0
VERTEX
  5
4F8
330
282
100
AcDbEntity
  8
0
  6
CONTINUOUS
 62
     7
100
AcDbVertex
100
AcDb2dVertex
 10
8.0697308336
 20
7.3399952269
 30
0.0
  0
VERTEX
  5
4F9
330
282
100
AcDbEntity
  8
0
  6
CONTINUOUS
 62
     7
100
AcDbVertex
100
AcDb2dVertex
 10
8.1024821953
 20
7.3737644348
 30
0.0
  0
VERTEX
  5
4FA
330
282
100
AcDbEntity
  8
0
  6
CONTINUOUS
 62
     7
100
AcDbVertex
100
AcDb2dVertex
 10
8.1358422331
 20
7.405954392
 30
0.0
  0
VERTEX
  5
4FB
330
282
100
AcDbEntity
  8
0
  6
CONTINUOUS
 62
     7
100
AcDbVertex
100
AcDb2dVertex
 10
8.1697256628
 20
7.4364828056
 30
0.0
  0
VERTEX
  5
4FC
330
282
100
AcDbEntity
  8
0
  6
CONTINUOUS
 62
     7
100
AcDbVertex
100
AcDb2dVertex
 10
8.204045862
 20
7.4652716302
 30
0.0
  0
VERTEX
  5
4FD
330
282
100
AcDbEntity
  8
0
  6
CONTINUOUS
 62
     7
100
AcDbVertex
100
AcDb2dVertex
 10
8.2387150916
 20
7.4922472677
 30
0.0
  0
VERTEX
  5
4FE
330
282
100
AcDbEntity
  8
0
  6
CONTINUOUS
 62
     7
100
AcDbVertex
100
AcDb2dVertex
 10
8.2736447203
 20
7.5173407553
 30
0.0
  0
VERTEX
  5
4FF
330
282
100
AcDbEntity
  8
0
  6
CONTINUOUS
 62
     7
100
AcDbVertex
100
AcDb2dVertex
 10
8.3087454513
 20
7.540487942
 30
0.0
  0
VERTEX
  5
500
330
282
100
AcDbEntity
  8
0
  6
CONTINUOUS
 62
     7
100
AcDbVertex
100
AcDb2dVertex
 10
8.3439275501
 20
7.5616296524
 30
0.0
  0
VERTEX
  5
501
330
282
100
AcDbEntity
  8
0
  6
CONTINUOUS
 62
     7
100
AcDbVertex
100
AcDb2dVertex
 10
8.3791010743
 20
7.5807118381
 30
0.0
  0
VERTEX
  5
502
330
282
100
AcDbEntity
  8
0
  6
CONTINUOUS
 62
     7
100
AcDbVertex
100
AcDb2dVertex
 10
8.4141761034
 20
7.5976857159
 30
0.0
  0
VERTEX
  5
503
330
282
100
AcDbEntity
  8
0
  6
CONTINUOUS
 62
     7
100
AcDbVertex
100
AcDb2dVertex
 10
8.4490629687
 20
7.6125078922
 30
0.0
  0
VERTEX
  5
504
330
282
100
AcDbEntity
  8
0
  6
CONTINUOUS
 62
     7
100
AcDbVertex
100
AcDb2dVertex
 10
8.4836724825
 20
7.6251404745
 30
0.0
  0
VERTEX
  5
505
330
282
100
AcDbEntity
  8
0
  6
CONTINUOUS
 62
     7
100
AcDbVertex
100
AcDb2dVertex
 10
8.5179161663
 20
7.6355511679
 30
0.0
  0
VERTEX
  5
506
330
282
100
AcDbEntity
  8
0
  6
CONTINUOUS
 62
     7
100
AcDbVertex
100
AcDb2dVertex
 10
8.5517064767
 20
7.6437133575
 30
0.0
  0
VERTEX
  5
507
330
282
100
AcDbEntity
  8
0
  6
CONTINUOUS
 62
     7
100
AcDbVertex
100
AcDb2dVertex
 10
8.5849570294
 20
7.6496061769
 30
0.0
  0
VERTEX
  5
508
330
282
100
AcDbEntity
  8
0
  6
CONTINUOUS
 62
     7
100
AcDbVertex
100
AcDb2dVertex
 10
8.6175828198
 20
7.6532145611
 30
0.0
  0
VERTEX
  5
509
330
282
100
AcDbEntity
  8
0
  6
CONTINUOUS
 62
     7
100
AcDbVertex
100
AcDb2dVertex
 10
8.6495004408
 20
7.6545292854
 30
0.0
  0
VERTEX
  5
50A
330
282
100
AcDbEntity
  8
0
  6
CONTINUOUS
 62
     7
100
AcDbVertex
100
AcDb2dVertex
 10
8.6806282956
 20
7.6535469888
 30
0.0
  0
SEQEND
  5
50B
330
282
100
AcDbEntity
  8
0
  6
CONTINUOUS
 62
     7
  0
LINE
  5
283
330
1F
100
AcDbEntity
  8
0
  6
CONTINUOUS
 62
     7
100
AcDbLine
 10
8.2847757782
 20
7.1073579394
 30
0.0
 11
8.0063872817
 21
7.2680681976
 31
0.0
  0
POLYLINE
  5
284
330
1F
100
AcDbEntity
  8
0
  6
CONTINUOUS
 62
     7
100
AcDb2dPolyline
 66
     1
 10
0.0
 20
0.0
 30
0.0
  0
VERTEX
  5
50C
330
284
100
AcDbEntity
  8
0
  6
CONTINUOUS
 62
     7
100
AcDbVertex
100
AcDb2dVertex
 10
8.1555026829
 20
5.72819397
 30
0.0
  0
VERTEX
  5
50D
330
284
100
AcDbEntity
  8
0
  6
CONTINUOUS
 62
     7
100
AcDbVertex
100
AcDb2dVertex
 10
8.1374326194
 20
5.7370620587
 30
0.0
  0
VERTEX
  5
50E
330
284
100
AcDbEntity
  8
0
  6
CONTINUOUS
 62
     7
100
AcDbVertex
100
AcDb2dVertex
 10
8.112575894
 20
5.7516498357
 30
0.0
  0
VERTEX
  5
50F
330
284
100
AcDbEntity
  8
0
  6
CONTINUOUS
 62
     7
100
AcDbVertex
100
AcDb2dVertex
 10
8.089021591
 20
5.7684075036
 30
0.0
  0
VERTEX
  5
510
330
284
100
AcDbEntity
  8
0
  6
CONTINUOUS
 62
     7
100
AcDbVertex
100
AcDb2dVertex
 10
8.0668302919
 20
5.787291962
 30
0.0
  0
VERTEX
  5
511
330
284
100
AcDbEntity
  8
0
  6
CONTINUOUS
 62
     7
100
AcDbVertex
100
AcDb2dVertex
 10
8.0460590727
 20
5.8082546401
 30
0.0
  0
VERTEX
  5
512
330
284
100
AcDbEntity
  8
0
  6
CONTINUOUS
 62
     7
100
AcDbVertex
100
AcDb2dVertex
 10
8.0267613568
 20
5.8312416219
 30
0.0
  0
VERTEX
  5
513
330
284
100
AcDbEntity
  8
0
  6
CONTINUOUS
 62
     7
100
AcDbVertex
100
AcDb2dVertex
 10
8.0089867778
 20
5.8561937851
 30
0.0
  0
VERTEX
  5
514
330
284
100
AcDbEntity
  8
0
  6
CONTINUOUS
 62
     7
100
AcDbVertex
100
AcDb2dVertex
 10
7.992781052
 20
5.8830469529
 30
0.0
  0
VERTEX
  5
515
330
284
100
AcDbEntity
  8
0
  6
CONTINUOUS
 62
     7
100
AcDbVertex
100
AcDb2dVertex
 10
7.9781858602
 20
5.9117320589
 30
0.0
  0
VERTEX
  5
516
330
284
100
AcDbEntity
  8
0
  6
CONTINUOUS
 62
     7
100
AcDbVertex
100
AcDb2dVertex
 10
7.9652387413
 20
5.9421753254
 30
0.0
  0
VERTEX
  5
517
330
284
100
AcDbEntity
  8
0
  6
CONTINUOUS
 62
     7
100
AcDbVertex
100
AcDb2dVertex
 10
7.9539729952
 20
5.9742984523
 30
0.0
  0
VERTEX
  5
518
330
284
100
AcDbEntity
  8
0
  6
CONTINUOUS
 62
     7
100
AcDbVertex
100
AcDb2dVertex
 10
7.9444175974
 20
6.0080188191
 30
0.0
  0
VERTEX
  5
519
330
284
100
AcDbEntity
  8
0
  6
CONTINUOUS
 62
     7
100
AcDbVertex
100
AcDb2dVertex
 10
7.9365971242
 20
6.0432496973
 30
0.0
  0
VERTEX
  5
51A
330
284
100
AcDbEntity
  8
0
  6
CONTINUOUS
 62
     7
100
AcDbVertex
100
AcDb2dVertex
 10
7.9305316899
 20
6.0799004732
 30
0.0
  0
VERTEX
  5
51B
330
284
100
AcDbEntity
  8
0
  6
CONTINUOUS
 62
     7
100
AcDbVertex
100
AcDb2dVertex
 10
7.9262368948
 20
6.1178768812
 30
0.0
  0
VERTEX
  5
51C
330
284
100
AcDbEntity
  8
0
  6
CONTINUOUS
 62
     7
100
AcDbVertex
100
AcDb2dVertex
 10
7.923723785
 20
6.1570812461
 30
0.0
  0
VERTEX
  5
51D
330
284
100
AcDbEntity
  8
0
  6
CONTINUOUS
 62
     7
100
AcDbVertex
100
AcDb2dVertex
 10
7.9229988242
 20
6.1974127346
 30
0.0
  0
VERTEX
  5
51E
330
284
100
AcDbEntity
  8
0
  6
CONTINUOUS
 62
     7
100
AcDbVertex
100
AcDb2dVertex
 10
7.9240638771
 20
6.2387676143
 30
0.0
  0
VERTEX
  5
51F
330
284
100
AcDbEntity
  8
0
  6
CONTINUOUS
 62
     7
100
AcDbVertex
100
AcDb2dVertex
 10
7.9269162043
 20
6.2810395206
 30
0.0
  0
VERTEX
  5
520
330
284
100
AcDbEntity
  8
0
  6
CONTINUOUS
 62
     7
100
AcDbVertex
100
AcDb2dVertex
 10
7.9315484697
 20
6.3241197304
 30
0.0
  0
VERTEX
  5
521
330
284
100
AcDbEntity
  8
0
  6
CONTINUOUS
 62
     7
100
AcDbVertex
100
AcDb2dVertex
 10
7.9379487591
 20
6.3678974416
 30
0.0
  0
VERTEX
  5
522
330
284
100
AcDbEntity
  8
0
  6
CONTINUOUS
 62
     7
100
AcDbVertex
100
AcDb2dVertex
 10
7.946100611
 20
6.4122600582
 30
0.0
  0
VERTEX
  5
523
330
284
100
AcDbEntity
  8
0
  6
CONTINUOUS
 62
     7
100
AcDbVertex
100
AcDb2dVertex
 10
7.9559830589
 20
6.4570934797
 30
0.0
  0
VERTEX
  5
524
330
284
100
AcDbEntity
  8
0
  6
CONTINUOUS
 62
     7
100
AcDbVertex
100
AcDb2dVertex
 10
7.9675706851
 20
6.5022823949
 30
0.0
  0
VERTEX
  5
525
330
284
100
AcDbEntity
  8
0
  6
CONTINUOUS
 62
     7
100
AcDbVertex
100
AcDb2dVertex
 10
7.9808336864
 20
6.5477105781
 30
0.0
  0
VERTEX
  5
526
330
284
100
AcDbEntity
  8
0
  6
CONTINUOUS
 62
     7
100
AcDbVertex
100
AcDb2dVertex
 10
7.9957379503
 20
6.5932611881
 30
0.0
  0
VERTEX
  5
527
330
284
100
AcDbEntity
  8
0
  6
CONTINUOUS
 62
     7
100
AcDbVertex
100
AcDb2dVertex
 10
8.0122451432
 20
6.6388170692
 30
0.0
  0
VERTEX
  5
528
330
284
100
AcDbEntity
  8
0
  6
CONTINUOUS
 62
     7
100
AcDbVertex
100
AcDb2dVertex
 10
8.0303128088
 20
6.6842610518
 30
0.0
  0
VERTEX
  5
529
330
284
100
AcDbEntity
  8
0
  6
CONTINUOUS
 62
     7
100
AcDbVertex
100
AcDb2dVertex
 10
8.0498944769
 20
6.7294762542
 30
0.0
  0
VERTEX
  5
52A
330
284
100
AcDbEntity
  8
0
  6
CONTINUOUS
 62
     7
100
AcDbVertex
100
AcDb2dVertex
 10
8.0709397837
 20
6.7743463831
 30
0.0
  0
VERTEX
  5
52B
330
284
100
AcDbEntity
  8
0
  6
CONTINUOUS
 62
     7
100
AcDbVertex
100
AcDb2dVertex
 10
8.0933946008
 20
6.8187560328
 30
0.0
  0
VERTEX
  5
52C
330
284
100
AcDbEntity
  8
0
  6
CONTINUOUS
 62
     7
100
AcDbVertex
100
AcDb2dVertex
 10
8.1172011745
 20
6.862590982
 30
0.0
  0
VERTEX
  5
52D
330
284
100
AcDbEntity
  8
0
  6
CONTINUOUS
 62
     7
100
AcDbVertex
100
AcDb2dVertex
 10
8.1422982744
 20
6.9057384873
 30
0.0
  0
VERTEX
  5
52E
330
284
100
AcDbEntity
  8
0
  6
CONTINUOUS
 62
     7
100
AcDbVertex
100
AcDb2dVertex
 10
8.1686213508
 20
6.9480875736
 30
0.0
  0
VERTEX
  5
52F
330
284
100
AcDbEntity
  8
0
  6
CONTINUOUS
 62
     7
100
AcDbVertex
100
AcDb2dVertex
 10
8.1961027011
 20
6.9895293192
 30
0.0
  0
VERTEX
  5
530
330
284
100
AcDbEntity
  8
0
  6
CONTINUOUS
 62
     7
100
AcDbVertex
100
AcDb2dVertex
 10
8.2246716432
 20
7.0299571363
 30
0.0
  0
VERTEX
  5
531
330
284
100
AcDbEntity
  8
0
  6
CONTINUOUS
 62
     7
100
AcDbVertex
100
AcDb2dVertex
 10
8.2542546981
 20
7.0692670446
 30
0.0
  0
VERTEX
  5
532
330
284
100
AcDbEntity
  8
0
  6
CONTINUOUS
 62
     7
100
AcDbVertex
100
AcDb2dVertex
 10
8.2847757782
 20
7.1073579394
 30
0.0
  0
SEQEND
  5
533
330
284
100
AcDbEntity
  8
0
  6
CONTINUOUS
 62
     7
  0
ARC
  5
285
330
1F
100
AcDbEntity
  8
0
  6
CONTINUOUS
 62
     7
100
AcDbCircle
 10
8.9385356465
 20
7.1458208284
 30
0.0
 40
0.3476197832057772
100
AcDbArc
 50
57.6056773379
 51
86.622277406
  0
LINE
  5
286
330
1F
100
AcDbEntity
  8
0
  6
CONTINUOUS
 62
     7
100
AcDbLine
 10
7.3992687087
 20
6.2056390207
 30
0.0
 11
7.1208802122
 21
6.3663492789
 31
0.0
  0
POLYLINE
  5
287
330
1F
100
AcDbEntity
  8
0
  6
CONTINUOUS
 62
     7
100
AcDb2dPolyline
 66
     1
 10
0.0
 20
0.0
 30
0.0
  0
VERTEX
  5
534
330
287
100
AcDbEntity
  8
0
  6
CONTINUOUS
 62
     7
100
AcDbVertex
100
AcDb2dVertex
 10
7.3960193314
 20
6.9823518319
 30
0.0
  0
VERTEX
  5
535
330
287
100
AcDbEntity
  8
0
  6
CONTINUOUS
 62
     7
100
AcDbVertex
100
AcDb2dVertex
 10
7.3799080706
 20
6.9369247039
 30
0.0
  0
VERTEX
  5
536
330
287
100
AcDbEntity
  8
0
  6
CONTINUOUS
 62
     7
100
AcDbVertex
100
AcDb2dVertex
 10
7.3653986997
 20
6.8915281218
 30
0.0
  0
VERTEX
  5
537
330
287
100
AcDbEntity
  8
0
  6
CONTINUOUS
 62
     7
100
AcDbVertex
100
AcDb2dVertex
 10
7.3525283116
 20
6.8462781412
 30
0.0
  0
VERTEX
  5
538
330
287
100
AcDbEntity
  8
0
  6
CONTINUOUS
 62
     7
100
AcDbVertex
100
AcDb2dVertex
 10
7.3413298091
 20
6.8012904429
 30
0.0
  0
VERTEX
  5
539
330
287
100
AcDbEntity
  8
0
  6
CONTINUOUS
 62
     7
100
AcDbVertex
100
AcDb2dVertex
 10
7.3318318211
 20
6.7566800371
 30
0.0
  0
VERTEX
  5
53A
330
287
100
AcDbEntity
  8
0
  6
CONTINUOUS
 62
     7
100
AcDbVertex
100
AcDb2dVertex
 10
7.324058629
 20
6.7125609696
 30
0.0
  0
VERTEX
  5
53B
330
287
100
AcDbEntity
  8
0
  6
CONTINUOUS
 62
     7
100
AcDbVertex
100
AcDb2dVertex
 10
7.3180301048
 20
6.66904603
 30
0.0
  0
VERTEX
  5
53C
330
287
100
AcDbEntity
  8
0
  6
CONTINUOUS
 62
     7
100
AcDbVertex
100
AcDb2dVertex
 10
7.3137616603
 20
6.6262464634
 30
0.0
  0
VERTEX
  5
53D
330
287
100
AcDbEntity
  8
0
  6
CONTINUOUS
 62
     7
100
AcDbVertex
100
AcDb2dVertex
 10
7.3112642078
 20
6.5842716861
 30
0.0
  0
VERTEX
  5
53E
330
287
100
AcDbEntity
  8
0
  6
CONTINUOUS
 62
     7
100
AcDbVertex
100
AcDb2dVertex
 10
7.3105441318
 20
6.543229006
 30
0.0
  0
VERTEX
  5
53F
330
287
100
AcDbEntity
  8
0
  6
CONTINUOUS
 62
     7
100
AcDbVertex
100
AcDb2dVertex
 10
7.3116032734
 20
6.503223348
 30
0.0
  0
VERTEX
  5
540
330
287
100
AcDbEntity
  8
0
  6
CONTINUOUS
 62
     7
100
AcDbVertex
100
AcDb2dVertex
 10
7.3144389248
 20
6.4643569857
 30
0.0
  0
VERTEX
  5
541
330
287
100
AcDbEntity
  8
0
  6
CONTINUOUS
 62
     7
100
AcDbVertex
100
AcDb2dVertex
 10
7.3190438367
 20
6.4267292803
 30
0.0
  0
VERTEX
  5
542
330
287
100
AcDbEntity
  8
0
  6
CONTINUOUS
 62
     7
100
AcDbVertex
100
AcDb2dVertex
 10
7.3254062368
 20
6.3904364265
 30
0.0
  0
VERTEX
  5
543
330
287
100
AcDbEntity
  8
0
  6
CONTINUOUS
 62
     7
100
AcDbVertex
100
AcDb2dVertex
 10
7.3335098596
 20
6.3555712063
 30
0.0
  0
VERTEX
  5
544
330
287
100
AcDbEntity
  8
0
  6
CONTINUOUS
 62
     7
100
AcDbVertex
100
AcDb2dVertex
 10
7.3433339884
 20
6.3222227519
 30
0.0
  0
VERTEX
  5
545
330
287
100
AcDbEntity
  8
0
  6
CONTINUOUS
 62
     7
100
AcDbVertex
100
AcDb2dVertex
 10
7.3548535081
 20
6.2904763181
 30
0.0
  0
VERTEX
  5
546
330
287
100
AcDbEntity
  8
0
  6
CONTINUOUS
 62
     7
100
AcDbVertex
100
AcDb2dVertex
 10
7.3680389691
 20
6.2604130641
 30
0.0
  0
VERTEX
  5
547
330
287
100
AcDbEntity
  8
0
  6
CONTINUOUS
 62
     7
100
AcDbVertex
100
AcDb2dVertex
 10
7.382856663
 20
6.232109846
 30
0.0
  0
VERTEX
  5
548
330
287
100
AcDbEntity
  8
0
  6
CONTINUOUS
 62
     7
100
AcDbVertex
100
AcDb2dVertex
 10
7.3992687087
 20
6.2056390207
 30
0.0
  0
SEQEND
  5
549
330
287
100
AcDbEntity
  8
0
  6
CONTINUOUS
 62
     7
  0
LINE
  5
288
330
1F
100
AcDbEntity
  8
0
  6
CONTINUOUS
 62
     7
100
AcDbLine
 10
7.1176308348
 20
7.1430620901
 30
0.0
 11
7.3960193314
 21
6.9823518319
 31
0.0
  0
POLYLINE
  5
289
330
1F
100
AcDbEntity
  8
0
  6
CONTINUOUS
 62
     7
100
AcDb2dPolyline
 66
     1
 10
0.0
 20
0.0
 30
0.0
  0
VERTEX
  5
54A
330
289
100
AcDbEntity
  8
0
  6
CONTINUOUS
 62
     7
100
AcDbVertex
100
AcDb2dVertex
 10
8.220204785
 20
7.9619936901
 30
0.0
  0
VERTEX
  5
54B
330
289
100
AcDbEntity
  8
0
  6
CONTINUOUS
 62
     7
100
AcDbVertex
100
AcDb2dVertex
 10
8.2055589449
 20
7.9699596901
 30
0.0
  0
VERTEX
  5
54C
330
289
100
AcDbEntity
  8
0
  6
CONTINUOUS
 62
     7
100
AcDbVertex
100
AcDb2dVertex
 10
8.1792719273
 20
7.9819841576
 30
0.0
  0
VERTEX
  5
54D
330
289
100
AcDbEntity
  8
0
  6
CONTINUOUS
 62
     7
100
AcDbVertex
100
AcDb2dVertex
 10
8.1518245462
 20
7.9917648149
 30
0.0
  0
VERTEX
  5
54E
330
289
100
AcDbEntity
  8
0
  6
CONTINUOUS
 62
     7
100
AcDbVertex
100
AcDb2dVertex
 10
8.123287396
 20
7.9992765061
 30
0.0
  0
VERTEX
  5
54F
330
289
100
AcDbEntity
  8
0
  6
CONTINUOUS
 62
     7
100
AcDbVertex
100
AcDb2dVertex
 10
8.0937338743
 20
8.0044999112
 30
0.0
  0
VERTEX
  5
550
330
289
100
AcDbEntity
  8
0
  6
CONTINUOUS
 62
     7
100
AcDbVertex
100
AcDb2dVertex
 10
8.0632399925
 20
8.0074215956
 30
0.0
  0
VERTEX
  5
551
330
289
100
AcDbEntity
  8
0
  6
CONTINUOUS
 62
     7
100
AcDbVertex
100
AcDb2dVertex
 10
8.0318841807
 20
8.0080340449
 30
0.0
  0
VERTEX
  5
552
330
289
100
AcDbEntity
  8
0
  6
CONTINUOUS
 62
     7
100
AcDbVertex
100
AcDb2dVertex
 10
7.9997470859
 20
8.0063356837
 30
0.0
  0
VERTEX
  5
553
330
289
100
AcDbEntity
  8
0
  6
CONTINUOUS
 62
     7
100
AcDbVertex
100
AcDb2dVertex
 10
7.9669113645
 20
8.0023308802
 30
0.0
  0
VERTEX
  5
554
330
289
100
AcDbEntity
  8
0
  6
CONTINUOUS
 62
     7
100
AcDbVertex
100
AcDb2dVertex
 10
7.9334614698
 20
7.9960299348
 30
0.0
  0
VERTEX
  5
555
330
289
100
AcDbEntity
  8
0
  6
CONTINUOUS
 62
     7
100
AcDbVertex
100
AcDb2dVertex
 10
7.8994834349
 20
7.9874490536
 30
0.0
  0
VERTEX
  5
556
330
289
100
AcDbEntity
  8
0
  6
CONTINUOUS
 62
     7
100
AcDbVertex
100
AcDb2dVertex
 10
7.865064651
 20
7.9766103063
 30
0.0
  0
VERTEX
  5
557
330
289
100
AcDbEntity
  8
0
  6
CONTINUOUS
 62
     7
100
AcDbVertex
100
AcDb2dVertex
 10
7.8302936431
 20
7.9635415704
 30
0.0
  0
VERTEX
  5
558
330
289
100
AcDbEntity
  8
0
  6
CONTINUOUS
 62
     7
100
AcDbVertex
100
AcDb2dVertex
 10
7.795259842
 20
7.9482764584
 30
0.0
  0
VERTEX
  5
559
330
289
100
AcDbEntity
  8
0
  6
CONTINUOUS
 62
     7
100
AcDbVertex
100
AcDb2dVertex
 10
7.7600533544
 20
7.9308542322
 30
0.0
  0
VERTEX
  5
55A
330
289
100
AcDbEntity
  8
0
  6
CONTINUOUS
 62
     7
100
AcDbVertex
100
AcDb2dVertex
 10
7.7247647314
 20
7.9113197016
 30
0.0
  0
VERTEX
  5
55B
330
289
100
AcDbEntity
  8
0
  6
CONTINUOUS
 62
     7
100
AcDbVertex
100
AcDb2dVertex
 10
7.689484735
 20
7.8897231094
 30
0.0
  0
VERTEX
  5
55C
330
289
100
AcDbEntity
  8
0
  6
CONTINUOUS
 62
     7
100
AcDbVertex
100
AcDb2dVertex
 10
7.6543041051
 20
7.8661200019
 30
0.0
  0
VERTEX
  5
55D
330
289
100
AcDbEntity
  8
0
  6
CONTINUOUS
 62
     7
100
AcDbVertex
100
AcDb2dVertex
 10
7.6193133263
 20
7.8405710862
 30
0.0
  0
VERTEX
  5
55E
330
289
100
AcDbEntity
  8
0
  6
CONTINUOUS
 62
     7
100
AcDbVertex
100
AcDb2dVertex
 10
7.5846023946
 20
7.8131420738
 30
0.0
  0
VERTEX
  5
55F
330
289
100
AcDbEntity
  8
0
  6
CONTINUOUS
 62
     7
100
AcDbVertex
100
AcDb2dVertex
 10
7.5502605863
 20
7.7839035122
 30
0.0
  0
VERTEX
  5
560
330
289
100
AcDbEntity
  8
0
  6
CONTINUOUS
 62
     7
100
AcDbVertex
100
AcDb2dVertex
 10
7.5163762284
 20
7.7529306027
 30
0.0
  0
VERTEX
  5
561
330
289
100
AcDbEntity
  8
0
  6
CONTINUOUS
 62
     7
100
AcDbVertex
100
AcDb2dVertex
 10
7.4830364713
 20
7.7203030076
 30
0.0
  0
VERTEX
  5
562
330
289
100
AcDbEntity
  8
0
  6
CONTINUOUS
 62
     7
100
AcDbVertex
100
AcDb2dVertex
 10
7.4503270646
 20
7.6861046447
 30
0.0
  0
VERTEX
  5
563
330
289
100
AcDbEntity
  8
0
  6
CONTINUOUS
 62
     7
100
AcDbVertex
100
AcDb2dVertex
 10
7.4183321369
 20
7.6504234722
 30
0.0
  0
VERTEX
  5
564
330
289
100
AcDbEntity
  8
0
  6
CONTINUOUS
 62
     7
100
AcDbVertex
100
AcDb2dVertex
 10
7.3871339788
 20
7.6133512618
 30
0.0
  0
VERTEX
  5
565
330
289
100
AcDbEntity
  8
0
  6
CONTINUOUS
 62
     7
100
AcDbVertex
100
AcDb2dVertex
 10
7.3568128319
 20
7.574983363
 30
0.0
  0
VERTEX
  5
566
330
289
100
AcDbEntity
  8
0
  6
CONTINUOUS
 62
     7
100
AcDbVertex
100
AcDb2dVertex
 10
7.327446682
 20
7.5354184579
 30
0.0
  0
VERTEX
  5
567
330
289
100
AcDbEntity
  8
0
  6
CONTINUOUS
 62
     7
100
AcDbVertex
100
AcDb2dVertex
 10
7.2991110588
 20
7.4947583072
 30
0.0
  0
VERTEX
  5
568
330
289
100
AcDbEntity
  8
0
  6
CONTINUOUS
 62
     7
100
AcDbVertex
100
AcDb2dVertex
 10
7.2718788412
 20
7.4531074886
 30
0.0
  0
VERTEX
  5
569
330
289
100
AcDbEntity
  8
0
  6
CONTINUOUS
 62
     7
100
AcDbVertex
100
AcDb2dVertex
 10
7.2458200704
 20
7.4105731279
 30
0.0
  0
VERTEX
  5
56A
330
289
100
AcDbEntity
  8
0
  6
CONTINUOUS
 62
     7
100
AcDbVertex
100
AcDb2dVertex
 10
7.2210017694
 20
7.3672646231
 30
0.0
  0
VERTEX
  5
56B
330
289
100
AcDbEntity
  8
0
  6
CONTINUOUS
 62
     7
100
AcDbVertex
100
AcDb2dVertex
 10
7.1974877708
 20
7.3232933635
 30
0.0
  0
VERTEX
  5
56C
330
289
100
AcDbEntity
  8
0
  6
CONTINUOUS
 62
     7
100
AcDbVertex
100
AcDb2dVertex
 10
7.1753385524
 20
7.2787724429
 30
0.0
  0
VERTEX
  5
56D
330
289
100
AcDbEntity
  8
0
  6
CONTINUOUS
 62
     7
100
AcDbVertex
100
AcDb2dVertex
 10
7.154611082
 20
7.233816369
 30
0.0
  0
VERTEX
  5
56E
330
289
100
AcDbEntity
  8
0
  6
CONTINUOUS
 62
     7
100
AcDbVertex
100
AcDb2dVertex
 10
7.1353586704
 20
7.1885407686
 30
0.0
  0
VERTEX
  5
56F
330
289
100
AcDbEntity
  8
0
  6
CONTINUOUS
 62
     7
100
AcDbVertex
100
AcDb2dVertex
 10
7.1176308348
 20
7.1430620901
 30
0.0
  0
SEQEND
  5
570
330
289
100
AcDbEntity
  8
0
  6
CONTINUOUS
 62
     7
  0
ARC
  5
28A
330
1F
100
AcDbEntity
  8
0
  6
CONTINUOUS
 62
     7
100
AcDbCircle
 10
7.412580027
 20
6.5587008492
 30
0.0
 40
0.3494108019286623
100
AcDbArc
 50
213.4015032761
 51
239.6506416611
  0
SPLINE
  5
28B
330
1F
100
AcDbEntity
  8
0
  6
CONTINUOUS
 62
     7
100
AcDbSpline
210
0.0
220
0.0
230
1.0
 70
     8
 71
     3
 72
     8
 73
     4
 74
     0
 42
0.00000001
 43
0.00000001
 40
0.0
 40
0.0
 40
0.0
 40
0.0
 40
0.000085637742213
 40
0.000085637742213
 40
0.000085637742213
 40
0.000085637742213
 10
8.327676510460607
 20
7.082588455385271
 30
0.0
 10
8.328728034375429
 20
7.080605172141629
 30
0.0
 10
8.329779162964991
 20
7.078621714201091
 30
0.0
 10
8.33082988953986
 20
7.076638079435395
 30
0.0
  0
ARC
  5
28C
330
1F
100
AcDbEntity
  8
0
  6
CONTINUOUS
 62
     7
100
AcDbCircle
 10
9.4309697808
 20
6.1261587542
 30
0.0
 40
1.45386338012615
100
AcDbArc
 50
139.1742232429
 51
177.3437991773
  0
SPLINE
  5
28D
330
1F
100
AcDbEntity
  8
0
  6
CONTINUOUS
 62
     7
100
AcDbSpline
210
0.0
220
0.0
230
1.0
 70
     8
 71
     3
 72
     8
 73
     4
 74
     0
 42
0.00000001
 43
0.00000001
 40
0.0
 40
0.0
 40
0.0
 40
0.0
 40
0.000640806303695
 40
0.000640806303695
 40
0.000640806303695
 40
0.000640806303695
 10
8.284775778196009
 20
7.107357939350565
 30
0.0
 10
8.299078198346036
 20
7.099100189342125
 30
0.0
 10
8.313378535318185
 20
7.09084364109853
 30
0.0
 10
8.327676510460607
 20
7.082588455385271
 30
0.0
  0
SPLINE
  5
28E
330
1F
100
AcDbEntity
  8
0
  6
CONTINUOUS
 62
     7
100
AcDbSpline
210
0.0
220
0.0
230
1.0
 70
     8
 71
     3
 72
     8
 73
     4
 74
     0
 42
0.00000001
 43
0.00000001
 40
0.0
 40
0.0
 40
0.0
 40
0.0
 40
0.0005619575253672
 40
0.0005619575253672
 40
0.0005619575253672
 40
0.0005619575253672
 10
8.680628295552225
 20
7.653546988806458
 30
0.0
 10
8.678806121047723
 20
7.642368269180166
 30
0.0
 10
8.676906561797677
 20
7.631185344755523
 30
0.0
 10
8.674921225220768
 20
7.619998906330074
 30
0.0
  0
SPLINE
  5
28F
330
1F
100
AcDbEntity
  8
0
  6
CONTINUOUS
 62
     7
100
AcDbSpline
210
0.0
220
0.0
230
1.0
 70
     8
 71
     3
 72
     8
 73
     4
 74
     0
 42
0.00000001
 43
0.00000001
 40
0.0
 40
0.0
 40
0.0
 40
0.0
 40
0.000640806303695
 40
0.000640806303695
 40
0.000640806303695
 40
0.000640806303695
 10
7.389549122472971
 20
6.986083585591512
 30
0.0
 10
7.391694076356492
 20
6.984846470427399
 30
0.0
 10
7.393851249396829
 20
6.983602300369261
 30
0.0
 10
7.396019331355896
 20
6.982351831898241
 30
0.0
  0
ARC
  5
290
330
1F
100
AcDbEntity
  8
0
  6
CONTINUOUS
 62
     7
100
AcDbCircle
 10
8.5146023433
 20
6.5592649743
 30
0.0
 40
1.204231963781183
100
AcDbArc
 50
159.2172005192
 51
179.0495927266
  0
SPLINE
  5
291
330
1F
100
AcDbEntity
  8
0
  6
CONTINUOUS
 62
     7
100
AcDbSpline
210
0.0
220
0.0
230
1.0
 70
     8
 71
     3
 72
     8
 73
     4
 74
     0
 42
0.00000001
 43
0.00000001
 40
0.0
 40
0.0
 40
0.0
 40
0.0
 40
0.000085637742213
 40
0.000085637742213
 40
0.000085637742213
 40
0.000085637742213
 10
7.111160625942835
 20
7.146793843824328
 30
0.0
 10
7.111300906147916
 20
7.148088889532953
 30
0.0
 10
7.111441930592519
 20
7.149383908449077
 30
0.0
 10
7.11158371115328
 20
7.150678899705483
 30
0.0
  0
ARC
  5
292
330
1F
100
AcDbEntity
  8
0
  6
CONTINUOUS
 62
     7
100
AcDbCircle
 10
8.4847432212
 20
6.6731970352
 30
0.0
 40
1.453807405035403
100
AcDbArc
 50
122.6609723038
 51
160.8261598743
  0
SPLINE
  5
293
330
1F
100
AcDbEntity
  8
0
  6
CONTINUOUS
 62
     7
100
AcDbSpline
210
0.0
220
0.0
230
1.0
 70
     8
 71
     3
 72
     8
 73
     4
 74
     0
 42
0.00000001
 43
0.00000001
 40
0.0
 40
0.0
 40
0.0
 40
0.0
 40
0.000640806303695
 40
0.000640806303695
 40
0.000640806303695
 40
0.000640806303695
 10
7.111160625942835
 20
7.146793843824328
 30
0.0
 10
7.113305579826355
 20
7.145556728660217
 30
0.0
 10
7.115462752866693
 20
7.144312558602078
 30
0.0
 10
7.11763083482576
 20
7.143062090131058
 30
0.0
  0
LINE
  5
294
330
1F
100
AcDbEntity
  8
0
  6
CONTINUOUS
 62
     7
100
AcDbLine
 10
7.3895491225
 20
6.9860835856
 30
0.0
 11
7.1111606259
 21
7.1467938438
 31
0.0
  0
LINE
  5
295
330
1F
100
AcDbEntity
  8
0
  6
CONTINUOUS
 62
     7
100
AcDbLine
 10
8.9590167921
 20
7.4928367306
 30
0.0
 11
8.9570121195
 21
7.4810525899
 31
0.0
  0
LINE
  5
296
330
1F
100
AcDbEntity
  8
0
  6
CONTINUOUS
 62
     7
100
AcDbLine
 10
7.1208802122
 20
6.3663492789
 30
0.0
 11
7.11717211
 21
6.3814382698
 31
0.0
  0
ENDSEC
  0
SECTION
  2
OBJECTS
  0
DICTIONARY
  5
C
330
0
100
AcDbDictionary
  3
ACAD_GROUP
350
D
  3
ACAD_LAYOUT
350
1A
  3
ACAD_MLEADERSTYLE
350
299
  3
ACAD_MLINESTYLE
350
17
  3
ACAD_PLOTSETTINGS
350
19
  3
ACAD_SCALELIST
350
6F
  3
ACAD_VISUALSTYLE
350
2A
  3
ACDBVARIABLEDICTIONARY
350
297
1001
ACAD
1000
TREAT_AS_HARD
1070
     0
  0
DICTIONARY
  5
D
102
{ACAD_REACTORS
330
C
102
}
330
C
100
AcDbDictionary
1001
ACAD
1000
TREAT_AS_HARD
1070
     0
  0
DICTIONARY
  5
1A
102
{ACAD_REACTORS
330
C
102
}
330
C
100
AcDbDictionary
1001
ACAD
1000
TREAT_AS_HARD
1070
     0
  0
DICTIONARY
  5
299
102
{ACAD_REACTORS
330
C
102
}
330
C
100
AcDbDictionary
1001
ACAD
1000
TREAT_AS_HARD
1070
     0
  0
DICTIONARY
  5
17
102
{ACAD_REACTORS
330
C
102
}
330
C
100
AcDbDictionary
  3
STANDARD
350
18
1001
ACAD
1000
TREAT_AS_HARD
1070
     0
  0
DICTIONARY
  5
19
102
{ACAD_REACTORS
330
C
102
}
330
C
100
AcDbDictionary
1001
ACAD
1000
TREAT_AS_HARD
1070
     0
  0
DICTIONARY
  5
6F
102
{ACAD_REACTORS
330
C
102
}
330
C
100
AcDbDictionary
  3
A0
350
70
  3
A1
350
71
  3
A2
350
72
  3
A3
350
73
  3
A4
350
74
  3
A5
350
75
  3
A6
350
76
  3
A7
350
77
  3
A8
350
78
  3
A9
350
79
  3
B0
350
7A
  3
B1
350
7B
  3
B2
350
7C
  3
B3
350
7D
  3
B4
350
7E
  3
B5
350
7F
  3
B6
350
80
  3
B7
350
81
  3
B8
350
82
  3
B9
350
83
  3
C0
350
84
  3
C1
350
85
  3
C2
350
86
  3
C3
350
87
  3
C4
350
88
  3
C5
350
89
  3
C6
350
8A
  3
C7
350
8B
  3
C8
350
8C
  3
C9
350
8D
  3
D0
350
8E
  3
D1
350
8F
  3
D2
350
90
1001
ACAD
1000
TREAT_AS_HARD
1070
     0
  0
DICTIONARY
  5
2A
102
{ACAD_REACTORS
330
C
102
}
330
C
100
AcDbDictionary
  3
2DWIREFRAME
350
2F
  3
3D_HIDDEN
350
31
  3
3DWIREFRAME
350
30
  3
BASIC
350
32
  3
BRIGHTEN
350
36
  3
COLORCHANGE
350
3A
  3
CONCEPTUAL
350
34
  3
DIM
350
35
  3
FACEPATTERN
350
39
  3
FLAT
350
2B
  3
FLATWITHEDGES
350
2C
  3
GOURAUD
350
2D
  3
GOURAUDWITHEDGES
350
2E
  3
LINEPATTERN
350
38
  3
REALISTIC
350
33
  3
THICKEN
350
37
1001
ACAD
1000
TREAT_AS_HARD
1070
     0
  0
DICTIONARY
  5
297
102
{ACAD_REACTORS
330
C
102
}
330
C
100
AcDbDictionary
  3
CANNOSCALE
350
29A
  3
DIMASSOC
350
29B
  3
HIDETEXT
350
29C
1001
ACAD
1000
TREAT_AS_HARD
1070
     0
  0
MLINESTYLE
  5
18
102
{ACAD_REACTORS
330
17
102
}
330
17
100
AcDbMlineStyle
  2
Standard
 70
     0
  3

 62
   256
 51
90.0
 52
90.0
 71
     2
 49
0.5
 62
   256
  6
BYLAYER
 49
-0.5
 62
   256
  6
BYLAYER
  0
ACAD_PROXY_OBJECT
  5
70
102
{ACAD_REACTORS
330
6F
102
}
330
6F
100
AcDbZombieObject
 90
      499
 91
      502
 93
       41
310
903313A31580
  0
ACAD_PROXY_OBJECT
  5
71
102
{ACAD_REACTORS
330
6F
102
}
330
6F
100
AcDbZombieObject
 90
      499
 91
      502
 93
      105
310
903313A324000000000000004000
  0
ACAD_PROXY_OBJECT
  5
72
102
{ACAD_REACTORS
330
6F
102
}
330
6F
100
AcDbZombieObject
 90
      499
 91
      502
 93
      105
310
903313A344000000000000104000
  0
ACAD_PROXY_OBJECT
  5
73
102
{ACAD_REACTORS
330
6F
102
}
330
6F
100
AcDbZombieObject
 90
      499
 91
      502
 93
      105
310
903313A354000000000000144000
  0
ACAD_PROXY_OBJECT
  5
74
102
{ACAD_REACTORS
330
6F
102
}
330
6F
100
AcDbZombieObject
 90
      499
 91
      502
 93
      105
310
903313A384000000000000204000
  0
ACAD_PROXY_OBJECT
  5
75
102
{ACAD_REACTORS
330
6F
102
}
330
6F
100
AcDbZombieObject
 90
      499
 91
      502
 93
      113
310
904313A31304000000000000244000
  0
ACAD_PROXY_OBJECT
  5
76
102
{ACAD_REACTORS
330
6F
102
}
330
6F
100
AcDbZombieObject
 90
      499
 91
      502
 93
      113
310
904313A31364000000000000304000
  0
ACAD_PROXY_OBJECT
  5
77
102
{ACAD_REACTORS
330
6F
102
}
330
6F
100
AcDbZombieObject
 90
      499
 91
      502
 93
      113
310
904313A32304000000000000344000
  0
ACAD_PROXY_OBJECT
  5
78
102
{ACAD_REACTORS
330
6F
102
}
330
6F
100
AcDbZombieObject
 90
      499
 91
      502
 93
      113
310
904313A333040000000000003E4000
  0
ACAD_PROXY_OBJECT
  5
79
102
{ACAD_REACTORS
330
6F
102
}
330
6F
100
AcDbZombieObject
 90
      499
 91
      502
 93
      113
310
904313A34304000000000000444000
  0
ACAD_PROXY_OBJECT
  5
7A
102
{ACAD_REACTORS
330
6F
102
}
330
6F
100
AcDbZombieObject
 90
      499
 91
      502
 93
      113
310
904313A35304000000000000494000
  0
ACAD_PROXY_OBJECT
  5
7B
102
{ACAD_REACTORS
330
6F
102
}
330
6F
100
AcDbZombieObject
 90
      499
 91
      502
 93
      121
310
905313A3130304000000000000594000
  0
ACAD_PROXY_OBJECT
  5
7C
102
{ACAD_REACTORS
330
6F
102
}
330
6F
100
AcDbZombieObject
 90
      499
 91
      502
 93
      105
310
903323A310000000000000010100
  0
ACAD_PROXY_OBJECT
  5
7D
102
{ACAD_REACTORS
330
6F
102
}
330
6F
100
AcDbZombieObject
 90
      499
 91
      502
 93
      105
310
903343A310000000000000410100
  0
ACAD_PROXY_OBJECT
  5
7E
102
{ACAD_REACTORS
330
6F
102
}
330
6F
100
AcDbZombieObject
 90
      499
 91
      502
 93
      105
310
903383A310000000000000810100
  0
ACAD_PROXY_OBJECT
  5
7F
102
{ACAD_REACTORS
330
6F
102
}
330
6F
100
AcDbZombieObject
 90
      499
 91
      502
 93
      113
310
90431303A310000000000000910100
  0
ACAD_PROXY_OBJECT
  5
80
102
{ACAD_REACTORS
330
6F
102
}
330
6F
100
AcDbZombieObject
 90
      499
 91
      502
 93
      121
310
9053130303A310000000000001650100
  0
ACAD_PROXY_OBJECT
  5
81
102
{ACAD_REACTORS
330
6F
102
}
330
6F
100
AcDbZombieObject
 90
      499
 91
      502
 93
      257
310
90E312F31323822203D2031272D3022000000000000200FC000000000000284000
  0
ACAD_PROXY_OBJECT
  5
82
102
{ACAD_REACTORS
330
6F
102
}
330
6F
100
AcDbZombieObject
 90
      499
 91
      502
 93
      249
310
90D312F363422203D2031272D3022000000000000240FC000000000000284000
  0
ACAD_PROXY_OBJECT
  5
83
102
{ACAD_REACTORS
330
6F
102
}
330
6F
100
AcDbZombieObject
 90
      499
 91
      502
 93
      249
310
90D312F333222203D2031272D3022000000000000280FC000000000000284000
  0
ACAD_PROXY_OBJECT
  5
84
102
{ACAD_REACTORS
330
6F
102
}
330
6F
100
AcDbZombieObject
 90
      499
 91
      502
 93
      249
310
90D312F313622203D2031272D30220000000000002C0FC000000000000284000
  0
ACAD_PROXY_OBJECT
  5
85
102
{ACAD_REACTORS
330
6F
102
}
330
6F
100
AcDbZombieObject
 90
      499
 91
      502
 93
      249
310
90D332F333222203D2031272D30220000000000002E0FC000000000000284000
  0
ACAD_PROXY_OBJECT
  5
86
102
{ACAD_REACTORS
330
6F
102
}
330
6F
100
AcDbZombieObject
 90
      499
 91
      502
 93
      241
310
90C312F3822203D2031272D3022000000000000300FC000000000000284000
  0
ACAD_PROXY_OBJECT
  5
87
102
{ACAD_REACTORS
330
6F
102
}
330
6F
100
AcDbZombieObject
 90
      499
 91
      502
 93
      249
310
90D332F313622203D2031272D3022000000000000320FC000000000000284000
  0
ACAD_PROXY_OBJECT
  5
88
102
{ACAD_REACTORS
330
6F
102
}
330
6F
100
AcDbZombieObject
 90
      499
 91
      502
 93
      241
310
90C312F3422203D2031272D3022000000000000340FC000000000000284000
  0
ACAD_PROXY_OBJECT
  5
89
102
{ACAD_REACTORS
330
6F
102
}
330
6F
100
AcDbZombieObject
 90
      499
 91
      502
 93
      241
310
90C332F3822203D2031272D3022000000000000360FC000000000000284000
  0
ACAD_PROXY_OBJECT
  5
8A
102
{ACAD_REACTORS
330
6F
102
}
330
6F
100
AcDbZombieObject
 90
      499
 91
      502
 93
      241
310
90C312F3222203D2031272D3022000000000000380FC000000000000284000
  0
ACAD_PROXY_OBJECT
  5
8B
102
{ACAD_REACTORS
330
6F
102
}
330
6F
100
AcDbZombieObject
 90
      499
 91
      502
 93
      241
310
90C332F3422203D2031272D30220000000000003A0FC000000000000284000
  0
ACAD_PROXY_OBJECT
  5
8C
102
{ACAD_REACTORS
330
6F
102
}
330
6F
100
AcDbZombieObject
 90
      499
 91
      502
 93
      161
310
90A3122203D2031272D30224000000000000284000
  0
ACAD_PROXY_OBJECT
  5
8D
102
{ACAD_REACTORS
330
6F
102
}
330
6F
100
AcDbZombieObject
 90
      499
 91
      502
 93
      257
310
90E312D312F3222203D2031272D30220000000000003E0FC000000000000284000
  0
ACAD_PROXY_OBJECT
  5
8E
102
{ACAD_REACTORS
330
6F
102
}
330
6F
100
AcDbZombieObject
 90
      499
 91
      502
 93
      225
310
90A3322203D2031272D302200000000000002100000000000000284000
  0
ACAD_PROXY_OBJECT
  5
8F
102
{ACAD_REACTORS
330
6F
102
}
330
6F
100
AcDbZombieObject
 90
      499
 91
      502
 93
      225
310
90A3622203D2031272D302200000000000006100000000000000284000
  0
ACAD_PROXY_OBJECT
  5
90
102
{ACAD_REACTORS
330
6F
102
}
330
6F
100
AcDbZombieObject
 90
      499
 91
      502
 93
      249
310
90D31272D3022203D2031272D30220000000000000A100000000000000284000
  0
ACAD_PROXY_OBJECT
  5
2F
102
{ACAD_REACTORS
330
2A
102
}
330
2A
100
AcDbZombieObject
 90
      499
 91
      501
 93
      436
310
42CC9915DA5C99599C985B595049028333333333333E3BF0000000000000FB0107901411070040501600405405064090741402480A0340
1001
ACAD
1000
AcDbSavedByObjectVersion
1070
     0
  0
ACAD_PROXY_OBJECT
  5
31
102
{ACAD_REACTORS
330
2A
102
}
330
2A
100
AcDbZombieObject
 90
      499
 91
      501
 93
      500
310
424CD108121A5919195B90640502408333333333333E3BF0000000000000FB01079024090700405020000000000001110200405405064090740C02480A0340
1001
ACAD
1000
AcDbSavedByObjectVersion
1070
     0
  0
ACAD_PROXY_OBJECT
  5
30
102
{ACAD_REACTORS
330
2A
102
}
330
2A
100
AcDbZombieObject
 90
      499
 91
      501
 93
      436
310
42CCD915DA5C99599C985B595059028333333333333E3BF0000000000000FB0107901411070040501600405405064090741402480A0340
1001
ACAD
1000
AcDbSavedByObjectVersion
1070
     0
  0
ACAD_PROXY_OBJECT
  5
32
102
{ACAD_REACTORS
330
2A
102
}
330
2A
100
AcDbZombieObject
 90
      499
 91
      501
 93
      388
310
4150985CDA58D07406404333333333333E3BF0000000000000FB0107A41107004050150841D405064090741402480A0350
1001
ACAD
1000
AcDbSavedByObjectVersion
1070
     0
  0
ACAD_PROXY_OBJECT
  5
36
102
{ACAD_REACTORS
330
2A
102
}
330
2A
100
AcDbZombieObject
 90
      499
 91
      501
 93
      428
310
42109C9A59DA1D195B90C409028333333333333E3BF0000000000000FB010790141107004050150841D405064090741402480A029950
1001
ACAD
1000
AcDbSavedByObjectVersion
1070
     0
  0
ACAD_PROXY_OBJECT
  5
3A
102
{ACAD_REACTORS
330
2A
102
}
330
2A
100
AcDbZombieObject
 90
      499
 91
      501
 93
      452
310
42D0DBDB1BDC90DA185B99D95104090240C333333333333E3BF0000000000000FB0108901411070040501508421405064090741402480A0350
1001
ACAD
1000
AcDbSavedByObjectVersion
1070
     0
  0
ACAD_PROXY_OBJECT
  5
34
102
{ACAD_REACTORS
330
2A
102
}
330
2A
100
AcDbZombieObject
 90
      499
 91
      501
 93
      500
310
4290DBDB98D95C1D1D585B10940D028333333333333E3BF0000000000000FB0107902409070040501000000000000111010841D405064090740C02480A0340
1001
ACAD
1000
AcDbSavedByObjectVersion
1070
     0
  0
ACAD_PROXY_OBJECT
  5
35
102
{ACAD_REACTORS
330
2A
102
}
330
2A
100
AcDbZombieObject
 90
      499
 91
      501
 93
      412
310
40D11A5B50B409028333333333333E3BF0000000000000FB010790141107004050150841D405064090741402480A02677FFFFFD0
1001
ACAD
1000
AcDbSavedByObjectVersion
1070
     0
  0
ACAD_PROXY_OBJECT
  5
39
102
{ACAD_REACTORS
330
2A
102
}
330
2A
100
AcDbZombieObject
 90
      499
 91
      501
 93
      444
310
42D19858D95C185D1D195C9B90F409028333333333333E3BF0000000000000FB010790141107004050150841D405064090741402480A0350
1001
ACAD
1000
AcDbSavedByObjectVersion
1070
     0
  0
ACAD_PROXY_OBJECT
  5
2B
102
{ACAD_REACTORS
330
2A
102
}
330
2A
100
AcDbZombieObject
 90
      499
 91
      501
 93
      388
310
41119B185D240901404333333333333E3BF0000000000000F9010740A41107004050150841D405064090741402480A1B50
1001
ACAD
1000
AcDbSavedByObjectVersion
1070
     0
  0
ACAD_PROXY_OBJECT
  5
2C
102
{ACAD_REACTORS
330
2A
102
}
330
2A
100
AcDbZombieObject
 90
      499
 91
      501
 93
      476
310
43519B185D15DA5D1A115919D95CD0140901404333333333333E3BF0000000000000F9010740901411070040501600405405064090741402480A1B50
1001
ACAD
1000
AcDbSavedByObjectVersion
1070
     0
  0
ACAD_PROXY_OBJECT
  5
2D
102
{ACAD_REACTORS
330
2A
102
}
330
2A
100
AcDbZombieObject
 90
      499
 91
      501
 93
      412
310
41D1DBDD5C985D5910240902404333333333333E3BF0000000000000F9010740A411070040501641D405064090741402480A1B50
1001
ACAD
1000
AcDbSavedByObjectVersion
1070
     0
  0
ACAD_PROXY_OBJECT
  5
2E
102
{ACAD_REACTORS
330
2A
102
}
330
2A
100
AcDbZombieObject
 90
      499
 91
      501
 93
      500
310
4411DBDD5C985D5915DA5D1A115919D95CD0340902404333333333333E3BF0000000000000F9010740901411070040501600405405064090741402480A1B50
1001
ACAD
1000
AcDbSavedByObjectVersion
1070
     0
  0
ACAD_PROXY_OBJECT
  5
38
102
{ACAD_REACTORS
330
2A
102
}
330
2A
100
AcDbZombieObject
 90
      499
 91
      501
 93
      444
310
42D31A5B995C185D1D195C9B90E409028333333333333E3BF0000000000000FB010790141107004050750841D405064090741402483A0350
1001
ACAD
1000
AcDbSavedByObjectVersion
1070
     0
  0
ACAD_PROXY_OBJECT
  5
33
102
{ACAD_REACTORS
330
2A
102
}
330
2A
100
AcDbZombieObject
 90
      499
 91
      501
 93
      420
310
425499585B1A5CDD1A58D08409028333333333333E3BF0000000000000FB01079019070040501508421405064090741402480A1B40
1001
ACAD
1000
AcDbSavedByObjectVersion
1070
     0
  0
ACAD_PROXY_OBJECT
  5
37
102
{ACAD_REACTORS
330
2A
102
}
330
2A
100
AcDbZombieObject
 90
      499
 91
      501
 93
      412
310
41D51A1A58DAD95B90D409028333333333333E3BF0000000000000FB010790141107004050150C41D405064090741402480A0350
1001
ACAD
1000
AcDbSavedByObjectVersion
1070
     0
  0
DICTIONARYVAR
  5
29A
102
{ACAD_REACTORS
330
297
102
}
330
297
100
DictionaryVariables
280
     0
  1
1:1
  0
DICTIONARYVAR
  5
29B
102
{ACAD_REACTORS
330
297
102
}
330
297
100
DictionaryVariables
280
     0
  1
2
  0
DICTIONARYVAR
  5
29C
102
{ACAD_REACTORS
330
297
102
}
330
297
100
DictionaryVariables
280
     0
  1
1
  0
ENDSEC
  0
EOF
