  0
SECTION
  2
HEADER
  9
$ACADVER
  1
AC1012
  9
$DWGCODEPAGE
  3
ansi_1252
  9
$INSBASE
 10
0.0
 20
0.0
 30
0.0
  9
$EXTMIN
 10
0.0
 20
0.0
 30
0.0
  9
$EXTMAX
 10
11.0
 20
8.5
 30
0.0
  9
$LIMMIN
 10
0.0
 20
0.0
  9
$LIMMAX
 10
11.0
 20
8.5
  9
$ORTHOMODE
 70
     0
  9
$REGENMODE
 70
     1
  9
$FILLMODE
 70
     1
  9
$QTEXTMODE
 70
     0
  9
$MIRRTEXT
 70
     1
  9
$DRAGMODE
 70
     2
  9
$LTSCALE
 40
1.0
  9
$OSMODE
 70
    37
  9
$ATTMODE
 70
     1
  9
$TEXTSIZE
 40
0.125
  9
$TRACEWID
 40
0.05
  9
$TEXTSTYLE
  7
STANDARD
  9
$CLAYER
  8
0
  9
$CELTYPE
  6
BYLAYER
  9
$CECOLOR
 62
   256
  9
$CELTSCALE
 40
1.0
  9
$DELOBJ
 70
     1
  9
$DISPSILH
 70
     0
  9
$DIMSCALE
 40
1.0
  9
$DIMASZ
 40
0.13
  9
$DIMEXO
 40
0.05
  9
$DIMDLI
 40
0.38
  9
$DIMRND
 40
0.0
  9
$DIMDLE
 40
0.0
  9
$DIMEXE
 40
0.125
  9
$DIMTP
 40
0.0
  9
$DIMTM
 40
0.0
  9
$DIMTXT
 40
0.125
  9
$DIMCEN
 40
0.09
  9
$DIMTSZ
 40
0.0
  9
$DIMTOL
 70
     0
  9
$DIMLIM
 70
     0
  9
$DIMTIH
 70
     1
  9
$DIMTOH
 70
     1
  9
$DIMSE1
 70
     0
  9
$DIMSE2
 70
     0
  9
$DIMTAD
 70
     0
  9
$DIMZIN
 70
     0
  9
$DIMBLK
  1

  9
$DIMASO
 70
     1
  9
$DIMSHO
 70
     1
  9
$DIMPOST
  1

  9
$DIMAPOST
  1

  9
$DIMALT
 70
     0
  9
$DIMALTD
 70
     2
  9
$DIMALTF
 40
25.4
  9
$DIMLFAC
 40
1.0
  9
$DIMTOFL
 70
     0
  9
$DIMTVP
 40
0.0
  9
$DIMTIX
 70
     0
  9
$DIMSOXD
 70
     0
  9
$DIMSAH
 70
     0
  9
$DIMBLK1
  1

  9
$DIMBLK2
  1

  9
$DIMSTYLE
  2
STANDARD
  9
$DIMCLRD
 70
     0
  9
$DIMCLRE
 70
     0
  9
$DIMCLRT
 70
     0
  9
$DIMTFAC
 40
1.0
  9
$DIMGAP
 40
0.06
  9
$DIMJUST
 70
     0
  9
$DIMSD1
 70
     0
  9
$DIMSD2
 70
     0
  9
$DIMTOLJ
 70
     1
  9
$DIMTZIN
 70
     0
  9
$DIMALTZ
 70
     0
  9
$DIMALTTZ
 70
     0
  9
$DIMFIT
 70
     3
  9
$DIMUPT
 70
     0
  9
$DIMUNIT
 70
     2
  9
$DIMDEC
 70
     3
  9
$DIMTDEC
 70
     3
  9
$DIMALTU
 70
     2
  9
$DIMALTTD
 70
     2
  9
$DIMTXSTY
  7
STANDARD
  9
$DIMAUNIT
 70
     0
  9
$LUNITS
 70
     2
  9
$LUPREC
 70
     2
  9
$SKETCHINC
 40
0.1
  9
$FILLETRAD
 40
0.5
  9
$AUNITS
 70
     0
  9
$AUPREC
 70
     2
  9
$MENU
  1
.
  9
$ELEVATION
 40
0.0
  9
$PELEVATION
 40
0.0
  9
$THICKNESS
 40
0.0
  9
$LIMCHECK
 70
     0
  9
$CHAMFERA
 40
0.5
  9
$CHAMFERB
 40
0.5
  9
$CHAMFERC
 40
1.0
  9
$CHAMFERD
 40
0.0
  9
$SKPOLY
 70
     0
  9
$TDCREATE
 40
2455784.019550926
  9
$TDUPDATE
 40
2455784.019550938
  9
$TDINDWG
 40
0.0000000116
  9
$TDUSRTIMER
 40
0.0000000116
  9
$USRTIMER
 70
     1
  9
$ANGBASE
 50
0.0
  9
$ANGDIR
 70
     0
  9
$PDMODE
 70
     0
  9
$PDSIZE
 40
-1.0
  9
$PLINEWID
 40
0.0
  9
$COORDS
 70
     1
  9
$SPLFRAME
 70
     0
  9
$SPLINETYPE
 70
     6
  9
$SPLINESEGS
 70
     8
  9
$ATTDIA
 70
     0
  9
$ATTREQ
 70
     1
  9
$HANDLING
 70
     1
  9
$HANDSEED
  5
66C
  9
$SURFTAB1
 70
     6
  9
$SURFTAB2
 70
     6
  9
$SURFTYPE
 70
     6
  9
$SURFU
 70
     6
  9
$SURFV
 70
     6
  9
$UCSNAME
  2

  9
$UCSORG
 10
0.0
 20
0.0
 30
0.0
  9
$UCSXDIR
 10
1.0
 20
0.0
 30
0.0
  9
$UCSYDIR
 10
0.0
 20
1.0
 30
0.0
  9
$PUCSNAME
  2

  9
$PUCSORG
 10
0.0
 20
0.0
 30
0.0
  9
$PUCSXDIR
 10
1.0
 20
0.0
 30
0.0
  9
$PUCSYDIR
 10
0.0
 20
1.0
 30
0.0
  9
$USERI1
 70
     0
  9
$USERI2
 70
     0
  9
$USERI3
 70
     0
  9
$USERI4
 70
     0
  9
$USERI5
 70
     0
  9
$USERR1
 40
0.0
  9
$USERR2
 40
0.0
  9
$USERR3
 40
0.0
  9
$USERR4
 40
0.0
  9
$USERR5
 40
0.0
  9
$WORLDVIEW
 70
     1
  9
$SHADEDGE
 70
     3
  9
$SHADEDIF
 70
    70
  9
$TILEMODE
 70
     1
  9
$MAXACTVP
 70
    64
  9
$PINSBASE
 10
0.0
 20
0.0
 30
0.0
  9
$PLIMCHECK
 70
     0
  9
$PEXTMIN
 10
1.0000000000E+20
 20
1.0000000000E+20
 30
1.0000000000E+20
  9
$PEXTMAX
 10
-1.0000000000E+20
 20
-1.0000000000E+20
 30
-1.0000000000E+20
  9
$PLIMMIN
 10
0.0
 20
0.0
  9
$PLIMMAX
 10
12.0
 20
9.0
  9
$UNITMODE
 70
     0
  9
$VISRETAIN
 70
     1
  9
$PLINEGEN
 70
     0
  9
$PSLTSCALE
 70
     1
  9
$TREEDEPTH
 70
  3020
  9
$PICKSTYLE
 70
     1
  9
$CMLSTYLE
  2
STANDARD
  9
$CMLJUST
 70
     0
  9
$CMLSCALE
 40
1.0
  9
$SAVEIMAGES
 70
     1
  0
ENDSEC
  0
SECTION
  2
CLASSES
  0
CLASS
  1
ACDBDICTIONARYWDFLT
  2
AcDbDictionaryWithDefault
  3
ObjectDBX Classes
 90
    32768
280
     0
281
     0
  0
CLASS
  1
VISUALSTYLE
  2
AcDbVisualStyle
  3
ObjectDBX Classes
 90
     4095
280
     0
281
     0
  0
CLASS
  1
SCALE
  2
AcDbScale
  3
ObjectDBX Classes
 90
     1153
280
     0
281
     0
  0
CLASS
  1
DICTIONARYVAR
  2
AcDbDictionaryVar
  3
ObjectDBX Classes
 90
        0
280
     0
281
     0
  0
CLASS
  1
XRECORD
  2
AcDbXrecord
  3
AutoCAD 2000
 90
    32768
280
     0
281
     0
  0
CLASS
  1
LWPOLYLINE
  2
AcDbPolyline
  3
AutoCAD 2000
 90
    32768
280
     0
281
     1
  0
CLASS
  1
HATCH
  2
AcDbHatch
  3
AutoCAD 2000
 90
    32768
280
     0
281
     1
  0
CLASS
  1
ACDBPLACEHOLDER
  2
AcDbPlaceHolder
  3
ObjectDBX Classes
 90
        0
280
     0
281
     0
  0
CLASS
  1
LAYOUT
  2
AcDbLayout
  3
ObjectDBX Classes
 90
        0
280
     0
281
     0
  0
ENDSEC
  0
SECTION
  2
TABLES
  0
TABLE
  2
VPORT
  5
8
330
0
100
AcDbSymbolTable
 70
     1
  0
VPORT
  5
29
330
8
100
AcDbSymbolTableRecord
100
AcDbViewportTableRecord
  2
*ACTIVE
 70
     0
 10
0.0
 20
0.0
 11
1.0
 21
1.0
 12
5.5
 22
4.25
 13
0.0
 23
0.0
 14
0.5
 24
0.5
 15
0.5
 25
0.5
 16
0.0
 26
0.0
 36
1.0
 17
0.0
 27
0.0
 37
0.0
 40
8.5
 41
1.2941176471
 42
50.0
 43
0.0
 44
0.0
 50
0.0
 51
0.0
 71
     0
 72
  2000
 73
     1
 74
     3
 75
     0
 76
     0
 77
     0
 78
     0
  0
ENDTAB
  0
TABLE
  2
LTYPE
  5
5
330
0
100
AcDbSymbolTable
 70
     6
  0
LTYPE
  5
14
330
5
100
AcDbSymbolTableRecord
100
AcDbLinetypeTableRecord
  2
BYBLOCK
 70
     0
  3

 72
    65
 73
     0
 40
0.0
  0
LTYPE
  5
15
330
5
100
AcDbSymbolTableRecord
100
AcDbLinetypeTableRecord
  2
BYLAYER
 70
     0
  3

 72
    65
 73
     0
 40
0.0
  0
LTYPE
  5
16
330
5
100
AcDbSymbolTableRecord
100
AcDbLinetypeTableRecord
  2
CONTINUOUS
 70
     0
  3
Solid line
 72
    65
 73
     0
 40
0.0
  0
LTYPE
  5
3B
330
5
100
AcDbSymbolTableRecord
100
AcDbLinetypeTableRecord
  2
HIDDEN
 70
     0
  3
Hidden __ __ __ __ __ __ __ __ __ __ __ __ __ __
 72
    65
 73
     2
 40
0.075
 49
0.05
 74
     0
 49
-0.025
 74
     0
  0
LTYPE
  5
3C
330
5
100
AcDbSymbolTableRecord
100
AcDbLinetypeTableRecord
  2
PHANTOM
 70
     0
  3
Phantom ______  __  __  ______  __  __  ______
 72
    65
 73
     6
 40
0.5
 49
0.25
 74
     0
 49
-0.05
 74
     0
 49
0.05
 74
     0
 49
-0.05
 74
     0
 49
0.05
 74
     0
 49
-0.05
 74
     0
  0
LTYPE
  5
3D
330
5
100
AcDbSymbolTableRecord
100
AcDbLinetypeTableRecord
  2
CENTER
 70
     0
  3
Center ____ _ ____ _ ____ _ ____ _ ____ _ ____
 72
    65
 73
     4
 40
0.4
 49
0.25
 74
     0
 49
-0.05
 74
     0
 49
0.05
 74
     0
 49
-0.05
 74
     0
  0
LTYPE
  5
3E
330
5
100
AcDbSymbolTableRecord
100
AcDbLinetypeTableRecord
  2
CENTERX2
 70
     0
  3
Center (2x) ________  __  ________  __  _____
 72
    65
 73
     4
 40
0.8
 49
0.5
 74
     0
 49
-0.1
 74
     0
 49
0.1
 74
     0
 49
-0.1
 74
     0
  0
LTYPE
  5
3F
330
5
100
AcDbSymbolTableRecord
100
AcDbLinetypeTableRecord
  2
DOT2
 70
     0
  3
Dot (.5x) ........................................
 72
    65
 73
     2
 40
0.025
 49
0.0
 74
     0
 49
-0.025
 74
     0
  0
ENDTAB
  0
TABLE
  2
LAYER
  5
2
330
0
100
AcDbSymbolTable
 70
     2
  0
LAYER
  5
10
330
2
100
AcDbSymbolTableRecord
100
AcDbLayerTableRecord
  2
0
 70
     0
 62
     7
  6
CONTINUOUS
  0
LAYER
  5
40
330
2
100
AcDbSymbolTableRecord
100
AcDbLayerTableRecord
  2
FORMAT
 70
     0
 62
     7
  6
CONTINUOUS
  0
ENDTAB
  0
TABLE
  2
STYLE
  5
3
330
0
100
AcDbSymbolTable
 70
     4
  0
STYLE
  5
11
330
3
100
AcDbSymbolTableRecord
100
AcDbTextStyleTableRecord
  2
STANDARD
 70
     0
 40
0.0
 41
1.0
 50
0.0
 71
     0
 42
0.2
  3
txt
  4

  0
STYLE
  5
6E
330
3
100
AcDbSymbolTableRecord
100
AcDbTextStyleTableRecord
  2
SLDTEXTSTYLE0
 70
     0
 40
0.0
 41
0.75
 50
0.0
 71
     0
 42
0.2
  3
TXT
  4

  0
STYLE
  5
93
330
3
100
AcDbSymbolTableRecord
100
AcDbTextStyleTableRecord
  2
SLDTEXTSTYLE1
 70
     0
 40
0.0
 41
0.6875
 50
0.0
 71
     0
 42
0.2
  3
TXT
  4

  0
STYLE
  5
99
330
3
100
AcDbSymbolTableRecord
100
AcDbTextStyleTableRecord
  2
SLDTEXTSTYLE2
 70
     0
 40
0.0
 41
0.6944444444
 50
0.0
 71
     0
 42
0.2
  3
TXT
  4

  0
ENDTAB
  0
TABLE
  2
VIEW
  5
6
330
0
100
AcDbSymbolTable
 70
     0
  0
ENDTAB
  0
TABLE
  2
UCS
  5
7
330
0
100
AcDbSymbolTable
 70
     0
  0
ENDTAB
  0
TABLE
  2
APPID
  5
9
330
0
100
AcDbSymbolTable
 70
     1
  0
APPID
  5
12
330
9
100
AcDbSymbolTableRecord
100
AcDbRegAppTableRecord
  2
ACAD
 70
     0
  0
ENDTAB
  0
TABLE
  2
DIMSTYLE
  5
A
330
0
100
AcDbSymbolTable
 70
     1
  0
DIMSTYLE
105
27
330
A
100
AcDbSymbolTableRecord
100
AcDbDimStyleTableRecord
  2
STANDARD
 70
     0
  3

  4

  5

  6

  7

 40
1.0
 41
0.18
 42
0.0625
 43
0.38
 44
0.18
 45
0.0
 46
0.0
 47
0.0
 48
0.0
140
0.18
141
0.09
142
0.0
143
25.4
144
1.0
145
0.0
146
1.0
147
0.09
 71
     0
 72
     0
 73
     1
 74
     1
 75
     0
 76
     0
 77
     0
 78
     0
170
     0
171
     2
172
     0
173
     0
174
     0
175
     0
176
     0
177
     0
178
     0
270
     2
271
     4
272
     4
273
     2
274
     2
340
11
275
     0
280
     0
281
     0
282
     0
283
     1
284
     0
285
     0
286
     0
287
     3
288
     0
  0
ENDTAB
  0
TABLE
  2
BLOCK_RECORD
  5
1
330
0
100
AcDbSymbolTable
 70
     4
  0
BLOCK_RECORD
  5
1F
330
1
100
AcDbSymbolTableRecord
100
AcDbBlockTableRecord
  2
*MODEL_SPACE
  0
BLOCK_RECORD
  5
1B
330
1
100
AcDbSymbolTableRecord
100
AcDbBlockTableRecord
  2
*PAPER_SPACE
  0
BLOCK_RECORD
  5
A8
330
1
100
AcDbSymbolTableRecord
100
AcDbBlockTableRecord
  2
SW_NOTE_0
  0
BLOCK_RECORD
  5
AE
330
1
100
AcDbSymbolTableRecord
100
AcDbBlockTableRecord
  2
SW_NOTE_1
  0
BLOCK_RECORD
  5
C2
330
1
100
AcDbSymbolTableRecord
100
AcDbBlockTableRecord
  2
SW_NOTE_2
  0
ENDTAB
  0
ENDSEC
  0
SECTION
  2
BLOCKS
  0
BLOCK
  5
20
330
1F
100
AcDbEntity
  8
0
100
AcDbBlockBegin
  2
*MODEL_SPACE
 70
     0
 10
0.0
 20
0.0
 30
0.0
  3
*MODEL_SPACE
  1

  0
ENDBLK
  5
21
330
1F
100
AcDbEntity
  8
0
100
AcDbBlockEnd
  0
BLOCK
  5
1C
330
1B
100
AcDbEntity
 67
     1
  8
0
100
AcDbBlockBegin
  2
*PAPER_SPACE
 70
     0
 10
0.0
 20
0.0
 30
0.0
  3
*PAPER_SPACE
  1

  0
ENDBLK
  5
1D
330
1B
100
AcDbEntity
 67
     1
  8
0
100
AcDbBlockEnd
  0
BLOCK
  5
A9
330
A8
100
AcDbEntity
  8
0
100
AcDbBlockBegin
  2
SW_NOTE_0
 70
     0
 10
0.0
 20
0.0
 30
0.0
  3
SW_NOTE_0
  1

  0
MTEXT
  5
AB
330
A8
100
AcDbEntity
  8
0
  6
CONTINUOUS
 62
     0
100
AcDbMText
 10
0.0
 20
0.0773440644
 30
0.0
 40
0.06
 41
0.0
 71
     1
 72
     1
  1
INTERPRET GEOMETRIC
  7
SLDTEXTSTYLE0
  0
MTEXT
  5
AC
330
A8
100
AcDbEntity
  8
0
  6
CONTINUOUS
 62
     0
100
AcDbMText
 10
0.0
 20
-0.0220260102
 30
0.0
 40
0.06
 41
0.0
 71
     1
 72
     1
  1
TOLERANCING PER:
  7
SLDTEXTSTYLE0
  0
ENDBLK
  5
AA
330
A8
100
AcDbEntity
  8
0
100
AcDbBlockEnd
  0
BLOCK
  5
AF
330
AE
100
AcDbEntity
  8
0
100
AcDbBlockBegin
  2
SW_NOTE_1
 70
     0
 10
0.0
 20
0.0
 30
0.0
  3
SW_NOTE_1
  1

  0
MTEXT
  5
B1
330
AE
100
AcDbEntity
  8
0
  6
CONTINUOUS
 62
     0
100
AcDbMText
 10
0.0
 20
0.0837894031
 30
0.0
 40
0.065
 41
0.0
 71
     1
 72
     1
  1
DIMENSIONS ARE IN INCHES
  7
SLDTEXTSTYLE0
  0
MTEXT
  5
B2
330
AE
100
AcDbEntity
  8
0
  6
CONTINUOUS
 62
     0
100
AcDbMText
 10
0.0
 20
-0.0205806729
 30
0.0
 40
0.065
 41
0.0
 71
     1
 72
     1
  1
TOLERANCES:
  7
SLDTEXTSTYLE0
  0
MTEXT
  5
B3
330
AE
100
AcDbEntity
  8
0
  6
CONTINUOUS
 62
     0
100
AcDbMText
 10
0.0
 20
-0.1249507489
 30
0.0
 40
0.065
 41
0.0
 71
     1
 72
     1
  1
FRACTIONAL
  7
SLDTEXTSTYLE0
  0
MTEXT
  5
B4
330
AE
100
AcDbEntity
  8
0
  6
CONTINUOUS
 62
     0
100
AcDbMText
 10
0.5175850875
 20
-0.1249507489
 30
0.0
 40
0.065
 41
0.0
 71
     1
 72
     1
  1
%%p
  7
SLDTEXTSTYLE0
  0
MTEXT
  5
B5
330
AE
100
AcDbEntity
  8
0
  6
CONTINUOUS
 62
     0
100
AcDbMText
 10
0.0
 20
-0.2293208248
 30
0.0
 40
0.065
 41
0.0
 71
     1
 72
     1
  1
ANGULAR: MACH
  7
SLDTEXTSTYLE0
  0
MTEXT
  5
B6
330
AE
100
AcDbEntity
  8
0
  6
CONTINUOUS
 62
     0
100
AcDbMText
 10
0.7233732769
 20
-0.2293208248
 30
0.0
 40
0.065
 41
0.0
 71
     1
 72
     1
  1
%%p
  7
SLDTEXTSTYLE0
  0
MTEXT
  5
B7
330
AE
100
AcDbEntity
  8
0
  6
CONTINUOUS
 62
     0
100
AcDbMText
 10
0.7852857683
 20
-0.2293208248
 30
0.0
 40
0.065
 41
0.0
 71
     1
 72
     1
  1
     BEND 
  7
SLDTEXTSTYLE0
  0
MTEXT
  5
B8
330
AE
100
AcDbEntity
  8
0
  6
CONTINUOUS
 62
     0
100
AcDbMText
 10
1.14784136
 20
-0.2293208248
 30
0.0
 40
0.065
 41
0.0
 71
     1
 72
     1
  1
%%p
  7
SLDTEXTSTYLE0
  0
MTEXT
  5
B9
330
AE
100
AcDbEntity
  8
0
  6
CONTINUOUS
 62
     0
100
AcDbMText
 10
0.0
 20
-0.3336909008
 30
0.0
 40
0.065
 41
0.0
 71
     1
 72
     1
  1
TWO PLACE DECIMAL    
  7
SLDTEXTSTYLE0
  0
MTEXT
  5
BA
330
AE
100
AcDbEntity
  8
0
  6
CONTINUOUS
 62
     0
100
AcDbMText
 10
0.9794349188
 20
-0.3336909008
 30
0.0
 40
0.065
 41
0.0
 71
     1
 72
     1
  1
%%p
  7
SLDTEXTSTYLE0
  0
MTEXT
  5
BB
330
AE
100
AcDbEntity
  8
0
  6
CONTINUOUS
 62
     0
100
AcDbMText
 10
0.0
 20
-0.4380609768
 30
0.0
 40
0.065
 41
0.0
 71
     1
 72
     1
  1
THREE PLACE DECIMAL  
  7
SLDTEXTSTYLE0
  0
MTEXT
  5
BC
330
AE
100
AcDbEntity
  8
0
  6
CONTINUOUS
 62
     0
100
AcDbMText
 10
0.9738038639
 20
-0.4380609768
 30
0.0
 40
0.065
 41
0.0
 71
     1
 72
     1
  1
%%p
  7
SLDTEXTSTYLE0
  0
ENDBLK
  5
B0
330
AE
100
AcDbEntity
  8
0
100
AcDbBlockEnd
  0
BLOCK
  5
C3
330
C2
100
AcDbEntity
  8
0
100
AcDbBlockBegin
  2
SW_NOTE_2
 70
     0
 10
0.0
 20
0.0
 30
0.0
  3
SW_NOTE_2
  1

  0
MTEXT
  5
C5
330
C2
100
AcDbEntity
  8
0
  6
CONTINUOUS
 62
     0
100
AcDbMText
 10
0.0
 20
0.0773440644
 30
0.0
 40
0.06
 41
0.0
 71
     1
 72
     1
  1
THE INFORMATION CONTAINED IN THIS
  7
SLDTEXTSTYLE0
  0
MTEXT
  5
C6
330
C2
100
AcDbEntity
  8
0
  6
CONTINUOUS
 62
     0
100
AcDbMText
 10
0.0
 20
-0.0220260102
 30
0.0
 40
0.06
 41
0.0
 71
     1
 72
     1
  1
DRAWING IS THE SOLE PROPERTY OF
  7
SLDTEXTSTYLE0
  0
MTEXT
  5
C7
330
C2
100
AcDbEntity
  8
0
  6
CONTINUOUS
 62
     0
100
AcDbMText
 10
0.0
 20
-0.1213960848
 30
0.0
 40
0.06
 41
0.0
 71
     1
 72
     1
  1
Candy Controls.  ANY 
  7
SLDTEXTSTYLE0
  0
MTEXT
  5
C8
330
C2
100
AcDbEntity
  8
0
  6
CONTINUOUS
 62
     0
100
AcDbMText
 10
0.0
 20
-0.2207661593
 30
0.0
 40
0.06
 41
0.0
 71
     1
 72
     1
  1
REPRODUCTION IN PART OR AS A WHOLE
  7
SLDTEXTSTYLE0
  0
MTEXT
  5
C9
330
C2
100
AcDbEntity
  8
0
  6
CONTINUOUS
 62
     0
100
AcDbMText
 10
0.0
 20
-0.3201362339
 30
0.0
 40
0.06
 41
0.0
 71
     1
 72
     1
  1
WITHOUT THE WRITTEN PERMISSION OF
  7
SLDTEXTSTYLE0
  0
MTEXT
  5
CA
330
C2
100
AcDbEntity
  8
0
  6
CONTINUOUS
 62
     0
100
AcDbMText
 10
0.0
 20
-0.4195063085
 30
0.0
 40
0.06
 41
0.0
 71
     1
 72
     1
  1
Candy Controls IS 
  7
SLDTEXTSTYLE0
  0
MTEXT
  5
CB
330
C2
100
AcDbEntity
  8
0
  6
CONTINUOUS
 62
     0
100
AcDbMText
 10
0.0
 20
-0.518876383
 30
0.0
 40
0.06
 41
0.0
 71
     1
 72
     1
  1
PROHIBITED.
  7
SLDTEXTSTYLE0
  0
ENDBLK
  5
C4
330
C2
100
AcDbEntity
  8
0
100
AcDbBlockEnd
  0
ENDSEC
  0
SECTION
  2
ENTITIES
  0
LINE
  5
41
330
1F
100
AcDbEntity
  8
0
  6
CONTINUOUS
 62
     7
100
AcDbLine
 10
0.329927
 20
8.1920731707
 30
0.0
 11
10.629927
 21
8.1920731707
 31
0.0
  0
LINE
  5
42
330
1F
100
AcDbEntity
  8
0
  6
CONTINUOUS
 62
     7
100
AcDbLine
 10
0.329927
 20
8.1920731707
 30
0.0
 11
0.329927
 21
0.3920731707
 31
0.0
  0
LINE
  5
43
330
1F
100
AcDbEntity
  8
0
  6
CONTINUOUS
 62
     7
100
AcDbLine
 10
10.629927
 20
0.3920731707
 30
0.0
 11
0.329927
 21
0.3920731707
 31
0.0
  0
LINE
  5
44
330
1F
100
AcDbEntity
  8
0
  6
CONTINUOUS
 62
     7
100
AcDbLine
 10
10.629927
 20
0.3920731707
 30
0.0
 11
10.629927
 21
8.1920731707
 31
0.0
  0
LINE
  5
45
330
1F
100
AcDbEntity
  8
0
  6
CONTINUOUS
 62
     7
100
AcDbLine
 10
4.7981841288
 20
0.3920731707
 30
0.0
 11
4.7981841288
 21
2.3564211366
 31
0.0
  0
LINE
  5
46
330
1F
100
AcDbEntity
  8
0
  6
CONTINUOUS
 62
     7
100
AcDbLine
 10
2.8210345579
 20
2.3564211366
 30
0.0
 11
10.629927
 21
2.3564211366
 31
0.0
  0
LINE
  5
47
330
1F
100
AcDbEntity
  8
0
  6
CONTINUOUS
 62
     7
100
AcDbLine
 10
6.1796352514
 20
2.3564211366
 30
0.0
 11
6.1796352514
 21
0.3920731707
 31
0.0
  0
LINE
  5
48
330
1F
100
AcDbEntity
  8
0
  6
CONTINUOUS
 62
     7
100
AcDbLine
 10
7.8712070044
 20
2.3564211366
 30
0.0
 11
7.8712070044
 21
0.3920731707
 31
0.0
  0
LINE
  5
49
330
1F
100
AcDbEntity
  8
0
  6
CONTINUOUS
 62
     7
100
AcDbLine
 10
7.8712070044
 20
0.6049590101
 30
0.0
 11
10.629927
 21
0.6049590101
 31
0.0
  0
LINE
  5
4A
330
1F
100
AcDbEntity
  8
0
  6
CONTINUOUS
 62
     7
100
AcDbLine
 10
7.8712070044
 20
1.1119362457
 30
0.0
 11
10.629927
 21
1.1119362457
 31
0.0
  0
LINE
  5
4B
330
1F
100
AcDbEntity
  8
0
  6
CONTINUOUS
 62
     7
100
AcDbLine
 10
7.8712070044
 20
1.9892703708
 30
0.0
 11
10.629927
 21
1.9892703708
 31
0.0
  0
LINE
  5
4C
330
1F
100
AcDbEntity
  8
0
  6
CONTINUOUS
 62
     7
100
AcDbLine
 10
8.266751752
 20
1.1119362457
 30
0.0
 11
8.266751752
 21
0.6049590101
 31
0.0
  0
LINE
  5
4D
330
1F
100
AcDbEntity
  8
0
  6
CONTINUOUS
 62
     7
100
AcDbLine
 10
8.6943435176
 20
0.6049590101
 30
0.0
 11
8.6943435176
 21
0.3920731707
 31
0.0
  0
LINE
  5
4E
330
1F
100
AcDbEntity
  8
0
  6
CONTINUOUS
 62
     7
100
AcDbLine
 10
10.0579917045
 20
1.1119362457
 30
0.0
 11
10.0579917045
 21
0.6049590101
 31
0.0
  0
LINE
  5
4F
330
1F
100
AcDbEntity
  8
0
  6
CONTINUOUS
 62
     7
100
AcDbLine
 10
9.6662556631
 20
0.6049590101
 30
0.0
 11
9.6662556631
 21
0.3920731707
 31
0.0
  0
LINE
  5
50
330
1F
100
AcDbEntity
  8
0
  6
CONTINUOUS
 62
     7
100
AcDbLine
 10
2.8210345579
 20
0.5883479999
 30
0.0
 11
6.1796352514
 21
0.5883479999
 31
0.0
  0
LINE
  5
51
330
1F
100
AcDbEntity
  8
0
  6
CONTINUOUS
 62
     7
100
AcDbLine
 10
6.1796352514
 20
1.7939211366
 30
0.0
 11
7.8712070044
 21
1.7939211366
 31
0.0
  0
LINE
  5
52
330
1F
100
AcDbEntity
  8
0
  6
CONTINUOUS
 62
     7
100
AcDbLine
 10
6.1796352514
 20
1.9814211366
 30
0.0
 11
7.8712070044
 21
1.9814211366
 31
0.0
  0
LINE
  5
53
330
1F
100
AcDbEntity
  8
0
  6
CONTINUOUS
 62
     7
100
AcDbLine
 10
6.1796352514
 20
2.1689211366
 30
0.0
 11
7.8712070044
 21
2.1689211366
 31
0.0
  0
LINE
  5
54
330
1F
100
AcDbEntity
  8
0
  6
CONTINUOUS
 62
     7
100
AcDbLine
 10
7.8712070044
 20
1.2314211366
 30
0.0
 11
6.1796352514
 21
1.2314211366
 31
0.0
  0
LINE
  5
55
330
1F
100
AcDbEntity
  8
0
  6
CONTINUOUS
 62
     7
100
AcDbLine
 10
7.3921580388
 20
2.3564211366
 30
0.0
 11
7.3921580388
 21
1.2314211366
 31
0.0
  0
LINE
  5
56
330
1F
100
AcDbEntity
  8
0
  6
CONTINUOUS
 62
     7
100
AcDbLine
 10
6.9236308342
 20
2.3564211366
 30
0.0
 11
6.9236308342
 21
1.2314211366
 31
0.0
  0
LINE
  5
57
330
1F
100
AcDbEntity
  8
0
  6
CONTINUOUS
 62
     7
100
AcDbLine
 10
4.7981841288
 20
0.8557965305
 30
0.0
 11
6.1796352514
 21
0.8557965305
 31
0.0
  0
LINE
  5
58
330
1F
100
AcDbEntity
  8
0
  6
CONTINUOUS
 62
     7
100
AcDbLine
 10
4.7981841288
 20
1.1257965305
 30
0.0
 11
6.1796352514
 21
1.1257965305
 31
0.0
  0
LINE
  5
59
330
1F
100
AcDbEntity
  8
0
  6
CONTINUOUS
 62
     7
100
AcDbLine
 10
2.8210345579
 20
0.3920731707
 30
0.0
 11
2.8210345579
 21
2.3564211366
 31
0.0
  0
LINE
  5
5A
330
1F
100
AcDbEntity
  8
0
  6
CONTINUOUS
 62
     7
100
AcDbLine
 10
2.8210345579
 20
1.1064211366
 30
0.0
 11
4.7981841288
 21
1.1064211366
 31
0.0
  0
LINE
  5
5B
330
1F
100
AcDbEntity
  8
0
  6
CONTINUOUS
 62
     7
100
AcDbLine
 10
2.8210345579
 20
1.3564211366
 30
0.0
 11
4.7981841288
 21
1.3564211366
 31
0.0
  0
LINE
  5
5C
330
1F
100
AcDbEntity
  8
0
  6
CONTINUOUS
 62
     7
100
AcDbLine
 10
2.8210345579
 20
1.6064211366
 30
0.0
 11
4.7981841288
 21
1.6064211366
 31
0.0
  0
LINE
  5
5D
330
1F
100
AcDbEntity
  8
0
  6
CONTINUOUS
 62
     7
100
AcDbLine
 10
2.8210345579
 20
1.8564211366
 30
0.0
 11
4.7981841288
 21
1.8564211366
 31
0.0
  0
LINE
  5
5E
330
1F
100
AcDbEntity
  8
0
  6
CONTINUOUS
 62
     7
100
AcDbLine
 10
3.8190146875
 20
2.3564211366
 30
0.0
 11
3.8190146875
 21
0.5883479999
 31
0.0
  0
LINE
  5
5F
330
1F
100
AcDbEntity
  8
0
  6
CONTINUOUS
 62
     7
100
AcDbLine
 10
6.1796352514
 20
2.2020813496
 30
0.0
 11
4.7981841288
 21
2.2020813496
 31
0.0
  0
LINE
  5
60
330
1F
100
AcDbEntity
  8
0
  6
CONTINUOUS
 62
     7
100
AcDbLine
 10
7.8712070044
 20
1.6064211366
 30
0.0
 11
6.1796352514
 21
1.6064211366
 31
0.0
  0
LINE
  5
61
330
1F
100
AcDbEntity
  8
0
  6
CONTINUOUS
 62
     7
100
AcDbLine
 10
7.8712070044
 20
1.4189211366
 30
0.0
 11
6.1796352514
 21
1.4189211366
 31
0.0
  0
LINE
  5
62
330
1F
100
AcDbEntity
  8
0
  6
CONTINUOUS
 62
     7
100
AcDbLine
 10
2.8210345579
 20
2.1064211366
 30
0.0
 11
4.7981841288
 21
2.1064211366
 31
0.0
  0
LINE
  5
63
330
1F
100
AcDbEntity
  8
0
  6
CONTINUOUS
 62
     7
100
AcDbLine
 10
4.7981841288
 20
1.3957965305
 30
0.0
 11
6.1796352514
 21
1.3957965305
 31
0.0
  0
LINE
  5
64
330
1F
100
AcDbEntity
  8
0
  6
CONTINUOUS
 62
     7
100
AcDbLine
 10
2.8210345579
 20
0.8564211366
 30
0.0
 11
4.7981841288
 21
0.8564211366
 31
0.0
  0
LINE
  5
65
330
1F
100
AcDbEntity
  8
0
  6
CONTINUOUS
 62
     7
100
AcDbLine
 10
1.1838252943
 20
0.3920731707
 30
0.0
 11
1.1838252943
 21
1.3064211366
 31
0.0
  0
LINE
  5
66
330
1F
100
AcDbEntity
  8
0
  6
CONTINUOUS
 62
     7
100
AcDbLine
 10
2.8210345579
 20
1.3064211366
 30
0.0
 11
1.1838252943
 21
1.3064211366
 31
0.0
  0
LINE
  5
67
330
1F
100
AcDbEntity
  8
0
  6
CONTINUOUS
 62
     7
100
AcDbLine
 10
8.660927
 20
0.3920731707
 30
0.0
 11
8.660927
 21
0.3072739649
 31
0.0
  0
LINE
  5
68
330
1F
100
AcDbEntity
  8
0
  6
CONTINUOUS
 62
     7
100
AcDbLine
 10
6.692177
 20
0.3920731707
 30
0.0
 11
6.692177
 21
0.3072739649
 31
0.0
  0
LINE
  5
69
330
1F
100
AcDbEntity
  8
0
  6
CONTINUOUS
 62
     7
100
AcDbLine
 10
4.723427
 20
0.3920731707
 30
0.0
 11
4.723427
 21
0.3072739649
 31
0.0
  0
LINE
  5
6A
330
1F
100
AcDbEntity
  8
0
  6
CONTINUOUS
 62
     7
100
AcDbLine
 10
2.754677
 20
0.3920731707
 30
0.0
 11
2.754677
 21
0.3072739649
 31
0.0
  0
LINE
  5
6B
330
1F
100
AcDbEntity
  8
0
  6
CONTINUOUS
 62
     7
100
AcDbLine
 10
2.754677
 20
0.3920731707
 30
0.0
 11
2.7672319738
 21
0.3575
 31
0.0
  0
LINE
  5
6C
330
1F
100
AcDbEntity
  8
0
  6
CONTINUOUS
 62
     7
100
AcDbLine
 10
2.7672319738
 20
0.3575
 30
0.0
 11
2.7414258825
 21
0.3575
 31
0.0
  0
LINE
  5
6D
330
1F
100
AcDbEntity
  8
0
  6
CONTINUOUS
 62
     7
100
AcDbLine
 10
2.7414258825
 20
0.3575
 30
0.0
 11
2.754677
 21
0.3920731707
 31
0.0
  0
MTEXT
  5
91
330
1F
100
AcDbEntity
  8
0
  6
CONTINUOUS
 62
     7
100
AcDbMText
 10
4.9775846961
 20
0.5178452352
 30
0.0
 40
0.0625
 41
0.0
 71
     1
 72
     1
  1
DO NOT SCALE DRAWING
  7
SLDTEXTSTYLE0
  0
MTEXT
  5
92
330
1F
100
AcDbEntity
  8
0
  6
CONTINUOUS
 62
     7
100
AcDbMText
 10
8.5722624217
 20
0.9417064595
 30
0.0
 40
0.125
 41
0.0
 71
     1
 72
     1
  1
CL4-25_CLAMP
  7
SLDTEXTSTYLE0
  0
MTEXT
  5
94
330
1F
100
AcDbEntity
  8
0
  6
CONTINUOUS
 62
     7
100
AcDbMText
 10
9.7571278483
 20
0.5524239532
 30
0.0
 40
0.1
 41
0.0
 71
     1
 72
     1
  1
SHEET 1 OF 1
  7
SLDTEXTSTYLE1
  0
MTEXT
  5
95
330
1F
100
AcDbEntity
  8
0
  6
CONTINUOUS
 62
     7
100
AcDbMText
 10
4.8448077858
 20
2.3132954224
 30
0.0
 40
0.07
 41
0.0
 71
     1
 72
     1
  1
UNLESS OTHERWISE SPECIFIED:
  7
SLDTEXTSTYLE0
  0
MTEXT
  5
96
330
1F
100
AcDbEntity
  8
0
  6
CONTINUOUS
 62
     7
100
AcDbMText
 10
7.9586139647
 20
0.5520987879
 30
0.0
 40
0.1
 41
0.0
 71
     1
 72
     1
  1
SCALE: 1:1
  7
SLDTEXTSTYLE0
  0
MTEXT
  5
97
330
1F
100
AcDbEntity
  8
0
  6
CONTINUOUS
 62
     7
100
AcDbMText
 10
8.7023691647
 20
0.5486763345
 30
0.0
 40
0.1
 41
0.0
 71
     1
 72
     1
  1
WEIGHT: 
  7
SLDTEXTSTYLE0
  0
MTEXT
  5
98
330
1F
100
AcDbEntity
  8
0
  6
CONTINUOUS
 62
     7
100
AcDbMText
 10
10.2277580983
 20
1.081966299
 30
0.0
 40
0.1
 41
0.0
 71
     1
 72
     1
  1
REV
  7
SLDTEXTSTYLE0
  0
MTEXT
  5
9A
330
1F
100
AcDbEntity
  8
0
  6
CONTINUOUS
 62
     7
100
AcDbMText
 10
8.2984570898
 20
1.0858725293
 30
0.0
 40
0.1
 41
0.0
 71
     1
 72
     1
  1
DWG.  NO.
  7
SLDTEXTSTYLE2
  0
MTEXT
  5
9B
330
1F
100
AcDbEntity
  8
0
  6
CONTINUOUS
 62
     7
100
AcDbMText
 10
7.9598482632
 20
0.9442140768
 30
0.0
 40
0.25
 41
0.0
 71
     1
 72
     1
  1
A
  7
SLDTEXTSTYLE0
  0
MTEXT
  5
9C
330
1F
100
AcDbEntity
  8
0
  6
CONTINUOUS
 62
     7
100
AcDbMText
 10
7.9519581822
 20
1.0872713483
 30
0.0
 40
0.1
 41
0.0
 71
     1
 72
     1
  1
SIZE
  7
SLDTEXTSTYLE0
  0
MTEXT
  5
9D
330
1F
100
AcDbEntity
  8
0
  6
CONTINUOUS
 62
     7
100
AcDbMText
 10
7.9170704177
 20
1.9547881128
 30
0.0
 40
0.1
 41
0.0
 71
     1
 72
     1
  1
TITLE:
  7
SLDTEXTSTYLE0
  0
MTEXT
  5
9E
330
1F
100
AcDbEntity
  8
0
  6
CONTINUOUS
 62
     7
100
AcDbMText
 10
7.0363774929
 20
2.2906161274
 30
0.0
 40
0.065
 41
0.0
 71
     1
 72
     1
  1
NAME
  7
SLDTEXTSTYLE0
  0
MTEXT
  5
9F
330
1F
100
AcDbEntity
  8
0
  6
CONTINUOUS
 62
     7
100
AcDbMText
 10
7.5281510634
 20
2.2888799118
 30
0.0
 40
0.065
 41
0.0
 71
     1
 72
     1
  1
DATE
  7
SLDTEXTSTYLE0
  0
MTEXT
  5
A0
330
1F
100
AcDbEntity
  8
0
  6
CONTINUOUS
 62
     7
100
AcDbMText
 10
6.2277147029
 20
1.1876913145
 30
0.0
 40
0.065
 41
0.0
 71
     1
 72
     1
  1
COMMENTS:
  7
SLDTEXTSTYLE0
  0
MTEXT
  5
A1
330
1F
100
AcDbEntity
  8
0
  6
CONTINUOUS
 62
     7
100
AcDbMText
 10
6.2268411461
 20
1.3536101679
 30
0.0
 40
0.065
 41
0.0
 71
     1
 72
     1
  1
Q.A.
  7
SLDTEXTSTYLE0
  0
MTEXT
  5
A2
330
1F
100
AcDbEntity
  8
0
  6
CONTINUOUS
 62
     7
100
AcDbMText
 10
6.2284654509
 20
1.5395328424
 30
0.0
 40
0.065
 41
0.0
 71
     1
 72
     1
  1
MFG APPR.
  7
SLDTEXTSTYLE0
  0
MTEXT
  5
A3
330
1F
100
AcDbEntity
  8
0
  6
CONTINUOUS
 62
     7
100
AcDbMText
 10
6.2235171344
 20
1.7267501785
 30
0.0
 40
0.065
 41
0.0
 71
     1
 72
     1
  1
ENG APPR.
  7
SLDTEXTSTYLE0
  0
MTEXT
  5
A4
330
1F
100
AcDbEntity
  8
0
  6
CONTINUOUS
 62
     7
100
AcDbMText
 10
6.2264103951
 20
1.9092699088
 30
0.0
 40
0.065
 41
0.0
 71
     1
 72
     1
  1
CHECKED
  7
SLDTEXTSTYLE0
  0
MTEXT
  5
A5
330
1F
100
AcDbEntity
  8
0
  6
CONTINUOUS
 62
     7
100
AcDbMText
 10
6.2242794356
 20
2.1016301232
 30
0.0
 40
0.065
 41
0.0
 71
     1
 72
     1
  1
DRAWN
  7
SLDTEXTSTYLE0
  0
MTEXT
  5
A6
330
1F
100
AcDbEntity
  8
0
  6
CONTINUOUS
 62
     7
100
AcDbMText
 10
4.8208600979
 20
0.834523235
 30
0.0
 40
0.06
 41
0.0
 71
     1
 72
     1
  1
FINISH
  7
SLDTEXTSTYLE0
  0
MTEXT
  5
A7
330
1F
100
AcDbEntity
  8
0
  6
CONTINUOUS
 62
     7
100
AcDbMText
 10
4.8181240648
 20
1.1028217587
 30
0.0
 40
0.06
 41
0.0
 71
     1
 72
     1
  1
MATERIAL
  7
SLDTEXTSTYLE0
  0
INSERT
  5
AD
330
1F
100
AcDbEntity
  8
0
  6
CONTINUOUS
 62
     7
100
AcDbBlockReference
  2
SW_NOTE_0
 10
4.8231926633
 20
1.2646542947
 30
0.0
  0
INSERT
  5
BD
330
1F
100
AcDbEntity
  8
0
  6
CONTINUOUS
 62
     7
100
AcDbBlockReference
  2
SW_NOTE_1
 10
4.8353339353
 20
2.0049168724
 30
0.0
  0
MTEXT
  5
BE
330
1F
100
AcDbEntity
  8
0
  6
CONTINUOUS
 62
     7
100
AcDbMText
 10
3.5531400086
 20
0.5200091997
 30
0.0
 40
0.0625
 41
0.0
 71
     1
 72
     1
  1
APPLICATION
  7
SLDTEXTSTYLE0
  0
MTEXT
  5
BF
330
1F
100
AcDbEntity
  8
0
  6
CONTINUOUS
 62
     7
100
AcDbMText
 10
4.1005607758
 20
0.7502454275
 30
0.0
 40
0.0625
 41
0.0
 71
     1
 72
     1
  1
USED ON
  7
SLDTEXTSTYLE0
  0
MTEXT
  5
C0
330
1F
100
AcDbEntity
  8
0
  6
CONTINUOUS
 62
     7
100
AcDbMText
 10
3.1040019536
 20
0.7492094783
 30
0.0
 40
0.0625
 41
0.0
 71
     1
 72
     1
  1
NEXT ASSY
  7
SLDTEXTSTYLE0
  0
MTEXT
  5
C1
330
1F
100
AcDbEntity
  8
0
  6
CONTINUOUS
 62
     7
100
AcDbMText
 10
1.3712489489
 20
1.2496672684
 30
0.0
 40
0.06
 41
0.0
 71
     1
 72
     1
  1
PROPRIETARY AND CONFIDENTIAL
  7
SLDTEXTSTYLE0
  0
INSERT
  5
CC
330
1F
100
AcDbEntity
  8
0
  6
CONTINUOUS
 62
     7
100
AcDbBlockReference
  2
SW_NOTE_2
 10
1.2226209074
 20
1.0313492921
 30
0.0
  0
MTEXT
  5
CD
330
1F
100
AcDbEntity
  8
0
  6
CONTINUOUS
 62
     7
100
AcDbMText
 10
1.7387909509
 20
0.3105864247
 30
0.0
 40
0.09375
 41
0.0
 71
     1
 72
     1
  1
5
  7
SLDTEXTSTYLE0
  0
MTEXT
  5
CE
330
1F
100
AcDbEntity
  8
0
  6
CONTINUOUS
 62
     7
100
AcDbMText
 10
3.723800327
 20
0.3137237518
 30
0.0
 40
0.09375
 41
0.0
 71
     1
 72
     1
  1
4
  7
SLDTEXTSTYLE0
  0
MTEXT
  5
CF
330
1F
100
AcDbEntity
  8
0
  6
CONTINUOUS
 62
     7
100
AcDbMText
 10
5.6324457277
 20
0.3116191842
 30
0.0
 40
0.09375
 41
0.0
 71
     1
 72
     1
  1
3
  7
SLDTEXTSTYLE0
  0
MTEXT
  5
D0
330
1F
100
AcDbEntity
  8
0
  6
CONTINUOUS
 62
     7
100
AcDbMText
 10
7.6059721724
 20
0.3124391351
 30
0.0
 40
0.09375
 41
0.0
 71
     1
 72
     1
  1
2
  7
SLDTEXTSTYLE0
  0
MTEXT
  5
D1
330
1F
100
AcDbEntity
  8
0
  6
CONTINUOUS
 62
     7
100
AcDbMText
 10
9.6619921328
 20
0.301372012
 30
0.0
 40
0.09375
 41
0.0
 71
     1
 72
     1
  1
1
  7
SLDTEXTSTYLE0
  0
LINE
  5
D2
330
1F
100
AcDbEntity
  8
0
  6
CONTINUOUS
 62
     7
100
AcDbLine
 10
3.7521610378
 20
3.2665523021
 30
0.0
 11
4.0746675994
 21
3.2665523021
 31
0.0
  0
LINE
  5
D3
330
1F
100
AcDbEntity
  8
0
  6
CONTINUOUS
 62
     7
100
AcDbLine
 10
3.556294896
 20
3.2665523021
 30
0.0
 11
3.7324759984
 21
3.2665523021
 31
0.0
  0
LINE
  5
D4
330
1F
100
AcDbEntity
  8
0
  6
CONTINUOUS
 62
     7
100
AcDbLine
 10
3.7324759984
 20
4.2508042706
 30
0.0
 11
3.556294896
 21
4.2508042706
 31
0.0
  0
LINE
  5
D5
330
1F
100
AcDbEntity
  8
0
  6
CONTINUOUS
 62
     7
100
AcDbLine
 10
4.0746675994
 20
4.2508042706
 30
0.0
 11
3.7521610378
 21
4.2508042706
 31
0.0
  0
LINE
  5
D6
330
1F
100
AcDbEntity
  8
0
  6
CONTINUOUS
 62
     7
100
AcDbLine
 10
4.0746675994
 20
3.2665523021
 30
0.0
 11
4.0943526388
 21
3.2862373415
 31
0.0
  0
LINE
  5
D7
330
1F
100
AcDbEntity
  8
0
  6
CONTINUOUS
 62
     7
100
AcDbLine
 10
4.0943526388
 20
4.2311192313
 30
0.0
 11
4.0746675994
 21
4.2508042706
 31
0.0
  0
LINE
  5
D8
330
1F
100
AcDbEntity
  8
0
  6
CONTINUOUS
 62
     7
100
AcDbLine
 10
3.556294896
 20
4.2508042706
 30
0.0
 11
3.5366098567
 21
4.2311192313
 31
0.0
  0
LINE
  5
D9
330
1F
100
AcDbEntity
  8
0
  6
CONTINUOUS
 62
     7
100
AcDbLine
 10
3.5366098567
 20
3.2862373415
 30
0.0
 11
3.556294896
 21
3.2665523021
 31
0.0
  0
LINE
  5
DA
330
1F
100
AcDbEntity
  8
0
  6
CONTINUOUS
 62
     7
100
AcDbLine
 10
3.024798833
 20
3.2665523021
 30
0.0
 11
3.5169248173
 21
3.2665523021
 31
0.0
  0
LINE
  5
DB
330
1F
100
AcDbEntity
  8
0
  6
CONTINUOUS
 62
     7
100
AcDbLine
 10
3.5169248173
 20
4.2508042706
 30
0.0
 11
3.024798833
 21
4.2508042706
 31
0.0
  0
LINE
  5
DC
330
1F
100
AcDbEntity
  8
0
  6
CONTINUOUS
 62
     7
100
AcDbLine
 10
3.024798833
 20
4.2508042706
 30
0.0
 11
3.0051137937
 21
4.2311192313
 31
0.0
  0
LINE
  5
DD
330
1F
100
AcDbEntity
  8
0
  6
CONTINUOUS
 62
     7
100
AcDbLine
 10
3.0051137937
 20
3.2862373415
 30
0.0
 11
3.024798833
 21
3.2665523021
 31
0.0
  0
LINE
  5
DE
330
1F
100
AcDbEntity
  8
0
  6
CONTINUOUS
 62
     7
100
AcDbLine
 10
3.5169248173
 20
3.2665523021
 30
0.0
 11
3.5366098567
 21
3.2862373415
 31
0.0
  0
LINE
  5
DF
330
1F
100
AcDbEntity
  8
0
  6
CONTINUOUS
 62
     7
100
AcDbLine
 10
3.5366098567
 20
4.2311192313
 30
0.0
 11
3.5169248173
 21
4.2508042706
 31
0.0
  0
ARC
  5
E0
330
1F
100
AcDbEntity
  8
0
  6
CONTINUOUS
 62
     7
100
AcDbCircle
 10
3.8463211428
 20
4.1130089951
 30
0.0
 40
0.0098425196850389
100
AcDbArc
 50
90.0
 51
133.5764250649
  0
ARC
  5
E1
330
1F
100
AcDbEntity
  8
0
  6
CONTINUOUS
 62
     7
100
AcDbCircle
 10
4.0431715365
 20
4.1130089951
 30
0.0
 40
0.0098425196850389
100
AcDbArc
 50
49.4336297341
 51
90.0
  0
LINE
  5
E2
330
1F
100
AcDbEntity
  8
0
  6
CONTINUOUS
 62
     7
100
AcDbLine
 10
4.0038014577
 20
3.7488357667
 30
0.0
 11
4.0038014577
 21
3.7685208061
 31
0.0
  0
LINE
  5
E3
330
1F
100
AcDbEntity
  8
0
  6
CONTINUOUS
 62
     7
100
AcDbLine
 10
3.8856912215
 20
3.7685208061
 30
0.0
 11
3.8856912215
 21
3.7488357667
 31
0.0
  0
LINE
  5
E4
330
1F
100
AcDbEntity
  8
0
  6
CONTINUOUS
 62
     7
100
AcDbLine
 10
2.5786046073
 20
4.2508042706
 30
0.0
 11
2.558919568
 21
4.2311192313
 31
0.0
  0
LINE
  5
E5
330
1F
100
AcDbEntity
  8
0
  6
CONTINUOUS
 62
     7
100
AcDbLine
 10
3.0051137937
 20
4.2508042706
 30
0.0
 11
2.5786046073
 21
4.2508042706
 31
0.0
  0
LINE
  5
E6
330
1F
100
AcDbEntity
  8
0
  6
CONTINUOUS
 62
     7
100
AcDbLine
 10
2.9207962084
 20
3.2665523021
 30
0.0
 11
2.9854287543
 21
3.2665523021
 31
0.0
  0
LINE
  5
E7
330
1F
100
AcDbEntity
  8
0
  6
CONTINUOUS
 62
     7
100
AcDbLine
 10
2.9854287543
 20
3.2665523021
 30
0.0
 11
3.0051137937
 21
3.2862373415
 31
0.0
  0
LINE
  5
E8
330
1F
100
AcDbEntity
  8
0
  6
CONTINUOUS
 62
     7
100
AcDbLine
 10
3.6678434525
 20
4.1848718906
 30
0.0
 11
3.6678434525
 21
3.3324846822
 31
0.0
  0
SPLINE
  5
E9
330
1F
100
AcDbEntity
  8
0
  6
CONTINUOUS
 62
     7
100
AcDbSpline
210
0.0
220
0.0
230
1.0
 70
     8
 71
     3
 72
     8
 73
     4
 74
     0
 42
0.00000001
 43
0.00000001
 40
0.0
 40
0.0
 40
0.0
 40
0.0
 40
0.0007668413384707
 40
0.0007668413384707
 40
0.0007668413384707
 40
0.0007668413384707
 10
3.667843452465918
 20
3.332484682167422
 30
0.0
 10
3.661255322582972
 20
3.340091999290171
 30
0.0
 10
3.65469228686778
 20
3.347721144433541
 30
0.0
 10
3.648158413095839
 20
3.355375112208034
 30
0.0
  0
LINE
  5
EA
330
1F
100
AcDbEntity
  8
0
  6
CONTINUOUS
 62
     7
100
AcDbLine
 10
3.6481584131
 20
3.3553751122
 30
0.0
 11
3.6481584131
 21
4.1619814606
 31
0.0
  0
SPLINE
  5
EB
330
1F
100
AcDbEntity
  8
0
  6
CONTINUOUS
 62
     7
100
AcDbSpline
210
0.0
220
0.0
230
1.0
 70
     8
 71
     3
 72
     8
 73
     4
 74
     0
 42
0.00000001
 43
0.00000001
 40
0.0
 40
0.0
 40
0.0
 40
0.0
 40
0.0007668413384707
 40
0.0007668413384707
 40
0.0007668413384707
 40
0.0007668413384707
 10
3.648158413095839
 20
4.161981460576061
 30
0.0
 10
3.65469228686778
 20
4.169635428350553
 30
0.0
 10
3.661255322582972
 20
4.177264573493923
 30
0.0
 10
3.667843452465918
 20
4.184871890616672
 30
0.0
  0
LINE
  5
EC
330
1F
100
AcDbEntity
  8
0
  6
CONTINUOUS
 62
     7
100
AcDbLine
 10
3.556294896
 20
4.1848718906
 30
0.0
 11
3.6678434525
 21
4.1848718906
 31
0.0
  0
LINE
  5
ED
330
1F
100
AcDbEntity
  8
0
  6
CONTINUOUS
 62
     7
100
AcDbLine
 10
3.556294896
 20
4.2508042706
 30
0.0
 11
3.556294896
 21
4.1848718906
 31
0.0
  0
LINE
  5
EE
330
1F
100
AcDbEntity
  8
0
  6
CONTINUOUS
 62
     7
100
AcDbLine
 10
3.556294896
 20
3.3324846822
 30
0.0
 11
3.556294896
 21
3.2665523021
 31
0.0
  0
LINE
  5
EF
330
1F
100
AcDbEntity
  8
0
  6
CONTINUOUS
 62
     7
100
AcDbLine
 10
3.6678434525
 20
3.3324846822
 30
0.0
 11
3.556294896
 21
3.3324846822
 31
0.0
  0
LINE
  5
F0
330
1F
100
AcDbEntity
  8
0
  6
CONTINUOUS
 62
     7
100
AcDbLine
 10
4.0746675994
 20
3.7685208061
 30
0.0
 11
3.7521610378
 21
3.7685208061
 31
0.0
  0
LINE
  5
F1
330
1F
100
AcDbEntity
  8
0
  6
CONTINUOUS
 62
     7
100
AcDbLine
 10
3.7521610378
 20
4.2508042706
 30
0.0
 11
3.7521610378
 21
3.7685208061
 31
0.0
  0
LINE
  5
F2
330
1F
100
AcDbEntity
  8
0
  6
CONTINUOUS
 62
     7
100
AcDbLine
 10
3.7324759984
 20
4.2346646143
 30
0.0
 11
3.7521610378
 21
4.2346646143
 31
0.0
  0
LINE
  5
F3
330
1F
100
AcDbEntity
  8
0
  6
CONTINUOUS
 62
     7
100
AcDbLine
 10
3.7521610378
 20
3.2826919585
 30
0.0
 11
3.7324759984
 21
3.2826919585
 31
0.0
  0
LINE
  5
F4
330
1F
100
AcDbEntity
  8
0
  6
CONTINUOUS
 62
     7
100
AcDbLine
 10
3.7521610378
 20
3.7488357667
 30
0.0
 11
3.7521610378
 21
3.2665523021
 31
0.0
  0
LINE
  5
F5
330
1F
100
AcDbEntity
  8
0
  6
CONTINUOUS
 62
     7
100
AcDbLine
 10
4.0746675994
 20
3.7488357667
 30
0.0
 11
3.7521610378
 21
3.7488357667
 31
0.0
  0
LINE
  5
F6
330
1F
100
AcDbEntity
  8
0
  6
CONTINUOUS
 62
     7
100
AcDbLine
 10
4.0746675994
 20
3.7685208061
 30
0.0
 11
4.0746675994
 21
4.2508042706
 31
0.0
  0
LINE
  5
F7
330
1F
100
AcDbEntity
  8
0
  6
CONTINUOUS
 62
     7
100
AcDbLine
 10
4.0746675994
 20
3.2665523021
 30
0.0
 11
4.0746675994
 21
3.7488357667
 31
0.0
  0
SPLINE
  5
F8
330
1F
100
AcDbEntity
  8
0
  6
CONTINUOUS
 62
     7
100
AcDbSpline
210
0.0
220
0.0
230
1.0
 70
     8
 71
     3
 72
    48
 73
    44
 74
     0
 42
0.00000001
 43
0.00000001
 40
-0.0625
 40
-0.0625
 40
0.0
 40
0.0
 40
0.0312500000000003
 40
0.0312500000000003
 40
0.0625000000000007
 40
0.0625000000000007
 40
0.093750000000001
 40
0.093750000000001
 40
0.1250000000000013
 40
0.1250000000000013
 40
0.1875000000000012
 40
0.1875000000000012
 40
0.2500000000000011
 40
0.2500000000000011
 40
0.3125000000000012
 40
0.3125000000000012
 40
0.3750000000000012
 40
0.3750000000000012
 40
0.4062500000000012
 40
0.4062500000000012
 40
0.4375000000000011
 40
0.4375000000000011
 40
0.5000000000000009
 40
0.5000000000000009
 40
0.5625000000000007
 40
0.5625000000000007
 40
0.6250000000000004
 40
0.6250000000000004
 40
0.6875000000000002
 40
0.6875000000000002
 40
0.75
 40
0.75
 40
0.8125
 40
0.8125
 40
0.84375
 40
0.84375
 40
0.875
 40
0.875
 40
0.90625
 40
0.90625
 40
0.9375
 40
0.9375
 40
1.0
 40
1.0
 40
1.03125
 40
1.03125
 10
3.935710349558942
 20
3.431501102893077
 30
0.0
 10
3.949264334628066
 20
3.431501102893077
 30
0.0
 10
3.953631904916187
 20
3.43092479117976
 30
0.0
 10
3.962103557523279
 20
3.428775157089322
 30
0.0
 10
3.966103904314095
 20
3.427218236529611
 30
0.0
 10
3.97345317138216
 20
3.423482388723215
 30
0.0
 10
3.976835739838526
 20
3.421287292607659
 30
0.0
 10
3.982890543610635
 20
3.416594126206742
 30
0.0
 10
3.985607578339404
 20
3.414071421227105
 30
0.0
 10
3.992967224640022
 20
3.406097172055369
 30
0.0
 10
3.996623297044488
 20
3.400499231311885
 30
0.0
 10
4.001868112921994
 20
3.389057566730994
 30
0.0
 10
4.003391025166191
 20
3.383266779433181
 30
0.0
 10
4.004067974859117
 20
3.372066657941495
 30
0.0
 10
4.003206339643875
 20
3.36655044045425
 30
0.0
 10
3.998777681630389
 20
3.356425806277768
 30
0.0
 10
3.995138423021479
 20
3.35168841013134
 30
0.0
 10
3.987513901106366
 20
3.345681318700349
 30
0.0
 10
3.984556060425238
 20
3.34382178965758
 30
0.0
 10
3.978060093250656
 20
3.340597717414937
 30
0.0
 10
3.974517469484836
 20
3.33921619609669
 30
0.0
 10
3.962914904301032
 20
3.335776200037357
 30
0.0
 10
3.95403568563424
 20
3.334523775433569
 30
0.0
 10
3.9361517181785
 20
3.334461898783735
 30
0.0
 10
3.927255832185252
 20
3.335648054025459
 30
0.0
 10
3.91164428780856
 20
3.340136355230099
 30
0.0
 10
3.904912742796881
 20
3.343444074681952
 30
0.0
 10
3.894561294649939
 20
3.351455172512827
 30
0.0
 10
3.890878421850095
 20
3.356168179377448
 30
0.0
 10
3.886338823695314
 20
3.366319902821392
 30
0.0
 10
3.885441428576133
 20
3.371836174212704
 30
0.0
 10
3.886060257904192
 20
3.383070154708809
 30
0.0
 10
3.88758036799678
 20
3.388914355944842
 30
0.0
 10
3.891470799446374
 20
3.397470622301255
 30
0.0
 10
3.893037267698212
 20
3.400300343172024
 30
0.0
 10
3.896750254970906
 20
3.405894707757411
 30
0.0
 10
3.898913454562182
 20
3.408674298266425
 30
0.0
 10
3.903775356043371
 20
3.413962443341209
 30
0.0
 10
3.906481006288404
 20
3.416490050994713
 30
0.0
 10
3.912564581376555
 20
3.421225539649295
 30
0.0
 10
3.91594837801814
 20
3.423426863312787
 30
0.0
 10
3.92692719399551
 20
3.429034927041602
 30
0.0
 10
3.935710349558942
 20
3.431501102893077
 30
0.0
 10
3.949264334628066
 20
3.431501102893077
 30
0.0
  0
SPLINE
  5
F9
330
1F
100
AcDbEntity
  8
0
  6
CONTINUOUS
 62
     7
100
AcDbSpline
210
0.0
220
0.0
230
1.0
 70
     8
 71
     3
 72
    64
 73
    60
 74
     0
 42
0.00000001
 43
0.00000001
 40
-0.0312499999999998
 40
-0.0312499999999998
 40
0.0
 40
0.0
 40
0.0312500000000001
 40
0.0312500000000001
 40
0.0625000000000002
 40
0.0625000000000002
 40
0.0937500000000004
 40
0.0937500000000004
 40
0.1250000000000005
 40
0.1250000000000005
 40
0.1562500000000006
 40
0.1562500000000006
 40
0.1875000000000007
 40
0.1875000000000007
 40
0.2187500000000009
 40
0.2187500000000009
 40
0.250000000000001
 40
0.250000000000001
 40
0.2812500000000011
 40
0.2812500000000011
 40
0.3125000000000012
 40
0.3125000000000012
 40
0.3750000000000013
 40
0.3750000000000013
 40
0.4062500000000014
 40
0.4062500000000014
 40
0.4375000000000014
 40
0.4375000000000014
 40
0.4687500000000016
 40
0.4687500000000016
 40
0.4843750000000014
 40
0.4843750000000014
 40
0.5000000000000013
 40
0.5000000000000013
 40
0.5312500000000011
 40
0.5312500000000011
 40
0.5625000000000009
 40
0.5625000000000009
 40
0.6250000000000008
 40
0.6250000000000008
 40
0.6562500000000009
 40
0.6562500000000009
 40
0.6875000000000009
 40
0.6875000000000009
 40
0.7500000000000008
 40
0.7500000000000008
 40
0.8125000000000007
 40
0.8125000000000007
 40
0.8437500000000006
 40
0.8437500000000006
 40
0.8750000000000004
 40
0.8750000000000004
 40
0.9062500000000004
 40
0.9062500000000004
 40
0.9375000000000003
 40
0.9375000000000003
 40
0.9687500000000002
 40
0.9687500000000002
 40
1.0
 40
1.0
 40
1.03125
 40
1.03125
 10
3.95316231893828
 20
4.20820001773779
 30
0.0
 10
3.93633036027177
 20
4.20820001773779
 30
0.0
 10
3.928096755919722
 20
4.207772178004895
 30
0.0
 10
3.91197949660729
 20
4.206059950394605
 30
0.0
 10
3.904094303393036
 20
4.204756761687119
 30
0.0
 10
3.88953151652799
 20
4.201334646754727
 30
0.0
 10
3.882659357642519
 20
4.19917117721373
 30
0.0
 10
3.870340865456406
 20
4.194043289619441
 30
0.0
 10
3.864891704720825
 20
4.191097589039331
 30
0.0
 10
3.855320219753848
 20
4.184355779895745
 30
0.0
 10
3.85131529677607
 20
4.180633112309198
 30
0.0
 10
3.844778069863503
 20
4.172560591433485
 30
0.0
 10
3.842217327641266
 20
4.168154584797398
 30
0.0
 10
3.83853342436129
 20
4.158924148901016
 30
0.0
 10
3.837382353823406
 20
4.154082424251259
 30
0.0
 10
3.836298963064746
 20
4.143935590032826
 30
0.0
 10
3.836379359445782
 20
4.138656689184797
 30
0.0
 10
3.837611329504869
 20
4.127953486940191
 30
0.0
 10
3.838758954824355
 20
4.122492070526468
 30
0.0
 10
3.842027669756628
 20
4.1113565234336
 30
0.0
 10
3.844167458974104
 20
4.105644871645678
 30
0.0
 10
3.851898971544741
 20
4.088536690805742
 30
0.0
 10
3.858704296683078
 20
4.07715732580068
 30
0.0
 10
3.871777687728701
 20
4.060475677203629
 30
0.0
 10
3.876596652556054
 20
4.0550305046517
 30
0.0
 10
3.887210090377871
 20
4.044723588753892
 30
0.0
 10
3.893077973530702
 20
4.039787491133674
 30
0.0
 10
3.906009475590159
 20
4.031050410369756
 30
0.0
 10
3.913074662546398
 20
4.027242512072481
 30
0.0
 10
3.924669153272972
 20
4.023146617530018
 30
0.0
 10
3.928635334145531
 20
4.022076894860458
 30
0.0
 10
3.936801636242206
 20
4.020630613936986
 30
0.0
 10
3.941040154716316
 20
4.020262589944597
 30
0.0
 10
3.953525193132064
 20
4.020346280929819
 30
0.0
 10
3.96186500194187
 20
4.022015364647467
 30
0.0
 10
3.977116373127662
 20
4.027584895935706
 30
0.0
 10
3.984225026205202
 20
4.031488398740202
 30
0.0
 10
4.003389411140533
 20
4.044636735313634
 30
0.0
 10
4.013844116338233
 20
4.055463683636978
 30
0.0
 10
4.0267039557426
 20
4.071984208788203
 30
0.0
 10
4.030538082977494
 20
4.077595930850058
 30
0.0
 10
4.037387675341717
 20
4.088949360527852
 30
0.0
 10
4.040408219685266
 20
4.094715977433005
 30
0.0
 10
4.048033114497344
 20
4.111740114035776
 30
0.0
 10
4.05133730134513
 20
4.122840940350661
 30
0.0
 10
4.053734654712717
 20
4.144453088046242
 30
0.0
 10
4.052778712325976
 20
4.154478436388072
 30
0.0
 10
4.04716648073926
 20
4.168368955821154
 30
0.0
 10
4.044616871022207
 20
4.172704921806606
 30
0.0
 10
4.038081235722569
 20
4.180727488355015
 30
0.0
 10
4.034031275690953
 20
4.184470116714794
 30
0.0
 10
4.02449982306208
 20
4.191153560401554
 30
0.0
 10
4.019081970805803
 20
4.194074115521441
 30
0.0
 10
4.006855374593991
 20
4.199160238227042
 30
0.0
 10
3.999952031506127
 20
4.201336512704301
 30
0.0
 10
3.985418875698494
 20
4.204752223982243
 30
0.0
 10
3.977709815288538
 20
4.206034555474149
 30
0.0
 10
3.961433871502555
 20
4.207772587610812
 30
0.0
 10
3.95316231893828
 20
4.20820001773779
 30
0.0
 10
3.93633036027177
 20
4.20820001773779
 30
0.0
  0
LINE
  5
FA
330
1F
100
AcDbEntity
  8
0
  6
CONTINUOUS
 62
     7
100
AcDbLine
 10
3.7324759984
 20
4.2508042706
 30
0.0
 11
3.7324759984
 21
3.2665523021
 31
0.0
  0
LINE
  5
FB
330
1F
100
AcDbEntity
  8
0
  6
CONTINUOUS
 62
     7
100
AcDbLine
 10
4.0943526388
 20
3.7488357667
 30
0.0
 11
4.0943526388
 21
3.2862373415
 31
0.0
  0
LINE
  5
FC
330
1F
100
AcDbEntity
  8
0
  6
CONTINUOUS
 62
     7
100
AcDbLine
 10
4.0943526388
 20
4.2311192313
 30
0.0
 11
4.0943526388
 21
3.7685208061
 31
0.0
  0
LINE
  5
FD
330
1F
100
AcDbEntity
  8
0
  6
CONTINUOUS
 62
     7
100
AcDbLine
 10
4.0746675994
 20
3.7488357667
 30
0.0
 11
4.0943526388
 21
3.7488357667
 31
0.0
  0
LINE
  5
FE
330
1F
100
AcDbEntity
  8
0
  6
CONTINUOUS
 62
     7
100
AcDbLine
 10
4.0746675994
 20
3.7685208061
 30
0.0
 11
4.0943526388
 21
3.7685208061
 31
0.0
  0
LINE
  5
FF
330
1F
100
AcDbEntity
  8
0
  6
CONTINUOUS
 62
     7
100
AcDbLine
 10
3.556294896
 20
4.1848718906
 30
0.0
 11
3.5499668144
 21
4.1775133831
 31
0.0
  0
LINE
  5
100
330
1F
100
AcDbEntity
  8
0
  6
CONTINUOUS
 62
     7
100
AcDbLine
 10
3.547711396
 20
3.3424658665
 30
0.0
 11
3.556294896
 21
3.3324846822
 31
0.0
  0
LINE
  5
101
330
1F
100
AcDbEntity
  8
0
  6
CONTINUOUS
 62
     7
100
AcDbLine
 10
3.5366098567
 20
4.1775133831
 30
0.0
 11
3.5366098567
 21
4.2311192313
 31
0.0
  0
LINE
  5
102
330
1F
100
AcDbEntity
  8
0
  6
CONTINUOUS
 62
     7
100
AcDbLine
 10
3.5366098567
 20
3.2862373415
 30
0.0
 11
3.5366098567
 21
3.3424658665
 31
0.0
  0
SPLINE
  5
103
330
1F
100
AcDbEntity
  8
0
  6
CONTINUOUS
 62
     7
100
AcDbSpline
210
0.0
220
0.0
230
1.0
 70
     8
 71
     3
 72
     8
 73
     4
 74
     0
 42
0.00000001
 43
0.00000001
 40
0.0
 40
0.0
 40
0.0
 40
0.0
 40
1.0
 40
1.0
 40
1.0
 40
1.0
 10
3.824364732054985
 20
3.748835766707008
 30
0.0
 10
3.824768318535883
 20
3.755397446497034
 30
0.0
 10
3.824768318535883
 20
3.76195912628706
 30
0.0
 10
3.824364732054985
 20
3.768520806077087
 30
0.0
  0
LINE
  5
104
330
1F
100
AcDbEntity
  8
0
  6
CONTINUOUS
 62
     7
100
AcDbLine
 10
3.7521610378
 20
3.7685208061
 30
0.0
 11
3.7521610378
 21
3.7586782864
 31
0.0
  0
LINE
  5
105
330
1F
100
AcDbEntity
  8
0
  6
CONTINUOUS
 62
     7
100
AcDbLine
 10
3.7521610378
 20
3.7586782864
 30
0.0
 11
3.7521610378
 21
3.7488357667
 31
0.0
  0
LINE
  5
106
330
1F
100
AcDbEntity
  8
0
  6
CONTINUOUS
 62
     7
100
AcDbLine
 10
4.0943526388
 20
3.7488357667
 30
0.0
 11
4.0943526388
 21
3.7685208061
 31
0.0
  0
LINE
  5
107
330
1F
100
AcDbEntity
  8
0
  6
CONTINUOUS
 62
     7
100
AcDbLine
 10
3.5169248173
 20
4.1775133831
 30
0.0
 11
3.5169248173
 21
4.2508042706
 31
0.0
  0
LINE
  5
108
330
1F
100
AcDbEntity
  8
0
  6
CONTINUOUS
 62
     7
100
AcDbLine
 10
3.6284733737
 20
4.1775133831
 30
0.0
 11
3.5169248173
 21
4.1775133831
 31
0.0
  0
LINE
  5
109
330
1F
100
AcDbEntity
  8
0
  6
CONTINUOUS
 62
     7
100
AcDbLine
 10
3.6284733737
 20
3.3424658665
 30
0.0
 11
3.6284733737
 21
4.1775133831
 31
0.0
  0
LINE
  5
10A
330
1F
100
AcDbEntity
  8
0
  6
CONTINUOUS
 62
     7
100
AcDbLine
 10
3.5169248173
 20
3.3424658665
 30
0.0
 11
3.6284733737
 21
3.3424658665
 31
0.0
  0
LINE
  5
10B
330
1F
100
AcDbEntity
  8
0
  6
CONTINUOUS
 62
     7
100
AcDbLine
 10
3.5169248173
 20
3.2665523021
 30
0.0
 11
3.5169248173
 21
3.3424658665
 31
0.0
  0
LINE
  5
10C
330
1F
100
AcDbEntity
  8
0
  6
CONTINUOUS
 62
     7
100
AcDbLine
 10
3.1363473895
 20
3.4960850536
 30
0.0
 11
3.024798833
 21
3.4960850536
 31
0.0
  0
LINE
  5
10D
330
1F
100
AcDbEntity
  8
0
  6
CONTINUOUS
 62
     7
100
AcDbLine
 10
3.1363473895
 20
4.0170678104
 30
0.0
 11
3.1363473895
 21
3.4960850536
 31
0.0
  0
LINE
  5
10E
330
1F
100
AcDbEntity
  8
0
  6
CONTINUOUS
 62
     7
100
AcDbLine
 10
3.024798833
 20
4.0170678104
 30
0.0
 11
3.1363473895
 21
4.0170678104
 31
0.0
  0
LINE
  5
10F
330
1F
100
AcDbEntity
  8
0
  6
CONTINUOUS
 62
     7
100
AcDbLine
 10
3.024798833
 20
4.2508042706
 30
0.0
 11
3.024798833
 21
4.0170678104
 31
0.0
  0
LINE
  5
110
330
1F
100
AcDbEntity
  8
0
  6
CONTINUOUS
 62
     7
100
AcDbLine
 10
3.024798833
 20
3.4960850536
 30
0.0
 11
3.024798833
 21
3.2665523021
 31
0.0
  0
SPLINE
  5
111
330
1F
100
AcDbEntity
  8
0
  6
CONTINUOUS
 62
     7
100
AcDbSpline
210
0.0
220
0.0
230
1.0
 70
     8
 71
     3
 72
     8
 73
     4
 74
     0
 42
0.00000001
 43
0.00000001
 40
0.0
 40
0.0
 40
0.0
 40
0.0
 40
0.0006175109583466
 40
0.0006175109583466
 40
0.0006175109583466
 40
0.0006175109583466
 10
3.119401591460786
 20
4.00474127851803
 30
0.0
 10
3.125047172101479
 20
4.008852196365392
 30
0.0
 10
3.130695879717868
 20
4.012960967979282
 30
0.0
 10
3.136347389473792
 20
4.017067810400461
 30
0.0
  0
SPLINE
  5
112
330
1F
100
AcDbEntity
  8
0
  6
CONTINUOUS
 62
     7
100
AcDbSpline
210
0.0
220
0.0
230
1.0
 70
     8
 71
     3
 72
     8
 73
     4
 74
     0
 42
0.00000001
 43
0.00000001
 40
0.0
 40
0.0
 40
0.0
 40
0.0
 40
0.0005371756237565
 40
0.0005371756237565
 40
0.0005371756237565
 40
0.0005371756237565
 10
3.123921689823764
 20
3.512615294266062
 30
0.0
 10
3.128031897739813
 20
3.507083116515414
 30
0.0
 10
3.132174962543059
 20
3.50157360299254
 30
0.0
 10
3.136347389473792
 20
3.496085053608208
 30
0.0
  0
LINE
  5
113
330
1F
100
AcDbEntity
  8
0
  6
CONTINUOUS
 62
     7
100
AcDbLine
 10
3.1166623501
 20
3.5126152943
 30
0.0
 11
3.1166623501
 21
4.0047412785
 31
0.0
  0
SPLINE
  5
114
330
1F
100
AcDbEntity
  8
0
  6
CONTINUOUS
 62
     7
100
AcDbSpline
210
0.0
220
0.0
230
1.0
 70
     8
 71
     3
 72
     8
 73
     4
 74
     0
 42
0.00000001
 43
0.00000001
 40
0.0
 40
0.0
 40
0.0
 40
0.0
 40
0.0001070963901295
 40
0.0001070963901295
 40
0.0001070963901295
 40
0.0001070963901295
 10
3.645419171738766
 20
4.165186851246593
 30
0.0
 10
3.646332813533074
 20
4.164118867652864
 30
0.0
 10
3.647245898003823
 20
4.163050407016076
 30
0.0
 10
3.64815841309584
 20
4.161981460576059
 30
0.0
  0
SPLINE
  5
115
330
1F
100
AcDbEntity
  8
0
  6
CONTINUOUS
 62
     7
100
AcDbSpline
210
0.0
220
0.0
230
1.0
 70
     8
 71
     3
 72
     8
 73
     4
 74
     0
 42
0.00000001
 43
0.00000001
 40
0.0
 40
0.0
 40
0.0
 40
0.0
 40
0.0002835351067171
 40
0.0002835351067171
 40
0.0002835351067171
 40
0.0002835351067171
 10
3.648158413095839
 20
3.355375112208034
 30
0.0
 10
3.645742551425029
 20
3.35254510232088
 30
0.0
 10
3.643322698637968
 20
3.349718495115105
 30
0.0
 10
3.640899073375787
 20
3.346895131135313
 30
0.0
  0
SPLINE
  5
116
330
1F
100
AcDbEntity
  8
0
  6
CONTINUOUS
 62
     7
100
AcDbSpline
210
0.0
220
0.0
230
1.0
 70
     8
 71
     3
 72
     8
 73
     4
 74
     0
 42
0.00000001
 43
0.00000001
 40
0.0
 40
0.0
 40
0.0
 40
0.0
 40
0.0005371756237565
 40
0.0005371756237565
 40
0.0005371756237565
 40
0.0005371756237565
 10
3.62847337372576
 20
3.34246586650035
 30
0.0
 10
3.632645800656492
 20
3.343936518875499
 30
0.0
 10
3.636788865459738
 20
3.345412788574642
 30
0.0
 10
3.640899073375787
 20
3.346895131135313
 30
0.0
  0
SPLINE
  5
117
330
1F
100
AcDbEntity
  8
0
  6
CONTINUOUS
 62
     7
100
AcDbSpline
210
0.0
220
0.0
230
1.0
 70
     8
 71
     3
 72
     8
 73
     4
 74
     0
 42
0.00000001
 43
0.00000001
 40
0.0
 40
0.0
 40
0.0
 40
0.0
 40
0.0006175109583466
 40
0.0006175109583466
 40
0.0006175109583466
 40
0.0006175109583466
 10
3.62847337372576
 20
4.177513383129025
 30
0.0
 10
3.634124883481684
 20
4.173406540707846
 30
0.0
 10
3.639773591098072
 20
4.169297769093955
 30
0.0
 10
3.645419171738766
 20
4.165186851246593
 30
0.0
  0
SPLINE
  5
118
330
1F
100
AcDbEntity
  8
0
  6
CONTINUOUS
 62
     7
100
AcDbSpline
210
0.0
220
0.0
230
1.0
 70
     8
 71
     3
 72
     8
 73
     4
 74
     0
 42
0.00000001
 43
0.00000001
 40
0.0
 40
0.0
 40
0.0
 40
0.0
 40
0.0006175109583466
 40
0.0006175109583466
 40
0.0006175109583466
 40
0.0006175109583466
 10
3.00785303503034
 20
4.00474127851803
 30
0.0
 10
3.013498615671033
 20
4.008852196365392
 30
0.0
 10
3.019147323287422
 20
4.012960967979282
 30
0.0
 10
3.024798833043345
 20
4.017067810400461
 30
0.0
  0
LINE
  5
119
330
1F
100
AcDbEntity
  8
0
  6
CONTINUOUS
 62
     7
100
AcDbLine
 10
3.1194015915
 20
4.0047412785
 30
0.0
 11
3.1167725935
 21
4.0047412785
 31
0.0
  0
SPLINE
  5
11A
330
1F
100
AcDbEntity
  8
0
  6
CONTINUOUS
 62
     7
100
AcDbSpline
210
0.0
220
0.0
230
1.0
 70
     8
 71
     3
 72
     8
 73
     4
 74
     0
 42
0.00000001
 43
0.00000001
 40
0.0
 40
0.0
 40
0.0
 40
0.0
 40
0.0005371756237565
 40
0.0005371756237565
 40
0.0005371756237565
 40
0.0005371756237565
 10
3.012373133393317
 20
3.512615294266062
 30
0.0
 10
3.016483341309367
 20
3.507083116515414
 30
0.0
 10
3.020626406112613
 20
3.50157360299254
 30
0.0
 10
3.024798833043345
 20
3.496085053608208
 30
0.0
  0
LINE
  5
11B
330
1F
100
AcDbEntity
  8
0
  6
CONTINUOUS
 62
     7
100
AcDbLine
 10
3.0051137937
 20
3.2862373415
 30
0.0
 11
3.0051137937
 21
3.5126152943
 31
0.0
  0
LINE
  5
11C
330
1F
100
AcDbEntity
  8
0
  6
CONTINUOUS
 62
     7
100
AcDbLine
 10
3.1167725935
 20
3.5126152943
 30
0.0
 11
3.1239216898
 21
3.5126152943
 31
0.0
  0
LINE
  5
11D
330
1F
100
AcDbEntity
  8
0
  6
CONTINUOUS
 62
     7
100
AcDbLine
 10
3.9447463396
 20
4.1228515147
 30
0.0
 11
4.0431715365
 21
4.1228515147
 31
0.0
  0
LINE
  5
11E
330
1F
100
AcDbEntity
  8
0
  6
CONTINUOUS
 62
     7
100
AcDbLine
 10
3.8463211428
 20
4.1228515147
 30
0.0
 11
3.9447463396
 21
4.1228515147
 31
0.0
  0
LINE
  5
11F
330
1F
100
AcDbEntity
  8
0
  6
CONTINUOUS
 62
     7
100
AcDbLine
 10
2.5786046073
 20
3.2666507372
 30
0.0
 11
2.5786046073
 21
4.2508042706
 31
0.0
  0
LINE
  5
120
330
1F
100
AcDbEntity
  8
0
  6
CONTINUOUS
 62
     7
100
AcDbLine
 10
2.5786046073
 20
3.2666507372
 30
0.0
 11
2.558919568
 21
3.2863398789
 31
0.0
  0
LINE
  5
121
330
1F
100
AcDbEntity
  8
0
  6
CONTINUOUS
 62
     7
100
AcDbLine
 10
2.558919568
 20
4.2311192313
 30
0.0
 11
2.558919568
 21
3.2863398789
 31
0.0
  0
LINE
  5
122
330
1F
100
AcDbEntity
  8
0
  6
CONTINUOUS
 62
     7
100
AcDbLine
 10
3.0051137937
 20
4.2508042706
 30
0.0
 11
3.0051137937
 21
4.0047412785
 31
0.0
  0
LINE
  5
123
330
1F
100
AcDbEntity
  8
0
  6
CONTINUOUS
 62
     7
100
AcDbLine
 10
3.0051137937
 20
4.0047412785
 30
0.0
 11
3.0969773107
 21
4.0047412785
 31
0.0
  0
LINE
  5
124
330
1F
100
AcDbEntity
  8
0
  6
CONTINUOUS
 62
     7
100
AcDbLine
 10
3.0969773107
 20
4.0047412785
 30
0.0
 11
3.0969773107
 21
3.5126152943
 31
0.0
  0
LINE
  5
125
330
1F
100
AcDbEntity
  8
0
  6
CONTINUOUS
 62
     7
100
AcDbLine
 10
3.0969773107
 20
3.5126152943
 30
0.0
 11
2.9854287543
 21
3.5126152943
 31
0.0
  0
LINE
  5
126
330
1F
100
AcDbEntity
  8
0
  6
CONTINUOUS
 62
     7
100
AcDbLine
 10
2.9854287543
 20
3.5126152943
 30
0.0
 11
2.9854287543
 21
3.2665523021
 31
0.0
  0
LINE
  5
127
330
1F
100
AcDbEntity
  8
0
  6
CONTINUOUS
 62
     7
100
AcDbLine
 10
2.9207962084
 20
3.8836782864
 30
0.0
 11
2.901111169
 21
3.8836782864
 31
0.0
  0
LINE
  5
128
330
1F
100
AcDbEntity
  8
0
  6
CONTINUOUS
 62
     7
100
AcDbLine
 10
2.901111169
 20
3.8836782864
 30
0.0
 11
2.901111169
 21
3.2666507372
 31
0.0
  0
LINE
  5
129
330
1F
100
AcDbEntity
  8
0
  6
CONTINUOUS
 62
     7
100
AcDbLine
 10
2.5786046073
 20
3.2666507372
 30
0.0
 11
2.901111169
 21
3.2666507372
 31
0.0
  0
SPLINE
  5
12A
330
1F
100
AcDbEntity
  8
0
  6
CONTINUOUS
 62
     7
100
AcDbSpline
210
0.0
220
0.0
230
1.0
 70
     8
 71
     3
 72
    64
 73
    60
 74
     0
 42
0.00000001
 43
0.00000001
 40
-0.0312499999999999
 40
-0.0312499999999999
 40
0.0
 40
0.0
 40
0.0312500000000001
 40
0.0312500000000001
 40
0.0625000000000002
 40
0.0625000000000002
 40
0.0937500000000003
 40
0.0937500000000003
 40
0.1250000000000004
 40
0.1250000000000004
 40
0.1562500000000004
 40
0.1562500000000004
 40
0.1875000000000006
 40
0.1875000000000006
 40
0.2187500000000006
 40
0.2187500000000006
 40
0.2500000000000007
 40
0.2500000000000007
 40
0.2812500000000006
 40
0.2812500000000006
 40
0.3125000000000004
 40
0.3125000000000004
 40
0.3750000000000002
 40
0.3750000000000002
 40
0.4062500000000002
 40
0.4062500000000002
 40
0.4375000000000001
 40
0.4375000000000001
 40
0.46875
 40
0.46875
 40
0.4843750000000001
 40
0.4843750000000001
 40
0.5000000000000001
 40
0.5000000000000001
 40
0.5312500000000002
 40
0.5312500000000002
 40
0.5625000000000003
 40
0.5625000000000003
 40
0.625
 40
0.625
 40
0.65625
 40
0.65625
 40
0.6875
 40
0.6875
 40
0.7500000000000001
 40
0.7500000000000001
 40
0.8125000000000002
 40
0.8125000000000002
 40
0.8437500000000002
 40
0.8437500000000002
 40
0.8750000000000002
 40
0.8750000000000002
 40
0.9062500000000002
 40
0.9062500000000002
 40
0.9375000000000001
 40
0.9375000000000001
 40
0.9687500000000001
 40
0.9687500000000001
 40
1.0
 40
1.0
 40
1.03125
 40
1.03125
 10
2.700109887830825
 20
3.558383010801494
 30
0.0
 10
2.716941846497335
 20
3.558383010801494
 30
0.0
 10
2.725175450849383
 20
3.557414872140745
 30
0.0
 10
2.741292710161815
 20
3.553636992711078
 30
0.0
 10
2.749177903376069
 20
3.550789297320619
 30
0.0
 10
2.763740690241114
 20
3.543598802179393
 30
0.0
 10
2.770612849126586
 20
3.539166139020316
 30
0.0
 10
2.782931341312699
 20
3.52916383440045
 30
0.0
 10
2.78838050204828
 20
3.523627455896265
 30
0.0
 10
2.797951987015256
 20
3.511627648378037
 30
0.0
 10
2.801956909993035
 20
3.505300042328679
 30
0.0
 10
2.808494136905602
 20
3.49231791536626
 30
0.0
 10
2.811054879127839
 20
3.485579312872755
 30
0.0
 10
2.814738782407815
 20
3.472222115508106
 30
0.0
 10
2.815889852945698
 20
3.465569180647332
 30
0.0
 10
2.816973243704359
 20
3.45235461754145
 30
0.0
 10
2.816892847323322
 20
3.44583247052051
 30
0.0
 10
2.815660877264236
 20
3.433267903402529
 30
0.0
 10
2.81451325194475
 20
3.427176459460772
 30
0.0
 10
2.811244537012477
 20
3.415353379194445
 30
0.0
 10
2.809104747795001
 20
3.409586867831158
 30
0.0
 10
2.801373235224363
 20
3.393121178553313
 30
0.0
 10
2.794567910086027
 20
3.383229409133375
 30
0.0
 10
2.781494519040404
 20
3.36988912415156
 30
0.0
 10
2.776675554213051
 20
3.365735270426621
 30
0.0
 10
2.766062116391235
 20
3.358169939337778
 30
0.0
 10
2.760194233238404
 20
3.354706122401728
 30
0.0
 10
2.747262731178946
 20
3.348764490150248
 30
0.0
 10
2.740197544222708
 20
3.34628070007414
 30
0.0
 10
2.728603053496133
 20
3.343651638770337
 30
0.0
 10
2.724636872623575
 20
3.342974198487958
 30
0.0
 10
2.716470570526899
 20
3.342061323538812
 30
0.0
 10
2.712232052052789
 20
3.34183102708032
 30
0.0
 10
2.699747013637042
 20
3.341883553520153
 30
0.0
 10
2.691407204827234
 20
3.34292291675234
 30
0.0
 10
2.676155833641443
 20
3.346503348395952
 30
0.0
 10
2.669047180563902
 20
3.349055579917008
 30
0.0
 10
2.649882795628572
 20
3.358018469839593
 30
0.0
 10
2.639428090430872
 20
3.36586070299129
 30
0.0
 10
2.626568251026505
 20
3.37910326912256
 30
0.0
 10
2.62273412379161
 20
3.383796224880651
 30
0.0
 10
2.615884531427388
 20
3.393759060290074
 30
0.0
 10
2.612863987083839
 20
3.399055098140433
 30
0.0
 10
2.605239092271761
 20
3.415481459415839
 30
0.0
 10
2.601934905423975
 20
3.427239098520948
 30
0.0
 10
2.599537552056387
 20
3.452664926874035
 30
0.0
 10
2.600493494443129
 20
3.465768571428651
 30
0.0
 10
2.606105726029845
 20
3.485899972318308
 30
0.0
 10
2.608655335746899
 20
3.49254350968976
 30
0.0
 10
2.615190971046537
 20
3.505458529411085
 30
0.0
 10
2.619240931078151
 20
3.511826295179242
 30
0.0
 10
2.628772383707025
 20
3.523732067640342
 30
0.0
 10
2.634190235963302
 20
3.529223422319826
 30
0.0
 10
2.646416832175114
 20
3.539145344041001
 30
0.0
 10
2.653320175262978
 20
3.543602781322176
 30
0.0
 10
2.667853331070611
 20
3.550779704372474
 30
0.0
 10
2.675562391480567
 20
3.553581276840898
 30
0.0
 10
2.69183833526655
 20
3.557415464622322
 30
0.0
 10
2.700109887830825
 20
3.558383010801494
 30
0.0
 10
2.716941846497335
 20
3.558383010801494
 30
0.0
  0
LINE
  5
12B
330
1F
100
AcDbEntity
  8
0
  6
CONTINUOUS
 62
     7
100
AcDbLine
 10
2.9207962084
 20
3.8836782864
 30
0.0
 11
2.9207962084
 21
3.2665523021
 31
0.0
  0
SPLINE
  5
12C
330
1F
100
AcDbEntity
  8
0
  6
CONTINUOUS
 62
     7
100
AcDbSpline
210
0.0
220
0.0
230
1.0
 70
    24
 71
     3
 72
     8
 73
     4
 74
     0
 42
0.00000001
 43
0.00000001
 40
0.0
 40
0.0
 40
0.0
 40
0.0
 40
0.0007668413384707
 40
0.0007668413384707
 40
0.0007668413384707
 40
0.0007668413384707
 10
3.096977310733634
 20
3.512615294266062
 30
0.0
 10
3.103565440616579
 20
3.512615294266062
 30
0.0
 10
3.110128476331771
 20
3.512615294266062
 30
0.0
 10
3.116662350103713
 20
3.512615294266062
 30
0.0
  0
SPLINE
  5
12D
330
1F
100
AcDbEntity
  8
0
  6
CONTINUOUS
 62
     7
100
AcDbSpline
210
0.0
220
0.0
230
1.0
 70
    24
 71
     3
 72
     8
 73
     4
 74
     0
 42
0.00000001
 43
0.00000001
 40
0.0
 40
0.0
 40
0.0
 40
0.0
 40
0.0007668413384707
 40
0.0007668413384707
 40
0.0007668413384707
 40
0.0007668413384707
 10
3.116662350103713
 20
4.00474127851803
 30
0.0
 10
3.110128476331771
 20
4.00474127851803
 30
0.0
 10
3.103565440616579
 20
4.00474127851803
 30
0.0
 10
3.096977310733634
 20
4.00474127851803
 30
0.0
  0
CIRCLE
  5
12E
330
1F
100
AcDbEntity
  8
0
  6
CONTINUOUS
 62
     7
100
AcDbCircle
 10
2.7085258672
 20
3.4501152943
 30
0.0
 40
0.098425196850394
  0
LINE
  5
12F
330
1F
100
AcDbEntity
  8
0
  6
CONTINUOUS
 62
     7
100
AcDbLine
 10
2.6593132687
 20
3.4217023873
 30
0.0
 11
2.6593132687
 21
3.4785282012
 31
0.0
  0
LINE
  5
130
330
1F
100
AcDbEntity
  8
0
  6
CONTINUOUS
 62
     7
100
AcDbLine
 10
2.7085258672
 20
3.3932894804
 30
0.0
 11
2.6593132687
 21
3.4217023873
 31
0.0
  0
LINE
  5
131
330
1F
100
AcDbEntity
  8
0
  6
CONTINUOUS
 62
     7
100
AcDbLine
 10
2.7577384656
 20
3.4217023873
 30
0.0
 11
2.7085258672
 21
3.3932894804
 31
0.0
  0
LINE
  5
132
330
1F
100
AcDbEntity
  8
0
  6
CONTINUOUS
 62
     7
100
AcDbLine
 10
2.7577384656
 20
3.4785282012
 30
0.0
 11
2.7577384656
 21
3.4217023873
 31
0.0
  0
LINE
  5
133
330
1F
100
AcDbEntity
  8
0
  6
CONTINUOUS
 62
     7
100
AcDbLine
 10
2.7085258672
 20
3.5069411082
 30
0.0
 11
2.7577384656
 21
3.4785282012
 31
0.0
  0
LINE
  5
134
330
1F
100
AcDbEntity
  8
0
  6
CONTINUOUS
 62
     7
100
AcDbLine
 10
2.6593132687
 20
3.4785282012
 30
0.0
 11
2.7085258672
 21
3.5069411082
 31
0.0
  0
ARC
  5
135
330
1F
100
AcDbEntity
  8
0
  6
CONTINUOUS
 62
     7
100
AcDbCircle
 10
2.7085258672
 20
3.4501152943
 30
0.0
 40
0.1082677165354333
100
AcDbArc
 50
270.0
 51
350.0483333115
  0
ARC
  5
136
330
1F
100
AcDbEntity
  8
0
  6
CONTINUOUS
 62
     7
100
AcDbCircle
 10
2.7085258672
 20
3.4501152943
 30
0.0
 40
0.1082677165354333
100
AcDbArc
 50
197.7237277909
 51
270.0
  0
LINE
  5
137
330
1F
100
AcDbEntity
  8
0
  6
CONTINUOUS
 62
     8
100
AcDbLine
 10
3.9447463396
 20
4.1130089951
 30
0.0
 11
3.841180603
 21
4.1130089951
 31
0.0
  0
LINE
  5
138
330
1F
100
AcDbEntity
  8
0
  6
CONTINUOUS
 62
     8
100
AcDbLine
 10
4.0480231756
 20
4.1130089951
 30
0.0
 11
3.9447463396
 21
4.1130089951
 31
0.0
  0
LINE
  5
139
330
1F
100
AcDbEntity
  8
0
  6
HIDDEN
 62
     7
100
AcDbLine
 10
4.0746675994
 20
3.7685208061
 30
0.0
 11
4.0746675994
 21
3.7488357667
 31
0.0
  0
LINE
  5
13A
330
1F
100
AcDbEntity
  8
0
  6
HIDDEN
 62
     7
100
AcDbLine
 10
3.9447463396
 20
4.0047412785
 30
0.0
 11
4.0530140561
 21
4.0047412785
 31
0.0
  0
LINE
  5
13B
330
1F
100
AcDbEntity
  8
0
  6
HIDDEN
 62
     7
100
AcDbLine
 10
3.8364786231
 20
4.0047412785
 30
0.0
 11
3.9447463396
 21
4.0047412785
 31
0.0
  0
LINE
  5
13C
330
1F
100
AcDbEntity
  8
0
  6
HIDDEN
 62
     7
100
AcDbLine
 10
3.5499668144
 20
4.1775133831
 30
0.0
 11
3.5366098567
 21
4.1619814606
 31
0.0
  0
LINE
  5
13D
330
1F
100
AcDbEntity
  8
0
  6
HIDDEN
 62
     7
100
AcDbLine
 10
3.5366098567
 20
3.3553751122
 30
0.0
 11
3.547711396
 21
3.3424658665
 31
0.0
  0
LINE
  5
13E
330
1F
100
AcDbEntity
  8
0
  6
HIDDEN
 62
     7
100
AcDbLine
 10
3.5366098567
 20
3.3553751122
 30
0.0
 11
3.5366098567
 21
4.1619814606
 31
0.0
  0
LINE
  5
13F
330
1F
100
AcDbEntity
  8
0
  6
HIDDEN
 62
     7
100
AcDbLine
 10
3.5366098567
 20
4.1619814606
 30
0.0
 11
3.5366098567
 21
4.1775133831
 31
0.0
  0
LINE
  5
140
330
1F
100
AcDbEntity
  8
0
  6
HIDDEN
 62
     7
100
AcDbLine
 10
3.5366098567
 20
3.3424658665
 30
0.0
 11
3.5366098567
 21
3.3553751122
 31
0.0
  0
LINE
  5
141
330
1F
100
AcDbEntity
  8
0
  6
HIDDEN
 62
     7
100
AcDbLine
 10
3.6481584131
 20
3.3324846822
 30
0.0
 11
3.6481584131
 21
3.3553751122
 31
0.0
  0
LINE
  5
142
330
1F
100
AcDbEntity
  8
0
  6
HIDDEN
 62
     7
100
AcDbLine
 10
3.6481584131
 20
4.1619814606
 30
0.0
 11
3.6481584131
 21
4.1848718906
 31
0.0
  0
LINE
  5
143
330
1F
100
AcDbEntity
  8
0
  6
HIDDEN
 62
     7
100
AcDbLine
 10
3.5169248173
 20
4.1748907063
 30
0.0
 11
3.6284733737
 21
4.1748907063
 31
0.0
  0
LINE
  5
144
330
1F
100
AcDbEntity
  8
0
  6
HIDDEN
 62
     7
100
AcDbLine
 10
3.5169248173
 20
4.1775133831
 30
0.0
 11
3.5169248173
 21
4.1748907063
 31
0.0
  0
LINE
  5
145
330
1F
100
AcDbEntity
  8
0
  6
HIDDEN
 62
     7
100
AcDbLine
 10
3.6284733737
 20
3.3398431897
 30
0.0
 11
3.5169248173
 21
3.3398431897
 31
0.0
  0
LINE
  5
146
330
1F
100
AcDbEntity
  8
0
  6
HIDDEN
 62
     7
100
AcDbLine
 10
3.6284733737
 20
3.3424658665
 30
0.0
 11
3.6284733737
 21
3.3398431897
 31
0.0
  0
LINE
  5
147
330
1F
100
AcDbEntity
  8
0
  6
HIDDEN
 62
     7
100
AcDbLine
 10
3.1363473895
 20
4.0212715192
 30
0.0
 11
3.024798833
 21
4.0212715192
 31
0.0
  0
LINE
  5
148
330
1F
100
AcDbEntity
  8
0
  6
HIDDEN
 62
     7
100
AcDbLine
 10
3.1363473895
 20
4.0170678104
 30
0.0
 11
3.1363473895
 21
4.0212715192
 31
0.0
  0
LINE
  5
149
330
1F
100
AcDbEntity
  8
0
  6
HIDDEN
 62
     7
100
AcDbLine
 10
3.024798833
 20
3.5002887624
 30
0.0
 11
3.1363473895
 21
3.5002887624
 31
0.0
  0
LINE
  5
14A
330
1F
100
AcDbEntity
  8
0
  6
HIDDEN
 62
     7
100
AcDbLine
 10
3.024798833
 20
3.4960850536
 30
0.0
 11
3.024798833
 21
3.5002887624
 31
0.0
  0
SPLINE
  5
14B
330
1F
100
AcDbEntity
  8
0
  6
HIDDEN
 62
     7
100
AcDbSpline
210
0.0
220
0.0
230
1.0
 70
     8
 71
     3
 72
     8
 73
     4
 74
     0
 42
0.00000001
 43
0.00000001
 40
0.0
 40
0.0
 40
0.0
 40
0.0
 40
0.0005371756237565
 40
0.0005371756237565
 40
0.0005371756237565
 40
0.0005371756237565
 10
3.012373133393318
 20
4.004741278518033
 30
0.0
 10
3.016483341309367
 20
4.01027345626868
 30
0.0
 10
3.020626406112613
 20
4.015782969791553
 30
0.0
 10
3.024798833043345
 20
4.021271519175885
 30
0.0
  0
SPLINE
  5
14C
330
1F
100
AcDbEntity
  8
0
  6
HIDDEN
 62
     7
100
AcDbSpline
210
0.0
220
0.0
230
1.0
 70
     8
 71
     3
 72
     8
 73
     4
 74
     0
 42
0.00000001
 43
0.00000001
 40
0.0
 40
0.0
 40
0.0
 40
0.0
 40
0.0006175109583466
 40
0.0006175109583466
 40
0.0006175109583466
 40
0.0006175109583466
 10
3.007853035030339
 20
3.512615294266064
 30
0.0
 10
3.013498615671032
 20
3.508504376418703
 30
0.0
 10
3.019147323287421
 20
3.504395604804812
 30
0.0
 10
3.024798833043345
 20
3.500288762383633
 30
0.0
  0
SPLINE
  5
14D
330
1F
100
AcDbEntity
  8
0
  6
HIDDEN
 62
     7
100
AcDbSpline
210
0.0
220
0.0
230
1.0
 70
     8
 71
     3
 72
     8
 73
     4
 74
     0
 42
0.00000001
 43
0.00000001
 40
0.0
 40
0.0
 40
0.0
 40
0.0
 40
0.0002835351067171
 40
0.0002835351067171
 40
0.0002835351067171
 40
0.0002835351067171
 10
3.529350516945341
 20
3.346895131135313
 30
0.0
 10
3.531774142207522
 20
3.349718495115105
 30
0.0
 10
3.534193994994583
 20
3.35254510232088
 30
0.0
 10
3.536609856665392
 20
3.355375112208034
 30
0.0
  0
SPLINE
  5
14E
330
1F
100
AcDbEntity
  8
0
  6
HIDDEN
 62
     7
100
AcDbSpline
210
0.0
220
0.0
230
1.0
 70
     8
 71
     3
 72
     8
 73
     4
 74
     0
 42
0.00000001
 43
0.00000001
 40
0.0
 40
0.0
 40
0.0
 40
0.0
 40
0.0006175109583466
 40
0.0006175109583466
 40
0.0006175109583466
 40
0.0006175109583466
 10
3.516924817295314
 20
3.33984318965507
 30
0.0
 10
3.522576327051238
 20
3.343950032076248
 30
0.0
 10
3.528225034667626
 20
3.348058803690139
 30
0.0
 10
3.53387061530832
 20
3.352169721537501
 30
0.0
  0
SPLINE
  5
14F
330
1F
100
AcDbEntity
  8
0
  6
HIDDEN
 62
     7
100
AcDbSpline
210
0.0
220
0.0
230
1.0
 70
     8
 71
     3
 72
     8
 73
     4
 74
     0
 42
0.00000001
 43
0.00000001
 40
0.0
 40
0.0
 40
0.0
 40
0.0
 40
0.0005371756237565
 40
0.0005371756237565
 40
0.0005371756237565
 40
0.0005371756237565
 10
3.516924817295314
 20
3.34246586650035
 30
0.0
 10
3.521097244226046
 20
3.343936518875499
 30
0.0
 10
3.525240309029293
 20
3.345412788574642
 30
0.0
 10
3.529350516945341
 20
3.346895131135313
 30
0.0
  0
SPLINE
  5
150
330
1F
100
AcDbEntity
  8
0
  6
HIDDEN
 62
     7
100
AcDbSpline
210
0.0
220
0.0
230
1.0
 70
     8
 71
     3
 72
     8
 73
     4
 74
     0
 42
0.00000001
 43
0.00000001
 40
0.0
 40
0.0
 40
0.0
 40
0.0
 40
0.0001070963901295
 40
0.0001070963901295
 40
0.0001070963901295
 40
0.0001070963901295
 10
3.536609856665392
 20
4.161981460576058
 30
0.0
 10
3.535697341573375
 20
4.163050407016074
 30
0.0
 10
3.534784257102629
 20
4.164118867652864
 30
0.0
 10
3.53387061530832
 20
4.165186851246593
 30
0.0
  0
SPLINE
  5
151
330
1F
100
AcDbEntity
  8
0
  6
HIDDEN
 62
     7
100
AcDbSpline
210
0.0
220
0.0
230
1.0
 70
     8
 71
     3
 72
     8
 73
     4
 74
     0
 42
0.00000001
 43
0.00000001
 40
0.0
 40
0.0
 40
0.0
 40
0.0
 40
0.0006175109583466
 40
0.0006175109583466
 40
0.0006175109583466
 40
0.0006175109583466
 10
3.516924817295314
 20
4.177513383129025
 30
0.0
 10
3.522576327051238
 20
4.173406540707846
 30
0.0
 10
3.528225034667626
 20
4.169297769093955
 30
0.0
 10
3.53387061530832
 20
4.165186851246593
 30
0.0
  0
SPLINE
  5
152
330
1F
100
AcDbEntity
  8
0
  6
HIDDEN
 62
     7
100
AcDbSpline
210
0.0
220
0.0
230
1.0
 70
     8
 71
     3
 72
     8
 73
     4
 74
     0
 42
0.00000001
 43
0.00000001
 40
0.0
 40
0.0
 40
0.0
 40
0.0
 40
0.0005371756237565
 40
0.0005371756237565
 40
0.0005371756237565
 40
0.0005371756237565
 10
3.516924817295314
 20
4.174890706283745
 30
0.0
 10
3.521097244226046
 20
4.173420053908595
 30
0.0
 10
3.525240309029292
 20
4.171943784209453
 30
0.0
 10
3.52935051694534
 20
4.170461441648781
 30
0.0
  0
SPLINE
  5
153
330
1F
100
AcDbEntity
  8
0
  6
HIDDEN
 62
     7
100
AcDbSpline
210
0.0
220
0.0
230
1.0
 70
     8
 71
     3
 72
     8
 73
     4
 74
     0
 42
0.00000001
 43
0.00000001
 40
0.0
 40
0.0
 40
0.0
 40
0.0
 40
0.0002835351067171
 40
0.0002835351067171
 40
0.0002835351067171
 40
0.0002835351067171
 10
3.52935051694534
 20
4.170461441648781
 30
0.0
 10
3.531774142207522
 20
4.16763807766899
 30
0.0
 10
3.534193994994583
 20
4.164811470463214
 30
0.0
 10
3.536609856665392
 20
4.161981460576061
 30
0.0
  0
LINE
  5
154
330
1F
100
AcDbEntity
  8
0
  6
HIDDEN
 62
     7
100
AcDbLine
 10
3.5338706153
 20
4.1651868512
 30
0.0
 11
3.6454191717
 21
4.1651868512
 31
0.0
  0
LINE
  5
155
330
1F
100
AcDbEntity
  8
0
  6
HIDDEN
 62
     7
100
AcDbLine
 10
3.6408990734
 20
3.3468951311
 30
0.0
 11
3.5293505169
 21
3.3468951311
 31
0.0
  0
SPLINE
  5
156
330
1F
100
AcDbEntity
  8
0
  6
HIDDEN
 62
     7
100
AcDbSpline
210
0.0
220
0.0
230
1.0
 70
     8
 71
     3
 72
     8
 73
     4
 74
     0
 42
0.00000001
 43
0.00000001
 40
0.0
 40
0.0
 40
0.0
 40
0.0
 40
0.0005371756237565
 40
0.0005371756237565
 40
0.0005371756237565
 40
0.0005371756237565
 10
3.62847337372576
 20
4.174890706283745
 30
0.0
 10
3.632645800656492
 20
4.173420053908595
 30
0.0
 10
3.636788865459738
 20
4.171943784209453
 30
0.0
 10
3.640899073375786
 20
4.170461441648781
 30
0.0
  0
LINE
  5
157
330
1F
100
AcDbEntity
  8
0
  6
HIDDEN
 62
     7
100
AcDbLine
 10
3.6408990734
 20
4.1704614416
 30
0.0
 11
3.5293505169
 21
4.1704614416
 31
0.0
  0
SPLINE
  5
158
330
1F
100
AcDbEntity
  8
0
  6
HIDDEN
 62
     7
100
AcDbSpline
210
0.0
220
0.0
230
1.0
 70
     8
 71
     3
 72
     8
 73
     4
 74
     0
 42
0.00000001
 43
0.00000001
 40
0.0
 40
0.0
 40
0.0
 40
0.0
 40
0.0002835351067171
 40
0.0002835351067171
 40
0.0002835351067171
 40
0.0002835351067171
 10
3.648158413095839
 20
4.161981460576061
 30
0.0
 10
3.645742551425029
 20
4.164811470463214
 30
0.0
 10
3.643322698637968
 20
4.16763807766899
 30
0.0
 10
3.640899073375786
 20
4.170461441648781
 30
0.0
  0
LINE
  5
159
330
1F
100
AcDbEntity
  8
0
  6
HIDDEN
 62
     7
100
AcDbLine
 10
3.5338706153
 20
3.3521697215
 30
0.0
 11
3.6454191717
 21
3.3521697215
 31
0.0
  0
SPLINE
  5
15A
330
1F
100
AcDbEntity
  8
0
  6
HIDDEN
 62
     7
100
AcDbSpline
210
0.0
220
0.0
230
1.0
 70
     8
 71
     3
 72
     8
 73
     4
 74
     0
 42
0.00000001
 43
0.00000001
 40
0.0
 40
0.0
 40
0.0
 40
0.0
 40
0.0006175109583466
 40
0.0006175109583466
 40
0.0006175109583466
 40
0.0006175109583466
 10
3.645419171738766
 20
3.352169721537501
 30
0.0
 10
3.639773591098072
 20
3.348058803690139
 30
0.0
 10
3.634124883481684
 20
3.343950032076248
 30
0.0
 10
3.62847337372576
 20
3.33984318965507
 30
0.0
  0
LINE
  5
15B
330
1F
100
AcDbEntity
  8
0
  6
HIDDEN
 62
     7
100
AcDbLine
 10
3.1239216898
 20
4.0047412785
 30
0.0
 11
3.1194174495
 21
4.0047412785
 31
0.0
  0
SPLINE
  5
15C
330
1F
100
AcDbEntity
  8
0
  6
HIDDEN
 62
     7
100
AcDbSpline
210
0.0
220
0.0
230
1.0
 70
     8
 71
     3
 72
     8
 73
     4
 74
     0
 42
0.00000001
 43
0.00000001
 40
0.0
 40
0.0
 40
0.0
 40
0.0
 40
0.0006175109583466
 40
0.0006175109583466
 40
0.0006175109583466
 40
0.0006175109583466
 10
3.136347389473792
 20
3.500288762383633
 30
0.0
 10
3.130695879717867
 20
3.504395604804812
 30
0.0
 10
3.125047172101479
 20
3.508504376418703
 30
0.0
 10
3.119401591460785
 20
3.512615294266064
 30
0.0
  0
SPLINE
  5
15D
330
1F
100
AcDbEntity
  8
0
  6
HIDDEN
 62
     7
100
AcDbSpline
210
0.0
220
0.0
230
1.0
 70
     8
 71
     3
 72
     8
 73
     4
 74
     0
 42
0.00000001
 43
0.00000001
 40
0.0
 40
0.0
 40
0.0
 40
0.0
 40
0.0005371756237565
 40
0.0005371756237565
 40
0.0005371756237565
 40
0.0005371756237565
 10
3.123921689823765
 20
4.004741278518033
 30
0.0
 10
3.128031897739813
 20
4.01027345626868
 30
0.0
 10
3.132174962543059
 20
4.015782969791553
 30
0.0
 10
3.136347389473792
 20
4.021271519175885
 30
0.0
  0
LINE
  5
15E
330
1F
100
AcDbEntity
  8
0
  6
HIDDEN
 62
     7
100
AcDbLine
 10
4.0038014577
 20
3.459957814
 30
0.0
 11
3.8856912215
 21
3.459957814
 31
0.0
  0
LINE
  5
15F
330
1F
100
AcDbEntity
  8
0
  6
HIDDEN
 62
     7
100
AcDbLine
 10
3.993958938
 20
3.4501152943
 30
0.0
 11
3.8955337412
 21
3.4501152943
 31
0.0
  0
LINE
  5
160
330
1F
100
AcDbEntity
  8
0
  6
HIDDEN
 62
     7
100
AcDbLine
 10
3.9447463396
 20
4.0244263179
 30
0.0
 11
3.993958938
 21
4.0244263179
 31
0.0
  0
LINE
  5
161
330
1F
100
AcDbEntity
  8
0
  6
HIDDEN
 62
     7
100
AcDbLine
 10
3.8955337412
 20
4.0244263179
 30
0.0
 11
3.9447463396
 21
4.0244263179
 31
0.0
  0
LINE
  5
162
330
1F
100
AcDbEntity
  8
0
  6
HIDDEN
 62
     7
100
AcDbLine
 10
3.9447463396
 20
4.0244263179
 30
0.0
 11
3.9447463396
 21
4.1228515147
 31
0.0
  0
LINE
  5
163
330
1F
100
AcDbEntity
  8
0
  6
HIDDEN
 62
     7
100
AcDbLine
 10
3.8955337412
 20
4.0244263179
 30
0.0
 11
3.8955337412
 21
4.1228515147
 31
0.0
  0
LINE
  5
164
330
1F
100
AcDbEntity
  8
0
  6
HIDDEN
 62
     7
100
AcDbLine
 10
3.993958938
 20
4.0244263179
 30
0.0
 11
3.993958938
 21
4.1228515147
 31
0.0
  0
CIRCLE
  5
165
330
1F
100
AcDbEntity
  8
0
  6
HIDDEN
 62
     7
100
AcDbCircle
 10
2.7085258672
 20
3.4501152943
 30
0.0
 40
0.0590551181102366
  0
POLYLINE
  5
166
330
1F
100
AcDbEntity
  8
0
  6
HIDDEN
 62
     7
100
AcDb2dPolyline
 66
     1
 10
0.0
 20
0.0
 30
0.0
  0
VERTEX
  5
32E
330
166
100
AcDbEntity
  8
0
  6
HIDDEN
 62
     7
100
AcDbVertex
100
AcDb2dVertex
 10
2.8289074747
 20
3.8832901831
 30
0.0
  0
VERTEX
  5
32F
330
166
100
AcDbEntity
  8
0
  6
HIDDEN
 62
     7
100
AcDbVertex
100
AcDb2dVertex
 10
2.8289074747
 20
3.8832901831
 30
0.0
  0
SEQEND
  5
330
330
166
100
AcDbEntity
  8
0
  6
HIDDEN
 62
     7
  0
LINE
  5
167
330
1F
100
AcDbEntity
  8
0
  6
HIDDEN
 62
     7
100
AcDbLine
 10
2.5786046073
 20
3.8832901831
 30
0.0
 11
2.8289074747
 21
3.8832901831
 31
0.0
  0
LINE
  5
168
330
1F
100
AcDbEntity
  8
0
  6
HIDDEN
 62
     7
100
AcDbLine
 10
2.901111169
 20
3.6340663897
 30
0.0
 11
2.5786046073
 21
3.6340663897
 31
0.0
  0
SPLINE
  5
169
330
1F
100
AcDbEntity
  8
0
  6
HIDDEN
 62
     7
100
AcDbSpline
210
0.0
220
0.0
230
1.0
 70
     8
 71
     3
 72
     8
 73
     4
 74
     0
 42
0.00000001
 43
0.00000001
 40
0.0
 40
0.0
 40
0.0
 40
0.0
 40
1.0
 40
1.0
 40
1.0
 40
1.0
 10
2.578604607321561
 20
3.883290183120448
 30
0.0
 10
2.57204432677623
 20
3.889870895634226
 30
0.0
 10
2.565482456137753
 20
3.896450031327762
 30
0.0
 10
2.558919567951481
 20
3.903028157967227
 30
0.0
  0
ARC
  5
16A
330
1F
100
AcDbEntity
  8
0
  6
HIDDEN
 62
     7
100
AcDbCircle
 10
2.558919568
 20
3.6730483651
 30
0.0
 40
0.342191601049869
100
AcDbArc
 50
37.9081872373
 51
90.0
  0
SPLINE
  5
16B
330
1F
100
AcDbEntity
  8
0
  6
HIDDEN
 62
     7
100
AcDbSpline
210
0.0
220
0.0
230
1.0
 70
     8
 71
     3
 72
     8
 73
     4
 74
     0
 42
0.00000001
 43
0.00000001
 40
0.0
 40
0.0
 40
0.0
 40
0.0
 40
1.0
 40
1.0
 40
1.0
 40
1.0
 10
2.558919567951481
 20
3.614328414816867
 30
0.0
 10
2.565482452773198
 20
3.620906538083966
 30
0.0
 10
2.572044322881838
 20
3.627485673243346
 30
0.0
 10
2.578604607321561
 20
3.634066389663646
 30
0.0
  0
POLYLINE
  5
16C
330
1F
100
AcDbEntity
  8
0
  6
HIDDEN
 62
     7
100
AcDb2dPolyline
 66
     1
 10
0.0
 20
0.0
 30
0.0
  0
VERTEX
  5
331
330
16C
100
AcDbEntity
  8
0
  6
HIDDEN
 62
     7
100
AcDbVertex
100
AcDb2dVertex
 10
2.8151645755
 20
3.4314047537
 30
0.0
  0
VERTEX
  5
332
330
16C
100
AcDbEntity
  8
0
  6
HIDDEN
 62
     7
100
AcDbVertex
100
AcDb2dVertex
 10
2.8166104119
 20
3.4438200864
 30
0.0
  0
VERTEX
  5
333
330
16C
100
AcDbEntity
  8
0
  6
HIDDEN
 62
     7
100
AcDbVertex
100
AcDb2dVertex
 10
2.8167749806
 20
3.4521222529
 30
0.0
  0
SEQEND
  5
334
330
16C
100
AcDbEntity
  8
0
  6
HIDDEN
 62
     7
  0
ARC
  5
16D
330
1F
100
AcDbEntity
  8
0
  6
HIDDEN
 62
     7
100
AcDbCircle
 10
2.7085258672
 20
3.4501152943
 30
0.0
 40
0.108267716535433
100
AcDbArc
 50
80.6727556537
 51
197.7237277909
  0
CIRCLE
  5
16E
330
1F
100
AcDbEntity
  8
0
  6
HIDDEN
 62
     7
100
AcDbCircle
 10
2.7085258672
 20
3.4501152943
 30
0.0
 40
0.0492125984251968
  0
LINE
  5
16F
330
1F
100
AcDbEntity
  8
0
  6
HIDDEN
 62
     7
100
AcDbLine
 10
4.0530140561
 20
4.0047412785
 30
0.0
 11
4.0530140561
 21
4.1418328244
 31
0.0
  0
LINE
  5
170
330
1F
100
AcDbEntity
  8
0
  6
HIDDEN
 62
     7
100
AcDbLine
 10
3.8364786231
 20
4.1419518406
 30
0.0
 11
3.8364786231
 21
4.0047412785
 31
0.0
  0
LINE
  5
171
330
1F
100
AcDbEntity
  8
0
  6
HIDDEN
 62
     7
100
AcDbLine
 10
3.8856912215
 20
3.7488357667
 30
0.0
 11
3.8856912215
 21
3.3753586227
 31
0.0
  0
LINE
  5
172
330
1F
100
AcDbEntity
  8
0
  6
HIDDEN
 62
     7
100
AcDbLine
 10
4.0038014577
 20
3.3753849114
 30
0.0
 11
4.0038014577
 21
3.7488357667
 31
0.0
  0
LINE
  5
173
330
1F
100
AcDbEntity
  8
0
  6
HIDDEN
 62
     7
100
AcDbLine
 10
3.8856912215
 20
4.0047412785
 30
0.0
 11
3.8856912215
 21
3.7685208061
 31
0.0
  0
LINE
  5
174
330
1F
100
AcDbEntity
  8
0
  6
HIDDEN
 62
     7
100
AcDbLine
 10
4.0038014577
 20
3.7685208061
 30
0.0
 11
4.0038014577
 21
4.0047412785
 31
0.0
  0
LINE
  5
175
330
1F
100
AcDbEntity
  8
0
  6
HIDDEN
 62
     7
100
AcDbLine
 10
4.0943526388
 20
3.9033633258
 30
0.0
 11
4.0746675994
 21
3.8836782864
 31
0.0
  0
LINE
  5
176
330
1F
100
AcDbEntity
  8
0
  6
HIDDEN
 62
     7
100
AcDbLine
 10
4.0746675994
 20
3.6336782864
 30
0.0
 11
4.0943526388
 21
3.613993247
 31
0.0
  0
LINE
  5
177
330
1F
100
AcDbEntity
  8
0
  6
HIDDEN
 62
     7
100
AcDbLine
 10
3.7324759984
 20
3.8836782864
 30
0.0
 11
3.5366098567
 21
3.8836782864
 31
0.0
  0
LINE
  5
178
330
1F
100
AcDbEntity
  8
0
  6
HIDDEN
 62
     7
100
AcDbLine
 10
3.5366098567
 20
3.6336782864
 30
0.0
 11
3.7324759984
 21
3.6336782864
 31
0.0
  0
LINE
  5
179
330
1F
100
AcDbEntity
  8
0
  6
HIDDEN
 62
     7
100
AcDbLine
 10
4.0746675994
 20
3.8836782864
 30
0.0
 11
3.7521610378
 21
3.8836782864
 31
0.0
  0
LINE
  5
17A
330
1F
100
AcDbEntity
  8
0
  6
HIDDEN
 62
     7
100
AcDbLine
 10
3.7521610378
 20
3.6336782864
 30
0.0
 11
4.0746675994
 21
3.6336782864
 31
0.0
  0
LINE
  5
17B
330
1F
100
AcDbEntity
  8
0
  6
HIDDEN
 62
     7
100
AcDbLine
 10
3.1166623501
 20
3.6336782864
 30
0.0
 11
3.5366098567
 21
3.6336782864
 31
0.0
  0
LINE
  5
17C
330
1F
100
AcDbEntity
  8
0
  6
HIDDEN
 62
     7
100
AcDbLine
 10
3.5366098567
 20
3.8836782864
 30
0.0
 11
3.1166623501
 21
3.8836782864
 31
0.0
  0
LINE
  5
17D
330
1F
100
AcDbEntity
  8
0
  6
HIDDEN
 62
     7
100
AcDbLine
 10
4.0530140561
 20
4.0047412785
 30
0.0
 11
4.0530140561
 21
4.1130089951
 31
0.0
  0
LINE
  5
17E
330
1F
100
AcDbEntity
  8
0
  6
HIDDEN
 62
     7
100
AcDbLine
 10
3.8364786231
 20
4.1130089951
 30
0.0
 11
3.8364786231
 21
4.0047412785
 31
0.0
  0
ARC
  5
17F
330
1F
100
AcDbEntity
  8
0
  6
HIDDEN
 62
     7
100
AcDbCircle
 10
3.8463211428
 20
4.1130089951
 30
0.0
 40
0.0098425196850394
100
AcDbArc
 50
133.5764250649
 51
180.0
  0
ARC
  5
180
330
1F
100
AcDbEntity
  8
0
  6
HIDDEN
 62
     7
100
AcDbCircle
 10
4.0431715365
 20
4.1130089951
 30
0.0
 40
0.0098425196850389
100
AcDbArc
 50
0.0
 51
49.4336297341
  0
LINE
  5
181
330
1F
100
AcDbEntity
  8
0
  6
HIDDEN
 62
     7
100
AcDbLine
 10
4.0038014577
 20
3.459957814
 30
0.0
 11
4.0038014577
 21
3.7488357667
 31
0.0
  0
LINE
  5
182
330
1F
100
AcDbEntity
  8
0
  6
HIDDEN
 62
     7
100
AcDbLine
 10
4.0038014577
 20
3.7685208061
 30
0.0
 11
4.0038014577
 21
4.0047412785
 31
0.0
  0
LINE
  5
183
330
1F
100
AcDbEntity
  8
0
  6
HIDDEN
 62
     7
100
AcDbLine
 10
3.8856912215
 20
4.0047412785
 30
0.0
 11
3.8856912215
 21
3.7685208061
 31
0.0
  0
LINE
  5
184
330
1F
100
AcDbEntity
  8
0
  6
HIDDEN
 62
     7
100
AcDbLine
 10
3.8856912215
 20
3.7488357667
 30
0.0
 11
3.8856912215
 21
3.459957814
 31
0.0
  0
ARC
  5
185
330
1F
100
AcDbEntity
  8
0
  6
HIDDEN
 62
     7
100
AcDbCircle
 10
3.993958938
 20
3.459957814
 30
0.0
 40
0.0098425196850394
100
AcDbArc
 50
270.0
 51
0.0
  0
ARC
  5
186
330
1F
100
AcDbEntity
  8
0
  6
HIDDEN
 62
     7
100
AcDbCircle
 10
3.8955337412
 20
3.459957814
 30
0.0
 40
0.0098425196850394
100
AcDbArc
 50
180.0
 51
270.0
  0
LINE
  5
187
330
1F
100
AcDbEntity
  8
0
  6
HIDDEN
 62
     7
100
AcDbLine
 10
2.901111169
 20
3.8836782864
 30
0.0
 11
2.8289074747
 21
3.8836782864
 31
0.0
  0
LINE
  5
188
330
1F
100
AcDbEntity
  8
0
  6
HIDDEN
 62
     7
100
AcDbLine
 10
2.9207962084
 20
3.6336782864
 30
0.0
 11
3.1166623501
 21
3.6336782864
 31
0.0
  0
LINE
  5
189
330
1F
100
AcDbEntity
  8
0
  6
HIDDEN
 62
     7
100
AcDbLine
 10
3.1166623501
 20
3.8836782864
 30
0.0
 11
2.9207962084
 21
3.8836782864
 31
0.0
  0
LINE
  5
18A
330
1F
100
AcDbEntity
  8
0
  6
HIDDEN
 62
     7
100
AcDbLine
 10
4.0528308843
 20
4.1130089951
 30
0.0
 11
3.8366617949
 21
4.1130089951
 31
0.0
  0
LINE
  5
18B
330
1F
100
AcDbEntity
  8
0
  6
CONTINUOUS
 62
     7
100
AcDbLine
 10
7.8340538977
 20
4.1130089951
 30
0.0
 11
7.8340538977
 21
4.0202889603
 31
0.0
  0
ARC
  5
18C
330
1F
100
AcDbEntity
  8
0
  6
CONTINUOUS
 62
     7
100
AcDbCircle
 10
7.8438964173
 20
4.1130089951
 30
0.0
 40
0.0098425196850398
100
AcDbArc
 50
90.0
 51
180.0
  0
LINE
  5
18D
330
1F
100
AcDbEntity
  8
0
  6
CONTINUOUS
 62
     7
100
AcDbLine
 10
8.0013767323
 20
3.7488357667
 30
0.0
 11
8.0013767323
 21
3.7685208061
 31
0.0
  0
LINE
  5
18E
330
1F
100
AcDbEntity
  8
0
  6
CONTINUOUS
 62
     7
100
AcDbLine
 10
7.8832664961
 20
3.7685208061
 30
0.0
 11
7.8832664961
 21
3.7488357667
 31
0.0
  0
LINE
  5
18F
330
1F
100
AcDbEntity
  8
0
  6
CONTINUOUS
 62
     7
100
AcDbLine
 10
7.8965538977
 20
3.3418475777
 30
0.0
 11
7.9892739324
 21
3.3418475777
 31
0.0
  0
ARC
  5
190
330
1F
100
AcDbEntity
  8
0
  6
CONTINUOUS
 62
     7
100
AcDbCircle
 10
7.8965538977
 20
3.3516900974
 30
0.0
 40
0.0098425196850394
100
AcDbArc
 50
180.0
 51
270.0
  0
ARC
  5
191
330
1F
100
AcDbEntity
  8
0
  6
CONTINUOUS
 62
     7
100
AcDbCircle
 10
8.2508846063
 20
3.7586782864
 30
0.0
 40
0.4724409448818883
100
AcDbArc
 50
181.1937484371
 51
178.8062515629
  0
LINE
  5
192
330
1F
100
AcDbEntity
  8
0
  6
CONTINUOUS
 62
     7
100
AcDbLine
 10
7.7588570571
 20
3.7685208061
 30
0.0
 11
7.7785461988
 21
3.7685208061
 31
0.0
  0
ARC
  5
193
330
1F
100
AcDbEntity
  8
0
  6
CONTINUOUS
 62
     7
100
AcDbCircle
 10
8.2508846063
 20
3.7586782864
 30
0.0
 40
0.4921259842519674
100
AcDbArc
 50
181.1459919984
 51
178.8540080016
  0
LINE
  5
194
330
1F
100
AcDbEntity
  8
0
  6
CONTINUOUS
 62
     7
100
AcDbLine
 10
7.7588570571
 20
3.7488357667
 30
0.0
 11
7.7785461988
 21
3.7488357667
 31
0.0
  0
ARC
  5
195
330
1F
100
AcDbEntity
  8
0
  6
CONTINUOUS
 62
     7
100
AcDbCircle
 10
8.2508846063
 20
3.7586782864
 30
0.0
 40
0.1446850393700792
100
AcDbArc
 50
183.9006845638
 51
356.0993154362
  0
LINE
  5
196
330
1F
100
AcDbEntity
  8
0
  6
CONTINUOUS
 62
     7
100
AcDbLine
 10
8.3952344779
 20
3.7488357667
 30
0.0
 11
8.5074462861
 21
3.7488357667
 31
0.0
  0
LINE
  5
197
330
1F
100
AcDbEntity
  8
0
  6
CONTINUOUS
 62
     7
100
AcDbLine
 10
8.5074462861
 20
3.7488357667
 30
0.0
 11
8.5074462861
 21
3.7685208061
 31
0.0
  0
LINE
  5
198
330
1F
100
AcDbEntity
  8
0
  6
CONTINUOUS
 62
     7
100
AcDbLine
 10
8.3952344779
 20
3.7685208061
 30
0.0
 11
8.5074462861
 21
3.7685208061
 31
0.0
  0
ARC
  5
199
330
1F
100
AcDbEntity
  8
0
  6
CONTINUOUS
 62
     7
100
AcDbCircle
 10
8.2508846063
 20
3.7586782864
 30
0.0
 40
0.1446850393700792
100
AcDbArc
 50
3.9006845638
 51
176.0993154362
  0
LINE
  5
19A
330
1F
100
AcDbEntity
  8
0
  6
CONTINUOUS
 62
     7
100
AcDbLine
 10
7.7785461988
 20
3.7685208061
 30
0.0
 11
8.1065347347
 21
3.7685208061
 31
0.0
  0
LINE
  5
19B
330
1F
100
AcDbEntity
  8
0
  6
CONTINUOUS
 62
     7
100
AcDbLine
 10
7.7785461988
 20
3.7488357667
 30
0.0
 11
8.1065347347
 21
3.7488357667
 31
0.0
  0
SPLINE
  5
19C
330
1F
100
AcDbEntity
  8
0
  6
CONTINUOUS
 62
     7
100
AcDbSpline
210
0.0
220
0.0
230
1.0
 70
     8
 71
     3
 72
     8
 73
     4
 74
     0
 42
0.00000001
 43
0.00000001
 40
0.0
 40
0.0
 40
0.0
 40
0.0
 40
1.0
 40
1.0
 40
1.0
 40
1.0
 10
8.375496503052391
 20
3.748835766707008
 30
0.0
 10
8.376014779911952
 20
3.755397446497034
 30
0.0
 10
8.376014779911952
 20
3.76195912628706
 30
0.0
 10
8.375496503052391
 20
3.768520806077087
 30
0.0
  0
ARC
  5
19D
330
1F
100
AcDbEntity
  8
0
  6
CONTINUOUS
 62
     7
100
AcDbCircle
 10
8.2508846063
 20
3.7586782864
 30
0.0
 40
0.1250000000000008
100
AcDbArc
 50
4.5161536273
 51
175.4838463727
  0
SPLINE
  5
19E
330
1F
100
AcDbEntity
  8
0
  6
CONTINUOUS
 62
     7
100
AcDbSpline
210
0.0
220
0.0
230
1.0
 70
    24
 71
     3
 72
     8
 73
     4
 74
     0
 42
0.00000001
 43
0.00000001
 40
0.0
 40
0.0
 40
0.0
 40
0.0
 40
1.0
 40
1.0
 40
1.0
 40
1.0
 10
8.106534734748811
 20
3.768520806077087
 30
0.0
 10
8.113112858015908
 20
3.768520806077087
 30
0.0
 10
8.119691993175287
 20
3.768520806077087
 30
0.0
 10
8.12627270959559
 20
3.768520806077087
 30
0.0
  0
SPLINE
  5
19F
330
1F
100
AcDbEntity
  8
0
  6
CONTINUOUS
 62
     7
100
AcDbSpline
210
0.0
220
0.0
230
1.0
 70
    24
 71
     3
 72
     8
 73
     4
 74
     0
 42
0.00000001
 43
0.00000001
 40
0.0
 40
0.0
 40
0.0
 40
0.0
 40
1.0
 40
1.0
 40
1.0
 40
1.0
 10
8.375496503052391
 20
3.768520806077087
 30
0.0
 10
8.38207721556617
 20
3.768520806077087
 30
0.0
 10
8.388656351259705
 20
3.768520806077087
 30
0.0
 10
8.39523447789917
 20
3.768520806077087
 30
0.0
  0
ARC
  5
1A0
330
1F
100
AcDbEntity
  8
0
  6
CONTINUOUS
 62
     7
100
AcDbCircle
 10
8.2508846063
 20
3.7586782864
 30
0.0
 40
0.1250000000000008
100
AcDbArc
 50
184.5161536273
 51
355.4838463727
  0
SPLINE
  5
1A1
330
1F
100
AcDbEntity
  8
0
  6
CONTINUOUS
 62
     7
100
AcDbSpline
210
0.0
220
0.0
230
1.0
 70
    24
 71
     3
 72
     8
 73
     4
 74
     0
 42
0.00000001
 43
0.00000001
 40
0.0
 40
0.0
 40
0.0
 40
0.0
 40
1.0
 40
1.0
 40
1.0
 40
1.0
 10
8.106534734748811
 20
3.748835766707008
 30
0.0
 10
8.113112858015908
 20
3.748835766707008
 30
0.0
 10
8.119691993175287
 20
3.748835766707008
 30
0.0
 10
8.12627270959559
 20
3.748835766707008
 30
0.0
  0
SPLINE
  5
1A2
330
1F
100
AcDbEntity
  8
0
  6
CONTINUOUS
 62
     7
100
AcDbSpline
210
0.0
220
0.0
230
1.0
 70
    24
 71
     3
 72
     8
 73
     4
 74
     0
 42
0.00000001
 43
0.00000001
 40
0.0
 40
0.0
 40
0.0
 40
0.0
 40
1.0
 40
1.0
 40
1.0
 40
1.0
 10
8.375496503052391
 20
3.748835766707008
 30
0.0
 10
8.38207721556617
 20
3.748835766707008
 30
0.0
 10
8.388656351259705
 20
3.748835766707008
 30
0.0
 10
8.39523447789917
 20
3.748835766707008
 30
0.0
  0
ARC
  5
1A3
330
1F
100
AcDbEntity
  8
0
  6
CONTINUOUS
 62
     7
100
AcDbCircle
 10
8.2508846063
 20
3.7586782864
 30
0.0
 40
0.1250000000000008
100
AcDbArc
 50
175.4838463727
 51
184.5161536273
  0
POLYLINE
  5
1A4
330
1F
100
AcDbEntity
  8
0
  6
CONTINUOUS
 62
     7
100
AcDb2dPolyline
 66
     1
 10
0.0
 20
0.0
 30
0.0
  0
VERTEX
  5
335
330
1A4
100
AcDbEntity
  8
0
  6
CONTINUOUS
 62
     7
100
AcDbVertex
100
AcDb2dVertex
 10
7.7588570571
 20
3.7685208061
 30
0.0
  0
VERTEX
  5
336
330
1A4
100
AcDbEntity
  8
0
  6
CONTINUOUS
 62
     7
100
AcDbVertex
100
AcDb2dVertex
 10
7.7587586221
 20
3.7586782864
 30
0.0
  0
VERTEX
  5
337
330
1A4
100
AcDbEntity
  8
0
  6
CONTINUOUS
 62
     7
100
AcDbVertex
100
AcDb2dVertex
 10
7.7588570571
 20
3.7488357667
 30
0.0
  0
SEQEND
  5
338
330
1A4
100
AcDbEntity
  8
0
  6
CONTINUOUS
 62
     7
  0
LINE
  5
1A5
330
1F
100
AcDbEntity
  8
0
  6
CONTINUOUS
 62
     7
100
AcDbLine
 10
7.8438964173
 20
4.1228515147
 30
0.0
 11
7.919877289
 21
4.1228515147
 31
0.0
  0
LINE
  5
1A6
330
1F
100
AcDbEntity
  8
0
  6
CONTINUOUS
 62
     7
100
AcDbLine
 10
7.886711378
 20
3.4276709691
 30
0.0
 11
7.886711378
 21
3.3516900974
 31
0.0
  0
LINE
  5
1A7
330
1F
100
AcDbEntity
  8
0
  6
CONTINUOUS
 62
     8
100
AcDbLine
 10
7.9093619376
 20
4.1130089951
 30
0.0
 11
7.8340538977
 21
4.1130089951
 31
0.0
  0
LINE
  5
1A8
330
1F
100
AcDbEntity
  8
0
  6
CONTINUOUS
 62
     8
100
AcDbLine
 10
7.8965538977
 20
3.3418475777
 30
0.0
 11
7.8965538977
 21
3.4171556176
 31
0.0
  0
LINE
  5
1A9
330
1F
100
AcDbEntity
  8
0
  6
HIDDEN
 62
     7
100
AcDbLine
 10
7.8340538977
 20
4.0047412785
 30
0.0
 11
8.0505893307
 21
4.0047412785
 31
0.0
  0
LINE
  5
1AA
330
1F
100
AcDbEntity
  8
0
  6
HIDDEN
 62
     7
100
AcDbLine
 10
8.3758846063
 20
3.2826919585
 30
0.0
 11
8.3758846063
 21
3.7482440749
 31
0.0
  0
LINE
  5
1AB
330
1F
100
AcDbEntity
  8
0
  6
HIDDEN
 62
     7
100
AcDbLine
 10
8.3758846063
 20
3.7691124979
 30
0.0
 11
8.3758846063
 21
4.2346646143
 31
0.0
  0
POLYLINE
  5
1AC
330
1F
100
AcDbEntity
  8
0
  6
HIDDEN
 62
     7
100
AcDb2dPolyline
 66
     1
 10
0.0
 20
0.0
 30
0.0
  0
VERTEX
  5
339
330
1AC
100
AcDbEntity
  8
0
  6
HIDDEN
 62
     7
100
AcDbVertex
100
AcDb2dVertex
 10
8.3754965031
 20
3.7685208061
 30
0.0
  0
VERTEX
  5
33A
330
1AC
100
AcDbEntity
  8
0
  6
HIDDEN
 62
     7
100
AcDbVertex
100
AcDb2dVertex
 10
8.3758846063
 20
3.7586782864
 30
0.0
  0
VERTEX
  5
33B
330
1AC
100
AcDbEntity
  8
0
  6
HIDDEN
 62
     7
100
AcDbVertex
100
AcDb2dVertex
 10
8.3754965031
 20
3.7488357667
 30
0.0
  0
SEQEND
  5
33C
330
1AC
100
AcDbEntity
  8
0
  6
HIDDEN
 62
     7
  0
SPLINE
  5
1AD
330
1F
100
AcDbEntity
  8
0
  6
HIDDEN
 62
     7
100
AcDbSpline
210
0.0
220
0.0
230
1.0
 70
    24
 71
     3
 72
     8
 73
     4
 74
     0
 42
0.00000001
 43
0.00000001
 40
0.0
 40
0.0
 40
0.0
 40
0.0
 40
0.0007668413384707
 40
0.0007668413384707
 40
0.0007668413384707
 40
0.0007668413384707
 10
8.004821614198006
 20
4.161981460576061
 30
0.0
 10
8.004821614198006
 20
4.169635428350553
 30
0.0
 10
8.004821614198006
 20
4.177264573493923
 30
0.0
 10
8.004821614198006
 20
4.184871890616672
 30
0.0
  0
SPLINE
  5
1AE
330
1F
100
AcDbEntity
  8
0
  6
HIDDEN
 62
     7
100
AcDbSpline
210
0.0
220
0.0
230
1.0
 70
    24
 71
     3
 72
     8
 73
     4
 74
     0
 42
0.00000001
 43
0.00000001
 40
0.0
 40
0.0
 40
0.0
 40
0.0
 40
0.0007668413384707
 40
0.0007668413384707
 40
0.0007668413384707
 40
0.0007668413384707
 10
8.004821614198006
 20
3.332484682167422
 30
0.0
 10
8.004821614198006
 20
3.340091999290171
 30
0.0
 10
8.004821614198006
 20
3.347721144433541
 30
0.0
 10
8.004821614198006
 20
3.355375112208034
 30
0.0
  0
LINE
  5
1AF
330
1F
100
AcDbEntity
  8
0
  6
HIDDEN
 62
     7
100
AcDbLine
 10
8.4969475984
 20
3.3324846822
 30
0.0
 11
8.4969475984
 21
4.1848718906
 31
0.0
  0
LINE
  5
1B0
330
1F
100
AcDbEntity
  8
0
  6
HIDDEN
 62
     7
100
AcDbLine
 10
7.7785461988
 20
3.7488357667
 30
0.0
 11
7.7785461988
 21
3.7685208061
 31
0.0
  0
LINE
  5
1B1
330
1F
100
AcDbEntity
  8
0
  6
HIDDEN
 62
     7
100
AcDbLine
 10
8.0048216142
 20
3.3553751122
 30
0.0
 11
8.0048216142
 21
4.1619814606
 31
0.0
  0
SPLINE
  5
1B2
330
1F
100
AcDbEntity
  8
0
  6
HIDDEN
 62
     7
100
AcDbSpline
210
0.0
220
0.0
230
1.0
 70
    24
 71
     3
 72
     8
 73
     4
 74
     0
 42
0.00000001
 43
0.00000001
 40
0.0
 40
0.0
 40
0.0
 40
0.0
 40
0.0005371756237565
 40
0.0005371756237565
 40
0.0005371756237565
 40
0.0005371756237565
 10
8.513477839107827
 20
4.174890706283745
 30
0.0
 10
8.507989289723495
 20
4.173420053908595
 30
0.0
 10
8.502479776200621
 20
4.171943784209453
 30
0.0
 10
8.496947598449974
 20
4.170461441648781
 30
0.0
  0
SPLINE
  5
1B3
330
1F
100
AcDbEntity
  8
0
  6
HIDDEN
 62
     7
100
AcDbSpline
210
0.0
220
0.0
230
1.0
 70
    24
 71
     3
 72
     8
 73
     4
 74
     0
 42
0.00000001
 43
0.00000001
 40
0.0
 40
0.0
 40
0.0
 40
0.0
 40
0.0006175109583466
 40
0.0006175109583466
 40
0.0006175109583466
 40
0.0006175109583466
 10
8.496947598449974
 20
3.352169721537501
 30
0.0
 10
8.501058516297336
 20
3.348058803690139
 30
0.0
 10
8.505167287911227
 20
3.343950032076248
 30
0.0
 10
8.509274130332406
 20
3.33984318965507
 30
0.0
  0
LINE
  5
1B4
330
1F
100
AcDbEntity
  8
0
  6
HIDDEN
 62
     7
100
AcDbLine
 10
8.4969475984
 20
3.3553751122
 30
0.0
 11
8.4969475984
 21
4.1619814606
 31
0.0
  0
SPLINE
  5
1B5
330
1F
100
AcDbEntity
  8
0
  6
HIDDEN
 62
     7
100
AcDbSpline
210
0.0
220
0.0
230
1.0
 70
    24
 71
     3
 72
     8
 73
     4
 74
     0
 42
0.00000001
 43
0.00000001
 40
0.0
 40
0.0
 40
0.0
 40
0.0
 40
0.0005371756237565
 40
0.0005371756237565
 40
0.0005371756237565
 40
0.0005371756237565
 10
7.988291373540154
 20
3.34246586650035
 30
0.0
 10
7.993779922924485
 20
3.343936518875499
 30
0.0
 10
7.999289436447358
 20
3.345412788574642
 30
0.0
 10
8.004821614198006
 20
3.346895131135313
 30
0.0
  0
SPLINE
  5
1B6
330
1F
100
AcDbEntity
  8
0
  6
HIDDEN
 62
     7
100
AcDbSpline
210
0.0
220
0.0
230
1.0
 70
    24
 71
     3
 72
     8
 73
     4
 74
     0
 42
0.00000001
 43
0.00000001
 40
0.0
 40
0.0
 40
0.0
 40
0.0
 40
0.0006175109583466
 40
0.0006175109583466
 40
0.0006175109583466
 40
0.0006175109583466
 10
7.992495082315575
 20
4.177513383129025
 30
0.0
 10
7.996601924736753
 20
4.173406540707846
 30
0.0
 10
8.000710696350644
 20
4.169297769093955
 30
0.0
 10
8.004821614198006
 20
4.165186851246593
 30
0.0
  0
SPLINE
  5
1B7
330
1F
100
AcDbEntity
  8
0
  6
HIDDEN
 62
     7
100
AcDbSpline
210
0.0
220
0.0
230
1.0
 70
    24
 71
     3
 72
     8
 73
     4
 74
     0
 42
0.00000001
 43
0.00000001
 40
0.0
 40
0.0
 40
0.0
 40
0.0
 40
0.0005371756237565
 40
0.0005371756237565
 40
0.0005371756237565
 40
0.0005371756237565
 10
8.662667761580723
 20
4.004741278518033
 30
0.0
 10
8.664150104141395
 20
4.01027345626868
 30
0.0
 10
8.665626373840537
 20
4.015782969791553
 30
0.0
 10
8.667097026215686
 20
4.021271519175885
 30
0.0
  0
SPLINE
  5
1B8
330
1F
100
AcDbEntity
  8
0
  6
HIDDEN
 62
     7
100
AcDbSpline
210
0.0
220
0.0
230
1.0
 70
    24
 71
     3
 72
     8
 73
     4
 74
     0
 42
0.00000001
 43
0.00000001
 40
0.0
 40
0.0
 40
0.0
 40
0.0
 40
0.0006175109583466
 40
0.0006175109583466
 40
0.0006175109583466
 40
0.0006175109583466
 10
8.669719703060968
 20
3.500288762383633
 30
0.0
 10
8.66561286063979
 20
3.504395604804812
 30
0.0
 10
8.661504089025899
 20
3.508504376418703
 30
0.0
 10
8.657393171178537
 20
3.512615294266064
 30
0.0
  0
SPLINE
  5
1B9
330
1F
100
AcDbEntity
  8
0
  6
HIDDEN
 62
     7
100
AcDbSpline
210
0.0
220
0.0
230
1.0
 70
    24
 71
     3
 72
     8
 73
     4
 74
     0
 42
0.00000001
 43
0.00000001
 40
0.0
 40
0.0
 40
0.0
 40
0.0
 40
0.0005371756237565
 40
0.0005371756237565
 40
0.0005371756237565
 40
0.0005371756237565
 10
7.839101451067258
 20
3.512615294266062
 30
0.0
 10
7.837619108506586
 20
3.507083116515414
 30
0.0
 10
7.836142838807444
 20
3.50157360299254
 30
0.0
 10
7.834672186432294
 20
3.496085053608208
 30
0.0
  0
SPLINE
  5
1BA
330
1F
100
AcDbEntity
  8
0
  6
HIDDEN
 62
     7
100
AcDbSpline
210
0.0
220
0.0
230
1.0
 70
    24
 71
     3
 72
     8
 73
     4
 74
     0
 42
0.00000001
 43
0.00000001
 40
0.0
 40
0.0
 40
0.0
 40
0.0
 40
0.0006175109583466
 40
0.0006175109583466
 40
0.0006175109583466
 40
0.0006175109583466
 10
7.844376041469443
 20
4.00474127851803
 30
0.0
 10
7.84026512362208
 20
4.008852196365392
 30
0.0
 10
7.83615635200819
 20
4.012960967979282
 30
0.0
 10
7.832049509587012
 20
4.017067810400461
 30
0.0
  0
SPLINE
  5
1BB
330
1F
100
AcDbEntity
  8
0
  6
HIDDEN
 62
     7
100
AcDbSpline
210
0.0
220
0.0
230
1.0
 70
    24
 71
     3
 72
     8
 73
     4
 74
     0
 42
0.00000001
 43
0.00000001
 40
0.0
 40
0.0
 40
0.0
 40
0.0
 40
0.0002835351067171
 40
0.0002835351067171
 40
0.0002835351067171
 40
0.0002835351067171
 10
8.662667761580723
 20
4.004741278518033
 30
0.0
 10
8.659844397600931
 20
4.004741278518033
 30
0.0
 10
8.657017790395155
 20
4.004741278518033
 30
0.0
 10
8.654187780508002
 20
4.004741278518033
 30
0.0
  0
SPLINE
  5
1BC
330
1F
100
AcDbEntity
  8
0
  6
HIDDEN
 62
     7
100
AcDbSpline
210
0.0
220
0.0
230
1.0
 70
    24
 71
     3
 72
     8
 73
     4
 74
     0
 42
0.00000001
 43
0.00000001
 40
0.0
 40
0.0
 40
0.0
 40
0.0
 40
0.0002835351067171
 40
0.0002835351067171
 40
0.0002835351067171
 40
0.0002835351067171
 10
7.839101451067258
 20
3.512615294266062
 30
0.0
 10
7.841924815047049
 20
3.512615294266062
 30
0.0
 10
7.844751422252824
 20
3.512615294266062
 30
0.0
 10
7.847581432139978
 20
3.512615294266062
 30
0.0
  0
SPLINE
  5
1BD
330
1F
100
AcDbEntity
  8
0
  6
HIDDEN
 62
     7
100
AcDbSpline
210
0.0
220
0.0
230
1.0
 70
    24
 71
     3
 72
     8
 73
     4
 74
     0
 42
0.00000001
 43
0.00000001
 40
0.0
 40
0.0
 40
0.0
 40
0.0
 40
0.0001070963901295
 40
0.0001070963901295
 40
0.0001070963901295
 40
0.0001070963901295
 10
8.654187780508002
 20
3.512615294266064
 30
0.0
 10
8.655256726948018
 20
3.512615294266064
 30
0.0
 10
8.656325187584807
 20
3.512615294266064
 30
0.0
 10
8.657393171178537
 20
3.512615294266064
 30
0.0
  0
LINE
  5
1BE
330
1F
100
AcDbEntity
  8
0
  6
HIDDEN
 62
     7
100
AcDbLine
 10
8.6541877805
 20
3.5126152943
 30
0.0
 11
7.8475814321
 21
3.5126152943
 31
0.0
  0
LINE
  5
1BF
330
1F
100
AcDbEntity
  8
0
  6
HIDDEN
 62
     7
100
AcDbLine
 10
8.0505893307
 20
4.0047412785
 30
0.0
 11
8.6541877805
 21
4.0047412785
 31
0.0
  0
LINE
  5
1C0
330
1F
100
AcDbEntity
  8
0
  6
HIDDEN
 62
     7
100
AcDbLine
 10
7.919877289
 20
4.1228515147
 30
0.0
 11
8.0407468107
 21
4.1228515147
 31
0.0
  0
LINE
  5
1C1
330
1F
100
AcDbEntity
  8
0
  6
HIDDEN
 62
     7
100
AcDbLine
 10
8.0013767323
 20
3.459957814
 30
0.0
 11
7.8832664961
 21
3.459957814
 31
0.0
  0
LINE
  5
1C2
330
1F
100
AcDbEntity
  8
0
  6
HIDDEN
 62
     7
100
AcDbLine
 10
7.9915342126
 20
3.4501152943
 30
0.0
 11
7.8931090181
 21
3.4501152943
 31
0.0
  0
LINE
  5
1C3
330
1F
100
AcDbEntity
  8
0
  6
HIDDEN
 62
     7
100
AcDbLine
 10
7.9707345211
 20
4.0244263179
 30
0.0
 11
7.9991474281
 21
4.0244263179
 31
0.0
  0
LINE
  5
1C4
330
1F
100
AcDbEntity
  8
0
  6
HIDDEN
 62
     7
100
AcDbLine
 10
7.9139087072
 20
4.0244263179
 30
0.0
 11
7.9707345211
 21
4.0244263179
 31
0.0
  0
LINE
  5
1C5
330
1F
100
AcDbEntity
  8
0
  6
HIDDEN
 62
     7
100
AcDbLine
 10
7.9707345211
 20
4.0244263179
 30
0.0
 11
7.9707345211
 21
4.1228515147
 31
0.0
  0
LINE
  5
1C6
330
1F
100
AcDbEntity
  8
0
  6
HIDDEN
 62
     7
100
AcDbLine
 10
7.9139087072
 20
4.0244263179
 30
0.0
 11
7.9139087072
 21
4.1228515147
 31
0.0
  0
LINE
  5
1C7
330
1F
100
AcDbEntity
  8
0
  6
HIDDEN
 62
     7
100
AcDbLine
 10
7.8854958003
 20
4.0244263179
 30
0.0
 11
7.9139087072
 21
4.0244263179
 31
0.0
  0
LINE
  5
1C8
330
1F
100
AcDbEntity
  8
0
  6
HIDDEN
 62
     7
100
AcDbLine
 10
7.9991474281
 20
4.0244263179
 30
0.0
 11
7.9991474281
 21
4.1228515147
 31
0.0
  0
LINE
  5
1C9
330
1F
100
AcDbEntity
  8
0
  6
HIDDEN
 62
     7
100
AcDbLine
 10
7.8854958003
 20
4.0244263179
 30
0.0
 11
7.8854958003
 21
4.1228515147
 31
0.0
  0
LINE
  5
1CA
330
1F
100
AcDbEntity
  8
0
  6
HIDDEN
 62
     7
100
AcDbLine
 10
8.6770782105
 20
4.0047412785
 30
0.0
 11
8.6627930757
 21
4.0047412785
 31
0.0
  0
LINE
  5
1CB
330
1F
100
AcDbEntity
  8
0
  6
HIDDEN
 62
     7
100
AcDbLine
 10
8.6575052514
 20
3.5126152943
 30
0.0
 11
8.6770782105
 21
3.5126152943
 31
0.0
  0
LINE
  5
1CC
330
1F
100
AcDbEntity
  8
0
  6
HIDDEN
 62
     7
100
AcDbLine
 10
7.8246910021
 20
3.5126152943
 30
0.0
 11
7.838976137
 21
3.5126152943
 31
0.0
  0
LINE
  5
1CD
330
1F
100
AcDbEntity
  8
0
  6
HIDDEN
 62
     7
100
AcDbLine
 10
7.8332368236
 20
4.0047412785
 30
0.0
 11
7.8246910021
 21
4.0047412785
 31
0.0
  0
LINE
  5
1CE
330
1F
100
AcDbEntity
  8
0
  6
HIDDEN
 62
     7
100
AcDbLine
 10
8.7268709343
 20
3.8836782864
 30
0.0
 11
8.2508846063
 21
3.8836782864
 31
0.0
  0
LINE
  5
1CF
330
1F
100
AcDbEntity
  8
0
  6
HIDDEN
 62
     7
100
AcDbLine
 10
8.2508846063
 20
3.8836782864
 30
0.0
 11
7.7748982784
 21
3.8836782864
 31
0.0
  0
LINE
  5
1D0
330
1F
100
AcDbEntity
  8
0
  6
HIDDEN
 62
     7
100
AcDbLine
 10
8.260727126
 20
3.2666507372
 30
0.0
 11
8.260727126
 21
3.6340663897
 31
0.0
  0
LINE
  5
1D1
330
1F
100
AcDbEntity
  8
0
  6
HIDDEN
 62
     7
100
AcDbLine
 10
8.2410420866
 20
3.2666507372
 30
0.0
 11
8.2410420866
 21
3.6340663897
 31
0.0
  0
LINE
  5
1D2
330
1F
100
AcDbEntity
  8
0
  6
HIDDEN
 62
     7
100
AcDbLine
 10
8.260727126
 20
4.0152399662
 30
0.0
 11
8.2410420866
 21
4.0152399662
 31
0.0
  0
LINE
  5
1D3
330
1F
100
AcDbEntity
  8
0
  6
HIDDEN
 62
     7
100
AcDbLine
 10
8.2410420866
 20
4.0152399662
 30
0.0
 11
8.2410420866
 21
3.8832901831
 31
0.0
  0
LINE
  5
1D4
330
1F
100
AcDbEntity
  8
0
  6
HIDDEN
 62
     7
100
AcDbLine
 10
8.260727126
 20
4.0152399662
 30
0.0
 11
8.260727126
 21
3.8832901831
 31
0.0
  0
POLYLINE
  5
1D5
330
1F
100
AcDbEntity
  8
0
  6
HIDDEN
 62
     7
100
AcDb2dPolyline
 66
     1
 10
0.0
 20
0.0
 30
0.0
  0
VERTEX
  5
33D
330
1D5
100
AcDbEntity
  8
0
  6
HIDDEN
 62
     7
100
AcDbVertex
100
AcDb2dVertex
 10
8.1065347347
 20
3.7488357667
 30
0.0
  0
VERTEX
  5
33E
330
1D5
100
AcDbEntity
  8
0
  6
HIDDEN
 62
     7
100
AcDbVertex
100
AcDb2dVertex
 10
8.106199567
 20
3.7586782864
 30
0.0
  0
VERTEX
  5
33F
330
1D5
100
AcDbEntity
  8
0
  6
HIDDEN
 62
     7
100
AcDbVertex
100
AcDb2dVertex
 10
8.1065347347
 20
3.7685208061
 30
0.0
  0
SEQEND
  5
340
330
1D5
100
AcDbEntity
  8
0
  6
HIDDEN
 62
     7
  0
POLYLINE
  5
1D6
330
1F
100
AcDbEntity
  8
0
  6
HIDDEN
 62
     7
100
AcDb2dPolyline
 66
     1
 10
0.0
 20
0.0
 30
0.0
  0
VERTEX
  5
341
330
1D6
100
AcDbEntity
  8
0
  6
HIDDEN
 62
     7
100
AcDbVertex
100
AcDb2dVertex
 10
8.3952344779
 20
3.7685208061
 30
0.0
  0
VERTEX
  5
342
330
1D6
100
AcDbEntity
  8
0
  6
HIDDEN
 62
     7
100
AcDbVertex
100
AcDb2dVertex
 10
8.3955696457
 20
3.7586782864
 30
0.0
  0
VERTEX
  5
343
330
1D6
100
AcDbEntity
  8
0
  6
HIDDEN
 62
     7
100
AcDbVertex
100
AcDb2dVertex
 10
8.3952344779
 20
3.7488357667
 30
0.0
  0
SEQEND
  5
344
330
1D6
100
AcDbEntity
  8
0
  6
HIDDEN
 62
     7
  0
LINE
  5
1D7
330
1F
100
AcDbEntity
  8
0
  6
HIDDEN
 62
     7
100
AcDbLine
 10
7.886711378
 20
3.4276709691
 30
0.0
 11
7.886711378
 21
3.5485404911
 31
0.0
  0
LINE
  5
1D8
330
1F
100
AcDbEntity
  8
0
  6
HIDDEN
 62
     7
100
AcDbLine
 10
8.5594475984
 20
3.4009026981
 30
0.0
 11
8.5594475984
 21
3.4993278927
 31
0.0
  0
LINE
  5
1D9
330
1F
100
AcDbEntity
  8
0
  6
HIDDEN
 62
     7
100
AcDbLine
 10
8.5496050788
 20
3.5091704124
 30
0.0
 11
8.5496050788
 21
3.3910601762
 31
0.0
  0
LINE
  5
1DA
330
1F
100
AcDbEntity
  8
0
  6
HIDDEN
 62
     7
100
AcDbLine
 10
7.9851365748
 20
3.4217023873
 30
0.0
 11
7.9851365748
 21
3.3932894804
 31
0.0
  0
LINE
  5
1DB
330
1F
100
AcDbEntity
  8
0
  6
HIDDEN
 62
     7
100
AcDbLine
 10
7.9851365748
 20
3.4217023873
 30
0.0
 11
7.886711378
 21
3.4217023873
 31
0.0
  0
LINE
  5
1DC
330
1F
100
AcDbEntity
  8
0
  6
HIDDEN
 62
     7
100
AcDbLine
 10
7.9851365748
 20
3.4785282012
 30
0.0
 11
7.9851365748
 21
3.4217023873
 31
0.0
  0
LINE
  5
1DD
330
1F
100
AcDbEntity
  8
0
  6
HIDDEN
 62
     7
100
AcDbLine
 10
7.9851365748
 20
3.4785282012
 30
0.0
 11
7.886711378
 21
3.4785282012
 31
0.0
  0
LINE
  5
1DE
330
1F
100
AcDbEntity
  8
0
  6
HIDDEN
 62
     7
100
AcDbLine
 10
7.9851365748
 20
3.5069411082
 30
0.0
 11
7.9851365748
 21
3.4785282012
 31
0.0
  0
LINE
  5
1DF
330
1F
100
AcDbEntity
  8
0
  6
HIDDEN
 62
     7
100
AcDbLine
 10
7.9851365748
 20
3.3932894804
 30
0.0
 11
7.886711378
 21
3.3932894804
 31
0.0
  0
LINE
  5
1E0
330
1F
100
AcDbEntity
  8
0
  6
HIDDEN
 62
     7
100
AcDbLine
 10
7.9851365748
 20
3.5069411082
 30
0.0
 11
7.886711378
 21
3.5069411082
 31
0.0
  0
LINE
  5
1E1
330
1F
100
AcDbEntity
  8
0
  6
HIDDEN
 62
     7
100
AcDbLine
 10
8.0505893307
 20
4.0047412785
 30
0.0
 11
8.0505893307
 21
4.2082000177
 31
0.0
  0
LINE
  5
1E2
330
1F
100
AcDbEntity
  8
0
  6
HIDDEN
 62
     7
100
AcDbLine
 10
7.8340538977
 20
4.0204978843
 30
0.0
 11
7.8340538977
 21
4.0047412785
 31
0.0
  0
LINE
  5
1E3
330
1F
100
AcDbEntity
  8
0
  6
HIDDEN
 62
     7
100
AcDbLine
 10
7.8832664961
 20
4.0047412785
 30
0.0
 11
7.8832664961
 21
3.7685208061
 31
0.0
  0
LINE
  5
1E4
330
1F
100
AcDbEntity
  8
0
  6
HIDDEN
 62
     7
100
AcDbLine
 10
8.0013767323
 20
3.7685208061
 30
0.0
 11
8.0013767323
 21
4.0047412785
 31
0.0
  0
LINE
  5
1E5
330
1F
100
AcDbEntity
  8
0
  6
HIDDEN
 62
     7
100
AcDbLine
 10
7.8832664961
 20
3.7488357667
 30
0.0
 11
7.8832664961
 21
3.4315011029
 31
0.0
  0
LINE
  5
1E6
330
1F
100
AcDbEntity
  8
0
  6
HIDDEN
 62
     7
100
AcDbLine
 10
8.0013767323
 20
3.3345863209
 30
0.0
 11
8.0013767323
 21
3.7488357667
 31
0.0
  0
LINE
  5
1E7
330
1F
100
AcDbEntity
  8
0
  6
HIDDEN
 62
     7
100
AcDbLine
 10
8.0505893307
 20
4.0047412785
 30
0.0
 11
8.0505893307
 21
4.1130089951
 31
0.0
  0
LINE
  5
1E8
330
1F
100
AcDbEntity
  8
0
  6
HIDDEN
 62
     7
100
AcDbLine
 10
7.8340538977
 20
4.0202889603
 30
0.0
 11
7.8340538977
 21
4.0047412785
 31
0.0
  0
ARC
  5
1E9
330
1F
100
AcDbEntity
  8
0
  6
HIDDEN
 62
     7
100
AcDbCircle
 10
8.040746811
 20
4.1130089951
 30
0.0
 40
0.0098425196850389
100
AcDbArc
 50
0.0
 51
90.0
  0
LINE
  5
1EA
330
1F
100
AcDbEntity
  8
0
  6
HIDDEN
 62
     7
100
AcDbLine
 10
8.0013767323
 20
3.459957814
 30
0.0
 11
8.0013767323
 21
3.7488357667
 31
0.0
  0
LINE
  5
1EB
330
1F
100
AcDbEntity
  8
0
  6
HIDDEN
 62
     7
100
AcDbLine
 10
8.0013767323
 20
3.7685208061
 30
0.0
 11
8.0013767323
 21
4.0047412785
 31
0.0
  0
LINE
  5
1EC
330
1F
100
AcDbEntity
  8
0
  6
HIDDEN
 62
     7
100
AcDbLine
 10
7.8832664961
 20
4.0047412785
 30
0.0
 11
7.8832664961
 21
3.7685208061
 31
0.0
  0
LINE
  5
1ED
330
1F
100
AcDbEntity
  8
0
  6
HIDDEN
 62
     7
100
AcDbLine
 10
7.8832664961
 20
3.7488357667
 30
0.0
 11
7.8832664961
 21
3.459957814
 31
0.0
  0
ARC
  5
1EE
330
1F
100
AcDbEntity
  8
0
  6
HIDDEN
 62
     7
100
AcDbCircle
 10
7.9915342126
 20
3.459957814
 30
0.0
 40
0.0098425196850398
100
AcDbArc
 50
270.0
 51
0.0
  0
ARC
  5
1EF
330
1F
100
AcDbEntity
  8
0
  6
HIDDEN
 62
     7
100
AcDbCircle
 10
7.8931090158
 20
3.459957814
 30
0.0
 40
0.0098425196850394
100
AcDbArc
 50
180.0
 51
270.0
  0
LINE
  5
1F0
330
1F
100
AcDbEntity
  8
0
  6
HIDDEN
 62
     7
100
AcDbLine
 10
8.0048216142
 20
3.5583830108
 30
0.0
 11
7.801362875
 21
3.5583830108
 31
0.0
  0
LINE
  5
1F1
330
1F
100
AcDbEntity
  8
0
  6
HIDDEN
 62
     7
100
AcDbLine
 10
7.9890650084
 20
3.3418475777
 30
0.0
 11
8.0048216142
 21
3.3418475777
 31
0.0
  0
LINE
  5
1F2
330
1F
100
AcDbEntity
  8
0
  6
HIDDEN
 62
     7
100
AcDbLine
 10
8.260727126
 20
3.3910601762
 30
0.0
 11
8.5780617898
 21
3.3910601762
 31
0.0
  0
LINE
  5
1F3
330
1F
100
AcDbEntity
  8
0
  6
HIDDEN
 62
     7
100
AcDbLine
 10
8.6749765718
 20
3.5091704124
 30
0.0
 11
8.260727126
 21
3.5091704124
 31
0.0
  0
LINE
  5
1F4
330
1F
100
AcDbEntity
  8
0
  6
HIDDEN
 62
     7
100
AcDbLine
 10
8.0048216142
 20
3.3910601762
 30
0.0
 11
8.2410420866
 21
3.3910601762
 31
0.0
  0
LINE
  5
1F5
330
1F
100
AcDbEntity
  8
0
  6
HIDDEN
 62
     7
100
AcDbLine
 10
8.2410420866
 20
3.5091704124
 30
0.0
 11
8.0048216142
 21
3.5091704124
 31
0.0
  0
LINE
  5
1F6
330
1F
100
AcDbEntity
  8
0
  6
HIDDEN
 62
     7
100
AcDbLine
 10
8.0048216142
 20
3.5583830108
 30
0.0
 11
7.8965538977
 21
3.5583830108
 31
0.0
  0
LINE
  5
1F7
330
1F
100
AcDbEntity
  8
0
  6
HIDDEN
 62
     7
100
AcDbLine
 10
7.9892739324
 20
3.3418475777
 30
0.0
 11
8.0048216142
 21
3.3418475777
 31
0.0
  0
ARC
  5
1F8
330
1F
100
AcDbEntity
  8
0
  6
HIDDEN
 62
     7
100
AcDbCircle
 10
7.8965538977
 20
3.5485404911
 30
0.0
 40
0.0098425196850398
100
AcDbArc
 50
90.0
 51
180.0
  0
ARC
  5
1F9
330
1F
100
AcDbEntity
  8
0
  6
HIDDEN
 62
     7
100
AcDbCircle
 10
8.5496050788
 20
3.4993278927
 30
0.0
 40
0.0098425196850394
100
AcDbArc
 50
0.0
 51
90.0
  0
ARC
  5
1FA
330
1F
100
AcDbEntity
  8
0
  6
HIDDEN
 62
     7
100
AcDbCircle
 10
8.5496050788
 20
3.4009026958
 30
0.0
 40
0.0098425196850394
100
AcDbArc
 50
270.0
 51
0.0
  0
LINE
  5
1FB
330
1F
100
AcDbEntity
  8
0
  6
HIDDEN
 62
     7
100
AcDbLine
 10
8.5496050788
 20
3.5091704124
 30
0.0
 11
8.0048216142
 21
3.5091704124
 31
0.0
  0
LINE
  5
1FC
330
1F
100
AcDbEntity
  8
0
  6
HIDDEN
 62
     7
100
AcDbLine
 10
8.0048216142
 20
3.3910601762
 30
0.0
 11
8.5496050788
 21
3.3910601762
 31
0.0
  0
LINE
  5
1FD
330
1F
100
AcDbEntity
  8
0
  6
HIDDEN
 62
     7
100
AcDbLine
 10
7.8340538977
 20
4.1130089951
 30
0.0
 11
8.0505893307
 21
4.1130089951
 31
0.0
  0
LINE
  5
1FE
330
1F
100
AcDbEntity
  8
0
  6
HIDDEN
 62
     7
100
AcDbLine
 10
7.8965538977
 20
3.3418475777
 30
0.0
 11
7.8965538977
 21
3.5583830108
 31
0.0
  0
LINE
  5
1FF
330
1F
100
AcDbEntity
  8
0
  6
CONTINUOUS
 62
     7
100
AcDbLine
 10
3.6678434525
 20
6.1798511547
 30
0.0
 11
3.7324759984
 21
6.1798511547
 31
0.0
  0
LINE
  5
200
330
1F
100
AcDbEntity
  8
0
  6
CONTINUOUS
 62
     7
100
AcDbLine
 10
4.0746675994
 20
7.1641031232
 30
0.0
 11
3.6481584131
 21
7.1641031232
 31
0.0
  0
LINE
  5
201
330
1F
100
AcDbEntity
  8
0
  6
CONTINUOUS
 62
     7
100
AcDbLine
 10
4.0943526388
 20
7.1444180838
 30
0.0
 11
4.0746675994
 21
7.1641031232
 31
0.0
  0
LINE
  5
202
330
1F
100
AcDbEntity
  8
0
  6
CONTINUOUS
 62
     7
100
AcDbLine
 10
3.6481584131
 20
6.199536194
 30
0.0
 11
3.6678434525
 21
6.1798511547
 31
0.0
  0
LINE
  5
203
330
1F
100
AcDbEntity
  8
0
  6
CONTINUOUS
 62
     7
100
AcDbLine
 10
3.1363473895
 20
6.1798511547
 30
0.0
 11
3.6284733737
 21
6.1798511547
 31
0.0
  0
LINE
  5
204
330
1F
100
AcDbEntity
  8
0
  6
CONTINUOUS
 62
     7
100
AcDbLine
 10
3.6284733737
 20
7.1641031232
 30
0.0
 11
3.1363473895
 21
7.1641031232
 31
0.0
  0
LINE
  5
205
330
1F
100
AcDbEntity
  8
0
  6
CONTINUOUS
 62
     7
100
AcDbLine
 10
3.6284733737
 20
6.1798511547
 30
0.0
 11
3.6481584131
 21
6.199536194
 31
0.0
  0
LINE
  5
206
330
1F
100
AcDbEntity
  8
0
  6
CONTINUOUS
 62
     7
100
AcDbLine
 10
3.6481584131
 20
7.1444180838
 30
0.0
 11
3.6284733737
 21
7.1641031232
 31
0.0
  0
LINE
  5
207
330
1F
100
AcDbEntity
  8
0
  6
CONTINUOUS
 62
     7
100
AcDbLine
 10
3.1363473895
 20
7.1641031232
 30
0.0
 11
3.1166623501
 21
7.1444180838
 31
0.0
  0
LINE
  5
208
330
1F
100
AcDbEntity
  8
0
  6
CONTINUOUS
 62
     7
100
AcDbLine
 10
3.1166623501
 20
6.199536194
 30
0.0
 11
3.1363473895
 21
6.1798511547
 31
0.0
  0
LINE
  5
209
330
1F
100
AcDbEntity
  8
0
  6
CONTINUOUS
 62
     7
100
AcDbLine
 10
2.901111169
 20
7.1641031232
 30
0.0
 11
2.5786046073
 21
7.1641031232
 31
0.0
  0
LINE
  5
20A
330
1F
100
AcDbEntity
  8
0
  6
CONTINUOUS
 62
     7
100
AcDbLine
 10
3.0969773107
 20
7.1641031232
 30
0.0
 11
2.9207962084
 21
7.1641031232
 31
0.0
  0
LINE
  5
20B
330
1F
100
AcDbEntity
  8
0
  6
CONTINUOUS
 62
     7
100
AcDbLine
 10
2.9207962084
 20
6.1798511547
 30
0.0
 11
3.0969773107
 21
6.1798511547
 31
0.0
  0
LINE
  5
20C
330
1F
100
AcDbEntity
  8
0
  6
CONTINUOUS
 62
     7
100
AcDbLine
 10
2.5786046073
 20
6.1798511547
 30
0.0
 11
2.901111169
 21
6.1798511547
 31
0.0
  0
LINE
  5
20D
330
1F
100
AcDbEntity
  8
0
  6
CONTINUOUS
 62
     7
100
AcDbLine
 10
2.5786046073
 20
7.1641031232
 30
0.0
 11
2.558919568
 21
7.1444180838
 31
0.0
  0
LINE
  5
20E
330
1F
100
AcDbEntity
  8
0
  6
CONTINUOUS
 62
     7
100
AcDbLine
 10
2.558919568
 20
6.199536194
 30
0.0
 11
2.5786046073
 21
6.1798511547
 31
0.0
  0
LINE
  5
20F
330
1F
100
AcDbEntity
  8
0
  6
CONTINUOUS
 62
     7
100
AcDbLine
 10
3.1166623501
 20
7.1444180838
 30
0.0
 11
3.0969773107
 21
7.1641031232
 31
0.0
  0
LINE
  5
210
330
1F
100
AcDbEntity
  8
0
  6
CONTINUOUS
 62
     7
100
AcDbLine
 10
3.0969773107
 20
6.1798511547
 30
0.0
 11
3.1166623501
 21
6.199536194
 31
0.0
  0
LINE
  5
211
330
1F
100
AcDbEntity
  8
0
  6
CONTINUOUS
 62
     7
100
AcDbLine
 10
3.6678434525
 20
6.4259141468
 30
0.0
 11
3.6678434525
 21
6.1798511547
 31
0.0
  0
LINE
  5
212
330
1F
100
AcDbEntity
  8
0
  6
CONTINUOUS
 62
     7
100
AcDbLine
 10
3.556294896
 20
6.4259141468
 30
0.0
 11
3.6678434525
 21
6.4259141468
 31
0.0
  0
LINE
  5
213
330
1F
100
AcDbEntity
  8
0
  6
CONTINUOUS
 62
     7
100
AcDbLine
 10
3.556294896
 20
6.918040131
 30
0.0
 11
3.556294896
 21
6.4259141468
 31
0.0
  0
LINE
  5
214
330
1F
100
AcDbEntity
  8
0
  6
CONTINUOUS
 62
     7
100
AcDbLine
 10
3.6481584131
 20
6.918040131
 30
0.0
 11
3.556294896
 21
6.918040131
 31
0.0
  0
LINE
  5
215
330
1F
100
AcDbEntity
  8
0
  6
CONTINUOUS
 62
     7
100
AcDbLine
 10
3.6481584131
 20
7.1641031232
 30
0.0
 11
3.6481584131
 21
6.918040131
 31
0.0
  0
LINE
  5
216
330
1F
100
AcDbEntity
  8
0
  6
CONTINUOUS
 62
     7
100
AcDbLine
 10
4.0746675994
 20
6.1799495897
 30
0.0
 11
3.7521610378
 21
6.1799495897
 31
0.0
  0
LINE
  5
217
330
1F
100
AcDbEntity
  8
0
  6
CONTINUOUS
 62
     7
100
AcDbLine
 10
3.7521610378
 20
6.7969771389
 30
0.0
 11
3.7521610378
 21
6.1799495897
 31
0.0
  0
LINE
  5
218
330
1F
100
AcDbEntity
  8
0
  6
CONTINUOUS
 62
     7
100
AcDbLine
 10
3.7324759984
 20
6.7969771389
 30
0.0
 11
3.7521610378
 21
6.7969771389
 31
0.0
  0
LINE
  5
219
330
1F
100
AcDbEntity
  8
0
  6
CONTINUOUS
 62
     7
100
AcDbLine
 10
3.7324759984
 20
6.7969771389
 30
0.0
 11
3.7324759984
 21
6.1798511547
 31
0.0
  0
LINE
  5
21A
330
1F
100
AcDbEntity
  8
0
  6
CONTINUOUS
 62
     7
100
AcDbLine
 10
4.0746675994
 20
6.1799495897
 30
0.0
 11
4.0746675994
 21
7.1641031232
 31
0.0
  0
SPLINE
  5
21B
330
1F
100
AcDbEntity
  8
0
  6
CONTINUOUS
 62
     7
100
AcDbSpline
210
0.0
220
0.0
230
1.0
 70
     8
 71
     3
 72
    64
 73
    60
 74
     0
 42
0.00000001
 43
0.00000001
 40
-0.0312499999999998
 40
-0.0312499999999998
 40
0.0
 40
0.0
 40
0.0312500000000001
 40
0.0312500000000001
 40
0.0625000000000002
 40
0.0625000000000002
 40
0.0937500000000004
 40
0.0937500000000004
 40
0.1250000000000005
 40
0.1250000000000005
 40
0.1562500000000006
 40
0.1562500000000006
 40
0.1875000000000007
 40
0.1875000000000007
 40
0.2187500000000009
 40
0.2187500000000009
 40
0.250000000000001
 40
0.250000000000001
 40
0.2812500000000011
 40
0.2812500000000011
 40
0.3125000000000012
 40
0.3125000000000012
 40
0.3750000000000013
 40
0.3750000000000013
 40
0.4062500000000014
 40
0.4062500000000014
 40
0.4375000000000014
 40
0.4375000000000014
 40
0.4687500000000016
 40
0.4687500000000016
 40
0.4843750000000014
 40
0.4843750000000014
 40
0.5000000000000013
 40
0.5000000000000013
 40
0.5312500000000011
 40
0.5312500000000011
 40
0.5625000000000009
 40
0.5625000000000009
 40
0.6250000000000008
 40
0.6250000000000008
 40
0.6562500000000009
 40
0.6562500000000009
 40
0.6875000000000009
 40
0.6875000000000009
 40
0.7500000000000008
 40
0.7500000000000008
 40
0.8125000000000007
 40
0.8125000000000007
 40
0.8437500000000006
 40
0.8437500000000006
 40
0.8750000000000004
 40
0.8750000000000004
 40
0.9062500000000004
 40
0.9062500000000004
 40
0.9375000000000003
 40
0.9375000000000003
 40
0.9687500000000002
 40
0.9687500000000002
 40
1.0
 40
1.0
 40
1.03125
 40
1.03125
 10
3.95316231893828
 20
6.471681863325875
 30
0.0
 10
3.93633036027177
 20
6.471681863325875
 30
0.0
 10
3.928096755919722
 20
6.470713724665125
 30
0.0
 10
3.91197949660729
 20
6.466935845235459
 30
0.0
 10
3.904094303393036
 20
6.464088149845001
 30
0.0
 10
3.88953151652799
 20
6.456897654703774
 30
0.0
 10
3.882659357642519
 20
6.452464991544696
 30
0.0
 10
3.870340865456406
 20
6.442462686924831
 30
0.0
 10
3.864891704720825
 20
6.436926308420644
 30
0.0
 10
3.855320219753848
 20
6.424926500902417
 30
0.0
 10
3.85131529677607
 20
6.418598894853059
 30
0.0
 10
3.844778069863503
 20
6.405616767890641
 30
0.0
 10
3.842217327641266
 20
6.398878165397136
 30
0.0
 10
3.83853342436129
 20
6.385520968032487
 30
0.0
 10
3.837382353823406
 20
6.378868033171711
 30
0.0
 10
3.836298963064746
 20
6.365653470065831
 30
0.0
 10
3.836379359445782
 20
6.35913132304489
 30
0.0
 10
3.837611329504869
 20
6.346566755926909
 30
0.0
 10
3.838758954824355
 20
6.340475311985153
 30
0.0
 10
3.842027669756628
 20
6.328652231718825
 30
0.0
 10
3.844167458974104
 20
6.322885720355537
 30
0.0
 10
3.851898971544741
 20
6.306420031077693
 30
0.0
 10
3.858704296683078
 20
6.296528261657756
 30
0.0
 10
3.871777687728701
 20
6.283187976675941
 30
0.0
 10
3.876596652556054
 20
6.279034122951002
 30
0.0
 10
3.887210090377871
 20
6.271468791862159
 30
0.0
 10
3.893077973530702
 20
6.268004974926108
 30
0.0
 10
3.906009475590159
 20
6.262063342674628
 30
0.0
 10
3.913074662546398
 20
6.25957955259852
 30
0.0
 10
3.924669153272972
 20
6.256950491294717
 30
0.0
 10
3.928635334145531
 20
6.256273051012339
 30
0.0
 10
3.936801636242206
 20
6.255360176063192
 30
0.0
 10
3.941040154716316
 20
6.2551298796047
 30
0.0
 10
3.953525193132064
 20
6.255182406044533
 30
0.0
 10
3.96186500194187
 20
6.25622176927672
 30
0.0
 10
3.977116373127662
 20
6.259802200920332
 30
0.0
 10
3.984225026205202
 20
6.262354432441389
 30
0.0
 10
4.003389411140533
 20
6.271317322363973
 30
0.0
 10
4.013844116338233
 20
6.27915955551567
 30
0.0
 10
4.0267039557426
 20
6.292402121646941
 30
0.0
 10
4.030538082977494
 20
6.29709507740503
 30
0.0
 10
4.037387675341717
 20
6.307057912814455
 30
0.0
 10
4.040408219685266
 20
6.312353950664813
 30
0.0
 10
4.048033114497344
 20
6.328780311940219
 30
0.0
 10
4.05133730134513
 20
6.340537951045329
 30
0.0
 10
4.053734654712717
 20
6.365963779398416
 30
0.0
 10
4.052778712325976
 20
6.37906742395303
 30
0.0
 10
4.04716648073926
 20
6.399198824842689
 30
0.0
 10
4.044616871022207
 20
6.40584236221414
 30
0.0
 10
4.038081235722569
 20
6.418757381935465
 30
0.0
 10
4.034031275690953
 20
6.425125147703622
 30
0.0
 10
4.02449982306208
 20
6.437030920164723
 30
0.0
 10
4.019081970805803
 20
6.442522274844206
 30
0.0
 10
4.006855374593991
 20
6.452444196565382
 30
0.0
 10
3.999952031506127
 20
6.456901633846556
 30
0.0
 10
3.985418875698494
 20
6.464078556896855
 30
0.0
 10
3.977709815288538
 20
6.466880129365277
 30
0.0
 10
3.961433871502555
 20
6.470714317146703
 30
0.0
 10
3.95316231893828
 20
6.471681863325875
 30
0.0
 10
3.93633036027177
 20
6.471681863325875
 30
0.0
  0
LINE
  5
21C
330
1F
100
AcDbEntity
  8
0
  6
CONTINUOUS
 62
     7
100
AcDbLine
 10
4.0943526388
 20
7.1444180838
 30
0.0
 11
4.0943526388
 21
6.1996387314
 31
0.0
  0
LINE
  5
21D
330
1F
100
AcDbEntity
  8
0
  6
CONTINUOUS
 62
     7
100
AcDbLine
 10
4.0746675994
 20
6.1799495897
 30
0.0
 11
4.0943526388
 21
6.1996387314
 31
0.0
  0
SPLINE
  5
21E
330
1F
100
AcDbEntity
  8
0
  6
CONTINUOUS
 62
     7
100
AcDbSpline
210
0.0
220
0.0
230
1.0
 70
    24
 71
     3
 72
     8
 73
     4
 74
     0
 42
0.00000001
 43
0.00000001
 40
0.0
 40
0.0
 40
0.0
 40
0.0
 40
0.0007668413384707
 40
0.0007668413384707
 40
0.0007668413384707
 40
0.0007668413384707
 10
3.556294896035471
 20
6.425914146790442
 30
0.0
 10
3.549706766152526
 20
6.425914146790442
 30
0.0
 10
3.543143730437334
 20
6.425914146790442
 30
0.0
 10
3.536609856665392
 20
6.425914146790442
 30
0.0
  0
LINE
  5
21F
330
1F
100
AcDbEntity
  8
0
  6
CONTINUOUS
 62
     7
100
AcDbLine
 10
3.5366098567
 20
6.4259141468
 30
0.0
 11
3.5366098567
 21
6.918040131
 31
0.0
  0
SPLINE
  5
220
330
1F
100
AcDbEntity
  8
0
  6
CONTINUOUS
 62
     7
100
AcDbSpline
210
0.0
220
0.0
230
1.0
 70
    24
 71
     3
 72
     8
 73
     4
 74
     0
 42
0.00000001
 43
0.00000001
 40
0.0
 40
0.0
 40
0.0
 40
0.0
 40
0.0007668413384707
 40
0.0007668413384707
 40
0.0007668413384707
 40
0.0007668413384707
 10
3.536609856665392
 20
6.918040131042411
 30
0.0
 10
3.543143730437334
 20
6.918040131042411
 30
0.0
 10
3.549706766152526
 20
6.918040131042411
 30
0.0
 10
3.556294896035471
 20
6.918040131042411
 30
0.0
  0
LINE
  5
221
330
1F
100
AcDbEntity
  8
0
  6
CONTINUOUS
 62
     7
100
AcDbLine
 10
3.6481584131
 20
6.199536194
 30
0.0
 11
3.6481584131
 21
6.4259141468
 31
0.0
  0
LINE
  5
222
330
1F
100
AcDbEntity
  8
0
  6
CONTINUOUS
 62
     7
100
AcDbLine
 10
3.5169248173
 20
6.9345703717
 30
0.0
 11
3.6284733737
 21
6.9345703717
 31
0.0
  0
LINE
  5
223
330
1F
100
AcDbEntity
  8
0
  6
CONTINUOUS
 62
     7
100
AcDbLine
 10
3.5169248173
 20
6.4135876149
 30
0.0
 11
3.5169248173
 21
6.9345703717
 31
0.0
  0
LINE
  5
224
330
1F
100
AcDbEntity
  8
0
  6
CONTINUOUS
 62
     7
100
AcDbLine
 10
3.6284733737
 20
6.4135876149
 30
0.0
 11
3.5169248173
 21
6.4135876149
 31
0.0
  0
LINE
  5
225
330
1F
100
AcDbEntity
  8
0
  6
CONTINUOUS
 62
     7
100
AcDbLine
 10
3.6284733737
 20
6.1798511547
 30
0.0
 11
3.6284733737
 21
6.4135876149
 31
0.0
  0
LINE
  5
226
330
1F
100
AcDbEntity
  8
0
  6
CONTINUOUS
 62
     7
100
AcDbLine
 10
3.6284733737
 20
6.9345703717
 30
0.0
 11
3.6284733737
 21
7.1641031232
 31
0.0
  0
LINE
  5
227
330
1F
100
AcDbEntity
  8
0
  6
CONTINUOUS
 62
     7
100
AcDbLine
 10
3.1363473895
 20
6.2531420422
 30
0.0
 11
3.1363473895
 21
6.1798511547
 31
0.0
  0
LINE
  5
228
330
1F
100
AcDbEntity
  8
0
  6
CONTINUOUS
 62
     7
100
AcDbLine
 10
3.024798833
 20
6.2531420422
 30
0.0
 11
3.1363473895
 21
6.2531420422
 31
0.0
  0
LINE
  5
229
330
1F
100
AcDbEntity
  8
0
  6
CONTINUOUS
 62
     7
100
AcDbLine
 10
3.024798833
 20
7.0881895588
 30
0.0
 11
3.024798833
 21
6.2531420422
 31
0.0
  0
LINE
  5
22A
330
1F
100
AcDbEntity
  8
0
  6
CONTINUOUS
 62
     7
100
AcDbLine
 10
3.1363473895
 20
7.0881895588
 30
0.0
 11
3.024798833
 21
7.0881895588
 31
0.0
  0
LINE
  5
22B
330
1F
100
AcDbEntity
  8
0
  6
CONTINUOUS
 62
     7
100
AcDbLine
 10
3.1363473895
 20
7.1641031232
 30
0.0
 11
3.1363473895
 21
7.0881895588
 31
0.0
  0
SPLINE
  5
22C
330
1F
100
AcDbEntity
  8
0
  6
CONTINUOUS
 62
     7
100
AcDbSpline
210
0.0
220
0.0
230
1.0
 70
     8
 71
     3
 72
     8
 73
     4
 74
     0
 42
0.00000001
 43
0.00000001
 40
0.0
 40
0.0
 40
0.0
 40
0.0
 40
0.0001070963901295
 40
0.0001070963901295
 40
0.0001070963901295
 40
0.0001070963901295
 10
3.00785303503034
 20
6.265468574061878
 30
0.0
 10
3.006939393236031
 20
6.266536557655608
 30
0.0
 10
3.006026308765283
 20
6.267605018292397
 30
0.0
 10
3.005113793673265
 20
6.268673964732414
 30
0.0
  0
SPLINE
  5
22D
330
1F
100
AcDbEntity
  8
0
  6
CONTINUOUS
 62
     7
100
AcDbSpline
210
0.0
220
0.0
230
1.0
 70
     8
 71
     3
 72
     8
 73
     4
 74
     0
 42
0.00000001
 43
0.00000001
 40
0.0
 40
0.0
 40
0.0
 40
0.0
 40
0.0002835351067171
 40
0.0002835351067171
 40
0.0002835351067171
 40
0.0002835351067171
 10
3.005113793673266
 20
7.075280313100438
 30
0.0
 10
3.007529655344076
 20
7.078110322987592
 30
0.0
 10
3.009949508131137
 20
7.080936930193368
 30
0.0
 10
3.012373133393318
 20
7.083760294173159
 30
0.0
  0
SPLINE
  5
22E
330
1F
100
AcDbEntity
  8
0
  6
CONTINUOUS
 62
     7
100
AcDbSpline
210
0.0
220
0.0
230
1.0
 70
     8
 71
     3
 72
     8
 73
     4
 74
     0
 42
0.00000001
 43
0.00000001
 40
0.0
 40
0.0
 40
0.0
 40
0.0
 40
0.0005371756237565
 40
0.0005371756237565
 40
0.0005371756237565
 40
0.0005371756237565
 10
3.012373133393318
 20
7.083760294173159
 30
0.0
 10
3.016483341309367
 20
7.085242636733831
 30
0.0
 10
3.020626406112613
 20
7.086718906432973
 30
0.0
 10
3.024798833043345
 20
7.088189558808122
 30
0.0
  0
SPLINE
  5
22F
330
1F
100
AcDbEntity
  8
0
  6
CONTINUOUS
 62
     7
100
AcDbSpline
210
0.0
220
0.0
230
1.0
 70
     8
 71
     3
 72
     8
 73
     4
 74
     0
 42
0.00000001
 43
0.00000001
 40
0.0
 40
0.0
 40
0.0
 40
0.0
 40
0.0006175109583466
 40
0.0006175109583466
 40
0.0006175109583466
 40
0.0006175109583466
 10
3.00785303503034
 20
6.265468574061878
 30
0.0
 10
3.013498615671033
 20
6.261357656214518
 30
0.0
 10
3.019147323287422
 20
6.257248884600626
 30
0.0
 10
3.024798833043345
 20
6.253142042179448
 30
0.0
  0
SPLINE
  5
230
330
1F
100
AcDbEntity
  8
0
  6
CONTINUOUS
 62
     7
100
AcDbSpline
210
0.0
220
0.0
230
1.0
 70
     8
 71
     3
 72
     8
 73
     4
 74
     0
 42
0.00000001
 43
0.00000001
 40
0.0
 40
0.0
 40
0.0
 40
0.0
 40
0.0006175109583466
 40
0.0006175109583466
 40
0.0006175109583466
 40
0.0006175109583466
 10
3.516924817295314
 20
6.413587614908011
 30
0.0
 10
3.522576327051238
 20
6.417694457329189
 30
0.0
 10
3.528225034667626
 20
6.42180322894308
 30
0.0
 10
3.53387061530832
 20
6.425914146790442
 30
0.0
  0
SPLINE
  5
231
330
1F
100
AcDbEntity
  8
0
  6
CONTINUOUS
 62
     7
100
AcDbSpline
210
0.0
220
0.0
230
1.0
 70
     8
 71
     3
 72
     8
 73
     4
 74
     0
 42
0.00000001
 43
0.00000001
 40
0.0
 40
0.0
 40
0.0
 40
0.0
 40
0.0005371756237565
 40
0.0005371756237565
 40
0.0005371756237565
 40
0.0005371756237565
 10
3.516924817295314
 20
6.934570371700262
 30
0.0
 10
3.521097244226046
 20
6.929081822315931
 30
0.0
 10
3.525240309029292
 20
6.923572308793058
 30
0.0
 10
3.52935051694534
 20
6.918040131042411
 30
0.0
  0
SPLINE
  5
232
330
1F
100
AcDbEntity
  8
0
  6
CONTINUOUS
 62
     7
100
AcDbSpline
210
0.0
220
0.0
230
1.0
 70
     8
 71
     3
 72
     8
 73
     4
 74
     0
 42
0.00000001
 43
0.00000001
 40
0.0
 40
0.0
 40
0.0
 40
0.0
 40
0.0006175109583466
 40
0.0006175109583466
 40
0.0006175109583466
 40
0.0006175109583466
 10
3.62847337372576
 20
6.413587614908011
 30
0.0
 10
3.634124883481684
 20
6.417694457329189
 30
0.0
 10
3.639773591098072
 20
6.42180322894308
 30
0.0
 10
3.645419171738766
 20
6.425914146790442
 30
0.0
  0
LINE
  5
233
330
1F
100
AcDbEntity
  8
0
  6
CONTINUOUS
 62
     7
100
AcDbLine
 10
3.5338706153
 20
6.4259141468
 30
0.0
 11
3.5364996132
 21
6.4259141468
 31
0.0
  0
SPLINE
  5
234
330
1F
100
AcDbEntity
  8
0
  6
CONTINUOUS
 62
     7
100
AcDbSpline
210
0.0
220
0.0
230
1.0
 70
     8
 71
     3
 72
     8
 73
     4
 74
     0
 42
0.00000001
 43
0.00000001
 40
0.0
 40
0.0
 40
0.0
 40
0.0
 40
0.0005371756237565
 40
0.0005371756237565
 40
0.0005371756237565
 40
0.0005371756237565
 10
3.62847337372576
 20
6.934570371700262
 30
0.0
 10
3.632645800656492
 20
6.929081822315931
 30
0.0
 10
3.636788865459738
 20
6.923572308793058
 30
0.0
 10
3.640899073375786
 20
6.918040131042411
 30
0.0
  0
LINE
  5
235
330
1F
100
AcDbEntity
  8
0
  6
CONTINUOUS
 62
     7
100
AcDbLine
 10
3.5364996132
 20
6.918040131
 30
0.0
 11
3.5293505169
 21
6.918040131
 31
0.0
  0
LINE
  5
236
330
1F
100
AcDbEntity
  8
0
  6
CONTINUOUS
 62
     7
100
AcDbLine
 10
3.1166623501
 20
7.0881895588
 30
0.0
 11
3.1166623501
 21
7.1444180838
 31
0.0
  0
LINE
  5
237
330
1F
100
AcDbEntity
  8
0
  6
CONTINUOUS
 62
     7
100
AcDbLine
 10
3.1166623501
 20
6.199536194
 30
0.0
 11
3.1166623501
 21
6.2531420422
 31
0.0
  0
CIRCLE
  5
238
330
1F
100
AcDbEntity
  8
0
  6
CONTINUOUS
 62
     7
100
AcDbCircle
 10
3.9447463396
 20
6.3634141468
 30
0.0
 40
0.0984251968503935
  0
CIRCLE
  5
239
330
1F
100
AcDbEntity
  8
0
  6
CONTINUOUS
 62
     7
100
AcDbCircle
 10
3.9447463396
 20
6.3634141468
 30
0.0
 40
0.1082677165354324
  0
LINE
  5
23A
330
1F
100
AcDbEntity
  8
0
  6
CONTINUOUS
 62
     7
100
AcDbLine
 10
3.9447463396
 20
6.4202399607
 30
0.0
 11
3.8955337412
 21
6.3918270537
 31
0.0
  0
LINE
  5
23B
330
1F
100
AcDbEntity
  8
0
  6
CONTINUOUS
 62
     7
100
AcDbLine
 10
3.8955337412
 20
6.3918270537
 30
0.0
 11
3.8955337412
 21
6.3350012398
 31
0.0
  0
LINE
  5
23C
330
1F
100
AcDbEntity
  8
0
  6
CONTINUOUS
 62
     7
100
AcDbLine
 10
3.8955337412
 20
6.3350012398
 30
0.0
 11
3.9447463396
 21
6.3065883329
 31
0.0
  0
LINE
  5
23D
330
1F
100
AcDbEntity
  8
0
  6
CONTINUOUS
 62
     7
100
AcDbLine
 10
3.9447463396
 20
6.3065883329
 30
0.0
 11
3.993958938
 21
6.3350012398
 31
0.0
  0
LINE
  5
23E
330
1F
100
AcDbEntity
  8
0
  6
CONTINUOUS
 62
     7
100
AcDbLine
 10
3.993958938
 20
6.3350012398
 30
0.0
 11
3.993958938
 21
6.3918270537
 31
0.0
  0
LINE
  5
23F
330
1F
100
AcDbEntity
  8
0
  6
CONTINUOUS
 62
     7
100
AcDbLine
 10
3.993958938
 20
6.3918270537
 30
0.0
 11
3.9447463396
 21
6.4202399607
 31
0.0
  0
LINE
  5
240
330
1F
100
AcDbEntity
  8
0
  6
CONTINUOUS
 62
     7
100
AcDbLine
 10
3.0969773107
 20
7.1641031232
 30
0.0
 11
3.0969773107
 21
7.0981707431
 31
0.0
  0
LINE
  5
241
330
1F
100
AcDbEntity
  8
0
  6
CONTINUOUS
 62
     7
100
AcDbLine
 10
3.0969773107
 20
7.0981707431
 30
0.0
 11
3.0051137937
 21
7.0981707431
 31
0.0
  0
LINE
  5
242
330
1F
100
AcDbEntity
  8
0
  6
CONTINUOUS
 62
     7
100
AcDbLine
 10
3.0051137937
 20
7.0981707431
 30
0.0
 11
3.0051137937
 21
6.2457835347
 31
0.0
  0
LINE
  5
243
330
1F
100
AcDbEntity
  8
0
  6
CONTINUOUS
 62
     7
100
AcDbLine
 10
3.0051137937
 20
6.2457835347
 30
0.0
 11
3.0969773107
 21
6.2457835347
 31
0.0
  0
LINE
  5
244
330
1F
100
AcDbEntity
  8
0
  6
CONTINUOUS
 62
     7
100
AcDbLine
 10
3.0969773107
 20
6.2457835347
 30
0.0
 11
3.0969773107
 21
6.1798511547
 31
0.0
  0
LINE
  5
245
330
1F
100
AcDbEntity
  8
0
  6
CONTINUOUS
 62
     7
100
AcDbLine
 10
2.901111169
 20
7.1641031232
 30
0.0
 11
2.901111169
 21
7.1479634668
 31
0.0
  0
LINE
  5
246
330
1F
100
AcDbEntity
  8
0
  6
CONTINUOUS
 62
     7
100
AcDbLine
 10
2.901111169
 20
7.1479634668
 30
0.0
 11
2.9207962084
 21
7.1479634668
 31
0.0
  0
LINE
  5
247
330
1F
100
AcDbEntity
  8
0
  6
CONTINUOUS
 62
     7
100
AcDbLine
 10
2.9207962084
 20
6.195990811
 30
0.0
 11
2.9207962084
 21
6.1798511547
 31
0.0
  0
LINE
  5
248
330
1F
100
AcDbEntity
  8
0
  6
CONTINUOUS
 62
     7
100
AcDbLine
 10
2.9207962084
 20
7.1641031232
 30
0.0
 11
2.9207962084
 21
7.1479634668
 31
0.0
  0
LINE
  5
249
330
1F
100
AcDbEntity
  8
0
  6
CONTINUOUS
 62
     7
100
AcDbLine
 10
2.9207962084
 20
6.195990811
 30
0.0
 11
2.901111169
 21
6.195990811
 31
0.0
  0
LINE
  5
24A
330
1F
100
AcDbEntity
  8
0
  6
CONTINUOUS
 62
     7
100
AcDbLine
 10
2.901111169
 20
6.195990811
 30
0.0
 11
2.901111169
 21
6.1798511547
 31
0.0
  0
LINE
  5
24B
330
1F
100
AcDbEntity
  8
0
  6
CONTINUOUS
 62
     7
100
AcDbLine
 10
2.5786046073
 20
6.1798511547
 30
0.0
 11
2.5786046073
 21
7.1641031232
 31
0.0
  0
LINE
  5
24C
330
1F
100
AcDbEntity
  8
0
  6
CONTINUOUS
 62
     7
100
AcDbLine
 10
2.558919568
 20
7.1444180838
 30
0.0
 11
2.558919568
 21
6.199536194
 31
0.0
  0
LINE
  5
24D
330
1F
100
AcDbEntity
  8
0
  6
CONTINUOUS
 62
     7
100
AcDbLine
 10
3.0969773107
 20
7.0981707431
 30
0.0
 11
3.1055608107
 21
7.0881895588
 31
0.0
  0
LINE
  5
24E
330
1F
100
AcDbEntity
  8
0
  6
CONTINUOUS
 62
     7
100
AcDbLine
 10
3.1033053924
 20
6.2531420422
 30
0.0
 11
3.0969773107
 21
6.2457835347
 31
0.0
  0
CIRCLE
  5
24F
330
1F
100
AcDbEntity
  8
0
  6
HIDDEN
 62
     7
100
AcDbCircle
 10
3.9447463396
 20
6.3634141468
 30
0.0
 40
0.0590551181102361
  0
LINE
  5
250
330
1F
100
AcDbEntity
  8
0
  6
HIDDEN
 62
     7
100
AcDbLine
 10
3.7521610378
 20
6.5473652422
 30
0.0
 11
4.0746675994
 21
6.5473652422
 31
0.0
  0
LINE
  5
251
330
1F
100
AcDbEntity
  8
0
  6
HIDDEN
 62
     7
100
AcDbLine
 10
4.0746675994
 20
6.7965890356
 30
0.0
 11
3.8243647321
 21
6.7965890356
 31
0.0
  0
POLYLINE
  5
252
330
1F
100
AcDbEntity
  8
0
  6
HIDDEN
 62
     7
100
AcDb2dPolyline
 66
     1
 10
0.0
 20
0.0
 30
0.0
  0
VERTEX
  5
345
330
252
100
AcDbEntity
  8
0
  6
HIDDEN
 62
     7
100
AcDbVertex
100
AcDb2dVertex
 10
3.8243647321
 20
6.7965890356
 30
0.0
  0
VERTEX
  5
346
330
252
100
AcDbEntity
  8
0
  6
HIDDEN
 62
     7
100
AcDbVertex
100
AcDb2dVertex
 10
3.8243647321
 20
6.7965890356
 30
0.0
  0
SEQEND
  5
347
330
252
100
AcDbEntity
  8
0
  6
HIDDEN
 62
     7
  0
ARC
  5
253
330
1F
100
AcDbEntity
  8
0
  6
HIDDEN
 62
     7
100
AcDbCircle
 10
4.0943526388
 20
6.5863472177
 30
0.0
 40
0.3421916010498695
100
AcDbArc
 50
90.0
 51
142.0918127627
  0
SPLINE
  5
254
330
1F
100
AcDbEntity
  8
0
  6
HIDDEN
 62
     7
100
AcDbSpline
210
0.0
220
0.0
230
1.0
 70
     8
 71
     3
 72
     8
 73
     4
 74
     0
 42
0.00000001
 43
0.00000001
 40
0.0
 40
0.0
 40
0.0
 40
0.0
 40
1.0
 40
1.0
 40
1.0
 40
1.0
 10
4.074667599447544
 20
6.796589035644828
 30
0.0
 10
4.081227879992875
 20
6.803169748158607
 30
0.0
 10
4.087789750631352
 20
6.809748883852142
 30
0.0
 10
4.094352638817623
 20
6.816327010491606
 30
0.0
  0
SPLINE
  5
255
330
1F
100
AcDbEntity
  8
0
  6
HIDDEN
 62
     7
100
AcDbSpline
210
0.0
220
0.0
230
1.0
 70
     8
 71
     3
 72
     8
 73
     4
 74
     0
 42
0.00000001
 43
0.00000001
 40
0.0
 40
0.0
 40
0.0
 40
0.0
 40
1.0
 40
1.0
 40
1.0
 40
1.0
 10
4.094352638817623
 20
6.527627267341247
 30
0.0
 10
4.087789753995906
 20
6.534205390608345
 30
0.0
 10
4.081227883887268
 20
6.540784525767724
 30
0.0
 10
4.074667599447544
 20
6.547365242188025
 30
0.0
  0
LINE
  5
256
330
1F
100
AcDbEntity
  8
0
  6
HIDDEN
 62
     7
100
AcDbLine
 10
3.5169248173
 20
6.4093839061
 30
0.0
 11
3.6284733737
 21
6.4093839061
 31
0.0
  0
LINE
  5
257
330
1F
100
AcDbEntity
  8
0
  6
HIDDEN
 62
     7
100
AcDbLine
 10
3.5169248173
 20
6.4135876149
 30
0.0
 11
3.5169248173
 21
6.4093839061
 31
0.0
  0
LINE
  5
258
330
1F
100
AcDbEntity
  8
0
  6
HIDDEN
 62
     7
100
AcDbLine
 10
3.6284733737
 20
6.9303666629
 30
0.0
 11
3.5169248173
 21
6.9303666629
 31
0.0
  0
LINE
  5
259
330
1F
100
AcDbEntity
  8
0
  6
HIDDEN
 62
     7
100
AcDbLine
 10
3.6284733737
 20
6.9345703717
 30
0.0
 11
3.6284733737
 21
6.9303666629
 31
0.0
  0
LINE
  5
25A
330
1F
100
AcDbEntity
  8
0
  6
HIDDEN
 62
     7
100
AcDbLine
 10
3.1363473895
 20
6.255764719
 30
0.0
 11
3.024798833
 21
6.255764719
 31
0.0
  0
LINE
  5
25B
330
1F
100
AcDbEntity
  8
0
  6
HIDDEN
 62
     7
100
AcDbLine
 10
3.1363473895
 20
6.2531420422
 30
0.0
 11
3.1363473895
 21
6.255764719
 31
0.0
  0
LINE
  5
25C
330
1F
100
AcDbEntity
  8
0
  6
HIDDEN
 62
     7
100
AcDbLine
 10
3.024798833
 20
7.0908122357
 30
0.0
 11
3.1363473895
 21
7.0908122357
 31
0.0
  0
LINE
  5
25D
330
1F
100
AcDbEntity
  8
0
  6
HIDDEN
 62
     7
100
AcDbLine
 10
3.024798833
 20
7.0881895588
 30
0.0
 11
3.024798833
 21
7.0908122357
 31
0.0
  0
SPLINE
  5
25E
330
1F
100
AcDbEntity
  8
0
  6
HIDDEN
 62
     7
100
AcDbSpline
210
0.0
220
0.0
230
1.0
 70
     8
 71
     3
 72
     8
 73
     4
 74
     0
 42
0.00000001
 43
0.00000001
 40
0.0
 40
0.0
 40
0.0
 40
0.0
 40
0.0005371756237565
 40
0.0005371756237565
 40
0.0005371756237565
 40
0.0005371756237565
 10
3.62847337372576
 20
6.409383906132589
 30
0.0
 10
3.632645800656492
 20
6.414872455516922
 30
0.0
 10
3.636788865459738
 20
6.420381969039794
 30
0.0
 10
3.640899073375787
 20
6.425914146790442
 30
0.0
  0
SPLINE
  5
25F
330
1F
100
AcDbEntity
  8
0
  6
HIDDEN
 62
     7
100
AcDbSpline
210
0.0
220
0.0
230
1.0
 70
     8
 71
     3
 72
     8
 73
     4
 74
     0
 42
0.00000001
 43
0.00000001
 40
0.0
 40
0.0
 40
0.0
 40
0.0
 40
0.0006175109583466
 40
0.0006175109583466
 40
0.0006175109583466
 40
0.0006175109583466
 10
3.645419171738766
 20
6.918040131042411
 30
0.0
 10
3.639773591098072
 20
6.922151048889772
 30
0.0
 10
3.634124883481684
 20
6.926259820503663
 30
0.0
 10
3.62847337372576
 20
6.930366662924841
 30
0.0
  0
SPLINE
  5
260
330
1F
100
AcDbEntity
  8
0
  6
HIDDEN
 62
     7
100
AcDbSpline
210
0.0
220
0.0
230
1.0
 70
     8
 71
     3
 72
     8
 73
     4
 74
     0
 42
0.00000001
 43
0.00000001
 40
0.0
 40
0.0
 40
0.0
 40
0.0
 40
0.0002835351067171
 40
0.0002835351067171
 40
0.0002835351067171
 40
0.0002835351067171
 10
3.123921689823765
 20
7.083760294173159
 30
0.0
 10
3.121498064561583
 20
7.080936930193368
 30
0.0
 10
3.119078211774521
 20
7.078110322987592
 30
0.0
 10
3.116662350103713
 20
7.075280313100438
 30
0.0
  0
LINE
  5
261
330
1F
100
AcDbEntity
  8
0
  6
HIDDEN
 62
     7
100
AcDbLine
 10
3.1166623501
 20
7.0752803131
 30
0.0
 11
3.1166623501
 21
7.0881895588
 31
0.0
  0
SPLINE
  5
262
330
1F
100
AcDbEntity
  8
0
  6
HIDDEN
 62
     7
100
AcDbSpline
210
0.0
220
0.0
230
1.0
 70
     8
 71
     3
 72
     8
 73
     4
 74
     0
 42
0.00000001
 43
0.00000001
 40
0.0
 40
0.0
 40
0.0
 40
0.0
 40
0.0006175109583466
 40
0.0006175109583466
 40
0.0006175109583466
 40
0.0006175109583466
 10
3.136347389473792
 20
7.090812235653404
 30
0.0
 10
3.130695879717867
 20
7.086705393232227
 30
0.0
 10
3.125047172101479
 20
7.082596621618335
 30
0.0
 10
3.119401591460785
 20
7.078485703770973
 30
0.0
  0
SPLINE
  5
263
330
1F
100
AcDbEntity
  8
0
  6
HIDDEN
 62
     7
100
AcDbSpline
210
0.0
220
0.0
230
1.0
 70
     8
 71
     3
 72
     8
 73
     4
 74
     0
 42
0.00000001
 43
0.00000001
 40
0.0
 40
0.0
 40
0.0
 40
0.0
 40
0.0005371756237565
 40
0.0005371756237565
 40
0.0005371756237565
 40
0.0005371756237565
 10
3.123921689823765
 20
7.083760294173159
 30
0.0
 10
3.128031897739813
 20
7.085242636733831
 30
0.0
 10
3.132174962543059
 20
7.086718906432973
 30
0.0
 10
3.136347389473792
 20
7.088189558808122
 30
0.0
  0
SPLINE
  5
264
330
1F
100
AcDbEntity
  8
0
  6
HIDDEN
 62
     7
100
AcDbSpline
210
0.0
220
0.0
230
1.0
 70
     8
 71
     3
 72
     8
 73
     4
 74
     0
 42
0.00000001
 43
0.00000001
 40
0.0
 40
0.0
 40
0.0
 40
0.0
 40
0.0001070963901296
 40
0.0001070963901296
 40
0.0001070963901296
 40
0.0001070963901296
 10
3.116662350103713
 20
6.268673964732415
 30
0.0
 10
3.11757486519573
 20
6.267605018292397
 30
0.0
 10
3.118487949666477
 20
6.266536557655608
 30
0.0
 10
3.119401591460786
 20
6.265468574061878
 30
0.0
  0
SPLINE
  5
265
330
1F
100
AcDbEntity
  8
0
  6
HIDDEN
 62
     7
100
AcDbSpline
210
0.0
220
0.0
230
1.0
 70
     8
 71
     3
 72
     8
 73
     4
 74
     0
 42
0.00000001
 43
0.00000001
 40
0.0
 40
0.0
 40
0.0
 40
0.0
 40
0.0006175109583466
 40
0.0006175109583466
 40
0.0006175109583466
 40
0.0006175109583466
 10
3.119401591460786
 20
6.265468574061878
 30
0.0
 10
3.125047172101479
 20
6.261357656214518
 30
0.0
 10
3.130695879717868
 20
6.257248884600626
 30
0.0
 10
3.136347389473792
 20
6.253142042179448
 30
0.0
  0
SPLINE
  5
266
330
1F
100
AcDbEntity
  8
0
  6
HIDDEN
 62
     7
100
AcDbSpline
210
0.0
220
0.0
230
1.0
 70
     8
 71
     3
 72
     8
 73
     4
 74
     0
 42
0.00000001
 43
0.00000001
 40
0.0
 40
0.0
 40
0.0
 40
0.0
 40
0.0005371756237565
 40
0.0005371756237565
 40
0.0005371756237565
 40
0.0005371756237565
 10
3.123921689823764
 20
6.260193983659693
 30
0.0
 10
3.128031897739813
 20
6.258711641099023
 30
0.0
 10
3.132174962543059
 20
6.257235371399879
 30
0.0
 10
3.136347389473792
 20
6.25576471902473
 30
0.0
  0
SPLINE
  5
267
330
1F
100
AcDbEntity
  8
0
  6
HIDDEN
 62
     7
100
AcDbSpline
210
0.0
220
0.0
230
1.0
 70
     8
 71
     3
 72
     8
 73
     4
 74
     0
 42
0.00000001
 43
0.00000001
 40
0.0
 40
0.0
 40
0.0
 40
0.0
 40
0.0002835351067171
 40
0.0002835351067171
 40
0.0002835351067171
 40
0.0002835351067171
 10
3.123921689823764
 20
6.260193983659693
 30
0.0
 10
3.121498064561583
 20
6.263017347639486
 30
0.0
 10
3.119078211774521
 20
6.265843954845261
 30
0.0
 10
3.116662350103713
 20
6.268673964732414
 30
0.0
  0
LINE
  5
268
330
1F
100
AcDbEntity
  8
0
  6
HIDDEN
 62
     7
100
AcDbLine
 10
3.1166623501
 20
6.2531420422
 30
0.0
 11
3.1166623501
 21
6.2686739647
 31
0.0
  0
LINE
  5
269
330
1F
100
AcDbEntity
  8
0
  6
HIDDEN
 62
     7
100
AcDbLine
 10
3.1166623501
 20
6.2686739647
 30
0.0
 11
3.1166623501
 21
7.0752803131
 31
0.0
  0
LINE
  5
26A
330
1F
100
AcDbEntity
  8
0
  6
HIDDEN
 62
     7
100
AcDbLine
 10
3.1194015915
 20
6.2654685741
 30
0.0
 11
3.007853035
 21
6.2654685741
 31
0.0
  0
LINE
  5
26B
330
1F
100
AcDbEntity
  8
0
  6
HIDDEN
 62
     7
100
AcDbLine
 10
3.0123731334
 20
7.0837602942
 30
0.0
 11
3.1239216898
 21
7.0837602942
 31
0.0
  0
LINE
  5
26C
330
1F
100
AcDbEntity
  8
0
  6
HIDDEN
 62
     7
100
AcDbLine
 10
3.0123731334
 20
6.2601939837
 30
0.0
 11
3.1239216898
 21
6.2601939837
 31
0.0
  0
LINE
  5
26D
330
1F
100
AcDbEntity
  8
0
  6
HIDDEN
 62
     7
100
AcDbLine
 10
3.1194015915
 20
7.0784857038
 30
0.0
 11
3.007853035
 21
7.0784857038
 31
0.0
  0
SPLINE
  5
26E
330
1F
100
AcDbEntity
  8
0
  6
HIDDEN
 62
     7
100
AcDbSpline
210
0.0
220
0.0
230
1.0
 70
     8
 71
     3
 72
     8
 73
     4
 74
     0
 42
0.00000001
 43
0.00000001
 40
0.0
 40
0.0
 40
0.0
 40
0.0
 40
0.000283535106717
 40
0.000283535106717
 40
0.000283535106717
 40
0.000283535106717
 10
3.005113793673266
 20
6.268673964732414
 30
0.0
 10
3.007529655344076
 20
6.265843954845261
 30
0.0
 10
3.009949508131136
 20
6.263017347639486
 30
0.0
 10
3.012373133393317
 20
6.260193983659693
 30
0.0
  0
SPLINE
  5
26F
330
1F
100
AcDbEntity
  8
0
  6
HIDDEN
 62
     7
100
AcDbSpline
210
0.0
220
0.0
230
1.0
 70
     8
 71
     3
 72
     8
 73
     4
 74
     0
 42
0.00000001
 43
0.00000001
 40
0.0
 40
0.0
 40
0.0
 40
0.0
 40
0.0006175109583466
 40
0.0006175109583466
 40
0.0006175109583466
 40
0.0006175109583466
 10
3.007853035030339
 20
7.078485703770973
 30
0.0
 10
3.013498615671032
 20
7.082596621618335
 30
0.0
 10
3.019147323287421
 20
7.086705393232227
 30
0.0
 10
3.024798833043345
 20
7.090812235653404
 30
0.0
  0
SPLINE
  5
270
330
1F
100
AcDbEntity
  8
0
  6
HIDDEN
 62
     7
100
AcDbSpline
210
0.0
220
0.0
230
1.0
 70
     8
 71
     3
 72
     8
 73
     4
 74
     0
 42
0.00000001
 43
0.00000001
 40
0.0
 40
0.0
 40
0.0
 40
0.0
 40
0.0005371756237565
 40
0.0005371756237565
 40
0.0005371756237565
 40
0.0005371756237565
 10
3.012373133393317
 20
6.260193983659693
 30
0.0
 10
3.016483341309367
 20
6.258711641099023
 30
0.0
 10
3.020626406112613
 20
6.257235371399879
 30
0.0
 10
3.024798833043345
 20
6.25576471902473
 30
0.0
  0
LINE
  5
271
330
1F
100
AcDbEntity
  8
0
  6
HIDDEN
 62
     7
100
AcDbLine
 10
3.5293505169
 20
6.4259141468
 30
0.0
 11
3.5338547572
 21
6.4259141468
 31
0.0
  0
SPLINE
  5
272
330
1F
100
AcDbEntity
  8
0
  6
HIDDEN
 62
     7
100
AcDbSpline
210
0.0
220
0.0
230
1.0
 70
     8
 71
     3
 72
     8
 73
     4
 74
     0
 42
0.00000001
 43
0.00000001
 40
0.0
 40
0.0
 40
0.0
 40
0.0
 40
0.0006175109583466
 40
0.0006175109583466
 40
0.0006175109583466
 40
0.0006175109583466
 10
3.516924817295314
 20
6.930366662924841
 30
0.0
 10
3.522576327051238
 20
6.926259820503663
 30
0.0
 10
3.528225034667626
 20
6.922151048889772
 30
0.0
 10
3.53387061530832
 20
6.918040131042411
 30
0.0
  0
SPLINE
  5
273
330
1F
100
AcDbEntity
  8
0
  6
HIDDEN
 62
     7
100
AcDbSpline
210
0.0
220
0.0
230
1.0
 70
     8
 71
     3
 72
     8
 73
     4
 74
     0
 42
0.00000001
 43
0.00000001
 40
0.0
 40
0.0
 40
0.0
 40
0.0
 40
0.0005371756237565
 40
0.0005371756237565
 40
0.0005371756237565
 40
0.0005371756237565
 10
3.516924817295314
 20
6.409383906132589
 30
0.0
 10
3.521097244226046
 20
6.414872455516922
 30
0.0
 10
3.525240309029293
 20
6.420381969039794
 30
0.0
 10
3.529350516945341
 20
6.425914146790442
 30
0.0
  0
CIRCLE
  5
274
330
1F
100
AcDbEntity
  8
0
  6
HIDDEN
 62
     7
100
AcDbCircle
 10
3.9447463396
 20
6.3634141468
 30
0.0
 40
0.0492125984251972
  0
LINE
  5
275
330
1F
100
AcDbEntity
  8
0
  6
HIDDEN
 62
     7
100
AcDbLine
 10
3.0051137937
 20
6.2457835347
 30
0.0
 11
2.9854287543
 21
6.2457835347
 31
0.0
  0
LINE
  5
276
330
1F
100
AcDbEntity
  8
0
  6
HIDDEN
 62
     7
100
AcDbLine
 10
2.9854287543
 20
6.2457835347
 30
0.0
 11
2.9854287543
 21
7.0981707431
 31
0.0
  0
LINE
  5
277
330
1F
100
AcDbEntity
  8
0
  6
HIDDEN
 62
     7
100
AcDbLine
 10
2.9854287543
 20
7.0981707431
 30
0.0
 11
3.0051137937
 21
7.0981707431
 31
0.0
  0
SPLINE
  5
278
330
1F
100
AcDbEntity
  8
0
  6
HIDDEN
 62
     7
100
AcDbSpline
210
0.0
220
0.0
230
1.0
 70
     8
 71
     3
 72
    48
 73
    44
 74
     0
 42
0.00000001
 43
0.00000001
 40
-0.0625
 40
-0.0625
 40
0.0
 40
0.0
 40
0.0312500000000004
 40
0.0312500000000004
 40
0.0625000000000009
 40
0.0625000000000009
 40
0.0937500000000013
 40
0.0937500000000013
 40
0.1250000000000017
 40
0.1250000000000017
 40
0.1875000000000021
 40
0.1875000000000021
 40
0.2500000000000025
 40
0.2500000000000025
 40
0.3125000000000029
 40
0.3125000000000029
 40
0.3750000000000032
 40
0.3750000000000032
 40
0.4062500000000032
 40
0.4062500000000032
 40
0.4375000000000032
 40
0.4375000000000032
 40
0.5000000000000027
 40
0.5000000000000027
 40
0.5625000000000021
 40
0.5625000000000021
 40
0.6250000000000016
 40
0.6250000000000016
 40
0.687500000000001
 40
0.687500000000001
 40
0.7500000000000003
 40
0.7500000000000003
 40
0.8125
 40
0.8125
 40
0.84375
 40
0.84375
 40
0.875
 40
0.875
 40
0.90625
 40
0.90625
 40
0.9375
 40
0.9375
 40
1.0
 40
1.0
 40
1.03125
 40
1.03125
 10
2.717561857210162
 20
6.999154322415398
 30
0.0
 10
2.704007872141039
 20
6.999154322415398
 30
0.0
 10
2.699640301852918
 20
6.999730634128715
 30
0.0
 10
2.691168649245825
 20
7.001880268219153
 30
0.0
 10
2.68716830245501
 20
7.003437188778863
 30
0.0
 10
2.679819035386945
 20
7.007173036585259
 30
0.0
 10
2.676436466930579
 20
7.009368132700815
 30
0.0
 10
2.67038166315847
 20
7.014061299101732
 30
0.0
 10
2.667664628429701
 20
7.01658400408137
 30
0.0
 10
2.660304982129083
 20
7.024558253253106
 30
0.0
 10
2.656648909724617
 20
7.030156193996589
 30
0.0
 10
2.651404093847112
 20
7.041597858577481
 30
0.0
 10
2.649881181602913
 20
7.047388645875293
 30
0.0
 10
2.649204231909988
 20
7.058588767366979
 30
0.0
 10
2.65006586712523
 20
7.064104984854225
 30
0.0
 10
2.654494525138717
 20
7.074229619030707
 30
0.0
 10
2.658133783747626
 20
7.078967015177135
 30
0.0
 10
2.665758305662739
 20
7.084974106608126
 30
0.0
 10
2.668716146343867
 20
7.086833635650894
 30
0.0
 10
2.675212113518449
 20
7.090057707893537
 30
0.0
 10
2.678754737284269
 20
7.091439229211785
 30
0.0
 10
2.690357302468073
 20
7.094879225271117
 30
0.0
 10
2.699236521134865
 20
7.096131649874905
 30
0.0
 10
2.717120488590605
 20
7.09619352652474
 30
0.0
 10
2.726016374583852
 20
7.095007371283015
 30
0.0
 10
2.741627918960545
 20
7.090519070078376
 30
0.0
 10
2.748359463972224
 20
7.087211350626522
 30
0.0
 10
2.758710912119166
 20
7.079200252795648
 30
0.0
 10
2.76239378491901
 20
7.074487245931026
 30
0.0
 10
2.76693338307379
 20
7.064335522487083
 30
0.0
 10
2.767830778192973
 20
7.058819251095771
 30
0.0
 10
2.767211948864913
 20
7.047585270599665
 30
0.0
 10
2.765691838772325
 20
7.041741069363632
 30
0.0
 10
2.761801407322731
 20
7.033184803007219
 30
0.0
 10
2.760234939070893
 20
7.03035508213645
 30
0.0
 10
2.756521951798199
 20
7.024760717551064
 30
0.0
 10
2.754358752206924
 20
7.02198112704205
 30
0.0
 10
2.749496850725734
 20
7.016692981967266
 30
0.0
 10
2.7467912004807
 20
7.014165374313761
 30
0.0
 10
2.74070762539255
 20
7.009429885659181
 30
0.0
 10
2.737323828750965
 20
7.007228561995688
 30
0.0
 10
2.726345012773595
 20
7.001620498266872
 30
0.0
 10
2.717561857210162
 20
6.999154322415398
 30
0.0
 10
2.704007872141039
 20
6.999154322415398
 30
0.0
  0
SPLINE
  5
279
330
1F
100
AcDbEntity
  8
0
  6
HIDDEN
 62
     7
100
AcDbSpline
210
0.0
220
0.0
230
1.0
 70
     8
 71
     3
 72
    64
 73
    60
 74
     0
 42
0.00000001
 43
0.00000001
 40
-0.0312499999999999
 40
-0.0312499999999999
 40
0.0
 40
0.0
 40
0.0312500000000001
 40
0.0312500000000001
 40
0.0625000000000002
 40
0.0625000000000002
 40
0.0937500000000003
 40
0.0937500000000003
 40
0.1250000000000004
 40
0.1250000000000004
 40
0.1562500000000004
 40
0.1562500000000004
 40
0.1875000000000006
 40
0.1875000000000006
 40
0.2187500000000006
 40
0.2187500000000006
 40
0.2500000000000007
 40
0.2500000000000007
 40
0.2812500000000006
 40
0.2812500000000006
 40
0.3125000000000004
 40
0.3125000000000004
 40
0.3750000000000002
 40
0.3750000000000002
 40
0.4062500000000002
 40
0.4062500000000002
 40
0.4375000000000001
 40
0.4375000000000001
 40
0.46875
 40
0.46875
 40
0.4843750000000001
 40
0.4843750000000001
 40
0.5000000000000001
 40
0.5000000000000001
 40
0.5312500000000002
 40
0.5312500000000002
 40
0.5625000000000003
 40
0.5625000000000003
 40
0.625
 40
0.625
 40
0.65625
 40
0.65625
 40
0.6875
 40
0.6875
 40
0.7500000000000001
 40
0.7500000000000001
 40
0.8125000000000002
 40
0.8125000000000002
 40
0.8437500000000002
 40
0.8437500000000002
 40
0.8750000000000002
 40
0.8750000000000002
 40
0.9062500000000002
 40
0.9062500000000002
 40
0.9375000000000001
 40
0.9375000000000001
 40
0.9687500000000001
 40
0.9687500000000001
 40
1.0
 40
1.0
 40
1.03125
 40
1.03125
 10
2.700109887830825
 20
6.222455407570685
 30
0.0
 10
2.716941846497335
 20
6.222455407570685
 30
0.0
 10
2.725175450849383
 20
6.222883247303579
 30
0.0
 10
2.741292710161815
 20
6.224595474913869
 30
0.0
 10
2.749177903376069
 20
6.225898663621355
 30
0.0
 10
2.763740690241114
 20
6.229320778553747
 30
0.0
 10
2.770612849126586
 20
6.231484248094745
 30
0.0
 10
2.782931341312699
 20
6.236612135689033
 30
0.0
 10
2.78838050204828
 20
6.239557836269143
 30
0.0
 10
2.797951987015256
 20
6.246299645412729
 30
0.0
 10
2.801956909993035
 20
6.250022312999277
 30
0.0
 10
2.808494136905602
 20
6.258094833874989
 30
0.0
 10
2.811054879127839
 20
6.262500840511078
 30
0.0
 10
2.814738782407815
 20
6.271731276407458
 30
0.0
 10
2.815889852945698
 20
6.276573001057216
 30
0.0
 10
2.816973243704359
 20
6.286719835275647
 30
0.0
 10
2.816892847323322
 20
6.291998736123677
 30
0.0
 10
2.815660877264236
 20
6.302701938368283
 30
0.0
 10
2.81451325194475
 20
6.308163354782006
 30
0.0
 10
2.811244537012477
 20
6.319298901874874
 30
0.0
 10
2.809104747795001
 20
6.325010553662797
 30
0.0
 10
2.801373235224363
 20
6.342118734502733
 30
0.0
 10
2.794567910086027
 20
6.353498099507794
 30
0.0
 10
2.781494519040404
 20
6.370179748104845
 30
0.0
 10
2.776675554213051
 20
6.375624920656775
 30
0.0
 10
2.766062116391235
 20
6.385931836554583
 30
0.0
 10
2.760194233238404
 20
6.3908679341748
 30
0.0
 10
2.747262731178946
 20
6.399605014938719
 30
0.0
 10
2.740197544222708
 20
6.403412913235995
 30
0.0
 10
2.728603053496133
 20
6.407508807778457
 30
0.0
 10
2.724636872623575
 20
6.408578530448017
 30
0.0
 10
2.716470570526899
 20
6.410024811371488
 30
0.0
 10
2.712232052052789
 20
6.410392835363878
 30
0.0
 10
2.699747013637042
 20
6.410309144378656
 30
0.0
 10
2.691407204827234
 20
6.408640060661007
 30
0.0
 10
2.676155833641443
 20
6.403070529372768
 30
0.0
 10
2.669047180563902
 20
6.399167026568272
 30
0.0
 10
2.649882795628572
 20
6.386018689994841
 30
0.0
 10
2.639428090430872
 20
6.375191741671497
 30
0.0
 10
2.626568251026505
 20
6.358671216520271
 30
0.0
 10
2.62273412379161
 20
6.353059494458416
 30
0.0
 10
2.615884531427388
 20
6.341706064780623
 30
0.0
 10
2.612863987083839
 20
6.33593944787547
 30
0.0
 10
2.605239092271761
 20
6.318915311272698
 30
0.0
 10
2.601934905423975
 20
6.307814484957814
 30
0.0
 10
2.599537552056387
 20
6.286202337262233
 30
0.0
 10
2.600493494443129
 20
6.276176988920402
 30
0.0
 10
2.606105726029845
 20
6.262286469487321
 30
0.0
 10
2.608655335746899
 20
6.25795050350187
 30
0.0
 10
2.615190971046537
 20
6.249927936953458
 30
0.0
 10
2.619240931078151
 20
6.24618530859368
 30
0.0
 10
2.628772383707025
 20
6.239501864906921
 30
0.0
 10
2.634190235963302
 20
6.236581309787034
 30
0.0
 10
2.646416832175114
 20
6.231495187081433
 30
0.0
 10
2.653320175262978
 20
6.229318912604173
 30
0.0
 10
2.667853331070611
 20
6.225903201326232
 30
0.0
 10
2.675562391480567
 20
6.224620869834325
 30
0.0
 10
2.69183833526655
 20
6.222882837697663
 30
0.0
 10
2.700109887830825
 20
6.222455407570685
 30
0.0
 10
2.716941846497335
 20
6.222455407570685
 30
0.0
  0
LINE
  5
27A
330
1F
100
AcDbEntity
  8
0
  6
HIDDEN
 62
     7
100
AcDbLine
 10
2.558919568
 20
6.6818196586
 30
0.0
 11
2.8289074747
 21
6.6818196586
 31
0.0
  0
LINE
  5
27B
330
1F
100
AcDbEntity
  8
0
  6
HIDDEN
 62
     7
100
AcDbLine
 10
2.558919568
 20
6.6621346192
 30
0.0
 11
2.8289074747
 21
6.6621346192
 31
0.0
  0
LINE
  5
27C
330
1F
100
AcDbEntity
  8
0
  6
HIDDEN
 62
     7
100
AcDbLine
 10
3.1055608107
 20
7.0881895588
 30
0.0
 11
3.1166623501
 21
7.0752803131
 31
0.0
  0
LINE
  5
27D
330
1F
100
AcDbEntity
  8
0
  6
HIDDEN
 62
     7
100
AcDbLine
 10
3.1166623501
 20
6.2686739647
 30
0.0
 11
3.1033053924
 21
6.2531420422
 31
0.0
  0
LINE
  5
27E
330
1F
100
AcDbEntity
  8
0
  6
HIDDEN
 62
     7
100
AcDbLine
 10
2.9207962084
 20
7.1479634668
 30
0.0
 11
2.9207962084
 21
6.6719771389
 31
0.0
  0
LINE
  5
27F
330
1F
100
AcDbEntity
  8
0
  6
HIDDEN
 62
     7
100
AcDbLine
 10
2.9207962084
 20
6.6719771389
 30
0.0
 11
2.9207962084
 21
6.195990811
 31
0.0
  0
LINE
  5
280
330
1F
100
AcDbEntity
  8
0
  6
HIDDEN
 62
     7
100
AcDbLine
 10
2.901111169
 20
7.1479634668
 30
0.0
 11
2.901111169
 21
6.6719771389
 31
0.0
  0
LINE
  5
281
330
1F
100
AcDbEntity
  8
0
  6
HIDDEN
 62
     7
100
AcDbLine
 10
2.901111169
 20
6.6818196586
 30
0.0
 11
2.8289074747
 21
6.6818196586
 31
0.0
  0
LINE
  5
282
330
1F
100
AcDbEntity
  8
0
  6
HIDDEN
 62
     7
100
AcDbLine
 10
2.901111169
 20
6.6621346192
 30
0.0
 11
2.8289074747
 21
6.6621346192
 31
0.0
  0
SPLINE
  5
283
330
1F
100
AcDbEntity
  8
0
  6
HIDDEN
 62
     7
100
AcDbSpline
210
0.0
220
0.0
230
1.0
 70
     8
 71
     3
 72
     8
 73
     4
 74
     0
 42
0.00000001
 43
0.00000001
 40
0.0
 40
0.0
 40
0.0
 40
0.0
 40
1.0
 40
1.0
 40
1.0
 40
1.0
 10
2.82890747471412
 20
6.681819658601466
 30
0.0
 10
2.828503888233222
 20
6.675257978811439
 30
0.0
 10
2.828503888233222
 20
6.668696299021413
 30
0.0
 10
2.82890747471412
 20
6.662134619231387
 30
0.0
  0
LINE
  5
284
330
1F
100
AcDbEntity
  8
0
  6
HIDDEN
 62
     7
100
AcDbLine
 10
2.901111169
 20
6.6719771389
 30
0.0
 11
2.901111169
 21
6.195990811
 31
0.0
  0
LINE
  5
285
330
1F
100
AcDbEntity
  8
0
  6
HIDDEN
 62
     7
100
AcDbLine
 10
2.6002581506
 20
6.4259141468
 30
0.0
 11
2.8167935837
 21
6.4259141468
 31
0.0
  0
SPLINE
  5
286
330
1F
100
AcDbEntity
  8
0
  6
HIDDEN
 62
     7
100
AcDbSpline
210
0.0
220
0.0
230
1.0
 70
     8
 71
     3
 72
     8
 73
     4
 74
     0
 42
0.00000001
 43
0.00000001
 40
0.0
 40
0.0
 40
0.0
 40
0.0
 40
0.0007668413384707
 40
0.0007668413384707
 40
0.0007668413384707
 40
0.0007668413384707
 10
2.985428754303188
 20
7.098170743141052
 30
0.0
 10
2.992016884186133
 20
7.090563426018303
 30
0.0
 10
2.998579919901325
 20
7.082934280874933
 30
0.0
 10
3.005113793673266
 20
7.075280313100441
 30
0.0
  0
SPLINE
  5
287
330
1F
100
AcDbEntity
  8
0
  6
HIDDEN
 62
     7
100
AcDbSpline
210
0.0
220
0.0
230
1.0
 70
     8
 71
     3
 72
     8
 73
     4
 74
     0
 42
0.00000001
 43
0.00000001
 40
0.0
 40
0.0
 40
0.0
 40
0.0
 40
0.0007668413384707
 40
0.0007668413384707
 40
0.0007668413384707
 40
0.0007668413384707
 10
3.005113793673266
 20
6.268673964732414
 30
0.0
 10
2.998579919901325
 20
6.261019996957922
 30
0.0
 10
2.992016884186133
 20
6.253390851814551
 30
0.0
 10
2.985428754303188
 20
6.245783534691802
 30
0.0
  0
LINE
  5
288
330
1F
100
AcDbEntity
  8
0
  6
HIDDEN
 62
     7
100
AcDbLine
 10
2.6004413225
 20
6.3176464303
 30
0.0
 11
2.8166104119
 21
6.3176464303
 31
0.0
  0
LINE
  5
289
330
1F
100
AcDbEntity
  8
0
  6
HIDDEN
 62
     7
100
AcDbLine
 10
2.6101006703
 20
6.3078039106
 30
0.0
 11
2.806951064
 21
6.3078039106
 31
0.0
  0
LINE
  5
28A
330
1F
100
AcDbEntity
  8
0
  6
HIDDEN
 62
     7
100
AcDbLine
 10
2.7085258672
 20
6.980540131
 30
0.0
 11
2.6593132687
 21
6.980540131
 31
0.0
  0
LINE
  5
28B
330
1F
100
AcDbEntity
  8
0
  6
HIDDEN
 62
     7
100
AcDbLine
 10
2.7577384656
 20
6.980540131
 30
0.0
 11
2.7085258672
 21
6.980540131
 31
0.0
  0
LINE
  5
28C
330
1F
100
AcDbEntity
  8
0
  6
HIDDEN
 62
     7
100
AcDbLine
 10
2.6494707491
 20
6.9706976114
 30
0.0
 11
2.7675809853
 21
6.9706976114
 31
0.0
  0
LINE
  5
28D
330
1F
100
AcDbEntity
  8
0
  6
HIDDEN
 62
     7
100
AcDbLine
 10
2.7085258672
 20
6.4062291074
 30
0.0
 11
2.7085258672
 21
6.3078039106
 31
0.0
  0
LINE
  5
28E
330
1F
100
AcDbEntity
  8
0
  6
HIDDEN
 62
     7
100
AcDbLine
 10
2.7085258672
 20
6.4062291074
 30
0.0
 11
2.7577384656
 21
6.4062291074
 31
0.0
  0
LINE
  5
28F
330
1F
100
AcDbEntity
  8
0
  6
HIDDEN
 62
     7
100
AcDbLine
 10
2.6593132687
 20
6.4062291074
 30
0.0
 11
2.7085258672
 21
6.4062291074
 31
0.0
  0
LINE
  5
290
330
1F
100
AcDbEntity
  8
0
  6
HIDDEN
 62
     7
100
AcDbLine
 10
2.7577384656
 20
6.4062291074
 30
0.0
 11
2.7577384656
 21
6.3078039106
 31
0.0
  0
LINE
  5
291
330
1F
100
AcDbEntity
  8
0
  6
HIDDEN
 62
     7
100
AcDbLine
 10
2.6593132687
 20
6.4062291074
 30
0.0
 11
2.6593132687
 21
6.3078039106
 31
0.0
  0
LINE
  5
292
330
1F
100
AcDbEntity
  8
0
  6
HIDDEN
 62
     7
100
AcDbLine
 10
3.7324759984
 20
6.7969771389
 30
0.0
 11
3.5366098567
 21
6.7969771389
 31
0.0
  0
LINE
  5
293
330
1F
100
AcDbEntity
  8
0
  6
HIDDEN
 62
     7
100
AcDbLine
 10
3.5366098567
 20
6.5469771389
 30
0.0
 11
3.7324759984
 21
6.5469771389
 31
0.0
  0
LINE
  5
294
330
1F
100
AcDbEntity
  8
0
  6
HIDDEN
 62
     7
100
AcDbLine
 10
3.8243647321
 20
6.7969771389
 30
0.0
 11
3.7521610378
 21
6.7969771389
 31
0.0
  0
LINE
  5
295
330
1F
100
AcDbEntity
  8
0
  6
HIDDEN
 62
     7
100
AcDbLine
 10
3.1166623501
 20
6.5469771389
 30
0.0
 11
3.5366098567
 21
6.5469771389
 31
0.0
  0
LINE
  5
296
330
1F
100
AcDbEntity
  8
0
  6
HIDDEN
 62
     7
100
AcDbLine
 10
3.5366098567
 20
6.7969771389
 30
0.0
 11
3.1166623501
 21
6.7969771389
 31
0.0
  0
LINE
  5
297
330
1F
100
AcDbEntity
  8
0
  6
HIDDEN
 62
     7
100
AcDbLine
 10
2.5786046073
 20
6.7969771389
 30
0.0
 11
2.558919568
 21
6.8166621783
 31
0.0
  0
LINE
  5
298
330
1F
100
AcDbEntity
  8
0
  6
HIDDEN
 62
     7
100
AcDbLine
 10
2.558919568
 20
6.5272920995
 30
0.0
 11
2.5786046073
 21
6.5469771389
 31
0.0
  0
LINE
  5
299
330
1F
100
AcDbEntity
  8
0
  6
HIDDEN
 62
     7
100
AcDbLine
 10
2.9207962084
 20
6.5469771389
 30
0.0
 11
3.1166623501
 21
6.5469771389
 31
0.0
  0
LINE
  5
29A
330
1F
100
AcDbEntity
  8
0
  6
HIDDEN
 62
     7
100
AcDbLine
 10
3.1166623501
 20
6.7969771389
 30
0.0
 11
2.9207962084
 21
6.7969771389
 31
0.0
  0
LINE
  5
29B
330
1F
100
AcDbEntity
  8
0
  6
HIDDEN
 62
     7
100
AcDbLine
 10
2.5786046073
 20
6.5469771389
 30
0.0
 11
2.901111169
 21
6.5469771389
 31
0.0
  0
LINE
  5
29C
330
1F
100
AcDbEntity
  8
0
  6
HIDDEN
 62
     7
100
AcDbLine
 10
2.901111169
 20
6.7969771389
 30
0.0
 11
2.5786046073
 21
6.7969771389
 31
0.0
  0
LINE
  5
29D
330
1F
100
AcDbEntity
  8
0
  6
HIDDEN
 62
     7
100
AcDbLine
 10
2.6002581506
 20
6.4259141468
 30
0.0
 11
2.6002581506
 21
6.2888226009
 31
0.0
  0
LINE
  5
29E
330
1F
100
AcDbEntity
  8
0
  6
HIDDEN
 62
     7
100
AcDbLine
 10
2.8167935837
 20
6.2887035847
 30
0.0
 11
2.8167935837
 21
6.4259141468
 31
0.0
  0
LINE
  5
29F
330
1F
100
AcDbEntity
  8
0
  6
HIDDEN
 62
     7
100
AcDbLine
 10
2.7675809853
 20
6.6818196586
 30
0.0
 11
2.7675809853
 21
7.0552968026
 31
0.0
  0
LINE
  5
2A0
330
1F
100
AcDbEntity
  8
0
  6
HIDDEN
 62
     7
100
AcDbLine
 10
2.6494707491
 20
7.0552705139
 30
0.0
 11
2.6494707491
 21
6.6818196586
 31
0.0
  0
LINE
  5
2A1
330
1F
100
AcDbEntity
  8
0
  6
HIDDEN
 62
     7
100
AcDbLine
 10
2.7675809853
 20
6.4259141468
 30
0.0
 11
2.7675809853
 21
6.6621346192
 31
0.0
  0
LINE
  5
2A2
330
1F
100
AcDbEntity
  8
0
  6
HIDDEN
 62
     7
100
AcDbLine
 10
2.6494707491
 20
6.6621346192
 30
0.0
 11
2.6494707491
 21
6.4259141468
 31
0.0
  0
LINE
  5
2A3
330
1F
100
AcDbEntity
  8
0
  6
HIDDEN
 62
     7
100
AcDbLine
 10
2.6002581506
 20
6.4259141468
 30
0.0
 11
2.6002581506
 21
6.3176464303
 31
0.0
  0
LINE
  5
2A4
330
1F
100
AcDbEntity
  8
0
  6
HIDDEN
 62
     7
100
AcDbLine
 10
2.8167935837
 20
6.3176464303
 30
0.0
 11
2.8167935837
 21
6.4259141468
 31
0.0
  0
ARC
  5
2A5
330
1F
100
AcDbEntity
  8
0
  6
HIDDEN
 62
     7
100
AcDbCircle
 10
2.806951064
 20
6.3176464303
 30
0.0
 40
0.0098425196850394
100
AcDbArc
 50
270.0
 51
0.0
  0
ARC
  5
2A6
330
1F
100
AcDbEntity
  8
0
  6
HIDDEN
 62
     7
100
AcDbCircle
 10
2.6101006703
 20
6.3176464303
 30
0.0
 40
0.0098425196850394
100
AcDbArc
 50
180.0
 51
270.0
  0
ARC
  5
2A7
330
1F
100
AcDbEntity
  8
0
  6
HIDDEN
 62
     7
100
AcDbCircle
 10
2.6593132687
 20
6.9706976114
 30
0.0
 40
0.0098425196850394
100
AcDbArc
 50
90.0
 51
180.0
  0
ARC
  5
2A8
330
1F
100
AcDbEntity
  8
0
  6
HIDDEN
 62
     7
100
AcDbCircle
 10
2.7577384656
 20
6.9706976114
 30
0.0
 40
0.0098425196850394
100
AcDbArc
 50
0.0
 51
90.0
  0
LINE
  5
2A9
330
1F
100
AcDbEntity
  8
0
  6
HIDDEN
 62
     7
100
AcDbLine
 10
2.6494707491
 20
6.9706976114
 30
0.0
 11
2.6494707491
 21
6.4259141468
 31
0.0
  0
LINE
  5
2AA
330
1F
100
AcDbEntity
  8
0
  6
HIDDEN
 62
     7
100
AcDbLine
 10
2.7675809853
 20
6.4259141468
 30
0.0
 11
2.7675809853
 21
6.9706976114
 31
0.0
  0
LINE
  5
2AB
330
1F
100
AcDbEntity
  8
0
  6
CONTINUOUS
 62
     7
100
AcDbLine
 10
8.7025350899
 20
6.1452891932
 30
0.0
 11
8.7164522524
 21
6.1533260121
 31
0.0
  0
LINE
  5
2AC
330
1F
100
AcDbEntity
  8
0
  6
CONTINUOUS
 62
     7
100
AcDbLine
 10
9.0504641531
 20
6.7319142857
 30
0.0
 11
9.0504641531
 21
6.7479853115
 31
0.0
  0
LINE
  5
2AD
330
1F
100
AcDbEntity
  8
0
  6
CONTINUOUS
 62
     7
100
AcDbLine
 10
8.3956307936
 20
6.1559941712
 30
0.0
 11
8.4564355372
 21
6.1208923399
 31
0.0
  0
LINE
  5
2AE
330
1F
100
AcDbEntity
  8
0
  6
CONTINUOUS
 62
     7
100
AcDbLine
 10
8.2283889604
 20
6.2525408264
 30
0.0
 11
8.3336352455
 21
6.1917834393
 31
0.0
  0
LINE
  5
2AF
330
1F
100
AcDbEntity
  8
0
  6
CONTINUOUS
 62
     7
100
AcDbLine
 10
8.1687674241
 20
6.2869596067
 30
0.0
 11
8.2144695356
 21
6.2605763393
 31
0.0
  0
LINE
  5
2B0
330
1F
100
AcDbEntity
  8
0
  6
CONTINUOUS
 62
     7
100
AcDbLine
 10
8.9485215276
 20
6.9733026375
 30
0.0
 11
8.6469339897
 21
7.1474054173
 31
0.0
  0
LINE
  5
2B1
330
1F
100
AcDbEntity
  8
0
  6
CONTINUOUS
 62
     7
100
AcDbLine
 10
8.0668247987
 20
6.5283479586
 30
0.0
 11
8.0668247987
 21
6.5122769327
 31
0.0
  0
LINE
  5
2B2
330
1F
100
AcDbEntity
  8
0
  6
CONTINUOUS
 62
     7
100
AcDbLine
 10
8.3358771212
 20
7.1605076242
 30
0.0
 11
8.3219599587
 21
7.1524708053
 31
0.0
  0
LINE
  5
2B3
330
1F
100
AcDbEntity
  8
0
  6
CONTINUOUS
 62
     7
100
AcDbLine
 10
7.7140662131
 20
6.5494530285
 30
0.0
 11
8.1409285744
 21
6.3030306326
 31
0.0
  0
LINE
  5
2B4
330
1F
100
AcDbEntity
  8
0
  6
CONTINUOUS
 62
     7
100
AcDbLine
 10
8.6330145649
 20
7.1554409302
 30
0.0
 11
8.2061522036
 21
7.4018633261
 31
0.0
  0
LINE
  5
2B5
330
1F
100
AcDbEntity
  8
0
  6
CONTINUOUS
 62
     7
100
AcDbLine
 10
7.9600526509
 20
7.3774664728
 30
0.0
 11
7.9461354883
 21
7.3694296539
 31
0.0
  0
LINE
  5
2B6
330
1F
100
AcDbEntity
  8
0
  6
CONTINUOUS
 62
     7
100
AcDbLine
 10
7.6910003283
 20
6.7453068072
 30
0.0
 11
7.6910003283
 21
6.7292357814
 31
0.0
  0
SPLINE
  5
2B7
330
1F
100
AcDbEntity
  8
0
  6
CONTINUOUS
 62
     7
100
AcDbSpline
210
0.0
220
0.0
230
1.0
 70
     8
 71
     3
 72
    33
 73
    29
 74
     0
 42
0.00000001
 43
0.00000001
 40
0.0
 40
0.0
 40
0.0
 40
0.0
 40
0.0295414869629136
 40
0.0683717232380026
 40
0.1078416155911951
 40
0.1477301780335413
 40
0.1878185719437037
 40
0.2279341873235508
 40
0.2679942736652224
 40
0.3079783964867006
 40
0.3478911384788616
 40
0.3877496894404546
 40
0.427577106282061
 40
0.4673990749948968
 40
0.5072388944921946
 40
0.5471187669545974
 40
0.5870664720210303
 40
0.62710883370278
 40
0.6672689030748574
 40
0.7075597790703717
 40
0.7479724553331727
 40
0.7884448623411023
 40
0.8288034377313822
 40
0.8688041904547311
 40
0.9081609818438463
 40
0.9466731736436964
 40
0.9843568164115147
 40
0.9999999999999999
 40
0.9999999999999999
 40
0.9999999999999999
 40
0.9999999999999999
 10
8.492630682662503
 20
6.788943827119209
 30
0.0
 10
8.491464341082702
 20
6.790675074208963
 30
0.0
 10
8.488764924367654
 20
6.79468192555757
 30
0.0
 10
8.48321581399477
 20
6.800453613403929
 30
0.0
 10
8.476252733671872
 20
6.806305989934335
 30
0.0
 10
8.468224477651296
 20
6.811635855386349
 30
0.0
 10
8.459288561746417
 20
6.816387578508243
 30
0.0
 10
8.449558523292623
 20
6.820497398175289
 30
0.0
 10
8.4391683492283
 20
6.823923425708363
 30
0.0
 10
8.428245859098041
 20
6.826634477951839
 30
0.0
 10
8.416919459021932
 20
6.828608254829842
 30
0.0
 10
8.405318589740435
 20
6.829828926579621
 30
0.0
 10
8.393574091182007
 20
6.830286884915368
 30
0.0
 10
8.381817826495842
 20
6.829978641808565
 30
0.0
 10
8.370181824492846
 20
6.828906922639052
 30
0.0
 10
8.358796414757508
 20
6.827080542195744
 30
0.0
 10
8.347788606450107
 20
6.824513824748955
 30
0.0
 10
8.337281069867368
 20
6.821225742079595
 30
0.0
 10
8.327392343739659
 20
6.817239238495556
 30
0.0
 10
8.318237527892718
 20
6.81258084060764
 30
0.0
 10
8.309930528859608
 20
6.807281841481856
 30
0.0
 10
8.302589585291086
 20
6.801383758048985
 30
0.0
 10
8.296331713404257
 20
6.794945431146493
 30
0.0
 10
8.291278128988408
 20
6.788052025541709
 30
0.0
 10
8.287491592516806
 20
6.780816597723663
 30
0.0
 10
8.285129614454117
 20
6.77337730154962
 30
0.0
 10
8.284069060114838
 20
6.767289495669669
 30
0.0
 10
8.284262994421352
 20
6.763743974087107
 30
0.0
 10
8.284319884174002
 20
6.762703911349032
 30
0.0
  0
LINE
  5
2B8
330
1F
100
AcDbEntity
  8
0
  6
CONTINUOUS
 62
     7
100
AcDbLine
 10
8.2841556279
 20
6.7635006935
 30
0.0
 11
8.2841556279
 21
6.7243496448
 31
0.0
  0
LINE
  5
2B9
330
1F
100
AcDbEntity
  8
0
  6
CONTINUOUS
 62
     7
100
AcDbLine
 10
8.1922327787
 20
7.409898839
 30
0.0
 11
7.8906452408
 21
7.5840016188
 31
0.0
  0
LINE
  5
2BA
330
1F
100
AcDbEntity
  8
0
  6
CONTINUOUS
 62
     7
100
AcDbLine
 10
7.6405252519
 20
6.5919073217
 30
0.0
 11
7.6862273634
 21
6.5655240543
 31
0.0
  0
LINE
  5
2BB
330
1F
100
AcDbEntity
  8
0
  6
CONTINUOUS
 62
     7
100
AcDbLine
 10
7.5617209478
 20
6.6374000782
 30
0.0
 11
7.6266058271
 21
6.5999428346
 31
0.0
  0
LINE
  5
2BC
330
1F
100
AcDbEntity
  8
0
  6
CONTINUOUS
 62
     7
100
AcDbLine
 10
7.3985592504
 20
6.7315913212
 30
0.0
 11
7.4087864278
 21
6.7256872973
 31
0.0
  0
LINE
  5
2BD
330
1F
100
AcDbEntity
  8
0
  6
CONTINUOUS
 62
     7
100
AcDbLine
 10
7.6445456881
 20
7.5596047655
 30
0.0
 11
7.6306285256
 21
7.5515679466
 31
0.0
  0
LINE
  5
2BE
330
1F
100
AcDbEntity
  8
0
  6
CONTINUOUS
 62
     7
100
AcDbLine
 10
7.2966166249
 20
6.972979673
 30
0.0
 11
7.2966166249
 21
6.9569086472
 31
0.0
  0
SPLINE
  5
2BF
330
1F
100
AcDbEntity
  8
0
  6
CONTINUOUS
 62
     7
100
AcDbSpline
210
0.0
220
0.0
230
1.0
 70
     8
 71
     3
 72
    23
 73
    19
 74
     0
 42
0.00000001
 43
0.00000001
 40
0.0
 40
0.0
 40
0.0
 40
0.0
 40
0.0447006543882601
 40
0.1091636846925264
 40
0.1738756264156371
 40
0.238579404761497
 40
0.3031802740372807
 40
0.3676577391469487
 40
0.4320256639412194
 40
0.4963148442896283
 40
0.5605638454112146
 40
0.6248147232609831
 40
0.6891017677911363
 40
0.753464563942267
 40
0.8179477706289702
 40
0.882593701882791
 40
0.9474367437003578
 40
1.0
 40
1.0
 40
1.0
 40
1.0
 10
7.40779453506025
 20
6.763371198719
 30
0.0
 10
7.407443874708053
 20
6.761259309634154
 30
0.0
 10
7.406587525362721
 20
6.756101855066234
 30
0.0
 10
7.406349522598001
 20
6.747263634057653
 30
0.0
 10
7.406912549030748
 20
6.737060379303505
 30
0.0
 10
7.408456911662674
 20
6.7265048195921
 30
0.0
 10
7.410905843236539
 20
6.715757140892323
 30
0.0
 10
7.414232173682178
 20
6.704935150389649
 30
0.0
 10
7.41838630580392
 20
6.694162388161493
 30
0.0
 10
7.423316537455235
 20
6.683557941352076
 30
0.0
 10
7.42896410980634
 20
6.673239481224278
 30
0.0
 10
7.435264741046604
 20
6.663322483100194
 30
0.0
 10
7.442148814296621
 20
6.653918468215171
 30
0.0
 10
7.449542743766637
 20
6.645136295502843
 30
0.0
 10
7.457369569240912
 20
6.637070989695744
 30
0.0
 10
7.465553159342156
 20
6.629841284382773
 30
0.0
 10
7.473463669209213
 20
6.623859821132468
 30
0.0
 10
7.478669342491222
 20
6.620693746880113
 30
0.0
 10
7.480999942666191
 20
6.619276283123405
 30
0.0
  0
SPLINE
  5
2C0
330
1F
100
AcDbEntity
  8
0
  6
CONTINUOUS
 62
     7
100
AcDbSpline
210
0.0
220
0.0
230
1.0
 70
     8
 71
     3
 72
    15
 73
    11
 74
     0
 42
0.00000001
 43
0.00000001
 40
0.0
 40
0.0
 40
0.0
 40
0.0
 40
0.0760924236459933
 40
0.2196053366464561
 40
0.3631670452833873
 40
0.5058527389876534
 40
0.646667386918775
 40
0.7847077317645668
 40
0.9196738812766387
 40
1.0
 40
1.0
 40
1.0
 40
1.0
 10
7.480999942666191
 20
6.619276283123405
 30
0.0
 10
7.482539847300187
 20
6.618419373055708
 30
0.0
 10
7.486984064731417
 20
6.615946301298028
 30
0.0
 10
7.494391118554355
 20
6.612702848823325
 30
0.0
 10
7.503136788625269
 20
6.609983417303401
 30
0.0
 10
7.511736909934389
 20
6.608526521896104
 30
0.0
 10
7.520056500492569
 20
6.608334543556923
 30
0.0
 10
7.5279123277647
 20
6.609476702491708
 30
0.0
 10
7.534352882366138
 20
6.611379258081495
 30
0.0
 10
7.537872523852377
 20
6.613356674183668
 30
0.0
 10
7.539185711465684
 20
6.614094453398363
 30
0.0
  0
LINE
  5
2C1
330
1F
100
AcDbEntity
  8
0
  6
CONTINUOUS
 62
     7
100
AcDbLine
 10
7.5400502615
 20
6.6144034435
 30
0.0
 11
7.5708034326
 21
6.6321568713
 31
0.0
  0
POLYLINE
  5
2C2
330
1F
100
AcDbEntity
  8
0
  6
CONTINUOUS
 62
     7
100
AcDb2dPolyline
 66
     1
 10
0.0
 20
0.0
 30
0.0
  0
VERTEX
  5
348
330
2C2
100
AcDbEntity
  8
0
  6
CONTINUOUS
 62
     7
100
AcDbVertex
100
AcDb2dVertex
 10
8.3824042663
 20
6.3382147031
 30
0.0
  0
VERTEX
  5
349
330
2C2
100
AcDbEntity
  8
0
  6
CONTINUOUS
 62
     7
100
AcDbVertex
100
AcDb2dVertex
 10
8.3832855821
 20
6.3176298371
 30
0.0
  0
VERTEX
  5
34A
330
2C2
100
AcDbEntity
  8
0
  6
CONTINUOUS
 62
     7
100
AcDbVertex
100
AcDb2dVertex
 10
8.3851651787
 20
6.2977085654
 30
0.0
  0
VERTEX
  5
34B
330
2C2
100
AcDbEntity
  8
0
  6
CONTINUOUS
 62
     7
100
AcDbVertex
100
AcDb2dVertex
 10
8.3880374232
 20
6.2785105885
 30
0.0
  0
VERTEX
  5
34C
330
2C2
100
AcDbEntity
  8
0
  6
CONTINUOUS
 62
     7
100
AcDbVertex
100
AcDb2dVertex
 10
8.391893708
 20
6.2600934395
 30
0.0
  0
VERTEX
  5
34D
330
2C2
100
AcDbEntity
  8
0
  6
CONTINUOUS
 62
     7
100
AcDbVertex
100
AcDb2dVertex
 10
8.3967224765
 20
6.2425123114
 30
0.0
  0
VERTEX
  5
34E
330
2C2
100
AcDbEntity
  8
0
  6
CONTINUOUS
 62
     7
100
AcDbVertex
100
AcDb2dVertex
 10
8.4025092577
 20
6.225819892
 30
0.0
  0
VERTEX
  5
34F
330
2C2
100
AcDbEntity
  8
0
  6
CONTINUOUS
 62
     7
100
AcDbVertex
100
AcDb2dVertex
 10
8.4092367095
 20
6.2100662054
 30
0.0
  0
VERTEX
  5
350
330
2C2
100
AcDbEntity
  8
0
  6
CONTINUOUS
 62
     7
100
AcDbVertex
100
AcDb2dVertex
 10
8.4168846711
 20
6.1952984628
 30
0.0
  0
VERTEX
  5
351
330
2C2
100
AcDbEntity
  8
0
  6
CONTINUOUS
 62
     7
100
AcDbVertex
100
AcDb2dVertex
 10
8.4254302227
 20
6.1815609206
 30
0.0
  0
VERTEX
  5
352
330
2C2
100
AcDbEntity
  8
0
  6
CONTINUOUS
 62
     7
100
AcDbVertex
100
AcDb2dVertex
 10
8.4348477547
 20
6.1688947479
 30
0.0
  0
VERTEX
  5
353
330
2C2
100
AcDbEntity
  8
0
  6
CONTINUOUS
 62
     7
100
AcDbVertex
100
AcDb2dVertex
 10
8.4451090445
 20
6.157337903
 30
0.0
  0
VERTEX
  5
354
330
2C2
100
AcDbEntity
  8
0
  6
CONTINUOUS
 62
     7
100
AcDbVertex
100
AcDb2dVertex
 10
8.4561833408
 20
6.1469250197
 30
0.0
  0
VERTEX
  5
355
330
2C2
100
AcDbEntity
  8
0
  6
CONTINUOUS
 62
     7
100
AcDbVertex
100
AcDb2dVertex
 10
8.4680374557
 20
6.1376873038
 30
0.0
  0
VERTEX
  5
356
330
2C2
100
AcDbEntity
  8
0
  6
CONTINUOUS
 62
     7
100
AcDbVertex
100
AcDb2dVertex
 10
8.4806358645
 20
6.1296524391
 30
0.0
  0
VERTEX
  5
357
330
2C2
100
AcDbEntity
  8
0
  6
CONTINUOUS
 62
     7
100
AcDbVertex
100
AcDb2dVertex
 10
8.4939408119
 20
6.1228445046
 30
0.0
  0
VERTEX
  5
358
330
2C2
100
AcDbEntity
  8
0
  6
CONTINUOUS
 62
     7
100
AcDbVertex
100
AcDb2dVertex
 10
8.5079124253
 20
6.1172839027
 30
0.0
  0
VERTEX
  5
359
330
2C2
100
AcDbEntity
  8
0
  6
CONTINUOUS
 62
     7
100
AcDbVertex
100
AcDb2dVertex
 10
8.5225088342
 20
6.1129872974
 30
0.0
  0
VERTEX
  5
35A
330
2C2
100
AcDbEntity
  8
0
  6
CONTINUOUS
 62
     7
100
AcDbVertex
100
AcDb2dVertex
 10
8.5376862956
 20
6.109967565
 30
0.0
  0
VERTEX
  5
35B
330
2C2
100
AcDbEntity
  8
0
  6
CONTINUOUS
 62
     7
100
AcDbVertex
100
AcDb2dVertex
 10
8.5533993252
 20
6.1082337551
 30
0.0
  0
VERTEX
  5
35C
330
2C2
100
AcDbEntity
  8
0
  6
CONTINUOUS
 62
     7
100
AcDbVertex
100
AcDb2dVertex
 10
8.5696008338
 20
6.1077910636
 30
0.0
  0
VERTEX
  5
35D
330
2C2
100
AcDbEntity
  8
0
  6
CONTINUOUS
 62
     7
100
AcDbVertex
100
AcDb2dVertex
 10
8.5862422682
 20
6.1086408172
 30
0.0
  0
VERTEX
  5
35E
330
2C2
100
AcDbEntity
  8
0
  6
CONTINUOUS
 62
     7
100
AcDbVertex
100
AcDb2dVertex
 10
8.603273757
 20
6.1107804693
 30
0.0
  0
VERTEX
  5
35F
330
2C2
100
AcDbEntity
  8
0
  6
CONTINUOUS
 62
     7
100
AcDbVertex
100
AcDb2dVertex
 10
8.6206442597
 20
6.1142036077
 30
0.0
  0
VERTEX
  5
360
330
2C2
100
AcDbEntity
  8
0
  6
CONTINUOUS
 62
     7
100
AcDbVertex
100
AcDb2dVertex
 10
8.6383017197
 20
6.118899974
 30
0.0
  0
VERTEX
  5
361
330
2C2
100
AcDbEntity
  8
0
  6
CONTINUOUS
 62
     7
100
AcDbVertex
100
AcDb2dVertex
 10
8.6561932209
 20
6.1248554938
 30
0.0
  0
VERTEX
  5
362
330
2C2
100
AcDbEntity
  8
0
  6
CONTINUOUS
 62
     7
100
AcDbVertex
100
AcDb2dVertex
 10
8.6742651453
 20
6.1320523196
 30
0.0
  0
VERTEX
  5
363
330
2C2
100
AcDbEntity
  8
0
  6
CONTINUOUS
 62
     7
100
AcDbVertex
100
AcDb2dVertex
 10
8.6924633345
 20
6.1404688836
 30
0.0
  0
VERTEX
  5
364
330
2C2
100
AcDbEntity
  8
0
  6
CONTINUOUS
 62
     7
100
AcDbVertex
100
AcDb2dVertex
 10
8.7107332517
 20
6.1500799628
 30
0.0
  0
VERTEX
  5
365
330
2C2
100
AcDbEntity
  8
0
  6
CONTINUOUS
 62
     7
100
AcDbVertex
100
AcDb2dVertex
 10
8.7290201451
 20
6.1608567546
 30
0.0
  0
VERTEX
  5
366
330
2C2
100
AcDbEntity
  8
0
  6
CONTINUOUS
 62
     7
100
AcDbVertex
100
AcDb2dVertex
 10
8.7472692119
 20
6.1727669627
 30
0.0
  0
VERTEX
  5
367
330
2C2
100
AcDbEntity
  8
0
  6
CONTINUOUS
 62
     7
100
AcDbVertex
100
AcDb2dVertex
 10
8.7654257628
 20
6.1857748941
 30
0.0
  0
VERTEX
  5
368
330
2C2
100
AcDbEntity
  8
0
  6
CONTINUOUS
 62
     7
100
AcDbVertex
100
AcDb2dVertex
 10
8.7834353859
 20
6.1998415665
 30
0.0
  0
VERTEX
  5
369
330
2C2
100
AcDbEntity
  8
0
  6
CONTINUOUS
 62
     7
100
AcDbVertex
100
AcDb2dVertex
 10
8.8012441092
 20
6.2149248244
 30
0.0
  0
VERTEX
  5
36A
330
2C2
100
AcDbEntity
  8
0
  6
CONTINUOUS
 62
     7
100
AcDbVertex
100
AcDb2dVertex
 10
8.8187985631
 20
6.2309794659
 30
0.0
  0
VERTEX
  5
36B
330
2C2
100
AcDbEntity
  8
0
  6
CONTINUOUS
 62
     7
100
AcDbVertex
100
AcDb2dVertex
 10
8.83604614
 20
6.2479573778
 30
0.0
  0
VERTEX
  5
36C
330
2C2
100
AcDbEntity
  8
0
  6
CONTINUOUS
 62
     7
100
AcDbVertex
100
AcDb2dVertex
 10
8.8529351517
 20
6.2658076805
 30
0.0
  0
VERTEX
  5
36D
330
2C2
100
AcDbEntity
  8
0
  6
CONTINUOUS
 62
     7
100
AcDbVertex
100
AcDb2dVertex
 10
8.8694149848
 20
6.2844768794
 30
0.0
  0
VERTEX
  5
36E
330
2C2
100
AcDbEntity
  8
0
  6
CONTINUOUS
 62
     7
100
AcDbVertex
100
AcDb2dVertex
 10
8.8854362521
 20
6.3039090263
 30
0.0
  0
VERTEX
  5
36F
330
2C2
100
AcDbEntity
  8
0
  6
CONTINUOUS
 62
     7
100
AcDbVertex
100
AcDb2dVertex
 10
8.9009509406
 20
6.3240458863
 30
0.0
  0
VERTEX
  5
370
330
2C2
100
AcDbEntity
  8
0
  6
CONTINUOUS
 62
     7
100
AcDbVertex
100
AcDb2dVertex
 10
8.9159125553
 20
6.3448271128
 30
0.0
  0
VERTEX
  5
371
330
2C2
100
AcDbEntity
  8
0
  6
CONTINUOUS
 62
     7
100
AcDbVertex
100
AcDb2dVertex
 10
8.930276259
 20
6.3661904278
 30
0.0
  0
VERTEX
  5
372
330
2C2
100
AcDbEntity
  8
0
  6
CONTINUOUS
 62
     7
100
AcDbVertex
100
AcDb2dVertex
 10
8.943999006
 20
6.3880718094
 30
0.0
  0
VERTEX
  5
373
330
2C2
100
AcDbEntity
  8
0
  6
CONTINUOUS
 62
     7
100
AcDbVertex
100
AcDb2dVertex
 10
8.9570396717
 20
6.4104056825
 30
0.0
  0
VERTEX
  5
374
330
2C2
100
AcDbEntity
  8
0
  6
CONTINUOUS
 62
     7
100
AcDbVertex
100
AcDb2dVertex
 10
8.9693591753
 20
6.4331251166
 30
0.0
  0
VERTEX
  5
375
330
2C2
100
AcDbEntity
  8
0
  6
CONTINUOUS
 62
     7
100
AcDbVertex
100
AcDb2dVertex
 10
8.9809205975
 20
6.4561620253
 30
0.0
  0
VERTEX
  5
376
330
2C2
100
AcDbEntity
  8
0
  6
CONTINUOUS
 62
     7
100
AcDbVertex
100
AcDb2dVertex
 10
8.9916892906
 20
6.4794473709
 30
0.0
  0
VERTEX
  5
377
330
2C2
100
AcDbEntity
  8
0
  6
CONTINUOUS
 62
     7
100
AcDbVertex
100
AcDb2dVertex
 10
9.0016329827
 20
6.5029113714
 30
0.0
  0
VERTEX
  5
378
330
2C2
100
AcDbEntity
  8
0
  6
CONTINUOUS
 62
     7
100
AcDbVertex
100
AcDb2dVertex
 10
9.0107218743
 20
6.526483709
 30
0.0
  0
VERTEX
  5
379
330
2C2
100
AcDbEntity
  8
0
  6
CONTINUOUS
 62
     7
100
AcDbVertex
100
AcDb2dVertex
 10
9.0189287274
 20
6.5500937415
 30
0.0
  0
VERTEX
  5
37A
330
2C2
100
AcDbEntity
  8
0
  6
CONTINUOUS
 62
     7
100
AcDbVertex
100
AcDb2dVertex
 10
9.0262289477
 20
6.5736707136
 30
0.0
  0
VERTEX
  5
37B
330
2C2
100
AcDbEntity
  8
0
  6
CONTINUOUS
 62
     7
100
AcDbVertex
100
AcDb2dVertex
 10
9.0326006575
 20
6.5971439694
 30
0.0
  0
VERTEX
  5
37C
330
2C2
100
AcDbEntity
  8
0
  6
CONTINUOUS
 62
     7
100
AcDbVertex
100
AcDb2dVertex
 10
9.038024762
 20
6.6204431633
 30
0.0
  0
VERTEX
  5
37D
330
2C2
100
AcDbEntity
  8
0
  6
CONTINUOUS
 62
     7
100
AcDbVertex
100
AcDb2dVertex
 10
9.042485006
 20
6.6434984718
 30
0.0
  0
VERTEX
  5
37E
330
2C2
100
AcDbEntity
  8
0
  6
CONTINUOUS
 62
     7
100
AcDbVertex
100
AcDb2dVertex
 10
9.0459680229
 20
6.6662408019
 30
0.0
  0
VERTEX
  5
37F
330
2C2
100
AcDbEntity
  8
0
  6
CONTINUOUS
 62
     7
100
AcDbVertex
100
AcDb2dVertex
 10
9.0484633748
 20
6.6886019989
 30
0.0
  0
VERTEX
  5
380
330
2C2
100
AcDbEntity
  8
0
  6
CONTINUOUS
 62
     7
100
AcDbVertex
100
AcDb2dVertex
 10
9.0499635835
 20
6.71051505
 30
0.0
  0
VERTEX
  5
381
330
2C2
100
AcDbEntity
  8
0
  6
CONTINUOUS
 62
     7
100
AcDbVertex
100
AcDb2dVertex
 10
9.0504641531
 20
6.7319142857
 30
0.0
  0
VERTEX
  5
382
330
2C2
100
AcDbEntity
  8
0
  6
CONTINUOUS
 62
     7
100
AcDbVertex
100
AcDb2dVertex
 10
9.0499635835
 20
6.7527355759
 30
0.0
  0
VERTEX
  5
383
330
2C2
100
AcDbEntity
  8
0
  6
CONTINUOUS
 62
     7
100
AcDbVertex
100
AcDb2dVertex
 10
9.0484633748
 20
6.772916523
 30
0.0
  0
VERTEX
  5
384
330
2C2
100
AcDbEntity
  8
0
  6
CONTINUOUS
 62
     7
100
AcDbVertex
100
AcDb2dVertex
 10
9.0459680229
 20
6.792396648
 30
0.0
  0
VERTEX
  5
385
330
2C2
100
AcDbEntity
  8
0
  6
CONTINUOUS
 62
     7
100
AcDbVertex
100
AcDb2dVertex
 10
9.042485006
 20
6.8111175724
 30
0.0
  0
VERTEX
  5
386
330
2C2
100
AcDbEntity
  8
0
  6
CONTINUOUS
 62
     7
100
AcDbVertex
100
AcDb2dVertex
 10
9.038024762
 20
6.8290231928
 30
0.0
  0
VERTEX
  5
387
330
2C2
100
AcDbEntity
  8
0
  6
CONTINUOUS
 62
     7
100
AcDbVertex
100
AcDb2dVertex
 10
9.0326006575
 20
6.846059849
 30
0.0
  0
VERTEX
  5
388
330
2C2
100
AcDbEntity
  8
0
  6
CONTINUOUS
 62
     7
100
AcDbVertex
100
AcDb2dVertex
 10
9.0262289477
 20
6.8621764852
 30
0.0
  0
VERTEX
  5
389
330
2C2
100
AcDbEntity
  8
0
  6
CONTINUOUS
 62
     7
100
AcDbVertex
100
AcDb2dVertex
 10
9.0189287274
 20
6.8773248025
 30
0.0
  0
VERTEX
  5
38A
330
2C2
100
AcDbEntity
  8
0
  6
CONTINUOUS
 62
     7
100
AcDbVertex
100
AcDb2dVertex
 10
9.0107218743
 20
6.891459404
 30
0.0
  0
VERTEX
  5
38B
330
2C2
100
AcDbEntity
  8
0
  6
CONTINUOUS
 62
     7
100
AcDbVertex
100
AcDb2dVertex
 10
9.0016329827
 20
6.9045379307
 30
0.0
  0
VERTEX
  5
38C
330
2C2
100
AcDbEntity
  8
0
  6
CONTINUOUS
 62
     7
100
AcDbVertex
100
AcDb2dVertex
 10
8.9916892906
 20
6.9165211886
 30
0.0
  0
VERTEX
  5
38D
330
2C2
100
AcDbEntity
  8
0
  6
CONTINUOUS
 62
     7
100
AcDbVertex
100
AcDb2dVertex
 10
8.9809205975
 20
6.9273732658
 30
0.0
  0
VERTEX
  5
38E
330
2C2
100
AcDbEntity
  8
0
  6
CONTINUOUS
 62
     7
100
AcDbVertex
100
AcDb2dVertex
 10
8.9693591753
 20
6.9370616406
 30
0.0
  0
VERTEX
  5
38F
330
2C2
100
AcDbEntity
  8
0
  6
CONTINUOUS
 62
     7
100
AcDbVertex
100
AcDb2dVertex
 10
8.9570396717
 20
6.9455572786
 30
0.0
  0
VERTEX
  5
390
330
2C2
100
AcDbEntity
  8
0
  6
CONTINUOUS
 62
     7
100
AcDbVertex
100
AcDb2dVertex
 10
8.943999006
 20
6.9528347197
 30
0.0
  0
VERTEX
  5
391
330
2C2
100
AcDbEntity
  8
0
  6
CONTINUOUS
 62
     7
100
AcDbVertex
100
AcDb2dVertex
 10
8.930276259
 20
6.9588721547
 30
0.0
  0
VERTEX
  5
392
330
2C2
100
AcDbEntity
  8
0
  6
CONTINUOUS
 62
     7
100
AcDbVertex
100
AcDb2dVertex
 10
8.9159125553
 20
6.9636514905
 30
0.0
  0
VERTEX
  5
393
330
2C2
100
AcDbEntity
  8
0
  6
CONTINUOUS
 62
     7
100
AcDbVertex
100
AcDb2dVertex
 10
8.9009509406
 20
6.9671584042
 30
0.0
  0
VERTEX
  5
394
330
2C2
100
AcDbEntity
  8
0
  6
CONTINUOUS
 62
     7
100
AcDbVertex
100
AcDb2dVertex
 10
8.8854362521
 20
6.9693823863
 30
0.0
  0
VERTEX
  5
395
330
2C2
100
AcDbEntity
  8
0
  6
CONTINUOUS
 62
     7
100
AcDbVertex
100
AcDb2dVertex
 10
8.8694149848
 20
6.9703167717
 30
0.0
  0
VERTEX
  5
396
330
2C2
100
AcDbEntity
  8
0
  6
CONTINUOUS
 62
     7
100
AcDbVertex
100
AcDb2dVertex
 10
8.8529351517
 20
6.9699587603
 30
0.0
  0
VERTEX
  5
397
330
2C2
100
AcDbEntity
  8
0
  6
CONTINUOUS
 62
     7
100
AcDbVertex
100
AcDb2dVertex
 10
8.83604614
 20
6.968309425
 30
0.0
  0
VERTEX
  5
398
330
2C2
100
AcDbEntity
  8
0
  6
CONTINUOUS
 62
     7
100
AcDbVertex
100
AcDb2dVertex
 10
8.8187985631
 20
6.9653737087
 30
0.0
  0
VERTEX
  5
399
330
2C2
100
AcDbEntity
  8
0
  6
CONTINUOUS
 62
     7
100
AcDbVertex
100
AcDb2dVertex
 10
8.8012441092
 20
6.961160409
 30
0.0
  0
VERTEX
  5
39A
330
2C2
100
AcDbEntity
  8
0
  6
CONTINUOUS
 62
     7
100
AcDbVertex
100
AcDb2dVertex
 10
8.7834353859
 20
6.9556821526
 30
0.0
  0
VERTEX
  5
39B
330
2C2
100
AcDbEntity
  8
0
  6
CONTINUOUS
 62
     7
100
AcDbVertex
100
AcDb2dVertex
 10
8.7654257628
 20
6.9489553569
 30
0.0
  0
VERTEX
  5
39C
330
2C2
100
AcDbEntity
  8
0
  6
CONTINUOUS
 62
     7
100
AcDbVertex
100
AcDb2dVertex
 10
8.7472692119
 20
6.9410001809
 30
0.0
  0
VERTEX
  5
39D
330
2C2
100
AcDbEntity
  8
0
  6
CONTINUOUS
 62
     7
100
AcDbVertex
100
AcDb2dVertex
 10
8.7290201451
 20
6.9318404648
 30
0.0
  0
VERTEX
  5
39E
330
2C2
100
AcDbEntity
  8
0
  6
CONTINUOUS
 62
     7
100
AcDbVertex
100
AcDb2dVertex
 10
8.7107332517
 20
6.9215036589
 30
0.0
  0
VERTEX
  5
39F
330
2C2
100
AcDbEntity
  8
0
  6
CONTINUOUS
 62
     7
100
AcDbVertex
100
AcDb2dVertex
 10
8.6924633345
 20
6.9100207408
 30
0.0
  0
VERTEX
  5
3A0
330
2C2
100
AcDbEntity
  8
0
  6
CONTINUOUS
 62
     7
100
AcDbVertex
100
AcDb2dVertex
 10
8.6742651453
 20
6.8974261227
 30
0.0
  0
VERTEX
  5
3A1
330
2C2
100
AcDbEntity
  8
0
  6
CONTINUOUS
 62
     7
100
AcDbVertex
100
AcDb2dVertex
 10
8.6561932209
 20
6.8837575487
 30
0.0
  0
VERTEX
  5
3A2
330
2C2
100
AcDbEntity
  8
0
  6
CONTINUOUS
 62
     7
100
AcDbVertex
100
AcDb2dVertex
 10
8.6383017197
 20
6.869055981
 30
0.0
  0
VERTEX
  5
3A3
330
2C2
100
AcDbEntity
  8
0
  6
CONTINUOUS
 62
     7
100
AcDbVertex
100
AcDb2dVertex
 10
8.6206442597
 20
6.8533654778
 30
0.0
  0
VERTEX
  5
3A4
330
2C2
100
AcDbEntity
  8
0
  6
CONTINUOUS
 62
     7
100
AcDbVertex
100
AcDb2dVertex
 10
8.603273757
 20
6.8367330608
 30
0.0
  0
VERTEX
  5
3A5
330
2C2
100
AcDbEntity
  8
0
  6
CONTINUOUS
 62
     7
100
AcDbVertex
100
AcDb2dVertex
 10
8.5862422682
 20
6.8192085746
 30
0.0
  0
VERTEX
  5
3A6
330
2C2
100
AcDbEntity
  8
0
  6
CONTINUOUS
 62
     7
100
AcDbVertex
100
AcDb2dVertex
 10
8.5696008338
 20
6.8008445369
 30
0.0
  0
VERTEX
  5
3A7
330
2C2
100
AcDbEntity
  8
0
  6
CONTINUOUS
 62
     7
100
AcDbVertex
100
AcDb2dVertex
 10
8.5533993252
 20
6.7816959817
 30
0.0
  0
VERTEX
  5
3A8
330
2C2
100
AcDbEntity
  8
0
  6
CONTINUOUS
 62
     7
100
AcDbVertex
100
AcDb2dVertex
 10
8.5376862956
 20
6.761820294
 30
0.0
  0
VERTEX
  5
3A9
330
2C2
100
AcDbEntity
  8
0
  6
CONTINUOUS
 62
     7
100
AcDbVertex
100
AcDb2dVertex
 10
8.5225088342
 20
6.7412770377
 30
0.0
  0
VERTEX
  5
3AA
330
2C2
100
AcDbEntity
  8
0
  6
CONTINUOUS
 62
     7
100
AcDbVertex
100
AcDb2dVertex
 10
8.5079124253
 20
6.7201277775
 30
0.0
  0
VERTEX
  5
3AB
330
2C2
100
AcDbEntity
  8
0
  6
CONTINUOUS
 62
     7
100
AcDbVertex
100
AcDb2dVertex
 10
8.4939408119
 20
6.698435894
 30
0.0
  0
VERTEX
  5
3AC
330
2C2
100
AcDbEntity
  8
0
  6
CONTINUOUS
 62
     7
100
AcDbVertex
100
AcDb2dVertex
 10
8.4806358645
 20
6.6762663943
 30
0.0
  0
VERTEX
  5
3AD
330
2C2
100
AcDbEntity
  8
0
  6
CONTINUOUS
 62
     7
100
AcDbVertex
100
AcDb2dVertex
 10
8.4680374557
 20
6.6536857163
 30
0.0
  0
VERTEX
  5
3AE
330
2C2
100
AcDbEntity
  8
0
  6
CONTINUOUS
 62
     7
100
AcDbVertex
100
AcDb2dVertex
 10
8.4561833408
 20
6.6307615307
 30
0.0
  0
VERTEX
  5
3AF
330
2C2
100
AcDbEntity
  8
0
  6
CONTINUOUS
 62
     7
100
AcDbVertex
100
AcDb2dVertex
 10
8.4451090445
 20
6.6075625372
 30
0.0
  0
VERTEX
  5
3B0
330
2C2
100
AcDbEntity
  8
0
  6
CONTINUOUS
 62
     7
100
AcDbVertex
100
AcDb2dVertex
 10
8.4348477547
 20
6.5841582592
 30
0.0
  0
VERTEX
  5
3B1
330
2C2
100
AcDbEntity
  8
0
  6
CONTINUOUS
 62
     7
100
AcDbVertex
100
AcDb2dVertex
 10
8.4254302227
 20
6.5606188354
 30
0.0
  0
VERTEX
  5
3B2
330
2C2
100
AcDbEntity
  8
0
  6
CONTINUOUS
 62
     7
100
AcDbVertex
100
AcDb2dVertex
 10
8.4168846711
 20
6.5370148094
 30
0.0
  0
VERTEX
  5
3B3
330
2C2
100
AcDbEntity
  8
0
  6
CONTINUOUS
 62
     7
100
AcDbVertex
100
AcDb2dVertex
 10
8.4092367095
 20
6.5134169183
 30
0.0
  0
VERTEX
  5
3B4
330
2C2
100
AcDbEntity
  8
0
  6
CONTINUOUS
 62
     7
100
AcDbVertex
100
AcDb2dVertex
 10
8.4025092577
 20
6.4898958812
 30
0.0
  0
VERTEX
  5
3B5
330
2C2
100
AcDbEntity
  8
0
  6
CONTINUOUS
 62
     7
100
AcDbVertex
100
AcDb2dVertex
 10
8.3967224765
 20
6.4665221864
 30
0.0
  0
VERTEX
  5
3B6
330
2C2
100
AcDbEntity
  8
0
  6
CONTINUOUS
 62
     7
100
AcDbVertex
100
AcDb2dVertex
 10
8.391893708
 20
6.4433658809
 30
0.0
  0
VERTEX
  5
3B7
330
2C2
100
AcDbEntity
  8
0
  6
CONTINUOUS
 62
     7
100
AcDbVertex
100
AcDb2dVertex
 10
8.3880374232
 20
6.4204963602
 30
0.0
  0
VERTEX
  5
3B8
330
2C2
100
AcDbEntity
  8
0
  6
CONTINUOUS
 62
     7
100
AcDbVertex
100
AcDb2dVertex
 10
8.3851651787
 20
6.3979821604
 30
0.0
  0
VERTEX
  5
3B9
330
2C2
100
AcDbEntity
  8
0
  6
CONTINUOUS
 62
     7
100
AcDbVertex
100
AcDb2dVertex
 10
8.3832855821
 20
6.3758907526
 30
0.0
  0
VERTEX
  5
3BA
330
2C2
100
AcDbEntity
  8
0
  6
CONTINUOUS
 62
     7
100
AcDbVertex
100
AcDb2dVertex
 10
8.3824042663
 20
6.3542883411
 30
0.0
  0
SEQEND
  5
3BB
330
2C2
100
AcDbEntity
  8
0
  6
CONTINUOUS
 62
     7
  0
LINE
  5
2C3
330
1F
100
AcDbEntity
  8
0
  6
CONTINUOUS
 62
     7
100
AcDbLine
 10
8.3545625158
 20
6.3542866665
 30
0.0
 11
8.3824042663
 21
6.3542883411
 31
0.0
  0
POLYLINE
  5
2C4
330
1F
100
AcDbEntity
  8
0
  6
CONTINUOUS
 62
     7
100
AcDb2dPolyline
 66
     1
 10
0.0
 20
0.0
 30
0.0
  0
VERTEX
  5
3BC
330
2C4
100
AcDbEntity
  8
0
  6
CONTINUOUS
 62
     7
100
AcDbVertex
100
AcDb2dVertex
 10
8.3545625158
 20
6.3542866665
 30
0.0
  0
VERTEX
  5
3BD
330
2C4
100
AcDbEntity
  8
0
  6
CONTINUOUS
 62
     7
100
AcDbVertex
100
AcDb2dVertex
 10
8.3554406844
 20
6.3763945189
 30
0.0
  0
VERTEX
  5
3BE
330
2C4
100
AcDbEntity
  8
0
  6
CONTINUOUS
 62
     7
100
AcDbVertex
100
AcDb2dVertex
 10
8.3573238578
 20
6.3989967188
 30
0.0
  0
VERTEX
  5
3BF
330
2C4
100
AcDbEntity
  8
0
  6
CONTINUOUS
 62
     7
100
AcDbVertex
100
AcDb2dVertex
 10
8.3602065823
 20
6.4220278113
 30
0.0
  0
VERTEX
  5
3C0
330
2C4
100
AcDbEntity
  8
0
  6
CONTINUOUS
 62
     7
100
AcDbVertex
100
AcDb2dVertex
 10
8.3640805097
 20
6.4454210995
 30
0.0
  0
VERTEX
  5
3C1
330
2C4
100
AcDbEntity
  8
0
  6
CONTINUOUS
 62
     7
100
AcDbVertex
100
AcDb2dVertex
 10
8.3689344213
 20
6.4691088376
 30
0.0
  0
VERTEX
  5
3C2
330
2C4
100
AcDbEntity
  8
0
  6
CONTINUOUS
 62
     7
100
AcDbVertex
100
AcDb2dVertex
 10
8.3747542605
 20
6.493022427
 30
0.0
  0
VERTEX
  5
3C3
330
2C4
100
AcDbEntity
  8
0
  6
CONTINUOUS
 62
     7
100
AcDbVertex
100
AcDb2dVertex
 10
8.3815231732
 20
6.5170926152
 30
0.0
  0
VERTEX
  5
3C4
330
2C4
100
AcDbEntity
  8
0
  6
CONTINUOUS
 62
     7
100
AcDbVertex
100
AcDb2dVertex
 10
8.3892215571
 20
6.541249696
 30
0.0
  0
VERTEX
  5
3C5
330
2C4
100
AcDbEntity
  8
0
  6
CONTINUOUS
 62
     7
100
AcDbVertex
100
AcDb2dVertex
 10
8.3978271179
 20
6.5654237118
 30
0.0
  0
VERTEX
  5
3C6
330
2C4
100
AcDbEntity
  8
0
  6
CONTINUOUS
 62
     7
100
AcDbVertex
100
AcDb2dVertex
 10
8.4073149344
 20
6.5895446557
 30
0.0
  0
VERTEX
  5
3C7
330
2C4
100
AcDbEntity
  8
0
  6
CONTINUOUS
 62
     7
100
AcDbVertex
100
AcDb2dVertex
 10
8.4176575303
 20
6.6135426747
 30
0.0
  0
VERTEX
  5
3C8
330
2C4
100
AcDbEntity
  8
0
  6
CONTINUOUS
 62
     7
100
AcDbVertex
100
AcDb2dVertex
 10
8.428824954
 20
6.6373482716
 30
0.0
  0
VERTEX
  5
3C9
330
2C4
100
AcDbEntity
  8
0
  6
CONTINUOUS
 62
     7
100
AcDbVertex
100
AcDb2dVertex
 10
8.4407848651
 20
6.6608925067
 30
0.0
  0
VERTEX
  5
3CA
330
2C4
100
AcDbEntity
  8
0
  6
CONTINUOUS
 62
     7
100
AcDbVertex
100
AcDb2dVertex
 10
8.4535026284
 20
6.6841071969
 30
0.0
  0
VERTEX
  5
3CB
330
2C4
100
AcDbEntity
  8
0
  6
CONTINUOUS
 62
     7
100
AcDbVertex
100
AcDb2dVertex
 10
8.4669414138
 20
6.7069251137
 30
0.0
  0
VERTEX
  5
3CC
330
2C4
100
AcDbEntity
  8
0
  6
CONTINUOUS
 62
     7
100
AcDbVertex
100
AcDb2dVertex
 10
8.4810623033
 20
6.7292801774
 30
0.0
  0
VERTEX
  5
3CD
330
2C4
100
AcDbEntity
  8
0
  6
CONTINUOUS
 62
     7
100
AcDbVertex
100
AcDb2dVertex
 10
8.4958244033
 20
6.751107649
 30
0.0
  0
VERTEX
  5
3CE
330
2C4
100
AcDbEntity
  8
0
  6
CONTINUOUS
 62
     7
100
AcDbVertex
100
AcDb2dVertex
 10
8.5111849637
 20
6.772344317
 30
0.0
  0
VERTEX
  5
3CF
330
2C4
100
AcDbEntity
  8
0
  6
CONTINUOUS
 62
     7
100
AcDbVertex
100
AcDb2dVertex
 10
8.527099501
 20
6.7929286812
 30
0.0
  0
VERTEX
  5
3D0
330
2C4
100
AcDbEntity
  8
0
  6
CONTINUOUS
 62
     7
100
AcDbVertex
100
AcDb2dVertex
 10
8.5435219274
 20
6.8128011302
 30
0.0
  0
VERTEX
  5
3D1
330
2C4
100
AcDbEntity
  8
0
  6
CONTINUOUS
 62
     7
100
AcDbVertex
100
AcDb2dVertex
 10
8.5604046844
 20
6.8319041143
 30
0.0
  0
VERTEX
  5
3D2
330
2C4
100
AcDbEntity
  8
0
  6
CONTINUOUS
 62
     7
100
AcDbVertex
100
AcDb2dVertex
 10
8.5776988804
 20
6.8501823124
 30
0.0
  0
VERTEX
  5
3D3
330
2C4
100
AcDbEntity
  8
0
  6
CONTINUOUS
 62
     7
100
AcDbVertex
100
AcDb2dVertex
 10
8.5953544322
 20
6.8675827915
 30
0.0
  0
VERTEX
  5
3D4
330
2C4
100
AcDbEntity
  8
0
  6
CONTINUOUS
 62
     7
100
AcDbVertex
100
AcDb2dVertex
 10
8.6133202101
 20
6.8840551607
 30
0.0
  0
VERTEX
  5
3D5
330
2C4
100
AcDbEntity
  8
0
  6
CONTINUOUS
 62
     7
100
AcDbVertex
100
AcDb2dVertex
 10
8.6315441862
 20
6.8995517169
 30
0.0
  0
VERTEX
  5
3D6
330
2C4
100
AcDbEntity
  8
0
  6
CONTINUOUS
 62
     7
100
AcDbVertex
100
AcDb2dVertex
 10
8.6499735848
 20
6.9140275829
 30
0.0
  0
VERTEX
  5
3D7
330
2C4
100
AcDbEntity
  8
0
  6
CONTINUOUS
 62
     7
100
AcDbVertex
100
AcDb2dVertex
 10
8.6685550351
 20
6.9274408371
 30
0.0
  0
VERTEX
  5
3D8
330
2C4
100
AcDbEntity
  8
0
  6
CONTINUOUS
 62
     7
100
AcDbVertex
100
AcDb2dVertex
 10
8.6872347262
 20
6.9397526354
 30
0.0
  0
VERTEX
  5
3D9
330
2C4
100
AcDbEntity
  8
0
  6
CONTINUOUS
 62
     7
100
AcDbVertex
100
AcDb2dVertex
 10
8.7059585626
 20
6.9509273236
 30
0.0
  0
VERTEX
  5
3DA
330
2C4
100
AcDbEntity
  8
0
  6
CONTINUOUS
 62
     7
100
AcDbVertex
100
AcDb2dVertex
 10
8.7246723211
 20
6.9609325401
 30
0.0
  0
VERTEX
  5
3DB
330
2C4
100
AcDbEntity
  8
0
  6
CONTINUOUS
 62
     7
100
AcDbVertex
100
AcDb2dVertex
 10
8.7433218074
 20
6.9697393105
 30
0.0
  0
VERTEX
  5
3DC
330
2C4
100
AcDbEntity
  8
0
  6
CONTINUOUS
 62
     7
100
AcDbVertex
100
AcDb2dVertex
 10
8.7618530135
 20
6.9773221307
 30
0.0
  0
VERTEX
  5
3DD
330
2C4
100
AcDbEntity
  8
0
  6
CONTINUOUS
 62
     7
100
AcDbVertex
100
AcDb2dVertex
 10
8.7802122741
 20
6.9836590413
 30
0.0
  0
VERTEX
  5
3DE
330
2C4
100
AcDbEntity
  8
0
  6
CONTINUOUS
 62
     7
100
AcDbVertex
100
AcDb2dVertex
 10
8.7983464215
 20
6.9887316909
 30
0.0
  0
VERTEX
  5
3DF
330
2C4
100
AcDbEntity
  8
0
  6
CONTINUOUS
 62
     7
100
AcDbVertex
100
AcDb2dVertex
 10
8.8162029402
 20
6.9925253893
 30
0.0
  0
VERTEX
  5
3E0
330
2C4
100
AcDbEntity
  8
0
  6
CONTINUOUS
 62
     7
100
AcDbVertex
100
AcDb2dVertex
 10
8.8337301185
 20
6.9950291501
 30
0.0
  0
VERTEX
  5
3E1
330
2C4
100
AcDbEntity
  8
0
  6
CONTINUOUS
 62
     7
100
AcDbVertex
100
AcDb2dVertex
 10
8.8508771986
 20
6.9962357226
 30
0.0
  0
VERTEX
  5
3E2
330
2C4
100
AcDbEntity
  8
0
  6
CONTINUOUS
 62
     7
100
AcDbVertex
100
AcDb2dVertex
 10
8.8675945234
 20
6.9961416126
 30
0.0
  0
VERTEX
  5
3E3
330
2C4
100
AcDbEntity
  8
0
  6
CONTINUOUS
 62
     7
100
AcDbVertex
100
AcDb2dVertex
 10
8.8838336803
 20
6.9947470927
 30
0.0
  0
VERTEX
  5
3E4
330
2C4
100
AcDbEntity
  8
0
  6
CONTINUOUS
 62
     7
100
AcDbVertex
100
AcDb2dVertex
 10
8.8995476415
 20
6.9920562013
 30
0.0
  0
VERTEX
  5
3E5
330
2C4
100
AcDbEntity
  8
0
  6
CONTINUOUS
 62
     7
100
AcDbVertex
100
AcDb2dVertex
 10
8.9146909002
 20
6.9880767311
 30
0.0
  0
VERTEX
  5
3E6
330
2C4
100
AcDbEntity
  8
0
  6
CONTINUOUS
 62
     7
100
AcDbVertex
100
AcDb2dVertex
 10
8.9292196021
 20
6.9828202065
 30
0.0
  0
VERTEX
  5
3E7
330
2C4
100
AcDbEntity
  8
0
  6
CONTINUOUS
 62
     7
100
AcDbVertex
100
AcDb2dVertex
 10
8.943091673
 20
6.97630185
 30
0.0
  0
VERTEX
  5
3E8
330
2C4
100
AcDbEntity
  8
0
  6
CONTINUOUS
 62
     7
100
AcDbVertex
100
AcDb2dVertex
 10
8.9562669399
 20
6.9685405386
 30
0.0
  0
VERTEX
  5
3E9
330
2C4
100
AcDbEntity
  8
0
  6
CONTINUOUS
 62
     7
100
AcDbVertex
100
AcDb2dVertex
 10
8.9687072479
 20
6.9595587486
 30
0.0
  0
VERTEX
  5
3EA
330
2C4
100
AcDbEntity
  8
0
  6
CONTINUOUS
 62
     7
100
AcDbVertex
100
AcDb2dVertex
 10
8.9803765704
 20
6.9493824908
 30
0.0
  0
VERTEX
  5
3EB
330
2C4
100
AcDbEntity
  8
0
  6
CONTINUOUS
 62
     7
100
AcDbVertex
100
AcDb2dVertex
 10
8.9912411138
 20
6.9380412353
 30
0.0
  0
VERTEX
  5
3EC
330
2C4
100
AcDbEntity
  8
0
  6
CONTINUOUS
 62
     7
100
AcDbVertex
100
AcDb2dVertex
 10
9.0012694148
 20
6.9255678256
 30
0.0
  0
VERTEX
  5
3ED
330
2C4
100
AcDbEntity
  8
0
  6
CONTINUOUS
 62
     7
100
AcDbVertex
100
AcDb2dVertex
 10
9.0104324319
 20
6.9119983843
 30
0.0
  0
VERTEX
  5
3EE
330
2C4
100
AcDbEntity
  8
0
  6
CONTINUOUS
 62
     7
100
AcDbVertex
100
AcDb2dVertex
 10
9.0187036295
 20
6.8973722077
 30
0.0
  0
VERTEX
  5
3EF
330
2C4
100
AcDbEntity
  8
0
  6
CONTINUOUS
 62
     7
100
AcDbVertex
100
AcDb2dVertex
 10
9.0260590546
 20
6.8817316526
 30
0.0
  0
VERTEX
  5
3F0
330
2C4
100
AcDbEntity
  8
0
  6
CONTINUOUS
 62
     7
100
AcDbVertex
100
AcDb2dVertex
 10
9.0324774062
 20
6.8651220132
 30
0.0
  0
VERTEX
  5
3F1
330
2C4
100
AcDbEntity
  8
0
  6
CONTINUOUS
 62
     7
100
AcDbVertex
100
AcDb2dVertex
 10
9.0379400972
 20
6.8475913902
 30
0.0
  0
VERTEX
  5
3F2
330
2C4
100
AcDbEntity
  8
0
  6
CONTINUOUS
 62
     7
100
AcDbVertex
100
AcDb2dVertex
 10
9.0424313077
 20
6.8291905515
 30
0.0
  0
VERTEX
  5
3F3
330
2C4
100
AcDbEntity
  8
0
  6
CONTINUOUS
 62
     7
100
AcDbVertex
100
AcDb2dVertex
 10
9.0459380316
 20
6.809972785
 30
0.0
  0
VERTEX
  5
3F4
330
2C4
100
AcDbEntity
  8
0
  6
CONTINUOUS
 62
     7
100
AcDbVertex
100
AcDb2dVertex
 10
9.0484501134
 20
6.7899937445
 30
0.0
  0
VERTEX
  5
3F5
330
2C4
100
AcDbEntity
  8
0
  6
CONTINUOUS
 62
     7
100
AcDbVertex
100
AcDb2dVertex
 10
9.0499602784
 20
6.7693112882
 30
0.0
  0
VERTEX
  5
3F6
330
2C4
100
AcDbEntity
  8
0
  6
CONTINUOUS
 62
     7
100
AcDbVertex
100
AcDb2dVertex
 10
9.0504641531
 20
6.7479853115
 30
0.0
  0
SEQEND
  5
3F7
330
2C4
100
AcDbEntity
  8
0
  6
CONTINUOUS
 62
     7
  0
POLYLINE
  5
2C5
330
1F
100
AcDbEntity
  8
0
  6
CONTINUOUS
 62
     7
100
AcDb2dPolyline
 66
     1
 10
0.0
 20
0.0
 30
0.0
  0
VERTEX
  5
3F8
330
2C5
100
AcDbEntity
  8
0
  6
CONTINUOUS
 62
     7
100
AcDbVertex
100
AcDb2dVertex
 10
8.7025350899
 20
6.1452891932
 30
0.0
  0
VERTEX
  5
3F9
330
2C5
100
AcDbEntity
  8
0
  6
CONTINUOUS
 62
     7
100
AcDbVertex
100
AcDb2dVertex
 10
8.6872347262
 20
6.136842218
 30
0.0
  0
VERTEX
  5
3FA
330
2C5
100
AcDbEntity
  8
0
  6
CONTINUOUS
 62
     7
100
AcDbVertex
100
AcDb2dVertex
 10
8.6685550351
 20
6.127586904
 30
0.0
  0
VERTEX
  5
3FB
330
2C5
100
AcDbEntity
  8
0
  6
CONTINUOUS
 62
     7
100
AcDbVertex
100
AcDb2dVertex
 10
8.6499735848
 20
6.1195464724
 30
0.0
  0
VERTEX
  5
3FC
330
2C5
100
AcDbEntity
  8
0
  6
CONTINUOUS
 62
     7
100
AcDbVertex
100
AcDb2dVertex
 10
8.6315441862
 20
6.1127442076
 30
0.0
  0
VERTEX
  5
3FD
330
2C5
100
AcDbEntity
  8
0
  6
CONTINUOUS
 62
     7
100
AcDbVertex
100
AcDb2dVertex
 10
8.6133202101
 20
6.1071998089
 30
0.0
  0
VERTEX
  5
3FE
330
2C5
100
AcDbEntity
  8
0
  6
CONTINUOUS
 62
     7
100
AcDbVertex
100
AcDb2dVertex
 10
8.5953544322
 20
6.1029293324
 30
0.0
  0
VERTEX
  5
3FF
330
2C5
100
AcDbEntity
  8
0
  6
CONTINUOUS
 62
     7
100
AcDbVertex
100
AcDb2dVertex
 10
8.5776988804
 20
6.0999451454
 30
0.0
  0
VERTEX
  5
400
330
2C5
100
AcDbEntity
  8
0
  6
CONTINUOUS
 62
     7
100
AcDbVertex
100
AcDb2dVertex
 10
8.5604046844
 20
6.0982558898
 30
0.0
  0
VERTEX
  5
401
330
2C5
100
AcDbEntity
  8
0
  6
CONTINUOUS
 62
     7
100
AcDbVertex
100
AcDb2dVertex
 10
8.5435219274
 20
6.0978664576
 30
0.0
  0
VERTEX
  5
402
330
2C5
100
AcDbEntity
  8
0
  6
CONTINUOUS
 62
     7
100
AcDbVertex
100
AcDb2dVertex
 10
8.527099501
 20
6.0987779766
 30
0.0
  0
VERTEX
  5
403
330
2C5
100
AcDbEntity
  8
0
  6
CONTINUOUS
 62
     7
100
AcDbVertex
100
AcDb2dVertex
 10
8.5111849637
 20
6.1009878072
 30
0.0
  0
VERTEX
  5
404
330
2C5
100
AcDbEntity
  8
0
  6
CONTINUOUS
 62
     7
100
AcDbVertex
100
AcDb2dVertex
 10
8.4958244033
 20
6.1044895497
 30
0.0
  0
VERTEX
  5
405
330
2C5
100
AcDbEntity
  8
0
  6
CONTINUOUS
 62
     7
100
AcDbVertex
100
AcDb2dVertex
 10
8.4810623033
 20
6.1092730633
 30
0.0
  0
VERTEX
  5
406
330
2C5
100
AcDbEntity
  8
0
  6
CONTINUOUS
 62
     7
100
AcDbVertex
100
AcDb2dVertex
 10
8.4669414138
 20
6.1153244951
 30
0.0
  0
VERTEX
  5
407
330
2C5
100
AcDbEntity
  8
0
  6
CONTINUOUS
 62
     7
100
AcDbVertex
100
AcDb2dVertex
 10
8.4535026284
 20
6.1226263205
 30
0.0
  0
VERTEX
  5
408
330
2C5
100
AcDbEntity
  8
0
  6
CONTINUOUS
 62
     7
100
AcDbVertex
100
AcDb2dVertex
 10
8.4407848651
 20
6.1311573938
 30
0.0
  0
VERTEX
  5
409
330
2C5
100
AcDbEntity
  8
0
  6
CONTINUOUS
 62
     7
100
AcDbVertex
100
AcDb2dVertex
 10
8.428824954
 20
6.1408930094
 30
0.0
  0
VERTEX
  5
40A
330
2C5
100
AcDbEntity
  8
0
  6
CONTINUOUS
 62
     7
100
AcDbVertex
100
AcDb2dVertex
 10
8.4176575303
 20
6.1518049734
 30
0.0
  0
VERTEX
  5
40B
330
2C5
100
AcDbEntity
  8
0
  6
CONTINUOUS
 62
     7
100
AcDbVertex
100
AcDb2dVertex
 10
8.4073149344
 20
6.1638616853
 30
0.0
  0
VERTEX
  5
40C
330
2C5
100
AcDbEntity
  8
0
  6
CONTINUOUS
 62
     7
100
AcDbVertex
100
AcDb2dVertex
 10
8.3978271179
 20
6.1770282295
 30
0.0
  0
VERTEX
  5
40D
330
2C5
100
AcDbEntity
  8
0
  6
CONTINUOUS
 62
     7
100
AcDbVertex
100
AcDb2dVertex
 10
8.3892215571
 20
6.1912664762
 30
0.0
  0
VERTEX
  5
40E
330
2C5
100
AcDbEntity
  8
0
  6
CONTINUOUS
 62
     7
100
AcDbVertex
100
AcDb2dVertex
 10
8.3815231732
 20
6.2065351922
 30
0.0
  0
VERTEX
  5
40F
330
2C5
100
AcDbEntity
  8
0
  6
CONTINUOUS
 62
     7
100
AcDbVertex
100
AcDb2dVertex
 10
8.3747542605
 20
6.2227901601
 30
0.0
  0
VERTEX
  5
410
330
2C5
100
AcDbEntity
  8
0
  6
CONTINUOUS
 62
     7
100
AcDbVertex
100
AcDb2dVertex
 10
8.3689344213
 20
6.2399843063
 30
0.0
  0
VERTEX
  5
411
330
2C5
100
AcDbEntity
  8
0
  6
CONTINUOUS
 62
     7
100
AcDbVertex
100
AcDb2dVertex
 10
8.3640805097
 20
6.2580678373
 30
0.0
  0
VERTEX
  5
412
330
2C5
100
AcDbEntity
  8
0
  6
CONTINUOUS
 62
     7
100
AcDbVertex
100
AcDb2dVertex
 10
8.3602065823
 20
6.2769883841
 30
0.0
  0
VERTEX
  5
413
330
2C5
100
AcDbEntity
  8
0
  6
CONTINUOUS
 62
     7
100
AcDbVertex
100
AcDb2dVertex
 10
8.3573238578
 20
6.2966911538
 30
0.0
  0
VERTEX
  5
414
330
2C5
100
AcDbEntity
  8
0
  6
CONTINUOUS
 62
     7
100
AcDbVertex
100
AcDb2dVertex
 10
8.3554406844
 20
6.317119088
 30
0.0
  0
VERTEX
  5
415
330
2C5
100
AcDbEntity
  8
0
  6
CONTINUOUS
 62
     7
100
AcDbVertex
100
AcDb2dVertex
 10
8.3545625158
 20
6.3382130285
 30
0.0
  0
SEQEND
  5
416
330
2C5
100
AcDbEntity
  8
0
  6
CONTINUOUS
 62
     7
  0
LINE
  5
2C6
330
1F
100
AcDbEntity
  8
0
  6
CONTINUOUS
 62
     7
100
AcDbLine
 10
8.3545625158
 20
6.3382130285
 30
0.0
 11
8.3824042663
 21
6.3382147031
 31
0.0
  0
POLYLINE
  5
2C7
330
1F
100
AcDbEntity
  8
0
  6
CONTINUOUS
 62
     7
100
AcDb2dPolyline
 66
     1
 10
0.0
 20
0.0
 30
0.0
  0
VERTEX
  5
417
330
2C7
100
AcDbEntity
  8
0
  6
CONTINUOUS
 62
     7
100
AcDbVertex
100
AcDb2dVertex
 10
8.240817609
 20
6.9607253158
 30
0.0
  0
VERTEX
  5
418
330
2C7
100
AcDbEntity
  8
0
  6
CONTINUOUS
 62
     7
100
AcDbVertex
100
AcDb2dVertex
 10
8.2248922175
 20
6.9402453555
 30
0.0
  0
VERTEX
  5
419
330
2C7
100
AcDbEntity
  8
0
  6
CONTINUOUS
 62
     7
100
AcDbVertex
100
AcDb2dVertex
 10
8.2095144094
 20
6.9191106631
 30
0.0
  0
VERTEX
  5
41A
330
2C7
100
AcDbEntity
  8
0
  6
CONTINUOUS
 62
     7
100
AcDbVertex
100
AcDb2dVertex
 10
8.1947285228
 20
6.8973821753
 30
0.0
  0
VERTEX
  5
41B
330
2C7
100
AcDbEntity
  8
0
  6
CONTINUOUS
 62
     7
100
AcDbVertex
100
AcDb2dVertex
 10
8.1805771892
 20
6.875122541
 30
0.0
  0
VERTEX
  5
41C
330
2C7
100
AcDbEntity
  8
0
  6
CONTINUOUS
 62
     7
100
AcDbVertex
100
AcDb2dVertex
 10
8.1671012108
 20
6.8523959405
 30
0.0
  0
VERTEX
  5
41D
330
2C7
100
AcDbEntity
  8
0
  6
CONTINUOUS
 62
     7
100
AcDbVertex
100
AcDb2dVertex
 10
8.1543394421
 20
6.8292679004
 30
0.0
  0
VERTEX
  5
41E
330
2C7
100
AcDbEntity
  8
0
  6
CONTINUOUS
 62
     7
100
AcDbVertex
100
AcDb2dVertex
 10
8.1423286786
 20
6.805805105
 30
0.0
  0
VERTEX
  5
41F
330
2C7
100
AcDbEntity
  8
0
  6
CONTINUOUS
 62
     7
100
AcDbVertex
100
AcDb2dVertex
 10
8.1311035505
 20
6.7820752034
 30
0.0
  0
VERTEX
  5
420
330
2C7
100
AcDbEntity
  8
0
  6
CONTINUOUS
 62
     7
100
AcDbVertex
100
AcDb2dVertex
 10
8.1206964228
 20
6.7581466151
 30
0.0
  0
VERTEX
  5
421
330
2C7
100
AcDbEntity
  8
0
  6
CONTINUOUS
 62
     7
100
AcDbVertex
100
AcDb2dVertex
 10
8.1111373019
 20
6.7340883325
 30
0.0
  0
VERTEX
  5
422
330
2C7
100
AcDbEntity
  8
0
  6
CONTINUOUS
 62
     7
100
AcDbVertex
100
AcDb2dVertex
 10
8.1024537492
 20
6.7099697218
 30
0.0
  0
VERTEX
  5
423
330
2C7
100
AcDbEntity
  8
0
  6
CONTINUOUS
 62
     7
100
AcDbVertex
100
AcDb2dVertex
 10
8.0946708016
 20
6.6858603232
 30
0.0
  0
VERTEX
  5
424
330
2C7
100
AcDbEntity
  8
0
  6
CONTINUOUS
 62
     7
100
AcDbVertex
100
AcDb2dVertex
 10
8.0878108995
 20
6.6618296504
 30
0.0
  0
VERTEX
  5
425
330
2C7
100
AcDbEntity
  8
0
  6
CONTINUOUS
 62
     7
100
AcDbVertex
100
AcDb2dVertex
 10
8.0818938215
 20
6.63794699
 30
0.0
  0
VERTEX
  5
426
330
2C7
100
AcDbEntity
  8
0
  6
CONTINUOUS
 62
     7
100
AcDbVertex
100
AcDb2dVertex
 10
8.0769366284
 20
6.6142812018
 30
0.0
  0
VERTEX
  5
427
330
2C7
100
AcDbEntity
  8
0
  6
CONTINUOUS
 62
     7
100
AcDbVertex
100
AcDb2dVertex
 10
8.0729536128
 20
6.5909005206
 30
0.0
  0
VERTEX
  5
428
330
2C7
100
AcDbEntity
  8
0
  6
CONTINUOUS
 62
     7
100
AcDbVertex
100
AcDb2dVertex
 10
8.0699562589
 20
6.5678723588
 30
0.0
  0
VERTEX
  5
429
330
2C7
100
AcDbEntity
  8
0
  6
CONTINUOUS
 62
     7
100
AcDbVertex
100
AcDb2dVertex
 10
8.0679532088
 20
6.5452631125
 30
0.0
  0
VERTEX
  5
42A
330
2C7
100
AcDbEntity
  8
0
  6
CONTINUOUS
 62
     7
100
AcDbVertex
100
AcDb2dVertex
 10
8.0669502379
 20
6.5231379702
 30
0.0
  0
VERTEX
  5
42B
330
2C7
100
AcDbEntity
  8
0
  6
CONTINUOUS
 62
     7
100
AcDbVertex
100
AcDb2dVertex
 10
8.0669502379
 20
6.5015607243
 30
0.0
  0
VERTEX
  5
42C
330
2C7
100
AcDbEntity
  8
0
  6
CONTINUOUS
 62
     7
100
AcDbVertex
100
AcDb2dVertex
 10
8.0679532088
 20
6.4805935876
 30
0.0
  0
VERTEX
  5
42D
330
2C7
100
AcDbEntity
  8
0
  6
CONTINUOUS
 62
     7
100
AcDbVertex
100
AcDb2dVertex
 10
8.0699562589
 20
6.4602970138
 30
0.0
  0
VERTEX
  5
42E
330
2C7
100
AcDbEntity
  8
0
  6
CONTINUOUS
 62
     7
100
AcDbVertex
100
AcDb2dVertex
 10
8.0729536128
 20
6.4407295231
 30
0.0
  0
VERTEX
  5
42F
330
2C7
100
AcDbEntity
  8
0
  6
CONTINUOUS
 62
     7
100
AcDbVertex
100
AcDb2dVertex
 10
8.0769366284
 20
6.4219475337
 30
0.0
  0
VERTEX
  5
430
330
2C7
100
AcDbEntity
  8
0
  6
CONTINUOUS
 62
     7
100
AcDbVertex
100
AcDb2dVertex
 10
8.0818938215
 20
6.404005199
 30
0.0
  0
VERTEX
  5
431
330
2C7
100
AcDbEntity
  8
0
  6
CONTINUOUS
 62
     7
100
AcDbVertex
100
AcDb2dVertex
 10
8.0878108995
 20
6.3869542513
 30
0.0
  0
VERTEX
  5
432
330
2C7
100
AcDbEntity
  8
0
  6
CONTINUOUS
 62
     7
100
AcDbVertex
100
AcDb2dVertex
 10
8.0946708016
 20
6.3708438529
 30
0.0
  0
VERTEX
  5
433
330
2C7
100
AcDbEntity
  8
0
  6
CONTINUOUS
 62
     7
100
AcDbVertex
100
AcDb2dVertex
 10
8.1024537492
 20
6.3557204543
 30
0.0
  0
VERTEX
  5
434
330
2C7
100
AcDbEntity
  8
0
  6
CONTINUOUS
 62
     7
100
AcDbVertex
100
AcDb2dVertex
 10
8.1111373019
 20
6.3416276602
 30
0.0
  0
VERTEX
  5
435
330
2C7
100
AcDbEntity
  8
0
  6
CONTINUOUS
 62
     7
100
AcDbVertex
100
AcDb2dVertex
 10
8.1206964228
 20
6.3286061037
 30
0.0
  0
VERTEX
  5
436
330
2C7
100
AcDbEntity
  8
0
  6
CONTINUOUS
 62
     7
100
AcDbVertex
100
AcDb2dVertex
 10
8.1311035505
 20
6.3166933293
 30
0.0
  0
VERTEX
  5
437
330
2C7
100
AcDbEntity
  8
0
  6
CONTINUOUS
 62
     7
100
AcDbVertex
100
AcDb2dVertex
 10
8.1423286786
 20
6.3059236847
 30
0.0
  0
VERTEX
  5
438
330
2C7
100
AcDbEntity
  8
0
  6
CONTINUOUS
 62
     7
100
AcDbVertex
100
AcDb2dVertex
 10
8.1543394421
 20
6.2963282216
 30
0.0
  0
VERTEX
  5
439
330
2C7
100
AcDbEntity
  8
0
  6
CONTINUOUS
 62
     7
100
AcDbVertex
100
AcDb2dVertex
 10
8.1671012108
 20
6.287934606
 30
0.0
  0
VERTEX
  5
43A
330
2C7
100
AcDbEntity
  8
0
  6
CONTINUOUS
 62
     7
100
AcDbVertex
100
AcDb2dVertex
 10
8.1687674241
 20
6.2869596067
 30
0.0
  0
SEQEND
  5
43B
330
2C7
100
AcDbEntity
  8
0
  6
CONTINUOUS
 62
     7
  0
LINE
  5
2C8
330
1F
100
AcDbEntity
  8
0
  6
CONTINUOUS
 62
     7
100
AcDbLine
 10
8.1619408683
 20
7.0062598889
 30
0.0
 11
8.240817609
 21
6.9607253158
 31
0.0
  0
POLYLINE
  5
2C9
330
1F
100
AcDbEntity
  8
0
  6
CONTINUOUS
 62
     7
100
AcDb2dPolyline
 66
     1
 10
0.0
 20
0.0
 30
0.0
  0
VERTEX
  5
43C
330
2C9
100
AcDbEntity
  8
0
  6
CONTINUOUS
 62
     7
100
AcDbVertex
100
AcDb2dVertex
 10
8.509926489
 20
7.2071477117
 30
0.0
  0
VERTEX
  5
43D
330
2C9
100
AcDbEntity
  8
0
  6
CONTINUOUS
 62
     7
100
AcDbVertex
100
AcDb2dVertex
 10
8.4930607946
 20
7.2079511735
 30
0.0
  0
VERTEX
  5
43E
330
2C9
100
AcDbEntity
  8
0
  6
CONTINUOUS
 62
     7
100
AcDbVertex
100
AcDb2dVertex
 10
8.4757179103
 20
7.2073902722
 30
0.0
  0
VERTEX
  5
43F
330
2C9
100
AcDbEntity
  8
0
  6
CONTINUOUS
 62
     7
100
AcDbVertex
100
AcDb2dVertex
 10
8.4579505059
 20
7.2054667113
 30
0.0
  0
VERTEX
  5
440
330
2C9
100
AcDbEntity
  8
0
  6
CONTINUOUS
 62
     7
100
AcDbVertex
100
AcDb2dVertex
 10
8.4398125404
 20
7.2021863325
 30
0.0
  0
VERTEX
  5
441
330
2C9
100
AcDbEntity
  8
0
  6
CONTINUOUS
 62
     7
100
AcDbVertex
100
AcDb2dVertex
 10
8.4213590982
 20
7.1975590982
 30
0.0
  0
VERTEX
  5
442
330
2C9
100
AcDbEntity
  8
0
  6
CONTINUOUS
 62
     7
100
AcDbVertex
100
AcDb2dVertex
 10
8.4026462219
 20
7.1915990613
 30
0.0
  0
VERTEX
  5
443
330
2C9
100
AcDbEntity
  8
0
  6
CONTINUOUS
 62
     7
100
AcDbVertex
100
AcDb2dVertex
 10
8.3837307417
 20
7.1843243221
 30
0.0
  0
VERTEX
  5
444
330
2C9
100
AcDbEntity
  8
0
  6
CONTINUOUS
 62
     7
100
AcDbVertex
100
AcDb2dVertex
 10
8.3646701034
 20
7.1757569738
 30
0.0
  0
VERTEX
  5
445
330
2C9
100
AcDbEntity
  8
0
  6
CONTINUOUS
 62
     7
100
AcDbVertex
100
AcDb2dVertex
 10
8.3455221936
 20
7.1659230351
 30
0.0
  0
VERTEX
  5
446
330
2C9
100
AcDbEntity
  8
0
  6
CONTINUOUS
 62
     7
100
AcDbVertex
100
AcDb2dVertex
 10
8.3263451637
 20
7.1548523714
 30
0.0
  0
VERTEX
  5
447
330
2C9
100
AcDbEntity
  8
0
  6
CONTINUOUS
 62
     7
100
AcDbVertex
100
AcDb2dVertex
 10
8.3071972539
 20
7.1425786039
 30
0.0
  0
VERTEX
  5
448
330
2C9
100
AcDbEntity
  8
0
  6
CONTINUOUS
 62
     7
100
AcDbVertex
100
AcDb2dVertex
 10
8.2881366156
 20
7.1291390077
 30
0.0
  0
VERTEX
  5
449
330
2C9
100
AcDbEntity
  8
0
  6
CONTINUOUS
 62
     7
100
AcDbVertex
100
AcDb2dVertex
 10
8.2692211354
 20
7.1145743984
 30
0.0
  0
VERTEX
  5
44A
330
2C9
100
AcDbEntity
  8
0
  6
CONTINUOUS
 62
     7
100
AcDbVertex
100
AcDb2dVertex
 10
8.250508259
 20
7.0989290082
 30
0.0
  0
VERTEX
  5
44B
330
2C9
100
AcDbEntity
  8
0
  6
CONTINUOUS
 62
     7
100
AcDbVertex
100
AcDb2dVertex
 10
8.2320548169
 20
7.0822503516
 30
0.0
  0
VERTEX
  5
44C
330
2C9
100
AcDbEntity
  8
0
  6
CONTINUOUS
 62
     7
100
AcDbVertex
100
AcDb2dVertex
 10
8.2139168514
 20
7.0645890812
 30
0.0
  0
VERTEX
  5
44D
330
2C9
100
AcDbEntity
  8
0
  6
CONTINUOUS
 62
     7
100
AcDbVertex
100
AcDb2dVertex
 10
8.196149447
 20
7.0459988337
 30
0.0
  0
VERTEX
  5
44E
330
2C9
100
AcDbEntity
  8
0
  6
CONTINUOUS
 62
     7
100
AcDbVertex
100
AcDb2dVertex
 10
8.1788065627
 20
7.026536067
 30
0.0
  0
VERTEX
  5
44F
330
2C9
100
AcDbEntity
  8
0
  6
CONTINUOUS
 62
     7
100
AcDbVertex
100
AcDb2dVertex
 10
8.1619408683
 20
7.0062598889
 30
0.0
  0
SEQEND
  5
450
330
2C9
100
AcDbEntity
  8
0
  6
CONTINUOUS
 62
     7
  0
LINE
  5
2CA
330
1F
100
AcDbEntity
  8
0
  6
CONTINUOUS
 62
     7
100
AcDbLine
 10
8.5748838048
 20
7.1696486515
 30
0.0
 11
8.509926489
 21
7.2071477117
 31
0.0
  0
ARC
  5
2CB
330
1F
100
AcDbEntity
  8
0
  6
CONTINUOUS
 62
     7
100
AcDbCircle
 10
8.560685154
 20
6.9958425093
 30
0.0
 40
0.1743851390633753
100
AcDbArc
 50
60.3573991514
 51
85.3297377982
  0
LINE
  5
2CC
330
1F
100
AcDbEntity
  8
0
  6
CONTINUOUS
 62
     7
100
AcDbLine
 10
8.3545625158
 20
6.3542866665
 30
0.0
 11
8.1265159391
 21
6.485935153
 31
0.0
  0
POLYLINE
  5
2CD
330
1F
100
AcDbEntity
  8
0
  6
CONTINUOUS
 62
     7
100
AcDb2dPolyline
 66
     1
 10
0.0
 20
0.0
 30
0.0
  0
VERTEX
  5
451
330
2CD
100
AcDbEntity
  8
0
  6
CONTINUOUS
 62
     7
100
AcDbVertex
100
AcDb2dVertex
 10
8.5628203033
 20
7.1184337449
 30
0.0
  0
VERTEX
  5
452
330
2CD
100
AcDbEntity
  8
0
  6
CONTINUOUS
 62
     7
100
AcDbVertex
100
AcDb2dVertex
 10
8.5442608156
 20
7.1127247145
 30
0.0
  0
VERTEX
  5
453
330
2CD
100
AcDbEntity
  8
0
  6
CONTINUOUS
 62
     7
100
AcDbVertex
100
AcDb2dVertex
 10
8.525491865
 20
7.1057138945
 30
0.0
  0
VERTEX
  5
454
330
2CD
100
AcDbEntity
  8
0
  6
CONTINUOUS
 62
     7
100
AcDbVertex
100
AcDb2dVertex
 10
8.5065697518
 20
7.097422315
 30
0.0
  0
VERTEX
  5
455
330
2CD
100
AcDbEntity
  8
0
  6
CONTINUOUS
 62
     7
100
AcDbVertex
100
AcDb2dVertex
 10
8.4875512362
 20
7.0878748479
 30
0.0
  0
VERTEX
  5
456
330
2CD
100
AcDbEntity
  8
0
  6
CONTINUOUS
 62
     7
100
AcDbVertex
100
AcDb2dVertex
 10
8.4684933671
 20
7.0771001324
 30
0.0
  0
VERTEX
  5
457
330
2CD
100
AcDbEntity
  8
0
  6
CONTINUOUS
 62
     7
100
AcDbVertex
100
AcDb2dVertex
 10
8.4494533117
 20
7.0651304889
 30
0.0
  0
VERTEX
  5
458
330
2CD
100
AcDbEntity
  8
0
  6
CONTINUOUS
 62
     7
100
AcDbVertex
100
AcDb2dVertex
 10
8.4304881839
 20
7.0520018225
 30
0.0
  0
VERTEX
  5
459
330
2CD
100
AcDbEntity
  8
0
  6
CONTINUOUS
 62
     7
100
AcDbVertex
100
AcDb2dVertex
 10
8.4116548725
 20
7.0377535146
 30
0.0
  0
VERTEX
  5
45A
330
2CD
100
AcDbEntity
  8
0
  6
CONTINUOUS
 62
     7
100
AcDbVertex
100
AcDb2dVertex
 10
8.3930098712
 20
7.0224283053
 30
0.0
  0
VERTEX
  5
45B
330
2CD
100
AcDbEntity
  8
0
  6
CONTINUOUS
 62
     7
100
AcDbVertex
100
AcDb2dVertex
 10
8.3746091087
 20
7.0060721652
 30
0.0
  0
VERTEX
  5
45C
330
2CD
100
AcDbEntity
  8
0
  6
CONTINUOUS
 62
     7
100
AcDbVertex
100
AcDb2dVertex
 10
8.3565077809
 20
6.9887341571
 30
0.0
  0
VERTEX
  5
45D
330
2CD
100
AcDbEntity
  8
0
  6
CONTINUOUS
 62
     7
100
AcDbVertex
100
AcDb2dVertex
 10
8.3387601858
 20
6.9704662891
 30
0.0
  0
VERTEX
  5
45E
330
2CD
100
AcDbEntity
  8
0
  6
CONTINUOUS
 62
     7
100
AcDbVertex
100
AcDb2dVertex
 10
8.3214195603
 20
6.9513233587
 30
0.0
  0
VERTEX
  5
45F
330
2CD
100
AcDbEntity
  8
0
  6
CONTINUOUS
 62
     7
100
AcDbVertex
100
AcDb2dVertex
 10
8.3045379202
 20
6.9313627883
 30
0.0
  0
VERTEX
  5
460
330
2CD
100
AcDbEntity
  8
0
  6
CONTINUOUS
 62
     7
100
AcDbVertex
100
AcDb2dVertex
 10
8.2881659048
 20
6.9106444528
 30
0.0
  0
VERTEX
  5
461
330
2CD
100
AcDbEntity
  8
0
  6
CONTINUOUS
 62
     7
100
AcDbVertex
100
AcDb2dVertex
 10
8.2723526247
 20
6.8892305001
 30
0.0
  0
VERTEX
  5
462
330
2CD
100
AcDbEntity
  8
0
  6
CONTINUOUS
 62
     7
100
AcDbVertex
100
AcDb2dVertex
 10
8.2571455143
 20
6.867185165
 30
0.0
  0
VERTEX
  5
463
330
2CD
100
AcDbEntity
  8
0
  6
CONTINUOUS
 62
     7
100
AcDbVertex
100
AcDb2dVertex
 10
8.2425901898
 20
6.844574576
 30
0.0
  0
VERTEX
  5
464
330
2CD
100
AcDbEntity
  8
0
  6
CONTINUOUS
 62
     7
100
AcDbVertex
100
AcDb2dVertex
 10
8.2287303123
 20
6.8214665572
 30
0.0
  0
VERTEX
  5
465
330
2CD
100
AcDbEntity
  8
0
  6
CONTINUOUS
 62
     7
100
AcDbVertex
100
AcDb2dVertex
 10
8.2156074567
 20
6.7979304249
 30
0.0
  0
VERTEX
  5
466
330
2CD
100
AcDbEntity
  8
0
  6
CONTINUOUS
 62
     7
100
AcDbVertex
100
AcDb2dVertex
 10
8.2032609872
 20
6.7740367794
 30
0.0
  0
VERTEX
  5
467
330
2CD
100
AcDbEntity
  8
0
  6
CONTINUOUS
 62
     7
100
AcDbVertex
100
AcDb2dVertex
 10
8.191727939
 20
6.7498572938
 30
0.0
  0
VERTEX
  5
468
330
2CD
100
AcDbEntity
  8
0
  6
CONTINUOUS
 62
     7
100
AcDbVertex
100
AcDb2dVertex
 10
8.1810429073
 20
6.7254644982
 30
0.0
  0
VERTEX
  5
469
330
2CD
100
AcDbEntity
  8
0
  6
CONTINUOUS
 62
     7
100
AcDbVertex
100
AcDb2dVertex
 10
8.1712379437
 20
6.7009315628
 30
0.0
  0
VERTEX
  5
46A
330
2CD
100
AcDbEntity
  8
0
  6
CONTINUOUS
 62
     7
100
AcDbVertex
100
AcDb2dVertex
 10
8.1623424597
 20
6.6763320782
 30
0.0
  0
VERTEX
  5
46B
330
2CD
100
AcDbEntity
  8
0
  6
CONTINUOUS
 62
     7
100
AcDbVertex
100
AcDb2dVertex
 10
8.1543831388
 20
6.6517398344
 30
0.0
  0
VERTEX
  5
46C
330
2CD
100
AcDbEntity
  8
0
  6
CONTINUOUS
 62
     7
100
AcDbVertex
100
AcDb2dVertex
 10
8.1473838562
 20
6.6272285999
 30
0.0
  0
VERTEX
  5
46D
330
2CD
100
AcDbEntity
  8
0
  6
CONTINUOUS
 62
     7
100
AcDbVertex
100
AcDb2dVertex
 10
8.1413656074
 20
6.6028719002
 30
0.0
  0
VERTEX
  5
46E
330
2CD
100
AcDbEntity
  8
0
  6
CONTINUOUS
 62
     7
100
AcDbVertex
100
AcDb2dVertex
 10
8.1363464452
 20
6.578742797
 30
0.0
  0
VERTEX
  5
46F
330
2CD
100
AcDbEntity
  8
0
  6
CONTINUOUS
 62
     7
100
AcDbVertex
100
AcDb2dVertex
 10
8.1323414252
 20
6.5549136697
 30
0.0
  0
VERTEX
  5
470
330
2CD
100
AcDbEntity
  8
0
  6
CONTINUOUS
 62
     7
100
AcDbVertex
100
AcDb2dVertex
 10
8.1293625614
 20
6.5314559973
 30
0.0
  0
VERTEX
  5
471
330
2CD
100
AcDbEntity
  8
0
  6
CONTINUOUS
 62
     7
100
AcDbVertex
100
AcDb2dVertex
 10
8.1274187891
 20
6.5084401452
 30
0.0
  0
VERTEX
  5
472
330
2CD
100
AcDbEntity
  8
0
  6
CONTINUOUS
 62
     7
100
AcDbVertex
100
AcDb2dVertex
 10
8.1265159391
 20
6.485935153
 30
0.0
  0
SEQEND
  5
473
330
2CD
100
AcDbEntity
  8
0
  6
CONTINUOUS
 62
     7
  0
LINE
  5
2CE
330
1F
100
AcDbEntity
  8
0
  6
CONTINUOUS
 62
     7
100
AcDbLine
 10
8.5489008785
 20
7.1264692578
 30
0.0
 11
8.5628203033
 21
7.1184337449
 31
0.0
  0
POLYLINE
  5
2CF
330
1F
100
AcDbEntity
  8
0
  6
CONTINUOUS
 62
     7
100
AcDb2dPolyline
 66
     1
 10
0.0
 20
0.0
 30
0.0
  0
VERTEX
  5
474
330
2CF
100
AcDbEntity
  8
0
  6
CONTINUOUS
 62
     7
100
AcDbVertex
100
AcDb2dVertex
 10
8.5489008785
 20
7.1264692578
 30
0.0
  0
VERTEX
  5
475
330
2CF
100
AcDbEntity
  8
0
  6
CONTINUOUS
 62
     7
100
AcDbVertex
100
AcDb2dVertex
 10
8.5306900293
 20
7.1208788131
 30
0.0
  0
VERTEX
  5
476
330
2CF
100
AcDbEntity
  8
0
  6
CONTINUOUS
 62
     7
100
AcDbVertex
100
AcDb2dVertex
 10
8.5122764573
 20
7.1140343852
 30
0.0
  0
VERTEX
  5
477
330
2CF
100
AcDbEntity
  8
0
  6
CONTINUOUS
 62
     7
100
AcDbVertex
100
AcDb2dVertex
 10
8.4937133541
 20
7.1059557456
 30
0.0
  0
VERTEX
  5
478
330
2CF
100
AcDbEntity
  8
0
  6
CONTINUOUS
 62
     7
100
AcDbVertex
100
AcDb2dVertex
 10
8.4750543432
 20
7.0966662313
 30
0.0
  0
VERTEX
  5
479
330
2CF
100
AcDbEntity
  8
0
  6
CONTINUOUS
 62
     7
100
AcDbVertex
100
AcDb2dVertex
 10
8.4563533251
 20
7.0861926768
 30
0.0
  0
VERTEX
  5
47A
330
2CF
100
AcDbEntity
  8
0
  6
CONTINUOUS
 62
     7
100
AcDbVertex
100
AcDb2dVertex
 10
8.4376643219
 20
7.0745653375
 30
0.0
  0
VERTEX
  5
47B
330
2CF
100
AcDbEntity
  8
0
  6
CONTINUOUS
 62
     7
100
AcDbVertex
100
AcDb2dVertex
 10
8.4190413205
 20
7.0618178013
 30
0.0
  0
VERTEX
  5
47C
330
2CF
100
AcDbEntity
  8
0
  6
CONTINUOUS
 62
     7
100
AcDbVertex
100
AcDb2dVertex
 10
8.4005381177
 20
7.0479868922
 30
0.0
  0
VERTEX
  5
47D
330
2CF
100
AcDbEntity
  8
0
  6
CONTINUOUS
 62
     7
100
AcDbVertex
100
AcDb2dVertex
 10
8.3822081638
 20
7.0331125638
 30
0.0
  0
VERTEX
  5
47E
330
2CF
100
AcDbEntity
  8
0
  6
CONTINUOUS
 62
     7
100
AcDbVertex
100
AcDb2dVertex
 10
8.3641044089
 20
7.0172377838
 30
0.0
  0
VERTEX
  5
47F
330
2CF
100
AcDbEntity
  8
0
  6
CONTINUOUS
 62
     7
100
AcDbVertex
100
AcDb2dVertex
 10
8.3462791495
 20
7.0004084098
 30
0.0
  0
VERTEX
  5
480
330
2CF
100
AcDbEntity
  8
0
  6
CONTINUOUS
 62
     7
100
AcDbVertex
100
AcDb2dVertex
 10
8.3287838778
 20
6.9826730572
 30
0.0
  0
VERTEX
  5
481
330
2CF
100
AcDbEntity
  8
0
  6
CONTINUOUS
 62
     7
100
AcDbVertex
100
AcDb2dVertex
 10
8.3116691326
 20
6.9640829583
 30
0.0
  0
VERTEX
  5
482
330
2CF
100
AcDbEntity
  8
0
  6
CONTINUOUS
 62
     7
100
AcDbVertex
100
AcDb2dVertex
 10
8.2949843534
 20
6.9446918146
 30
0.0
  0
VERTEX
  5
483
330
2CF
100
AcDbEntity
  8
0
  6
CONTINUOUS
 62
     7
100
AcDbVertex
100
AcDb2dVertex
 10
8.2787777379
 20
6.9245556415
 30
0.0
  0
VERTEX
  5
484
330
2CF
100
AcDbEntity
  8
0
  6
CONTINUOUS
 62
     7
100
AcDbVertex
100
AcDb2dVertex
 10
8.2630961024
 20
6.9037326068
 30
0.0
  0
VERTEX
  5
485
330
2CF
100
AcDbEntity
  8
0
  6
CONTINUOUS
 62
     7
100
AcDbVertex
100
AcDb2dVertex
 10
8.2479847466
 20
6.8822828622
 30
0.0
  0
VERTEX
  5
486
330
2CF
100
AcDbEntity
  8
0
  6
CONTINUOUS
 62
     7
100
AcDbVertex
100
AcDb2dVertex
 10
8.2334873229
 20
6.86026837
 30
0.0
  0
VERTEX
  5
487
330
2CF
100
AcDbEntity
  8
0
  6
CONTINUOUS
 62
     7
100
AcDbVertex
100
AcDb2dVertex
 10
8.2196457102
 20
6.8377527237
 30
0.0
  0
VERTEX
  5
488
330
2CF
100
AcDbEntity
  8
0
  6
CONTINUOUS
 62
     7
100
AcDbVertex
100
AcDb2dVertex
 10
8.206499893
 20
6.8148009646
 30
0.0
  0
VERTEX
  5
489
330
2CF
100
AcDbEntity
  8
0
  6
CONTINUOUS
 62
     7
100
AcDbVertex
100
AcDb2dVertex
 10
8.1940878458
 20
6.7914793937
 30
0.0
  0
VERTEX
  5
48A
330
2CF
100
AcDbEntity
  8
0
  6
CONTINUOUS
 62
     7
100
AcDbVertex
100
AcDb2dVertex
 10
8.1824454235
 20
6.7678553805
 30
0.0
  0
VERTEX
  5
48B
330
2CF
100
AcDbEntity
  8
0
  6
CONTINUOUS
 62
     7
100
AcDbVertex
100
AcDb2dVertex
 10
8.1716062577
 20
6.7439971679
 30
0.0
  0
VERTEX
  5
48C
330
2CF
100
AcDbEntity
  8
0
  6
CONTINUOUS
 62
     7
100
AcDbVertex
100
AcDb2dVertex
 10
8.1616016597
 20
6.7199736756
 30
0.0
  0
VERTEX
  5
48D
330
2CF
100
AcDbEntity
  8
0
  6
CONTINUOUS
 62
     7
100
AcDbVertex
100
AcDb2dVertex
 10
8.1524605299
 20
6.6958543005
 30
0.0
  0
VERTEX
  5
48E
330
2CF
100
AcDbEntity
  8
0
  6
CONTINUOUS
 62
     7
100
AcDbVertex
100
AcDb2dVertex
 10
8.1442092744
 20
6.6717087166
 30
0.0
  0
VERTEX
  5
48F
330
2CF
100
AcDbEntity
  8
0
  6
CONTINUOUS
 62
     7
100
AcDbVertex
100
AcDb2dVertex
 10
8.1368717287
 20
6.6476066737
 30
0.0
  0
VERTEX
  5
490
330
2CF
100
AcDbEntity
  8
0
  6
CONTINUOUS
 62
     7
100
AcDbVertex
100
AcDb2dVertex
 10
8.1304690889
 20
6.6236177956
 30
0.0
  0
VERTEX
  5
491
330
2CF
100
AcDbEntity
  8
0
  6
CONTINUOUS
 62
     7
100
AcDbVertex
100
AcDb2dVertex
 10
8.1250198504
 20
6.5998113795
 30
0.0
  0
VERTEX
  5
492
330
2CF
100
AcDbEntity
  8
0
  6
CONTINUOUS
 62
     7
100
AcDbVertex
100
AcDb2dVertex
 10
8.1205397546
 20
6.5762561951
 30
0.0
  0
VERTEX
  5
493
330
2CF
100
AcDbEntity
  8
0
  6
CONTINUOUS
 62
     7
100
AcDbVertex
100
AcDb2dVertex
 10
8.117041743
 20
6.5530202868
 30
0.0
  0
VERTEX
  5
494
330
2CF
100
AcDbEntity
  8
0
  6
CONTINUOUS
 62
     7
100
AcDbVertex
100
AcDb2dVertex
 10
8.1145359205
 20
6.5301707764
 30
0.0
  0
VERTEX
  5
495
330
2CF
100
AcDbEntity
  8
0
  6
CONTINUOUS
 62
     7
100
AcDbVertex
100
AcDb2dVertex
 10
8.1130295257
 20
6.5077736696
 30
0.0
  0
VERTEX
  5
496
330
2CF
100
AcDbEntity
  8
0
  6
CONTINUOUS
 62
     7
100
AcDbVertex
100
AcDb2dVertex
 10
8.1125269102
 20
6.4858936654
 30
0.0
  0
VERTEX
  5
497
330
2CF
100
AcDbEntity
  8
0
  6
CONTINUOUS
 62
     7
100
AcDbVertex
100
AcDb2dVertex
 10
8.1130295257
 20
6.4645939687
 30
0.0
  0
VERTEX
  5
498
330
2CF
100
AcDbEntity
  8
0
  6
CONTINUOUS
 62
     7
100
AcDbVertex
100
AcDb2dVertex
 10
8.1145359205
 20
6.4439361083
 30
0.0
  0
VERTEX
  5
499
330
2CF
100
AcDbEntity
  8
0
  6
CONTINUOUS
 62
     7
100
AcDbVertex
100
AcDb2dVertex
 10
8.117041743
 20
6.423979759
 30
0.0
  0
VERTEX
  5
49A
330
2CF
100
AcDbEntity
  8
0
  6
CONTINUOUS
 62
     7
100
AcDbVertex
100
AcDb2dVertex
 10
8.1205397546
 20
6.4047825688
 30
0.0
  0
VERTEX
  5
49B
330
2CF
100
AcDbEntity
  8
0
  6
CONTINUOUS
 62
     7
100
AcDbVertex
100
AcDb2dVertex
 10
8.1250198504
 20
6.3863999931
 30
0.0
  0
VERTEX
  5
49C
330
2CF
100
AcDbEntity
  8
0
  6
CONTINUOUS
 62
     7
100
AcDbVertex
100
AcDb2dVertex
 10
8.1304690889
 20
6.3688851337
 30
0.0
  0
VERTEX
  5
49D
330
2CF
100
AcDbEntity
  8
0
  6
CONTINUOUS
 62
     7
100
AcDbVertex
100
AcDb2dVertex
 10
8.1368717287
 20
6.3522885862
 30
0.0
  0
VERTEX
  5
49E
330
2CF
100
AcDbEntity
  8
0
  6
CONTINUOUS
 62
     7
100
AcDbVertex
100
AcDb2dVertex
 10
8.1442092744
 20
6.3366582932
 30
0.0
  0
VERTEX
  5
49F
330
2CF
100
AcDbEntity
  8
0
  6
CONTINUOUS
 62
     7
100
AcDbVertex
100
AcDb2dVertex
 10
8.1524605299
 20
6.3220394062
 30
0.0
  0
VERTEX
  5
4A0
330
2CF
100
AcDbEntity
  8
0
  6
CONTINUOUS
 62
     7
100
AcDbVertex
100
AcDb2dVertex
 10
8.1616016597
 20
6.3084741549
 30
0.0
  0
VERTEX
  5
4A1
330
2CF
100
AcDbEntity
  8
0
  6
CONTINUOUS
 62
     7
100
AcDbVertex
100
AcDb2dVertex
 10
8.1716062577
 20
6.2960017256
 30
0.0
  0
VERTEX
  5
4A2
330
2CF
100
AcDbEntity
  8
0
  6
CONTINUOUS
 62
     7
100
AcDbVertex
100
AcDb2dVertex
 10
8.1824454235
 20
6.2846581475
 30
0.0
  0
VERTEX
  5
4A3
330
2CF
100
AcDbEntity
  8
0
  6
CONTINUOUS
 62
     7
100
AcDbVertex
100
AcDb2dVertex
 10
8.1940878458
 20
6.2744761889
 30
0.0
  0
VERTEX
  5
4A4
330
2CF
100
AcDbEntity
  8
0
  6
CONTINUOUS
 62
     7
100
AcDbVertex
100
AcDb2dVertex
 10
8.206499893
 20
6.2654852626
 30
0.0
  0
VERTEX
  5
4A5
330
2CF
100
AcDbEntity
  8
0
  6
CONTINUOUS
 62
     7
100
AcDbVertex
100
AcDb2dVertex
 10
8.2196457102
 20
6.257711341
 30
0.0
  0
VERTEX
  5
4A6
330
2CF
100
AcDbEntity
  8
0
  6
CONTINUOUS
 62
     7
100
AcDbVertex
100
AcDb2dVertex
 10
8.2215276689
 20
6.2567290713
 30
0.0
  0
SEQEND
  5
4A7
330
2CF
100
AcDbEntity
  8
0
  6
CONTINUOUS
 62
     7
  0
ARC
  5
2D0
330
1F
100
AcDbEntity
  8
0
  6
CONTINUOUS
 62
     7
100
AcDbCircle
 10
8.3698400377
 20
6.4513863481
 30
0.0
 40
0.2440244839493665
100
AcDbArc
 50
175.6579644605
 51
234.5734122805
  0
LINE
  5
2D1
330
1F
100
AcDbEntity
  8
0
  6
CONTINUOUS
 62
     7
100
AcDbLine
 10
8.3545625158
 20
6.3382130285
 30
0.0
 11
8.1265159391
 21
6.469861515
 31
0.0
  0
SPLINE
  5
2D2
330
1F
100
AcDbEntity
  8
0
  6
CONTINUOUS
 62
     7
100
AcDbSpline
210
0.0
220
0.0
230
1.0
 70
     8
 71
     3
 72
    13
 73
     9
 74
     0
 42
0.00000001
 43
0.00000001
 40
0.0
 40
0.0
 40
0.0
 40
0.0
 40
0.1390859998751163
 40
0.2833845744572793
 40
0.5636993842928544
 40
0.7728220030819426
 40
0.9878058369649091
 40
1.0
 40
1.0
 40
1.0
 40
1.0
 10
8.350665069917632
 20
6.182915147243131
 30
0.0
 10
8.352527381213518
 20
6.181830171427183
 30
0.0
 10
8.356321798297664
 20
6.179619557776816
 30
0.0
 10
8.36475403697177
 20
6.174555950782105
 30
0.0
 10
8.374745822992969
 20
6.168441334079622
 30
0.0
 10
8.385577752409743
 20
6.161909899007617
 30
0.0
 10
8.392246255892964
 20
6.157897558158187
 30
0.0
 10
8.395462070834038
 20
6.156097642269136
 30
0.0
 10
8.395634685137422
 20
6.156001028740985
 30
0.0
  0
SPLINE
  5
2D3
330
1F
100
AcDbEntity
  8
0
  6
CONTINUOUS
 62
     7
100
AcDbSpline
210
0.0
220
0.0
230
1.0
 70
     8
 71
     3
 72
    13
 73
     9
 74
     0
 42
0.00000001
 43
0.00000001
 40
0.0
 40
0.0
 40
0.0
 40
0.0
 40
0.1105609826618712
 40
0.3370029916019626
 40
0.4952440533592758
 40
0.6572339279026027
 40
0.9153449755013455
 40
1.0
 40
1.0
 40
1.0
 40
1.0
 10
8.333648417392396
 20
6.191806256469056
 30
0.0
 10
8.333524512746672
 20
6.191872375400105
 30
0.0
 10
8.333146836687026
 20
6.192073913745989
 30
0.0
 10
8.334193418828027
 20
6.191666391880159
 30
0.0
 10
8.336475181329739
 20
6.19060672767695
 30
0.0
 10
8.340300121147317
 20
6.188690175814897
 30
0.0
 10
8.345300400301925
 20
6.185993284943359
 30
0.0
 10
8.3496025434271
 20
6.183524803211206
 30
0.0
 10
8.350665069917632
 20
6.182915147243126
 30
0.0
  0
SPLINE
  5
2D4
330
1F
100
AcDbEntity
  8
0
  6
CONTINUOUS
 62
     7
100
AcDbSpline
210
0.0
220
0.0
230
1.0
 70
     8
 71
     3
 72
    20
 73
    16
 74
     0
 42
0.00000001
 43
0.00000001
 40
0.0
 40
0.0
 40
0.0
 40
0.0
 40
0.074798542975913
 40
0.1496020836194923
 40
0.2243234694325591
 40
0.2990612098155722
 40
0.3752911496898257
 40
0.4515510378341174
 40
0.5333433775429567
 40
0.6151809540580778
 40
0.7077131436820238
 40
0.8003041266913405
 40
0.890031804169148
 40
0.9800815717461625
 40
1.0
 40
1.0
 40
1.0
 40
1.0
 10
8.468980180942939
 20
6.885423369510161
 30
0.0
 10
8.464809853955773
 20
6.887523619781684
 30
0.0
 10
8.456468921340875
 20
6.891724260653037
 30
0.0
 10
8.441999159311544
 20
6.895287803944798
 30
0.0
 10
8.426609655521878
 20
6.896608994118632
 30
0.0
 10
8.41054147429208
 20
6.895542202195018
 30
0.0
 10
8.394289845816647
 20
6.89201070743228
 30
0.0
 10
8.377918363841092
 20
6.886025930925778
 30
0.0
 10
8.362011222929398
 20
6.877526389682321
 30
0.0
 10
8.346308231059401
 20
6.866250330633193
 30
0.0
 10
8.331701156108458
 20
6.85234994172517
 30
0.0
 10
8.318648258696266
 20
6.836252930492571
 30
0.0
 10
8.307966599941864
 20
6.818842735918182
 30
0.0
 10
8.30115125863814
 20
6.805481738881855
 30
0.0
 10
8.298457621488398
 20
6.79774751244423
 30
0.0
 10
8.297969725711772
 20
6.796346619820387
 30
0.0
  0
POLYLINE
  5
2D5
330
1F
100
AcDbEntity
  8
0
  6
CONTINUOUS
 62
     7
100
AcDb2dPolyline
 66
     1
 10
0.0
 20
0.0
 30
0.0
  0
VERTEX
  5
4A8
330
2D5
100
AcDbEntity
  8
0
  6
CONTINUOUS
 62
     7
100
AcDbVertex
100
AcDb2dVertex
 10
8.2843341354
 20
6.7243839567
 30
0.0
  0
VERTEX
  5
4A9
330
2D5
100
AcDbEntity
  8
0
  6
CONTINUOUS
 62
     7
100
AcDbVertex
100
AcDb2dVertex
 10
8.2841717499
 20
6.7219208676
 30
0.0
  0
VERTEX
  5
4AA
330
2D5
100
AcDbEntity
  8
0
  6
CONTINUOUS
 62
     7
100
AcDbVertex
100
AcDb2dVertex
 10
8.2855416396
 20
6.7023546116
 30
0.0
  0
VERTEX
  5
4AB
330
2D5
100
AcDbEntity
  8
0
  6
CONTINUOUS
 62
     7
100
AcDbVertex
100
AcDb2dVertex
 10
8.2893622546
 20
6.6834374498
 30
0.0
  0
VERTEX
  5
4AC
330
2D5
100
AcDbEntity
  8
0
  6
CONTINUOUS
 62
     7
100
AcDbVertex
100
AcDb2dVertex
 10
8.2936547711
 20
6.671126032
 30
0.0
  0
VERTEX
  5
4AD
330
2D5
100
AcDbEntity
  8
0
  6
CONTINUOUS
 62
     7
100
AcDbVertex
100
AcDb2dVertex
 10
8.2995083952
 20
6.65990225
 30
0.0
  0
VERTEX
  5
4AE
330
2D5
100
AcDbEntity
  8
0
  6
CONTINUOUS
 62
     7
100
AcDbVertex
100
AcDb2dVertex
 10
8.305088562
 20
6.6525016641
 30
0.0
  0
VERTEX
  5
4AF
330
2D5
100
AcDbEntity
  8
0
  6
CONTINUOUS
 62
     7
100
AcDbVertex
100
AcDb2dVertex
 10
8.3116303153
 20
6.6464131706
 30
0.0
  0
VERTEX
  5
4B0
330
2D5
100
AcDbEntity
  8
0
  6
CONTINUOUS
 62
     7
100
AcDbVertex
100
AcDb2dVertex
 10
8.3190744697
 20
6.6419527912
 30
0.0
  0
VERTEX
  5
4B1
330
2D5
100
AcDbEntity
  8
0
  6
CONTINUOUS
 62
     7
100
AcDbVertex
100
AcDb2dVertex
 10
8.3271342651
 20
6.6392676937
 30
0.0
  0
VERTEX
  5
4B2
330
2D5
100
AcDbEntity
  8
0
  6
CONTINUOUS
 62
     7
100
AcDbVertex
100
AcDb2dVertex
 10
8.336727337
 20
6.6383521295
 30
0.0
  0
VERTEX
  5
4B3
330
2D5
100
AcDbEntity
  8
0
  6
CONTINUOUS
 62
     7
100
AcDbVertex
100
AcDb2dVertex
 10
8.346476063
 20
6.6393762965
 30
0.0
  0
VERTEX
  5
4B4
330
2D5
100
AcDbEntity
  8
0
  6
CONTINUOUS
 62
     7
100
AcDbVertex
100
AcDb2dVertex
 10
8.3613017545
 20
6.6438902474
 30
0.0
  0
VERTEX
  5
4B5
330
2D5
100
AcDbEntity
  8
0
  6
CONTINUOUS
 62
     7
100
AcDbVertex
100
AcDb2dVertex
 10
8.3758167516
 20
6.6510421413
 30
0.0
  0
VERTEX
  5
4B6
330
2D5
100
AcDbEntity
  8
0
  6
CONTINUOUS
 62
     7
100
AcDbVertex
100
AcDb2dVertex
 10
8.391145538
 20
6.6609026678
 30
0.0
  0
VERTEX
  5
4B7
330
2D5
100
AcDbEntity
  8
0
  6
CONTINUOUS
 62
     7
100
AcDbVertex
100
AcDb2dVertex
 10
8.4060618073
 20
6.6724996387
 30
0.0
  0
VERTEX
  5
4B8
330
2D5
100
AcDbEntity
  8
0
  6
CONTINUOUS
 62
     7
100
AcDbVertex
100
AcDb2dVertex
 10
8.4204604804
 20
6.6854193263
 30
0.0
  0
VERTEX
  5
4B9
330
2D5
100
AcDbEntity
  8
0
  6
CONTINUOUS
 62
     7
100
AcDbVertex
100
AcDb2dVertex
 10
8.4418545649
 20
6.7077255323
 30
0.0
  0
VERTEX
  5
4BA
330
2D5
100
AcDbEntity
  8
0
  6
CONTINUOUS
 62
     7
100
AcDbVertex
100
AcDb2dVertex
 10
8.4614604446
 20
6.732210274
 30
0.0
  0
VERTEX
  5
4BB
330
2D5
100
AcDbEntity
  8
0
  6
CONTINUOUS
 62
     7
100
AcDbVertex
100
AcDb2dVertex
 10
8.4756399565
 20
6.7535561313
 30
0.0
  0
VERTEX
  5
4BC
330
2D5
100
AcDbEntity
  8
0
  6
CONTINUOUS
 62
     7
100
AcDbVertex
100
AcDb2dVertex
 10
8.4874209825
 20
6.7757134884
 30
0.0
  0
VERTEX
  5
4BD
330
2D5
100
AcDbEntity
  8
0
  6
CONTINUOUS
 62
     7
100
AcDbVertex
100
AcDb2dVertex
 10
8.494723695
 20
6.7942591546
 30
0.0
  0
VERTEX
  5
4BE
330
2D5
100
AcDbEntity
  8
0
  6
CONTINUOUS
 62
     7
100
AcDbVertex
100
AcDb2dVertex
 10
8.4993178278
 20
6.8126944824
 30
0.0
  0
VERTEX
  5
4BF
330
2D5
100
AcDbEntity
  8
0
  6
CONTINUOUS
 62
     7
100
AcDbVertex
100
AcDb2dVertex
 10
8.5006435249
 20
6.8306974086
 30
0.0
  0
VERTEX
  5
4C0
330
2D5
100
AcDbEntity
  8
0
  6
CONTINUOUS
 62
     7
100
AcDbVertex
100
AcDb2dVertex
 10
8.4983081349
 20
6.8475938734
 30
0.0
  0
VERTEX
  5
4C1
330
2D5
100
AcDbEntity
  8
0
  6
CONTINUOUS
 62
     7
100
AcDbVertex
100
AcDb2dVertex
 10
8.493031416
 20
6.8609811293
 30
0.0
  0
VERTEX
  5
4C2
330
2D5
100
AcDbEntity
  8
0
  6
CONTINUOUS
 62
     7
100
AcDbVertex
100
AcDb2dVertex
 10
8.4848190719
 20
6.8726955482
 30
0.0
  0
VERTEX
  5
4C3
330
2D5
100
AcDbEntity
  8
0
  6
CONTINUOUS
 62
     7
100
AcDbVertex
100
AcDb2dVertex
 10
8.4775047733
 20
6.8795986073
 30
0.0
  0
VERTEX
  5
4C4
330
2D5
100
AcDbEntity
  8
0
  6
CONTINUOUS
 62
     7
100
AcDbVertex
100
AcDb2dVertex
 10
8.4689801809
 20
6.8854233695
 30
0.0
  0
VERTEX
  5
4C5
330
2D5
100
AcDbEntity
  8
0
  6
CONTINUOUS
 62
     7
100
AcDbVertex
100
AcDb2dVertex
 10
8.4689801809
 20
6.8854233695
 30
0.0
  0
SEQEND
  5
4C6
330
2D5
100
AcDbEntity
  8
0
  6
CONTINUOUS
 62
     7
  0
POLYLINE
  5
2D6
330
1F
100
AcDbEntity
  8
0
  6
CONTINUOUS
 62
     7
100
AcDb2dPolyline
 66
     1
 10
0.0
 20
0.0
 30
0.0
  0
VERTEX
  5
4C7
330
2D6
100
AcDbEntity
  8
0
  6
CONTINUOUS
 62
     7
100
AcDbVertex
100
AcDb2dVertex
 10
8.8184687303
 20
6.5899493598
 30
0.0
  0
VERTEX
  5
4C8
330
2D6
100
AcDbEntity
  8
0
  6
CONTINUOUS
 62
     7
100
AcDbVertex
100
AcDb2dVertex
 10
8.8172608885
 20
6.577504023
 30
0.0
  0
VERTEX
  5
4C9
330
2D6
100
AcDbEntity
  8
0
  6
CONTINUOUS
 62
     7
100
AcDbVertex
100
AcDb2dVertex
 10
8.8150416071
 20
6.5646731946
 30
0.0
  0
VERTEX
  5
4CA
330
2D6
100
AcDbEntity
  8
0
  6
CONTINUOUS
 62
     7
100
AcDbVertex
100
AcDb2dVertex
 10
8.8118331408
 20
6.5515855405
 30
0.0
  0
VERTEX
  5
4CB
330
2D6
100
AcDbEntity
  8
0
  6
CONTINUOUS
 62
     7
100
AcDbVertex
100
AcDb2dVertex
 10
8.8076676636
 20
6.5383723018
 30
0.0
  0
VERTEX
  5
4CC
330
2D6
100
AcDbEntity
  8
0
  6
CONTINUOUS
 62
     7
100
AcDbVertex
100
AcDb2dVertex
 10
8.8025869463
 20
6.525165979
 30
0.0
  0
VERTEX
  5
4CD
330
2D6
100
AcDbEntity
  8
0
  6
CONTINUOUS
 62
     7
100
AcDbVertex
100
AcDb2dVertex
 10
8.7966419378
 20
6.5120990034
 30
0.0
  0
VERTEX
  5
4CE
330
2D6
100
AcDbEntity
  8
0
  6
CONTINUOUS
 62
     7
100
AcDbVertex
100
AcDb2dVertex
 10
8.7898922537
 20
6.4993024087
 30
0.0
  0
VERTEX
  5
4CF
330
2D6
100
AcDbEntity
  8
0
  6
CONTINUOUS
 62
     7
100
AcDbVertex
100
AcDb2dVertex
 10
8.7824055788
 20
6.4869045175
 30
0.0
  0
VERTEX
  5
4D0
330
2D6
100
AcDbEntity
  8
0
  6
CONTINUOUS
 62
     7
100
AcDbVertex
100
AcDb2dVertex
 10
8.7742569887
 20
6.4750296541
 30
0.0
  0
VERTEX
  5
4D1
330
2D6
100
AcDbEntity
  8
0
  6
CONTINUOUS
 62
     7
100
AcDbVertex
100
AcDb2dVertex
 10
8.7655281962
 20
6.463796898
 30
0.0
  0
VERTEX
  5
4D2
330
2D6
100
AcDbEntity
  8
0
  6
CONTINUOUS
 62
     7
100
AcDbVertex
100
AcDb2dVertex
 10
8.7563067323
 20
6.4533188898
 30
0.0
  0
VERTEX
  5
4D3
330
2D6
100
AcDbEntity
  8
0
  6
CONTINUOUS
 62
     7
100
AcDbVertex
100
AcDb2dVertex
 10
8.7466850688
 20
6.4437007014
 30
0.0
  0
VERTEX
  5
4D4
330
2D6
100
AcDbEntity
  8
0
  6
CONTINUOUS
 62
     7
100
AcDbVertex
100
AcDb2dVertex
 10
8.7367596903
 20
6.4350387827
 30
0.0
  0
VERTEX
  5
4D5
330
2D6
100
AcDbEntity
  8
0
  6
CONTINUOUS
 62
     7
100
AcDbVertex
100
AcDb2dVertex
 10
8.7266301272
 20
6.4274199943
 30
0.0
  0
VERTEX
  5
4D6
330
2D6
100
AcDbEntity
  8
0
  6
CONTINUOUS
 62
     7
100
AcDbVertex
100
AcDb2dVertex
 10
8.7163979572
 20
6.4209207363
 30
0.0
  0
VERTEX
  5
4D7
330
2D6
100
AcDbEntity
  8
0
  6
CONTINUOUS
 62
     7
100
AcDbVertex
100
AcDb2dVertex
 10
8.7061657873
 20
6.4156061823
 30
0.0
  0
VERTEX
  5
4D8
330
2D6
100
AcDbEntity
  8
0
  6
CONTINUOUS
 62
     7
100
AcDbVertex
100
AcDb2dVertex
 10
8.6960362241
 20
6.4115296261
 30
0.0
  0
VERTEX
  5
4D9
330
2D6
100
AcDbEntity
  8
0
  6
CONTINUOUS
 62
     7
100
AcDbVertex
100
AcDb2dVertex
 10
8.6861108456
 20
6.4087319467
 30
0.0
  0
VERTEX
  5
4DA
330
2D6
100
AcDbEntity
  8
0
  6
CONTINUOUS
 62
     7
100
AcDbVertex
100
AcDb2dVertex
 10
8.6764891821
 20
6.4072411988
 30
0.0
  0
VERTEX
  5
4DB
330
2D6
100
AcDbEntity
  8
0
  6
CONTINUOUS
 62
     7
100
AcDbVertex
100
AcDb2dVertex
 10
8.6672677183
 20
6.4070723316
 30
0.0
  0
VERTEX
  5
4DC
330
2D6
100
AcDbEntity
  8
0
  6
CONTINUOUS
 62
     7
100
AcDbVertex
100
AcDb2dVertex
 10
8.6585389258
 20
6.4082270383
 30
0.0
  0
VERTEX
  5
4DD
330
2D6
100
AcDbEntity
  8
0
  6
CONTINUOUS
 62
     7
100
AcDbVertex
100
AcDb2dVertex
 10
8.6503903356
 20
6.4106937398
 30
0.0
  0
VERTEX
  5
4DE
330
2D6
100
AcDbEntity
  8
0
  6
CONTINUOUS
 62
     7
100
AcDbVertex
100
AcDb2dVertex
 10
8.6429036608
 20
6.4144477002
 30
0.0
  0
VERTEX
  5
4DF
330
2D6
100
AcDbEntity
  8
0
  6
CONTINUOUS
 62
     7
100
AcDbVertex
100
AcDb2dVertex
 10
8.6361539767
 20
6.4194512755
 30
0.0
  0
VERTEX
  5
4E0
330
2D6
100
AcDbEntity
  8
0
  6
CONTINUOUS
 62
     7
100
AcDbVertex
100
AcDb2dVertex
 10
8.6302089681
 20
6.4256542903
 30
0.0
  0
VERTEX
  5
4E1
330
2D6
100
AcDbEntity
  8
0
  6
CONTINUOUS
 62
     7
100
AcDbVertex
100
AcDb2dVertex
 10
8.6251282509
 20
6.4329945418
 30
0.0
  0
VERTEX
  5
4E2
330
2D6
100
AcDbEntity
  8
0
  6
CONTINUOUS
 62
     7
100
AcDbVertex
100
AcDb2dVertex
 10
8.6209627737
 20
6.441398423
 30
0.0
  0
VERTEX
  5
4E3
330
2D6
100
AcDbEntity
  8
0
  6
CONTINUOUS
 62
     7
100
AcDbVertex
100
AcDb2dVertex
 10
8.6177543074
 20
6.4507816608
 30
0.0
  0
VERTEX
  5
4E4
330
2D6
100
AcDbEntity
  8
0
  6
CONTINUOUS
 62
     7
100
AcDbVertex
100
AcDb2dVertex
 10
8.615535026
 20
6.4610501614
 30
0.0
  0
VERTEX
  5
4E5
330
2D6
100
AcDbEntity
  8
0
  6
CONTINUOUS
 62
     7
100
AcDbVertex
100
AcDb2dVertex
 10
8.6143271842
 20
6.4721009537
 30
0.0
  0
SEQEND
  5
4E6
330
2D6
100
AcDbEntity
  8
0
  6
CONTINUOUS
 62
     7
  0
LINE
  5
2D7
330
1F
100
AcDbEntity
  8
0
  6
CONTINUOUS
 62
     7
100
AcDbLine
 10
8.8184687303
 20
6.5899493598
 30
0.0
 11
8.8978144608
 21
6.6357546751
 31
0.0
  0
LINE
  5
2D8
330
1F
100
AcDbEntity
  8
0
  6
CONTINUOUS
 62
     7
100
AcDbLine
 10
8.8978144608
 20
6.6357546751
 30
0.0
 11
8.8978144608
 21
6.6518283131
 31
0.0
  0
LINE
  5
2D9
330
1F
100
AcDbEntity
  8
0
  6
CONTINUOUS
 62
     7
100
AcDbLine
 10
8.8184687303
 20
6.6060229978
 30
0.0
 11
8.8978144608
 21
6.6518283131
 31
0.0
  0
POLYLINE
  5
2DA
330
1F
100
AcDbEntity
  8
0
  6
CONTINUOUS
 62
     7
100
AcDb2dPolyline
 66
     1
 10
0.0
 20
0.0
 30
0.0
  0
VERTEX
  5
4E7
330
2DA
100
AcDbEntity
  8
0
  6
CONTINUOUS
 62
     7
100
AcDbVertex
100
AcDb2dVertex
 10
8.6143271842
 20
6.4881745918
 30
0.0
  0
VERTEX
  5
4E8
330
2DA
100
AcDbEntity
  8
0
  6
CONTINUOUS
 62
     7
100
AcDbVertex
100
AcDb2dVertex
 10
8.615535026
 20
6.5006199286
 30
0.0
  0
VERTEX
  5
4E9
330
2DA
100
AcDbEntity
  8
0
  6
CONTINUOUS
 62
     7
100
AcDbVertex
100
AcDb2dVertex
 10
8.6177543074
 20
6.5134507569
 30
0.0
  0
VERTEX
  5
4EA
330
2DA
100
AcDbEntity
  8
0
  6
CONTINUOUS
 62
     7
100
AcDbVertex
100
AcDb2dVertex
 10
8.6209627737
 20
6.5265384111
 30
0.0
  0
VERTEX
  5
4EB
330
2DA
100
AcDbEntity
  8
0
  6
CONTINUOUS
 62
     7
100
AcDbVertex
100
AcDb2dVertex
 10
8.6251282509
 20
6.5397516498
 30
0.0
  0
VERTEX
  5
4EC
330
2DA
100
AcDbEntity
  8
0
  6
CONTINUOUS
 62
     7
100
AcDbVertex
100
AcDb2dVertex
 10
8.6302089681
 20
6.5529579726
 30
0.0
  0
VERTEX
  5
4ED
330
2DA
100
AcDbEntity
  8
0
  6
CONTINUOUS
 62
     7
100
AcDbVertex
100
AcDb2dVertex
 10
8.6361539767
 20
6.5660249482
 30
0.0
  0
VERTEX
  5
4EE
330
2DA
100
AcDbEntity
  8
0
  6
CONTINUOUS
 62
     7
100
AcDbVertex
100
AcDb2dVertex
 10
8.6429036608
 20
6.5788215429
 30
0.0
  0
VERTEX
  5
4EF
330
2DA
100
AcDbEntity
  8
0
  6
CONTINUOUS
 62
     7
100
AcDbVertex
100
AcDb2dVertex
 10
8.6503903356
 20
6.5912194341
 30
0.0
  0
VERTEX
  5
4F0
330
2DA
100
AcDbEntity
  8
0
  6
CONTINUOUS
 62
     7
100
AcDbVertex
100
AcDb2dVertex
 10
8.6585389258
 20
6.6030942974
 30
0.0
  0
VERTEX
  5
4F1
330
2DA
100
AcDbEntity
  8
0
  6
CONTINUOUS
 62
     7
100
AcDbVertex
100
AcDb2dVertex
 10
8.6672677183
 20
6.6143270535
 30
0.0
  0
VERTEX
  5
4F2
330
2DA
100
AcDbEntity
  8
0
  6
CONTINUOUS
 62
     7
100
AcDbVertex
100
AcDb2dVertex
 10
8.6764891821
 20
6.6248050618
 30
0.0
  0
VERTEX
  5
4F3
330
2DA
100
AcDbEntity
  8
0
  6
CONTINUOUS
 62
     7
100
AcDbVertex
100
AcDb2dVertex
 10
8.6861108456
 20
6.6344232502
 30
0.0
  0
VERTEX
  5
4F4
330
2DA
100
AcDbEntity
  8
0
  6
CONTINUOUS
 62
     7
100
AcDbVertex
100
AcDb2dVertex
 10
8.6960362241
 20
6.6430851689
 30
0.0
  0
VERTEX
  5
4F5
330
2DA
100
AcDbEntity
  8
0
  6
CONTINUOUS
 62
     7
100
AcDbVertex
100
AcDb2dVertex
 10
8.7061657873
 20
6.6507039573
 30
0.0
  0
VERTEX
  5
4F6
330
2DA
100
AcDbEntity
  8
0
  6
CONTINUOUS
 62
     7
100
AcDbVertex
100
AcDb2dVertex
 10
8.7163979572
 20
6.6572032153
 30
0.0
  0
VERTEX
  5
4F7
330
2DA
100
AcDbEntity
  8
0
  6
CONTINUOUS
 62
     7
100
AcDbVertex
100
AcDb2dVertex
 10
8.7266301272
 20
6.6625177692
 30
0.0
  0
VERTEX
  5
4F8
330
2DA
100
AcDbEntity
  8
0
  6
CONTINUOUS
 62
     7
100
AcDbVertex
100
AcDb2dVertex
 10
8.7367596903
 20
6.6665943255
 30
0.0
  0
VERTEX
  5
4F9
330
2DA
100
AcDbEntity
  8
0
  6
CONTINUOUS
 62
     7
100
AcDbVertex
100
AcDb2dVertex
 10
8.7466850688
 20
6.6693920049
 30
0.0
  0
VERTEX
  5
4FA
330
2DA
100
AcDbEntity
  8
0
  6
CONTINUOUS
 62
     7
100
AcDbVertex
100
AcDb2dVertex
 10
8.7563067323
 20
6.6708827527
 30
0.0
  0
VERTEX
  5
4FB
330
2DA
100
AcDbEntity
  8
0
  6
CONTINUOUS
 62
     7
100
AcDbVertex
100
AcDb2dVertex
 10
8.7655281962
 20
6.67105162
 30
0.0
  0
VERTEX
  5
4FC
330
2DA
100
AcDbEntity
  8
0
  6
CONTINUOUS
 62
     7
100
AcDbVertex
100
AcDb2dVertex
 10
8.7742569887
 20
6.6698969132
 30
0.0
  0
VERTEX
  5
4FD
330
2DA
100
AcDbEntity
  8
0
  6
CONTINUOUS
 62
     7
100
AcDbVertex
100
AcDb2dVertex
 10
8.7824055788
 20
6.6674302118
 30
0.0
  0
VERTEX
  5
4FE
330
2DA
100
AcDbEntity
  8
0
  6
CONTINUOUS
 62
     7
100
AcDbVertex
100
AcDb2dVertex
 10
8.7898922537
 20
6.6636762513
 30
0.0
  0
VERTEX
  5
4FF
330
2DA
100
AcDbEntity
  8
0
  6
CONTINUOUS
 62
     7
100
AcDbVertex
100
AcDb2dVertex
 10
8.7966419378
 20
6.6586726761
 30
0.0
  0
VERTEX
  5
500
330
2DA
100
AcDbEntity
  8
0
  6
CONTINUOUS
 62
     7
100
AcDbVertex
100
AcDb2dVertex
 10
8.8025869463
 20
6.6524696612
 30
0.0
  0
VERTEX
  5
501
330
2DA
100
AcDbEntity
  8
0
  6
CONTINUOUS
 62
     7
100
AcDbVertex
100
AcDb2dVertex
 10
8.8076676636
 20
6.6451294097
 30
0.0
  0
VERTEX
  5
502
330
2DA
100
AcDbEntity
  8
0
  6
CONTINUOUS
 62
     7
100
AcDbVertex
100
AcDb2dVertex
 10
8.8118331408
 20
6.6367255286
 30
0.0
  0
VERTEX
  5
503
330
2DA
100
AcDbEntity
  8
0
  6
CONTINUOUS
 62
     7
100
AcDbVertex
100
AcDb2dVertex
 10
8.8150416071
 20
6.6273422908
 30
0.0
  0
VERTEX
  5
504
330
2DA
100
AcDbEntity
  8
0
  6
CONTINUOUS
 62
     7
100
AcDbVertex
100
AcDb2dVertex
 10
8.8172608885
 20
6.6170737902
 30
0.0
  0
VERTEX
  5
505
330
2DA
100
AcDbEntity
  8
0
  6
CONTINUOUS
 62
     7
100
AcDbVertex
100
AcDb2dVertex
 10
8.8184687303
 20
6.6060229978
 30
0.0
  0
SEQEND
  5
506
330
2DA
100
AcDbEntity
  8
0
  6
CONTINUOUS
 62
     7
  0
LINE
  5
2DB
330
1F
100
AcDbEntity
  8
0
  6
CONTINUOUS
 62
     7
100
AcDbLine
 10
8.3824042663
 20
6.3542883411
 30
0.0
 11
8.6143271842
 21
6.4881745918
 31
0.0
  0
LINE
  5
2DC
330
1F
100
AcDbEntity
  8
0
  6
CONTINUOUS
 62
     7
100
AcDbLine
 10
8.3824042663
 20
6.3382147031
 30
0.0
 11
8.6143271842
 21
6.4721009537
 31
0.0
  0
LINE
  5
2DD
330
1F
100
AcDbEntity
  8
0
  6
CONTINUOUS
 62
     7
100
AcDbLine
 10
8.5489008785
 20
7.1142677361
 30
0.0
 11
8.5489008785
 21
7.1264692578
 31
0.0
  0
ARC
  5
2DE
330
1F
100
AcDbEntity
  8
0
  6
CONTINUOUS
 62
     7
100
AcDbCircle
 10
8.7892909502
 20
6.4953613433
 30
0.0
 40
0.72321881674266
100
AcDbArc
 50
141.0436004958
 51
177.3857846183
  0
SPLINE
  5
2DF
330
1F
100
AcDbEntity
  8
0
  6
CONTINUOUS
 62
     7
100
AcDbSpline
210
0.0
220
0.0
230
1.0
 70
     8
 71
     3
 72
     8
 73
     4
 74
     0
 42
0.00000001
 43
0.00000001
 40
0.0
 40
0.0
 40
0.0
 40
0.0
 40
0.0007668413384707
 40
0.0007668413384707
 40
0.0007668413384707
 40
0.0007668413384707
 10
8.226898184168608
 20
6.950069858336959
 30
0.0
 10
8.231518330620165
 20
6.953652481623172
 30
0.0
 10
8.236159097679547
 20
6.9572029321945
 30
0.0
 10
8.240817608995116
 20
6.960725315755092
 30
0.0
  0
LINE
  5
2E0
330
1F
100
AcDbEntity
  8
0
  6
CONTINUOUS
 62
     7
100
AcDbLine
 10
8.6143294337
 20
6.4882138979
 30
0.0
 11
8.6143646152
 21
6.488193588
 31
0.0
  0
SPLINE
  5
2E1
330
1F
100
AcDbEntity
  8
0
  6
CONTINUOUS
 62
     7
100
AcDbSpline
210
0.0
220
0.0
230
1.0
 70
     8
 71
     3
 72
     8
 73
     4
 74
     0
 42
0.00000001
 43
0.00000001
 40
0.0
 40
0.0
 40
0.0
 40
0.0
 40
1.0
 40
1.0
 40
1.0
 40
1.0
 10
8.614327184179881
 20
6.472100953722401
 30
0.0
 10
8.614337959387946
 20
6.477465166523019
 30
0.0
 10
8.614350167622401
 20
6.482829378172176
 30
0.0
 10
8.614364615214422
 20
6.488193588021972
 30
0.0
  0
LINE
  5
2E2
330
1F
100
AcDbEntity
  8
0
  6
CONTINUOUS
 62
     7
100
AcDbLine
 10
8.1265159391
 20
6.469861515
 30
0.0
 11
8.1404376264
 21
6.477898334
 31
0.0
  0
SPLINE
  5
2E3
330
1F
100
AcDbEntity
  8
0
  6
CONTINUOUS
 62
     7
100
AcDbSpline
210
0.0
220
0.0
230
1.0
 70
     8
 71
     3
 72
     8
 73
     4
 74
     0
 42
0.00000001
 43
0.00000001
 40
0.0
 40
0.0
 40
0.0
 40
0.0
 40
1.0
 40
1.0
 40
1.0
 40
1.0
 10
8.790592449600762
 20
6.6060013893699
 30
0.0
 10
8.799884534904383
 20
6.606009729782291
 30
0.0
 10
8.809176629593365
 20
6.606016777447791
 30
0.0
 10
8.818468730288316
 20
6.60602299784619
 30
0.0
  0
ARC
  5
2E4
330
1F
100
AcDbEntity
  8
0
  6
CONTINUOUS
 62
     7
100
AcDbCircle
 10
8.7378935201
 20
6.6084446939
 30
0.0
 40
0.0527555390916432
100
AcDbArc
 50
357.3454705908
 51
122.6599059419
  0
LINE
  5
2E5
330
1F
100
AcDbEntity
  8
0
  6
CONTINUOUS
 62
     7
100
AcDbLine
 10
8.1619408683
 20
7.0062598889
 30
0.0
 11
8.1499718253
 21
6.9970974681
 31
0.0
  0
LINE
  5
2E6
330
1F
100
AcDbEntity
  8
0
  6
CONTINUOUS
 62
     7
100
AcDbLine
 10
8.7905924496
 20
6.6060013894
 30
0.0
 11
8.7094239237
 21
6.652858982
 31
0.0
  0
LINE
  5
2E7
330
1F
100
AcDbEntity
  8
0
  6
CONTINUOUS
 62
     7
100
AcDbLine
 10
8.7905924496
 20
6.5899277513
 30
0.0
 11
8.6970693563
 21
6.6439174839
 31
0.0
  0
POLYLINE
  5
2E8
330
1F
100
AcDbEntity
  8
0
  6
CONTINUOUS
 62
     7
100
AcDb2dPolyline
 66
     1
 10
0.0
 20
0.0
 30
0.0
  0
VERTEX
  5
507
330
2E8
100
AcDbEntity
  8
0
  6
CONTINUOUS
 62
     7
100
AcDbVertex
100
AcDb2dVertex
 10
8.6143646152
 20
6.488193588
 30
0.0
  0
VERTEX
  5
508
330
2E8
100
AcDbEntity
  8
0
  6
CONTINUOUS
 62
     7
100
AcDbVertex
100
AcDb2dVertex
 10
8.6156047911
 20
6.4781321014
 30
0.0
  0
VERTEX
  5
509
330
2E8
100
AcDbEntity
  8
0
  6
CONTINUOUS
 62
     7
100
AcDbVertex
100
AcDb2dVertex
 10
8.6178306658
 20
6.4688531194
 30
0.0
  0
VERTEX
  5
50A
330
2E8
100
AcDbEntity
  8
0
  6
CONTINUOUS
 62
     7
100
AcDbVertex
100
AcDb2dVertex
 10
8.6210169838
 20
6.4604619245
 30
0.0
  0
VERTEX
  5
50B
330
2E8
100
AcDbEntity
  8
0
  6
CONTINUOUS
 62
     7
100
AcDbVertex
100
AcDb2dVertex
 10
8.625127592
 20
6.4530537259
 30
0.0
  0
VERTEX
  5
50C
330
2E8
100
AcDbEntity
  8
0
  6
CONTINUOUS
 62
     7
100
AcDbVertex
100
AcDb2dVertex
 10
8.6301158501
 20
6.4467125796
 30
0.0
  0
VERTEX
  5
50D
330
2E8
100
AcDbEntity
  8
0
  6
CONTINUOUS
 62
     7
100
AcDbVertex
100
AcDb2dVertex
 10
8.6359251597
 20
6.4415104344
 30
0.0
  0
VERTEX
  5
50E
330
2E8
100
AcDbEntity
  8
0
  6
CONTINUOUS
 62
     7
100
AcDbVertex
100
AcDb2dVertex
 10
8.6424896063
 20
6.4375063156
 30
0.0
  0
VERTEX
  5
50F
330
2E8
100
AcDbEntity
  8
0
  6
CONTINUOUS
 62
     7
100
AcDbVertex
100
AcDb2dVertex
 10
8.6497347075
 20
6.4347456552
 30
0.0
  0
VERTEX
  5
510
330
2E8
100
AcDbEntity
  8
0
  6
CONTINUOUS
 62
     7
100
AcDbVertex
100
AcDb2dVertex
 10
8.657578258
 20
6.4332597767
 30
0.0
  0
VERTEX
  5
511
330
2E8
100
AcDbEntity
  8
0
  6
CONTINUOUS
 62
     7
100
AcDbVertex
100
AcDb2dVertex
 10
8.6659312621
 20
6.4330655394
 30
0.0
  0
VERTEX
  5
512
330
2E8
100
AcDbEntity
  8
0
  6
CONTINUOUS
 62
     7
100
AcDbVertex
100
AcDb2dVertex
 10
8.674698944
 20
6.434165147
 30
0.0
  0
VERTEX
  5
513
330
2E8
100
AcDbEntity
  8
0
  6
CONTINUOUS
 62
     7
100
AcDbVertex
100
AcDb2dVertex
 10
8.6837818224
 20
6.4365461232
 30
0.0
  0
VERTEX
  5
514
330
2E8
100
AcDbEntity
  8
0
  6
CONTINUOUS
 62
     7
100
AcDbVertex
100
AcDb2dVertex
 10
8.69307684
 20
6.4401814525
 30
0.0
  0
VERTEX
  5
515
330
2E8
100
AcDbEntity
  8
0
  6
CONTINUOUS
 62
     7
100
AcDbVertex
100
AcDb2dVertex
 10
8.7024785324
 20
6.4450298872
 30
0.0
  0
VERTEX
  5
516
330
2E8
100
AcDbEntity
  8
0
  6
CONTINUOUS
 62
     7
100
AcDbVertex
100
AcDb2dVertex
 10
8.7118802248
 20
6.4510364154
 30
0.0
  0
VERTEX
  5
517
330
2E8
100
AcDbEntity
  8
0
  6
CONTINUOUS
 62
     7
100
AcDbVertex
100
AcDb2dVertex
 10
8.7211752424
 20
6.4581328851
 30
0.0
  0
VERTEX
  5
518
330
2E8
100
AcDbEntity
  8
0
  6
CONTINUOUS
 62
     7
100
AcDbVertex
100
AcDb2dVertex
 10
8.7302581208
 20
6.4662387771
 30
0.0
  0
VERTEX
  5
519
330
2E8
100
AcDbEntity
  8
0
  6
CONTINUOUS
 62
     7
100
AcDbVertex
100
AcDb2dVertex
 10
8.7390258027
 20
6.4752621194
 30
0.0
  0
VERTEX
  5
51A
330
2E8
100
AcDbEntity
  8
0
  6
CONTINUOUS
 62
     7
100
AcDbVertex
100
AcDb2dVertex
 10
8.7473788068
 20
6.4851005301
 30
0.0
  0
VERTEX
  5
51B
330
2E8
100
AcDbEntity
  8
0
  6
CONTINUOUS
 62
     7
100
AcDbVertex
100
AcDb2dVertex
 10
8.7552223573
 20
6.4956423792
 30
0.0
  0
VERTEX
  5
51C
330
2E8
100
AcDbEntity
  8
0
  6
CONTINUOUS
 62
     7
100
AcDbVertex
100
AcDb2dVertex
 10
8.7624674586
 20
6.5067680554
 30
0.0
  0
VERTEX
  5
51D
330
2E8
100
AcDbEntity
  8
0
  6
CONTINUOUS
 62
     7
100
AcDbVertex
100
AcDb2dVertex
 10
8.7690319052
 20
6.518351323
 30
0.0
  0
VERTEX
  5
51E
330
2E8
100
AcDbEntity
  8
0
  6
CONTINUOUS
 62
     7
100
AcDbVertex
100
AcDb2dVertex
 10
8.7748412147
 20
6.5302607542
 30
0.0
  0
VERTEX
  5
51F
330
2E8
100
AcDbEntity
  8
0
  6
CONTINUOUS
 62
     7
100
AcDbVertex
100
AcDb2dVertex
 10
8.7798294728
 20
6.5423612207
 30
0.0
  0
VERTEX
  5
520
330
2E8
100
AcDbEntity
  8
0
  6
CONTINUOUS
 62
     7
100
AcDbVertex
100
AcDb2dVertex
 10
8.7839400811
 20
6.5545154266
 30
0.0
  0
VERTEX
  5
521
330
2E8
100
AcDbEntity
  8
0
  6
CONTINUOUS
 62
     7
100
AcDbVertex
100
AcDb2dVertex
 10
8.787126399
 20
6.5665854659
 30
0.0
  0
VERTEX
  5
522
330
2E8
100
AcDbEntity
  8
0
  6
CONTINUOUS
 62
     7
100
AcDbVertex
100
AcDb2dVertex
 10
8.7893522737
 20
6.5784343882
 30
0.0
  0
VERTEX
  5
523
330
2E8
100
AcDbEntity
  8
0
  6
CONTINUOUS
 62
     7
100
AcDbVertex
100
AcDb2dVertex
 10
8.7905924496
 20
6.5899277513
 30
0.0
  0
SEQEND
  5
524
330
2E8
100
AcDbEntity
  8
0
  6
CONTINUOUS
 62
     7
  0
ARC
  5
2E9
330
1F
100
AcDbEntity
  8
0
  6
CONTINUOUS
 62
     7
100
AcDbCircle
 10
8.6432889964
 20
6.6214405512
 30
0.0
 40
0.6206814652305822
100
AcDbArc
 50
121.1783401469
 51
142.7183176061
  0
SPLINE
  5
2EA
330
1F
100
AcDbEntity
  8
0
  6
CONTINUOUS
 62
     7
100
AcDbSpline
210
0.0
220
0.0
230
1.0
 70
     8
 71
     3
 72
     8
 73
     4
 74
     0
 42
0.00000001
 43
0.00000001
 40
0.0
 40
0.0
 40
0.0
 40
0.0
 40
1.0
 40
1.0
 40
1.0
 40
1.0
 10
8.790592449600762
 20
6.589927751340653
 30
0.0
 10
8.799884534904383
 20
6.589936091753044
 30
0.0
 10
8.809176629593365
 20
6.589943139418544
 30
0.0
 10
8.818468730288316
 20
6.589949359816943
 30
0.0
  0
LINE
  5
2EB
330
1F
100
AcDbEntity
  8
0
  6
CONTINUOUS
 62
     7
100
AcDbLine
 10
8.8978144608
 20
6.6357546751
 30
0.0
 11
8.8834919444
 21
6.6435601003
 31
0.0
  0
LINE
  5
2EC
330
1F
100
AcDbEntity
  8
0
  6
CONTINUOUS
 62
     7
100
AcDbLine
 10
8.4937762846
 20
7.2218164045
 30
0.0
 11
8.5726530253
 21
7.1762818313
 31
0.0
  0
POLYLINE
  5
2ED
330
1F
100
AcDbEntity
  8
0
  6
CONTINUOUS
 62
     7
100
AcDb2dPolyline
 66
     1
 10
0.0
 20
0.0
 30
0.0
  0
VERTEX
  5
525
330
2ED
100
AcDbEntity
  8
0
  6
CONTINUOUS
 62
     7
100
AcDbVertex
100
AcDb2dVertex
 10
8.1253858444
 20
7.0112906528
 30
0.0
  0
VERTEX
  5
526
330
2ED
100
AcDbEntity
  8
0
  6
CONTINUOUS
 62
     7
100
AcDbVertex
100
AcDb2dVertex
 10
8.1421814674
 20
7.0322174229
 30
0.0
  0
VERTEX
  5
527
330
2ED
100
AcDbEntity
  8
0
  6
CONTINUOUS
 62
     7
100
AcDbVertex
100
AcDb2dVertex
 10
8.15949319
 20
7.0523433635
 30
0.0
  0
VERTEX
  5
528
330
2ED
100
AcDbEntity
  8
0
  6
CONTINUOUS
 62
     7
100
AcDbVertex
100
AcDb2dVertex
 10
8.1772671615
 20
7.0716058695
 30
0.0
  0
VERTEX
  5
529
330
2ED
100
AcDbEntity
  8
0
  6
CONTINUOUS
 62
     7
100
AcDbVertex
100
AcDb2dVertex
 10
8.195448093
 20
7.0899450219
 30
0.0
  0
VERTEX
  5
52A
330
2ED
100
AcDbEntity
  8
0
  6
CONTINUOUS
 62
     7
100
AcDbVertex
100
AcDb2dVertex
 10
8.2139794299
 20
7.1073037739
 30
0.0
  0
VERTEX
  5
52B
330
2ED
100
AcDbEntity
  8
0
  6
CONTINUOUS
 62
     7
100
AcDbVertex
100
AcDb2dVertex
 10
8.2328035275
 20
7.1236281283
 30
0.0
  0
VERTEX
  5
52C
330
2ED
100
AcDbEntity
  8
0
  6
CONTINUOUS
 62
     7
100
AcDbVertex
100
AcDb2dVertex
 10
8.2518618306
 20
7.1388673058
 30
0.0
  0
VERTEX
  5
52D
330
2ED
100
AcDbEntity
  8
0
  6
CONTINUOUS
 62
     7
100
AcDbVertex
100
AcDb2dVertex
 10
8.2710950553
 20
7.1529739023
 30
0.0
  0
VERTEX
  5
52E
330
2ED
100
AcDbEntity
  8
0
  6
CONTINUOUS
 62
     7
100
AcDbVertex
100
AcDb2dVertex
 10
8.2904433736
 20
7.1659040372
 30
0.0
  0
VERTEX
  5
52F
330
2ED
100
AcDbEntity
  8
0
  6
CONTINUOUS
 62
     7
100
AcDbVertex
100
AcDb2dVertex
 10
8.3098465996
 20
7.1776174892
 30
0.0
  0
VERTEX
  5
530
330
2ED
100
AcDbEntity
  8
0
  6
CONTINUOUS
 62
     7
100
AcDbVertex
100
AcDb2dVertex
 10
8.3292443764
 20
7.1880778218
 30
0.0
  0
VERTEX
  5
531
330
2ED
100
AcDbEntity
  8
0
  6
CONTINUOUS
 62
     7
100
AcDbVertex
100
AcDb2dVertex
 10
8.3485763641
 20
7.1972524965
 30
0.0
  0
VERTEX
  5
532
330
2ED
100
AcDbEntity
  8
0
  6
CONTINUOUS
 62
     7
100
AcDbVertex
100
AcDb2dVertex
 10
8.3677824277
 20
7.2051129739
 30
0.0
  0
VERTEX
  5
533
330
2ED
100
AcDbEntity
  8
0
  6
CONTINUOUS
 62
     7
100
AcDbVertex
100
AcDb2dVertex
 10
8.3868028237
 20
7.2116348029
 30
0.0
  0
VERTEX
  5
534
330
2ED
100
AcDbEntity
  8
0
  6
CONTINUOUS
 62
     7
100
AcDbVertex
100
AcDb2dVertex
 10
8.405578386
 20
7.2167976963
 30
0.0
  0
VERTEX
  5
535
330
2ED
100
AcDbEntity
  8
0
  6
CONTINUOUS
 62
     7
100
AcDbVertex
100
AcDb2dVertex
 10
8.4240507104
 20
7.220585594
 30
0.0
  0
VERTEX
  5
536
330
2ED
100
AcDbEntity
  8
0
  6
CONTINUOUS
 62
     7
100
AcDbVertex
100
AcDb2dVertex
 10
8.4421623357
 20
7.2229867133
 30
0.0
  0
VERTEX
  5
537
330
2ED
100
AcDbEntity
  8
0
  6
CONTINUOUS
 62
     7
100
AcDbVertex
100
AcDb2dVertex
 10
8.459856923
 20
7.223993585
 30
0.0
  0
VERTEX
  5
538
330
2ED
100
AcDbEntity
  8
0
  6
CONTINUOUS
 62
     7
100
AcDbVertex
100
AcDb2dVertex
 10
8.4770794304
 20
7.2236030771
 30
0.0
  0
VERTEX
  5
539
330
2ED
100
AcDbEntity
  8
0
  6
CONTINUOUS
 62
     7
100
AcDbVertex
100
AcDb2dVertex
 10
8.4937762846
 20
7.2218164045
 30
0.0
  0
SEQEND
  5
53A
330
2ED
100
AcDbEntity
  8
0
  6
CONTINUOUS
 62
     7
  0
LINE
  5
2EE
330
1F
100
AcDbEntity
  8
0
  6
CONTINUOUS
 62
     7
100
AcDbLine
 10
8.2042625851
 20
6.9657560796
 30
0.0
 11
8.1253858444
 21
7.0112906528
 31
0.0
  0
POLYLINE
  5
2EF
330
1F
100
AcDbEntity
  8
0
  6
CONTINUOUS
 62
     7
100
AcDb2dPolyline
 66
     1
 10
0.0
 20
0.0
 30
0.0
  0
VERTEX
  5
53B
330
2EF
100
AcDbEntity
  8
0
  6
CONTINUOUS
 62
     7
100
AcDbVertex
100
AcDb2dVertex
 10
8.1552419194
 20
6.2956774833
 30
0.0
  0
VERTEX
  5
53C
330
2EF
100
AcDbEntity
  8
0
  6
CONTINUOUS
 62
     7
100
AcDbVertex
100
AcDb2dVertex
 10
8.1417796903
 20
6.3025426808
 30
0.0
  0
VERTEX
  5
53D
330
2EF
100
AcDbEntity
  8
0
  6
CONTINUOUS
 62
     7
100
AcDbVertex
100
AcDb2dVertex
 10
8.1286329007
 20
6.3108764339
 30
0.0
  0
VERTEX
  5
53E
330
2EF
100
AcDbEntity
  8
0
  6
CONTINUOUS
 62
     7
100
AcDbVertex
100
AcDb2dVertex
 10
8.1162604817
 20
6.3204642199
 30
0.0
  0
VERTEX
  5
53F
330
2EF
100
AcDbEntity
  8
0
  6
CONTINUOUS
 62
     7
100
AcDbVertex
100
AcDb2dVertex
 10
8.1046995198
 20
6.3312772995
 30
0.0
  0
VERTEX
  5
540
330
2EF
100
AcDbEntity
  8
0
  6
CONTINUOUS
 62
     7
100
AcDbVertex
100
AcDb2dVertex
 10
8.093984669
 20
6.3432832605
 30
0.0
  0
VERTEX
  5
541
330
2EF
100
AcDbEntity
  8
0
  6
CONTINUOUS
 62
     7
100
AcDbVertex
100
AcDb2dVertex
 10
8.084148047
 20
6.3564461149
 30
0.0
  0
VERTEX
  5
542
330
2EF
100
AcDbEntity
  8
0
  6
CONTINUOUS
 62
     7
100
AcDbVertex
100
AcDb2dVertex
 10
8.0752191391
 20
6.3707264072
 30
0.0
  0
VERTEX
  5
543
330
2EF
100
AcDbEntity
  8
0
  6
CONTINUOUS
 62
     7
100
AcDbVertex
100
AcDb2dVertex
 10
8.0672247097
 20
6.386081332
 30
0.0
  0
VERTEX
  5
544
330
2EF
100
AcDbEntity
  8
0
  6
CONTINUOUS
 62
     7
100
AcDbVertex
100
AcDb2dVertex
 10
8.0601887223
 20
6.4024648631
 30
0.0
  0
VERTEX
  5
545
330
2EF
100
AcDbEntity
  8
0
  6
CONTINUOUS
 62
     7
100
AcDbVertex
100
AcDb2dVertex
 10
8.0541322671
 20
6.4198278906
 30
0.0
  0
VERTEX
  5
546
330
2EF
100
AcDbEntity
  8
0
  6
CONTINUOUS
 62
     7
100
AcDbVertex
100
AcDb2dVertex
 10
8.0490734984
 20
6.4381183689
 30
0.0
  0
VERTEX
  5
547
330
2EF
100
AcDbEntity
  8
0
  6
CONTINUOUS
 62
     7
100
AcDbVertex
100
AcDb2dVertex
 10
8.0450275799
 20
6.4572814723
 30
0.0
  0
VERTEX
  5
548
330
2EF
100
AcDbEntity
  8
0
  6
CONTINUOUS
 62
     7
100
AcDbVertex
100
AcDb2dVertex
 10
8.0420066392
 20
6.4772597592
 30
0.0
  0
VERTEX
  5
549
330
2EF
100
AcDbEntity
  8
0
  6
CONTINUOUS
 62
     7
100
AcDbVertex
100
AcDb2dVertex
 10
8.0400197315
 20
6.4979933448
 30
0.0
  0
VERTEX
  5
54A
330
2EF
100
AcDbEntity
  8
0
  6
CONTINUOUS
 62
     7
100
AcDbVertex
100
AcDb2dVertex
 10
8.0390728128
 20
6.5194200801
 30
0.0
  0
VERTEX
  5
54B
330
2EF
100
AcDbEntity
  8
0
  6
CONTINUOUS
 62
     7
100
AcDbVertex
100
AcDb2dVertex
 10
8.0391687212
 20
6.5414757384
 30
0.0
  0
VERTEX
  5
54C
330
2EF
100
AcDbEntity
  8
0
  6
CONTINUOUS
 62
     7
100
AcDbVertex
100
AcDb2dVertex
 10
8.0403071695
 20
6.5640942078
 30
0.0
  0
VERTEX
  5
54D
330
2EF
100
AcDbEntity
  8
0
  6
CONTINUOUS
 62
     7
100
AcDbVertex
100
AcDb2dVertex
 10
8.042484745
 20
6.5872076894
 30
0.0
  0
VERTEX
  5
54E
330
2EF
100
AcDbEntity
  8
0
  6
CONTINUOUS
 62
     7
100
AcDbVertex
100
AcDb2dVertex
 10
8.0456949204
 20
6.6107469005
 30
0.0
  0
VERTEX
  5
54F
330
2EF
100
AcDbEntity
  8
0
  6
CONTINUOUS
 62
     7
100
AcDbVertex
100
AcDb2dVertex
 10
8.0499280733
 20
6.6346412823
 30
0.0
  0
VERTEX
  5
550
330
2EF
100
AcDbEntity
  8
0
  6
CONTINUOUS
 62
     7
100
AcDbVertex
100
AcDb2dVertex
 10
8.0551715148
 20
6.6588192113
 30
0.0
  0
VERTEX
  5
551
330
2EF
100
AcDbEntity
  8
0
  6
CONTINUOUS
 62
     7
100
AcDbVertex
100
AcDb2dVertex
 10
8.0614095277
 20
6.6832082141
 30
0.0
  0
VERTEX
  5
552
330
2EF
100
AcDbEntity
  8
0
  6
CONTINUOUS
 62
     7
100
AcDbVertex
100
AcDb2dVertex
 10
8.0686234134
 20
6.7077351846
 30
0.0
  0
VERTEX
  5
553
330
2EF
100
AcDbEntity
  8
0
  6
CONTINUOUS
 62
     7
100
AcDbVertex
100
AcDb2dVertex
 10
8.0767915484
 20
6.7323266032
 30
0.0
  0
VERTEX
  5
554
330
2EF
100
AcDbEntity
  8
0
  6
CONTINUOUS
 62
     7
100
AcDbVertex
100
AcDb2dVertex
 10
8.0858894486
 20
6.7569087571
 30
0.0
  0
VERTEX
  5
555
330
2EF
100
AcDbEntity
  8
0
  6
CONTINUOUS
 62
     7
100
AcDbVertex
100
AcDb2dVertex
 10
8.0958898432
 20
6.7814079612
 30
0.0
  0
VERTEX
  5
556
330
2EF
100
AcDbEntity
  8
0
  6
CONTINUOUS
 62
     7
100
AcDbVertex
100
AcDb2dVertex
 10
8.1067627558
 20
6.805750779
 30
0.0
  0
VERTEX
  5
557
330
2EF
100
AcDbEntity
  8
0
  6
CONTINUOUS
 62
     7
100
AcDbVertex
100
AcDb2dVertex
 10
8.1184755949
 20
6.829864243
 30
0.0
  0
VERTEX
  5
558
330
2EF
100
AcDbEntity
  8
0
  6
CONTINUOUS
 62
     7
100
AcDbVertex
100
AcDb2dVertex
 10
8.1309932512
 20
6.8536760729
 30
0.0
  0
VERTEX
  5
559
330
2EF
100
AcDbEntity
  8
0
  6
CONTINUOUS
 62
     7
100
AcDbVertex
100
AcDb2dVertex
 10
8.1442782031
 20
6.8771148929
 30
0.0
  0
VERTEX
  5
55A
330
2EF
100
AcDbEntity
  8
0
  6
CONTINUOUS
 62
     7
100
AcDbVertex
100
AcDb2dVertex
 10
8.1582906288
 20
6.9001104449
 30
0.0
  0
VERTEX
  5
55B
330
2EF
100
AcDbEntity
  8
0
  6
CONTINUOUS
 62
     7
100
AcDbVertex
100
AcDb2dVertex
 10
8.1729885262
 20
6.9225937997
 30
0.0
  0
VERTEX
  5
55C
330
2EF
100
AcDbEntity
  8
0
  6
CONTINUOUS
 62
     7
100
AcDbVertex
100
AcDb2dVertex
 10
8.1883278381
 20
6.9444975635
 30
0.0
  0
VERTEX
  5
55D
330
2EF
100
AcDbEntity
  8
0
  6
CONTINUOUS
 62
     7
100
AcDbVertex
100
AcDb2dVertex
 10
8.2042625851
 20
6.9657560796
 30
0.0
  0
SEQEND
  5
55E
330
2EF
100
AcDbEntity
  8
0
  6
CONTINUOUS
 62
     7
  0
ARC
  5
2F0
330
1F
100
AcDbEntity
  8
0
  6
CONTINUOUS
 62
     7
100
AcDbCircle
 10
8.5483904758
 20
7.0083304018
 30
0.0
 40
0.1696948849803272
100
AcDbArc
 50
57.376457267
 51
81.7798221446
  0
LINE
  5
2F1
330
1F
100
AcDbEntity
  8
0
  6
CONTINUOUS
 62
     7
100
AcDbLine
 10
7.7446793245
 20
6.5458059147
 30
0.0
 11
7.6658025838
 21
6.5913404879
 31
0.0
  0
POLYLINE
  5
2F2
330
1F
100
AcDbEntity
  8
0
  6
CONTINUOUS
 62
     7
100
AcDb2dPolyline
 66
     1
 10
0.0
 20
0.0
 30
0.0
  0
VERTEX
  5
55F
330
2F2
100
AcDbEntity
  8
0
  6
CONTINUOUS
 62
     7
100
AcDbVertex
100
AcDb2dVertex
 10
7.7428248119
 20
6.9701390106
 30
0.0
  0
VERTEX
  5
560
330
2F2
100
AcDbEntity
  8
0
  6
CONTINUOUS
 62
     7
100
AcDbVertex
100
AcDb2dVertex
 10
7.7330991258
 20
6.945129526
 30
0.0
  0
VERTEX
  5
561
330
2F2
100
AcDbEntity
  8
0
  6
CONTINUOUS
 62
     7
100
AcDbVertex
100
AcDb2dVertex
 10
7.7243249487
 20
6.920073363
 30
0.0
  0
VERTEX
  5
562
330
2F2
100
AcDbEntity
  8
0
  6
CONTINUOUS
 62
     7
100
AcDbVertex
100
AcDb2dVertex
 10
7.7165295743
 20
6.895048463
 30
0.0
  0
VERTEX
  5
563
330
2F2
100
AcDbEntity
  8
0
  6
CONTINUOUS
 62
     7
100
AcDbVertex
100
AcDb2dVertex
 10
7.7097372511
 20
6.8701326697
 30
0.0
  0
VERTEX
  5
564
330
2F2
100
AcDbEntity
  8
0
  6
CONTINUOUS
 62
     7
100
AcDbVertex
100
AcDb2dVertex
 10
7.7039691079
 20
6.8454034876
 30
0.0
  0
VERTEX
  5
565
330
2F2
100
AcDbEntity
  8
0
  6
CONTINUOUS
 62
     7
100
AcDbVertex
100
AcDb2dVertex
 10
7.6992430873
 20
6.8209378408
 30
0.0
  0
VERTEX
  5
566
330
2F2
100
AcDbEntity
  8
0
  6
CONTINUOUS
 62
     7
100
AcDbVertex
100
AcDb2dVertex
 10
7.6955738903
 20
6.7968118334
 30
0.0
  0
VERTEX
  5
567
330
2F2
100
AcDbEntity
  8
0
  6
CONTINUOUS
 62
     7
100
AcDbVertex
100
AcDb2dVertex
 10
7.6929729306
 20
6.7731005134
 30
0.0
  0
VERTEX
  5
568
330
2F2
100
AcDbEntity
  8
0
  6
CONTINUOUS
 62
     7
100
AcDbVertex
100
AcDb2dVertex
 10
7.6914482988
 20
6.7498776383
 30
0.0
  0
VERTEX
  5
569
330
2F2
100
AcDbEntity
  8
0
  6
CONTINUOUS
 62
     7
100
AcDbVertex
100
AcDb2dVertex
 10
7.6910047376
 20
6.7272154468
 30
0.0
  0
VERTEX
  5
56A
330
2F2
100
AcDbEntity
  8
0
  6
CONTINUOUS
 62
     7
100
AcDbVertex
100
AcDb2dVertex
 10
7.6916436267
 20
6.7051844329
 30
0.0
  0
VERTEX
  5
56B
330
2F2
100
AcDbEntity
  8
0
  6
CONTINUOUS
 62
     7
100
AcDbVertex
100
AcDb2dVertex
 10
7.6933629789
 20
6.6838531278
 30
0.0
  0
VERTEX
  5
56C
330
2F2
100
AcDbEntity
  8
0
  6
CONTINUOUS
 62
     7
100
AcDbVertex
100
AcDb2dVertex
 10
7.6961574456
 20
6.6632878858
 30
0.0
  0
VERTEX
  5
56D
330
2F2
100
AcDbEntity
  8
0
  6
CONTINUOUS
 62
     7
100
AcDbVertex
100
AcDb2dVertex
 10
7.7000183344
 20
6.6435526783
 30
0.0
  0
VERTEX
  5
56E
330
2F2
100
AcDbEntity
  8
0
  6
CONTINUOUS
 62
     7
100
AcDbVertex
100
AcDb2dVertex
 10
7.7049336353
 20
6.6247088947
 30
0.0
  0
VERTEX
  5
56F
330
2F2
100
AcDbEntity
  8
0
  6
CONTINUOUS
 62
     7
100
AcDbVertex
100
AcDb2dVertex
 10
7.7108880585
 20
6.6068151517
 30
0.0
  0
VERTEX
  5
570
330
2F2
100
AcDbEntity
  8
0
  6
CONTINUOUS
 62
     7
100
AcDbVertex
100
AcDb2dVertex
 10
7.7178630818
 20
6.5899271105
 30
0.0
  0
VERTEX
  5
571
330
2F2
100
AcDbEntity
  8
0
  6
CONTINUOUS
 62
     7
100
AcDbVertex
100
AcDb2dVertex
 10
7.7258370084
 20
6.574097304
 30
0.0
  0
VERTEX
  5
572
330
2F2
100
AcDbEntity
  8
0
  6
CONTINUOUS
 62
     7
100
AcDbVertex
100
AcDb2dVertex
 10
7.734785034
 20
6.5593749734
 30
0.0
  0
VERTEX
  5
573
330
2F2
100
AcDbEntity
  8
0
  6
CONTINUOUS
 62
     7
100
AcDbVertex
100
AcDb2dVertex
 10
7.7446793245
 20
6.5458059147
 30
0.0
  0
SEQEND
  5
574
330
2F2
100
AcDbEntity
  8
0
  6
CONTINUOUS
 62
     7
  0
LINE
  5
2F3
330
1F
100
AcDbEntity
  8
0
  6
CONTINUOUS
 62
     7
100
AcDbLine
 10
7.6639480712
 20
7.0156735838
 30
0.0
 11
7.7428248119
 21
6.9701390106
 31
0.0
  0
POLYLINE
  5
2F4
330
1F
100
AcDbEntity
  8
0
  6
CONTINUOUS
 62
     7
100
AcDb2dPolyline
 66
     1
 10
0.0
 20
0.0
 30
0.0
  0
VERTEX
  5
575
330
2F4
100
AcDbEntity
  8
0
  6
CONTINUOUS
 62
     7
100
AcDbVertex
100
AcDb2dVertex
 10
8.2061522036
 20
7.4018633261
 30
0.0
  0
VERTEX
  5
576
330
2F4
100
AcDbEntity
  8
0
  6
CONTINUOUS
 62
     7
100
AcDbVertex
100
AcDb2dVertex
 10
8.1932510628
 20
7.4085680648
 30
0.0
  0
VERTEX
  5
577
330
2F4
100
AcDbEntity
  8
0
  6
CONTINUOUS
 62
     7
100
AcDbVertex
100
AcDb2dVertex
 10
8.1787630422
 20
7.4144915213
 30
0.0
  0
VERTEX
  5
578
330
2F4
100
AcDbEntity
  8
0
  6
CONTINUOUS
 62
     7
100
AcDbVertex
100
AcDb2dVertex
 10
8.1636196063
 20
7.4190995739
 30
0.0
  0
VERTEX
  5
579
330
2F4
100
AcDbEntity
  8
0
  6
CONTINUOUS
 62
     7
100
AcDbVertex
100
AcDb2dVertex
 10
8.1478661475
 20
7.4223784101
 30
0.0
  0
VERTEX
  5
57A
330
2F4
100
AcDbEntity
  8
0
  6
CONTINUOUS
 62
     7
100
AcDbVertex
100
AcDb2dVertex
 10
8.1315498869
 20
7.4243182014
 30
0.0
  0
VERTEX
  5
57B
330
2F4
100
AcDbEntity
  8
0
  6
CONTINUOUS
 62
     7
100
AcDbVertex
100
AcDb2dVertex
 10
8.1147197326
 20
7.4249131333
 30
0.0
  0
VERTEX
  5
57C
330
2F4
100
AcDbEntity
  8
0
  6
CONTINUOUS
 62
     7
100
AcDbVertex
100
AcDb2dVertex
 10
8.0974261328
 20
7.4241614226
 30
0.0
  0
VERTEX
  5
57D
330
2F4
100
AcDbEntity
  8
0
  6
CONTINUOUS
 62
     7
100
AcDbVertex
100
AcDb2dVertex
 10
8.0797209253
 20
7.4220653225
 30
0.0
  0
VERTEX
  5
57E
330
2F4
100
AcDbEntity
  8
0
  6
CONTINUOUS
 62
     7
100
AcDbVertex
100
AcDb2dVertex
 10
8.0616571815
 20
7.4186311161
 30
0.0
  0
VERTEX
  5
57F
330
2F4
100
AcDbEntity
  8
0
  6
CONTINUOUS
 62
     7
100
AcDbVertex
100
AcDb2dVertex
 10
8.0432890474
 20
7.4138690973
 30
0.0
  0
VERTEX
  5
580
330
2F4
100
AcDbEntity
  8
0
  6
CONTINUOUS
 62
     7
100
AcDbVertex
100
AcDb2dVertex
 10
8.0246715815
 20
7.4077935404
 30
0.0
  0
VERTEX
  5
581
330
2F4
100
AcDbEntity
  8
0
  6
CONTINUOUS
 62
     7
100
AcDbVertex
100
AcDb2dVertex
 10
8.0058605898
 20
7.4004226569
 30
0.0
  0
VERTEX
  5
582
330
2F4
100
AcDbEntity
  8
0
  6
CONTINUOUS
 62
     7
100
AcDbVertex
100
AcDb2dVertex
 10
7.9869124582
 20
7.391778541
 30
0.0
  0
VERTEX
  5
583
330
2F4
100
AcDbEntity
  8
0
  6
CONTINUOUS
 62
     7
100
AcDbVertex
100
AcDb2dVertex
 10
7.9678839839
 20
7.3818871034
 30
0.0
  0
VERTEX
  5
584
330
2F4
100
AcDbEntity
  8
0
  6
CONTINUOUS
 62
     7
100
AcDbVertex
100
AcDb2dVertex
 10
7.9488322046
 20
7.3707779937
 30
0.0
  0
VERTEX
  5
585
330
2F4
100
AcDbEntity
  8
0
  6
CONTINUOUS
 62
     7
100
AcDbVertex
100
AcDb2dVertex
 10
7.9298142282
 20
7.3584845116
 30
0.0
  0
VERTEX
  5
586
330
2F4
100
AcDbEntity
  8
0
  6
CONTINUOUS
 62
     7
100
AcDbVertex
100
AcDb2dVertex
 10
7.910887061
 20
7.3450435068
 30
0.0
  0
VERTEX
  5
587
330
2F4
100
AcDbEntity
  8
0
  6
CONTINUOUS
 62
     7
100
AcDbVertex
100
AcDb2dVertex
 10
7.8921074373
 20
7.3304952687
 30
0.0
  0
VERTEX
  5
588
330
2F4
100
AcDbEntity
  8
0
  6
CONTINUOUS
 62
     7
100
AcDbVertex
100
AcDb2dVertex
 10
7.8735316491
 20
7.3148834057
 30
0.0
  0
VERTEX
  5
589
330
2F4
100
AcDbEntity
  8
0
  6
CONTINUOUS
 62
     7
100
AcDbVertex
100
AcDb2dVertex
 10
7.8552153773
 20
7.2982547143
 30
0.0
  0
VERTEX
  5
58A
330
2F4
100
AcDbEntity
  8
0
  6
CONTINUOUS
 62
     7
100
AcDbVertex
100
AcDb2dVertex
 10
7.837213525
 20
7.2806590392
 30
0.0
  0
VERTEX
  5
58B
330
2F4
100
AcDbEntity
  8
0
  6
CONTINUOUS
 62
     7
100
AcDbVertex
100
AcDb2dVertex
 10
7.8195800527
 20
7.2621491234
 30
0.0
  0
VERTEX
  5
58C
330
2F4
100
AcDbEntity
  8
0
  6
CONTINUOUS
 62
     7
100
AcDbVertex
100
AcDb2dVertex
 10
7.8023678169
 20
7.2427804503
 30
0.0
  0
VERTEX
  5
58D
330
2F4
100
AcDbEntity
  8
0
  6
CONTINUOUS
 62
     7
100
AcDbVertex
100
AcDb2dVertex
 10
7.7856284112
 20
7.2226110777
 30
0.0
  0
VERTEX
  5
58E
330
2F4
100
AcDbEntity
  8
0
  6
CONTINUOUS
 62
     7
100
AcDbVertex
100
AcDb2dVertex
 10
7.769412012
 20
7.2017014632
 30
0.0
  0
VERTEX
  5
58F
330
2F4
100
AcDbEntity
  8
0
  6
CONTINUOUS
 62
     7
100
AcDbVertex
100
AcDb2dVertex
 10
7.7537672281
 20
7.1801142836
 30
0.0
  0
VERTEX
  5
590
330
2F4
100
AcDbEntity
  8
0
  6
CONTINUOUS
 62
     7
100
AcDbVertex
100
AcDb2dVertex
 10
7.7387409547
 20
7.1579142463
 30
0.0
  0
VERTEX
  5
591
330
2F4
100
AcDbEntity
  8
0
  6
CONTINUOUS
 62
     7
100
AcDbVertex
100
AcDb2dVertex
 10
7.7243782332
 20
7.1351678961
 30
0.0
  0
VERTEX
  5
592
330
2F4
100
AcDbEntity
  8
0
  6
CONTINUOUS
 62
     7
100
AcDbVertex
100
AcDb2dVertex
 10
7.7107221156
 20
7.1119434152
 30
0.0
  0
VERTEX
  5
593
330
2F4
100
AcDbEntity
  8
0
  6
CONTINUOUS
 62
     7
100
AcDbVertex
100
AcDb2dVertex
 10
7.6978135365
 20
7.088310419
 30
0.0
  0
VERTEX
  5
594
330
2F4
100
AcDbEntity
  8
0
  6
CONTINUOUS
 62
     7
100
AcDbVertex
100
AcDb2dVertex
 10
7.6856911891
 20
7.0643397475
 30
0.0
  0
VERTEX
  5
595
330
2F4
100
AcDbEntity
  8
0
  6
CONTINUOUS
 62
     7
100
AcDbVertex
100
AcDb2dVertex
 10
7.6743914103
 20
7.0401032528
 30
0.0
  0
VERTEX
  5
596
330
2F4
100
AcDbEntity
  8
0
  6
CONTINUOUS
 62
     7
100
AcDbVertex
100
AcDb2dVertex
 10
7.6639480712
 20
7.0156735838
 30
0.0
  0
SEQEND
  5
597
330
2F4
100
AcDbEntity
  8
0
  6
CONTINUOUS
 62
     7
  0
ARC
  5
2F5
330
1F
100
AcDbEntity
  8
0
  6
CONTINUOUS
 62
     7
100
AcDbCircle
 10
7.7996052653
 20
6.6967618837
 30
0.0
 40
0.1703432659577631
100
AcDbArc
 50
218.234116128
 51
239.85719548
  0
SPLINE
  5
2F6
330
1F
100
AcDbEntity
  8
0
  6
CONTINUOUS
 62
     7
100
AcDbSpline
210
0.0
220
0.0
230
1.0
 70
     8
 71
     3
 72
     8
 73
     4
 74
     0
 42
0.00000001
 43
0.00000001
 40
0.0
 40
0.0
 40
0.0
 40
0.0
 40
0.0001070963901295
 40
0.0001070963901295
 40
0.0001070963901295
 40
0.0001070963901295
 10
8.224961248029716
 20
6.953805360069564
 30
0.0
 10
8.225607290338047
 20
6.952560355592772
 30
0.0
 10
8.22625293855911
 20
6.951315189092592
 30
0.0
 10
8.22689818416861
 20
6.950069858336956
 30
0.0
  0
ARC
  5
2F7
330
1F
100
AcDbEntity
  8
0
  6
CONTINUOUS
 62
     7
100
AcDbCircle
 10
8.7821552819
 20
6.4980698358
 30
0.0
 40
0.7159709944679852
100
AcDbArc
 50
140.8531231813
 51
177.5762619328
  0
SPLINE
  5
2F8
330
1F
100
AcDbEntity
  8
0
  6
CONTINUOUS
 62
     7
100
AcDbSpline
210
0.0
220
0.0
230
1.0
 70
     8
 71
     3
 72
     8
 73
     4
 74
     0
 42
0.00000001
 43
0.00000001
 40
0.0
 40
0.0
 40
0.0
 40
0.0
 40
0.0006175109583466
 40
0.0006175109583466
 40
0.0006175109583466
 40
0.0006175109583466
 10
8.204262585059523
 20
6.965756079590414
 30
0.0
 10
8.211162782057158
 20
6.961772135674462
 30
0.0
 10
8.218062361788174
 20
6.957788547842938
 30
0.0
 10
8.224961248029716
 20
6.953805360069564
 30
0.0
  0
LINE
  5
2F9
330
1F
100
AcDbEntity
  8
0
  6
CONTINUOUS
 62
     7
100
AcDbLine
 10
8.4937762846
 20
7.2218164045
 30
0.0
 11
8.4910511981
 21
7.2073225949
 31
0.0
  0
SPLINE
  5
2FA
330
1F
100
AcDbEntity
  8
0
  6
CONTINUOUS
 62
     7
100
AcDbSpline
210
0.0
220
0.0
230
1.0
 70
     8
 71
     3
 72
     8
 73
     4
 74
     0
 42
0.00000001
 43
0.00000001
 40
0.0
 40
0.0
 40
0.0
 40
0.0
 40
0.0001070963901295
 40
0.0001070963901295
 40
0.0001070963901295
 40
0.0001070963901295
 10
7.660681756820552
 20
7.017557551225602
 30
0.0
 10
7.660790892953544
 20
7.018366458746295
 30
0.0
 10
7.660900760494184
 20
7.019175333496164
 30
0.0
 10
7.661011374161146
 20
7.019984174130173
 30
0.0
  0
ARC
  5
2FB
330
1F
100
AcDbEntity
  8
0
  6
CONTINUOUS
 62
     7
100
AcDbCircle
 10
8.3300533839
 20
6.7651345234
 30
0.0
 40
0.7159368374360795
100
AcDbArc
 50
122.4284165176
 51
159.1472991275
  0
SPLINE
  5
2FC
330
1F
100
AcDbEntity
  8
0
  6
CONTINUOUS
 62
     7
100
AcDbSpline
210
0.0
220
0.0
230
1.0
 70
     8
 71
     3
 72
     8
 73
     4
 74
     0
 42
0.00000001
 43
0.00000001
 40
0.0
 40
0.0
 40
0.0
 40
0.0
 40
0.0006175109583466
 40
0.0006175109583466
 40
0.0006175109583466
 40
0.0006175109583466
 10
7.660681756820552
 20
7.017557551225602
 30
0.0
 10
7.661766927288552
 20
7.016931641167965
 30
0.0
 10
7.662855826478511
 20
7.016303578280154
 30
0.0
 10
7.663948071225586
 20
7.015673583787325
 30
0.0
  0
SPLINE
  5
2FD
330
1F
100
AcDbEntity
  8
0
  6
CONTINUOUS
 62
     7
100
AcDbSpline
210
0.0
220
0.0
230
1.0
 70
     8
 71
     3
 72
     8
 73
     4
 74
     0
 42
0.00000001
 43
0.00000001
 40
0.0
 40
0.0
 40
0.0
 40
0.0
 40
0.0006175109583466
 40
0.0006175109583466
 40
0.0006175109583466
 40
0.0006175109583466
 10
7.739558497504091
 20
6.972022978059638
 30
0.0
 10
7.74064366797209
 20
6.971397068002
 30
0.0
 10
7.741732567162049
 20
6.97076900511419
 30
0.0
 10
7.742824811909125
 20
6.97013901062136
 30
0.0
  0
ARC
  5
2FE
330
1F
100
AcDbEntity
  8
0
  6
CONTINUOUS
 62
     7
100
AcDbCircle
 10
8.3116157644
 20
6.7325906314
 30
0.0
 40
0.6207456971850214
100
AcDbArc
 50
157.2813295089
 51
178.8261953765
  0
LINE
  5
2FF
330
1F
100
AcDbEntity
  8
0
  6
CONTINUOUS
 62
     7
100
AcDbLine
 10
8.5726530253
 20
7.1762818313
 30
0.0
 11
8.5717464063
 21
7.1714598331
 31
0.0
  0
LINE
  5
300
330
1F
100
AcDbEntity
  8
0
  6
CONTINUOUS
 62
     7
100
AcDbLine
 10
7.7395584975
 20
6.9720229781
 30
0.0
 11
7.6606817568
 21
7.0175575512
 31
0.0
  0
LINE
  5
301
330
1F
100
AcDbEntity
  8
0
  6
CONTINUOUS
 62
     7
100
AcDbLine
 10
7.6658025838
 20
6.5913404879
 30
0.0
 11
7.6640353192
 21
6.5977096043
 31
0.0
  0
LINE
  5
302
330
1F
100
AcDbEntity
  8
0
  6
CONTINUOUS
 62
     7
100
AcDbLine
 10
8.2841619827
 20
6.762823517
 30
0.0
 11
8.2841556279
 21
6.7635006935
 31
0.0
  0
LINE
  5
303
330
1F
100
AcDbEntity
  8
0
  6
CONTINUOUS
 62
     7
100
AcDbLine
 10
8.4326052627
 20
6.7947340403
 30
0.0
 11
8.3777157415
 21
6.8032245587
 31
0.0
  0
LINE
  5
304
330
1F
100
AcDbEntity
  8
0
  6
CONTINUOUS
 62
     7
100
AcDbLine
 10
8.3777157415
 20
6.8032245587
 30
0.0
 11
8.3375338232
 21
6.780028031
 31
0.0
  0
LINE
  5
305
330
1F
100
AcDbEntity
  8
0
  6
CONTINUOUS
 62
     7
100
AcDbLine
 10
8.3375338232
 20
6.780028031
 30
0.0
 11
8.352241426
 21
6.7483409849
 31
0.0
  0
LINE
  5
306
330
1F
100
AcDbEntity
  8
0
  6
CONTINUOUS
 62
     7
100
AcDbLine
 10
8.352241426
 20
6.7483409849
 30
0.0
 11
8.4071309473
 21
6.7398504664
 31
0.0
  0
LINE
  5
307
330
1F
100
AcDbEntity
  8
0
  6
CONTINUOUS
 62
     7
100
AcDbLine
 10
8.4071309473
 20
6.7398504664
 30
0.0
 11
8.4473128656
 21
6.7630469941
 31
0.0
  0
LINE
  5
308
330
1F
100
AcDbEntity
  8
0
  6
CONTINUOUS
 62
     7
100
AcDbLine
 10
8.4473128656
 20
6.7630469941
 30
0.0
 11
8.4326052627
 21
6.7947340403
 31
0.0
  0
LINE
  5
309
330
1F
100
AcDbEntity
  8
0
  6
CONTINUOUS
 62
     7
100
AcDbLine
 10
8.4326052627
 20
6.7545564757
 30
0.0
 11
8.4326052627
 21
6.7947340403
 31
0.0
  0
LINE
  5
30A
330
1F
100
AcDbEntity
  8
0
  6
CONTINUOUS
 62
     7
100
AcDbLine
 10
8.3777157415
 20
6.7444005215
 30
0.0
 11
8.3777157415
 21
6.8032245587
 31
0.0
  0
POLYLINE
  5
30B
330
1F
100
AcDbEntity
  8
0
  6
CONTINUOUS
 62
     7
100
AcDb2dPolyline
 66
     1
 10
0.0
 20
0.0
 30
0.0
  0
VERTEX
  5
598
330
30B
100
AcDbEntity
  8
0
  6
CONTINUOUS
 62
     7
100
AcDbVertex
100
AcDb2dVertex
 10
8.1990940703
 20
7.4057105941
 30
0.0
  0
VERTEX
  5
599
330
30B
100
AcDbEntity
  8
0
  6
CONTINUOUS
 62
     7
100
AcDbVertex
100
AcDb2dVertex
 10
8.1905954712
 20
7.4108315417
 30
0.0
  0
VERTEX
  5
59A
330
30B
100
AcDbEntity
  8
0
  6
CONTINUOUS
 62
     7
100
AcDbVertex
100
AcDb2dVertex
 10
8.1769469333
 20
7.417689228
 30
0.0
  0
VERTEX
  5
59B
330
30B
100
AcDbEntity
  8
0
  6
CONTINUOUS
 62
     7
100
AcDbVertex
100
AcDb2dVertex
 10
8.1626330628
 20
7.4232955927
 30
0.0
  0
VERTEX
  5
59C
330
30B
100
AcDbEntity
  8
0
  6
CONTINUOUS
 62
     7
100
AcDbVertex
100
AcDb2dVertex
 10
8.1476951303
 20
7.4276344714
 30
0.0
  0
VERTEX
  5
59D
330
30B
100
AcDbEntity
  8
0
  6
CONTINUOUS
 62
     7
100
AcDbVertex
100
AcDb2dVertex
 10
8.1321762057
 20
7.4306933539
 30
0.0
  0
VERTEX
  5
59E
330
30B
100
AcDbEntity
  8
0
  6
CONTINUOUS
 62
     7
100
AcDbVertex
100
AcDb2dVertex
 10
8.1161210341
 20
7.4324634207
 30
0.0
  0
VERTEX
  5
59F
330
30B
100
AcDbEntity
  8
0
  6
CONTINUOUS
 62
     7
100
AcDbVertex
100
AcDb2dVertex
 10
8.0995759068
 20
7.4329395681
 30
0.0
  0
VERTEX
  5
5A0
330
30B
100
AcDbEntity
  8
0
  6
CONTINUOUS
 62
     7
100
AcDbVertex
100
AcDb2dVertex
 10
8.0825885275
 20
7.4321204234
 30
0.0
  0
VERTEX
  5
5A1
330
30B
100
AcDbEntity
  8
0
  6
CONTINUOUS
 62
     7
100
AcDbVertex
100
AcDb2dVertex
 10
8.0652078754
 20
7.4300083483
 30
0.0
  0
VERTEX
  5
5A2
330
30B
100
AcDbEntity
  8
0
  6
CONTINUOUS
 62
     7
100
AcDbVertex
100
AcDb2dVertex
 10
8.0474840632
 20
7.4266094325
 30
0.0
  0
VERTEX
  5
5A3
330
30B
100
AcDbEntity
  8
0
  6
CONTINUOUS
 62
     7
100
AcDbVertex
100
AcDb2dVertex
 10
8.0294681935
 20
7.421933476
 30
0.0
  0
VERTEX
  5
5A4
330
30B
100
AcDbEntity
  8
0
  6
CONTINUOUS
 62
     7
100
AcDbVertex
100
AcDb2dVertex
 10
8.0112122105
 20
7.4159939607
 30
0.0
  0
VERTEX
  5
5A5
330
30B
100
AcDbEntity
  8
0
  6
CONTINUOUS
 62
     7
100
AcDbVertex
100
AcDb2dVertex
 10
7.992768751
 20
7.4088080119
 30
0.0
  0
VERTEX
  5
5A6
330
30B
100
AcDbEntity
  8
0
  6
CONTINUOUS
 62
     7
100
AcDbVertex
100
AcDb2dVertex
 10
7.9741909924
 20
7.4003963484
 30
0.0
  0
VERTEX
  5
5A7
330
30B
100
AcDbEntity
  8
0
  6
CONTINUOUS
 62
     7
100
AcDbVertex
100
AcDb2dVertex
 10
7.9555324989
 20
7.3907832232
 30
0.0
  0
VERTEX
  5
5A8
330
30B
100
AcDbEntity
  8
0
  6
CONTINUOUS
 62
     7
100
AcDbVertex
100
AcDb2dVertex
 10
7.9368470681
 20
7.3799963536
 30
0.0
  0
VERTEX
  5
5A9
330
30B
100
AcDbEntity
  8
0
  6
CONTINUOUS
 62
     7
100
AcDbVertex
100
AcDb2dVertex
 10
7.9181885746
 20
7.3680668408
 30
0.0
  0
VERTEX
  5
5AA
330
30B
100
AcDbEntity
  8
0
  6
CONTINUOUS
 62
     7
100
AcDbVertex
100
AcDb2dVertex
 10
7.899610816
 20
7.3550290807
 30
0.0
  0
VERTEX
  5
5AB
330
30B
100
AcDbEntity
  8
0
  6
CONTINUOUS
 62
     7
100
AcDbVertex
100
AcDb2dVertex
 10
7.8811673565
 20
7.3409206645
 30
0.0
  0
VERTEX
  5
5AC
330
30B
100
AcDbEntity
  8
0
  6
CONTINUOUS
 62
     7
100
AcDbVertex
100
AcDb2dVertex
 10
7.8629113735
 20
7.3257822705
 30
0.0
  0
VERTEX
  5
5AD
330
30B
100
AcDbEntity
  8
0
  6
CONTINUOUS
 62
     7
100
AcDbVertex
100
AcDb2dVertex
 10
7.8448955038
 20
7.3096575465
 30
0.0
  0
VERTEX
  5
5AE
330
30B
100
AcDbEntity
  8
0
  6
CONTINUOUS
 62
     7
100
AcDbVertex
100
AcDb2dVertex
 10
7.8271716916
 20
7.2925929844
 30
0.0
  0
VERTEX
  5
5AF
330
30B
100
AcDbEntity
  8
0
  6
CONTINUOUS
 62
     7
100
AcDbVertex
100
AcDb2dVertex
 10
7.8097910395
 20
7.2746377857
 30
0.0
  0
VERTEX
  5
5B0
330
30B
100
AcDbEntity
  8
0
  6
CONTINUOUS
 62
     7
100
AcDbVertex
100
AcDb2dVertex
 10
7.7928036602
 20
7.2558437198
 30
0.0
  0
VERTEX
  5
5B1
330
30B
100
AcDbEntity
  8
0
  6
CONTINUOUS
 62
     7
100
AcDbVertex
100
AcDb2dVertex
 10
7.7762585329
 20
7.2362649749
 30
0.0
  0
VERTEX
  5
5B2
330
30B
100
AcDbEntity
  8
0
  6
CONTINUOUS
 62
     7
100
AcDbVertex
100
AcDb2dVertex
 10
7.7602033613
 20
7.2159580016
 30
0.0
  0
VERTEX
  5
5B3
330
30B
100
AcDbEntity
  8
0
  6
CONTINUOUS
 62
     7
100
AcDbVertex
100
AcDb2dVertex
 10
7.7446844367
 20
7.1949813502
 30
0.0
  0
VERTEX
  5
5B4
330
30B
100
AcDbEntity
  8
0
  6
CONTINUOUS
 62
     7
100
AcDbVertex
100
AcDb2dVertex
 10
7.7297465042
 20
7.1733955017
 30
0.0
  0
VERTEX
  5
5B5
330
30B
100
AcDbEntity
  8
0
  6
CONTINUOUS
 62
     7
100
AcDbVertex
100
AcDb2dVertex
 10
7.7154326337
 20
7.1512626938
 30
0.0
  0
VERTEX
  5
5B6
330
30B
100
AcDbEntity
  8
0
  6
CONTINUOUS
 62
     7
100
AcDbVertex
100
AcDb2dVertex
 10
7.7017840958
 20
7.1286467412
 30
0.0
  0
VERTEX
  5
5B7
330
30B
100
AcDbEntity
  8
0
  6
CONTINUOUS
 62
     7
100
AcDbVertex
100
AcDb2dVertex
 10
7.6888402428
 20
7.1056128513
 30
0.0
  0
VERTEX
  5
5B8
330
30B
100
AcDbEntity
  8
0
  6
CONTINUOUS
 62
     7
100
AcDbVertex
100
AcDb2dVertex
 10
7.6766383951
 20
7.0822274369
 30
0.0
  0
VERTEX
  5
5B9
330
30B
100
AcDbEntity
  8
0
  6
CONTINUOUS
 62
     7
100
AcDbVertex
100
AcDb2dVertex
 10
7.6652137338
 20
7.0585579243
 30
0.0
  0
VERTEX
  5
5BA
330
30B
100
AcDbEntity
  8
0
  6
CONTINUOUS
 62
     7
100
AcDbVertex
100
AcDb2dVertex
 10
7.6545991993
 20
7.0346725586
 30
0.0
  0
VERTEX
  5
5BB
330
30B
100
AcDbEntity
  8
0
  6
CONTINUOUS
 62
     7
100
AcDbVertex
100
AcDb2dVertex
 10
7.6448253959
 20
7.0106402077
 30
0.0
  0
SEQEND
  5
5BC
330
30B
100
AcDbEntity
  8
0
  6
CONTINUOUS
 62
     7
  0
LINE
  5
30C
330
1F
100
AcDbEntity
  8
0
  6
CONTINUOUS
 62
     7
100
AcDbLine
 10
7.6448253959
 20
7.0106402077
 30
0.0
 11
7.7097827117
 21
6.9731411475
 31
0.0
  0
POLYLINE
  5
30D
330
1F
100
AcDbEntity
  8
0
  6
CONTINUOUS
 62
     7
100
AcDb2dPolyline
 66
     1
 10
0.0
 20
0.0
 30
0.0
  0
VERTEX
  5
5BD
330
30D
100
AcDbEntity
  8
0
  6
CONTINUOUS
 62
     7
100
AcDbVertex
100
AcDb2dVertex
 10
7.7097827117
 20
6.9731411475
 30
0.0
  0
VERTEX
  5
5BE
330
30D
100
AcDbEntity
  8
0
  6
CONTINUOUS
 62
     7
100
AcDbVertex
100
AcDb2dVertex
 10
7.7006554543
 20
6.9483962126
 30
0.0
  0
VERTEX
  5
5BF
330
30D
100
AcDbEntity
  8
0
  6
CONTINUOUS
 62
     7
100
AcDbVertex
100
AcDb2dVertex
 10
7.6924711499
 20
6.9236445916
 30
0.0
  0
VERTEX
  5
5C0
330
30D
100
AcDbEntity
  8
0
  6
CONTINUOUS
 62
     7
100
AcDbVertex
100
AcDb2dVertex
 10
7.6852546538
 20
6.8989614543
 30
0.0
  0
VERTEX
  5
5C1
330
30D
100
AcDbEntity
  8
0
  6
CONTINUOUS
 62
     7
100
AcDbVertex
100
AcDb2dVertex
 10
7.6790278824
 20
6.8744217625
 30
0.0
  0
VERTEX
  5
5C2
330
30D
100
AcDbEntity
  8
0
  6
CONTINUOUS
 62
     7
100
AcDbVertex
100
AcDb2dVertex
 10
7.6738097461
 20
6.8501000427
 30
0.0
  0
VERTEX
  5
5C3
330
30D
100
AcDbEntity
  8
0
  6
CONTINUOUS
 62
     7
100
AcDbVertex
100
AcDb2dVertex
 10
7.6696160923
 20
6.8260701589
 30
0.0
  0
VERTEX
  5
5C4
330
30D
100
AcDbEntity
  8
0
  6
CONTINUOUS
 62
     7
100
AcDbVertex
100
AcDb2dVertex
 10
7.666459657
 20
6.8024050892
 30
0.0
  0
VERTEX
  5
5C5
330
30D
100
AcDbEntity
  8
0
  6
CONTINUOUS
 62
     7
100
AcDbVertex
100
AcDb2dVertex
 10
7.664350026
 20
6.7791767036
 30
0.0
  0
VERTEX
  5
5C6
330
30D
100
AcDbEntity
  8
0
  6
CONTINUOUS
 62
     7
100
AcDbVertex
100
AcDb2dVertex
 10
7.6632936064
 20
6.756455546
 30
0.0
  0
VERTEX
  5
5C7
330
30D
100
AcDbEntity
  8
0
  6
CONTINUOUS
 62
     7
100
AcDbVertex
100
AcDb2dVertex
 10
7.6632936064
 20
6.7343106197
 30
0.0
  0
VERTEX
  5
5C8
330
30D
100
AcDbEntity
  8
0
  6
CONTINUOUS
 62
     7
100
AcDbVertex
100
AcDb2dVertex
 10
7.664350026
 20
6.7128091783
 30
0.0
  0
VERTEX
  5
5C9
330
30D
100
AcDbEntity
  8
0
  6
CONTINUOUS
 62
     7
100
AcDbVertex
100
AcDb2dVertex
 10
7.666459657
 20
6.6920165207
 30
0.0
  0
VERTEX
  5
5CA
330
30D
100
AcDbEntity
  8
0
  6
CONTINUOUS
 62
     7
100
AcDbVertex
100
AcDb2dVertex
 10
7.6696160923
 20
6.6719957937
 30
0.0
  0
VERTEX
  5
5CB
330
30D
100
AcDbEntity
  8
0
  6
CONTINUOUS
 62
     7
100
AcDbVertex
100
AcDb2dVertex
 10
7.6738097461
 20
6.6528077996
 30
0.0
  0
VERTEX
  5
5CC
330
30D
100
AcDbEntity
  8
0
  6
CONTINUOUS
 62
     7
100
AcDbVertex
100
AcDb2dVertex
 10
7.6790278824
 20
6.6345108116
 30
0.0
  0
VERTEX
  5
5CD
330
30D
100
AcDbEntity
  8
0
  6
CONTINUOUS
 62
     7
100
AcDbVertex
100
AcDb2dVertex
 10
7.6852546538
 20
6.6171603972
 30
0.0
  0
VERTEX
  5
5CE
330
30D
100
AcDbEntity
  8
0
  6
CONTINUOUS
 62
     7
100
AcDbVertex
100
AcDb2dVertex
 10
7.6924711499
 20
6.6008092489
 30
0.0
  0
VERTEX
  5
5CF
330
30D
100
AcDbEntity
  8
0
  6
CONTINUOUS
 62
     7
100
AcDbVertex
100
AcDb2dVertex
 10
7.7006554543
 20
6.5855070246
 30
0.0
  0
VERTEX
  5
5D0
330
30D
100
AcDbEntity
  8
0
  6
CONTINUOUS
 62
     7
100
AcDbVertex
100
AcDb2dVertex
 10
7.7097827117
 20
6.5713001968
 30
0.0
  0
SEQEND
  5
5D1
330
30D
100
AcDbEntity
  8
0
  6
CONTINUOUS
 62
     7
  0
LINE
  5
30E
330
1F
100
AcDbEntity
  8
0
  6
CONTINUOUS
 62
     7
100
AcDbLine
 10
7.7097827117
 20
6.5713001968
 30
0.0
 11
7.630905971
 21
6.6168347699
 31
0.0
  0
ARC
  5
30F
330
1F
100
AcDbEntity
  8
0
  6
CONTINUOUS
 62
     7
100
AcDbCircle
 10
7.7724305241
 20
6.7141655929
 30
0.0
 40
0.1717628837587938
100
AcDbArc
 50
214.5175095551
 51
245.2574886422
  0
POLYLINE
  5
310
330
1F
100
AcDbEntity
  8
0
  6
CONTINUOUS
 62
     7
100
AcDb2dPolyline
 66
     1
 10
0.0
 20
0.0
 30
0.0
  0
VERTEX
  5
5D2
330
310
100
AcDbEntity
  8
0
  6
CONTINUOUS
 62
     7
100
AcDbVertex
100
AcDb2dVertex
 10
7.5499950869
 20
6.9258805224
 30
0.0
  0
VERTEX
  5
5D3
330
310
100
AcDbEntity
  8
0
  6
CONTINUOUS
 62
     7
100
AcDbVertex
100
AcDb2dVertex
 10
7.5457323469
 20
6.9023904784
 30
0.0
  0
VERTEX
  5
5D4
330
310
100
AcDbEntity
  8
0
  6
CONTINUOUS
 62
     7
100
AcDbVertex
100
AcDb2dVertex
 10
7.5424541845
 20
6.8792347223
 30
0.0
  0
VERTEX
  5
5D5
330
310
100
AcDbEntity
  8
0
  6
CONTINUOUS
 62
     7
100
AcDbVertex
100
AcDb2dVertex
 10
7.5401700694
 20
6.8564801443
 30
0.0
  0
VERTEX
  5
5D6
330
310
100
AcDbEntity
  8
0
  6
CONTINUOUS
 62
     7
100
AcDbVertex
100
AcDb2dVertex
 10
7.5388865998
 20
6.834192476
 30
0.0
  0
VERTEX
  5
5D7
330
310
100
AcDbEntity
  8
0
  6
CONTINUOUS
 62
     7
100
AcDbVertex
100
AcDb2dVertex
 10
7.5386074833
 20
6.8124361
 30
0.0
  0
VERTEX
  5
5D8
330
310
100
AcDbEntity
  8
0
  6
CONTINUOUS
 62
     7
100
AcDbVertex
100
AcDb2dVertex
 10
7.5393335261
 20
6.7912738644
 30
0.0
  0
VERTEX
  5
5D9
330
310
100
AcDbEntity
  8
0
  6
CONTINUOUS
 62
     7
100
AcDbVertex
100
AcDb2dVertex
 10
7.5410626308
 20
6.7707669008
 30
0.0
  0
VERTEX
  5
5DA
330
310
100
AcDbEntity
  8
0
  6
CONTINUOUS
 62
     7
100
AcDbVertex
100
AcDb2dVertex
 10
7.5437898027
 20
6.7509744479
 30
0.0
  0
VERTEX
  5
5DB
330
310
100
AcDbEntity
  8
0
  6
CONTINUOUS
 62
     7
100
AcDbVertex
100
AcDb2dVertex
 10
7.5475071637
 20
6.7319536806
 30
0.0
  0
VERTEX
  5
5DC
330
310
100
AcDbEntity
  8
0
  6
CONTINUOUS
 62
     7
100
AcDbVertex
100
AcDb2dVertex
 10
7.5522039754
 20
6.7137595443
 30
0.0
  0
VERTEX
  5
5DD
330
310
100
AcDbEntity
  8
0
  6
CONTINUOUS
 62
     7
100
AcDbVertex
100
AcDb2dVertex
 10
7.5578666701
 20
6.6964445967
 30
0.0
  0
VERTEX
  5
5DE
330
310
100
AcDbEntity
  8
0
  6
CONTINUOUS
 62
     7
100
AcDbVertex
100
AcDb2dVertex
 10
7.5644788897
 20
6.6800588558
 30
0.0
  0
VERTEX
  5
5DF
330
310
100
AcDbEntity
  8
0
  6
CONTINUOUS
 62
     7
100
AcDbVertex
100
AcDb2dVertex
 10
7.5720215337
 20
6.6646496554
 30
0.0
  0
VERTEX
  5
5E0
330
310
100
AcDbEntity
  8
0
  6
CONTINUOUS
 62
     7
100
AcDbVertex
100
AcDb2dVertex
 10
7.5804728132
 20
6.6502615081
 30
0.0
  0
VERTEX
  5
5E1
330
310
100
AcDbEntity
  8
0
  6
CONTINUOUS
 62
     7
100
AcDbVertex
100
AcDb2dVertex
 10
7.5898083152
 20
6.6369359773
 30
0.0
  0
VERTEX
  5
5E2
330
310
100
AcDbEntity
  8
0
  6
CONTINUOUS
 62
     7
100
AcDbVertex
100
AcDb2dVertex
 10
7.6000010718
 20
6.6247115565
 30
0.0
  0
VERTEX
  5
5E3
330
310
100
AcDbEntity
  8
0
  6
CONTINUOUS
 62
     7
100
AcDbVertex
100
AcDb2dVertex
 10
7.6110216393
 20
6.6136235588
 30
0.0
  0
VERTEX
  5
5E4
330
310
100
AcDbEntity
  8
0
  6
CONTINUOUS
 62
     7
100
AcDbVertex
100
AcDb2dVertex
 10
7.6228381823
 20
6.603704014
 30
0.0
  0
VERTEX
  5
5E5
330
310
100
AcDbEntity
  8
0
  6
CONTINUOUS
 62
     7
100
AcDbVertex
100
AcDb2dVertex
 10
7.6354165661
 20
6.594981577
 30
0.0
  0
VERTEX
  5
5E6
330
310
100
AcDbEntity
  8
0
  6
CONTINUOUS
 62
     7
100
AcDbVertex
100
AcDb2dVertex
 10
7.6405252519
 20
6.5919073217
 30
0.0
  0
SEQEND
  5
5E7
330
310
100
AcDbEntity
  8
0
  6
CONTINUOUS
 62
     7
  0
LINE
  5
311
330
1F
100
AcDbEntity
  8
0
  6
CONTINUOUS
 62
     7
100
AcDbLine
 10
7.5499950869
 20
6.9258805224
 30
0.0
 11
7.5360756621
 21
6.9339160353
 31
0.0
  0
POLYLINE
  5
312
330
1F
100
AcDbEntity
  8
0
  6
CONTINUOUS
 62
     7
100
AcDb2dPolyline
 66
     1
 10
0.0
 20
0.0
 30
0.0
  0
VERTEX
  5
5E8
330
312
100
AcDbEntity
  8
0
  6
CONTINUOUS
 62
     7
100
AcDbVertex
100
AcDb2dVertex
 10
7.5360756621
 20
6.9339160353
 30
0.0
  0
VERTEX
  5
5E9
330
312
100
AcDbEntity
  8
0
  6
CONTINUOUS
 62
     7
100
AcDbVertex
100
AcDb2dVertex
 10
7.5317413239
 20
6.9099820638
 30
0.0
  0
VERTEX
  5
5EA
330
312
100
AcDbEntity
  8
0
  6
CONTINUOUS
 62
     7
100
AcDbVertex
100
AcDb2dVertex
 10
7.528429593
 20
6.8863965508
 30
0.0
  0
VERTEX
  5
5EB
330
312
100
AcDbEntity
  8
0
  6
CONTINUOUS
 62
     7
100
AcDbVertex
100
AcDb2dVertex
 10
7.5261504035
 20
6.8632302448
 30
0.0
  0
VERTEX
  5
5EC
330
312
100
AcDbEntity
  8
0
  6
CONTINUOUS
 62
     7
100
AcDbVertex
100
AcDb2dVertex
 10
7.5249105922
 20
6.8405526371
 30
0.0
  0
VERTEX
  5
5ED
330
312
100
AcDbEntity
  8
0
  6
CONTINUOUS
 62
     7
100
AcDbVertex
100
AcDb2dVertex
 10
7.5247138782
 20
6.8184317527
 30
0.0
  0
VERTEX
  5
5EE
330
312
100
AcDbEntity
  8
0
  6
CONTINUOUS
 62
     7
100
AcDbVertex
100
AcDb2dVertex
 10
7.5255608514
 20
6.7969339468
 30
0.0
  0
VERTEX
  5
5EF
330
312
100
AcDbEntity
  8
0
  6
CONTINUOUS
 62
     7
100
AcDbVertex
100
AcDb2dVertex
 10
7.5274489714
 20
6.7761237056
 30
0.0
  0
VERTEX
  5
5F0
330
312
100
AcDbEntity
  8
0
  6
CONTINUOUS
 62
     7
100
AcDbVertex
100
AcDb2dVertex
 10
7.5303725742
 20
6.7560634528
 30
0.0
  0
VERTEX
  5
5F1
330
312
100
AcDbEntity
  8
0
  6
CONTINUOUS
 62
     7
100
AcDbVertex
100
AcDb2dVertex
 10
7.5343228902
 20
6.7368133623
 30
0.0
  0
VERTEX
  5
5F2
330
312
100
AcDbEntity
  8
0
  6
CONTINUOUS
 62
     7
100
AcDbVertex
100
AcDb2dVertex
 10
7.5392880697
 20
6.7184311779
 30
0.0
  0
VERTEX
  5
5F3
330
312
100
AcDbEntity
  8
0
  6
CONTINUOUS
 62
     7
100
AcDbVertex
100
AcDb2dVertex
 10
7.5452532188
 20
6.7009720401
 30
0.0
  0
VERTEX
  5
5F4
330
312
100
AcDbEntity
  8
0
  6
CONTINUOUS
 62
     7
100
AcDbVertex
100
AcDb2dVertex
 10
7.5522004442
 20
6.6844883202
 30
0.0
  0
VERTEX
  5
5F5
330
312
100
AcDbEntity
  8
0
  6
CONTINUOUS
 62
     7
100
AcDbVertex
100
AcDb2dVertex
 10
7.5601089064
 20
6.6690294639
 30
0.0
  0
VERTEX
  5
5F6
330
312
100
AcDbEntity
  8
0
  6
CONTINUOUS
 62
     7
100
AcDbVertex
100
AcDb2dVertex
 10
7.5689548828
 20
6.6546418425
 30
0.0
  0
VERTEX
  5
5F7
330
312
100
AcDbEntity
  8
0
  6
CONTINUOUS
 62
     7
100
AcDbVertex
100
AcDb2dVertex
 10
7.5787118385
 20
6.641368614
 30
0.0
  0
VERTEX
  5
5F8
330
312
100
AcDbEntity
  8
0
  6
CONTINUOUS
 62
     7
100
AcDbVertex
100
AcDb2dVertex
 10
7.5893505058
 20
6.6292495937
 30
0.0
  0
VERTEX
  5
5F9
330
312
100
AcDbEntity
  8
0
  6
CONTINUOUS
 62
     7
100
AcDbVertex
100
AcDb2dVertex
 10
7.6008389723
 20
6.6183211344
 30
0.0
  0
VERTEX
  5
5FA
330
312
100
AcDbEntity
  8
0
  6
CONTINUOUS
 62
     7
100
AcDbVertex
100
AcDb2dVertex
 10
7.6131427766
 20
6.608616018
 30
0.0
  0
VERTEX
  5
5FB
330
312
100
AcDbEntity
  8
0
  6
CONTINUOUS
 62
     7
100
AcDbVertex
100
AcDb2dVertex
 10
7.6262250113
 20
6.6001633564
 30
0.0
  0
VERTEX
  5
5FC
330
312
100
AcDbEntity
  8
0
  6
CONTINUOUS
 62
     7
100
AcDbVertex
100
AcDb2dVertex
 10
7.6336639604
 20
6.5960955666
 30
0.0
  0
SEQEND
  5
5FD
330
312
100
AcDbEntity
  8
0
  6
CONTINUOUS
 62
     7
  0
POLYLINE
  5
313
330
1F
100
AcDbEntity
  8
0
  6
CONTINUOUS
 62
     7
100
AcDb2dPolyline
 66
     1
 10
0.0
 20
0.0
 30
0.0
  0
VERTEX
  5
5FE
330
313
100
AcDbEntity
  8
0
  6
CONTINUOUS
 62
     7
100
AcDbVertex
100
AcDb2dVertex
 10
7.3985592504
 20
6.7315913212
 30
0.0
  0
VERTEX
  5
5FF
330
313
100
AcDbEntity
  8
0
  6
CONTINUOUS
 62
     7
100
AcDbVertex
100
AcDb2dVertex
 10
7.3884455397
 20
6.7379307804
 30
0.0
  0
VERTEX
  5
600
330
313
100
AcDbEntity
  8
0
  6
CONTINUOUS
 62
     7
100
AcDbVertex
100
AcDb2dVertex
 10
7.3761458326
 20
6.7471365925
 30
0.0
  0
VERTEX
  5
601
330
313
100
AcDbEntity
  8
0
  6
CONTINUOUS
 62
     7
100
AcDbVertex
100
AcDb2dVertex
 10
7.3646235622
 20
6.7575316557
 30
0.0
  0
VERTEX
  5
602
330
313
100
AcDbEntity
  8
0
  6
CONTINUOUS
 62
     7
100
AcDbVertex
100
AcDb2dVertex
 10
7.3539120965
 20
6.7690858664
 30
0.0
  0
VERTEX
  5
603
330
313
100
AcDbEntity
  8
0
  6
CONTINUOUS
 62
     7
100
AcDbVertex
100
AcDb2dVertex
 10
7.3440424553
 20
6.781765764
 30
0.0
  0
VERTEX
  5
604
330
313
100
AcDbEntity
  8
0
  6
CONTINUOUS
 62
     7
100
AcDbVertex
100
AcDb2dVertex
 10
7.3350432207
 20
6.7955346283
 30
0.0
  0
VERTEX
  5
605
330
313
100
AcDbEntity
  8
0
  6
CONTINUOUS
 62
     7
100
AcDbVertex
100
AcDb2dVertex
 10
7.3269404539
 20
6.8103525853
 30
0.0
  0
VERTEX
  5
606
330
313
100
AcDbEntity
  8
0
  6
CONTINUOUS
 62
     7
100
AcDbVertex
100
AcDb2dVertex
 10
7.3197576202
 20
6.8261767228
 30
0.0
  0
VERTEX
  5
607
330
313
100
AcDbEntity
  8
0
  6
CONTINUOUS
 62
     7
100
AcDbVertex
100
AcDb2dVertex
 10
7.3135155208
 20
6.8429612151
 30
0.0
  0
VERTEX
  5
608
330
313
100
AcDbEntity
  8
0
  6
CONTINUOUS
 62
     7
100
AcDbVertex
100
AcDb2dVertex
 10
7.3082322324
 20
6.8606574549
 30
0.0
  0
VERTEX
  5
609
330
313
100
AcDbEntity
  8
0
  6
CONTINUOUS
 62
     7
100
AcDbVertex
100
AcDb2dVertex
 10
7.3039230553
 20
6.8792141948
 30
0.0
  0
VERTEX
  5
60A
330
313
100
AcDbEntity
  8
0
  6
CONTINUOUS
 62
     7
100
AcDbVertex
100
AcDb2dVertex
 10
7.3006004685
 20
6.8985776955
 30
0.0
  0
VERTEX
  5
60B
330
313
100
AcDbEntity
  8
0
  6
CONTINUOUS
 62
     7
100
AcDbVertex
100
AcDb2dVertex
 10
7.2982740941
 20
6.9186918812
 30
0.0
  0
VERTEX
  5
60C
330
313
100
AcDbEntity
  8
0
  6
CONTINUOUS
 62
     7
100
AcDbVertex
100
AcDb2dVertex
 10
7.2969506692
 20
6.9394985021
 30
0.0
  0
VERTEX
  5
60D
330
313
100
AcDbEntity
  8
0
  6
CONTINUOUS
 62
     7
100
AcDbVertex
100
AcDb2dVertex
 10
7.2966340264
 20
6.9609373033
 30
0.0
  0
VERTEX
  5
60E
330
313
100
AcDbEntity
  8
0
  6
CONTINUOUS
 62
     7
100
AcDbVertex
100
AcDb2dVertex
 10
7.2973250826
 20
6.9829461991
 30
0.0
  0
VERTEX
  5
60F
330
313
100
AcDbEntity
  8
0
  6
CONTINUOUS
 62
     7
100
AcDbVertex
100
AcDb2dVertex
 10
7.2990218366
 20
7.0054614528
 30
0.0
  0
VERTEX
  5
610
330
313
100
AcDbEntity
  8
0
  6
CONTINUOUS
 62
     7
100
AcDbVertex
100
AcDb2dVertex
 10
7.3017193747
 20
7.0284178612
 30
0.0
  0
VERTEX
  5
611
330
313
100
AcDbEntity
  8
0
  6
CONTINUOUS
 62
     7
100
AcDbVertex
100
AcDb2dVertex
 10
7.3054098848
 20
7.0517489439
 30
0.0
  0
VERTEX
  5
612
330
313
100
AcDbEntity
  8
0
  6
CONTINUOUS
 62
     7
100
AcDbVertex
100
AcDb2dVertex
 10
7.3100826796
 20
7.075387135
 30
0.0
  0
VERTEX
  5
613
330
313
100
AcDbEntity
  8
0
  6
CONTINUOUS
 62
     7
100
AcDbVertex
100
AcDb2dVertex
 10
7.3157242268
 20
7.0992639795
 30
0.0
  0
VERTEX
  5
614
330
313
100
AcDbEntity
  8
0
  6
CONTINUOUS
 62
     7
100
AcDbVertex
100
AcDb2dVertex
 10
7.3223181887
 20
7.1233103313
 30
0.0
  0
VERTEX
  5
615
330
313
100
AcDbEntity
  8
0
  6
CONTINUOUS
 62
     7
100
AcDbVertex
100
AcDb2dVertex
 10
7.3298454696
 20
7.1474565533
 30
0.0
  0
VERTEX
  5
616
330
313
100
AcDbEntity
  8
0
  6
CONTINUOUS
 62
     7
100
AcDbVertex
100
AcDb2dVertex
 10
7.3382842708
 20
7.1716327192
 30
0.0
  0
VERTEX
  5
617
330
313
100
AcDbEntity
  8
0
  6
CONTINUOUS
 62
     7
100
AcDbVertex
100
AcDb2dVertex
 10
7.3476101539
 20
7.1957688159
 30
0.0
  0
VERTEX
  5
618
330
313
100
AcDbEntity
  8
0
  6
CONTINUOUS
 62
     7
100
AcDbVertex
100
AcDb2dVertex
 10
7.3577961117
 20
7.2197949466
 30
0.0
  0
VERTEX
  5
619
330
313
100
AcDbEntity
  8
0
  6
CONTINUOUS
 62
     7
100
AcDbVertex
100
AcDb2dVertex
 10
7.3688126462
 20
7.2436415327
 30
0.0
  0
VERTEX
  5
61A
330
313
100
AcDbEntity
  8
0
  6
CONTINUOUS
 62
     7
100
AcDbVertex
100
AcDb2dVertex
 10
7.3806278539
 20
7.2672395157
 30
0.0
  0
VERTEX
  5
61B
330
313
100
AcDbEntity
  8
0
  6
CONTINUOUS
 62
     7
100
AcDbVertex
100
AcDb2dVertex
 10
7.3932075186
 20
7.290520557
 30
0.0
  0
VERTEX
  5
61C
330
313
100
AcDbEntity
  8
0
  6
CONTINUOUS
 62
     7
100
AcDbVertex
100
AcDb2dVertex
 10
7.4065152102
 20
7.3134172357
 30
0.0
  0
VERTEX
  5
61D
330
313
100
AcDbEntity
  8
0
  6
CONTINUOUS
 62
     7
100
AcDbVertex
100
AcDb2dVertex
 10
7.4205123903
 20
7.3358632443
 30
0.0
  0
VERTEX
  5
61E
330
313
100
AcDbEntity
  8
0
  6
CONTINUOUS
 62
     7
100
AcDbVertex
100
AcDb2dVertex
 10
7.4351585237
 20
7.3577935802
 30
0.0
  0
VERTEX
  5
61F
330
313
100
AcDbEntity
  8
0
  6
CONTINUOUS
 62
     7
100
AcDbVertex
100
AcDb2dVertex
 10
7.4504111959
 20
7.3791447341
 30
0.0
  0
VERTEX
  5
620
330
313
100
AcDbEntity
  8
0
  6
CONTINUOUS
 62
     7
100
AcDbVertex
100
AcDb2dVertex
 10
7.466226236
 20
7.3998548743
 30
0.0
  0
VERTEX
  5
621
330
313
100
AcDbEntity
  8
0
  6
CONTINUOUS
 62
     7
100
AcDbVertex
100
AcDb2dVertex
 10
7.4825578444
 20
7.419864025
 30
0.0
  0
VERTEX
  5
622
330
313
100
AcDbEntity
  8
0
  6
CONTINUOUS
 62
     7
100
AcDbVertex
100
AcDb2dVertex
 10
7.4993587254
 20
7.4391142409
 30
0.0
  0
VERTEX
  5
623
330
313
100
AcDbEntity
  8
0
  6
CONTINUOUS
 62
     7
100
AcDbVertex
100
AcDb2dVertex
 10
7.5165802246
 20
7.4575497742
 30
0.0
  0
VERTEX
  5
624
330
313
100
AcDbEntity
  8
0
  6
CONTINUOUS
 62
     7
100
AcDbVertex
100
AcDb2dVertex
 10
7.5341724694
 20
7.4751172365
 30
0.0
  0
VERTEX
  5
625
330
313
100
AcDbEntity
  8
0
  6
CONTINUOUS
 62
     7
100
AcDbVertex
100
AcDb2dVertex
 10
7.5520845134
 20
7.4917657533
 30
0.0
  0
VERTEX
  5
626
330
313
100
AcDbEntity
  8
0
  6
CONTINUOUS
 62
     7
100
AcDbVertex
100
AcDb2dVertex
 10
7.5702644843
 20
7.5074471112
 30
0.0
  0
VERTEX
  5
627
330
313
100
AcDbEntity
  8
0
  6
CONTINUOUS
 62
     7
100
AcDbVertex
100
AcDb2dVertex
 10
7.5886597337
 20
7.522115898
 30
0.0
  0
VERTEX
  5
628
330
313
100
AcDbEntity
  8
0
  6
CONTINUOUS
 62
     7
100
AcDbVertex
100
AcDb2dVertex
 10
7.60721699
 20
7.5357296333
 30
0.0
  0
VERTEX
  5
629
330
313
100
AcDbEntity
  8
0
  6
CONTINUOUS
 62
     7
100
AcDbVertex
100
AcDb2dVertex
 10
7.6258825121
 20
7.5482488926
 30
0.0
  0
VERTEX
  5
62A
330
313
100
AcDbEntity
  8
0
  6
CONTINUOUS
 62
     7
100
AcDbVertex
100
AcDb2dVertex
 10
7.6446022456
 20
7.5596374207
 30
0.0
  0
VERTEX
  5
62B
330
313
100
AcDbEntity
  8
0
  6
CONTINUOUS
 62
     7
100
AcDbVertex
100
AcDb2dVertex
 10
7.6633219791
 20
7.5698622369
 30
0.0
  0
VERTEX
  5
62C
330
313
100
AcDbEntity
  8
0
  6
CONTINUOUS
 62
     7
100
AcDbVertex
100
AcDb2dVertex
 10
7.6819875012
 20
7.5788937307
 30
0.0
  0
VERTEX
  5
62D
330
313
100
AcDbEntity
  8
0
  6
CONTINUOUS
 62
     7
100
AcDbVertex
100
AcDb2dVertex
 10
7.7005447575
 20
7.5867057473
 30
0.0
  0
VERTEX
  5
62E
330
313
100
AcDbEntity
  8
0
  6
CONTINUOUS
 62
     7
100
AcDbVertex
100
AcDb2dVertex
 10
7.7189400069
 20
7.5932756635
 30
0.0
  0
VERTEX
  5
62F
330
313
100
AcDbEntity
  8
0
  6
CONTINUOUS
 62
     7
100
AcDbVertex
100
AcDb2dVertex
 10
7.7371199778
 20
7.5985844531
 30
0.0
  0
VERTEX
  5
630
330
313
100
AcDbEntity
  8
0
  6
CONTINUOUS
 62
     7
100
AcDbVertex
100
AcDb2dVertex
 10
7.7550320218
 20
7.6026167422
 30
0.0
  0
VERTEX
  5
631
330
313
100
AcDbEntity
  8
0
  6
CONTINUOUS
 62
     7
100
AcDbVertex
100
AcDb2dVertex
 10
7.7726242666
 20
7.6053608533
 30
0.0
  0
VERTEX
  5
632
330
313
100
AcDbEntity
  8
0
  6
CONTINUOUS
 62
     7
100
AcDbVertex
100
AcDb2dVertex
 10
7.7898457658
 20
7.6068088398
 30
0.0
  0
VERTEX
  5
633
330
313
100
AcDbEntity
  8
0
  6
CONTINUOUS
 62
     7
100
AcDbVertex
100
AcDb2dVertex
 10
7.8066466468
 20
7.6069565083
 30
0.0
  0
VERTEX
  5
634
330
313
100
AcDbEntity
  8
0
  6
CONTINUOUS
 62
     7
100
AcDbVertex
100
AcDb2dVertex
 10
7.8229782552
 20
7.6058034312
 30
0.0
  0
VERTEX
  5
635
330
313
100
AcDbEntity
  8
0
  6
CONTINUOUS
 62
     7
100
AcDbVertex
100
AcDb2dVertex
 10
7.8387932953
 20
7.6033529476
 30
0.0
  0
VERTEX
  5
636
330
313
100
AcDbEntity
  8
0
  6
CONTINUOUS
 62
     7
100
AcDbVertex
100
AcDb2dVertex
 10
7.8540459675
 20
7.5996121542
 30
0.0
  0
VERTEX
  5
637
330
313
100
AcDbEntity
  8
0
  6
CONTINUOUS
 62
     7
100
AcDbVertex
100
AcDb2dVertex
 10
7.8686921009
 20
7.5945918841
 30
0.0
  0
VERTEX
  5
638
330
313
100
AcDbEntity
  8
0
  6
CONTINUOUS
 62
     7
100
AcDbVertex
100
AcDb2dVertex
 10
7.882689281
 20
7.5883066756
 30
0.0
  0
VERTEX
  5
639
330
313
100
AcDbEntity
  8
0
  6
CONTINUOUS
 62
     7
100
AcDbVertex
100
AcDb2dVertex
 10
7.8906452408
 20
7.5840016188
 30
0.0
  0
SEQEND
  5
63A
330
313
100
AcDbEntity
  8
0
  6
CONTINUOUS
 62
     7
  0
SPLINE
  5
314
330
1F
100
AcDbEntity
  8
0
  6
CONTINUOUS
 62
     7
100
AcDbSpline
210
0.0
220
0.0
230
1.0
 70
     8
 71
     3
 72
    19
 73
    15
 74
     0
 42
0.00000001
 43
0.00000001
 40
0.0
 40
0.0
 40
0.0
 40
0.0
 40
0.0694162340365899
 40
0.1408897287843724
 40
0.2102966385496716
 40
0.2816443474087921
 40
0.3525492778198084
 40
0.4252520517789348
 40
0.5014284852865144
 40
0.5793493673125942
 40
0.6656230698126578
 40
0.7536857130544532
 40
0.8787401224025839
 40
1.0
 40
1.0
 40
1.0
 40
1.0
 10
7.418610584922726
 20
6.757716223860596
 30
0.0
 10
7.422616572830179
 20
6.755290911747595
 30
0.0
 10
7.430747272480303
 20
6.750368409532364
 30
0.0
 10
7.443592265723436
 20
6.741143199742057
 30
0.0
 10
7.456652292230538
 20
6.730846196368541
 30
0.0
 10
7.469565188743823
 20
6.719817855787944
 30
0.0
 10
7.482282626858872
 20
6.708309141406795
 30
0.0
 10
7.494677255197475
 20
6.696633085161398
 30
0.0
 10
7.506656658335816
 20
6.685090480484783
 30
0.0
 10
7.518351282596894
 20
6.673783733599762
 30
0.0
 10
7.529467675956534
 20
6.663225841771925
 30
0.0
 10
7.541147212938125
 20
6.652645736251332
 30
0.0
 10
7.552431715456027
 20
6.643285522811196
 30
0.0
 10
7.558613813373516
 20
6.639405209217954
 30
0.0
 10
7.561657243968088
 20
6.637494941010653
 30
0.0
  0
SPLINE
  5
315
330
1F
100
AcDbEntity
  8
0
  6
CONTINUOUS
 62
     7
100
AcDbSpline
210
0.0
220
0.0
230
1.0
 70
     8
 71
     3
 72
    19
 73
    15
 74
     0
 42
0.00000001
 43
0.00000001
 40
0.0
 40
0.0
 40
0.0
 40
0.0
 40
0.0363061019588191
 40
0.107605371968938
 40
0.2212923278009396
 40
0.3379188570963086
 40
0.431416551290739
 40
0.5274380174497413
 40
0.6210502087655719
 40
0.7181963856834853
 40
0.800151167651571
 40
0.88490590862233
 40
0.9419682717666606
 40
1.0
 40
1.0
 40
1.0
 40
1.0
 10
7.408687887212246
 20
6.726119655100377
 30
0.0
 10
7.407017156340323
 20
6.727170905109237
 30
0.0
 10
7.402065382196755
 20
6.73028663888765
 30
0.0
 10
7.393244700516505
 20
6.736686275549323
 30
0.0
 10
7.383091447958169
 20
6.745279387442789
 30
0.0
 10
7.375712462110076
 20
6.753943210295135
 30
0.0
 10
7.372182807136229
 20
6.761127252940895
 30
0.0
 10
7.37210837560441
 20
6.766489376980186
 30
0.0
 10
7.375437922688989
 20
6.770092734043195
 30
0.0
 10
7.381849308696783
 20
6.771280079419054
 30
0.0
 10
7.390742773664385
 20
6.770042961830676
 30
0.0
 10
7.400157457460716
 20
6.766934378924484
 30
0.0
 10
7.409633182305786
 20
6.762695774566935
 30
0.0
 10
7.41560136197679
 20
6.759385367919891
 30
0.0
 10
7.418610584922726
 20
6.757716223860596
 30
0.0
  0
LINE
  5
316
330
1F
100
AcDbEntity
  8
0
  6
CONTINUOUS
 62
     7
100
AcDbLine
 10
7.6610113742
 20
7.0199841741
 30
0.0
 11
7.6448253959
 21
7.0106402077
 31
0.0
  0
LINE
  5
317
330
1F
100
AcDbEntity
  8
0
  6
CONTINUOUS
 62
     7
100
AcDbLine
 10
7.7097827117
 20
6.5713001968
 30
0.0
 11
7.7277027885
 21
6.5720790465
 31
0.0
  0
LINE
  5
318
330
1F
100
AcDbEntity
  8
0
  6
CONTINUOUS
 62
     7
100
AcDbLine
 10
7.7356723977
 20
6.9742663757
 30
0.0
 11
7.7097827117
 21
6.9731411475
 31
0.0
  0
ARC
  5
319
330
1F
100
AcDbEntity
  8
0
  6
CONTINUOUS
 62
     7
100
AcDbCircle
 10
8.0207716337
 20
6.9406385046
 30
0.0
 40
0.7248768363288567
100
AcDbArc
 50
122.5625389086
 51
177.4428376241
  0
LINE
  5
31A
330
1F
100
AcDbEntity
  8
0
  6
CONTINUOUS
 62
     7
100
AcDbLine
 10
7.5393813324
 20
6.6140267061
 30
0.0
 11
7.5400502615
 21
6.6144034435
 31
0.0
  0
LINE
  5
31B
330
1F
100
AcDbEntity
  8
0
  6
CONTINUOUS
 62
     7
100
AcDbLine
 10
7.4441625281
 20
6.701039304
 30
0.0
 11
7.4441625281
 21
6.7405472012
 31
0.0
  0
LINE
  5
31C
330
1F
100
AcDbEntity
  8
0
  6
CONTINUOUS
 62
     7
100
AcDbLine
 10
7.4789610902
 20
6.6577502236
 30
0.0
 11
7.4441625281
 21
6.701039304
 31
0.0
  0
LINE
  5
31D
330
1F
100
AcDbEntity
  8
0
  6
CONTINUOUS
 62
     7
100
AcDbLine
 10
7.5137596522
 20
6.6608617394
 30
0.0
 11
7.4789610902
 21
6.6577502236
 31
0.0
  0
LINE
  5
31E
330
1F
100
AcDbEntity
  8
0
  6
CONTINUOUS
 62
     7
100
AcDbLine
 10
7.5137596522
 20
6.6782386446
 30
0.0
 11
7.5137596522
 21
6.6608617394
 31
0.0
  0
LINE
  5
31F
330
1F
100
AcDbEntity
  8
0
  6
CONTINUOUS
 62
     7
100
AcDbLine
 10
7.5137596522
 20
6.6778390059
 30
0.0
 11
7.4789610902
 21
6.6577502236
 31
0.0
  0
LINE
  5
320
330
1F
100
AcDbEntity
  8
0
  6
CONTINUOUS
 62
     7
100
AcDbLine
 10
7.4722720043
 20
6.7172665591
 30
0.0
 11
7.4441625281
 21
6.701039304
 31
0.0
  0
ARC
  5
321
330
1F
100
AcDbEntity
  8
0
  6
CONTINUOUS
 62
     8
100
AcDbCircle
 10
8.3924739179
 20
6.8654674555
 30
0.0
 40
0.1511146100122329
100
AcDbArc
 50
242.5552402721
 51
296.9993515553
  0
POLYLINE
  5
322
330
1F
100
AcDbEntity
  8
0
  6
CONTINUOUS
 62
     8
100
AcDb2dPolyline
 66
     1
 10
0.0
 20
0.0
 30
0.0
  0
VERTEX
  5
63B
330
322
100
AcDbEntity
  8
0
  6
CONTINUOUS
 62
     8
100
AcDbVertex
100
AcDb2dVertex
 10
8.4897596144
 20
6.7799661093
 30
0.0
  0
VERTEX
  5
63C
330
322
100
AcDbEntity
  8
0
  6
CONTINUOUS
 62
     8
100
AcDbVertex
100
AcDb2dVertex
 10
8.4892363274
 20
6.7817795419
 30
0.0
  0
VERTEX
  5
63D
330
322
100
AcDbEntity
  8
0
  6
CONTINUOUS
 62
     8
100
AcDbVertex
100
AcDb2dVertex
 10
8.4863919336
 20
6.788441534
 30
0.0
  0
VERTEX
  5
63E
330
322
100
AcDbEntity
  8
0
  6
CONTINUOUS
 62
     8
100
AcDbVertex
100
AcDb2dVertex
 10
8.4821772662
 20
6.7948570273
 30
0.0
  0
VERTEX
  5
63F
330
322
100
AcDbEntity
  8
0
  6
CONTINUOUS
 62
     8
100
AcDbVertex
100
AcDb2dVertex
 10
8.4766537846
 20
6.8009324696
 30
0.0
  0
VERTEX
  5
640
330
322
100
AcDbEntity
  8
0
  6
CONTINUOUS
 62
     8
100
AcDbVertex
100
AcDb2dVertex
 10
8.4699020334
 20
6.8065792672
 30
0.0
  0
VERTEX
  5
641
330
322
100
AcDbEntity
  8
0
  6
CONTINUOUS
 62
     8
100
AcDbVertex
100
AcDb2dVertex
 10
8.4620204685
 20
6.8117150771
 30
0.0
  0
VERTEX
  5
642
330
322
100
AcDbEntity
  8
0
  6
CONTINUOUS
 62
     8
100
AcDbVertex
100
AcDb2dVertex
 10
8.4531240208
 20
6.8162650077
 30
0.0
  0
VERTEX
  5
643
330
322
100
AcDbEntity
  8
0
  6
CONTINUOUS
 62
     8
100
AcDbVertex
100
AcDb2dVertex
 10
8.4433424206
 20
6.8201627107
 30
0.0
  0
VERTEX
  5
644
330
322
100
AcDbEntity
  8
0
  6
CONTINUOUS
 62
     8
100
AcDbVertex
100
AcDb2dVertex
 10
8.4328183056
 20
6.8233513488
 30
0.0
  0
VERTEX
  5
645
330
322
100
AcDbEntity
  8
0
  6
CONTINUOUS
 62
     8
100
AcDbVertex
100
AcDb2dVertex
 10
8.421705141
 20
6.8257844244
 30
0.0
  0
VERTEX
  5
646
330
322
100
AcDbEntity
  8
0
  6
CONTINUOUS
 62
     8
100
AcDbVertex
100
AcDb2dVertex
 10
8.410164982
 20
6.827426458
 30
0.0
  0
VERTEX
  5
647
330
322
100
AcDbEntity
  8
0
  6
CONTINUOUS
 62
     8
100
AcDbVertex
100
AcDb2dVertex
 10
8.3983661099
 20
6.8282535049
 30
0.0
  0
VERTEX
  5
648
330
322
100
AcDbEntity
  8
0
  6
CONTINUOUS
 62
     8
100
AcDbVertex
100
AcDb2dVertex
 10
8.3864805789
 20
6.8282535049
 30
0.0
  0
VERTEX
  5
649
330
322
100
AcDbEntity
  8
0
  6
CONTINUOUS
 62
     8
100
AcDbVertex
100
AcDb2dVertex
 10
8.3746817068
 20
6.827426458
 30
0.0
  0
VERTEX
  5
64A
330
322
100
AcDbEntity
  8
0
  6
CONTINUOUS
 62
     8
100
AcDbVertex
100
AcDb2dVertex
 10
8.3631415478
 20
6.8257844244
 30
0.0
  0
VERTEX
  5
64B
330
322
100
AcDbEntity
  8
0
  6
CONTINUOUS
 62
     8
100
AcDbVertex
100
AcDb2dVertex
 10
8.3520283832
 20
6.8233513488
 30
0.0
  0
VERTEX
  5
64C
330
322
100
AcDbEntity
  8
0
  6
CONTINUOUS
 62
     8
100
AcDbVertex
100
AcDb2dVertex
 10
8.3415042682
 20
6.8201627107
 30
0.0
  0
VERTEX
  5
64D
330
322
100
AcDbEntity
  8
0
  6
CONTINUOUS
 62
     8
100
AcDbVertex
100
AcDb2dVertex
 10
8.331722668
 20
6.8162650077
 30
0.0
  0
VERTEX
  5
64E
330
322
100
AcDbEntity
  8
0
  6
CONTINUOUS
 62
     8
100
AcDbVertex
100
AcDb2dVertex
 10
8.3228262203
 20
6.8117150771
 30
0.0
  0
VERTEX
  5
64F
330
322
100
AcDbEntity
  8
0
  6
CONTINUOUS
 62
     8
100
AcDbVertex
100
AcDb2dVertex
 10
8.3149446554
 20
6.8065792672
 30
0.0
  0
VERTEX
  5
650
330
322
100
AcDbEntity
  8
0
  6
CONTINUOUS
 62
     8
100
AcDbVertex
100
AcDb2dVertex
 10
8.3081929042
 20
6.8009324696
 30
0.0
  0
VERTEX
  5
651
330
322
100
AcDbEntity
  8
0
  6
CONTINUOUS
 62
     8
100
AcDbVertex
100
AcDb2dVertex
 10
8.3026694225
 20
6.7948570273
 30
0.0
  0
VERTEX
  5
652
330
322
100
AcDbEntity
  8
0
  6
CONTINUOUS
 62
     8
100
AcDbVertex
100
AcDb2dVertex
 10
8.2984547552
 20
6.788441534
 30
0.0
  0
VERTEX
  5
653
330
322
100
AcDbEntity
  8
0
  6
CONTINUOUS
 62
     8
100
AcDbVertex
100
AcDb2dVertex
 10
8.2956103614
 20
6.7817795419
 30
0.0
  0
VERTEX
  5
654
330
322
100
AcDbEntity
  8
0
  6
CONTINUOUS
 62
     8
100
AcDbVertex
100
AcDb2dVertex
 10
8.294177719
 20
6.7749681981
 30
0.0
  0
VERTEX
  5
655
330
322
100
AcDbEntity
  8
0
  6
CONTINUOUS
 62
     8
100
AcDbVertex
100
AcDb2dVertex
 10
8.294177719
 20
6.7681068271
 30
0.0
  0
VERTEX
  5
656
330
322
100
AcDbEntity
  8
0
  6
CONTINUOUS
 62
     8
100
AcDbVertex
100
AcDb2dVertex
 10
8.2956103614
 20
6.7612954832
 30
0.0
  0
VERTEX
  5
657
330
322
100
AcDbEntity
  8
0
  6
CONTINUOUS
 62
     8
100
AcDbVertex
100
AcDb2dVertex
 10
8.2984547552
 20
6.7546334912
 30
0.0
  0
VERTEX
  5
658
330
322
100
AcDbEntity
  8
0
  6
CONTINUOUS
 62
     8
100
AcDbVertex
100
AcDb2dVertex
 10
8.3026694225
 20
6.7482179979
 30
0.0
  0
VERTEX
  5
659
330
322
100
AcDbEntity
  8
0
  6
CONTINUOUS
 62
     8
100
AcDbVertex
100
AcDb2dVertex
 10
8.3081929042
 20
6.7421425556
 30
0.0
  0
VERTEX
  5
65A
330
322
100
AcDbEntity
  8
0
  6
CONTINUOUS
 62
     8
100
AcDbVertex
100
AcDb2dVertex
 10
8.3149446554
 20
6.7364957579
 30
0.0
  0
VERTEX
  5
65B
330
322
100
AcDbEntity
  8
0
  6
CONTINUOUS
 62
     8
100
AcDbVertex
100
AcDb2dVertex
 10
8.3228262203
 20
6.731359948
 30
0.0
  0
VERTEX
  5
65C
330
322
100
AcDbEntity
  8
0
  6
CONTINUOUS
 62
     8
100
AcDbVertex
100
AcDb2dVertex
 10
8.3228262203
 20
6.731359948
 30
0.0
  0
SEQEND
  5
65D
330
322
100
AcDbEntity
  8
0
  6
CONTINUOUS
 62
     8
  0
ARC
  5
323
330
1F
100
AcDbEntity
  8
0
  6
CONTINUOUS
 62
     8
100
AcDbCircle
 10
8.3370125466
 20
6.768019031
 30
0.0
 40
0.0531053243613865
100
AcDbArc
 50
185.6144644307
 51
246.5348897979
  0
ARC
  5
324
330
1F
100
AcDbEntity
  8
0
  6
CONTINUOUS
 62
     8
100
AcDbCircle
 10
8.3929322356
 20
6.8689178283
 30
0.0
 40
0.1682944244873308
100
AcDbArc
 50
242.7468977797
 51
287.0216903642
  0
ARC
  5
325
330
1F
100
AcDbEntity
  8
0
  6
CONTINUOUS
 62
     8
100
AcDbCircle
 10
7.5529193524
 20
6.7456868187
 30
0.0
 40
0.1425849075305343
100
AcDbArc
 50
173.5007883632
 51
238.7551583763
  0
POLYLINE
  5
326
330
1F
100
AcDbEntity
  8
0
  6
CONTINUOUS
 62
     8
100
AcDb2dPolyline
 66
     1
 10
0.0
 20
0.0
 30
0.0
  0
VERTEX
  5
65E
330
326
100
AcDbEntity
  8
0
  6
CONTINUOUS
 62
     8
100
AcDbVertex
100
AcDb2dVertex
 10
7.5470195866
 20
6.6480557849
 30
0.0
  0
VERTEX
  5
65F
330
326
100
AcDbEntity
  8
0
  6
CONTINUOUS
 62
     8
100
AcDbVertex
100
AcDb2dVertex
 10
7.5465358484
 20
6.6459073754
 30
0.0
  0
VERTEX
  5
660
330
326
100
AcDbEntity
  8
0
  6
CONTINUOUS
 62
     8
100
AcDbVertex
100
AcDb2dVertex
 10
7.5440355317
 20
6.6380851913
 30
0.0
  0
VERTEX
  5
661
330
326
100
AcDbEntity
  8
0
  6
CONTINUOUS
 62
     8
100
AcDbVertex
100
AcDb2dVertex
 10
7.5405862831
 20
6.6312263929
 30
0.0
  0
VERTEX
  5
662
330
326
100
AcDbEntity
  8
0
  6
CONTINUOUS
 62
     8
100
AcDbVertex
100
AcDb2dVertex
 10
7.5362384004
 20
6.6254309968
 30
0.0
  0
VERTEX
  5
663
330
326
100
AcDbEntity
  8
0
  6
CONTINUOUS
 62
     8
100
AcDbVertex
100
AcDb2dVertex
 10
7.5310552856
 20
6.620783513
 30
0.0
  0
VERTEX
  5
664
330
326
100
AcDbEntity
  8
0
  6
CONTINUOUS
 62
     8
100
AcDbVertex
100
AcDb2dVertex
 10
7.5251125201
 20
6.6173517122
 30
0.0
  0
VERTEX
  5
665
330
326
100
AcDbEntity
  8
0
  6
CONTINUOUS
 62
     8
100
AcDbVertex
100
AcDb2dVertex
 10
7.5184967629
 20
6.6151856379
 30
0.0
  0
VERTEX
  5
666
330
326
100
AcDbEntity
  8
0
  6
CONTINUOUS
 62
     8
100
AcDbVertex
100
AcDb2dVertex
 10
7.5113044864
 20
6.6143168763
 30
0.0
  0
VERTEX
  5
667
330
326
100
AcDbEntity
  8
0
  6
CONTINUOUS
 62
     8
100
AcDbVertex
100
AcDb2dVertex
 10
7.5036405705
 20
6.6147580959
 30
0.0
  0
VERTEX
  5
668
330
326
100
AcDbEntity
  8
0
  6
CONTINUOUS
 62
     8
100
AcDbVertex
100
AcDb2dVertex
 10
7.4956167722
 20
6.6165028626
 30
0.0
  0
VERTEX
  5
669
330
326
100
AcDbEntity
  8
0
  6
CONTINUOUS
 62
     8
100
AcDbVertex
100
AcDb2dVertex
 10
7.4873500965
 20
6.619525734
 30
0.0
  0
VERTEX
  5
66A
330
326
100
AcDbEntity
  8
0
  6
CONTINUOUS
 62
     8
100
AcDbVertex
100
AcDb2dVertex
 10
7.4789610902
 20
6.6237826296
 30
0.0
  0
SEQEND
  5
66B
330
326
100
AcDbEntity
  8
0
  6
CONTINUOUS
 62
     8
  0
ARC
  5
327
330
1F
100
AcDbEntity
  8
0
  6
CONTINUOUS
 62
     8
100
AcDbCircle
 10
7.5173863404
 20
6.6511261873
 30
0.0
 40
0.0431533687651551
100
AcDbArc
 50
301.6813521891
 51
343.9989140455
  0
ENDSEC
  0
SECTION
  2
OBJECTS
  0
DICTIONARY
  5
C
330
0
100
AcDbDictionary
  3
ACAD_GROUP
350
D
  3
ACAD_LAYOUT
350
1A
  3
ACAD_MLEADERSTYLE
350
32A
  3
ACAD_MLINESTYLE
350
17
  3
ACAD_PLOTSETTINGS
350
19
  3
ACAD_SCALELIST
350
6F
  3
ACAD_VISUALSTYLE
350
2A
  3
ACDBVARIABLEDICTIONARY
350
328
1001
ACAD
1000
TREAT_AS_HARD
1070
     0
  0
DICTIONARY
  5
D
102
{ACAD_REACTORS
330
C
102
}
330
C
100
AcDbDictionary
1001
ACAD
1000
TREAT_AS_HARD
1070
     0
  0
DICTIONARY
  5
1A
102
{ACAD_REACTORS
330
C
102
}
330
C
100
AcDbDictionary
1001
ACAD
1000
TREAT_AS_HARD
1070
     0
  0
DICTIONARY
  5
32A
102
{ACAD_REACTORS
330
C
102
}
330
C
100
AcDbDictionary
1001
ACAD
1000
TREAT_AS_HARD
1070
     0
  0
DICTIONARY
  5
17
102
{ACAD_REACTORS
330
C
102
}
330
C
100
AcDbDictionary
  3
STANDARD
350
18
1001
ACAD
1000
TREAT_AS_HARD
1070
     0
  0
DICTIONARY
  5
19
102
{ACAD_REACTORS
330
C
102
}
330
C
100
AcDbDictionary
1001
ACAD
1000
TREAT_AS_HARD
1070
     0
  0
DICTIONARY
  5
6F
102
{ACAD_REACTORS
330
C
102
}
330
C
100
AcDbDictionary
  3
A0
350
70
  3
A1
350
71
  3
A2
350
72
  3
A3
350
73
  3
A4
350
74
  3
A5
350
75
  3
A6
350
76
  3
A7
350
77
  3
A8
350
78
  3
A9
350
79
  3
B0
350
7A
  3
B1
350
7B
  3
B2
350
7C
  3
B3
350
7D
  3
B4
350
7E
  3
B5
350
7F
  3
B6
350
80
  3
B7
350
81
  3
B8
350
82
  3
B9
350
83
  3
C0
350
84
  3
C1
350
85
  3
C2
350
86
  3
C3
350
87
  3
C4
350
88
  3
C5
350
89
  3
C6
350
8A
  3
C7
350
8B
  3
C8
350
8C
  3
C9
350
8D
  3
D0
350
8E
  3
D1
350
8F
  3
D2
350
90
1001
ACAD
1000
TREAT_AS_HARD
1070
     0
  0
DICTIONARY
  5
2A
102
{ACAD_REACTORS
330
C
102
}
330
C
100
AcDbDictionary
  3
2DWIREFRAME
350
2F
  3
3D_HIDDEN
350
31
  3
3DWIREFRAME
350
30
  3
BASIC
350
32
  3
BRIGHTEN
350
36
  3
COLORCHANGE
350
3A
  3
CONCEPTUAL
350
34
  3
DIM
350
35
  3
FACEPATTERN
350
39
  3
FLAT
350
2B
  3
FLATWITHEDGES
350
2C
  3
GOURAUD
350
2D
  3
GOURAUDWITHEDGES
350
2E
  3
LINEPATTERN
350
38
  3
REALISTIC
350
33
  3
THICKEN
350
37
1001
ACAD
1000
TREAT_AS_HARD
1070
     0
  0
DICTIONARY
  5
328
102
{ACAD_REACTORS
330
C
102
}
330
C
100
AcDbDictionary
  3
CANNOSCALE
350
32B
  3
DIMASSOC
350
32C
  3
HIDETEXT
350
32D
1001
ACAD
1000
TREAT_AS_HARD
1070
     0
  0
MLINESTYLE
  5
18
102
{ACAD_REACTORS
330
17
102
}
330
17
100
AcDbMlineStyle
  2
Standard
 70
     0
  3

 62
   256
 51
90.0
 52
90.0
 71
     2
 49
0.5
 62
   256
  6
BYLAYER
 49
-0.5
 62
   256
  6
BYLAYER
  0
ACAD_PROXY_OBJECT
  5
70
102
{ACAD_REACTORS
330
6F
102
}
330
6F
100
AcDbZombieObject
 90
      499
 91
      502
 93
       41
310
903313A31580
  0
ACAD_PROXY_OBJECT
  5
71
102
{ACAD_REACTORS
330
6F
102
}
330
6F
100
AcDbZombieObject
 90
      499
 91
      502
 93
      105
310
903313A324000000000000004000
  0
ACAD_PROXY_OBJECT
  5
72
102
{ACAD_REACTORS
330
6F
102
}
330
6F
100
AcDbZombieObject
 90
      499
 91
      502
 93
      105
310
903313A344000000000000104000
  0
ACAD_PROXY_OBJECT
  5
73
102
{ACAD_REACTORS
330
6F
102
}
330
6F
100
AcDbZombieObject
 90
      499
 91
      502
 93
      105
310
903313A354000000000000144000
  0
ACAD_PROXY_OBJECT
  5
74
102
{ACAD_REACTORS
330
6F
102
}
330
6F
100
AcDbZombieObject
 90
      499
 91
      502
 93
      105
310
903313A384000000000000204000
  0
ACAD_PROXY_OBJECT
  5
75
102
{ACAD_REACTORS
330
6F
102
}
330
6F
100
AcDbZombieObject
 90
      499
 91
      502
 93
      113
310
904313A31304000000000000244000
  0
ACAD_PROXY_OBJECT
  5
76
102
{ACAD_REACTORS
330
6F
102
}
330
6F
100
AcDbZombieObject
 90
      499
 91
      502
 93
      113
310
904313A31364000000000000304000
  0
ACAD_PROXY_OBJECT
  5
77
102
{ACAD_REACTORS
330
6F
102
}
330
6F
100
AcDbZombieObject
 90
      499
 91
      502
 93
      113
310
904313A32304000000000000344000
  0
ACAD_PROXY_OBJECT
  5
78
102
{ACAD_REACTORS
330
6F
102
}
330
6F
100
AcDbZombieObject
 90
      499
 91
      502
 93
      113
310
904313A333040000000000003E4000
  0
ACAD_PROXY_OBJECT
  5
79
102
{ACAD_REACTORS
330
6F
102
}
330
6F
100
AcDbZombieObject
 90
      499
 91
      502
 93
      113
310
904313A34304000000000000444000
  0
ACAD_PROXY_OBJECT
  5
7A
102
{ACAD_REACTORS
330
6F
102
}
330
6F
100
AcDbZombieObject
 90
      499
 91
      502
 93
      113
310
904313A35304000000000000494000
  0
ACAD_PROXY_OBJECT
  5
7B
102
{ACAD_REACTORS
330
6F
102
}
330
6F
100
AcDbZombieObject
 90
      499
 91
      502
 93
      121
310
905313A3130304000000000000594000
  0
ACAD_PROXY_OBJECT
  5
7C
102
{ACAD_REACTORS
330
6F
102
}
330
6F
100
AcDbZombieObject
 90
      499
 91
      502
 93
      105
310
903323A310000000000000010100
  0
ACAD_PROXY_OBJECT
  5
7D
102
{ACAD_REACTORS
330
6F
102
}
330
6F
100
AcDbZombieObject
 90
      499
 91
      502
 93
      105
310
903343A310000000000000410100
  0
ACAD_PROXY_OBJECT
  5
7E
102
{ACAD_REACTORS
330
6F
102
}
330
6F
100
AcDbZombieObject
 90
      499
 91
      502
 93
      105
310
903383A310000000000000810100
  0
ACAD_PROXY_OBJECT
  5
7F
102
{ACAD_REACTORS
330
6F
102
}
330
6F
100
AcDbZombieObject
 90
      499
 91
      502
 93
      113
310
90431303A310000000000000910100
  0
ACAD_PROXY_OBJECT
  5
80
102
{ACAD_REACTORS
330
6F
102
}
330
6F
100
AcDbZombieObject
 90
      499
 91
      502
 93
      121
310
9053130303A310000000000001650100
  0
ACAD_PROXY_OBJECT
  5
81
102
{ACAD_REACTORS
330
6F
102
}
330
6F
100
AcDbZombieObject
 90
      499
 91
      502
 93
      257
310
90E312F31323822203D2031272D3022000000000000200FC000000000000284000
  0
ACAD_PROXY_OBJECT
  5
82
102
{ACAD_REACTORS
330
6F
102
}
330
6F
100
AcDbZombieObject
 90
      499
 91
      502
 93
      249
310
90D312F363422203D2031272D3022000000000000240FC000000000000284000
  0
ACAD_PROXY_OBJECT
  5
83
102
{ACAD_REACTORS
330
6F
102
}
330
6F
100
AcDbZombieObject
 90
      499
 91
      502
 93
      249
310
90D312F333222203D2031272D3022000000000000280FC000000000000284000
  0
ACAD_PROXY_OBJECT
  5
84
102
{ACAD_REACTORS
330
6F
102
}
330
6F
100
AcDbZombieObject
 90
      499
 91
      502
 93
      249
310
90D312F313622203D2031272D30220000000000002C0FC000000000000284000
  0
ACAD_PROXY_OBJECT
  5
85
102
{ACAD_REACTORS
330
6F
102
}
330
6F
100
AcDbZombieObject
 90
      499
 91
      502
 93
      249
310
90D332F333222203D2031272D30220000000000002E0FC000000000000284000
  0
ACAD_PROXY_OBJECT
  5
86
102
{ACAD_REACTORS
330
6F
102
}
330
6F
100
AcDbZombieObject
 90
      499
 91
      502
 93
      241
310
90C312F3822203D2031272D3022000000000000300FC000000000000284000
  0
ACAD_PROXY_OBJECT
  5
87
102
{ACAD_REACTORS
330
6F
102
}
330
6F
100
AcDbZombieObject
 90
      499
 91
      502
 93
      249
310
90D332F313622203D2031272D3022000000000000320FC000000000000284000
  0
ACAD_PROXY_OBJECT
  5
88
102
{ACAD_REACTORS
330
6F
102
}
330
6F
100
AcDbZombieObject
 90
      499
 91
      502
 93
      241
310
90C312F3422203D2031272D3022000000000000340FC000000000000284000
  0
ACAD_PROXY_OBJECT
  5
89
102
{ACAD_REACTORS
330
6F
102
}
330
6F
100
AcDbZombieObject
 90
      499
 91
      502
 93
      241
310
90C332F3822203D2031272D3022000000000000360FC000000000000284000
  0
ACAD_PROXY_OBJECT
  5
8A
102
{ACAD_REACTORS
330
6F
102
}
330
6F
100
AcDbZombieObject
 90
      499
 91
      502
 93
      241
310
90C312F3222203D2031272D3022000000000000380FC000000000000284000
  0
ACAD_PROXY_OBJECT
  5
8B
102
{ACAD_REACTORS
330
6F
102
}
330
6F
100
AcDbZombieObject
 90
      499
 91
      502
 93
      241
310
90C332F3422203D2031272D30220000000000003A0FC000000000000284000
  0
ACAD_PROXY_OBJECT
  5
8C
102
{ACAD_REACTORS
330
6F
102
}
330
6F
100
AcDbZombieObject
 90
      499
 91
      502
 93
      161
310
90A3122203D2031272D30224000000000000284000
  0
ACAD_PROXY_OBJECT
  5
8D
102
{ACAD_REACTORS
330
6F
102
}
330
6F
100
AcDbZombieObject
 90
      499
 91
      502
 93
      257
310
90E312D312F3222203D2031272D30220000000000003E0FC000000000000284000
  0
ACAD_PROXY_OBJECT
  5
8E
102
{ACAD_REACTORS
330
6F
102
}
330
6F
100
AcDbZombieObject
 90
      499
 91
      502
 93
      225
310
90A3322203D2031272D302200000000000002100000000000000284000
  0
ACAD_PROXY_OBJECT
  5
8F
102
{ACAD_REACTORS
330
6F
102
}
330
6F
100
AcDbZombieObject
 90
      499
 91
      502
 93
      225
310
90A3622203D2031272D302200000000000006100000000000000284000
  0
ACAD_PROXY_OBJECT
  5
90
102
{ACAD_REACTORS
330
6F
102
}
330
6F
100
AcDbZombieObject
 90
      499
 91
      502
 93
      249
310
90D31272D3022203D2031272D30220000000000000A100000000000000284000
  0
ACAD_PROXY_OBJECT
  5
2F
102
{ACAD_REACTORS
330
2A
102
}
330
2A
100
AcDbZombieObject
 90
      499
 91
      501
 93
      436
310
42CC9915DA5C99599C985B595049028333333333333E3BF0000000000000FB0107901411070040501600405405064090741402480A0340
1001
ACAD
1000
AcDbSavedByObjectVersion
1070
     0
  0
ACAD_PROXY_OBJECT
  5
31
102
{ACAD_REACTORS
330
2A
102
}
330
2A
100
AcDbZombieObject
 90
      499
 91
      501
 93
      500
310
424CD108121A5919195B90640502408333333333333E3BF0000000000000FB01079024090700405020000000000001110200405405064090740C02480A0340
1001
ACAD
1000
AcDbSavedByObjectVersion
1070
     0
  0
ACAD_PROXY_OBJECT
  5
30
102
{ACAD_REACTORS
330
2A
102
}
330
2A
100
AcDbZombieObject
 90
      499
 91
      501
 93
      436
310
42CCD915DA5C99599C985B595059028333333333333E3BF0000000000000FB0107901411070040501600405405064090741402480A0340
1001
ACAD
1000
AcDbSavedByObjectVersion
1070
     0
  0
ACAD_PROXY_OBJECT
  5
32
102
{ACAD_REACTORS
330
2A
102
}
330
2A
100
AcDbZombieObject
 90
      499
 91
      501
 93
      388
310
4150985CDA58D07406404333333333333E3BF0000000000000FB0107A41107004050150841D405064090741402480A0350
1001
ACAD
1000
AcDbSavedByObjectVersion
1070
     0
  0
ACAD_PROXY_OBJECT
  5
36
102
{ACAD_REACTORS
330
2A
102
}
330
2A
100
AcDbZombieObject
 90
      499
 91
      501
 93
      428
310
42109C9A59DA1D195B90C409028333333333333E3BF0000000000000FB010790141107004050150841D405064090741402480A029950
1001
ACAD
1000
AcDbSavedByObjectVersion
1070
     0
  0
ACAD_PROXY_OBJECT
  5
3A
102
{ACAD_REACTORS
330
2A
102
}
330
2A
100
AcDbZombieObject
 90
      499
 91
      501
 93
      452
310
42D0DBDB1BDC90DA185B99D95104090240C333333333333E3BF0000000000000FB0108901411070040501508421405064090741402480A0350
1001
ACAD
1000
AcDbSavedByObjectVersion
1070
     0
  0
ACAD_PROXY_OBJECT
  5
34
102
{ACAD_REACTORS
330
2A
102
}
330
2A
100
AcDbZombieObject
 90
      499
 91
      501
 93
      500
310
4290DBDB98D95C1D1D585B10940D028333333333333E3BF0000000000000FB0107902409070040501000000000000111010841D405064090740C02480A0340
1001
ACAD
1000
AcDbSavedByObjectVersion
1070
     0
  0
ACAD_PROXY_OBJECT
  5
35
102
{ACAD_REACTORS
330
2A
102
}
330
2A
100
AcDbZombieObject
 90
      499
 91
      501
 93
      412
310
40D11A5B50B409028333333333333E3BF0000000000000FB010790141107004050150841D405064090741402480A02677FFFFFD0
1001
ACAD
1000
AcDbSavedByObjectVersion
1070
     0
  0
ACAD_PROXY_OBJECT
  5
39
102
{ACAD_REACTORS
330
2A
102
}
330
2A
100
AcDbZombieObject
 90
      499
 91
      501
 93
      444
310
42D19858D95C185D1D195C9B90F409028333333333333E3BF0000000000000FB010790141107004050150841D405064090741402480A0350
1001
ACAD
1000
AcDbSavedByObjectVersion
1070
     0
  0
ACAD_PROXY_OBJECT
  5
2B
102
{ACAD_REACTORS
330
2A
102
}
330
2A
100
AcDbZombieObject
 90
      499
 91
      501
 93
      388
310
41119B185D240901404333333333333E3BF0000000000000F9010740A41107004050150841D405064090741402480A1B50
1001
ACAD
1000
AcDbSavedByObjectVersion
1070
     0
  0
ACAD_PROXY_OBJECT
  5
2C
102
{ACAD_REACTORS
330
2A
102
}
330
2A
100
AcDbZombieObject
 90
      499
 91
      501
 93
      476
310
43519B185D15DA5D1A115919D95CD0140901404333333333333E3BF0000000000000F9010740901411070040501600405405064090741402480A1B50
1001
ACAD
1000
AcDbSavedByObjectVersion
1070
     0
  0
ACAD_PROXY_OBJECT
  5
2D
102
{ACAD_REACTORS
330
2A
102
}
330
2A
100
AcDbZombieObject
 90
      499
 91
      501
 93
      412
310
41D1DBDD5C985D5910240902404333333333333E3BF0000000000000F9010740A411070040501641D405064090741402480A1B50
1001
ACAD
1000
AcDbSavedByObjectVersion
1070
     0
  0
ACAD_PROXY_OBJECT
  5
2E
102
{ACAD_REACTORS
330
2A
102
}
330
2A
100
AcDbZombieObject
 90
      499
 91
      501
 93
      500
310
4411DBDD5C985D5915DA5D1A115919D95CD0340902404333333333333E3BF0000000000000F9010740901411070040501600405405064090741402480A1B50
1001
ACAD
1000
AcDbSavedByObjectVersion
1070
     0
  0
ACAD_PROXY_OBJECT
  5
38
102
{ACAD_REACTORS
330
2A
102
}
330
2A
100
AcDbZombieObject
 90
      499
 91
      501
 93
      444
310
42D31A5B995C185D1D195C9B90E409028333333333333E3BF0000000000000FB010790141107004050750841D405064090741402483A0350
1001
ACAD
1000
AcDbSavedByObjectVersion
1070
     0
  0
ACAD_PROXY_OBJECT
  5
33
102
{ACAD_REACTORS
330
2A
102
}
330
2A
100
AcDbZombieObject
 90
      499
 91
      501
 93
      420
310
425499585B1A5CDD1A58D08409028333333333333E3BF0000000000000FB01079019070040501508421405064090741402480A1B40
1001
ACAD
1000
AcDbSavedByObjectVersion
1070
     0
  0
ACAD_PROXY_OBJECT
  5
37
102
{ACAD_REACTORS
330
2A
102
}
330
2A
100
AcDbZombieObject
 90
      499
 91
      501
 93
      412
310
41D51A1A58DAD95B90D409028333333333333E3BF0000000000000FB010790141107004050150C41D405064090741402480A0350
1001
ACAD
1000
AcDbSavedByObjectVersion
1070
     0
  0
DICTIONARYVAR
  5
32B
102
{ACAD_REACTORS
330
328
102
}
330
328
100
DictionaryVariables
280
     0
  1
1:1
  0
DICTIONARYVAR
  5
32C
102
{ACAD_REACTORS
330
328
102
}
330
328
100
DictionaryVariables
280
     0
  1
2
  0
DICTIONARYVAR
  5
32D
102
{ACAD_REACTORS
330
328
102
}
330
328
100
DictionaryVariables
280
     0
  1
1
  0
ENDSEC
  0
EOF
