  0
SECTION
  2
HEADER
  9
$ACADVER
  1
AC1012
  9
$DWGCODEPAGE
  3
ansi_1252
  9
$INSBASE
 10
0.0
 20
0.0
 30
0.0
  9
$EXTMIN
 10
0.0
 20
0.0
 30
0.0
  9
$EXTMAX
 10
11.0
 20
8.5
 30
0.0
  9
$LIMMIN
 10
0.0
 20
0.0
  9
$LIMMAX
 10
11.0
 20
8.5
  9
$ORTHOMODE
 70
     0
  9
$REGENMODE
 70
     1
  9
$FILLMODE
 70
     1
  9
$QTEXTMODE
 70
     0
  9
$MIRRTEXT
 70
     1
  9
$DRAGMODE
 70
     2
  9
$LTSCALE
 40
1.0
  9
$OSMODE
 70
    37
  9
$ATTMODE
 70
     1
  9
$TEXTSIZE
 40
0.125
  9
$TRACEWID
 40
0.05
  9
$TEXTSTYLE
  7
STANDARD
  9
$CLAYER
  8
0
  9
$CELTYPE
  6
BYLAYER
  9
$CECOLOR
 62
   256
  9
$CELTSCALE
 40
1.0
  9
$DELOBJ
 70
     1
  9
$DISPSILH
 70
     0
  9
$DIMSCALE
 40
1.0
  9
$DIMASZ
 40
0.13
  9
$DIMEXO
 40
0.05
  9
$DIMDLI
 40
0.38
  9
$DIMRND
 40
0.0
  9
$DIMDLE
 40
0.0
  9
$DIMEXE
 40
0.125
  9
$DIMTP
 40
0.0
  9
$DIMTM
 40
0.0
  9
$DIMTXT
 40
0.125
  9
$DIMCEN
 40
0.09
  9
$DIMTSZ
 40
0.0
  9
$DIMTOL
 70
     0
  9
$DIMLIM
 70
     0
  9
$DIMTIH
 70
     1
  9
$DIMTOH
 70
     1
  9
$DIMSE1
 70
     0
  9
$DIMSE2
 70
     0
  9
$DIMTAD
 70
     0
  9
$DIMZIN
 70
     0
  9
$DIMBLK
  1

  9
$DIMASO
 70
     1
  9
$DIMSHO
 70
     1
  9
$DIMPOST
  1

  9
$DIMAPOST
  1

  9
$DIMALT
 70
     0
  9
$DIMALTD
 70
     2
  9
$DIMALTF
 40
25.4
  9
$DIMLFAC
 40
0.5
  9
$DIMTOFL
 70
     0
  9
$DIMTVP
 40
0.0
  9
$DIMTIX
 70
     0
  9
$DIMSOXD
 70
     0
  9
$DIMSAH
 70
     0
  9
$DIMBLK1
  1

  9
$DIMBLK2
  1

  9
$DIMSTYLE
  2
STANDARD
  9
$DIMCLRD
 70
     0
  9
$DIMCLRE
 70
     0
  9
$DIMCLRT
 70
     0
  9
$DIMTFAC
 40
1.0
  9
$DIMGAP
 40
0.06
  9
$DIMJUST
 70
     0
  9
$DIMSD1
 70
     0
  9
$DIMSD2
 70
     0
  9
$DIMTOLJ
 70
     1
  9
$DIMTZIN
 70
     0
  9
$DIMALTZ
 70
     0
  9
$DIMALTTZ
 70
     0
  9
$DIMFIT
 70
     3
  9
$DIMUPT
 70
     0
  9
$DIMUNIT
 70
     2
  9
$DIMDEC
 70
     3
  9
$DIMTDEC
 70
     3
  9
$DIMALTU
 70
     2
  9
$DIMALTTD
 70
     2
  9
$DIMTXSTY
  7
STANDARD
  9
$DIMAUNIT
 70
     0
  9
$LUNITS
 70
     2
  9
$LUPREC
 70
     2
  9
$SKETCHINC
 40
0.1
  9
$FILLETRAD
 40
0.5
  9
$AUNITS
 70
     0
  9
$AUPREC
 70
     2
  9
$MENU
  1
.
  9
$ELEVATION
 40
0.0
  9
$PELEVATION
 40
0.0
  9
$THICKNESS
 40
0.0
  9
$LIMCHECK
 70
     0
  9
$CHAMFERA
 40
0.5
  9
$CHAMFERB
 40
0.5
  9
$CHAMFERC
 40
1.0
  9
$CHAMFERD
 40
0.0
  9
$SKPOLY
 70
     0
  9
$TDCREATE
 40
2455784.019117951
  9
$TDUPDATE
 40
2455784.019117963
  9
$TDINDWG
 40
0.0000000116
  9
$TDUSRTIMER
 40
0.0000000116
  9
$USRTIMER
 70
     1
  9
$ANGBASE
 50
0.0
  9
$ANGDIR
 70
     0
  9
$PDMODE
 70
     0
  9
$PDSIZE
 40
-1.0
  9
$PLINEWID
 40
0.0
  9
$COORDS
 70
     1
  9
$SPLFRAME
 70
     0
  9
$SPLINETYPE
 70
     6
  9
$SPLINESEGS
 70
     8
  9
$ATTDIA
 70
     0
  9
$ATTREQ
 70
     1
  9
$HANDLING
 70
     1
  9
$HANDSEED
  5
544
  9
$SURFTAB1
 70
     6
  9
$SURFTAB2
 70
     6
  9
$SURFTYPE
 70
     6
  9
$SURFU
 70
     6
  9
$SURFV
 70
     6
  9
$UCSNAME
  2

  9
$UCSORG
 10
0.0
 20
0.0
 30
0.0
  9
$UCSXDIR
 10
1.0
 20
0.0
 30
0.0
  9
$UCSYDIR
 10
0.0
 20
1.0
 30
0.0
  9
$PUCSNAME
  2

  9
$PUCSORG
 10
0.0
 20
0.0
 30
0.0
  9
$PUCSXDIR
 10
1.0
 20
0.0
 30
0.0
  9
$PUCSYDIR
 10
0.0
 20
1.0
 30
0.0
  9
$USERI1
 70
     0
  9
$USERI2
 70
     0
  9
$USERI3
 70
     0
  9
$USERI4
 70
     0
  9
$USERI5
 70
     0
  9
$USERR1
 40
0.0
  9
$USERR2
 40
0.0
  9
$USERR3
 40
0.0
  9
$USERR4
 40
0.0
  9
$USERR5
 40
0.0
  9
$WORLDVIEW
 70
     1
  9
$SHADEDGE
 70
     3
  9
$SHADEDIF
 70
    70
  9
$TILEMODE
 70
     1
  9
$MAXACTVP
 70
    64
  9
$PINSBASE
 10
0.0
 20
0.0
 30
0.0
  9
$PLIMCHECK
 70
     0
  9
$PEXTMIN
 10
1.0000000000E+20
 20
1.0000000000E+20
 30
1.0000000000E+20
  9
$PEXTMAX
 10
-1.0000000000E+20
 20
-1.0000000000E+20
 30
-1.0000000000E+20
  9
$PLIMMIN
 10
0.0
 20
0.0
  9
$PLIMMAX
 10
12.0
 20
9.0
  9
$UNITMODE
 70
     0
  9
$VISRETAIN
 70
     1
  9
$PLINEGEN
 70
     0
  9
$PSLTSCALE
 70
     1
  9
$TREEDEPTH
 70
  3020
  9
$PICKSTYLE
 70
     1
  9
$CMLSTYLE
  2
STANDARD
  9
$CMLJUST
 70
     0
  9
$CMLSCALE
 40
1.0
  9
$SAVEIMAGES
 70
     1
  0
ENDSEC
  0
SECTION
  2
CLASSES
  0
CLASS
  1
ACDBDICTIONARYWDFLT
  2
AcDbDictionaryWithDefault
  3
ObjectDBX Classes
 90
    32768
280
     0
281
     0
  0
CLASS
  1
VISUALSTYLE
  2
AcDbVisualStyle
  3
ObjectDBX Classes
 90
     4095
280
     0
281
     0
  0
CLASS
  1
SCALE
  2
AcDbScale
  3
ObjectDBX Classes
 90
     1153
280
     0
281
     0
  0
CLASS
  1
DICTIONARYVAR
  2
AcDbDictionaryVar
  3
ObjectDBX Classes
 90
        0
280
     0
281
     0
  0
CLASS
  1
XRECORD
  2
AcDbXrecord
  3
AutoCAD 2000
 90
    32768
280
     0
281
     0
  0
CLASS
  1
LWPOLYLINE
  2
AcDbPolyline
  3
AutoCAD 2000
 90
    32768
280
     0
281
     1
  0
CLASS
  1
HATCH
  2
AcDbHatch
  3
AutoCAD 2000
 90
    32768
280
     0
281
     1
  0
CLASS
  1
ACDBPLACEHOLDER
  2
AcDbPlaceHolder
  3
ObjectDBX Classes
 90
        0
280
     0
281
     0
  0
CLASS
  1
LAYOUT
  2
AcDbLayout
  3
ObjectDBX Classes
 90
        0
280
     0
281
     0
  0
ENDSEC
  0
SECTION
  2
TABLES
  0
TABLE
  2
VPORT
  5
8
330
0
100
AcDbSymbolTable
 70
     1
  0
VPORT
  5
29
330
8
100
AcDbSymbolTableRecord
100
AcDbViewportTableRecord
  2
*ACTIVE
 70
     0
 10
0.0
 20
0.0
 11
1.0
 21
1.0
 12
5.5
 22
4.25
 13
0.0
 23
0.0
 14
0.5
 24
0.5
 15
0.5
 25
0.5
 16
0.0
 26
0.0
 36
1.0
 17
0.0
 27
0.0
 37
0.0
 40
8.5
 41
1.2941176471
 42
50.0
 43
0.0
 44
0.0
 50
0.0
 51
0.0
 71
     0
 72
  2000
 73
     1
 74
     3
 75
     0
 76
     0
 77
     0
 78
     0
  0
ENDTAB
  0
TABLE
  2
LTYPE
  5
5
330
0
100
AcDbSymbolTable
 70
     6
  0
LTYPE
  5
14
330
5
100
AcDbSymbolTableRecord
100
AcDbLinetypeTableRecord
  2
BYBLOCK
 70
     0
  3

 72
    65
 73
     0
 40
0.0
  0
LTYPE
  5
15
330
5
100
AcDbSymbolTableRecord
100
AcDbLinetypeTableRecord
  2
BYLAYER
 70
     0
  3

 72
    65
 73
     0
 40
0.0
  0
LTYPE
  5
16
330
5
100
AcDbSymbolTableRecord
100
AcDbLinetypeTableRecord
  2
CONTINUOUS
 70
     0
  3
Solid line
 72
    65
 73
     0
 40
0.0
  0
LTYPE
  5
3B
330
5
100
AcDbSymbolTableRecord
100
AcDbLinetypeTableRecord
  2
HIDDEN
 70
     0
  3
Hidden __ __ __ __ __ __ __ __ __ __ __ __ __ __
 72
    65
 73
     2
 40
0.075
 49
0.05
 74
     0
 49
-0.025
 74
     0
  0
LTYPE
  5
3C
330
5
100
AcDbSymbolTableRecord
100
AcDbLinetypeTableRecord
  2
PHANTOM
 70
     0
  3
Phantom ______  __  __  ______  __  __  ______
 72
    65
 73
     6
 40
0.5
 49
0.25
 74
     0
 49
-0.05
 74
     0
 49
0.05
 74
     0
 49
-0.05
 74
     0
 49
0.05
 74
     0
 49
-0.05
 74
     0
  0
LTYPE
  5
3D
330
5
100
AcDbSymbolTableRecord
100
AcDbLinetypeTableRecord
  2
CENTER
 70
     0
  3
Center ____ _ ____ _ ____ _ ____ _ ____ _ ____
 72
    65
 73
     4
 40
0.4
 49
0.25
 74
     0
 49
-0.05
 74
     0
 49
0.05
 74
     0
 49
-0.05
 74
     0
  0
LTYPE
  5
3E
330
5
100
AcDbSymbolTableRecord
100
AcDbLinetypeTableRecord
  2
CENTERX2
 70
     0
  3
Center (2x) ________  __  ________  __  _____
 72
    65
 73
     4
 40
0.8
 49
0.5
 74
     0
 49
-0.1
 74
     0
 49
0.1
 74
     0
 49
-0.1
 74
     0
  0
LTYPE
  5
3F
330
5
100
AcDbSymbolTableRecord
100
AcDbLinetypeTableRecord
  2
DOT2
 70
     0
  3
Dot (.5x) ........................................
 72
    65
 73
     2
 40
0.025
 49
0.0
 74
     0
 49
-0.025
 74
     0
  0
ENDTAB
  0
TABLE
  2
LAYER
  5
2
330
0
100
AcDbSymbolTable
 70
     2
  0
LAYER
  5
10
330
2
100
AcDbSymbolTableRecord
100
AcDbLayerTableRecord
  2
0
 70
     0
 62
     7
  6
CONTINUOUS
  0
LAYER
  5
40
330
2
100
AcDbSymbolTableRecord
100
AcDbLayerTableRecord
  2
FORMAT
 70
     0
 62
     7
  6
CONTINUOUS
  0
ENDTAB
  0
TABLE
  2
STYLE
  5
3
330
0
100
AcDbSymbolTable
 70
     4
  0
STYLE
  5
11
330
3
100
AcDbSymbolTableRecord
100
AcDbTextStyleTableRecord
  2
STANDARD
 70
     0
 40
0.0
 41
1.0
 50
0.0
 71
     0
 42
0.2
  3
txt
  4

  0
STYLE
  5
6E
330
3
100
AcDbSymbolTableRecord
100
AcDbTextStyleTableRecord
  2
SLDTEXTSTYLE0
 70
     0
 40
0.0
 41
0.75
 50
0.0
 71
     0
 42
0.2
  3
TXT
  4

  0
STYLE
  5
93
330
3
100
AcDbSymbolTableRecord
100
AcDbTextStyleTableRecord
  2
SLDTEXTSTYLE1
 70
     0
 40
0.0
 41
0.6875
 50
0.0
 71
     0
 42
0.2
  3
TXT
  4

  0
STYLE
  5
99
330
3
100
AcDbSymbolTableRecord
100
AcDbTextStyleTableRecord
  2
SLDTEXTSTYLE2
 70
     0
 40
0.0
 41
0.6944444444
 50
0.0
 71
     0
 42
0.2
  3
TXT
  4

  0
ENDTAB
  0
TABLE
  2
VIEW
  5
6
330
0
100
AcDbSymbolTable
 70
     0
  0
ENDTAB
  0
TABLE
  2
UCS
  5
7
330
0
100
AcDbSymbolTable
 70
     0
  0
ENDTAB
  0
TABLE
  2
APPID
  5
9
330
0
100
AcDbSymbolTable
 70
     1
  0
APPID
  5
12
330
9
100
AcDbSymbolTableRecord
100
AcDbRegAppTableRecord
  2
ACAD
 70
     0
  0
ENDTAB
  0
TABLE
  2
DIMSTYLE
  5
A
330
0
100
AcDbSymbolTable
 70
     1
  0
DIMSTYLE
105
27
330
A
100
AcDbSymbolTableRecord
100
AcDbDimStyleTableRecord
  2
STANDARD
 70
     0
  3

  4

  5

  6

  7

 40
1.0
 41
0.18
 42
0.0625
 43
0.38
 44
0.18
 45
0.0
 46
0.0
 47
0.0
 48
0.0
140
0.18
141
0.09
142
0.0
143
25.4
144
1.0
145
0.0
146
1.0
147
0.09
 71
     0
 72
     0
 73
     1
 74
     1
 75
     0
 76
     0
 77
     0
 78
     0
170
     0
171
     2
172
     0
173
     0
174
     0
175
     0
176
     0
177
     0
178
     0
270
     2
271
     4
272
     4
273
     2
274
     2
340
11
275
     0
280
     0
281
     0
282
     0
283
     1
284
     0
285
     0
286
     0
287
     3
288
     0
  0
ENDTAB
  0
TABLE
  2
BLOCK_RECORD
  5
1
330
0
100
AcDbSymbolTable
 70
     4
  0
BLOCK_RECORD
  5
1F
330
1
100
AcDbSymbolTableRecord
100
AcDbBlockTableRecord
  2
*MODEL_SPACE
  0
BLOCK_RECORD
  5
1B
330
1
100
AcDbSymbolTableRecord
100
AcDbBlockTableRecord
  2
*PAPER_SPACE
  0
BLOCK_RECORD
  5
A8
330
1
100
AcDbSymbolTableRecord
100
AcDbBlockTableRecord
  2
SW_NOTE_0
  0
BLOCK_RECORD
  5
AE
330
1
100
AcDbSymbolTableRecord
100
AcDbBlockTableRecord
  2
SW_NOTE_1
  0
BLOCK_RECORD
  5
C2
330
1
100
AcDbSymbolTableRecord
100
AcDbBlockTableRecord
  2
SW_NOTE_2
  0
ENDTAB
  0
ENDSEC
  0
SECTION
  2
BLOCKS
  0
BLOCK
  5
20
330
1F
100
AcDbEntity
  8
0
100
AcDbBlockBegin
  2
*MODEL_SPACE
 70
     0
 10
0.0
 20
0.0
 30
0.0
  3
*MODEL_SPACE
  1

  0
ENDBLK
  5
21
330
1F
100
AcDbEntity
  8
0
100
AcDbBlockEnd
  0
BLOCK
  5
1C
330
1B
100
AcDbEntity
 67
     1
  8
0
100
AcDbBlockBegin
  2
*PAPER_SPACE
 70
     0
 10
0.0
 20
0.0
 30
0.0
  3
*PAPER_SPACE
  1

  0
ENDBLK
  5
1D
330
1B
100
AcDbEntity
 67
     1
  8
0
100
AcDbBlockEnd
  0
BLOCK
  5
A9
330
A8
100
AcDbEntity
  8
0
100
AcDbBlockBegin
  2
SW_NOTE_0
 70
     0
 10
0.0
 20
0.0
 30
0.0
  3
SW_NOTE_0
  1

  0
MTEXT
  5
AB
330
A8
100
AcDbEntity
  8
0
  6
CONTINUOUS
 62
     0
100
AcDbMText
 10
0.0
 20
0.0773440644
 30
0.0
 40
0.06
 41
0.0
 71
     1
 72
     1
  1
INTERPRET GEOMETRIC
  7
SLDTEXTSTYLE0
  0
MTEXT
  5
AC
330
A8
100
AcDbEntity
  8
0
  6
CONTINUOUS
 62
     0
100
AcDbMText
 10
0.0
 20
-0.0220260102
 30
0.0
 40
0.06
 41
0.0
 71
     1
 72
     1
  1
TOLERANCING PER:
  7
SLDTEXTSTYLE0
  0
ENDBLK
  5
AA
330
A8
100
AcDbEntity
  8
0
100
AcDbBlockEnd
  0
BLOCK
  5
AF
330
AE
100
AcDbEntity
  8
0
100
AcDbBlockBegin
  2
SW_NOTE_1
 70
     0
 10
0.0
 20
0.0
 30
0.0
  3
SW_NOTE_1
  1

  0
MTEXT
  5
B1
330
AE
100
AcDbEntity
  8
0
  6
CONTINUOUS
 62
     0
100
AcDbMText
 10
0.0
 20
0.0837894031
 30
0.0
 40
0.065
 41
0.0
 71
     1
 72
     1
  1
DIMENSIONS ARE IN INCHES
  7
SLDTEXTSTYLE0
  0
MTEXT
  5
B2
330
AE
100
AcDbEntity
  8
0
  6
CONTINUOUS
 62
     0
100
AcDbMText
 10
0.0
 20
-0.0205806729
 30
0.0
 40
0.065
 41
0.0
 71
     1
 72
     1
  1
TOLERANCES:
  7
SLDTEXTSTYLE0
  0
MTEXT
  5
B3
330
AE
100
AcDbEntity
  8
0
  6
CONTINUOUS
 62
     0
100
AcDbMText
 10
0.0
 20
-0.1249507489
 30
0.0
 40
0.065
 41
0.0
 71
     1
 72
     1
  1
FRACTIONAL
  7
SLDTEXTSTYLE0
  0
MTEXT
  5
B4
330
AE
100
AcDbEntity
  8
0
  6
CONTINUOUS
 62
     0
100
AcDbMText
 10
0.5175850875
 20
-0.1249507489
 30
0.0
 40
0.065
 41
0.0
 71
     1
 72
     1
  1
%%p
  7
SLDTEXTSTYLE0
  0
MTEXT
  5
B5
330
AE
100
AcDbEntity
  8
0
  6
CONTINUOUS
 62
     0
100
AcDbMText
 10
0.0
 20
-0.2293208248
 30
0.0
 40
0.065
 41
0.0
 71
     1
 72
     1
  1
ANGULAR: MACH
  7
SLDTEXTSTYLE0
  0
MTEXT
  5
B6
330
AE
100
AcDbEntity
  8
0
  6
CONTINUOUS
 62
     0
100
AcDbMText
 10
0.7233732769
 20
-0.2293208248
 30
0.0
 40
0.065
 41
0.0
 71
     1
 72
     1
  1
%%p
  7
SLDTEXTSTYLE0
  0
MTEXT
  5
B7
330
AE
100
AcDbEntity
  8
0
  6
CONTINUOUS
 62
     0
100
AcDbMText
 10
0.7852857683
 20
-0.2293208248
 30
0.0
 40
0.065
 41
0.0
 71
     1
 72
     1
  1
     BEND 
  7
SLDTEXTSTYLE0
  0
MTEXT
  5
B8
330
AE
100
AcDbEntity
  8
0
  6
CONTINUOUS
 62
     0
100
AcDbMText
 10
1.14784136
 20
-0.2293208248
 30
0.0
 40
0.065
 41
0.0
 71
     1
 72
     1
  1
%%p
  7
SLDTEXTSTYLE0
  0
MTEXT
  5
B9
330
AE
100
AcDbEntity
  8
0
  6
CONTINUOUS
 62
     0
100
AcDbMText
 10
0.0
 20
-0.3336909008
 30
0.0
 40
0.065
 41
0.0
 71
     1
 72
     1
  1
TWO PLACE DECIMAL    
  7
SLDTEXTSTYLE0
  0
MTEXT
  5
BA
330
AE
100
AcDbEntity
  8
0
  6
CONTINUOUS
 62
     0
100
AcDbMText
 10
0.9794349188
 20
-0.3336909008
 30
0.0
 40
0.065
 41
0.0
 71
     1
 72
     1
  1
%%p
  7
SLDTEXTSTYLE0
  0
MTEXT
  5
BB
330
AE
100
AcDbEntity
  8
0
  6
CONTINUOUS
 62
     0
100
AcDbMText
 10
0.0
 20
-0.4380609768
 30
0.0
 40
0.065
 41
0.0
 71
     1
 72
     1
  1
THREE PLACE DECIMAL  
  7
SLDTEXTSTYLE0
  0
MTEXT
  5
BC
330
AE
100
AcDbEntity
  8
0
  6
CONTINUOUS
 62
     0
100
AcDbMText
 10
0.9738038639
 20
-0.4380609768
 30
0.0
 40
0.065
 41
0.0
 71
     1
 72
     1
  1
%%p
  7
SLDTEXTSTYLE0
  0
ENDBLK
  5
B0
330
AE
100
AcDbEntity
  8
0
100
AcDbBlockEnd
  0
BLOCK
  5
C3
330
C2
100
AcDbEntity
  8
0
100
AcDbBlockBegin
  2
SW_NOTE_2
 70
     0
 10
0.0
 20
0.0
 30
0.0
  3
SW_NOTE_2
  1

  0
MTEXT
  5
C5
330
C2
100
AcDbEntity
  8
0
  6
CONTINUOUS
 62
     0
100
AcDbMText
 10
0.0
 20
0.0773440644
 30
0.0
 40
0.06
 41
0.0
 71
     1
 72
     1
  1
THE INFORMATION CONTAINED IN THIS
  7
SLDTEXTSTYLE0
  0
MTEXT
  5
C6
330
C2
100
AcDbEntity
  8
0
  6
CONTINUOUS
 62
     0
100
AcDbMText
 10
0.0
 20
-0.0220260102
 30
0.0
 40
0.06
 41
0.0
 71
     1
 72
     1
  1
DRAWING IS THE SOLE PROPERTY OF
  7
SLDTEXTSTYLE0
  0
MTEXT
  5
C7
330
C2
100
AcDbEntity
  8
0
  6
CONTINUOUS
 62
     0
100
AcDbMText
 10
0.0
 20
-0.1213960848
 30
0.0
 40
0.06
 41
0.0
 71
     1
 72
     1
  1
Candy Controls.  ANY 
  7
SLDTEXTSTYLE0
  0
MTEXT
  5
C8
330
C2
100
AcDbEntity
  8
0
  6
CONTINUOUS
 62
     0
100
AcDbMText
 10
0.0
 20
-0.2207661593
 30
0.0
 40
0.06
 41
0.0
 71
     1
 72
     1
  1
REPRODUCTION IN PART OR AS A WHOLE
  7
SLDTEXTSTYLE0
  0
MTEXT
  5
C9
330
C2
100
AcDbEntity
  8
0
  6
CONTINUOUS
 62
     0
100
AcDbMText
 10
0.0
 20
-0.3201362339
 30
0.0
 40
0.06
 41
0.0
 71
     1
 72
     1
  1
WITHOUT THE WRITTEN PERMISSION OF
  7
SLDTEXTSTYLE0
  0
MTEXT
  5
CA
330
C2
100
AcDbEntity
  8
0
  6
CONTINUOUS
 62
     0
100
AcDbMText
 10
0.0
 20
-0.4195063085
 30
0.0
 40
0.06
 41
0.0
 71
     1
 72
     1
  1
Candy Controls IS 
  7
SLDTEXTSTYLE0
  0
MTEXT
  5
CB
330
C2
100
AcDbEntity
  8
0
  6
CONTINUOUS
 62
     0
100
AcDbMText
 10
0.0
 20
-0.518876383
 30
0.0
 40
0.06
 41
0.0
 71
     1
 72
     1
  1
PROHIBITED.
  7
SLDTEXTSTYLE0
  0
ENDBLK
  5
C4
330
C2
100
AcDbEntity
  8
0
100
AcDbBlockEnd
  0
ENDSEC
  0
SECTION
  2
ENTITIES
  0
LINE
  5
41
330
1F
100
AcDbEntity
  8
0
  6
CONTINUOUS
 62
     7
100
AcDbLine
 10
0.329927
 20
8.1920731707
 30
0.0
 11
10.629927
 21
8.1920731707
 31
0.0
  0
LINE
  5
42
330
1F
100
AcDbEntity
  8
0
  6
CONTINUOUS
 62
     7
100
AcDbLine
 10
0.329927
 20
8.1920731707
 30
0.0
 11
0.329927
 21
0.3920731707
 31
0.0
  0
LINE
  5
43
330
1F
100
AcDbEntity
  8
0
  6
CONTINUOUS
 62
     7
100
AcDbLine
 10
10.629927
 20
0.3920731707
 30
0.0
 11
0.329927
 21
0.3920731707
 31
0.0
  0
LINE
  5
44
330
1F
100
AcDbEntity
  8
0
  6
CONTINUOUS
 62
     7
100
AcDbLine
 10
10.629927
 20
0.3920731707
 30
0.0
 11
10.629927
 21
8.1920731707
 31
0.0
  0
LINE
  5
45
330
1F
100
AcDbEntity
  8
0
  6
CONTINUOUS
 62
     7
100
AcDbLine
 10
4.7981841288
 20
0.3920731707
 30
0.0
 11
4.7981841288
 21
2.3564211366
 31
0.0
  0
LINE
  5
46
330
1F
100
AcDbEntity
  8
0
  6
CONTINUOUS
 62
     7
100
AcDbLine
 10
2.8210345579
 20
2.3564211366
 30
0.0
 11
10.629927
 21
2.3564211366
 31
0.0
  0
LINE
  5
47
330
1F
100
AcDbEntity
  8
0
  6
CONTINUOUS
 62
     7
100
AcDbLine
 10
6.1796352514
 20
2.3564211366
 30
0.0
 11
6.1796352514
 21
0.3920731707
 31
0.0
  0
LINE
  5
48
330
1F
100
AcDbEntity
  8
0
  6
CONTINUOUS
 62
     7
100
AcDbLine
 10
7.8712070044
 20
2.3564211366
 30
0.0
 11
7.8712070044
 21
0.3920731707
 31
0.0
  0
LINE
  5
49
330
1F
100
AcDbEntity
  8
0
  6
CONTINUOUS
 62
     7
100
AcDbLine
 10
7.8712070044
 20
0.6049590101
 30
0.0
 11
10.629927
 21
0.6049590101
 31
0.0
  0
LINE
  5
4A
330
1F
100
AcDbEntity
  8
0
  6
CONTINUOUS
 62
     7
100
AcDbLine
 10
7.8712070044
 20
1.1119362457
 30
0.0
 11
10.629927
 21
1.1119362457
 31
0.0
  0
LINE
  5
4B
330
1F
100
AcDbEntity
  8
0
  6
CONTINUOUS
 62
     7
100
AcDbLine
 10
7.8712070044
 20
1.9892703708
 30
0.0
 11
10.629927
 21
1.9892703708
 31
0.0
  0
LINE
  5
4C
330
1F
100
AcDbEntity
  8
0
  6
CONTINUOUS
 62
     7
100
AcDbLine
 10
8.266751752
 20
1.1119362457
 30
0.0
 11
8.266751752
 21
0.6049590101
 31
0.0
  0
LINE
  5
4D
330
1F
100
AcDbEntity
  8
0
  6
CONTINUOUS
 62
     7
100
AcDbLine
 10
8.6943435176
 20
0.6049590101
 30
0.0
 11
8.6943435176
 21
0.3920731707
 31
0.0
  0
LINE
  5
4E
330
1F
100
AcDbEntity
  8
0
  6
CONTINUOUS
 62
     7
100
AcDbLine
 10
10.0579917045
 20
1.1119362457
 30
0.0
 11
10.0579917045
 21
0.6049590101
 31
0.0
  0
LINE
  5
4F
330
1F
100
AcDbEntity
  8
0
  6
CONTINUOUS
 62
     7
100
AcDbLine
 10
9.6662556631
 20
0.6049590101
 30
0.0
 11
9.6662556631
 21
0.3920731707
 31
0.0
  0
LINE
  5
50
330
1F
100
AcDbEntity
  8
0
  6
CONTINUOUS
 62
     7
100
AcDbLine
 10
2.8210345579
 20
0.5883479999
 30
0.0
 11
6.1796352514
 21
0.5883479999
 31
0.0
  0
LINE
  5
51
330
1F
100
AcDbEntity
  8
0
  6
CONTINUOUS
 62
     7
100
AcDbLine
 10
6.1796352514
 20
1.7939211366
 30
0.0
 11
7.8712070044
 21
1.7939211366
 31
0.0
  0
LINE
  5
52
330
1F
100
AcDbEntity
  8
0
  6
CONTINUOUS
 62
     7
100
AcDbLine
 10
6.1796352514
 20
1.9814211366
 30
0.0
 11
7.8712070044
 21
1.9814211366
 31
0.0
  0
LINE
  5
53
330
1F
100
AcDbEntity
  8
0
  6
CONTINUOUS
 62
     7
100
AcDbLine
 10
6.1796352514
 20
2.1689211366
 30
0.0
 11
7.8712070044
 21
2.1689211366
 31
0.0
  0
LINE
  5
54
330
1F
100
AcDbEntity
  8
0
  6
CONTINUOUS
 62
     7
100
AcDbLine
 10
7.8712070044
 20
1.2314211366
 30
0.0
 11
6.1796352514
 21
1.2314211366
 31
0.0
  0
LINE
  5
55
330
1F
100
AcDbEntity
  8
0
  6
CONTINUOUS
 62
     7
100
AcDbLine
 10
7.3921580388
 20
2.3564211366
 30
0.0
 11
7.3921580388
 21
1.2314211366
 31
0.0
  0
LINE
  5
56
330
1F
100
AcDbEntity
  8
0
  6
CONTINUOUS
 62
     7
100
AcDbLine
 10
6.9236308342
 20
2.3564211366
 30
0.0
 11
6.9236308342
 21
1.2314211366
 31
0.0
  0
LINE
  5
57
330
1F
100
AcDbEntity
  8
0
  6
CONTINUOUS
 62
     7
100
AcDbLine
 10
4.7981841288
 20
0.8557965305
 30
0.0
 11
6.1796352514
 21
0.8557965305
 31
0.0
  0
LINE
  5
58
330
1F
100
AcDbEntity
  8
0
  6
CONTINUOUS
 62
     7
100
AcDbLine
 10
4.7981841288
 20
1.1257965305
 30
0.0
 11
6.1796352514
 21
1.1257965305
 31
0.0
  0
LINE
  5
59
330
1F
100
AcDbEntity
  8
0
  6
CONTINUOUS
 62
     7
100
AcDbLine
 10
2.8210345579
 20
0.3920731707
 30
0.0
 11
2.8210345579
 21
2.3564211366
 31
0.0
  0
LINE
  5
5A
330
1F
100
AcDbEntity
  8
0
  6
CONTINUOUS
 62
     7
100
AcDbLine
 10
2.8210345579
 20
1.1064211366
 30
0.0
 11
4.7981841288
 21
1.1064211366
 31
0.0
  0
LINE
  5
5B
330
1F
100
AcDbEntity
  8
0
  6
CONTINUOUS
 62
     7
100
AcDbLine
 10
2.8210345579
 20
1.3564211366
 30
0.0
 11
4.7981841288
 21
1.3564211366
 31
0.0
  0
LINE
  5
5C
330
1F
100
AcDbEntity
  8
0
  6
CONTINUOUS
 62
     7
100
AcDbLine
 10
2.8210345579
 20
1.6064211366
 30
0.0
 11
4.7981841288
 21
1.6064211366
 31
0.0
  0
LINE
  5
5D
330
1F
100
AcDbEntity
  8
0
  6
CONTINUOUS
 62
     7
100
AcDbLine
 10
2.8210345579
 20
1.8564211366
 30
0.0
 11
4.7981841288
 21
1.8564211366
 31
0.0
  0
LINE
  5
5E
330
1F
100
AcDbEntity
  8
0
  6
CONTINUOUS
 62
     7
100
AcDbLine
 10
3.8190146875
 20
2.3564211366
 30
0.0
 11
3.8190146875
 21
0.5883479999
 31
0.0
  0
LINE
  5
5F
330
1F
100
AcDbEntity
  8
0
  6
CONTINUOUS
 62
     7
100
AcDbLine
 10
6.1796352514
 20
2.2020813496
 30
0.0
 11
4.7981841288
 21
2.2020813496
 31
0.0
  0
LINE
  5
60
330
1F
100
AcDbEntity
  8
0
  6
CONTINUOUS
 62
     7
100
AcDbLine
 10
7.8712070044
 20
1.6064211366
 30
0.0
 11
6.1796352514
 21
1.6064211366
 31
0.0
  0
LINE
  5
61
330
1F
100
AcDbEntity
  8
0
  6
CONTINUOUS
 62
     7
100
AcDbLine
 10
7.8712070044
 20
1.4189211366
 30
0.0
 11
6.1796352514
 21
1.4189211366
 31
0.0
  0
LINE
  5
62
330
1F
100
AcDbEntity
  8
0
  6
CONTINUOUS
 62
     7
100
AcDbLine
 10
2.8210345579
 20
2.1064211366
 30
0.0
 11
4.7981841288
 21
2.1064211366
 31
0.0
  0
LINE
  5
63
330
1F
100
AcDbEntity
  8
0
  6
CONTINUOUS
 62
     7
100
AcDbLine
 10
4.7981841288
 20
1.3957965305
 30
0.0
 11
6.1796352514
 21
1.3957965305
 31
0.0
  0
LINE
  5
64
330
1F
100
AcDbEntity
  8
0
  6
CONTINUOUS
 62
     7
100
AcDbLine
 10
2.8210345579
 20
0.8564211366
 30
0.0
 11
4.7981841288
 21
0.8564211366
 31
0.0
  0
LINE
  5
65
330
1F
100
AcDbEntity
  8
0
  6
CONTINUOUS
 62
     7
100
AcDbLine
 10
1.1838252943
 20
0.3920731707
 30
0.0
 11
1.1838252943
 21
1.3064211366
 31
0.0
  0
LINE
  5
66
330
1F
100
AcDbEntity
  8
0
  6
CONTINUOUS
 62
     7
100
AcDbLine
 10
2.8210345579
 20
1.3064211366
 30
0.0
 11
1.1838252943
 21
1.3064211366
 31
0.0
  0
LINE
  5
67
330
1F
100
AcDbEntity
  8
0
  6
CONTINUOUS
 62
     7
100
AcDbLine
 10
8.660927
 20
0.3920731707
 30
0.0
 11
8.660927
 21
0.3072739649
 31
0.0
  0
LINE
  5
68
330
1F
100
AcDbEntity
  8
0
  6
CONTINUOUS
 62
     7
100
AcDbLine
 10
6.692177
 20
0.3920731707
 30
0.0
 11
6.692177
 21
0.3072739649
 31
0.0
  0
LINE
  5
69
330
1F
100
AcDbEntity
  8
0
  6
CONTINUOUS
 62
     7
100
AcDbLine
 10
4.723427
 20
0.3920731707
 30
0.0
 11
4.723427
 21
0.3072739649
 31
0.0
  0
LINE
  5
6A
330
1F
100
AcDbEntity
  8
0
  6
CONTINUOUS
 62
     7
100
AcDbLine
 10
2.754677
 20
0.3920731707
 30
0.0
 11
2.754677
 21
0.3072739649
 31
0.0
  0
LINE
  5
6B
330
1F
100
AcDbEntity
  8
0
  6
CONTINUOUS
 62
     7
100
AcDbLine
 10
2.754677
 20
0.3920731707
 30
0.0
 11
2.7672319738
 21
0.3575
 31
0.0
  0
LINE
  5
6C
330
1F
100
AcDbEntity
  8
0
  6
CONTINUOUS
 62
     7
100
AcDbLine
 10
2.7672319738
 20
0.3575
 30
0.0
 11
2.7414258825
 21
0.3575
 31
0.0
  0
LINE
  5
6D
330
1F
100
AcDbEntity
  8
0
  6
CONTINUOUS
 62
     7
100
AcDbLine
 10
2.7414258825
 20
0.3575
 30
0.0
 11
2.754677
 21
0.3920731707
 31
0.0
  0
MTEXT
  5
91
330
1F
100
AcDbEntity
  8
0
  6
CONTINUOUS
 62
     7
100
AcDbMText
 10
4.9775846961
 20
0.5178452352
 30
0.0
 40
0.0625
 41
0.0
 71
     1
 72
     1
  1
DO NOT SCALE DRAWING
  7
SLDTEXTSTYLE0
  0
MTEXT
  5
92
330
1F
100
AcDbEntity
  8
0
  6
CONTINUOUS
 62
     7
100
AcDbMText
 10
8.9021524607
 20
0.9417064595
 30
0.0
 40
0.125
 41
0.0
 71
     1
 72
     1
  1
CL4-20
  7
SLDTEXTSTYLE0
  0
MTEXT
  5
94
330
1F
100
AcDbEntity
  8
0
  6
CONTINUOUS
 62
     7
100
AcDbMText
 10
9.7571278483
 20
0.5524239532
 30
0.0
 40
0.1
 41
0.0
 71
     1
 72
     1
  1
SHEET 1 OF 1
  7
SLDTEXTSTYLE1
  0
MTEXT
  5
95
330
1F
100
AcDbEntity
  8
0
  6
CONTINUOUS
 62
     7
100
AcDbMText
 10
4.8448077858
 20
2.3132954224
 30
0.0
 40
0.07
 41
0.0
 71
     1
 72
     1
  1
UNLESS OTHERWISE SPECIFIED:
  7
SLDTEXTSTYLE0
  0
MTEXT
  5
96
330
1F
100
AcDbEntity
  8
0
  6
CONTINUOUS
 62
     7
100
AcDbMText
 10
7.9586139647
 20
0.5520987879
 30
0.0
 40
0.1
 41
0.0
 71
     1
 72
     1
  1
SCALE: 2:1
  7
SLDTEXTSTYLE0
  0
MTEXT
  5
97
330
1F
100
AcDbEntity
  8
0
  6
CONTINUOUS
 62
     7
100
AcDbMText
 10
8.7023691647
 20
0.5486763345
 30
0.0
 40
0.1
 41
0.0
 71
     1
 72
     1
  1
WEIGHT: 
  7
SLDTEXTSTYLE0
  0
MTEXT
  5
98
330
1F
100
AcDbEntity
  8
0
  6
CONTINUOUS
 62
     7
100
AcDbMText
 10
10.2277580983
 20
1.081966299
 30
0.0
 40
0.1
 41
0.0
 71
     1
 72
     1
  1
REV
  7
SLDTEXTSTYLE0
  0
MTEXT
  5
9A
330
1F
100
AcDbEntity
  8
0
  6
CONTINUOUS
 62
     7
100
AcDbMText
 10
8.2984570898
 20
1.0858725293
 30
0.0
 40
0.1
 41
0.0
 71
     1
 72
     1
  1
DWG.  NO.
  7
SLDTEXTSTYLE2
  0
MTEXT
  5
9B
330
1F
100
AcDbEntity
  8
0
  6
CONTINUOUS
 62
     7
100
AcDbMText
 10
7.9598482632
 20
0.9442140768
 30
0.0
 40
0.25
 41
0.0
 71
     1
 72
     1
  1
A
  7
SLDTEXTSTYLE0
  0
MTEXT
  5
9C
330
1F
100
AcDbEntity
  8
0
  6
CONTINUOUS
 62
     7
100
AcDbMText
 10
7.9519581822
 20
1.0872713483
 30
0.0
 40
0.1
 41
0.0
 71
     1
 72
     1
  1
SIZE
  7
SLDTEXTSTYLE0
  0
MTEXT
  5
9D
330
1F
100
AcDbEntity
  8
0
  6
CONTINUOUS
 62
     7
100
AcDbMText
 10
7.9170704177
 20
1.9547881128
 30
0.0
 40
0.1
 41
0.0
 71
     1
 72
     1
  1
TITLE:
  7
SLDTEXTSTYLE0
  0
MTEXT
  5
9E
330
1F
100
AcDbEntity
  8
0
  6
CONTINUOUS
 62
     7
100
AcDbMText
 10
7.0363774929
 20
2.2906161274
 30
0.0
 40
0.065
 41
0.0
 71
     1
 72
     1
  1
NAME
  7
SLDTEXTSTYLE0
  0
MTEXT
  5
9F
330
1F
100
AcDbEntity
  8
0
  6
CONTINUOUS
 62
     7
100
AcDbMText
 10
7.5281510634
 20
2.2888799118
 30
0.0
 40
0.065
 41
0.0
 71
     1
 72
     1
  1
DATE
  7
SLDTEXTSTYLE0
  0
MTEXT
  5
A0
330
1F
100
AcDbEntity
  8
0
  6
CONTINUOUS
 62
     7
100
AcDbMText
 10
6.2277147029
 20
1.1876913145
 30
0.0
 40
0.065
 41
0.0
 71
     1
 72
     1
  1
COMMENTS:
  7
SLDTEXTSTYLE0
  0
MTEXT
  5
A1
330
1F
100
AcDbEntity
  8
0
  6
CONTINUOUS
 62
     7
100
AcDbMText
 10
6.2268411461
 20
1.3536101679
 30
0.0
 40
0.065
 41
0.0
 71
     1
 72
     1
  1
Q.A.
  7
SLDTEXTSTYLE0
  0
MTEXT
  5
A2
330
1F
100
AcDbEntity
  8
0
  6
CONTINUOUS
 62
     7
100
AcDbMText
 10
6.2284654509
 20
1.5395328424
 30
0.0
 40
0.065
 41
0.0
 71
     1
 72
     1
  1
MFG APPR.
  7
SLDTEXTSTYLE0
  0
MTEXT
  5
A3
330
1F
100
AcDbEntity
  8
0
  6
CONTINUOUS
 62
     7
100
AcDbMText
 10
6.2235171344
 20
1.7267501785
 30
0.0
 40
0.065
 41
0.0
 71
     1
 72
     1
  1
ENG APPR.
  7
SLDTEXTSTYLE0
  0
MTEXT
  5
A4
330
1F
100
AcDbEntity
  8
0
  6
CONTINUOUS
 62
     7
100
AcDbMText
 10
6.2264103951
 20
1.9092699088
 30
0.0
 40
0.065
 41
0.0
 71
     1
 72
     1
  1
CHECKED
  7
SLDTEXTSTYLE0
  0
MTEXT
  5
A5
330
1F
100
AcDbEntity
  8
0
  6
CONTINUOUS
 62
     7
100
AcDbMText
 10
6.2242794356
 20
2.1016301232
 30
0.0
 40
0.065
 41
0.0
 71
     1
 72
     1
  1
DRAWN
  7
SLDTEXTSTYLE0
  0
MTEXT
  5
A6
330
1F
100
AcDbEntity
  8
0
  6
CONTINUOUS
 62
     7
100
AcDbMText
 10
4.8208600979
 20
0.834523235
 30
0.0
 40
0.06
 41
0.0
 71
     1
 72
     1
  1
FINISH
  7
SLDTEXTSTYLE0
  0
MTEXT
  5
A7
330
1F
100
AcDbEntity
  8
0
  6
CONTINUOUS
 62
     7
100
AcDbMText
 10
4.8181240648
 20
1.1028217587
 30
0.0
 40
0.06
 41
0.0
 71
     1
 72
     1
  1
MATERIAL
  7
SLDTEXTSTYLE0
  0
INSERT
  5
AD
330
1F
100
AcDbEntity
  8
0
  6
CONTINUOUS
 62
     7
100
AcDbBlockReference
  2
SW_NOTE_0
 10
4.8231926633
 20
1.2646542947
 30
0.0
  0
INSERT
  5
BD
330
1F
100
AcDbEntity
  8
0
  6
CONTINUOUS
 62
     7
100
AcDbBlockReference
  2
SW_NOTE_1
 10
4.8353339353
 20
2.0049168724
 30
0.0
  0
MTEXT
  5
BE
330
1F
100
AcDbEntity
  8
0
  6
CONTINUOUS
 62
     7
100
AcDbMText
 10
3.5531400086
 20
0.5200091997
 30
0.0
 40
0.0625
 41
0.0
 71
     1
 72
     1
  1
APPLICATION
  7
SLDTEXTSTYLE0
  0
MTEXT
  5
BF
330
1F
100
AcDbEntity
  8
0
  6
CONTINUOUS
 62
     7
100
AcDbMText
 10
4.1005607758
 20
0.7502454275
 30
0.0
 40
0.0625
 41
0.0
 71
     1
 72
     1
  1
USED ON
  7
SLDTEXTSTYLE0
  0
MTEXT
  5
C0
330
1F
100
AcDbEntity
  8
0
  6
CONTINUOUS
 62
     7
100
AcDbMText
 10
3.1040019536
 20
0.7492094783
 30
0.0
 40
0.0625
 41
0.0
 71
     1
 72
     1
  1
NEXT ASSY
  7
SLDTEXTSTYLE0
  0
MTEXT
  5
C1
330
1F
100
AcDbEntity
  8
0
  6
CONTINUOUS
 62
     7
100
AcDbMText
 10
1.3712489489
 20
1.2496672684
 30
0.0
 40
0.06
 41
0.0
 71
     1
 72
     1
  1
PROPRIETARY AND CONFIDENTIAL
  7
SLDTEXTSTYLE0
  0
INSERT
  5
CC
330
1F
100
AcDbEntity
  8
0
  6
CONTINUOUS
 62
     7
100
AcDbBlockReference
  2
SW_NOTE_2
 10
1.2226209074
 20
1.0313492921
 30
0.0
  0
MTEXT
  5
CD
330
1F
100
AcDbEntity
  8
0
  6
CONTINUOUS
 62
     7
100
AcDbMText
 10
1.7387909509
 20
0.3105864247
 30
0.0
 40
0.09375
 41
0.0
 71
     1
 72
     1
  1
5
  7
SLDTEXTSTYLE0
  0
MTEXT
  5
CE
330
1F
100
AcDbEntity
  8
0
  6
CONTINUOUS
 62
     7
100
AcDbMText
 10
3.723800327
 20
0.3137237518
 30
0.0
 40
0.09375
 41
0.0
 71
     1
 72
     1
  1
4
  7
SLDTEXTSTYLE0
  0
MTEXT
  5
CF
330
1F
100
AcDbEntity
  8
0
  6
CONTINUOUS
 62
     7
100
AcDbMText
 10
5.6324457277
 20
0.3116191842
 30
0.0
 40
0.09375
 41
0.0
 71
     1
 72
     1
  1
3
  7
SLDTEXTSTYLE0
  0
MTEXT
  5
D0
330
1F
100
AcDbEntity
  8
0
  6
CONTINUOUS
 62
     7
100
AcDbMText
 10
7.6059721724
 20
0.3124391351
 30
0.0
 40
0.09375
 41
0.0
 71
     1
 72
     1
  1
2
  7
SLDTEXTSTYLE0
  0
MTEXT
  5
D1
330
1F
100
AcDbEntity
  8
0
  6
CONTINUOUS
 62
     7
100
AcDbMText
 10
9.6619921328
 20
0.301372012
 30
0.0
 40
0.09375
 41
0.0
 71
     1
 72
     1
  1
1
  7
SLDTEXTSTYLE0
  0
LINE
  5
D2
330
1F
100
AcDbEntity
  8
0
  6
CONTINUOUS
 62
     7
100
AcDbLine
 10
4.0187531692
 20
4.5429391733
 30
0.0
 11
4.0156124813
 21
4.5460798612
 31
0.0
  0
LINE
  5
D3
330
1F
100
AcDbEntity
  8
0
  6
CONTINUOUS
 62
     7
100
AcDbLine
 10
3.7400219302
 20
4.5460798612
 30
0.0
 11
3.7368911098
 21
4.5429490408
 31
0.0
  0
LINE
  5
D4
330
1F
100
AcDbEntity
  8
0
  6
CONTINUOUS
 62
     7
100
AcDbLine
 10
3.6022266546
 20
2.9712767116
 30
0.0
 11
4.1927778357
 21
2.9712767116
 31
0.0
  0
LINE
  5
D5
330
1F
100
AcDbEntity
  8
0
  6
CONTINUOUS
 62
     7
100
AcDbLine
 10
3.7203368908
 20
4.5460798612
 30
0.0
 11
3.6022266546
 21
4.5460798612
 31
0.0
  0
LINE
  5
D6
330
1F
100
AcDbEntity
  8
0
  6
CONTINUOUS
 62
     7
100
AcDbLine
 10
4.1927778357
 20
4.5460798612
 30
0.0
 11
4.0349059308
 21
4.5460798612
 31
0.0
  0
LINE
  5
D7
330
1F
100
AcDbEntity
  8
0
  6
CONTINUOUS
 62
     7
100
AcDbLine
 10
4.1927778357
 20
2.9712767116
 30
0.0
 11
4.2321479144
 21
3.0106467903
 31
0.0
  0
LINE
  5
D8
330
1F
100
AcDbEntity
  8
0
  6
CONTINUOUS
 62
     7
100
AcDbLine
 10
4.2321479144
 20
4.5067097825
 30
0.0
 11
4.1927778357
 21
4.5460798612
 31
0.0
  0
LINE
  5
D9
330
1F
100
AcDbEntity
  8
0
  6
CONTINUOUS
 62
     7
100
AcDbLine
 10
3.6022266546
 20
4.5460798612
 30
0.0
 11
3.5628565758
 21
4.5067097825
 31
0.0
  0
LINE
  5
DA
330
1F
100
AcDbEntity
  8
0
  6
CONTINUOUS
 62
     7
100
AcDbLine
 10
3.5628565758
 20
3.0106467903
 30
0.0
 11
3.6022266546
 21
2.9712767116
 31
0.0
  0
LINE
  5
DB
330
1F
100
AcDbEntity
  8
0
  6
CONTINUOUS
 62
     7
100
AcDbLine
 10
2.7360849223
 20
4.5460798612
 30
0.0
 11
2.4604943711
 21
4.5460798612
 31
0.0
  0
LINE
  5
DC
330
1F
100
AcDbEntity
  8
0
  6
CONTINUOUS
 62
     7
100
AcDbLine
 10
2.4604943711
 20
2.9712767116
 30
0.0
 11
2.7360849223
 21
2.9712767116
 31
0.0
  0
LINE
  5
DD
330
1F
100
AcDbEntity
  8
0
  6
CONTINUOUS
 62
     7
100
AcDbLine
 10
2.4604943711
 20
4.5460798612
 30
0.0
 11
2.4211242924
 21
4.5067097825
 31
0.0
  0
LINE
  5
DE
330
1F
100
AcDbEntity
  8
0
  6
CONTINUOUS
 62
     7
100
AcDbLine
 10
2.4211242924
 20
3.0106467903
 30
0.0
 11
2.4604943711
 21
2.9712767116
 31
0.0
  0
LINE
  5
DF
330
1F
100
AcDbEntity
  8
0
  6
CONTINUOUS
 62
     7
100
AcDbLine
 10
2.775455001
 20
4.5067097825
 30
0.0
 11
2.7360849223
 21
4.5460798612
 31
0.0
  0
LINE
  5
E0
330
1F
100
AcDbEntity
  8
0
  6
CONTINUOUS
 62
     7
100
AcDbLine
 10
2.7360849223
 20
2.9712767116
 30
0.0
 11
2.775455001
 21
3.0106467903
 31
0.0
  0
LINE
  5
E1
330
1F
100
AcDbEntity
  8
0
  6
CONTINUOUS
 62
     7
100
AcDbLine
 10
2.8148250798
 20
2.9712767116
 30
0.0
 11
3.5234864971
 21
2.9712767116
 31
0.0
  0
LINE
  5
E2
330
1F
100
AcDbEntity
  8
0
  6
CONTINUOUS
 62
     7
100
AcDbLine
 10
3.5234864971
 20
4.5460798612
 30
0.0
 11
2.8148250798
 21
4.5460798612
 31
0.0
  0
LINE
  5
E3
330
1F
100
AcDbEntity
  8
0
  6
CONTINUOUS
 62
     7
100
AcDbLine
 10
2.8148250798
 20
4.5460798612
 30
0.0
 11
2.775455001
 21
4.5067097825
 31
0.0
  0
LINE
  5
E4
330
1F
100
AcDbEntity
  8
0
  6
CONTINUOUS
 62
     7
100
AcDbLine
 10
2.775455001
 20
3.0106467903
 30
0.0
 11
2.8148250798
 21
2.9712767116
 31
0.0
  0
LINE
  5
E5
330
1F
100
AcDbEntity
  8
0
  6
CONTINUOUS
 62
     7
100
AcDbLine
 10
3.5234864971
 20
2.9712767116
 30
0.0
 11
3.5628565758
 21
3.0106467903
 31
0.0
  0
LINE
  5
E6
330
1F
100
AcDbEntity
  8
0
  6
CONTINUOUS
 62
     7
100
AcDbLine
 10
3.5628565758
 20
4.5067097825
 30
0.0
 11
3.5234864971
 21
4.5460798612
 31
0.0
  0
LINE
  5
E7
330
1F
100
AcDbEntity
  8
0
  6
CONTINUOUS
 62
     7
100
AcDbLine
 10
3.7400219302
 20
4.5460798612
 30
0.0
 11
4.0156124813
 21
4.5460798612
 31
0.0
  0
LINE
  5
E8
330
1F
100
AcDbEntity
  8
0
  6
CONTINUOUS
 62
     7
100
AcDbLine
 10
3.9171872845
 20
4.4405880532
 30
0.0
 11
3.9171872845
 21
3.0767685196
 31
0.0
  0
SPLINE
  5
E9
330
1F
100
AcDbEntity
  8
0
  6
CONTINUOUS
 62
     7
100
AcDbSpline
210
0.0
220
0.0
230
1.0
 70
     8
 71
     3
 72
     8
 73
     4
 74
     0
 42
0.00000001
 43
0.00000001
 40
0.0
 40
0.0
 40
0.0
 40
0.0
 40
0.0007676680295986
 40
0.0007676680295986
 40
0.0007676680295986
 40
0.0007676680295986
 10
3.917187284486915
 20
3.076768519632647
 30
0.0
 10
3.90399682009159
 20
3.091999555971401
 30
0.0
 10
3.890869099804111
 20
3.107285251689952
 30
0.0
 10
3.877817205746757
 20
3.122635198935217
 30
0.0
  0
LINE
  5
EA
330
1F
100
AcDbEntity
  8
0
  6
CONTINUOUS
 62
     7
100
AcDbLine
 10
3.8778172057
 20
3.1226351989
 30
0.0
 11
3.8778172057
 21
4.3947213738
 31
0.0
  0
SPLINE
  5
EB
330
1F
100
AcDbEntity
  8
0
  6
CONTINUOUS
 62
     7
100
AcDbSpline
210
0.0
220
0.0
230
1.0
 70
     8
 71
     3
 72
     8
 73
     4
 74
     0
 42
0.00000001
 43
0.00000001
 40
0.0
 40
0.0
 40
0.0
 40
0.0
 40
0.0007676680295986
 40
0.0007676680295986
 40
0.0007676680295986
 40
0.0007676680295986
 10
3.877817205746757
 20
4.394721373848878
 30
0.0
 10
3.890869099804111
 20
4.410071321094143
 30
0.0
 10
3.90399682009159
 20
4.425357016812693
 30
0.0
 10
3.917187284486915
 20
4.440588053151448
 30
0.0
  0
LINE
  5
EC
330
1F
100
AcDbEntity
  8
0
  6
CONTINUOUS
 62
     7
100
AcDbLine
 10
3.6022266546
 20
4.4405880532
 30
0.0
 11
3.9171872845
 21
4.4405880532
 31
0.0
  0
LINE
  5
ED
330
1F
100
AcDbEntity
  8
0
  6
CONTINUOUS
 62
     7
100
AcDbLine
 10
3.6022266546
 20
4.5460798612
 30
0.0
 11
3.6022266546
 21
4.4405880532
 31
0.0
  0
LINE
  5
EE
330
1F
100
AcDbEntity
  8
0
  6
CONTINUOUS
 62
     7
100
AcDbLine
 10
3.6022266546
 20
3.0767685196
 30
0.0
 11
3.6022266546
 21
2.9712767116
 31
0.0
  0
LINE
  5
EF
330
1F
100
AcDbEntity
  8
0
  6
CONTINUOUS
 62
     7
100
AcDbLine
 10
3.9171872845
 20
3.0767685196
 30
0.0
 11
3.6022266546
 21
3.0767685196
 31
0.0
  0
SPLINE
  5
F0
330
1F
100
AcDbEntity
  8
0
  6
CONTINUOUS
 62
     7
100
AcDbSpline
210
0.0
220
0.0
230
1.0
 70
     8
 71
     3
 72
    26
 73
    22
 74
     0
 42
0.00000001
 43
0.00000001
 40
0.0
 40
0.0
 40
0.0
 40
0.0
 40
0.0522070796145124
 40
0.105946368980277
 40
0.158148391183608
 40
0.2118303230218956
 40
0.2646633161135628
 40
0.3189999090950837
 40
0.3722795670504794
 40
0.4271431982570244
 40
0.4797149575201329
 40
0.5338584642844754
 40
0.5856678136181022
 40
0.6389617207878812
 40
0.6911423130532679
 40
0.7447839680130754
 40
0.7978837017681177
 40
0.8525166484476232
 40
0.9056677209456078
 40
0.960411253393035
 40
1.0
 40
1.0
 40
1.0
 40
1.0
 10
3.720336890786127
 20
4.546079861195197
 30
0.0
 10
3.720748362533765
 20
4.545997040126865
 30
0.0
 10
3.721583382188611
 20
4.545828967299777
 30
0.0
 10
3.728293754265396
 20
4.544511914253824
 30
0.0
 10
3.738887531257505
 20
4.542549009760035
 30
0.0
 10
3.753312133363642
 20
4.54009792081031
 30
0.0
 10
3.771372944240099
 20
4.537399284888088
 30
0.0
 10
3.792396185515883
 20
4.534778570274215
 30
0.0
 10
3.81614872256309
 20
4.532501179704086
 30
0.0
 10
3.841459224571945
 20
4.530881207974739
 30
0.0
 10
3.867965973631637
 20
4.530081856354435
 30
0.0
 10
3.894272276516321
 20
4.530197839772646
 30
0.0
 10
3.92020293243952
 20
4.531197939694094
 30
0.0
 10
3.944632859512992
 20
4.53293890254205
 30
0.0
 10
3.967458178610546
 20
4.535262336495395
 30
0.0
 10
3.987778404144602
 20
4.537892859142929
 30
0.0
 10
4.005305092579409
 20
4.540581722706587
 30
0.0
 10
4.019231049166256
 20
4.542996150801846
 30
0.0
 10
4.029110153492199
 20
4.544853110365727
 30
0.0
 10
4.034630415173592
 20
4.545945902989543
 30
0.0
 10
4.034824484894381
 20
4.545985256356652
 30
0.0
 10
4.034905930790499
 20
4.546001771917331
 30
0.0
  0
LINE
  5
F1
330
1F
100
AcDbEntity
  8
0
  6
CONTINUOUS
 62
     7
100
AcDbLine
 10
4.1927778357
 20
2.9712767116
 30
0.0
 11
4.1927778357
 21
4.5460798612
 31
0.0
  0
LINE
  5
F2
330
1F
100
AcDbEntity
  8
0
  6
CONTINUOUS
 62
     7
100
AcDbLine
 10
4.2321479144
 20
4.5067097825
 30
0.0
 11
4.2321479144
 21
3.0106467903
 31
0.0
  0
LINE
  5
F3
330
1F
100
AcDbEntity
  8
0
  6
CONTINUOUS
 62
     7
100
AcDbLine
 10
3.6022266546
 20
4.4405880532
 30
0.0
 11
3.5895289834
 21
4.4257950929
 31
0.0
  0
LINE
  5
F4
330
1F
100
AcDbEntity
  8
0
  6
CONTINUOUS
 62
     7
100
AcDbLine
 10
3.5850349804
 20
3.0967970548
 30
0.0
 11
3.6022266546
 21
3.0767685196
 31
0.0
  0
LINE
  5
F5
330
1F
100
AcDbEntity
  8
0
  6
CONTINUOUS
 62
     7
100
AcDbLine
 10
3.5628565758
 20
4.4257950929
 30
0.0
 11
3.5628565758
 21
4.5067097825
 31
0.0
  0
LINE
  5
F6
330
1F
100
AcDbEntity
  8
0
  6
CONTINUOUS
 62
     7
100
AcDbLine
 10
3.5628565758
 20
3.0106467903
 30
0.0
 11
3.5628565758
 21
3.0967970548
 31
0.0
  0
CIRCLE
  5
F7
330
1F
100
AcDbEntity
  8
0
  6
CONTINUOUS
 62
     7
100
AcDbCircle
 10
2.775455001
 20
3.7586782864
 30
0.0
 40
0.1377952755905514
  0
CIRCLE
  5
F8
330
1F
100
AcDbEntity
  8
0
  6
CONTINUOUS
 62
     7
100
AcDbCircle
 10
2.775455001
 20
3.7586782864
 30
0.0
 40
0.1574803149606301
  0
LINE
  5
F9
330
1F
100
AcDbEntity
  8
0
  6
CONTINUOUS
 62
     7
100
AcDbLine
 10
2.6967148435
 20
3.8041389375
 30
0.0
 11
2.775455001
 21
3.8495995886
 31
0.0
  0
LINE
  5
FA
330
1F
100
AcDbEntity
  8
0
  6
CONTINUOUS
 62
     7
100
AcDbLine
 10
2.6967148435
 20
3.7132176353
 30
0.0
 11
2.6967148435
 21
3.8041389375
 31
0.0
  0
LINE
  5
FB
330
1F
100
AcDbEntity
  8
0
  6
CONTINUOUS
 62
     7
100
AcDbLine
 10
2.775455001
 20
3.6677569842
 30
0.0
 11
2.6967148435
 21
3.7132176353
 31
0.0
  0
LINE
  5
FC
330
1F
100
AcDbEntity
  8
0
  6
CONTINUOUS
 62
     7
100
AcDbLine
 10
2.8541951585
 20
3.7132176353
 30
0.0
 11
2.775455001
 21
3.6677569842
 31
0.0
  0
LINE
  5
FD
330
1F
100
AcDbEntity
  8
0
  6
CONTINUOUS
 62
     7
100
AcDbLine
 10
2.8541951585
 20
3.8041389375
 30
0.0
 11
2.8541951585
 21
3.7132176353
 31
0.0
  0
LINE
  5
FE
330
1F
100
AcDbEntity
  8
0
  6
CONTINUOUS
 62
     7
100
AcDbLine
 10
2.775455001
 20
3.8495995886
 30
0.0
 11
2.8541951585
 21
3.8041389375
 31
0.0
  0
LINE
  5
FF
330
1F
100
AcDbEntity
  8
0
  6
CONTINUOUS
 62
     7
100
AcDbLine
 10
2.7360849223
 20
4.1523790738
 30
0.0
 11
2.7360849223
 21
4.5460798612
 31
0.0
  0
LINE
  5
100
330
1F
100
AcDbEntity
  8
0
  6
CONTINUOUS
 62
     7
100
AcDbLine
 10
2.7360849223
 20
4.1523790738
 30
0.0
 11
3.0904156309
 21
4.1523790738
 31
0.0
  0
LINE
  5
101
330
1F
100
AcDbEntity
  8
0
  6
CONTINUOUS
 62
     7
100
AcDbLine
 10
3.0904156309
 20
4.1523790738
 30
0.0
 11
3.0904156309
 21
3.364977499
 31
0.0
  0
LINE
  5
102
330
1F
100
AcDbEntity
  8
0
  6
CONTINUOUS
 62
     7
100
AcDbLine
 10
3.0904156309
 20
3.364977499
 30
0.0
 11
2.7360849223
 21
3.364977499
 31
0.0
  0
LINE
  5
103
330
1F
100
AcDbEntity
  8
0
  6
CONTINUOUS
 62
     7
100
AcDbLine
 10
2.7360849223
 20
2.9712767116
 30
0.0
 11
2.7360849223
 21
3.364977499
 31
0.0
  0
SPLINE
  5
104
330
1F
100
AcDbEntity
  8
0
  6
CONTINUOUS
 62
     7
100
AcDbSpline
210
0.0
220
0.0
230
1.0
 70
     8
 71
     3
 72
    58
 73
    54
 74
     0
 42
0.00000001
 43
0.00000001
 40
-0.0312499999999999
 40
-0.0312499999999999
 40
0.0
 40
0.0
 40
0.0312500000000001
 40
0.0312500000000001
 40
0.0625000000000001
 40
0.0625000000000001
 40
0.0937500000000002
 40
0.0937500000000002
 40
0.1250000000000002
 40
0.1250000000000002
 40
0.1875000000000002
 40
0.1875000000000002
 40
0.2500000000000002
 40
0.2500000000000002
 40
0.2812500000000003
 40
0.2812500000000003
 40
0.3125000000000004
 40
0.3125000000000004
 40
0.3750000000000006
 40
0.3750000000000006
 40
0.4062500000000007
 40
0.4062500000000007
 40
0.4375000000000008
 40
0.4375000000000008
 40
0.4687500000000009
 40
0.4687500000000009
 40
0.500000000000001
 40
0.500000000000001
 40
0.5625000000000012
 40
0.5625000000000012
 40
0.5937500000000013
 40
0.5937500000000013
 40
0.6250000000000013
 40
0.6250000000000013
 40
0.6562500000000014
 40
0.6562500000000014
 40
0.6875000000000014
 40
0.6875000000000014
 40
0.7500000000000011
 40
0.7500000000000011
 40
0.781250000000001
 40
0.781250000000001
 40
0.8125000000000009
 40
0.8125000000000009
 40
0.8437500000000007
 40
0.8437500000000007
 40
0.8750000000000006
 40
0.8750000000000006
 40
0.9375000000000003
 40
0.9375000000000003
 40
0.9687500000000001
 40
0.9687500000000001
 40
1.0
 40
1.0
 40
1.03125
 40
1.03125
 10
2.932935315982978
 20
3.769110357714814
 30
0.0
 10
2.932935315982978
 20
3.748246215069274
 30
0.0
 10
2.931909015256057
 20
3.73799364618793
 30
0.0
 10
2.92789263768685
 20
3.717831256654784
 30
0.0
 10
2.924851969316514
 20
3.707815131474427
 30
0.0
 10
2.916938079518559
 20
3.688756521805496
 30
0.0
 10
2.912099126999877
 20
3.679721530049049
 30
0.0
 10
2.90067153095711
 20
3.66262305661528
 30
0.0
 10
2.89403803581402
 20
3.654548346134655
 30
0.0
 10
2.872304843946857
 20
3.632821695309808
 30
0.0
 10
2.854778841950885
 20
3.621098543014537
 30
0.0
 10
2.816905865568754
 20
3.605373741919834
 30
0.0
 10
2.796146886041893
 20
3.60121026112107
 30
0.0
 10
2.765249677261945
 20
3.60119186844078
 30
0.0
 10
2.754784938367663
 20
3.602220492440538
 30
0.0
 10
2.734567635998887
 20
3.606249561540857
 30
0.0
 10
2.724738415685433
 20
3.609230267930791
 30
0.0
 10
2.696090846554582
 20
3.621096633595436
 30
0.0
 10
2.6787638538519
 20
3.632665149992102
 30
0.0
 10
2.656804617286772
 20
3.654614624333202
 30
0.0
 10
2.650307616872644
 20
3.662536805448923
 30
0.0
 10
2.638903994284122
 20
3.679565236417802
 30
0.0
 10
2.633959064397233
 20
3.688784672344262
 30
0.0
 10
2.626058227513582
 20
3.707817481922894
 30
0.0
 10
2.623067735200191
 20
3.717633568697086
 30
0.0
 10
2.619014549237861
 20
3.737871251983531
 30
0.0
 10
2.61797886922109
 20
3.748323408964729
 30
0.0
 10
2.617966358532725
 20
3.779196594825395
 30
0.0
 10
2.622104880574609
 20
3.799970821022437
 30
0.0
 10
2.63388504056894
 20
3.828415770657537
 30
0.0
 10
2.638795912847254
 20
3.837612964508117
 30
0.0
 10
2.650256346493374
 20
3.854759953187906
 30
0.0
 10
2.656750986660772
 20
3.862672405009179
 30
0.0
 10
2.671255296434708
 20
3.877201876011819
 30
0.0
 10
2.679334544597429
 20
3.88384247876117
 30
0.0
 10
2.69637888257766
 20
3.895251287700765
 30
0.0
 10
2.705407597439355
 20
3.900101290905824
 30
0.0
 10
2.73406629434892
 20
3.912025102391901
 30
0.0
 10
2.75454593266108
 20
3.916143881722107
 30
0.0
 10
2.78574279681024
 20
3.916165902321037
 30
0.0
 10
2.79598593523536
 20
3.915153183060996
 30
0.0
 10
2.816171059000246
 20
3.91115161248536
 30
0.0
 10
2.826212963222174
 20
3.90810962117216
 30
0.0
 10
2.845240481180998
 20
3.900227151805628
 30
0.0
 10
2.854283049976506
 20
3.895398512785187
 30
0.0
 10
2.871430609878479
 20
3.883957830259375
 30
0.0
 10
2.879484156216626
 20
3.877349071271162
 30
0.0
 10
2.901213661818643
 20
3.855651951329844
 30
0.0
 10
2.912960774404199
 20
3.83813307132102
 30
0.0
 10
2.92478557867075
 20
3.80972376532634
 30
0.0
 10
2.927842504148432
 20
3.799733426150612
 30
0.0
 10
2.93190883304939
 20
3.779406866991113
 30
0.0
 10
2.932935315982978
 20
3.769110357714814
 30
0.0
 10
2.932935315982978
 20
3.748246215069274
 30
0.0
  0
LINE
  5
105
330
1F
100
AcDbEntity
  8
0
  6
CONTINUOUS
 62
     7
100
AcDbLine
 10
2.4604943711
 20
3.7586782864
 30
0.0
 11
2.4604943711
 21
2.9712767116
 31
0.0
  0
LINE
  5
106
330
1F
100
AcDbEntity
  8
0
  6
CONTINUOUS
 62
     7
100
AcDbLine
 10
2.4604943711
 20
4.5460798612
 30
0.0
 11
2.4604943711
 21
3.7586782864
 31
0.0
  0
LINE
  5
107
330
1F
100
AcDbEntity
  8
0
  6
CONTINUOUS
 62
     7
100
AcDbLine
 10
2.4211242924
 20
3.7586782864
 30
0.0
 11
2.4211242924
 21
4.5067097825
 31
0.0
  0
LINE
  5
108
330
1F
100
AcDbEntity
  8
0
  6
CONTINUOUS
 62
     7
100
AcDbLine
 10
2.4211242924
 20
3.0106467903
 30
0.0
 11
2.4211242924
 21
3.7586782864
 31
0.0
  0
LINE
  5
109
330
1F
100
AcDbEntity
  8
0
  6
CONTINUOUS
 62
     7
100
AcDbLine
 10
2.775455001
 20
4.5067097825
 30
0.0
 11
2.775455001
 21
4.1523790738
 31
0.0
  0
LINE
  5
10A
330
1F
100
AcDbEntity
  8
0
  6
CONTINUOUS
 62
     7
100
AcDbLine
 10
2.775455001
 20
3.364977499
 30
0.0
 11
2.775455001
 21
3.0106467903
 31
0.0
  0
LINE
  5
10B
330
1F
100
AcDbEntity
  8
0
  6
CONTINUOUS
 62
     7
100
AcDbLine
 10
3.5234864971
 20
4.4257950929
 30
0.0
 11
3.5234864971
 21
4.5460798612
 31
0.0
  0
LINE
  5
10C
330
1F
100
AcDbEntity
  8
0
  6
CONTINUOUS
 62
     7
100
AcDbLine
 10
3.838447127
 20
4.4257950929
 30
0.0
 11
3.5234864971
 21
4.4257950929
 31
0.0
  0
LINE
  5
10D
330
1F
100
AcDbEntity
  8
0
  6
CONTINUOUS
 62
     7
100
AcDbLine
 10
3.838447127
 20
3.0967970548
 30
0.0
 11
3.838447127
 21
4.4257950929
 31
0.0
  0
LINE
  5
10E
330
1F
100
AcDbEntity
  8
0
  6
CONTINUOUS
 62
     7
100
AcDbLine
 10
3.5234864971
 20
3.0967970548
 30
0.0
 11
3.838447127
 21
3.0967970548
 31
0.0
  0
LINE
  5
10F
330
1F
100
AcDbEntity
  8
0
  6
CONTINUOUS
 62
     7
100
AcDbLine
 10
3.5234864971
 20
2.9712767116
 30
0.0
 11
3.5234864971
 21
3.0967970548
 31
0.0
  0
LINE
  5
110
330
1F
100
AcDbEntity
  8
0
  6
CONTINUOUS
 62
     7
100
AcDbLine
 10
3.1297857097
 20
3.3321639545
 30
0.0
 11
2.8148250798
 21
3.3321639545
 31
0.0
  0
LINE
  5
111
330
1F
100
AcDbEntity
  8
0
  6
CONTINUOUS
 62
     7
100
AcDbLine
 10
3.1297857097
 20
4.1769561922
 30
0.0
 11
3.1297857097
 21
3.3321639545
 31
0.0
  0
LINE
  5
112
330
1F
100
AcDbEntity
  8
0
  6
CONTINUOUS
 62
     7
100
AcDbLine
 10
2.8148250798
 20
4.1769561922
 30
0.0
 11
3.1297857097
 21
4.1769561922
 31
0.0
  0
LINE
  5
113
330
1F
100
AcDbEntity
  8
0
  6
CONTINUOUS
 62
     7
100
AcDbLine
 10
2.8148250798
 20
4.5460798612
 30
0.0
 11
2.8148250798
 21
4.1769561922
 31
0.0
  0
LINE
  5
114
330
1F
100
AcDbEntity
  8
0
  6
CONTINUOUS
 62
     7
100
AcDbLine
 10
2.8148250798
 20
3.3321639545
 30
0.0
 11
2.8148250798
 21
2.9712767116
 31
0.0
  0
SPLINE
  5
115
330
1F
100
AcDbEntity
  8
0
  6
CONTINUOUS
 62
     7
100
AcDbSpline
210
0.0
220
0.0
230
1.0
 70
     8
 71
     3
 72
     8
 73
     4
 74
     0
 42
0.00000001
 43
0.00000001
 40
0.0
 40
0.0
 40
0.0
 40
0.0
 40
0.0006160615699252
 40
0.0006160615699252
 40
0.0006160615699252
 40
0.0006160615699252
 10
3.095947377535462
 20
4.15237907379362
 30
0.0
 10
3.107219657411839
 20
4.160576375459824
 30
0.0
 10
3.118499421434415
 20
4.168768533839065
 30
0.0
 10
3.129785709683766
 20
4.176956192246006
 30
0.0
  0
SPLINE
  5
116
330
1F
100
AcDbEntity
  8
0
  6
CONTINUOUS
 62
     7
100
AcDbSpline
210
0.0
220
0.0
230
1.0
 70
     8
 71
     3
 72
     8
 73
     4
 74
     0
 42
0.00000001
 43
0.00000001
 40
0.0
 40
0.0
 40
0.0
 40
0.0
 40
0.000534342373819
 40
0.000534342373819
 40
0.000534342373819
 40
0.000534342373819
 10
3.104962249293777
 20
3.36497749899047
 30
0.0
 10
3.113159536122422
 20
3.353985549192744
 30
0.0
 10
3.121437540406641
 20
3.34304943887177
 30
0.0
 10
3.129785709683766
 20
3.33216395451019
 30
0.0
  0
SPLINE
  5
117
330
1F
100
AcDbEntity
  8
0
  6
CONTINUOUS
 62
     7
100
AcDbSpline
210
0.0
220
0.0
230
1.0
 70
     8
 71
     3
 72
     8
 73
     4
 74
     0
 42
0.00000001
 43
0.00000001
 40
0.0
 40
0.0
 40
0.0
 40
0.0
 40
0.0001083645978465
 40
0.0001083645978465
 40
0.0001083645978465
 40
0.0001083645978465
 10
3.872285459154904
 20
4.401217974411289
 30
0.0
 10
3.874130861375437
 20
4.39905370766289
 30
0.0
 10
3.87597479054106
 20
4.396888183975214
 30
0.0
 10
3.877817205746757
 20
4.394721373848879
 30
0.0
  0
SPLINE
  5
118
330
1F
100
AcDbEntity
  8
0
  6
CONTINUOUS
 62
     7
100
AcDbSpline
210
0.0
220
0.0
230
1.0
 70
     8
 71
     3
 72
     8
 73
     4
 74
     0
 42
0.00000001
 43
0.00000001
 40
0.0
 40
0.0
 40
0.0
 40
0.0
 40
0.0002845941545838
 40
0.0002845941545838
 40
0.0002845941545838
 40
0.0002845941545838
 10
3.877817205746757
 20
3.122635198935216
 30
0.0
 10
3.87297853510821
 20
3.116944581258385
 30
0.0
 10
3.868129422355836
 20
3.111262828000522
 30
0.0
 10
3.863270587396588
 20
3.105589417568429
 30
0.0
  0
SPLINE
  5
119
330
1F
100
AcDbEntity
  8
0
  6
CONTINUOUS
 62
     7
100
AcDbSpline
210
0.0
220
0.0
230
1.0
 70
     8
 71
     3
 72
     8
 73
     4
 74
     0
 42
0.00000001
 43
0.00000001
 40
0.0
 40
0.0
 40
0.0
 40
0.0
 40
0.000534342373819
 40
0.000534342373819
 40
0.000534342373819
 40
0.000534342373819
 10
3.8384471270066
 20
3.096797054824135
 30
0.0
 10
3.846795296283724
 20
3.099713811568043
 30
0.0
 10
3.855073300567943
 20
3.102644133496885
 30
0.0
 10
3.863270587396588
 20
3.105589417568429
 30
0.0
  0
SPLINE
  5
11A
330
1F
100
AcDbEntity
  8
0
  6
CONTINUOUS
 62
     7
100
AcDbSpline
210
0.0
220
0.0
230
1.0
 70
     8
 71
     3
 72
     8
 73
     4
 74
     0
 42
0.00000001
 43
0.00000001
 40
0.0
 40
0.0
 40
0.0
 40
0.0
 40
0.0006160615699252
 40
0.0006160615699252
 40
0.0006160615699252
 40
0.0006160615699252
 10
3.8384471270066
 20
4.425795092863676
 30
0.0
 10
3.849733415255951
 20
4.417607434456736
 30
0.0
 10
3.861013179278526
 20
4.409415276077494
 30
0.0
 10
3.872285459154904
 20
4.401217974411289
 30
0.0
  0
SPLINE
  5
11B
330
1F
100
AcDbEntity
  8
0
  6
CONTINUOUS
 62
     7
100
AcDbSpline
210
0.0
220
0.0
230
1.0
 70
     8
 71
     3
 72
     8
 73
     4
 74
     0
 42
0.00000001
 43
0.00000001
 40
0.0
 40
0.0
 40
0.0
 40
0.0
 40
0.0006160615699252
 40
0.0006160615699252
 40
0.0006160615699252
 40
0.0006160615699252
 10
2.780986747614202
 20
4.15237907379362
 30
0.0
 10
2.792259027490579
 20
4.160576375459824
 30
0.0
 10
2.803538791513154
 20
4.168768533839065
 30
0.0
 10
2.814825079762505
 20
4.176956192246006
 30
0.0
  0
LINE
  5
11C
330
1F
100
AcDbEntity
  8
0
  6
CONTINUOUS
 62
     7
100
AcDbLine
 10
3.0959473775
 20
4.1523790738
 30
0.0
 11
3.0904156309
 21
4.1523790738
 31
0.0
  0
SPLINE
  5
11D
330
1F
100
AcDbEntity
  8
0
  6
CONTINUOUS
 62
     7
100
AcDbSpline
210
0.0
220
0.0
230
1.0
 70
     8
 71
     3
 72
     8
 73
     4
 74
     0
 42
0.00000001
 43
0.00000001
 40
0.0
 40
0.0
 40
0.0
 40
0.0
 40
0.000534342373819
 40
0.000534342373819
 40
0.000534342373819
 40
0.000534342373819
 10
2.790001619372517
 20
3.36497749899047
 30
0.0
 10
2.798198906201161
 20
3.353985549192744
 30
0.0
 10
2.806476910485381
 20
3.34304943887177
 30
0.0
 10
2.814825079762505
 20
3.33216395451019
 30
0.0
  0
LINE
  5
11E
330
1F
100
AcDbEntity
  8
0
  6
CONTINUOUS
 62
     7
100
AcDbLine
 10
3.0904156309
 20
3.364977499
 30
0.0
 11
3.1049622493
 21
3.364977499
 31
0.0
  0
LINE
  5
11F
330
1F
100
AcDbEntity
  8
0
  6
HIDDEN
 62
     7
100
AcDbLine
 10
4.0352975207
 20
4.5263948218
 30
0.0
 11
3.7203368908
 21
4.5263948218
 31
0.0
  0
LINE
  5
120
330
1F
100
AcDbEntity
  8
0
  6
HIDDEN
 62
     7
100
AcDbLine
 10
3.8778172057
 20
4.0145837982
 30
0.0
 11
4.0352975207
 21
4.0145837982
 31
0.0
  0
LINE
  5
121
330
1F
100
AcDbEntity
  8
0
  6
HIDDEN
 62
     7
100
AcDbLine
 10
3.7203368908
 20
4.0145837982
 30
0.0
 11
3.8778172057
 21
4.0145837982
 31
0.0
  0
LINE
  5
122
330
1F
100
AcDbEntity
  8
0
  6
HIDDEN
 62
     7
100
AcDbLine
 10
3.8778172057
 20
3.9948987588
 30
0.0
 11
3.7400219302
 21
3.9948987588
 31
0.0
  0
LINE
  5
123
330
1F
100
AcDbEntity
  8
0
  6
HIDDEN
 62
     7
100
AcDbLine
 10
4.0156124813
 20
3.9948987588
 30
0.0
 11
3.8778172057
 21
3.9948987588
 31
0.0
  0
LINE
  5
124
330
1F
100
AcDbEntity
  8
0
  6
HIDDEN
 62
     7
100
AcDbLine
 10
3.7990770483
 20
4.3885995462
 30
0.0
 11
3.8778172057
 21
4.3885995462
 31
0.0
  0
LINE
  5
125
330
1F
100
AcDbEntity
  8
0
  6
HIDDEN
 62
     7
100
AcDbLine
 10
3.8778172057
 20
4.3947213738
 30
0.0
 11
3.8778172057
 21
4.5460798612
 31
0.0
  0
LINE
  5
126
330
1F
100
AcDbEntity
  8
0
  6
HIDDEN
 62
     7
100
AcDbLine
 10
3.8778172057
 20
4.3885995462
 30
0.0
 11
3.9565573632
 21
4.3885995462
 31
0.0
  0
LINE
  5
127
330
1F
100
AcDbEntity
  8
0
  6
HIDDEN
 62
     7
100
AcDbLine
 10
3.7990770483
 20
4.3885995462
 30
0.0
 11
3.7990770483
 21
4.5460798612
 31
0.0
  0
LINE
  5
128
330
1F
100
AcDbEntity
  8
0
  6
HIDDEN
 62
     7
100
AcDbLine
 10
3.9565573632
 20
4.3885995462
 30
0.0
 11
3.9565573632
 21
4.5460798612
 31
0.0
  0
LINE
  5
129
330
1F
100
AcDbEntity
  8
0
  6
HIDDEN
 62
     7
100
AcDbLine
 10
3.5895289834
 20
4.4257950929
 30
0.0
 11
3.5628565758
 21
4.3947213738
 31
0.0
  0
LINE
  5
12A
330
1F
100
AcDbEntity
  8
0
  6
HIDDEN
 62
     7
100
AcDbLine
 10
3.5628565758
 20
3.1226351989
 30
0.0
 11
3.5850349804
 21
3.0967970548
 31
0.0
  0
LINE
  5
12B
330
1F
100
AcDbEntity
  8
0
  6
HIDDEN
 62
     7
100
AcDbLine
 10
3.5628565758
 20
3.1226351989
 30
0.0
 11
3.5628565758
 21
4.3947213738
 31
0.0
  0
LINE
  5
12C
330
1F
100
AcDbEntity
  8
0
  6
HIDDEN
 62
     7
100
AcDbLine
 10
3.5628565758
 20
4.3947213738
 30
0.0
 11
3.5628565758
 21
4.4257950929
 31
0.0
  0
LINE
  5
12D
330
1F
100
AcDbEntity
  8
0
  6
HIDDEN
 62
     7
100
AcDbLine
 10
3.5628565758
 20
3.0967970548
 30
0.0
 11
3.5628565758
 21
3.1226351989
 31
0.0
  0
SPLINE
  5
12E
330
1F
100
AcDbEntity
  8
0
  6
HIDDEN
 62
     7
100
AcDbSpline
210
0.0
220
0.0
230
1.0
 70
     8
 71
     3
 72
    30
 73
    26
 74
     0
 42
0.00000001
 43
0.00000001
 40
0.0
 40
0.0
 40
0.0
 40
0.0
 40
0.0058252097759358
 40
0.0495904444522098
 40
0.0946458206122987
 40
0.1383860662236295
 40
0.1831272803762992
 40
0.2326827967065848
 40
0.2833228245315976
 40
0.3403120538021723
 40
0.399066601804715
 40
0.4398199104633484
 40
0.4816653348779417
 40
0.5224626867137669
 40
0.5645836928719331
 40
0.6036392751463713
 40
0.6434950641680064
 40
0.6904139473110761
 40
0.7382529433113713
 40
0.795136605963502
 40
0.8537290542719594
 40
0.8997041380856422
 40
0.9469472965677892
 40
0.9929629972708862
 40
0.9999999999999999
 40
0.9999999999999999
 40
0.9999999999999999
 40
0.9999999999999999
 10
4.035067175293359
 20
3.994745652961268
 30
0.0
 10
4.035143037802324
 20
3.99479606997433
 30
0.0
 10
4.035788860988347
 20
3.995225273759577
 30
0.0
 10
4.033507489319739
 20
3.993704167747221
 30
0.0
 10
4.028604705603353
 20
3.99047312206775
 30
0.0
 10
4.020342230099725
 20
3.985163469463723
 30
0.0
 10
4.009226626431611
 20
3.978302958932453
 30
0.0
 10
3.99487456959152
 20
3.969966202299516
 30
0.0
 10
3.976629881745077
 20
3.96033238141567
 30
0.0
 10
3.954533051678781
 20
3.950298840199522
 30
0.0
 10
3.93112563492019
 20
3.942169548968708
 30
0.0
 10
3.908284330655885
 20
3.936980316028686
 30
0.0
 10
3.887430606189866
 20
3.934582955668447
 30
0.0
 10
3.866034520710568
 20
3.934714009338828
 30
0.0
 10
3.845489510820585
 20
3.937326265357937
 30
0.0
 10
3.826029680196043
 20
3.941919133256201
 30
0.0
 10
3.807025990434342
 20
3.948170760121994
 30
0.0
 10
3.788314398472414
 20
3.955954587285598
 30
0.0
 10
3.769390872358831
 20
3.965253818135214
 30
0.0
 10
3.751744316716302
 20
3.975085289762547
 30
0.0
 10
3.737731535828098
 20
3.983615999246413
 30
0.0
 10
3.727874927610146
 20
3.989919849298003
 30
0.0
 10
3.722341060246777
 20
3.993560968103146
 30
0.0
 10
3.71992349831289
 20
3.995173741839555
 30
0.0
 10
3.720497770801674
 20
3.994791722805092
 30
0.0
 10
3.720573943302025
 20
3.994741051136842
 30
0.0
  0
LINE
  5
12F
330
1F
100
AcDbEntity
  8
0
  6
HIDDEN
 62
     7
100
AcDbLine
 10
3.8778172057
 20
3.0767685196
 30
0.0
 11
3.8778172057
 21
3.1226351989
 31
0.0
  0
LINE
  5
130
330
1F
100
AcDbEntity
  8
0
  6
HIDDEN
 62
     7
100
AcDbLine
 10
3.0510455522
 20
4.1523790738
 30
0.0
 11
3.0510455522
 21
3.364977499
 31
0.0
  0
LINE
  5
131
330
1F
100
AcDbEntity
  8
0
  6
HIDDEN
 62
     7
100
AcDbLine
 10
3.5234864971
 20
4.420559518
 30
0.0
 11
3.838447127
 21
4.420559518
 31
0.0
  0
LINE
  5
132
330
1F
100
AcDbEntity
  8
0
  6
HIDDEN
 62
     7
100
AcDbLine
 10
3.5234864971
 20
4.4257950929
 30
0.0
 11
3.5234864971
 21
4.420559518
 31
0.0
  0
LINE
  5
133
330
1F
100
AcDbEntity
  8
0
  6
HIDDEN
 62
     7
100
AcDbLine
 10
3.838447127
 20
3.0915614799
 30
0.0
 11
3.5234864971
 21
3.0915614799
 31
0.0
  0
LINE
  5
134
330
1F
100
AcDbEntity
  8
0
  6
HIDDEN
 62
     7
100
AcDbLine
 10
3.838447127
 20
3.0967970548
 30
0.0
 11
3.838447127
 21
3.0915614799
 31
0.0
  0
LINE
  5
135
330
1F
100
AcDbEntity
  8
0
  6
HIDDEN
 62
     7
100
AcDbLine
 10
3.1297857097
 20
4.1851926183
 30
0.0
 11
2.8148250798
 21
4.1851926183
 31
0.0
  0
LINE
  5
136
330
1F
100
AcDbEntity
  8
0
  6
HIDDEN
 62
     7
100
AcDbLine
 10
3.1297857097
 20
4.1769561922
 30
0.0
 11
3.1297857097
 21
4.1851926183
 31
0.0
  0
LINE
  5
137
330
1F
100
AcDbEntity
  8
0
  6
HIDDEN
 62
     7
100
AcDbLine
 10
2.8148250798
 20
3.3404003805
 30
0.0
 11
3.1297857097
 21
3.3404003805
 31
0.0
  0
LINE
  5
138
330
1F
100
AcDbEntity
  8
0
  6
HIDDEN
 62
     7
100
AcDbLine
 10
2.8148250798
 20
3.3321639545
 30
0.0
 11
2.8148250798
 21
3.3404003805
 31
0.0
  0
SPLINE
  5
139
330
1F
100
AcDbEntity
  8
0
  6
HIDDEN
 62
     7
100
AcDbSpline
210
0.0
220
0.0
230
1.0
 70
     8
 71
     3
 72
     8
 73
     4
 74
     0
 42
0.00000001
 43
0.00000001
 40
0.0
 40
0.0
 40
0.0
 40
0.0
 40
0.000534342373819
 40
0.000534342373819
 40
0.000534342373819
 40
0.000534342373819
 10
2.790001619372517
 20
4.152379073793624
 30
0.0
 10
2.798198906201162
 20
4.16337102359135
 30
0.0
 10
2.806476910485381
 20
4.174307133912324
 30
0.0
 10
2.814825079762505
 20
4.185192618273904
 30
0.0
  0
SPLINE
  5
13A
330
1F
100
AcDbEntity
  8
0
  6
HIDDEN
 62
     7
100
AcDbSpline
210
0.0
220
0.0
230
1.0
 70
     8
 71
     3
 72
     8
 73
     4
 74
     0
 42
0.00000001
 43
0.00000001
 40
0.0
 40
0.0
 40
0.0
 40
0.0
 40
0.0006160615699252
 40
0.0006160615699252
 40
0.0006160615699252
 40
0.0006160615699252
 10
2.780986747614202
 20
3.364977498990475
 30
0.0
 10
2.792259027490579
 20
3.35678019732427
 30
0.0
 10
2.803538791513154
 20
3.348588038945028
 30
0.0
 10
2.814825079762505
 20
3.340400380538089
 30
0.0
  0
SPLINE
  5
13B
330
1F
100
AcDbEntity
  8
0
  6
HIDDEN
 62
     7
100
AcDbSpline
210
0.0
220
0.0
230
1.0
 70
     8
 71
     3
 72
     8
 73
     4
 74
     0
 42
0.00000001
 43
0.00000001
 40
0.0
 40
0.0
 40
0.0
 40
0.0
 40
0.0002845941545838
 40
0.0002845941545838
 40
0.0002845941545838
 40
0.0002845941545838
 10
3.548309957475328
 20
3.105589417568429
 30
0.0
 10
3.553168792434576
 20
3.111262828000522
 30
0.0
 10
3.55801790518695
 20
3.116944581258385
 30
0.0
 10
3.562856575825498
 20
3.122635198935216
 30
0.0
  0
SPLINE
  5
13C
330
1F
100
AcDbEntity
  8
0
  6
HIDDEN
 62
     7
100
AcDbSpline
210
0.0
220
0.0
230
1.0
 70
     8
 71
     3
 72
     8
 73
     4
 74
     0
 42
0.00000001
 43
0.00000001
 40
0.0
 40
0.0
 40
0.0
 40
0.0
 40
0.0006160615699252
 40
0.0006160615699252
 40
0.0006160615699252
 40
0.0006160615699252
 10
3.52348649708534
 20
3.091561479920419
 30
0.0
 10
3.53477278533469
 20
3.099749138327359
 30
0.0
 10
3.546052549357266
 20
3.1079412967066
 30
0.0
 10
3.557324829233644
 20
3.116138598372805
 30
0.0
  0
SPLINE
  5
13D
330
1F
100
AcDbEntity
  8
0
  6
HIDDEN
 62
     7
100
AcDbSpline
210
0.0
220
0.0
230
1.0
 70
     8
 71
     3
 72
     8
 73
     4
 74
     0
 42
0.00000001
 43
0.00000001
 40
0.0
 40
0.0
 40
0.0
 40
0.0
 40
0.000534342373819
 40
0.000534342373819
 40
0.000534342373819
 40
0.000534342373819
 10
3.52348649708534
 20
3.096797054824135
 30
0.0
 10
3.531834666362464
 20
3.099713811568043
 30
0.0
 10
3.540112670646683
 20
3.102644133496885
 30
0.0
 10
3.548309957475328
 20
3.105589417568429
 30
0.0
  0
SPLINE
  5
13E
330
1F
100
AcDbEntity
  8
0
  6
HIDDEN
 62
     7
100
AcDbSpline
210
0.0
220
0.0
230
1.0
 70
     8
 71
     3
 72
     8
 73
     4
 74
     0
 42
0.00000001
 43
0.00000001
 40
0.0
 40
0.0
 40
0.0
 40
0.0
 40
0.0001083645978465
 40
0.0001083645978465
 40
0.0001083645978465
 40
0.0001083645978465
 10
3.562856575825497
 20
4.394721373848878
 30
0.0
 10
3.561014160619799
 20
4.396888183975213
 30
0.0
 10
3.559170231454177
 20
4.39905370766289
 30
0.0
 10
3.557324829233644
 20
4.40121797441129
 30
0.0
  0
SPLINE
  5
13F
330
1F
100
AcDbEntity
  8
0
  6
HIDDEN
 62
     7
100
AcDbSpline
210
0.0
220
0.0
230
1.0
 70
     8
 71
     3
 72
     8
 73
     4
 74
     0
 42
0.00000001
 43
0.00000001
 40
0.0
 40
0.0
 40
0.0
 40
0.0
 40
0.0006160615699252
 40
0.0006160615699252
 40
0.0006160615699252
 40
0.0006160615699252
 10
3.52348649708534
 20
4.425795092863676
 30
0.0
 10
3.53477278533469
 20
4.417607434456736
 30
0.0
 10
3.546052549357266
 20
4.409415276077494
 30
0.0
 10
3.557324829233644
 20
4.401217974411289
 30
0.0
  0
SPLINE
  5
140
330
1F
100
AcDbEntity
  8
0
  6
HIDDEN
 62
     7
100
AcDbSpline
210
0.0
220
0.0
230
1.0
 70
     8
 71
     3
 72
     8
 73
     4
 74
     0
 42
0.00000001
 43
0.00000001
 40
0.0
 40
0.0
 40
0.0
 40
0.0
 40
0.000534342373819
 40
0.000534342373819
 40
0.000534342373819
 40
0.000534342373819
 10
3.52348649708534
 20
4.420559517959958
 30
0.0
 10
3.531834666362464
 20
4.417642761216052
 30
0.0
 10
3.540112670646683
 20
4.414712439287209
 30
0.0
 10
3.548309957475328
 20
4.411767155215665
 30
0.0
  0
SPLINE
  5
141
330
1F
100
AcDbEntity
  8
0
  6
HIDDEN
 62
     7
100
AcDbSpline
210
0.0
220
0.0
230
1.0
 70
     8
 71
     3
 72
     8
 73
     4
 74
     0
 42
0.00000001
 43
0.00000001
 40
0.0
 40
0.0
 40
0.0
 40
0.0
 40
0.0002845941545838
 40
0.0002845941545838
 40
0.0002845941545838
 40
0.0002845941545838
 10
3.548309957475328
 20
4.411767155215665
 30
0.0
 10
3.553168792434576
 20
4.406093744783571
 30
0.0
 10
3.55801790518695
 20
4.40041199152571
 30
0.0
 10
3.562856575825497
 20
4.394721373848878
 30
0.0
  0
LINE
  5
142
330
1F
100
AcDbEntity
  8
0
  6
HIDDEN
 62
     7
100
AcDbLine
 10
3.5573248292
 20
4.4012179744
 30
0.0
 11
3.8722854592
 21
4.4012179744
 31
0.0
  0
LINE
  5
143
330
1F
100
AcDbEntity
  8
0
  6
HIDDEN
 62
     7
100
AcDbLine
 10
3.8632705874
 20
3.1055894176
 30
0.0
 11
3.5483099575
 21
3.1055894176
 31
0.0
  0
SPLINE
  5
144
330
1F
100
AcDbEntity
  8
0
  6
HIDDEN
 62
     7
100
AcDbSpline
210
0.0
220
0.0
230
1.0
 70
     8
 71
     3
 72
     8
 73
     4
 74
     0
 42
0.00000001
 43
0.00000001
 40
0.0
 40
0.0
 40
0.0
 40
0.0
 40
0.000534342373819
 40
0.000534342373819
 40
0.000534342373819
 40
0.000534342373819
 10
3.8384471270066
 20
4.420559517959958
 30
0.0
 10
3.846795296283725
 20
4.417642761216052
 30
0.0
 10
3.855073300567943
 20
4.414712439287209
 30
0.0
 10
3.863270587396588
 20
4.411767155215665
 30
0.0
  0
LINE
  5
145
330
1F
100
AcDbEntity
  8
0
  6
HIDDEN
 62
     7
100
AcDbLine
 10
3.8632705874
 20
4.4117671552
 30
0.0
 11
3.5483099575
 21
4.4117671552
 31
0.0
  0
LINE
  5
146
330
1F
100
AcDbEntity
  8
0
  6
HIDDEN
 62
     7
100
AcDbLine
 10
3.5573248292
 20
3.1161385984
 30
0.0
 11
3.8722854592
 21
3.1161385984
 31
0.0
  0
SPLINE
  5
147
330
1F
100
AcDbEntity
  8
0
  6
HIDDEN
 62
     7
100
AcDbSpline
210
0.0
220
0.0
230
1.0
 70
     8
 71
     3
 72
     8
 73
     4
 74
     0
 42
0.00000001
 43
0.00000001
 40
0.0
 40
0.0
 40
0.0
 40
0.0
 40
0.0006160615699252
 40
0.0006160615699252
 40
0.0006160615699252
 40
0.0006160615699252
 10
3.872285459154905
 20
3.116138598372805
 30
0.0
 10
3.861013179278527
 20
3.1079412967066
 30
0.0
 10
3.849733415255951
 20
3.099749138327359
 30
0.0
 10
3.8384471270066
 20
3.091561479920419
 30
0.0
  0
SPLINE
  5
148
330
1F
100
AcDbEntity
  8
0
  6
HIDDEN
 62
     7
100
AcDbSpline
210
0.0
220
0.0
230
1.0
 70
     8
 71
     3
 72
     8
 73
     4
 74
     0
 42
0.00000001
 43
0.00000001
 40
0.0
 40
0.0
 40
0.0
 40
0.0
 40
0.0002845941545838
 40
0.0002845941545838
 40
0.0002845941545838
 40
0.0002845941545838
 10
3.877817205746758
 20
4.394721373848879
 30
0.0
 10
3.872978535108211
 20
4.40041199152571
 30
0.0
 10
3.868129422355836
 20
4.406093744783571
 30
0.0
 10
3.863270587396588
 20
4.411767155215665
 30
0.0
  0
LINE
  5
149
330
1F
100
AcDbEntity
  8
0
  6
HIDDEN
 62
     7
100
AcDbLine
 10
3.1049622493
 20
4.1523790738
 30
0.0
 11
3.0959883705
 21
4.1523790738
 31
0.0
  0
SPLINE
  5
14A
330
1F
100
AcDbEntity
  8
0
  6
HIDDEN
 62
     7
100
AcDbSpline
210
0.0
220
0.0
230
1.0
 70
     8
 71
     3
 72
     8
 73
     4
 74
     0
 42
0.00000001
 43
0.00000001
 40
0.0
 40
0.0
 40
0.0
 40
0.0
 40
0.0006160615699252
 40
0.0006160615699252
 40
0.0006160615699252
 40
0.0006160615699252
 10
3.129785709683765
 20
3.340400380538089
 30
0.0
 10
3.118499421434414
 20
3.348588038945028
 30
0.0
 10
3.107219657411838
 20
3.35678019732427
 30
0.0
 10
3.095947377535461
 20
3.364977498990475
 30
0.0
  0
SPLINE
  5
14B
330
1F
100
AcDbEntity
  8
0
  6
HIDDEN
 62
     7
100
AcDbSpline
210
0.0
220
0.0
230
1.0
 70
     8
 71
     3
 72
     8
 73
     4
 74
     0
 42
0.00000001
 43
0.00000001
 40
0.0
 40
0.0
 40
0.0
 40
0.0
 40
0.000534342373819
 40
0.000534342373819
 40
0.000534342373819
 40
0.000534342373819
 10
3.104962249293777
 20
4.152379073793624
 30
0.0
 10
3.113159536122422
 20
4.16337102359135
 30
0.0
 10
3.12143754040664
 20
4.174307133912324
 30
0.0
 10
3.129785709683765
 20
4.185192618273904
 30
0.0
  0
LINE
  5
14C
330
1F
100
AcDbEntity
  8
0
  6
HIDDEN
 62
     7
100
AcDbLine
 10
3.7203368908
 20
4.5263948218
 30
0.0
 11
3.7203368908
 21
4.0145837982
 31
0.0
  0
LINE
  5
14D
330
1F
100
AcDbEntity
  8
0
  6
HIDDEN
 62
     7
100
AcDbLine
 10
4.0352975207
 20
4.0145837982
 30
0.0
 11
4.0352975207
 21
4.5263948218
 31
0.0
  0
LINE
  5
14E
330
1F
100
AcDbEntity
  8
0
  6
HIDDEN
 62
     7
100
AcDbLine
 10
3.7203368908
 20
4.0145837982
 30
0.0
 11
3.7400219302
 21
3.9948987588
 31
0.0
  0
LINE
  5
14F
330
1F
100
AcDbEntity
  8
0
  6
HIDDEN
 62
     7
100
AcDbLine
 10
4.0156124813
 20
3.9948987588
 30
0.0
 11
4.0352975207
 21
4.0145837982
 31
0.0
  0
LINE
  5
150
330
1F
100
AcDbEntity
  8
0
  6
HIDDEN
 62
     7
100
AcDbLine
 10
4.0352975207
 20
4.5263948218
 30
0.0
 11
4.0187531692
 21
4.5429391733
 31
0.0
  0
LINE
  5
151
330
1F
100
AcDbEntity
  8
0
  6
HIDDEN
 62
     7
100
AcDbLine
 10
3.7368911098
 20
4.5429490408
 30
0.0
 11
3.7203368908
 21
4.5263948218
 31
0.0
  0
LINE
  5
152
330
1F
100
AcDbEntity
  8
0
  6
HIDDEN
 62
     7
100
AcDbLine
 10
4.2321479144
 20
4.0342688376
 30
0.0
 11
4.1927778357
 21
3.9948987588
 31
0.0
  0
LINE
  5
153
330
1F
100
AcDbEntity
  8
0
  6
HIDDEN
 62
     7
100
AcDbLine
 10
4.1927778357
 20
3.522457814
 30
0.0
 11
4.2321479144
 21
3.4830877352
 31
0.0
  0
LINE
  5
154
330
1F
100
AcDbEntity
  8
0
  6
HIDDEN
 62
     7
100
AcDbLine
 10
3.7205739433
 20
3.9948987588
 30
0.0
 11
3.5628565758
 21
3.9948987588
 31
0.0
  0
LINE
  5
155
330
1F
100
AcDbEntity
  8
0
  6
HIDDEN
 62
     7
100
AcDbLine
 10
4.1927778357
 20
3.9948987588
 30
0.0
 11
4.0350671753
 21
3.9948987588
 31
0.0
  0
LINE
  5
156
330
1F
100
AcDbEntity
  8
0
  6
HIDDEN
 62
     7
100
AcDbLine
 10
3.5628565758
 20
3.522457814
 30
0.0
 11
4.1927778357
 21
3.522457814
 31
0.0
  0
LINE
  5
157
330
1F
100
AcDbEntity
  8
0
  6
HIDDEN
 62
     7
100
AcDbLine
 10
4.0352975207
 20
3.9947460468
 30
0.0
 11
4.0352975207
 21
4.5460798612
 31
0.0
  0
LINE
  5
158
330
1F
100
AcDbEntity
  8
0
  6
HIDDEN
 62
     7
100
AcDbLine
 10
3.7203368908
 20
4.5460798612
 30
0.0
 11
3.7203368908
 21
3.9947413116
 31
0.0
  0
LINE
  5
159
330
1F
100
AcDbEntity
  8
0
  6
HIDDEN
 62
     7
100
AcDbLine
 10
2.4211242924
 20
3.4830877352
 30
0.0
 11
2.4604943711
 21
3.522457814
 31
0.0
  0
LINE
  5
15A
330
1F
100
AcDbEntity
  8
0
  6
HIDDEN
 62
     7
100
AcDbLine
 10
2.4604943711
 20
3.9948987588
 30
0.0
 11
2.4211242924
 21
4.0342688376
 31
0.0
  0
LINE
  5
15B
330
1F
100
AcDbEntity
  8
0
  6
HIDDEN
 62
     7
100
AcDbLine
 10
2.4604943711
 20
3.522457814
 30
0.0
 11
3.0904156309
 21
3.522457814
 31
0.0
  0
LINE
  5
15C
330
1F
100
AcDbEntity
  8
0
  6
HIDDEN
 62
     7
100
AcDbLine
 10
3.0904156309
 20
3.9948987588
 30
0.0
 11
2.4604943711
 21
3.9948987588
 31
0.0
  0
LINE
  5
15D
330
1F
100
AcDbEntity
  8
0
  6
HIDDEN
 62
     7
100
AcDbLine
 10
3.0904156309
 20
3.522457814
 30
0.0
 11
3.5628565758
 21
3.522457814
 31
0.0
  0
LINE
  5
15E
330
1F
100
AcDbEntity
  8
0
  6
HIDDEN
 62
     7
100
AcDbLine
 10
3.5628565758
 20
3.9948987588
 30
0.0
 11
3.0904156309
 21
3.9948987588
 31
0.0
  0
LINE
  5
15F
330
1F
100
AcDbEntity
  8
0
  6
CONTINUOUS
 62
     7
100
AcDbLine
 10
8.4036390111
 20
4.531120732
 30
0.0
 11
8.3886798819
 21
4.5460798612
 31
0.0
  0
LINE
  5
160
330
1F
100
AcDbEntity
  8
0
  6
CONTINUOUS
 62
     7
100
AcDbLine
 10
8.1130893307
 20
4.5460798612
 30
0.0
 11
8.0981302016
 21
4.531120732
 31
0.0
  0
LINE
  5
161
330
1F
100
AcDbEntity
  8
0
  6
CONTINUOUS
 62
     7
100
AcDbLine
 10
7.4784421607
 20
3.9114326911
 30
0.0
 11
7.4634830315
 21
3.896473562
 31
0.0
  0
LINE
  5
162
330
1F
100
AcDbEntity
  8
0
  6
CONTINUOUS
 62
     7
100
AcDbLine
 10
7.4634830315
 20
3.6208830108
 30
0.0
 11
7.4784421607
 21
3.6059238816
 31
0.0
  0
LINE
  5
163
330
1F
100
AcDbEntity
  8
0
  6
CONTINUOUS
 62
     7
100
AcDbLine
 10
8.1130893307
 20
4.5460798612
 30
0.0
 11
8.3886798819
 21
4.5460798612
 31
0.0
  0
CIRCLE
  5
164
330
1F
100
AcDbEntity
  8
0
  6
CONTINUOUS
 62
     7
100
AcDbCircle
 10
8.2508846063
 20
3.7586782864
 30
0.0
 40
0.7480314960629943
  0
CIRCLE
  5
165
330
1F
100
AcDbEntity
  8
0
  6
CONTINUOUS
 62
     7
100
AcDbCircle
 10
8.2508846063
 20
3.7586782864
 30
0.0
 40
0.78740157480315
  0
CIRCLE
  5
166
330
1F
100
AcDbEntity
  8
0
  6
CONTINUOUS
 62
     7
100
AcDbCircle
 10
8.2508846063
 20
3.7586782864
 30
0.0
 40
0.2755905511811036
  0
CIRCLE
  5
167
330
1F
100
AcDbEntity
  8
0
  6
CONTINUOUS
 62
     7
100
AcDbCircle
 10
8.2508846063
 20
3.7586782864
 30
0.0
 40
0.2362204724409462
  0
LINE
  5
168
330
1F
100
AcDbEntity
  8
0
  6
CONTINUOUS
 62
     7
100
AcDbLine
 10
7.4634830315
 20
3.896473562
 30
0.0
 11
7.4634830315
 21
3.6208830108
 31
0.0
  0
LINE
  5
169
330
1F
100
AcDbEntity
  8
0
  6
HIDDEN
 62
     7
100
AcDbLine
 10
8.4083649213
 20
4.5263948218
 30
0.0
 11
8.0934042914
 21
4.5263948218
 31
0.0
  0
LINE
  5
16A
330
1F
100
AcDbEntity
  8
0
  6
HIDDEN
 62
     7
100
AcDbLine
 10
8.0934042914
 20
4.0145837982
 30
0.0
 11
8.4083649213
 21
4.0145837982
 31
0.0
  0
LINE
  5
16B
330
1F
100
AcDbEntity
  8
0
  6
HIDDEN
 62
     7
100
AcDbLine
 10
8.3886798819
 20
3.9948987588
 30
0.0
 11
8.1130893307
 21
3.9948987588
 31
0.0
  0
LINE
  5
16C
330
1F
100
AcDbEntity
  8
0
  6
HIDDEN
 62
     7
100
AcDbLine
 10
8.2963452574
 20
4.3885995462
 30
0.0
 11
8.3418059086
 21
4.3885995462
 31
0.0
  0
LINE
  5
16D
330
1F
100
AcDbEntity
  8
0
  6
HIDDEN
 62
     7
100
AcDbLine
 10
8.2963452574
 20
4.3885995462
 30
0.0
 11
8.2963452574
 21
4.5460798612
 31
0.0
  0
LINE
  5
16E
330
1F
100
AcDbEntity
  8
0
  6
HIDDEN
 62
     7
100
AcDbLine
 10
8.2054239552
 20
4.3885995462
 30
0.0
 11
8.2963452574
 21
4.3885995462
 31
0.0
  0
LINE
  5
16F
330
1F
100
AcDbEntity
  8
0
  6
HIDDEN
 62
     7
100
AcDbLine
 10
8.2054239552
 20
4.3885995462
 30
0.0
 11
8.2054239552
 21
4.5460798612
 31
0.0
  0
LINE
  5
170
330
1F
100
AcDbEntity
  8
0
  6
HIDDEN
 62
     7
100
AcDbLine
 10
8.1599633041
 20
4.3885995462
 30
0.0
 11
8.2054239552
 21
4.3885995462
 31
0.0
  0
LINE
  5
171
330
1F
100
AcDbEntity
  8
0
  6
HIDDEN
 62
     7
100
AcDbLine
 10
8.3418059086
 20
4.3885995462
 30
0.0
 11
8.3418059086
 21
4.5460798612
 31
0.0
  0
LINE
  5
172
330
1F
100
AcDbEntity
  8
0
  6
HIDDEN
 62
     7
100
AcDbLine
 10
8.1599633041
 20
4.3885995462
 30
0.0
 11
8.1599633041
 21
4.5460798612
 31
0.0
  0
SPLINE
  5
173
330
1F
100
AcDbEntity
  8
0
  6
HIDDEN
 62
     7
100
AcDbSpline
210
0.0
220
0.0
230
1.0
 70
    24
 71
     3
 72
     8
 73
     4
 74
     0
 42
0.00000001
 43
0.00000001
 40
0.0
 40
0.0
 40
0.0
 40
0.0
 40
0.0007676680295986
 40
0.0007676680295986
 40
0.0007676680295986
 40
0.0007676680295986
 10
7.857183818922415
 20
4.394721373848878
 30
0.0
 10
7.857183818922415
 20
4.410071321094143
 30
0.0
 10
7.857183818922415
 20
4.425357016812693
 30
0.0
 10
7.857183818922415
 20
4.440588053151448
 30
0.0
  0
SPLINE
  5
174
330
1F
100
AcDbEntity
  8
0
  6
HIDDEN
 62
     7
100
AcDbSpline
210
0.0
220
0.0
230
1.0
 70
    24
 71
     3
 72
     8
 73
     4
 74
     0
 42
0.00000001
 43
0.00000001
 40
0.0
 40
0.0
 40
0.0
 40
0.0
 40
0.0007676680295986
 40
0.0007676680295986
 40
0.0007676680295986
 40
0.0007676680295986
 10
7.857183818922415
 20
3.076768519632647
 30
0.0
 10
7.857183818922415
 20
3.091999555971401
 30
0.0
 10
7.857183818922415
 20
3.107285251689952
 30
0.0
 10
7.857183818922415
 20
3.122635198935217
 30
0.0
  0
LINE
  5
175
330
1F
100
AcDbEntity
  8
0
  6
HIDDEN
 62
     7
100
AcDbLine
 10
8.6445853937
 20
3.0767685196
 30
0.0
 11
8.6445853937
 21
4.4405880532
 31
0.0
  0
LINE
  5
176
330
1F
100
AcDbEntity
  8
0
  6
HIDDEN
 62
     7
100
AcDbLine
 10
7.8571838189
 20
3.1226351989
 30
0.0
 11
7.8571838189
 21
4.3947213738
 31
0.0
  0
LINE
  5
177
330
1F
100
AcDbEntity
  8
0
  6
HIDDEN
 62
     7
100
AcDbLine
 10
7.9949790945
 20
3.9161586014
 30
0.0
 11
7.9949790945
 21
3.6011979714
 31
0.0
  0
LINE
  5
178
330
1F
100
AcDbEntity
  8
0
  6
HIDDEN
 62
     7
100
AcDbLine
 10
8.0146641339
 20
3.6208830108
 30
0.0
 11
8.0146641339
 21
3.896473562
 31
0.0
  0
LINE
  5
179
330
1F
100
AcDbEntity
  8
0
  6
HIDDEN
 62
     7
100
AcDbLine
 10
7.4831680709
 20
3.6011979714
 30
0.0
 11
7.4831680709
 21
3.9161586014
 31
0.0
  0
LINE
  5
17A
330
1F
100
AcDbEntity
  8
0
  6
HIDDEN
 62
     7
100
AcDbLine
 10
7.6209633465
 20
3.8041389375
 30
0.0
 11
7.6209633465
 21
3.7132176353
 31
0.0
  0
LINE
  5
17B
330
1F
100
AcDbEntity
  8
0
  6
HIDDEN
 62
     7
100
AcDbLine
 10
7.6209633465
 20
3.8495995886
 30
0.0
 11
7.6209633465
 21
3.8041389375
 31
0.0
  0
LINE
  5
17C
330
1F
100
AcDbEntity
  8
0
  6
HIDDEN
 62
     7
100
AcDbLine
 10
7.6209633465
 20
3.8041389375
 30
0.0
 11
7.4634830315
 21
3.8041389375
 31
0.0
  0
LINE
  5
17D
330
1F
100
AcDbEntity
  8
0
  6
HIDDEN
 62
     7
100
AcDbLine
 10
7.6209633465
 20
3.7132176353
 30
0.0
 11
7.6209633465
 21
3.6677569842
 31
0.0
  0
LINE
  5
17E
330
1F
100
AcDbEntity
  8
0
  6
HIDDEN
 62
     7
100
AcDbLine
 10
7.6209633465
 20
3.7132176353
 30
0.0
 11
7.4634830315
 21
3.7132176353
 31
0.0
  0
LINE
  5
17F
330
1F
100
AcDbEntity
  8
0
  6
HIDDEN
 62
     7
100
AcDbLine
 10
7.6209633465
 20
3.6677569842
 30
0.0
 11
7.4634830315
 21
3.6677569842
 31
0.0
  0
LINE
  5
180
330
1F
100
AcDbEntity
  8
0
  6
HIDDEN
 62
     7
100
AcDbLine
 10
7.6209633465
 20
3.8495995886
 30
0.0
 11
7.4634830315
 21
3.8495995886
 31
0.0
  0
LINE
  5
181
330
1F
100
AcDbEntity
  8
0
  6
HIDDEN
 62
     7
100
AcDbLine
 10
8.9042956628
 20
4.1523790738
 30
0.0
 11
8.9327943731
 21
4.1523790738
 31
0.0
  0
LINE
  5
182
330
1F
100
AcDbEntity
  8
0
  6
HIDDEN
 62
     7
100
AcDbLine
 10
8.9327943731
 20
3.364977499
 30
0.0
 11
8.8937121863
 21
3.364977499
 31
0.0
  0
LINE
  5
183
330
1F
100
AcDbEntity
  8
0
  6
HIDDEN
 62
     7
100
AcDbLine
 10
8.8869276938
 20
4.1523790738
 30
0.0
 11
7.6148482161
 21
4.1523790738
 31
0.0
  0
LINE
  5
184
330
1F
100
AcDbEntity
  8
0
  6
HIDDEN
 62
     7
100
AcDbLine
 10
7.6083382211
 20
4.1523790738
 30
0.0
 11
7.5689748396
 21
4.1523790738
 31
0.0
  0
LINE
  5
185
330
1F
100
AcDbEntity
  8
0
  6
HIDDEN
 62
     7
100
AcDbLine
 10
8.8869276938
 20
3.364977499
 30
0.0
 11
7.6148825118
 21
3.364977499
 31
0.0
  0
LINE
  5
186
330
1F
100
AcDbEntity
  8
0
  6
HIDDEN
 62
     7
100
AcDbLine
 10
7.5977547446
 20
3.364977499
 30
0.0
 11
7.5689748396
 21
3.364977499
 31
0.0
  0
SPLINE
  5
187
330
1F
100
AcDbEntity
  8
0
  6
HIDDEN
 62
     7
100
AcDbSpline
210
0.0
220
0.0
230
1.0
 70
    24
 71
     3
 72
     8
 73
     4
 74
     0
 42
0.00000001
 43
0.00000001
 40
0.0
 40
0.0
 40
0.0
 40
0.0
 40
0.000534342373819
 40
0.000534342373819
 40
0.000534342373819
 40
0.000534342373819
 10
8.677398938205844
 20
4.420559517959958
 30
0.0
 10
8.666513453844264
 20
4.417642761216052
 30
0.0
 10
8.65557734352329
 20
4.414712439287209
 30
0.0
 10
8.644585393725565
 20
4.411767155215665
 30
0.0
  0
SPLINE
  5
188
330
1F
100
AcDbEntity
  8
0
  6
HIDDEN
 62
     7
100
AcDbSpline
210
0.0
220
0.0
230
1.0
 70
    24
 71
     3
 72
     8
 73
     4
 74
     0
 42
0.00000001
 43
0.00000001
 40
0.0
 40
0.0
 40
0.0
 40
0.0
 40
0.0006160615699252
 40
0.0006160615699252
 40
0.0006160615699252
 40
0.0006160615699252
 10
8.644585393725565
 20
3.116138598372805
 30
0.0
 10
8.652782695391771
 20
3.1079412967066
 30
0.0
 10
8.66097485377101
 20
3.099749138327359
 30
0.0
 10
8.669162512177952
 20
3.091561479920419
 30
0.0
  0
LINE
  5
189
330
1F
100
AcDbEntity
  8
0
  6
HIDDEN
 62
     7
100
AcDbLine
 10
8.6445853937
 20
3.1226351989
 30
0.0
 11
8.6445853937
 21
4.3947213738
 31
0.0
  0
SPLINE
  5
18A
330
1F
100
AcDbEntity
  8
0
  6
HIDDEN
 62
     7
100
AcDbSpline
210
0.0
220
0.0
230
1.0
 70
    24
 71
     3
 72
     8
 73
     4
 74
     0
 42
0.00000001
 43
0.00000001
 40
0.0
 40
0.0
 40
0.0
 40
0.0
 40
0.000534342373819
 40
0.000534342373819
 40
0.000534342373819
 40
0.000534342373819
 10
7.824370274442136
 20
3.096797054824135
 30
0.0
 10
7.835255758803717
 20
3.099713811568043
 30
0.0
 10
7.84619186912469
 20
3.102644133496885
 30
0.0
 10
7.857183818922415
 20
3.105589417568429
 30
0.0
  0
SPLINE
  5
18B
330
1F
100
AcDbEntity
  8
0
  6
HIDDEN
 62
     7
100
AcDbSpline
210
0.0
220
0.0
230
1.0
 70
    24
 71
     3
 72
     8
 73
     4
 74
     0
 42
0.00000001
 43
0.00000001
 40
0.0
 40
0.0
 40
0.0
 40
0.0
 40
0.0006160615699252
 40
0.0006160615699252
 40
0.0006160615699252
 40
0.0006160615699252
 10
7.832606700470029
 20
4.425795092863676
 30
0.0
 10
7.840794358876969
 20
4.417607434456736
 30
0.0
 10
7.848986517256209
 20
4.409415276077494
 30
0.0
 10
7.857183818922415
 20
4.401217974411289
 30
0.0
  0
SPLINE
  5
18C
330
1F
100
AcDbEntity
  8
0
  6
HIDDEN
 62
     7
100
AcDbSpline
210
0.0
220
0.0
230
1.0
 70
    24
 71
     3
 72
     8
 73
     4
 74
     0
 42
0.00000001
 43
0.00000001
 40
0.0
 40
0.0
 40
0.0
 40
0.0
 40
0.0006160615699252
 40
0.0006160615699252
 40
0.0006160615699252
 40
0.0006160615699252
 10
8.91800141279562
 20
3.340400380538089
 30
0.0
 10
8.909813754388681
 20
3.348588038945028
 30
0.0
 10
8.90162159600944
 20
3.35678019732427
 30
0.0
 10
8.893424294343234
 20
3.364977498990475
 30
0.0
  0
SPLINE
  5
18D
330
1F
100
AcDbEntity
  8
0
  6
HIDDEN
 62
     7
100
AcDbSpline
210
0.0
220
0.0
230
1.0
 70
    24
 71
     3
 72
     8
 73
     4
 74
     0
 42
0.00000001
 43
0.00000001
 40
0.0
 40
0.0
 40
0.0
 40
0.0
 40
0.000534342373819
 40
0.000534342373819
 40
0.000534342373819
 40
0.000534342373819
 10
8.903973475147607
 20
4.152379073793624
 30
0.0
 10
8.906918759219149
 20
4.16337102359135
 30
0.0
 10
8.909849081147993
 20
4.174307133912324
 30
0.0
 10
8.9127658378919
 20
4.185192618273904
 30
0.0
  0
SPLINE
  5
18E
330
1F
100
AcDbEntity
  8
0
  6
HIDDEN
 62
     7
100
AcDbSpline
210
0.0
220
0.0
230
1.0
 70
    24
 71
     3
 72
     8
 73
     4
 74
     0
 42
0.00000001
 43
0.00000001
 40
0.0
 40
0.0
 40
0.0
 40
0.0
 40
0.0006160615699252
 40
0.0006160615699252
 40
0.0006160615699252
 40
0.0006160615699252
 10
7.608344918304746
 20
4.15237907379362
 30
0.0
 10
7.600147616638541
 20
4.160576375459824
 30
0.0
 10
7.5919554582593
 20
4.168768533839065
 30
0.0
 10
7.583767799852358
 20
4.176956192246006
 30
0.0
  0
SPLINE
  5
18F
330
1F
100
AcDbEntity
  8
0
  6
HIDDEN
 62
     7
100
AcDbSpline
210
0.0
220
0.0
230
1.0
 70
    24
 71
     3
 72
     8
 73
     4
 74
     0
 42
0.00000001
 43
0.00000001
 40
0.0
 40
0.0
 40
0.0
 40
0.0
 40
0.000534342373819
 40
0.000534342373819
 40
0.000534342373819
 40
0.000534342373819
 10
7.597795737500373
 20
3.36497749899047
 30
0.0
 10
7.594850453428831
 20
3.353985549192744
 30
0.0
 10
7.591920131499988
 20
3.34304943887177
 30
0.0
 10
7.589003374756081
 20
3.33216395451019
 30
0.0
  0
SPLINE
  5
190
330
1F
100
AcDbEntity
  8
0
  6
HIDDEN
 62
     7
100
AcDbSpline
210
0.0
220
0.0
230
1.0
 70
    24
 71
     3
 72
     8
 73
     4
 74
     0
 42
0.00000001
 43
0.00000001
 40
0.0
 40
0.0
 40
0.0
 40
0.0
 40
0.0002845941545838
 40
0.0002845941545838
 40
0.0002845941545838
 40
0.0002845941545838
 10
7.597795737500373
 20
3.36497749899047
 30
0.0
 10
7.603469147932468
 20
3.36497749899047
 30
0.0
 10
7.60915090119033
 20
3.36497749899047
 30
0.0
 10
7.614841518867161
 20
3.36497749899047
 30
0.0
  0
SPLINE
  5
191
330
1F
100
AcDbEntity
  8
0
  6
HIDDEN
 62
     7
100
AcDbSpline
210
0.0
220
0.0
230
1.0
 70
    24
 71
     3
 72
     8
 73
     4
 74
     0
 42
0.00000001
 43
0.00000001
 40
0.0
 40
0.0
 40
0.0
 40
0.0
 40
0.0001083645978465
 40
0.0001083645978465
 40
0.0001083645978465
 40
0.0001083645978465
 10
8.886927693780823
 20
3.364977498990475
 30
0.0
 10
8.889094503907158
 20
3.364977498990475
 30
0.0
 10
8.891260027594834
 20
3.364977498990475
 30
0.0
 10
8.893424294343234
 20
3.364977498990475
 30
0.0
  0
SPLINE
  5
192
330
1F
100
AcDbEntity
  8
0
  6
HIDDEN
 62
     7
100
AcDbSpline
210
0.0
220
0.0
230
1.0
 70
    24
 71
     3
 72
     8
 73
     4
 74
     0
 42
0.00000001
 43
0.00000001
 40
0.0
 40
0.0
 40
0.0
 40
0.0
 40
0.0001083645978465
 40
0.0001083645978465
 40
0.0001083645978465
 40
0.0001083645978465
 10
7.614841518867157
 20
4.15237907379362
 30
0.0
 10
7.612674708740822
 20
4.15237907379362
 30
0.0
 10
7.610509185053146
 20
4.15237907379362
 30
0.0
 10
7.608344918304746
 20
4.15237907379362
 30
0.0
  0
SPLINE
  5
193
330
1F
100
AcDbEntity
  8
0
  6
HIDDEN
 62
     7
100
AcDbSpline
210
0.0
220
0.0
230
1.0
 70
    24
 71
     3
 72
     8
 73
     4
 74
     0
 42
0.00000001
 43
0.00000001
 40
0.0
 40
0.0
 40
0.0
 40
0.0
 40
0.0002845941545838
 40
0.0002845941545838
 40
0.0002845941545838
 40
0.0002845941545838
 10
8.903973475147607
 20
4.152379073793624
 30
0.0
 10
8.898300064715512
 20
4.152379073793624
 30
0.0
 10
8.892618311457651
 20
4.152379073793624
 30
0.0
 10
8.88692769378082
 20
4.152379073793624
 30
0.0
  0
LINE
  5
194
330
1F
100
AcDbEntity
  8
0
  6
HIDDEN
 62
     7
100
AcDbLine
 10
7.6148415189
 20
4.1523790738
 30
0.0
 11
8.8869276938
 21
4.1523790738
 31
0.0
  0
LINE
  5
195
330
1F
100
AcDbEntity
  8
0
  6
HIDDEN
 62
     7
100
AcDbLine
 10
8.8869276938
 20
3.364977499
 30
0.0
 11
7.6148415189
 21
3.364977499
 31
0.0
  0
LINE
  5
196
330
1F
100
AcDbEntity
  8
0
  6
HIDDEN
 62
     7
100
AcDbLine
 10
8.0934042914
 20
4.5263948218
 30
0.0
 11
8.0934042914
 21
4.0145837982
 31
0.0
  0
LINE
  5
197
330
1F
100
AcDbEntity
  8
0
  6
HIDDEN
 62
     7
100
AcDbLine
 10
8.4083649213
 20
4.0145837982
 30
0.0
 11
8.4083649213
 21
4.5263948218
 31
0.0
  0
LINE
  5
198
330
1F
100
AcDbEntity
  8
0
  6
HIDDEN
 62
     7
100
AcDbLine
 10
8.0934042914
 20
4.0145837982
 30
0.0
 11
8.1130893307
 21
3.9948987588
 31
0.0
  0
LINE
  5
199
330
1F
100
AcDbEntity
  8
0
  6
HIDDEN
 62
     7
100
AcDbLine
 10
8.3886798819
 20
3.9948987588
 30
0.0
 11
8.4083649213
 21
4.0145837982
 31
0.0
  0
LINE
  5
19A
330
1F
100
AcDbEntity
  8
0
  6
HIDDEN
 62
     7
100
AcDbLine
 10
8.4083649213
 20
4.5263948218
 30
0.0
 11
8.4036390111
 21
4.531120732
 31
0.0
  0
LINE
  5
19B
330
1F
100
AcDbEntity
  8
0
  6
HIDDEN
 62
     7
100
AcDbLine
 10
8.0981302016
 20
4.531120732
 30
0.0
 11
8.0934042914
 21
4.5263948218
 31
0.0
  0
LINE
  5
19C
330
1F
100
AcDbEntity
  8
0
  6
HIDDEN
 62
     7
100
AcDbLine
 10
8.4083649213
 20
3.9347466311
 30
0.0
 11
8.4083649213
 21
4.5302177091
 31
0.0
  0
LINE
  5
19D
330
1F
100
AcDbEntity
  8
0
  6
HIDDEN
 62
     7
100
AcDbLine
 10
8.0934042914
 20
4.5302803073
 30
0.0
 11
8.0934042914
 21
3.9350526319
 31
0.0
  0
LINE
  5
19E
330
1F
100
AcDbEntity
  8
0
  6
HIDDEN
 62
     7
100
AcDbLine
 10
7.9949790945
 20
3.6011979714
 30
0.0
 11
8.0146641339
 21
3.6208830108
 31
0.0
  0
LINE
  5
19F
330
1F
100
AcDbEntity
  8
0
  6
HIDDEN
 62
     7
100
AcDbLine
 10
8.0146641339
 20
3.896473562
 30
0.0
 11
7.9949790945
 21
3.9161586014
 31
0.0
  0
LINE
  5
1A0
330
1F
100
AcDbEntity
  8
0
  6
HIDDEN
 62
     7
100
AcDbLine
 10
7.4831680709
 20
3.6011979714
 30
0.0
 11
7.9949790945
 21
3.6011979714
 31
0.0
  0
LINE
  5
1A1
330
1F
100
AcDbEntity
  8
0
  6
HIDDEN
 62
     7
100
AcDbLine
 10
7.9949790945
 20
3.9161586014
 30
0.0
 11
7.4831680709
 21
3.9161586014
 31
0.0
  0
LINE
  5
1A2
330
1F
100
AcDbEntity
  8
0
  6
HIDDEN
 62
     7
100
AcDbLine
 10
7.4831680709
 20
3.9161586014
 30
0.0
 11
7.4784421607
 21
3.9114326911
 31
0.0
  0
LINE
  5
1A3
330
1F
100
AcDbEntity
  8
0
  6
HIDDEN
 62
     7
100
AcDbLine
 10
7.4784421607
 20
3.6059238816
 30
0.0
 11
7.4831680709
 21
3.6011979714
 31
0.0
  0
LINE
  5
1A4
330
1F
100
AcDbEntity
  8
0
  6
HIDDEN
 62
     7
100
AcDbLine
 10
8.0748162616
 20
3.9161586014
 30
0.0
 11
7.4793436782
 21
3.9161586014
 31
0.0
  0
LINE
  5
1A5
330
1F
100
AcDbEntity
  8
0
  6
HIDDEN
 62
     7
100
AcDbLine
 10
7.4792826162
 20
3.6011979714
 30
0.0
 11
8.0744913713
 21
3.6011979714
 31
0.0
  0
LINE
  5
1A6
330
1F
100
AcDbEntity
  8
0
  6
CONTINUOUS
 62
     7
100
AcDbLine
 10
3.9171872845
 20
5.8845755641
 30
0.0
 11
4.1927778357
 21
5.8845755641
 31
0.0
  0
LINE
  5
1A7
330
1F
100
AcDbEntity
  8
0
  6
CONTINUOUS
 62
     7
100
AcDbLine
 10
4.1927778357
 20
7.4593787137
 30
0.0
 11
3.8778172057
 21
7.4593787137
 31
0.0
  0
LINE
  5
1A8
330
1F
100
AcDbEntity
  8
0
  6
CONTINUOUS
 62
     7
100
AcDbLine
 10
4.1927778357
 20
5.8845755641
 30
0.0
 11
4.2321479144
 21
5.9239456429
 31
0.0
  0
LINE
  5
1A9
330
1F
100
AcDbEntity
  8
0
  6
CONTINUOUS
 62
     7
100
AcDbLine
 10
4.2321479144
 20
7.420008635
 30
0.0
 11
4.1927778357
 21
7.4593787137
 31
0.0
  0
LINE
  5
1AA
330
1F
100
AcDbEntity
  8
0
  6
CONTINUOUS
 62
     7
100
AcDbLine
 10
3.8778172057
 20
5.9239456429
 30
0.0
 11
3.9171872845
 21
5.8845755641
 31
0.0
  0
LINE
  5
1AB
330
1F
100
AcDbEntity
  8
0
  6
CONTINUOUS
 62
     7
100
AcDbLine
 10
2.6345360577
 20
5.8876992319
 30
0.0
 11
2.6376597254
 21
5.8845755641
 31
0.0
  0
LINE
  5
1AC
330
1F
100
AcDbEntity
  8
0
  6
CONTINUOUS
 62
     7
100
AcDbLine
 10
2.9132502766
 20
5.8845755641
 30
0.0
 11
2.9163780125
 21
5.8877033
 31
0.0
  0
LINE
  5
1AD
330
1F
100
AcDbEntity
  8
0
  6
CONTINUOUS
 62
     7
100
AcDbLine
 10
3.0510455522
 20
7.4593787137
 30
0.0
 11
2.4604943711
 21
7.4593787137
 31
0.0
  0
LINE
  5
1AE
330
1F
100
AcDbEntity
  8
0
  6
CONTINUOUS
 62
     7
100
AcDbLine
 10
2.932935316
 20
5.8845755641
 30
0.0
 11
3.0904156309
 21
5.8845755641
 31
0.0
  0
LINE
  5
1AF
330
1F
100
AcDbEntity
  8
0
  6
CONTINUOUS
 62
     7
100
AcDbLine
 10
2.4604943711
 20
5.8845755641
 30
0.0
 11
2.618366276
 21
5.8845755641
 31
0.0
  0
LINE
  5
1B0
330
1F
100
AcDbEntity
  8
0
  6
CONTINUOUS
 62
     7
100
AcDbLine
 10
2.4604943711
 20
7.4593787137
 30
0.0
 11
2.4211242924
 21
7.420008635
 31
0.0
  0
LINE
  5
1B1
330
1F
100
AcDbEntity
  8
0
  6
CONTINUOUS
 62
     7
100
AcDbLine
 10
2.4211242924
 20
5.9239456429
 30
0.0
 11
2.4604943711
 21
5.8845755641
 31
0.0
  0
LINE
  5
1B2
330
1F
100
AcDbEntity
  8
0
  6
CONTINUOUS
 62
     7
100
AcDbLine
 10
3.0904156309
 20
7.420008635
 30
0.0
 11
3.0510455522
 21
7.4593787137
 31
0.0
  0
LINE
  5
1B3
330
1F
100
AcDbEntity
  8
0
  6
CONTINUOUS
 62
     7
100
AcDbLine
 10
3.1297857097
 20
5.8845755641
 30
0.0
 11
3.838447127
 21
5.8845755641
 31
0.0
  0
LINE
  5
1B4
330
1F
100
AcDbEntity
  8
0
  6
CONTINUOUS
 62
     7
100
AcDbLine
 10
3.838447127
 20
7.4593787137
 30
0.0
 11
3.1297857097
 21
7.4593787137
 31
0.0
  0
LINE
  5
1B5
330
1F
100
AcDbEntity
  8
0
  6
CONTINUOUS
 62
     7
100
AcDbLine
 10
3.838447127
 20
5.8845755641
 30
0.0
 11
3.8778172057
 21
5.9239456429
 31
0.0
  0
LINE
  5
1B6
330
1F
100
AcDbEntity
  8
0
  6
CONTINUOUS
 62
     7
100
AcDbLine
 10
3.8778172057
 20
7.420008635
 30
0.0
 11
3.838447127
 21
7.4593787137
 31
0.0
  0
LINE
  5
1B7
330
1F
100
AcDbEntity
  8
0
  6
CONTINUOUS
 62
     7
100
AcDbLine
 10
3.1297857097
 20
7.4593787137
 30
0.0
 11
3.0904156309
 21
7.420008635
 31
0.0
  0
LINE
  5
1B8
330
1F
100
AcDbEntity
  8
0
  6
CONTINUOUS
 62
     7
100
AcDbLine
 10
3.0904156309
 20
5.9239456429
 30
0.0
 11
3.1297857097
 21
5.8845755641
 31
0.0
  0
CIRCLE
  5
1B9
330
1F
100
AcDbEntity
  8
0
  6
CONTINUOUS
 62
     7
100
AcDbCircle
 10
3.8778172057
 20
6.6719771389
 30
0.0
 40
0.1377952755905518
  0
LINE
  5
1BA
330
1F
100
AcDbEntity
  8
0
  6
CONTINUOUS
 62
     7
100
AcDbLine
 10
3.7990770483
 20
6.71743779
 30
0.0
 11
3.7990770483
 21
6.6265164878
 31
0.0
  0
LINE
  5
1BB
330
1F
100
AcDbEntity
  8
0
  6
CONTINUOUS
 62
     7
100
AcDbLine
 10
3.7990770483
 20
6.6265164878
 30
0.0
 11
3.8778172057
 21
6.5810558367
 31
0.0
  0
LINE
  5
1BC
330
1F
100
AcDbEntity
  8
0
  6
CONTINUOUS
 62
     7
100
AcDbLine
 10
3.8778172057
 20
6.5810558367
 30
0.0
 11
3.9565573632
 21
6.6265164878
 31
0.0
  0
LINE
  5
1BD
330
1F
100
AcDbEntity
  8
0
  6
CONTINUOUS
 62
     7
100
AcDbLine
 10
3.9565573632
 20
6.6265164878
 30
0.0
 11
3.9565573632
 21
6.71743779
 31
0.0
  0
LINE
  5
1BE
330
1F
100
AcDbEntity
  8
0
  6
CONTINUOUS
 62
     7
100
AcDbLine
 10
3.9565573632
 20
6.71743779
 30
0.0
 11
3.8778172057
 21
6.7628984412
 31
0.0
  0
LINE
  5
1BF
330
1F
100
AcDbEntity
  8
0
  6
CONTINUOUS
 62
     7
100
AcDbLine
 10
3.8778172057
 20
6.7628984412
 30
0.0
 11
3.7990770483
 21
6.71743779
 31
0.0
  0
CIRCLE
  5
1C0
330
1F
100
AcDbEntity
  8
0
  6
CONTINUOUS
 62
     7
100
AcDbCircle
 10
3.8778172057
 20
6.6719771389
 30
0.0
 40
0.1574803149606305
  0
LINE
  5
1C1
330
1F
100
AcDbEntity
  8
0
  6
CONTINUOUS
 62
     7
100
AcDbLine
 10
3.9171872845
 20
6.2782763515
 30
0.0
 11
3.9171872845
 21
5.8845755641
 31
0.0
  0
LINE
  5
1C2
330
1F
100
AcDbEntity
  8
0
  6
CONTINUOUS
 62
     7
100
AcDbLine
 10
3.6022266546
 20
6.2782763515
 30
0.0
 11
3.9171872845
 21
6.2782763515
 31
0.0
  0
LINE
  5
1C3
330
1F
100
AcDbEntity
  8
0
  6
CONTINUOUS
 62
     7
100
AcDbLine
 10
3.6022266546
 20
7.0656779263
 30
0.0
 11
3.6022266546
 21
6.2782763515
 31
0.0
  0
LINE
  5
1C4
330
1F
100
AcDbEntity
  8
0
  6
CONTINUOUS
 62
     7
100
AcDbLine
 10
3.8778172057
 20
7.0656779263
 30
0.0
 11
3.6022266546
 21
7.0656779263
 31
0.0
  0
LINE
  5
1C5
330
1F
100
AcDbEntity
  8
0
  6
CONTINUOUS
 62
     7
100
AcDbLine
 10
3.8778172057
 20
7.4593787137
 30
0.0
 11
3.8778172057
 21
7.0656779263
 31
0.0
  0
SPLINE
  5
1C6
330
1F
100
AcDbEntity
  8
0
  6
CONTINUOUS
 62
     7
100
AcDbSpline
210
0.0
220
0.0
230
1.0
 70
     8
 71
     3
 72
    58
 73
    54
 74
     0
 42
0.00000001
 43
0.00000001
 40
-0.03125
 40
-0.03125
 40
0.0
 40
0.0
 40
0.03125
 40
0.03125
 40
0.0625000000000001
 40
0.0625000000000001
 40
0.0937500000000001
 40
0.0937500000000001
 40
0.1250000000000001
 40
0.1250000000000001
 40
0.1875000000000001
 40
0.1875000000000001
 40
0.2500000000000002
 40
0.2500000000000002
 40
0.2812500000000002
 40
0.2812500000000002
 40
0.3125000000000002
 40
0.3125000000000002
 40
0.3750000000000003
 40
0.3750000000000003
 40
0.4062500000000003
 40
0.4062500000000003
 40
0.4375000000000003
 40
0.4375000000000003
 40
0.4687500000000003
 40
0.4687500000000003
 40
0.5000000000000003
 40
0.5000000000000003
 40
0.5625000000000002
 40
0.5625000000000002
 40
0.5937500000000003
 40
0.5937500000000003
 40
0.6250000000000003
 40
0.6250000000000003
 40
0.6562500000000003
 40
0.6562500000000003
 40
0.6875000000000003
 40
0.6875000000000003
 40
0.7500000000000002
 40
0.7500000000000002
 40
0.7812500000000001
 40
0.7812500000000001
 40
0.8125
 40
0.8125
 40
0.84375
 40
0.84375
 40
0.8749999999999999
 40
0.8749999999999999
 40
0.9374999999999999
 40
0.9374999999999999
 40
0.96875
 40
0.96875
 40
1.0
 40
1.0
 40
1.03125
 40
1.03125
 10
3.720336890786127
 20
6.682409210239197
 30
0.0
 10
3.720336890786127
 20
6.661545067593656
 30
0.0
 10
3.721363191513047
 20
6.651292498712312
 30
0.0
 10
3.725379569082255
 20
6.631130109179166
 30
0.0
 10
3.728420237452591
 20
6.621113983998809
 30
0.0
 10
3.736334127250546
 20
6.602055374329878
 30
0.0
 10
3.741173079769227
 20
6.59302038257343
 30
0.0
 10
3.752600675811995
 20
6.575921909139662
 30
0.0
 10
3.759234170955085
 20
6.567847198659037
 30
0.0
 10
3.780967362822248
 20
6.546120547834189
 30
0.0
 10
3.798493364818219
 20
6.53439739553892
 30
0.0
 10
3.836366341200352
 20
6.518672594444215
 30
0.0
 10
3.857125320727212
 20
6.514509113645452
 30
0.0
 10
3.88802252950716
 20
6.514490720965162
 30
0.0
 10
3.898487268401442
 20
6.51551934496492
 30
0.0
 10
3.918704570770218
 20
6.519548414065239
 30
0.0
 10
3.928533791083672
 20
6.522529120455173
 30
0.0
 10
3.957181360214523
 20
6.534395486119818
 30
0.0
 10
3.974508352917205
 20
6.545964002516484
 30
0.0
 10
3.996467589482334
 20
6.567913476857584
 30
0.0
 10
4.002964589896461
 20
6.575835657973305
 30
0.0
 10
4.014368212484984
 20
6.592864088942183
 30
0.0
 10
4.019313142371872
 20
6.602083524868643
 30
0.0
 10
4.027213979255523
 20
6.621116334447276
 30
0.0
 10
4.030204471568913
 20
6.630932421221468
 30
0.0
 10
4.034257657531244
 20
6.651170104507912
 30
0.0
 10
4.035293337548016
 20
6.661622261489111
 30
0.0
 10
4.03530584823638
 20
6.692495447349777
 30
0.0
 10
4.031167326194494
 20
6.71326967354682
 30
0.0
 10
4.019387166200165
 20
6.741714623181918
 30
0.0
 10
4.014476293921851
 20
6.7509118170325
 30
0.0
 10
4.003015860275731
 20
6.768058805712287
 30
0.0
 10
3.996521220108333
 20
6.775971257533562
 30
0.0
 10
3.982016910334397
 20
6.7905007285362
 30
0.0
 10
3.973937662171675
 20
6.797141331285553
 30
0.0
 10
3.956893324191445
 20
6.808550140225148
 30
0.0
 10
3.94786460932975
 20
6.813400143430205
 30
0.0
 10
3.919205912420185
 20
6.825323954916283
 30
0.0
 10
3.898726274108025
 20
6.82944273424649
 30
0.0
 10
3.867529409958865
 20
6.829464754845419
 30
0.0
 10
3.857286271533744
 20
6.828452035585378
 30
0.0
 10
3.837101147768859
 20
6.824450465009742
 30
0.0
 10
3.82705924354693
 20
6.821408473696541
 30
0.0
 10
3.808031725588106
 20
6.813526004330009
 30
0.0
 10
3.7989891567926
 20
6.80869736530957
 30
0.0
 10
3.781841596890626
 20
6.797256682783756
 30
0.0
 10
3.773788050552478
 20
6.790647923795543
 30
0.0
 10
3.752058544950461
 20
6.768950803854225
 30
0.0
 10
3.740311432364905
 20
6.751431923845402
 30
0.0
 10
3.728486628098354
 20
6.723022617850722
 30
0.0
 10
3.725429702620672
 20
6.713032278674994
 30
0.0
 10
3.721363373719715
 20
6.692705719515496
 30
0.0
 10
3.720336890786127
 20
6.682409210239197
 30
0.0
 10
3.720336890786127
 20
6.661545067593656
 30
0.0
  0
LINE
  5
1C7
330
1F
100
AcDbEntity
  8
0
  6
CONTINUOUS
 62
     7
100
AcDbLine
 10
4.1927778357
 20
5.8845755641
 30
0.0
 11
4.1927778357
 21
7.4593787137
 31
0.0
  0
LINE
  5
1C8
330
1F
100
AcDbEntity
  8
0
  6
CONTINUOUS
 62
     7
100
AcDbLine
 10
4.2321479144
 20
7.420008635
 30
0.0
 11
4.2321479144
 21
5.9239456429
 31
0.0
  0
SPLINE
  5
1C9
330
1F
100
AcDbEntity
  8
0
  6
CONTINUOUS
 62
     7
100
AcDbSpline
210
0.0
220
0.0
230
1.0
 70
    24
 71
     3
 72
     8
 73
     4
 74
     0
 42
0.00000001
 43
0.00000001
 40
0.0
 40
0.0
 40
0.0
 40
0.0
 40
0.0007676680295986
 40
0.0007676680295986
 40
0.0007676680295986
 40
0.0007676680295986
 10
3.602226654565654
 20
6.278276351514851
 30
0.0
 10
3.58903619017033
 20
6.278276351514851
 30
0.0
 10
3.57590846988285
 20
6.278276351514851
 30
0.0
 10
3.562856575825497
 20
6.278276351514851
 30
0.0
  0
LINE
  5
1CA
330
1F
100
AcDbEntity
  8
0
  6
CONTINUOUS
 62
     7
100
AcDbLine
 10
3.5628565758
 20
6.2782763515
 30
0.0
 11
3.5628565758
 21
7.0656779263
 31
0.0
  0
SPLINE
  5
1CB
330
1F
100
AcDbEntity
  8
0
  6
CONTINUOUS
 62
     7
100
AcDbSpline
210
0.0
220
0.0
230
1.0
 70
    24
 71
     3
 72
     8
 73
     4
 74
     0
 42
0.00000001
 43
0.00000001
 40
0.0
 40
0.0
 40
0.0
 40
0.0
 40
0.0007676680295986
 40
0.0007676680295986
 40
0.0007676680295986
 40
0.0007676680295986
 10
3.562856575825497
 20
7.065677926318001
 30
0.0
 10
3.57590846988285
 20
7.065677926318001
 30
0.0
 10
3.58903619017033
 20
7.065677926318001
 30
0.0
 10
3.602226654565654
 20
7.065677926318001
 30
0.0
  0
LINE
  5
1CC
330
1F
100
AcDbEntity
  8
0
  6
CONTINUOUS
 62
     7
100
AcDbLine
 10
3.8778172057
 20
5.9239456429
 30
0.0
 11
3.8778172057
 21
6.2782763515
 31
0.0
  0
LINE
  5
1CD
330
1F
100
AcDbEntity
  8
0
  6
CONTINUOUS
 62
     7
100
AcDbLine
 10
2.775455001
 20
5.8845755641
 30
0.0
 11
2.9132502766
 21
5.8845755641
 31
0.0
  0
LINE
  5
1CE
330
1F
100
AcDbEntity
  8
0
  6
CONTINUOUS
 62
     7
100
AcDbLine
 10
2.6376597254
 20
5.8845755641
 30
0.0
 11
2.775455001
 21
5.8845755641
 31
0.0
  0
LINE
  5
1CF
330
1F
100
AcDbEntity
  8
0
  6
CONTINUOUS
 62
     7
100
AcDbLine
 10
3.0510455522
 20
7.3538869057
 30
0.0
 11
3.0510455522
 21
7.4593787137
 31
0.0
  0
LINE
  5
1D0
330
1F
100
AcDbEntity
  8
0
  6
CONTINUOUS
 62
     7
100
AcDbLine
 10
3.0510455522
 20
7.3538869057
 30
0.0
 11
2.7360849223
 21
7.3538869057
 31
0.0
  0
LINE
  5
1D1
330
1F
100
AcDbEntity
  8
0
  6
CONTINUOUS
 62
     7
100
AcDbLine
 10
2.7360849223
 20
5.9900673722
 30
0.0
 11
2.7360849223
 21
7.3538869057
 31
0.0
  0
LINE
  5
1D2
330
1F
100
AcDbEntity
  8
0
  6
CONTINUOUS
 62
     7
100
AcDbLine
 10
2.7360849223
 20
5.9900673722
 30
0.0
 11
3.0904156309
 21
5.9900673722
 31
0.0
  0
LINE
  5
1D3
330
1F
100
AcDbEntity
  8
0
  6
CONTINUOUS
 62
     7
100
AcDbLine
 10
3.0904156309
 20
5.9900673722
 30
0.0
 11
3.0904156309
 21
5.8845755641
 31
0.0
  0
SPLINE
  5
1D4
330
1F
100
AcDbEntity
  8
0
  6
CONTINUOUS
 62
     7
100
AcDbSpline
210
0.0
220
0.0
230
1.0
 70
     8
 71
     3
 72
    27
 73
    23
 74
     0
 42
0.00000001
 43
0.00000001
 40
0.0
 40
0.0
 40
0.0
 40
0.0
 40
0.0126782465502489
 40
0.0664861417833189
 40
0.118311119944091
 40
0.1716049115977572
 40
0.224074390955899
 40
0.2780202618232759
 40
0.3312609746699878
 40
0.3860596608049154
 40
0.4389950941255088
 40
0.4935217605644917
 40
0.5455159671616593
 40
0.5990271660763219
 40
0.6509257383059062
 40
0.70428100285756
 40
0.7570608521854658
 40
0.8113398015234184
 40
0.8646208400495451
 40
0.9194824965338254
 40
0.9594059361093138
 40
1.0
 40
1.0
 40
1.0
 40
1.0
 10
2.618366275978606
 20
5.884653653391141
 30
0.0
 10
2.618247993159354
 20
5.884630068849191
 30
0.0
 10
2.617627704836345
 20
5.884506388875481
 30
0.0
 10
2.620848484862994
 20
5.885151368559451
 30
0.0
 10
2.628125744182359
 20
5.886560005818358
 30
0.0
 10
2.639680044356589
 20
5.888665381992793
 30
0.0
 10
2.655024629833771
 20
5.891201330917501
 30
0.0
 10
2.673726918333146
 20
5.893893428206027
 30
0.0
 10
2.695585684701504
 20
5.896474457170318
 30
0.0
 10
2.719629149267008
 20
5.898602029703396
 30
0.0
 10
2.745498902119301
 20
5.900051702635904
 30
0.0
 10
2.771814377989978
 20
5.9006279999988
 30
0.0
 10
2.798312148313615
 20
5.900291798735653
 30
0.0
 10
2.823735538019174
 20
5.899108699193973
 30
0.0
 10
2.847995560757275
 20
5.897196519110486
 30
0.0
 10
2.870137736320222
 20
5.894789500571942
 30
0.0
 10
2.889956889437459
 20
5.892103653191776
 30
0.0
 10
2.906564518932792
 20
5.889468672161128
 30
0.0
 10
2.91967710963976
 20
5.887144216579087
 30
0.0
 10
2.927797717890529
 20
5.885593645359918
 30
0.0
 10
2.932195033587842
 20
5.884724235472618
 30
0.0
 10
2.932687188809817
 20
5.884625395642928
 30
0.0
 10
2.932935315982978
 20
5.884575564113277
 30
0.0
  0
LINE
  5
1D5
330
1F
100
AcDbEntity
  8
0
  6
CONTINUOUS
 62
     7
100
AcDbLine
 10
2.4604943711
 20
7.4593787137
 30
0.0
 11
2.4604943711
 21
5.8845755641
 31
0.0
  0
LINE
  5
1D6
330
1F
100
AcDbEntity
  8
0
  6
CONTINUOUS
 62
     7
100
AcDbLine
 10
2.4211242924
 20
5.9239456429
 30
0.0
 11
2.4211242924
 21
7.420008635
 31
0.0
  0
LINE
  5
1D7
330
1F
100
AcDbEntity
  8
0
  6
CONTINUOUS
 62
     7
100
AcDbLine
 10
2.775455001
 20
7.3080202264
 30
0.0
 11
2.775455001
 21
6.0359340515
 31
0.0
  0
SPLINE
  5
1D8
330
1F
100
AcDbEntity
  8
0
  6
CONTINUOUS
 62
     7
100
AcDbSpline
210
0.0
220
0.0
230
1.0
 70
     8
 71
     3
 72
     8
 73
     4
 74
     0
 42
0.00000001
 43
0.00000001
 40
0.0
 40
0.0
 40
0.0
 40
0.0
 40
0.0007676680295986
 40
0.0007676680295986
 40
0.0007676680295986
 40
0.0007676680295986
 10
2.775455001022348
 20
6.035934051459594
 30
0.0
 10
2.762403106964995
 20
6.020584104214329
 30
0.0
 10
2.749275386677515
 20
6.005298408495777
 30
0.0
 10
2.73608492228219
 20
5.990067372157025
 30
0.0
  0
SPLINE
  5
1D9
330
1F
100
AcDbEntity
  8
0
  6
CONTINUOUS
 62
     7
100
AcDbSpline
210
0.0
220
0.0
230
1.0
 70
     8
 71
     3
 72
     8
 73
     4
 74
     0
 42
0.00000001
 43
0.00000001
 40
0.0
 40
0.0
 40
0.0
 40
0.0
 40
0.0007676680295986
 40
0.0007676680295986
 40
0.0007676680295986
 40
0.0007676680295986
 10
2.73608492228219
 20
7.353886905675826
 30
0.0
 10
2.749275386677515
 20
7.338655869337072
 30
0.0
 10
2.762403106964995
 20
7.32337017361852
 30
0.0
 10
2.775455001022348
 20
7.308020226373255
 30
0.0
  0
LINE
  5
1DA
330
1F
100
AcDbEntity
  8
0
  6
CONTINUOUS
 62
     7
100
AcDbLine
 10
3.0904156309
 20
7.420008635
 30
0.0
 11
3.0904156309
 21
7.3338583705
 31
0.0
  0
LINE
  5
1DB
330
1F
100
AcDbEntity
  8
0
  6
CONTINUOUS
 62
     7
100
AcDbLine
 10
3.0682372264
 20
7.3338583705
 30
0.0
 11
3.0510455522
 21
7.3538869057
 31
0.0
  0
LINE
  5
1DC
330
1F
100
AcDbEntity
  8
0
  6
CONTINUOUS
 62
     7
100
AcDbLine
 10
3.0904156309
 20
6.0048603324
 30
0.0
 11
3.0904156309
 21
5.9900673722
 31
0.0
  0
LINE
  5
1DD
330
1F
100
AcDbEntity
  8
0
  6
CONTINUOUS
 62
     7
100
AcDbLine
 10
3.5234864971
 20
7.0984914708
 30
0.0
 11
3.838447127
 21
7.0984914708
 31
0.0
  0
LINE
  5
1DE
330
1F
100
AcDbEntity
  8
0
  6
CONTINUOUS
 62
     7
100
AcDbLine
 10
3.5234864971
 20
6.2536992331
 30
0.0
 11
3.5234864971
 21
7.0984914708
 31
0.0
  0
LINE
  5
1DF
330
1F
100
AcDbEntity
  8
0
  6
CONTINUOUS
 62
     7
100
AcDbLine
 10
3.838447127
 20
6.2536992331
 30
0.0
 11
3.5234864971
 21
6.2536992331
 31
0.0
  0
LINE
  5
1E0
330
1F
100
AcDbEntity
  8
0
  6
CONTINUOUS
 62
     7
100
AcDbLine
 10
3.838447127
 20
5.8845755641
 30
0.0
 11
3.838447127
 21
6.2536992331
 31
0.0
  0
LINE
  5
1E1
330
1F
100
AcDbEntity
  8
0
  6
CONTINUOUS
 62
     7
100
AcDbLine
 10
3.838447127
 20
7.0984914708
 30
0.0
 11
3.838447127
 21
7.4593787137
 31
0.0
  0
LINE
  5
1E2
330
1F
100
AcDbEntity
  8
0
  6
CONTINUOUS
 62
     7
100
AcDbLine
 10
3.1297857097
 20
6.0048603324
 30
0.0
 11
3.1297857097
 21
5.8845755641
 31
0.0
  0
LINE
  5
1E3
330
1F
100
AcDbEntity
  8
0
  6
CONTINUOUS
 62
     7
100
AcDbLine
 10
2.8148250798
 20
6.0048603324
 30
0.0
 11
3.1297857097
 21
6.0048603324
 31
0.0
  0
LINE
  5
1E4
330
1F
100
AcDbEntity
  8
0
  6
CONTINUOUS
 62
     7
100
AcDbLine
 10
2.8148250798
 20
7.3338583705
 30
0.0
 11
2.8148250798
 21
6.0048603324
 31
0.0
  0
LINE
  5
1E5
330
1F
100
AcDbEntity
  8
0
  6
CONTINUOUS
 62
     7
100
AcDbLine
 10
3.1297857097
 20
7.3338583705
 30
0.0
 11
2.8148250798
 21
7.3338583705
 31
0.0
  0
LINE
  5
1E6
330
1F
100
AcDbEntity
  8
0
  6
CONTINUOUS
 62
     7
100
AcDbLine
 10
3.1297857097
 20
7.4593787137
 30
0.0
 11
3.1297857097
 21
7.3338583705
 31
0.0
  0
SPLINE
  5
1E7
330
1F
100
AcDbEntity
  8
0
  6
CONTINUOUS
 62
     7
100
AcDbSpline
210
0.0
220
0.0
230
1.0
 70
     8
 71
     3
 72
     8
 73
     4
 74
     0
 42
0.00000001
 43
0.00000001
 40
0.0
 40
0.0
 40
0.0
 40
0.0
 40
0.0001083645978465
 40
0.0001083645978465
 40
0.0001083645978465
 40
0.0001083645978465
 10
2.780986747614202
 20
6.029437450897182
 30
0.0
 10
2.779141345393669
 20
6.031601717645582
 30
0.0
 10
2.777297416228046
 20
6.033767241333257
 30
0.0
 10
2.775455001022348
 20
6.035934051459594
 30
0.0
  0
SPLINE
  5
1E8
330
1F
100
AcDbEntity
  8
0
  6
CONTINUOUS
 62
     7
100
AcDbSpline
210
0.0
220
0.0
230
1.0
 70
     8
 71
     3
 72
     8
 73
     4
 74
     0
 42
0.00000001
 43
0.00000001
 40
0.0
 40
0.0
 40
0.0
 40
0.0
 40
0.0002845941545838
 40
0.0002845941545838
 40
0.0002845941545838
 40
0.0002845941545838
 10
2.775455001022348
 20
7.308020226373255
 30
0.0
 10
2.780293671660894
 20
7.313710844050087
 30
0.0
 10
2.785142784413269
 20
7.319392597307949
 30
0.0
 10
2.790001619372517
 20
7.325066007740043
 30
0.0
  0
SPLINE
  5
1E9
330
1F
100
AcDbEntity
  8
0
  6
CONTINUOUS
 62
     7
100
AcDbSpline
210
0.0
220
0.0
230
1.0
 70
     8
 71
     3
 72
     8
 73
     4
 74
     0
 42
0.00000001
 43
0.00000001
 40
0.0
 40
0.0
 40
0.0
 40
0.0
 40
0.000534342373819
 40
0.000534342373819
 40
0.000534342373819
 40
0.000534342373819
 10
2.790001619372517
 20
7.325066007740043
 30
0.0
 10
2.798198906201162
 20
7.328011291811587
 30
0.0
 10
2.806476910485381
 20
7.330941613740429
 30
0.0
 10
2.814825079762505
 20
7.333858370484337
 30
0.0
  0
SPLINE
  5
1EA
330
1F
100
AcDbEntity
  8
0
  6
CONTINUOUS
 62
     7
100
AcDbSpline
210
0.0
220
0.0
230
1.0
 70
     8
 71
     3
 72
     8
 73
     4
 74
     0
 42
0.00000001
 43
0.00000001
 40
0.0
 40
0.0
 40
0.0
 40
0.0
 40
0.0006160615699252
 40
0.0006160615699252
 40
0.0006160615699252
 40
0.0006160615699252
 10
2.780986747614202
 20
6.029437450897182
 30
0.0
 10
2.792259027490579
 20
6.021240149230977
 30
0.0
 10
2.803538791513154
 20
6.013047990851736
 30
0.0
 10
2.814825079762505
 20
6.004860332444796
 30
0.0
  0
SPLINE
  5
1EB
330
1F
100
AcDbEntity
  8
0
  6
CONTINUOUS
 62
     7
100
AcDbSpline
210
0.0
220
0.0
230
1.0
 70
     8
 71
     3
 72
     8
 73
     4
 74
     0
 42
0.00000001
 43
0.00000001
 40
0.0
 40
0.0
 40
0.0
 40
0.0
 40
0.0006160615699252
 40
0.0006160615699252
 40
0.0006160615699252
 40
0.0006160615699252
 10
3.52348649708534
 20
6.253699233062465
 30
0.0
 10
3.53477278533469
 20
6.261886891469405
 30
0.0
 10
3.546052549357266
 20
6.270079049848647
 30
0.0
 10
3.557324829233644
 20
6.278276351514851
 30
0.0
  0
SPLINE
  5
1EC
330
1F
100
AcDbEntity
  8
0
  6
CONTINUOUS
 62
     7
100
AcDbSpline
210
0.0
220
0.0
230
1.0
 70
     8
 71
     3
 72
     8
 73
     4
 74
     0
 42
0.00000001
 43
0.00000001
 40
0.0
 40
0.0
 40
0.0
 40
0.0
 40
0.000534342373819
 40
0.000534342373819
 40
0.000534342373819
 40
0.000534342373819
 10
3.52348649708534
 20
7.09849147079828
 30
0.0
 10
3.531834666362464
 20
7.087605986436699
 30
0.0
 10
3.540112670646683
 20
7.076669876115727
 30
0.0
 10
3.548309957475328
 20
7.065677926318001
 30
0.0
  0
SPLINE
  5
1ED
330
1F
100
AcDbEntity
  8
0
  6
CONTINUOUS
 62
     7
100
AcDbSpline
210
0.0
220
0.0
230
1.0
 70
     8
 71
     3
 72
     8
 73
     4
 74
     0
 42
0.00000001
 43
0.00000001
 40
0.0
 40
0.0
 40
0.0
 40
0.0
 40
0.0006160615699252
 40
0.0006160615699252
 40
0.0006160615699252
 40
0.0006160615699252
 10
3.8384471270066
 20
6.253699233062465
 30
0.0
 10
3.849733415255951
 20
6.261886891469405
 30
0.0
 10
3.861013179278526
 20
6.270079049848647
 30
0.0
 10
3.872285459154904
 20
6.278276351514851
 30
0.0
  0
LINE
  5
1EE
330
1F
100
AcDbEntity
  8
0
  6
CONTINUOUS
 62
     7
100
AcDbLine
 10
3.5573248292
 20
6.2782763515
 30
0.0
 11
3.5625738063
 21
6.2782763515
 31
0.0
  0
SPLINE
  5
1EF
330
1F
100
AcDbEntity
  8
0
  6
CONTINUOUS
 62
     7
100
AcDbSpline
210
0.0
220
0.0
230
1.0
 70
     8
 71
     3
 72
     8
 73
     4
 74
     0
 42
0.00000001
 43
0.00000001
 40
0.0
 40
0.0
 40
0.0
 40
0.0
 40
0.000534342373819
 40
0.000534342373819
 40
0.000534342373819
 40
0.000534342373819
 10
3.8384471270066
 20
7.09849147079828
 30
0.0
 10
3.846795296283725
 20
7.087605986436699
 30
0.0
 10
3.855073300567943
 20
7.076669876115727
 30
0.0
 10
3.863270587396588
 20
7.065677926318001
 30
0.0
  0
LINE
  5
1F0
330
1F
100
AcDbEntity
  8
0
  6
CONTINUOUS
 62
     7
100
AcDbLine
 10
3.5625738063
 20
7.0656779263
 30
0.0
 11
3.5483099575
 21
7.0656779263
 31
0.0
  0
LINE
  5
1F1
330
1F
100
AcDbEntity
  8
0
  6
HIDDEN
 62
     7
100
AcDbLine
 10
2.6179746861
 20
6.4160716271
 30
0.0
 11
2.932935316
 21
6.4160716271
 31
0.0
  0
LINE
  5
1F2
330
1F
100
AcDbEntity
  8
0
  6
HIDDEN
 62
     7
100
AcDbLine
 10
2.9132502766
 20
6.4357566665
 30
0.0
 11
2.6376597254
 21
6.4357566665
 31
0.0
  0
LINE
  5
1F3
330
1F
100
AcDbEntity
  8
0
  6
HIDDEN
 62
     7
100
AcDbLine
 10
2.775455001
 20
5.9042606035
 30
0.0
 11
2.6179746861
 21
5.9042606035
 31
0.0
  0
LINE
  5
1F4
330
1F
100
AcDbEntity
  8
0
  6
HIDDEN
 62
     7
100
AcDbLine
 10
2.932935316
 20
5.9042606035
 30
0.0
 11
2.775455001
 21
5.9042606035
 31
0.0
  0
LINE
  5
1F5
330
1F
100
AcDbEntity
  8
0
  6
HIDDEN
 62
     7
100
AcDbLine
 10
2.775455001
 20
6.0420558791
 30
0.0
 11
2.8541951585
 21
6.0420558791
 31
0.0
  0
LINE
  5
1F6
330
1F
100
AcDbEntity
  8
0
  6
HIDDEN
 62
     7
100
AcDbLine
 10
2.775455001
 20
6.0359340515
 30
0.0
 11
2.775455001
 21
5.8845755641
 31
0.0
  0
LINE
  5
1F7
330
1F
100
AcDbEntity
  8
0
  6
HIDDEN
 62
     7
100
AcDbLine
 10
2.6967148435
 20
6.0420558791
 30
0.0
 11
2.775455001
 21
6.0420558791
 31
0.0
  0
LINE
  5
1F8
330
1F
100
AcDbEntity
  8
0
  6
HIDDEN
 62
     7
100
AcDbLine
 10
2.6967148435
 20
6.0420558791
 30
0.0
 11
2.6967148435
 21
5.8845755641
 31
0.0
  0
LINE
  5
1F9
330
1F
100
AcDbEntity
  8
0
  6
HIDDEN
 62
     7
100
AcDbLine
 10
2.8541951585
 20
6.0420558791
 30
0.0
 11
2.8541951585
 21
5.8845755641
 31
0.0
  0
LINE
  5
1FA
330
1F
100
AcDbEntity
  8
0
  6
HIDDEN
 62
     7
100
AcDbLine
 10
3.0904156309
 20
7.3338583705
 30
0.0
 11
3.0904156309
 21
7.3080202264
 31
0.0
  0
LINE
  5
1FB
330
1F
100
AcDbEntity
  8
0
  6
HIDDEN
 62
     7
100
AcDbLine
 10
3.0904156309
 20
7.3080202264
 30
0.0
 11
3.0682372264
 21
7.3338583705
 31
0.0
  0
LINE
  5
1FC
330
1F
100
AcDbEntity
  8
0
  6
HIDDEN
 62
     7
100
AcDbLine
 10
3.0904156309
 20
7.3080202264
 30
0.0
 11
3.0904156309
 21
6.0048603324
 31
0.0
  0
SPLINE
  5
1FD
330
1F
100
AcDbEntity
  8
0
  6
HIDDEN
 62
     7
100
AcDbSpline
210
0.0
220
0.0
230
1.0
 70
     8
 71
     3
 72
    17
 73
    13
 74
     0
 42
0.00000001
 43
0.00000001
 40
0.0
 40
0.0
 40
0.0
 40
0.0
 40
0.0885039294689006
 40
0.1802274904956373
 40
0.2685929359669086
 40
0.3589122497035855
 40
0.4610968612821541
 40
0.5655325323620213
 40
0.6816502942344098
 40
0.8019798977130749
 40
0.9047452926786358
 40
1.0
 40
1.0
 40
1.0
 40
1.0
 10
2.775455001022348
 20
6.495908794231402
 30
0.0
 10
2.767897229084686
 20
6.495622392939926
 30
0.0
 10
2.752506745540771
 20
6.495039171535551
 30
0.0
 10
2.730411960983387
 20
6.490602042121894
 30
0.0
 10
2.709586111629142
 20
6.484306895902138
 30
0.0
 10
2.689668954223062
 20
6.476382760138946
 30
0.0
 10
2.670708064324604
 20
6.467312613390748
 30
0.0
 10
2.6527564774915
 20
6.457522977596883
 30
0.0
 10
2.63707771493488
 20
6.448129322923989
 30
0.0
 10
2.625756504773205
 20
6.440903771450607
 30
0.0
 10
2.619044145016235
 20
6.436472249966601
 30
0.0
 10
2.618477572833168
 20
6.436092463254351
 30
0.0
 10
2.618205031475746
 20
6.435909772347205
 30
0.0
  0
LINE
  5
1FE
330
1F
100
AcDbEntity
  8
0
  6
HIDDEN
 62
     7
100
AcDbLine
 10
2.7710661268
 20
6.4956290428
 30
0.0
 11
2.7816012449
 21
6.4955660002
 31
0.0
  0
SPLINE
  5
1FF
330
1F
100
AcDbEntity
  8
0
  6
HIDDEN
 62
     7
100
AcDbSpline
210
0.0
220
0.0
230
1.0
 70
     8
 71
     3
 72
    18
 73
    14
 74
     0
 42
0.00000001
 43
0.00000001
 40
0.0
 40
0.0
 40
0.0
 40
0.0
 40
0.0810666169800642
 40
0.1667298661979741
 40
0.2546345735043544
 40
0.3454812662474779
 40
0.4383149727019842
 40
0.543439586827197
 40
0.6510270571645747
 40
0.747950505544658
 40
0.8473816049734709
 40
0.922736994465793
 40
1.0
 40
1.0
 40
1.0
 40
1.0
 10
2.93269826346708
 20
6.435914374171631
 30
0.0
 10
2.932531656078385
 20
6.436025999441214
 30
0.0
 10
2.932188994343389
 20
6.436255579346671
 30
0.0
 10
2.927604403079354
 20
6.43929087634113
 30
0.0
 10
2.920275335953173
 20
6.444034323199175
 30
0.0
 10
2.909903295998782
 20
6.45051059425965
 30
0.0
 10
2.896257724172234
 20
6.458572196313662
 30
0.0
 10
2.879144034823743
 20
6.46786753042618
 30
0.0
 10
2.859196144333352
 20
6.477313521631911
 30
0.0
 10
2.837350640005392
 20
6.485745937199313
 30
0.0
 10
2.816013912621234
 20
6.49166850317894
 30
0.0
 10
2.795085399797855
 20
6.495263443477946
 30
0.0
 10
2.78205276667686
 20
6.495691892217085
 30
0.0
 10
2.775455001022348
 20
6.495908794231402
 30
0.0
  0
LINE
  5
200
330
1F
100
AcDbEntity
  8
0
  6
HIDDEN
 62
     7
100
AcDbLine
 10
3.5234864971
 20
6.245462807
 30
0.0
 11
3.838447127
 21
6.245462807
 31
0.0
  0
LINE
  5
201
330
1F
100
AcDbEntity
  8
0
  6
HIDDEN
 62
     7
100
AcDbLine
 10
3.5234864971
 20
6.2536992331
 30
0.0
 11
3.5234864971
 21
6.245462807
 31
0.0
  0
LINE
  5
202
330
1F
100
AcDbEntity
  8
0
  6
HIDDEN
 62
     7
100
AcDbLine
 10
3.838447127
 20
7.0902550448
 30
0.0
 11
3.5234864971
 21
7.0902550448
 31
0.0
  0
LINE
  5
203
330
1F
100
AcDbEntity
  8
0
  6
HIDDEN
 62
     7
100
AcDbLine
 10
3.838447127
 20
7.0984914708
 30
0.0
 11
3.838447127
 21
7.0902550448
 31
0.0
  0
LINE
  5
204
330
1F
100
AcDbEntity
  8
0
  6
HIDDEN
 62
     7
100
AcDbLine
 10
3.1297857097
 20
6.0100959073
 30
0.0
 11
2.8148250798
 21
6.0100959073
 31
0.0
  0
LINE
  5
205
330
1F
100
AcDbEntity
  8
0
  6
HIDDEN
 62
     7
100
AcDbLine
 10
3.1297857097
 20
6.0048603324
 30
0.0
 11
3.1297857097
 21
6.0100959073
 31
0.0
  0
LINE
  5
206
330
1F
100
AcDbEntity
  8
0
  6
HIDDEN
 62
     7
100
AcDbLine
 10
2.8148250798
 20
7.3390939454
 30
0.0
 11
3.1297857097
 21
7.3390939454
 31
0.0
  0
LINE
  5
207
330
1F
100
AcDbEntity
  8
0
  6
HIDDEN
 62
     7
100
AcDbLine
 10
2.8148250798
 20
7.3338583705
 30
0.0
 11
2.8148250798
 21
7.3390939454
 31
0.0
  0
SPLINE
  5
208
330
1F
100
AcDbEntity
  8
0
  6
HIDDEN
 62
     7
100
AcDbSpline
210
0.0
220
0.0
230
1.0
 70
     8
 71
     3
 72
     8
 73
     4
 74
     0
 42
0.00000001
 43
0.00000001
 40
0.0
 40
0.0
 40
0.0
 40
0.0
 40
0.000534342373819
 40
0.000534342373819
 40
0.000534342373819
 40
0.000534342373819
 10
3.8384471270066
 20
6.245462807034572
 30
0.0
 10
3.846795296283724
 20
6.256348291396153
 30
0.0
 10
3.855073300567943
 20
6.267284401717126
 30
0.0
 10
3.863270587396588
 20
6.278276351514851
 30
0.0
  0
SPLINE
  5
209
330
1F
100
AcDbEntity
  8
0
  6
HIDDEN
 62
     7
100
AcDbSpline
210
0.0
220
0.0
230
1.0
 70
     8
 71
     3
 72
     8
 73
     4
 74
     0
 42
0.00000001
 43
0.00000001
 40
0.0
 40
0.0
 40
0.0
 40
0.0
 40
0.0006160615699252
 40
0.0006160615699252
 40
0.0006160615699252
 40
0.0006160615699252
 10
3.872285459154905
 20
7.065677926318001
 30
0.0
 10
3.861013179278527
 20
7.073875227984207
 30
0.0
 10
3.849733415255951
 20
7.082067386363447
 30
0.0
 10
3.8384471270066
 20
7.090255044770388
 30
0.0
  0
SPLINE
  5
20A
330
1F
100
AcDbEntity
  8
0
  6
HIDDEN
 62
     7
100
AcDbSpline
210
0.0
220
0.0
230
1.0
 70
     8
 71
     3
 72
     8
 73
     4
 74
     0
 42
0.00000001
 43
0.00000001
 40
0.0
 40
0.0
 40
0.0
 40
0.0
 40
0.0002845941545838
 40
0.0002845941545838
 40
0.0002845941545838
 40
0.0002845941545838
 10
3.104962249293777
 20
7.325066007740043
 30
0.0
 10
3.100103414334529
 20
7.319392597307949
 30
0.0
 10
3.095254301582155
 20
7.313710844050087
 30
0.0
 10
3.090415630943608
 20
7.308020226373255
 30
0.0
  0
SPLINE
  5
20B
330
1F
100
AcDbEntity
  8
0
  6
HIDDEN
 62
     7
100
AcDbSpline
210
0.0
220
0.0
230
1.0
 70
     8
 71
     3
 72
     8
 73
     4
 74
     0
 42
0.00000001
 43
0.00000001
 40
0.0
 40
0.0
 40
0.0
 40
0.0
 40
0.0006160615699252
 40
0.0006160615699252
 40
0.0006160615699252
 40
0.0006160615699252
 10
3.129785709683765
 20
7.339093945388056
 30
0.0
 10
3.118499421434414
 20
7.330906286981117
 30
0.0
 10
3.107219657411838
 20
7.322714128601875
 30
0.0
 10
3.095947377535461
 20
7.31451682693567
 30
0.0
  0
SPLINE
  5
20C
330
1F
100
AcDbEntity
  8
0
  6
HIDDEN
 62
     7
100
AcDbSpline
210
0.0
220
0.0
230
1.0
 70
     8
 71
     3
 72
     8
 73
     4
 74
     0
 42
0.00000001
 43
0.00000001
 40
0.0
 40
0.0
 40
0.0
 40
0.0
 40
0.000534342373819
 40
0.000534342373819
 40
0.000534342373819
 40
0.000534342373819
 10
3.104962249293777
 20
7.325066007740043
 30
0.0
 10
3.113159536122422
 20
7.328011291811587
 30
0.0
 10
3.12143754040664
 20
7.330941613740429
 30
0.0
 10
3.129785709683765
 20
7.333858370484337
 30
0.0
  0
SPLINE
  5
20D
330
1F
100
AcDbEntity
  8
0
  6
HIDDEN
 62
     7
100
AcDbSpline
210
0.0
220
0.0
230
1.0
 70
     8
 71
     3
 72
     8
 73
     4
 74
     0
 42
0.00000001
 43
0.00000001
 40
0.0
 40
0.0
 40
0.0
 40
0.0
 40
0.0001083645978465
 40
0.0001083645978465
 40
0.0001083645978465
 40
0.0001083645978465
 10
3.090415630943608
 20
6.035934051459595
 30
0.0
 10
3.092258046149306
 20
6.033767241333257
 30
0.0
 10
3.094101975314928
 20
6.031601717645582
 30
0.0
 10
3.095947377535462
 20
6.029437450897182
 30
0.0
  0
SPLINE
  5
20E
330
1F
100
AcDbEntity
  8
0
  6
HIDDEN
 62
     7
100
AcDbSpline
210
0.0
220
0.0
230
1.0
 70
     8
 71
     3
 72
     8
 73
     4
 74
     0
 42
0.00000001
 43
0.00000001
 40
0.0
 40
0.0
 40
0.0
 40
0.0
 40
0.000534342373819
 40
0.000534342373819
 40
0.000534342373819
 40
0.000534342373819
 10
3.104962249293777
 20
6.01888827009281
 30
0.0
 10
3.113159536122422
 20
6.015942986021265
 30
0.0
 10
3.121437540406641
 20
6.013012664092424
 30
0.0
 10
3.129785709683766
 20
6.010095907348517
 30
0.0
  0
SPLINE
  5
20F
330
1F
100
AcDbEntity
  8
0
  6
HIDDEN
 62
     7
100
AcDbSpline
210
0.0
220
0.0
230
1.0
 70
     8
 71
     3
 72
     8
 73
     4
 74
     0
 42
0.00000001
 43
0.00000001
 40
0.0
 40
0.0
 40
0.0
 40
0.0
 40
0.0002845941545838
 40
0.0002845941545838
 40
0.0002845941545838
 40
0.0002845941545838
 10
3.104962249293777
 20
6.01888827009281
 30
0.0
 10
3.100103414334529
 20
6.024561680524903
 30
0.0
 10
3.095254301582155
 20
6.030243433782765
 30
0.0
 10
3.090415630943608
 20
6.035934051459597
 30
0.0
  0
SPLINE
  5
210
330
1F
100
AcDbEntity
  8
0
  6
HIDDEN
 62
     7
100
AcDbSpline
210
0.0
220
0.0
230
1.0
 70
     8
 71
     3
 72
     8
 73
     4
 74
     0
 42
0.00000001
 43
0.00000001
 40
0.0
 40
0.0
 40
0.0
 40
0.0
 40
0.0006160615699252
 40
0.0006160615699252
 40
0.0006160615699252
 40
0.0006160615699252
 10
3.095947377535462
 20
6.029437450897182
 30
0.0
 10
3.107219657411839
 20
6.021240149230977
 30
0.0
 10
3.118499421434415
 20
6.013047990851736
 30
0.0
 10
3.129785709683766
 20
6.004860332444796
 30
0.0
  0
LINE
  5
211
330
1F
100
AcDbEntity
  8
0
  6
HIDDEN
 62
     7
100
AcDbLine
 10
3.0904156309
 20
6.0359340515
 30
0.0
 11
3.0904156309
 21
7.3080202264
 31
0.0
  0
LINE
  5
212
330
1F
100
AcDbEntity
  8
0
  6
HIDDEN
 62
     7
100
AcDbLine
 10
3.0959473775
 20
6.0294374509
 30
0.0
 11
2.7809867476
 21
6.0294374509
 31
0.0
  0
LINE
  5
213
330
1F
100
AcDbEntity
  8
0
  6
HIDDEN
 62
     7
100
AcDbLine
 10
2.7900016194
 20
7.3250660077
 30
0.0
 11
3.1049622493
 21
7.3250660077
 31
0.0
  0
LINE
  5
214
330
1F
100
AcDbEntity
  8
0
  6
HIDDEN
 62
     7
100
AcDbLine
 10
2.7900016194
 20
6.0188882701
 30
0.0
 11
3.1049622493
 21
6.0188882701
 31
0.0
  0
LINE
  5
215
330
1F
100
AcDbEntity
  8
0
  6
HIDDEN
 62
     7
100
AcDbLine
 10
3.0959473775
 20
7.3145168269
 30
0.0
 11
2.7809867476
 21
7.3145168269
 31
0.0
  0
SPLINE
  5
216
330
1F
100
AcDbEntity
  8
0
  6
HIDDEN
 62
     7
100
AcDbSpline
210
0.0
220
0.0
230
1.0
 70
     8
 71
     3
 72
     8
 73
     4
 74
     0
 42
0.00000001
 43
0.00000001
 40
0.0
 40
0.0
 40
0.0
 40
0.0
 40
0.0002845941545838
 40
0.0002845941545838
 40
0.0002845941545838
 40
0.0002845941545838
 10
2.775455001022348
 20
6.035934051459596
 30
0.0
 10
2.780293671660894
 20
6.030243433782765
 30
0.0
 10
2.785142784413269
 20
6.024561680524903
 30
0.0
 10
2.790001619372517
 20
6.01888827009281
 30
0.0
  0
SPLINE
  5
217
330
1F
100
AcDbEntity
  8
0
  6
HIDDEN
 62
     7
100
AcDbSpline
210
0.0
220
0.0
230
1.0
 70
     8
 71
     3
 72
     8
 73
     4
 74
     0
 42
0.00000001
 43
0.00000001
 40
0.0
 40
0.0
 40
0.0
 40
0.0
 40
0.0006160615699252
 40
0.0006160615699252
 40
0.0006160615699252
 40
0.0006160615699252
 10
2.780986747614202
 20
7.31451682693567
 30
0.0
 10
2.792259027490579
 20
7.322714128601875
 30
0.0
 10
2.803538791513154
 20
7.330906286981117
 30
0.0
 10
2.814825079762505
 20
7.339093945388056
 30
0.0
  0
SPLINE
  5
218
330
1F
100
AcDbEntity
  8
0
  6
HIDDEN
 62
     7
100
AcDbSpline
210
0.0
220
0.0
230
1.0
 70
     8
 71
     3
 72
     8
 73
     4
 74
     0
 42
0.00000001
 43
0.00000001
 40
0.0
 40
0.0
 40
0.0
 40
0.0
 40
0.000534342373819
 40
0.000534342373819
 40
0.000534342373819
 40
0.000534342373819
 10
2.790001619372517
 20
6.01888827009281
 30
0.0
 10
2.798198906201161
 20
6.015942986021265
 30
0.0
 10
2.806476910485381
 20
6.013012664092423
 30
0.0
 10
2.814825079762505
 20
6.010095907348516
 30
0.0
  0
LINE
  5
219
330
1F
100
AcDbEntity
  8
0
  6
HIDDEN
 62
     7
100
AcDbLine
 10
3.5483099575
 20
6.2782763515
 30
0.0
 11
3.5572838363
 21
6.2782763515
 31
0.0
  0
SPLINE
  5
21A
330
1F
100
AcDbEntity
  8
0
  6
HIDDEN
 62
     7
100
AcDbSpline
210
0.0
220
0.0
230
1.0
 70
     8
 71
     3
 72
     8
 73
     4
 74
     0
 42
0.00000001
 43
0.00000001
 40
0.0
 40
0.0
 40
0.0
 40
0.0
 40
0.0006160615699252
 40
0.0006160615699252
 40
0.0006160615699252
 40
0.0006160615699252
 10
3.52348649708534
 20
7.090255044770388
 30
0.0
 10
3.53477278533469
 20
7.082067386363447
 30
0.0
 10
3.546052549357266
 20
7.073875227984207
 30
0.0
 10
3.557324829233644
 20
7.065677926318001
 30
0.0
  0
SPLINE
  5
21B
330
1F
100
AcDbEntity
  8
0
  6
HIDDEN
 62
     7
100
AcDbSpline
210
0.0
220
0.0
230
1.0
 70
     8
 71
     3
 72
     8
 73
     4
 74
     0
 42
0.00000001
 43
0.00000001
 40
0.0
 40
0.0
 40
0.0
 40
0.0
 40
0.000534342373819
 40
0.000534342373819
 40
0.000534342373819
 40
0.000534342373819
 10
3.52348649708534
 20
6.245462807034572
 30
0.0
 10
3.531834666362464
 20
6.256348291396153
 30
0.0
 10
3.540112670646683
 20
6.267284401717126
 30
0.0
 10
3.548309957475328
 20
6.278276351514851
 30
0.0
  0
LINE
  5
21C
330
1F
100
AcDbEntity
  8
0
  6
HIDDEN
 62
     7
100
AcDbLine
 10
4.2321479144
 20
6.9475676901
 30
0.0
 11
4.1927778357
 21
6.9081976114
 31
0.0
  0
LINE
  5
21D
330
1F
100
AcDbEntity
  8
0
  6
HIDDEN
 62
     7
100
AcDbLine
 10
4.1927778357
 20
6.4357566665
 30
0.0
 11
4.2321479144
 21
6.3963865877
 31
0.0
  0
LINE
  5
21E
330
1F
100
AcDbEntity
  8
0
  6
HIDDEN
 62
     7
100
AcDbLine
 10
4.1927778357
 20
6.9081976114
 30
0.0
 11
3.5628565758
 21
6.9081976114
 31
0.0
  0
LINE
  5
21F
330
1F
100
AcDbEntity
  8
0
  6
HIDDEN
 62
     7
100
AcDbLine
 10
3.5628565758
 20
6.4357566665
 30
0.0
 11
4.1927778357
 21
6.4357566665
 31
0.0
  0
LINE
  5
220
330
1F
100
AcDbEntity
  8
0
  6
HIDDEN
 62
     7
100
AcDbLine
 10
2.932935316
 20
6.4160716271
 30
0.0
 11
2.9132502766
 21
6.4357566665
 31
0.0
  0
LINE
  5
221
330
1F
100
AcDbEntity
  8
0
  6
HIDDEN
 62
     7
100
AcDbLine
 10
2.6376597254
 20
6.4357566665
 30
0.0
 11
2.6179746861
 21
6.4160716271
 31
0.0
  0
LINE
  5
222
330
1F
100
AcDbEntity
  8
0
  6
HIDDEN
 62
     7
100
AcDbLine
 10
2.932935316
 20
5.9042606035
 30
0.0
 11
2.932935316
 21
6.4160716271
 31
0.0
  0
LINE
  5
223
330
1F
100
AcDbEntity
  8
0
  6
HIDDEN
 62
     7
100
AcDbLine
 10
2.6179746861
 20
6.4160716271
 30
0.0
 11
2.6179746861
 21
5.9042606035
 31
0.0
  0
LINE
  5
224
330
1F
100
AcDbEntity
  8
0
  6
HIDDEN
 62
     7
100
AcDbLine
 10
2.6179746861
 20
5.9042606035
 30
0.0
 11
2.6345360577
 21
5.8876992319
 31
0.0
  0
LINE
  5
225
330
1F
100
AcDbEntity
  8
0
  6
HIDDEN
 62
     7
100
AcDbLine
 10
2.9163780125
 20
5.8877033
 30
0.0
 11
2.932935316
 21
5.9042606035
 31
0.0
  0
LINE
  5
226
330
1F
100
AcDbEntity
  8
0
  6
HIDDEN
 62
     7
100
AcDbLine
 10
2.4211242924
 20
6.3963865877
 30
0.0
 11
2.4604943711
 21
6.4357566665
 31
0.0
  0
LINE
  5
227
330
1F
100
AcDbEntity
  8
0
  6
HIDDEN
 62
     7
100
AcDbLine
 10
2.4604943711
 20
6.9081976114
 30
0.0
 11
2.4211242924
 21
6.9475676901
 31
0.0
  0
LINE
  5
228
330
1F
100
AcDbEntity
  8
0
  6
HIDDEN
 62
     7
100
AcDbLine
 10
2.9326982635
 20
6.4357566665
 30
0.0
 11
3.0904156309
 21
6.4357566665
 31
0.0
  0
LINE
  5
229
330
1F
100
AcDbEntity
  8
0
  6
HIDDEN
 62
     7
100
AcDbLine
 10
2.4604943711
 20
6.4357566665
 30
0.0
 11
2.6182050315
 21
6.4357566665
 31
0.0
  0
LINE
  5
22A
330
1F
100
AcDbEntity
  8
0
  6
HIDDEN
 62
     7
100
AcDbLine
 10
3.0904156309
 20
6.9081976114
 30
0.0
 11
2.4604943711
 21
6.9081976114
 31
0.0
  0
LINE
  5
22B
330
1F
100
AcDbEntity
  8
0
  6
HIDDEN
 62
     7
100
AcDbLine
 10
2.6179746861
 20
6.4359093785
 30
0.0
 11
2.6179746861
 21
5.8845755641
 31
0.0
  0
LINE
  5
22C
330
1F
100
AcDbEntity
  8
0
  6
HIDDEN
 62
     7
100
AcDbLine
 10
2.932935316
 20
5.8845755641
 30
0.0
 11
2.932935316
 21
6.4359141137
 31
0.0
  0
LINE
  5
22D
330
1F
100
AcDbEntity
  8
0
  6
HIDDEN
 62
     7
100
AcDbLine
 10
3.0904156309
 20
6.4357566665
 30
0.0
 11
3.5628565758
 21
6.4357566665
 31
0.0
  0
LINE
  5
22E
330
1F
100
AcDbEntity
  8
0
  6
HIDDEN
 62
     7
100
AcDbLine
 10
3.5628565758
 20
6.9081976114
 30
0.0
 11
3.0904156309
 21
6.9081976114
 31
0.0
  0
LINE
  5
22F
330
1F
100
AcDbEntity
  8
0
  6
CONTINUOUS
 62
     7
100
AcDbLine
 10
8.6746577767
 20
7.3185981571
 30
0.0
 11
8.6607360902
 21
7.3266375881
 31
0.0
  0
LINE
  5
230
330
1F
100
AcDbEntity
  8
0
  6
CONTINUOUS
 62
     7
100
AcDbLine
 10
8.4658324781
 20
7.3266375881
 30
0.0
 11
8.4519107916
 21
7.3185981571
 31
0.0
  0
LINE
  5
231
330
1F
100
AcDbEntity
  8
0
  6
CONTINUOUS
 62
     7
100
AcDbLine
 10
8.7860855733
 20
5.8559911384
 30
0.0
 11
8.8139198983
 21
5.8720647762
 31
0.0
  0
LINE
  5
232
330
1F
100
AcDbEntity
  8
0
  6
CONTINUOUS
 62
     7
100
AcDbLine
 10
9.3427720744
 20
6.788162876
 30
0.0
 11
9.3427720744
 21
6.8203049277
 31
0.0
  0
LINE
  5
233
330
1F
100
AcDbEntity
  8
0
  6
CONTINUOUS
 62
     7
100
AcDbLine
 10
8.1974543414
 20
5.9294533539
 30
0.0
 11
8.392326289
 21
5.8169561731
 31
0.0
  0
LINE
  5
234
330
1F
100
AcDbEntity
  8
0
  6
CONTINUOUS
 62
     7
100
AcDbLine
 10
9.1796638737
 20
7.1808126493
 30
0.0
 11
8.9569530765
 21
7.3093808559
 31
0.0
  0
LINE
  5
235
330
1F
100
AcDbEntity
  8
0
  6
CONTINUOUS
 62
     7
100
AcDbLine
 10
8.0343461407
 20
6.3221031272
 30
0.0
 11
8.0343461407
 21
6.2899610755
 31
0.0
  0
LINE
  5
236
330
1F
100
AcDbEntity
  8
0
  6
CONTINUOUS
 62
     7
100
AcDbLine
 10
8.3683218447
 20
7.3828430714
 30
0.0
 11
8.3404875196
 21
7.3667694336
 31
0.0
  0
LINE
  5
237
330
1F
100
AcDbEntity
  8
0
  6
CONTINUOUS
 62
     7
100
AcDbLine
 10
7.129583527
 20
6.8283404406
 30
0.0
 11
7.129583527
 21
6.8122694148
 31
0.0
  0
LINE
  5
238
330
1F
100
AcDbEntity
  8
0
  6
CONTINUOUS
 62
     7
100
AcDbLine
 10
7.2270036647
 20
6.6435145017
 30
0.0
 11
7.2409208272
 21
6.6354776827
 31
0.0
  0
LINE
  5
239
330
1F
100
AcDbEntity
  8
0
  6
CONTINUOUS
 62
     7
100
AcDbLine
 10
8.1496264366
 20
7.7754406048
 30
0.0
 11
7.954754489
 21
7.8879377855
 31
0.0
  0
LINE
  5
23A
330
1F
100
AcDbEntity
  8
0
  6
CONTINUOUS
 62
     7
100
AcDbLine
 10
7.1674169043
 20
6.5240813094
 30
0.0
 11
7.3622888518
 21
6.4115841286
 31
0.0
  0
LINE
  5
23B
330
1F
100
AcDbEntity
  8
0
  6
CONTINUOUS
 62
     7
100
AcDbLine
 10
7.5609952047
 20
7.8489028203
 30
0.0
 11
7.5331608797
 21
7.8328291824
 31
0.0
  0
LINE
  5
23C
330
1F
100
AcDbEntity
  8
0
  6
CONTINUOUS
 62
     7
100
AcDbLine
 10
7.0043087036
 20
6.9167310826
 30
0.0
 11
7.0043087036
 21
6.884589031
 31
0.0
  0
LINE
  5
23D
330
1F
100
AcDbEntity
  8
0
  6
CONTINUOUS
 62
     7
100
AcDbLine
 10
7.4179665511
 20
6.3794420769
 30
0.0
 11
8.1417766421
 21
5.9615954055
 31
0.0
  0
LINE
  5
23E
330
1F
100
AcDbEntity
  8
0
  6
CONTINUOUS
 62
     7
100
AcDbLine
 10
8.9291142269
 20
7.3254518817
 30
0.0
 11
8.2053041359
 21
7.7432985531
 31
0.0
  0
LINE
  5
23F
330
1F
100
AcDbEntity
  8
0
  6
CONTINUOUS
 62
     7
100
AcDbLine
 10
7.4775691477
 20
6.6435236436
 30
0.0
 11
7.4775691477
 21
6.611381592
 31
0.0
  0
LINE
  5
240
330
1F
100
AcDbEntity
  8
0
  6
CONTINUOUS
 62
     7
100
AcDbLine
 10
7.8115448516
 20
7.7042635878
 30
0.0
 11
7.7837105265
 21
7.68818995
 31
0.0
  0
POLYLINE
  5
241
330
1F
100
AcDbEntity
  8
0
  6
CONTINUOUS
 62
     7
100
AcDb2dPolyline
 66
     1
 10
0.0
 20
0.0
 30
0.0
  0
VERTEX
  5
28E
330
241
100
AcDbEntity
  8
0
  6
CONTINUOUS
 62
     7
100
AcDbVertex
100
AcDb2dVertex
 10
8.6607202579
 20
7.3266467294
 30
0.0
  0
VERTEX
  5
28F
330
241
100
AcDbEntity
  8
0
  6
CONTINUOUS
 62
     7
100
AcDbVertex
100
AcDb2dVertex
 10
8.6482652312
 20
7.3330166322
 30
0.0
  0
VERTEX
  5
290
330
241
100
AcDbEntity
  8
0
  6
CONTINUOUS
 62
     7
100
AcDbVertex
100
AcDb2dVertex
 10
8.6345709908
 20
7.3384734163
 30
0.0
  0
VERTEX
  5
291
330
241
100
AcDbEntity
  8
0
  6
CONTINUOUS
 62
     7
100
AcDbVertex
100
AcDb2dVertex
 10
8.6198372298
 20
7.3429375097
 30
0.0
  0
VERTEX
  5
292
330
241
100
AcDbEntity
  8
0
  6
CONTINUOUS
 62
     7
100
AcDbVertex
100
AcDb2dVertex
 10
8.6042787994
 20
7.3463438156
 30
0.0
  0
VERTEX
  5
293
330
241
100
AcDbEntity
  8
0
  6
CONTINUOUS
 62
     7
100
AcDbVertex
100
AcDb2dVertex
 10
8.5881225768
 20
7.3486426626
 30
0.0
  0
VERTEX
  5
294
330
241
100
AcDbEntity
  8
0
  6
CONTINUOUS
 62
     7
100
AcDbVertex
100
AcDb2dVertex
 10
8.5716041558
 20
7.3498005282
 30
0.0
  0
VERTEX
  5
295
330
241
100
AcDbEntity
  8
0
  6
CONTINUOUS
 62
     7
100
AcDbVertex
100
AcDb2dVertex
 10
8.5549644125
 20
7.3498005282
 30
0.0
  0
VERTEX
  5
296
330
241
100
AcDbEntity
  8
0
  6
CONTINUOUS
 62
     7
100
AcDbVertex
100
AcDb2dVertex
 10
8.5384459915
 20
7.3486426626
 30
0.0
  0
VERTEX
  5
297
330
241
100
AcDbEntity
  8
0
  6
CONTINUOUS
 62
     7
100
AcDbVertex
100
AcDb2dVertex
 10
8.5222897688
 20
7.3463438156
 30
0.0
  0
VERTEX
  5
298
330
241
100
AcDbEntity
  8
0
  6
CONTINUOUS
 62
     7
100
AcDbVertex
100
AcDb2dVertex
 10
8.5067313385
 20
7.3429375097
 30
0.0
  0
VERTEX
  5
299
330
241
100
AcDbEntity
  8
0
  6
CONTINUOUS
 62
     7
100
AcDbVertex
100
AcDb2dVertex
 10
8.4919975775
 20
7.3384734163
 30
0.0
  0
VERTEX
  5
29A
330
241
100
AcDbEntity
  8
0
  6
CONTINUOUS
 62
     7
100
AcDbVertex
100
AcDb2dVertex
 10
8.4783033371
 20
7.3330166322
 30
0.0
  0
VERTEX
  5
29B
330
241
100
AcDbEntity
  8
0
  6
CONTINUOUS
 62
     7
100
AcDbVertex
100
AcDb2dVertex
 10
8.4658483104
 20
7.3266467294
 30
0.0
  0
VERTEX
  5
29C
330
241
100
AcDbEntity
  8
0
  6
CONTINUOUS
 62
     7
100
AcDbVertex
100
AcDb2dVertex
 10
8.4548141195
 20
7.3194565955
 30
0.0
  0
VERTEX
  5
29D
330
241
100
AcDbEntity
  8
0
  6
CONTINUOUS
 62
     7
100
AcDbVertex
100
AcDb2dVertex
 10
8.4453616679
 20
7.3115510788
 30
0.0
  0
VERTEX
  5
29E
330
241
100
AcDbEntity
  8
0
  6
CONTINUOUS
 62
     7
100
AcDbVertex
100
AcDb2dVertex
 10
8.4376287936
 20
7.3030454596
 30
0.0
  0
VERTEX
  5
29F
330
241
100
AcDbEntity
  8
0
  6
CONTINUOUS
 62
     7
100
AcDbVertex
100
AcDb2dVertex
 10
8.4317282592
 20
7.2940637689
 30
0.0
  0
VERTEX
  5
2A0
330
241
100
AcDbEntity
  8
0
  6
CONTINUOUS
 62
     7
100
AcDbVertex
100
AcDb2dVertex
 10
8.427746108
 20
7.2847369801
 30
0.0
  0
VERTEX
  5
2A1
330
241
100
AcDbEntity
  8
0
  6
CONTINUOUS
 62
     7
100
AcDbVertex
100
AcDb2dVertex
 10
8.4257404086
 20
7.2752010987
 30
0.0
  0
VERTEX
  5
2A2
330
241
100
AcDbEntity
  8
0
  6
CONTINUOUS
 62
     7
100
AcDbVertex
100
AcDb2dVertex
 10
8.4257404086
 20
7.2655951793
 30
0.0
  0
VERTEX
  5
2A3
330
241
100
AcDbEntity
  8
0
  6
CONTINUOUS
 62
     7
100
AcDbVertex
100
AcDb2dVertex
 10
8.427746108
 20
7.2560592979
 30
0.0
  0
VERTEX
  5
2A4
330
241
100
AcDbEntity
  8
0
  6
CONTINUOUS
 62
     7
100
AcDbVertex
100
AcDb2dVertex
 10
8.4317282592
 20
7.246732509
 30
0.0
  0
VERTEX
  5
2A5
330
241
100
AcDbEntity
  8
0
  6
CONTINUOUS
 62
     7
100
AcDbVertex
100
AcDb2dVertex
 10
8.4376287936
 20
7.2377508184
 30
0.0
  0
VERTEX
  5
2A6
330
241
100
AcDbEntity
  8
0
  6
CONTINUOUS
 62
     7
100
AcDbVertex
100
AcDb2dVertex
 10
8.4453616679
 20
7.2292451992
 30
0.0
  0
VERTEX
  5
2A7
330
241
100
AcDbEntity
  8
0
  6
CONTINUOUS
 62
     7
100
AcDbVertex
100
AcDb2dVertex
 10
8.4548141195
 20
7.2213396825
 30
0.0
  0
VERTEX
  5
2A8
330
241
100
AcDbEntity
  8
0
  6
CONTINUOUS
 62
     7
100
AcDbVertex
100
AcDb2dVertex
 10
8.4658483104
 20
7.2141495486
 30
0.0
  0
VERTEX
  5
2A9
330
241
100
AcDbEntity
  8
0
  6
CONTINUOUS
 62
     7
100
AcDbVertex
100
AcDb2dVertex
 10
8.4783033371
 20
7.2077796458
 30
0.0
  0
VERTEX
  5
2AA
330
241
100
AcDbEntity
  8
0
  6
CONTINUOUS
 62
     7
100
AcDbVertex
100
AcDb2dVertex
 10
8.4919975775
 20
7.2023228616
 30
0.0
  0
VERTEX
  5
2AB
330
241
100
AcDbEntity
  8
0
  6
CONTINUOUS
 62
     7
100
AcDbVertex
100
AcDb2dVertex
 10
8.5067313385
 20
7.1978587683
 30
0.0
  0
VERTEX
  5
2AC
330
241
100
AcDbEntity
  8
0
  6
CONTINUOUS
 62
     7
100
AcDbVertex
100
AcDb2dVertex
 10
8.5222897688
 20
7.1944524623
 30
0.0
  0
VERTEX
  5
2AD
330
241
100
AcDbEntity
  8
0
  6
CONTINUOUS
 62
     7
100
AcDbVertex
100
AcDb2dVertex
 10
8.5384459915
 20
7.1921536154
 30
0.0
  0
VERTEX
  5
2AE
330
241
100
AcDbEntity
  8
0
  6
CONTINUOUS
 62
     7
100
AcDbVertex
100
AcDb2dVertex
 10
8.5549644125
 20
7.1909957497
 30
0.0
  0
VERTEX
  5
2AF
330
241
100
AcDbEntity
  8
0
  6
CONTINUOUS
 62
     7
100
AcDbVertex
100
AcDb2dVertex
 10
8.5716041558
 20
7.1909957497
 30
0.0
  0
VERTEX
  5
2B0
330
241
100
AcDbEntity
  8
0
  6
CONTINUOUS
 62
     7
100
AcDbVertex
100
AcDb2dVertex
 10
8.5881225768
 20
7.1921536154
 30
0.0
  0
VERTEX
  5
2B1
330
241
100
AcDbEntity
  8
0
  6
CONTINUOUS
 62
     7
100
AcDbVertex
100
AcDb2dVertex
 10
8.6042787994
 20
7.1944524623
 30
0.0
  0
VERTEX
  5
2B2
330
241
100
AcDbEntity
  8
0
  6
CONTINUOUS
 62
     7
100
AcDbVertex
100
AcDb2dVertex
 10
8.6198372298
 20
7.1978587683
 30
0.0
  0
VERTEX
  5
2B3
330
241
100
AcDbEntity
  8
0
  6
CONTINUOUS
 62
     7
100
AcDbVertex
100
AcDb2dVertex
 10
8.6345709908
 20
7.2023228616
 30
0.0
  0
VERTEX
  5
2B4
330
241
100
AcDbEntity
  8
0
  6
CONTINUOUS
 62
     7
100
AcDbVertex
100
AcDb2dVertex
 10
8.6482652312
 20
7.2077796458
 30
0.0
  0
VERTEX
  5
2B5
330
241
100
AcDbEntity
  8
0
  6
CONTINUOUS
 62
     7
100
AcDbVertex
100
AcDb2dVertex
 10
8.6607202579
 20
7.2141495486
 30
0.0
  0
VERTEX
  5
2B6
330
241
100
AcDbEntity
  8
0
  6
CONTINUOUS
 62
     7
100
AcDbVertex
100
AcDb2dVertex
 10
8.6717544488
 20
7.2213396825
 30
0.0
  0
VERTEX
  5
2B7
330
241
100
AcDbEntity
  8
0
  6
CONTINUOUS
 62
     7
100
AcDbVertex
100
AcDb2dVertex
 10
8.6812069004
 20
7.2292451992
 30
0.0
  0
VERTEX
  5
2B8
330
241
100
AcDbEntity
  8
0
  6
CONTINUOUS
 62
     7
100
AcDbVertex
100
AcDb2dVertex
 10
8.6889397747
 20
7.2377508184
 30
0.0
  0
VERTEX
  5
2B9
330
241
100
AcDbEntity
  8
0
  6
CONTINUOUS
 62
     7
100
AcDbVertex
100
AcDb2dVertex
 10
8.6948403091
 20
7.246732509
 30
0.0
  0
VERTEX
  5
2BA
330
241
100
AcDbEntity
  8
0
  6
CONTINUOUS
 62
     7
100
AcDbVertex
100
AcDb2dVertex
 10
8.6988224603
 20
7.2560592979
 30
0.0
  0
VERTEX
  5
2BB
330
241
100
AcDbEntity
  8
0
  6
CONTINUOUS
 62
     7
100
AcDbVertex
100
AcDb2dVertex
 10
8.7008281597
 20
7.2655951793
 30
0.0
  0
VERTEX
  5
2BC
330
241
100
AcDbEntity
  8
0
  6
CONTINUOUS
 62
     7
100
AcDbVertex
100
AcDb2dVertex
 10
8.7008281597
 20
7.2752010987
 30
0.0
  0
VERTEX
  5
2BD
330
241
100
AcDbEntity
  8
0
  6
CONTINUOUS
 62
     7
100
AcDbVertex
100
AcDb2dVertex
 10
8.6988224603
 20
7.2847369801
 30
0.0
  0
VERTEX
  5
2BE
330
241
100
AcDbEntity
  8
0
  6
CONTINUOUS
 62
     7
100
AcDbVertex
100
AcDb2dVertex
 10
8.6948403091
 20
7.2940637689
 30
0.0
  0
VERTEX
  5
2BF
330
241
100
AcDbEntity
  8
0
  6
CONTINUOUS
 62
     7
100
AcDbVertex
100
AcDb2dVertex
 10
8.6889397747
 20
7.3030454596
 30
0.0
  0
VERTEX
  5
2C0
330
241
100
AcDbEntity
  8
0
  6
CONTINUOUS
 62
     7
100
AcDbVertex
100
AcDb2dVertex
 10
8.6812069004
 20
7.3115510788
 30
0.0
  0
VERTEX
  5
2C1
330
241
100
AcDbEntity
  8
0
  6
CONTINUOUS
 62
     7
100
AcDbVertex
100
AcDb2dVertex
 10
8.6717544488
 20
7.3194565955
 30
0.0
  0
VERTEX
  5
2C2
330
241
100
AcDbEntity
  8
0
  6
CONTINUOUS
 62
     7
100
AcDbVertex
100
AcDb2dVertex
 10
8.6607202579
 20
7.3266467294
 30
0.0
  0
SEQEND
  5
2C3
330
241
100
AcDbEntity
  8
0
  6
CONTINUOUS
 62
     7
  0
ARC
  5
242
330
1F
100
AcDbEntity
  8
0
  6
CONTINUOUS
 62
     7
100
AcDbCircle
 10
8.6431723962
 20
7.247145573
 30
0.0
 40
0.0780842811341002
100
AcDbArc
 50
6.6483859023
 51
66.2346867253
  0
ARC
  5
243
330
1F
100
AcDbEntity
  8
0
  6
CONTINUOUS
 62
     7
100
AcDbCircle
 10
8.4866869978
 20
7.2449771494
 30
0.0
 40
0.0814213565170761
100
AcDbArc
 50
115.2845501251
 51
173.4077831238
  0
LINE
  5
244
330
1F
100
AcDbEntity
  8
0
  6
CONTINUOUS
 62
     7
100
AcDbLine
 10
8.5397521195
 20
7.3210974128
 30
0.0
 11
8.4754610502
 21
7.2839829685
 31
0.0
  0
LINE
  5
245
330
1F
100
AcDbEntity
  8
0
  6
CONTINUOUS
 62
     7
100
AcDbLine
 10
8.4754610502
 20
7.2839829685
 30
0.0
 11
8.4989932148
 21
7.2332836946
 31
0.0
  0
LINE
  5
246
330
1F
100
AcDbEntity
  8
0
  6
CONTINUOUS
 62
     7
100
AcDbLine
 10
8.4989932148
 20
7.2332836946
 30
0.0
 11
8.5868164488
 21
7.2196988652
 31
0.0
  0
LINE
  5
247
330
1F
100
AcDbEntity
  8
0
  6
CONTINUOUS
 62
     7
100
AcDbLine
 10
8.5868164488
 20
7.2196988652
 30
0.0
 11
8.6511075181
 21
7.2568133095
 31
0.0
  0
LINE
  5
248
330
1F
100
AcDbEntity
  8
0
  6
CONTINUOUS
 62
     7
100
AcDbLine
 10
8.6511075181
 20
7.2568133095
 30
0.0
 11
8.6275753535
 21
7.3075125833
 31
0.0
  0
LINE
  5
249
330
1F
100
AcDbEntity
  8
0
  6
CONTINUOUS
 62
     7
100
AcDbLine
 10
8.6275753535
 20
7.3075125833
 30
0.0
 11
8.5397521195
 21
7.3210974128
 31
0.0
  0
LINE
  5
24A
330
1F
100
AcDbEntity
  8
0
  6
CONTINUOUS
 62
     7
100
AcDbLine
 10
8.6275753535
 20
7.24322848
 30
0.0
 11
8.6275753535
 21
7.3075125833
 31
0.0
  0
LINE
  5
24B
330
1F
100
AcDbEntity
  8
0
  6
CONTINUOUS
 62
     7
100
AcDbLine
 10
8.5397521195
 20
7.2269789533
 30
0.0
 11
8.5397521195
 21
7.3210974128
 31
0.0
  0
POLYLINE
  5
24C
330
1F
100
AcDbEntity
  8
0
  6
CONTINUOUS
 62
     7
100
AcDb2dPolyline
 66
     1
 10
0.0
 20
0.0
 30
0.0
  0
VERTEX
  5
2C4
330
24C
100
AcDbEntity
  8
0
  6
CONTINUOUS
 62
     7
100
AcDbVertex
100
AcDb2dVertex
 10
9.3427720744
 20
6.788162876
 30
0.0
  0
VERTEX
  5
2C5
330
24C
100
AcDbEntity
  8
0
  6
CONTINUOUS
 62
     7
100
AcDbVertex
100
AcDb2dVertex
 10
9.34207075
 20
6.8192011431
 30
0.0
  0
VERTEX
  5
2C6
330
24C
100
AcDbEntity
  8
0
  6
CONTINUOUS
 62
     7
100
AcDbVertex
100
AcDb2dVertex
 10
9.3399686365
 20
6.8493473704
 30
0.0
  0
VERTEX
  5
2C7
330
24C
100
AcDbEntity
  8
0
  6
CONTINUOUS
 62
     7
100
AcDbVertex
100
AcDb2dVertex
 10
9.3364713083
 20
6.8785216154
 30
0.0
  0
VERTEX
  5
2C8
330
24C
100
AcDbEntity
  8
0
  6
CONTINUOUS
 62
     7
100
AcDbVertex
100
AcDb2dVertex
 10
9.3315880398
 20
6.9066465133
 30
0.0
  0
VERTEX
  5
2C9
330
24C
100
AcDbEntity
  8
0
  6
CONTINUOUS
 62
     7
100
AcDbVertex
100
AcDb2dVertex
 10
9.3253317804
 20
6.9336474819
 30
0.0
  0
VERTEX
  5
2CA
330
24C
100
AcDbEntity
  8
0
  6
CONTINUOUS
 62
     7
100
AcDbVertex
100
AcDb2dVertex
 10
9.3177191207
 20
6.9594529196
 30
0.0
  0
VERTEX
  5
2CB
330
24C
100
AcDbEntity
  8
0
  6
CONTINUOUS
 62
     7
100
AcDbVertex
100
AcDb2dVertex
 10
9.308770248
 20
6.9839943949
 30
0.0
  0
VERTEX
  5
2CC
330
24C
100
AcDbEntity
  8
0
  6
CONTINUOUS
 62
     7
100
AcDbVertex
100
AcDb2dVertex
 10
9.2985088933
 20
7.0072068283
 30
0.0
  0
VERTEX
  5
2CD
330
24C
100
AcDbEntity
  8
0
  6
CONTINUOUS
 62
     7
100
AcDbVertex
100
AcDb2dVertex
 10
9.2869622676
 20
7.0290286645
 30
0.0
  0
VERTEX
  5
2CE
330
24C
100
AcDbEntity
  8
0
  6
CONTINUOUS
 62
     7
100
AcDbVertex
100
AcDb2dVertex
 10
9.2741609906
 20
7.049402036
 30
0.0
  0
VERTEX
  5
2CF
330
24C
100
AcDbEntity
  8
0
  6
CONTINUOUS
 62
     7
100
AcDbVertex
100
AcDb2dVertex
 10
9.2601390091
 20
7.0682729163
 30
0.0
  0
VERTEX
  5
2D0
330
24C
100
AcDbEntity
  8
0
  6
CONTINUOUS
 62
     7
100
AcDbVertex
100
AcDb2dVertex
 10
9.2449335067
 20
7.0855912631
 30
0.0
  0
VERTEX
  5
2D1
330
24C
100
AcDbEntity
  8
0
  6
CONTINUOUS
 62
     7
100
AcDbVertex
100
AcDb2dVertex
 10
9.2285848057
 20
7.1013111513
 30
0.0
  0
VERTEX
  5
2D2
330
24C
100
AcDbEntity
  8
0
  6
CONTINUOUS
 62
     7
100
AcDbVertex
100
AcDb2dVertex
 10
9.21113626
 20
7.1153908947
 30
0.0
  0
VERTEX
  5
2D3
330
24C
100
AcDbEntity
  8
0
  6
CONTINUOUS
 62
     7
100
AcDbVertex
100
AcDb2dVertex
 10
9.1926341399
 20
7.1277931562
 30
0.0
  0
VERTEX
  5
2D4
330
24C
100
AcDbEntity
  8
0
  6
CONTINUOUS
 62
     7
100
AcDbVertex
100
AcDb2dVertex
 10
9.1731275098
 20
7.1384850474
 30
0.0
  0
VERTEX
  5
2D5
330
24C
100
AcDbEntity
  8
0
  6
CONTINUOUS
 62
     7
100
AcDbVertex
100
AcDb2dVertex
 10
9.1526680976
 20
7.1474382151
 30
0.0
  0
VERTEX
  5
2D6
330
24C
100
AcDbEntity
  8
0
  6
CONTINUOUS
 62
     7
100
AcDbVertex
100
AcDb2dVertex
 10
9.1313101582
 20
7.1546289173
 30
0.0
  0
VERTEX
  5
2D7
330
24C
100
AcDbEntity
  8
0
  6
CONTINUOUS
 62
     7
100
AcDbVertex
100
AcDb2dVertex
 10
9.1091103289
 20
7.1600380855
 30
0.0
  0
VERTEX
  5
2D8
330
24C
100
AcDbEntity
  8
0
  6
CONTINUOUS
 62
     7
100
AcDbVertex
100
AcDb2dVertex
 10
9.0861274797
 20
7.1636513755
 30
0.0
  0
VERTEX
  5
2D9
330
24C
100
AcDbEntity
  8
0
  6
CONTINUOUS
 62
     7
100
AcDbVertex
100
AcDb2dVertex
 10
9.0624225569
 20
7.1654592055
 30
0.0
  0
VERTEX
  5
2DA
330
24C
100
AcDbEntity
  8
0
  6
CONTINUOUS
 62
     7
100
AcDbVertex
100
AcDb2dVertex
 10
9.0380584218
 20
7.1654567816
 30
0.0
  0
VERTEX
  5
2DB
330
24C
100
AcDbEntity
  8
0
  6
CONTINUOUS
 62
     7
100
AcDbVertex
100
AcDb2dVertex
 10
9.0130996836
 20
7.16364411
 30
0.0
  0
VERTEX
  5
2DC
330
24C
100
AcDbEntity
  8
0
  6
CONTINUOUS
 62
     7
100
AcDbVertex
100
AcDb2dVertex
 10
8.9876125285
 20
7.1600259978
 30
0.0
  0
VERTEX
  5
2DD
330
24C
100
AcDbEntity
  8
0
  6
CONTINUOUS
 62
     7
100
AcDbVertex
100
AcDb2dVertex
 10
8.9616645438
 20
7.1546120395
 30
0.0
  0
VERTEX
  5
2DE
330
24C
100
AcDbEntity
  8
0
  6
CONTINUOUS
 62
     7
100
AcDbVertex
100
AcDb2dVertex
 10
8.9353245389
 20
7.147416592
 30
0.0
  0
VERTEX
  5
2DF
330
24C
100
AcDbEntity
  8
0
  6
CONTINUOUS
 62
     7
100
AcDbVertex
100
AcDb2dVertex
 10
8.9086623627
 20
7.1384587362
 30
0.0
  0
VERTEX
  5
2E0
330
24C
100
AcDbEntity
  8
0
  6
CONTINUOUS
 62
     7
100
AcDbVertex
100
AcDb2dVertex
 10
8.8817487186
 20
7.1277622267
 30
0.0
  0
VERTEX
  5
2E1
330
24C
100
AcDbEntity
  8
0
  6
CONTINUOUS
 62
     7
100
AcDbVertex
100
AcDb2dVertex
 10
8.8546549767
 20
7.115355429
 30
0.0
  0
VERTEX
  5
2E2
330
24C
100
AcDbEntity
  8
0
  6
CONTINUOUS
 62
     7
100
AcDbVertex
100
AcDb2dVertex
 10
8.8274529847
 20
7.1012712434
 30
0.0
  0
VERTEX
  5
2E3
330
24C
100
AcDbEntity
  8
0
  6
CONTINUOUS
 62
     7
100
AcDbVertex
100
AcDb2dVertex
 10
8.8002148774
 20
7.0855470187
 30
0.0
  0
VERTEX
  5
2E4
330
24C
100
AcDbEntity
  8
0
  6
CONTINUOUS
 62
     7
100
AcDbVertex
100
AcDb2dVertex
 10
8.7730128854
 20
7.0682244529
 30
0.0
  0
VERTEX
  5
2E5
330
24C
100
AcDbEntity
  8
0
  6
CONTINUOUS
 62
     7
100
AcDbVertex
100
AcDb2dVertex
 10
8.7459191434
 20
7.0493494821
 30
0.0
  0
VERTEX
  5
2E6
330
24C
100
AcDbEntity
  8
0
  6
CONTINUOUS
 62
     7
100
AcDbVertex
100
AcDb2dVertex
 10
8.7190054993
 20
7.0289721594
 30
0.0
  0
VERTEX
  5
2E7
330
24C
100
AcDbEntity
  8
0
  6
CONTINUOUS
 62
     7
100
AcDbVertex
100
AcDb2dVertex
 10
8.6923433231
 20
7.0071465218
 30
0.0
  0
VERTEX
  5
2E8
330
24C
100
AcDbEntity
  8
0
  6
CONTINUOUS
 62
     7
100
AcDbVertex
100
AcDb2dVertex
 10
8.6660033182
 20
6.983930447
 30
0.0
  0
VERTEX
  5
2E9
330
24C
100
AcDbEntity
  8
0
  6
CONTINUOUS
 62
     7
100
AcDbVertex
100
AcDb2dVertex
 10
8.6400553335
 20
6.9593854999
 30
0.0
  0
VERTEX
  5
2EA
330
24C
100
AcDbEntity
  8
0
  6
CONTINUOUS
 62
     7
100
AcDbVertex
100
AcDb2dVertex
 10
8.6145681784
 20
6.9335767692
 30
0.0
  0
VERTEX
  5
2EB
330
24C
100
AcDbEntity
  8
0
  6
CONTINUOUS
 62
     7
100
AcDbVertex
100
AcDb2dVertex
 10
8.5896094402
 20
6.906572695
 30
0.0
  0
VERTEX
  5
2EC
330
24C
100
AcDbEntity
  8
0
  6
CONTINUOUS
 62
     7
100
AcDbVertex
100
AcDb2dVertex
 10
8.5652453051
 20
6.8784448873
 30
0.0
  0
VERTEX
  5
2ED
330
24C
100
AcDbEntity
  8
0
  6
CONTINUOUS
 62
     7
100
AcDbVertex
100
AcDb2dVertex
 10
8.5415403823
 20
6.849267936
 30
0.0
  0
VERTEX
  5
2EE
330
24C
100
AcDbEntity
  8
0
  6
CONTINUOUS
 62
     7
100
AcDbVertex
100
AcDb2dVertex
 10
8.5185575331
 20
6.8191192131
 30
0.0
  0
VERTEX
  5
2EF
330
24C
100
AcDbEntity
  8
0
  6
CONTINUOUS
 62
     7
100
AcDbVertex
100
AcDb2dVertex
 10
8.4963577038
 20
6.7880786676
 30
0.0
  0
VERTEX
  5
2F0
330
24C
100
AcDbEntity
  8
0
  6
CONTINUOUS
 62
     7
100
AcDbVertex
100
AcDb2dVertex
 10
8.4749997644
 20
6.7562286135
 30
0.0
  0
VERTEX
  5
2F1
330
24C
100
AcDbEntity
  8
0
  6
CONTINUOUS
 62
     7
100
AcDbVertex
100
AcDb2dVertex
 10
8.4545403523
 20
6.7236535113
 30
0.0
  0
VERTEX
  5
2F2
330
24C
100
AcDbEntity
  8
0
  6
CONTINUOUS
 62
     7
100
AcDbVertex
100
AcDb2dVertex
 10
8.4350337221
 20
6.6904397444
 30
0.0
  0
VERTEX
  5
2F3
330
24C
100
AcDbEntity
  8
0
  6
CONTINUOUS
 62
     7
100
AcDbVertex
100
AcDb2dVertex
 10
8.4165316021
 20
6.6566753897
 30
0.0
  0
VERTEX
  5
2F4
330
24C
100
AcDbEntity
  8
0
  6
CONTINUOUS
 62
     7
100
AcDbVertex
100
AcDb2dVertex
 10
8.3990830563
 20
6.6224499843
 30
0.0
  0
VERTEX
  5
2F5
330
24C
100
AcDbEntity
  8
0
  6
CONTINUOUS
 62
     7
100
AcDbVertex
100
AcDb2dVertex
 10
8.3827343553
 20
6.5878542876
 30
0.0
  0
VERTEX
  5
2F6
330
24C
100
AcDbEntity
  8
0
  6
CONTINUOUS
 62
     7
100
AcDbVertex
100
AcDb2dVertex
 10
8.367528853
 20
6.5529800414
 30
0.0
  0
VERTEX
  5
2F7
330
24C
100
AcDbEntity
  8
0
  6
CONTINUOUS
 62
     7
100
AcDbVertex
100
AcDb2dVertex
 10
8.3535068714
 20
6.5179197259
 30
0.0
  0
VERTEX
  5
2F8
330
24C
100
AcDbEntity
  8
0
  6
CONTINUOUS
 62
     7
100
AcDbVertex
100
AcDb2dVertex
 10
8.3407055944
 20
6.4827663146
 30
0.0
  0
VERTEX
  5
2F9
330
24C
100
AcDbEntity
  8
0
  6
CONTINUOUS
 62
     7
100
AcDbVertex
100
AcDb2dVertex
 10
8.3291589688
 20
6.4476130282
 30
0.0
  0
VERTEX
  5
2FA
330
24C
100
AcDbEntity
  8
0
  6
CONTINUOUS
 62
     7
100
AcDbVertex
100
AcDb2dVertex
 10
8.318897614
 20
6.4125530867
 30
0.0
  0
VERTEX
  5
2FB
330
24C
100
AcDbEntity
  8
0
  6
CONTINUOUS
 62
     7
100
AcDbVertex
100
AcDb2dVertex
 10
8.3099487414
 20
6.377679463
 30
0.0
  0
VERTEX
  5
2FC
330
24C
100
AcDbEntity
  8
0
  6
CONTINUOUS
 62
     7
100
AcDbVertex
100
AcDb2dVertex
 10
8.3023360816
 20
6.3430846355
 30
0.0
  0
VERTEX
  5
2FD
330
24C
100
AcDbEntity
  8
0
  6
CONTINUOUS
 62
     7
100
AcDbVertex
100
AcDb2dVertex
 10
8.2960798223
 20
6.3088603436
 30
0.0
  0
VERTEX
  5
2FE
330
24C
100
AcDbEntity
  8
0
  6
CONTINUOUS
 62
     7
100
AcDbVertex
100
AcDb2dVertex
 10
8.2911965537
 20
6.2750973438
 30
0.0
  0
VERTEX
  5
2FF
330
24C
100
AcDbEntity
  8
0
  6
CONTINUOUS
 62
     7
100
AcDbVertex
100
AcDb2dVertex
 10
8.2876992256
 20
6.2418851697
 30
0.0
  0
VERTEX
  5
300
330
24C
100
AcDbEntity
  8
0
  6
CONTINUOUS
 62
     7
100
AcDbVertex
100
AcDb2dVertex
 10
8.285597112
 20
6.2093118938
 30
0.0
  0
VERTEX
  5
301
330
24C
100
AcDbEntity
  8
0
  6
CONTINUOUS
 62
     7
100
AcDbVertex
100
AcDb2dVertex
 10
8.2848957876
 20
6.1774638948
 30
0.0
  0
VERTEX
  5
302
330
24C
100
AcDbEntity
  8
0
  6
CONTINUOUS
 62
     7
100
AcDbVertex
100
AcDb2dVertex
 10
8.285597112
 20
6.1464256277
 30
0.0
  0
VERTEX
  5
303
330
24C
100
AcDbEntity
  8
0
  6
CONTINUOUS
 62
     7
100
AcDbVertex
100
AcDb2dVertex
 10
8.2876992256
 20
6.1162794004
 30
0.0
  0
VERTEX
  5
304
330
24C
100
AcDbEntity
  8
0
  6
CONTINUOUS
 62
     7
100
AcDbVertex
100
AcDb2dVertex
 10
8.2911965537
 20
6.0871051554
 30
0.0
  0
VERTEX
  5
305
330
24C
100
AcDbEntity
  8
0
  6
CONTINUOUS
 62
     7
100
AcDbVertex
100
AcDb2dVertex
 10
8.2960798223
 20
6.0589802575
 30
0.0
  0
VERTEX
  5
306
330
24C
100
AcDbEntity
  8
0
  6
CONTINUOUS
 62
     7
100
AcDbVertex
100
AcDb2dVertex
 10
8.3023360816
 20
6.0319792889
 30
0.0
  0
VERTEX
  5
307
330
24C
100
AcDbEntity
  8
0
  6
CONTINUOUS
 62
     7
100
AcDbVertex
100
AcDb2dVertex
 10
8.3099487414
 20
6.0061738512
 30
0.0
  0
VERTEX
  5
308
330
24C
100
AcDbEntity
  8
0
  6
CONTINUOUS
 62
     7
100
AcDbVertex
100
AcDb2dVertex
 10
8.318897614
 20
5.9816323759
 30
0.0
  0
VERTEX
  5
309
330
24C
100
AcDbEntity
  8
0
  6
CONTINUOUS
 62
     7
100
AcDbVertex
100
AcDb2dVertex
 10
8.3291589688
 20
5.9584199425
 30
0.0
  0
VERTEX
  5
30A
330
24C
100
AcDbEntity
  8
0
  6
CONTINUOUS
 62
     7
100
AcDbVertex
100
AcDb2dVertex
 10
8.3407055944
 20
5.9365981063
 30
0.0
  0
VERTEX
  5
30B
330
24C
100
AcDbEntity
  8
0
  6
CONTINUOUS
 62
     7
100
AcDbVertex
100
AcDb2dVertex
 10
8.3535068714
 20
5.9162247348
 30
0.0
  0
VERTEX
  5
30C
330
24C
100
AcDbEntity
  8
0
  6
CONTINUOUS
 62
     7
100
AcDbVertex
100
AcDb2dVertex
 10
8.367528853
 20
5.8973538545
 30
0.0
  0
VERTEX
  5
30D
330
24C
100
AcDbEntity
  8
0
  6
CONTINUOUS
 62
     7
100
AcDbVertex
100
AcDb2dVertex
 10
8.3827343553
 20
5.8800355077
 30
0.0
  0
VERTEX
  5
30E
330
24C
100
AcDbEntity
  8
0
  6
CONTINUOUS
 62
     7
100
AcDbVertex
100
AcDb2dVertex
 10
8.3990830563
 20
5.8643156195
 30
0.0
  0
VERTEX
  5
30F
330
24C
100
AcDbEntity
  8
0
  6
CONTINUOUS
 62
     7
100
AcDbVertex
100
AcDb2dVertex
 10
8.4165316021
 20
5.8502358761
 30
0.0
  0
VERTEX
  5
310
330
24C
100
AcDbEntity
  8
0
  6
CONTINUOUS
 62
     7
100
AcDbVertex
100
AcDb2dVertex
 10
8.4350337221
 20
5.8378336146
 30
0.0
  0
VERTEX
  5
311
330
24C
100
AcDbEntity
  8
0
  6
CONTINUOUS
 62
     7
100
AcDbVertex
100
AcDb2dVertex
 10
8.4545403523
 20
5.8271417234
 30
0.0
  0
VERTEX
  5
312
330
24C
100
AcDbEntity
  8
0
  6
CONTINUOUS
 62
     7
100
AcDbVertex
100
AcDb2dVertex
 10
8.4749997644
 20
5.8181885557
 30
0.0
  0
VERTEX
  5
313
330
24C
100
AcDbEntity
  8
0
  6
CONTINUOUS
 62
     7
100
AcDbVertex
100
AcDb2dVertex
 10
8.4963577038
 20
5.8109978535
 30
0.0
  0
VERTEX
  5
314
330
24C
100
AcDbEntity
  8
0
  6
CONTINUOUS
 62
     7
100
AcDbVertex
100
AcDb2dVertex
 10
8.5185575331
 20
5.8055886853
 30
0.0
  0
VERTEX
  5
315
330
24C
100
AcDbEntity
  8
0
  6
CONTINUOUS
 62
     7
100
AcDbVertex
100
AcDb2dVertex
 10
8.5415403823
 20
5.8019753953
 30
0.0
  0
VERTEX
  5
316
330
24C
100
AcDbEntity
  8
0
  6
CONTINUOUS
 62
     7
100
AcDbVertex
100
AcDb2dVertex
 10
8.5652453051
 20
5.8001675653
 30
0.0
  0
VERTEX
  5
317
330
24C
100
AcDbEntity
  8
0
  6
CONTINUOUS
 62
     7
100
AcDbVertex
100
AcDb2dVertex
 10
8.5896094402
 20
5.8001699892
 30
0.0
  0
VERTEX
  5
318
330
24C
100
AcDbEntity
  8
0
  6
CONTINUOUS
 62
     7
100
AcDbVertex
100
AcDb2dVertex
 10
8.6145681784
 20
5.8019826608
 30
0.0
  0
VERTEX
  5
319
330
24C
100
AcDbEntity
  8
0
  6
CONTINUOUS
 62
     7
100
AcDbVertex
100
AcDb2dVertex
 10
8.6400553335
 20
5.805600773
 30
0.0
  0
VERTEX
  5
31A
330
24C
100
AcDbEntity
  8
0
  6
CONTINUOUS
 62
     7
100
AcDbVertex
100
AcDb2dVertex
 10
8.6660033182
 20
5.8110147313
 30
0.0
  0
VERTEX
  5
31B
330
24C
100
AcDbEntity
  8
0
  6
CONTINUOUS
 62
     7
100
AcDbVertex
100
AcDb2dVertex
 10
8.6923433231
 20
5.8182101789
 30
0.0
  0
VERTEX
  5
31C
330
24C
100
AcDbEntity
  8
0
  6
CONTINUOUS
 62
     7
100
AcDbVertex
100
AcDb2dVertex
 10
8.7190054993
 20
5.8271680347
 30
0.0
  0
VERTEX
  5
31D
330
24C
100
AcDbEntity
  8
0
  6
CONTINUOUS
 62
     7
100
AcDbVertex
100
AcDb2dVertex
 10
8.7459191434
 20
5.8378645441
 30
0.0
  0
VERTEX
  5
31E
330
24C
100
AcDbEntity
  8
0
  6
CONTINUOUS
 62
     7
100
AcDbVertex
100
AcDb2dVertex
 10
8.7730128854
 20
5.8502713419
 30
0.0
  0
VERTEX
  5
31F
330
24C
100
AcDbEntity
  8
0
  6
CONTINUOUS
 62
     7
100
AcDbVertex
100
AcDb2dVertex
 10
8.8002148774
 20
5.8643555274
 30
0.0
  0
VERTEX
  5
320
330
24C
100
AcDbEntity
  8
0
  6
CONTINUOUS
 62
     7
100
AcDbVertex
100
AcDb2dVertex
 10
8.8274529847
 20
5.8800797521
 30
0.0
  0
VERTEX
  5
321
330
24C
100
AcDbEntity
  8
0
  6
CONTINUOUS
 62
     7
100
AcDbVertex
100
AcDb2dVertex
 10
8.8546549767
 20
5.897402318
 30
0.0
  0
VERTEX
  5
322
330
24C
100
AcDbEntity
  8
0
  6
CONTINUOUS
 62
     7
100
AcDbVertex
100
AcDb2dVertex
 10
8.8817487186
 20
5.9162772887
 30
0.0
  0
VERTEX
  5
323
330
24C
100
AcDbEntity
  8
0
  6
CONTINUOUS
 62
     7
100
AcDbVertex
100
AcDb2dVertex
 10
8.9086623627
 20
5.9366546114
 30
0.0
  0
VERTEX
  5
324
330
24C
100
AcDbEntity
  8
0
  6
CONTINUOUS
 62
     7
100
AcDbVertex
100
AcDb2dVertex
 10
8.9353245389
 20
5.958480249
 30
0.0
  0
VERTEX
  5
325
330
24C
100
AcDbEntity
  8
0
  6
CONTINUOUS
 62
     7
100
AcDbVertex
100
AcDb2dVertex
 10
8.9616645438
 20
5.9816963238
 30
0.0
  0
VERTEX
  5
326
330
24C
100
AcDbEntity
  8
0
  6
CONTINUOUS
 62
     7
100
AcDbVertex
100
AcDb2dVertex
 10
8.9876125285
 20
6.0062412709
 30
0.0
  0
VERTEX
  5
327
330
24C
100
AcDbEntity
  8
0
  6
CONTINUOUS
 62
     7
100
AcDbVertex
100
AcDb2dVertex
 10
9.0130996836
 20
6.0320500016
 30
0.0
  0
VERTEX
  5
328
330
24C
100
AcDbEntity
  8
0
  6
CONTINUOUS
 62
     7
100
AcDbVertex
100
AcDb2dVertex
 10
9.0380584218
 20
6.0590540758
 30
0.0
  0
VERTEX
  5
329
330
24C
100
AcDbEntity
  8
0
  6
CONTINUOUS
 62
     7
100
AcDbVertex
100
AcDb2dVertex
 10
9.0624225569
 20
6.0871818835
 30
0.0
  0
VERTEX
  5
32A
330
24C
100
AcDbEntity
  8
0
  6
CONTINUOUS
 62
     7
100
AcDbVertex
100
AcDb2dVertex
 10
9.0861274797
 20
6.1163588348
 30
0.0
  0
VERTEX
  5
32B
330
24C
100
AcDbEntity
  8
0
  6
CONTINUOUS
 62
     7
100
AcDbVertex
100
AcDb2dVertex
 10
9.1091103289
 20
6.1465075577
 30
0.0
  0
VERTEX
  5
32C
330
24C
100
AcDbEntity
  8
0
  6
CONTINUOUS
 62
     7
100
AcDbVertex
100
AcDb2dVertex
 10
9.1313101582
 20
6.1775481032
 30
0.0
  0
VERTEX
  5
32D
330
24C
100
AcDbEntity
  8
0
  6
CONTINUOUS
 62
     7
100
AcDbVertex
100
AcDb2dVertex
 10
9.1526680976
 20
6.2093981573
 30
0.0
  0
VERTEX
  5
32E
330
24C
100
AcDbEntity
  8
0
  6
CONTINUOUS
 62
     7
100
AcDbVertex
100
AcDb2dVertex
 10
9.1731275098
 20
6.2419732595
 30
0.0
  0
VERTEX
  5
32F
330
24C
100
AcDbEntity
  8
0
  6
CONTINUOUS
 62
     7
100
AcDbVertex
100
AcDb2dVertex
 10
9.1926341399
 20
6.2751870264
 30
0.0
  0
VERTEX
  5
330
330
24C
100
AcDbEntity
  8
0
  6
CONTINUOUS
 62
     7
100
AcDbVertex
100
AcDb2dVertex
 10
9.21113626
 20
6.3089513811
 30
0.0
  0
VERTEX
  5
331
330
24C
100
AcDbEntity
  8
0
  6
CONTINUOUS
 62
     7
100
AcDbVertex
100
AcDb2dVertex
 10
9.2285848057
 20
6.3431767865
 30
0.0
  0
VERTEX
  5
332
330
24C
100
AcDbEntity
  8
0
  6
CONTINUOUS
 62
     7
100
AcDbVertex
100
AcDb2dVertex
 10
9.2449335067
 20
6.3777724832
 30
0.0
  0
VERTEX
  5
333
330
24C
100
AcDbEntity
  8
0
  6
CONTINUOUS
 62
     7
100
AcDbVertex
100
AcDb2dVertex
 10
9.2601390091
 20
6.4126467294
 30
0.0
  0
VERTEX
  5
334
330
24C
100
AcDbEntity
  8
0
  6
CONTINUOUS
 62
     7
100
AcDbVertex
100
AcDb2dVertex
 10
9.2741609906
 20
6.4477070449
 30
0.0
  0
VERTEX
  5
335
330
24C
100
AcDbEntity
  8
0
  6
CONTINUOUS
 62
     7
100
AcDbVertex
100
AcDb2dVertex
 10
9.2869622676
 20
6.4828604562
 30
0.0
  0
VERTEX
  5
336
330
24C
100
AcDbEntity
  8
0
  6
CONTINUOUS
 62
     7
100
AcDbVertex
100
AcDb2dVertex
 10
9.2985088933
 20
6.5180137426
 30
0.0
  0
VERTEX
  5
337
330
24C
100
AcDbEntity
  8
0
  6
CONTINUOUS
 62
     7
100
AcDbVertex
100
AcDb2dVertex
 10
9.308770248
 20
6.5530736841
 30
0.0
  0
VERTEX
  5
338
330
24C
100
AcDbEntity
  8
0
  6
CONTINUOUS
 62
     7
100
AcDbVertex
100
AcDb2dVertex
 10
9.3177191207
 20
6.5879473078
 30
0.0
  0
VERTEX
  5
339
330
24C
100
AcDbEntity
  8
0
  6
CONTINUOUS
 62
     7
100
AcDbVertex
100
AcDb2dVertex
 10
9.3253317804
 20
6.6225421353
 30
0.0
  0
VERTEX
  5
33A
330
24C
100
AcDbEntity
  8
0
  6
CONTINUOUS
 62
     7
100
AcDbVertex
100
AcDb2dVertex
 10
9.3315880398
 20
6.6567664272
 30
0.0
  0
VERTEX
  5
33B
330
24C
100
AcDbEntity
  8
0
  6
CONTINUOUS
 62
     7
100
AcDbVertex
100
AcDb2dVertex
 10
9.3364713083
 20
6.690529427
 30
0.0
  0
VERTEX
  5
33C
330
24C
100
AcDbEntity
  8
0
  6
CONTINUOUS
 62
     7
100
AcDbVertex
100
AcDb2dVertex
 10
9.3399686365
 20
6.7237416012
 30
0.0
  0
VERTEX
  5
33D
330
24C
100
AcDbEntity
  8
0
  6
CONTINUOUS
 62
     7
100
AcDbVertex
100
AcDb2dVertex
 10
9.34207075
 20
6.756314877
 30
0.0
  0
VERTEX
  5
33E
330
24C
100
AcDbEntity
  8
0
  6
CONTINUOUS
 62
     7
100
AcDbVertex
100
AcDb2dVertex
 10
9.3427720744
 20
6.788162876
 30
0.0
  0
SEQEND
  5
33F
330
24C
100
AcDbEntity
  8
0
  6
CONTINUOUS
 62
     7
  0
POLYLINE
  5
24D
330
1F
100
AcDbEntity
  8
0
  6
CONTINUOUS
 62
     7
100
AcDb2dPolyline
 66
     1
 10
0.0
 20
0.0
 30
0.0
  0
VERTEX
  5
340
330
24D
100
AcDbEntity
  8
0
  6
CONTINUOUS
 62
     7
100
AcDbVertex
100
AcDb2dVertex
 10
8.7860855733
 20
5.8559911384
 30
0.0
  0
VERTEX
  5
341
330
24D
100
AcDbEntity
  8
0
  6
CONTINUOUS
 62
     7
100
AcDbVertex
100
AcDb2dVertex
 10
8.7650100548
 20
5.8442813225
 30
0.0
  0
VERTEX
  5
342
330
24D
100
AcDbEntity
  8
0
  6
CONTINUOUS
 62
     7
100
AcDbVertex
100
AcDb2dVertex
 10
8.7370815563
 20
5.8301875918
 30
0.0
  0
VERTEX
  5
343
330
24D
100
AcDbEntity
  8
0
  6
CONTINUOUS
 62
     7
100
AcDbVertex
100
AcDb2dVertex
 10
8.7092766176
 20
5.8177830473
 30
0.0
  0
VERTEX
  5
344
330
24D
100
AcDbEntity
  8
0
  6
CONTINUOUS
 62
     7
100
AcDbVertex
100
AcDb2dVertex
 10
8.6816654765
 20
5.807099024
 30
0.0
  0
VERTEX
  5
345
330
24D
100
AcDbEntity
  8
0
  6
CONTINUOUS
 62
     7
100
AcDbVertex
100
AcDb2dVertex
 10
8.6543178809
 20
5.7981625106
 30
0.0
  0
VERTEX
  5
346
330
24D
100
AcDbEntity
  8
0
  6
CONTINUOUS
 62
     7
100
AcDbVertex
100
AcDb2dVertex
 10
8.6273029134
 20
5.7909960815
 30
0.0
  0
VERTEX
  5
347
330
24D
100
AcDbEntity
  8
0
  6
CONTINUOUS
 62
     7
100
AcDbVertex
100
AcDb2dVertex
 10
8.6006888161
 20
5.7856178398
 30
0.0
  0
VERTEX
  5
348
330
24D
100
AcDbEntity
  8
0
  6
CONTINUOUS
 62
     7
100
AcDbVertex
100
AcDb2dVertex
 10
8.5745428185
 20
5.7820413713
 30
0.0
  0
VERTEX
  5
349
330
24D
100
AcDbEntity
  8
0
  6
CONTINUOUS
 62
     7
100
AcDbVertex
100
AcDb2dVertex
 10
8.5489309677
 20
5.7802757106
 30
0.0
  0
VERTEX
  5
34A
330
24D
100
AcDbEntity
  8
0
  6
CONTINUOUS
 62
     7
100
AcDbVertex
100
AcDb2dVertex
 10
8.5239179614
 20
5.7803253178
 30
0.0
  0
VERTEX
  5
34B
330
24D
100
AcDbEntity
  8
0
  6
CONTINUOUS
 62
     7
100
AcDbVertex
100
AcDb2dVertex
 10
8.4995669846
 20
5.7821900677
 30
0.0
  0
VERTEX
  5
34C
330
24D
100
AcDbEntity
  8
0
  6
CONTINUOUS
 62
     7
100
AcDbVertex
100
AcDb2dVertex
 10
8.4759395501
 20
5.7858652497
 30
0.0
  0
VERTEX
  5
34D
330
24D
100
AcDbEntity
  8
0
  6
CONTINUOUS
 62
     7
100
AcDbVertex
100
AcDb2dVertex
 10
8.4530953428
 20
5.7913415799
 30
0.0
  0
VERTEX
  5
34E
330
24D
100
AcDbEntity
  8
0
  6
CONTINUOUS
 62
     7
100
AcDbVertex
100
AcDb2dVertex
 10
8.431092069
 20
5.7986052248
 30
0.0
  0
VERTEX
  5
34F
330
24D
100
AcDbEntity
  8
0
  6
CONTINUOUS
 62
     7
100
AcDbVertex
100
AcDb2dVertex
 10
8.4099853111
 20
5.8076378356
 30
0.0
  0
VERTEX
  5
350
330
24D
100
AcDbEntity
  8
0
  6
CONTINUOUS
 62
     7
100
AcDbVertex
100
AcDb2dVertex
 10
8.3898283866
 20
5.8184165953
 30
0.0
  0
VERTEX
  5
351
330
24D
100
AcDbEntity
  8
0
  6
CONTINUOUS
 62
     7
100
AcDbVertex
100
AcDb2dVertex
 10
8.3706722134
 20
5.8309142758
 30
0.0
  0
VERTEX
  5
352
330
24D
100
AcDbEntity
  8
0
  6
CONTINUOUS
 62
     7
100
AcDbVertex
100
AcDb2dVertex
 10
8.3525651819
 20
5.8450993068
 30
0.0
  0
VERTEX
  5
353
330
24D
100
AcDbEntity
  8
0
  6
CONTINUOUS
 62
     7
100
AcDbVertex
100
AcDb2dVertex
 10
8.3355530319
 20
5.8609358557
 30
0.0
  0
VERTEX
  5
354
330
24D
100
AcDbEntity
  8
0
  6
CONTINUOUS
 62
     7
100
AcDbVertex
100
AcDb2dVertex
 10
8.3196787376
 20
5.878383918
 30
0.0
  0
VERTEX
  5
355
330
24D
100
AcDbEntity
  8
0
  6
CONTINUOUS
 62
     7
100
AcDbVertex
100
AcDb2dVertex
 10
8.3049823989
 20
5.8973994184
 30
0.0
  0
VERTEX
  5
356
330
24D
100
AcDbEntity
  8
0
  6
CONTINUOUS
 62
     7
100
AcDbVertex
100
AcDb2dVertex
 10
8.29150114
 20
5.9179343222
 30
0.0
  0
VERTEX
  5
357
330
24D
100
AcDbEntity
  8
0
  6
CONTINUOUS
 62
     7
100
AcDbVertex
100
AcDb2dVertex
 10
8.2792690156
 20
5.9399367562
 30
0.0
  0
VERTEX
  5
358
330
24D
100
AcDbEntity
  8
0
  6
CONTINUOUS
 62
     7
100
AcDbVertex
100
AcDb2dVertex
 10
8.2683169253
 20
5.9633511406
 30
0.0
  0
VERTEX
  5
359
330
24D
100
AcDbEntity
  8
0
  6
CONTINUOUS
 62
     7
100
AcDbVertex
100
AcDb2dVertex
 10
8.258672535
 20
5.9881183284
 30
0.0
  0
VERTEX
  5
35A
330
24D
100
AcDbEntity
  8
0
  6
CONTINUOUS
 62
     7
100
AcDbVertex
100
AcDb2dVertex
 10
8.2503602071
 20
6.0141757557
 30
0.0
  0
VERTEX
  5
35B
330
24D
100
AcDbEntity
  8
0
  6
CONTINUOUS
 62
     7
100
AcDbVertex
100
AcDb2dVertex
 10
8.2434009395
 20
6.0414575992
 30
0.0
  0
VERTEX
  5
35C
330
24D
100
AcDbEntity
  8
0
  6
CONTINUOUS
 62
     7
100
AcDbVertex
100
AcDb2dVertex
 10
8.2378123117
 20
6.0698949425
 30
0.0
  0
VERTEX
  5
35D
330
24D
100
AcDbEntity
  8
0
  6
CONTINUOUS
 62
     7
100
AcDbVertex
100
AcDb2dVertex
 10
8.2336084412
 20
6.0994159504
 30
0.0
  0
VERTEX
  5
35E
330
24D
100
AcDbEntity
  8
0
  6
CONTINUOUS
 62
     7
100
AcDbVertex
100
AcDb2dVertex
 10
8.2307999473
 20
6.1299460503
 30
0.0
  0
VERTEX
  5
35F
330
24D
100
AcDbEntity
  8
0
  6
CONTINUOUS
 62
     7
100
AcDbVertex
100
AcDb2dVertex
 10
8.2293939244
 20
6.1614081205
 30
0.0
  0
VERTEX
  5
360
330
24D
100
AcDbEntity
  8
0
  6
CONTINUOUS
 62
     7
100
AcDbVertex
100
AcDb2dVertex
 10
8.2293939244
 20
6.1937226851
 30
0.0
  0
VERTEX
  5
361
330
24D
100
AcDbEntity
  8
0
  6
CONTINUOUS
 62
     7
100
AcDbVertex
100
AcDb2dVertex
 10
8.2307999473
 20
6.2268081147
 30
0.0
  0
VERTEX
  5
362
330
24D
100
AcDbEntity
  8
0
  6
CONTINUOUS
 62
     7
100
AcDbVertex
100
AcDb2dVertex
 10
8.2336084412
 20
6.2605808327
 30
0.0
  0
VERTEX
  5
363
330
24D
100
AcDbEntity
  8
0
  6
CONTINUOUS
 62
     7
100
AcDbVertex
100
AcDb2dVertex
 10
8.2378123117
 20
6.2949555262
 30
0.0
  0
VERTEX
  5
364
330
24D
100
AcDbEntity
  8
0
  6
CONTINUOUS
 62
     7
100
AcDbVertex
100
AcDb2dVertex
 10
8.2434009395
 20
6.3298453617
 30
0.0
  0
VERTEX
  5
365
330
24D
100
AcDbEntity
  8
0
  6
CONTINUOUS
 62
     7
100
AcDbVertex
100
AcDb2dVertex
 10
8.2503602071
 20
6.3651622046
 30
0.0
  0
VERTEX
  5
366
330
24D
100
AcDbEntity
  8
0
  6
CONTINUOUS
 62
     7
100
AcDbVertex
100
AcDb2dVertex
 10
8.258672535
 20
6.4008168414
 30
0.0
  0
VERTEX
  5
367
330
24D
100
AcDbEntity
  8
0
  6
CONTINUOUS
 62
     7
100
AcDbVertex
100
AcDb2dVertex
 10
8.2683169253
 20
6.4367192053
 30
0.0
  0
VERTEX
  5
368
330
24D
100
AcDbEntity
  8
0
  6
CONTINUOUS
 62
     7
100
AcDbVertex
100
AcDb2dVertex
 10
8.2792690156
 20
6.472778604
 30
0.0
  0
VERTEX
  5
369
330
24D
100
AcDbEntity
  8
0
  6
CONTINUOUS
 62
     7
100
AcDbVertex
100
AcDb2dVertex
 10
8.29150114
 20
6.5089039482
 30
0.0
  0
VERTEX
  5
36A
330
24D
100
AcDbEntity
  8
0
  6
CONTINUOUS
 62
     7
100
AcDbVertex
100
AcDb2dVertex
 10
8.3049823989
 20
6.5450039821
 30
0.0
  0
VERTEX
  5
36B
330
24D
100
AcDbEntity
  8
0
  6
CONTINUOUS
 62
     7
100
AcDbVertex
100
AcDb2dVertex
 10
8.3196787376
 20
6.5809875141
 30
0.0
  0
VERTEX
  5
36C
330
24D
100
AcDbEntity
  8
0
  6
CONTINUOUS
 62
     7
100
AcDbVertex
100
AcDb2dVertex
 10
8.3355530319
 20
6.6167636464
 30
0.0
  0
VERTEX
  5
36D
330
24D
100
AcDbEntity
  8
0
  6
CONTINUOUS
 62
     7
100
AcDbVertex
100
AcDb2dVertex
 10
8.3525651819
 20
6.6522420056
 30
0.0
  0
VERTEX
  5
36E
330
24D
100
AcDbEntity
  8
0
  6
CONTINUOUS
 62
     7
100
AcDbVertex
100
AcDb2dVertex
 10
8.3706722134
 20
6.6873329702
 30
0.0
  0
VERTEX
  5
36F
330
24D
100
AcDbEntity
  8
0
  6
CONTINUOUS
 62
     7
100
AcDbVertex
100
AcDb2dVertex
 10
8.3898283866
 20
6.7219478974
 30
0.0
  0
VERTEX
  5
370
330
24D
100
AcDbEntity
  8
0
  6
CONTINUOUS
 62
     7
100
AcDbVertex
100
AcDb2dVertex
 10
8.4099853111
 20
6.7559993469
 30
0.0
  0
VERTEX
  5
371
330
24D
100
AcDbEntity
  8
0
  6
CONTINUOUS
 62
     7
100
AcDbVertex
100
AcDb2dVertex
 10
8.431092069
 20
6.7894013017
 30
0.0
  0
VERTEX
  5
372
330
24D
100
AcDbEntity
  8
0
  6
CONTINUOUS
 62
     7
100
AcDbVertex
100
AcDb2dVertex
 10
8.4530953428
 20
6.8220693856
 30
0.0
  0
VERTEX
  5
373
330
24D
100
AcDbEntity
  8
0
  6
CONTINUOUS
 62
     7
100
AcDbVertex
100
AcDb2dVertex
 10
8.4759395501
 20
6.8539210763
 30
0.0
  0
VERTEX
  5
374
330
24D
100
AcDbEntity
  8
0
  6
CONTINUOUS
 62
     7
100
AcDbVertex
100
AcDb2dVertex
 10
8.4995669846
 20
6.8848759135
 30
0.0
  0
VERTEX
  5
375
330
24D
100
AcDbEntity
  8
0
  6
CONTINUOUS
 62
     7
100
AcDbVertex
100
AcDb2dVertex
 10
8.5239179614
 20
6.9148557027
 30
0.0
  0
VERTEX
  5
376
330
24D
100
AcDbEntity
  8
0
  6
CONTINUOUS
 62
     7
100
AcDbVertex
100
AcDb2dVertex
 10
8.5489309677
 20
6.9437847122
 30
0.0
  0
VERTEX
  5
377
330
24D
100
AcDbEntity
  8
0
  6
CONTINUOUS
 62
     7
100
AcDbVertex
100
AcDb2dVertex
 10
8.5745428185
 20
6.9715898651
 30
0.0
  0
VERTEX
  5
378
330
24D
100
AcDbEntity
  8
0
  6
CONTINUOUS
 62
     7
100
AcDbVertex
100
AcDb2dVertex
 10
8.6006888161
 20
6.9982009229
 30
0.0
  0
VERTEX
  5
379
330
24D
100
AcDbEntity
  8
0
  6
CONTINUOUS
 62
     7
100
AcDbVertex
100
AcDb2dVertex
 10
8.6273029134
 20
7.0235506639
 30
0.0
  0
VERTEX
  5
37A
330
24D
100
AcDbEntity
  8
0
  6
CONTINUOUS
 62
     7
100
AcDbVertex
100
AcDb2dVertex
 10
8.6543178809
 20
7.0475750524
 30
0.0
  0
VERTEX
  5
37B
330
24D
100
AcDbEntity
  8
0
  6
CONTINUOUS
 62
     7
100
AcDbVertex
100
AcDb2dVertex
 10
8.6816654765
 20
7.0702134007
 30
0.0
  0
VERTEX
  5
37C
330
24D
100
AcDbEntity
  8
0
  6
CONTINUOUS
 62
     7
100
AcDbVertex
100
AcDb2dVertex
 10
8.7092766176
 20
7.0914085224
 30
0.0
  0
VERTEX
  5
37D
330
24D
100
AcDbEntity
  8
0
  6
CONTINUOUS
 62
     7
100
AcDbVertex
100
AcDb2dVertex
 10
8.7370815563
 20
7.1111068767
 30
0.0
  0
VERTEX
  5
37E
330
24D
100
AcDbEntity
  8
0
  6
CONTINUOUS
 62
     7
100
AcDbVertex
100
AcDb2dVertex
 10
8.7650100548
 20
7.129258704
 30
0.0
  0
VERTEX
  5
37F
330
24D
100
AcDbEntity
  8
0
  6
CONTINUOUS
 62
     7
100
AcDbVertex
100
AcDb2dVertex
 10
8.7929915633
 20
7.1458181511
 30
0.0
  0
VERTEX
  5
380
330
24D
100
AcDbEntity
  8
0
  6
CONTINUOUS
 62
     7
100
AcDbVertex
100
AcDb2dVertex
 10
8.820955398
 20
7.1607433875
 30
0.0
  0
VERTEX
  5
381
330
24D
100
AcDbEntity
  8
0
  6
CONTINUOUS
 62
     7
100
AcDbVertex
100
AcDb2dVertex
 10
8.84883092
 20
7.1739967106
 30
0.0
  0
VERTEX
  5
382
330
24D
100
AcDbEntity
  8
0
  6
CONTINUOUS
 62
     7
100
AcDbVertex
100
AcDb2dVertex
 10
8.8765477132
 20
7.1855446415
 30
0.0
  0
VERTEX
  5
383
330
24D
100
AcDbEntity
  8
0
  6
CONTINUOUS
 62
     7
100
AcDbVertex
100
AcDb2dVertex
 10
8.9040357625
 20
7.195358009
 30
0.0
  0
VERTEX
  5
384
330
24D
100
AcDbEntity
  8
0
  6
CONTINUOUS
 62
     7
100
AcDbVertex
100
AcDb2dVertex
 10
8.9312256309
 20
7.2034120238
 30
0.0
  0
VERTEX
  5
385
330
24D
100
AcDbEntity
  8
0
  6
CONTINUOUS
 62
     7
100
AcDbVertex
100
AcDb2dVertex
 10
8.9580486343
 20
7.2096863407
 30
0.0
  0
VERTEX
  5
386
330
24D
100
AcDbEntity
  8
0
  6
CONTINUOUS
 62
     7
100
AcDbVertex
100
AcDb2dVertex
 10
8.9844370155
 20
7.2141651102
 30
0.0
  0
VERTEX
  5
387
330
24D
100
AcDbEntity
  8
0
  6
CONTINUOUS
 62
     7
100
AcDbVertex
100
AcDb2dVertex
 10
9.0103241151
 20
7.2168370186
 30
0.0
  0
VERTEX
  5
388
330
24D
100
AcDbEntity
  8
0
  6
CONTINUOUS
 62
     7
100
AcDbVertex
100
AcDb2dVertex
 10
9.0356445402
 20
7.2176953164
 30
0.0
  0
VERTEX
  5
389
330
24D
100
AcDbEntity
  8
0
  6
CONTINUOUS
 62
     7
100
AcDbVertex
100
AcDb2dVertex
 10
9.060334329
 20
7.2167378355
 30
0.0
  0
VERTEX
  5
38A
330
24D
100
AcDbEntity
  8
0
  6
CONTINUOUS
 62
     7
100
AcDbVertex
100
AcDb2dVertex
 10
9.0843311131
 20
7.2139669945
 30
0.0
  0
VERTEX
  5
38B
330
24D
100
AcDbEntity
  8
0
  6
CONTINUOUS
 62
     7
100
AcDbVertex
100
AcDb2dVertex
 10
9.1075742745
 20
7.2093897929
 30
0.0
  0
VERTEX
  5
38C
330
24D
100
AcDbEntity
  8
0
  6
CONTINUOUS
 62
     7
100
AcDbVertex
100
AcDb2dVertex
 10
9.1300050989
 20
7.203017793
 30
0.0
  0
VERTEX
  5
38D
330
24D
100
AcDbEntity
  8
0
  6
CONTINUOUS
 62
     7
100
AcDbVertex
100
AcDb2dVertex
 10
9.1515669241
 20
7.194867091
 30
0.0
  0
VERTEX
  5
38E
330
24D
100
AcDbEntity
  8
0
  6
CONTINUOUS
 62
     7
100
AcDbVertex
100
AcDb2dVertex
 10
9.1722052832
 20
7.1849582764
 30
0.0
  0
VERTEX
  5
38F
330
24D
100
AcDbEntity
  8
0
  6
CONTINUOUS
 62
     7
100
AcDbVertex
100
AcDb2dVertex
 10
9.1918680418
 20
7.1733163797
 30
0.0
  0
VERTEX
  5
390
330
24D
100
AcDbEntity
  8
0
  6
CONTINUOUS
 62
     7
100
AcDbVertex
100
AcDb2dVertex
 10
9.21050553
 20
7.1599708093
 30
0.0
  0
VERTEX
  5
391
330
24D
100
AcDbEntity
  8
0
  6
CONTINUOUS
 62
     7
100
AcDbVertex
100
AcDb2dVertex
 10
9.228070668
 20
7.1449552773
 30
0.0
  0
VERTEX
  5
392
330
24D
100
AcDbEntity
  8
0
  6
CONTINUOUS
 62
     7
100
AcDbVertex
100
AcDb2dVertex
 10
9.2445190848
 20
7.1283077142
 30
0.0
  0
VERTEX
  5
393
330
24D
100
AcDbEntity
  8
0
  6
CONTINUOUS
 62
     7
100
AcDbVertex
100
AcDb2dVertex
 10
9.2598092301
 20
7.1100701732
 30
0.0
  0
VERTEX
  5
394
330
24D
100
AcDbEntity
  8
0
  6
CONTINUOUS
 62
     7
100
AcDbVertex
100
AcDb2dVertex
 10
9.2739024797
 20
7.090288724
 30
0.0
  0
VERTEX
  5
395
330
24D
100
AcDbEntity
  8
0
  6
CONTINUOUS
 62
     7
100
AcDbVertex
100
AcDb2dVertex
 10
9.2867632329
 20
7.0690133361
 30
0.0
  0
VERTEX
  5
396
330
24D
100
AcDbEntity
  8
0
  6
CONTINUOUS
 62
     7
100
AcDbVertex
100
AcDb2dVertex
 10
9.2983590023
 20
7.0462977531
 30
0.0
  0
VERTEX
  5
397
330
24D
100
AcDbEntity
  8
0
  6
CONTINUOUS
 62
     7
100
AcDbVertex
100
AcDb2dVertex
 10
9.3086604959
 20
7.0221993564
 30
0.0
  0
VERTEX
  5
398
330
24D
100
AcDbEntity
  8
0
  6
CONTINUOUS
 62
     7
100
AcDbVertex
100
AcDb2dVertex
 10
9.3176416914
 20
6.9967790208
 30
0.0
  0
VERTEX
  5
399
330
24D
100
AcDbEntity
  8
0
  6
CONTINUOUS
 62
     7
100
AcDbVertex
100
AcDb2dVertex
 10
9.3252799013
 20
6.9701009602
 30
0.0
  0
VERTEX
  5
39A
330
24D
100
AcDbEntity
  8
0
  6
CONTINUOUS
 62
     7
100
AcDbVertex
100
AcDb2dVertex
 10
9.3315558311
 20
6.9422325657
 30
0.0
  0
VERTEX
  5
39B
330
24D
100
AcDbEntity
  8
0
  6
CONTINUOUS
 62
     7
100
AcDbVertex
100
AcDb2dVertex
 10
9.336453627
 20
6.9132442353
 30
0.0
  0
VERTEX
  5
39C
330
24D
100
AcDbEntity
  8
0
  6
CONTINUOUS
 62
     7
100
AcDbVertex
100
AcDb2dVertex
 10
9.3399609168
 20
6.883209196
 30
0.0
  0
VERTEX
  5
39D
330
24D
100
AcDbEntity
  8
0
  6
CONTINUOUS
 62
     7
100
AcDbVertex
100
AcDb2dVertex
 10
9.3420688409
 20
6.852203319
 30
0.0
  0
VERTEX
  5
39E
330
24D
100
AcDbEntity
  8
0
  6
CONTINUOUS
 62
     7
100
AcDbVertex
100
AcDb2dVertex
 10
9.3427720744
 20
6.8203049277
 30
0.0
  0
VERTEX
  5
39F
330
24D
100
AcDbEntity
  8
0
  6
CONTINUOUS
 62
     7
100
AcDbVertex
100
AcDb2dVertex
 10
9.3427720744
 20
6.8203049277
 30
0.0
  0
SEQEND
  5
3A0
330
24D
100
AcDbEntity
  8
0
  6
CONTINUOUS
 62
     7
  0
POLYLINE
  5
24E
330
1F
100
AcDbEntity
  8
0
  6
CONTINUOUS
 62
     7
100
AcDb2dPolyline
 66
     1
 10
0.0
 20
0.0
 30
0.0
  0
VERTEX
  5
3A1
330
24E
100
AcDbEntity
  8
0
  6
CONTINUOUS
 62
     7
100
AcDbVertex
100
AcDb2dVertex
 10
8.3127346373
 20
7.0074784883
 30
0.0
  0
VERTEX
  5
3A2
330
24E
100
AcDbEntity
  8
0
  6
CONTINUOUS
 62
     7
100
AcDbVertex
100
AcDb2dVertex
 10
8.2884772278
 20
6.9763340707
 30
0.0
  0
VERTEX
  5
3A3
330
24E
100
AcDbEntity
  8
0
  6
CONTINUOUS
 62
     7
100
AcDbVertex
100
AcDb2dVertex
 10
8.2650093869
 20
6.9442375337
 30
0.0
  0
VERTEX
  5
3A4
330
24E
100
AcDbEntity
  8
0
  6
CONTINUOUS
 62
     7
100
AcDbVertex
100
AcDb2dVertex
 10
8.2423923396
 20
6.9112726136
 30
0.0
  0
VERTEX
  5
3A5
330
24E
100
AcDbEntity
  8
0
  6
CONTINUOUS
 62
     7
100
AcDbVertex
100
AcDb2dVertex
 10
8.2206850911
 20
6.877525312
 30
0.0
  0
VERTEX
  5
3A6
330
24E
100
AcDbEntity
  8
0
  6
CONTINUOUS
 62
     7
100
AcDbVertex
100
AcDb2dVertex
 10
8.1999442731
 20
6.8430836718
 30
0.0
  0
VERTEX
  5
3A7
330
24E
100
AcDbEntity
  8
0
  6
CONTINUOUS
 62
     7
100
AcDbVertex
100
AcDb2dVertex
 10
8.1802239961
 20
6.8080375474
 30
0.0
  0
VERTEX
  5
3A8
330
24E
100
AcDbEntity
  8
0
  6
CONTINUOUS
 62
     7
100
AcDbVertex
100
AcDb2dVertex
 10
8.1615757081
 20
6.77247837
 30
0.0
  0
VERTEX
  5
3A9
330
24E
100
AcDbEntity
  8
0
  6
CONTINUOUS
 62
     7
100
AcDbVertex
100
AcDb2dVertex
 10
8.1440480602
 20
6.7364989096
 30
0.0
  0
VERTEX
  5
3AA
330
24E
100
AcDbEntity
  8
0
  6
CONTINUOUS
 62
     7
100
AcDbVertex
100
AcDb2dVertex
 10
8.1276867802
 20
6.7001930323
 30
0.0
  0
VERTEX
  5
3AB
330
24E
100
AcDbEntity
  8
0
  6
CONTINUOUS
 62
     7
100
AcDbVertex
100
AcDb2dVertex
 10
8.1125345527
 20
6.6636554562
 30
0.0
  0
VERTEX
  5
3AC
330
24E
100
AcDbEntity
  8
0
  6
CONTINUOUS
 62
     7
100
AcDbVertex
100
AcDb2dVertex
 10
8.0986309082
 20
6.6269815035
 30
0.0
  0
VERTEX
  5
3AD
330
24E
100
AcDbEntity
  8
0
  6
CONTINUOUS
 62
     7
100
AcDbVertex
100
AcDb2dVertex
 10
8.0860121196
 20
6.5902668524
 30
0.0
  0
VERTEX
  5
3AE
330
24E
100
AcDbEntity
  8
0
  6
CONTINUOUS
 62
     7
100
AcDbVertex
100
AcDb2dVertex
 10
8.074711108
 20
6.5536072872
 30
0.0
  0
VERTEX
  5
3AF
330
24E
100
AcDbEntity
  8
0
  6
CONTINUOUS
 62
     7
100
AcDbVertex
100
AcDb2dVertex
 10
8.0647573564
 20
6.5170984486
 30
0.0
  0
VERTEX
  5
3B0
330
24E
100
AcDbEntity
  8
0
  6
CONTINUOUS
 62
     7
100
AcDbVertex
100
AcDb2dVertex
 10
8.0561768331
 20
6.480835584
 30
0.0
  0
VERTEX
  5
3B1
330
24E
100
AcDbEntity
  8
0
  6
CONTINUOUS
 62
     7
100
AcDbVertex
100
AcDb2dVertex
 10
8.0489919235
 20
6.444913299
 30
0.0
  0
VERTEX
  5
3B2
330
24E
100
AcDbEntity
  8
0
  6
CONTINUOUS
 62
     7
100
AcDbVertex
100
AcDb2dVertex
 10
8.0432213724
 20
6.4094253108
 30
0.0
  0
VERTEX
  5
3B3
330
24E
100
AcDbEntity
  8
0
  6
CONTINUOUS
 62
     7
100
AcDbVertex
100
AcDb2dVertex
 10
8.0388802344
 20
6.3744642034
 30
0.0
  0
VERTEX
  5
3B4
330
24E
100
AcDbEntity
  8
0
  6
CONTINUOUS
 62
     7
100
AcDbVertex
100
AcDb2dVertex
 10
8.0359798351
 20
6.3401211865
 30
0.0
  0
VERTEX
  5
3B5
330
24E
100
AcDbEntity
  8
0
  6
CONTINUOUS
 62
     7
100
AcDbVertex
100
AcDb2dVertex
 10
8.0345277413
 20
6.306485857
 30
0.0
  0
VERTEX
  5
3B6
330
24E
100
AcDbEntity
  8
0
  6
CONTINUOUS
 62
     7
100
AcDbVertex
100
AcDb2dVertex
 10
8.0345277413
 20
6.2736459656
 30
0.0
  0
VERTEX
  5
3B7
330
24E
100
AcDbEntity
  8
0
  6
CONTINUOUS
 62
     7
100
AcDbVertex
100
AcDb2dVertex
 10
8.0359798351
 20
6.241687188
 30
0.0
  0
VERTEX
  5
3B8
330
24E
100
AcDbEntity
  8
0
  6
CONTINUOUS
 62
     7
100
AcDbVertex
100
AcDb2dVertex
 10
8.0388802344
 20
6.2106929008
 30
0.0
  0
VERTEX
  5
3B9
330
24E
100
AcDbEntity
  8
0
  6
CONTINUOUS
 62
     7
100
AcDbVertex
100
AcDb2dVertex
 10
8.0432213724
 20
6.1807439647
 30
0.0
  0
VERTEX
  5
3BA
330
24E
100
AcDbEntity
  8
0
  6
CONTINUOUS
 62
     7
100
AcDbVertex
100
AcDb2dVertex
 10
8.0489919235
 20
6.1519185129
 30
0.0
  0
VERTEX
  5
3BB
330
24E
100
AcDbEntity
  8
0
  6
CONTINUOUS
 62
     7
100
AcDbVertex
100
AcDb2dVertex
 10
8.0561768331
 20
6.1242917479
 30
0.0
  0
VERTEX
  5
3BC
330
24E
100
AcDbEntity
  8
0
  6
CONTINUOUS
 62
     7
100
AcDbVertex
100
AcDb2dVertex
 10
8.0647573564
 20
6.0979357447
 30
0.0
  0
VERTEX
  5
3BD
330
24E
100
AcDbEntity
  8
0
  6
CONTINUOUS
 62
     7
100
AcDbVertex
100
AcDb2dVertex
 10
8.074711108
 20
6.0729192631
 30
0.0
  0
VERTEX
  5
3BE
330
24E
100
AcDbEntity
  8
0
  6
CONTINUOUS
 62
     7
100
AcDbVertex
100
AcDb2dVertex
 10
8.0860121196
 20
6.0493075682
 30
0.0
  0
VERTEX
  5
3BF
330
24E
100
AcDbEntity
  8
0
  6
CONTINUOUS
 62
     7
100
AcDbVertex
100
AcDb2dVertex
 10
8.0986309082
 20
6.0271622602
 30
0.0
  0
VERTEX
  5
3C0
330
24E
100
AcDbEntity
  8
0
  6
CONTINUOUS
 62
     7
100
AcDbVertex
100
AcDb2dVertex
 10
8.1125345527
 20
6.0065411138
 30
0.0
  0
VERTEX
  5
3C1
330
24E
100
AcDbEntity
  8
0
  6
CONTINUOUS
 62
     7
100
AcDbVertex
100
AcDb2dVertex
 10
8.1276867802
 20
5.9874979271
 30
0.0
  0
VERTEX
  5
3C2
330
24E
100
AcDbEntity
  8
0
  6
CONTINUOUS
 62
     7
100
AcDbVertex
100
AcDb2dVertex
 10
8.1440480602
 20
5.9700823817
 30
0.0
  0
VERTEX
  5
3C3
330
24E
100
AcDbEntity
  8
0
  6
CONTINUOUS
 62
     7
100
AcDbVertex
100
AcDb2dVertex
 10
8.1615757081
 20
5.9543399127
 30
0.0
  0
VERTEX
  5
3C4
330
24E
100
AcDbEntity
  8
0
  6
CONTINUOUS
 62
     7
100
AcDbVertex
100
AcDb2dVertex
 10
8.1802239961
 20
5.9403115904
 30
0.0
  0
VERTEX
  5
3C5
330
24E
100
AcDbEntity
  8
0
  6
CONTINUOUS
 62
     7
100
AcDbVertex
100
AcDb2dVertex
 10
8.1974543414
 20
5.9294533539
 30
0.0
  0
SEQEND
  5
3C6
330
24E
100
AcDbEntity
  8
0
  6
CONTINUOUS
 62
     7
  0
LINE
  5
24F
330
1F
100
AcDbEntity
  8
0
  6
CONTINUOUS
 62
     7
100
AcDbLine
 10
8.09002384
 20
7.1360466949
 30
0.0
 11
8.3127346373
 21
7.0074784883
 31
0.0
  0
ARC
  5
250
330
1F
100
AcDbEntity
  8
0
  6
CONTINUOUS
 62
     7
100
AcDbCircle
 10
8.6897946754
 20
6.7400460928
 30
0.0
 40
0.7187082383336585
100
AcDbArc
 50
93.4295381122
 51
146.5650853551
  0
LINE
  5
251
330
1F
100
AcDbEntity
  8
0
  6
CONTINUOUS
 62
     7
100
AcDbLine
 10
8.8416727807
 20
7.3449700306
 30
0.0
 11
8.6468008331
 21
7.4574672114
 31
0.0
  0
ARC
  5
252
330
1F
100
AcDbEntity
  8
0
  6
CONTINUOUS
 62
     7
100
AcDbCircle
 10
8.8194109446
 20
7.0683572935
 30
0.0
 40
0.2775071092996477
100
AcDbArc
 50
60.2883930933
 51
85.3987438563
  0
SPLINE
  5
253
330
1F
100
AcDbEntity
  8
0
  6
CONTINUOUS
 62
     7
100
AcDbSpline
210
0.0
220
0.0
230
1.0
 70
     8
 71
     3
 72
    58
 73
    54
 74
     0
 42
0.00000001
 43
0.00000001
 40
-0.03125
 40
-0.03125
 40
0.0
 40
0.0
 40
0.03125
 40
0.03125
 40
0.0625000000000001
 40
0.0625000000000001
 40
0.0937500000000001
 40
0.0937500000000001
 40
0.1250000000000001
 40
0.1250000000000001
 40
0.1875000000000001
 40
0.1875000000000001
 40
0.2500000000000002
 40
0.2500000000000002
 40
0.2812500000000002
 40
0.2812500000000002
 40
0.3125000000000002
 40
0.3125000000000002
 40
0.3750000000000003
 40
0.3750000000000003
 40
0.4062500000000003
 40
0.4062500000000003
 40
0.4375000000000003
 40
0.4375000000000003
 40
0.4687500000000003
 40
0.4687500000000003
 40
0.5000000000000003
 40
0.5000000000000003
 40
0.5625000000000002
 40
0.5625000000000002
 40
0.5937500000000003
 40
0.5937500000000003
 40
0.6250000000000003
 40
0.6250000000000003
 40
0.6562500000000003
 40
0.6562500000000003
 40
0.6875000000000003
 40
0.6875000000000003
 40
0.7500000000000002
 40
0.7500000000000002
 40
0.7812500000000001
 40
0.7812500000000001
 40
0.8125
 40
0.8125
 40
0.84375
 40
0.84375
 40
0.8749999999999999
 40
0.8749999999999999
 40
0.9374999999999999
 40
0.9374999999999999
 40
0.96875
 40
0.96875
 40
1.0
 40
1.0
 40
1.03125
 40
1.03125
 10
8.459305473904621
 20
7.338940656100864
 30
0.0
 10
8.444552297156317
 20
7.330423828449842
 30
0.0
 10
8.438028340379278
 20
7.325650658285221
 30
0.0
 10
8.426611385830459
 20
7.315137027336993
 30
0.0
 10
8.421678993018217
 20
7.309324699359751
 30
0.0
 10
8.413798486023026
 20
7.297117298331862
 30
0.0
 10
8.410831438223878
 20
7.290744316648587
 30
0.0
 10
8.406821522365423
 20
7.277538599078651
 30
0.0
 10
8.405802429227101
 20
7.270678992572357
 30
0.0
 10
8.405807054442478
 20
7.250403734013964
 30
0.0
 10
8.409910288816052
 20
7.236761144823065
 30
0.0
 10
8.4255714137527
 20
7.212469104830579
 30
0.0
 10
8.43730620344051
 20
7.201577474711605
 30
0.0
 10
8.45914082369959
 20
7.188954535192388
 30
0.0
 10
8.467267858540605
 20
7.18527577822661
 30
0.0
 10
8.484412632225569
 20
7.179325749147042
 30
0.0
 10
8.493470618264038
 20
7.177011850824736
 30
0.0
 10
8.522118296290483
 20
7.171983423366971
 30
0.0
 10
8.542550506720469
 20
7.171317225719404
 30
0.0
 10
8.573598653955422
 20
7.173874198916646
 30
0.0
 10
8.583794554994338
 20
7.175294851537091
 30
0.0
 10
8.603899052867835
 20
7.179147967721558
 30
0.0
 10
8.613914771985662
 20
7.181617527705538
 30
0.0
 10
8.632959736041224
 20
7.187356837214974
 30
0.0
 10
8.642015354957854
 20
7.190617560296505
 30
0.0
 10
8.659191593324579
 20
7.197873668400685
 30
0.0
 10
8.667314720767008
 20
7.201888157163411
 30
0.0
 10
8.689154206238499
 20
7.214487653034272
 30
0.0
 10
8.700917425456424
 20
7.223958869524911
 30
0.0
 10
8.712701211218459
 20
7.238596292237689
 30
0.0
 10
8.715732098268555
 20
7.243634795777554
 30
0.0
 10
8.719753099894453
 20
7.253746731884107
 30
0.0
 10
8.720755644129355
 20
7.25878950082476
 30
0.0
 10
8.720773435804793
 20
7.268947863543136
 30
0.0
 10
8.719756159877276
 20
7.274096600362024
 30
0.0
 10
8.71577123907707
 20
7.284141143973918
 30
0.0
 10
8.712816443728038
 20
7.289087248961123
 30
0.0
 10
8.70098309276271
 20
7.303823883412574
 30
0.0
 10
8.689414218430533
 20
7.313153383095803
 30
0.0
 10
8.667370275153736
 20
7.325893388173317
 30
0.0
 10
8.659411181856488
 20
7.32983172396691
 30
0.0
 10
8.642308606273819
 20
7.337091633831386
 30
0.0
 10
8.633056895016594
 20
7.340440508808043
 30
0.0
 10
8.614028660497189
 20
7.346200060593556
 30
0.0
 10
8.604220235387285
 20
7.348637279875621
 30
0.0
 10
8.584005295304394
 20
7.352543007884009
 30
0.0
 10
8.573637479780295
 20
7.353989254076751
 30
0.0
 10
8.542930218374554
 20
7.356535339905276
 30
0.0
 10
8.522236036552913
 20
7.355868626594608
 30
0.0
 10
8.493786224352188
 20
7.350886872544123
 30
0.0
 10
8.484560415039827
 20
7.348541376161082
 30
0.0
 10
8.467312038479555
 20
7.34255554868034
 30
0.0
 10
8.459305473904621
 20
7.338940656100864
 30
0.0
 10
8.444552297156317
 20
7.330423828449842
 30
0.0
  0
POLYLINE
  5
254
330
1F
100
AcDbEntity
  8
0
  6
CONTINUOUS
 62
     7
100
AcDb2dPolyline
 66
     1
 10
0.0
 20
0.0
 30
0.0
  0
VERTEX
  5
3C7
330
254
100
AcDbEntity
  8
0
  6
CONTINUOUS
 62
     7
100
AcDbVertex
100
AcDb2dVertex
 10
9.0087058786
 20
6.5953105662
 30
0.0
  0
VERTEX
  5
3C8
330
254
100
AcDbEntity
  8
0
  6
CONTINUOUS
 62
     7
100
AcDbVertex
100
AcDb2dVertex
 10
9.0080038502
 20
6.5758213375
 30
0.0
  0
VERTEX
  5
3C9
330
254
100
AcDbEntity
  8
0
  6
CONTINUOUS
 62
     7
100
AcDbVertex
100
AcDb2dVertex
 10
9.005902823
 20
6.5556619845
 30
0.0
  0
VERTEX
  5
3CA
330
254
100
AcDbEntity
  8
0
  6
CONTINUOUS
 62
     7
100
AcDbVertex
100
AcDb2dVertex
 10
9.0024179351
 20
6.5349777556
 30
0.0
  0
VERTEX
  5
3CB
330
254
100
AcDbEntity
  8
0
  6
CONTINUOUS
 62
     7
100
AcDbVertex
100
AcDb2dVertex
 10
8.9975742951
 20
6.5139176812
 30
0.0
  0
VERTEX
  5
3CC
330
254
100
AcDbEntity
  8
0
  6
CONTINUOUS
 62
     7
100
AcDbVertex
100
AcDb2dVertex
 10
8.9914068016
 20
6.4926334996
 30
0.0
  0
VERTEX
  5
3CD
330
254
100
AcDbEntity
  8
0
  6
CONTINUOUS
 62
     7
100
AcDbVertex
100
AcDb2dVertex
 10
8.9839598915
 20
6.471278564
 30
0.0
  0
VERTEX
  5
3CE
330
254
100
AcDbEntity
  8
0
  6
CONTINUOUS
 62
     7
100
AcDbVertex
100
AcDb2dVertex
 10
8.9752872199
 20
6.4500067369
 30
0.0
  0
VERTEX
  5
3CF
330
254
100
AcDbEntity
  8
0
  6
CONTINUOUS
 62
     7
100
AcDbVertex
100
AcDb2dVertex
 10
8.9654512737
 20
6.4289712825
 30
0.0
  0
VERTEX
  5
3D0
330
254
100
AcDbEntity
  8
0
  6
CONTINUOUS
 62
     7
100
AcDbVertex
100
AcDb2dVertex
 10
8.9545229211
 20
6.4083237618
 30
0.0
  0
VERTEX
  5
3D1
330
254
100
AcDbEntity
  8
0
  6
CONTINUOUS
 62
     7
100
AcDbVertex
100
AcDb2dVertex
 10
8.9425809011
 20
6.3882129404
 30
0.0
  0
VERTEX
  5
3D2
330
254
100
AcDbEntity
  8
0
  6
CONTINUOUS
 62
     7
100
AcDbVertex
100
AcDb2dVertex
 10
8.9297112562
 20
6.3687837174
 30
0.0
  0
VERTEX
  5
3D3
330
254
100
AcDbEntity
  8
0
  6
CONTINUOUS
 62
     7
100
AcDbVertex
100
AcDb2dVertex
 10
8.9160067125
 20
6.3501760808
 30
0.0
  0
VERTEX
  5
3D4
330
254
100
AcDbEntity
  8
0
  6
CONTINUOUS
 62
     7
100
AcDbVertex
100
AcDb2dVertex
 10
8.9015660116
 20
6.332524099
 30
0.0
  0
VERTEX
  5
3D5
330
254
100
AcDbEntity
  8
0
  6
CONTINUOUS
 62
     7
100
AcDbVertex
100
AcDb2dVertex
 10
8.886493199
 20
6.315954955
 30
0.0
  0
VERTEX
  5
3D6
330
254
100
AcDbEntity
  8
0
  6
CONTINUOUS
 62
     7
100
AcDbVertex
100
AcDb2dVertex
 10
8.8708968748
 20
6.3005880298
 30
0.0
  0
VERTEX
  5
3D7
330
254
100
AcDbEntity
  8
0
  6
CONTINUOUS
 62
     7
100
AcDbVertex
100
AcDb2dVertex
 10
8.8548894107
 20
6.2865340424
 30
0.0
  0
VERTEX
  5
3D8
330
254
100
AcDbEntity
  8
0
  6
CONTINUOUS
 62
     7
100
AcDbVertex
100
AcDb2dVertex
 10
8.8385861409
 20
6.2738942522
 30
0.0
  0
VERTEX
  5
3D9
330
254
100
AcDbEntity
  8
0
  6
CONTINUOUS
 62
     7
100
AcDbVertex
100
AcDb2dVertex
 10
8.8221045309
 20
6.2627597292
 30
0.0
  0
VERTEX
  5
3DA
330
254
100
AcDbEntity
  8
0
  6
CONTINUOUS
 62
     7
100
AcDbVertex
100
AcDb2dVertex
 10
8.8055633311
 20
6.2532106978
 30
0.0
  0
VERTEX
  5
3DB
330
254
100
AcDbEntity
  8
0
  6
CONTINUOUS
 62
     7
100
AcDbVertex
100
AcDb2dVertex
 10
8.7890817211
 20
6.245315959
 30
0.0
  0
VERTEX
  5
3DC
330
254
100
AcDbEntity
  8
0
  6
CONTINUOUS
 62
     7
100
AcDbVertex
100
AcDb2dVertex
 10
8.7727784514
 20
6.2391323946
 30
0.0
  0
VERTEX
  5
3DD
330
254
100
AcDbEntity
  8
0
  6
CONTINUOUS
 62
     7
100
AcDbVertex
100
AcDb2dVertex
 10
8.7567709873
 20
6.2347045573
 30
0.0
  0
VERTEX
  5
3DE
330
254
100
AcDbEntity
  8
0
  6
CONTINUOUS
 62
     7
100
AcDbVertex
100
AcDb2dVertex
 10
8.741174663
 20
6.2320643498
 30
0.0
  0
VERTEX
  5
3DF
330
254
100
AcDbEntity
  8
0
  6
CONTINUOUS
 62
     7
100
AcDbVertex
100
AcDb2dVertex
 10
8.7261018505
 20
6.2312307949
 30
0.0
  0
VERTEX
  5
3E0
330
254
100
AcDbEntity
  8
0
  6
CONTINUOUS
 62
     7
100
AcDbVertex
100
AcDb2dVertex
 10
8.7116611495
 20
6.2322098983
 30
0.0
  0
VERTEX
  5
3E1
330
254
100
AcDbEntity
  8
0
  6
CONTINUOUS
 62
     7
100
AcDbVertex
100
AcDb2dVertex
 10
8.6979566059
 20
6.2349946056
 30
0.0
  0
VERTEX
  5
3E2
330
254
100
AcDbEntity
  8
0
  6
CONTINUOUS
 62
     7
100
AcDbVertex
100
AcDb2dVertex
 10
8.685086961
 20
6.2395648528
 30
0.0
  0
VERTEX
  5
3E3
330
254
100
AcDbEntity
  8
0
  6
CONTINUOUS
 62
     7
100
AcDbVertex
100
AcDb2dVertex
 10
8.6731449409
 20
6.2458877113
 30
0.0
  0
VERTEX
  5
3E4
330
254
100
AcDbEntity
  8
0
  6
CONTINUOUS
 62
     7
100
AcDbVertex
100
AcDb2dVertex
 10
8.6622165883
 20
6.2539176248
 30
0.0
  0
VERTEX
  5
3E5
330
254
100
AcDbEntity
  8
0
  6
CONTINUOUS
 62
     7
100
AcDbVertex
100
AcDb2dVertex
 10
8.6523806421
 20
6.2635967374
 30
0.0
  0
VERTEX
  5
3E6
330
254
100
AcDbEntity
  8
0
  6
CONTINUOUS
 62
     7
100
AcDbVertex
100
AcDb2dVertex
 10
8.6437079705
 20
6.274855311
 30
0.0
  0
VERTEX
  5
3E7
330
254
100
AcDbEntity
  8
0
  6
CONTINUOUS
 62
     7
100
AcDbVertex
100
AcDb2dVertex
 10
8.6362610604
 20
6.2876122273
 30
0.0
  0
VERTEX
  5
3E8
330
254
100
AcDbEntity
  8
0
  6
CONTINUOUS
 62
     7
100
AcDbVertex
100
AcDb2dVertex
 10
8.6300935669
 20
6.3017755723
 30
0.0
  0
VERTEX
  5
3E9
330
254
100
AcDbEntity
  8
0
  6
CONTINUOUS
 62
     7
100
AcDbVertex
100
AcDb2dVertex
 10
8.6252499269
 20
6.317243299
 30
0.0
  0
VERTEX
  5
3EA
330
254
100
AcDbEntity
  8
0
  6
CONTINUOUS
 62
     7
100
AcDbVertex
100
AcDb2dVertex
 10
8.621765039
 20
6.333903962
 30
0.0
  0
VERTEX
  5
3EB
330
254
100
AcDbEntity
  8
0
  6
CONTINUOUS
 62
     7
100
AcDbVertex
100
AcDb2dVertex
 10
8.6196640119
 20
6.3516375208
 30
0.0
  0
VERTEX
  5
3EC
330
254
100
AcDbEntity
  8
0
  6
CONTINUOUS
 62
     7
100
AcDbVertex
100
AcDb2dVertex
 10
8.6189619834
 20
6.3703162046
 30
0.0
  0
VERTEX
  5
3ED
330
254
100
AcDbEntity
  8
0
  6
CONTINUOUS
 62
     7
100
AcDbVertex
100
AcDb2dVertex
 10
8.6196640119
 20
6.3898054333
 30
0.0
  0
VERTEX
  5
3EE
330
254
100
AcDbEntity
  8
0
  6
CONTINUOUS
 62
     7
100
AcDbVertex
100
AcDb2dVertex
 10
8.621765039
 20
6.4099647863
 30
0.0
  0
VERTEX
  5
3EF
330
254
100
AcDbEntity
  8
0
  6
CONTINUOUS
 62
     7
100
AcDbVertex
100
AcDb2dVertex
 10
8.6252499269
 20
6.4306490152
 30
0.0
  0
VERTEX
  5
3F0
330
254
100
AcDbEntity
  8
0
  6
CONTINUOUS
 62
     7
100
AcDbVertex
100
AcDb2dVertex
 10
8.6300935669
 20
6.4517090896
 30
0.0
  0
VERTEX
  5
3F1
330
254
100
AcDbEntity
  8
0
  6
CONTINUOUS
 62
     7
100
AcDbVertex
100
AcDb2dVertex
 10
8.6362610604
 20
6.4729932712
 30
0.0
  0
VERTEX
  5
3F2
330
254
100
AcDbEntity
  8
0
  6
CONTINUOUS
 62
     7
100
AcDbVertex
100
AcDb2dVertex
 10
8.6437079705
 20
6.4943482068
 30
0.0
  0
VERTEX
  5
3F3
330
254
100
AcDbEntity
  8
0
  6
CONTINUOUS
 62
     7
100
AcDbVertex
100
AcDb2dVertex
 10
8.6523806421
 20
6.5156200339
 30
0.0
  0
VERTEX
  5
3F4
330
254
100
AcDbEntity
  8
0
  6
CONTINUOUS
 62
     7
100
AcDbVertex
100
AcDb2dVertex
 10
8.6622165883
 20
6.5366554883
 30
0.0
  0
VERTEX
  5
3F5
330
254
100
AcDbEntity
  8
0
  6
CONTINUOUS
 62
     7
100
AcDbVertex
100
AcDb2dVertex
 10
8.6731449409
 20
6.5573030091
 30
0.0
  0
VERTEX
  5
3F6
330
254
100
AcDbEntity
  8
0
  6
CONTINUOUS
 62
     7
100
AcDbVertex
100
AcDb2dVertex
 10
8.685086961
 20
6.5774138304
 30
0.0
  0
VERTEX
  5
3F7
330
254
100
AcDbEntity
  8
0
  6
CONTINUOUS
 62
     7
100
AcDbVertex
100
AcDb2dVertex
 10
8.6979566059
 20
6.5968430534
 30
0.0
  0
VERTEX
  5
3F8
330
254
100
AcDbEntity
  8
0
  6
CONTINUOUS
 62
     7
100
AcDbVertex
100
AcDb2dVertex
 10
8.7116611495
 20
6.61545069
 30
0.0
  0
VERTEX
  5
3F9
330
254
100
AcDbEntity
  8
0
  6
CONTINUOUS
 62
     7
100
AcDbVertex
100
AcDb2dVertex
 10
8.7261018505
 20
6.6331026718
 30
0.0
  0
VERTEX
  5
3FA
330
254
100
AcDbEntity
  8
0
  6
CONTINUOUS
 62
     7
100
AcDbVertex
100
AcDb2dVertex
 10
8.741174663
 20
6.6496718158
 30
0.0
  0
VERTEX
  5
3FB
330
254
100
AcDbEntity
  8
0
  6
CONTINUOUS
 62
     7
100
AcDbVertex
100
AcDb2dVertex
 10
8.7567709873
 20
6.665038741
 30
0.0
  0
VERTEX
  5
3FC
330
254
100
AcDbEntity
  8
0
  6
CONTINUOUS
 62
     7
100
AcDbVertex
100
AcDb2dVertex
 10
8.7727784514
 20
6.6790927284
 30
0.0
  0
VERTEX
  5
3FD
330
254
100
AcDbEntity
  8
0
  6
CONTINUOUS
 62
     7
100
AcDbVertex
100
AcDb2dVertex
 10
8.7890817211
 20
6.6917325186
 30
0.0
  0
VERTEX
  5
3FE
330
254
100
AcDbEntity
  8
0
  6
CONTINUOUS
 62
     7
100
AcDbVertex
100
AcDb2dVertex
 10
8.8055633311
 20
6.7028670416
 30
0.0
  0
VERTEX
  5
3FF
330
254
100
AcDbEntity
  8
0
  6
CONTINUOUS
 62
     7
100
AcDbVertex
100
AcDb2dVertex
 10
8.8221045309
 20
6.712416073
 30
0.0
  0
VERTEX
  5
400
330
254
100
AcDbEntity
  8
0
  6
CONTINUOUS
 62
     7
100
AcDbVertex
100
AcDb2dVertex
 10
8.8385861409
 20
6.7203108118
 30
0.0
  0
VERTEX
  5
401
330
254
100
AcDbEntity
  8
0
  6
CONTINUOUS
 62
     7
100
AcDbVertex
100
AcDb2dVertex
 10
8.8548894107
 20
6.7264943762
 30
0.0
  0
VERTEX
  5
402
330
254
100
AcDbEntity
  8
0
  6
CONTINUOUS
 62
     7
100
AcDbVertex
100
AcDb2dVertex
 10
8.8708968748
 20
6.7309222135
 30
0.0
  0
VERTEX
  5
403
330
254
100
AcDbEntity
  8
0
  6
CONTINUOUS
 62
     7
100
AcDbVertex
100
AcDb2dVertex
 10
8.886493199
 20
6.733562421
 30
0.0
  0
VERTEX
  5
404
330
254
100
AcDbEntity
  8
0
  6
CONTINUOUS
 62
     7
100
AcDbVertex
100
AcDb2dVertex
 10
8.9015660116
 20
6.7343959759
 30
0.0
  0
VERTEX
  5
405
330
254
100
AcDbEntity
  8
0
  6
CONTINUOUS
 62
     7
100
AcDbVertex
100
AcDb2dVertex
 10
8.9160067125
 20
6.7334168725
 30
0.0
  0
VERTEX
  5
406
330
254
100
AcDbEntity
  8
0
  6
CONTINUOUS
 62
     7
100
AcDbVertex
100
AcDb2dVertex
 10
8.9297112562
 20
6.7306321652
 30
0.0
  0
VERTEX
  5
407
330
254
100
AcDbEntity
  8
0
  6
CONTINUOUS
 62
     7
100
AcDbVertex
100
AcDb2dVertex
 10
8.9425809011
 20
6.726061918
 30
0.0
  0
VERTEX
  5
408
330
254
100
AcDbEntity
  8
0
  6
CONTINUOUS
 62
     7
100
AcDbVertex
100
AcDb2dVertex
 10
8.9545229211
 20
6.7197390595
 30
0.0
  0
VERTEX
  5
409
330
254
100
AcDbEntity
  8
0
  6
CONTINUOUS
 62
     7
100
AcDbVertex
100
AcDb2dVertex
 10
8.9654512737
 20
6.711709146
 30
0.0
  0
VERTEX
  5
40A
330
254
100
AcDbEntity
  8
0
  6
CONTINUOUS
 62
     7
100
AcDbVertex
100
AcDb2dVertex
 10
8.9752872199
 20
6.7020300334
 30
0.0
  0
VERTEX
  5
40B
330
254
100
AcDbEntity
  8
0
  6
CONTINUOUS
 62
     7
100
AcDbVertex
100
AcDb2dVertex
 10
8.9839598915
 20
6.6907714598
 30
0.0
  0
VERTEX
  5
40C
330
254
100
AcDbEntity
  8
0
  6
CONTINUOUS
 62
     7
100
AcDbVertex
100
AcDb2dVertex
 10
8.9914068016
 20
6.6780145436
 30
0.0
  0
VERTEX
  5
40D
330
254
100
AcDbEntity
  8
0
  6
CONTINUOUS
 62
     7
100
AcDbVertex
100
AcDb2dVertex
 10
8.9975742951
 20
6.6638511985
 30
0.0
  0
VERTEX
  5
40E
330
254
100
AcDbEntity
  8
0
  6
CONTINUOUS
 62
     7
100
AcDbVertex
100
AcDb2dVertex
 10
9.0024179351
 20
6.6483834718
 30
0.0
  0
VERTEX
  5
40F
330
254
100
AcDbEntity
  8
0
  6
CONTINUOUS
 62
     7
100
AcDbVertex
100
AcDb2dVertex
 10
9.005902823
 20
6.6317228088
 30
0.0
  0
VERTEX
  5
410
330
254
100
AcDbEntity
  8
0
  6
CONTINUOUS
 62
     7
100
AcDbVertex
100
AcDb2dVertex
 10
9.0080038502
 20
6.61398925
 30
0.0
  0
VERTEX
  5
411
330
254
100
AcDbEntity
  8
0
  6
CONTINUOUS
 62
     7
100
AcDbVertex
100
AcDb2dVertex
 10
9.0087058786
 20
6.5953105662
 30
0.0
  0
SEQEND
  5
412
330
254
100
AcDbEntity
  8
0
  6
CONTINUOUS
 62
     7
  0
ARC
  5
255
330
1F
100
AcDbEntity
  8
0
  6
CONTINUOUS
 62
     7
100
AcDbCircle
 10
9.172435267
 20
6.2719279981
 30
0.0
 40
1.139194629022641
100
AcDbArc
 50
141.1776798576
 51
177.4756258928
  0
SPLINE
  5
256
330
1F
100
AcDbEntity
  8
0
  6
CONTINUOUS
 62
     7
100
AcDbSpline
210
0.0
220
0.0
230
1.0
 70
     8
 71
     3
 72
     8
 73
     4
 74
     0
 42
0.00000001
 43
0.00000001
 40
0.0
 40
0.0
 40
0.0
 40
0.0
 40
0.0007676680295986
 40
0.0007676680295986
 40
0.0007676680295986
 40
0.0007676680295986
 10
8.284895787612387
 20
6.986097498605848
 30
0.0
 10
8.29412487040767
 20
6.993303520900363
 30
0.0
 10
8.303407570444467
 20
7.000426126626408
 30
0.0
 10
8.3127346372654
 20
7.00747848833879
 30
0.0
  0
LINE
  5
257
330
1F
100
AcDbEntity
  8
0
  6
CONTINUOUS
 62
     7
100
AcDbLine
 10
8.09002384
 20
7.1360466949
 30
0.0
 11
8.0661305361
 21
7.117695991
 31
0.0
  0
ARC
  5
258
330
1F
100
AcDbEntity
  8
0
  6
CONTINUOUS
 62
     7
100
AcDbCircle
 10
8.8529614424
 20
6.6126133828
 30
0.0
 40
0.1015516582427177
100
AcDbArc
 50
350.1898313722
 51
121.866337574
  0
POLYLINE
  5
259
330
1F
100
AcDbEntity
  8
0
  6
CONTINUOUS
 62
     7
100
AcDb2dPolyline
 66
     1
 10
0.0
 20
0.0
 30
0.0
  0
VERTEX
  5
413
330
259
100
AcDbEntity
  8
0
  6
CONTINUOUS
 62
     7
100
AcDbVertex
100
AcDb2dVertex
 10
8.6194987645
 20
6.3873170633
 30
0.0
  0
VERTEX
  5
414
330
259
100
AcDbEntity
  8
0
  6
CONTINUOUS
 62
     7
100
AcDbVertex
100
AcDb2dVertex
 10
8.6196745172
 20
6.3850725347
 30
0.0
  0
VERTEX
  5
415
330
259
100
AcDbEntity
  8
0
  6
CONTINUOUS
 62
     7
100
AcDbVertex
100
AcDb2dVertex
 10
8.6218060394
 20
6.368657816
 30
0.0
  0
VERTEX
  5
416
330
259
100
AcDbEntity
  8
0
  6
CONTINUOUS
 62
     7
100
AcDbVertex
100
AcDb2dVertex
 10
8.6253383645
 20
6.3533541446
 30
0.0
  0
VERTEX
  5
417
330
259
100
AcDbEntity
  8
0
  6
CONTINUOUS
 62
     7
100
AcDbVertex
100
AcDb2dVertex
 10
8.6302413562
 20
6.3392920862
 30
0.0
  0
VERTEX
  5
418
330
259
100
AcDbEntity
  8
0
  6
CONTINUOUS
 62
     7
100
AcDbVertex
100
AcDb2dVertex
 10
8.6364731837
 20
6.3265916132
 30
0.0
  0
VERTEX
  5
419
330
259
100
AcDbEntity
  8
0
  6
CONTINUOUS
 62
     7
100
AcDbVertex
100
AcDb2dVertex
 10
8.6439806793
 20
6.3153610816
 30
0.0
  0
VERTEX
  5
41A
330
259
100
AcDbEntity
  8
0
  6
CONTINUOUS
 62
     7
100
AcDbVertex
100
AcDb2dVertex
 10
8.6526997917
 20
6.3056963063
 30
0.0
  0
VERTEX
  5
41B
330
259
100
AcDbEntity
  8
0
  6
CONTINUOUS
 62
     7
100
AcDbVertex
100
AcDb2dVertex
 10
8.6625561325
 20
6.2976797439
 30
0.0
  0
VERTEX
  5
41C
330
259
100
AcDbEntity
  8
0
  6
CONTINUOUS
 62
     7
100
AcDbVertex
100
AcDb2dVertex
 10
8.673465611
 20
6.2913797887
 30
0.0
  0
VERTEX
  5
41D
330
259
100
AcDbEntity
  8
0
  6
CONTINUOUS
 62
     7
100
AcDbVertex
100
AcDb2dVertex
 10
8.6853351511
 20
6.2868501898
 30
0.0
  0
VERTEX
  5
41E
330
259
100
AcDbEntity
  8
0
  6
CONTINUOUS
 62
     7
100
AcDbVertex
100
AcDb2dVertex
 10
8.6980634864
 20
6.2841295921
 30
0.0
  0
VERTEX
  5
41F
330
259
100
AcDbEntity
  8
0
  6
CONTINUOUS
 62
     7
100
AcDbVertex
100
AcDb2dVertex
 10
8.7115420229
 20
6.2832412068
 30
0.0
  0
VERTEX
  5
420
330
259
100
AcDbEntity
  8
0
  6
CONTINUOUS
 62
     7
100
AcDbVertex
100
AcDb2dVertex
 10
8.7256557668
 20
6.2841926133
 30
0.0
  0
VERTEX
  5
421
330
259
100
AcDbEntity
  8
0
  6
CONTINUOUS
 62
     7
100
AcDbVertex
100
AcDb2dVertex
 10
8.7402843043
 20
6.2869756945
 30
0.0
  0
VERTEX
  5
422
330
259
100
AcDbEntity
  8
0
  6
CONTINUOUS
 62
     7
100
AcDbVertex
100
AcDb2dVertex
 10
8.7553028302
 20
6.2915667062
 30
0.0
  0
VERTEX
  5
423
330
259
100
AcDbEntity
  8
0
  6
CONTINUOUS
 62
     7
100
AcDbVertex
100
AcDb2dVertex
 10
8.7705832114
 20
6.2979264794
 30
0.0
  0
VERTEX
  5
424
330
259
100
AcDbEntity
  8
0
  6
CONTINUOUS
 62
     7
100
AcDbVertex
100
AcDb2dVertex
 10
8.7859950814
 20
6.3060007549
 30
0.0
  0
VERTEX
  5
425
330
259
100
AcDbEntity
  8
0
  6
CONTINUOUS
 62
     7
100
AcDbVertex
100
AcDb2dVertex
 10
8.8014069513
 20
6.3157206457
 30
0.0
  0
VERTEX
  5
426
330
259
100
AcDbEntity
  8
0
  6
CONTINUOUS
 62
     7
100
AcDbVertex
100
AcDb2dVertex
 10
8.8166873326
 20
6.3270032251
 30
0.0
  0
VERTEX
  5
427
330
259
100
AcDbEntity
  8
0
  6
CONTINUOUS
 62
     7
100
AcDbVertex
100
AcDb2dVertex
 10
8.8317058584
 20
6.3397522343
 30
0.0
  0
VERTEX
  5
428
330
259
100
AcDbEntity
  8
0
  6
CONTINUOUS
 62
     7
100
AcDbVertex
100
AcDb2dVertex
 10
8.846334396
 20
6.353858903
 30
0.0
  0
VERTEX
  5
429
330
259
100
AcDbEntity
  8
0
  6
CONTINUOUS
 62
     7
100
AcDbVertex
100
AcDb2dVertex
 10
8.8604481398
 20
6.3692028783
 30
0.0
  0
VERTEX
  5
42A
330
259
100
AcDbEntity
  8
0
  6
CONTINUOUS
 62
     7
100
AcDbVertex
100
AcDb2dVertex
 10
8.8739266764
 20
6.3856532507
 30
0.0
  0
VERTEX
  5
42B
330
259
100
AcDbEntity
  8
0
  6
CONTINUOUS
 62
     7
100
AcDbVertex
100
AcDb2dVertex
 10
8.8866550116
 20
6.4030696714
 30
0.0
  0
VERTEX
  5
42C
330
259
100
AcDbEntity
  8
0
  6
CONTINUOUS
 62
     7
100
AcDbVertex
100
AcDb2dVertex
 10
8.8985245518
 20
6.4213035497
 30
0.0
  0
VERTEX
  5
42D
330
259
100
AcDbEntity
  8
0
  6
CONTINUOUS
 62
     7
100
AcDbVertex
100
AcDb2dVertex
 10
8.9094340302
 20
6.4401993206
 30
0.0
  0
VERTEX
  5
42E
330
259
100
AcDbEntity
  8
0
  6
CONTINUOUS
 62
     7
100
AcDbVertex
100
AcDb2dVertex
 10
8.919290371
 20
6.4595957719
 30
0.0
  0
VERTEX
  5
42F
330
259
100
AcDbEntity
  8
0
  6
CONTINUOUS
 62
     7
100
AcDbVertex
100
AcDb2dVertex
 10
8.9280094835
 20
6.4793274201
 30
0.0
  0
VERTEX
  5
430
330
259
100
AcDbEntity
  8
0
  6
CONTINUOUS
 62
     7
100
AcDbVertex
100
AcDb2dVertex
 10
8.9355169791
 20
6.4992259216
 30
0.0
  0
VERTEX
  5
431
330
259
100
AcDbEntity
  8
0
  6
CONTINUOUS
 62
     7
100
AcDbVertex
100
AcDb2dVertex
 10
8.9417488066
 20
6.5191215095
 30
0.0
  0
VERTEX
  5
432
330
259
100
AcDbEntity
  8
0
  6
CONTINUOUS
 62
     7
100
AcDbVertex
100
AcDb2dVertex
 10
8.9466517982
 20
6.5388444416
 30
0.0
  0
VERTEX
  5
433
330
259
100
AcDbEntity
  8
0
  6
CONTINUOUS
 62
     7
100
AcDbVertex
100
AcDb2dVertex
 10
8.9501841234
 20
6.5582264488
 30
0.0
  0
VERTEX
  5
434
330
259
100
AcDbEntity
  8
0
  6
CONTINUOUS
 62
     7
100
AcDbVertex
100
AcDb2dVertex
 10
8.9523156455
 20
6.5771021706
 30
0.0
  0
VERTEX
  5
435
330
259
100
AcDbEntity
  8
0
  6
CONTINUOUS
 62
     7
100
AcDbVertex
100
AcDb2dVertex
 10
8.9530281793
 20
6.5953105662
 30
0.0
  0
SEQEND
  5
436
330
259
100
AcDbEntity
  8
0
  6
CONTINUOUS
 62
     7
  0
ARC
  5
25A
330
1F
100
AcDbEntity
  8
0
  6
CONTINUOUS
 62
     7
100
AcDbCircle
 10
8.841961063
 20
6.5338399051
 30
0.0
 40
0.9722383010575093
100
AcDbArc
 50
121.0504634882
 51
143.0455476674
  0
POLYLINE
  5
25B
330
1F
100
AcDbEntity
  8
0
  6
CONTINUOUS
 62
     7
100
AcDb2dPolyline
 66
     1
 10
0.0
 20
0.0
 30
0.0
  0
VERTEX
  5
437
330
25B
100
AcDbEntity
  8
0
  6
CONTINUOUS
 62
     7
100
AcDbVertex
100
AcDb2dVertex
 10
7.2270195008
 20
6.8685362906
 30
0.0
  0
VERTEX
  5
438
330
25B
100
AcDbEntity
  8
0
  6
CONTINUOUS
 62
     7
100
AcDbVertex
100
AcDb2dVertex
 10
7.2387641096
 20
6.8609359078
 30
0.0
  0
VERTEX
  5
439
330
25B
100
AcDbEntity
  8
0
  6
CONTINUOUS
 62
     7
100
AcDbVertex
100
AcDb2dVertex
 10
7.2503374556
 20
6.8518056269
 30
0.0
  0
VERTEX
  5
43A
330
25B
100
AcDbEntity
  8
0
  6
CONTINUOUS
 62
     7
100
AcDbVertex
100
AcDb2dVertex
 10
7.2615707733
 20
6.8412785878
 30
0.0
  0
VERTEX
  5
43B
330
25B
100
AcDbEntity
  8
0
  6
CONTINUOUS
 62
     7
100
AcDbVertex
100
AcDb2dVertex
 10
7.2723002556
 20
6.8295082986
 30
0.0
  0
VERTEX
  5
43C
330
25B
100
AcDbEntity
  8
0
  6
CONTINUOUS
 62
     7
100
AcDbVertex
100
AcDb2dVertex
 10
7.2823694426
 20
6.8166663965
 30
0.0
  0
VERTEX
  5
43D
330
25B
100
AcDbEntity
  8
0
  6
CONTINUOUS
 62
     7
100
AcDbVertex
100
AcDb2dVertex
 10
7.2916315027
 20
6.8029401454
 30
0.0
  0
VERTEX
  5
43E
330
25B
100
AcDbEntity
  8
0
  6
CONTINUOUS
 62
     7
100
AcDbVertex
100
AcDb2dVertex
 10
7.2999513744
 20
6.788529705
 30
0.0
  0
VERTEX
  5
43F
330
25B
100
AcDbEntity
  8
0
  6
CONTINUOUS
 62
     7
100
AcDbVertex
100
AcDb2dVertex
 10
7.3072077352
 20
6.7736452118
 30
0.0
  0
VERTEX
  5
440
330
25B
100
AcDbEntity
  8
0
  6
CONTINUOUS
 62
     7
100
AcDbVertex
100
AcDb2dVertex
 10
7.3132947709
 20
6.7585037155
 30
0.0
  0
VERTEX
  5
441
330
25B
100
AcDbEntity
  8
0
  6
CONTINUOUS
 62
     7
100
AcDbVertex
100
AcDb2dVertex
 10
7.3181237189
 20
6.7433260129
 30
0.0
  0
VERTEX
  5
442
330
25B
100
AcDbEntity
  8
0
  6
CONTINUOUS
 62
     7
100
AcDbVertex
100
AcDb2dVertex
 10
7.3216241623
 20
6.7283334294
 30
0.0
  0
VERTEX
  5
443
330
25B
100
AcDbEntity
  8
0
  6
CONTINUOUS
 62
     7
100
AcDbVertex
100
AcDb2dVertex
 10
7.3237450566
 20
6.7137445903
 30
0.0
  0
VERTEX
  5
444
330
25B
100
AcDbEntity
  8
0
  6
CONTINUOUS
 62
     7
100
AcDbVertex
100
AcDb2dVertex
 10
7.3244554746
 20
6.699772234
 30
0.0
  0
VERTEX
  5
445
330
25B
100
AcDbEntity
  8
0
  6
CONTINUOUS
 62
     7
100
AcDbVertex
100
AcDb2dVertex
 10
7.3237450566
 20
6.6866201088
 30
0.0
  0
VERTEX
  5
446
330
25B
100
AcDbEntity
  8
0
  6
CONTINUOUS
 62
     7
100
AcDbVertex
100
AcDb2dVertex
 10
7.3216241623
 20
6.6744800023
 30
0.0
  0
VERTEX
  5
447
330
25B
100
AcDbEntity
  8
0
  6
CONTINUOUS
 62
     7
100
AcDbVertex
100
AcDb2dVertex
 10
7.3181237189
 20
6.6635289446
 30
0.0
  0
VERTEX
  5
448
330
25B
100
AcDbEntity
  8
0
  6
CONTINUOUS
 62
     7
100
AcDbVertex
100
AcDb2dVertex
 10
7.3132947709
 20
6.6539266268
 30
0.0
  0
VERTEX
  5
449
330
25B
100
AcDbEntity
  8
0
  6
CONTINUOUS
 62
     7
100
AcDbVertex
100
AcDb2dVertex
 10
7.3072077352
 20
6.6458130722
 30
0.0
  0
VERTEX
  5
44A
330
25B
100
AcDbEntity
  8
0
  6
CONTINUOUS
 62
     7
100
AcDbVertex
100
AcDb2dVertex
 10
7.2999513744
 20
6.6393065949
 30
0.0
  0
VERTEX
  5
44B
330
25B
100
AcDbEntity
  8
0
  6
CONTINUOUS
 62
     7
100
AcDbVertex
100
AcDb2dVertex
 10
7.2916315027
 20
6.6345020738
 30
0.0
  0
VERTEX
  5
44C
330
25B
100
AcDbEntity
  8
0
  6
CONTINUOUS
 62
     7
100
AcDbVertex
100
AcDb2dVertex
 10
7.2823694426
 20
6.6314695698
 30
0.0
  0
VERTEX
  5
44D
330
25B
100
AcDbEntity
  8
0
  6
CONTINUOUS
 62
     7
100
AcDbVertex
100
AcDb2dVertex
 10
7.2723002556
 20
6.6302533035
 30
0.0
  0
VERTEX
  5
44E
330
25B
100
AcDbEntity
  8
0
  6
CONTINUOUS
 62
     7
100
AcDbVertex
100
AcDb2dVertex
 10
7.2615707733
 20
6.6308710109
 30
0.0
  0
VERTEX
  5
44F
330
25B
100
AcDbEntity
  8
0
  6
CONTINUOUS
 62
     7
100
AcDbVertex
100
AcDb2dVertex
 10
7.2503374556
 20
6.6333136844
 30
0.0
  0
VERTEX
  5
450
330
25B
100
AcDbEntity
  8
0
  6
CONTINUOUS
 62
     7
100
AcDbVertex
100
AcDb2dVertex
 10
7.2387641096
 20
6.6375457043
 30
0.0
  0
VERTEX
  5
451
330
25B
100
AcDbEntity
  8
0
  6
CONTINUOUS
 62
     7
100
AcDbVertex
100
AcDb2dVertex
 10
7.2270195008
 20
6.6435053582
 30
0.0
  0
VERTEX
  5
452
330
25B
100
AcDbEntity
  8
0
  6
CONTINUOUS
 62
     7
100
AcDbVertex
100
AcDb2dVertex
 10
7.215274892
 20
6.651105741
 30
0.0
  0
VERTEX
  5
453
330
25B
100
AcDbEntity
  8
0
  6
CONTINUOUS
 62
     7
100
AcDbVertex
100
AcDb2dVertex
 10
7.203701546
 20
6.6602360219
 30
0.0
  0
VERTEX
  5
454
330
25B
100
AcDbEntity
  8
0
  6
CONTINUOUS
 62
     7
100
AcDbVertex
100
AcDb2dVertex
 10
7.1924682283
 20
6.670763061
 30
0.0
  0
VERTEX
  5
455
330
25B
100
AcDbEntity
  8
0
  6
CONTINUOUS
 62
     7
100
AcDbVertex
100
AcDb2dVertex
 10
7.181738746
 20
6.6825333502
 30
0.0
  0
VERTEX
  5
456
330
25B
100
AcDbEntity
  8
0
  6
CONTINUOUS
 62
     7
100
AcDbVertex
100
AcDb2dVertex
 10
7.171669559
 20
6.6953752523
 30
0.0
  0
VERTEX
  5
457
330
25B
100
AcDbEntity
  8
0
  6
CONTINUOUS
 62
     7
100
AcDbVertex
100
AcDb2dVertex
 10
7.1624074989
 20
6.7091015034
 30
0.0
  0
VERTEX
  5
458
330
25B
100
AcDbEntity
  8
0
  6
CONTINUOUS
 62
     7
100
AcDbVertex
100
AcDb2dVertex
 10
7.1540876272
 20
6.7235119438
 30
0.0
  0
VERTEX
  5
459
330
25B
100
AcDbEntity
  8
0
  6
CONTINUOUS
 62
     7
100
AcDbVertex
100
AcDb2dVertex
 10
7.1468312664
 20
6.7383964369
 30
0.0
  0
VERTEX
  5
45A
330
25B
100
AcDbEntity
  8
0
  6
CONTINUOUS
 62
     7
100
AcDbVertex
100
AcDb2dVertex
 10
7.1407442307
 20
6.7535379333
 30
0.0
  0
VERTEX
  5
45B
330
25B
100
AcDbEntity
  8
0
  6
CONTINUOUS
 62
     7
100
AcDbVertex
100
AcDb2dVertex
 10
7.1359152827
 20
6.7687156358
 30
0.0
  0
VERTEX
  5
45C
330
25B
100
AcDbEntity
  8
0
  6
CONTINUOUS
 62
     7
100
AcDbVertex
100
AcDb2dVertex
 10
7.1324148393
 20
6.7837082194
 30
0.0
  0
VERTEX
  5
45D
330
25B
100
AcDbEntity
  8
0
  6
CONTINUOUS
 62
     7
100
AcDbVertex
100
AcDb2dVertex
 10
7.130293945
 20
6.7982970585
 30
0.0
  0
VERTEX
  5
45E
330
25B
100
AcDbEntity
  8
0
  6
CONTINUOUS
 62
     7
100
AcDbVertex
100
AcDb2dVertex
 10
7.129583527
 20
6.8122694148
 30
0.0
  0
VERTEX
  5
45F
330
25B
100
AcDbEntity
  8
0
  6
CONTINUOUS
 62
     7
100
AcDbVertex
100
AcDb2dVertex
 10
7.130293945
 20
6.82542154
 30
0.0
  0
VERTEX
  5
460
330
25B
100
AcDbEntity
  8
0
  6
CONTINUOUS
 62
     7
100
AcDbVertex
100
AcDb2dVertex
 10
7.1324148393
 20
6.8375616465
 30
0.0
  0
VERTEX
  5
461
330
25B
100
AcDbEntity
  8
0
  6
CONTINUOUS
 62
     7
100
AcDbVertex
100
AcDb2dVertex
 10
7.1359152827
 20
6.8485127042
 30
0.0
  0
VERTEX
  5
462
330
25B
100
AcDbEntity
  8
0
  6
CONTINUOUS
 62
     7
100
AcDbVertex
100
AcDb2dVertex
 10
7.1407442307
 20
6.858115022
 30
0.0
  0
VERTEX
  5
463
330
25B
100
AcDbEntity
  8
0
  6
CONTINUOUS
 62
     7
100
AcDbVertex
100
AcDb2dVertex
 10
7.1468312664
 20
6.8662285766
 30
0.0
  0
VERTEX
  5
464
330
25B
100
AcDbEntity
  8
0
  6
CONTINUOUS
 62
     7
100
AcDbVertex
100
AcDb2dVertex
 10
7.1540876272
 20
6.8727350539
 30
0.0
  0
VERTEX
  5
465
330
25B
100
AcDbEntity
  8
0
  6
CONTINUOUS
 62
     7
100
AcDbVertex
100
AcDb2dVertex
 10
7.1624074989
 20
6.877539575
 30
0.0
  0
VERTEX
  5
466
330
25B
100
AcDbEntity
  8
0
  6
CONTINUOUS
 62
     7
100
AcDbVertex
100
AcDb2dVertex
 10
7.171669559
 20
6.880572079
 30
0.0
  0
VERTEX
  5
467
330
25B
100
AcDbEntity
  8
0
  6
CONTINUOUS
 62
     7
100
AcDbVertex
100
AcDb2dVertex
 10
7.181738746
 20
6.8817883453
 30
0.0
  0
VERTEX
  5
468
330
25B
100
AcDbEntity
  8
0
  6
CONTINUOUS
 62
     7
100
AcDbVertex
100
AcDb2dVertex
 10
7.1924682283
 20
6.8811706379
 30
0.0
  0
VERTEX
  5
469
330
25B
100
AcDbEntity
  8
0
  6
CONTINUOUS
 62
     7
100
AcDbVertex
100
AcDb2dVertex
 10
7.203701546
 20
6.8787279644
 30
0.0
  0
VERTEX
  5
46A
330
25B
100
AcDbEntity
  8
0
  6
CONTINUOUS
 62
     7
100
AcDbVertex
100
AcDb2dVertex
 10
7.215274892
 20
6.8744959445
 30
0.0
  0
VERTEX
  5
46B
330
25B
100
AcDbEntity
  8
0
  6
CONTINUOUS
 62
     7
100
AcDbVertex
100
AcDb2dVertex
 10
7.2270195008
 20
6.8685362906
 30
0.0
  0
SEQEND
  5
46C
330
25B
100
AcDbEntity
  8
0
  6
CONTINUOUS
 62
     7
  0
ARC
  5
25C
330
1F
100
AcDbEntity
  8
0
  6
CONTINUOUS
 62
     7
100
AcDbCircle
 10
7.2065139966
 20
6.8369644439
 30
0.0
 40
0.0774123413123283
100
AcDbArc
 50
124.9159547339
 51
186.3962256595
  0
ARC
  5
25D
330
1F
100
AcDbEntity
  8
0
  6
CONTINUOUS
 62
     7
100
AcDbCircle
 10
7.2873189536
 20
6.702409541
 30
0.0
 40
0.0814411430448227
100
AcDbArc
 50
235.269743776
 51
293.4073227653
  0
LINE
  5
25E
330
1F
100
AcDbEntity
  8
0
  6
CONTINUOUS
 62
     7
100
AcDbLine
 10
7.1713418015
 20
6.825283353
 30
0.0
 11
7.2270195008
 21
6.8302617783
 31
0.0
  0
LINE
  5
25F
330
1F
100
AcDbEntity
  8
0
  6
CONTINUOUS
 62
     7
100
AcDbLine
 10
7.1713418015
 20
6.7510423991
 30
0.0
 11
7.1713418015
 21
6.825283353
 31
0.0
  0
LINE
  5
260
330
1F
100
AcDbEntity
  8
0
  6
CONTINUOUS
 62
     7
100
AcDbLine
 10
7.2270195008
 20
6.6817798705
 30
0.0
 11
7.1713418015
 21
6.7510423991
 31
0.0
  0
LINE
  5
261
330
1F
100
AcDbEntity
  8
0
  6
CONTINUOUS
 62
     7
100
AcDbLine
 10
7.2826972001
 20
6.6867582958
 30
0.0
 11
7.2270195008
 21
6.6817798705
 31
0.0
  0
LINE
  5
262
330
1F
100
AcDbEntity
  8
0
  6
CONTINUOUS
 62
     7
100
AcDbLine
 10
7.2826972001
 20
6.7609992497
 30
0.0
 11
7.2826972001
 21
6.6867582958
 31
0.0
  0
LINE
  5
263
330
1F
100
AcDbEntity
  8
0
  6
CONTINUOUS
 62
     7
100
AcDbLine
 10
7.2270195008
 20
6.8302617783
 30
0.0
 11
7.2826972001
 21
6.7609992497
 31
0.0
  0
LINE
  5
264
330
1F
100
AcDbEntity
  8
0
  6
CONTINUOUS
 62
     7
100
AcDbLine
 10
7.2826972001
 20
6.7139219221
 30
0.0
 11
7.2270195008
 21
6.6817798705
 31
0.0
  0
LINE
  5
265
330
1F
100
AcDbEntity
  8
0
  6
CONTINUOUS
 62
     7
100
AcDbLine
 10
7.2528680106
 20
6.7981064778
 30
0.0
 11
7.1713418015
 21
6.7510423991
 31
0.0
  0
POLYLINE
  5
266
330
1F
100
AcDbEntity
  8
0
  6
CONTINUOUS
 62
     7
100
AcDb2dPolyline
 66
     1
 10
0.0
 20
0.0
 30
0.0
  0
VERTEX
  5
46D
330
266
100
AcDbEntity
  8
0
  6
CONTINUOUS
 62
     7
100
AcDbVertex
100
AcDb2dVertex
 10
7.273774624
 20
7.1366267947
 30
0.0
  0
VERTEX
  5
46E
330
266
100
AcDbEntity
  8
0
  6
CONTINUOUS
 62
     7
100
AcDbVertex
100
AcDb2dVertex
 10
7.2886182862
 20
7.1732074196
 30
0.0
  0
VERTEX
  5
46F
330
266
100
AcDbEntity
  8
0
  6
CONTINUOUS
 62
     7
100
AcDbVertex
100
AcDb2dVertex
 10
7.3046811834
 20
7.2095801293
 30
0.0
  0
VERTEX
  5
470
330
266
100
AcDbEntity
  8
0
  6
CONTINUOUS
 62
     7
100
AcDbVertex
100
AcDb2dVertex
 10
7.3219214094
 20
7.2456500314
 30
0.0
  0
VERTEX
  5
471
330
266
100
AcDbEntity
  8
0
  6
CONTINUOUS
 62
     7
100
AcDbVertex
100
AcDb2dVertex
 10
7.3402939863
 20
7.2813230237
 30
0.0
  0
VERTEX
  5
472
330
266
100
AcDbEntity
  8
0
  6
CONTINUOUS
 62
     7
100
AcDbVertex
100
AcDb2dVertex
 10
7.3597509823
 20
7.3165060394
 30
0.0
  0
VERTEX
  5
473
330
266
100
AcDbEntity
  8
0
  6
CONTINUOUS
 62
     7
100
AcDbVertex
100
AcDb2dVertex
 10
7.3802416362
 20
7.3511072901
 30
0.0
  0
VERTEX
  5
474
330
266
100
AcDbEntity
  8
0
  6
CONTINUOUS
 62
     7
100
AcDbVertex
100
AcDb2dVertex
 10
7.4017124903
 20
7.3850365051
 30
0.0
  0
VERTEX
  5
475
330
266
100
AcDbEntity
  8
0
  6
CONTINUOUS
 62
     7
100
AcDbVertex
100
AcDb2dVertex
 10
7.4241075296
 20
7.4182051668
 30
0.0
  0
VERTEX
  5
476
330
266
100
AcDbEntity
  8
0
  6
CONTINUOUS
 62
     7
100
AcDbVertex
100
AcDb2dVertex
 10
7.4473683279
 20
7.4505267422
 30
0.0
  0
VERTEX
  5
477
330
266
100
AcDbEntity
  8
0
  6
CONTINUOUS
 62
     7
100
AcDbVertex
100
AcDb2dVertex
 10
7.4714342005
 20
7.4819169078
 30
0.0
  0
VERTEX
  5
478
330
266
100
AcDbEntity
  8
0
  6
CONTINUOUS
 62
     7
100
AcDbVertex
100
AcDb2dVertex
 10
7.4962423622
 20
7.5122937702
 30
0.0
  0
VERTEX
  5
479
330
266
100
AcDbEntity
  8
0
  6
CONTINUOUS
 62
     7
100
AcDbVertex
100
AcDb2dVertex
 10
7.5217280915
 20
7.5415780799
 30
0.0
  0
VERTEX
  5
47A
330
266
100
AcDbEntity
  8
0
  6
CONTINUOUS
 62
     7
100
AcDbVertex
100
AcDb2dVertex
 10
7.547824899
 20
7.5696934372
 30
0.0
  0
VERTEX
  5
47B
330
266
100
AcDbEntity
  8
0
  6
CONTINUOUS
 62
     7
100
AcDbVertex
100
AcDb2dVertex
 10
7.574464701
 20
7.5965664925
 30
0.0
  0
VERTEX
  5
47C
330
266
100
AcDbEntity
  8
0
  6
CONTINUOUS
 62
     7
100
AcDbVertex
100
AcDb2dVertex
 10
7.6015779974
 20
7.622127137
 30
0.0
  0
VERTEX
  5
47D
330
266
100
AcDbEntity
  8
0
  6
CONTINUOUS
 62
     7
100
AcDbVertex
100
AcDb2dVertex
 10
7.6290940527
 20
7.6463086859
 30
0.0
  0
VERTEX
  5
47E
330
266
100
AcDbEntity
  8
0
  6
CONTINUOUS
 62
     7
100
AcDbVertex
100
AcDb2dVertex
 10
7.6569410805
 20
7.6690480524
 30
0.0
  0
VERTEX
  5
47F
330
266
100
AcDbEntity
  8
0
  6
CONTINUOUS
 62
     7
100
AcDbVertex
100
AcDb2dVertex
 10
7.6850464313
 20
7.690285912
 30
0.0
  0
VERTEX
  5
480
330
266
100
AcDbEntity
  8
0
  6
CONTINUOUS
 62
     7
100
AcDbVertex
100
AcDb2dVertex
 10
7.7133367814
 20
7.7099668575
 30
0.0
  0
VERTEX
  5
481
330
266
100
AcDbEntity
  8
0
  6
CONTINUOUS
 62
     7
100
AcDbVertex
100
AcDb2dVertex
 10
7.7417383244
 20
7.7280395436
 30
0.0
  0
VERTEX
  5
482
330
266
100
AcDbEntity
  8
0
  6
CONTINUOUS
 62
     7
100
AcDbVertex
100
AcDb2dVertex
 10
7.770176964
 20
7.7444568208
 30
0.0
  0
VERTEX
  5
483
330
266
100
AcDbEntity
  8
0
  6
CONTINUOUS
 62
     7
100
AcDbVertex
100
AcDb2dVertex
 10
7.798578507
 20
7.7591758583
 30
0.0
  0
VERTEX
  5
484
330
266
100
AcDbEntity
  8
0
  6
CONTINUOUS
 62
     7
100
AcDbVertex
100
AcDb2dVertex
 10
7.8268688571
 20
7.7721582556
 30
0.0
  0
VERTEX
  5
485
330
266
100
AcDbEntity
  8
0
  6
CONTINUOUS
 62
     7
100
AcDbVertex
100
AcDb2dVertex
 10
7.8549742079
 20
7.7833701434
 30
0.0
  0
VERTEX
  5
486
330
266
100
AcDbEntity
  8
0
  6
CONTINUOUS
 62
     7
100
AcDbVertex
100
AcDb2dVertex
 10
7.8828212358
 20
7.792782271
 30
0.0
  0
VERTEX
  5
487
330
266
100
AcDbEntity
  8
0
  6
CONTINUOUS
 62
     7
100
AcDbVertex
100
AcDb2dVertex
 10
7.910337291
 20
7.8003700832
 30
0.0
  0
VERTEX
  5
488
330
266
100
AcDbEntity
  8
0
  6
CONTINUOUS
 62
     7
100
AcDbVertex
100
AcDb2dVertex
 10
7.9374505874
 20
7.8061137844
 30
0.0
  0
VERTEX
  5
489
330
266
100
AcDbEntity
  8
0
  6
CONTINUOUS
 62
     7
100
AcDbVertex
100
AcDb2dVertex
 10
7.9640903894
 20
7.8099983898
 30
0.0
  0
VERTEX
  5
48A
330
266
100
AcDbEntity
  8
0
  6
CONTINUOUS
 62
     7
100
AcDbVertex
100
AcDb2dVertex
 10
7.9901871969
 20
7.812013765
 30
0.0
  0
VERTEX
  5
48B
330
266
100
AcDbEntity
  8
0
  6
CONTINUOUS
 62
     7
100
AcDbVertex
100
AcDb2dVertex
 10
8.0156729262
 20
7.8121546521
 30
0.0
  0
VERTEX
  5
48C
330
266
100
AcDbEntity
  8
0
  6
CONTINUOUS
 62
     7
100
AcDbVertex
100
AcDb2dVertex
 10
8.0404810879
 20
7.8104206835
 30
0.0
  0
VERTEX
  5
48D
330
266
100
AcDbEntity
  8
0
  6
CONTINUOUS
 62
     7
100
AcDbVertex
100
AcDb2dVertex
 10
8.0645469605
 20
7.806816383
 30
0.0
  0
VERTEX
  5
48E
330
266
100
AcDbEntity
  8
0
  6
CONTINUOUS
 62
     7
100
AcDbVertex
100
AcDb2dVertex
 10
8.0878077589
 20
7.8013511537
 30
0.0
  0
VERTEX
  5
48F
330
266
100
AcDbEntity
  8
0
  6
CONTINUOUS
 62
     7
100
AcDbVertex
100
AcDb2dVertex
 10
8.1102027981
 20
7.7940392539
 30
0.0
  0
VERTEX
  5
490
330
266
100
AcDbEntity
  8
0
  6
CONTINUOUS
 62
     7
100
AcDbVertex
100
AcDb2dVertex
 10
8.1316736522
 20
7.7848997594
 30
0.0
  0
VERTEX
  5
491
330
266
100
AcDbEntity
  8
0
  6
CONTINUOUS
 62
     7
100
AcDbVertex
100
AcDb2dVertex
 10
8.1521643061
 20
7.7739565141
 30
0.0
  0
VERTEX
  5
492
330
266
100
AcDbEntity
  8
0
  6
CONTINUOUS
 62
     7
100
AcDbVertex
100
AcDb2dVertex
 10
8.1716213021
 20
7.7612380678
 30
0.0
  0
VERTEX
  5
493
330
266
100
AcDbEntity
  8
0
  6
CONTINUOUS
 62
     7
100
AcDbVertex
100
AcDb2dVertex
 10
8.1764800413
 20
7.7576628997
 30
0.0
  0
SEQEND
  5
494
330
266
100
AcDbEntity
  8
0
  6
CONTINUOUS
 62
     7
  0
LINE
  5
267
330
1F
100
AcDbEntity
  8
0
  6
CONTINUOUS
 62
     7
100
AcDbLine
 10
7.273774624
 20
7.1366267947
 30
0.0
 11
7.5243242708
 21
6.9919875623
 31
0.0
  0
ARC
  5
268
330
1F
100
AcDbEntity
  8
0
  6
CONTINUOUS
 62
     7
100
AcDbCircle
 10
8.1673113331
 20
6.6705148017
 30
0.0
 40
0.7188721012624317
100
AcDbArc
 50
153.4364295104
 51
206.5635704896
  0
LINE
  5
269
330
1F
100
AcDbEntity
  8
0
  6
CONTINUOUS
 62
     7
100
AcDbLine
 10
7.5243242708
 20
6.3490420411
 30
0.0
 11
7.273774624
 21
6.4936812735
 31
0.0
  0
ARC
  5
26A
330
1F
100
AcDbEntity
  8
0
  6
CONTINUOUS
 62
     7
100
AcDbCircle
 10
7.5000737324
 20
6.6493600515
 30
0.0
 40
0.2746764794350798
100
AcDbArc
 50
214.5253924204
 51
246.6287256145
  0
SPLINE
  5
26B
330
1F
100
AcDbEntity
  8
0
  6
CONTINUOUS
 62
     7
100
AcDbSpline
210
0.0
220
0.0
230
1.0
 70
     8
 71
     3
 72
    58
 73
    54
 74
     0
 42
0.00000001
 43
0.00000001
 40
-0.0312499999999999
 40
-0.0312499999999999
 40
0.0
 40
0.0
 40
0.0312500000000001
 40
0.0312500000000001
 40
0.0625000000000001
 40
0.0625000000000001
 40
0.0937500000000002
 40
0.0937500000000002
 40
0.1250000000000002
 40
0.1250000000000002
 40
0.1875000000000002
 40
0.1875000000000002
 40
0.2500000000000002
 40
0.2500000000000002
 40
0.2812500000000003
 40
0.2812500000000003
 40
0.3125000000000004
 40
0.3125000000000004
 40
0.3750000000000006
 40
0.3750000000000006
 40
0.4062500000000007
 40
0.4062500000000007
 40
0.4375000000000008
 40
0.4375000000000008
 40
0.4687500000000009
 40
0.4687500000000009
 40
0.500000000000001
 40
0.500000000000001
 40
0.5625000000000012
 40
0.5625000000000012
 40
0.5937500000000013
 40
0.5937500000000013
 40
0.6250000000000013
 40
0.6250000000000013
 40
0.6562500000000014
 40
0.6562500000000014
 40
0.6875000000000014
 40
0.6875000000000014
 40
0.7500000000000011
 40
0.7500000000000011
 40
0.781250000000001
 40
0.781250000000001
 40
0.8125000000000009
 40
0.8125000000000009
 40
0.8437500000000007
 40
0.8437500000000007
 40
0.8750000000000006
 40
0.8750000000000006
 40
0.9375000000000003
 40
0.9375000000000003
 40
0.9687500000000001
 40
0.9687500000000001
 40
1.0
 40
1.0
 40
1.03125
 40
1.03125
 10
7.338374899409922
 20
6.700254933093015
 30
0.0
 10
7.338374899409922
 20
6.683218509117926
 30
0.0
 10
7.337795623374927
 20
6.675350339501358
 30
0.0
 10
7.335513098004136
 20
6.660848254960968
 30
0.0
 10
7.333780848381883
 20
6.654152099875963
 30
0.0
 10
7.32922156111584
 20
6.642418910576048
 30
0.0
 10
7.326414387171201
 20
6.637371484136906
 30
0.0
 10
7.319685874366408
 20
6.628855177102422
 30
0.0
 10
7.315736265799784
 20
6.625397425202327
 30
0.0
 10
7.302563638655487
 20
6.61779548644811
 30
0.0
 10
7.291645615533274
 20
6.616228583763683
 30
0.0
 10
7.266955164927415
 20
6.620054953307696
 30
0.0
 10
7.252898278799893
 20
6.625488232963288
 30
0.0
 10
7.231053307706095
 20
6.638087113086509
 30
0.0
 10
7.223503716043875
 20
6.643112237785933
 30
0.0
 10
7.208638047032019
 20
6.654325938740815
 30
0.0
 10
7.201270603056782
 20
6.660531327476859
 30
0.0
 10
7.179436135514059
 20
6.681004037340886
 30
0.0
 10
7.165725416357008
 20
6.696681070814473
 30
0.0
 10
7.14798015657141
 20
6.722287290852633
 30
0.0
 10
7.14265962448851
 20
6.730988801100164
 30
0.0
 10
7.133247676767711
 20
6.748769818168059
 30
0.0
 10
7.129123517980718
 20
6.75795411854621
 30
0.0
 10
7.122501771120108
 20
6.776122838558843
 30
0.0
 10
7.119976277549711
 20
6.785121599800836
 30
0.0
 10
7.11654776269423
 20
6.802976308543837
 30
0.0
 10
7.115667651714197
 20
6.811848381604122
 30
0.0
 10
7.115657036043241
 20
6.837061683383356
 30
0.0
 10
7.119188098445888
 20
6.852684402878293
 30
0.0
 10
7.129061648863402
 20
6.871993326300132
 30
0.0
 10
7.133158068251537
 20
6.877858747046135
 30
0.0
 10
7.142617706856921
 20
6.887964505238084
 30
0.0
 10
7.147936029939168
 20
6.892193270720482
 30
0.0
 10
7.159658525526577
 20
6.898982993271005
 30
0.0
 10
7.166116128771813
 20
6.901537247696897
 30
0.0
 10
7.179528008719664
 20
6.904680383513235
 30
0.0
 10
7.186535124074505
 20
6.905314614607036
 30
0.0
 10
7.208384026179692
 20
6.904266803395297
 30
0.0
 10
7.223481611828958
 20
6.899625862645799
 30
0.0
 10
7.245544304419439
 20
6.886910991736729
 30
0.0
 10
7.252639698601481
 20
6.881817567702827
 30
0.0
 10
7.266346630928132
 20
6.869983666838944
 30
0.0
 10
7.273021716540105
 20
6.863154909618297
 30
0.0
 10
7.285428284895606
 20
6.848346491133429
 30
0.0
 10
7.291201374167925
 20
6.84035401728869
 30
0.0
 10
7.301961611545328
 20
6.823224578905698
 30
0.0
 10
7.306914637128228
 20
6.814112597723155
 30
0.0
 10
7.320086310523509
 20
6.786259714350004
 30
0.0
 10
7.326929836569963
 20
6.766315079332883
 30
0.0
 10
7.333742773804794
 20
6.737396880375827
 30
0.0
 10
7.335484562417826
 20
6.727749175120401
 30
0.0
 10
7.337795563750932
 20
6.709166038773594
 30
0.0
 10
7.338374899409922
 20
6.700254933093015
 30
0.0
 10
7.338374899409922
 20
6.683218509117926
 30
0.0
  0
ARC
  5
26C
330
1F
100
AcDbEntity
  8
0
  6
CONTINUOUS
 62
     7
100
AcDbCircle
 10
7.3968538317
 20
6.8450400259
 30
0.0
 40
0.3945323831895515
100
AcDbArc
 50
174.2468516044
 51
234.4409680022
  0
POLYLINE
  5
26D
330
1F
100
AcDbEntity
  8
0
  6
CONTINUOUS
 62
     7
100
AcDb2dPolyline
 66
     1
 10
0.0
 20
0.0
 30
0.0
  0
VERTEX
  5
495
330
26D
100
AcDbEntity
  8
0
  6
CONTINUOUS
 62
     7
100
AcDbVertex
100
AcDb2dVertex
 10
7.954754489
 20
7.8879377855
 30
0.0
  0
VERTEX
  5
496
330
26D
100
AcDbEntity
  8
0
  6
CONTINUOUS
 62
     7
100
AcDbVertex
100
AcDb2dVertex
 10
7.9370954669
 20
7.897256123
 30
0.0
  0
VERTEX
  5
497
330
26D
100
AcDbEntity
  8
0
  6
CONTINUOUS
 62
     7
100
AcDbVertex
100
AcDb2dVertex
 10
7.915988709
 20
7.9062887339
 30
0.0
  0
VERTEX
  5
498
330
26D
100
AcDbEntity
  8
0
  6
CONTINUOUS
 62
     7
100
AcDbVertex
100
AcDb2dVertex
 10
7.8939854352
 20
7.9135523787
 30
0.0
  0
VERTEX
  5
499
330
26D
100
AcDbEntity
  8
0
  6
CONTINUOUS
 62
     7
100
AcDbVertex
100
AcDb2dVertex
 10
7.8711412279
 20
7.919028709
 30
0.0
  0
VERTEX
  5
49A
330
26D
100
AcDbEntity
  8
0
  6
CONTINUOUS
 62
     7
100
AcDbVertex
100
AcDb2dVertex
 10
7.8475137934
 20
7.922703891
 30
0.0
  0
VERTEX
  5
49B
330
26D
100
AcDbEntity
  8
0
  6
CONTINUOUS
 62
     7
100
AcDbVertex
100
AcDb2dVertex
 10
7.8231628166
 20
7.9245686408
 30
0.0
  0
VERTEX
  5
49C
330
26D
100
AcDbEntity
  8
0
  6
CONTINUOUS
 62
     7
100
AcDbVertex
100
AcDb2dVertex
 10
7.7981498103
 20
7.9246182481
 30
0.0
  0
VERTEX
  5
49D
330
26D
100
AcDbEntity
  8
0
  6
CONTINUOUS
 62
     7
100
AcDbVertex
100
AcDb2dVertex
 10
7.7725379595
 20
7.9228525873
 30
0.0
  0
VERTEX
  5
49E
330
26D
100
AcDbEntity
  8
0
  6
CONTINUOUS
 62
     7
100
AcDbVertex
100
AcDb2dVertex
 10
7.7463919619
 20
7.9192761189
 30
0.0
  0
VERTEX
  5
49F
330
26D
100
AcDbEntity
  8
0
  6
CONTINUOUS
 62
     7
100
AcDbVertex
100
AcDb2dVertex
 10
7.7197778646
 20
7.9138978772
 30
0.0
  0
VERTEX
  5
4A0
330
26D
100
AcDbEntity
  8
0
  6
CONTINUOUS
 62
     7
100
AcDbVertex
100
AcDb2dVertex
 10
7.6927628971
 20
7.9067314481
 30
0.0
  0
VERTEX
  5
4A1
330
26D
100
AcDbEntity
  8
0
  6
CONTINUOUS
 62
     7
100
AcDbVertex
100
AcDb2dVertex
 10
7.6654153015
 20
7.8977949347
 30
0.0
  0
VERTEX
  5
4A2
330
26D
100
AcDbEntity
  8
0
  6
CONTINUOUS
 62
     7
100
AcDbVertex
100
AcDb2dVertex
 10
7.6378041604
 20
7.8871109114
 30
0.0
  0
VERTEX
  5
4A3
330
26D
100
AcDbEntity
  8
0
  6
CONTINUOUS
 62
     7
100
AcDbVertex
100
AcDb2dVertex
 10
7.6099992217
 20
7.8747063669
 30
0.0
  0
VERTEX
  5
4A4
330
26D
100
AcDbEntity
  8
0
  6
CONTINUOUS
 62
     7
100
AcDbVertex
100
AcDb2dVertex
 10
7.5820707232
 20
7.8606126362
 30
0.0
  0
VERTEX
  5
4A5
330
26D
100
AcDbEntity
  8
0
  6
CONTINUOUS
 62
     7
100
AcDbVertex
100
AcDb2dVertex
 10
7.5540892147
 20
7.8448653213
 30
0.0
  0
VERTEX
  5
4A6
330
26D
100
AcDbEntity
  8
0
  6
CONTINUOUS
 62
     7
100
AcDbVertex
100
AcDb2dVertex
 10
7.52612538
 20
7.8275042013
 30
0.0
  0
VERTEX
  5
4A7
330
26D
100
AcDbEntity
  8
0
  6
CONTINUOUS
 62
     7
100
AcDbVertex
100
AcDb2dVertex
 10
7.498249858
 20
7.8085731318
 30
0.0
  0
VERTEX
  5
4A8
330
26D
100
AcDbEntity
  8
0
  6
CONTINUOUS
 62
     7
100
AcDbVertex
100
AcDb2dVertex
 10
7.4705330648
 20
7.7881199344
 30
0.0
  0
VERTEX
  5
4A9
330
26D
100
AcDbEntity
  8
0
  6
CONTINUOUS
 62
     7
100
AcDbVertex
100
AcDb2dVertex
 10
7.4430450155
 20
7.7661962757
 30
0.0
  0
VERTEX
  5
4AA
330
26D
100
AcDbEntity
  8
0
  6
CONTINUOUS
 62
     7
100
AcDbVertex
100
AcDb2dVertex
 10
7.4158551471
 20
7.7428575367
 30
0.0
  0
VERTEX
  5
4AB
330
26D
100
AcDbEntity
  8
0
  6
CONTINUOUS
 62
     7
100
AcDbVertex
100
AcDb2dVertex
 10
7.3890321437
 20
7.7181626731
 30
0.0
  0
VERTEX
  5
4AC
330
26D
100
AcDbEntity
  8
0
  6
CONTINUOUS
 62
     7
100
AcDbVertex
100
AcDb2dVertex
 10
7.3626437625
 20
7.6921740662
 30
0.0
  0
VERTEX
  5
4AD
330
26D
100
AcDbEntity
  8
0
  6
CONTINUOUS
 62
     7
100
AcDbVertex
100
AcDb2dVertex
 10
7.3367566629
 20
7.6649573655
 30
0.0
  0
VERTEX
  5
4AE
330
26D
100
AcDbEntity
  8
0
  6
CONTINUOUS
 62
     7
100
AcDbVertex
100
AcDb2dVertex
 10
7.3114362378
 20
7.6365813229
 30
0.0
  0
VERTEX
  5
4AF
330
26D
100
AcDbEntity
  8
0
  6
CONTINUOUS
 62
     7
100
AcDbVertex
100
AcDb2dVertex
 10
7.286746449
 20
7.6071176185
 30
0.0
  0
VERTEX
  5
4B0
330
26D
100
AcDbEntity
  8
0
  6
CONTINUOUS
 62
     7
100
AcDbVertex
100
AcDb2dVertex
 10
7.2627496649
 20
7.5766406804
 30
0.0
  0
VERTEX
  5
4B1
330
26D
100
AcDbEntity
  8
0
  6
CONTINUOUS
 62
     7
100
AcDbVertex
100
AcDb2dVertex
 10
7.2395065035
 20
7.5452274958
 30
0.0
  0
VERTEX
  5
4B2
330
26D
100
AcDbEntity
  8
0
  6
CONTINUOUS
 62
     7
100
AcDbVertex
100
AcDb2dVertex
 10
7.2170756791
 20
7.5129574173
 30
0.0
  0
VERTEX
  5
4B3
330
26D
100
AcDbEntity
  8
0
  6
CONTINUOUS
 62
     7
100
AcDbVertex
100
AcDb2dVertex
 10
7.1955138539
 20
7.4799119618
 30
0.0
  0
VERTEX
  5
4B4
330
26D
100
AcDbEntity
  8
0
  6
CONTINUOUS
 62
     7
100
AcDbVertex
100
AcDb2dVertex
 10
7.1748754948
 20
7.4461746051
 30
0.0
  0
VERTEX
  5
4B5
330
26D
100
AcDbEntity
  8
0
  6
CONTINUOUS
 62
     7
100
AcDbVertex
100
AcDb2dVertex
 10
7.1552127362
 20
7.4118305705
 30
0.0
  0
VERTEX
  5
4B6
330
26D
100
AcDbEntity
  8
0
  6
CONTINUOUS
 62
     7
100
AcDbVertex
100
AcDb2dVertex
 10
7.136575248
 20
7.3769666142
 30
0.0
  0
VERTEX
  5
4B7
330
26D
100
AcDbEntity
  8
0
  6
CONTINUOUS
 62
     7
100
AcDbVertex
100
AcDb2dVertex
 10
7.11901011
 20
7.3416708055
 30
0.0
  0
VERTEX
  5
4B8
330
26D
100
AcDbEntity
  8
0
  6
CONTINUOUS
 62
     7
100
AcDbVertex
100
AcDb2dVertex
 10
7.1025616932
 20
7.3060323047
 30
0.0
  0
VERTEX
  5
4B9
330
26D
100
AcDbEntity
  8
0
  6
CONTINUOUS
 62
     7
100
AcDbVertex
100
AcDb2dVertex
 10
7.0872715479
 20
7.2701411378
 30
0.0
  0
VERTEX
  5
4BA
330
26D
100
AcDbEntity
  8
0
  6
CONTINUOUS
 62
     7
100
AcDbVertex
100
AcDb2dVertex
 10
7.0731782983
 20
7.2340879688
 30
0.0
  0
VERTEX
  5
4BB
330
26D
100
AcDbEntity
  8
0
  6
CONTINUOUS
 62
     7
100
AcDbVertex
100
AcDb2dVertex
 10
7.0603175451
 20
7.1979638714
 30
0.0
  0
VERTEX
  5
4BC
330
26D
100
AcDbEntity
  8
0
  6
CONTINUOUS
 62
     7
100
AcDbVertex
100
AcDb2dVertex
 10
7.0487217757
 20
7.161860098
 30
0.0
  0
VERTEX
  5
4BD
330
26D
100
AcDbEntity
  8
0
  6
CONTINUOUS
 62
     7
100
AcDbVertex
100
AcDb2dVertex
 10
7.0384202821
 20
7.12586785
 30
0.0
  0
VERTEX
  5
4BE
330
26D
100
AcDbEntity
  8
0
  6
CONTINUOUS
 62
     7
100
AcDbVertex
100
AcDb2dVertex
 10
7.0294390866
 20
7.0900780468
 30
0.0
  0
VERTEX
  5
4BF
330
26D
100
AcDbEntity
  8
0
  6
CONTINUOUS
 62
     7
100
AcDbVertex
100
AcDb2dVertex
 10
7.0218008767
 20
7.0545810967
 30
0.0
  0
VERTEX
  5
4C0
330
26D
100
AcDbEntity
  8
0
  6
CONTINUOUS
 62
     7
100
AcDbVertex
100
AcDb2dVertex
 10
7.0155249469
 20
7.019466668
 30
0.0
  0
VERTEX
  5
4C1
330
26D
100
AcDbEntity
  8
0
  6
CONTINUOUS
 62
     7
100
AcDbVertex
100
AcDb2dVertex
 10
7.010627151
 20
6.9848234627
 30
0.0
  0
VERTEX
  5
4C2
330
26D
100
AcDbEntity
  8
0
  6
CONTINUOUS
 62
     7
100
AcDbVertex
100
AcDb2dVertex
 10
7.0071198612
 20
6.9507389928
 30
0.0
  0
VERTEX
  5
4C3
330
26D
100
AcDbEntity
  8
0
  6
CONTINUOUS
 62
     7
100
AcDbVertex
100
AcDb2dVertex
 10
7.0050119371
 20
6.9172993584
 30
0.0
  0
VERTEX
  5
4C4
330
26D
100
AcDbEntity
  8
0
  6
CONTINUOUS
 62
     7
100
AcDbVertex
100
AcDb2dVertex
 10
7.0043087036
 20
6.884589031
 30
0.0
  0
SEQEND
  5
4C5
330
26D
100
AcDbEntity
  8
0
  6
CONTINUOUS
 62
     7
  0
LINE
  5
26E
330
1F
100
AcDbEntity
  8
0
  6
CONTINUOUS
 62
     7
100
AcDbLine
 10
7.5521631205
 20
7.0080585881
 30
0.0
 11
7.5243242708
 21
6.9919875623
 31
0.0
  0
LINE
  5
26F
330
1F
100
AcDbEntity
  8
0
  6
CONTINUOUS
 62
     7
100
AcDbLine
 10
7.537130667
 20
6.3564350163
 30
0.0
 11
7.5243242708
 21
6.3490420411
 31
0.0
  0
ARC
  5
270
330
1F
100
AcDbEntity
  8
0
  6
CONTINUOUS
 62
     7
100
AcDbCircle
 10
8.3962584002
 20
6.727758157
 30
0.0
 40
1.139141837819374
100
AcDbArc
 50
122.5290723814
 51
158.8227159475
  0
SPLINE
  5
271
330
1F
100
AcDbEntity
  8
0
  6
CONTINUOUS
 62
     7
100
AcDbSpline
210
0.0
220
0.0
230
1.0
 70
     8
 71
     3
 72
     8
 73
     4
 74
     0
 42
0.00000001
 43
0.00000001
 40
0.0
 40
0.0
 40
0.0
 40
0.0
 40
0.0007676680295986
 40
0.0007676680295986
 40
0.0007676680295986
 40
0.0007676680295986
 10
7.334046113590586
 20
7.139278733414913
 30
0.0
 10
7.313962979007322
 20
7.138340658782908
 30
0.0
 10
7.293871659872782
 20
7.137459764459386
 30
0.0
 10
7.273774623972217
 20
7.1366267947157
 30
0.0
  0
ARC
  5
272
330
1F
100
AcDbEntity
  8
0
  6
CONTINUOUS
 62
     7
100
AcDbCircle
 10
8.1505726069
 20
6.8657059977
 30
0.0
 40
1.147399013160544
100
AcDbArc
 50
122.5541729265
 51
177.4512036062
  0
LINE
  5
273
330
1F
100
AcDbEntity
  8
0
  6
CONTINUOUS
 62
     7
100
AcDbLine
 10
8.6143258136
 20
7.4866497686
 30
0.0
 11
8.8370366108
 21
7.358081562
 31
0.0
  0
POLYLINE
  5
274
330
1F
100
AcDbEntity
  8
0
  6
CONTINUOUS
 62
     7
100
AcDb2dPolyline
 66
     1
 10
0.0
 20
0.0
 30
0.0
  0
VERTEX
  5
4C6
330
274
100
AcDbEntity
  8
0
  6
CONTINUOUS
 62
     7
100
AcDbVertex
100
AcDb2dVertex
 10
8.0169674936
 20
7.1460772113
 30
0.0
  0
VERTEX
  5
4C7
330
274
100
AcDbEntity
  8
0
  6
CONTINUOUS
 62
     7
100
AcDbVertex
100
AcDb2dVertex
 10
8.0416306357
 20
7.1771665948
 30
0.0
  0
VERTEX
  5
4C8
330
274
100
AcDbEntity
  8
0
  6
CONTINUOUS
 62
     7
100
AcDbVertex
100
AcDb2dVertex
 10
8.0670119669
 20
7.2071828836
 30
0.0
  0
VERTEX
  5
4C9
330
274
100
AcDbEntity
  8
0
  6
CONTINUOUS
 62
     7
100
AcDbVertex
100
AcDb2dVertex
 10
8.0930442488
 20
7.2360465608
 30
0.0
  0
VERTEX
  5
4CA
330
274
100
AcDbEntity
  8
0
  6
CONTINUOUS
 62
     7
100
AcDbVertex
100
AcDb2dVertex
 10
8.1196585186
 20
7.2636811627
 30
0.0
  0
VERTEX
  5
4CB
330
274
100
AcDbEntity
  8
0
  6
CONTINUOUS
 62
     7
100
AcDbVertex
100
AcDb2dVertex
 10
8.1467842716
 20
7.2900134817
 30
0.0
  0
VERTEX
  5
4CC
330
274
100
AcDbEntity
  8
0
  6
CONTINUOUS
 62
     7
100
AcDbVertex
100
AcDb2dVertex
 10
8.1743496484
 20
7.3149737603
 30
0.0
  0
VERTEX
  5
4CD
330
274
100
AcDbEntity
  8
0
  6
CONTINUOUS
 62
     7
100
AcDbVertex
100
AcDb2dVertex
 10
8.2022816246
 20
7.3384958754
 30
0.0
  0
VERTEX
  5
4CE
330
274
100
AcDbEntity
  8
0
  6
CONTINUOUS
 62
     7
100
AcDbVertex
100
AcDb2dVertex
 10
8.230506205
 20
7.360517514
 30
0.0
  0
VERTEX
  5
4CF
330
274
100
AcDbEntity
  8
0
  6
CONTINUOUS
 62
     7
100
AcDbVertex
100
AcDb2dVertex
 10
8.258948619
 20
7.3809803379
 30
0.0
  0
VERTEX
  5
4D0
330
274
100
AcDbEntity
  8
0
  6
CONTINUOUS
 62
     7
100
AcDbVertex
100
AcDb2dVertex
 10
8.287533519
 20
7.3998301385
 30
0.0
  0
VERTEX
  5
4D1
330
274
100
AcDbEntity
  8
0
  6
CONTINUOUS
 62
     7
100
AcDbVertex
100
AcDb2dVertex
 10
8.3161851799
 20
7.4170169803
 30
0.0
  0
VERTEX
  5
4D2
330
274
100
AcDbEntity
  8
0
  6
CONTINUOUS
 62
     7
100
AcDbVertex
100
AcDb2dVertex
 10
8.3448277
 20
7.4324953331
 30
0.0
  0
VERTEX
  5
4D3
330
274
100
AcDbEntity
  8
0
  6
CONTINUOUS
 62
     7
100
AcDbVertex
100
AcDb2dVertex
 10
8.3733852014
 20
7.4462241928
 30
0.0
  0
VERTEX
  5
4D4
330
274
100
AcDbEntity
  8
0
  6
CONTINUOUS
 62
     7
100
AcDbVertex
100
AcDb2dVertex
 10
8.4017820318
 20
7.4581671899
 30
0.0
  0
VERTEX
  5
4D5
330
274
100
AcDbEntity
  8
0
  6
CONTINUOUS
 62
     7
100
AcDbVertex
100
AcDb2dVertex
 10
8.4299429642
 20
7.4682926859
 30
0.0
  0
VERTEX
  5
4D6
330
274
100
AcDbEntity
  8
0
  6
CONTINUOUS
 62
     7
100
AcDbVertex
100
AcDb2dVertex
 10
8.4577933969
 20
7.476573857
 30
0.0
  0
VERTEX
  5
4D7
330
274
100
AcDbEntity
  8
0
  6
CONTINUOUS
 62
     7
100
AcDbVertex
100
AcDb2dVertex
 10
8.4852595503
 20
7.4829887654
 30
0.0
  0
VERTEX
  5
4D8
330
274
100
AcDbEntity
  8
0
  6
CONTINUOUS
 62
     7
100
AcDbVertex
100
AcDb2dVertex
 10
8.5122686633
 20
7.4875204171
 30
0.0
  0
VERTEX
  5
4D9
330
274
100
AcDbEntity
  8
0
  6
CONTINUOUS
 62
     7
100
AcDbVertex
100
AcDb2dVertex
 10
8.5387491851
 20
7.4901568073
 30
0.0
  0
VERTEX
  5
4DA
330
274
100
AcDbEntity
  8
0
  6
CONTINUOUS
 62
     7
100
AcDbVertex
100
AcDb2dVertex
 10
8.5646309656
 20
7.4908909517
 30
0.0
  0
VERTEX
  5
4DB
330
274
100
AcDbEntity
  8
0
  6
CONTINUOUS
 62
     7
100
AcDbVertex
100
AcDb2dVertex
 10
8.5898454405
 20
7.4897209056
 30
0.0
  0
VERTEX
  5
4DC
330
274
100
AcDbEntity
  8
0
  6
CONTINUOUS
 62
     7
100
AcDbVertex
100
AcDb2dVertex
 10
8.6143258136
 20
7.4866497686
 30
0.0
  0
SEQEND
  5
4DD
330
274
100
AcDbEntity
  8
0
  6
CONTINUOUS
 62
     7
  0
LINE
  5
275
330
1F
100
AcDbEntity
  8
0
  6
CONTINUOUS
 62
     7
100
AcDbLine
 10
8.2396782908
 20
7.0175090047
 30
0.0
 11
8.0169674936
 21
7.1460772113
 31
0.0
  0
POLYLINE
  5
276
330
1F
100
AcDbEntity
  8
0
  6
CONTINUOUS
 62
     7
100
AcDb2dPolyline
 66
     1
 10
0.0
 20
0.0
 30
0.0
  0
VERTEX
  5
4DE
330
276
100
AcDbEntity
  8
0
  6
CONTINUOUS
 62
     7
100
AcDbVertex
100
AcDb2dVertex
 10
8.1706007367
 20
5.947231059
 30
0.0
  0
VERTEX
  5
4DF
330
276
100
AcDbEntity
  8
0
  6
CONTINUOUS
 62
     7
100
AcDbVertex
100
AcDb2dVertex
 10
8.1670145819
 20
5.9487843461
 30
0.0
  0
VERTEX
  5
4E0
330
276
100
AcDbEntity
  8
0
  6
CONTINUOUS
 62
     7
100
AcDbVertex
100
AcDb2dVertex
 10
8.1465205335
 20
5.9589220263
 30
0.0
  0
VERTEX
  5
4E1
330
276
100
AcDbEntity
  8
0
  6
CONTINUOUS
 62
     7
100
AcDbVertex
100
AcDb2dVertex
 10
8.1270074933
 20
5.9707865172
 30
0.0
  0
VERTEX
  5
4E2
330
276
100
AcDbEntity
  8
0
  6
CONTINUOUS
 62
     7
100
AcDbVertex
100
AcDb2dVertex
 10
8.1085246799
 20
5.9843478924
 30
0.0
  0
VERTEX
  5
4E3
330
276
100
AcDbEntity
  8
0
  6
CONTINUOUS
 62
     7
100
AcDbVertex
100
AcDb2dVertex
 10
8.0911187139
 20
5.9995719453
 30
0.0
  0
VERTEX
  5
4E4
330
276
100
AcDbEntity
  8
0
  6
CONTINUOUS
 62
     7
100
AcDbVertex
100
AcDb2dVertex
 10
8.0748334991
 20
6.0164202753
 30
0.0
  0
VERTEX
  5
4E5
330
276
100
AcDbEntity
  8
0
  6
CONTINUOUS
 62
     7
100
AcDbVertex
100
AcDb2dVertex
 10
8.0597101129
 20
6.0348503849
 30
0.0
  0
VERTEX
  5
4E6
330
276
100
AcDbEntity
  8
0
  6
CONTINUOUS
 62
     7
100
AcDbVertex
100
AcDb2dVertex
 10
8.0457867018
 20
6.0548157867
 30
0.0
  0
VERTEX
  5
4E7
330
276
100
AcDbEntity
  8
0
  6
CONTINUOUS
 62
     7
100
AcDbVertex
100
AcDb2dVertex
 10
8.0330983856
 20
6.076266121
 30
0.0
  0
VERTEX
  5
4E8
330
276
100
AcDbEntity
  8
0
  6
CONTINUOUS
 62
     7
100
AcDbVertex
100
AcDb2dVertex
 10
8.0216771688
 20
6.0991472821
 30
0.0
  0
VERTEX
  5
4E9
330
276
100
AcDbEntity
  8
0
  6
CONTINUOUS
 62
     7
100
AcDbVertex
100
AcDb2dVertex
 10
8.0115518599
 20
6.1234015556
 30
0.0
  0
VERTEX
  5
4EA
330
276
100
AcDbEntity
  8
0
  6
CONTINUOUS
 62
     7
100
AcDbVertex
100
AcDb2dVertex
 10
8.0027479984
 20
6.1489677636
 30
0.0
  0
VERTEX
  5
4EB
330
276
100
AcDbEntity
  8
0
  6
CONTINUOUS
 62
     7
100
AcDbVertex
100
AcDb2dVertex
 10
7.9952877909
 20
6.1757814189
 30
0.0
  0
VERTEX
  5
4EC
330
276
100
AcDbEntity
  8
0
  6
CONTINUOUS
 62
     7
100
AcDbVertex
100
AcDb2dVertex
 10
7.9891900547
 20
6.2037748878
 30
0.0
  0
VERTEX
  5
4ED
330
276
100
AcDbEntity
  8
0
  6
CONTINUOUS
 62
     7
100
AcDbVertex
100
AcDb2dVertex
 10
7.9844701705
 20
6.2328775608
 30
0.0
  0
VERTEX
  5
4EE
330
276
100
AcDbEntity
  8
0
  6
CONTINUOUS
 62
     7
100
AcDbVertex
100
AcDb2dVertex
 10
7.9811400435
 20
6.2630160305
 30
0.0
  0
VERTEX
  5
4EF
330
276
100
AcDbEntity
  8
0
  6
CONTINUOUS
 62
     7
100
AcDbVertex
100
AcDb2dVertex
 10
7.9792080735
 20
6.2941142769
 30
0.0
  0
VERTEX
  5
4F0
330
276
100
AcDbEntity
  8
0
  6
CONTINUOUS
 62
     7
100
AcDbVertex
100
AcDb2dVertex
 10
7.9786791336
 20
6.326093859
 30
0.0
  0
VERTEX
  5
4F1
330
276
100
AcDbEntity
  8
0
  6
CONTINUOUS
 62
     7
100
AcDbVertex
100
AcDb2dVertex
 10
7.9795545581
 20
6.3588741128
 30
0.0
  0
VERTEX
  5
4F2
330
276
100
AcDbEntity
  8
0
  6
CONTINUOUS
 62
     7
100
AcDbVertex
100
AcDb2dVertex
 10
7.9818321386
 20
6.3923723549
 30
0.0
  0
VERTEX
  5
4F3
330
276
100
AcDbEntity
  8
0
  6
CONTINUOUS
 62
     7
100
AcDbVertex
100
AcDb2dVertex
 10
7.9855061305
 20
6.4265040906
 30
0.0
  0
VERTEX
  5
4F4
330
276
100
AcDbEntity
  8
0
  6
CONTINUOUS
 62
     7
100
AcDbVertex
100
AcDb2dVertex
 10
7.9905672665
 20
6.4611832274
 30
0.0
  0
VERTEX
  5
4F5
330
276
100
AcDbEntity
  8
0
  6
CONTINUOUS
 62
     7
100
AcDbVertex
100
AcDb2dVertex
 10
7.9970027806
 20
6.4963222922
 30
0.0
  0
VERTEX
  5
4F6
330
276
100
AcDbEntity
  8
0
  6
CONTINUOUS
 62
     7
100
AcDbVertex
100
AcDb2dVertex
 10
8.0047964403
 20
6.5318326515
 30
0.0
  0
VERTEX
  5
4F7
330
276
100
AcDbEntity
  8
0
  6
CONTINUOUS
 62
     7
100
AcDbVertex
100
AcDb2dVertex
 10
8.013928587
 20
6.5676247356
 30
0.0
  0
VERTEX
  5
4F8
330
276
100
AcDbEntity
  8
0
  6
CONTINUOUS
 62
     7
100
AcDbVertex
100
AcDb2dVertex
 10
8.0243761862
 20
6.603608264
 30
0.0
  0
VERTEX
  5
4F9
330
276
100
AcDbEntity
  8
0
  6
CONTINUOUS
 62
     7
100
AcDbVertex
100
AcDb2dVertex
 10
8.0361128854
 20
6.6396924733
 30
0.0
  0
VERTEX
  5
4FA
330
276
100
AcDbEntity
  8
0
  6
CONTINUOUS
 62
     7
100
AcDbVertex
100
AcDb2dVertex
 10
8.0491090803
 20
6.6757863461
 30
0.0
  0
VERTEX
  5
4FB
330
276
100
AcDbEntity
  8
0
  6
CONTINUOUS
 62
     7
100
AcDbVertex
100
AcDb2dVertex
 10
8.06333199
 20
6.7117988408
 30
0.0
  0
VERTEX
  5
4FC
330
276
100
AcDbEntity
  8
0
  6
CONTINUOUS
 62
     7
100
AcDbVertex
100
AcDb2dVertex
 10
8.078745739
 20
6.7476391211
 30
0.0
  0
VERTEX
  5
4FD
330
276
100
AcDbEntity
  8
0
  6
CONTINUOUS
 62
     7
100
AcDbVertex
100
AcDb2dVertex
 10
8.0953114485
 20
6.7832167847
 30
0.0
  0
VERTEX
  5
4FE
330
276
100
AcDbEntity
  8
0
  6
CONTINUOUS
 62
     7
100
AcDbVertex
100
AcDb2dVertex
 10
8.1129873338
 20
6.8184420921
 30
0.0
  0
VERTEX
  5
4FF
330
276
100
AcDbEntity
  8
0
  6
CONTINUOUS
 62
     7
100
AcDbVertex
100
AcDb2dVertex
 10
8.1317288099
 20
6.8532261925
 30
0.0
  0
VERTEX
  5
500
330
276
100
AcDbEntity
  8
0
  6
CONTINUOUS
 62
     7
100
AcDbVertex
100
AcDb2dVertex
 10
8.1514886041
 20
6.8874813478
 30
0.0
  0
VERTEX
  5
501
330
276
100
AcDbEntity
  8
0
  6
CONTINUOUS
 62
     7
100
AcDbVertex
100
AcDb2dVertex
 10
8.1722168752
 20
6.9211211544
 30
0.0
  0
VERTEX
  5
502
330
276
100
AcDbEntity
  8
0
  6
CONTINUOUS
 62
     7
100
AcDbVertex
100
AcDb2dVertex
 10
8.1938613389
 20
6.9540607604
 30
0.0
  0
VERTEX
  5
503
330
276
100
AcDbEntity
  8
0
  6
CONTINUOUS
 62
     7
100
AcDbVertex
100
AcDb2dVertex
 10
8.2163674003
 20
6.9862170804
 30
0.0
  0
VERTEX
  5
504
330
276
100
AcDbEntity
  8
0
  6
CONTINUOUS
 62
     7
100
AcDbVertex
100
AcDb2dVertex
 10
8.2396782908
 20
7.0175090047
 30
0.0
  0
SEQEND
  5
505
330
276
100
AcDbEntity
  8
0
  6
CONTINUOUS
 62
     7
  0
ARC
  5
277
330
1F
100
AcDbEntity
  8
0
  6
CONTINUOUS
 62
     7
100
AcDbCircle
 10
8.7940406328
 20
7.0908057731
 30
0.0
 40
0.27071202679406
100
AcDbArc
 50
56.6696432086
 51
80.8612682886
  0
LINE
  5
278
330
1F
100
AcDbEntity
  8
0
  6
CONTINUOUS
 62
     7
100
AcDbLine
 10
7.5663254336
 20
6.3143531464
 30
0.0
 11
7.3436146363
 21
6.4429213529
 31
0.0
  0
POLYLINE
  5
279
330
1F
100
AcDbEntity
  8
0
  6
CONTINUOUS
 62
     7
100
AcDb2dPolyline
 66
     1
 10
0.0
 20
0.0
 30
0.0
  0
VERTEX
  5
506
330
279
100
AcDbEntity
  8
0
  6
CONTINUOUS
 62
     7
100
AcDbVertex
100
AcDb2dVertex
 10
7.562623323
 20
7.0020233031
 30
0.0
  0
VERTEX
  5
507
330
279
100
AcDbEntity
  8
0
  6
CONTINUOUS
 62
     7
100
AcDbVertex
100
AcDb2dVertex
 10
7.5480301526
 20
6.965118759
 30
0.0
  0
VERTEX
  5
508
330
279
100
AcDbEntity
  8
0
  6
CONTINUOUS
 62
     7
100
AcDbVertex
100
AcDb2dVertex
 10
7.5347252952
 20
6.9281286039
 30
0.0
  0
VERTEX
  5
509
330
279
100
AcDbEntity
  8
0
  6
CONTINUOUS
 62
     7
100
AcDbVertex
100
AcDb2dVertex
 10
7.5227439973
 20
6.8911508295
 30
0.0
  0
VERTEX
  5
50A
330
279
100
AcDbEntity
  8
0
  6
CONTINUOUS
 62
     7
100
AcDbVertex
100
AcDb2dVertex
 10
7.5121179986
 20
6.8542833946
 30
0.0
  0
VERTEX
  5
50B
330
279
100
AcDbEntity
  8
0
  6
CONTINUOUS
 62
     7
100
AcDbVertex
100
AcDb2dVertex
 10
7.502875449
 20
6.8176239659
 30
0.0
  0
VERTEX
  5
50C
330
279
100
AcDbEntity
  8
0
  6
CONTINUOUS
 62
     7
100
AcDbVertex
100
AcDb2dVertex
 10
7.4950408331
 20
6.7812696587
 30
0.0
  0
VERTEX
  5
50D
330
279
100
AcDbEntity
  8
0
  6
CONTINUOUS
 62
     7
100
AcDbVertex
100
AcDb2dVertex
 10
7.4886349057
 20
6.7453167804
 30
0.0
  0
VERTEX
  5
50E
330
279
100
AcDbEntity
  8
0
  6
CONTINUOUS
 62
     7
100
AcDbVertex
100
AcDb2dVertex
 10
7.4836746371
 20
6.7098605746
 30
0.0
  0
VERTEX
  5
50F
330
279
100
AcDbEntity
  8
0
  6
CONTINUOUS
 62
     7
100
AcDbVertex
100
AcDb2dVertex
 10
7.4801731675
 20
6.6749949694
 30
0.0
  0
VERTEX
  5
510
330
279
100
AcDbEntity
  8
0
  6
CONTINUOUS
 62
     7
100
AcDbVertex
100
AcDb2dVertex
 10
7.4781397729
 20
6.6408123282
 30
0.0
  0
VERTEX
  5
511
330
279
100
AcDbEntity
  8
0
  6
CONTINUOUS
 62
     7
100
AcDbVertex
100
AcDb2dVertex
 10
7.4775798399
 20
6.6074032051
 30
0.0
  0
VERTEX
  5
512
330
279
100
AcDbEntity
  8
0
  6
CONTINUOUS
 62
     7
100
AcDbVertex
100
AcDb2dVertex
 10
7.4784948519
 20
6.5748561053
 30
0.0
  0
VERTEX
  5
513
330
279
100
AcDbEntity
  8
0
  6
CONTINUOUS
 62
     7
100
AcDbVertex
100
AcDb2dVertex
 10
7.4808823849
 20
6.5432572502
 30
0.0
  0
VERTEX
  5
514
330
279
100
AcDbEntity
  8
0
  6
CONTINUOUS
 62
     7
100
AcDbVertex
100
AcDb2dVertex
 10
7.484736114
 20
6.5126903491
 30
0.0
  0
VERTEX
  5
515
330
279
100
AcDbEntity
  8
0
  6
CONTINUOUS
 62
     7
100
AcDbVertex
100
AcDb2dVertex
 10
7.4900458302
 20
6.4832363776
 30
0.0
  0
VERTEX
  5
516
330
279
100
AcDbEntity
  8
0
  6
CONTINUOUS
 62
     7
100
AcDbVertex
100
AcDb2dVertex
 10
7.4967974673
 20
6.4549733631
 30
0.0
  0
VERTEX
  5
517
330
279
100
AcDbEntity
  8
0
  6
CONTINUOUS
 62
     7
100
AcDbVertex
100
AcDb2dVertex
 10
7.5049731396
 20
6.427976178
 30
0.0
  0
VERTEX
  5
518
330
279
100
AcDbEntity
  8
0
  6
CONTINUOUS
 62
     7
100
AcDbVertex
100
AcDb2dVertex
 10
7.5145511884
 20
6.4023163412
 30
0.0
  0
VERTEX
  5
519
330
279
100
AcDbEntity
  8
0
  6
CONTINUOUS
 62
     7
100
AcDbVertex
100
AcDb2dVertex
 10
7.5255062404
 20
6.3780618288
 30
0.0
  0
VERTEX
  5
51A
330
279
100
AcDbEntity
  8
0
  6
CONTINUOUS
 62
     7
100
AcDbVertex
100
AcDb2dVertex
 10
7.5378092742
 20
6.3552768943
 30
0.0
  0
VERTEX
  5
51B
330
279
100
AcDbEntity
  8
0
  6
CONTINUOUS
 62
     7
100
AcDbVertex
100
AcDb2dVertex
 10
7.5514276976
 20
6.3340218977
 30
0.0
  0
VERTEX
  5
51C
330
279
100
AcDbEntity
  8
0
  6
CONTINUOUS
 62
     7
100
AcDbVertex
100
AcDb2dVertex
 10
7.5663254336
 20
6.3143531464
 30
0.0
  0
SEQEND
  5
51D
330
279
100
AcDbEntity
  8
0
  6
CONTINUOUS
 62
     7
  0
LINE
  5
27A
330
1F
100
AcDbEntity
  8
0
  6
CONTINUOUS
 62
     7
100
AcDbLine
 10
7.3399125258
 20
7.1305915097
 30
0.0
 11
7.562623323
 21
7.0020233031
 31
0.0
  0
POLYLINE
  5
27B
330
1F
100
AcDbEntity
  8
0
  6
CONTINUOUS
 62
     7
100
AcDb2dPolyline
 66
     1
 10
0.0
 20
0.0
 30
0.0
  0
VERTEX
  5
51E
330
27B
100
AcDbEntity
  8
0
  6
CONTINUOUS
 62
     7
100
AcDbVertex
100
AcDb2dVertex
 10
8.2053041359
 20
7.7432985531
 30
0.0
  0
VERTEX
  5
51F
330
27B
100
AcDbEntity
  8
0
  6
CONTINUOUS
 62
     7
100
AcDbVertex
100
AcDb2dVertex
 10
8.190025444
 20
7.7514593297
 30
0.0
  0
VERTEX
  5
520
330
27B
100
AcDbEntity
  8
0
  6
CONTINUOUS
 62
     7
100
AcDbVertex
100
AcDb2dVertex
 10
8.16904168
 20
7.7606889312
 30
0.0
  0
VERTEX
  5
521
330
27B
100
AcDbEntity
  8
0
  6
CONTINUOUS
 62
     7
100
AcDbVertex
100
AcDb2dVertex
 10
8.1471564089
 20
7.7681546003
 30
0.0
  0
VERTEX
  5
522
330
27B
100
AcDbEntity
  8
0
  6
CONTINUOUS
 62
     7
100
AcDbVertex
100
AcDb2dVertex
 10
8.1244248334
 20
7.773837506
 30
0.0
  0
VERTEX
  5
523
330
27B
100
AcDbEntity
  8
0
  6
CONTINUOUS
 62
     7
100
AcDbVertex
100
AcDb2dVertex
 10
8.1009042907
 20
7.7777233139
 30
0.0
  0
VERTEX
  5
524
330
27B
100
AcDbEntity
  8
0
  6
CONTINUOUS
 62
     7
100
AcDbVertex
100
AcDb2dVertex
 10
8.0766541079
 20
7.7798022226
 30
0.0
  0
VERTEX
  5
525
330
27B
100
AcDbEntity
  8
0
  6
CONTINUOUS
 62
     7
100
AcDbVertex
100
AcDb2dVertex
 10
8.0517354527
 20
7.7800689884
 30
0.0
  0
VERTEX
  5
526
330
27B
100
AcDbEntity
  8
0
  6
CONTINUOUS
 62
     7
100
AcDbVertex
100
AcDb2dVertex
 10
8.026211179
 20
7.7785229384
 30
0.0
  0
VERTEX
  5
527
330
27B
100
AcDbEntity
  8
0
  6
CONTINUOUS
 62
     7
100
AcDbVertex
100
AcDb2dVertex
 10
8.000145668
 20
7.7751679723
 30
0.0
  0
VERTEX
  5
528
330
27B
100
AcDbEntity
  8
0
  6
CONTINUOUS
 62
     7
100
AcDbVertex
100
AcDb2dVertex
 10
7.9736046664
 20
7.7700125525
 30
0.0
  0
VERTEX
  5
529
330
27B
100
AcDbEntity
  8
0
  6
CONTINUOUS
 62
     7
100
AcDbVertex
100
AcDb2dVertex
 10
7.9466551201
 20
7.7630696828
 30
0.0
  0
VERTEX
  5
52A
330
27B
100
AcDbEntity
  8
0
  6
CONTINUOUS
 62
     7
100
AcDbVertex
100
AcDb2dVertex
 10
7.9193650055
 20
7.7543568756
 30
0.0
  0
VERTEX
  5
52B
330
27B
100
AcDbEntity
  8
0
  6
CONTINUOUS
 62
     7
100
AcDbVertex
100
AcDb2dVertex
 10
7.891803158
 20
7.7438961078
 30
0.0
  0
VERTEX
  5
52C
330
27B
100
AcDbEntity
  8
0
  6
CONTINUOUS
 62
     7
100
AcDbVertex
100
AcDb2dVertex
 10
7.8640390986
 20
7.7317137652
 30
0.0
  0
VERTEX
  5
52D
330
27B
100
AcDbEntity
  8
0
  6
CONTINUOUS
 62
     7
100
AcDbVertex
100
AcDb2dVertex
 10
7.8361428581
 20
7.717840576
 30
0.0
  0
VERTEX
  5
52E
330
27B
100
AcDbEntity
  8
0
  6
CONTINUOUS
 62
     7
100
AcDbVertex
100
AcDb2dVertex
 10
7.8081848008
 20
7.7023115333
 30
0.0
  0
VERTEX
  5
52F
330
27B
100
AcDbEntity
  8
0
  6
CONTINUOUS
 62
     7
100
AcDbVertex
100
AcDb2dVertex
 10
7.7802354471
 20
7.6851658071
 30
0.0
  0
VERTEX
  5
530
330
27B
100
AcDbEntity
  8
0
  6
CONTINUOUS
 62
     7
100
AcDbVertex
100
AcDb2dVertex
 10
7.7523652951
 20
7.6664466449
 30
0.0
  0
VERTEX
  5
531
330
27B
100
AcDbEntity
  8
0
  6
CONTINUOUS
 62
     7
100
AcDbVertex
100
AcDb2dVertex
 10
7.7246446435
 20
7.6462012631
 30
0.0
  0
VERTEX
  5
532
330
27B
100
AcDbEntity
  8
0
  6
CONTINUOUS
 62
     7
100
AcDbVertex
100
AcDb2dVertex
 10
7.6971434136
 20
7.624480728
 30
0.0
  0
VERTEX
  5
533
330
27B
100
AcDbEntity
  8
0
  6
CONTINUOUS
 62
     7
100
AcDbVertex
100
AcDb2dVertex
 10
7.6699309735
 20
7.6013398265
 30
0.0
  0
VERTEX
  5
534
330
27B
100
AcDbEntity
  8
0
  6
CONTINUOUS
 62
     7
100
AcDbVertex
100
AcDb2dVertex
 10
7.6430759625
 20
7.5768369281
 30
0.0
  0
VERTEX
  5
535
330
27B
100
AcDbEntity
  8
0
  6
CONTINUOUS
 62
     7
100
AcDbVertex
100
AcDb2dVertex
 10
7.6166461188
 20
7.5510338382
 30
0.0
  0
VERTEX
  5
536
330
27B
100
AcDbEntity
  8
0
  6
CONTINUOUS
 62
     7
100
AcDbVertex
100
AcDb2dVertex
 10
7.5907081078
 20
7.5239956412
 30
0.0
  0
VERTEX
  5
537
330
27B
100
AcDbEntity
  8
0
  6
CONTINUOUS
 62
     7
100
AcDbVertex
100
AcDb2dVertex
 10
7.5653273546
 20
7.4957905372
 30
0.0
  0
VERTEX
  5
538
330
27B
100
AcDbEntity
  8
0
  6
CONTINUOUS
 62
     7
100
AcDbVertex
100
AcDb2dVertex
 10
7.5405678784
 20
7.4664896696
 30
0.0
  0
VERTEX
  5
539
330
27B
100
AcDbEntity
  8
0
  6
CONTINUOUS
 62
     7
100
AcDbVertex
100
AcDb2dVertex
 10
7.5164921316
 20
7.4361669457
 30
0.0
  0
VERTEX
  5
53A
330
27B
100
AcDbEntity
  8
0
  6
CONTINUOUS
 62
     7
100
AcDbVertex
100
AcDb2dVertex
 10
7.4931608419
 20
7.4048988503
 30
0.0
  0
VERTEX
  5
53B
330
27B
100
AcDbEntity
  8
0
  6
CONTINUOUS
 62
     7
100
AcDbVertex
100
AcDb2dVertex
 10
7.470632859
 20
7.3727642528
 30
0.0
  0
VERTEX
  5
53C
330
27B
100
AcDbEntity
  8
0
  6
CONTINUOUS
 62
     7
100
AcDbVertex
100
AcDb2dVertex
 10
7.4489650067
 20
7.339844208
 30
0.0
  0
VERTEX
  5
53D
330
27B
100
AcDbEntity
  8
0
  6
CONTINUOUS
 62
     7
100
AcDbVertex
100
AcDb2dVertex
 10
7.4282119391
 20
7.3062217522
 30
0.0
  0
VERTEX
  5
53E
330
27B
100
AcDbEntity
  8
0
  6
CONTINUOUS
 62
     7
100
AcDbVertex
100
AcDb2dVertex
 10
7.4084260028
 20
7.2719816933
 30
0.0
  0
VERTEX
  5
53F
330
27B
100
AcDbEntity
  8
0
  6
CONTINUOUS
 62
     7
100
AcDbVertex
100
AcDb2dVertex
 10
7.3896571051
 20
7.2372103969
 30
0.0
  0
VERTEX
  5
540
330
27B
100
AcDbEntity
  8
0
  6
CONTINUOUS
 62
     7
100
AcDbVertex
100
AcDb2dVertex
 10
7.3719525878
 20
7.2019955688
 30
0.0
  0
VERTEX
  5
541
330
27B
100
AcDbEntity
  8
0
  6
CONTINUOUS
 62
     7
100
AcDbVertex
100
AcDb2dVertex
 10
7.3553571081
 20
7.1664260333
 30
0.0
  0
VERTEX
  5
542
330
27B
100
AcDbEntity
  8
0
  6
CONTINUOUS
 62
     7
100
AcDbVertex
100
AcDb2dVertex
 10
7.3399125258
 20
7.1305915097
 30
0.0
  0
SEQEND
  5
543
330
27B
100
AcDbEntity
  8
0
  6
CONTINUOUS
 62
     7
  0
ARC
  5
27C
330
1F
100
AcDbEntity
  8
0
  6
CONTINUOUS
 62
     7
100
AcDbCircle
 10
7.5544861347
 20
6.6146275775
 30
0.0
 40
0.2719371552061371
100
AcDbArc
 50
219.1548746969
 51
239.8658552264
  0
SPLINE
  5
27D
330
1F
100
AcDbEntity
  8
0
  6
CONTINUOUS
 62
     7
100
AcDbSpline
210
0.0
220
0.0
230
1.0
 70
     8
 71
     3
 72
     8
 73
     4
 74
     0
 42
0.00000001
 43
0.00000001
 40
0.0
 40
0.0
 40
0.0
 40
0.0
 40
0.0001083645978465
 40
0.0001083645978465
 40
0.0001083645978465
 40
0.0001083645978465
 10
8.280984252085482
 20
6.993660319498646
 30
0.0
 10
8.282289148509637
 20
6.99113980669956
 30
0.0
 10
8.283593003326676
 20
6.988618868865247
 30
0.0
 10
8.284895787612387
 20
6.986097498605848
 30
0.0
  0
SPLINE
  5
27E
330
1F
100
AcDbEntity
  8
0
  6
CONTINUOUS
 62
     7
100
AcDbSpline
210
0.0
220
0.0
230
1.0
 70
     8
 71
     3
 72
     8
 73
     4
 74
     0
 42
0.00000001
 43
0.00000001
 40
0.0
 40
0.0
 40
0.0
 40
0.0
 40
0.0006160615699252
 40
0.0006160615699252
 40
0.0006160615699252
 40
0.0006160615699252
 10
8.239678290839665
 20
7.017509004746905
 30
0.0
 10
8.253448450576794
 20
7.009558574234418
 30
0.0
 10
8.267217178949856
 20
7.001608969433672
 30
0.0
 10
8.280984252085482
 20
6.993660319498646
 30
0.0
  0
LINE
  5
27F
330
1F
100
AcDbEntity
  8
0
  6
CONTINUOUS
 62
     7
100
AcDbLine
 10
8.6143258136
 20
7.4866497686
 30
0.0
 11
8.6090585106
 21
7.4580218952
 31
0.0
  0
ARC
  5
280
330
1F
100
AcDbEntity
  8
0
  6
CONTINUOUS
 62
     7
100
AcDbCircle
 10
8.8538787246
 20
6.520626282
 30
0.0
 40
0.9897114541106655
100
AcDbArc
 50
121.2469778277
 51
142.849033328
  0
SPLINE
  5
281
330
1F
100
AcDbEntity
  8
0
  6
CONTINUOUS
 62
     7
100
AcDbSpline
210
0.0
220
0.0
230
1.0
 70
     8
 71
     3
 72
     8
 73
     4
 74
     0
 42
0.00000001
 43
0.00000001
 40
0.0
 40
0.0
 40
0.0
 40
0.0
 40
0.0006160615699252
 40
0.0006160615699252
 40
0.0006160615699252
 40
0.0006160615699252
 10
7.55607465602926
 20
7.005800506734378
 30
0.0
 10
7.558248993973674
 20
7.004546375939595
 30
0.0
 10
7.560432260861704
 20
7.003287089892863
 30
0.0
 10
7.56262332303566
 20
7.002023303126211
 30
0.0
  0
ARC
  5
282
330
1F
100
AcDbEntity
  8
0
  6
CONTINUOUS
 62
     7
100
AcDbCircle
 10
8.4671489893
 20
6.6220614586
 30
0.0
 40
0.9898125521453472
100
AcDbArc
 50
157.1505870618
 51
178.7575536409
  0
SPLINE
  5
283
330
1F
100
AcDbEntity
  8
0
  6
CONTINUOUS
 62
     7
100
AcDbSpline
210
0.0
220
0.0
230
1.0
 70
     8
 71
     3
 72
     8
 73
     4
 74
     0
 42
0.00000001
 43
0.00000001
 40
0.0
 40
0.0
 40
0.0
 40
0.0
 40
0.0001083645978465
 40
0.0001083645978465
 40
0.0001083645978465
 40
0.0001083645978465
 10
7.33336385880515
 20
7.134368713320631
 30
0.0
 10
7.333589330075085
 20
7.136005476456612
 30
0.0
 10
7.333816731742421
 20
7.137642151373313
 30
0.0
 10
7.334046113590587
 20
7.139278733414913
 30
0.0
  0
SPLINE
  5
284
330
1F
100
AcDbEntity
  8
0
  6
CONTINUOUS
 62
     7
100
AcDbSpline
210
0.0
220
0.0
230
1.0
 70
     8
 71
     3
 72
     8
 73
     4
 74
     0
 42
0.00000001
 43
0.00000001
 40
0.0
 40
0.0
 40
0.0
 40
0.0
 40
0.0006160615699252
 40
0.0006160615699252
 40
0.0006160615699252
 40
0.0006160615699252
 10
7.33336385880515
 20
7.134368713320631
 30
0.0
 10
7.335538196749564
 20
7.133114582525848
 30
0.0
 10
7.337721463637595
 20
7.131855296479118
 30
0.0
 10
7.339912525811551
 20
7.130591509712464
 30
0.0
  0
LINE
  5
285
330
1F
100
AcDbEntity
  8
0
  6
CONTINUOUS
 62
     7
100
AcDbLine
 10
7.556074656
 20
7.0058005067
 30
0.0
 11
7.3333638588
 21
7.1343687133
 31
0.0
  0
LINE
  5
286
330
1F
100
AcDbEntity
  8
0
  6
CONTINUOUS
 62
     7
100
AcDbLine
 10
8.8370366108
 20
7.358081562
 30
0.0
 11
8.8353009819
 21
7.3486483918
 31
0.0
  0
LINE
  5
287
330
1F
100
AcDbEntity
  8
0
  6
CONTINUOUS
 62
     7
100
AcDbLine
 10
7.3436146363
 20
6.4429213529
 30
0.0
 11
7.3401303023
 21
6.4553749558
 31
0.0
  0
ENDSEC
  0
SECTION
  2
OBJECTS
  0
DICTIONARY
  5
C
330
0
100
AcDbDictionary
  3
ACAD_GROUP
350
D
  3
ACAD_LAYOUT
350
1A
  3
ACAD_MLEADERSTYLE
350
28A
  3
ACAD_MLINESTYLE
350
17
  3
ACAD_PLOTSETTINGS
350
19
  3
ACAD_SCALELIST
350
6F
  3
ACAD_VISUALSTYLE
350
2A
  3
ACDBVARIABLEDICTIONARY
350
288
1001
ACAD
1000
TREAT_AS_HARD
1070
     0
  0
DICTIONARY
  5
D
102
{ACAD_REACTORS
330
C
102
}
330
C
100
AcDbDictionary
1001
ACAD
1000
TREAT_AS_HARD
1070
     0
  0
DICTIONARY
  5
1A
102
{ACAD_REACTORS
330
C
102
}
330
C
100
AcDbDictionary
1001
ACAD
1000
TREAT_AS_HARD
1070
     0
  0
DICTIONARY
  5
28A
102
{ACAD_REACTORS
330
C
102
}
330
C
100
AcDbDictionary
1001
ACAD
1000
TREAT_AS_HARD
1070
     0
  0
DICTIONARY
  5
17
102
{ACAD_REACTORS
330
C
102
}
330
C
100
AcDbDictionary
  3
STANDARD
350
18
1001
ACAD
1000
TREAT_AS_HARD
1070
     0
  0
DICTIONARY
  5
19
102
{ACAD_REACTORS
330
C
102
}
330
C
100
AcDbDictionary
1001
ACAD
1000
TREAT_AS_HARD
1070
     0
  0
DICTIONARY
  5
6F
102
{ACAD_REACTORS
330
C
102
}
330
C
100
AcDbDictionary
  3
A0
350
70
  3
A1
350
71
  3
A2
350
72
  3
A3
350
73
  3
A4
350
74
  3
A5
350
75
  3
A6
350
76
  3
A7
350
77
  3
A8
350
78
  3
A9
350
79
  3
B0
350
7A
  3
B1
350
7B
  3
B2
350
7C
  3
B3
350
7D
  3
B4
350
7E
  3
B5
350
7F
  3
B6
350
80
  3
B7
350
81
  3
B8
350
82
  3
B9
350
83
  3
C0
350
84
  3
C1
350
85
  3
C2
350
86
  3
C3
350
87
  3
C4
350
88
  3
C5
350
89
  3
C6
350
8A
  3
C7
350
8B
  3
C8
350
8C
  3
C9
350
8D
  3
D0
350
8E
  3
D1
350
8F
  3
D2
350
90
1001
ACAD
1000
TREAT_AS_HARD
1070
     0
  0
DICTIONARY
  5
2A
102
{ACAD_REACTORS
330
C
102
}
330
C
100
AcDbDictionary
  3
2DWIREFRAME
350
2F
  3
3D_HIDDEN
350
31
  3
3DWIREFRAME
350
30
  3
BASIC
350
32
  3
BRIGHTEN
350
36
  3
COLORCHANGE
350
3A
  3
CONCEPTUAL
350
34
  3
DIM
350
35
  3
FACEPATTERN
350
39
  3
FLAT
350
2B
  3
FLATWITHEDGES
350
2C
  3
GOURAUD
350
2D
  3
GOURAUDWITHEDGES
350
2E
  3
LINEPATTERN
350
38
  3
REALISTIC
350
33
  3
THICKEN
350
37
1001
ACAD
1000
TREAT_AS_HARD
1070
     0
  0
DICTIONARY
  5
288
102
{ACAD_REACTORS
330
C
102
}
330
C
100
AcDbDictionary
  3
CANNOSCALE
350
28B
  3
DIMASSOC
350
28C
  3
HIDETEXT
350
28D
1001
ACAD
1000
TREAT_AS_HARD
1070
     0
  0
MLINESTYLE
  5
18
102
{ACAD_REACTORS
330
17
102
}
330
17
100
AcDbMlineStyle
  2
Standard
 70
     0
  3

 62
   256
 51
90.0
 52
90.0
 71
     2
 49
0.5
 62
   256
  6
BYLAYER
 49
-0.5
 62
   256
  6
BYLAYER
  0
ACAD_PROXY_OBJECT
  5
70
102
{ACAD_REACTORS
330
6F
102
}
330
6F
100
AcDbZombieObject
 90
      499
 91
      502
 93
       41
310
903313A31580
  0
ACAD_PROXY_OBJECT
  5
71
102
{ACAD_REACTORS
330
6F
102
}
330
6F
100
AcDbZombieObject
 90
      499
 91
      502
 93
      105
310
903313A324000000000000004000
  0
ACAD_PROXY_OBJECT
  5
72
102
{ACAD_REACTORS
330
6F
102
}
330
6F
100
AcDbZombieObject
 90
      499
 91
      502
 93
      105
310
903313A344000000000000104000
  0
ACAD_PROXY_OBJECT
  5
73
102
{ACAD_REACTORS
330
6F
102
}
330
6F
100
AcDbZombieObject
 90
      499
 91
      502
 93
      105
310
903313A354000000000000144000
  0
ACAD_PROXY_OBJECT
  5
74
102
{ACAD_REACTORS
330
6F
102
}
330
6F
100
AcDbZombieObject
 90
      499
 91
      502
 93
      105
310
903313A384000000000000204000
  0
ACAD_PROXY_OBJECT
  5
75
102
{ACAD_REACTORS
330
6F
102
}
330
6F
100
AcDbZombieObject
 90
      499
 91
      502
 93
      113
310
904313A31304000000000000244000
  0
ACAD_PROXY_OBJECT
  5
76
102
{ACAD_REACTORS
330
6F
102
}
330
6F
100
AcDbZombieObject
 90
      499
 91
      502
 93
      113
310
904313A31364000000000000304000
  0
ACAD_PROXY_OBJECT
  5
77
102
{ACAD_REACTORS
330
6F
102
}
330
6F
100
AcDbZombieObject
 90
      499
 91
      502
 93
      113
310
904313A32304000000000000344000
  0
ACAD_PROXY_OBJECT
  5
78
102
{ACAD_REACTORS
330
6F
102
}
330
6F
100
AcDbZombieObject
 90
      499
 91
      502
 93
      113
310
904313A333040000000000003E4000
  0
ACAD_PROXY_OBJECT
  5
79
102
{ACAD_REACTORS
330
6F
102
}
330
6F
100
AcDbZombieObject
 90
      499
 91
      502
 93
      113
310
904313A34304000000000000444000
  0
ACAD_PROXY_OBJECT
  5
7A
102
{ACAD_REACTORS
330
6F
102
}
330
6F
100
AcDbZombieObject
 90
      499
 91
      502
 93
      113
310
904313A35304000000000000494000
  0
ACAD_PROXY_OBJECT
  5
7B
102
{ACAD_REACTORS
330
6F
102
}
330
6F
100
AcDbZombieObject
 90
      499
 91
      502
 93
      121
310
905313A3130304000000000000594000
  0
ACAD_PROXY_OBJECT
  5
7C
102
{ACAD_REACTORS
330
6F
102
}
330
6F
100
AcDbZombieObject
 90
      499
 91
      502
 93
      105
310
903323A310000000000000010100
  0
ACAD_PROXY_OBJECT
  5
7D
102
{ACAD_REACTORS
330
6F
102
}
330
6F
100
AcDbZombieObject
 90
      499
 91
      502
 93
      105
310
903343A310000000000000410100
  0
ACAD_PROXY_OBJECT
  5
7E
102
{ACAD_REACTORS
330
6F
102
}
330
6F
100
AcDbZombieObject
 90
      499
 91
      502
 93
      105
310
903383A310000000000000810100
  0
ACAD_PROXY_OBJECT
  5
7F
102
{ACAD_REACTORS
330
6F
102
}
330
6F
100
AcDbZombieObject
 90
      499
 91
      502
 93
      113
310
90431303A310000000000000910100
  0
ACAD_PROXY_OBJECT
  5
80
102
{ACAD_REACTORS
330
6F
102
}
330
6F
100
AcDbZombieObject
 90
      499
 91
      502
 93
      121
310
9053130303A310000000000001650100
  0
ACAD_PROXY_OBJECT
  5
81
102
{ACAD_REACTORS
330
6F
102
}
330
6F
100
AcDbZombieObject
 90
      499
 91
      502
 93
      257
310
90E312F31323822203D2031272D3022000000000000200FC000000000000284000
  0
ACAD_PROXY_OBJECT
  5
82
102
{ACAD_REACTORS
330
6F
102
}
330
6F
100
AcDbZombieObject
 90
      499
 91
      502
 93
      249
310
90D312F363422203D2031272D3022000000000000240FC000000000000284000
  0
ACAD_PROXY_OBJECT
  5
83
102
{ACAD_REACTORS
330
6F
102
}
330
6F
100
AcDbZombieObject
 90
      499
 91
      502
 93
      249
310
90D312F333222203D2031272D3022000000000000280FC000000000000284000
  0
ACAD_PROXY_OBJECT
  5
84
102
{ACAD_REACTORS
330
6F
102
}
330
6F
100
AcDbZombieObject
 90
      499
 91
      502
 93
      249
310
90D312F313622203D2031272D30220000000000002C0FC000000000000284000
  0
ACAD_PROXY_OBJECT
  5
85
102
{ACAD_REACTORS
330
6F
102
}
330
6F
100
AcDbZombieObject
 90
      499
 91
      502
 93
      249
310
90D332F333222203D2031272D30220000000000002E0FC000000000000284000
  0
ACAD_PROXY_OBJECT
  5
86
102
{ACAD_REACTORS
330
6F
102
}
330
6F
100
AcDbZombieObject
 90
      499
 91
      502
 93
      241
310
90C312F3822203D2031272D3022000000000000300FC000000000000284000
  0
ACAD_PROXY_OBJECT
  5
87
102
{ACAD_REACTORS
330
6F
102
}
330
6F
100
AcDbZombieObject
 90
      499
 91
      502
 93
      249
310
90D332F313622203D2031272D3022000000000000320FC000000000000284000
  0
ACAD_PROXY_OBJECT
  5
88
102
{ACAD_REACTORS
330
6F
102
}
330
6F
100
AcDbZombieObject
 90
      499
 91
      502
 93
      241
310
90C312F3422203D2031272D3022000000000000340FC000000000000284000
  0
ACAD_PROXY_OBJECT
  5
89
102
{ACAD_REACTORS
330
6F
102
}
330
6F
100
AcDbZombieObject
 90
      499
 91
      502
 93
      241
310
90C332F3822203D2031272D3022000000000000360FC000000000000284000
  0
ACAD_PROXY_OBJECT
  5
8A
102
{ACAD_REACTORS
330
6F
102
}
330
6F
100
AcDbZombieObject
 90
      499
 91
      502
 93
      241
310
90C312F3222203D2031272D3022000000000000380FC000000000000284000
  0
ACAD_PROXY_OBJECT
  5
8B
102
{ACAD_REACTORS
330
6F
102
}
330
6F
100
AcDbZombieObject
 90
      499
 91
      502
 93
      241
310
90C332F3422203D2031272D30220000000000003A0FC000000000000284000
  0
ACAD_PROXY_OBJECT
  5
8C
102
{ACAD_REACTORS
330
6F
102
}
330
6F
100
AcDbZombieObject
 90
      499
 91
      502
 93
      161
310
90A3122203D2031272D30224000000000000284000
  0
ACAD_PROXY_OBJECT
  5
8D
102
{ACAD_REACTORS
330
6F
102
}
330
6F
100
AcDbZombieObject
 90
      499
 91
      502
 93
      257
310
90E312D312F3222203D2031272D30220000000000003E0FC000000000000284000
  0
ACAD_PROXY_OBJECT
  5
8E
102
{ACAD_REACTORS
330
6F
102
}
330
6F
100
AcDbZombieObject
 90
      499
 91
      502
 93
      225
310
90A3322203D2031272D302200000000000002100000000000000284000
  0
ACAD_PROXY_OBJECT
  5
8F
102
{ACAD_REACTORS
330
6F
102
}
330
6F
100
AcDbZombieObject
 90
      499
 91
      502
 93
      225
310
90A3622203D2031272D302200000000000006100000000000000284000
  0
ACAD_PROXY_OBJECT
  5
90
102
{ACAD_REACTORS
330
6F
102
}
330
6F
100
AcDbZombieObject
 90
      499
 91
      502
 93
      249
310
90D31272D3022203D2031272D30220000000000000A100000000000000284000
  0
ACAD_PROXY_OBJECT
  5
2F
102
{ACAD_REACTORS
330
2A
102
}
330
2A
100
AcDbZombieObject
 90
      499
 91
      501
 93
      436
310
42CC9915DA5C99599C985B595049028333333333333E3BF0000000000000FB0107901411070040501600405405064090741402480A0340
1001
ACAD
1000
AcDbSavedByObjectVersion
1070
     0
  0
ACAD_PROXY_OBJECT
  5
31
102
{ACAD_REACTORS
330
2A
102
}
330
2A
100
AcDbZombieObject
 90
      499
 91
      501
 93
      500
310
424CD108121A5919195B90640502408333333333333E3BF0000000000000FB01079024090700405020000000000001110200405405064090740C02480A0340
1001
ACAD
1000
AcDbSavedByObjectVersion
1070
     0
  0
ACAD_PROXY_OBJECT
  5
30
102
{ACAD_REACTORS
330
2A
102
}
330
2A
100
AcDbZombieObject
 90
      499
 91
      501
 93
      436
310
42CCD915DA5C99599C985B595059028333333333333E3BF0000000000000FB0107901411070040501600405405064090741402480A0340
1001
ACAD
1000
AcDbSavedByObjectVersion
1070
     0
  0
ACAD_PROXY_OBJECT
  5
32
102
{ACAD_REACTORS
330
2A
102
}
330
2A
100
AcDbZombieObject
 90
      499
 91
      501
 93
      388
310
4150985CDA58D07406404333333333333E3BF0000000000000FB0107A41107004050150841D405064090741402480A0350
1001
ACAD
1000
AcDbSavedByObjectVersion
1070
     0
  0
ACAD_PROXY_OBJECT
  5
36
102
{ACAD_REACTORS
330
2A
102
}
330
2A
100
AcDbZombieObject
 90
      499
 91
      501
 93
      428
310
42109C9A59DA1D195B90C409028333333333333E3BF0000000000000FB010790141107004050150841D405064090741402480A029950
1001
ACAD
1000
AcDbSavedByObjectVersion
1070
     0
  0
ACAD_PROXY_OBJECT
  5
3A
102
{ACAD_REACTORS
330
2A
102
}
330
2A
100
AcDbZombieObject
 90
      499
 91
      501
 93
      452
310
42D0DBDB1BDC90DA185B99D95104090240C333333333333E3BF0000000000000FB0108901411070040501508421405064090741402480A0350
1001
ACAD
1000
AcDbSavedByObjectVersion
1070
     0
  0
ACAD_PROXY_OBJECT
  5
34
102
{ACAD_REACTORS
330
2A
102
}
330
2A
100
AcDbZombieObject
 90
      499
 91
      501
 93
      500
310
4290DBDB98D95C1D1D585B10940D028333333333333E3BF0000000000000FB0107902409070040501000000000000111010841D405064090740C02480A0340
1001
ACAD
1000
AcDbSavedByObjectVersion
1070
     0
  0
ACAD_PROXY_OBJECT
  5
35
102
{ACAD_REACTORS
330
2A
102
}
330
2A
100
AcDbZombieObject
 90
      499
 91
      501
 93
      412
310
40D11A5B50B409028333333333333E3BF0000000000000FB010790141107004050150841D405064090741402480A02677FFFFFD0
1001
ACAD
1000
AcDbSavedByObjectVersion
1070
     0
  0
ACAD_PROXY_OBJECT
  5
39
102
{ACAD_REACTORS
330
2A
102
}
330
2A
100
AcDbZombieObject
 90
      499
 91
      501
 93
      444
310
42D19858D95C185D1D195C9B90F409028333333333333E3BF0000000000000FB010790141107004050150841D405064090741402480A0350
1001
ACAD
1000
AcDbSavedByObjectVersion
1070
     0
  0
ACAD_PROXY_OBJECT
  5
2B
102
{ACAD_REACTORS
330
2A
102
}
330
2A
100
AcDbZombieObject
 90
      499
 91
      501
 93
      388
310
41119B185D240901404333333333333E3BF0000000000000F9010740A41107004050150841D405064090741402480A1B50
1001
ACAD
1000
AcDbSavedByObjectVersion
1070
     0
  0
ACAD_PROXY_OBJECT
  5
2C
102
{ACAD_REACTORS
330
2A
102
}
330
2A
100
AcDbZombieObject
 90
      499
 91
      501
 93
      476
310
43519B185D15DA5D1A115919D95CD0140901404333333333333E3BF0000000000000F9010740901411070040501600405405064090741402480A1B50
1001
ACAD
1000
AcDbSavedByObjectVersion
1070
     0
  0
ACAD_PROXY_OBJECT
  5
2D
102
{ACAD_REACTORS
330
2A
102
}
330
2A
100
AcDbZombieObject
 90
      499
 91
      501
 93
      412
310
41D1DBDD5C985D5910240902404333333333333E3BF0000000000000F9010740A411070040501641D405064090741402480A1B50
1001
ACAD
1000
AcDbSavedByObjectVersion
1070
     0
  0
ACAD_PROXY_OBJECT
  5
2E
102
{ACAD_REACTORS
330
2A
102
}
330
2A
100
AcDbZombieObject
 90
      499
 91
      501
 93
      500
310
4411DBDD5C985D5915DA5D1A115919D95CD0340902404333333333333E3BF0000000000000F9010740901411070040501600405405064090741402480A1B50
1001
ACAD
1000
AcDbSavedByObjectVersion
1070
     0
  0
ACAD_PROXY_OBJECT
  5
38
102
{ACAD_REACTORS
330
2A
102
}
330
2A
100
AcDbZombieObject
 90
      499
 91
      501
 93
      444
310
42D31A5B995C185D1D195C9B90E409028333333333333E3BF0000000000000FB010790141107004050750841D405064090741402483A0350
1001
ACAD
1000
AcDbSavedByObjectVersion
1070
     0
  0
ACAD_PROXY_OBJECT
  5
33
102
{ACAD_REACTORS
330
2A
102
}
330
2A
100
AcDbZombieObject
 90
      499
 91
      501
 93
      420
310
425499585B1A5CDD1A58D08409028333333333333E3BF0000000000000FB01079019070040501508421405064090741402480A1B40
1001
ACAD
1000
AcDbSavedByObjectVersion
1070
     0
  0
ACAD_PROXY_OBJECT
  5
37
102
{ACAD_REACTORS
330
2A
102
}
330
2A
100
AcDbZombieObject
 90
      499
 91
      501
 93
      412
310
41D51A1A58DAD95B90D409028333333333333E3BF0000000000000FB010790141107004050150C41D405064090741402480A0350
1001
ACAD
1000
AcDbSavedByObjectVersion
1070
     0
  0
DICTIONARYVAR
  5
28B
102
{ACAD_REACTORS
330
288
102
}
330
288
100
DictionaryVariables
280
     0
  1
1:1
  0
DICTIONARYVAR
  5
28C
102
{ACAD_REACTORS
330
288
102
}
330
288
100
DictionaryVariables
280
     0
  1
2
  0
DICTIONARYVAR
  5
28D
102
{ACAD_REACTORS
330
288
102
}
330
288
100
DictionaryVariables
280
     0
  1
1
  0
ENDSEC
  0
EOF
