  0
SECTION
  2
HEADER
  9
$ACADVER
  1
AC1012
  9
$DWGCODEPAGE
  3
ansi_1252
  9
$INSBASE
 10
0.0
 20
0.0
 30
0.0
  9
$EXTMIN
 10
0.0
 20
0.0
 30
0.0
  9
$EXTMAX
 10
11.0
 20
8.5
 30
0.0
  9
$LIMMIN
 10
0.0
 20
0.0
  9
$LIMMAX
 10
11.0
 20
8.5
  9
$ORTHOMODE
 70
     0
  9
$REGENMODE
 70
     1
  9
$FILLMODE
 70
     1
  9
$QTEXTMODE
 70
     0
  9
$MIRRTEXT
 70
     1
  9
$DRAGMODE
 70
     2
  9
$LTSCALE
 40
1.0
  9
$OSMODE
 70
    37
  9
$ATTMODE
 70
     1
  9
$TEXTSIZE
 40
0.125
  9
$TRACEWID
 40
0.05
  9
$TEXTSTYLE
  7
STANDARD
  9
$CLAYER
  8
0
  9
$CELTYPE
  6
BYLAYER
  9
$CECOLOR
 62
   256
  9
$CELTSCALE
 40
1.0
  9
$DELOBJ
 70
     1
  9
$DISPSILH
 70
     0
  9
$DIMSCALE
 40
1.0
  9
$DIMASZ
 40
0.13
  9
$DIMEXO
 40
0.05
  9
$DIMDLI
 40
0.38
  9
$DIMRND
 40
0.0
  9
$DIMDLE
 40
0.0
  9
$DIMEXE
 40
0.125
  9
$DIMTP
 40
0.0
  9
$DIMTM
 40
0.0
  9
$DIMTXT
 40
0.125
  9
$DIMCEN
 40
0.09
  9
$DIMTSZ
 40
0.0
  9
$DIMTOL
 70
     0
  9
$DIMLIM
 70
     0
  9
$DIMTIH
 70
     1
  9
$DIMTOH
 70
     1
  9
$DIMSE1
 70
     0
  9
$DIMSE2
 70
     0
  9
$DIMTAD
 70
     0
  9
$DIMZIN
 70
     0
  9
$DIMBLK
  1

  9
$DIMASO
 70
     1
  9
$DIMSHO
 70
     1
  9
$DIMPOST
  1

  9
$DIMAPOST
  1

  9
$DIMALT
 70
     0
  9
$DIMALTD
 70
     2
  9
$DIMALTF
 40
25.4
  9
$DIMLFAC
 40
0.5
  9
$DIMTOFL
 70
     0
  9
$DIMTVP
 40
0.0
  9
$DIMTIX
 70
     0
  9
$DIMSOXD
 70
     0
  9
$DIMSAH
 70
     0
  9
$DIMBLK1
  1

  9
$DIMBLK2
  1

  9
$DIMSTYLE
  2
STANDARD
  9
$DIMCLRD
 70
     0
  9
$DIMCLRE
 70
     0
  9
$DIMCLRT
 70
     0
  9
$DIMTFAC
 40
1.0
  9
$DIMGAP
 40
0.06
  9
$DIMJUST
 70
     0
  9
$DIMSD1
 70
     0
  9
$DIMSD2
 70
     0
  9
$DIMTOLJ
 70
     1
  9
$DIMTZIN
 70
     0
  9
$DIMALTZ
 70
     0
  9
$DIMALTTZ
 70
     0
  9
$DIMFIT
 70
     3
  9
$DIMUPT
 70
     0
  9
$DIMUNIT
 70
     2
  9
$DIMDEC
 70
     3
  9
$DIMTDEC
 70
     3
  9
$DIMALTU
 70
     2
  9
$DIMALTTD
 70
     2
  9
$DIMTXSTY
  7
STANDARD
  9
$DIMAUNIT
 70
     0
  9
$LUNITS
 70
     2
  9
$LUPREC
 70
     2
  9
$SKETCHINC
 40
0.1
  9
$FILLETRAD
 40
0.5
  9
$AUNITS
 70
     0
  9
$AUPREC
 70
     2
  9
$MENU
  1
.
  9
$ELEVATION
 40
0.0
  9
$PELEVATION
 40
0.0
  9
$THICKNESS
 40
0.0
  9
$LIMCHECK
 70
     0
  9
$CHAMFERA
 40
0.5
  9
$CHAMFERB
 40
0.5
  9
$CHAMFERC
 40
1.0
  9
$CHAMFERD
 40
0.0
  9
$SKPOLY
 70
     0
  9
$TDCREATE
 40
2455784.018973507
  9
$TDUPDATE
 40
2455784.018973519
  9
$TDINDWG
 40
0.0000000116
  9
$TDUSRTIMER
 40
0.0000000116
  9
$USRTIMER
 70
     1
  9
$ANGBASE
 50
0.0
  9
$ANGDIR
 70
     0
  9
$PDMODE
 70
     0
  9
$PDSIZE
 40
-1.0
  9
$PLINEWID
 40
0.0
  9
$COORDS
 70
     1
  9
$SPLFRAME
 70
     0
  9
$SPLINETYPE
 70
     6
  9
$SPLINESEGS
 70
     8
  9
$ATTDIA
 70
     0
  9
$ATTREQ
 70
     1
  9
$HANDLING
 70
     1
  9
$HANDSEED
  5
5F4
  9
$SURFTAB1
 70
     6
  9
$SURFTAB2
 70
     6
  9
$SURFTYPE
 70
     6
  9
$SURFU
 70
     6
  9
$SURFV
 70
     6
  9
$UCSNAME
  2

  9
$UCSORG
 10
0.0
 20
0.0
 30
0.0
  9
$UCSXDIR
 10
1.0
 20
0.0
 30
0.0
  9
$UCSYDIR
 10
0.0
 20
1.0
 30
0.0
  9
$PUCSNAME
  2

  9
$PUCSORG
 10
0.0
 20
0.0
 30
0.0
  9
$PUCSXDIR
 10
1.0
 20
0.0
 30
0.0
  9
$PUCSYDIR
 10
0.0
 20
1.0
 30
0.0
  9
$USERI1
 70
     0
  9
$USERI2
 70
     0
  9
$USERI3
 70
     0
  9
$USERI4
 70
     0
  9
$USERI5
 70
     0
  9
$USERR1
 40
0.0
  9
$USERR2
 40
0.0
  9
$USERR3
 40
0.0
  9
$USERR4
 40
0.0
  9
$USERR5
 40
0.0
  9
$WORLDVIEW
 70
     1
  9
$SHADEDGE
 70
     3
  9
$SHADEDIF
 70
    70
  9
$TILEMODE
 70
     1
  9
$MAXACTVP
 70
    64
  9
$PINSBASE
 10
0.0
 20
0.0
 30
0.0
  9
$PLIMCHECK
 70
     0
  9
$PEXTMIN
 10
1.0000000000E+20
 20
1.0000000000E+20
 30
1.0000000000E+20
  9
$PEXTMAX
 10
-1.0000000000E+20
 20
-1.0000000000E+20
 30
-1.0000000000E+20
  9
$PLIMMIN
 10
0.0
 20
0.0
  9
$PLIMMAX
 10
12.0
 20
9.0
  9
$UNITMODE
 70
     0
  9
$VISRETAIN
 70
     1
  9
$PLINEGEN
 70
     0
  9
$PSLTSCALE
 70
     1
  9
$TREEDEPTH
 70
  3020
  9
$PICKSTYLE
 70
     1
  9
$CMLSTYLE
  2
STANDARD
  9
$CMLJUST
 70
     0
  9
$CMLSCALE
 40
1.0
  9
$SAVEIMAGES
 70
     1
  0
ENDSEC
  0
SECTION
  2
CLASSES
  0
CLASS
  1
ACDBDICTIONARYWDFLT
  2
AcDbDictionaryWithDefault
  3
ObjectDBX Classes
 90
    32768
280
     0
281
     0
  0
CLASS
  1
VISUALSTYLE
  2
AcDbVisualStyle
  3
ObjectDBX Classes
 90
     4095
280
     0
281
     0
  0
CLASS
  1
SCALE
  2
AcDbScale
  3
ObjectDBX Classes
 90
     1153
280
     0
281
     0
  0
CLASS
  1
DICTIONARYVAR
  2
AcDbDictionaryVar
  3
ObjectDBX Classes
 90
        0
280
     0
281
     0
  0
CLASS
  1
XRECORD
  2
AcDbXrecord
  3
AutoCAD 2000
 90
    32768
280
     0
281
     0
  0
CLASS
  1
LWPOLYLINE
  2
AcDbPolyline
  3
AutoCAD 2000
 90
    32768
280
     0
281
     1
  0
CLASS
  1
HATCH
  2
AcDbHatch
  3
AutoCAD 2000
 90
    32768
280
     0
281
     1
  0
CLASS
  1
ACDBPLACEHOLDER
  2
AcDbPlaceHolder
  3
ObjectDBX Classes
 90
        0
280
     0
281
     0
  0
CLASS
  1
LAYOUT
  2
AcDbLayout
  3
ObjectDBX Classes
 90
        0
280
     0
281
     0
  0
ENDSEC
  0
SECTION
  2
TABLES
  0
TABLE
  2
VPORT
  5
8
330
0
100
AcDbSymbolTable
 70
     1
  0
VPORT
  5
29
330
8
100
AcDbSymbolTableRecord
100
AcDbViewportTableRecord
  2
*ACTIVE
 70
     0
 10
0.0
 20
0.0
 11
1.0
 21
1.0
 12
5.5
 22
4.25
 13
0.0
 23
0.0
 14
0.5
 24
0.5
 15
0.5
 25
0.5
 16
0.0
 26
0.0
 36
1.0
 17
0.0
 27
0.0
 37
0.0
 40
8.5
 41
1.2941176471
 42
50.0
 43
0.0
 44
0.0
 50
0.0
 51
0.0
 71
     0
 72
  2000
 73
     1
 74
     3
 75
     0
 76
     0
 77
     0
 78
     0
  0
ENDTAB
  0
TABLE
  2
LTYPE
  5
5
330
0
100
AcDbSymbolTable
 70
     6
  0
LTYPE
  5
14
330
5
100
AcDbSymbolTableRecord
100
AcDbLinetypeTableRecord
  2
BYBLOCK
 70
     0
  3

 72
    65
 73
     0
 40
0.0
  0
LTYPE
  5
15
330
5
100
AcDbSymbolTableRecord
100
AcDbLinetypeTableRecord
  2
BYLAYER
 70
     0
  3

 72
    65
 73
     0
 40
0.0
  0
LTYPE
  5
16
330
5
100
AcDbSymbolTableRecord
100
AcDbLinetypeTableRecord
  2
CONTINUOUS
 70
     0
  3
Solid line
 72
    65
 73
     0
 40
0.0
  0
LTYPE
  5
3B
330
5
100
AcDbSymbolTableRecord
100
AcDbLinetypeTableRecord
  2
HIDDEN
 70
     0
  3
Hidden __ __ __ __ __ __ __ __ __ __ __ __ __ __
 72
    65
 73
     2
 40
0.075
 49
0.05
 74
     0
 49
-0.025
 74
     0
  0
LTYPE
  5
3C
330
5
100
AcDbSymbolTableRecord
100
AcDbLinetypeTableRecord
  2
PHANTOM
 70
     0
  3
Phantom ______  __  __  ______  __  __  ______
 72
    65
 73
     6
 40
0.5
 49
0.25
 74
     0
 49
-0.05
 74
     0
 49
0.05
 74
     0
 49
-0.05
 74
     0
 49
0.05
 74
     0
 49
-0.05
 74
     0
  0
LTYPE
  5
3D
330
5
100
AcDbSymbolTableRecord
100
AcDbLinetypeTableRecord
  2
CENTER
 70
     0
  3
Center ____ _ ____ _ ____ _ ____ _ ____ _ ____
 72
    65
 73
     4
 40
0.4
 49
0.25
 74
     0
 49
-0.05
 74
     0
 49
0.05
 74
     0
 49
-0.05
 74
     0
  0
LTYPE
  5
3E
330
5
100
AcDbSymbolTableRecord
100
AcDbLinetypeTableRecord
  2
CENTERX2
 70
     0
  3
Center (2x) ________  __  ________  __  _____
 72
    65
 73
     4
 40
0.8
 49
0.5
 74
     0
 49
-0.1
 74
     0
 49
0.1
 74
     0
 49
-0.1
 74
     0
  0
LTYPE
  5
3F
330
5
100
AcDbSymbolTableRecord
100
AcDbLinetypeTableRecord
  2
DOT2
 70
     0
  3
Dot (.5x) ........................................
 72
    65
 73
     2
 40
0.025
 49
0.0
 74
     0
 49
-0.025
 74
     0
  0
ENDTAB
  0
TABLE
  2
LAYER
  5
2
330
0
100
AcDbSymbolTable
 70
     2
  0
LAYER
  5
10
330
2
100
AcDbSymbolTableRecord
100
AcDbLayerTableRecord
  2
0
 70
     0
 62
     7
  6
CONTINUOUS
  0
LAYER
  5
40
330
2
100
AcDbSymbolTableRecord
100
AcDbLayerTableRecord
  2
FORMAT
 70
     0
 62
     7
  6
CONTINUOUS
  0
ENDTAB
  0
TABLE
  2
STYLE
  5
3
330
0
100
AcDbSymbolTable
 70
     4
  0
STYLE
  5
11
330
3
100
AcDbSymbolTableRecord
100
AcDbTextStyleTableRecord
  2
STANDARD
 70
     0
 40
0.0
 41
1.0
 50
0.0
 71
     0
 42
0.2
  3
txt
  4

  0
STYLE
  5
6E
330
3
100
AcDbSymbolTableRecord
100
AcDbTextStyleTableRecord
  2
SLDTEXTSTYLE0
 70
     0
 40
0.0
 41
0.75
 50
0.0
 71
     0
 42
0.2
  3
TXT
  4

  0
STYLE
  5
93
330
3
100
AcDbSymbolTableRecord
100
AcDbTextStyleTableRecord
  2
SLDTEXTSTYLE1
 70
     0
 40
0.0
 41
0.6875
 50
0.0
 71
     0
 42
0.2
  3
TXT
  4

  0
STYLE
  5
99
330
3
100
AcDbSymbolTableRecord
100
AcDbTextStyleTableRecord
  2
SLDTEXTSTYLE2
 70
     0
 40
0.0
 41
0.6944444444
 50
0.0
 71
     0
 42
0.2
  3
TXT
  4

  0
ENDTAB
  0
TABLE
  2
VIEW
  5
6
330
0
100
AcDbSymbolTable
 70
     0
  0
ENDTAB
  0
TABLE
  2
UCS
  5
7
330
0
100
AcDbSymbolTable
 70
     0
  0
ENDTAB
  0
TABLE
  2
APPID
  5
9
330
0
100
AcDbSymbolTable
 70
     1
  0
APPID
  5
12
330
9
100
AcDbSymbolTableRecord
100
AcDbRegAppTableRecord
  2
ACAD
 70
     0
  0
ENDTAB
  0
TABLE
  2
DIMSTYLE
  5
A
330
0
100
AcDbSymbolTable
 70
     1
  0
DIMSTYLE
105
27
330
A
100
AcDbSymbolTableRecord
100
AcDbDimStyleTableRecord
  2
STANDARD
 70
     0
  3

  4

  5

  6

  7

 40
1.0
 41
0.18
 42
0.0625
 43
0.38
 44
0.18
 45
0.0
 46
0.0
 47
0.0
 48
0.0
140
0.18
141
0.09
142
0.0
143
25.4
144
1.0
145
0.0
146
1.0
147
0.09
 71
     0
 72
     0
 73
     1
 74
     1
 75
     0
 76
     0
 77
     0
 78
     0
170
     0
171
     2
172
     0
173
     0
174
     0
175
     0
176
     0
177
     0
178
     0
270
     2
271
     4
272
     4
273
     2
274
     2
340
11
275
     0
280
     0
281
     0
282
     0
283
     1
284
     0
285
     0
286
     0
287
     3
288
     0
  0
ENDTAB
  0
TABLE
  2
BLOCK_RECORD
  5
1
330
0
100
AcDbSymbolTable
 70
     4
  0
BLOCK_RECORD
  5
1F
330
1
100
AcDbSymbolTableRecord
100
AcDbBlockTableRecord
  2
*MODEL_SPACE
  0
BLOCK_RECORD
  5
1B
330
1
100
AcDbSymbolTableRecord
100
AcDbBlockTableRecord
  2
*PAPER_SPACE
  0
BLOCK_RECORD
  5
A8
330
1
100
AcDbSymbolTableRecord
100
AcDbBlockTableRecord
  2
SW_NOTE_0
  0
BLOCK_RECORD
  5
AE
330
1
100
AcDbSymbolTableRecord
100
AcDbBlockTableRecord
  2
SW_NOTE_1
  0
BLOCK_RECORD
  5
C2
330
1
100
AcDbSymbolTableRecord
100
AcDbBlockTableRecord
  2
SW_NOTE_2
  0
ENDTAB
  0
ENDSEC
  0
SECTION
  2
BLOCKS
  0
BLOCK
  5
20
330
1F
100
AcDbEntity
  8
0
100
AcDbBlockBegin
  2
*MODEL_SPACE
 70
     0
 10
0.0
 20
0.0
 30
0.0
  3
*MODEL_SPACE
  1

  0
ENDBLK
  5
21
330
1F
100
AcDbEntity
  8
0
100
AcDbBlockEnd
  0
BLOCK
  5
1C
330
1B
100
AcDbEntity
 67
     1
  8
0
100
AcDbBlockBegin
  2
*PAPER_SPACE
 70
     0
 10
0.0
 20
0.0
 30
0.0
  3
*PAPER_SPACE
  1

  0
ENDBLK
  5
1D
330
1B
100
AcDbEntity
 67
     1
  8
0
100
AcDbBlockEnd
  0
BLOCK
  5
A9
330
A8
100
AcDbEntity
  8
0
100
AcDbBlockBegin
  2
SW_NOTE_0
 70
     0
 10
0.0
 20
0.0
 30
0.0
  3
SW_NOTE_0
  1

  0
MTEXT
  5
AB
330
A8
100
AcDbEntity
  8
0
  6
CONTINUOUS
 62
     0
100
AcDbMText
 10
0.0
 20
0.0773440644
 30
0.0
 40
0.06
 41
0.0
 71
     1
 72
     1
  1
INTERPRET GEOMETRIC
  7
SLDTEXTSTYLE0
  0
MTEXT
  5
AC
330
A8
100
AcDbEntity
  8
0
  6
CONTINUOUS
 62
     0
100
AcDbMText
 10
0.0
 20
-0.0220260102
 30
0.0
 40
0.06
 41
0.0
 71
     1
 72
     1
  1
TOLERANCING PER:
  7
SLDTEXTSTYLE0
  0
ENDBLK
  5
AA
330
A8
100
AcDbEntity
  8
0
100
AcDbBlockEnd
  0
BLOCK
  5
AF
330
AE
100
AcDbEntity
  8
0
100
AcDbBlockBegin
  2
SW_NOTE_1
 70
     0
 10
0.0
 20
0.0
 30
0.0
  3
SW_NOTE_1
  1

  0
MTEXT
  5
B1
330
AE
100
AcDbEntity
  8
0
  6
CONTINUOUS
 62
     0
100
AcDbMText
 10
0.0
 20
0.0837894031
 30
0.0
 40
0.065
 41
0.0
 71
     1
 72
     1
  1
DIMENSIONS ARE IN INCHES
  7
SLDTEXTSTYLE0
  0
MTEXT
  5
B2
330
AE
100
AcDbEntity
  8
0
  6
CONTINUOUS
 62
     0
100
AcDbMText
 10
0.0
 20
-0.0205806729
 30
0.0
 40
0.065
 41
0.0
 71
     1
 72
     1
  1
TOLERANCES:
  7
SLDTEXTSTYLE0
  0
MTEXT
  5
B3
330
AE
100
AcDbEntity
  8
0
  6
CONTINUOUS
 62
     0
100
AcDbMText
 10
0.0
 20
-0.1249507489
 30
0.0
 40
0.065
 41
0.0
 71
     1
 72
     1
  1
FRACTIONAL
  7
SLDTEXTSTYLE0
  0
MTEXT
  5
B4
330
AE
100
AcDbEntity
  8
0
  6
CONTINUOUS
 62
     0
100
AcDbMText
 10
0.5175850875
 20
-0.1249507489
 30
0.0
 40
0.065
 41
0.0
 71
     1
 72
     1
  1
%%p
  7
SLDTEXTSTYLE0
  0
MTEXT
  5
B5
330
AE
100
AcDbEntity
  8
0
  6
CONTINUOUS
 62
     0
100
AcDbMText
 10
0.0
 20
-0.2293208248
 30
0.0
 40
0.065
 41
0.0
 71
     1
 72
     1
  1
ANGULAR: MACH
  7
SLDTEXTSTYLE0
  0
MTEXT
  5
B6
330
AE
100
AcDbEntity
  8
0
  6
CONTINUOUS
 62
     0
100
AcDbMText
 10
0.7233732769
 20
-0.2293208248
 30
0.0
 40
0.065
 41
0.0
 71
     1
 72
     1
  1
%%p
  7
SLDTEXTSTYLE0
  0
MTEXT
  5
B7
330
AE
100
AcDbEntity
  8
0
  6
CONTINUOUS
 62
     0
100
AcDbMText
 10
0.7852857683
 20
-0.2293208248
 30
0.0
 40
0.065
 41
0.0
 71
     1
 72
     1
  1
     BEND 
  7
SLDTEXTSTYLE0
  0
MTEXT
  5
B8
330
AE
100
AcDbEntity
  8
0
  6
CONTINUOUS
 62
     0
100
AcDbMText
 10
1.14784136
 20
-0.2293208248
 30
0.0
 40
0.065
 41
0.0
 71
     1
 72
     1
  1
%%p
  7
SLDTEXTSTYLE0
  0
MTEXT
  5
B9
330
AE
100
AcDbEntity
  8
0
  6
CONTINUOUS
 62
     0
100
AcDbMText
 10
0.0
 20
-0.3336909008
 30
0.0
 40
0.065
 41
0.0
 71
     1
 72
     1
  1
TWO PLACE DECIMAL    
  7
SLDTEXTSTYLE0
  0
MTEXT
  5
BA
330
AE
100
AcDbEntity
  8
0
  6
CONTINUOUS
 62
     0
100
AcDbMText
 10
0.9794349188
 20
-0.3336909008
 30
0.0
 40
0.065
 41
0.0
 71
     1
 72
     1
  1
%%p
  7
SLDTEXTSTYLE0
  0
MTEXT
  5
BB
330
AE
100
AcDbEntity
  8
0
  6
CONTINUOUS
 62
     0
100
AcDbMText
 10
0.0
 20
-0.4380609768
 30
0.0
 40
0.065
 41
0.0
 71
     1
 72
     1
  1
THREE PLACE DECIMAL  
  7
SLDTEXTSTYLE0
  0
MTEXT
  5
BC
330
AE
100
AcDbEntity
  8
0
  6
CONTINUOUS
 62
     0
100
AcDbMText
 10
0.9738038639
 20
-0.4380609768
 30
0.0
 40
0.065
 41
0.0
 71
     1
 72
     1
  1
%%p
  7
SLDTEXTSTYLE0
  0
ENDBLK
  5
B0
330
AE
100
AcDbEntity
  8
0
100
AcDbBlockEnd
  0
BLOCK
  5
C3
330
C2
100
AcDbEntity
  8
0
100
AcDbBlockBegin
  2
SW_NOTE_2
 70
     0
 10
0.0
 20
0.0
 30
0.0
  3
SW_NOTE_2
  1

  0
MTEXT
  5
C5
330
C2
100
AcDbEntity
  8
0
  6
CONTINUOUS
 62
     0
100
AcDbMText
 10
0.0
 20
0.0773440644
 30
0.0
 40
0.06
 41
0.0
 71
     1
 72
     1
  1
THE INFORMATION CONTAINED IN THIS
  7
SLDTEXTSTYLE0
  0
MTEXT
  5
C6
330
C2
100
AcDbEntity
  8
0
  6
CONTINUOUS
 62
     0
100
AcDbMText
 10
0.0
 20
-0.0220260102
 30
0.0
 40
0.06
 41
0.0
 71
     1
 72
     1
  1
DRAWING IS THE SOLE PROPERTY OF
  7
SLDTEXTSTYLE0
  0
MTEXT
  5
C7
330
C2
100
AcDbEntity
  8
0
  6
CONTINUOUS
 62
     0
100
AcDbMText
 10
0.0
 20
-0.1213960848
 30
0.0
 40
0.06
 41
0.0
 71
     1
 72
     1
  1
Candy Controls.  ANY 
  7
SLDTEXTSTYLE0
  0
MTEXT
  5
C8
330
C2
100
AcDbEntity
  8
0
  6
CONTINUOUS
 62
     0
100
AcDbMText
 10
0.0
 20
-0.2207661593
 30
0.0
 40
0.06
 41
0.0
 71
     1
 72
     1
  1
REPRODUCTION IN PART OR AS A WHOLE
  7
SLDTEXTSTYLE0
  0
MTEXT
  5
C9
330
C2
100
AcDbEntity
  8
0
  6
CONTINUOUS
 62
     0
100
AcDbMText
 10
0.0
 20
-0.3201362339
 30
0.0
 40
0.06
 41
0.0
 71
     1
 72
     1
  1
WITHOUT THE WRITTEN PERMISSION OF
  7
SLDTEXTSTYLE0
  0
MTEXT
  5
CA
330
C2
100
AcDbEntity
  8
0
  6
CONTINUOUS
 62
     0
100
AcDbMText
 10
0.0
 20
-0.4195063085
 30
0.0
 40
0.06
 41
0.0
 71
     1
 72
     1
  1
Candy Controls IS 
  7
SLDTEXTSTYLE0
  0
MTEXT
  5
CB
330
C2
100
AcDbEntity
  8
0
  6
CONTINUOUS
 62
     0
100
AcDbMText
 10
0.0
 20
-0.518876383
 30
0.0
 40
0.06
 41
0.0
 71
     1
 72
     1
  1
PROHIBITED.
  7
SLDTEXTSTYLE0
  0
ENDBLK
  5
C4
330
C2
100
AcDbEntity
  8
0
100
AcDbBlockEnd
  0
ENDSEC
  0
SECTION
  2
ENTITIES
  0
LINE
  5
41
330
1F
100
AcDbEntity
  8
0
  6
CONTINUOUS
 62
     7
100
AcDbLine
 10
0.329927
 20
8.1920731707
 30
0.0
 11
10.629927
 21
8.1920731707
 31
0.0
  0
LINE
  5
42
330
1F
100
AcDbEntity
  8
0
  6
CONTINUOUS
 62
     7
100
AcDbLine
 10
0.329927
 20
8.1920731707
 30
0.0
 11
0.329927
 21
0.3920731707
 31
0.0
  0
LINE
  5
43
330
1F
100
AcDbEntity
  8
0
  6
CONTINUOUS
 62
     7
100
AcDbLine
 10
10.629927
 20
0.3920731707
 30
0.0
 11
0.329927
 21
0.3920731707
 31
0.0
  0
LINE
  5
44
330
1F
100
AcDbEntity
  8
0
  6
CONTINUOUS
 62
     7
100
AcDbLine
 10
10.629927
 20
0.3920731707
 30
0.0
 11
10.629927
 21
8.1920731707
 31
0.0
  0
LINE
  5
45
330
1F
100
AcDbEntity
  8
0
  6
CONTINUOUS
 62
     7
100
AcDbLine
 10
4.7981841288
 20
0.3920731707
 30
0.0
 11
4.7981841288
 21
2.3564211366
 31
0.0
  0
LINE
  5
46
330
1F
100
AcDbEntity
  8
0
  6
CONTINUOUS
 62
     7
100
AcDbLine
 10
2.8210345579
 20
2.3564211366
 30
0.0
 11
10.629927
 21
2.3564211366
 31
0.0
  0
LINE
  5
47
330
1F
100
AcDbEntity
  8
0
  6
CONTINUOUS
 62
     7
100
AcDbLine
 10
6.1796352514
 20
2.3564211366
 30
0.0
 11
6.1796352514
 21
0.3920731707
 31
0.0
  0
LINE
  5
48
330
1F
100
AcDbEntity
  8
0
  6
CONTINUOUS
 62
     7
100
AcDbLine
 10
7.8712070044
 20
2.3564211366
 30
0.0
 11
7.8712070044
 21
0.3920731707
 31
0.0
  0
LINE
  5
49
330
1F
100
AcDbEntity
  8
0
  6
CONTINUOUS
 62
     7
100
AcDbLine
 10
7.8712070044
 20
0.6049590101
 30
0.0
 11
10.629927
 21
0.6049590101
 31
0.0
  0
LINE
  5
4A
330
1F
100
AcDbEntity
  8
0
  6
CONTINUOUS
 62
     7
100
AcDbLine
 10
7.8712070044
 20
1.1119362457
 30
0.0
 11
10.629927
 21
1.1119362457
 31
0.0
  0
LINE
  5
4B
330
1F
100
AcDbEntity
  8
0
  6
CONTINUOUS
 62
     7
100
AcDbLine
 10
7.8712070044
 20
1.9892703708
 30
0.0
 11
10.629927
 21
1.9892703708
 31
0.0
  0
LINE
  5
4C
330
1F
100
AcDbEntity
  8
0
  6
CONTINUOUS
 62
     7
100
AcDbLine
 10
8.266751752
 20
1.1119362457
 30
0.0
 11
8.266751752
 21
0.6049590101
 31
0.0
  0
LINE
  5
4D
330
1F
100
AcDbEntity
  8
0
  6
CONTINUOUS
 62
     7
100
AcDbLine
 10
8.6943435176
 20
0.6049590101
 30
0.0
 11
8.6943435176
 21
0.3920731707
 31
0.0
  0
LINE
  5
4E
330
1F
100
AcDbEntity
  8
0
  6
CONTINUOUS
 62
     7
100
AcDbLine
 10
10.0579917045
 20
1.1119362457
 30
0.0
 11
10.0579917045
 21
0.6049590101
 31
0.0
  0
LINE
  5
4F
330
1F
100
AcDbEntity
  8
0
  6
CONTINUOUS
 62
     7
100
AcDbLine
 10
9.6662556631
 20
0.6049590101
 30
0.0
 11
9.6662556631
 21
0.3920731707
 31
0.0
  0
LINE
  5
50
330
1F
100
AcDbEntity
  8
0
  6
CONTINUOUS
 62
     7
100
AcDbLine
 10
2.8210345579
 20
0.5883479999
 30
0.0
 11
6.1796352514
 21
0.5883479999
 31
0.0
  0
LINE
  5
51
330
1F
100
AcDbEntity
  8
0
  6
CONTINUOUS
 62
     7
100
AcDbLine
 10
6.1796352514
 20
1.7939211366
 30
0.0
 11
7.8712070044
 21
1.7939211366
 31
0.0
  0
LINE
  5
52
330
1F
100
AcDbEntity
  8
0
  6
CONTINUOUS
 62
     7
100
AcDbLine
 10
6.1796352514
 20
1.9814211366
 30
0.0
 11
7.8712070044
 21
1.9814211366
 31
0.0
  0
LINE
  5
53
330
1F
100
AcDbEntity
  8
0
  6
CONTINUOUS
 62
     7
100
AcDbLine
 10
6.1796352514
 20
2.1689211366
 30
0.0
 11
7.8712070044
 21
2.1689211366
 31
0.0
  0
LINE
  5
54
330
1F
100
AcDbEntity
  8
0
  6
CONTINUOUS
 62
     7
100
AcDbLine
 10
7.8712070044
 20
1.2314211366
 30
0.0
 11
6.1796352514
 21
1.2314211366
 31
0.0
  0
LINE
  5
55
330
1F
100
AcDbEntity
  8
0
  6
CONTINUOUS
 62
     7
100
AcDbLine
 10
7.3921580388
 20
2.3564211366
 30
0.0
 11
7.3921580388
 21
1.2314211366
 31
0.0
  0
LINE
  5
56
330
1F
100
AcDbEntity
  8
0
  6
CONTINUOUS
 62
     7
100
AcDbLine
 10
6.9236308342
 20
2.3564211366
 30
0.0
 11
6.9236308342
 21
1.2314211366
 31
0.0
  0
LINE
  5
57
330
1F
100
AcDbEntity
  8
0
  6
CONTINUOUS
 62
     7
100
AcDbLine
 10
4.7981841288
 20
0.8557965305
 30
0.0
 11
6.1796352514
 21
0.8557965305
 31
0.0
  0
LINE
  5
58
330
1F
100
AcDbEntity
  8
0
  6
CONTINUOUS
 62
     7
100
AcDbLine
 10
4.7981841288
 20
1.1257965305
 30
0.0
 11
6.1796352514
 21
1.1257965305
 31
0.0
  0
LINE
  5
59
330
1F
100
AcDbEntity
  8
0
  6
CONTINUOUS
 62
     7
100
AcDbLine
 10
2.8210345579
 20
0.3920731707
 30
0.0
 11
2.8210345579
 21
2.3564211366
 31
0.0
  0
LINE
  5
5A
330
1F
100
AcDbEntity
  8
0
  6
CONTINUOUS
 62
     7
100
AcDbLine
 10
2.8210345579
 20
1.1064211366
 30
0.0
 11
4.7981841288
 21
1.1064211366
 31
0.0
  0
LINE
  5
5B
330
1F
100
AcDbEntity
  8
0
  6
CONTINUOUS
 62
     7
100
AcDbLine
 10
2.8210345579
 20
1.3564211366
 30
0.0
 11
4.7981841288
 21
1.3564211366
 31
0.0
  0
LINE
  5
5C
330
1F
100
AcDbEntity
  8
0
  6
CONTINUOUS
 62
     7
100
AcDbLine
 10
2.8210345579
 20
1.6064211366
 30
0.0
 11
4.7981841288
 21
1.6064211366
 31
0.0
  0
LINE
  5
5D
330
1F
100
AcDbEntity
  8
0
  6
CONTINUOUS
 62
     7
100
AcDbLine
 10
2.8210345579
 20
1.8564211366
 30
0.0
 11
4.7981841288
 21
1.8564211366
 31
0.0
  0
LINE
  5
5E
330
1F
100
AcDbEntity
  8
0
  6
CONTINUOUS
 62
     7
100
AcDbLine
 10
3.8190146875
 20
2.3564211366
 30
0.0
 11
3.8190146875
 21
0.5883479999
 31
0.0
  0
LINE
  5
5F
330
1F
100
AcDbEntity
  8
0
  6
CONTINUOUS
 62
     7
100
AcDbLine
 10
6.1796352514
 20
2.2020813496
 30
0.0
 11
4.7981841288
 21
2.2020813496
 31
0.0
  0
LINE
  5
60
330
1F
100
AcDbEntity
  8
0
  6
CONTINUOUS
 62
     7
100
AcDbLine
 10
7.8712070044
 20
1.6064211366
 30
0.0
 11
6.1796352514
 21
1.6064211366
 31
0.0
  0
LINE
  5
61
330
1F
100
AcDbEntity
  8
0
  6
CONTINUOUS
 62
     7
100
AcDbLine
 10
7.8712070044
 20
1.4189211366
 30
0.0
 11
6.1796352514
 21
1.4189211366
 31
0.0
  0
LINE
  5
62
330
1F
100
AcDbEntity
  8
0
  6
CONTINUOUS
 62
     7
100
AcDbLine
 10
2.8210345579
 20
2.1064211366
 30
0.0
 11
4.7981841288
 21
2.1064211366
 31
0.0
  0
LINE
  5
63
330
1F
100
AcDbEntity
  8
0
  6
CONTINUOUS
 62
     7
100
AcDbLine
 10
4.7981841288
 20
1.3957965305
 30
0.0
 11
6.1796352514
 21
1.3957965305
 31
0.0
  0
LINE
  5
64
330
1F
100
AcDbEntity
  8
0
  6
CONTINUOUS
 62
     7
100
AcDbLine
 10
2.8210345579
 20
0.8564211366
 30
0.0
 11
4.7981841288
 21
0.8564211366
 31
0.0
  0
LINE
  5
65
330
1F
100
AcDbEntity
  8
0
  6
CONTINUOUS
 62
     7
100
AcDbLine
 10
1.1838252943
 20
0.3920731707
 30
0.0
 11
1.1838252943
 21
1.3064211366
 31
0.0
  0
LINE
  5
66
330
1F
100
AcDbEntity
  8
0
  6
CONTINUOUS
 62
     7
100
AcDbLine
 10
2.8210345579
 20
1.3064211366
 30
0.0
 11
1.1838252943
 21
1.3064211366
 31
0.0
  0
LINE
  5
67
330
1F
100
AcDbEntity
  8
0
  6
CONTINUOUS
 62
     7
100
AcDbLine
 10
8.660927
 20
0.3920731707
 30
0.0
 11
8.660927
 21
0.3072739649
 31
0.0
  0
LINE
  5
68
330
1F
100
AcDbEntity
  8
0
  6
CONTINUOUS
 62
     7
100
AcDbLine
 10
6.692177
 20
0.3920731707
 30
0.0
 11
6.692177
 21
0.3072739649
 31
0.0
  0
LINE
  5
69
330
1F
100
AcDbEntity
  8
0
  6
CONTINUOUS
 62
     7
100
AcDbLine
 10
4.723427
 20
0.3920731707
 30
0.0
 11
4.723427
 21
0.3072739649
 31
0.0
  0
LINE
  5
6A
330
1F
100
AcDbEntity
  8
0
  6
CONTINUOUS
 62
     7
100
AcDbLine
 10
2.754677
 20
0.3920731707
 30
0.0
 11
2.754677
 21
0.3072739649
 31
0.0
  0
LINE
  5
6B
330
1F
100
AcDbEntity
  8
0
  6
CONTINUOUS
 62
     7
100
AcDbLine
 10
2.754677
 20
0.3920731707
 30
0.0
 11
2.7672319738
 21
0.3575
 31
0.0
  0
LINE
  5
6C
330
1F
100
AcDbEntity
  8
0
  6
CONTINUOUS
 62
     7
100
AcDbLine
 10
2.7672319738
 20
0.3575
 30
0.0
 11
2.7414258825
 21
0.3575
 31
0.0
  0
LINE
  5
6D
330
1F
100
AcDbEntity
  8
0
  6
CONTINUOUS
 62
     7
100
AcDbLine
 10
2.7414258825
 20
0.3575
 30
0.0
 11
2.754677
 21
0.3920731707
 31
0.0
  0
MTEXT
  5
91
330
1F
100
AcDbEntity
  8
0
  6
CONTINUOUS
 62
     7
100
AcDbMText
 10
4.9775846961
 20
0.5178452352
 30
0.0
 40
0.0625
 41
0.0
 71
     1
 72
     1
  1
DO NOT SCALE DRAWING
  7
SLDTEXTSTYLE0
  0
MTEXT
  5
92
330
1F
100
AcDbEntity
  8
0
  6
CONTINUOUS
 62
     7
100
AcDbMText
 10
8.5756912287
 20
0.9417064595
 30
0.0
 40
0.125
 41
0.0
 71
     1
 72
     1
  1
CL4-16_CLAMP
  7
SLDTEXTSTYLE0
  0
MTEXT
  5
94
330
1F
100
AcDbEntity
  8
0
  6
CONTINUOUS
 62
     7
100
AcDbMText
 10
9.7571278483
 20
0.5524239532
 30
0.0
 40
0.1
 41
0.0
 71
     1
 72
     1
  1
SHEET 1 OF 1
  7
SLDTEXTSTYLE1
  0
MTEXT
  5
95
330
1F
100
AcDbEntity
  8
0
  6
CONTINUOUS
 62
     7
100
AcDbMText
 10
4.8448077858
 20
2.3132954224
 30
0.0
 40
0.07
 41
0.0
 71
     1
 72
     1
  1
UNLESS OTHERWISE SPECIFIED:
  7
SLDTEXTSTYLE0
  0
MTEXT
  5
96
330
1F
100
AcDbEntity
  8
0
  6
CONTINUOUS
 62
     7
100
AcDbMText
 10
7.9586139647
 20
0.5520987879
 30
0.0
 40
0.1
 41
0.0
 71
     1
 72
     1
  1
SCALE: 2:1
  7
SLDTEXTSTYLE0
  0
MTEXT
  5
97
330
1F
100
AcDbEntity
  8
0
  6
CONTINUOUS
 62
     7
100
AcDbMText
 10
8.7023691647
 20
0.5486763345
 30
0.0
 40
0.1
 41
0.0
 71
     1
 72
     1
  1
WEIGHT: 
  7
SLDTEXTSTYLE0
  0
MTEXT
  5
98
330
1F
100
AcDbEntity
  8
0
  6
CONTINUOUS
 62
     7
100
AcDbMText
 10
10.2277580983
 20
1.081966299
 30
0.0
 40
0.1
 41
0.0
 71
     1
 72
     1
  1
REV
  7
SLDTEXTSTYLE0
  0
MTEXT
  5
9A
330
1F
100
AcDbEntity
  8
0
  6
CONTINUOUS
 62
     7
100
AcDbMText
 10
8.2984570898
 20
1.0858725293
 30
0.0
 40
0.1
 41
0.0
 71
     1
 72
     1
  1
DWG.  NO.
  7
SLDTEXTSTYLE2
  0
MTEXT
  5
9B
330
1F
100
AcDbEntity
  8
0
  6
CONTINUOUS
 62
     7
100
AcDbMText
 10
7.9598482632
 20
0.9442140768
 30
0.0
 40
0.25
 41
0.0
 71
     1
 72
     1
  1
A
  7
SLDTEXTSTYLE0
  0
MTEXT
  5
9C
330
1F
100
AcDbEntity
  8
0
  6
CONTINUOUS
 62
     7
100
AcDbMText
 10
7.9519581822
 20
1.0872713483
 30
0.0
 40
0.1
 41
0.0
 71
     1
 72
     1
  1
SIZE
  7
SLDTEXTSTYLE0
  0
MTEXT
  5
9D
330
1F
100
AcDbEntity
  8
0
  6
CONTINUOUS
 62
     7
100
AcDbMText
 10
7.9170704177
 20
1.9547881128
 30
0.0
 40
0.1
 41
0.0
 71
     1
 72
     1
  1
TITLE:
  7
SLDTEXTSTYLE0
  0
MTEXT
  5
9E
330
1F
100
AcDbEntity
  8
0
  6
CONTINUOUS
 62
     7
100
AcDbMText
 10
7.0363774929
 20
2.2906161274
 30
0.0
 40
0.065
 41
0.0
 71
     1
 72
     1
  1
NAME
  7
SLDTEXTSTYLE0
  0
MTEXT
  5
9F
330
1F
100
AcDbEntity
  8
0
  6
CONTINUOUS
 62
     7
100
AcDbMText
 10
7.5281510634
 20
2.2888799118
 30
0.0
 40
0.065
 41
0.0
 71
     1
 72
     1
  1
DATE
  7
SLDTEXTSTYLE0
  0
MTEXT
  5
A0
330
1F
100
AcDbEntity
  8
0
  6
CONTINUOUS
 62
     7
100
AcDbMText
 10
6.2277147029
 20
1.1876913145
 30
0.0
 40
0.065
 41
0.0
 71
     1
 72
     1
  1
COMMENTS:
  7
SLDTEXTSTYLE0
  0
MTEXT
  5
A1
330
1F
100
AcDbEntity
  8
0
  6
CONTINUOUS
 62
     7
100
AcDbMText
 10
6.2268411461
 20
1.3536101679
 30
0.0
 40
0.065
 41
0.0
 71
     1
 72
     1
  1
Q.A.
  7
SLDTEXTSTYLE0
  0
MTEXT
  5
A2
330
1F
100
AcDbEntity
  8
0
  6
CONTINUOUS
 62
     7
100
AcDbMText
 10
6.2284654509
 20
1.5395328424
 30
0.0
 40
0.065
 41
0.0
 71
     1
 72
     1
  1
MFG APPR.
  7
SLDTEXTSTYLE0
  0
MTEXT
  5
A3
330
1F
100
AcDbEntity
  8
0
  6
CONTINUOUS
 62
     7
100
AcDbMText
 10
6.2235171344
 20
1.7267501785
 30
0.0
 40
0.065
 41
0.0
 71
     1
 72
     1
  1
ENG APPR.
  7
SLDTEXTSTYLE0
  0
MTEXT
  5
A4
330
1F
100
AcDbEntity
  8
0
  6
CONTINUOUS
 62
     7
100
AcDbMText
 10
6.2264103951
 20
1.9092699088
 30
0.0
 40
0.065
 41
0.0
 71
     1
 72
     1
  1
CHECKED
  7
SLDTEXTSTYLE0
  0
MTEXT
  5
A5
330
1F
100
AcDbEntity
  8
0
  6
CONTINUOUS
 62
     7
100
AcDbMText
 10
6.2242794356
 20
2.1016301232
 30
0.0
 40
0.065
 41
0.0
 71
     1
 72
     1
  1
DRAWN
  7
SLDTEXTSTYLE0
  0
MTEXT
  5
A6
330
1F
100
AcDbEntity
  8
0
  6
CONTINUOUS
 62
     7
100
AcDbMText
 10
4.8208600979
 20
0.834523235
 30
0.0
 40
0.06
 41
0.0
 71
     1
 72
     1
  1
FINISH
  7
SLDTEXTSTYLE0
  0
MTEXT
  5
A7
330
1F
100
AcDbEntity
  8
0
  6
CONTINUOUS
 62
     7
100
AcDbMText
 10
4.8181240648
 20
1.1028217587
 30
0.0
 40
0.06
 41
0.0
 71
     1
 72
     1
  1
MATERIAL
  7
SLDTEXTSTYLE0
  0
INSERT
  5
AD
330
1F
100
AcDbEntity
  8
0
  6
CONTINUOUS
 62
     7
100
AcDbBlockReference
  2
SW_NOTE_0
 10
4.8231926633
 20
1.2646542947
 30
0.0
  0
INSERT
  5
BD
330
1F
100
AcDbEntity
  8
0
  6
CONTINUOUS
 62
     7
100
AcDbBlockReference
  2
SW_NOTE_1
 10
4.8353339353
 20
2.0049168724
 30
0.0
  0
MTEXT
  5
BE
330
1F
100
AcDbEntity
  8
0
  6
CONTINUOUS
 62
     7
100
AcDbMText
 10
3.5531400086
 20
0.5200091997
 30
0.0
 40
0.0625
 41
0.0
 71
     1
 72
     1
  1
APPLICATION
  7
SLDTEXTSTYLE0
  0
MTEXT
  5
BF
330
1F
100
AcDbEntity
  8
0
  6
CONTINUOUS
 62
     7
100
AcDbMText
 10
4.1005607758
 20
0.7502454275
 30
0.0
 40
0.0625
 41
0.0
 71
     1
 72
     1
  1
USED ON
  7
SLDTEXTSTYLE0
  0
MTEXT
  5
C0
330
1F
100
AcDbEntity
  8
0
  6
CONTINUOUS
 62
     7
100
AcDbMText
 10
3.1040019536
 20
0.7492094783
 30
0.0
 40
0.0625
 41
0.0
 71
     1
 72
     1
  1
NEXT ASSY
  7
SLDTEXTSTYLE0
  0
MTEXT
  5
C1
330
1F
100
AcDbEntity
  8
0
  6
CONTINUOUS
 62
     7
100
AcDbMText
 10
1.3712489489
 20
1.2496672684
 30
0.0
 40
0.06
 41
0.0
 71
     1
 72
     1
  1
PROPRIETARY AND CONFIDENTIAL
  7
SLDTEXTSTYLE0
  0
INSERT
  5
CC
330
1F
100
AcDbEntity
  8
0
  6
CONTINUOUS
 62
     7
100
AcDbBlockReference
  2
SW_NOTE_2
 10
1.2226209074
 20
1.0313492921
 30
0.0
  0
MTEXT
  5
CD
330
1F
100
AcDbEntity
  8
0
  6
CONTINUOUS
 62
     7
100
AcDbMText
 10
1.7387909509
 20
0.3105864247
 30
0.0
 40
0.09375
 41
0.0
 71
     1
 72
     1
  1
5
  7
SLDTEXTSTYLE0
  0
MTEXT
  5
CE
330
1F
100
AcDbEntity
  8
0
  6
CONTINUOUS
 62
     7
100
AcDbMText
 10
3.723800327
 20
0.3137237518
 30
0.0
 40
0.09375
 41
0.0
 71
     1
 72
     1
  1
4
  7
SLDTEXTSTYLE0
  0
MTEXT
  5
CF
330
1F
100
AcDbEntity
  8
0
  6
CONTINUOUS
 62
     7
100
AcDbMText
 10
5.6324457277
 20
0.3116191842
 30
0.0
 40
0.09375
 41
0.0
 71
     1
 72
     1
  1
3
  7
SLDTEXTSTYLE0
  0
MTEXT
  5
D0
330
1F
100
AcDbEntity
  8
0
  6
CONTINUOUS
 62
     7
100
AcDbMText
 10
7.6059721724
 20
0.3124391351
 30
0.0
 40
0.09375
 41
0.0
 71
     1
 72
     1
  1
2
  7
SLDTEXTSTYLE0
  0
MTEXT
  5
D1
330
1F
100
AcDbEntity
  8
0
  6
CONTINUOUS
 62
     7
100
AcDbMText
 10
9.6619921328
 20
0.301372012
 30
0.0
 40
0.09375
 41
0.0
 71
     1
 72
     1
  1
1
  7
SLDTEXTSTYLE0
  0
LINE
  5
D2
330
1F
100
AcDbEntity
  8
0
  6
CONTINUOUS
 62
     7
100
AcDbLine
 10
3.9795232425
 20
3.1287570265
 30
0.0
 11
4.4683683868
 21
3.1287570265
 31
0.0
  0
LINE
  5
D3
330
1F
100
AcDbEntity
  8
0
  6
CONTINUOUS
 62
     7
100
AcDbLine
 10
3.6940901716
 20
3.1287570265
 30
0.0
 11
3.9401531638
 21
3.1287570265
 31
0.0
  0
LINE
  5
D4
330
1F
100
AcDbEntity
  8
0
  6
CONTINUOUS
 62
     7
100
AcDbLine
 10
3.9401531638
 20
4.3885995462
 30
0.0
 11
3.6940901716
 21
4.3885995462
 31
0.0
  0
LINE
  5
D5
330
1F
100
AcDbEntity
  8
0
  6
CONTINUOUS
 62
     7
100
AcDbLine
 10
4.4683683868
 20
4.3885995462
 30
0.0
 11
3.9795232425
 21
4.3885995462
 31
0.0
  0
LINE
  5
D6
330
1F
100
AcDbEntity
  8
0
  6
CONTINUOUS
 62
     7
100
AcDbLine
 10
4.4683683868
 20
3.1287570265
 30
0.0
 11
4.5077384656
 21
3.1681271053
 31
0.0
  0
LINE
  5
D7
330
1F
100
AcDbEntity
  8
0
  6
CONTINUOUS
 62
     7
100
AcDbLine
 10
4.5077384656
 20
4.3492294675
 30
0.0
 11
4.4683683868
 21
4.3885995462
 31
0.0
  0
LINE
  5
D8
330
1F
100
AcDbEntity
  8
0
  6
CONTINUOUS
 62
     7
100
AcDbLine
 10
3.6940901716
 20
4.3885995462
 30
0.0
 11
3.6547200929
 21
4.3492294675
 31
0.0
  0
LINE
  5
D9
330
1F
100
AcDbEntity
  8
0
  6
CONTINUOUS
 62
     7
100
AcDbLine
 10
3.6547200929
 20
3.1681271053
 30
0.0
 11
3.6940901716
 21
3.1287570265
 31
0.0
  0
LINE
  5
DA
330
1F
100
AcDbEntity
  8
0
  6
CONTINUOUS
 62
     7
100
AcDbLine
 10
2.8673185181
 20
3.1287570265
 30
0.0
 11
3.6153500141
 21
3.1287570265
 31
0.0
  0
LINE
  5
DB
330
1F
100
AcDbEntity
  8
0
  6
CONTINUOUS
 62
     7
100
AcDbLine
 10
3.6153500141
 20
4.3885995462
 30
0.0
 11
2.8673185181
 21
4.3885995462
 31
0.0
  0
LINE
  5
DC
330
1F
100
AcDbEntity
  8
0
  6
CONTINUOUS
 62
     7
100
AcDbLine
 10
2.8673185181
 20
4.3885995462
 30
0.0
 11
2.8279484393
 21
4.3492294675
 31
0.0
  0
LINE
  5
DD
330
1F
100
AcDbEntity
  8
0
  6
CONTINUOUS
 62
     7
100
AcDbLine
 10
2.8279484393
 20
3.1681271053
 30
0.0
 11
2.8673185181
 21
3.1287570265
 31
0.0
  0
LINE
  5
DE
330
1F
100
AcDbEntity
  8
0
  6
CONTINUOUS
 62
     7
100
AcDbLine
 10
3.6153500141
 20
3.1287570265
 30
0.0
 11
3.6547200929
 21
3.1681271053
 31
0.0
  0
LINE
  5
DF
330
1F
100
AcDbEntity
  8
0
  6
CONTINUOUS
 62
     7
100
AcDbLine
 10
3.6547200929
 20
4.3492294675
 30
0.0
 11
3.6153500141
 21
4.3885995462
 31
0.0
  0
ARC
  5
E0
330
1F
100
AcDbEntity
  8
0
  6
CONTINUOUS
 62
     7
100
AcDbCircle
 10
4.1140376782
 20
4.2508042706
 30
0.0
 40
0.0196850393700787
100
AcDbArc
 50
90.0
 51
180.0
  0
ARC
  5
E1
330
1F
100
AcDbEntity
  8
0
  6
CONTINUOUS
 62
     7
100
AcDbCircle
 10
4.4289983081
 20
4.2508042706
 30
0.0
 40
0.0196850393700787
100
AcDbArc
 50
0.0
 51
90.0
  0
LINE
  5
E2
330
1F
100
AcDbEntity
  8
0
  6
CONTINUOUS
 62
     7
100
AcDbLine
 10
4.4486833475
 20
4.2504104123
 30
0.0
 11
4.4486833475
 21
4.2508042706
 31
0.0
  0
LINE
  5
E3
330
1F
100
AcDbEntity
  8
0
  6
CONTINUOUS
 62
     7
100
AcDbLine
 10
4.0943526388
 20
4.2508042706
 30
0.0
 11
4.0943526388
 21
4.2443335479
 31
0.0
  0
LINE
  5
E4
330
1F
100
AcDbEntity
  8
0
  6
CONTINUOUS
 62
     7
100
AcDbLine
 10
4.36994319
 20
3.738993247
 30
0.0
 11
4.36994319
 21
3.7783633258
 31
0.0
  0
LINE
  5
E5
330
1F
100
AcDbEntity
  8
0
  6
CONTINUOUS
 62
     7
100
AcDbLine
 10
4.1730927963
 20
3.7783633258
 30
0.0
 11
4.1730927963
 21
3.738993247
 31
0.0
  0
LINE
  5
E6
330
1F
100
AcDbEntity
  8
0
  6
CONTINUOUS
 62
     7
100
AcDbLine
 10
2.1849038199
 20
4.3885995462
 30
0.0
 11
2.1455337412
 21
4.3492294675
 31
0.0
  0
LINE
  5
E7
330
1F
100
AcDbEntity
  8
0
  6
CONTINUOUS
 62
     7
100
AcDbLine
 10
2.8279484393
 20
4.3885995462
 30
0.0
 11
2.1849038199
 21
4.3885995462
 31
0.0
  0
LINE
  5
E8
330
1F
100
AcDbEntity
  8
0
  6
CONTINUOUS
 62
     7
100
AcDbLine
 10
2.713119043
 20
3.1287570265
 30
0.0
 11
2.7885783606
 21
3.1287570265
 31
0.0
  0
LINE
  5
E9
330
1F
100
AcDbEntity
  8
0
  6
CONTINUOUS
 62
     7
100
AcDbLine
 10
2.7885783606
 20
3.1287570265
 30
0.0
 11
2.8279484393
 21
3.1681271053
 31
0.0
  0
LINE
  5
EA
330
1F
100
AcDbEntity
  8
0
  6
CONTINUOUS
 62
     7
100
AcDbLine
 10
3.8646938462
 20
4.3042060998
 30
0.0
 11
3.8646938462
 21
3.213150473
 31
0.0
  0
SPLINE
  5
EB
330
1F
100
AcDbEntity
  8
0
  6
CONTINUOUS
 62
     7
100
AcDbSpline
210
0.0
220
0.0
230
1.0
 70
     8
 71
     3
 72
     8
 73
     4
 74
     0
 42
0.00000001
 43
0.00000001
 40
0.0
 40
0.0
 40
0.0
 40
0.0
 40
0.0007687366887669
 40
0.0007687366887669
 40
0.0007687366887669
 40
0.0007687366887669
 10
3.864693846166705
 20
3.213150472984527
 30
0.0
 10
3.851485019523419
 20
3.228402712220886
 30
0.0
 10
3.838354592616986
 20
3.243723396122254
 30
0.0
 10
3.825323767426547
 20
3.259127989523956
 30
0.0
  0
LINE
  5
EC
330
1F
100
AcDbEntity
  8
0
  6
CONTINUOUS
 62
     7
100
AcDbLine
 10
3.8253237674
 20
3.2591279895
 30
0.0
 11
3.8253237674
 21
4.2582285833
 31
0.0
  0
SPLINE
  5
ED
330
1F
100
AcDbEntity
  8
0
  6
CONTINUOUS
 62
     7
100
AcDbSpline
210
0.0
220
0.0
230
1.0
 70
     8
 71
     3
 72
     8
 73
     4
 74
     0
 42
0.00000001
 43
0.00000001
 40
0.0
 40
0.0
 40
0.0
 40
0.0
 40
0.0007687366887669
 40
0.0007687366887669
 40
0.0007687366887669
 40
0.0007687366887669
 10
3.825323767426548
 20
4.258228583260139
 30
0.0
 10
3.838354592616986
 20
4.27363317666184
 30
0.0
 10
3.851485019523419
 20
4.288953860563208
 30
0.0
 10
3.864693846166705
 20
4.304206099799567
 30
0.0
  0
LINE
  5
EE
330
1F
100
AcDbEntity
  8
0
  6
CONTINUOUS
 62
     7
100
AcDbLine
 10
3.6940901716
 20
4.3042060998
 30
0.0
 11
3.8646938462
 21
4.3042060998
 31
0.0
  0
LINE
  5
EF
330
1F
100
AcDbEntity
  8
0
  6
CONTINUOUS
 62
     7
100
AcDbLine
 10
3.6940901716
 20
4.3885995462
 30
0.0
 11
3.6940901716
 21
4.3042060998
 31
0.0
  0
LINE
  5
F0
330
1F
100
AcDbEntity
  8
0
  6
CONTINUOUS
 62
     7
100
AcDbLine
 10
3.6940901716
 20
3.213150473
 30
0.0
 11
3.6940901716
 21
3.1287570265
 31
0.0
  0
LINE
  5
F1
330
1F
100
AcDbEntity
  8
0
  6
CONTINUOUS
 62
     7
100
AcDbLine
 10
3.8646938462
 20
3.213150473
 30
0.0
 11
3.6940901716
 21
3.213150473
 31
0.0
  0
LINE
  5
F2
330
1F
100
AcDbEntity
  8
0
  6
CONTINUOUS
 62
     7
100
AcDbLine
 10
4.4683683868
 20
3.7783633258
 30
0.0
 11
3.9795232425
 21
3.7783633258
 31
0.0
  0
LINE
  5
F3
330
1F
100
AcDbEntity
  8
0
  6
CONTINUOUS
 62
     7
100
AcDbLine
 10
3.9795232425
 20
4.3885995462
 30
0.0
 11
3.9795232425
 21
3.7783633258
 31
0.0
  0
LINE
  5
F4
330
1F
100
AcDbEntity
  8
0
  6
CONTINUOUS
 62
     7
100
AcDbLine
 10
3.9401531638
 20
4.3685969236
 30
0.0
 11
3.9795232425
 21
4.3685969236
 31
0.0
  0
LINE
  5
F5
330
1F
100
AcDbEntity
  8
0
  6
CONTINUOUS
 62
     7
100
AcDbLine
 10
3.9795232425
 20
3.1487596492
 30
0.0
 11
3.9401531638
 21
3.1487596492
 31
0.0
  0
LINE
  5
F6
330
1F
100
AcDbEntity
  8
0
  6
CONTINUOUS
 62
     7
100
AcDbLine
 10
3.9795232425
 20
3.738993247
 30
0.0
 11
3.9795232425
 21
3.1287570265
 31
0.0
  0
LINE
  5
F7
330
1F
100
AcDbEntity
  8
0
  6
CONTINUOUS
 62
     7
100
AcDbLine
 10
4.4683683868
 20
3.738993247
 30
0.0
 11
3.9795232425
 21
3.738993247
 31
0.0
  0
LINE
  5
F8
330
1F
100
AcDbEntity
  8
0
  6
CONTINUOUS
 62
     7
100
AcDbLine
 10
4.4683683868
 20
3.7783633258
 30
0.0
 11
4.4683683868
 21
4.3885995462
 31
0.0
  0
LINE
  5
F9
330
1F
100
AcDbEntity
  8
0
  6
CONTINUOUS
 62
     7
100
AcDbLine
 10
4.4683683868
 20
3.1287570265
 30
0.0
 11
4.4683683868
 21
3.738993247
 31
0.0
  0
SPLINE
  5
FA
330
1F
100
AcDbEntity
  8
0
  6
CONTINUOUS
 62
     7
100
AcDbSpline
210
0.0
220
0.0
230
1.0
 70
     8
 71
     3
 72
    42
 73
    38
 74
     0
 42
0.00000001
 43
0.00000001
 40
-0.0624999999999999
 40
-0.0624999999999999
 40
0.0
 40
0.0
 40
0.0624999999999999
 40
0.0624999999999999
 40
0.09375
 40
0.09375
 40
0.1250000000000001
 40
0.1250000000000001
 40
0.1875000000000004
 40
0.1875000000000004
 40
0.2500000000000007
 40
0.2500000000000007
 40
0.3125000000000009
 40
0.3125000000000009
 40
0.3750000000000011
 40
0.3750000000000011
 40
0.4062500000000011
 40
0.4062500000000011
 40
0.437500000000001
 40
0.437500000000001
 40
0.5000000000000009
 40
0.5000000000000009
 40
0.5625000000000008
 40
0.5625000000000008
 40
0.6250000000000007
 40
0.6250000000000007
 40
0.6875000000000006
 40
0.6875000000000006
 40
0.7500000000000004
 40
0.7500000000000004
 40
0.8125000000000003
 40
0.8125000000000003
 40
0.8750000000000002
 40
0.8750000000000002
 40
0.9375000000000001
 40
0.9375000000000001
 40
1.0
 40
1.0
 40
1.0625
 40
1.0625
 10
4.256398052318104
 20
3.36546993293854
 30
0.0
 10
4.286637933978561
 20
3.36546993293854
 30
0.0
 10
4.300984253404204
 20
3.360946964754246
 30
0.0
 10
4.319144971229491
 20
3.350842768375203
 30
0.0
 10
4.324675299094698
 20
3.346943086097895
 30
0.0
 10
4.334612902119996
 20
3.338669439193459
 30
0.0
 10
4.339083568051163
 20
3.33425369208401
 30
0.0
 10
4.351239834628589
 20
3.320392040199305
 30
0.0
 10
4.357344837342983
 20
3.310792280545215
 30
0.0
 10
4.366278054227385
 20
3.291315458428093
 30
0.0
 10
4.368992217841755
 20
3.2815137423562
 30
0.0
 10
4.370477738871573
 20
3.262762762979261
 30
0.0
 10
4.369229477576405
 20
3.253576090818625
 30
0.0
 10
4.362071947773406
 20
3.236918146661893
 30
0.0
 10
4.356041161135518
 20
3.22923170661512
 30
0.0
 10
4.343269862046387
 20
3.219637350173313
 30
0.0
 10
4.33830129072724
 20
3.216695868886518
 30
0.0
 10
4.327373214478726
 20
3.211633427105011
 30
0.0
 10
4.321411328044179
 20
3.209486987437619
 30
0.0
 10
4.301900941010492
 20
3.204176221399708
 30
0.0
 10
4.287023110238098
 20
3.202296317579591
 30
0.0
 10
4.257156718749393
 20
3.202204221509006
 30
0.0
 10
4.242259439343146
 20
3.20398606697551
 30
0.0
 10
4.216055594746896
 20
3.210895782802735
 30
0.0
 10
4.204719676560493
 20
3.216048847758433
 30
0.0
 10
4.187365737110543
 20
3.228828208358804
 30
0.0
 10
4.181256648028658
 20
3.236463287153321
 30
0.0
 10
4.173899172695382
 20
3.253145953071327
 30
0.0
 10
4.172579974657094
 20
3.262310894108881
 30
0.0
 10
4.173960278127209
 20
3.281155473969824
 30
0.0
 10
4.176663655035834
 20
3.291026935297981
 30
0.0
 10
4.185505548802116
 20
3.310468020822152
 30
0.0
 10
4.191741926044916
 20
3.320296564442379
 30
0.0
 10
4.207764315001229
 20
3.338633385329132
 30
0.0
 10
4.217711070810263
 20
3.347369907245567
 30
0.0
 10
4.241799334304477
 20
3.360840483707426
 30
0.0
 10
4.256398052318104
 20
3.36546993293854
 30
0.0
 10
4.286637933978561
 20
3.36546993293854
 30
0.0
  0
SPLINE
  5
FB
330
1F
100
AcDbEntity
  8
0
  6
CONTINUOUS
 62
     7
100
AcDbSpline
210
0.0
220
0.0
230
1.0
 70
     8
 71
     3
 72
    52
 73
    48
 74
     0
 42
0.00000001
 43
0.00000001
 40
0.0
 40
0.0
 40
0.0
 40
0.0
 40
0.0625000000000005
 40
0.0625000000000005
 40
0.125000000000001
 40
0.125000000000001
 40
0.1875000000000015
 40
0.1875000000000015
 40
0.2187500000000017
 40
0.2187500000000017
 40
0.2500000000000018
 40
0.2500000000000018
 40
0.3125000000000019
 40
0.3125000000000019
 40
0.343750000000002
 40
0.343750000000002
 40
0.3750000000000021
 40
0.3750000000000021
 40
0.4062500000000022
 40
0.4062500000000022
 40
0.4375000000000023
 40
0.4375000000000023
 40
0.4687500000000023
 40
0.4687500000000023
 40
0.5000000000000024
 40
0.5000000000000024
 40
0.5625000000000021
 40
0.5625000000000021
 40
0.5937500000000021
 40
0.5937500000000021
 40
0.625000000000002
 40
0.625000000000002
 40
0.6875000000000017
 40
0.6875000000000017
 40
0.7187500000000016
 40
0.7187500000000016
 40
0.7500000000000013
 40
0.7500000000000013
 40
0.7812500000000011
 40
0.7812500000000011
 40
0.8125000000000009
 40
0.8125000000000009
 40
0.8750000000000007
 40
0.8750000000000007
 40
0.9375000000000003
 40
0.9375000000000003
 40
1.0
 40
1.0
 40
1.0
 40
1.0
 10
4.362820331285509
 20
4.073638916313307
 30
0.0
 10
4.377737999255682
 20
4.089176889878757
 30
0.0
 10
4.390189426732495
 20
4.105534283556631
 30
0.0
 10
4.411984325457006
 20
4.138625309384476
 30
0.0
 10
4.421325579372326
 20
4.155570911708693
 30
0.0
 10
4.436189937884759
 20
4.188496788072886
 30
0.0
 10
4.441777070363211
 20
4.204531296503564
 30
0.0
 10
4.446857509522034
 20
4.227866229402422
 30
0.0
 10
4.447990409205564
 20
4.23557173708692
 30
0.0
 10
4.448907104847668
 20
4.250373348848427
 30
0.0
 10
4.448705133378938
 20
4.257499625485148
 30
0.0
 10
4.445865715280616
 20
4.278062407913462
 30
0.0
 10
4.440875377542649
 20
4.290771647599588
 30
0.0
 10
4.428059843341946
 20
4.307077510539944
 30
0.0
 10
4.422843414601864
 20
4.312147139291481
 30
0.0
 10
4.41058029832161
 20
4.32132979447136
 30
0.0
 10
4.403635085665371
 20
4.325388213412033
 30
0.0
 10
4.38805800656191
 20
4.332585055634571
 30
0.0
 10
4.379319827951925
 20
4.335752271003084
 30
0.0
 10
4.360474299470307
 20
4.341099420118853
 30
0.0
 10
4.350489670992406
 20
4.343263607869558
 30
0.0
 10
4.329395413589297
 20
4.346732576809784
 30
0.0
 10
4.318163144241842
 20
4.348039547947953
 30
0.0
 10
4.295525921363449
 20
4.349757251100145
 30
0.0
 10
4.284036292349772
 20
4.350191571959346
 30
0.0
 10
4.249042496745474
 20
4.350253299134763
 30
0.0
 10
4.225882238463908
 20
4.348644402271444
 30
0.0
 10
4.193892463696781
 20
4.343530593967097
 30
0.0
 10
4.183842397797273
 20
4.341399634374699
 30
0.0
 10
4.164933086329193
 20
4.336152870028262
 30
0.0
 10
4.156068571589484
 20
4.333012930347764
 30
0.0
 10
4.132363010676707
 20
4.322275257190636
 30
0.0
 10
4.119866184363551
 20
4.313070601583213
 30
0.0
 10
4.106817381461141
 20
4.296802129050675
 30
0.0
 10
4.103333597643393
 20
4.290899801088276
 30
0.0
 10
4.098112614502471
 20
4.278418511654526
 30
0.0
 10
4.096366421799679
 20
4.271865731740175
 30
0.0
 10
4.094370148854297
 20
4.258126041506099
 30
0.0
 10
4.094128019800658
 20
4.250888107905321
 30
0.0
 10
4.094985073698533
 20
4.236081270148786
 30
0.0
 10
4.096071545076842
 20
4.228506323800307
 30
0.0
 10
4.101035795416466
 20
4.205276863664636
 30
0.0
 10
4.106662998724733
 20
4.188960541775431
 30
0.0
 10
4.121555351459306
 20
4.155857396800807
 30
0.0
 10
4.130730058090758
 20
4.139158839612829
 30
0.0
 10
4.152649294781676
 20
4.105789603423026
 30
0.0
 10
4.165305089827653
 20
4.089169491744427
 30
0.0
 10
4.180215655011155
 20
4.073638916313307
 30
0.0
  0
LINE
  5
FC
330
1F
100
AcDbEntity
  8
0
  6
CONTINUOUS
 62
     7
100
AcDbLine
 10
3.9401531638
 20
4.3885995462
 30
0.0
 11
3.9401531638
 21
3.1287570265
 31
0.0
  0
LINE
  5
FD
330
1F
100
AcDbEntity
  8
0
  6
CONTINUOUS
 62
     7
100
AcDbLine
 10
4.5077384656
 20
3.738993247
 30
0.0
 11
4.5077384656
 21
3.1681271053
 31
0.0
  0
LINE
  5
FE
330
1F
100
AcDbEntity
  8
0
  6
CONTINUOUS
 62
     7
100
AcDbLine
 10
4.5077384656
 20
4.3492294675
 30
0.0
 11
4.5077384656
 21
3.7783633258
 31
0.0
  0
LINE
  5
FF
330
1F
100
AcDbEntity
  8
0
  6
CONTINUOUS
 62
     7
100
AcDbLine
 10
4.4683683868
 20
3.738993247
 30
0.0
 11
4.5077384656
 21
3.738993247
 31
0.0
  0
LINE
  5
100
330
1F
100
AcDbEntity
  8
0
  6
CONTINUOUS
 62
     7
100
AcDbLine
 10
4.4683683868
 20
3.7783633258
 30
0.0
 11
4.5077384656
 21
3.7783633258
 31
0.0
  0
LINE
  5
101
330
1F
100
AcDbEntity
  8
0
  6
CONTINUOUS
 62
     7
100
AcDbLine
 10
3.6940901716
 20
4.3042060998
 30
0.0
 11
3.6813421372
 21
4.2893185765
 31
0.0
  0
LINE
  5
102
330
1F
100
AcDbEntity
  8
0
  6
CONTINUOUS
 62
     7
100
AcDbLine
 10
3.6547200929
 20
4.2893185765
 30
0.0
 11
3.6547200929
 21
4.3492294675
 31
0.0
  0
LINE
  5
103
330
1F
100
AcDbEntity
  8
0
  6
CONTINUOUS
 62
     7
100
AcDbLine
 10
3.6768705159
 20
3.2332600849
 30
0.0
 11
3.6940901716
 21
3.213150473
 31
0.0
  0
LINE
  5
104
330
1F
100
AcDbEntity
  8
0
  6
CONTINUOUS
 62
     7
100
AcDbLine
 10
3.6547200929
 20
3.1681271053
 30
0.0
 11
3.6547200929
 21
3.2332600849
 31
0.0
  0
SPLINE
  5
105
330
1F
100
AcDbEntity
  8
0
  6
CONTINUOUS
 62
     7
100
AcDbSpline
210
0.0
220
0.0
230
1.0
 70
     8
 71
     3
 72
     8
 73
     4
 74
     0
 42
0.00000001
 43
0.00000001
 40
0.0
 40
0.0
 40
0.0
 40
0.0
 40
1.0
 40
1.0
 40
1.0
 40
1.0
 10
4.034670580098794
 20
3.738993247021968
 30
0.0
 10
4.035491861536868
 20
3.752116606602021
 30
0.0
 10
4.035491861536868
 20
3.765239966182073
 30
0.0
 10
4.034670580098794
 20
3.778363325762126
 30
0.0
  0
LINE
  5
106
330
1F
100
AcDbEntity
  8
0
  6
CONTINUOUS
 62
     7
100
AcDbLine
 10
3.9795232425
 20
3.7783633258
 30
0.0
 11
3.9795232425
 21
3.7586782864
 31
0.0
  0
LINE
  5
107
330
1F
100
AcDbEntity
  8
0
  6
CONTINUOUS
 62
     7
100
AcDbLine
 10
3.9795232425
 20
3.7586782864
 30
0.0
 11
3.9795232425
 21
3.738993247
 31
0.0
  0
LINE
  5
108
330
1F
100
AcDbEntity
  8
0
  6
CONTINUOUS
 62
     7
100
AcDbLine
 10
4.5077384656
 20
3.738993247
 30
0.0
 11
4.5077384656
 21
3.7783633258
 31
0.0
  0
LINE
  5
109
330
1F
100
AcDbEntity
  8
0
  6
CONTINUOUS
 62
     7
100
AcDbLine
 10
3.6153500141
 20
4.2893185765
 30
0.0
 11
3.6153500141
 21
4.3885995462
 31
0.0
  0
LINE
  5
10A
330
1F
100
AcDbEntity
  8
0
  6
CONTINUOUS
 62
     7
100
AcDbLine
 10
3.7859536887
 20
4.2893185765
 30
0.0
 11
3.6153500141
 21
4.2893185765
 31
0.0
  0
LINE
  5
10B
330
1F
100
AcDbEntity
  8
0
  6
CONTINUOUS
 62
     7
100
AcDbLine
 10
3.7859536887
 20
3.2332600849
 30
0.0
 11
3.7859536887
 21
4.2893185765
 31
0.0
  0
LINE
  5
10C
330
1F
100
AcDbEntity
  8
0
  6
CONTINUOUS
 62
     7
100
AcDbLine
 10
3.6153500141
 20
3.2332600849
 30
0.0
 11
3.7859536887
 21
3.2332600849
 31
0.0
  0
LINE
  5
10D
330
1F
100
AcDbEntity
  8
0
  6
CONTINUOUS
 62
     7
100
AcDbLine
 10
3.6153500141
 20
3.1287570265
 30
0.0
 11
3.6153500141
 21
3.2332600849
 31
0.0
  0
LINE
  5
10E
330
1F
100
AcDbEntity
  8
0
  6
CONTINUOUS
 62
     7
100
AcDbLine
 10
3.0379221926
 20
3.4112066945
 30
0.0
 11
2.8673185181
 21
3.4112066945
 31
0.0
  0
LINE
  5
10F
330
1F
100
AcDbEntity
  8
0
  6
CONTINUOUS
 62
     7
100
AcDbLine
 10
3.0379221926
 20
4.0981214718
 30
0.0
 11
3.0379221926
 21
3.4112066945
 31
0.0
  0
LINE
  5
110
330
1F
100
AcDbEntity
  8
0
  6
CONTINUOUS
 62
     7
100
AcDbLine
 10
2.8673185181
 20
4.0981214718
 30
0.0
 11
3.0379221926
 21
4.0981214718
 31
0.0
  0
LINE
  5
111
330
1F
100
AcDbEntity
  8
0
  6
CONTINUOUS
 62
     7
100
AcDbLine
 10
2.8673185181
 20
4.3885995462
 30
0.0
 11
2.8673185181
 21
4.0981214718
 31
0.0
  0
LINE
  5
112
330
1F
100
AcDbEntity
  8
0
  6
CONTINUOUS
 62
     7
100
AcDbLine
 10
2.8673185181
 20
3.4112066945
 30
0.0
 11
2.8673185181
 21
3.1287570265
 31
0.0
  0
SPLINE
  5
113
330
1F
100
AcDbEntity
  8
0
  6
CONTINUOUS
 62
     7
100
AcDbSpline
210
0.0
220
0.0
230
1.0
 70
     8
 71
     3
 72
     8
 73
     4
 74
     0
 42
0.00000001
 43
0.00000001
 40
0.0
 40
0.0
 40
0.0
 40
0.0
 40
0.0006142430572494
 40
0.0006142430572494
 40
0.0006142430572494
 40
0.0006142430572494
 10
3.004151795200781
 20
4.073638916313305
 30
0.0
 10
3.015400225335782
 20
4.081805535908046
 30
0.0
 10
3.026657489464346
 20
4.08996607495355
 30
0.0
 10
3.037922192623398
 20
4.098121471769488
 30
0.0
  0
SPLINE
  5
114
330
1F
100
AcDbEntity
  8
0
  6
CONTINUOUS
 62
     7
100
AcDbSpline
210
0.0
220
0.0
230
1.0
 70
     8
 71
     3
 72
     8
 73
     4
 74
     0
 42
0.00000001
 43
0.00000001
 40
0.0
 40
0.0
 40
0.0
 40
0.0
 40
0.0005308683874405
 40
0.0005308683874405
 40
0.0005308683874405
 40
0.0005308683874405
 10
3.01313417009041
 20
3.443717656470785
 30
0.0
 10
3.021303426649614
 20
3.432814789950859
 30
0.0
 10
3.029571366378463
 20
3.421980453542643
 30
0.0
 10
3.037922192623398
 20
3.411206694514027
 30
0.0
  0
LINE
  5
115
330
1F
100
AcDbEntity
  8
0
  6
CONTINUOUS
 62
     7
100
AcDbLine
 10
2.9985521139
 20
3.4437176565
 30
0.0
 11
2.9985521139
 21
4.0736389163
 31
0.0
  0
SPLINE
  5
116
330
1F
100
AcDbEntity
  8
0
  6
CONTINUOUS
 62
     7
100
AcDbSpline
210
0.0
220
0.0
230
1.0
 70
     8
 71
     3
 72
     8
 73
     4
 74
     0
 42
0.00000001
 43
0.00000001
 40
0.0
 40
0.0
 40
0.0
 40
0.0
 40
0.0001099959787387
 40
0.0001099959787387
 40
0.0001099959787387
 40
0.0001099959787387
 10
3.819724086109007
 20
4.264836021059409
 30
0.0
 10
3.821592645855977
 20
4.26263523772974
 30
0.0
 10
3.823459229943767
 20
4.260432775349641
 30
0.0
 10
3.825323767426551
 20
4.258228583260134
 30
0.0
  0
SPLINE
  5
117
330
1F
100
AcDbEntity
  8
0
  6
CONTINUOUS
 62
     7
100
AcDbSpline
210
0.0
220
0.0
230
1.0
 70
     8
 71
     3
 72
     8
 73
     4
 74
     0
 42
0.00000001
 43
0.00000001
 40
0.0
 40
0.0
 40
0.0
 40
0.0
 40
0.000285957619003
 40
0.000285957619003
 40
0.000285957619003
 40
0.000285957619003
 10
3.825323767426548
 20
3.259127989523956
 30
0.0
 10
3.820476511142892
 20
3.253397729845671
 30
0.0
 10
3.815615425069991
 20
3.247679144808818
 30
0.0
 10
3.810741711219377
 20
3.241971370920309
 30
0.0
  0
SPLINE
  5
118
330
1F
100
AcDbEntity
  8
0
  6
CONTINUOUS
 62
     7
100
AcDbSpline
210
0.0
220
0.0
230
1.0
 70
     8
 71
     3
 72
     8
 73
     4
 74
     0
 42
0.00000001
 43
0.00000001
 40
0.0
 40
0.0
 40
0.0
 40
0.0
 40
0.0005308683874405
 40
0.0005308683874405
 40
0.0005308683874405
 40
0.0005308683874405
 10
3.78595368868639
 20
3.233260084918836
 30
0.0
 10
3.794304514931325
 20
3.236146904950002
 30
0.0
 10
3.802572454660174
 20
3.23904995664111
 30
0.0
 10
3.810741711219377
 20
3.241971370920309
 30
0.0
  0
SPLINE
  5
119
330
1F
100
AcDbEntity
  8
0
  6
CONTINUOUS
 62
     7
100
AcDbSpline
210
0.0
220
0.0
230
1.0
 70
     8
 71
     3
 72
     8
 73
     4
 74
     0
 42
0.00000001
 43
0.00000001
 40
0.0
 40
0.0
 40
0.0
 40
0.0
 40
0.0006142430572494
 40
0.0006142430572494
 40
0.0006142430572494
 40
0.0006142430572494
 10
3.78595368868639
 20
4.289318576515594
 30
0.0
 10
3.797218391845442
 20
4.281163179699655
 30
0.0
 10
3.808475655974006
 20
4.27300264065415
 30
0.0
 10
3.819724086109007
 20
4.264836021059409
 30
0.0
  0
SPLINE
  5
11A
330
1F
100
AcDbEntity
  8
0
  6
CONTINUOUS
 62
     7
100
AcDbSpline
210
0.0
220
0.0
230
1.0
 70
     8
 71
     3
 72
     8
 73
     4
 74
     0
 42
0.00000001
 43
0.00000001
 40
0.0
 40
0.0
 40
0.0
 40
0.0
 40
0.0006142430572494
 40
0.0006142430572494
 40
0.0006142430572494
 40
0.0006142430572494
 10
2.833548120660098
 20
4.073638916313305
 30
0.0
 10
2.8447965507951
 20
4.081805535908046
 30
0.0
 10
2.856053814923664
 20
4.08996607495355
 30
0.0
 10
2.867318518082715
 20
4.098121471769488
 30
0.0
  0
LINE
  5
11B
330
1F
100
AcDbEntity
  8
0
  6
CONTINUOUS
 62
     7
100
AcDbLine
 10
3.0041517952
 20
4.0736389163
 30
0.0
 11
2.9989174323
 21
4.0736389163
 31
0.0
  0
SPLINE
  5
11C
330
1F
100
AcDbEntity
  8
0
  6
CONTINUOUS
 62
     7
100
AcDbSpline
210
0.0
220
0.0
230
1.0
 70
     8
 71
     3
 72
     8
 73
     4
 74
     0
 42
0.00000001
 43
0.00000001
 40
0.0
 40
0.0
 40
0.0
 40
0.0
 40
0.0005308683874405
 40
0.0005308683874405
 40
0.0005308683874405
 40
0.0005308683874405
 10
2.842530495549728
 20
3.443717656470785
 30
0.0
 10
2.850699752108932
 20
3.432814789950859
 30
0.0
 10
2.858967691837781
 20
3.421980453542643
 30
0.0
 10
2.867318518082715
 20
3.411206694514027
 30
0.0
  0
LINE
  5
11D
330
1F
100
AcDbEntity
  8
0
  6
CONTINUOUS
 62
     7
100
AcDbLine
 10
2.8279484393
 20
3.1681271053
 30
0.0
 11
2.8279484393
 21
3.4437176565
 31
0.0
  0
LINE
  5
11E
330
1F
100
AcDbEntity
  8
0
  6
CONTINUOUS
 62
     7
100
AcDbLine
 10
2.9989174323
 20
3.4437176565
 30
0.0
 11
3.0131341701
 21
3.4437176565
 31
0.0
  0
LINE
  5
11F
330
1F
100
AcDbEntity
  8
0
  6
CONTINUOUS
 62
     7
100
AcDbLine
 10
4.2715179931
 20
4.27048931
 30
0.0
 11
4.4289983081
 21
4.27048931
 31
0.0
  0
LINE
  5
120
330
1F
100
AcDbEntity
  8
0
  6
CONTINUOUS
 62
     7
100
AcDbLine
 10
4.1140376782
 20
4.27048931
 30
0.0
 11
4.2715179931
 21
4.27048931
 31
0.0
  0
LINE
  5
121
330
1F
100
AcDbEntity
  8
0
  6
CONTINUOUS
 62
     7
100
AcDbLine
 10
4.2715179931
 20
4.0736389163
 30
0.0
 11
4.3628203313
 21
4.0736389163
 31
0.0
  0
LINE
  5
122
330
1F
100
AcDbEntity
  8
0
  6
CONTINUOUS
 62
     7
100
AcDbLine
 10
4.1799588417
 20
4.0736389163
 30
0.0
 11
4.2715179931
 21
4.0736389163
 31
0.0
  0
LINE
  5
123
330
1F
100
AcDbEntity
  8
0
  6
CONTINUOUS
 62
     7
100
AcDbLine
 10
4.2777038362
 20
3.364977499
 30
0.0
 11
4.2638007461
 21
3.364977499
 31
0.0
  0
LINE
  5
124
330
1F
100
AcDbEntity
  8
0
  6
CONTINUOUS
 62
     7
100
AcDbLine
 10
2.1849038199
 20
3.1290646804
 30
0.0
 11
2.1849038199
 21
4.3885995462
 31
0.0
  0
LINE
  5
125
330
1F
100
AcDbEntity
  8
0
  6
CONTINUOUS
 62
     7
100
AcDbLine
 10
2.1849038199
 20
3.1290646804
 30
0.0
 11
2.1455337412
 21
3.1684552805
 31
0.0
  0
LINE
  5
126
330
1F
100
AcDbEntity
  8
0
  6
CONTINUOUS
 62
     7
100
AcDbLine
 10
2.1455337412
 20
4.3492294675
 30
0.0
 11
2.1455337412
 21
3.1684552805
 31
0.0
  0
LINE
  5
127
330
1F
100
AcDbEntity
  8
0
  6
CONTINUOUS
 62
     7
100
AcDbLine
 10
2.8279484393
 20
4.3885995462
 30
0.0
 11
2.8279484393
 21
4.0736389163
 31
0.0
  0
LINE
  5
128
330
1F
100
AcDbEntity
  8
0
  6
CONTINUOUS
 62
     7
100
AcDbLine
 10
2.8279484393
 20
4.0736389163
 30
0.0
 11
2.9591820351
 21
4.0736389163
 31
0.0
  0
LINE
  5
129
330
1F
100
AcDbEntity
  8
0
  6
CONTINUOUS
 62
     7
100
AcDbLine
 10
2.9591820351
 20
4.0736389163
 30
0.0
 11
2.9591820351
 21
3.4437176565
 31
0.0
  0
LINE
  5
12A
330
1F
100
AcDbEntity
  8
0
  6
CONTINUOUS
 62
     7
100
AcDbLine
 10
2.9591820351
 20
3.4437176565
 30
0.0
 11
2.7885783606
 21
3.4437176565
 31
0.0
  0
LINE
  5
12B
330
1F
100
AcDbEntity
  8
0
  6
CONTINUOUS
 62
     7
100
AcDbLine
 10
2.7885783606
 20
3.4437176565
 30
0.0
 11
2.7885783606
 21
3.1287570265
 31
0.0
  0
LINE
  5
12C
330
1F
100
AcDbEntity
  8
0
  6
CONTINUOUS
 62
     7
100
AcDbLine
 10
2.713119043
 20
3.9161586014
 30
0.0
 11
2.6737489643
 21
3.9161586014
 31
0.0
  0
LINE
  5
12D
330
1F
100
AcDbEntity
  8
0
  6
CONTINUOUS
 62
     7
100
AcDbLine
 10
2.6737489643
 20
3.9161586014
 30
0.0
 11
2.6737489643
 21
3.1290646804
 31
0.0
  0
LINE
  5
12E
330
1F
100
AcDbEntity
  8
0
  6
CONTINUOUS
 62
     7
100
AcDbLine
 10
2.1849038199
 20
3.1290646804
 30
0.0
 11
2.6737489643
 21
3.1290646804
 31
0.0
  0
SPLINE
  5
12F
330
1F
100
AcDbEntity
  8
0
  6
CONTINUOUS
 62
     7
100
AcDbSpline
210
0.0
220
0.0
230
1.0
 70
     8
 71
     3
 72
    52
 73
    48
 74
     0
 42
0.00000001
 43
0.00000001
 40
0.0
 40
0.0
 40
0.0
 40
0.0
 40
0.0625000000000004
 40
0.0625000000000004
 40
0.1250000000000007
 40
0.1250000000000007
 40
0.1875000000000011
 40
0.1875000000000011
 40
0.2187500000000013
 40
0.2187500000000013
 40
0.2500000000000014
 40
0.2500000000000014
 40
0.3125000000000016
 40
0.3125000000000016
 40
0.3437500000000017
 40
0.3437500000000017
 40
0.3750000000000018
 40
0.3750000000000018
 40
0.4062500000000019
 40
0.4062500000000019
 40
0.4375000000000021
 40
0.4375000000000021
 40
0.4687500000000022
 40
0.4687500000000022
 40
0.5000000000000023
 40
0.5000000000000023
 40
0.5625000000000026
 40
0.5625000000000026
 40
0.5937500000000026
 40
0.5937500000000026
 40
0.6250000000000026
 40
0.6250000000000026
 40
0.6875000000000021
 40
0.6875000000000021
 40
0.718750000000002
 40
0.718750000000002
 40
0.7500000000000018
 40
0.7500000000000018
 40
0.7812500000000017
 40
0.7812500000000017
 40
0.8125000000000016
 40
0.8125000000000016
 40
0.875000000000001
 40
0.875000000000001
 40
0.9375000000000006
 40
0.9375000000000006
 40
1.0
 40
1.0
 40
1.0
 40
1.0
 10
2.290451875483596
 20
3.213150472984525
 30
0.0
 10
2.275534207513422
 20
3.2221213262052
 30
0.0
 10
2.26308278003661
 20
3.232463480553575
 30
0.0
 10
2.2412878813121
 20
3.255835006262094
 30
0.0
 10
2.23194662739678
 20
3.269032467702852
 30
0.0
 10
2.217082268884345
 20
3.297665445569374
 30
0.0
 10
2.211495136405894
 20
3.313102184191507
 30
0.0
 10
2.206414697247071
 20
3.338209486474245
 30
0.0
 10
2.20528179756354
 20
3.346965555100518
 30
0.0
 10
2.204365101921436
 20
3.364761160616574
 30
0.0
 10
2.204567073390168
 20
3.373827417492045
 30
0.0
 10
2.207406491488489
 20
3.401509653926171
 30
0.0
 10
2.212396829226456
 20
3.420836322742387
 30
0.0
 10
2.225212363427159
 20
3.448558921443443
 30
0.0
 10
2.230428792167241
 20
3.457728117199913
 30
0.0
 10
2.242691908447495
 20
3.475266825927472
 30
0.0
 10
2.249637121103734
 20
3.483519308053006
 30
0.0
 10
2.265214200207196
 20
3.498863689109309
 30
0.0
 10
2.27395237881718
 20
3.506026071079983
 30
0.0
 10
2.292797907298798
 20
3.518609236730634
 30
0.0
 10
2.3027825357767
 20
3.523979955746268
 30
0.0
 10
2.323876793179809
 20
3.532812272976635
 30
0.0
 10
2.335109062527263
 20
3.536281930339866
 30
0.0
 10
2.357746285405656
 20
3.540888265299114
 30
0.0
 10
2.369235914419333
 20
3.542084588003295
 30
0.0
 10
2.404229710023631
 20
3.542253213373581
 30
0.0
 10
2.427389968305198
 20
3.53770724316515
 30
0.0
 10
2.459379743072324
 20
3.524647458330909
 30
0.0
 10
2.469429808971833
 20
3.519341867591236
 30
0.0
 10
2.488339120439913
 20
3.506945896713452
 30
0.0
 10
2.497203635179622
 20
3.499811394838183
 30
0.0
 10
2.520909196092399
 20
3.476817546195948
 30
0.0
 10
2.533406022405554
 20
3.458827571939615
 30
0.0
 10
2.546454825307964
 20
3.431052512545318
 30
0.0
 10
2.549938609125713
 20
3.42152894546076
 30
0.0
 10
2.555159592266635
 20
3.402589088240718
 30
0.0
 10
2.556905784969426
 20
3.393202184470984
 30
0.0
 10
2.558902057914807
 20
3.374639128167411
 30
0.0
 10
2.559144186968447
 20
3.365403911584757
 30
0.0
 10
2.558287133070572
 20
3.347555879590428
 30
0.0
 10
2.557200661692264
 20
3.338925721708616
 30
0.0
 10
2.552236411352639
 20
3.313852779989598
 30
0.0
 10
2.546609208044372
 20
3.298091958741315
 30
0.0
 10
2.531716855309799
 20
3.269258896940112
 30
0.0
 10
2.522542148678347
 20
3.256231240294578
 30
0.0
 10
2.500622911987429
 20
3.232624848897068
 30
0.0
 10
2.487967116941452
 20
3.222117054890353
 30
0.0
 10
2.47305655175795
 20
3.213150472984525
 30
0.0
  0
LINE
  5
130
330
1F
100
AcDbEntity
  8
0
  6
CONTINUOUS
 62
     7
100
AcDbLine
 10
2.713119043
 20
3.9161586014
 30
0.0
 11
2.713119043
 21
3.1287570265
 31
0.0
  0
SPLINE
  5
131
330
1F
100
AcDbEntity
  8
0
  6
CONTINUOUS
 62
     7
100
AcDbSpline
210
0.0
220
0.0
230
1.0
 70
    24
 71
     3
 72
     8
 73
     4
 74
     0
 42
0.00000001
 43
0.00000001
 40
0.0
 40
0.0
 40
0.0
 40
0.0
 40
0.0007687366887669
 40
0.0007687366887669
 40
0.0007687366887669
 40
0.0007687366887669
 10
2.959182035143083
 20
3.443717656470785
 30
0.0
 10
2.972390861786368
 20
3.443717656470785
 30
0.0
 10
2.985521288692802
 20
3.443717656470785
 30
0.0
 10
2.99855211388324
 20
3.443717656470785
 30
0.0
  0
SPLINE
  5
132
330
1F
100
AcDbEntity
  8
0
  6
CONTINUOUS
 62
     7
100
AcDbSpline
210
0.0
220
0.0
230
1.0
 70
    24
 71
     3
 72
     8
 73
     4
 74
     0
 42
0.00000001
 43
0.00000001
 40
0.0
 40
0.0
 40
0.0
 40
0.0
 40
0.0007687366887669
 40
0.0007687366887669
 40
0.0007687366887669
 40
0.0007687366887669
 10
2.99855211388324
 20
4.073638916313305
 30
0.0
 10
2.985521288692802
 20
4.073638916313305
 30
0.0
 10
2.972390861786368
 20
4.073638916313305
 30
0.0
 10
2.959182035143083
 20
4.073638916313305
 30
0.0
  0
CIRCLE
  5
133
330
1F
100
AcDbEntity
  8
0
  6
CONTINUOUS
 62
     7
100
AcDbCircle
 10
2.3817542136
 20
3.364977499
 30
0.0
 40
0.1574803149606301
  0
LINE
  5
134
330
1F
100
AcDbEntity
  8
0
  6
CONTINUOUS
 62
     7
100
AcDbLine
 10
2.3030140561
 20
3.3195168479
 30
0.0
 11
2.3030140561
 21
3.4104381501
 31
0.0
  0
LINE
  5
135
330
1F
100
AcDbEntity
  8
0
  6
CONTINUOUS
 62
     7
100
AcDbLine
 10
2.3817542136
 20
3.2740561968
 30
0.0
 11
2.3030140561
 21
3.3195168479
 31
0.0
  0
LINE
  5
136
330
1F
100
AcDbEntity
  8
0
  6
CONTINUOUS
 62
     7
100
AcDbLine
 10
2.4604943711
 20
3.3195168479
 30
0.0
 11
2.3817542136
 21
3.2740561968
 31
0.0
  0
LINE
  5
137
330
1F
100
AcDbEntity
  8
0
  6
CONTINUOUS
 62
     7
100
AcDbLine
 10
2.4604943711
 20
3.4104381501
 30
0.0
 11
2.4604943711
 21
3.3195168479
 31
0.0
  0
LINE
  5
138
330
1F
100
AcDbEntity
  8
0
  6
CONTINUOUS
 62
     7
100
AcDbLine
 10
2.3817542136
 20
3.4558988012
 30
0.0
 11
2.4604943711
 21
3.4104381501
 31
0.0
  0
LINE
  5
139
330
1F
100
AcDbEntity
  8
0
  6
CONTINUOUS
 62
     7
100
AcDbLine
 10
2.3030140561
 20
3.4104381501
 30
0.0
 11
2.3817542136
 21
3.4558988012
 31
0.0
  0
ARC
  5
13A
330
1F
100
AcDbEntity
  8
0
  6
CONTINUOUS
 62
     7
100
AcDbCircle
 10
2.3817542136
 20
3.364977499
 30
0.0
 40
0.1771653543307088
100
AcDbArc
 50
270.0
 51
6.4751202524
  0
ARC
  5
13B
330
1F
100
AcDbEntity
  8
0
  6
CONTINUOUS
 62
     7
100
AcDbCircle
 10
2.3817542136
 20
3.364977499
 30
0.0
 40
0.1771653543307088
100
AcDbArc
 50
179.8407452555
 51
270.0
  0
LINE
  5
13C
330
1F
100
AcDbEntity
  8
0
  6
CONTINUOUS
 62
     8
100
AcDbLine
 10
4.2715179931
 20
4.2508042706
 30
0.0
 11
4.0943526388
 21
4.2508042706
 31
0.0
  0
LINE
  5
13D
330
1F
100
AcDbEntity
  8
0
  6
CONTINUOUS
 62
     8
100
AcDbLine
 10
4.4486833475
 20
4.2508042706
 30
0.0
 11
4.2715179931
 21
4.2508042706
 31
0.0
  0
LINE
  5
13E
330
1F
100
AcDbEntity
  8
0
  6
HIDDEN
 62
     7
100
AcDbLine
 10
4.4683683868
 20
3.7783633258
 30
0.0
 11
4.4683683868
 21
3.738993247
 31
0.0
  0
LINE
  5
13F
330
1F
100
AcDbEntity
  8
0
  6
HIDDEN
 62
     7
100
AcDbLine
 10
4.3628203313
 20
4.0736389163
 30
0.0
 11
4.4486833475
 21
4.0736389163
 31
0.0
  0
LINE
  5
140
330
1F
100
AcDbEntity
  8
0
  6
HIDDEN
 62
     7
100
AcDbLine
 10
4.0943526388
 20
4.0736389163
 30
0.0
 11
4.180215655
 21
4.0736389163
 31
0.0
  0
LINE
  5
141
330
1F
100
AcDbEntity
  8
0
  6
HIDDEN
 62
     7
100
AcDbLine
 10
3.6813421372
 20
4.2893185765
 30
0.0
 11
3.6547200929
 21
4.2582285833
 31
0.0
  0
LINE
  5
142
330
1F
100
AcDbEntity
  8
0
  6
HIDDEN
 62
     7
100
AcDbLine
 10
3.6547200929
 20
4.2582285833
 30
0.0
 11
3.6547200929
 21
4.2893185765
 31
0.0
  0
LINE
  5
143
330
1F
100
AcDbEntity
  8
0
  6
HIDDEN
 62
     7
100
AcDbLine
 10
3.6547200929
 20
3.2591279895
 30
0.0
 11
3.6768705159
 21
3.2332600849
 31
0.0
  0
LINE
  5
144
330
1F
100
AcDbEntity
  8
0
  6
HIDDEN
 62
     7
100
AcDbLine
 10
3.6547200929
 20
3.2332600849
 30
0.0
 11
3.6547200929
 21
3.2591279895
 31
0.0
  0
LINE
  5
145
330
1F
100
AcDbEntity
  8
0
  6
HIDDEN
 62
     7
100
AcDbLine
 10
3.6547200929
 20
3.2591279895
 30
0.0
 11
3.6547200929
 21
4.2582285833
 31
0.0
  0
LINE
  5
146
330
1F
100
AcDbEntity
  8
0
  6
HIDDEN
 62
     7
100
AcDbLine
 10
3.8253237674
 20
3.213150473
 30
0.0
 11
3.8253237674
 21
3.2591279895
 31
0.0
  0
LINE
  5
147
330
1F
100
AcDbEntity
  8
0
  6
HIDDEN
 62
     7
100
AcDbLine
 10
3.8253237674
 20
4.2582285833
 30
0.0
 11
3.8253237674
 21
4.3042060998
 31
0.0
  0
LINE
  5
148
330
1F
100
AcDbEntity
  8
0
  6
HIDDEN
 62
     7
100
AcDbLine
 10
3.6153500141
 20
4.2840964879
 30
0.0
 11
3.7859536887
 21
4.2840964879
 31
0.0
  0
LINE
  5
149
330
1F
100
AcDbEntity
  8
0
  6
HIDDEN
 62
     7
100
AcDbLine
 10
3.6153500141
 20
4.2893185765
 30
0.0
 11
3.6153500141
 21
4.2840964879
 31
0.0
  0
LINE
  5
14A
330
1F
100
AcDbEntity
  8
0
  6
HIDDEN
 62
     7
100
AcDbLine
 10
3.7859536887
 20
3.2280379963
 30
0.0
 11
3.6153500141
 21
3.2280379963
 31
0.0
  0
LINE
  5
14B
330
1F
100
AcDbEntity
  8
0
  6
HIDDEN
 62
     7
100
AcDbLine
 10
3.7859536887
 20
3.2332600849
 30
0.0
 11
3.7859536887
 21
3.2280379963
 31
0.0
  0
LINE
  5
14C
330
1F
100
AcDbEntity
  8
0
  6
HIDDEN
 62
     7
100
AcDbLine
 10
3.0379221926
 20
4.1061498783
 30
0.0
 11
2.8673185181
 21
4.1061498783
 31
0.0
  0
LINE
  5
14D
330
1F
100
AcDbEntity
  8
0
  6
HIDDEN
 62
     7
100
AcDbLine
 10
3.0379221926
 20
4.0981214718
 30
0.0
 11
3.0379221926
 21
4.1061498783
 31
0.0
  0
LINE
  5
14E
330
1F
100
AcDbEntity
  8
0
  6
HIDDEN
 62
     7
100
AcDbLine
 10
2.8673185181
 20
3.419235101
 30
0.0
 11
3.0379221926
 21
3.419235101
 31
0.0
  0
LINE
  5
14F
330
1F
100
AcDbEntity
  8
0
  6
HIDDEN
 62
     7
100
AcDbLine
 10
2.8673185181
 20
3.4112066945
 30
0.0
 11
2.8673185181
 21
3.419235101
 31
0.0
  0
SPLINE
  5
150
330
1F
100
AcDbEntity
  8
0
  6
HIDDEN
 62
     7
100
AcDbSpline
210
0.0
220
0.0
230
1.0
 70
     8
 71
     3
 72
     8
 73
     4
 74
     0
 42
0.00000001
 43
0.00000001
 40
0.0
 40
0.0
 40
0.0
 40
0.0
 40
0.0005308683874405
 40
0.0005308683874405
 40
0.0005308683874405
 40
0.0005308683874405
 10
2.842530495549728
 20
4.073638916313309
 30
0.0
 10
2.850699752108932
 20
4.084541782833235
 30
0.0
 10
2.858967691837781
 20
4.09537611924145
 30
0.0
 10
2.867318518082715
 20
4.106149878270067
 30
0.0
  0
SPLINE
  5
151
330
1F
100
AcDbEntity
  8
0
  6
HIDDEN
 62
     7
100
AcDbSpline
210
0.0
220
0.0
230
1.0
 70
     8
 71
     3
 72
     8
 73
     4
 74
     0
 42
0.00000001
 43
0.00000001
 40
0.0
 40
0.0
 40
0.0
 40
0.0
 40
0.0006142430572494
 40
0.0006142430572494
 40
0.0006142430572494
 40
0.0006142430572494
 10
2.833548120660098
 20
3.443717656470789
 30
0.0
 10
2.844796550795099
 20
3.435551036876048
 30
0.0
 10
2.856053814923663
 20
3.427390497830544
 30
0.0
 10
2.867318518082715
 20
3.419235101014605
 30
0.0
  0
SPLINE
  5
152
330
1F
100
AcDbEntity
  8
0
  6
HIDDEN
 62
     7
100
AcDbSpline
210
0.0
220
0.0
230
1.0
 70
     8
 71
     3
 72
     8
 73
     4
 74
     0
 42
0.00000001
 43
0.00000001
 40
0.0
 40
0.0
 40
0.0
 40
0.0
 40
0.000285957619003
 40
0.000285957619003
 40
0.000285957619003
 40
0.000285957619003
 10
3.640138036678695
 20
3.241971370920309
 30
0.0
 10
3.645011750529307
 20
3.247679144808818
 30
0.0
 10
3.64987283660221
 20
3.253397729845671
 30
0.0
 10
3.654720092885865
 20
3.259127989523956
 30
0.0
  0
SPLINE
  5
153
330
1F
100
AcDbEntity
  8
0
  6
HIDDEN
 62
     7
100
AcDbSpline
210
0.0
220
0.0
230
1.0
 70
     8
 71
     3
 72
     8
 73
     4
 74
     0
 42
0.00000001
 43
0.00000001
 40
0.0
 40
0.0
 40
0.0
 40
0.0
 40
0.0006142430572494
 40
0.0006142430572494
 40
0.0006142430572494
 40
0.0006142430572494
 10
3.615350014145707
 20
3.228037996268501
 30
0.0
 10
3.62661471730476
 20
3.23619339308444
 30
0.0
 10
3.637871981433324
 20
3.244353932129944
 30
0.0
 10
3.649120411568325
 20
3.252520551724685
 30
0.0
  0
SPLINE
  5
154
330
1F
100
AcDbEntity
  8
0
  6
HIDDEN
 62
     7
100
AcDbSpline
210
0.0
220
0.0
230
1.0
 70
     8
 71
     3
 72
     8
 73
     4
 74
     0
 42
0.00000001
 43
0.00000001
 40
0.0
 40
0.0
 40
0.0
 40
0.0
 40
0.0005308683874405
 40
0.0005308683874405
 40
0.0005308683874405
 40
0.0005308683874405
 10
3.615350014145707
 20
3.233260084918836
 30
0.0
 10
3.623700840390642
 20
3.236146904950002
 30
0.0
 10
3.63196878011949
 20
3.23904995664111
 30
0.0
 10
3.640138036678695
 20
3.241971370920309
 30
0.0
  0
SPLINE
  5
155
330
1F
100
AcDbEntity
  8
0
  6
HIDDEN
 62
     7
100
AcDbSpline
210
0.0
220
0.0
230
1.0
 70
     8
 71
     3
 72
     8
 73
     4
 74
     0
 42
0.00000001
 43
0.00000001
 40
0.0
 40
0.0
 40
0.0
 40
0.0
 40
0.0001099959787388
 40
0.0001099959787388
 40
0.0001099959787388
 40
0.0001099959787388
 10
3.654720092885865
 20
4.258228583260138
 30
0.0
 10
3.652855555403082
 20
4.260432775349644
 30
0.0
 10
3.650988971315293
 20
4.262635237729741
 30
0.0
 10
3.649120411568324
 20
4.264836021059409
 30
0.0
  0
SPLINE
  5
156
330
1F
100
AcDbEntity
  8
0
  6
HIDDEN
 62
     7
100
AcDbSpline
210
0.0
220
0.0
230
1.0
 70
     8
 71
     3
 72
     8
 73
     4
 74
     0
 42
0.00000001
 43
0.00000001
 40
0.0
 40
0.0
 40
0.0
 40
0.0
 40
0.0006142430572494
 40
0.0006142430572494
 40
0.0006142430572494
 40
0.0006142430572494
 10
3.615350014145707
 20
4.289318576515594
 30
0.0
 10
3.626614717304759
 20
4.281163179699655
 30
0.0
 10
3.637871981433324
 20
4.27300264065415
 30
0.0
 10
3.649120411568324
 20
4.264836021059409
 30
0.0
  0
SPLINE
  5
157
330
1F
100
AcDbEntity
  8
0
  6
HIDDEN
 62
     7
100
AcDbSpline
210
0.0
220
0.0
230
1.0
 70
     8
 71
     3
 72
     8
 73
     4
 74
     0
 42
0.00000001
 43
0.00000001
 40
0.0
 40
0.0
 40
0.0
 40
0.0
 40
0.0005308683874405
 40
0.0005308683874405
 40
0.0005308683874405
 40
0.0005308683874405
 10
3.615350014145707
 20
4.284096487865257
 30
0.0
 10
3.623700840390642
 20
4.281209667834092
 30
0.0
 10
3.63196878011949
 20
4.278306616142983
 30
0.0
 10
3.640138036678695
 20
4.275385201863785
 30
0.0
  0
SPLINE
  5
158
330
1F
100
AcDbEntity
  8
0
  6
HIDDEN
 62
     7
100
AcDbSpline
210
0.0
220
0.0
230
1.0
 70
     8
 71
     3
 72
     8
 73
     4
 74
     0
 42
0.00000001
 43
0.00000001
 40
0.0
 40
0.0
 40
0.0
 40
0.0
 40
0.000285957619003
 40
0.000285957619003
 40
0.000285957619003
 40
0.000285957619003
 10
3.640138036678695
 20
4.275385201863785
 30
0.0
 10
3.645011750529307
 20
4.269677427975275
 30
0.0
 10
3.64987283660221
 20
4.263958842938423
 30
0.0
 10
3.654720092885865
 20
4.258228583260138
 30
0.0
  0
LINE
  5
159
330
1F
100
AcDbEntity
  8
0
  6
HIDDEN
 62
     7
100
AcDbLine
 10
3.6491204116
 20
4.2648360211
 30
0.0
 11
3.8197240861
 21
4.2648360211
 31
0.0
  0
LINE
  5
15A
330
1F
100
AcDbEntity
  8
0
  6
HIDDEN
 62
     7
100
AcDbLine
 10
3.8107417112
 20
3.2419713709
 30
0.0
 11
3.6401380367
 21
3.2419713709
 31
0.0
  0
LINE
  5
15B
330
1F
100
AcDbEntity
  8
0
  6
HIDDEN
 62
     7
100
AcDbLine
 10
3.8107417112
 20
4.2753852019
 30
0.0
 11
3.6401380367
 21
4.2753852019
 31
0.0
  0
SPLINE
  5
15C
330
1F
100
AcDbEntity
  8
0
  6
HIDDEN
 62
     7
100
AcDbSpline
210
0.0
220
0.0
230
1.0
 70
     8
 71
     3
 72
     8
 73
     4
 74
     0
 42
0.00000001
 43
0.00000001
 40
0.0
 40
0.0
 40
0.0
 40
0.0
 40
0.000285957619003
 40
0.000285957619003
 40
0.000285957619003
 40
0.000285957619003
 10
3.825323767426548
 20
4.258228583260139
 30
0.0
 10
3.820476511142892
 20
4.263958842938423
 30
0.0
 10
3.815615425069991
 20
4.269677427975275
 30
0.0
 10
3.810741711219378
 20
4.275385201863785
 30
0.0
  0
LINE
  5
15D
330
1F
100
AcDbEntity
  8
0
  6
HIDDEN
 62
     7
100
AcDbLine
 10
3.6491204116
 20
3.2525205517
 30
0.0
 11
3.8197240861
 21
3.2525205517
 31
0.0
  0
SPLINE
  5
15E
330
1F
100
AcDbEntity
  8
0
  6
HIDDEN
 62
     7
100
AcDbSpline
210
0.0
220
0.0
230
1.0
 70
     8
 71
     3
 72
     8
 73
     4
 74
     0
 42
0.00000001
 43
0.00000001
 40
0.0
 40
0.0
 40
0.0
 40
0.0
 40
0.0005308683874405
 40
0.0005308683874405
 40
0.0005308683874405
 40
0.0005308683874405
 10
3.78595368868639
 20
4.284096487865257
 30
0.0
 10
3.794304514931325
 20
4.281209667834092
 30
0.0
 10
3.802572454660174
 20
4.278306616142983
 30
0.0
 10
3.810741711219378
 20
4.275385201863785
 30
0.0
  0
SPLINE
  5
15F
330
1F
100
AcDbEntity
  8
0
  6
HIDDEN
 62
     7
100
AcDbSpline
210
0.0
220
0.0
230
1.0
 70
     8
 71
     3
 72
     8
 73
     4
 74
     0
 42
0.00000001
 43
0.00000001
 40
0.0
 40
0.0
 40
0.0
 40
0.0
 40
0.0006142430572494
 40
0.0006142430572494
 40
0.0006142430572494
 40
0.0006142430572494
 10
3.819724086109008
 20
3.252520551724685
 30
0.0
 10
3.808475655974006
 20
3.244353932129944
 30
0.0
 10
3.797218391845442
 20
3.23619339308444
 30
0.0
 10
3.78595368868639
 20
3.228037996268501
 30
0.0
  0
LINE
  5
160
330
1F
100
AcDbEntity
  8
0
  6
HIDDEN
 62
     7
100
AcDbLine
 10
3.0131341701
 20
4.0736389163
 30
0.0
 11
3.0042054031
 21
4.0736389163
 31
0.0
  0
SPLINE
  5
161
330
1F
100
AcDbEntity
  8
0
  6
HIDDEN
 62
     7
100
AcDbSpline
210
0.0
220
0.0
230
1.0
 70
     8
 71
     3
 72
     8
 73
     4
 74
     0
 42
0.00000001
 43
0.00000001
 40
0.0
 40
0.0
 40
0.0
 40
0.0
 40
0.0006142430572494
 40
0.0006142430572494
 40
0.0006142430572494
 40
0.0006142430572494
 10
3.037922192623397
 20
3.419235101014605
 30
0.0
 10
3.026657489464345
 20
3.427390497830544
 30
0.0
 10
3.015400225335781
 20
3.435551036876048
 30
0.0
 10
3.00415179520078
 20
3.443717656470789
 30
0.0
  0
SPLINE
  5
162
330
1F
100
AcDbEntity
  8
0
  6
HIDDEN
 62
     7
100
AcDbSpline
210
0.0
220
0.0
230
1.0
 70
     8
 71
     3
 72
     8
 73
     4
 74
     0
 42
0.00000001
 43
0.00000001
 40
0.0
 40
0.0
 40
0.0
 40
0.0
 40
0.0005308683874405
 40
0.0005308683874405
 40
0.0005308683874405
 40
0.0005308683874405
 10
3.01313417009041
 20
4.073638916313309
 30
0.0
 10
3.021303426649613
 20
4.084541782833235
 30
0.0
 10
3.029571366378462
 20
4.09537611924145
 30
0.0
 10
3.037922192623397
 20
4.106149878270067
 30
0.0
  0
LINE
  5
163
330
1F
100
AcDbEntity
  8
0
  6
HIDDEN
 62
     7
100
AcDbLine
 10
4.0943526388
 20
4.0736389163
 30
0.0
 11
4.1799588417
 21
4.0736389163
 31
0.0
  0
LINE
  5
164
330
1F
100
AcDbEntity
  8
0
  6
HIDDEN
 62
     7
100
AcDbLine
 10
4.3698775255
 20
3.3846625384
 30
0.0
 11
4.1731584608
 21
3.3846625384
 31
0.0
  0
LINE
  5
165
330
1F
100
AcDbEntity
  8
0
  6
HIDDEN
 62
     7
100
AcDbLine
 10
4.3502581506
 20
3.364977499
 30
0.0
 11
4.2777038362
 21
3.364977499
 31
0.0
  0
LINE
  5
166
330
1F
100
AcDbEntity
  8
0
  6
HIDDEN
 62
     7
100
AcDbLine
 10
4.2638007461
 20
3.364977499
 30
0.0
 11
4.1927778357
 21
3.364977499
 31
0.0
  0
LINE
  5
167
330
1F
100
AcDbEntity
  8
0
  6
HIDDEN
 62
     7
100
AcDbLine
 10
4.2715179931
 20
4.1130089951
 30
0.0
 11
4.2715179931
 21
4.27048931
 31
0.0
  0
LINE
  5
168
330
1F
100
AcDbEntity
  8
0
  6
HIDDEN
 62
     7
100
AcDbLine
 10
4.2715179931
 20
4.1130089951
 30
0.0
 11
4.3502581506
 21
4.1130089951
 31
0.0
  0
LINE
  5
169
330
1F
100
AcDbEntity
  8
0
  6
HIDDEN
 62
     7
100
AcDbLine
 10
4.1927778357
 20
4.1130089951
 30
0.0
 11
4.2715179931
 21
4.1130089951
 31
0.0
  0
LINE
  5
16A
330
1F
100
AcDbEntity
  8
0
  6
HIDDEN
 62
     7
100
AcDbLine
 10
4.1927778357
 20
4.1130089951
 30
0.0
 11
4.1927778357
 21
4.27048931
 31
0.0
  0
LINE
  5
16B
330
1F
100
AcDbEntity
  8
0
  6
HIDDEN
 62
     7
100
AcDbLine
 10
4.3502581506
 20
4.1130089951
 30
0.0
 11
4.3502581506
 21
4.27048931
 31
0.0
  0
LINE
  5
16C
330
1F
100
AcDbEntity
  8
0
  6
HIDDEN
 62
     7
100
AcDbLine
 10
2.4730565518
 20
3.213150473
 30
0.0
 11
2.2904518755
 21
3.213150473
 31
0.0
  0
CIRCLE
  5
16D
330
1F
100
AcDbEntity
  8
0
  6
HIDDEN
 62
     7
100
AcDbCircle
 10
2.3817542136
 20
3.364977499
 30
0.0
 40
0.0984251968503935
  0
LINE
  5
16E
330
1F
100
AcDbEntity
  8
0
  6
HIDDEN
 62
     7
100
AcDbLine
 10
2.1849038199
 20
3.9149234426
 30
0.0
 11
2.6186016267
 21
3.9149234426
 31
0.0
  0
LINE
  5
16F
330
1F
100
AcDbEntity
  8
0
  6
HIDDEN
 62
     7
100
AcDbLine
 10
2.6737489643
 20
3.6024331302
 30
0.0
 11
2.1849038199
 21
3.6024331302
 31
0.0
  0
SPLINE
  5
170
330
1F
100
AcDbEntity
  8
0
  6
HIDDEN
 62
     7
100
AcDbSpline
210
0.0
220
0.0
230
1.0
 70
     8
 71
     3
 72
     8
 73
     4
 74
     0
 42
0.00000001
 43
0.00000001
 40
0.0
 40
0.0
 40
0.0
 40
0.0
 40
1.0
 40
1.0
 40
1.0
 40
1.0
 10
2.184903819919986
 20
3.914923442557279
 30
0.0
 10
2.171790934267262
 20
3.928139988998244
 30
0.0
 10
2.158665468068763
 20
3.941344073010786
 30
0.0
 10
2.145533741179828
 20
3.954541955113823
 30
0.0
  0
ARC
  5
171
330
1F
100
AcDbEntity
  8
0
  6
HIDDEN
 62
     7
100
AcDbCircle
 10
2.1455337412
 20
3.6799381289
 30
0.0
 40
0.5282152230971136
100
AcDbArc
 50
26.4148045864
 51
90.0
  0
SPLINE
  5
172
330
1F
100
AcDbEntity
  8
0
  6
HIDDEN
 62
     7
100
AcDbSpline
210
0.0
220
0.0
230
1.0
 70
     8
 71
     3
 72
     8
 73
     4
 74
     0
 42
0.00000001
 43
0.00000001
 40
0.0
 40
0.0
 40
0.0
 40
0.0
 40
1.0
 40
1.0
 40
1.0
 40
1.0
 10
2.145533741179828
 20
3.562814617670271
 30
0.0
 10
2.15866545384672
 20
3.576012485479616
 30
0.0
 10
2.171790916490067
 20
3.589216565868121
 30
0.0
 10
2.184903819919986
 20
3.602433130226815
 30
0.0
  0
ARC
  5
173
330
1F
100
AcDbEntity
  8
0
  6
HIDDEN
 62
     7
100
AcDbCircle
 10
2.3817542136
 20
3.364977499
 30
0.0
 40
0.1771653543307088
100
AcDbArc
 50
6.4751202524
 51
179.8407452555
  0
CIRCLE
  5
174
330
1F
100
AcDbEntity
  8
0
  6
HIDDEN
 62
     7
100
AcDbCircle
 10
2.3817542136
 20
3.364977499
 30
0.0
 40
0.0787401574803148
  0
LINE
  5
175
330
1F
100
AcDbEntity
  8
0
  6
HIDDEN
 62
     7
100
AcDbLine
 10
4.4486833475
 20
4.0736389163
 30
0.0
 11
4.4486833475
 21
4.2500413729
 31
0.0
  0
LINE
  5
176
330
1F
100
AcDbEntity
  8
0
  6
HIDDEN
 62
     7
100
AcDbLine
 10
4.0943526388
 20
4.2503615119
 30
0.0
 11
4.0943526388
 21
4.0736389163
 31
0.0
  0
LINE
  5
177
330
1F
100
AcDbEntity
  8
0
  6
HIDDEN
 62
     7
100
AcDbLine
 10
4.1730927963
 20
3.738993247
 30
0.0
 11
4.1730927963
 21
3.2670547571
 31
0.0
  0
LINE
  5
178
330
1F
100
AcDbEntity
  8
0
  6
HIDDEN
 62
     7
100
AcDbLine
 10
4.36994319
 20
3.2671476572
 30
0.0
 11
4.36994319
 21
3.738993247
 31
0.0
  0
LINE
  5
179
330
1F
100
AcDbEntity
  8
0
  6
HIDDEN
 62
     7
100
AcDbLine
 10
4.1730927963
 20
4.0736389163
 30
0.0
 11
4.1730927963
 21
3.7783633258
 31
0.0
  0
LINE
  5
17A
330
1F
100
AcDbEntity
  8
0
  6
HIDDEN
 62
     7
100
AcDbLine
 10
4.36994319
 20
3.7783633258
 30
0.0
 11
4.36994319
 21
4.0736389163
 31
0.0
  0
LINE
  5
17B
330
1F
100
AcDbEntity
  8
0
  6
HIDDEN
 62
     7
100
AcDbLine
 10
4.5077384656
 20
3.9555286801
 30
0.0
 11
4.4683683868
 21
3.9161586014
 31
0.0
  0
LINE
  5
17C
330
1F
100
AcDbEntity
  8
0
  6
HIDDEN
 62
     7
100
AcDbLine
 10
4.4683683868
 20
3.6011979714
 30
0.0
 11
4.5077384656
 21
3.5618278927
 31
0.0
  0
LINE
  5
17D
330
1F
100
AcDbEntity
  8
0
  6
HIDDEN
 62
     7
100
AcDbLine
 10
3.9401531638
 20
3.9161586014
 30
0.0
 11
3.6547200929
 21
3.9161586014
 31
0.0
  0
LINE
  5
17E
330
1F
100
AcDbEntity
  8
0
  6
HIDDEN
 62
     7
100
AcDbLine
 10
3.6547200929
 20
3.6011979714
 30
0.0
 11
3.9401531638
 21
3.6011979714
 31
0.0
  0
LINE
  5
17F
330
1F
100
AcDbEntity
  8
0
  6
HIDDEN
 62
     7
100
AcDbLine
 10
4.4683683868
 20
3.9161586014
 30
0.0
 11
3.9795232425
 21
3.9161586014
 31
0.0
  0
LINE
  5
180
330
1F
100
AcDbEntity
  8
0
  6
HIDDEN
 62
     7
100
AcDbLine
 10
3.9795232425
 20
3.6011979714
 30
0.0
 11
4.4683683868
 21
3.6011979714
 31
0.0
  0
LINE
  5
181
330
1F
100
AcDbEntity
  8
0
  6
HIDDEN
 62
     7
100
AcDbLine
 10
2.9985521139
 20
3.6011979714
 30
0.0
 11
3.6547200929
 21
3.6011979714
 31
0.0
  0
LINE
  5
182
330
1F
100
AcDbEntity
  8
0
  6
HIDDEN
 62
     7
100
AcDbLine
 10
3.6547200929
 20
3.9161586014
 30
0.0
 11
2.9985521139
 21
3.9161586014
 31
0.0
  0
LINE
  5
183
330
1F
100
AcDbEntity
  8
0
  6
HIDDEN
 62
     7
100
AcDbLine
 10
4.4486833475
 20
4.0736389163
 30
0.0
 11
4.4486833475
 21
4.2504104123
 31
0.0
  0
LINE
  5
184
330
1F
100
AcDbEntity
  8
0
  6
HIDDEN
 62
     7
100
AcDbLine
 10
4.0943526388
 20
4.2443335479
 30
0.0
 11
4.0943526388
 21
4.0736389163
 31
0.0
  0
LINE
  5
185
330
1F
100
AcDbEntity
  8
0
  6
HIDDEN
 62
     7
100
AcDbLine
 10
4.36994319
 20
3.3846625384
 30
0.0
 11
4.36994319
 21
3.738993247
 31
0.0
  0
LINE
  5
186
330
1F
100
AcDbEntity
  8
0
  6
HIDDEN
 62
     7
100
AcDbLine
 10
4.36994319
 20
3.7783633258
 30
0.0
 11
4.36994319
 21
4.0736389163
 31
0.0
  0
LINE
  5
187
330
1F
100
AcDbEntity
  8
0
  6
HIDDEN
 62
     7
100
AcDbLine
 10
4.1730927963
 20
4.0736389163
 30
0.0
 11
4.1730927963
 21
3.7783633258
 31
0.0
  0
LINE
  5
188
330
1F
100
AcDbEntity
  8
0
  6
HIDDEN
 62
     7
100
AcDbLine
 10
4.1730927963
 20
3.738993247
 30
0.0
 11
4.1730927963
 21
3.3846625384
 31
0.0
  0
ARC
  5
189
330
1F
100
AcDbEntity
  8
0
  6
HIDDEN
 62
     7
100
AcDbCircle
 10
4.3502581506
 20
3.3846625384
 30
0.0
 40
0.0196850393700787
100
AcDbArc
 50
270.0
 51
0.0
  0
ARC
  5
18A
330
1F
100
AcDbEntity
  8
0
  6
HIDDEN
 62
     7
100
AcDbCircle
 10
4.1927778357
 20
3.3846625384
 30
0.0
 40
0.0196850393700787
100
AcDbArc
 50
180.0
 51
270.0
  0
LINE
  5
18B
330
1F
100
AcDbEntity
  8
0
  6
HIDDEN
 62
     7
100
AcDbLine
 10
2.6737489643
 20
3.9161586014
 30
0.0
 11
2.6179921244
 21
3.9161586014
 31
0.0
  0
LINE
  5
18C
330
1F
100
AcDbEntity
  8
0
  6
HIDDEN
 62
     7
100
AcDbLine
 10
2.713119043
 20
3.6011979714
 30
0.0
 11
2.9985521139
 21
3.6011979714
 31
0.0
  0
LINE
  5
18D
330
1F
100
AcDbEntity
  8
0
  6
HIDDEN
 62
     7
100
AcDbLine
 10
2.9985521139
 20
3.9161586014
 30
0.0
 11
2.713119043
 21
3.9161586014
 31
0.0
  0
LINE
  5
18E
330
1F
100
AcDbEntity
  8
0
  6
HIDDEN
 62
     7
100
AcDbLine
 10
4.0943526388
 20
4.2508042706
 30
0.0
 11
4.4486833475
 21
4.2508042706
 31
0.0
  0
ARC
  5
18F
330
1F
100
AcDbEntity
  8
0
  6
CONTINUOUS
 62
     7
100
AcDbCircle
 10
7.699703504
 20
4.2508042706
 30
0.0
 40
0.0196850393700787
100
AcDbArc
 50
90.0
 51
180.0
  0
LINE
  5
190
330
1F
100
AcDbEntity
  8
0
  6
CONTINUOUS
 62
     7
100
AcDbLine
 10
7.6800184646
 20
4.2508042706
 30
0.0
 11
7.6800184646
 21
4.0736389163
 31
0.0
  0
LINE
  5
191
330
1F
100
AcDbEntity
  8
0
  6
CONTINUOUS
 62
     7
100
AcDbLine
 10
7.9556090158
 20
3.738993247
 30
0.0
 11
7.9556090158
 21
3.7783633258
 31
0.0
  0
LINE
  5
192
330
1F
100
AcDbEntity
  8
0
  6
CONTINUOUS
 62
     7
100
AcDbLine
 10
7.7587586221
 20
3.7783633258
 30
0.0
 11
7.7587586221
 21
3.738993247
 31
0.0
  0
LINE
  5
193
330
1F
100
AcDbEntity
  8
0
  6
CONTINUOUS
 62
     7
100
AcDbLine
 10
7.7587586221
 20
3.1878121447
 30
0.0
 11
7.9359239764
 21
3.1878121447
 31
0.0
  0
ARC
  5
194
330
1F
100
AcDbEntity
  8
0
  6
CONTINUOUS
 62
     7
100
AcDbCircle
 10
7.7587586221
 20
3.207497184
 30
0.0
 40
0.0196850393700787
100
AcDbArc
 50
180.0
 51
270.0
  0
ARC
  5
195
330
1F
100
AcDbEntity
  8
0
  6
CONTINUOUS
 62
     7
100
AcDbCircle
 10
8.2508846063
 20
3.7586782864
 30
0.0
 40
0.5905511811023607
100
AcDbArc
 50
181.9102131717
 51
178.0897868283
  0
LINE
  5
196
330
1F
100
AcDbEntity
  8
0
  6
CONTINUOUS
 62
     7
100
AcDbLine
 10
7.6212710004
 20
3.7783633258
 30
0.0
 11
7.6606616004
 21
3.7783633258
 31
0.0
  0
ARC
  5
197
330
1F
100
AcDbEntity
  8
0
  6
CONTINUOUS
 62
     7
100
AcDbCircle
 10
8.2508846063
 20
3.7586782864
 30
0.0
 40
0.6299212598425187
100
AcDbArc
 50
181.7907846593
 51
178.2092153407
  0
LINE
  5
198
330
1F
100
AcDbEntity
  8
0
  6
CONTINUOUS
 62
     7
100
AcDbLine
 10
7.6212710004
 20
3.738993247
 30
0.0
 11
7.6606616004
 21
3.738993247
 31
0.0
  0
ARC
  5
199
330
1F
100
AcDbEntity
  8
0
  6
CONTINUOUS
 62
     7
100
AcDbCircle
 10
8.2508846063
 20
3.7586782864
 30
0.0
 40
0.1968503937007877
100
AcDbArc
 50
185.7391704773
 51
354.2608295227
  0
LINE
  5
19A
330
1F
100
AcDbEntity
  8
0
  6
CONTINUOUS
 62
     7
100
AcDbLine
 10
8.446748275
 20
3.738993247
 30
0.0
 11
8.7003596719
 21
3.738993247
 31
0.0
  0
LINE
  5
19B
330
1F
100
AcDbEntity
  8
0
  6
CONTINUOUS
 62
     7
100
AcDbLine
 10
8.7003596719
 20
3.738993247
 30
0.0
 11
8.7003596719
 21
3.7783633258
 31
0.0
  0
LINE
  5
19C
330
1F
100
AcDbEntity
  8
0
  6
CONTINUOUS
 62
     7
100
AcDbLine
 10
8.446748275
 20
3.7783633258
 30
0.0
 11
8.7003596719
 21
3.7783633258
 31
0.0
  0
ARC
  5
19D
330
1F
100
AcDbEntity
  8
0
  6
CONTINUOUS
 62
     7
100
AcDbCircle
 10
8.2508846063
 20
3.7586782864
 30
0.0
 40
0.1968503937007877
100
AcDbArc
 50
5.7391704773
 51
174.2608295227
  0
LINE
  5
19E
330
1F
100
AcDbEntity
  8
0
  6
CONTINUOUS
 62
     7
100
AcDbLine
 10
7.6606616004
 20
3.7783633258
 30
0.0
 11
8.0550209376
 21
3.7783633258
 31
0.0
  0
LINE
  5
19F
330
1F
100
AcDbEntity
  8
0
  6
CONTINUOUS
 62
     7
100
AcDbLine
 10
7.6606616004
 20
3.738993247
 30
0.0
 11
8.0550209376
 21
3.738993247
 31
0.0
  0
SPLINE
  5
1A0
330
1F
100
AcDbEntity
  8
0
  6
CONTINUOUS
 62
     7
100
AcDbSpline
210
0.0
220
0.0
230
1.0
 70
     8
 71
     3
 72
     8
 73
     4
 74
     0
 42
0.00000001
 43
0.00000001
 40
0.0
 40
0.0
 40
0.0
 40
0.0
 40
1.0
 40
1.0
 40
1.0
 40
1.0
 10
8.407129762489221
 20
3.738993247021968
 30
0.0
 10
8.408783150385151
 20
3.752116606602021
 30
0.0
 10
8.408783150385151
 20
3.765239966182073
 30
0.0
 10
8.407129762489221
 20
3.778363325762126
 30
0.0
  0
ARC
  5
1A1
330
1F
100
AcDbEntity
  8
0
  6
CONTINUOUS
 62
     7
100
AcDbCircle
 10
8.2508846063
 20
3.7586782864
 30
0.0
 40
0.1574803149606302
100
AcDbArc
 50
7.1807557815
 51
172.8192442185
  0
SPLINE
  5
1A2
330
1F
100
AcDbEntity
  8
0
  6
CONTINUOUS
 62
     7
100
AcDbSpline
210
0.0
220
0.0
230
1.0
 70
    24
 71
     3
 72
     8
 73
     4
 74
     0
 42
0.00000001
 43
0.00000001
 40
0.0
 40
0.0
 40
0.0
 40
0.0
 40
1.0
 40
1.0
 40
1.0
 40
1.0
 10
8.055020937602215
 20
3.778363325762126
 30
0.0
 10
8.06821880541156
 20
3.778363325762126
 30
0.0
 10
8.081422885800064
 20
3.778363325762126
 30
0.0
 10
8.094639450158759
 20
3.778363325762126
 30
0.0
  0
SPLINE
  5
1A3
330
1F
100
AcDbEntity
  8
0
  6
CONTINUOUS
 62
     7
100
AcDbSpline
210
0.0
220
0.0
230
1.0
 70
    24
 71
     3
 72
     8
 73
     4
 74
     0
 42
0.00000001
 43
0.00000001
 40
0.0
 40
0.0
 40
0.0
 40
0.0
 40
1.0
 40
1.0
 40
1.0
 40
1.0
 10
8.407129762489221
 20
3.778363325762126
 30
0.0
 10
8.420346308930187
 20
3.778363325762126
 30
0.0
 10
8.43355039294273
 20
3.778363325762126
 30
0.0
 10
8.446748275045765
 20
3.778363325762126
 30
0.0
  0
ARC
  5
1A4
330
1F
100
AcDbEntity
  8
0
  6
CONTINUOUS
 62
     7
100
AcDbCircle
 10
8.2508846063
 20
3.7586782864
 30
0.0
 40
0.1574803149606302
100
AcDbArc
 50
187.1807557815
 51
352.8192442185
  0
SPLINE
  5
1A5
330
1F
100
AcDbEntity
  8
0
  6
CONTINUOUS
 62
     7
100
AcDbSpline
210
0.0
220
0.0
230
1.0
 70
    24
 71
     3
 72
     8
 73
     4
 74
     0
 42
0.00000001
 43
0.00000001
 40
0.0
 40
0.0
 40
0.0
 40
0.0
 40
1.0
 40
1.0
 40
1.0
 40
1.0
 10
8.055020937602215
 20
3.738993247021968
 30
0.0
 10
8.06821880541156
 20
3.738993247021968
 30
0.0
 10
8.081422885800064
 20
3.738993247021968
 30
0.0
 10
8.094639450158759
 20
3.738993247021968
 30
0.0
  0
SPLINE
  5
1A6
330
1F
100
AcDbEntity
  8
0
  6
CONTINUOUS
 62
     7
100
AcDbSpline
210
0.0
220
0.0
230
1.0
 70
    24
 71
     3
 72
     8
 73
     4
 74
     0
 42
0.00000001
 43
0.00000001
 40
0.0
 40
0.0
 40
0.0
 40
0.0
 40
1.0
 40
1.0
 40
1.0
 40
1.0
 10
8.407129762489221
 20
3.738993247021968
 30
0.0
 10
8.420346308930187
 20
3.738993247021968
 30
0.0
 10
8.43355039294273
 20
3.738993247021968
 30
0.0
 10
8.446748275045765
 20
3.738993247021968
 30
0.0
  0
ARC
  5
1A7
330
1F
100
AcDbEntity
  8
0
  6
CONTINUOUS
 62
     7
100
AcDbCircle
 10
8.2508846063
 20
3.7586782864
 30
0.0
 40
0.157480314960632
100
AcDbArc
 50
172.8192442185
 51
187.1807557815
  0
POLYLINE
  5
1A8
330
1F
100
AcDbEntity
  8
0
  6
CONTINUOUS
 62
     7
100
AcDb2dPolyline
 66
     1
 10
0.0
 20
0.0
 30
0.0
  0
VERTEX
  5
332
330
1A8
100
AcDbEntity
  8
0
  6
CONTINUOUS
 62
     7
100
AcDbVertex
100
AcDb2dVertex
 10
7.6212710004
 20
3.7783633258
 30
0.0
  0
VERTEX
  5
333
330
1A8
100
AcDbEntity
  8
0
  6
CONTINUOUS
 62
     7
100
AcDbVertex
100
AcDb2dVertex
 10
7.6209633465
 20
3.7586782864
 30
0.0
  0
VERTEX
  5
334
330
1A8
100
AcDbEntity
  8
0
  6
CONTINUOUS
 62
     7
100
AcDbVertex
100
AcDb2dVertex
 10
7.6212710004
 20
3.738993247
 30
0.0
  0
SEQEND
  5
335
330
1A8
100
AcDbEntity
  8
0
  6
CONTINUOUS
 62
     7
  0
LINE
  5
1A9
330
1F
100
AcDbEntity
  8
0
  6
CONTINUOUS
 62
     7
100
AcDbLine
 10
7.699703504
 20
4.27048931
 30
0.0
 11
7.8836649586
 21
4.27048931
 31
0.0
  0
LINE
  5
1AA
330
1F
100
AcDbEntity
  8
0
  6
CONTINUOUS
 62
     7
100
AcDbLine
 10
7.6800184646
 20
4.0736389163
 30
0.0
 11
7.7053567929
 21
4.0736389163
 31
0.0
  0
LINE
  5
1AB
330
1F
100
AcDbEntity
  8
0
  6
CONTINUOUS
 62
     7
100
AcDbLine
 10
7.9359239764
 20
3.211635458
 30
0.0
 11
7.9359239764
 21
3.1878121447
 31
0.0
  0
LINE
  5
1AC
330
1F
100
AcDbEntity
  8
0
  6
CONTINUOUS
 62
     7
100
AcDbLine
 10
7.7390735827
 20
3.3914586386
 30
0.0
 11
7.7390735827
 21
3.207497184
 31
0.0
  0
LINE
  5
1AD
330
1F
100
AcDbEntity
  8
0
  6
CONTINUOUS
 62
     8
100
AcDbLine
 10
7.8576762529
 20
4.2508042706
 30
0.0
 11
7.6800184646
 21
4.2508042706
 31
0.0
  0
LINE
  5
1AE
330
1F
100
AcDbEntity
  8
0
  6
CONTINUOUS
 62
     8
100
AcDbLine
 10
7.7587586221
 20
3.1878121447
 30
0.0
 11
7.7587586221
 21
3.3654699329
 31
0.0
  0
LINE
  5
1AF
330
1F
100
AcDbEntity
  8
0
  6
HIDDEN
 62
     7
100
AcDbLine
 10
7.7053567929
 20
4.0736389163
 30
0.0
 11
8.0343491733
 21
4.0736389163
 31
0.0
  0
LINE
  5
1B0
330
1F
100
AcDbEntity
  8
0
  6
HIDDEN
 62
     7
100
AcDbLine
 10
8.4083649213
 20
3.1487596492
 30
0.0
 11
8.4083649213
 21
3.7586782864
 31
0.0
  0
LINE
  5
1B1
330
1F
100
AcDbEntity
  8
0
  6
HIDDEN
 62
     7
100
AcDbLine
 10
8.4083649213
 20
3.7586782864
 30
0.0
 11
8.4083649213
 21
4.3685969236
 31
0.0
  0
POLYLINE
  5
1B2
330
1F
100
AcDbEntity
  8
0
  6
HIDDEN
 62
     7
100
AcDb2dPolyline
 66
     1
 10
0.0
 20
0.0
 30
0.0
  0
VERTEX
  5
336
330
1B2
100
AcDbEntity
  8
0
  6
HIDDEN
 62
     7
100
AcDbVertex
100
AcDb2dVertex
 10
8.4083649213
 20
3.7586782864
 30
0.0
  0
VERTEX
  5
337
330
1B2
100
AcDbEntity
  8
0
  6
HIDDEN
 62
     7
100
AcDbVertex
100
AcDb2dVertex
 10
8.4073384229
 20
3.7407268833
 30
0.0
  0
VERTEX
  5
338
330
1B2
100
AcDbEntity
  8
0
  6
HIDDEN
 62
     7
100
AcDbVertex
100
AcDb2dVertex
 10
8.4071297625
 20
3.738993247
 30
0.0
  0
SEQEND
  5
339
330
1B2
100
AcDbEntity
  8
0
  6
HIDDEN
 62
     7
  0
POLYLINE
  5
1B3
330
1F
100
AcDbEntity
  8
0
  6
HIDDEN
 62
     7
100
AcDb2dPolyline
 66
     1
 10
0.0
 20
0.0
 30
0.0
  0
VERTEX
  5
33A
330
1B3
100
AcDbEntity
  8
0
  6
HIDDEN
 62
     7
100
AcDbVertex
100
AcDb2dVertex
 10
8.4071297625
 20
3.7783633258
 30
0.0
  0
VERTEX
  5
33B
330
1B3
100
AcDbEntity
  8
0
  6
HIDDEN
 62
     7
100
AcDbVertex
100
AcDb2dVertex
 10
8.4073384229
 20
3.7766296895
 30
0.0
  0
VERTEX
  5
33C
330
1B3
100
AcDbEntity
  8
0
  6
HIDDEN
 62
     7
100
AcDbVertex
100
AcDb2dVertex
 10
8.4083649213
 20
3.7586782864
 30
0.0
  0
SEQEND
  5
33D
330
1B3
100
AcDbEntity
  8
0
  6
HIDDEN
 62
     7
  0
SPLINE
  5
1B4
330
1F
100
AcDbEntity
  8
0
  6
HIDDEN
 62
     7
100
AcDbSpline
210
0.0
220
0.0
230
1.0
 70
    24
 71
     3
 72
     8
 73
     4
 74
     0
 42
0.00000001
 43
0.00000001
 40
0.0
 40
0.0
 40
0.0
 40
0.0
 40
0.0007687366887669
 40
0.0007687366887669
 40
0.0007687366887669
 40
0.0007687366887669
 10
7.93592397640273
 20
4.258228583260139
 30
0.0
 10
7.93592397640273
 20
4.27363317666184
 30
0.0
 10
7.93592397640273
 20
4.288953860563208
 30
0.0
 10
7.93592397640273
 20
4.304206099799567
 30
0.0
  0
SPLINE
  5
1B5
330
1F
100
AcDbEntity
  8
0
  6
HIDDEN
 62
     7
100
AcDbSpline
210
0.0
220
0.0
230
1.0
 70
    24
 71
     3
 72
     8
 73
     4
 74
     0
 42
0.00000001
 43
0.00000001
 40
0.0
 40
0.0
 40
0.0
 40
0.0
 40
0.0007687366887669
 40
0.0007687366887669
 40
0.0007687366887669
 40
0.0007687366887669
 10
7.93592397640273
 20
3.213150472984527
 30
0.0
 10
7.93592397640273
 20
3.228402712220886
 30
0.0
 10
7.93592397640273
 20
3.243723396122254
 30
0.0
 10
7.93592397640273
 20
3.259127989523956
 30
0.0
  0
LINE
  5
1B6
330
1F
100
AcDbEntity
  8
0
  6
HIDDEN
 62
     7
100
AcDbLine
 10
8.5658452362
 20
3.213150473
 30
0.0
 11
8.5658452362
 21
4.3042060998
 31
0.0
  0
POLYLINE
  5
1B7
330
1F
100
AcDbEntity
  8
0
  6
HIDDEN
 62
     7
100
AcDb2dPolyline
 66
     1
 10
0.0
 20
0.0
 30
0.0
  0
VERTEX
  5
33E
330
1B7
100
AcDbEntity
  8
0
  6
HIDDEN
 62
     7
100
AcDbVertex
100
AcDb2dVertex
 10
7.6606616004
 20
3.738993247
 30
0.0
  0
VERTEX
  5
33F
330
1B7
100
AcDbEntity
  8
0
  6
HIDDEN
 62
     7
100
AcDbVertex
100
AcDb2dVertex
 10
7.6603334252
 20
3.7586782864
 30
0.0
  0
VERTEX
  5
340
330
1B7
100
AcDbEntity
  8
0
  6
HIDDEN
 62
     7
100
AcDbVertex
100
AcDb2dVertex
 10
7.6606616004
 20
3.7783633258
 30
0.0
  0
SEQEND
  5
341
330
1B7
100
AcDbEntity
  8
0
  6
HIDDEN
 62
     7
  0
LINE
  5
1B8
330
1F
100
AcDbEntity
  8
0
  6
HIDDEN
 62
     7
100
AcDbLine
 10
7.9359239764
 20
3.2591279895
 30
0.0
 11
7.9359239764
 21
4.2582285833
 31
0.0
  0
SPLINE
  5
1B9
330
1F
100
AcDbEntity
  8
0
  6
HIDDEN
 62
     7
100
AcDbSpline
210
0.0
220
0.0
230
1.0
 70
    24
 71
     3
 72
     8
 73
     4
 74
     0
 42
0.00000001
 43
0.00000001
 40
0.0
 40
0.0
 40
0.0
 40
0.0
 40
0.0005308683874405
 40
0.0005308683874405
 40
0.0005308683874405
 40
0.0005308683874405
 10
8.598356198202008
 20
4.284096487865257
 30
0.0
 10
8.587582439173392
 20
4.281209667834092
 30
0.0
 10
8.576748102765176
 20
4.278306616142983
 30
0.0
 10
8.56584523624525
 20
4.275385201863785
 30
0.0
  0
SPLINE
  5
1BA
330
1F
100
AcDbEntity
  8
0
  6
HIDDEN
 62
     7
100
AcDbSpline
210
0.0
220
0.0
230
1.0
 70
    24
 71
     3
 72
     8
 73
     4
 74
     0
 42
0.00000001
 43
0.00000001
 40
0.0
 40
0.0
 40
0.0
 40
0.0
 40
0.0006142430572494
 40
0.0006142430572494
 40
0.0006142430572494
 40
0.0006142430572494
 10
8.56584523624525
 20
3.252520551724685
 30
0.0
 10
8.574011855839991
 20
3.244353932129944
 30
0.0
 10
8.582172394885495
 20
3.23619339308444
 30
0.0
 10
8.590327791701434
 20
3.228037996268501
 30
0.0
  0
LINE
  5
1BB
330
1F
100
AcDbEntity
  8
0
  6
HIDDEN
 62
     7
100
AcDbLine
 10
8.5658452362
 20
3.2591279895
 30
0.0
 11
8.5658452362
 21
4.2582285833
 31
0.0
  0
POLYLINE
  5
1BC
330
1F
100
AcDbEntity
  8
0
  6
HIDDEN
 62
     7
100
AcDb2dPolyline
 66
     1
 10
0.0
 20
0.0
 30
0.0
  0
VERTEX
  5
342
330
1BC
100
AcDbEntity
  8
0
  6
HIDDEN
 62
     7
100
AcDbVertex
100
AcDb2dVertex
 10
7.6606616004
 20
3.7783633258
 30
0.0
  0
VERTEX
  5
343
330
1BC
100
AcDbEntity
  8
0
  6
HIDDEN
 62
     7
100
AcDbVertex
100
AcDb2dVertex
 10
7.6603334252
 20
3.7586782864
 30
0.0
  0
VERTEX
  5
344
330
1BC
100
AcDbEntity
  8
0
  6
HIDDEN
 62
     7
100
AcDbVertex
100
AcDb2dVertex
 10
7.6606616004
 20
3.738993247
 30
0.0
  0
SEQEND
  5
345
330
1BC
100
AcDbEntity
  8
0
  6
HIDDEN
 62
     7
  0
SPLINE
  5
1BD
330
1F
100
AcDbEntity
  8
0
  6
HIDDEN
 62
     7
100
AcDbSpline
210
0.0
220
0.0
230
1.0
 70
    24
 71
     3
 72
     8
 73
     4
 74
     0
 42
0.00000001
 43
0.00000001
 40
0.0
 40
0.0
 40
0.0
 40
0.0
 40
0.0005308683874405
 40
0.0005308683874405
 40
0.0005308683874405
 40
0.0005308683874405
 10
7.903413014445972
 20
3.233260084918836
 30
0.0
 10
7.914186773474588
 20
3.236146904950002
 30
0.0
 10
7.925021109882804
 20
3.23904995664111
 30
0.0
 10
7.93592397640273
 20
3.241971370920309
 30
0.0
  0
SPLINE
  5
1BE
330
1F
100
AcDbEntity
  8
0
  6
HIDDEN
 62
     7
100
AcDbSpline
210
0.0
220
0.0
230
1.0
 70
    24
 71
     3
 72
     8
 73
     4
 74
     0
 42
0.00000001
 43
0.00000001
 40
0.0
 40
0.0
 40
0.0
 40
0.0
 40
0.0006142430572494
 40
0.0006142430572494
 40
0.0006142430572494
 40
0.0006142430572494
 10
7.911441420946546
 20
4.289318576515594
 30
0.0
 10
7.919596817762486
 20
4.281163179699655
 30
0.0
 10
7.927757356807989
 20
4.27300264065415
 30
0.0
 10
7.93592397640273
 20
4.264836021059409
 30
0.0
  0
SPLINE
  5
1BF
330
1F
100
AcDbEntity
  8
0
  6
HIDDEN
 62
     7
100
AcDbSpline
210
0.0
220
0.0
230
1.0
 70
    24
 71
     3
 72
     8
 73
     4
 74
     0
 42
0.00000001
 43
0.00000001
 40
0.0
 40
0.0
 40
0.0
 40
0.0
 40
0.0005308683874405
 40
0.0005308683874405
 40
0.0005308683874405
 40
0.0005308683874405
 10
8.767591521795726
 20
4.073638916313309
 30
0.0
 10
8.770512936074926
 20
4.084541782833235
 30
0.0
 10
8.773415987766032
 20
4.09537611924145
 30
0.0
 10
8.7763028077972
 20
4.106149878270067
 30
0.0
  0
SPLINE
  5
1C0
330
1F
100
AcDbEntity
  8
0
  6
HIDDEN
 62
     7
100
AcDbSpline
210
0.0
220
0.0
230
1.0
 70
    24
 71
     3
 72
     8
 73
     4
 74
     0
 42
0.00000001
 43
0.00000001
 40
0.0
 40
0.0
 40
0.0
 40
0.0
 40
0.0006142430572494
 40
0.0006142430572494
 40
0.0006142430572494
 40
0.0006142430572494
 10
8.781524896447538
 20
3.419235101014605
 30
0.0
 10
8.773369499631599
 20
3.427390497830544
 30
0.0
 10
8.765208960586095
 20
3.435551036876048
 30
0.0
 10
8.757042340991353
 20
3.443717656470789
 30
0.0
  0
SPLINE
  5
1C1
330
1F
100
AcDbEntity
  8
0
  6
HIDDEN
 62
     7
100
AcDbSpline
210
0.0
220
0.0
230
1.0
 70
    24
 71
     3
 72
     8
 73
     4
 74
     0
 42
0.00000001
 43
0.00000001
 40
0.0
 40
0.0
 40
0.0
 40
0.0
 40
0.0006142430572494
 40
0.0006142430572494
 40
0.0006142430572494
 40
0.0006142430572494
 10
7.744726871656626
 20
4.073638916313305
 30
0.0
 10
7.736560252061885
 20
4.081805535908046
 30
0.0
 10
7.728399713016382
 20
4.08996607495355
 30
0.0
 10
7.720244316200442
 20
4.098121471769488
 30
0.0
  0
SPLINE
  5
1C2
330
1F
100
AcDbEntity
  8
0
  6
HIDDEN
 62
     7
100
AcDbSpline
210
0.0
220
0.0
230
1.0
 70
    24
 71
     3
 72
     8
 73
     4
 74
     0
 42
0.00000001
 43
0.00000001
 40
0.0
 40
0.0
 40
0.0
 40
0.0
 40
0.0005308683874405
 40
0.0005308683874405
 40
0.0005308683874405
 40
0.0005308683874405
 10
7.734177690852253
 20
3.443717656470785
 30
0.0
 10
7.731256276573054
 20
3.432814789950859
 30
0.0
 10
7.728353224881947
 20
3.421980453542643
 30
0.0
 10
7.725466404850781
 20
3.411206694514027
 30
0.0
  0
SPLINE
  5
1C3
330
1F
100
AcDbEntity
  8
0
  6
HIDDEN
 62
     7
100
AcDbSpline
210
0.0
220
0.0
230
1.0
 70
    24
 71
     3
 72
     8
 73
     4
 74
     0
 42
0.00000001
 43
0.00000001
 40
0.0
 40
0.0
 40
0.0
 40
0.0
 40
0.000285957619003
 40
0.000285957619003
 40
0.000285957619003
 40
0.000285957619003
 10
7.734177690852253
 20
3.443717656470785
 30
0.0
 10
7.739885464740762
 20
3.443717656470785
 30
0.0
 10
7.745604049777616
 20
3.443717656470785
 30
0.0
 10
7.7513343094559
 20
3.443717656470785
 30
0.0
  0
SPLINE
  5
1C4
330
1F
100
AcDbEntity
  8
0
  6
HIDDEN
 62
     7
100
AcDbSpline
210
0.0
220
0.0
230
1.0
 70
    24
 71
     3
 72
     8
 73
     4
 74
     0
 42
0.00000001
 43
0.00000001
 40
0.0
 40
0.0
 40
0.0
 40
0.0
 40
0.0001099959787387
 40
0.0001099959787387
 40
0.0001099959787387
 40
0.0001099959787387
 10
8.750434903192083
 20
3.443717656470789
 30
0.0
 10
8.752639095281587
 20
3.443717656470789
 30
0.0
 10
8.754841557661685
 20
3.443717656470789
 30
0.0
 10
8.757042340991353
 20
3.443717656470789
 30
0.0
  0
SPLINE
  5
1C5
330
1F
100
AcDbEntity
  8
0
  6
HIDDEN
 62
     7
100
AcDbSpline
210
0.0
220
0.0
230
1.0
 70
    24
 71
     3
 72
     8
 73
     4
 74
     0
 42
0.00000001
 43
0.00000001
 40
0.0
 40
0.0
 40
0.0
 40
0.0
 40
0.000285957619003
 40
0.000285957619003
 40
0.000285957619003
 40
0.000285957619003
 10
8.767591521795726
 20
4.073638916313309
 30
0.0
 10
8.761883747907218
 20
4.073638916313309
 30
0.0
 10
8.756165162870364
 20
4.073638916313309
 30
0.0
 10
8.75043490319208
 20
4.073638916313309
 30
0.0
  0
LINE
  5
1C6
330
1F
100
AcDbEntity
  8
0
  6
HIDDEN
 62
     7
100
AcDbLine
 10
8.0343491733
 20
4.0736389163
 30
0.0
 11
8.7504349032
 21
4.0736389163
 31
0.0
  0
LINE
  5
1C7
330
1F
100
AcDbEntity
  8
0
  6
HIDDEN
 62
     7
100
AcDbLine
 10
8.7504349032
 20
3.4437176565
 30
0.0
 11
7.7513343095
 21
3.4437176565
 31
0.0
  0
LINE
  5
1C8
330
1F
100
AcDbEntity
  8
0
  6
HIDDEN
 62
     7
100
AcDbLine
 10
7.8836649586
 20
4.27048931
 30
0.0
 11
8.0146641333
 21
4.27048931
 31
0.0
  0
LINE
  5
1C9
330
1F
100
AcDbEntity
  8
0
  6
HIDDEN
 62
     7
100
AcDbLine
 10
7.9556090158
 20
3.3846625384
 30
0.0
 11
7.7590211926
 21
3.3846625384
 31
0.0
  0
LINE
  5
1CA
330
1F
100
AcDbEntity
  8
0
  6
HIDDEN
 62
     7
100
AcDbLine
 10
7.9359239764
 20
3.364977499
 30
0.0
 11
7.7784436642
 21
3.364977499
 31
0.0
  0
LINE
  5
1CB
330
1F
100
AcDbEntity
  8
0
  6
HIDDEN
 62
     7
100
AcDbLine
 10
7.90264447
 20
4.1130089951
 30
0.0
 11
7.9481051212
 21
4.1130089951
 31
0.0
  0
LINE
  5
1CC
330
1F
100
AcDbEntity
  8
0
  6
HIDDEN
 62
     7
100
AcDbLine
 10
7.8117231678
 20
4.1130089951
 30
0.0
 11
7.90264447
 21
4.1130089951
 31
0.0
  0
LINE
  5
1CD
330
1F
100
AcDbEntity
  8
0
  6
HIDDEN
 62
     7
100
AcDbLine
 10
7.90264447
 20
4.1130089951
 30
0.0
 11
7.90264447
 21
4.27048931
 31
0.0
  0
LINE
  5
1CE
330
1F
100
AcDbEntity
  8
0
  6
HIDDEN
 62
     7
100
AcDbLine
 10
7.8117231678
 20
4.1130089951
 30
0.0
 11
7.8117231678
 21
4.27048931
 31
0.0
  0
LINE
  5
1CF
330
1F
100
AcDbEntity
  8
0
  6
HIDDEN
 62
     7
100
AcDbLine
 10
7.7662625167
 20
4.1130089951
 30
0.0
 11
7.8117231678
 21
4.1130089951
 31
0.0
  0
LINE
  5
1D0
330
1F
100
AcDbEntity
  8
0
  6
HIDDEN
 62
     7
100
AcDbLine
 10
7.9481051212
 20
4.1130089951
 30
0.0
 11
7.9481051212
 21
4.27048931
 31
0.0
  0
LINE
  5
1D1
330
1F
100
AcDbEntity
  8
0
  6
HIDDEN
 62
     7
100
AcDbLine
 10
7.7662625167
 20
4.1130089951
 30
0.0
 11
7.7662625167
 21
4.27048931
 31
0.0
  0
LINE
  5
1D2
330
1F
100
AcDbEntity
  8
0
  6
HIDDEN
 62
     7
100
AcDbLine
 10
8.7964124197
 20
4.0736389163
 30
0.0
 11
8.7680088732
 21
4.0736389163
 31
0.0
  0
LINE
  5
1D3
330
1F
100
AcDbEntity
  8
0
  6
HIDDEN
 62
     7
100
AcDbLine
 10
8.757414824
 20
3.4437176565
 30
0.0
 11
8.7964124197
 21
3.4437176565
 31
0.0
  0
LINE
  5
1D4
330
1F
100
AcDbEntity
  8
0
  6
HIDDEN
 62
     7
100
AcDbLine
 10
7.7053567929
 20
3.4437176565
 30
0.0
 11
7.7337603394
 21
3.4437176565
 31
0.0
  0
LINE
  5
1D5
330
1F
100
AcDbEntity
  8
0
  6
HIDDEN
 62
     7
100
AcDbLine
 10
8.8608032435
 20
3.9161586014
 30
0.0
 11
8.2508846063
 21
3.9161586014
 31
0.0
  0
LINE
  5
1D6
330
1F
100
AcDbEntity
  8
0
  6
HIDDEN
 62
     7
100
AcDbLine
 10
8.2508846063
 20
3.9161586014
 30
0.0
 11
7.6409659691
 21
3.9161586014
 31
0.0
  0
LINE
  5
1D7
330
1F
100
AcDbEntity
  8
0
  6
HIDDEN
 62
     7
100
AcDbLine
 10
8.2705696457
 20
3.1290646804
 30
0.0
 11
8.2705696457
 21
3.6024331302
 31
0.0
  0
LINE
  5
1D8
330
1F
100
AcDbEntity
  8
0
  6
HIDDEN
 62
     7
100
AcDbLine
 10
8.231199567
 20
3.1290646804
 30
0.0
 11
8.231199567
 21
3.6024331302
 31
0.0
  0
LINE
  5
1D9
330
1F
100
AcDbEntity
  8
0
  6
HIDDEN
 62
     7
100
AcDbLine
 10
8.2705696457
 20
4.208153352
 30
0.0
 11
8.231199567
 21
4.208153352
 31
0.0
  0
LINE
  5
1DA
330
1F
100
AcDbEntity
  8
0
  6
HIDDEN
 62
     7
100
AcDbLine
 10
8.231199567
 20
4.208153352
 30
0.0
 11
8.231199567
 21
3.9149234426
 31
0.0
  0
LINE
  5
1DB
330
1F
100
AcDbEntity
  8
0
  6
HIDDEN
 62
     7
100
AcDbLine
 10
8.2705696457
 20
4.208153352
 30
0.0
 11
8.2705696457
 21
3.9149234426
 31
0.0
  0
ARC
  5
1DC
330
1F
100
AcDbEntity
  8
0
  6
HIDDEN
 62
     7
100
AcDbCircle
 10
8.2508846063
 20
3.7586782864
 30
0.0
 40
0.1968503937007947
100
AcDbArc
 50
174.2608295227
 51
185.7391704773
  0
ARC
  5
1DD
330
1F
100
AcDbEntity
  8
0
  6
HIDDEN
 62
     7
100
AcDbCircle
 10
8.2508846063
 20
3.7586782864
 30
0.0
 40
0.1968503937007788
100
AcDbArc
 50
354.2608295227
 51
5.7391704773
  0
LINE
  5
1DE
330
1F
100
AcDbEntity
  8
0
  6
HIDDEN
 62
     7
100
AcDbLine
 10
7.7390735827
 20
3.5224578134
 30
0.0
 11
7.7390735827
 21
3.3914586386
 31
0.0
  0
LINE
  5
1DF
330
1F
100
AcDbEntity
  8
0
  6
HIDDEN
 62
     7
100
AcDbLine
 10
8.6445853937
 20
3.2862373443
 30
0.0
 11
8.6445853937
 21
3.4437176565
 31
0.0
  0
LINE
  5
1E0
330
1F
100
AcDbEntity
  8
0
  6
HIDDEN
 62
     7
100
AcDbLine
 10
8.6249003544
 20
3.4634026958
 30
0.0
 11
8.6249003544
 21
3.2668148726
 31
0.0
  0
LINE
  5
1E1
330
1F
100
AcDbEntity
  8
0
  6
HIDDEN
 62
     7
100
AcDbLine
 10
7.8965538977
 20
3.3195168479
 30
0.0
 11
7.8965538977
 21
3.2740561968
 31
0.0
  0
LINE
  5
1E2
330
1F
100
AcDbEntity
  8
0
  6
HIDDEN
 62
     7
100
AcDbLine
 10
7.8965538977
 20
3.3195168479
 30
0.0
 11
7.7390735827
 21
3.3195168479
 31
0.0
  0
LINE
  5
1E3
330
1F
100
AcDbEntity
  8
0
  6
HIDDEN
 62
     7
100
AcDbLine
 10
7.8965538977
 20
3.4104381501
 30
0.0
 11
7.8965538977
 21
3.3195168479
 31
0.0
  0
LINE
  5
1E4
330
1F
100
AcDbEntity
  8
0
  6
HIDDEN
 62
     7
100
AcDbLine
 10
7.8965538977
 20
3.4104381501
 30
0.0
 11
7.7390735827
 21
3.4104381501
 31
0.0
  0
LINE
  5
1E5
330
1F
100
AcDbEntity
  8
0
  6
HIDDEN
 62
     7
100
AcDbLine
 10
7.8965538977
 20
3.4558988012
 30
0.0
 11
7.8965538977
 21
3.4104381501
 31
0.0
  0
LINE
  5
1E6
330
1F
100
AcDbEntity
  8
0
  6
HIDDEN
 62
     7
100
AcDbLine
 10
7.8965538977
 20
3.2740561968
 30
0.0
 11
7.7390735827
 21
3.2740561968
 31
0.0
  0
LINE
  5
1E7
330
1F
100
AcDbEntity
  8
0
  6
HIDDEN
 62
     7
100
AcDbLine
 10
7.8965538977
 20
3.4558988012
 30
0.0
 11
7.7390735827
 21
3.4558988012
 31
0.0
  0
LINE
  5
1E8
330
1F
100
AcDbEntity
  8
0
  6
HIDDEN
 62
     7
100
AcDbLine
 10
8.0343491733
 20
4.0736389163
 30
0.0
 11
8.0343491733
 21
4.3500984389
 31
0.0
  0
LINE
  5
1E9
330
1F
100
AcDbEntity
  8
0
  6
HIDDEN
 62
     7
100
AcDbLine
 10
7.7587586221
 20
4.0736389163
 30
0.0
 11
7.7587586221
 21
3.7783633258
 31
0.0
  0
LINE
  5
1EA
330
1F
100
AcDbEntity
  8
0
  6
HIDDEN
 62
     7
100
AcDbLine
 10
7.9556090158
 20
3.7783633258
 30
0.0
 11
7.9556090158
 21
4.0736389163
 31
0.0
  0
LINE
  5
1EB
330
1F
100
AcDbEntity
  8
0
  6
HIDDEN
 62
     7
100
AcDbLine
 10
7.7587586221
 20
3.738993247
 30
0.0
 11
7.7587586221
 21
3.3654699329
 31
0.0
  0
LINE
  5
1EC
330
1F
100
AcDbEntity
  8
0
  6
HIDDEN
 62
     7
100
AcDbLine
 10
7.9556090158
 20
3.2024012106
 30
0.0
 11
7.9556090158
 21
3.738993247
 31
0.0
  0
ARC
  5
1ED
330
1F
100
AcDbEntity
  8
0
  6
HIDDEN
 62
     7
100
AcDbCircle
 10
8.0146641339
 20
4.2508042706
 30
0.0
 40
0.0196850393700787
100
AcDbArc
 50
0.0
 51
90.0
  0
LINE
  5
1EE
330
1F
100
AcDbEntity
  8
0
  6
HIDDEN
 62
     7
100
AcDbLine
 10
8.0343491733
 20
4.0736389163
 30
0.0
 11
8.0343491733
 21
4.2508042706
 31
0.0
  0
LINE
  5
1EF
330
1F
100
AcDbEntity
  8
0
  6
HIDDEN
 62
     7
100
AcDbLine
 10
7.9556090158
 20
3.3846625384
 30
0.0
 11
7.9556090158
 21
3.738993247
 31
0.0
  0
LINE
  5
1F0
330
1F
100
AcDbEntity
  8
0
  6
HIDDEN
 62
     7
100
AcDbLine
 10
7.9556090158
 20
3.7783633258
 30
0.0
 11
7.9556090158
 21
4.0736389163
 31
0.0
  0
LINE
  5
1F1
330
1F
100
AcDbEntity
  8
0
  6
HIDDEN
 62
     7
100
AcDbLine
 10
7.7587586221
 20
4.0736389163
 30
0.0
 11
7.7587586221
 21
3.7783633258
 31
0.0
  0
LINE
  5
1F2
330
1F
100
AcDbEntity
  8
0
  6
HIDDEN
 62
     7
100
AcDbLine
 10
7.7587586221
 20
3.738993247
 30
0.0
 11
7.7587586221
 21
3.3846625384
 31
0.0
  0
ARC
  5
1F3
330
1F
100
AcDbEntity
  8
0
  6
HIDDEN
 62
     7
100
AcDbCircle
 10
7.9359239764
 20
3.3846625384
 30
0.0
 40
0.0196850393700787
100
AcDbArc
 50
270.0
 51
0.0
  0
ARC
  5
1F4
330
1F
100
AcDbEntity
  8
0
  6
HIDDEN
 62
     7
100
AcDbCircle
 10
7.7784436614
 20
3.3846625384
 30
0.0
 40
0.0196850393700787
100
AcDbArc
 50
180.0
 51
270.0
  0
LINE
  5
1F5
330
1F
100
AcDbEntity
  8
0
  6
HIDDEN
 62
     7
100
AcDbLine
 10
7.9359239764
 20
3.5421428533
 30
0.0
 11
7.6594644538
 21
3.5421428533
 31
0.0
  0
LINE
  5
1F6
330
1F
100
AcDbEntity
  8
0
  6
HIDDEN
 62
     7
100
AcDbLine
 10
8.2705696457
 20
3.2665523021
 30
0.0
 11
8.6440929598
 21
3.2665523021
 31
0.0
  0
LINE
  5
1F7
330
1F
100
AcDbEntity
  8
0
  6
HIDDEN
 62
     7
100
AcDbLine
 10
8.8071616821
 20
3.4634026958
 30
0.0
 11
8.2705696457
 21
3.4634026958
 31
0.0
  0
LINE
  5
1F8
330
1F
100
AcDbEntity
  8
0
  6
HIDDEN
 62
     7
100
AcDbLine
 10
7.9359239764
 20
3.2665523021
 30
0.0
 11
8.231199567
 21
3.2665523021
 31
0.0
  0
LINE
  5
1F9
330
1F
100
AcDbEntity
  8
0
  6
HIDDEN
 62
     7
100
AcDbLine
 10
8.231199567
 20
3.4634026958
 30
0.0
 11
7.9359239764
 21
3.4634026958
 31
0.0
  0
LINE
  5
1FA
330
1F
100
AcDbEntity
  8
0
  6
HIDDEN
 62
     7
100
AcDbLine
 10
7.9359239764
 20
3.5421428533
 30
0.0
 11
7.7587586221
 21
3.5421428533
 31
0.0
  0
ARC
  5
1FB
330
1F
100
AcDbEntity
  8
0
  6
HIDDEN
 62
     7
100
AcDbCircle
 10
7.7587586221
 20
3.522457814
 30
0.0
 40
0.0196850393700796
100
AcDbArc
 50
90.0
 51
180.0
  0
ARC
  5
1FC
330
1F
100
AcDbEntity
  8
0
  6
HIDDEN
 62
     7
100
AcDbCircle
 10
8.6249003544
 20
3.4437176565
 30
0.0
 40
0.0196850393700796
100
AcDbArc
 50
0.0
 51
90.0
  0
ARC
  5
1FD
330
1F
100
AcDbEntity
  8
0
  6
HIDDEN
 62
     7
100
AcDbCircle
 10
8.6249003544
 20
3.2862373415
 30
0.0
 40
0.0196850393700796
100
AcDbArc
 50
270.0
 51
0.0
  0
LINE
  5
1FE
330
1F
100
AcDbEntity
  8
0
  6
HIDDEN
 62
     7
100
AcDbLine
 10
8.6249003544
 20
3.4634026958
 30
0.0
 11
7.9359239764
 21
3.4634026958
 31
0.0
  0
LINE
  5
1FF
330
1F
100
AcDbEntity
  8
0
  6
HIDDEN
 62
     7
100
AcDbLine
 10
7.9359239764
 20
3.2665523021
 30
0.0
 11
8.6249003544
 21
3.2665523021
 31
0.0
  0
LINE
  5
200
330
1F
100
AcDbEntity
  8
0
  6
HIDDEN
 62
     7
100
AcDbLine
 10
7.6800184646
 20
4.2508042706
 30
0.0
 11
8.0343491733
 21
4.2508042706
 31
0.0
  0
LINE
  5
201
330
1F
100
AcDbEntity
  8
0
  6
HIDDEN
 62
     7
100
AcDbLine
 10
7.7587586221
 20
3.3654699329
 30
0.0
 11
7.7587586221
 21
3.1878121447
 31
0.0
  0
LINE
  5
202
330
1F
100
AcDbEntity
  8
0
  6
CONTINUOUS
 62
     7
100
AcDbLine
 10
3.8646938462
 20
6.0420558791
 30
0.0
 11
3.9401531638
 21
6.0420558791
 31
0.0
  0
LINE
  5
203
330
1F
100
AcDbEntity
  8
0
  6
CONTINUOUS
 62
     7
100
AcDbLine
 10
4.4683683868
 20
7.3018983988
 30
0.0
 11
3.8253237674
 21
7.3018983988
 31
0.0
  0
LINE
  5
204
330
1F
100
AcDbEntity
  8
0
  6
CONTINUOUS
 62
     7
100
AcDbLine
 10
4.5077384656
 20
7.26252832
 30
0.0
 11
4.4683683868
 21
7.3018983988
 31
0.0
  0
LINE
  5
205
330
1F
100
AcDbEntity
  8
0
  6
CONTINUOUS
 62
     7
100
AcDbLine
 10
3.8253237674
 20
6.0814259578
 30
0.0
 11
3.8646938462
 21
6.0420558791
 31
0.0
  0
LINE
  5
206
330
1F
100
AcDbEntity
  8
0
  6
CONTINUOUS
 62
     7
100
AcDbLine
 10
3.0379221926
 20
6.0420558791
 30
0.0
 11
3.7859536887
 21
6.0420558791
 31
0.0
  0
LINE
  5
207
330
1F
100
AcDbEntity
  8
0
  6
CONTINUOUS
 62
     7
100
AcDbLine
 10
3.7859536887
 20
7.3018983988
 30
0.0
 11
3.0379221926
 21
7.3018983988
 31
0.0
  0
LINE
  5
208
330
1F
100
AcDbEntity
  8
0
  6
CONTINUOUS
 62
     7
100
AcDbLine
 10
3.7859536887
 20
6.0420558791
 30
0.0
 11
3.8253237674
 21
6.0814259578
 31
0.0
  0
LINE
  5
209
330
1F
100
AcDbEntity
  8
0
  6
CONTINUOUS
 62
     7
100
AcDbLine
 10
3.8253237674
 20
7.26252832
 30
0.0
 11
3.7859536887
 21
7.3018983988
 31
0.0
  0
LINE
  5
20A
330
1F
100
AcDbEntity
  8
0
  6
CONTINUOUS
 62
     7
100
AcDbLine
 10
3.0379221926
 20
7.3018983988
 30
0.0
 11
2.9985521139
 21
7.26252832
 31
0.0
  0
LINE
  5
20B
330
1F
100
AcDbEntity
  8
0
  6
CONTINUOUS
 62
     7
100
AcDbLine
 10
2.9985521139
 20
6.0814259578
 30
0.0
 11
3.0379221926
 21
6.0420558791
 31
0.0
  0
LINE
  5
20C
330
1F
100
AcDbEntity
  8
0
  6
CONTINUOUS
 62
     7
100
AcDbLine
 10
2.6737489643
 20
7.3018983988
 30
0.0
 11
2.1849038199
 21
7.3018983988
 31
0.0
  0
LINE
  5
20D
330
1F
100
AcDbEntity
  8
0
  6
CONTINUOUS
 62
     7
100
AcDbLine
 10
2.9591820351
 20
7.3018983988
 30
0.0
 11
2.713119043
 21
7.3018983988
 31
0.0
  0
LINE
  5
20E
330
1F
100
AcDbEntity
  8
0
  6
CONTINUOUS
 62
     7
100
AcDbLine
 10
2.713119043
 20
6.0420558791
 30
0.0
 11
2.9591820351
 21
6.0420558791
 31
0.0
  0
LINE
  5
20F
330
1F
100
AcDbEntity
  8
0
  6
CONTINUOUS
 62
     7
100
AcDbLine
 10
2.1849038199
 20
6.0420558791
 30
0.0
 11
2.6737489643
 21
6.0420558791
 31
0.0
  0
LINE
  5
210
330
1F
100
AcDbEntity
  8
0
  6
CONTINUOUS
 62
     7
100
AcDbLine
 10
2.1849038199
 20
7.3018983988
 30
0.0
 11
2.1455337412
 21
7.26252832
 31
0.0
  0
LINE
  5
211
330
1F
100
AcDbEntity
  8
0
  6
CONTINUOUS
 62
     7
100
AcDbLine
 10
2.1455337412
 20
6.0814259578
 30
0.0
 11
2.1849038199
 21
6.0420558791
 31
0.0
  0
LINE
  5
212
330
1F
100
AcDbEntity
  8
0
  6
CONTINUOUS
 62
     7
100
AcDbLine
 10
2.9985521139
 20
7.26252832
 30
0.0
 11
2.9591820351
 21
7.3018983988
 31
0.0
  0
LINE
  5
213
330
1F
100
AcDbEntity
  8
0
  6
CONTINUOUS
 62
     7
100
AcDbLine
 10
2.9591820351
 20
6.0420558791
 30
0.0
 11
2.9985521139
 21
6.0814259578
 31
0.0
  0
LINE
  5
214
330
1F
100
AcDbEntity
  8
0
  6
CONTINUOUS
 62
     7
100
AcDbLine
 10
3.8646938462
 20
6.357016509
 30
0.0
 11
3.8646938462
 21
6.0420558791
 31
0.0
  0
LINE
  5
215
330
1F
100
AcDbEntity
  8
0
  6
CONTINUOUS
 62
     7
100
AcDbLine
 10
3.6940901716
 20
6.357016509
 30
0.0
 11
3.8646938462
 21
6.357016509
 31
0.0
  0
LINE
  5
216
330
1F
100
AcDbEntity
  8
0
  6
CONTINUOUS
 62
     7
100
AcDbLine
 10
3.6940901716
 20
6.9869377688
 30
0.0
 11
3.6940901716
 21
6.357016509
 31
0.0
  0
LINE
  5
217
330
1F
100
AcDbEntity
  8
0
  6
CONTINUOUS
 62
     7
100
AcDbLine
 10
3.8253237674
 20
6.9869377688
 30
0.0
 11
3.6940901716
 21
6.9869377688
 31
0.0
  0
LINE
  5
218
330
1F
100
AcDbEntity
  8
0
  6
CONTINUOUS
 62
     7
100
AcDbLine
 10
3.8253237674
 20
7.3018983988
 30
0.0
 11
3.8253237674
 21
6.9869377688
 31
0.0
  0
LINE
  5
219
330
1F
100
AcDbEntity
  8
0
  6
CONTINUOUS
 62
     7
100
AcDbLine
 10
4.4683683868
 20
6.0423635329
 30
0.0
 11
3.9795232425
 21
6.0423635329
 31
0.0
  0
LINE
  5
21A
330
1F
100
AcDbEntity
  8
0
  6
CONTINUOUS
 62
     7
100
AcDbLine
 10
3.9795232425
 20
6.8294574539
 30
0.0
 11
3.9795232425
 21
6.0423635329
 31
0.0
  0
LINE
  5
21B
330
1F
100
AcDbEntity
  8
0
  6
CONTINUOUS
 62
     7
100
AcDbLine
 10
3.9401531638
 20
6.8294574539
 30
0.0
 11
3.9795232425
 21
6.8294574539
 31
0.0
  0
LINE
  5
21C
330
1F
100
AcDbEntity
  8
0
  6
CONTINUOUS
 62
     7
100
AcDbLine
 10
3.9401531638
 20
6.8294574539
 30
0.0
 11
3.9401531638
 21
6.0420558791
 31
0.0
  0
LINE
  5
21D
330
1F
100
AcDbEntity
  8
0
  6
CONTINUOUS
 62
     7
100
AcDbLine
 10
4.4683683868
 20
6.0423635329
 30
0.0
 11
4.4683683868
 21
7.3018983988
 31
0.0
  0
SPLINE
  5
21E
330
1F
100
AcDbEntity
  8
0
  6
CONTINUOUS
 62
     7
100
AcDbSpline
210
0.0
220
0.0
230
1.0
 70
     8
 71
     3
 72
    52
 73
    48
 74
     0
 42
0.00000001
 43
0.00000001
 40
0.0
 40
0.0
 40
0.0
 40
0.0
 40
0.0625000000000005
 40
0.0625000000000005
 40
0.125000000000001
 40
0.125000000000001
 40
0.1875000000000015
 40
0.1875000000000015
 40
0.2187500000000017
 40
0.2187500000000017
 40
0.2500000000000018
 40
0.2500000000000018
 40
0.3125000000000019
 40
0.3125000000000019
 40
0.343750000000002
 40
0.343750000000002
 40
0.3750000000000021
 40
0.3750000000000021
 40
0.4062500000000022
 40
0.4062500000000022
 40
0.4375000000000023
 40
0.4375000000000023
 40
0.4687500000000023
 40
0.4687500000000023
 40
0.5000000000000024
 40
0.5000000000000024
 40
0.5625000000000021
 40
0.5625000000000021
 40
0.5937500000000021
 40
0.5937500000000021
 40
0.625000000000002
 40
0.625000000000002
 40
0.6875000000000017
 40
0.6875000000000017
 40
0.7187500000000016
 40
0.7187500000000016
 40
0.7500000000000013
 40
0.7500000000000013
 40
0.7812500000000011
 40
0.7812500000000011
 40
0.8125000000000009
 40
0.8125000000000009
 40
0.8750000000000007
 40
0.8750000000000007
 40
0.9375000000000003
 40
0.9375000000000003
 40
1.0
 40
1.0
 40
1.0
 40
1.0
 10
4.362820331285509
 20
6.126449325508905
 30
0.0
 10
4.377737999255682
 20
6.13542017872958
 30
0.0
 10
4.390189426732495
 20
6.145762333077956
 30
0.0
 10
4.411984325457006
 20
6.169133858786474
 30
0.0
 10
4.421325579372326
 20
6.182331320227232
 30
0.0
 10
4.436189937884759
 20
6.210964298093755
 30
0.0
 10
4.441777070363211
 20
6.226401036715887
 30
0.0
 10
4.446857509522034
 20
6.251508338998626
 30
0.0
 10
4.447990409205564
 20
6.260264407624899
 30
0.0
 10
4.448907104847668
 20
6.278060013140954
 30
0.0
 10
4.448705133378938
 20
6.287126270016427
 30
0.0
 10
4.445865715280616
 20
6.314808506450552
 30
0.0
 10
4.440875377542649
 20
6.334135175266767
 30
0.0
 10
4.428059843341946
 20
6.361857773967823
 30
0.0
 10
4.422843414601864
 20
6.371026969724293
 30
0.0
 10
4.41058029832161
 20
6.388565678451853
 30
0.0
 10
4.403635085665371
 20
6.396818160577387
 30
0.0
 10
4.38805800656191
 20
6.412162541633691
 30
0.0
 10
4.379319827951925
 20
6.419324923604363
 30
0.0
 10
4.360474299470307
 20
6.431908089255015
 30
0.0
 10
4.350489670992406
 20
6.437278808270649
 30
0.0
 10
4.329395413589297
 20
6.446111125501017
 30
0.0
 10
4.318163144241842
 20
6.449580782864247
 30
0.0
 10
4.295525921363449
 20
6.454187117823495
 30
0.0
 10
4.284036292349772
 20
6.455383440527677
 30
0.0
 10
4.249042496745474
 20
6.455552065897963
 30
0.0
 10
4.225882238463908
 20
6.451006095689531
 30
0.0
 10
4.193892463696781
 20
6.43794631085529
 30
0.0
 10
4.183842397797273
 20
6.432640720115617
 30
0.0
 10
4.164933086329193
 20
6.420244749237833
 30
0.0
 10
4.156068571589484
 20
6.413110247362564
 30
0.0
 10
4.132363010676707
 20
6.39011639872033
 30
0.0
 10
4.119866184363551
 20
6.372126424463996
 30
0.0
 10
4.106817381461141
 20
6.344351365069699
 30
0.0
 10
4.103333597643393
 20
6.334827797985141
 30
0.0
 10
4.098112614502471
 20
6.315887940765099
 30
0.0
 10
4.096366421799679
 20
6.306501036995365
 30
0.0
 10
4.094370148854297
 20
6.287937980691791
 30
0.0
 10
4.094128019800658
 20
6.278702764109139
 30
0.0
 10
4.094985073698533
 20
6.260854732114809
 30
0.0
 10
4.096071545076842
 20
6.252224574232997
 30
0.0
 10
4.101035795416466
 20
6.227151632513979
 30
0.0
 10
4.106662998724733
 20
6.211390811265696
 30
0.0
 10
4.121555351459306
 20
6.182557749464492
 30
0.0
 10
4.130730058090758
 20
6.169530092818959
 30
0.0
 10
4.152649294781676
 20
6.145923701421449
 30
0.0
 10
4.165305089827653
 20
6.135415907414733
 30
0.0
 10
4.180215655011155
 20
6.126449325508905
 30
0.0
  0
LINE
  5
21F
330
1F
100
AcDbEntity
  8
0
  6
CONTINUOUS
 62
     7
100
AcDbLine
 10
4.5077384656
 20
7.26252832
 30
0.0
 11
4.5077384656
 21
6.081754133
 31
0.0
  0
LINE
  5
220
330
1F
100
AcDbEntity
  8
0
  6
CONTINUOUS
 62
     7
100
AcDbLine
 10
4.4683683868
 20
6.0423635329
 30
0.0
 11
4.5077384656
 21
6.081754133
 31
0.0
  0
SPLINE
  5
221
330
1F
100
AcDbEntity
  8
0
  6
CONTINUOUS
 62
     7
100
AcDbSpline
210
0.0
220
0.0
230
1.0
 70
    24
 71
     3
 72
     8
 73
     4
 74
     0
 42
0.00000001
 43
0.00000001
 40
0.0
 40
0.0
 40
0.0
 40
0.0
 40
0.0007687366887669
 40
0.0007687366887669
 40
0.0007687366887669
 40
0.0007687366887669
 10
3.694090171626022
 20
6.357016508995166
 30
0.0
 10
3.680881344982736
 20
6.357016508995166
 30
0.0
 10
3.667750918076304
 20
6.357016508995166
 30
0.0
 10
3.654720092885865
 20
6.357016508995166
 30
0.0
  0
LINE
  5
222
330
1F
100
AcDbEntity
  8
0
  6
CONTINUOUS
 62
     7
100
AcDbLine
 10
3.6547200929
 20
6.357016509
 30
0.0
 11
3.6547200929
 21
6.9869377688
 31
0.0
  0
SPLINE
  5
223
330
1F
100
AcDbEntity
  8
0
  6
CONTINUOUS
 62
     7
100
AcDbSpline
210
0.0
220
0.0
230
1.0
 70
    24
 71
     3
 72
     8
 73
     4
 74
     0
 42
0.00000001
 43
0.00000001
 40
0.0
 40
0.0
 40
0.0
 40
0.0
 40
0.0007687366887669
 40
0.0007687366887669
 40
0.0007687366887669
 40
0.0007687366887669
 10
3.654720092885865
 20
6.986937768837686
 30
0.0
 10
3.667750918076304
 20
6.986937768837686
 30
0.0
 10
3.680881344982736
 20
6.986937768837686
 30
0.0
 10
3.694090171626022
 20
6.986937768837686
 30
0.0
  0
LINE
  5
224
330
1F
100
AcDbEntity
  8
0
  6
CONTINUOUS
 62
     7
100
AcDbLine
 10
3.8253237674
 20
6.0814259578
 30
0.0
 11
3.8253237674
 21
6.357016509
 31
0.0
  0
LINE
  5
225
330
1F
100
AcDbEntity
  8
0
  6
CONTINUOUS
 62
     7
100
AcDbLine
 10
3.6153500141
 20
7.0194487308
 30
0.0
 11
3.7859536887
 21
7.0194487308
 31
0.0
  0
LINE
  5
226
330
1F
100
AcDbEntity
  8
0
  6
CONTINUOUS
 62
     7
100
AcDbLine
 10
3.6153500141
 20
6.3325339535
 30
0.0
 11
3.6153500141
 21
7.0194487308
 31
0.0
  0
LINE
  5
227
330
1F
100
AcDbEntity
  8
0
  6
CONTINUOUS
 62
     7
100
AcDbLine
 10
3.7859536887
 20
6.3325339535
 30
0.0
 11
3.6153500141
 21
6.3325339535
 31
0.0
  0
LINE
  5
228
330
1F
100
AcDbEntity
  8
0
  6
CONTINUOUS
 62
     7
100
AcDbLine
 10
3.7859536887
 20
6.0420558791
 30
0.0
 11
3.7859536887
 21
6.3325339535
 31
0.0
  0
LINE
  5
229
330
1F
100
AcDbEntity
  8
0
  6
CONTINUOUS
 62
     7
100
AcDbLine
 10
3.7859536887
 20
7.0194487308
 30
0.0
 11
3.7859536887
 21
7.3018983988
 31
0.0
  0
LINE
  5
22A
330
1F
100
AcDbEntity
  8
0
  6
CONTINUOUS
 62
     7
100
AcDbLine
 10
3.0379221926
 20
6.1413368488
 30
0.0
 11
3.0379221926
 21
6.0420558791
 31
0.0
  0
LINE
  5
22B
330
1F
100
AcDbEntity
  8
0
  6
CONTINUOUS
 62
     7
100
AcDbLine
 10
2.8673185181
 20
6.1413368488
 30
0.0
 11
3.0379221926
 21
6.1413368488
 31
0.0
  0
LINE
  5
22C
330
1F
100
AcDbEntity
  8
0
  6
CONTINUOUS
 62
     7
100
AcDbLine
 10
2.8673185181
 20
7.1973953404
 30
0.0
 11
2.8673185181
 21
6.1413368488
 31
0.0
  0
LINE
  5
22D
330
1F
100
AcDbEntity
  8
0
  6
CONTINUOUS
 62
     7
100
AcDbLine
 10
3.0379221926
 20
7.1973953404
 30
0.0
 11
2.8673185181
 21
7.1973953404
 31
0.0
  0
LINE
  5
22E
330
1F
100
AcDbEntity
  8
0
  6
CONTINUOUS
 62
     7
100
AcDbLine
 10
3.0379221926
 20
7.3018983988
 30
0.0
 11
3.0379221926
 21
7.1973953404
 31
0.0
  0
SPLINE
  5
22F
330
1F
100
AcDbEntity
  8
0
  6
CONTINUOUS
 62
     7
100
AcDbSpline
210
0.0
220
0.0
230
1.0
 70
     8
 71
     3
 72
     8
 73
     4
 74
     0
 42
0.00000001
 43
0.00000001
 40
0.0
 40
0.0
 40
0.0
 40
0.0
 40
0.0001099959787388
 40
0.0001099959787388
 40
0.0001099959787388
 40
0.0001099959787388
 10
2.833548120660098
 20
6.165819404249062
 30
0.0
 10
2.831679560913128
 20
6.168020187578731
 30
0.0
 10
2.829812976825338
 20
6.170222649958831
 30
0.0
 10
2.827948439342554
 20
6.172426842048338
 30
0.0
  0
SPLINE
  5
230
330
1F
100
AcDbEntity
  8
0
  6
CONTINUOUS
 62
     7
100
AcDbSpline
210
0.0
220
0.0
230
1.0
 70
     8
 71
     3
 72
     8
 73
     4
 74
     0
 42
0.00000001
 43
0.00000001
 40
0.0
 40
0.0
 40
0.0
 40
0.0
 40
0.000285957619003
 40
0.000285957619003
 40
0.000285957619003
 40
0.000285957619003
 10
2.827948439342558
 20
7.171527435784515
 30
0.0
 10
2.832795695626213
 20
7.1772576954628
 30
0.0
 10
2.837656781699115
 20
7.182976280499654
 30
0.0
 10
2.842530495549728
 20
7.188684054388163
 30
0.0
  0
SPLINE
  5
231
330
1F
100
AcDbEntity
  8
0
  6
CONTINUOUS
 62
     7
100
AcDbSpline
210
0.0
220
0.0
230
1.0
 70
     8
 71
     3
 72
     8
 73
     4
 74
     0
 42
0.00000001
 43
0.00000001
 40
0.0
 40
0.0
 40
0.0
 40
0.0
 40
0.0005308683874405
 40
0.0005308683874405
 40
0.0005308683874405
 40
0.0005308683874405
 10
2.842530495549728
 20
7.188684054388163
 30
0.0
 10
2.850699752108932
 20
7.191605468667362
 30
0.0
 10
2.858967691837781
 20
7.194508520358469
 30
0.0
 10
2.867318518082715
 20
7.197395340389635
 30
0.0
  0
SPLINE
  5
232
330
1F
100
AcDbEntity
  8
0
  6
CONTINUOUS
 62
     7
100
AcDbSpline
210
0.0
220
0.0
230
1.0
 70
     8
 71
     3
 72
     8
 73
     4
 74
     0
 42
0.00000001
 43
0.00000001
 40
0.0
 40
0.0
 40
0.0
 40
0.0
 40
0.0006142430572494
 40
0.0006142430572494
 40
0.0006142430572494
 40
0.0006142430572494
 10
2.833548120660098
 20
6.165819404249062
 30
0.0
 10
2.8447965507951
 20
6.157652784654322
 30
0.0
 10
2.856053814923664
 20
6.149492245608817
 30
0.0
 10
2.867318518082715
 20
6.141336848792878
 30
0.0
  0
SPLINE
  5
233
330
1F
100
AcDbEntity
  8
0
  6
CONTINUOUS
 62
     7
100
AcDbSpline
210
0.0
220
0.0
230
1.0
 70
     8
 71
     3
 72
     8
 73
     4
 74
     0
 42
0.00000001
 43
0.00000001
 40
0.0
 40
0.0
 40
0.0
 40
0.0
 40
0.0006142430572494
 40
0.0006142430572494
 40
0.0006142430572494
 40
0.0006142430572494
 10
3.615350014145707
 20
6.332533953538983
 30
0.0
 10
3.626614717304759
 20
6.340689350354921
 30
0.0
 10
3.637871981433324
 20
6.348849889400426
 30
0.0
 10
3.649120411568324
 20
6.357016508995166
 30
0.0
  0
SPLINE
  5
234
330
1F
100
AcDbEntity
  8
0
  6
CONTINUOUS
 62
     7
100
AcDbSpline
210
0.0
220
0.0
230
1.0
 70
     8
 71
     3
 72
     8
 73
     4
 74
     0
 42
0.00000001
 43
0.00000001
 40
0.0
 40
0.0
 40
0.0
 40
0.0
 40
0.0005308683874405
 40
0.0005308683874405
 40
0.0005308683874405
 40
0.0005308683874405
 10
3.615350014145707
 20
7.019448730794444
 30
0.0
 10
3.623700840390642
 20
7.008674971765828
 30
0.0
 10
3.63196878011949
 20
6.997840635357612
 30
0.0
 10
3.640138036678695
 20
6.986937768837686
 30
0.0
  0
SPLINE
  5
235
330
1F
100
AcDbEntity
  8
0
  6
CONTINUOUS
 62
     7
100
AcDbSpline
210
0.0
220
0.0
230
1.0
 70
     8
 71
     3
 72
     8
 73
     4
 74
     0
 42
0.00000001
 43
0.00000001
 40
0.0
 40
0.0
 40
0.0
 40
0.0
 40
0.0006142430572494
 40
0.0006142430572494
 40
0.0006142430572494
 40
0.0006142430572494
 10
3.78595368868639
 20
6.332533953538983
 30
0.0
 10
3.797218391845442
 20
6.340689350354921
 30
0.0
 10
3.808475655974006
 20
6.348849889400426
 30
0.0
 10
3.819724086109007
 20
6.357016508995166
 30
0.0
  0
LINE
  5
236
330
1F
100
AcDbEntity
  8
0
  6
CONTINUOUS
 62
     7
100
AcDbLine
 10
3.6491204116
 20
6.357016509
 30
0.0
 11
3.6543547745
 21
6.357016509
 31
0.0
  0
SPLINE
  5
237
330
1F
100
AcDbEntity
  8
0
  6
CONTINUOUS
 62
     7
100
AcDbSpline
210
0.0
220
0.0
230
1.0
 70
     8
 71
     3
 72
     8
 73
     4
 74
     0
 42
0.00000001
 43
0.00000001
 40
0.0
 40
0.0
 40
0.0
 40
0.0
 40
0.0005308683874405
 40
0.0005308683874405
 40
0.0005308683874405
 40
0.0005308683874405
 10
3.78595368868639
 20
7.019448730794444
 30
0.0
 10
3.794304514931325
 20
7.008674971765828
 30
0.0
 10
3.802572454660174
 20
6.997840635357612
 30
0.0
 10
3.810741711219378
 20
6.986937768837686
 30
0.0
  0
LINE
  5
238
330
1F
100
AcDbEntity
  8
0
  6
CONTINUOUS
 62
     7
100
AcDbLine
 10
3.6543547745
 20
6.9869377688
 30
0.0
 11
3.6401380367
 21
6.9869377688
 31
0.0
  0
LINE
  5
239
330
1F
100
AcDbEntity
  8
0
  6
CONTINUOUS
 62
     7
100
AcDbLine
 10
2.9985521139
 20
7.1973953404
 30
0.0
 11
2.9985521139
 21
7.26252832
 31
0.0
  0
LINE
  5
23A
330
1F
100
AcDbEntity
  8
0
  6
CONTINUOUS
 62
     7
100
AcDbLine
 10
2.9985521139
 20
6.0814259578
 30
0.0
 11
2.9985521139
 21
6.1413368488
 31
0.0
  0
CIRCLE
  5
23B
330
1F
100
AcDbEntity
  8
0
  6
CONTINUOUS
 62
     7
100
AcDbCircle
 10
4.2715179931
 20
6.2782763515
 30
0.0
 40
0.1574803149606296
  0
CIRCLE
  5
23C
330
1F
100
AcDbEntity
  8
0
  6
CONTINUOUS
 62
     7
100
AcDbCircle
 10
4.2715179931
 20
6.2782763515
 30
0.0
 40
0.1771653543307083
  0
LINE
  5
23D
330
1F
100
AcDbEntity
  8
0
  6
CONTINUOUS
 62
     7
100
AcDbLine
 10
4.2715179931
 20
6.3691976537
 30
0.0
 11
4.1927778357
 21
6.3237370026
 31
0.0
  0
LINE
  5
23E
330
1F
100
AcDbEntity
  8
0
  6
CONTINUOUS
 62
     7
100
AcDbLine
 10
4.1927778357
 20
6.3237370026
 30
0.0
 11
4.1927778357
 21
6.2328157004
 31
0.0
  0
LINE
  5
23F
330
1F
100
AcDbEntity
  8
0
  6
CONTINUOUS
 62
     7
100
AcDbLine
 10
4.1927778357
 20
6.2328157004
 30
0.0
 11
4.2715179931
 21
6.1873550493
 31
0.0
  0
LINE
  5
240
330
1F
100
AcDbEntity
  8
0
  6
CONTINUOUS
 62
     7
100
AcDbLine
 10
4.2715179931
 20
6.1873550493
 30
0.0
 11
4.3502581506
 21
6.2328157004
 31
0.0
  0
LINE
  5
241
330
1F
100
AcDbEntity
  8
0
  6
CONTINUOUS
 62
     7
100
AcDbLine
 10
4.3502581506
 20
6.2328157004
 30
0.0
 11
4.3502581506
 21
6.3237370026
 31
0.0
  0
LINE
  5
242
330
1F
100
AcDbEntity
  8
0
  6
CONTINUOUS
 62
     7
100
AcDbLine
 10
4.3502581506
 20
6.3237370026
 30
0.0
 11
4.2715179931
 21
6.3691976537
 31
0.0
  0
LINE
  5
243
330
1F
100
AcDbEntity
  8
0
  6
CONTINUOUS
 62
     7
100
AcDbLine
 10
2.9591820351
 20
7.3018983988
 30
0.0
 11
2.9591820351
 21
7.2175049523
 31
0.0
  0
LINE
  5
244
330
1F
100
AcDbEntity
  8
0
  6
CONTINUOUS
 62
     7
100
AcDbLine
 10
2.9591820351
 20
7.2175049523
 30
0.0
 11
2.8279484393
 21
7.2175049523
 31
0.0
  0
LINE
  5
245
330
1F
100
AcDbEntity
  8
0
  6
CONTINUOUS
 62
     7
100
AcDbLine
 10
2.8279484393
 20
7.2175049523
 30
0.0
 11
2.8279484393
 21
6.1264493255
 31
0.0
  0
LINE
  5
246
330
1F
100
AcDbEntity
  8
0
  6
CONTINUOUS
 62
     7
100
AcDbLine
 10
2.8279484393
 20
6.1264493255
 30
0.0
 11
2.9591820351
 21
6.1264493255
 31
0.0
  0
LINE
  5
247
330
1F
100
AcDbEntity
  8
0
  6
CONTINUOUS
 62
     7
100
AcDbLine
 10
2.9591820351
 20
6.1264493255
 30
0.0
 11
2.9591820351
 21
6.0420558791
 31
0.0
  0
LINE
  5
248
330
1F
100
AcDbEntity
  8
0
  6
CONTINUOUS
 62
     7
100
AcDbLine
 10
2.6737489643
 20
7.3018983988
 30
0.0
 11
2.6737489643
 21
7.2818957761
 31
0.0
  0
LINE
  5
249
330
1F
100
AcDbEntity
  8
0
  6
CONTINUOUS
 62
     7
100
AcDbLine
 10
2.6737489643
 20
7.2818957761
 30
0.0
 11
2.713119043
 21
7.2818957761
 31
0.0
  0
LINE
  5
24A
330
1F
100
AcDbEntity
  8
0
  6
CONTINUOUS
 62
     7
100
AcDbLine
 10
2.713119043
 20
6.0620585017
 30
0.0
 11
2.713119043
 21
6.0420558791
 31
0.0
  0
LINE
  5
24B
330
1F
100
AcDbEntity
  8
0
  6
CONTINUOUS
 62
     7
100
AcDbLine
 10
2.713119043
 20
7.3018983988
 30
0.0
 11
2.713119043
 21
7.2818957761
 31
0.0
  0
LINE
  5
24C
330
1F
100
AcDbEntity
  8
0
  6
CONTINUOUS
 62
     7
100
AcDbLine
 10
2.713119043
 20
6.0620585017
 30
0.0
 11
2.6737489643
 21
6.0620585017
 31
0.0
  0
LINE
  5
24D
330
1F
100
AcDbEntity
  8
0
  6
CONTINUOUS
 62
     7
100
AcDbLine
 10
2.6737489643
 20
6.0620585017
 30
0.0
 11
2.6737489643
 21
6.0420558791
 31
0.0
  0
LINE
  5
24E
330
1F
100
AcDbEntity
  8
0
  6
CONTINUOUS
 62
     7
100
AcDbLine
 10
2.1849038199
 20
6.0420558791
 30
0.0
 11
2.1849038199
 21
7.3018983988
 31
0.0
  0
LINE
  5
24F
330
1F
100
AcDbEntity
  8
0
  6
CONTINUOUS
 62
     7
100
AcDbLine
 10
2.1455337412
 20
7.26252832
 30
0.0
 11
2.1455337412
 21
6.0814259578
 31
0.0
  0
LINE
  5
250
330
1F
100
AcDbEntity
  8
0
  6
CONTINUOUS
 62
     7
100
AcDbLine
 10
2.9591820351
 20
7.2175049523
 30
0.0
 11
2.9764016909
 21
7.1973953404
 31
0.0
  0
LINE
  5
251
330
1F
100
AcDbEntity
  8
0
  6
CONTINUOUS
 62
     7
100
AcDbLine
 10
2.9719300696
 20
6.1413368488
 30
0.0
 11
2.9591820351
 21
6.1264493255
 31
0.0
  0
LINE
  5
252
330
1F
100
AcDbEntity
  8
0
  6
HIDDEN
 62
     7
100
AcDbLine
 10
4.180215655
 20
6.1264493255
 30
0.0
 11
4.3628203313
 21
6.1264493255
 31
0.0
  0
CIRCLE
  5
253
330
1F
100
AcDbEntity
  8
0
  6
HIDDEN
 62
     7
100
AcDbCircle
 10
4.2715179931
 20
6.2782763515
 30
0.0
 40
0.0984251968503926
  0
LINE
  5
254
330
1F
100
AcDbEntity
  8
0
  6
HIDDEN
 62
     7
100
AcDbLine
 10
3.9795232425
 20
6.5157319828
 30
0.0
 11
4.4683683868
 21
6.5157319828
 31
0.0
  0
LINE
  5
255
330
1F
100
AcDbEntity
  8
0
  6
HIDDEN
 62
     7
100
AcDbLine
 10
4.4683683868
 20
6.8282222951
 30
0.0
 11
4.0346705801
 21
6.8282222951
 31
0.0
  0
ARC
  5
256
330
1F
100
AcDbEntity
  8
0
  6
HIDDEN
 62
     7
100
AcDbCircle
 10
4.5077384656
 20
6.5932369814
 30
0.0
 40
0.528215223097113
100
AcDbArc
 50
90.0
 51
153.5851954136
  0
SPLINE
  5
257
330
1F
100
AcDbEntity
  8
0
  6
HIDDEN
 62
     7
100
AcDbSpline
210
0.0
220
0.0
230
1.0
 70
     8
 71
     3
 72
     8
 73
     4
 74
     0
 42
0.00000001
 43
0.00000001
 40
0.0
 40
0.0
 40
0.0
 40
0.0
 40
1.0
 40
1.0
 40
1.0
 40
1.0
 10
4.46836838684912
 20
6.828222295081658
 30
0.0
 10
4.481481272501843
 20
6.841438841522622
 30
0.0
 10
4.494606738700342
 20
6.854642925535166
 30
0.0
 10
4.507738465589277
 20
6.867840807638202
 30
0.0
  0
SPLINE
  5
258
330
1F
100
AcDbEntity
  8
0
  6
HIDDEN
 62
     7
100
AcDbSpline
210
0.0
220
0.0
230
1.0
 70
     8
 71
     3
 72
     8
 73
     4
 74
     0
 42
0.00000001
 43
0.00000001
 40
0.0
 40
0.0
 40
0.0
 40
0.0
 40
1.0
 40
1.0
 40
1.0
 40
1.0
 10
4.507738465589277
 20
6.47611347019465
 30
0.0
 10
4.494606752922385
 20
6.489311338003995
 30
0.0
 10
4.481481290279039
 20
6.502515418392501
 30
0.0
 10
4.46836838684912
 20
6.515731982751195
 30
0.0
  0
LINE
  5
259
330
1F
100
AcDbEntity
  8
0
  6
HIDDEN
 62
     7
100
AcDbLine
 10
3.6153500141
 20
6.324505547
 30
0.0
 11
3.7859536887
 21
6.324505547
 31
0.0
  0
LINE
  5
25A
330
1F
100
AcDbEntity
  8
0
  6
HIDDEN
 62
     7
100
AcDbLine
 10
3.6153500141
 20
6.3325339535
 30
0.0
 11
3.6153500141
 21
6.324505547
 31
0.0
  0
LINE
  5
25B
330
1F
100
AcDbEntity
  8
0
  6
HIDDEN
 62
     7
100
AcDbLine
 10
3.7859536887
 20
7.0114203243
 30
0.0
 11
3.6153500141
 21
7.0114203243
 31
0.0
  0
LINE
  5
25C
330
1F
100
AcDbEntity
  8
0
  6
HIDDEN
 62
     7
100
AcDbLine
 10
3.7859536887
 20
7.0194487308
 30
0.0
 11
3.7859536887
 21
7.0114203243
 31
0.0
  0
LINE
  5
25D
330
1F
100
AcDbEntity
  8
0
  6
HIDDEN
 62
     7
100
AcDbLine
 10
3.0379221926
 20
6.1465589374
 30
0.0
 11
2.8673185181
 21
6.1465589374
 31
0.0
  0
LINE
  5
25E
330
1F
100
AcDbEntity
  8
0
  6
HIDDEN
 62
     7
100
AcDbLine
 10
3.0379221926
 20
6.1413368488
 30
0.0
 11
3.0379221926
 21
6.1465589374
 31
0.0
  0
LINE
  5
25F
330
1F
100
AcDbEntity
  8
0
  6
HIDDEN
 62
     7
100
AcDbLine
 10
2.8673185181
 20
7.202617429
 30
0.0
 11
3.0379221926
 21
7.202617429
 31
0.0
  0
LINE
  5
260
330
1F
100
AcDbEntity
  8
0
  6
HIDDEN
 62
     7
100
AcDbLine
 10
2.8673185181
 20
7.1973953404
 30
0.0
 11
2.8673185181
 21
7.202617429
 31
0.0
  0
SPLINE
  5
261
330
1F
100
AcDbEntity
  8
0
  6
HIDDEN
 62
     7
100
AcDbSpline
210
0.0
220
0.0
230
1.0
 70
     8
 71
     3
 72
     8
 73
     4
 74
     0
 42
0.00000001
 43
0.00000001
 40
0.0
 40
0.0
 40
0.0
 40
0.0
 40
0.0005308683874405
 40
0.0005308683874405
 40
0.0005308683874405
 40
0.0005308683874405
 10
3.78595368868639
 20
6.324505547038408
 30
0.0
 10
3.794304514931325
 20
6.335279306067025
 30
0.0
 10
3.802572454660174
 20
6.34611364247524
 30
0.0
 10
3.810741711219377
 20
6.357016508995166
 30
0.0
  0
SPLINE
  5
262
330
1F
100
AcDbEntity
  8
0
  6
HIDDEN
 62
     7
100
AcDbSpline
210
0.0
220
0.0
230
1.0
 70
     8
 71
     3
 72
     8
 73
     4
 74
     0
 42
0.00000001
 43
0.00000001
 40
0.0
 40
0.0
 40
0.0
 40
0.0
 40
0.0006142430572494
 40
0.0006142430572494
 40
0.0006142430572494
 40
0.0006142430572494
 10
3.819724086109008
 20
6.986937768837686
 30
0.0
 10
3.808475655974006
 20
6.995104388432427
 30
0.0
 10
3.797218391845442
 20
7.003264927477931
 30
0.0
 10
3.78595368868639
 20
7.01142032429387
 30
0.0
  0
SPLINE
  5
263
330
1F
100
AcDbEntity
  8
0
  6
HIDDEN
 62
     7
100
AcDbSpline
210
0.0
220
0.0
230
1.0
 70
     8
 71
     3
 72
     8
 73
     4
 74
     0
 42
0.00000001
 43
0.00000001
 40
0.0
 40
0.0
 40
0.0
 40
0.0
 40
0.000285957619003
 40
0.000285957619003
 40
0.000285957619003
 40
0.000285957619003
 10
3.01313417009041
 20
7.188684054388163
 30
0.0
 10
3.008260456239797
 20
7.182976280499654
 30
0.0
 10
3.003399370166895
 20
7.1772576954628
 30
0.0
 10
2.99855211388324
 20
7.171527435784516
 30
0.0
  0
LINE
  5
264
330
1F
100
AcDbEntity
  8
0
  6
HIDDEN
 62
     7
100
AcDbLine
 10
2.9985521139
 20
7.1715274358
 30
0.0
 11
2.9985521139
 21
7.1973953404
 31
0.0
  0
SPLINE
  5
265
330
1F
100
AcDbEntity
  8
0
  6
HIDDEN
 62
     7
100
AcDbSpline
210
0.0
220
0.0
230
1.0
 70
     8
 71
     3
 72
     8
 73
     4
 74
     0
 42
0.00000001
 43
0.00000001
 40
0.0
 40
0.0
 40
0.0
 40
0.0
 40
0.0006142430572494
 40
0.0006142430572494
 40
0.0006142430572494
 40
0.0006142430572494
 10
3.037922192623397
 20
7.202617429039973
 30
0.0
 10
3.026657489464345
 20
7.194462032224035
 30
0.0
 10
3.015400225335781
 20
7.186301493178531
 30
0.0
 10
3.00415179520078
 20
7.178134873583789
 30
0.0
  0
SPLINE
  5
266
330
1F
100
AcDbEntity
  8
0
  6
HIDDEN
 62
     7
100
AcDbSpline
210
0.0
220
0.0
230
1.0
 70
     8
 71
     3
 72
     8
 73
     4
 74
     0
 42
0.00000001
 43
0.00000001
 40
0.0
 40
0.0
 40
0.0
 40
0.0
 40
0.0005308683874405
 40
0.0005308683874405
 40
0.0005308683874405
 40
0.0005308683874405
 10
3.01313417009041
 20
7.188684054388163
 30
0.0
 10
3.021303426649613
 20
7.191605468667362
 30
0.0
 10
3.029571366378462
 20
7.194508520358469
 30
0.0
 10
3.037922192623397
 20
7.197395340389635
 30
0.0
  0
SPLINE
  5
267
330
1F
100
AcDbEntity
  8
0
  6
HIDDEN
 62
     7
100
AcDbSpline
210
0.0
220
0.0
230
1.0
 70
     8
 71
     3
 72
     8
 73
     4
 74
     0
 42
0.00000001
 43
0.00000001
 40
0.0000000000000003
 40
0.0000000000000003
 40
0.0000000000000003
 40
0.0000000000000003
 40
0.0001099959787391
 40
0.0001099959787391
 40
0.0001099959787391
 40
0.0001099959787391
 10
2.99855211388324
 20
6.172426842048369
 30
0.0
 10
3.000416651366029
 20
6.170222649958855
 30
0.0
 10
3.002283235453806
 20
6.168020187578738
 30
0.0
 10
3.004151795200781
 20
6.165819404249062
 30
0.0
  0
SPLINE
  5
268
330
1F
100
AcDbEntity
  8
0
  6
HIDDEN
 62
     7
100
AcDbSpline
210
0.0
220
0.0
230
1.0
 70
     8
 71
     3
 72
     8
 73
     4
 74
     0
 42
0.00000001
 43
0.00000001
 40
0.0
 40
0.0
 40
0.0
 40
0.0
 40
0.0006142430572494
 40
0.0006142430572494
 40
0.0006142430572494
 40
0.0006142430572494
 10
3.004151795200781
 20
6.165819404249062
 30
0.0
 10
3.015400225335782
 20
6.157652784654322
 30
0.0
 10
3.026657489464346
 20
6.149492245608817
 30
0.0
 10
3.037922192623398
 20
6.141336848792878
 30
0.0
  0
SPLINE
  5
269
330
1F
100
AcDbEntity
  8
0
  6
HIDDEN
 62
     7
100
AcDbSpline
210
0.0
220
0.0
230
1.0
 70
     8
 71
     3
 72
     8
 73
     4
 74
     0
 42
0.00000001
 43
0.00000001
 40
0.0
 40
0.0
 40
0.0
 40
0.0
 40
0.0005308683874405
 40
0.0005308683874405
 40
0.0005308683874405
 40
0.0005308683874405
 10
3.01313417009041
 20
6.155270223444689
 30
0.0
 10
3.021303426649614
 20
6.152348809165491
 30
0.0
 10
3.029571366378463
 20
6.149445757474383
 30
0.0
 10
3.037922192623398
 20
6.146558937443217
 30
0.0
  0
SPLINE
  5
26A
330
1F
100
AcDbEntity
  8
0
  6
HIDDEN
 62
     7
100
AcDbSpline
210
0.0
220
0.0
230
1.0
 70
     8
 71
     3
 72
     8
 73
     4
 74
     0
 42
0.00000001
 43
0.00000001
 40
0.0
 40
0.0
 40
0.0
 40
0.0
 40
0.000285957619003
 40
0.000285957619003
 40
0.000285957619003
 40
0.000285957619003
 10
3.01313417009041
 20
6.155270223444689
 30
0.0
 10
3.008260456239797
 20
6.160977997333199
 30
0.0
 10
3.003399370166895
 20
6.166696582370051
 30
0.0
 10
2.99855211388324
 20
6.172426842048336
 30
0.0
  0
LINE
  5
26B
330
1F
100
AcDbEntity
  8
0
  6
HIDDEN
 62
     7
100
AcDbLine
 10
2.9985521139
 20
6.1413368488
 30
0.0
 11
2.9985521139
 21
6.172426842
 31
0.0
  0
LINE
  5
26C
330
1F
100
AcDbEntity
  8
0
  6
HIDDEN
 62
     7
100
AcDbLine
 10
2.9985521139
 20
6.172426842
 30
0.0
 11
2.9985521139
 21
7.1715274358
 31
0.0
  0
LINE
  5
26D
330
1F
100
AcDbEntity
  8
0
  6
HIDDEN
 62
     7
100
AcDbLine
 10
3.0041517952
 20
6.1658194042
 30
0.0
 11
2.8335481207
 21
6.1658194042
 31
0.0
  0
LINE
  5
26E
330
1F
100
AcDbEntity
  8
0
  6
HIDDEN
 62
     7
100
AcDbLine
 10
2.8425304955
 20
7.1886840544
 30
0.0
 11
3.0131341701
 21
7.1886840544
 31
0.0
  0
LINE
  5
26F
330
1F
100
AcDbEntity
  8
0
  6
HIDDEN
 62
     7
100
AcDbLine
 10
2.8425304955
 20
6.1552702234
 30
0.0
 11
3.0131341701
 21
6.1552702234
 31
0.0
  0
LINE
  5
270
330
1F
100
AcDbEntity
  8
0
  6
HIDDEN
 62
     7
100
AcDbLine
 10
3.0041517952
 20
7.1781348736
 30
0.0
 11
2.8335481207
 21
7.1781348736
 31
0.0
  0
SPLINE
  5
271
330
1F
100
AcDbEntity
  8
0
  6
HIDDEN
 62
     7
100
AcDbSpline
210
0.0
220
0.0
230
1.0
 70
     8
 71
     3
 72
     8
 73
     4
 74
     0
 42
0.00000001
 43
0.00000001
 40
0.0
 40
0.0
 40
0.0
 40
0.0
 40
0.000285957619003
 40
0.000285957619003
 40
0.000285957619003
 40
0.000285957619003
 10
2.827948439342558
 20
6.172426842048336
 30
0.0
 10
2.832795695626213
 20
6.166696582370052
 30
0.0
 10
2.837656781699115
 20
6.160977997333199
 30
0.0
 10
2.842530495549728
 20
6.155270223444689
 30
0.0
  0
SPLINE
  5
272
330
1F
100
AcDbEntity
  8
0
  6
HIDDEN
 62
     7
100
AcDbSpline
210
0.0
220
0.0
230
1.0
 70
     8
 71
     3
 72
     8
 73
     4
 74
     0
 42
0.00000001
 43
0.00000001
 40
0.0
 40
0.0
 40
0.0
 40
0.0
 40
0.0006142430572494
 40
0.0006142430572494
 40
0.0006142430572494
 40
0.0006142430572494
 10
2.833548120660098
 20
7.178134873583789
 30
0.0
 10
2.844796550795099
 20
7.186301493178531
 30
0.0
 10
2.856053814923663
 20
7.194462032224035
 30
0.0
 10
2.867318518082715
 20
7.202617429039973
 30
0.0
  0
SPLINE
  5
273
330
1F
100
AcDbEntity
  8
0
  6
HIDDEN
 62
     7
100
AcDbSpline
210
0.0
220
0.0
230
1.0
 70
     8
 71
     3
 72
     8
 73
     4
 74
     0
 42
0.00000001
 43
0.00000001
 40
0.0
 40
0.0
 40
0.0
 40
0.0
 40
0.0005308683874405
 40
0.0005308683874405
 40
0.0005308683874405
 40
0.0005308683874405
 10
2.842530495549728
 20
6.155270223444689
 30
0.0
 10
2.850699752108932
 20
6.152348809165491
 30
0.0
 10
2.858967691837781
 20
6.149445757474383
 30
0.0
 10
2.867318518082715
 20
6.146558937443217
 30
0.0
  0
LINE
  5
274
330
1F
100
AcDbEntity
  8
0
  6
HIDDEN
 62
     7
100
AcDbLine
 10
3.6401380367
 20
6.357016509
 30
0.0
 11
3.6490668037
 21
6.357016509
 31
0.0
  0
SPLINE
  5
275
330
1F
100
AcDbEntity
  8
0
  6
HIDDEN
 62
     7
100
AcDbSpline
210
0.0
220
0.0
230
1.0
 70
     8
 71
     3
 72
     8
 73
     4
 74
     0
 42
0.00000001
 43
0.00000001
 40
0.0
 40
0.0
 40
0.0
 40
0.0
 40
0.0006142430572494
 40
0.0006142430572494
 40
0.0006142430572494
 40
0.0006142430572494
 10
3.615350014145707
 20
7.01142032429387
 30
0.0
 10
3.62661471730476
 20
7.003264927477931
 30
0.0
 10
3.637871981433324
 20
6.995104388432427
 30
0.0
 10
3.649120411568325
 20
6.986937768837686
 30
0.0
  0
SPLINE
  5
276
330
1F
100
AcDbEntity
  8
0
  6
HIDDEN
 62
     7
100
AcDbSpline
210
0.0
220
0.0
230
1.0
 70
     8
 71
     3
 72
     8
 73
     4
 74
     0
 42
0.00000001
 43
0.00000001
 40
0.0
 40
0.0
 40
0.0
 40
0.0
 40
0.0005308683874405
 40
0.0005308683874405
 40
0.0005308683874405
 40
0.0005308683874405
 10
3.615350014145707
 20
6.324505547038408
 30
0.0
 10
3.623700840390642
 20
6.335279306067025
 30
0.0
 10
3.63196878011949
 20
6.34611364247524
 30
0.0
 10
3.640138036678695
 20
6.357016508995166
 30
0.0
  0
CIRCLE
  5
277
330
1F
100
AcDbEntity
  8
0
  6
HIDDEN
 62
     7
100
AcDbCircle
 10
4.2715179931
 20
6.2782763515
 30
0.0
 40
0.0787401574803148
  0
LINE
  5
278
330
1F
100
AcDbEntity
  8
0
  6
HIDDEN
 62
     7
100
AcDbLine
 10
2.8279484393
 20
6.1264493255
 30
0.0
 11
2.7885783606
 21
6.1264493255
 31
0.0
  0
LINE
  5
279
330
1F
100
AcDbEntity
  8
0
  6
HIDDEN
 62
     7
100
AcDbLine
 10
2.7885783606
 20
6.1264493255
 30
0.0
 11
2.7885783606
 21
7.2175049523
 31
0.0
  0
LINE
  5
27A
330
1F
100
AcDbEntity
  8
0
  6
HIDDEN
 62
     7
100
AcDbLine
 10
2.7885783606
 20
7.2175049523
 30
0.0
 11
2.8279484393
 21
7.2175049523
 31
0.0
  0
SPLINE
  5
27B
330
1F
100
AcDbEntity
  8
0
  6
HIDDEN
 62
     7
100
AcDbSpline
210
0.0
220
0.0
230
1.0
 70
     8
 71
     3
 72
    42
 73
    38
 74
     0
 42
0.00000001
 43
0.00000001
 40
-0.0625
 40
-0.0625
 40
0.0
 40
0.0
 40
0.0624999999999999
 40
0.0624999999999999
 40
0.09375
 40
0.09375
 40
0.1250000000000001
 40
0.1250000000000001
 40
0.1875000000000003
 40
0.1875000000000003
 40
0.2500000000000006
 40
0.2500000000000006
 40
0.3125000000000008
 40
0.3125000000000008
 40
0.375000000000001
 40
0.375000000000001
 40
0.406250000000001
 40
0.406250000000001
 40
0.437500000000001
 40
0.437500000000001
 40
0.5000000000000009
 40
0.5000000000000009
 40
0.5625000000000008
 40
0.5625000000000008
 40
0.6250000000000007
 40
0.6250000000000007
 40
0.6875000000000006
 40
0.6875000000000006
 40
0.7500000000000003
 40
0.7500000000000003
 40
0.8125000000000002
 40
0.8125000000000002
 40
0.8750000000000001
 40
0.8750000000000001
 40
0.9375
 40
0.9375
 40
1.0
 40
1.0
 40
1.0625
 40
1.0625
 10
2.396874154451002
 20
7.065185492369936
 30
0.0
 10
2.366634272790544
 20
7.065185492369936
 30
0.0
 10
2.352287953364901
 20
7.069708460554229
 30
0.0
 10
2.334127235539613
 20
7.079812656933273
 30
0.0
 10
2.328596907674407
 20
7.083712339210581
 30
0.0
 10
2.318659304649108
 20
7.091985986115017
 30
0.0
 10
2.314188638717942
 20
7.096401733224465
 30
0.0
 10
2.302032372140516
 20
7.110263385109169
 30
0.0
 10
2.295927369426122
 20
7.11986314476326
 30
0.0
 10
2.28699415254172
 20
7.139339966880382
 30
0.0
 10
2.28427998892735
 20
7.149141682952275
 30
0.0
 10
2.282794467897532
 20
7.167892662329214
 30
0.0
 10
2.284042729192699
 20
7.17707933448985
 30
0.0
 10
2.291200258995698
 20
7.193737278646582
 30
0.0
 10
2.297231045633587
 20
7.201423718693355
 30
0.0
 10
2.310002344722718
 20
7.211018075135161
 30
0.0
 10
2.314970916041864
 20
7.213959556421957
 30
0.0
 10
2.325898992290379
 20
7.219021998203463
 30
0.0
 10
2.331860878724926
 20
7.221168437870855
 30
0.0
 10
2.351371265758614
 20
7.226479203908766
 30
0.0
 10
2.366249096531006
 20
7.228359107728883
 30
0.0
 10
2.396115488019712
 20
7.228451203799468
 30
0.0
 10
2.411012767425959
 20
7.226669358332964
 30
0.0
 10
2.437216612022209
 20
7.219759642505739
 30
0.0
 10
2.448552530208612
 20
7.214606577550041
 30
0.0
 10
2.465906469658563
 20
7.20182721694967
 30
0.0
 10
2.472015558740448
 20
7.194192138155154
 30
0.0
 10
2.479373034073722
 20
7.177509472237149
 30
0.0
 10
2.48069223211201
 20
7.168344531199594
 30
0.0
 10
2.479311928641895
 20
7.14949995133865
 30
0.0
 10
2.476608551733271
 20
7.139628490010494
 30
0.0
 10
2.467766657966989
 20
7.120187404486323
 30
0.0
 10
2.46153028072419
 20
7.110358860866095
 30
0.0
 10
2.445507891767876
 20
7.092022039979343
 30
0.0
 10
2.435561135958842
 20
7.083285518062908
 30
0.0
 10
2.411472872464627
 20
7.06981494160105
 30
0.0
 10
2.396874154451002
 20
7.065185492369936
 30
0.0
 10
2.366634272790544
 20
7.065185492369936
 30
0.0
  0
SPLINE
  5
27C
330
1F
100
AcDbEntity
  8
0
  6
HIDDEN
 62
     7
100
AcDbSpline
210
0.0
220
0.0
230
1.0
 70
     8
 71
     3
 72
    52
 73
    48
 74
     0
 42
0.00000001
 43
0.00000001
 40
0.0
 40
0.0
 40
0.0
 40
0.0
 40
0.0625000000000004
 40
0.0625000000000004
 40
0.1250000000000007
 40
0.1250000000000007
 40
0.1875000000000011
 40
0.1875000000000011
 40
0.2187500000000013
 40
0.2187500000000013
 40
0.2500000000000014
 40
0.2500000000000014
 40
0.3125000000000016
 40
0.3125000000000016
 40
0.3437500000000017
 40
0.3437500000000017
 40
0.3750000000000018
 40
0.3750000000000018
 40
0.4062500000000019
 40
0.4062500000000019
 40
0.4375000000000021
 40
0.4375000000000021
 40
0.4687500000000022
 40
0.4687500000000022
 40
0.5000000000000023
 40
0.5000000000000023
 40
0.5625000000000026
 40
0.5625000000000026
 40
0.5937500000000026
 40
0.5937500000000026
 40
0.6250000000000026
 40
0.6250000000000026
 40
0.6875000000000021
 40
0.6875000000000021
 40
0.718750000000002
 40
0.718750000000002
 40
0.7500000000000018
 40
0.7500000000000018
 40
0.7812500000000017
 40
0.7812500000000017
 40
0.8125000000000016
 40
0.8125000000000016
 40
0.875000000000001
 40
0.875000000000001
 40
0.9375000000000006
 40
0.9375000000000006
 40
1.0
 40
1.0
 40
1.0
 40
1.0
 10
2.290451875483596
 20
6.357016508995168
 30
0.0
 10
2.275534207513422
 20
6.341478535429717
 30
0.0
 10
2.26308278003661
 20
6.325121141751843
 30
0.0
 10
2.2412878813121
 20
6.292030115924
 30
0.0
 10
2.23194662739678
 20
6.275084513599781
 30
0.0
 10
2.217082268884345
 20
6.24215863723559
 30
0.0
 10
2.211495136405894
 20
6.22612412880491
 30
0.0
 10
2.206414697247071
 20
6.202789195906052
 30
0.0
 10
2.20528179756354
 20
6.195083688221555
 30
0.0
 10
2.204365101921436
 20
6.180282076460046
 30
0.0
 10
2.204567073390168
 20
6.173155799823327
 30
0.0
 10
2.207406491488489
 20
6.152593017395012
 30
0.0
 10
2.212396829226456
 20
6.139883777708887
 30
0.0
 10
2.225212363427159
 20
6.12357791476853
 30
0.0
 10
2.230428792167241
 20
6.118508286016993
 30
0.0
 10
2.242691908447495
 20
6.109325630837114
 30
0.0
 10
2.249637121103734
 20
6.105267211896441
 30
0.0
 10
2.265214200207196
 20
6.098070369673903
 30
0.0
 10
2.27395237881718
 20
6.09490315430539
 30
0.0
 10
2.292797907298798
 20
6.08955600518962
 30
0.0
 10
2.3027825357767
 20
6.087391817438917
 30
0.0
 10
2.323876793179809
 20
6.083922848498689
 30
0.0
 10
2.335109062527263
 20
6.08261587736052
 30
0.0
 10
2.357746285405656
 20
6.080898174208329
 30
0.0
 10
2.369235914419333
 20
6.080463853349127
 30
0.0
 10
2.404229710023631
 20
6.080402126173711
 30
0.0
 10
2.427389968305198
 20
6.08201102303703
 30
0.0
 10
2.459379743072324
 20
6.087124831341377
 30
0.0
 10
2.469429808971833
 20
6.089255790933776
 30
0.0
 10
2.488339120439913
 20
6.094502555280212
 30
0.0
 10
2.497203635179622
 20
6.097642494960709
 30
0.0
 10
2.520909196092399
 20
6.108380168117838
 30
0.0
 10
2.533406022405554
 20
6.117584823725262
 30
0.0
 10
2.546454825307964
 20
6.133853296257801
 30
0.0
 10
2.549938609125713
 20
6.139755624220198
 30
0.0
 10
2.555159592266635
 20
6.152236913653947
 30
0.0
 10
2.556905784969426
 20
6.1587896935683
 30
0.0
 10
2.558902057914807
 20
6.172529383802376
 30
0.0
 10
2.559144186968447
 20
6.179767317403154
 30
0.0
 10
2.558287133070572
 20
6.194574155159689
 30
0.0
 10
2.557200661692264
 20
6.202149101508168
 30
0.0
 10
2.552236411352639
 20
6.225378561643839
 30
0.0
 10
2.546609208044372
 20
6.241694883533044
 30
0.0
 10
2.531716855309799
 20
6.274798028507668
 30
0.0
 10
2.522542148678347
 20
6.291496585695646
 30
0.0
 10
2.500622911987429
 20
6.32486582188545
 30
0.0
 10
2.487967116941452
 20
6.341485933564048
 30
0.0
 10
2.47305655175795
 20
6.357016508995168
 30
0.0
  0
LINE
  5
27D
330
1F
100
AcDbEntity
  8
0
  6
HIDDEN
 62
     7
100
AcDbLine
 10
2.1455337412
 20
6.6916621783
 30
0.0
 11
2.6186016267
 21
6.6916621783
 31
0.0
  0
LINE
  5
27E
330
1F
100
AcDbEntity
  8
0
  6
HIDDEN
 62
     7
100
AcDbLine
 10
2.1455337412
 20
6.6522920995
 30
0.0
 11
2.6186016267
 21
6.6522920995
 31
0.0
  0
LINE
  5
27F
330
1F
100
AcDbEntity
  8
0
  6
HIDDEN
 62
     7
100
AcDbLine
 10
2.9764016909
 20
7.1973953404
 30
0.0
 11
2.9985521139
 21
7.1715274358
 31
0.0
  0
LINE
  5
280
330
1F
100
AcDbEntity
  8
0
  6
HIDDEN
 62
     7
100
AcDbLine
 10
2.9985521139
 20
6.172426842
 30
0.0
 11
2.9719300696
 21
6.1413368488
 31
0.0
  0
LINE
  5
281
330
1F
100
AcDbEntity
  8
0
  6
HIDDEN
 62
     7
100
AcDbLine
 10
2.713119043
 20
7.2818957761
 30
0.0
 11
2.713119043
 21
6.6719771389
 31
0.0
  0
LINE
  5
282
330
1F
100
AcDbEntity
  8
0
  6
HIDDEN
 62
     7
100
AcDbLine
 10
2.713119043
 20
6.6719771389
 30
0.0
 11
2.713119043
 21
6.0620585017
 31
0.0
  0
LINE
  5
283
330
1F
100
AcDbEntity
  8
0
  6
HIDDEN
 62
     7
100
AcDbLine
 10
2.6737489643
 20
7.2818957761
 30
0.0
 11
2.6737489643
 21
6.6719771389
 31
0.0
  0
LINE
  5
284
330
1F
100
AcDbEntity
  8
0
  6
HIDDEN
 62
     7
100
AcDbLine
 10
2.6737489643
 20
6.6916621783
 30
0.0
 11
2.6186016267
 21
6.6916621783
 31
0.0
  0
LINE
  5
285
330
1F
100
AcDbEntity
  8
0
  6
HIDDEN
 62
     7
100
AcDbLine
 10
2.6737489643
 20
6.6522920995
 30
0.0
 11
2.6186016267
 21
6.6522920995
 31
0.0
  0
SPLINE
  5
286
330
1F
100
AcDbEntity
  8
0
  6
HIDDEN
 62
     7
100
AcDbSpline
210
0.0
220
0.0
230
1.0
 70
     8
 71
     3
 72
     8
 73
     4
 74
     0
 42
0.00000001
 43
0.00000001
 40
0.0
 40
0.0
 40
0.0
 40
0.0
 40
1.0
 40
1.0
 40
1.0
 40
1.0
 10
2.618601626670311
 20
6.691662178286504
 30
0.0
 10
2.617780345232236
 20
6.678538818706452
 30
0.0
 10
2.617780345232236
 20
6.665415459126399
 30
0.0
 10
2.618601626670311
 20
6.652292099546346
 30
0.0
  0
LINE
  5
287
330
1F
100
AcDbEntity
  8
0
  6
HIDDEN
 62
     7
100
AcDbLine
 10
2.6737489643
 20
6.6719771389
 30
0.0
 11
2.6737489643
 21
6.0620585017
 31
0.0
  0
LINE
  5
288
330
1F
100
AcDbEntity
  8
0
  6
HIDDEN
 62
     7
100
AcDbLine
 10
2.2045888593
 20
6.357016509
 30
0.0
 11
2.558919568
 21
6.357016509
 31
0.0
  0
SPLINE
  5
289
330
1F
100
AcDbEntity
  8
0
  6
HIDDEN
 62
     7
100
AcDbSpline
210
0.0
220
0.0
230
1.0
 70
     8
 71
     3
 72
     8
 73
     4
 74
     0
 42
0.00000001
 43
0.00000001
 40
0.0
 40
0.0
 40
0.0
 40
0.0
 40
0.0007687366887669
 40
0.0007687366887669
 40
0.0007687366887669
 40
0.0007687366887669
 10
2.788578360602401
 20
7.217504952323949
 30
0.0
 10
2.801787187245686
 20
7.202252713087588
 30
0.0
 10
2.814917614152118
 20
7.18693202918622
 30
0.0
 10
2.827948439342558
 20
7.171527435784519
 30
0.0
  0
SPLINE
  5
28A
330
1F
100
AcDbEntity
  8
0
  6
HIDDEN
 62
     7
100
AcDbSpline
210
0.0
220
0.0
230
1.0
 70
     8
 71
     3
 72
     8
 73
     4
 74
     0
 42
0.00000001
 43
0.00000001
 40
0.0
 40
0.0
 40
0.0
 40
0.0
 40
0.0007687366887669
 40
0.0007687366887669
 40
0.0007687366887669
 40
0.0007687366887669
 10
2.827948439342558
 20
6.172426842048336
 30
0.0
 10
2.814917614152119
 20
6.157022248646634
 30
0.0
 10
2.801787187245686
 20
6.141701564745267
 30
0.0
 10
2.788578360602401
 20
6.126449325508906
 30
0.0
  0
LINE
  5
28B
330
1F
100
AcDbEntity
  8
0
  6
HIDDEN
 62
     7
100
AcDbLine
 10
2.2048486875
 20
6.1798511547
 30
0.0
 11
2.5586597397
 21
6.1798511547
 31
0.0
  0
LINE
  5
28C
330
1F
100
AcDbEntity
  8
0
  6
HIDDEN
 62
     7
100
AcDbLine
 10
2.2242738987
 20
6.1601661153
 30
0.0
 11
2.5392345286
 21
6.1601661153
 31
0.0
  0
LINE
  5
28D
330
1F
100
AcDbEntity
  8
0
  6
HIDDEN
 62
     7
100
AcDbLine
 10
2.3817542136
 20
7.0656779263
 30
0.0
 11
2.3030140561
 21
7.0656779263
 31
0.0
  0
LINE
  5
28E
330
1F
100
AcDbEntity
  8
0
  6
HIDDEN
 62
     7
100
AcDbLine
 10
2.4604943711
 20
7.0656779263
 30
0.0
 11
2.3817542136
 21
7.0656779263
 31
0.0
  0
LINE
  5
28F
330
1F
100
AcDbEntity
  8
0
  6
HIDDEN
 62
     7
100
AcDbLine
 10
2.2833946813
 20
7.0459928869
 30
0.0
 11
2.4801137459
 21
7.0459928869
 31
0.0
  0
LINE
  5
290
330
1F
100
AcDbEntity
  8
0
  6
HIDDEN
 62
     7
100
AcDbLine
 10
2.3817542136
 20
6.3176464303
 30
0.0
 11
2.3817542136
 21
6.1601661153
 31
0.0
  0
LINE
  5
291
330
1F
100
AcDbEntity
  8
0
  6
HIDDEN
 62
     7
100
AcDbLine
 10
2.3030140561
 20
6.3176464303
 30
0.0
 11
2.3817542136
 21
6.3176464303
 31
0.0
  0
LINE
  5
292
330
1F
100
AcDbEntity
  8
0
  6
HIDDEN
 62
     7
100
AcDbLine
 10
2.3817542136
 20
6.3176464303
 30
0.0
 11
2.4604943711
 21
6.3176464303
 31
0.0
  0
LINE
  5
293
330
1F
100
AcDbEntity
  8
0
  6
HIDDEN
 62
     7
100
AcDbLine
 10
2.3030140561
 20
6.3176464303
 30
0.0
 11
2.3030140561
 21
6.1601661153
 31
0.0
  0
LINE
  5
294
330
1F
100
AcDbEntity
  8
0
  6
HIDDEN
 62
     7
100
AcDbLine
 10
2.4604943711
 20
6.3176464303
 30
0.0
 11
2.4604943711
 21
6.1601661153
 31
0.0
  0
LINE
  5
295
330
1F
100
AcDbEntity
  8
0
  6
HIDDEN
 62
     7
100
AcDbLine
 10
3.9401531638
 20
6.8294574539
 30
0.0
 11
3.6547200929
 21
6.8294574539
 31
0.0
  0
LINE
  5
296
330
1F
100
AcDbEntity
  8
0
  6
HIDDEN
 62
     7
100
AcDbLine
 10
3.6547200929
 20
6.514496824
 30
0.0
 11
3.9401531638
 21
6.514496824
 31
0.0
  0
LINE
  5
297
330
1F
100
AcDbEntity
  8
0
  6
HIDDEN
 62
     7
100
AcDbLine
 10
4.0352800823
 20
6.8294574539
 30
0.0
 11
3.9795232425
 21
6.8294574539
 31
0.0
  0
LINE
  5
298
330
1F
100
AcDbEntity
  8
0
  6
HIDDEN
 62
     7
100
AcDbLine
 10
2.9985521139
 20
6.514496824
 30
0.0
 11
3.6547200929
 21
6.514496824
 31
0.0
  0
LINE
  5
299
330
1F
100
AcDbEntity
  8
0
  6
HIDDEN
 62
     7
100
AcDbLine
 10
3.6547200929
 20
6.8294574539
 30
0.0
 11
2.9985521139
 21
6.8294574539
 31
0.0
  0
LINE
  5
29A
330
1F
100
AcDbEntity
  8
0
  6
HIDDEN
 62
     7
100
AcDbLine
 10
2.1849038199
 20
6.8294574539
 30
0.0
 11
2.1455337412
 21
6.8688275326
 31
0.0
  0
LINE
  5
29B
330
1F
100
AcDbEntity
  8
0
  6
HIDDEN
 62
     7
100
AcDbLine
 10
2.1455337412
 20
6.4751267452
 30
0.0
 11
2.1849038199
 21
6.514496824
 31
0.0
  0
LINE
  5
29C
330
1F
100
AcDbEntity
  8
0
  6
HIDDEN
 62
     7
100
AcDbLine
 10
2.713119043
 20
6.514496824
 30
0.0
 11
2.9985521139
 21
6.514496824
 31
0.0
  0
LINE
  5
29D
330
1F
100
AcDbEntity
  8
0
  6
HIDDEN
 62
     7
100
AcDbLine
 10
2.9985521139
 20
6.8294574539
 30
0.0
 11
2.713119043
 21
6.8294574539
 31
0.0
  0
LINE
  5
29E
330
1F
100
AcDbEntity
  8
0
  6
HIDDEN
 62
     7
100
AcDbLine
 10
2.1849038199
 20
6.514496824
 30
0.0
 11
2.6737489643
 21
6.514496824
 31
0.0
  0
LINE
  5
29F
330
1F
100
AcDbEntity
  8
0
  6
HIDDEN
 62
     7
100
AcDbLine
 10
2.6737489643
 20
6.8294574539
 30
0.0
 11
2.1849038199
 21
6.8294574539
 31
0.0
  0
LINE
  5
2A0
330
1F
100
AcDbEntity
  8
0
  6
HIDDEN
 62
     7
100
AcDbLine
 10
2.2045888593
 20
6.357016509
 30
0.0
 11
2.2045888593
 21
6.1806140524
 31
0.0
  0
LINE
  5
2A1
330
1F
100
AcDbEntity
  8
0
  6
HIDDEN
 62
     7
100
AcDbLine
 10
2.558919568
 20
6.1802939134
 30
0.0
 11
2.558919568
 21
6.357016509
 31
0.0
  0
LINE
  5
2A2
330
1F
100
AcDbEntity
  8
0
  6
HIDDEN
 62
     7
100
AcDbLine
 10
2.4801794105
 20
6.6916621783
 30
0.0
 11
2.4801794105
 21
7.1636006682
 31
0.0
  0
LINE
  5
2A3
330
1F
100
AcDbEntity
  8
0
  6
HIDDEN
 62
     7
100
AcDbLine
 10
2.2833290168
 20
7.1635077681
 30
0.0
 11
2.2833290168
 21
6.6916621783
 31
0.0
  0
LINE
  5
2A4
330
1F
100
AcDbEntity
  8
0
  6
HIDDEN
 62
     7
100
AcDbLine
 10
2.4801794105
 20
6.357016509
 30
0.0
 11
2.4801794105
 21
6.6522920995
 31
0.0
  0
LINE
  5
2A5
330
1F
100
AcDbEntity
  8
0
  6
HIDDEN
 62
     7
100
AcDbLine
 10
2.2833290168
 20
6.6522920995
 30
0.0
 11
2.2833290168
 21
6.357016509
 31
0.0
  0
LINE
  5
2A6
330
1F
100
AcDbEntity
  8
0
  6
HIDDEN
 62
     7
100
AcDbLine
 10
2.2045888593
 20
6.357016509
 30
0.0
 11
2.2045888593
 21
6.1798511547
 31
0.0
  0
LINE
  5
2A7
330
1F
100
AcDbEntity
  8
0
  6
HIDDEN
 62
     7
100
AcDbLine
 10
2.558919568
 20
6.1798511547
 30
0.0
 11
2.558919568
 21
6.357016509
 31
0.0
  0
ARC
  5
2A8
330
1F
100
AcDbEntity
  8
0
  6
HIDDEN
 62
     7
100
AcDbCircle
 10
2.5392345286
 20
6.1798511547
 30
0.0
 40
0.0196850393700787
100
AcDbArc
 50
270.0
 51
0.0
  0
ARC
  5
2A9
330
1F
100
AcDbEntity
  8
0
  6
HIDDEN
 62
     7
100
AcDbCircle
 10
2.2242738987
 20
6.1798511547
 30
0.0
 40
0.0196850393700787
100
AcDbArc
 50
180.0
 51
270.0
  0
ARC
  5
2AA
330
1F
100
AcDbEntity
  8
0
  6
HIDDEN
 62
     7
100
AcDbCircle
 10
2.3030140561
 20
7.0459928869
 30
0.0
 40
0.0196850393700787
100
AcDbArc
 50
90.0
 51
180.0
  0
ARC
  5
2AB
330
1F
100
AcDbEntity
  8
0
  6
HIDDEN
 62
     7
100
AcDbCircle
 10
2.4604943711
 20
7.0459928869
 30
0.0
 40
0.0196850393700787
100
AcDbArc
 50
0.0
 51
90.0
  0
LINE
  5
2AC
330
1F
100
AcDbEntity
  8
0
  6
HIDDEN
 62
     7
100
AcDbLine
 10
2.2833290168
 20
7.0459928869
 30
0.0
 11
2.2833290168
 21
6.357016509
 31
0.0
  0
LINE
  5
2AD
330
1F
100
AcDbEntity
  8
0
  6
HIDDEN
 62
     7
100
AcDbLine
 10
2.4801794105
 20
6.357016509
 30
0.0
 11
2.4801794105
 21
7.0459928869
 31
0.0
  0
LINE
  5
2AE
330
1F
100
AcDbEntity
  8
0
  6
CONTINUOUS
 62
     7
100
AcDbLine
 10
8.9809394225
 20
5.8720726122
 30
0.0
 11
9.0087737475
 21
5.88814625
 31
0.0
  0
LINE
  5
2AF
330
1F
100
AcDbEntity
  8
0
  6
CONTINUOUS
 62
     7
100
AcDbLine
 10
9.4262886234
 20
6.611381592
 30
0.0
 11
9.4262886234
 21
6.6435236436
 31
0.0
  0
LINE
  5
2B0
330
1F
100
AcDbEntity
  8
0
  6
CONTINUOUS
 62
     7
100
AcDbLine
 10
8.5858840786
 20
5.8870553185
 30
0.0
 11
8.665931995
 21
5.84084464
 31
0.0
  0
LINE
  5
2B1
330
1F
100
AcDbEntity
  8
0
  6
CONTINUOUS
 62
     7
100
AcDbLine
 10
8.3202662785
 20
6.0403932106
 30
0.0
 11
8.4678828216
 21
5.9551759942
 31
0.0
  0
LINE
  5
2B2
330
1F
100
AcDbEntity
  8
0
  6
CONTINUOUS
 62
     7
100
AcDbLine
 10
8.2390696337
 20
6.0872670359
 30
0.0
 11
8.2924274289
 21
6.0564642364
 31
0.0
  0
LINE
  5
2B3
330
1F
100
AcDbEntity
  8
0
  6
CONTINUOUS
 62
     7
100
AcDbLine
 10
9.2958020628
 20
6.9319298209
 30
0.0
 11
8.8411008518
 21
7.1944232427
 31
0.0
  0
LINE
  5
2B4
330
1F
100
AcDbEntity
  8
0
  6
CONTINUOUS
 62
     7
100
AcDbLine
 10
8.1085830731
 20
6.4078152649
 30
0.0
 11
8.1085830731
 21
6.3756732132
 31
0.0
  0
LINE
  5
2B5
330
1F
100
AcDbEntity
  8
0
  6
CONTINUOUS
 62
     7
100
AcDbLine
 10
8.4332972589
 20
7.2167653566
 30
0.0
 11
8.4054629338
 21
7.2006917187
 31
0.0
  0
LINE
  5
2B6
330
1F
100
AcDbEntity
  8
0
  6
CONTINUOUS
 62
     7
100
AcDbLine
 10
7.5338187758
 20
6.4943996901
 30
0.0
 11
8.1833919344
 21
6.1194090876
 31
0.0
  0
LINE
  5
2B7
330
1F
100
AcDbEntity
  8
0
  6
CONTINUOUS
 62
     7
100
AcDbLine
 10
8.8132620022
 20
7.2104942685
 30
0.0
 11
8.1636888436
 21
7.5854848711
 31
0.0
  0
LINE
  5
2B8
330
1F
100
AcDbEntity
  8
0
  6
CONTINUOUS
 62
     7
100
AcDbLine
 10
7.8486814162
 20
7.5542568989
 30
0.0
 11
7.8208470911
 21
7.538183261
 31
0.0
  0
LINE
  5
2B9
330
1F
100
AcDbEntity
  8
0
  6
CONTINUOUS
 62
     7
100
AcDbLine
 10
7.5239672304
 20
6.7453068072
 30
0.0
 11
7.5239672304
 21
6.7131647555
 31
0.0
  0
SPLINE
  5
2BA
330
1F
100
AcDbEntity
  8
0
  6
CONTINUOUS
 62
     7
100
AcDbSpline
210
0.0
220
0.0
230
1.0
 70
     8
 71
     3
 72
    36
 73
    32
 74
     0
 42
0.00000001
 43
0.00000001
 40
0.0
 40
0.0
 40
0.0
 40
0.0
 40
0.0205364901059136
 40
0.0539316978537384
 40
0.0880204073758417
 40
0.1228255397616547
 40
0.1582255210361353
 40
0.1940197640642205
 40
0.2300091868191297
 40
0.2660316216283842
 40
0.3020018342043825
 40
0.3378955811561044
 40
0.3737138691996905
 40
0.4094712322284461
 40
0.4451888991840469
 40
0.4808912593481962
 40
0.5166042110566655
 40
0.552345653672498
 40
0.58814263717228
 40
0.62402192382243
 40
0.6600083392710304
 40
0.6961211753987483
 40
0.7323669827455767
 40
0.7687265583282085
 40
0.8051143662050345
 40
0.841353813180809
 40
0.877208723418677
 40
0.9124226974295905
 40
0.946825784814891
 40
0.9804267379622694
 40
1.0
 40
1.0
 40
1.0
 40
1.0
 10
8.735327376937882
 20
6.734253175188318
 30
0.0
 10
8.734475324654314
 20
6.736538609459223
 30
0.0
 10
8.73223771608167
 20
6.742540479785034
 30
0.0
 10
8.726706428450466
 20
6.75175133806352
 30
0.0
 10
8.718989594928367
 20
6.761874415559614
 30
0.0
 10
8.709552946070586
 20
6.771437511992498
 30
0.0
 10
8.69856200209067
 20
6.780360842446269
 30
0.0
 10
8.686107019965636
 20
6.788526185502007
 30
0.0
 10
8.672350723360102
 20
6.795834773930411
 30
0.0
 10
8.657467096369343
 20
6.80220656579774
 30
0.0
 10
8.641636415313734
 20
6.807584481567163
 30
0.0
 10
8.625033082893976
 20
6.811928760037153
 30
0.0
 10
8.607828066792827
 20
6.815211005333444
 30
0.0
 10
8.590192526646515
 20
6.817410769190984
 30
0.0
 10
8.572298552166266
 20
6.818514670153838
 30
0.0
 10
8.554318964304462
 20
6.818516149422375
 30
0.0
 10
8.536427933032718
 20
6.817415479893295
 30
0.0
 10
8.518798196518011
 20
6.815219873876833
 30
0.0
 10
8.501599545842016
 20
6.811942997549393
 30
0.0
 10
8.484996349751682
 20
6.807603713133073
 30
0.0
 10
8.469148560408653
 20
6.802225244742775
 30
0.0
 10
8.454212246720385
 20
6.795834423674035
 30
0.0
 10
8.440341659191333
 20
6.788461830523773
 30
0.0
 10
8.427694872688763
 20
6.780145728555943
 30
0.0
 10
8.416439614454402
 20
6.770941244828411
 30
0.0
 10
8.40674519995868
 20
6.760932061198266
 30
0.0
 10
8.398782527702576
 20
6.750240818570932
 30
0.0
 10
8.392650427214978
 20
6.739031301644171
 30
0.0
 10
8.38853677896102
 20
6.727494316300923
 30
0.0
 10
8.38637830956805
 20
6.717381170459163
 30
0.0
 10
8.38635716334871
 20
6.711165995082133
 30
0.0
 10
8.386349379491612
 20
6.708878208495316
 30
0.0
  0
LINE
  5
2BB
330
1F
100
AcDbEntity
  8
0
  6
CONTINUOUS
 62
     7
100
AcDbLine
 10
8.3861189298
 20
6.7078730521
 30
0.0
 11
8.3861189298
 21
6.5632103098
 31
0.0
  0
LINE
  5
2BC
330
1F
100
AcDbEntity
  8
0
  6
CONTINUOUS
 62
     7
100
AcDbLine
 10
8.135849994
 20
7.6015558969
 30
0.0
 11
7.681148783
 21
7.8640493187
 31
0.0
  0
LINE
  5
2BD
330
1F
100
AcDbEntity
  8
0
  6
CONTINUOUS
 62
     7
100
AcDbLine
 10
7.4247832813
 20
6.5573445413
 30
0.0
 11
7.4781410765
 21
6.5265417418
 31
0.0
  0
LINE
  5
2BE
330
1F
100
AcDbEntity
  8
0
  6
CONTINUOUS
 62
     7
100
AcDbLine
 10
7.3102827616
 20
6.6234442843
 30
0.0
 11
7.3969444317
 21
6.5734155671
 31
0.0
  0
LINE
  5
2BF
330
1F
100
AcDbEntity
  8
0
  6
CONTINUOUS
 62
     7
100
AcDbLine
 10
7.3661413555
 20
7.8328213465
 30
0.0
 11
7.3383070305
 21
7.8167477086
 31
0.0
  0
LINE
  5
2C0
330
1F
100
AcDbEntity
  8
0
  6
CONTINUOUS
 62
     7
100
AcDbLine
 10
6.9207921546
 20
7.0935123667
 30
0.0
 11
6.9207921546
 21
7.061370315
 31
0.0
  0
SPLINE
  5
2C1
330
1F
100
AcDbEntity
  8
0
  6
CONTINUOUS
 62
     7
100
AcDbSpline
210
0.0
220
0.0
230
1.0
 70
     8
 71
     3
 72
    27
 73
    23
 74
     0
 42
0.00000001
 43
0.00000001
 40
0.0
 40
0.0
 40
0.0
 40
0.0
 40
0.0228772459615124
 40
0.0727200905393536
 40
0.1235950295310577
 40
0.1753041106921291
 40
0.2275493016792743
 40
0.2800473075817582
 40
0.3325692069682548
 40
0.3850078597671892
 40
0.4373337216917372
 40
0.4895514772935569
 40
0.5416839423721631
 40
0.5937628390967866
 40
0.6458240843922148
 40
0.6979040200851266
 40
0.7500304128016858
 40
0.8022427267556707
 40
0.8545797837972922
 40
0.9070771144302162
 40
0.9597612013233812
 40
1.0
 40
1.0
 40
1.0
 40
1.0
 10
7.040042335564061
 20
6.838916202062991
 30
0.0
 10
7.039086571461782
 20
6.83727057421518
 30
0.0
 10
7.03604847622213
 20
6.832039603394288
 30
0.0
 10
7.03233818993116
 20
6.822026788687476
 30
0.0
 10
7.028866557059548
 20
6.808995064753782
 30
0.0
 10
7.026824626240782
 20
6.794877464940165
 30
0.0
 10
7.026148668007364
 20
6.779914063975254
 30
0.0
 10
7.02687136111276
 20
6.764270490235044
 30
0.0
 10
7.028963166068466
 20
6.748144238534491
 30
0.0
 10
7.032383704619551
 20
6.731716650911221
 30
0.0
 10
7.037078500470444
 20
6.715157487318488
 30
0.0
 10
7.042985921648988
 20
6.698628309543691
 30
0.0
 10
7.050037222207289
 20
6.682287243591668
 30
0.0
 10
7.058157162139449
 20
6.666289698962741
 30
0.0
 10
7.067264158924842
 20
6.650788359081213
 30
0.0
 10
7.077270196821854
 20
6.635933566184662
 30
0.0
 10
7.088082014897267
 20
6.621870020202332
 30
0.0
 10
7.099602830856047
 20
6.608739356266152
 30
0.0
 10
7.111732953651268
 20
6.596665038063734
 30
0.0
 10
7.12437559759526
 20
6.585805823562723
 30
0.0
 10
7.136373597789659
 20
6.576932023505756
 30
0.0
 10
7.144194107668923
 20
6.572201977706611
 30
0.0
 10
7.147580656855926
 20
6.570153705534735
 30
0.0
  0
SPLINE
  5
2C2
330
1F
100
AcDbEntity
  8
0
  6
CONTINUOUS
 62
     7
100
AcDbSpline
210
0.0
220
0.0
230
1.0
 70
     8
 71
     3
 72
    16
 73
    12
 74
     0
 42
0.00000001
 43
0.00000001
 40
0.0
 40
0.0
 40
0.0
 40
0.0
 40
0.069582041673238
 40
0.2003716690954649
 40
0.3311953613738258
 40
0.4611579106847724
 40
0.5893412392062914
 40
0.7149020762780154
 40
0.837471210491294
 40
0.9573785627883284
 40
0.9999999999999999
 40
0.9999999999999999
 40
0.9999999999999999
 40
0.9999999999999999
 10
7.147580656855926
 20
6.570153705534735
 30
0.0
 10
7.149965486289854
 20
6.568823877010973
 30
0.0
 10
7.156832951553785
 20
6.564994441218212
 30
0.0
 10
7.168297032394637
 20
6.559881775316891
 30
0.0
 10
7.181873954512037
 20
6.555443590535981
 30
0.0
 10
7.195301846011368
 20
6.552815153844588
 30
0.0
 10
7.208367318023219
 20
6.552044374475225
 30
0.0
 10
7.220886146524329
 20
6.553104923697751
 30
0.0
 10
7.232577342368287
 20
6.556079703076377
 30
0.0
 10
7.241286166763529
 20
6.559459380943683
 30
0.0
 10
7.245702427962349
 20
6.562351057163351
 30
0.0
 10
7.246860545240922
 20
6.563109368332747
 30
0.0
  0
LINE
  5
2C3
330
1F
100
AcDbEntity
  8
0
  6
CONTINUOUS
 62
     7
100
AcDbLine
 10
7.245997855
 20
6.5623571621
 30
0.0
 11
7.3310490407
 21
6.6114561666
 31
0.0
  0
POLYLINE
  5
2C4
330
1F
100
AcDbEntity
  8
0
  6
CONTINUOUS
 62
     7
100
AcDb2dPolyline
 66
     1
 10
0.0
 20
0.0
 30
0.0
  0
VERTEX
  5
346
330
2C4
100
AcDbEntity
  8
0
  6
CONTINUOUS
 62
     7
100
AcDbVertex
100
AcDb2dVertex
 10
8.5913551887
 20
6.1133111417
 30
0.0
  0
VERTEX
  5
347
330
2C4
100
AcDbEntity
  8
0
  6
CONTINUOUS
 62
     7
100
AcDbVertex
100
AcDb2dVertex
 10
8.5928885529
 20
6.0859761072
 30
0.0
  0
VERTEX
  5
348
330
2C4
100
AcDbEntity
  8
0
  6
CONTINUOUS
 62
     7
100
AcDbVertex
100
AcDb2dVertex
 10
8.595851664
 20
6.059618748
 30
0.0
  0
VERTEX
  5
349
330
2C4
100
AcDbEntity
  8
0
  6
CONTINUOUS
 62
     7
100
AcDbVertex
100
AcDb2dVertex
 10
8.6002343334
 20
6.0343296913
 30
0.0
  0
VERTEX
  5
34A
330
2C4
100
AcDbEntity
  8
0
  6
CONTINUOUS
 62
     7
100
AcDbVertex
100
AcDb2dVertex
 10
8.6060214919
 20
6.010195891
 30
0.0
  0
VERTEX
  5
34B
330
2C4
100
AcDbEntity
  8
0
  6
CONTINUOUS
 62
     7
100
AcDbVertex
100
AcDb2dVertex
 10
8.6131932408
 20
5.9873003289
 30
0.0
  0
VERTEX
  5
34C
330
2C4
100
AcDbEntity
  8
0
  6
CONTINUOUS
 62
     7
100
AcDbVertex
100
AcDb2dVertex
 10
8.6217249209
 20
5.9657217289
 30
0.0
  0
VERTEX
  5
34D
330
2C4
100
AcDbEntity
  8
0
  6
CONTINUOUS
 62
     7
100
AcDbVertex
100
AcDb2dVertex
 10
8.6315871967
 20
5.9455342871
 30
0.0
  0
VERTEX
  5
34E
330
2C4
100
AcDbEntity
  8
0
  6
CONTINUOUS
 62
     7
100
AcDbVertex
100
AcDb2dVertex
 10
8.6427461579
 20
5.9268074159
 30
0.0
  0
VERTEX
  5
34F
330
2C4
100
AcDbEntity
  8
0
  6
CONTINUOUS
 62
     7
100
AcDbVertex
100
AcDb2dVertex
 10
8.6551634353
 20
5.9096055059
 30
0.0
  0
VERTEX
  5
350
330
2C4
100
AcDbEntity
  8
0
  6
CONTINUOUS
 62
     7
100
AcDbVertex
100
AcDb2dVertex
 10
8.6687963335
 20
5.8939877041
 30
0.0
  0
VERTEX
  5
351
330
2C4
100
AcDbEntity
  8
0
  6
CONTINUOUS
 62
     7
100
AcDbVertex
100
AcDb2dVertex
 10
8.6835979771
 20
5.8800077107
 30
0.0
  0
VERTEX
  5
352
330
2C4
100
AcDbEntity
  8
0
  6
CONTINUOUS
 62
     7
100
AcDbVertex
100
AcDb2dVertex
 10
8.6995174721
 20
5.8677135946
 30
0.0
  0
VERTEX
  5
353
330
2C4
100
AcDbEntity
  8
0
  6
CONTINUOUS
 62
     7
100
AcDbVertex
100
AcDb2dVertex
 10
8.7165000809
 20
5.8571476279
 30
0.0
  0
VERTEX
  5
354
330
2C4
100
AcDbEntity
  8
0
  6
CONTINUOUS
 62
     7
100
AcDbVertex
100
AcDb2dVertex
 10
8.7344874104
 20
5.8483461407
 30
0.0
  0
VERTEX
  5
355
330
2C4
100
AcDbEntity
  8
0
  6
CONTINUOUS
 62
     7
100
AcDbVertex
100
AcDb2dVertex
 10
8.753417613
 20
5.8413393959
 30
0.0
  0
VERTEX
  5
356
330
2C4
100
AcDbEntity
  8
0
  6
CONTINUOUS
 62
     7
100
AcDbVertex
100
AcDb2dVertex
 10
8.7732255991
 20
5.8361514856
 30
0.0
  0
VERTEX
  5
357
330
2C4
100
AcDbEntity
  8
0
  6
CONTINUOUS
 62
     7
100
AcDbVertex
100
AcDb2dVertex
 10
8.7938432608
 20
5.8328002479
 30
0.0
  0
VERTEX
  5
358
330
2C4
100
AcDbEntity
  8
0
  6
CONTINUOUS
 62
     7
100
AcDbVertex
100
AcDb2dVertex
 10
8.8151997064
 20
5.8312972057
 30
0.0
  0
VERTEX
  5
359
330
2C4
100
AcDbEntity
  8
0
  6
CONTINUOUS
 62
     7
100
AcDbVertex
100
AcDb2dVertex
 10
8.8372215039
 20
5.831647527
 30
0.0
  0
VERTEX
  5
35A
330
2C4
100
AcDbEntity
  8
0
  6
CONTINUOUS
 62
     7
100
AcDbVertex
100
AcDb2dVertex
 10
8.8598329335
 20
5.8338500074
 30
0.0
  0
VERTEX
  5
35B
330
2C4
100
AcDbEntity
  8
0
  6
CONTINUOUS
 62
     7
100
AcDbVertex
100
AcDb2dVertex
 10
8.8829562479
 20
5.8378970737
 30
0.0
  0
VERTEX
  5
35C
330
2C4
100
AcDbEntity
  8
0
  6
CONTINUOUS
 62
     7
100
AcDbVertex
100
AcDb2dVertex
 10
8.90651194
 20
5.8437748106
 30
0.0
  0
VERTEX
  5
35D
330
2C4
100
AcDbEntity
  8
0
  6
CONTINUOUS
 62
     7
100
AcDbVertex
100
AcDb2dVertex
 10
8.9304190159
 20
5.851463008
 30
0.0
  0
VERTEX
  5
35E
330
2C4
100
AcDbEntity
  8
0
  6
CONTINUOUS
 62
     7
100
AcDbVertex
100
AcDb2dVertex
 10
8.9545952734
 20
5.8609352309
 30
0.0
  0
VERTEX
  5
35F
330
2C4
100
AcDbEntity
  8
0
  6
CONTINUOUS
 62
     7
100
AcDbVertex
100
AcDb2dVertex
 10
8.9789575849
 20
5.8721589099
 30
0.0
  0
VERTEX
  5
360
330
2C4
100
AcDbEntity
  8
0
  6
CONTINUOUS
 62
     7
100
AcDbVertex
100
AcDb2dVertex
 10
9.003422183
 20
5.8850954535
 30
0.0
  0
VERTEX
  5
361
330
2C4
100
AcDbEntity
  8
0
  6
CONTINUOUS
 62
     7
100
AcDbVertex
100
AcDb2dVertex
 10
9.0279049485
 20
5.8997003808
 30
0.0
  0
VERTEX
  5
362
330
2C4
100
AcDbEntity
  8
0
  6
CONTINUOUS
 62
     7
100
AcDbVertex
100
AcDb2dVertex
 10
9.0523216999
 20
5.915923474
 30
0.0
  0
VERTEX
  5
363
330
2C4
100
AcDbEntity
  8
0
  6
CONTINUOUS
 62
     7
100
AcDbVertex
100
AcDb2dVertex
 10
9.0765884827
 20
5.9337089517
 30
0.0
  0
VERTEX
  5
364
330
2C4
100
AcDbEntity
  8
0
  6
CONTINUOUS
 62
     7
100
AcDbVertex
100
AcDb2dVertex
 10
9.1006218578
 20
5.9529956603
 30
0.0
  0
VERTEX
  5
365
330
2C4
100
AcDbEntity
  8
0
  6
CONTINUOUS
 62
     7
100
AcDbVertex
100
AcDb2dVertex
 10
9.1243391889
 20
5.9737172843
 30
0.0
  0
VERTEX
  5
366
330
2C4
100
AcDbEntity
  8
0
  6
CONTINUOUS
 62
     7
100
AcDbVertex
100
AcDb2dVertex
 10
9.1476589262
 20
5.9958025746
 30
0.0
  0
VERTEX
  5
367
330
2C4
100
AcDbEntity
  8
0
  6
CONTINUOUS
 62
     7
100
AcDbVertex
100
AcDb2dVertex
 10
9.1705008873
 20
6.0191755929
 30
0.0
  0
VERTEX
  5
368
330
2C4
100
AcDbEntity
  8
0
  6
CONTINUOUS
 62
     7
100
AcDbVertex
100
AcDb2dVertex
 10
9.1927865322
 20
6.0437559735
 30
0.0
  0
VERTEX
  5
369
330
2C4
100
AcDbEntity
  8
0
  6
CONTINUOUS
 62
     7
100
AcDbVertex
100
AcDb2dVertex
 10
9.214439234
 20
6.0694591992
 30
0.0
  0
VERTEX
  5
36A
330
2C4
100
AcDbEntity
  8
0
  6
CONTINUOUS
 62
     7
100
AcDbVertex
100
AcDb2dVertex
 10
9.235384542
 20
6.096196892
 30
0.0
  0
VERTEX
  5
36B
330
2C4
100
AcDbEntity
  8
0
  6
CONTINUOUS
 62
     7
100
AcDbVertex
100
AcDb2dVertex
 10
9.2555504378
 20
6.1238771169
 30
0.0
  0
VERTEX
  5
36C
330
2C4
100
AcDbEntity
  8
0
  6
CONTINUOUS
 62
     7
100
AcDbVertex
100
AcDb2dVertex
 10
9.274867583
 20
6.1524046983
 30
0.0
  0
VERTEX
  5
36D
330
2C4
100
AcDbEntity
  8
0
  6
CONTINUOUS
 62
     7
100
AcDbVertex
100
AcDb2dVertex
 10
9.2932695574
 20
6.1816815469
 30
0.0
  0
VERTEX
  5
36E
330
2C4
100
AcDbEntity
  8
0
  6
CONTINUOUS
 62
     7
100
AcDbVertex
100
AcDb2dVertex
 10
9.3106930878
 20
6.211606997
 30
0.0
  0
VERTEX
  5
36F
330
2C4
100
AcDbEntity
  8
0
  6
CONTINUOUS
 62
     7
100
AcDbVertex
100
AcDb2dVertex
 10
9.327078265
 20
6.2420781532
 30
0.0
  0
VERTEX
  5
370
330
2C4
100
AcDbEntity
  8
0
  6
CONTINUOUS
 62
     7
100
AcDbVertex
100
AcDb2dVertex
 10
9.3423687502
 20
6.2729902431
 30
0.0
  0
VERTEX
  5
371
330
2C4
100
AcDbEntity
  8
0
  6
CONTINUOUS
 62
     7
100
AcDbVertex
100
AcDb2dVertex
 10
9.3565119687
 20
6.3042369788
 30
0.0
  0
VERTEX
  5
372
330
2C4
100
AcDbEntity
  8
0
  6
CONTINUOUS
 62
     7
100
AcDbVertex
100
AcDb2dVertex
 10
9.3694592902
 20
6.3357109214
 30
0.0
  0
VERTEX
  5
373
330
2C4
100
AcDbEntity
  8
0
  6
CONTINUOUS
 62
     7
100
AcDbVertex
100
AcDb2dVertex
 10
9.3811661968
 20
6.3673038508
 30
0.0
  0
VERTEX
  5
374
330
2C4
100
AcDbEntity
  8
0
  6
CONTINUOUS
 62
     7
100
AcDbVertex
100
AcDb2dVertex
 10
9.3915924354
 20
6.3989071379
 30
0.0
  0
VERTEX
  5
375
330
2C4
100
AcDbEntity
  8
0
  6
CONTINUOUS
 62
     7
100
AcDbVertex
100
AcDb2dVertex
 10
9.4007021565
 20
6.4304121179
 30
0.0
  0
VERTEX
  5
376
330
2C4
100
AcDbEntity
  8
0
  6
CONTINUOUS
 62
     7
100
AcDbVertex
100
AcDb2dVertex
 10
9.408464037
 20
6.461710464
 30
0.0
  0
VERTEX
  5
377
330
2C4
100
AcDbEntity
  8
0
  6
CONTINUOUS
 62
     7
100
AcDbVertex
100
AcDb2dVertex
 10
9.4148513887
 20
6.49269456
 30
0.0
  0
VERTEX
  5
378
330
2C4
100
AcDbEntity
  8
0
  6
CONTINUOUS
 62
     7
100
AcDbVertex
100
AcDb2dVertex
 10
9.4198422492
 20
6.5232578701
 30
0.0
  0
VERTEX
  5
379
330
2C4
100
AcDbEntity
  8
0
  6
CONTINUOUS
 62
     7
100
AcDbVertex
100
AcDb2dVertex
 10
9.4234194579
 20
6.5532953055
 30
0.0
  0
VERTEX
  5
37A
330
2C4
100
AcDbEntity
  8
0
  6
CONTINUOUS
 62
     7
100
AcDbVertex
100
AcDb2dVertex
 10
9.4255707149
 20
6.5827035852
 30
0.0
  0
VERTEX
  5
37B
330
2C4
100
AcDbEntity
  8
0
  6
CONTINUOUS
 62
     7
100
AcDbVertex
100
AcDb2dVertex
 10
9.4262886234
 20
6.611381592
 30
0.0
  0
VERTEX
  5
37C
330
2C4
100
AcDbEntity
  8
0
  6
CONTINUOUS
 62
     7
100
AcDbVertex
100
AcDb2dVertex
 10
9.4255707149
 20
6.6392307192
 30
0.0
  0
VERTEX
  5
37D
330
2C4
100
AcDbEntity
  8
0
  6
CONTINUOUS
 62
     7
100
AcDbVertex
100
AcDb2dVertex
 10
9.4234194579
 20
6.6661552105
 30
0.0
  0
VERTEX
  5
37E
330
2C4
100
AcDbEntity
  8
0
  6
CONTINUOUS
 62
     7
100
AcDbVertex
100
AcDb2dVertex
 10
9.4198422492
 20
6.6920624886
 30
0.0
  0
VERTEX
  5
37F
330
2C4
100
AcDbEntity
  8
0
  6
CONTINUOUS
 62
     7
100
AcDbVertex
100
AcDb2dVertex
 10
9.4148513887
 20
6.7168634739
 30
0.0
  0
VERTEX
  5
380
330
2C4
100
AcDbEntity
  8
0
  6
CONTINUOUS
 62
     7
100
AcDbVertex
100
AcDb2dVertex
 10
9.408464037
 20
6.7404728906
 30
0.0
  0
VERTEX
  5
381
330
2C4
100
AcDbEntity
  8
0
  6
CONTINUOUS
 62
     7
100
AcDbVertex
100
AcDb2dVertex
 10
9.4007021565
 20
6.7628095602
 30
0.0
  0
VERTEX
  5
382
330
2C4
100
AcDbEntity
  8
0
  6
CONTINUOUS
 62
     7
100
AcDbVertex
100
AcDb2dVertex
 10
9.3915924354
 20
6.7837966802
 30
0.0
  0
VERTEX
  5
383
330
2C4
100
AcDbEntity
  8
0
  6
CONTINUOUS
 62
     7
100
AcDbVertex
100
AcDb2dVertex
 10
9.3811661968
 20
6.8033620884
 30
0.0
  0
VERTEX
  5
384
330
2C4
100
AcDbEntity
  8
0
  6
CONTINUOUS
 62
     7
100
AcDbVertex
100
AcDb2dVertex
 10
9.3694592902
 20
6.8214385112
 30
0.0
  0
VERTEX
  5
385
330
2C4
100
AcDbEntity
  8
0
  6
CONTINUOUS
 62
     7
100
AcDbVertex
100
AcDb2dVertex
 10
9.3565119687
 20
6.8379637944
 30
0.0
  0
VERTEX
  5
386
330
2C4
100
AcDbEntity
  8
0
  6
CONTINUOUS
 62
     7
100
AcDbVertex
100
AcDb2dVertex
 10
9.3423687502
 20
6.8528811177
 30
0.0
  0
VERTEX
  5
387
330
2C4
100
AcDbEntity
  8
0
  6
CONTINUOUS
 62
     7
100
AcDbVertex
100
AcDb2dVertex
 10
9.327078265
 20
6.8661391892
 30
0.0
  0
VERTEX
  5
388
330
2C4
100
AcDbEntity
  8
0
  6
CONTINUOUS
 62
     7
100
AcDbVertex
100
AcDb2dVertex
 10
9.3106930878
 20
6.8776924224
 30
0.0
  0
VERTEX
  5
389
330
2C4
100
AcDbEntity
  8
0
  6
CONTINUOUS
 62
     7
100
AcDbVertex
100
AcDb2dVertex
 10
9.2932695574
 20
6.8875010926
 30
0.0
  0
VERTEX
  5
38A
330
2C4
100
AcDbEntity
  8
0
  6
CONTINUOUS
 62
     7
100
AcDbVertex
100
AcDb2dVertex
 10
9.274867583
 20
6.8955314737
 30
0.0
  0
VERTEX
  5
38B
330
2C4
100
AcDbEntity
  8
0
  6
CONTINUOUS
 62
     7
100
AcDbVertex
100
AcDb2dVertex
 10
9.2555504378
 20
6.901755954
 30
0.0
  0
VERTEX
  5
38C
330
2C4
100
AcDbEntity
  8
0
  6
CONTINUOUS
 62
     7
100
AcDbVertex
100
AcDb2dVertex
 10
9.235384542
 20
6.9061531313
 30
0.0
  0
VERTEX
  5
38D
330
2C4
100
AcDbEntity
  8
0
  6
CONTINUOUS
 62
     7
100
AcDbVertex
100
AcDb2dVertex
 10
9.214439234
 20
6.9087078862
 30
0.0
  0
VERTEX
  5
38E
330
2C4
100
AcDbEntity
  8
0
  6
CONTINUOUS
 62
     7
100
AcDbVertex
100
AcDb2dVertex
 10
9.1927865322
 20
6.9094114345
 30
0.0
  0
VERTEX
  5
38F
330
2C4
100
AcDbEntity
  8
0
  6
CONTINUOUS
 62
     7
100
AcDbVertex
100
AcDb2dVertex
 10
9.1705008873
 20
6.9082613572
 30
0.0
  0
VERTEX
  5
390
330
2C4
100
AcDbEntity
  8
0
  6
CONTINUOUS
 62
     7
100
AcDbVertex
100
AcDb2dVertex
 10
9.1476589262
 20
6.9052616087
 30
0.0
  0
VERTEX
  5
391
330
2C4
100
AcDbEntity
  8
0
  6
CONTINUOUS
 62
     7
100
AcDbVertex
100
AcDb2dVertex
 10
9.1243391889
 20
6.9004225032
 30
0.0
  0
VERTEX
  5
392
330
2C4
100
AcDbEntity
  8
0
  6
CONTINUOUS
 62
     7
100
AcDbVertex
100
AcDb2dVertex
 10
9.1006218578
 20
6.8937606796
 30
0.0
  0
VERTEX
  5
393
330
2C4
100
AcDbEntity
  8
0
  6
CONTINUOUS
 62
     7
100
AcDbVertex
100
AcDb2dVertex
 10
9.0765884827
 20
6.885299044
 30
0.0
  0
VERTEX
  5
394
330
2C4
100
AcDbEntity
  8
0
  6
CONTINUOUS
 62
     7
100
AcDbVertex
100
AcDb2dVertex
 10
9.0523216999
 20
6.8750666907
 30
0.0
  0
VERTEX
  5
395
330
2C4
100
AcDbEntity
  8
0
  6
CONTINUOUS
 62
     7
100
AcDbVertex
100
AcDb2dVertex
 10
9.0279049485
 20
6.8630988028
 30
0.0
  0
VERTEX
  5
396
330
2C4
100
AcDbEntity
  8
0
  6
CONTINUOUS
 62
     7
100
AcDbVertex
100
AcDb2dVertex
 10
9.003422183
 20
6.8494365307
 30
0.0
  0
VERTEX
  5
397
330
2C4
100
AcDbEntity
  8
0
  6
CONTINUOUS
 62
     7
100
AcDbVertex
100
AcDb2dVertex
 10
8.9789575849
 20
6.8341268506
 30
0.0
  0
VERTEX
  5
398
330
2C4
100
AcDbEntity
  8
0
  6
CONTINUOUS
 62
     7
100
AcDbVertex
100
AcDb2dVertex
 10
8.9545952734
 20
6.8172224035
 30
0.0
  0
VERTEX
  5
399
330
2C4
100
AcDbEntity
  8
0
  6
CONTINUOUS
 62
     7
100
AcDbVertex
100
AcDb2dVertex
 10
8.9304190159
 20
6.7987813136
 30
0.0
  0
VERTEX
  5
39A
330
2C4
100
AcDbEntity
  8
0
  6
CONTINUOUS
 62
     7
100
AcDbVertex
100
AcDb2dVertex
 10
8.90651194
 20
6.7788669887
 30
0.0
  0
VERTEX
  5
39B
330
2C4
100
AcDbEntity
  8
0
  6
CONTINUOUS
 62
     7
100
AcDbVertex
100
AcDb2dVertex
 10
8.8829562479
 20
6.7575479024
 30
0.0
  0
VERTEX
  5
39C
330
2C4
100
AcDbEntity
  8
0
  6
CONTINUOUS
 62
     7
100
AcDbVertex
100
AcDb2dVertex
 10
8.8598329335
 20
6.7348973582
 30
0.0
  0
VERTEX
  5
39D
330
2C4
100
AcDbEntity
  8
0
  6
CONTINUOUS
 62
     7
100
AcDbVertex
100
AcDb2dVertex
 10
8.8372215039
 20
6.7109932376
 30
0.0
  0
VERTEX
  5
39E
330
2C4
100
AcDbEntity
  8
0
  6
CONTINUOUS
 62
     7
100
AcDbVertex
100
AcDb2dVertex
 10
8.8151997064
 20
6.6859177328
 30
0.0
  0
VERTEX
  5
39F
330
2C4
100
AcDbEntity
  8
0
  6
CONTINUOUS
 62
     7
100
AcDbVertex
100
AcDb2dVertex
 10
8.7938432608
 20
6.6597570633
 30
0.0
  0
VERTEX
  5
3A0
330
2C4
100
AcDbEntity
  8
0
  6
CONTINUOUS
 62
     7
100
AcDbVertex
100
AcDb2dVertex
 10
8.7732255991
 20
6.6326011801
 30
0.0
  0
VERTEX
  5
3A1
330
2C4
100
AcDbEntity
  8
0
  6
CONTINUOUS
 62
     7
100
AcDbVertex
100
AcDb2dVertex
 10
8.753417613
 20
6.6045434558
 30
0.0
  0
VERTEX
  5
3A2
330
2C4
100
AcDbEntity
  8
0
  6
CONTINUOUS
 62
     7
100
AcDbVertex
100
AcDb2dVertex
 10
8.7344874104
 20
6.5756803644
 30
0.0
  0
VERTEX
  5
3A3
330
2C4
100
AcDbEntity
  8
0
  6
CONTINUOUS
 62
     7
100
AcDbVertex
100
AcDb2dVertex
 10
8.7165000809
 20
6.5461111485
 30
0.0
  0
VERTEX
  5
3A4
330
2C4
100
AcDbEntity
  8
0
  6
CONTINUOUS
 62
     7
100
AcDbVertex
100
AcDb2dVertex
 10
8.6995174721
 20
6.5159374791
 30
0.0
  0
VERTEX
  5
3A5
330
2C4
100
AcDbEntity
  8
0
  6
CONTINUOUS
 62
     7
100
AcDbVertex
100
AcDb2dVertex
 10
8.6835979771
 20
6.4852631054
 30
0.0
  0
VERTEX
  5
3A6
330
2C4
100
AcDbEntity
  8
0
  6
CONTINUOUS
 62
     7
100
AcDbVertex
100
AcDb2dVertex
 10
8.6687963335
 20
6.4541934981
 30
0.0
  0
VERTEX
  5
3A7
330
2C4
100
AcDbEntity
  8
0
  6
CONTINUOUS
 62
     7
100
AcDbVertex
100
AcDb2dVertex
 10
8.6551634353
 20
6.422835487
 30
0.0
  0
VERTEX
  5
3A8
330
2C4
100
AcDbEntity
  8
0
  6
CONTINUOUS
 62
     7
100
AcDbVertex
100
AcDb2dVertex
 10
8.6427461579
 20
6.3912968935
 30
0.0
  0
VERTEX
  5
3A9
330
2C4
100
AcDbEntity
  8
0
  6
CONTINUOUS
 62
     7
100
AcDbVertex
100
AcDb2dVertex
 10
8.6315871967
 20
6.3596861601
 30
0.0
  0
VERTEX
  5
3AA
330
2C4
100
AcDbEntity
  8
0
  6
CONTINUOUS
 62
     7
100
AcDbVertex
100
AcDb2dVertex
 10
8.6217249209
 20
6.3281119769
 30
0.0
  0
VERTEX
  5
3AB
330
2C4
100
AcDbEntity
  8
0
  6
CONTINUOUS
 62
     7
100
AcDbVertex
100
AcDb2dVertex
 10
8.6131932408
 20
6.2966829089
 30
0.0
  0
VERTEX
  5
3AC
330
2C4
100
AcDbEntity
  8
0
  6
CONTINUOUS
 62
     7
100
AcDbVertex
100
AcDb2dVertex
 10
8.6060214919
 20
6.2655070217
 30
0.0
  0
VERTEX
  5
3AD
330
2C4
100
AcDbEntity
  8
0
  6
CONTINUOUS
 62
     7
100
AcDbVertex
100
AcDb2dVertex
 10
8.6002343334
 20
6.2346915104
 30
0.0
  0
VERTEX
  5
3AE
330
2C4
100
AcDbEntity
  8
0
  6
CONTINUOUS
 62
     7
100
AcDbVertex
100
AcDb2dVertex
 10
8.595851664
 20
6.2043423313
 30
0.0
  0
VERTEX
  5
3AF
330
2C4
100
AcDbEntity
  8
0
  6
CONTINUOUS
 62
     7
100
AcDbVertex
100
AcDb2dVertex
 10
8.5928885529
 20
6.1745638369
 30
0.0
  0
VERTEX
  5
3B0
330
2C4
100
AcDbEntity
  8
0
  6
CONTINUOUS
 62
     7
100
AcDbVertex
100
AcDb2dVertex
 10
8.5913551887
 20
6.1454584178
 30
0.0
  0
SEQEND
  5
3B1
330
2C4
100
AcDbEntity
  8
0
  6
CONTINUOUS
 62
     7
  0
LINE
  5
2C5
330
1F
100
AcDbEntity
  8
0
  6
CONTINUOUS
 62
     7
100
AcDbLine
 10
8.5356629786
 20
6.1454500409
 30
0.0
 11
8.5913551887
 21
6.1454584178
 31
0.0
  0
POLYLINE
  5
2C6
330
1F
100
AcDbEntity
  8
0
  6
CONTINUOUS
 62
     7
100
AcDb2dPolyline
 66
     1
 10
0.0
 20
0.0
 30
0.0
  0
VERTEX
  5
3B2
330
2C6
100
AcDbEntity
  8
0
  6
CONTINUOUS
 62
     7
100
AcDbVertex
100
AcDb2dVertex
 10
8.5356629786
 20
6.1454500409
 30
0.0
  0
VERTEX
  5
3B3
330
2C6
100
AcDbEntity
  8
0
  6
CONTINUOUS
 62
     7
100
AcDbVertex
100
AcDb2dVertex
 10
8.53718176
 20
6.1756249181
 30
0.0
  0
VERTEX
  5
3B4
330
2C6
100
AcDbEntity
  8
0
  6
CONTINUOUS
 62
     7
100
AcDbVertex
100
AcDb2dVertex
 10
8.5401452464
 20
6.2064860687
 30
0.0
  0
VERTEX
  5
3B5
330
2C6
100
AcDbEntity
  8
0
  6
CONTINUOUS
 62
     7
100
AcDbVertex
100
AcDb2dVertex
 10
8.5445437882
 20
6.2379330042
 30
0.0
  0
VERTEX
  5
3B6
330
2C6
100
AcDbEntity
  8
0
  6
CONTINUOUS
 62
     7
100
AcDbVertex
100
AcDb2dVertex
 10
8.5503630632
 20
6.2698633286
 30
0.0
  0
VERTEX
  5
3B7
330
2C6
100
AcDbEntity
  8
0
  6
CONTINUOUS
 62
     7
100
AcDbVertex
100
AcDb2dVertex
 10
8.5575841229
 20
6.3021730721
 30
0.0
  0
VERTEX
  5
3B8
330
2C6
100
AcDbEntity
  8
0
  6
CONTINUOUS
 62
     7
100
AcDbVertex
100
AcDb2dVertex
 10
8.5661834545
 20
6.3347570294
 30
0.0
  0
VERTEX
  5
3B9
330
2C6
100
AcDbEntity
  8
0
  6
CONTINUOUS
 62
     7
100
AcDbVertex
100
AcDb2dVertex
 10
8.5761330573
 20
6.3675091022
 30
0.0
  0
VERTEX
  5
3BA
330
2C6
100
AcDbEntity
  8
0
  6
CONTINUOUS
 62
     7
100
AcDbVertex
100
AcDb2dVertex
 10
8.5874005339
 20
6.4003226451
 30
0.0
  0
VERTEX
  5
3BB
330
2C6
100
AcDbEntity
  8
0
  6
CONTINUOUS
 62
     7
100
AcDbVertex
100
AcDb2dVertex
 10
8.5999491957
 20
6.4330908122
 30
0.0
  0
VERTEX
  5
3BC
330
2C6
100
AcDbEntity
  8
0
  6
CONTINUOUS
 62
     7
100
AcDbVertex
100
AcDb2dVertex
 10
8.6137381825
 20
6.4657069055
 30
0.0
  0
VERTEX
  5
3BD
330
2C6
100
AcDbEntity
  8
0
  6
CONTINUOUS
 62
     7
100
AcDbVertex
100
AcDb2dVertex
 10
8.6287225951
 20
6.4980647222
 30
0.0
  0
VERTEX
  5
3BE
330
2C6
100
AcDbEntity
  8
0
  6
CONTINUOUS
 62
     7
100
AcDbVertex
100
AcDb2dVertex
 10
8.6448536423
 20
6.5300589004
 30
0.0
  0
VERTEX
  5
3BF
330
2C6
100
AcDbEntity
  8
0
  6
CONTINUOUS
 62
     7
100
AcDbVertex
100
AcDb2dVertex
 10
8.6620787989
 20
6.5615852623
 30
0.0
  0
VERTEX
  5
3C0
330
2C6
100
AcDbEntity
  8
0
  6
CONTINUOUS
 62
     7
100
AcDbVertex
100
AcDb2dVertex
 10
8.6803419772
 20
6.5925411535
 30
0.0
  0
VERTEX
  5
3C1
330
2C6
100
AcDbEntity
  8
0
  6
CONTINUOUS
 62
     7
100
AcDbVertex
100
AcDb2dVertex
 10
8.6995837096
 20
6.622825777
 30
0.0
  0
VERTEX
  5
3C2
330
2C6
100
AcDbEntity
  8
0
  6
CONTINUOUS
 62
     7
100
AcDbVertex
100
AcDb2dVertex
 10
8.7197413422
 20
6.6523405215
 30
0.0
  0
VERTEX
  5
3C3
330
2C6
100
AcDbEntity
  8
0
  6
CONTINUOUS
 62
     7
100
AcDbVertex
100
AcDb2dVertex
 10
8.7407492388
 20
6.6809892827
 30
0.0
  0
VERTEX
  5
3C4
330
2C6
100
AcDbEntity
  8
0
  6
CONTINUOUS
 62
     7
100
AcDbVertex
100
AcDb2dVertex
 10
8.7625389944
 20
6.7086787759
 30
0.0
  0
VERTEX
  5
3C5
330
2C6
100
AcDbEntity
  8
0
  6
CONTINUOUS
 62
     7
100
AcDbVertex
100
AcDb2dVertex
 10
8.7850396585
 20
6.73531884
 30
0.0
  0
VERTEX
  5
3C6
330
2C6
100
AcDbEntity
  8
0
  6
CONTINUOUS
 62
     7
100
AcDbVertex
100
AcDb2dVertex
 10
8.8081779656
 20
6.7608227312
 30
0.0
  0
VERTEX
  5
3C7
330
2C6
100
AcDbEntity
  8
0
  6
CONTINUOUS
 62
     7
100
AcDbVertex
100
AcDb2dVertex
 10
8.8318785738
 20
6.7851074048
 30
0.0
  0
VERTEX
  5
3C8
330
2C6
100
AcDbEntity
  8
0
  6
CONTINUOUS
 62
     7
100
AcDbVertex
100
AcDb2dVertex
 10
8.8560643105
 20
6.8080937864
 30
0.0
  0
VERTEX
  5
3C9
330
2C6
100
AcDbEntity
  8
0
  6
CONTINUOUS
 62
     7
100
AcDbVertex
100
AcDb2dVertex
 10
8.8806564234
 20
6.829707029
 30
0.0
  0
VERTEX
  5
3CA
330
2C6
100
AcDbEntity
  8
0
  6
CONTINUOUS
 62
     7
100
AcDbVertex
100
AcDb2dVertex
 10
8.9055748369
 20
6.8498767566
 30
0.0
  0
VERTEX
  5
3CB
330
2C6
100
AcDbEntity
  8
0
  6
CONTINUOUS
 62
     7
100
AcDbVertex
100
AcDb2dVertex
 10
8.9307384129
 20
6.8685372936
 30
0.0
  0
VERTEX
  5
3CC
330
2C6
100
AcDbEntity
  8
0
  6
CONTINUOUS
 62
     7
100
AcDbVertex
100
AcDb2dVertex
 10
8.9560652151
 20
6.8856278786
 30
0.0
  0
VERTEX
  5
3CD
330
2C6
100
AcDbEntity
  8
0
  6
CONTINUOUS
 62
     7
100
AcDbVertex
100
AcDb2dVertex
 10
8.9814727757
 20
6.9010928619
 30
0.0
  0
VERTEX
  5
3CE
330
2C6
100
AcDbEntity
  8
0
  6
CONTINUOUS
 62
     7
100
AcDbVertex
100
AcDb2dVertex
 10
9.0068783639
 20
6.9148818875
 30
0.0
  0
VERTEX
  5
3CF
330
2C6
100
AcDbEntity
  8
0
  6
CONTINUOUS
 62
     7
100
AcDbVertex
100
AcDb2dVertex
 10
9.0321992554
 20
6.9269500561
 30
0.0
  0
VERTEX
  5
3D0
330
2C6
100
AcDbEntity
  8
0
  6
CONTINUOUS
 62
     7
100
AcDbVertex
100
AcDb2dVertex
 10
9.0573530014
 20
6.937258072
 30
0.0
  0
VERTEX
  5
3D1
330
2C6
100
AcDbEntity
  8
0
  6
CONTINUOUS
 62
     7
100
AcDbVertex
100
AcDb2dVertex
 10
9.0822576979
 20
6.9457723708
 30
0.0
  0
VERTEX
  5
3D2
330
2C6
100
AcDbEntity
  8
0
  6
CONTINUOUS
 62
     7
100
AcDbVertex
100
AcDb2dVertex
 10
9.1068322513
 20
6.9524652286
 30
0.0
  0
VERTEX
  5
3D3
330
2C6
100
AcDbEntity
  8
0
  6
CONTINUOUS
 62
     7
100
AcDbVertex
100
AcDb2dVertex
 10
9.1309966432
 20
6.9573148526
 30
0.0
  0
VERTEX
  5
3D4
330
2C6
100
AcDbEntity
  8
0
  6
CONTINUOUS
 62
     7
100
AcDbVertex
100
AcDb2dVertex
 10
9.1546721909
 20
6.9603054516
 30
0.0
  0
VERTEX
  5
3D5
330
2C6
100
AcDbEntity
  8
0
  6
CONTINUOUS
 62
     7
100
AcDbVertex
100
AcDb2dVertex
 10
9.1777818032
 20
6.9614272878
 30
0.0
  0
VERTEX
  5
3D6
330
2C6
100
AcDbEntity
  8
0
  6
CONTINUOUS
 62
     7
100
AcDbVertex
100
AcDb2dVertex
 10
9.2002502318
 20
6.9606767084
 30
0.0
  0
VERTEX
  5
3D7
330
2C6
100
AcDbEntity
  8
0
  6
CONTINUOUS
 62
     7
100
AcDbVertex
100
AcDb2dVertex
 10
9.2220043162
 20
6.9580561573
 30
0.0
  0
VERTEX
  5
3D8
330
2C6
100
AcDbEntity
  8
0
  6
CONTINUOUS
 62
     7
100
AcDbVertex
100
AcDb2dVertex
 10
9.2429732218
 20
6.9535741674
 30
0.0
  0
VERTEX
  5
3D9
330
2C6
100
AcDbEntity
  8
0
  6
CONTINUOUS
 62
     7
100
AcDbVertex
100
AcDb2dVertex
 10
9.2630886708
 20
6.9472453327
 30
0.0
  0
VERTEX
  5
3DA
330
2C6
100
AcDbEntity
  8
0
  6
CONTINUOUS
 62
     7
100
AcDbVertex
100
AcDb2dVertex
 10
9.2822851643
 20
6.939090261
 30
0.0
  0
VERTEX
  5
3DB
330
2C6
100
AcDbEntity
  8
0
  6
CONTINUOUS
 62
     7
100
AcDbVertex
100
AcDb2dVertex
 10
9.3005001957
 20
6.9291355062
 30
0.0
  0
VERTEX
  5
3DC
330
2C6
100
AcDbEntity
  8
0
  6
CONTINUOUS
 62
     7
100
AcDbVertex
100
AcDb2dVertex
 10
9.3176744541
 20
6.9174134827
 30
0.0
  0
VERTEX
  5
3DD
330
2C6
100
AcDbEntity
  8
0
  6
CONTINUOUS
 62
     7
100
AcDbVertex
100
AcDb2dVertex
 10
9.3337520176
 20
6.9039623589
 30
0.0
  0
VERTEX
  5
3DE
330
2C6
100
AcDbEntity
  8
0
  6
CONTINUOUS
 62
     7
100
AcDbVertex
100
AcDb2dVertex
 10
9.3486805352
 20
6.8888259338
 30
0.0
  0
VERTEX
  5
3DF
330
2C6
100
AcDbEntity
  8
0
  6
CONTINUOUS
 62
     7
100
AcDbVertex
100
AcDb2dVertex
 10
9.3624113976
 20
6.8720534938
 30
0.0
  0
VERTEX
  5
3E0
330
2C6
100
AcDbEntity
  8
0
  6
CONTINUOUS
 62
     7
100
AcDbVertex
100
AcDb2dVertex
 10
9.374899895
 20
6.8536996524
 30
0.0
  0
VERTEX
  5
3E1
330
2C6
100
AcDbEntity
  8
0
  6
CONTINUOUS
 62
     7
100
AcDbVertex
100
AcDb2dVertex
 10
9.3861053629
 20
6.8338241725
 30
0.0
  0
VERTEX
  5
3E2
330
2C6
100
AcDbEntity
  8
0
  6
CONTINUOUS
 62
     7
100
AcDbVertex
100
AcDb2dVertex
 10
9.3959913148
 20
6.8124917716
 30
0.0
  0
VERTEX
  5
3E3
330
2C6
100
AcDbEntity
  8
0
  6
CONTINUOUS
 62
     7
100
AcDbVertex
100
AcDb2dVertex
 10
9.4045255604
 20
6.7897719112
 30
0.0
  0
VERTEX
  5
3E4
330
2C6
100
AcDbEntity
  8
0
  6
CONTINUOUS
 62
     7
100
AcDbVertex
100
AcDb2dVertex
 10
9.411680311
 20
6.7657385705
 30
0.0
  0
VERTEX
  5
3E5
330
2C6
100
AcDbEntity
  8
0
  6
CONTINUOUS
 62
     7
100
AcDbVertex
100
AcDb2dVertex
 10
9.4174322698
 20
6.7404700055
 30
0.0
  0
VERTEX
  5
3E6
330
2C6
100
AcDbEntity
  8
0
  6
CONTINUOUS
 62
     7
100
AcDbVertex
100
AcDb2dVertex
 10
9.4217627074
 20
6.7140484946
 30
0.0
  0
VERTEX
  5
3E7
330
2C6
100
AcDbEntity
  8
0
  6
CONTINUOUS
 62
     7
100
AcDbVertex
100
AcDb2dVertex
 10
9.4246575233
 20
6.68656007
 30
0.0
  0
VERTEX
  5
3E8
330
2C6
100
AcDbEntity
  8
0
  6
CONTINUOUS
 62
     7
100
AcDbVertex
100
AcDb2dVertex
 10
9.4261072916
 20
6.6580942381
 30
0.0
  0
VERTEX
  5
3E9
330
2C6
100
AcDbEntity
  8
0
  6
CONTINUOUS
 62
     7
100
AcDbVertex
100
AcDb2dVertex
 10
9.4262886234
 20
6.6435236436
 30
0.0
  0
SEQEND
  5
3EA
330
2C6
100
AcDbEntity
  8
0
  6
CONTINUOUS
 62
     7
  0
ARC
  5
2C7
330
1F
100
AcDbEntity
  8
0
  6
CONTINUOUS
 62
     7
100
AcDbCircle
 10
8.8071843431
 20
6.0829189952
 30
0.0
 40
0.2732160771717509
100
AcDbArc
 50
173.6150531123
 51
309.4913806977
  0
LINE
  5
2C8
330
1F
100
AcDbEntity
  8
0
  6
CONTINUOUS
 62
     7
100
AcDbLine
 10
8.5356629786
 20
6.1133027648
 30
0.0
 11
8.5913551887
 21
6.1133111417
 31
0.0
  0
POLYLINE
  5
2C9
330
1F
100
AcDbEntity
  8
0
  6
CONTINUOUS
 62
     7
100
AcDb2dPolyline
 66
     1
 10
0.0
 20
0.0
 30
0.0
  0
VERTEX
  5
3EB
330
2C9
100
AcDbEntity
  8
0
  6
CONTINUOUS
 62
     7
100
AcDbVertex
100
AcDb2dVertex
 10
8.3312938704
 20
6.9496871435
 30
0.0
  0
VERTEX
  5
3EC
330
2C9
100
AcDbEntity
  8
0
  6
CONTINUOUS
 62
     7
100
AcDbVertex
100
AcDb2dVertex
 10
8.3092415024
 20
6.9212493759
 30
0.0
  0
VERTEX
  5
3ED
330
2C9
100
AcDbEntity
  8
0
  6
CONTINUOUS
 62
     7
100
AcDbVertex
100
AcDb2dVertex
 10
8.2880173355
 20
6.8918356194
 30
0.0
  0
VERTEX
  5
3EE
330
2C9
100
AcDbEntity
  8
0
  6
CONTINUOUS
 62
     7
100
AcDbVertex
100
AcDb2dVertex
 10
8.2676931856
 20
6.861545401
 30
0.0
  0
VERTEX
  5
3EF
330
2C9
100
AcDbEntity
  8
0
  6
CONTINUOUS
 62
     7
100
AcDbVertex
100
AcDb2dVertex
 10
8.2483378231
 20
6.8304812131
 30
0.0
  0
VERTEX
  5
3F0
330
2C9
100
AcDbEntity
  8
0
  6
CONTINUOUS
 62
     7
100
AcDbVertex
100
AcDb2dVertex
 10
8.2300167404
 20
6.7987481672
 30
0.0
  0
VERTEX
  5
3F1
330
2C9
100
AcDbEntity
  8
0
  6
CONTINUOUS
 62
     7
100
AcDbVertex
100
AcDb2dVertex
 10
8.2127919303
 20
6.7664536378
 30
0.0
  0
VERTEX
  5
3F2
330
2C9
100
AcDbEntity
  8
0
  6
CONTINUOUS
 62
     7
100
AcDbVertex
100
AcDb2dVertex
 10
8.1967216761
 20
6.7337068993
 30
0.0
  0
VERTEX
  5
3F3
330
2C9
100
AcDbEntity
  8
0
  6
CONTINUOUS
 62
     7
100
AcDbVertex
100
AcDb2dVertex
 10
8.1818603545
 20
6.7006187564
 30
0.0
  0
VERTEX
  5
3F4
330
2C9
100
AcDbEntity
  8
0
  6
CONTINUOUS
 62
     7
100
AcDbVertex
100
AcDb2dVertex
 10
8.1682582514
 20
6.6673011688
 30
0.0
  0
VERTEX
  5
3F5
330
2C9
100
AcDbEntity
  8
0
  6
CONTINUOUS
 62
     7
100
AcDbVertex
100
AcDb2dVertex
 10
8.1559613921
 20
6.6338668728
 30
0.0
  0
VERTEX
  5
3F6
330
2C9
100
AcDbEntity
  8
0
  6
CONTINUOUS
 62
     7
100
AcDbVertex
100
AcDb2dVertex
 10
8.1450113852
 20
6.6004289995
 30
0.0
  0
VERTEX
  5
3F7
330
2C9
100
AcDbEntity
  8
0
  6
CONTINUOUS
 62
     7
100
AcDbVertex
100
AcDb2dVertex
 10
8.1354452821
 20
6.5671006919
 30
0.0
  0
VERTEX
  5
3F8
330
2C9
100
AcDbEntity
  8
0
  6
CONTINUOUS
 62
     7
100
AcDbVertex
100
AcDb2dVertex
 10
8.1272954516
 20
6.5339947225
 30
0.0
  0
VERTEX
  5
3F9
330
2C9
100
AcDbEntity
  8
0
  6
CONTINUOUS
 62
     7
100
AcDbVertex
100
AcDb2dVertex
 10
8.1205894699
 20
6.5012231115
 30
0.0
  0
VERTEX
  5
3FA
330
2C9
100
AcDbEntity
  8
0
  6
CONTINUOUS
 62
     7
100
AcDbVertex
100
AcDb2dVertex
 10
8.115350028
 20
6.4688967476
 30
0.0
  0
VERTEX
  5
3FB
330
2C9
100
AcDbEntity
  8
0
  6
CONTINUOUS
 62
     7
100
AcDbVertex
100
AcDb2dVertex
 10
8.1115948546
 20
6.437125013
 30
0.0
  0
VERTEX
  5
3FC
330
2C9
100
AcDbEntity
  8
0
  6
CONTINUOUS
 62
     7
100
AcDbVertex
100
AcDb2dVertex
 10
8.109336656
 20
6.4060154132
 30
0.0
  0
VERTEX
  5
3FD
330
2C9
100
AcDbEntity
  8
0
  6
CONTINUOUS
 62
     7
100
AcDbVertex
100
AcDb2dVertex
 10
8.1085830731
 20
6.3756732132
 30
0.0
  0
VERTEX
  5
3FE
330
2C9
100
AcDbEntity
  8
0
  6
CONTINUOUS
 62
     7
100
AcDbVertex
100
AcDb2dVertex
 10
8.109336656
 20
6.3462010815
 30
0.0
  0
VERTEX
  5
3FF
330
2C9
100
AcDbEntity
  8
0
  6
CONTINUOUS
 62
     7
100
AcDbVertex
100
AcDb2dVertex
 10
8.1115948546
 20
6.3176987423
 30
0.0
  0
VERTEX
  5
400
330
2C9
100
AcDbEntity
  8
0
  6
CONTINUOUS
 62
     7
100
AcDbVertex
100
AcDb2dVertex
 10
8.115350028
 20
6.2902626387
 30
0.0
  0
VERTEX
  5
401
330
2C9
100
AcDbEntity
  8
0
  6
CONTINUOUS
 62
     7
100
AcDbVertex
100
AcDb2dVertex
 10
8.1205894699
 20
6.2639856056
 30
0.0
  0
VERTEX
  5
402
330
2C9
100
AcDbEntity
  8
0
  6
CONTINUOUS
 62
     7
100
AcDbVertex
100
AcDb2dVertex
 10
8.1272954516
 20
6.2389565562
 30
0.0
  0
VERTEX
  5
403
330
2C9
100
AcDbEntity
  8
0
  6
CONTINUOUS
 62
     7
100
AcDbVertex
100
AcDb2dVertex
 10
8.1354452821
 20
6.215260181
 30
0.0
  0
VERTEX
  5
404
330
2C9
100
AcDbEntity
  8
0
  6
CONTINUOUS
 62
     7
100
AcDbVertex
100
AcDb2dVertex
 10
8.1450113852
 20
6.1929766609
 30
0.0
  0
VERTEX
  5
405
330
2C9
100
AcDbEntity
  8
0
  6
CONTINUOUS
 62
     7
100
AcDbVertex
100
AcDb2dVertex
 10
8.1559613921
 20
6.1721813963
 30
0.0
  0
VERTEX
  5
406
330
2C9
100
AcDbEntity
  8
0
  6
CONTINUOUS
 62
     7
100
AcDbVertex
100
AcDb2dVertex
 10
8.1682582514
 20
6.1529447519
 30
0.0
  0
VERTEX
  5
407
330
2C9
100
AcDbEntity
  8
0
  6
CONTINUOUS
 62
     7
100
AcDbVertex
100
AcDb2dVertex
 10
8.1818603545
 20
6.1353318183
 30
0.0
  0
VERTEX
  5
408
330
2C9
100
AcDbEntity
  8
0
  6
CONTINUOUS
 62
     7
100
AcDbVertex
100
AcDb2dVertex
 10
8.1967216761
 20
6.1194021921
 30
0.0
  0
VERTEX
  5
409
330
2C9
100
AcDbEntity
  8
0
  6
CONTINUOUS
 62
     7
100
AcDbVertex
100
AcDb2dVertex
 10
8.2127919303
 20
6.1052097742
 30
0.0
  0
VERTEX
  5
40A
330
2C9
100
AcDbEntity
  8
0
  6
CONTINUOUS
 62
     7
100
AcDbVertex
100
AcDb2dVertex
 10
8.2300167404
 20
6.0928025872
 30
0.0
  0
VERTEX
  5
40B
330
2C9
100
AcDbEntity
  8
0
  6
CONTINUOUS
 62
     7
100
AcDbVertex
100
AcDb2dVertex
 10
8.2390696337
 20
6.0872670359
 30
0.0
  0
SEQEND
  5
40C
330
2C9
100
AcDbEntity
  8
0
  6
CONTINUOUS
 62
     7
  0
LINE
  5
2CA
330
1F
100
AcDbEntity
  8
0
  6
CONTINUOUS
 62
     7
100
AcDbLine
 10
8.2106588552
 20
7.0193282554
 30
0.0
 11
8.3312938704
 21
6.9496871435
 31
0.0
  0
ARC
  5
2CB
330
1F
100
AcDbEntity
  8
0
  6
CONTINUOUS
 62
     7
100
AcDbCircle
 10
8.6904756512
 20
6.7025275526
 30
0.0
 40
0.5749668190226888
100
AcDbArc
 50
93.4295494914
 51
146.5650739759
  0
LINE
  5
2CC
330
1F
100
AcDbEntity
  8
0
  6
CONTINUOUS
 62
     7
100
AcDbLine
 10
8.7488766152
 20
7.2228945825
 30
0.0
 11
8.6560804497
 21
7.2764646686
 31
0.0
  0
ARC
  5
2CD
330
1F
100
AcDbEntity
  8
0
  6
CONTINUOUS
 62
     7
100
AcDbCircle
 10
8.7308485682
 20
7.0008963756
 30
0.0
 40
0.2227290155310888
100
AcDbArc
 50
60.3298289756
 51
85.357307974
  0
LINE
  5
2CE
330
1F
100
AcDbEntity
  8
0
  6
CONTINUOUS
 62
     7
100
AcDbLine
 10
8.5356629786
 20
6.1454500409
 30
0.0
 11
8.1899972621
 21
6.3449986115
 31
0.0
  0
ARC
  5
2CF
330
1F
100
AcDbEntity
  8
0
  6
CONTINUOUS
 62
     7
100
AcDbCircle
 10
9.1063920627
 20
6.3044780738
 30
0.0
 40
0.9172902183191727
100
AcDbArc
 50
113.0964928286
 51
177.4681823964
  0
LINE
  5
2D0
330
1F
100
AcDbEntity
  8
0
  6
CONTINUOUS
 62
     7
100
AcDbLine
 10
8.7187178614
 20
7.1643143894
 30
0.0
 11
8.746556711
 21
7.1482433636
 31
0.0
  0
POLYLINE
  5
2D1
330
1F
100
AcDbEntity
  8
0
  6
CONTINUOUS
 62
     7
100
AcDb2dPolyline
 66
     1
 10
0.0
 20
0.0
 30
0.0
  0
VERTEX
  5
40D
330
2D1
100
AcDbEntity
  8
0
  6
CONTINUOUS
 62
     7
100
AcDbVertex
100
AcDb2dVertex
 10
8.7187178614
 20
7.1643143894
 30
0.0
  0
VERTEX
  5
40E
330
2D1
100
AcDbEntity
  8
0
  6
CONTINUOUS
 62
     7
100
AcDbVertex
100
AcDb2dVertex
 10
8.6939746461
 20
7.1565455899
 30
0.0
  0
VERTEX
  5
40F
330
2D1
100
AcDbEntity
  8
0
  6
CONTINUOUS
 62
     7
100
AcDbVertex
100
AcDb2dVertex
 10
8.6689502654
 20
7.1469766151
 30
0.0
  0
VERTEX
  5
410
330
2D1
100
AcDbEntity
  8
0
  6
CONTINUOUS
 62
     7
100
AcDbVertex
100
AcDb2dVertex
 10
8.6437259549
 20
7.1356385283
 30
0.0
  0
VERTEX
  5
411
330
2D1
100
AcDbEntity
  8
0
  6
CONTINUOUS
 62
     7
100
AcDbVertex
100
AcDb2dVertex
 10
8.6183835992
 20
7.1225681358
 30
0.0
  0
VERTEX
  5
412
330
2D1
100
AcDbEntity
  8
0
  6
CONTINUOUS
 62
     7
100
AcDbVertex
100
AcDb2dVertex
 10
8.593005466
 20
7.1078078675
 30
0.0
  0
VERTEX
  5
413
330
2D1
100
AcDbEntity
  8
0
  6
CONTINUOUS
 62
     7
100
AcDbVertex
100
AcDb2dVertex
 10
8.5676739393
 20
7.091405639
 30
0.0
  0
VERTEX
  5
414
330
2D1
100
AcDbEntity
  8
0
  6
CONTINUOUS
 62
     7
100
AcDbVertex
100
AcDb2dVertex
 10
8.5424712518
 20
7.0734146961
 30
0.0
  0
VERTEX
  5
415
330
2D1
100
AcDbEntity
  8
0
  6
CONTINUOUS
 62
     7
100
AcDbVertex
100
AcDb2dVertex
 10
8.5174792178
 20
7.0538934422
 30
0.0
  0
VERTEX
  5
416
330
2D1
100
AcDbEntity
  8
0
  6
CONTINUOUS
 62
     7
100
AcDbVertex
100
AcDb2dVertex
 10
8.4927789679
 20
7.0329052482
 30
0.0
  0
VERTEX
  5
417
330
2D1
100
AcDbEntity
  8
0
  6
CONTINUOUS
 62
     7
100
AcDbVertex
100
AcDb2dVertex
 10
8.4684506855
 20
7.0105182471
 30
0.0
  0
VERTEX
  5
418
330
2D1
100
AcDbEntity
  8
0
  6
CONTINUOUS
 62
     7
100
AcDbVertex
100
AcDb2dVertex
 10
8.4445733465
 20
6.986805113
 30
0.0
  0
VERTEX
  5
419
330
2D1
100
AcDbEntity
  8
0
  6
CONTINUOUS
 62
     7
100
AcDbVertex
100
AcDb2dVertex
 10
8.4212244627
 20
6.9618428247
 30
0.0
  0
VERTEX
  5
41A
330
2D1
100
AcDbEntity
  8
0
  6
CONTINUOUS
 62
     7
100
AcDbVertex
100
AcDb2dVertex
 10
8.3984798307
 20
6.9357124163
 30
0.0
  0
VERTEX
  5
41B
330
2D1
100
AcDbEntity
  8
0
  6
CONTINUOUS
 62
     7
100
AcDbVertex
100
AcDb2dVertex
 10
8.3764132855
 20
6.9084987138
 30
0.0
  0
VERTEX
  5
41C
330
2D1
100
AcDbEntity
  8
0
  6
CONTINUOUS
 62
     7
100
AcDbVertex
100
AcDb2dVertex
 10
8.3550964606
 20
6.8802900598
 30
0.0
  0
VERTEX
  5
41D
330
2D1
100
AcDbEntity
  8
0
  6
CONTINUOUS
 62
     7
100
AcDbVertex
100
AcDb2dVertex
 10
8.3345985561
 20
6.8511780269
 30
0.0
  0
VERTEX
  5
41E
330
2D1
100
AcDbEntity
  8
0
  6
CONTINUOUS
 62
     7
100
AcDbVertex
100
AcDb2dVertex
 10
8.3149861132
 20
6.8212571203
 30
0.0
  0
VERTEX
  5
41F
330
2D1
100
AcDbEntity
  8
0
  6
CONTINUOUS
 62
     7
100
AcDbVertex
100
AcDb2dVertex
 10
8.2963227992
 20
6.7906244709
 30
0.0
  0
VERTEX
  5
420
330
2D1
100
AcDbEntity
  8
0
  6
CONTINUOUS
 62
     7
100
AcDbVertex
100
AcDb2dVertex
 10
8.2786691998
 20
6.7593795201
 30
0.0
  0
VERTEX
  5
421
330
2D1
100
AcDbEntity
  8
0
  6
CONTINUOUS
 62
     7
100
AcDbVertex
100
AcDb2dVertex
 10
8.2620826233
 20
6.7276236971
 30
0.0
  0
VERTEX
  5
422
330
2D1
100
AcDbEntity
  8
0
  6
CONTINUOUS
 62
     7
100
AcDbVertex
100
AcDb2dVertex
 10
8.2466169139
 20
6.6954600895
 30
0.0
  0
VERTEX
  5
423
330
2D1
100
AcDbEntity
  8
0
  6
CONTINUOUS
 62
     7
100
AcDbVertex
100
AcDb2dVertex
 10
8.2323222772
 20
6.6629931085
 30
0.0
  0
VERTEX
  5
424
330
2D1
100
AcDbEntity
  8
0
  6
CONTINUOUS
 62
     7
100
AcDbVertex
100
AcDb2dVertex
 10
8.2192451174
 20
6.6303281504
 30
0.0
  0
VERTEX
  5
425
330
2D1
100
AcDbEntity
  8
0
  6
CONTINUOUS
 62
     7
100
AcDbVertex
100
AcDb2dVertex
 10
8.2074278862
 20
6.597571254
 30
0.0
  0
VERTEX
  5
426
330
2D1
100
AcDbEntity
  8
0
  6
CONTINUOUS
 62
     7
100
AcDbVertex
100
AcDb2dVertex
 10
8.1969089455
 20
6.5648287566
 30
0.0
  0
VERTEX
  5
427
330
2D1
100
AcDbEntity
  8
0
  6
CONTINUOUS
 62
     7
100
AcDbVertex
100
AcDb2dVertex
 10
8.1877224424
 20
6.5322069488
 30
0.0
  0
VERTEX
  5
428
330
2D1
100
AcDbEntity
  8
0
  6
CONTINUOUS
 62
     7
100
AcDbVertex
100
AcDb2dVertex
 10
8.1798981986
 20
6.4998117294
 30
0.0
  0
VERTEX
  5
429
330
2D1
100
AcDbEntity
  8
0
  6
CONTINUOUS
 62
     7
100
AcDbVertex
100
AcDb2dVertex
 10
8.1734616137
 20
6.4677482614
 30
0.0
  0
VERTEX
  5
42A
330
2D1
100
AcDbEntity
  8
0
  6
CONTINUOUS
 62
     7
100
AcDbVertex
100
AcDb2dVertex
 10
8.1684335825
 20
6.4361206313
 30
0.0
  0
VERTEX
  5
42B
330
2D1
100
AcDbEntity
  8
0
  6
CONTINUOUS
 62
     7
100
AcDbVertex
100
AcDb2dVertex
 10
8.1648304273
 20
6.4050315105
 30
0.0
  0
VERTEX
  5
42C
330
2D1
100
AcDbEntity
  8
0
  6
CONTINUOUS
 62
     7
100
AcDbVertex
100
AcDb2dVertex
 10
8.1626638448
 20
6.3745818221
 30
0.0
  0
VERTEX
  5
42D
330
2D1
100
AcDbEntity
  8
0
  6
CONTINUOUS
 62
     7
100
AcDbVertex
100
AcDb2dVertex
 10
8.1619408683
 20
6.3448704138
 30
0.0
  0
VERTEX
  5
42E
330
2D1
100
AcDbEntity
  8
0
  6
CONTINUOUS
 62
     7
100
AcDbVertex
100
AcDb2dVertex
 10
8.1626638448
 20
6.3159937363
 30
0.0
  0
VERTEX
  5
42F
330
2D1
100
AcDbEntity
  8
0
  6
CONTINUOUS
 62
     7
100
AcDbVertex
100
AcDb2dVertex
 10
8.1648304273
 20
6.2880455308
 30
0.0
  0
VERTEX
  5
430
330
2D1
100
AcDbEntity
  8
0
  6
CONTINUOUS
 62
     7
100
AcDbVertex
100
AcDb2dVertex
 10
8.1684335825
 20
6.2611165245
 30
0.0
  0
VERTEX
  5
431
330
2D1
100
AcDbEntity
  8
0
  6
CONTINUOUS
 62
     7
100
AcDbVertex
100
AcDb2dVertex
 10
8.1734616137
 20
6.2352941356
 30
0.0
  0
VERTEX
  5
432
330
2D1
100
AcDbEntity
  8
0
  6
CONTINUOUS
 62
     7
100
AcDbVertex
100
AcDb2dVertex
 10
8.1798981986
 20
6.2106621904
 30
0.0
  0
VERTEX
  5
433
330
2D1
100
AcDbEntity
  8
0
  6
CONTINUOUS
 62
     7
100
AcDbVertex
100
AcDb2dVertex
 10
8.1877224424
 20
6.1873006505
 30
0.0
  0
VERTEX
  5
434
330
2D1
100
AcDbEntity
  8
0
  6
CONTINUOUS
 62
     7
100
AcDbVertex
100
AcDb2dVertex
 10
8.1969089455
 20
6.1652853534
 30
0.0
  0
VERTEX
  5
435
330
2D1
100
AcDbEntity
  8
0
  6
CONTINUOUS
 62
     7
100
AcDbVertex
100
AcDb2dVertex
 10
8.2074278862
 20
6.1446877665
 30
0.0
  0
VERTEX
  5
436
330
2D1
100
AcDbEntity
  8
0
  6
CONTINUOUS
 62
     7
100
AcDbVertex
100
AcDb2dVertex
 10
8.2192451174
 20
6.1255747548
 30
0.0
  0
VERTEX
  5
437
330
2D1
100
AcDbEntity
  8
0
  6
CONTINUOUS
 62
     7
100
AcDbVertex
100
AcDb2dVertex
 10
8.2323222772
 20
6.108008364
 30
0.0
  0
VERTEX
  5
438
330
2D1
100
AcDbEntity
  8
0
  6
CONTINUOUS
 62
     7
100
AcDbVertex
100
AcDb2dVertex
 10
8.2466169139
 20
6.0920456192
 30
0.0
  0
VERTEX
  5
439
330
2D1
100
AcDbEntity
  8
0
  6
CONTINUOUS
 62
     7
100
AcDbVertex
100
AcDb2dVertex
 10
8.2620826233
 20
6.0777383396
 30
0.0
  0
VERTEX
  5
43A
330
2D1
100
AcDbEntity
  8
0
  6
CONTINUOUS
 62
     7
100
AcDbVertex
100
AcDb2dVertex
 10
8.2786691998
 20
6.0651329703
 30
0.0
  0
VERTEX
  5
43B
330
2D1
100
AcDbEntity
  8
0
  6
CONTINUOUS
 62
     7
100
AcDbVertex
100
AcDb2dVertex
 10
8.2963227992
 20
6.0542704315
 30
0.0
  0
VERTEX
  5
43C
330
2D1
100
AcDbEntity
  8
0
  6
CONTINUOUS
 62
     7
100
AcDbVertex
100
AcDb2dVertex
 10
8.3066545077
 20
6.0489616537
 30
0.0
  0
SEQEND
  5
43D
330
2D1
100
AcDbEntity
  8
0
  6
CONTINUOUS
 62
     7
  0
ARC
  5
2D2
330
1F
100
AcDbEntity
  8
0
  6
CONTINUOUS
 62
     7
100
AcDbCircle
 10
8.4954950624
 20
6.2915459505
 30
0.0
 40
0.3062398168871523
100
AcDbArc
 50
176.0106574891
 51
235.0965926068
  0
LINE
  5
2D3
330
1F
100
AcDbEntity
  8
0
  6
CONTINUOUS
 62
     7
100
AcDbLine
 10
8.5356629786
 20
6.1133027648
 30
0.0
 11
8.1899972621
 21
6.3128513355
 31
0.0
  0
SPLINE
  5
2D4
330
1F
100
AcDbEntity
  8
0
  6
CONTINUOUS
 62
     7
100
AcDbSpline
210
0.0
220
0.0
230
1.0
 70
     8
 71
     3
 72
    14
 73
    10
 74
     0
 42
0.00000001
 43
0.00000001
 40
0.0
 40
0.0
 40
0.0
 40
0.0
 40
0.1069472765804843
 40
0.2181544108054921
 40
0.3249210676831
 40
0.4341795409848496
 40
0.6031515070749818
 40
0.7767867677306818
 40
0.9999999999999999
 40
0.9999999999999999
 40
0.9999999999999999
 40
0.9999999999999999
 10
8.493687160009989
 20
5.944783868619322
 30
0.0
 10
8.496701994163933
 20
5.943012166710223
 30
0.0
 10
8.502851747477521
 20
5.939398193559525
 30
0.0
 10
8.51303642928776
 20
5.933038619498708
 30
0.0
 10
8.523531868231787
 20
5.926319927298668
 30
0.0
 10
8.535975642784404
 20
5.918238559451854
 30
0.0
 10
8.550394167911056
 20
5.908876080884856
 30
0.0
 10
8.567927944186737
 20
5.897688544827362
 30
0.0
 10
8.57942736004587
 20
5.890895368693006
 30
0.0
 10
8.585895374486864
 20
5.887074447537056
 30
0.0
  0
SPLINE
  5
2D5
330
1F
100
AcDbEntity
  8
0
  6
CONTINUOUS
 62
     7
100
AcDbSpline
210
0.0
220
0.0
230
1.0
 70
     8
 71
     3
 72
    18
 73
    14
 74
     0
 42
0.00000001
 43
0.00000001
 40
0.0
 40
0.0
 40
0.0
 40
0.0
 40
0.0286425656312039
 40
0.1502160386483973
 40
0.2911743510224906
 40
0.4356089095869572
 40
0.5511754428108572
 40
0.6694156516242753
 40
0.7460463243206219
 40
0.8243446303797247
 40
0.8842217749183648
 40
0.9456462564448685
 40
1.0
 40
1.0
 40
1.0
 40
1.0
 10
8.49395006515826
 20
5.944627644705067
 30
0.0
 10
8.492895815431767
 20
5.944985079314349
 30
0.0
 10
8.487366798942853
 20
5.946859646410514
 30
0.0
 10
8.47938085790245
 20
5.949896849223114
 30
0.0
 10
8.470575488629933
 20
5.953629279778461
 30
0.0
 10
8.46571114216863
 20
5.956342051404587
 30
0.0
 10
8.464359343176227
 20
5.95782459802092
 30
0.0
 10
8.465981075208186
 20
5.957914318236761
 30
0.0
 10
8.46974841016206
 20
5.956779201343875
 30
0.0
 10
8.474363574418687
 20
5.954911782918512
 30
0.0
 10
8.480175035361304
 20
5.952154800928688
 30
0.0
 10
8.48641958961546
 20
5.948913051074645
 30
0.0
 10
8.491365317380069
 20
5.946103059398499
 30
0.0
 10
8.493687160009989
 20
5.944783868619321
 30
0.0
  0
SPLINE
  5
2D6
330
1F
100
AcDbEntity
  8
0
  6
CONTINUOUS
 62
     7
100
AcDbSpline
210
0.0
220
0.0
230
1.0
 70
     8
 71
     3
 72
    33
 73
    29
 74
     0
 42
0.00000001
 43
0.00000001
 40
0.0
 40
0.0
 40
0.0
 40
0.0
 40
0.0443613240234942
 40
0.0888927089352485
 40
0.1333179756437763
 40
0.178639088001133
 40
0.2240839254070028
 40
0.2693457964581371
 40
0.3174225722840671
 40
0.3654477566525915
 40
0.4055191149906995
 40
0.4455590033043424
 40
0.4858570527397675
 40
0.5261330068011084
 40
0.5618866622881536
 40
0.5976356035466877
 40
0.63141491661133
 40
0.6651936102280976
 40
0.6985208394750005
 40
0.7318489231257173
 40
0.7651843617533879
 40
0.7985238900615453
 40
0.8323165492664334
 40
0.8661200590040753
 40
0.9015555599739179
 40
0.9370101662234571
 40
0.9764556360429036
 40
1.0
 40
1.0
 40
1.0
 40
1.0
 10
8.520486866921317
 20
6.463963917260292
 30
0.0
 10
8.529445404254338
 20
6.469837808338407
 30
0.0
 10
8.547396821827176
 20
6.481608108288145
 30
0.0
 10
8.573498193137583
 20
6.50356655750181
 30
0.0
 10
8.59930343429326
 20
6.527815951869152
 30
0.0
 10
8.624834566266598
 20
6.554237497543174
 30
0.0
 10
8.649670504259745
 20
6.582670385298669
 30
0.0
 10
8.673730597465424
 20
6.613355584857231
 30
0.0
 10
8.696247131850077
 20
6.646090028183038
 30
0.0
 10
8.714936073554215
 20
6.678762677017136
 30
0.0
 10
8.728703510574213
 20
6.709917349656821
 30
0.0
 10
8.737588736036814
 20
6.739071540973214
 30
0.0
 10
8.741291052317269
 20
6.767415963429332
 30
0.0
 10
8.73942929548273
 20
6.793270673782146
 30
0.0
 10
8.73209439368987
 20
6.815961391717126
 30
0.0
 10
8.72055150973264
 20
6.835035901083621
 30
0.0
 10
8.70482067941322
 20
6.850999588174399
 30
0.0
 10
8.685867430858819
 20
6.86371145780968
 30
0.0
 10
8.663825657521274
 20
6.873065279626248
 30
0.0
 10
8.639517435089449
 20
6.878929193931644
 30
0.0
 10
8.61348356171519
 20
6.880953257899978
 30
0.0
 10
8.586475340399135
 20
6.879120351459974
 30
0.0
 10
8.559288297744326
 20
6.873159581676349
 30
0.0
 10
8.532311590441367
 20
6.863147108130174
 30
0.0
 10
8.50644549919794
 20
6.849037603465105
 30
0.0
 10
8.48157931511537
 20
6.830468804053703
 30
0.0
 10
8.461492602676222
 20
6.811266065401381
 30
0.0
 10
8.451003366786448
 20
6.797083753742048
 30
0.0
 10
8.447082696217658
 20
6.79178268391156
 30
0.0
  0
SPLINE
  5
2D7
330
1F
100
AcDbEntity
  8
0
  6
CONTINUOUS
 62
     7
100
AcDbSpline
210
0.0
220
0.0
230
1.0
 70
     8
 71
     3
 72
    10
 73
     6
 74
     0
 42
0.00000001
 43
0.00000001
 40
0.0
 40
0.0
 40
0.0
 40
0.0
 40
0.0920038682511838
 40
0.5460843153580235
 40
1.0
 40
1.0
 40
1.0
 40
1.0
 10
8.386457675934723
 20
6.597572371096281
 30
0.0
 10
8.38634373483597
 20
6.595745547061155
 30
0.0
 10
8.385667443196425
 20
6.584902525224536
 30
0.0
 10
8.387345445019028
 20
6.565040360774284
 30
0.0
 10
8.39002588516899
 20
6.54734830797036
 30
0.0
 10
8.391365862051346
 20
6.538503886743865
 30
0.0
  0
POLYLINE
  5
2D8
330
1F
100
AcDbEntity
  8
0
  6
CONTINUOUS
 62
     7
100
AcDb2dPolyline
 66
     1
 10
0.0
 20
0.0
 30
0.0
  0
VERTEX
  5
43E
330
2D8
100
AcDbEntity
  8
0
  6
CONTINUOUS
 62
     7
100
AcDbVertex
100
AcDb2dVertex
 10
9.1472024069
 20
6.4341949106
 30
0.0
  0
VERTEX
  5
43F
330
2D8
100
AcDbEntity
  8
0
  6
CONTINUOUS
 62
     7
100
AcDbVertex
100
AcDb2dVertex
 10
9.1450813645
 20
6.4168602554
 30
0.0
  0
VERTEX
  5
440
330
2D8
100
AcDbEntity
  8
0
  6
CONTINUOUS
 62
     7
100
AcDbVertex
100
AcDb2dVertex
 10
9.1415586896
 20
6.3990472323
 30
0.0
  0
VERTEX
  5
441
330
2D8
100
AcDbEntity
  8
0
  6
CONTINUOUS
 62
     7
100
AcDbVertex
100
AcDb2dVertex
 10
9.1366705872
 20
6.380938919
 30
0.0
  0
VERTEX
  5
442
330
2D8
100
AcDbEntity
  8
0
  6
CONTINUOUS
 62
     7
100
AcDbVertex
100
AcDb2dVertex
 10
9.130467296
 20
6.3627214281
 30
0.0
  0
VERTEX
  5
443
330
2D8
100
AcDbEntity
  8
0
  6
CONTINUOUS
 62
     7
100
AcDbVertex
100
AcDb2dVertex
 10
9.1230125719
 20
6.3445819944
 30
0.0
  0
VERTEX
  5
444
330
2D8
100
AcDbEntity
  8
0
  6
CONTINUOUS
 62
     7
100
AcDbVertex
100
AcDb2dVertex
 10
9.1143830327
 20
6.3267070504
 30
0.0
  0
VERTEX
  5
445
330
2D8
100
AcDbEntity
  8
0
  6
CONTINUOUS
 62
     7
100
AcDbVertex
100
AcDb2dVertex
 10
9.1046673705
 20
6.3092803102
 30
0.0
  0
VERTEX
  5
446
330
2D8
100
AcDbEntity
  8
0
  6
CONTINUOUS
 62
     7
100
AcDbVertex
100
AcDb2dVertex
 10
9.0939654405
 20
6.2924808814
 30
0.0
  0
VERTEX
  5
447
330
2D8
100
AcDbEntity
  8
0
  6
CONTINUOUS
 62
     7
100
AcDbVertex
100
AcDb2dVertex
 10
9.0823872344
 20
6.2764814243
 30
0.0
  0
VERTEX
  5
448
330
2D8
100
AcDbEntity
  8
0
  6
CONTINUOUS
 62
     7
100
AcDbVertex
100
AcDb2dVertex
 10
9.07005175
 20
6.2614463772
 30
0.0
  0
VERTEX
  5
449
330
2D8
100
AcDbEntity
  8
0
  6
CONTINUOUS
 62
     7
100
AcDbVertex
100
AcDb2dVertex
 10
9.0570857684
 20
6.2475302665
 30
0.0
  0
VERTEX
  5
44A
330
2D8
100
AcDbEntity
  8
0
  6
CONTINUOUS
 62
     7
100
AcDbVertex
100
AcDb2dVertex
 10
9.0436225505
 20
6.2348761185
 30
0.0
  0
VERTEX
  5
44B
330
2D8
100
AcDbEntity
  8
0
  6
CONTINUOUS
 62
     7
100
AcDbVertex
100
AcDb2dVertex
 10
9.029800468
 20
6.2236139893
 30
0.0
  0
VERTEX
  5
44C
330
2D8
100
AcDbEntity
  8
0
  6
CONTINUOUS
 62
     7
100
AcDbVertex
100
AcDb2dVertex
 10
9.0157615806
 20
6.2138596282
 30
0.0
  0
VERTEX
  5
44D
330
2D8
100
AcDbEntity
  8
0
  6
CONTINUOUS
 62
     7
100
AcDbVertex
100
AcDb2dVertex
 10
9.0016501766
 20
6.205713288
 30
0.0
  0
VERTEX
  5
44E
330
2D8
100
AcDbEntity
  8
0
  6
CONTINUOUS
 62
     7
100
AcDbVertex
100
AcDb2dVertex
 10
8.9876112892
 20
6.1992586948
 30
0.0
  0
VERTEX
  5
44F
330
2D8
100
AcDbEntity
  8
0
  6
CONTINUOUS
 62
     7
100
AcDbVertex
100
AcDb2dVertex
 10
8.9737892066
 20
6.1945621872
 30
0.0
  0
VERTEX
  5
450
330
2D8
100
AcDbEntity
  8
0
  6
CONTINUOUS
 62
     7
100
AcDbVertex
100
AcDb2dVertex
 10
8.9603259888
 20
6.1916720347
 30
0.0
  0
VERTEX
  5
451
330
2D8
100
AcDbEntity
  8
0
  6
CONTINUOUS
 62
     7
100
AcDbVertex
100
AcDb2dVertex
 10
8.9473600071
 20
6.1906179417
 30
0.0
  0
VERTEX
  5
452
330
2D8
100
AcDbEntity
  8
0
  6
CONTINUOUS
 62
     7
100
AcDbVertex
100
AcDb2dVertex
 10
8.9350245228
 20
6.1914107417
 30
0.0
  0
VERTEX
  5
453
330
2D8
100
AcDbEntity
  8
0
  6
CONTINUOUS
 62
     7
100
AcDbVertex
100
AcDb2dVertex
 10
8.9234463167
 20
6.1940422865
 30
0.0
  0
VERTEX
  5
454
330
2D8
100
AcDbEntity
  8
0
  6
CONTINUOUS
 62
     7
100
AcDbVertex
100
AcDb2dVertex
 10
8.9127443867
 20
6.19848553
 30
0.0
  0
VERTEX
  5
455
330
2D8
100
AcDbEntity
  8
0
  6
CONTINUOUS
 62
     7
100
AcDbVertex
100
AcDb2dVertex
 10
8.9030287245
 20
6.2046948054
 30
0.0
  0
VERTEX
  5
456
330
2D8
100
AcDbEntity
  8
0
  6
CONTINUOUS
 62
     7
100
AcDbVertex
100
AcDb2dVertex
 10
8.8943991853
 20
6.2126062955
 30
0.0
  0
VERTEX
  5
457
330
2D8
100
AcDbEntity
  8
0
  6
CONTINUOUS
 62
     7
100
AcDbVertex
100
AcDb2dVertex
 10
8.8869444612
 20
6.222138688
 30
0.0
  0
VERTEX
  5
458
330
2D8
100
AcDbEntity
  8
0
  6
CONTINUOUS
 62
     7
100
AcDbVertex
100
AcDb2dVertex
 10
8.88074117
 20
6.2331940113
 30
0.0
  0
VERTEX
  5
459
330
2D8
100
AcDbEntity
  8
0
  6
CONTINUOUS
 62
     7
100
AcDbVertex
100
AcDb2dVertex
 10
8.8758530676
 20
6.2456586417
 30
0.0
  0
VERTEX
  5
45A
330
2D8
100
AcDbEntity
  8
0
  6
CONTINUOUS
 62
     7
100
AcDbVertex
100
AcDb2dVertex
 10
8.8723303926
 20
6.2594044709
 30
0.0
  0
VERTEX
  5
45B
330
2D8
100
AcDbEntity
  8
0
  6
CONTINUOUS
 62
     7
100
AcDbVertex
100
AcDb2dVertex
 10
8.8702093502
 20
6.2742902226
 30
0.0
  0
SEQEND
  5
45C
330
2D8
100
AcDbEntity
  8
0
  6
CONTINUOUS
 62
     7
  0
LINE
  5
2D9
330
1F
100
AcDbEntity
  8
0
  6
CONTINUOUS
 62
     7
100
AcDbLine
 10
9.1472024069
 20
6.4341949106
 30
0.0
 11
9.3265327455
 21
6.5377201114
 31
0.0
  0
LINE
  5
2DA
330
1F
100
AcDbEntity
  8
0
  6
CONTINUOUS
 62
     7
100
AcDbLine
 10
9.3265327455
 20
6.5377201114
 30
0.0
 11
9.3265327455
 21
6.5698673875
 31
0.0
  0
LINE
  5
2DB
330
1F
100
AcDbEntity
  8
0
  6
CONTINUOUS
 62
     7
100
AcDbLine
 10
9.1472024069
 20
6.4663421866
 30
0.0
 11
9.3265327455
 21
6.5698673875
 31
0.0
  0
POLYLINE
  5
2DC
330
1F
100
AcDbEntity
  8
0
  6
CONTINUOUS
 62
     7
100
AcDb2dPolyline
 66
     1
 10
0.0
 20
0.0
 30
0.0
  0
VERTEX
  5
45D
330
2DC
100
AcDbEntity
  8
0
  6
CONTINUOUS
 62
     7
100
AcDbVertex
100
AcDb2dVertex
 10
8.8702093502
 20
6.3064374987
 30
0.0
  0
VERTEX
  5
45E
330
2DC
100
AcDbEntity
  8
0
  6
CONTINUOUS
 62
     7
100
AcDbVertex
100
AcDb2dVertex
 10
8.8723303926
 20
6.3237721539
 30
0.0
  0
VERTEX
  5
45F
330
2DC
100
AcDbEntity
  8
0
  6
CONTINUOUS
 62
     7
100
AcDbVertex
100
AcDb2dVertex
 10
8.8758530676
 20
6.341585177
 30
0.0
  0
VERTEX
  5
460
330
2DC
100
AcDbEntity
  8
0
  6
CONTINUOUS
 62
     7
100
AcDbVertex
100
AcDb2dVertex
 10
8.88074117
 20
6.3596934903
 30
0.0
  0
VERTEX
  5
461
330
2DC
100
AcDbEntity
  8
0
  6
CONTINUOUS
 62
     7
100
AcDbVertex
100
AcDb2dVertex
 10
8.8869444612
 20
6.3779109812
 30
0.0
  0
VERTEX
  5
462
330
2DC
100
AcDbEntity
  8
0
  6
CONTINUOUS
 62
     7
100
AcDbVertex
100
AcDb2dVertex
 10
8.8943991853
 20
6.3960504149
 30
0.0
  0
VERTEX
  5
463
330
2DC
100
AcDbEntity
  8
0
  6
CONTINUOUS
 62
     7
100
AcDbVertex
100
AcDb2dVertex
 10
8.9030287245
 20
6.4139253589
 30
0.0
  0
VERTEX
  5
464
330
2DC
100
AcDbEntity
  8
0
  6
CONTINUOUS
 62
     7
100
AcDbVertex
100
AcDb2dVertex
 10
8.9127443867
 20
6.4313520991
 30
0.0
  0
VERTEX
  5
465
330
2DC
100
AcDbEntity
  8
0
  6
CONTINUOUS
 62
     7
100
AcDbVertex
100
AcDb2dVertex
 10
8.9234463167
 20
6.4481515279
 30
0.0
  0
VERTEX
  5
466
330
2DC
100
AcDbEntity
  8
0
  6
CONTINUOUS
 62
     7
100
AcDbVertex
100
AcDb2dVertex
 10
8.9350245228
 20
6.464150985
 30
0.0
  0
VERTEX
  5
467
330
2DC
100
AcDbEntity
  8
0
  6
CONTINUOUS
 62
     7
100
AcDbVertex
100
AcDb2dVertex
 10
8.9473600071
 20
6.4791860321
 30
0.0
  0
VERTEX
  5
468
330
2DC
100
AcDbEntity
  8
0
  6
CONTINUOUS
 62
     7
100
AcDbVertex
100
AcDb2dVertex
 10
8.9603259888
 20
6.4931021428
 30
0.0
  0
VERTEX
  5
469
330
2DC
100
AcDbEntity
  8
0
  6
CONTINUOUS
 62
     7
100
AcDbVertex
100
AcDb2dVertex
 10
8.9737892066
 20
6.5057562907
 30
0.0
  0
VERTEX
  5
46A
330
2DC
100
AcDbEntity
  8
0
  6
CONTINUOUS
 62
     7
100
AcDbVertex
100
AcDb2dVertex
 10
8.9876112892
 20
6.51701842
 30
0.0
  0
VERTEX
  5
46B
330
2DC
100
AcDbEntity
  8
0
  6
CONTINUOUS
 62
     7
100
AcDbVertex
100
AcDb2dVertex
 10
9.0016501766
 20
6.5267727811
 30
0.0
  0
VERTEX
  5
46C
330
2DC
100
AcDbEntity
  8
0
  6
CONTINUOUS
 62
     7
100
AcDbVertex
100
AcDb2dVertex
 10
9.0157615806
 20
6.5349191212
 30
0.0
  0
VERTEX
  5
46D
330
2DC
100
AcDbEntity
  8
0
  6
CONTINUOUS
 62
     7
100
AcDbVertex
100
AcDb2dVertex
 10
9.029800468
 20
6.5413737145
 30
0.0
  0
VERTEX
  5
46E
330
2DC
100
AcDbEntity
  8
0
  6
CONTINUOUS
 62
     7
100
AcDbVertex
100
AcDb2dVertex
 10
9.0436225505
 20
6.5460702221
 30
0.0
  0
VERTEX
  5
46F
330
2DC
100
AcDbEntity
  8
0
  6
CONTINUOUS
 62
     7
100
AcDbVertex
100
AcDb2dVertex
 10
9.0570857684
 20
6.5489603745
 30
0.0
  0
VERTEX
  5
470
330
2DC
100
AcDbEntity
  8
0
  6
CONTINUOUS
 62
     7
100
AcDbVertex
100
AcDb2dVertex
 10
9.07005175
 20
6.5500144676
 30
0.0
  0
VERTEX
  5
471
330
2DC
100
AcDbEntity
  8
0
  6
CONTINUOUS
 62
     7
100
AcDbVertex
100
AcDb2dVertex
 10
9.0823872344
 20
6.5492216676
 30
0.0
  0
VERTEX
  5
472
330
2DC
100
AcDbEntity
  8
0
  6
CONTINUOUS
 62
     7
100
AcDbVertex
100
AcDb2dVertex
 10
9.0939654405
 20
6.5465901227
 30
0.0
  0
VERTEX
  5
473
330
2DC
100
AcDbEntity
  8
0
  6
CONTINUOUS
 62
     7
100
AcDbVertex
100
AcDb2dVertex
 10
9.1046673705
 20
6.5421468793
 30
0.0
  0
VERTEX
  5
474
330
2DC
100
AcDbEntity
  8
0
  6
CONTINUOUS
 62
     7
100
AcDbVertex
100
AcDb2dVertex
 10
9.1143830327
 20
6.5359376039
 30
0.0
  0
VERTEX
  5
475
330
2DC
100
AcDbEntity
  8
0
  6
CONTINUOUS
 62
     7
100
AcDbVertex
100
AcDb2dVertex
 10
9.1230125719
 20
6.5280261138
 30
0.0
  0
VERTEX
  5
476
330
2DC
100
AcDbEntity
  8
0
  6
CONTINUOUS
 62
     7
100
AcDbVertex
100
AcDb2dVertex
 10
9.130467296
 20
6.5184937213
 30
0.0
  0
VERTEX
  5
477
330
2DC
100
AcDbEntity
  8
0
  6
CONTINUOUS
 62
     7
100
AcDbVertex
100
AcDb2dVertex
 10
9.1366705872
 20
6.507438398
 30
0.0
  0
VERTEX
  5
478
330
2DC
100
AcDbEntity
  8
0
  6
CONTINUOUS
 62
     7
100
AcDbVertex
100
AcDb2dVertex
 10
9.1415586896
 20
6.4949737676
 30
0.0
  0
VERTEX
  5
479
330
2DC
100
AcDbEntity
  8
0
  6
CONTINUOUS
 62
     7
100
AcDbVertex
100
AcDb2dVertex
 10
9.1450813645
 20
6.4812279384
 30
0.0
  0
VERTEX
  5
47A
330
2DC
100
AcDbEntity
  8
0
  6
CONTINUOUS
 62
     7
100
AcDbVertex
100
AcDb2dVertex
 10
9.1472024069
 20
6.4663421866
 30
0.0
  0
SEQEND
  5
47B
330
2DC
100
AcDbEntity
  8
0
  6
CONTINUOUS
 62
     7
  0
LINE
  5
2DD
330
1F
100
AcDbEntity
  8
0
  6
CONTINUOUS
 62
     7
100
AcDbLine
 10
8.5913551887
 20
6.1454584178
 30
0.0
 11
8.8702093502
 21
6.3064374987
 31
0.0
  0
LINE
  5
2DE
330
1F
100
AcDbEntity
  8
0
  6
CONTINUOUS
 62
     7
100
AcDbLine
 10
8.5913551887
 20
6.1133111417
 30
0.0
 11
8.8702093502
 21
6.2742902226
 31
0.0
  0
LINE
  5
2DF
330
1F
100
AcDbEntity
  8
0
  6
CONTINUOUS
 62
     7
100
AcDbLine
 10
8.7187178614
 20
7.1393829802
 30
0.0
 11
8.7187178614
 21
7.1643143894
 31
0.0
  0
LINE
  5
2E0
330
1F
100
AcDbEntity
  8
0
  6
CONTINUOUS
 62
     7
100
AcDbLine
 10
8.8702250578
 20
6.3066260299
 30
0.0
 11
8.8703850195
 21
6.306533686
 31
0.0
  0
SPLINE
  5
2E1
330
1F
100
AcDbEntity
  8
0
  6
CONTINUOUS
 62
     7
100
AcDbSpline
210
0.0
220
0.0
230
1.0
 70
     8
 71
     3
 72
     8
 73
     4
 74
     0
 42
0.00000001
 43
0.00000001
 40
0.0
 40
0.0
 40
0.0
 40
0.0
 40
1.0
 40
1.0
 40
1.0
 40
1.0
 10
8.870209350249498
 20
6.274290222632684
 30
0.0
 10
8.870256128999337
 20
6.285038064173528
 30
0.0
 10
8.87031172014006
 20
6.295785890429422
 30
0.0
 10
8.870385019485742
 20
6.306533685970721
 30
0.0
  0
LINE
  5
2E2
330
1F
100
AcDbEntity
  8
0
  6
CONTINUOUS
 62
     7
100
AcDbLine
 10
8.1899972621
 20
6.3128513355
 30
0.0
 11
8.2178406367
 21
6.3289249735
 31
0.0
  0
ARC
  5
2E3
330
1F
100
AcDbEntity
  8
0
  6
CONTINUOUS
 62
     7
100
AcDbCircle
 10
9.009086807
 20
6.3672943539
 30
0.0
 40
0.9014149537880288
100
AcDbArc
 50
141.5180854929
 51
177.4235397394
  0
SPLINE
  5
2E4
330
1F
100
AcDbEntity
  8
0
  6
CONTINUOUS
 62
     7
100
AcDbSpline
210
0.0
220
0.0
230
1.0
 70
     8
 71
     3
 72
     8
 73
     4
 74
     0
 42
0.00000001
 43
0.00000001
 40
0.0
 40
0.0
 40
0.0
 40
0.0
 40
0.0007687366887669
 40
0.0007687366887669
 40
0.0007687366887669
 40
0.0007687366887669
 10
8.303455020714397
 20
6.928215650639572
 30
0.0
 10
8.312669205571012
 20
6.935474894147958
 30
0.0
 10
8.321953819476425
 20
6.942624964300372
 30
0.0
 10
8.331293870367409
 20
6.949687143499887
 30
0.0
  0
SPLINE
  5
2E5
330
1F
100
AcDbEntity
  8
0
  6
CONTINUOUS
 62
     7
100
AcDbSpline
210
0.0
220
0.0
230
1.0
 70
     8
 71
     3
 72
     8
 73
     4
 74
     0
 42
0.00000001
 43
0.00000001
 40
0.0
 40
0.0
 40
0.0
 40
0.0
 40
1.0
 40
1.0
 40
1.0
 40
1.0
 10
9.091349038389716
 20
6.466240774955518
 30
0.0
 10
9.109966758367952
 20
6.466283089709716
 30
0.0
 10
9.128584561867772
 20
6.466315181820276
 30
0.0
 10
9.147202406931985
 20
6.46634218664699
 30
0.0
  0
ARC
  5
2E6
330
1F
100
AcDbEntity
  8
0
  6
CONTINUOUS
 62
     7
100
AcDbCircle
 10
9.0266749679
 20
6.4658478293
 30
0.0
 40
0.064675264239757
100
AcDbArc
 50
0.348112432
 51
120.357782826
  0
LINE
  5
2E7
330
1F
100
AcDbEntity
  8
0
  6
CONTINUOUS
 62
     7
100
AcDbLine
 10
9.0913490384
 20
6.466240775
 30
0.0
 11
8.9947684971
 21
6.5219955346
 31
0.0
  0
LINE
  5
2E8
330
1F
100
AcDbEntity
  8
0
  6
CONTINUOUS
 62
     7
100
AcDbLine
 10
9.0913490384
 20
6.4340934989
 30
0.0
 11
8.9711987082
 21
6.5034548081
 31
0.0
  0
POLYLINE
  5
2E9
330
1F
100
AcDbEntity
  8
0
  6
CONTINUOUS
 62
     7
100
AcDb2dPolyline
 66
     1
 10
0.0
 20
0.0
 30
0.0
  0
VERTEX
  5
47C
330
2E9
100
AcDbEntity
  8
0
  6
CONTINUOUS
 62
     7
100
AcDbVertex
100
AcDb2dVertex
 10
8.8703850195
 20
6.306533686
 30
0.0
  0
VERTEX
  5
47D
330
2E9
100
AcDbEntity
  8
0
  6
CONTINUOUS
 62
     7
100
AcDbVertex
100
AcDb2dVertex
 10
8.8727289032
 20
6.2932738951
 30
0.0
  0
VERTEX
  5
47E
330
2E9
100
AcDbEntity
  8
0
  6
CONTINUOUS
 62
     7
100
AcDbVertex
100
AcDb2dVertex
 10
8.8765172022
 20
6.2812578313
 30
0.0
  0
VERTEX
  5
47F
330
2E9
100
AcDbEntity
  8
0
  6
CONTINUOUS
 62
     7
100
AcDbVertex
100
AcDb2dVertex
 10
8.8816993157
 20
6.2706459948
 30
0.0
  0
VERTEX
  5
480
330
2E9
100
AcDbEntity
  8
0
  6
CONTINUOUS
 62
     7
100
AcDbVertex
100
AcDb2dVertex
 10
8.8882060254
 20
6.2615801294
 30
0.0
  0
VERTEX
  5
481
330
2E9
100
AcDbEntity
  8
0
  6
CONTINUOUS
 62
     7
100
AcDbVertex
100
AcDb2dVertex
 10
8.8959504204
 20
6.2541813289
 30
0.0
  0
VERTEX
  5
482
330
2E9
100
AcDbEntity
  8
0
  6
CONTINUOUS
 62
     7
100
AcDbVertex
100
AcDb2dVertex
 10
8.9048290578
 20
6.2485484201
 30
0.0
  0
VERTEX
  5
483
330
2E9
100
AcDbEntity
  8
0
  6
CONTINUOUS
 62
     7
100
AcDbVertex
100
AcDb2dVertex
 10
8.9147233445
 20
6.2447566426
 30
0.0
  0
VERTEX
  5
484
330
2E9
100
AcDbEntity
  8
0
  6
CONTINUOUS
 62
     7
100
AcDbVertex
100
AcDb2dVertex
 10
8.9255011211
 20
6.2428566437
 30
0.0
  0
VERTEX
  5
485
330
2E9
100
AcDbEntity
  8
0
  6
CONTINUOUS
 62
     7
100
AcDbVertex
100
AcDb2dVertex
 10
8.9370184275
 20
6.2428738017
 30
0.0
  0
VERTEX
  5
486
330
2E9
100
AcDbEntity
  8
0
  6
CONTINUOUS
 62
     7
100
AcDbVertex
100
AcDb2dVertex
 10
8.9491214254
 20
6.2448078877
 30
0.0
  0
VERTEX
  5
487
330
2E9
100
AcDbEntity
  8
0
  6
CONTINUOUS
 62
     7
100
AcDbVertex
100
AcDb2dVertex
 10
8.9616484536
 20
6.2486330676
 30
0.0
  0
VERTEX
  5
488
330
2E9
100
AcDbEntity
  8
0
  6
CONTINUOUS
 62
     7
100
AcDbVertex
100
AcDb2dVertex
 10
8.9744321868
 20
6.2542982482
 30
0.0
  0
VERTEX
  5
489
330
2E9
100
AcDbEntity
  8
0
  6
CONTINUOUS
 62
     7
100
AcDbVertex
100
AcDb2dVertex
 10
8.9873018711
 20
6.2617277588
 30
0.0
  0
VERTEX
  5
48A
330
2E9
100
AcDbEntity
  8
0
  6
CONTINUOUS
 62
     7
100
AcDbVertex
100
AcDb2dVertex
 10
9.0000856043
 20
6.2708223624
 30
0.0
  0
VERTEX
  5
48B
330
2E9
100
AcDbEntity
  8
0
  6
CONTINUOUS
 62
     7
100
AcDbVertex
100
AcDb2dVertex
 10
9.0126126325
 20
6.2814605813
 30
0.0
  0
VERTEX
  5
48C
330
2E9
100
AcDbEntity
  8
0
  6
CONTINUOUS
 62
     7
100
AcDbVertex
100
AcDb2dVertex
 10
9.0247156304
 20
6.2935003194
 30
0.0
  0
VERTEX
  5
48D
330
2E9
100
AcDbEntity
  8
0
  6
CONTINUOUS
 62
     7
100
AcDbVertex
100
AcDb2dVertex
 10
9.0362329368
 20
6.3067807602
 30
0.0
  0
VERTEX
  5
48E
330
2E9
100
AcDbEntity
  8
0
  6
CONTINUOUS
 62
     7
100
AcDbVertex
100
AcDb2dVertex
 10
9.0470107134
 20
6.3211245152
 30
0.0
  0
VERTEX
  5
48F
330
2E9
100
AcDbEntity
  8
0
  6
CONTINUOUS
 62
     7
100
AcDbVertex
100
AcDb2dVertex
 10
9.0569050001
 20
6.3363399929
 30
0.0
  0
VERTEX
  5
490
330
2E9
100
AcDbEntity
  8
0
  6
CONTINUOUS
 62
     7
100
AcDbVertex
100
AcDb2dVertex
 10
9.0657836375
 20
6.3522239582
 30
0.0
  0
VERTEX
  5
491
330
2E9
100
AcDbEntity
  8
0
  6
CONTINUOUS
 62
     7
100
AcDbVertex
100
AcDb2dVertex
 10
9.0735280325
 20
6.3685642468
 30
0.0
  0
VERTEX
  5
492
330
2E9
100
AcDbEntity
  8
0
  6
CONTINUOUS
 62
     7
100
AcDbVertex
100
AcDb2dVertex
 10
9.0800347422
 20
6.3851425994
 30
0.0
  0
VERTEX
  5
493
330
2E9
100
AcDbEntity
  8
0
  6
CONTINUOUS
 62
     7
100
AcDbVertex
100
AcDb2dVertex
 10
9.0852168557
 20
6.4017375767
 30
0.0
  0
VERTEX
  5
494
330
2E9
100
AcDbEntity
  8
0
  6
CONTINUOUS
 62
     7
100
AcDbVertex
100
AcDb2dVertex
 10
9.0890051547
 20
6.4181275174
 30
0.0
  0
VERTEX
  5
495
330
2E9
100
AcDbEntity
  8
0
  6
CONTINUOUS
 62
     7
100
AcDbVertex
100
AcDb2dVertex
 10
9.0913490384
 20
6.4340934989
 30
0.0
  0
SEQEND
  5
496
330
2E9
100
AcDbEntity
  8
0
  6
CONTINUOUS
 62
     7
  0
LINE
  5
2EA
330
1F
100
AcDbEntity
  8
0
  6
CONTINUOUS
 62
     7
100
AcDbLine
 10
8.2106588552
 20
7.0193282554
 30
0.0
 11
8.1868231411
 21
7.000944293
 31
0.0
  0
SPLINE
  5
2EB
330
1F
100
AcDbEntity
  8
0
  6
CONTINUOUS
 62
     7
100
AcDbSpline
210
0.0
220
0.0
230
1.0
 70
     8
 71
     3
 72
     8
 73
     4
 74
     0
 42
0.00000001
 43
0.00000001
 40
0.0
 40
0.0
 40
0.0
 40
0.0
 40
1.0
 40
1.0
 40
1.0
 40
1.0
 10
9.091349038389716
 20
6.434093498897023
 30
0.0
 10
9.109966758367952
 20
6.434135813651222
 30
0.0
 10
9.128584561867772
 20
6.434167905761782
 30
0.0
 10
9.147202406931985
 20
6.434194910588497
 30
0.0
  0
ARC
  5
2EC
330
1F
100
AcDbEntity
  8
0
  6
CONTINUOUS
 62
     7
100
AcDbCircle
 10
8.8071902052
 20
6.5364240227
 30
0.0
 40
0.7762965751526534
100
AcDbArc
 50
121.1641700292
 51
143.186162143
  0
POLYLINE
  5
2ED
330
1F
100
AcDbEntity
  8
0
  6
CONTINUOUS
 62
     7
100
AcDb2dPolyline
 66
     1
 10
0.0
 20
0.0
 30
0.0
  0
VERTEX
  5
497
330
2ED
100
AcDbEntity
  8
0
  6
CONTINUOUS
 62
     7
100
AcDbVertex
100
AcDb2dVertex
 10
9.3265327455
 20
6.5377201114
 30
0.0
  0
VERTEX
  5
498
330
2ED
100
AcDbEntity
  8
0
  6
CONTINUOUS
 62
     7
100
AcDbVertex
100
AcDb2dVertex
 10
9.3013718657
 20
6.5513266279
 30
0.0
  0
VERTEX
  5
499
330
2ED
100
AcDbEntity
  8
0
  6
CONTINUOUS
 62
     7
100
AcDbVertex
100
AcDb2dVertex
 10
9.2976501151
 20
6.5531937999
 30
0.0
  0
SEQEND
  5
49A
330
2ED
100
AcDbEntity
  8
0
  6
CONTINUOUS
 62
     7
  0
LINE
  5
2EE
330
1F
100
AcDbEntity
  8
0
  6
CONTINUOUS
 62
     7
100
AcDbLine
 10
8.623391472
 20
7.3054575079
 30
0.0
 11
8.7440264872
 21
7.235816396
 31
0.0
  0
POLYLINE
  5
2EF
330
1F
100
AcDbEntity
  8
0
  6
CONTINUOUS
 62
     7
100
AcDb2dPolyline
 66
     1
 10
0.0
 20
0.0
 30
0.0
  0
VERTEX
  5
49B
330
2EF
100
AcDbEntity
  8
0
  6
CONTINUOUS
 62
     7
100
AcDbVertex
100
AcDb2dVertex
 10
8.1376693749
 20
7.0293201583
 30
0.0
  0
VERTEX
  5
49C
330
2EF
100
AcDbEntity
  8
0
  6
CONTINUOUS
 62
     7
100
AcDbVertex
100
AcDb2dVertex
 10
8.159695018
 20
7.0572902692
 30
0.0
  0
VERTEX
  5
49D
330
2EF
100
AcDbEntity
  8
0
  6
CONTINUOUS
 62
     7
100
AcDbVertex
100
AcDb2dVertex
 10
8.1824454618
 20
7.0841874689
 30
0.0
  0
VERTEX
  5
49E
330
2EF
100
AcDbEntity
  8
0
  6
CONTINUOUS
 62
     7
100
AcDbVertex
100
AcDb2dVertex
 10
8.2058450652
 20
7.1099223288
 30
0.0
  0
VERTEX
  5
49F
330
2EF
100
AcDbEntity
  8
0
  6
CONTINUOUS
 62
     7
100
AcDbVertex
100
AcDb2dVertex
 10
8.2298160288
 20
7.1344092851
 30
0.0
  0
VERTEX
  5
4A0
330
2EF
100
AcDbEntity
  8
0
  6
CONTINUOUS
 62
     7
100
AcDbVertex
100
AcDb2dVertex
 10
8.2542786534
 20
7.1575669232
 30
0.0
  0
VERTEX
  5
4A1
330
2EF
100
AcDbEntity
  8
0
  6
CONTINUOUS
 62
     7
100
AcDbVertex
100
AcDb2dVertex
 10
8.2791516051
 20
7.179318248
 30
0.0
  0
VERTEX
  5
4A2
330
2EF
100
AcDbEntity
  8
0
  6
CONTINUOUS
 62
     7
100
AcDbVertex
100
AcDb2dVertex
 10
8.3043521859
 20
7.1995909403
 30
0.0
  0
VERTEX
  5
4A3
330
2EF
100
AcDbEntity
  8
0
  6
CONTINUOUS
 62
     7
100
AcDbVertex
100
AcDb2dVertex
 10
8.3297966082
 20
7.2183175969
 30
0.0
  0
VERTEX
  5
4A4
330
2EF
100
AcDbEntity
  8
0
  6
CONTINUOUS
 62
     7
100
AcDbVertex
100
AcDb2dVertex
 10
8.355400274
 20
7.2354359552
 30
0.0
  0
VERTEX
  5
4A5
330
2EF
100
AcDbEntity
  8
0
  6
CONTINUOUS
 62
     7
100
AcDbVertex
100
AcDb2dVertex
 10
8.3810780556
 20
7.2508890996
 30
0.0
  0
VERTEX
  5
4A6
330
2EF
100
AcDbEntity
  8
0
  6
CONTINUOUS
 62
     7
100
AcDbVertex
100
AcDb2dVertex
 10
8.4067445791
 20
7.2646256511
 30
0.0
  0
VERTEX
  5
4A7
330
2EF
100
AcDbEntity
  8
0
  6
CONTINUOUS
 62
     7
100
AcDbVertex
100
AcDb2dVertex
 10
8.4323145077
 20
7.2765999383
 30
0.0
  0
VERTEX
  5
4A8
330
2EF
100
AcDbEntity
  8
0
  6
CONTINUOUS
 62
     7
100
AcDbVertex
100
AcDb2dVertex
 10
8.4577028262
 20
7.2867721487
 30
0.0
  0
VERTEX
  5
4A9
330
2EF
100
AcDbEntity
  8
0
  6
CONTINUOUS
 62
     7
100
AcDbVertex
100
AcDb2dVertex
 10
8.4828251228
 20
7.2951084616
 30
0.0
  0
VERTEX
  5
4AA
330
2EF
100
AcDbEntity
  8
0
  6
CONTINUOUS
 62
     7
100
AcDbVertex
100
AcDb2dVertex
 10
8.5075978704
 20
7.3015811602
 30
0.0
  0
VERTEX
  5
4AB
330
2EF
100
AcDbEntity
  8
0
  6
CONTINUOUS
 62
     7
100
AcDbVertex
100
AcDb2dVertex
 10
8.5319387041
 20
7.306168724
 30
0.0
  0
VERTEX
  5
4AC
330
2EF
100
AcDbEntity
  8
0
  6
CONTINUOUS
 62
     7
100
AcDbVertex
100
AcDb2dVertex
 10
8.555766695
 20
7.3088559001
 30
0.0
  0
VERTEX
  5
4AD
330
2EF
100
AcDbEntity
  8
0
  6
CONTINUOUS
 62
     7
100
AcDbVertex
100
AcDb2dVertex
 10
8.5790026192
 20
7.3096337541
 30
0.0
  0
VERTEX
  5
4AE
330
2EF
100
AcDbEntity
  8
0
  6
CONTINUOUS
 62
     7
100
AcDbVertex
100
AcDb2dVertex
 10
8.6015692215
 20
7.3084996999
 30
0.0
  0
VERTEX
  5
4AF
330
2EF
100
AcDbEntity
  8
0
  6
CONTINUOUS
 62
     7
100
AcDbVertex
100
AcDb2dVertex
 10
8.623391472
 20
7.3054575079
 30
0.0
  0
SEQEND
  5
4B0
330
2EF
100
AcDbEntity
  8
0
  6
CONTINUOUS
 62
     7
  0
LINE
  5
2F0
330
1F
100
AcDbEntity
  8
0
  6
CONTINUOUS
 62
     7
100
AcDbLine
 10
8.2583043901
 20
6.9596790464
 30
0.0
 11
8.1376693749
 21
7.0293201583
 31
0.0
  0
POLYLINE
  5
2F1
330
1F
100
AcDbEntity
  8
0
  6
CONTINUOUS
 62
     7
100
AcDb2dPolyline
 66
     1
 10
0.0
 20
0.0
 30
0.0
  0
VERTEX
  5
4B1
330
2F1
100
AcDbEntity
  8
0
  6
CONTINUOUS
 62
     7
100
AcDbVertex
100
AcDb2dVertex
 10
8.2124632105
 20
6.1054729184
 30
0.0
  0
VERTEX
  5
4B2
330
2F1
100
AcDbEntity
  8
0
  6
CONTINUOUS
 62
     7
100
AcDbVertex
100
AcDb2dVertex
 10
8.2120923442
 20
6.1056176165
 30
0.0
  0
VERTEX
  5
4B3
330
2F1
100
AcDbEntity
  8
0
  6
CONTINUOUS
 62
     7
100
AcDbVertex
100
AcDb2dVertex
 10
8.1931779019
 20
6.1141003733
 30
0.0
  0
VERTEX
  5
4B4
330
2F1
100
AcDbEntity
  8
0
  6
CONTINUOUS
 62
     7
100
AcDbVertex
100
AcDb2dVertex
 10
8.1752478845
 20
6.1243602019
 30
0.0
  0
VERTEX
  5
4B5
330
2F1
100
AcDbEntity
  8
0
  6
CONTINUOUS
 62
     7
100
AcDbVertex
100
AcDb2dVertex
 10
8.1583601353
 20
6.1363640036
 30
0.0
  0
VERTEX
  5
4B6
330
2F1
100
AcDbEntity
  8
0
  6
CONTINUOUS
 62
     7
100
AcDbVertex
100
AcDb2dVertex
 10
8.1425691348
 20
6.1500730535
 30
0.0
  0
VERTEX
  5
4B7
330
2F1
100
AcDbEntity
  8
0
  6
CONTINUOUS
 62
     7
100
AcDbVertex
100
AcDb2dVertex
 10
8.1279258255
 20
6.1654431258
 30
0.0
  0
VERTEX
  5
4B8
330
2F1
100
AcDbEntity
  8
0
  6
CONTINUOUS
 62
     7
100
AcDbVertex
100
AcDb2dVertex
 10
8.1144774474
 20
6.1824246357
 30
0.0
  0
VERTEX
  5
4B9
330
2F1
100
AcDbEntity
  8
0
  6
CONTINUOUS
 62
     7
100
AcDbVertex
100
AcDb2dVertex
 10
8.1022673856
 20
6.2009628001
 30
0.0
  0
VERTEX
  5
4BA
330
2F1
100
AcDbEntity
  8
0
  6
CONTINUOUS
 62
     7
100
AcDbVertex
100
AcDb2dVertex
 10
8.0913350303
 20
6.2209978141
 30
0.0
  0
VERTEX
  5
4BB
330
2F1
100
AcDbEntity
  8
0
  6
CONTINUOUS
 62
     7
100
AcDbVertex
100
AcDb2dVertex
 10
8.0817156499
 20
6.2424650439
 30
0.0
  0
VERTEX
  5
4BC
330
2F1
100
AcDbEntity
  8
0
  6
CONTINUOUS
 62
     7
100
AcDbVertex
100
AcDb2dVertex
 10
8.0734402768
 20
6.265295235
 30
0.0
  0
VERTEX
  5
4BD
330
2F1
100
AcDbEntity
  8
0
  6
CONTINUOUS
 62
     7
100
AcDbVertex
100
AcDb2dVertex
 10
8.0665356078
 20
6.2894147363
 30
0.0
  0
VERTEX
  5
4BE
330
2F1
100
AcDbEntity
  8
0
  6
CONTINUOUS
 62
     7
100
AcDbVertex
100
AcDb2dVertex
 10
8.0610239178
 20
6.3147457372
 30
0.0
  0
VERTEX
  5
4BF
330
2F1
100
AcDbEntity
  8
0
  6
CONTINUOUS
 62
     7
100
AcDbVertex
100
AcDb2dVertex
 10
8.0569229876
 20
6.3412065186
 30
0.0
  0
VERTEX
  5
4C0
330
2F1
100
AcDbEntity
  8
0
  6
CONTINUOUS
 62
     7
100
AcDbVertex
100
AcDb2dVertex
 10
8.054246047
 20
6.3687117168
 30
0.0
  0
VERTEX
  5
4C1
330
2F1
100
AcDbEntity
  8
0
  6
CONTINUOUS
 62
     7
100
AcDbVertex
100
AcDb2dVertex
 10
8.0530017321
 20
6.3971725989
 30
0.0
  0
VERTEX
  5
4C2
330
2F1
100
AcDbEntity
  8
0
  6
CONTINUOUS
 62
     7
100
AcDbVertex
100
AcDb2dVertex
 10
8.0531940569
 20
6.4264973487
 30
0.0
  0
VERTEX
  5
4C3
330
2F1
100
AcDbEntity
  8
0
  6
CONTINUOUS
 62
     7
100
AcDbVertex
100
AcDb2dVertex
 10
8.0548224011
 20
6.4565913631
 30
0.0
  0
VERTEX
  5
4C4
330
2F1
100
AcDbEntity
  8
0
  6
CONTINUOUS
 62
     7
100
AcDbVertex
100
AcDb2dVertex
 10
8.0578815116
 20
6.4873575576
 30
0.0
  0
VERTEX
  5
4C5
330
2F1
100
AcDbEntity
  8
0
  6
CONTINUOUS
 62
     7
100
AcDbVertex
100
AcDb2dVertex
 10
8.0623615194
 20
6.5186966789
 30
0.0
  0
VERTEX
  5
4C6
330
2F1
100
AcDbEntity
  8
0
  6
CONTINUOUS
 62
     7
100
AcDbVertex
100
AcDb2dVertex
 10
8.068247972
 20
6.5505076256
 30
0.0
  0
VERTEX
  5
4C7
330
2F1
100
AcDbEntity
  8
0
  6
CONTINUOUS
 62
     7
100
AcDbVertex
100
AcDb2dVertex
 10
8.0755218793
 20
6.5826877741
 30
0.0
  0
VERTEX
  5
4C8
330
2F1
100
AcDbEntity
  8
0
  6
CONTINUOUS
 62
     7
100
AcDbVertex
100
AcDb2dVertex
 10
8.0841597753
 20
6.6151333098
 30
0.0
  0
VERTEX
  5
4C9
330
2F1
100
AcDbEntity
  8
0
  6
CONTINUOUS
 62
     7
100
AcDbVertex
100
AcDb2dVertex
 10
8.0941337939
 20
6.6477395618
 30
0.0
  0
VERTEX
  5
4CA
330
2F1
100
AcDbEntity
  8
0
  6
CONTINUOUS
 62
     7
100
AcDbVertex
100
AcDb2dVertex
 10
8.1054117583
 20
6.6804013409
 30
0.0
  0
VERTEX
  5
4CB
330
2F1
100
AcDbEntity
  8
0
  6
CONTINUOUS
 62
     7
100
AcDbVertex
100
AcDb2dVertex
 10
8.1179572854
 20
6.7130132787
 30
0.0
  0
VERTEX
  5
4CC
330
2F1
100
AcDbEntity
  8
0
  6
CONTINUOUS
 62
     7
100
AcDbVertex
100
AcDb2dVertex
 10
8.1317299026
 20
6.7454701676
 30
0.0
  0
VERTEX
  5
4CD
330
2F1
100
AcDbEntity
  8
0
  6
CONTINUOUS
 62
     7
100
AcDbVertex
100
AcDb2dVertex
 10
8.146685179
 20
6.7776673
 30
0.0
  0
VERTEX
  5
4CE
330
2F1
100
AcDbEntity
  8
0
  6
CONTINUOUS
 62
     7
100
AcDbVertex
100
AcDb2dVertex
 10
8.162774868
 20
6.8095008067
 30
0.0
  0
VERTEX
  5
4CF
330
2F1
100
AcDbEntity
  8
0
  6
CONTINUOUS
 62
     7
100
AcDbVertex
100
AcDb2dVertex
 10
8.1799470636
 20
6.8408679912
 30
0.0
  0
VERTEX
  5
4D0
330
2F1
100
AcDbEntity
  8
0
  6
CONTINUOUS
 62
     7
100
AcDbVertex
100
AcDb2dVertex
 10
8.1981463675
 20
6.8716676615
 30
0.0
  0
VERTEX
  5
4D1
330
2F1
100
AcDbEntity
  8
0
  6
CONTINUOUS
 62
     7
100
AcDbVertex
100
AcDb2dVertex
 10
8.2173140679
 20
6.9018004565
 30
0.0
  0
VERTEX
  5
4D2
330
2F1
100
AcDbEntity
  8
0
  6
CONTINUOUS
 62
     7
100
AcDbVertex
100
AcDb2dVertex
 10
8.2373883289
 20
6.9311691664
 30
0.0
  0
VERTEX
  5
4D3
330
2F1
100
AcDbEntity
  8
0
  6
CONTINUOUS
 62
     7
100
AcDbVertex
100
AcDb2dVertex
 10
8.2583043901
 20
6.9596790464
 30
0.0
  0
SEQEND
  5
4D4
330
2F1
100
AcDbEntity
  8
0
  6
CONTINUOUS
 62
     7
  0
ARC
  5
2F2
330
1F
100
AcDbEntity
  8
0
  6
CONTINUOUS
 62
     7
100
AcDbCircle
 10
8.7058038403
 20
7.0241715576
 30
0.0
 40
0.2150686130891409
100
AcDbArc
 50
55.7408922187
 51
79.7628388919
  0
LINE
  5
2F3
330
1F
100
AcDbEntity
  8
0
  6
CONTINUOUS
 62
     7
100
AcDbLine
 10
7.5978620517
 20
6.4720985921
 30
0.0
 11
7.4772270365
 21
6.541739704
 31
0.0
  0
POLYLINE
  5
2F4
330
1F
100
AcDbEntity
  8
0
  6
CONTINUOUS
 62
     7
100
AcDb2dPolyline
 66
     1
 10
0.0
 20
0.0
 30
0.0
  0
VERTEX
  5
4D5
330
2F4
100
AcDbEntity
  8
0
  6
CONTINUOUS
 62
     7
100
AcDbVertex
100
AcDb2dVertex
 10
7.5941694774
 20
7.0308608642
 30
0.0
  0
VERTEX
  5
4D6
330
2F4
100
AcDbEntity
  8
0
  6
CONTINUOUS
 62
     7
100
AcDbVertex
100
AcDb2dVertex
 10
7.5809589946
 20
6.9978002152
 30
0.0
  0
VERTEX
  5
4D7
330
2F4
100
AcDbEntity
  8
0
  6
CONTINUOUS
 62
     7
100
AcDbVertex
100
AcDb2dVertex
 10
7.5690399715
 20
6.9646481368
 30
0.0
  0
VERTEX
  5
4D8
330
2F4
100
AcDbEntity
  8
0
  6
CONTINUOUS
 62
     7
100
AcDbVertex
100
AcDb2dVertex
 10
7.5584520366
 20
6.9315148537
 30
0.0
  0
VERTEX
  5
4D9
330
2F4
100
AcDbEntity
  8
0
  6
CONTINUOUS
 62
     7
100
AcDbVertex
100
AcDb2dVertex
 10
7.5492303931
 20
6.8985105282
 30
0.0
  0
VERTEX
  5
4DA
330
2F4
100
AcDbEntity
  8
0
  6
CONTINUOUS
 62
     7
100
AcDbVertex
100
AcDb2dVertex
 10
7.5414057011
 20
6.8657448937
 30
0.0
  0
VERTEX
  5
4DB
330
2F4
100
AcDbEntity
  8
0
  6
CONTINUOUS
 62
     7
100
AcDbVertex
100
AcDb2dVertex
 10
7.5350039764
 20
6.8333268901
 30
0.0
  0
VERTEX
  5
4DC
330
2F4
100
AcDbEntity
  8
0
  6
CONTINUOUS
 62
     7
100
AcDbVertex
100
AcDb2dVertex
 10
7.5300465035
 20
6.8013643015
 30
0.0
  0
VERTEX
  5
4DD
330
2F4
100
AcDbEntity
  8
0
  6
CONTINUOUS
 62
     7
100
AcDbVertex
100
AcDb2dVertex
 10
7.5265497652
 20
6.7699633977
 30
0.0
  0
VERTEX
  5
4DE
330
2F4
100
AcDbEntity
  8
0
  6
CONTINUOUS
 62
     7
100
AcDbVertex
100
AcDb2dVertex
 10
7.5245253876
 20
6.7392285811
 30
0.0
  0
VERTEX
  5
4DF
330
2F4
100
AcDbEntity
  8
0
  6
CONTINUOUS
 62
     7
100
AcDbVertex
100
AcDb2dVertex
 10
7.5239801012
 20
6.7092620395
 30
0.0
  0
VERTEX
  5
4E0
330
2F4
100
AcDbEntity
  8
0
  6
CONTINUOUS
 62
     7
100
AcDbVertex
100
AcDb2dVertex
 10
7.5249157191
 20
6.6801634063
 30
0.0
  0
VERTEX
  5
4E1
330
2F4
100
AcDbEntity
  8
0
  6
CONTINUOUS
 62
     7
100
AcDbVertex
100
AcDb2dVertex
 10
7.5273291306
 20
6.6520294292
 30
0.0
  0
VERTEX
  5
4E2
330
2F4
100
AcDbEntity
  8
0
  6
CONTINUOUS
 62
     7
100
AcDbVertex
100
AcDb2dVertex
 10
7.5312123114
 20
6.6249536487
 30
0.0
  0
VERTEX
  5
4E3
330
2F4
100
AcDbEntity
  8
0
  6
CONTINUOUS
 62
     7
100
AcDbVertex
100
AcDb2dVertex
 10
7.5365523506
 20
6.5990260869
 30
0.0
  0
VERTEX
  5
4E4
330
2F4
100
AcDbEntity
  8
0
  6
CONTINUOUS
 62
     7
100
AcDbVertex
100
AcDb2dVertex
 10
7.5433314937
 20
6.5743329483
 30
0.0
  0
VERTEX
  5
4E5
330
2F4
100
AcDbEntity
  8
0
  6
CONTINUOUS
 62
     7
100
AcDbVertex
100
AcDb2dVertex
 10
7.5515272011
 20
6.5509563331
 30
0.0
  0
VERTEX
  5
4E6
330
2F4
100
AcDbEntity
  8
0
  6
CONTINUOUS
 62
     7
100
AcDbVertex
100
AcDb2dVertex
 10
7.5611122237
 20
6.5289739644
 30
0.0
  0
VERTEX
  5
4E7
330
2F4
100
AcDbEntity
  8
0
  6
CONTINUOUS
 62
     7
100
AcDbVertex
100
AcDb2dVertex
 10
7.5720546928
 20
6.5084589297
 30
0.0
  0
VERTEX
  5
4E8
330
2F4
100
AcDbEntity
  8
0
  6
CONTINUOUS
 62
     7
100
AcDbVertex
100
AcDb2dVertex
 10
7.5843182268
 20
6.4894794378
 30
0.0
  0
VERTEX
  5
4E9
330
2F4
100
AcDbEntity
  8
0
  6
CONTINUOUS
 62
     7
100
AcDbVertex
100
AcDb2dVertex
 10
7.5978620517
 20
6.4720985921
 30
0.0
  0
SEQEND
  5
4EA
330
2F4
100
AcDbEntity
  8
0
  6
CONTINUOUS
 62
     7
  0
LINE
  5
2F5
330
1F
100
AcDbEntity
  8
0
  6
CONTINUOUS
 62
     7
100
AcDbLine
 10
7.4735344622
 20
7.1005019761
 30
0.0
 11
7.5941694774
 21
7.0308608642
 31
0.0
  0
POLYLINE
  5
2F6
330
1F
100
AcDbEntity
  8
0
  6
CONTINUOUS
 62
     7
100
AcDb2dPolyline
 66
     1
 10
0.0
 20
0.0
 30
0.0
  0
VERTEX
  5
4EB
330
2F6
100
AcDbEntity
  8
0
  6
CONTINUOUS
 62
     7
100
AcDbVertex
100
AcDb2dVertex
 10
8.1636888436
 20
7.5854848711
 30
0.0
  0
VERTEX
  5
4EC
330
2F6
100
AcDbEntity
  8
0
  6
CONTINUOUS
 62
     7
100
AcDbVertex
100
AcDb2dVertex
 10
8.1553811119
 20
7.5900342555
 30
0.0
  0
VERTEX
  5
4ED
330
2F6
100
AcDbEntity
  8
0
  6
CONTINUOUS
 62
     7
100
AcDbVertex
100
AcDb2dVertex
 10
8.1365435755
 20
7.5986609267
 30
0.0
  0
VERTEX
  5
4EE
330
2F6
100
AcDbEntity
  8
0
  6
CONTINUOUS
 62
     7
100
AcDbVertex
100
AcDb2dVertex
 10
8.1167776159
 20
7.6054851457
 30
0.0
  0
VERTEX
  5
4EF
330
2F6
100
AcDbEntity
  8
0
  6
CONTINUOUS
 62
     7
100
AcDbVertex
100
AcDb2dVertex
 10
8.0961469992
 20
7.6104848973
 30
0.0
  0
VERTEX
  5
4F0
330
2F6
100
AcDbEntity
  8
0
  6
CONTINUOUS
 62
     7
100
AcDbVertex
100
AcDb2dVertex
 10
8.0747182806
 20
7.613644052
 30
0.0
  0
VERTEX
  5
4F1
330
2F6
100
AcDbEntity
  8
0
  6
CONTINUOUS
 62
     7
100
AcDbVertex
100
AcDb2dVertex
 10
8.0525605901
 20
7.6149524183
 30
0.0
  0
VERTEX
  5
4F2
330
2F6
100
AcDbEntity
  8
0
  6
CONTINUOUS
 62
     7
100
AcDbVertex
100
AcDb2dVertex
 10
8.0297454096
 20
7.6144057753
 30
0.0
  0
VERTEX
  5
4F3
330
2F6
100
AcDbEntity
  8
0
  6
CONTINUOUS
 62
     7
100
AcDbVertex
100
AcDb2dVertex
 10
8.0063463418
 20
7.6120058864
 30
0.0
  0
VERTEX
  5
4F4
330
2F6
100
AcDbEntity
  8
0
  6
CONTINUOUS
 62
     7
100
AcDbVertex
100
AcDb2dVertex
 10
7.9824388732
 20
7.607760494
 30
0.0
  0
VERTEX
  5
4F5
330
2F6
100
AcDbEntity
  8
0
  6
CONTINUOUS
 62
     7
100
AcDbVertex
100
AcDb2dVertex
 10
7.9581001304
 20
7.6016832937
 30
0.0
  0
VERTEX
  5
4F6
330
2F6
100
AcDbEntity
  8
0
  6
CONTINUOUS
 62
     7
100
AcDbVertex
100
AcDb2dVertex
 10
7.9334086313
 20
7.5937938909
 30
0.0
  0
VERTEX
  5
4F7
330
2F6
100
AcDbEntity
  8
0
  6
CONTINUOUS
 62
     7
100
AcDbVertex
100
AcDb2dVertex
 10
7.9084440318
 20
7.5841177373
 30
0.0
  0
VERTEX
  5
4F8
330
2F6
100
AcDbEntity
  8
0
  6
CONTINUOUS
 62
     7
100
AcDbVertex
100
AcDb2dVertex
 10
7.883286869
 20
7.5726860484
 30
0.0
  0
VERTEX
  5
4F9
330
2F6
100
AcDbEntity
  8
0
  6
CONTINUOUS
 62
     7
100
AcDbVertex
100
AcDb2dVertex
 10
7.8580183009
 20
7.5595357035
 30
0.0
  0
VERTEX
  5
4FA
330
2F6
100
AcDbEntity
  8
0
  6
CONTINUOUS
 62
     7
100
AcDbVertex
100
AcDb2dVertex
 10
7.8327198451
 20
7.5447091262
 30
0.0
  0
VERTEX
  5
4FB
330
2F6
100
AcDbEntity
  8
0
  6
CONTINUOUS
 62
     7
100
AcDbVertex
100
AcDb2dVertex
 10
7.8074731156
 20
7.5282541477
 30
0.0
  0
VERTEX
  5
4FC
330
2F6
100
AcDbEntity
  8
0
  6
CONTINUOUS
 62
     7
100
AcDbVertex
100
AcDb2dVertex
 10
7.7823595595
 20
7.5102238526
 30
0.0
  0
VERTEX
  5
4FD
330
2F6
100
AcDbEntity
  8
0
  6
CONTINUOUS
 62
     7
100
AcDbVertex
100
AcDb2dVertex
 10
7.7574601944
 20
7.4906764073
 30
0.0
  0
VERTEX
  5
4FE
330
2F6
100
AcDbEntity
  8
0
  6
CONTINUOUS
 62
     7
100
AcDbVertex
100
AcDb2dVertex
 10
7.7328553467
 20
7.4696748729
 30
0.0
  0
VERTEX
  5
4FF
330
2F6
100
AcDbEntity
  8
0
  6
CONTINUOUS
 62
     7
100
AcDbVertex
100
AcDb2dVertex
 10
7.7086243928
 20
7.4472870014
 30
0.0
  0
VERTEX
  5
500
330
2F6
100
AcDbEntity
  8
0
  6
CONTINUOUS
 62
     7
100
AcDbVertex
100
AcDb2dVertex
 10
7.6848455028
 20
7.4235850169
 30
0.0
  0
VERTEX
  5
501
330
2F6
100
AcDbEntity
  8
0
  6
CONTINUOUS
 62
     7
100
AcDbVertex
100
AcDb2dVertex
 10
7.6615953887
 20
7.3986453831
 30
0.0
  0
VERTEX
  5
502
330
2F6
100
AcDbEntity
  8
0
  6
CONTINUOUS
 62
     7
100
AcDbVertex
100
AcDb2dVertex
 10
7.6389490563
 20
7.3725485566
 30
0.0
  0
VERTEX
  5
503
330
2F6
100
AcDbEntity
  8
0
  6
CONTINUOUS
 62
     7
100
AcDbVertex
100
AcDb2dVertex
 10
7.6169795637
 20
7.3453787269
 30
0.0
  0
VERTEX
  5
504
330
2F6
100
AcDbEntity
  8
0
  6
CONTINUOUS
 62
     7
100
AcDbVertex
100
AcDb2dVertex
 10
7.5957577855
 20
7.3172235451
 30
0.0
  0
VERTEX
  5
505
330
2F6
100
AcDbEntity
  8
0
  6
CONTINUOUS
 62
     7
100
AcDbVertex
100
AcDb2dVertex
 10
7.5753521842
 20
7.2881738411
 30
0.0
  0
VERTEX
  5
506
330
2F6
100
AcDbEntity
  8
0
  6
CONTINUOUS
 62
     7
100
AcDbVertex
100
AcDb2dVertex
 10
7.5558285892
 20
7.2583233306
 30
0.0
  0
VERTEX
  5
507
330
2F6
100
AcDbEntity
  8
0
  6
CONTINUOUS
 62
     7
100
AcDbVertex
100
AcDb2dVertex
 10
7.5372499845
 20
7.2277683127
 30
0.0
  0
VERTEX
  5
508
330
2F6
100
AcDbEntity
  8
0
  6
CONTINUOUS
 62
     7
100
AcDbVertex
100
AcDb2dVertex
 10
7.5196763056
 20
7.1966073594
 30
0.0
  0
VERTEX
  5
509
330
2F6
100
AcDbEntity
  8
0
  6
CONTINUOUS
 62
     7
100
AcDbVertex
100
AcDb2dVertex
 10
7.5031642459
 20
7.1649409972
 30
0.0
  0
VERTEX
  5
50A
330
2F6
100
AcDbEntity
  8
0
  6
CONTINUOUS
 62
     7
100
AcDbVertex
100
AcDb2dVertex
 10
7.4877670741
 20
7.1328713835
 30
0.0
  0
VERTEX
  5
50B
330
2F6
100
AcDbEntity
  8
0
  6
CONTINUOUS
 62
     7
100
AcDbVertex
100
AcDb2dVertex
 10
7.4735344622
 20
7.1005019761
 30
0.0
  0
SEQEND
  5
50C
330
2F6
100
AcDbEntity
  8
0
  6
CONTINUOUS
 62
     7
  0
ARC
  5
2F7
330
1F
100
AcDbEntity
  8
0
  6
CONTINUOUS
 62
     7
100
AcDbCircle
 10
7.6427833697
 20
6.682155166
 30
0.0
 40
0.2170838581132756
100
AcDbArc
 50
220.302713673
 51
239.8711029134
  0
SPLINE
  5
2F8
330
1F
100
AcDbEntity
  8
0
  6
CONTINUOUS
 62
     7
100
AcDbSpline
210
0.0
220
0.0
230
1.0
 70
     8
 71
     3
 72
     8
 73
     4
 74
     0
 42
0.00000001
 43
0.00000001
 40
0.0
 40
0.0
 40
0.0
 40
0.0
 40
0.0001099959787387
 40
0.0001099959787387
 40
0.0001099959787387
 40
0.0001099959787387
 10
8.29949544808228
 20
6.935896705890304
 30
0.0
 10
8.300816719350415
 20
6.933336922816086
 30
0.0
 10
8.302136593616545
 20
6.930776575200756
 30
0.0
 10
8.303455020714399
 20
6.928215650639568
 30
0.0
  0
ARC
  5
2F9
330
1F
100
AcDbEntity
  8
0
  6
CONTINUOUS
 62
     7
100
AcDbCircle
 10
9.0058093497
 20
6.3685216483
 30
0.0
 40
0.8980862874498937
100
AcDbArc
 50
141.44926546
 51
177.4923597722
  0
SPLINE
  5
2FA
330
1F
100
AcDbEntity
  8
0
  6
CONTINUOUS
 62
     7
100
AcDbSpline
210
0.0
220
0.0
230
1.0
 70
     8
 71
     3
 72
     8
 73
     4
 74
     0
 42
0.00000001
 43
0.00000001
 40
0.0
 40
0.0
 40
0.0
 40
0.0
 40
0.0006142430572494
 40
0.0006142430572494
 40
0.0006142430572494
 40
0.0006142430572494
 10
8.258304390077539
 20
6.959679046360897
 30
0.0
 10
8.272036474461176
 20
6.95175060056323
 30
0.0
 10
8.285766934761305
 20
6.943823091646641
 30
0.0
 10
8.29949544808228
 20
6.935896705890304
 30
0.0
  0
LINE
  5
2FB
330
1F
100
AcDbEntity
  8
0
  6
CONTINUOUS
 62
     7
100
AcDbLine
 10
8.623391472
 20
7.3054575079
 30
0.0
 11
8.6182340607
 21
7.2766501241
 31
0.0
  0
LINE
  5
2FC
330
1F
100
AcDbEntity
  8
0
  6
CONTINUOUS
 62
     7
100
AcDbLine
 10
8.7440264872
 20
7.235816396
 30
0.0
 11
8.7423841001
 21
7.2266426317
 31
0.0
  0
SPLINE
  5
2FD
330
1F
100
AcDbEntity
  8
0
  6
CONTINUOUS
 62
     7
100
AcDbSpline
210
0.0
220
0.0
230
1.0
 70
     8
 71
     3
 72
     8
 73
     4
 74
     0
 42
0.00000001
 43
0.00000001
 40
0.0
 40
0.0
 40
0.0
 40
0.0
 40
0.0001099959787388
 40
0.0001099959787388
 40
0.0001099959787388
 40
0.0001099959787388
 10
7.466966966160961
 20
7.104290062053389
 30
0.0
 10
7.467201883709158
 20
7.105951184402168
 30
0.0
 10
7.467439385527304
 20
7.107612185674053
 30
0.0
 10
7.467679557602979
 20
7.109273057587869
 30
0.0
  0
ARC
  5
2FE
330
1F
100
AcDbEntity
  8
0
  6
CONTINUOUS
 62
     7
100
AcDbCircle
 10
8.3035288432
 20
6.7808845166
 30
0.0
 40
0.8980440200924303
100
AcDbArc
 50
122.5123353411
 51
158.5511247902
  0
SPLINE
  5
2FF
330
1F
100
AcDbEntity
  8
0
  6
CONTINUOUS
 62
     7
100
AcDbSpline
210
0.0
220
0.0
230
1.0
 70
     8
 71
     3
 72
     8
 73
     4
 74
     0
 42
0.00000001
 43
0.00000001
 40
0.0
 40
0.0
 40
0.0
 40
0.0
 40
0.0006142430572494
 40
0.0006142430572494
 40
0.0006142430572494
 40
0.0006142430572494
 10
7.466966966160961
 20
7.104290062053389
 30
0.0
 10
7.469146135292312
 20
7.103033138202239
 30
0.0
 10
7.471335850598014
 20
7.101770125367337
 30
0.0
 10
7.473534462198016
 20
7.10050197612868
 30
0.0
  0
SPLINE
  5
300
330
1F
100
AcDbEntity
  8
0
  6
CONTINUOUS
 62
     7
100
AcDbSpline
210
0.0
220
0.0
230
1.0
 70
     8
 71
     3
 72
     8
 73
     4
 74
     0
 42
0.00000001
 43
0.00000001
 40
0.0
 40
0.0
 40
0.0
 40
0.0
 40
0.0006142430572494
 40
0.0006142430572494
 40
0.0006142430572494
 40
0.0006142430572494
 10
7.587601981324021
 20
7.034648950152501
 30
0.0
 10
7.58978115045537
 20
7.033392026301352
 30
0.0
 10
7.591970865761072
 20
7.03212901346645
 30
0.0
 10
7.594169477361074
 20
7.030860864227792
 30
0.0
  0
ARC
  5
301
330
1F
100
AcDbEntity
  8
0
  6
CONTINUOUS
 62
     7
100
AcDbCircle
 10
8.3001853305
 20
6.7295943602
 30
0.0
 40
0.7763771118961208
100
AcDbArc
 50
156.8134210512
 51
178.8403594739
  0
LINE
  5
302
330
1F
100
AcDbEntity
  8
0
  6
CONTINUOUS
 62
     7
100
AcDbLine
 10
7.5876019813
 20
7.0346489502
 30
0.0
 11
7.4669669662
 21
7.1042900621
 31
0.0
  0
LINE
  5
303
330
1F
100
AcDbEntity
  8
0
  6
CONTINUOUS
 62
     7
100
AcDbLine
 10
7.4772270365
 20
6.541739704
 30
0.0
 11
7.4738060643
 21
6.5538434661
 31
0.0
  0
POLYLINE
  5
304
330
1F
100
AcDbEntity
  8
0
  6
CONTINUOUS
 62
     7
100
AcDb2dPolyline
 66
     1
 10
0.0
 20
0.0
 30
0.0
  0
VERTEX
  5
50D
330
304
100
AcDbEntity
  8
0
  6
CONTINUOUS
 62
     7
100
AcDbVertex
100
AcDb2dVertex
 10
8.4519288855
 20
6.6596625868
 30
0.0
  0
VERTEX
  5
50E
330
304
100
AcDbEntity
  8
0
  6
CONTINUOUS
 62
     7
100
AcDbVertex
100
AcDb2dVertex
 10
8.4653482884
 20
6.652753772
 30
0.0
  0
VERTEX
  5
50F
330
304
100
AcDbEntity
  8
0
  6
CONTINUOUS
 62
     7
100
AcDbVertex
100
AcDb2dVertex
 10
8.4800444367
 20
6.6467730658
 30
0.0
  0
VERTEX
  5
510
330
304
100
AcDbEntity
  8
0
  6
CONTINUOUS
 62
     7
100
AcDbVertex
100
AcDb2dVertex
 10
8.4958257437
 20
6.6417984358
 30
0.0
  0
VERTEX
  5
511
330
304
100
AcDbEntity
  8
0
  6
CONTINUOUS
 62
     7
100
AcDbVertex
100
AcDb2dVertex
 10
8.512486476
 20
6.637894734
 30
0.0
  0
VERTEX
  5
512
330
304
100
AcDbEntity
  8
0
  6
CONTINUOUS
 62
     7
100
AcDbVertex
100
AcDb2dVertex
 10
8.5298094354
 20
6.635112851
 30
0.0
  0
VERTEX
  5
513
330
304
100
AcDbEntity
  8
0
  6
CONTINUOUS
 62
     7
100
AcDbVertex
100
AcDb2dVertex
 10
8.5475687906
 20
6.6334890529
 30
0.0
  0
VERTEX
  5
514
330
304
100
AcDbEntity
  8
0
  6
CONTINUOUS
 62
     7
100
AcDbVertex
100
AcDb2dVertex
 10
8.5655330214
 20
6.6330445084
 30
0.0
  0
VERTEX
  5
515
330
304
100
AcDbEntity
  8
0
  6
CONTINUOUS
 62
     7
100
AcDbVertex
100
AcDb2dVertex
 10
8.5834679364
 20
6.633785013
 30
0.0
  0
VERTEX
  5
516
330
304
100
AcDbEntity
  8
0
  6
CONTINUOUS
 62
     7
100
AcDbVertex
100
AcDb2dVertex
 10
8.6011397266
 20
6.6357009128
 30
0.0
  0
VERTEX
  5
517
330
304
100
AcDbEntity
  8
0
  6
CONTINUOUS
 62
     7
100
AcDbVertex
100
AcDb2dVertex
 10
8.6183180132
 20
6.6387672314
 30
0.0
  0
VERTEX
  5
518
330
304
100
AcDbEntity
  8
0
  6
CONTINUOUS
 62
     7
100
AcDbVertex
100
AcDb2dVertex
 10
8.634778851
 20
6.6429439944
 30
0.0
  0
VERTEX
  5
519
330
304
100
AcDbEntity
  8
0
  6
CONTINUOUS
 62
     7
100
AcDbVertex
100
AcDb2dVertex
 10
8.6503076478
 20
6.6481767514
 30
0.0
  0
VERTEX
  5
51A
330
304
100
AcDbEntity
  8
0
  6
CONTINUOUS
 62
     7
100
AcDbVertex
100
AcDb2dVertex
 10
8.664701962
 20
6.6543972855
 30
0.0
  0
VERTEX
  5
51B
330
304
100
AcDbEntity
  8
0
  6
CONTINUOUS
 62
     7
100
AcDbVertex
100
AcDb2dVertex
 10
8.6777741416
 20
6.6615245025
 30
0.0
  0
VERTEX
  5
51C
330
304
100
AcDbEntity
  8
0
  6
CONTINUOUS
 62
     7
100
AcDbVertex
100
AcDb2dVertex
 10
8.6893537709
 20
6.6694654881
 30
0.0
  0
VERTEX
  5
51D
330
304
100
AcDbEntity
  8
0
  6
CONTINUOUS
 62
     7
100
AcDbVertex
100
AcDb2dVertex
 10
8.6992898916
 20
6.6781167195
 30
0.0
  0
VERTEX
  5
51E
330
304
100
AcDbEntity
  8
0
  6
CONTINUOUS
 62
     7
100
AcDbVertex
100
AcDb2dVertex
 10
8.7074529712
 20
6.6873654146
 30
0.0
  0
VERTEX
  5
51F
330
304
100
AcDbEntity
  8
0
  6
CONTINUOUS
 62
     7
100
AcDbVertex
100
AcDb2dVertex
 10
8.7137365915
 20
6.6970910026
 30
0.0
  0
VERTEX
  5
520
330
304
100
AcDbEntity
  8
0
  6
CONTINUOUS
 62
     7
100
AcDbVertex
100
AcDb2dVertex
 10
8.7180588359
 20
6.7071666956
 30
0.0
  0
VERTEX
  5
521
330
304
100
AcDbEntity
  8
0
  6
CONTINUOUS
 62
     7
100
AcDbVertex
100
AcDb2dVertex
 10
8.7203633573
 20
6.7174611415
 30
0.0
  0
VERTEX
  5
522
330
304
100
AcDbEntity
  8
0
  6
CONTINUOUS
 62
     7
100
AcDbVertex
100
AcDb2dVertex
 10
8.7206201128
 20
6.7278401364
 30
0.0
  0
VERTEX
  5
523
330
304
100
AcDbEntity
  8
0
  6
CONTINUOUS
 62
     7
100
AcDbVertex
100
AcDb2dVertex
 10
8.7188257551
 20
6.7381683743
 30
0.0
  0
VERTEX
  5
524
330
304
100
AcDbEntity
  8
0
  6
CONTINUOUS
 62
     7
100
AcDbVertex
100
AcDb2dVertex
 10
8.7150036765
 20
6.7483112108
 30
0.0
  0
VERTEX
  5
525
330
304
100
AcDbEntity
  8
0
  6
CONTINUOUS
 62
     7
100
AcDbVertex
100
AcDb2dVertex
 10
8.7092037036
 20
6.7581364184
 30
0.0
  0
VERTEX
  5
526
330
304
100
AcDbEntity
  8
0
  6
CONTINUOUS
 62
     7
100
AcDbVertex
100
AcDb2dVertex
 10
8.7015014479
 20
6.7675159107
 30
0.0
  0
VERTEX
  5
527
330
304
100
AcDbEntity
  8
0
  6
CONTINUOUS
 62
     7
100
AcDbVertex
100
AcDb2dVertex
 10
8.69199732
 20
6.7763274116
 30
0.0
  0
VERTEX
  5
528
330
304
100
AcDbEntity
  8
0
  6
CONTINUOUS
 62
     7
100
AcDbVertex
100
AcDb2dVertex
 10
8.680815221
 20
6.7844560497
 30
0.0
  0
VERTEX
  5
529
330
304
100
AcDbEntity
  8
0
  6
CONTINUOUS
 62
     7
100
AcDbVertex
100
AcDb2dVertex
 10
8.6681009264
 20
6.7917958557
 30
0.0
  0
VERTEX
  5
52A
330
304
100
AcDbEntity
  8
0
  6
CONTINUOUS
 62
     7
100
AcDbVertex
100
AcDb2dVertex
 10
8.6540201866
 20
6.7982511441
 30
0.0
  0
VERTEX
  5
52B
330
304
100
AcDbEntity
  8
0
  6
CONTINUOUS
 62
     7
100
AcDbVertex
100
AcDb2dVertex
 10
8.6387565655
 20
6.8037377603
 30
0.0
  0
VERTEX
  5
52C
330
304
100
AcDbEntity
  8
0
  6
CONTINUOUS
 62
     7
100
AcDbVertex
100
AcDb2dVertex
 10
8.6225090478
 20
6.8081841779
 30
0.0
  0
VERTEX
  5
52D
330
304
100
AcDbEntity
  8
0
  6
CONTINUOUS
 62
     7
100
AcDbVertex
100
AcDb2dVertex
 10
8.6054894448
 20
6.811532431
 30
0.0
  0
VERTEX
  5
52E
330
304
100
AcDbEntity
  8
0
  6
CONTINUOUS
 62
     7
100
AcDbVertex
100
AcDb2dVertex
 10
8.587919633
 20
6.81373887
 30
0.0
  0
VERTEX
  5
52F
330
304
100
AcDbEntity
  8
0
  6
CONTINUOUS
 62
     7
100
AcDbVertex
100
AcDb2dVertex
 10
8.5700286617
 20
6.8147747306
 30
0.0
  0
VERTEX
  5
530
330
304
100
AcDbEntity
  8
0
  6
CONTINUOUS
 62
     7
100
AcDbVertex
100
AcDb2dVertex
 10
8.5520497671
 20
6.8146265089
 30
0.0
  0
VERTEX
  5
531
330
304
100
AcDbEntity
  8
0
  6
CONTINUOUS
 62
     7
100
AcDbVertex
100
AcDb2dVertex
 10
8.5342173316
 20
6.813296137
 30
0.0
  0
VERTEX
  5
532
330
304
100
AcDbEntity
  8
0
  6
CONTINUOUS
 62
     7
100
AcDbVertex
100
AcDb2dVertex
 10
8.5167638284
 20
6.8108009584
 30
0.0
  0
VERTEX
  5
533
330
304
100
AcDbEntity
  8
0
  6
CONTINUOUS
 62
     7
100
AcDbVertex
100
AcDb2dVertex
 10
8.4999167904
 20
6.8071735016
 30
0.0
  0
VERTEX
  5
534
330
304
100
AcDbEntity
  8
0
  6
CONTINUOUS
 62
     7
100
AcDbVertex
100
AcDb2dVertex
 10
8.4838958446
 20
6.8024610561
 30
0.0
  0
VERTEX
  5
535
330
304
100
AcDbEntity
  8
0
  6
CONTINUOUS
 62
     7
100
AcDbVertex
100
AcDb2dVertex
 10
8.4689098485
 20
6.7967250557
 30
0.0
  0
VERTEX
  5
536
330
304
100
AcDbEntity
  8
0
  6
CONTINUOUS
 62
     7
100
AcDbVertex
100
AcDb2dVertex
 10
8.4551541675
 20
6.790040278
 30
0.0
  0
VERTEX
  5
537
330
304
100
AcDbEntity
  8
0
  6
CONTINUOUS
 62
     7
100
AcDbVertex
100
AcDb2dVertex
 10
8.4428081279
 20
6.7824938693
 30
0.0
  0
VERTEX
  5
538
330
304
100
AcDbEntity
  8
0
  6
CONTINUOUS
 62
     7
100
AcDbVertex
100
AcDb2dVertex
 10
8.4320326793
 20
6.7741842086
 30
0.0
  0
VERTEX
  5
539
330
304
100
AcDbEntity
  8
0
  6
CONTINUOUS
 62
     7
100
AcDbVertex
100
AcDb2dVertex
 10
8.4229682961
 20
6.7652196251
 30
0.0
  0
VERTEX
  5
53A
330
304
100
AcDbEntity
  8
0
  6
CONTINUOUS
 62
     7
100
AcDbVertex
100
AcDb2dVertex
 10
8.4157331463
 20
6.7557169856
 30
0.0
  0
VERTEX
  5
53B
330
304
100
AcDbEntity
  8
0
  6
CONTINUOUS
 62
     7
100
AcDbVertex
100
AcDb2dVertex
 10
8.4104215513
 20
6.7458001719
 30
0.0
  0
VERTEX
  5
53C
330
304
100
AcDbEntity
  8
0
  6
CONTINUOUS
 62
     7
100
AcDbVertex
100
AcDb2dVertex
 10
8.4071027558
 20
6.7355984645
 30
0.0
  0
VERTEX
  5
53D
330
304
100
AcDbEntity
  8
0
  6
CONTINUOUS
 62
     7
100
AcDbVertex
100
AcDb2dVertex
 10
8.4058200254
 20
6.7252448585
 30
0.0
  0
VERTEX
  5
53E
330
304
100
AcDbEntity
  8
0
  6
CONTINUOUS
 62
     7
100
AcDbVertex
100
AcDb2dVertex
 10
8.4065900824
 20
6.7148743288
 30
0.0
  0
VERTEX
  5
53F
330
304
100
AcDbEntity
  8
0
  6
CONTINUOUS
 62
     7
100
AcDbVertex
100
AcDb2dVertex
 10
8.4094028879
 20
6.7046220713
 30
0.0
  0
VERTEX
  5
540
330
304
100
AcDbEntity
  8
0
  6
CONTINUOUS
 62
     7
100
AcDbVertex
100
AcDb2dVertex
 10
8.4142217728
 20
6.6946217397
 30
0.0
  0
VERTEX
  5
541
330
304
100
AcDbEntity
  8
0
  6
CONTINUOUS
 62
     7
100
AcDbVertex
100
AcDb2dVertex
 10
8.4209839155
 20
6.6850037037
 30
0.0
  0
VERTEX
  5
542
330
304
100
AcDbEntity
  8
0
  6
CONTINUOUS
 62
     7
100
AcDbVertex
100
AcDb2dVertex
 10
8.4296011611
 20
6.675893349
 30
0.0
  0
VERTEX
  5
543
330
304
100
AcDbEntity
  8
0
  6
CONTINUOUS
 62
     7
100
AcDbVertex
100
AcDb2dVertex
 10
8.4399611706
 20
6.6674094432
 30
0.0
  0
VERTEX
  5
544
330
304
100
AcDbEntity
  8
0
  6
CONTINUOUS
 62
     7
100
AcDbVertex
100
AcDb2dVertex
 10
8.4519288855
 20
6.6596625868
 30
0.0
  0
SEQEND
  5
545
330
304
100
AcDbEntity
  8
0
  6
CONTINUOUS
 62
     7
  0
LINE
  5
305
330
1F
100
AcDbEntity
  8
0
  6
CONTINUOUS
 62
     7
100
AcDbLine
 10
8.3861189298
 20
6.7078730521
 30
0.0
 11
8.3861247097
 21
6.7086991934
 31
0.0
  0
ARC
  5
306
330
1F
100
AcDbEntity
  8
0
  6
CONTINUOUS
 62
     7
100
AcDbCircle
 10
8.5514001919
 20
6.6983813511
 30
0.0
 40
0.2364525974795314
100
AcDbArc
 50
241.3440149829
 51
262.6032484231
  0
ARC
  5
307
330
1F
100
AcDbEntity
  8
0
  6
CONTINUOUS
 62
     7
100
AcDbCircle
 10
8.4842971265
 20
6.582591289
 30
0.0
 40
0.1027207242967538
100
AcDbArc
 50
203.6116588755
 51
243.2167473148
  0
LINE
  5
308
330
1F
100
AcDbEntity
  8
0
  6
CONTINUOUS
 62
     7
100
AcDbLine
 10
8.6275753535
 20
6.7610611344
 30
0.0
 11
8.5397521195
 21
6.7746459639
 31
0.0
  0
LINE
  5
309
330
1F
100
AcDbEntity
  8
0
  6
CONTINUOUS
 62
     7
100
AcDbLine
 10
8.5397521195
 20
6.7746459639
 30
0.0
 11
8.4754610502
 21
6.7375315196
 31
0.0
  0
LINE
  5
30A
330
1F
100
AcDbEntity
  8
0
  6
CONTINUOUS
 62
     7
100
AcDbLine
 10
8.4754610502
 20
6.7375315196
 30
0.0
 11
8.4989932148
 21
6.6868322458
 31
0.0
  0
LINE
  5
30B
330
1F
100
AcDbEntity
  8
0
  6
CONTINUOUS
 62
     7
100
AcDbLine
 10
8.4989932148
 20
6.6868322458
 30
0.0
 11
8.5868164488
 21
6.6732474163
 31
0.0
  0
LINE
  5
30C
330
1F
100
AcDbEntity
  8
0
  6
CONTINUOUS
 62
     7
100
AcDbLine
 10
8.5868164488
 20
6.6732474163
 30
0.0
 11
8.6511075181
 21
6.7103618606
 31
0.0
  0
LINE
  5
30D
330
1F
100
AcDbEntity
  8
0
  6
CONTINUOUS
 62
     7
100
AcDbLine
 10
8.6511075181
 20
6.7103618606
 30
0.0
 11
8.6275753535
 21
6.7610611344
 31
0.0
  0
LINE
  5
30E
330
1F
100
AcDbEntity
  8
0
  6
CONTINUOUS
 62
     7
100
AcDbLine
 10
8.6275753535
 20
6.6967770312
 30
0.0
 11
8.6275753535
 21
6.7610611344
 31
0.0
  0
LINE
  5
30F
330
1F
100
AcDbEntity
  8
0
  6
CONTINUOUS
 62
     7
100
AcDbLine
 10
8.5397521195
 20
6.6805275045
 30
0.0
 11
8.5397521195
 21
6.7746459639
 31
0.0
  0
POLYLINE
  5
310
330
1F
100
AcDbEntity
  8
0
  6
CONTINUOUS
 62
     7
100
AcDb2dPolyline
 66
     1
 10
0.0
 20
0.0
 30
0.0
  0
VERTEX
  5
546
330
310
100
AcDbEntity
  8
0
  6
CONTINUOUS
 62
     7
100
AcDbVertex
100
AcDb2dVertex
 10
8.1494617648
 20
7.5929874538
 30
0.0
  0
VERTEX
  5
547
330
310
100
AcDbEntity
  8
0
  6
CONTINUOUS
 62
     7
100
AcDbVertex
100
AcDb2dVertex
 10
8.1449028873
 20
7.5960203457
 30
0.0
  0
VERTEX
  5
548
330
310
100
AcDbEntity
  8
0
  6
CONTINUOUS
 62
     7
100
AcDbVertex
100
AcDb2dVertex
 10
8.1265818046
 20
7.6066003198
 30
0.0
  0
VERTEX
  5
549
330
310
100
AcDbEntity
  8
0
  6
CONTINUOUS
 62
     7
100
AcDbVertex
100
AcDb2dVertex
 10
8.1072264421
 20
7.6153172818
 30
0.0
  0
VERTEX
  5
54A
330
310
100
AcDbEntity
  8
0
  6
CONTINUOUS
 62
     7
100
AcDbVertex
100
AcDb2dVertex
 10
8.0869022921
 20
7.6221417362
 30
0.0
  0
VERTEX
  5
54B
330
310
100
AcDbEntity
  8
0
  6
CONTINUOUS
 62
     7
100
AcDbVertex
100
AcDb2dVertex
 10
8.0656781252
 20
7.6270505911
 30
0.0
  0
VERTEX
  5
54C
330
310
100
AcDbEntity
  8
0
  6
CONTINUOUS
 62
     7
100
AcDbVertex
100
AcDb2dVertex
 10
8.0436257573
 20
7.6300272367
 30
0.0
  0
VERTEX
  5
54D
330
310
100
AcDbEntity
  8
0
  6
CONTINUOUS
 62
     7
100
AcDbVertex
100
AcDb2dVertex
 10
8.0208198065
 20
7.6310616008
 30
0.0
  0
VERTEX
  5
54E
330
310
100
AcDbEntity
  8
0
  6
CONTINUOUS
 62
     7
100
AcDbVertex
100
AcDb2dVertex
 10
7.997337441
 20
7.6301501835
 30
0.0
  0
VERTEX
  5
54F
330
310
100
AcDbEntity
  8
0
  6
CONTINUOUS
 62
     7
100
AcDbVertex
100
AcDb2dVertex
 10
7.9732581176
 20
7.6272960688
 30
0.0
  0
VERTEX
  5
550
330
310
100
AcDbEntity
  8
0
  6
CONTINUOUS
 62
     7
100
AcDbVertex
100
AcDb2dVertex
 10
7.9486633133
 20
7.622508914
 30
0.0
  0
VERTEX
  5
551
330
310
100
AcDbEntity
  8
0
  6
CONTINUOUS
 62
     7
100
AcDbVertex
100
AcDb2dVertex
 10
7.9236362489
 20
7.6158049174
 30
0.0
  0
VERTEX
  5
552
330
310
100
AcDbEntity
  8
0
  6
CONTINUOUS
 62
     7
100
AcDbVertex
100
AcDb2dVertex
 10
7.8982616082
 20
7.6072067632
 30
0.0
  0
VERTEX
  5
553
330
310
100
AcDbEntity
  8
0
  6
CONTINUOUS
 62
     7
100
AcDbVertex
100
AcDb2dVertex
 10
7.872625251
 20
7.5967435448
 30
0.0
  0
VERTEX
  5
554
330
310
100
AcDbEntity
  8
0
  6
CONTINUOUS
 62
     7
100
AcDbVertex
100
AcDb2dVertex
 10
7.8468139225
 20
7.5844506665
 30
0.0
  0
VERTEX
  5
555
330
310
100
AcDbEntity
  8
0
  6
CONTINUOUS
 62
     7
100
AcDbVertex
100
AcDb2dVertex
 10
7.8209149601
 20
7.5703697234
 30
0.0
  0
VERTEX
  5
556
330
310
100
AcDbEntity
  8
0
  6
CONTINUOUS
 62
     7
100
AcDbVertex
100
AcDb2dVertex
 10
7.7950159977
 20
7.554548361
 30
0.0
  0
VERTEX
  5
557
330
310
100
AcDbEntity
  8
0
  6
CONTINUOUS
 62
     7
100
AcDbVertex
100
AcDb2dVertex
 10
7.7692046691
 20
7.5370401138
 30
0.0
  0
VERTEX
  5
558
330
310
100
AcDbEntity
  8
0
  6
CONTINUOUS
 62
     7
100
AcDbVertex
100
AcDb2dVertex
 10
7.7435683119
 20
7.5179042241
 30
0.0
  0
VERTEX
  5
559
330
310
100
AcDbEntity
  8
0
  6
CONTINUOUS
 62
     7
100
AcDbVertex
100
AcDb2dVertex
 10
7.7181936712
 20
7.4972054418
 30
0.0
  0
VERTEX
  5
55A
330
310
100
AcDbEntity
  8
0
  6
CONTINUOUS
 62
     7
100
AcDbVertex
100
AcDb2dVertex
 10
7.6931666069
 20
7.4750138049
 30
0.0
  0
VERTEX
  5
55B
330
310
100
AcDbEntity
  8
0
  6
CONTINUOUS
 62
     7
100
AcDbVertex
100
AcDb2dVertex
 10
7.6685718025
 20
7.451404403
 30
0.0
  0
VERTEX
  5
55C
330
310
100
AcDbEntity
  8
0
  6
CONTINUOUS
 62
     7
100
AcDbVertex
100
AcDb2dVertex
 10
7.6444924791
 20
7.4264571228
 30
0.0
  0
VERTEX
  5
55D
330
310
100
AcDbEntity
  8
0
  6
CONTINUOUS
 62
     7
100
AcDbVertex
100
AcDb2dVertex
 10
7.6210101136
 20
7.4002563779
 30
0.0
  0
VERTEX
  5
55E
330
310
100
AcDbEntity
  8
0
  6
CONTINUOUS
 62
     7
100
AcDbVertex
100
AcDb2dVertex
 10
7.5982041628
 20
7.3728908235
 30
0.0
  0
VERTEX
  5
55F
330
310
100
AcDbEntity
  8
0
  6
CONTINUOUS
 62
     7
100
AcDbVertex
100
AcDb2dVertex
 10
7.5761517949
 20
7.3444530559
 30
0.0
  0
VERTEX
  5
560
330
310
100
AcDbEntity
  8
0
  6
CONTINUOUS
 62
     7
100
AcDbVertex
100
AcDb2dVertex
 10
7.554927628
 20
7.3150392994
 30
0.0
  0
VERTEX
  5
561
330
310
100
AcDbEntity
  8
0
  6
CONTINUOUS
 62
     7
100
AcDbVertex
100
AcDb2dVertex
 10
7.5346034781
 20
7.284749081
 30
0.0
  0
VERTEX
  5
562
330
310
100
AcDbEntity
  8
0
  6
CONTINUOUS
 62
     7
100
AcDbVertex
100
AcDb2dVertex
 10
7.5152481155
 20
7.2536848932
 30
0.0
  0
VERTEX
  5
563
330
310
100
AcDbEntity
  8
0
  6
CONTINUOUS
 62
     7
100
AcDbVertex
100
AcDb2dVertex
 10
7.4969270329
 20
7.2219518472
 30
0.0
  0
VERTEX
  5
564
330
310
100
AcDbEntity
  8
0
  6
CONTINUOUS
 62
     7
100
AcDbVertex
100
AcDb2dVertex
 10
7.4797022228
 20
7.1896573178
 30
0.0
  0
VERTEX
  5
565
330
310
100
AcDbEntity
  8
0
  6
CONTINUOUS
 62
     7
100
AcDbVertex
100
AcDb2dVertex
 10
7.4636319686
 20
7.1569105793
 30
0.0
  0
VERTEX
  5
566
330
310
100
AcDbEntity
  8
0
  6
CONTINUOUS
 62
     7
100
AcDbVertex
100
AcDb2dVertex
 10
7.448770647
 20
7.1238224364
 30
0.0
  0
VERTEX
  5
567
330
310
100
AcDbEntity
  8
0
  6
CONTINUOUS
 62
     7
100
AcDbVertex
100
AcDb2dVertex
 10
7.4351685439
 20
7.0905048489
 30
0.0
  0
SEQEND
  5
568
330
310
100
AcDbEntity
  8
0
  6
CONTINUOUS
 62
     7
  0
LINE
  5
311
330
1F
100
AcDbEntity
  8
0
  6
CONTINUOUS
 62
     7
100
AcDbLine
 10
7.4351685439
 20
7.0905048489
 30
0.0
 11
7.5279647094
 21
7.0369347628
 31
0.0
  0
ARC
  5
312
330
1F
100
AcDbEntity
  8
0
  6
CONTINUOUS
 62
     7
100
AcDbCircle
 10
8.0423541038
 20
6.7797565543
 30
0.0
 40
0.5750974526272682
100
AcDbArc
 50
153.4364181345
 51
206.5635818655
  0
LINE
  5
313
330
1F
100
AcDbEntity
  8
0
  6
CONTINUOUS
 62
     7
100
AcDbLine
 10
7.5279647094
 20
6.5225783458
 30
0.0
 11
7.4073296942
 21
6.5922194577
 31
0.0
  0
ARC
  5
314
330
1F
100
AcDbEntity
  8
0
  6
CONTINUOUS
 62
     7
100
AcDbCircle
 10
7.5865768746
 20
6.7146381387
 30
0.0
 40
0.2170619384437033
100
AcDbArc
 50
214.3315190386
 51
248.5535939622
  0
POLYLINE
  5
315
330
1F
100
AcDbEntity
  8
0
  6
CONTINUOUS
 62
     7
100
AcDb2dPolyline
 66
     1
 10
0.0
 20
0.0
 30
0.0
  0
VERTEX
  5
569
330
315
100
AcDbEntity
  8
0
  6
CONTINUOUS
 62
     7
100
AcDbVertex
100
AcDb2dVertex
 10
7.3084407109
 20
6.9825049745
 30
0.0
  0
VERTEX
  5
56A
330
315
100
AcDbEntity
  8
0
  6
CONTINUOUS
 62
     7
100
AcDbVertex
100
AcDb2dVertex
 10
7.3027987271
 20
6.9506753749
 30
0.0
  0
VERTEX
  5
56B
330
315
100
AcDbEntity
  8
0
  6
CONTINUOUS
 62
     7
100
AcDbVertex
100
AcDb2dVertex
 10
7.2985750966
 20
6.9193398937
 30
0.0
  0
VERTEX
  5
56C
330
315
100
AcDbEntity
  8
0
  6
CONTINUOUS
 62
     7
100
AcDbVertex
100
AcDb2dVertex
 10
7.2957835303
 20
6.8886002541
 30
0.0
  0
VERTEX
  5
56D
330
315
100
AcDbEntity
  8
0
  6
CONTINUOUS
 62
     7
100
AcDbVertex
100
AcDb2dVertex
 10
7.2944330905
 20
6.8585562447
 30
0.0
  0
VERTEX
  5
56E
330
315
100
AcDbEntity
  8
0
  6
CONTINUOUS
 62
     7
100
AcDbVertex
100
AcDb2dVertex
 10
7.294528161
 20
6.8293053962
 30
0.0
  0
VERTEX
  5
56F
330
315
100
AcDbEntity
  8
0
  6
CONTINUOUS
 62
     7
100
AcDbVertex
100
AcDb2dVertex
 10
7.2960684331
 20
6.8009426643
 30
0.0
  0
VERTEX
  5
570
330
315
100
AcDbEntity
  8
0
  6
CONTINUOUS
 62
     7
100
AcDbVertex
100
AcDb2dVertex
 10
7.2990489068
 20
6.7735601218
 30
0.0
  0
VERTEX
  5
571
330
315
100
AcDbEntity
  8
0
  6
CONTINUOUS
 62
     7
100
AcDbVertex
100
AcDb2dVertex
 10
7.3034599066
 20
6.7472466594
 30
0.0
  0
VERTEX
  5
572
330
315
100
AcDbEntity
  8
0
  6
CONTINUOUS
 62
     7
100
AcDbVertex
100
AcDb2dVertex
 10
7.3092871134
 20
6.7220876974
 30
0.0
  0
VERTEX
  5
573
330
315
100
AcDbEntity
  8
0
  6
CONTINUOUS
 62
     7
100
AcDbVertex
100
AcDb2dVertex
 10
7.3165116105
 20
6.6981649082
 30
0.0
  0
VERTEX
  5
574
330
315
100
AcDbEntity
  8
0
  6
CONTINUOUS
 62
     7
100
AcDbVertex
100
AcDb2dVertex
 10
7.3251099453
 20
6.6755559514
 30
0.0
  0
VERTEX
  5
575
330
315
100
AcDbEntity
  8
0
  6
CONTINUOUS
 62
     7
100
AcDbVertex
100
AcDb2dVertex
 10
7.3350542055
 20
6.6543342215
 30
0.0
  0
VERTEX
  5
576
330
315
100
AcDbEntity
  8
0
  6
CONTINUOUS
 62
     7
100
AcDbVertex
100
AcDb2dVertex
 10
7.3463121093
 20
6.6345686095
 30
0.0
  0
VERTEX
  5
577
330
315
100
AcDbEntity
  8
0
  6
CONTINUOUS
 62
     7
100
AcDbVertex
100
AcDb2dVertex
 10
7.3588471109
 20
6.6163232799
 30
0.0
  0
VERTEX
  5
578
330
315
100
AcDbEntity
  8
0
  6
CONTINUOUS
 62
     7
100
AcDbVertex
100
AcDb2dVertex
 10
7.3726185182
 20
6.5996574616
 30
0.0
  0
VERTEX
  5
579
330
315
100
AcDbEntity
  8
0
  6
CONTINUOUS
 62
     7
100
AcDbVertex
100
AcDb2dVertex
 10
7.3875816259
 20
6.5846252561
 30
0.0
  0
VERTEX
  5
57A
330
315
100
AcDbEntity
  8
0
  6
CONTINUOUS
 62
     7
100
AcDbVertex
100
AcDb2dVertex
 10
7.4036878597
 20
6.5712754619
 30
0.0
  0
VERTEX
  5
57B
330
315
100
AcDbEntity
  8
0
  6
CONTINUOUS
 62
     7
100
AcDbVertex
100
AcDb2dVertex
 10
7.4208849348
 20
6.5596514159
 30
0.0
  0
VERTEX
  5
57C
330
315
100
AcDbEntity
  8
0
  6
CONTINUOUS
 62
     7
100
AcDbVertex
100
AcDb2dVertex
 10
7.4247832813
 20
6.5573445413
 30
0.0
  0
SEQEND
  5
57D
330
315
100
AcDbEntity
  8
0
  6
CONTINUOUS
 62
     7
  0
LINE
  5
316
330
1F
100
AcDbEntity
  8
0
  6
CONTINUOUS
 62
     7
100
AcDbLine
 10
7.3084407109
 20
6.9825049745
 30
0.0
 11
7.2806018613
 21
6.9985760003
 31
0.0
  0
POLYLINE
  5
317
330
1F
100
AcDbEntity
  8
0
  6
CONTINUOUS
 62
     7
100
AcDb2dPolyline
 66
     1
 10
0.0
 20
0.0
 30
0.0
  0
VERTEX
  5
57E
330
317
100
AcDbEntity
  8
0
  6
CONTINUOUS
 62
     7
100
AcDbVertex
100
AcDb2dVertex
 10
7.2806018613
 20
6.9985760003
 30
0.0
  0
VERTEX
  5
57F
330
317
100
AcDbEntity
  8
0
  6
CONTINUOUS
 62
     7
100
AcDbVertex
100
AcDb2dVertex
 10
7.2748881439
 20
6.9662862118
 30
0.0
  0
VERTEX
  5
580
330
317
100
AcDbEntity
  8
0
  6
CONTINUOUS
 62
     7
100
AcDbVertex
100
AcDb2dVertex
 10
7.2706346247
 20
6.9345065738
 30
0.0
  0
VERTEX
  5
581
330
317
100
AcDbEntity
  8
0
  6
CONTINUOUS
 62
     7
100
AcDbVertex
100
AcDb2dVertex
 10
7.2678555168
 20
6.9033432772
 30
0.0
  0
VERTEX
  5
582
330
317
100
AcDbEntity
  8
0
  6
CONTINUOUS
 62
     7
100
AcDbVertex
100
AcDb2dVertex
 10
7.2665601066
 20
6.8729004537
 30
0.0
  0
VERTEX
  5
583
330
317
100
AcDbEntity
  8
0
  6
CONTINUOUS
 62
     7
100
AcDbVertex
100
AcDb2dVertex
 10
7.2667527226
 20
6.8432798273
 30
0.0
  0
VERTEX
  5
584
330
317
100
AcDbEntity
  8
0
  6
CONTINUOUS
 62
     7
100
AcDbVertex
100
AcDb2dVertex
 10
7.2684327211
 20
6.8145803748
 30
0.0
  0
VERTEX
  5
585
330
317
100
AcDbEntity
  8
0
  6
CONTINUOUS
 62
     7
100
AcDbVertex
100
AcDb2dVertex
 10
7.2715944886
 20
6.7868979949
 30
0.0
  0
VERTEX
  5
586
330
317
100
AcDbEntity
  8
0
  6
CONTINUOUS
 62
     7
100
AcDbVertex
100
AcDb2dVertex
 10
7.2762274599
 20
6.7603251878
 30
0.0
  0
VERTEX
  5
587
330
317
100
AcDbEntity
  8
0
  6
CONTINUOUS
 62
     7
100
AcDbVertex
100
AcDb2dVertex
 10
7.2823161542
 20
6.734950746
 30
0.0
  0
VERTEX
  5
588
330
317
100
AcDbEntity
  8
0
  6
CONTINUOUS
 62
     7
100
AcDbVertex
100
AcDb2dVertex
 10
7.2898402262
 20
6.7108594577
 30
0.0
  0
VERTEX
  5
589
330
317
100
AcDbEntity
  8
0
  6
CONTINUOUS
 62
     7
100
AcDbVertex
100
AcDb2dVertex
 10
7.2987745343
 20
6.6881318234
 30
0.0
  0
VERTEX
  5
58A
330
317
100
AcDbEntity
  8
0
  6
CONTINUOUS
 62
     7
100
AcDbVertex
100
AcDb2dVertex
 10
7.3090892248
 20
6.6668437872
 30
0.0
  0
VERTEX
  5
58B
330
317
100
AcDbEntity
  8
0
  6
CONTINUOUS
 62
     7
100
AcDbVertex
100
AcDb2dVertex
 10
7.3207498311
 20
6.6470664826
 30
0.0
  0
VERTEX
  5
58C
330
317
100
AcDbEntity
  8
0
  6
CONTINUOUS
 62
     7
100
AcDbVertex
100
AcDb2dVertex
 10
7.3337173898
 20
6.6288659951
 30
0.0
  0
VERTEX
  5
58D
330
317
100
AcDbEntity
  8
0
  6
CONTINUOUS
 62
     7
100
AcDbVertex
100
AcDb2dVertex
 10
7.3479485699
 20
6.6123031413
 30
0.0
  0
VERTEX
  5
58E
330
317
100
AcDbEntity
  8
0
  6
CONTINUOUS
 62
     7
100
AcDbVertex
100
AcDb2dVertex
 10
7.3633958182
 20
6.5974332657
 30
0.0
  0
VERTEX
  5
58F
330
317
100
AcDbEntity
  8
0
  6
CONTINUOUS
 62
     7
100
AcDbVertex
100
AcDb2dVertex
 10
7.380007518
 20
6.5843060556
 30
0.0
  0
VERTEX
  5
590
330
317
100
AcDbEntity
  8
0
  6
CONTINUOUS
 62
     7
100
AcDbVertex
100
AcDb2dVertex
 10
7.3977281616
 20
6.5729653753
 30
0.0
  0
VERTEX
  5
591
330
317
100
AcDbEntity
  8
0
  6
CONTINUOUS
 62
     7
100
AcDbVertex
100
AcDb2dVertex
 10
7.4111715105
 20
6.5659129844
 30
0.0
  0
SEQEND
  5
592
330
317
100
AcDbEntity
  8
0
  6
CONTINUOUS
 62
     7
  0
POLYLINE
  5
318
330
1F
100
AcDbEntity
  8
0
  6
CONTINUOUS
 62
     7
100
AcDb2dPolyline
 66
     1
 10
0.0
 20
0.0
 30
0.0
  0
VERTEX
  5
593
330
318
100
AcDbEntity
  8
0
  6
CONTINUOUS
 62
     7
100
AcDbVertex
100
AcDb2dVertex
 10
7.0263498987
 20
6.7898380741
 30
0.0
  0
VERTEX
  5
594
330
318
100
AcDbEntity
  8
0
  6
CONTINUOUS
 62
     7
100
AcDbVertex
100
AcDb2dVertex
 10
7.0208442497
 20
6.794313565
 30
0.0
  0
VERTEX
  5
595
330
318
100
AcDbEntity
  8
0
  6
CONTINUOUS
 62
     7
100
AcDbVertex
100
AcDb2dVertex
 10
7.0053622941
 20
6.8086533124
 30
0.0
  0
VERTEX
  5
596
330
318
100
AcDbEntity
  8
0
  6
CONTINUOUS
 62
     7
100
AcDbVertex
100
AcDb2dVertex
 10
6.9910553243
 20
6.8246532181
 30
0.0
  0
VERTEX
  5
597
330
318
100
AcDbEntity
  8
0
  6
CONTINUOUS
 62
     7
100
AcDbVertex
100
AcDb2dVertex
 10
6.977969926
 20
6.842261184
 30
0.0
  0
VERTEX
  5
598
330
318
100
AcDbEntity
  8
0
  6
CONTINUOUS
 62
     7
100
AcDbVertex
100
AcDb2dVertex
 10
6.9661487071
 20
6.861419876
 30
0.0
  0
VERTEX
  5
599
330
318
100
AcDbEntity
  8
0
  6
CONTINUOUS
 62
     7
100
AcDbVertex
100
AcDb2dVertex
 10
6.9556301593
 20
6.8820669106
 30
0.0
  0
VERTEX
  5
59A
330
318
100
AcDbEntity
  8
0
  6
CONTINUOUS
 62
     7
100
AcDbVertex
100
AcDb2dVertex
 10
6.9464485325
 20
6.9041350579
 30
0.0
  0
VERTEX
  5
59B
330
318
100
AcDbEntity
  8
0
  6
CONTINUOUS
 62
     7
100
AcDbVertex
100
AcDb2dVertex
 10
6.9386337235
 20
6.9275524607
 30
0.0
  0
VERTEX
  5
59C
330
318
100
AcDbEntity
  8
0
  6
CONTINUOUS
 62
     7
100
AcDbVertex
100
AcDb2dVertex
 10
6.9322111784
 20
6.9522428686
 30
0.0
  0
VERTEX
  5
59D
330
318
100
AcDbEntity
  8
0
  6
CONTINUOUS
 62
     7
100
AcDbVertex
100
AcDb2dVertex
 10
6.92720181
 20
6.978125886
 30
0.0
  0
VERTEX
  5
59E
330
318
100
AcDbEntity
  8
0
  6
CONTINUOUS
 62
     7
100
AcDbVertex
100
AcDb2dVertex
 10
6.9236219296
 20
7.0051172338
 30
0.0
  0
VERTEX
  5
59F
330
318
100
AcDbEntity
  8
0
  6
CONTINUOUS
 62
     7
100
AcDbVertex
100
AcDb2dVertex
 10
6.9214831937
 20
7.0331290243
 30
0.0
  0
VERTEX
  5
5A0
330
318
100
AcDbEntity
  8
0
  6
CONTINUOUS
 62
     7
100
AcDbVertex
100
AcDb2dVertex
 10
6.9207925665
 20
7.0620700469
 30
0.0
  0
VERTEX
  5
5A1
330
318
100
AcDbEntity
  8
0
  6
CONTINUOUS
 62
     7
100
AcDbVertex
100
AcDb2dVertex
 10
6.9215522967
 20
7.0918460653
 30
0.0
  0
VERTEX
  5
5A2
330
318
100
AcDbEntity
  8
0
  6
CONTINUOUS
 62
     7
100
AcDbVertex
100
AcDb2dVertex
 10
6.9237599104
 20
7.1223601244
 30
0.0
  0
VERTEX
  5
5A3
330
318
100
AcDbEntity
  8
0
  6
CONTINUOUS
 62
     7
100
AcDbVertex
100
AcDb2dVertex
 10
6.9274082195
 20
7.153512866
 30
0.0
  0
VERTEX
  5
5A4
330
318
100
AcDbEntity
  8
0
  6
CONTINUOUS
 62
     7
100
AcDbVertex
100
AcDb2dVertex
 10
6.9324853444
 20
7.185202852
 30
0.0
  0
VERTEX
  5
5A5
330
318
100
AcDbEntity
  8
0
  6
CONTINUOUS
 62
     7
100
AcDbVertex
100
AcDb2dVertex
 10
6.9389747532
 20
7.2173268952
 30
0.0
  0
VERTEX
  5
5A6
330
318
100
AcDbEntity
  8
0
  6
CONTINUOUS
 62
     7
100
AcDbVertex
100
AcDb2dVertex
 10
6.9468553156
 20
7.2497803949
 30
0.0
  0
VERTEX
  5
5A7
330
318
100
AcDbEntity
  8
0
  6
CONTINUOUS
 62
     7
100
AcDbVertex
100
AcDb2dVertex
 10
6.9561013712
 20
7.2824576778
 30
0.0
  0
VERTEX
  5
5A8
330
318
100
AcDbEntity
  8
0
  6
CONTINUOUS
 62
     7
100
AcDbVertex
100
AcDb2dVertex
 10
6.9666828135
 20
7.3152523417
 30
0.0
  0
VERTEX
  5
5A9
330
318
100
AcDbEntity
  8
0
  6
CONTINUOUS
 62
     7
100
AcDbVertex
100
AcDb2dVertex
 10
6.9785651877
 20
7.3480576024
 30
0.0
  0
VERTEX
  5
5AA
330
318
100
AcDbEntity
  8
0
  6
CONTINUOUS
 62
     7
100
AcDbVertex
100
AcDb2dVertex
 10
6.9917098031
 20
7.3807666411
 30
0.0
  0
VERTEX
  5
5AB
330
318
100
AcDbEntity
  8
0
  6
CONTINUOUS
 62
     7
100
AcDbVertex
100
AcDb2dVertex
 10
7.0060738589
 20
7.4132729523
 30
0.0
  0
VERTEX
  5
5AC
330
318
100
AcDbEntity
  8
0
  6
CONTINUOUS
 62
     7
100
AcDbVertex
100
AcDb2dVertex
 10
7.0216105836
 20
7.4454706905
 30
0.0
  0
VERTEX
  5
5AD
330
318
100
AcDbEntity
  8
0
  6
CONTINUOUS
 62
     7
100
AcDbVertex
100
AcDb2dVertex
 10
7.0382693872
 20
7.4772550153
 30
0.0
  0
VERTEX
  5
5AE
330
318
100
AcDbEntity
  8
0
  6
CONTINUOUS
 62
     7
100
AcDbVertex
100
AcDb2dVertex
 10
7.0559960263
 20
7.5085224322
 30
0.0
  0
VERTEX
  5
5AF
330
318
100
AcDbEntity
  8
0
  6
CONTINUOUS
 62
     7
100
AcDbVertex
100
AcDb2dVertex
 10
7.0747327803
 20
7.5391711297
 30
0.0
  0
VERTEX
  5
5B0
330
318
100
AcDbEntity
  8
0
  6
CONTINUOUS
 62
     7
100
AcDbVertex
100
AcDb2dVertex
 10
7.0944186395
 20
7.5691013113
 30
0.0
  0
VERTEX
  5
5B1
330
318
100
AcDbEntity
  8
0
  6
CONTINUOUS
 62
     7
100
AcDbVertex
100
AcDb2dVertex
 10
7.1149895039
 20
7.5982155197
 30
0.0
  0
VERTEX
  5
5B2
330
318
100
AcDbEntity
  8
0
  6
CONTINUOUS
 62
     7
100
AcDbVertex
100
AcDb2dVertex
 10
7.1363783916
 20
7.6264189549
 30
0.0
  0
VERTEX
  5
5B3
330
318
100
AcDbEntity
  8
0
  6
CONTINUOUS
 62
     7
100
AcDbVertex
100
AcDb2dVertex
 10
7.1585156574
 20
7.6536197822
 30
0.0
  0
VERTEX
  5
5B4
330
318
100
AcDbEntity
  8
0
  6
CONTINUOUS
 62
     7
100
AcDbVertex
100
AcDb2dVertex
 10
7.1813292189
 20
7.6797294317
 30
0.0
  0
VERTEX
  5
5B5
330
318
100
AcDbEntity
  8
0
  6
CONTINUOUS
 62
     7
100
AcDbVertex
100
AcDb2dVertex
 10
7.2047447919
 20
7.7046628865
 30
0.0
  0
VERTEX
  5
5B6
330
318
100
AcDbEntity
  8
0
  6
CONTINUOUS
 62
     7
100
AcDbVertex
100
AcDb2dVertex
 10
7.2286861317
 20
7.7283389597
 30
0.0
  0
VERTEX
  5
5B7
330
318
100
AcDbEntity
  8
0
  6
CONTINUOUS
 62
     7
100
AcDbVertex
100
AcDb2dVertex
 10
7.2530752819
 20
7.7506805584
 30
0.0
  0
VERTEX
  5
5B8
330
318
100
AcDbEntity
  8
0
  6
CONTINUOUS
 62
     7
100
AcDbVertex
100
AcDb2dVertex
 10
7.2778328276
 20
7.771614935
 30
0.0
  0
VERTEX
  5
5B9
330
318
100
AcDbEntity
  8
0
  6
CONTINUOUS
 62
     7
100
AcDbVertex
100
AcDb2dVertex
 10
7.3028781548
 20
7.7910739241
 30
0.0
  0
VERTEX
  5
5BA
330
318
100
AcDbEntity
  8
0
  6
CONTINUOUS
 62
     7
100
AcDbVertex
100
AcDb2dVertex
 10
7.328129712
 20
7.8089941644
 30
0.0
  0
VERTEX
  5
5BB
330
318
100
AcDbEntity
  8
0
  6
CONTINUOUS
 62
     7
100
AcDbVertex
100
AcDb2dVertex
 10
7.3535052765
 20
7.8253173049
 30
0.0
  0
VERTEX
  5
5BC
330
318
100
AcDbEntity
  8
0
  6
CONTINUOUS
 62
     7
100
AcDbVertex
100
AcDb2dVertex
 10
7.3789222216
 20
7.839990195
 30
0.0
  0
VERTEX
  5
5BD
330
318
100
AcDbEntity
  8
0
  6
CONTINUOUS
 62
     7
100
AcDbVertex
100
AcDb2dVertex
 10
7.4042977861
 20
7.8529650576
 30
0.0
  0
VERTEX
  5
5BE
330
318
100
AcDbEntity
  8
0
  6
CONTINUOUS
 62
     7
100
AcDbVertex
100
AcDb2dVertex
 10
7.4295493434
 20
7.8641996448
 30
0.0
  0
VERTEX
  5
5BF
330
318
100
AcDbEntity
  8
0
  6
CONTINUOUS
 62
     7
100
AcDbVertex
100
AcDb2dVertex
 10
7.4545946705
 20
7.8736573748
 30
0.0
  0
VERTEX
  5
5C0
330
318
100
AcDbEntity
  8
0
  6
CONTINUOUS
 62
     7
100
AcDbVertex
100
AcDb2dVertex
 10
7.4793522163
 20
7.8813074521
 30
0.0
  0
VERTEX
  5
5C1
330
318
100
AcDbEntity
  8
0
  6
CONTINUOUS
 62
     7
100
AcDbVertex
100
AcDb2dVertex
 10
7.5037413664
 20
7.8871249668
 30
0.0
  0
VERTEX
  5
5C2
330
318
100
AcDbEntity
  8
0
  6
CONTINUOUS
 62
     7
100
AcDbVertex
100
AcDb2dVertex
 10
7.5276827062
 20
7.8910909763
 30
0.0
  0
VERTEX
  5
5C3
330
318
100
AcDbEntity
  8
0
  6
CONTINUOUS
 62
     7
100
AcDbVertex
100
AcDb2dVertex
 10
7.5510982792
 20
7.8931925665
 30
0.0
  0
VERTEX
  5
5C4
330
318
100
AcDbEntity
  8
0
  6
CONTINUOUS
 62
     7
100
AcDbVertex
100
AcDb2dVertex
 10
7.5739118407
 20
7.8934228945
 30
0.0
  0
VERTEX
  5
5C5
330
318
100
AcDbEntity
  8
0
  6
CONTINUOUS
 62
     7
100
AcDbVertex
100
AcDb2dVertex
 10
7.5960491065
 20
7.8917812102
 30
0.0
  0
VERTEX
  5
5C6
330
318
100
AcDbEntity
  8
0
  6
CONTINUOUS
 62
     7
100
AcDbVertex
100
AcDb2dVertex
 10
7.6174379943
 20
7.8882728592
 30
0.0
  0
VERTEX
  5
5C7
330
318
100
AcDbEntity
  8
0
  6
CONTINUOUS
 62
     7
100
AcDbVertex
100
AcDb2dVertex
 10
7.6380088586
 20
7.8829092652
 30
0.0
  0
VERTEX
  5
5C8
330
318
100
AcDbEntity
  8
0
  6
CONTINUOUS
 62
     7
100
AcDbVertex
100
AcDb2dVertex
 10
7.6576947179
 20
7.8757078929
 30
0.0
  0
VERTEX
  5
5C9
330
318
100
AcDbEntity
  8
0
  6
CONTINUOUS
 62
     7
100
AcDbVertex
100
AcDb2dVertex
 10
7.6764314718
 20
7.8666921911
 30
0.0
  0
VERTEX
  5
5CA
330
318
100
AcDbEntity
  8
0
  6
CONTINUOUS
 62
     7
100
AcDbVertex
100
AcDb2dVertex
 10
7.681148783
 20
7.8640493187
 30
0.0
  0
SEQEND
  5
5CB
330
318
100
AcDbEntity
  8
0
  6
CONTINUOUS
 62
     7
  0
SPLINE
  5
319
330
1F
100
AcDbEntity
  8
0
  6
CONTINUOUS
 62
     7
100
AcDbSpline
210
0.0
220
0.0
230
1.0
 70
     8
 71
     3
 72
    29
 73
    25
 74
     0
 42
0.00000001
 43
0.00000001
 40
0.0
 40
0.0
 40
0.0
 40
0.0
 40
0.0616883882957062
 40
0.1120963893857587
 40
0.1638758274897995
 40
0.2143413038852575
 40
0.2666582156358509
 40
0.3115333345069043
 40
0.3578662838260417
 40
0.4003213116423963
 40
0.44404130204197
 40
0.4859455579393482
 40
0.529064668866873
 40
0.5709964781017682
 40
0.6141132978240087
 40
0.6566611519395786
 40
0.7003368014560296
 40
0.7450206298984282
 40
0.7907609126241038
 40
0.8405752002845365
 40
0.8914227753229084
 40
0.9285668445418195
 40
0.9657178025075042
 40
1.0
 40
1.0
 40
1.0
 40
1.0
 10
7.026987923498501
 20
6.793223849738235
 30
0.0
 10
7.02213008987648
 20
6.798357619950788
 30
0.0
 10
7.013302729909562
 20
6.807686395116784
 30
0.0
 10
7.007358675216095
 20
6.820096712093505
 30
0.0
 10
7.006713998800404
 20
6.82995045743169
 30
0.0
 10
7.011682901523567
 20
6.837254961556812
 30
0.0
 10
7.021623810887819
 20
6.840824422504721
 30
0.0
 10
7.035601285059964
 20
6.840500863934657
 30
0.0
 10
7.051836970690756
 20
6.836579215404411
 30
0.0
 10
7.070361042624153
 20
6.829104061751361
 30
0.0
 10
7.089953323262656
 20
6.818610900429613
 30
0.0
 10
7.110716571403504
 20
6.805087506076712
 30
0.0
 10
7.131718729221113
 20
6.789255706376017
 30
0.0
 10
7.152949039703716
 20
6.771342680039696
 30
0.0
 10
7.173699808457486
 20
6.752259894776747
 30
0.0
 10
7.193966327730489
 20
6.732422299130965
 30
0.0
 10
7.21341368379028
 20
6.712613293186263
 30
0.0
 10
7.232004879927437
 20
6.693352696163423
 30
0.0
 10
7.249902127777987
 20
6.674956643430299
 30
0.0
 10
7.266850801319323
 20
6.658171537202922
 30
0.0
 10
7.281141429817314
 20
6.645032086225537
 30
0.0
 10
7.292839018795399
 20
6.63533953317675
 30
0.0
 10
7.302189266138301
 20
6.628367782237831
 30
0.0
 10
7.307634583850178
 20
6.625090321982587
 30
0.0
 10
7.310247900537796
 20
6.623517403370448
 30
0.0
  0
LINE
  5
31A
330
1F
100
AcDbEntity
  8
0
  6
CONTINUOUS
 62
     7
100
AcDbLine
 10
7.4676795576
 20
7.1092730576
 30
0.0
 11
7.4351685439
 21
7.0905048489
 31
0.0
  0
LINE
  5
31B
330
1F
100
AcDbEntity
  8
0
  6
CONTINUOUS
 62
     7
100
AcDbLine
 10
7.5279647094
 20
6.5225783458
 30
0.0
 11
7.5641603691
 21
6.5241960183
 31
0.0
  0
LINE
  5
31C
330
1F
100
AcDbEntity
  8
0
  6
CONTINUOUS
 62
     7
100
AcDbLine
 10
7.5796416822
 20
7.039244333
 30
0.0
 11
7.5279647094
 21
7.0369347628
 31
0.0
  0
ARC
  5
31D
330
1F
100
AcDbEntity
  8
0
  6
CONTINUOUS
 62
     7
100
AcDbCircle
 10
7.8258868582
 20
7.0531430907
 30
0.0
 40
0.9059945368773188
100
AcDbArc
 50
122.5592056087
 51
177.446170924
  0
LINE
  5
31E
330
1F
100
AcDbEntity
  8
0
  6
CONTINUOUS
 62
     7
100
AcDbLine
 10
7.245997855
 20
6.5623571621
 30
0.0
 11
7.2467939804
 21
6.5628250912
 31
0.0
  0
LINE
  5
31F
330
1F
100
AcDbEntity
  8
0
  6
CONTINUOUS
 62
     7
100
AcDbLine
 10
7.0878252525
 20
6.7027770775
 30
0.0
 11
7.0878252525
 21
6.7770180314
 31
0.0
  0
LINE
  5
320
330
1F
100
AcDbEntity
  8
0
  6
CONTINUOUS
 62
     7
100
AcDbLine
 10
7.1435029518
 20
6.6335145489
 30
0.0
 11
7.0878252525
 21
6.7027770775
 31
0.0
  0
LINE
  5
321
330
1F
100
AcDbEntity
  8
0
  6
CONTINUOUS
 62
     7
100
AcDbLine
 10
7.1991806511
 20
6.6384929742
 30
0.0
 11
7.1435029518
 21
6.6335145489
 31
0.0
  0
LINE
  5
322
330
1F
100
AcDbEntity
  8
0
  6
CONTINUOUS
 62
     7
100
AcDbLine
 10
7.1991806511
 20
6.7127339281
 30
0.0
 11
7.1991806511
 21
6.6384929742
 31
0.0
  0
LINE
  5
323
330
1F
100
AcDbEntity
  8
0
  6
CONTINUOUS
 62
     7
100
AcDbLine
 10
7.150856939
 20
6.7728481667
 30
0.0
 11
7.1991806511
 21
6.7127339281
 31
0.0
  0
LINE
  5
324
330
1F
100
AcDbEntity
  8
0
  6
CONTINUOUS
 62
     7
100
AcDbLine
 10
7.0878252525
 20
6.7770180314
 30
0.0
 11
7.1403202297
 21
6.7817118734
 31
0.0
  0
LINE
  5
325
330
1F
100
AcDbEntity
  8
0
  6
CONTINUOUS
 62
     7
100
AcDbLine
 10
7.1991806511
 20
6.6656566005
 30
0.0
 11
7.1435029518
 21
6.6335145489
 31
0.0
  0
LINE
  5
326
330
1F
100
AcDbEntity
  8
0
  6
CONTINUOUS
 62
     7
100
AcDbLine
 10
7.1693514617
 20
6.7498411562
 30
0.0
 11
7.0878252525
 21
6.7027770775
 31
0.0
  0
ARC
  5
327
330
1F
100
AcDbEntity
  8
0
  6
CONTINUOUS
 62
     8
100
AcDbCircle
 10
8.473378472
 20
6.7157072603
 30
0.0
 40
0.0876105160844263
100
AcDbArc
 50
185.1302908037
 51
246.1898501539
  0
ARC
  5
328
330
1F
100
AcDbEntity
  8
0
  6
CONTINUOUS
 62
     8
100
AcDbCircle
 10
8.5632818947
 20
6.8761735014
 30
0.0
 40
0.2712769777136586
100
AcDbArc
 50
242.4974603428
 51
297.5141225426
  0
POLYLINE
  5
329
330
1F
100
AcDbEntity
  8
0
  6
CONTINUOUS
 62
     8
100
AcDb2dPolyline
 66
     1
 10
0.0
 20
0.0
 30
0.0
  0
VERTEX
  5
5CC
330
329
100
AcDbEntity
  8
0
  6
CONTINUOUS
 62
     8
100
AcDbVertex
100
AcDb2dVertex
 10
7.1435029518
 20
6.5791663986
 30
0.0
  0
VERTEX
  5
5CD
330
329
100
AcDbEntity
  8
0
  6
CONTINUOUS
 62
     8
100
AcDbVertex
100
AcDb2dVertex
 10
7.130809393
 20
6.587332412
 30
0.0
  0
VERTEX
  5
5CE
330
329
100
AcDbEntity
  8
0
  6
CONTINUOUS
 62
     8
100
AcDbVertex
100
AcDb2dVertex
 10
7.118281314
 20
6.5970683245
 30
0.0
  0
VERTEX
  5
5CF
330
329
100
AcDbEntity
  8
0
  6
CONTINUOUS
 62
     8
100
AcDbVertex
100
AcDb2dVertex
 10
7.1060820377
 20
6.6082472137
 30
0.0
  0
VERTEX
  5
5D0
330
329
100
AcDbEntity
  8
0
  6
CONTINUOUS
 62
     8
100
AcDbVertex
100
AcDb2dVertex
 10
7.0943706002
 20
6.6207233456
 30
0.0
  0
VERTEX
  5
5D1
330
329
100
AcDbEntity
  8
0
  6
CONTINUOUS
 62
     8
100
AcDbVertex
100
AcDb2dVertex
 10
7.0832996781
 20
6.6343340747
 30
0.0
  0
VERTEX
  5
5D2
330
329
100
AcDbEntity
  8
0
  6
CONTINUOUS
 62
     8
100
AcDbVertex
100
AcDb2dVertex
 10
7.0730135977
 20
6.6489019645
 30
0.0
  0
VERTEX
  5
5D3
330
329
100
AcDbEntity
  8
0
  6
CONTINUOUS
 62
     8
100
AcDbVertex
100
AcDb2dVertex
 10
7.0636464539
 20
6.6642371002
 30
0.0
  0
VERTEX
  5
5D4
330
329
100
AcDbEntity
  8
0
  6
CONTINUOUS
 62
     8
100
AcDbVertex
100
AcDb2dVertex
 10
7.0553203616
 20
6.6801395647
 30
0.0
  0
VERTEX
  5
5D5
330
329
100
AcDbEntity
  8
0
  6
CONTINUOUS
 62
     8
100
AcDbVertex
100
AcDb2dVertex
 10
7.0481438642
 20
6.6964020453
 30
0.0
  0
VERTEX
  5
5D6
330
329
100
AcDbEntity
  8
0
  6
CONTINUOUS
 62
     8
100
AcDbVertex
100
AcDb2dVertex
 10
7.0422105184
 20
6.7128125356
 30
0.0
  0
VERTEX
  5
5D7
330
329
100
AcDbEntity
  8
0
  6
CONTINUOUS
 62
     8
100
AcDbVertex
100
AcDb2dVertex
 10
7.0375976744
 20
6.7291570996
 30
0.0
  0
VERTEX
  5
5D8
330
329
100
AcDbEntity
  8
0
  6
CONTINUOUS
 62
     8
100
AcDbVertex
100
AcDb2dVertex
 10
7.0343654676
 20
6.7452226612
 30
0.0
  0
VERTEX
  5
5D9
330
329
100
AcDbEntity
  8
0
  6
CONTINUOUS
 62
     8
100
AcDbVertex
100
AcDb2dVertex
 10
7.0325560348
 20
6.760799781
 30
0.0
  0
VERTEX
  5
5DA
330
329
100
AcDbEntity
  8
0
  6
CONTINUOUS
 62
     8
100
AcDbVertex
100
AcDb2dVertex
 10
7.0321929648
 20
6.7756853876
 30
0.0
  0
VERTEX
  5
5DB
330
329
100
AcDbEntity
  8
0
  6
CONTINUOUS
 62
     8
100
AcDbVertex
100
AcDb2dVertex
 10
7.0332809906
 20
6.7896854242
 30
0.0
  0
VERTEX
  5
5DC
330
329
100
AcDbEntity
  8
0
  6
CONTINUOUS
 62
     8
100
AcDbVertex
100
AcDb2dVertex
 10
7.0358059283
 20
6.802617379
 30
0.0
  0
VERTEX
  5
5DD
330
329
100
AcDbEntity
  8
0
  6
CONTINUOUS
 62
     8
100
AcDbVertex
100
AcDb2dVertex
 10
7.0397348614
 20
6.8143126642
 30
0.0
  0
VERTEX
  5
5DE
330
329
100
AcDbEntity
  8
0
  6
CONTINUOUS
 62
     8
100
AcDbVertex
100
AcDb2dVertex
 10
7.0450165703
 20
6.8246188138
 30
0.0
  0
VERTEX
  5
5DF
330
329
100
AcDbEntity
  8
0
  6
CONTINUOUS
 62
     8
100
AcDbVertex
100
AcDb2dVertex
 10
7.0515821997
 20
6.8334014714
 30
0.0
  0
VERTEX
  5
5E0
330
329
100
AcDbEntity
  8
0
  6
CONTINUOUS
 62
     8
100
AcDbVertex
100
AcDb2dVertex
 10
7.0538687421
 20
6.8357996956
 30
0.0
  0
SEQEND
  5
5E1
330
329
100
AcDbEntity
  8
0
  6
CONTINUOUS
 62
     8
  0
POLYLINE
  5
32A
330
1F
100
AcDbEntity
  8
0
  6
CONTINUOUS
 62
     8
100
AcDb2dPolyline
 66
     1
 10
0.0
 20
0.0
 30
0.0
  0
VERTEX
  5
5E2
330
32A
100
AcDbEntity
  8
0
  6
CONTINUOUS
 62
     8
100
AcDbVertex
100
AcDb2dVertex
 10
7.2521639871
 20
6.6731424987
 30
0.0
  0
VERTEX
  5
5E3
330
32A
100
AcDbEntity
  8
0
  6
CONTINUOUS
 62
     8
100
AcDbVertex
100
AcDb2dVertex
 10
7.2537249131
 20
6.6624258566
 30
0.0
  0
VERTEX
  5
5E4
330
32A
100
AcDbEntity
  8
0
  6
CONTINUOUS
 62
     8
100
AcDbVertex
100
AcDb2dVertex
 10
7.2548129389
 20
6.647169612
 30
0.0
  0
VERTEX
  5
5E5
330
32A
100
AcDbEntity
  8
0
  6
CONTINUOUS
 62
     8
100
AcDbVertex
100
AcDb2dVertex
 10
7.2544498689
 20
6.6327031972
 30
0.0
  0
VERTEX
  5
5E6
330
32A
100
AcDbEntity
  8
0
  6
CONTINUOUS
 62
     8
100
AcDbVertex
100
AcDb2dVertex
 10
7.2526404361
 20
6.619215204
 30
0.0
  0
VERTEX
  5
5E7
330
32A
100
AcDbEntity
  8
0
  6
CONTINUOUS
 62
     8
100
AcDbVertex
100
AcDb2dVertex
 10
7.2494082293
 20
6.606881469
 30
0.0
  0
VERTEX
  5
5E8
330
32A
100
AcDbEntity
  8
0
  6
CONTINUOUS
 62
     8
100
AcDbVertex
100
AcDb2dVertex
 10
7.2447953853
 20
6.5958627813
 30
0.0
  0
VERTEX
  5
5E9
330
32A
100
AcDbEntity
  8
0
  6
CONTINUOUS
 62
     8
100
AcDbVertex
100
AcDb2dVertex
 10
7.2388620395
 20
6.5863027863
 30
0.0
  0
VERTEX
  5
5EA
330
32A
100
AcDbEntity
  8
0
  6
CONTINUOUS
 62
     8
100
AcDbVertex
100
AcDb2dVertex
 10
7.2316855421
 20
6.5783261132
 30
0.0
  0
VERTEX
  5
5EB
330
32A
100
AcDbEntity
  8
0
  6
CONTINUOUS
 62
     8
100
AcDbVertex
100
AcDb2dVertex
 10
7.2233594498
 20
6.5720367501
 30
0.0
  0
VERTEX
  5
5EC
330
32A
100
AcDbEntity
  8
0
  6
CONTINUOUS
 62
     8
100
AcDbVertex
100
AcDb2dVertex
 10
7.213992306
 20
6.5675166886
 30
0.0
  0
VERTEX
  5
5ED
330
32A
100
AcDbEntity
  8
0
  6
CONTINUOUS
 62
     8
100
AcDbVertex
100
AcDb2dVertex
 10
7.2037062256
 20
6.5648248544
 30
0.0
  0
VERTEX
  5
5EE
330
32A
100
AcDbEntity
  8
0
  6
CONTINUOUS
 62
     8
100
AcDbVertex
100
AcDb2dVertex
 10
7.1926353034
 20
6.5639963399
 30
0.0
  0
VERTEX
  5
5EF
330
32A
100
AcDbEntity
  8
0
  6
CONTINUOUS
 62
     8
100
AcDbVertex
100
AcDb2dVertex
 10
7.180923866
 20
6.5650419459
 30
0.0
  0
VERTEX
  5
5F0
330
32A
100
AcDbEntity
  8
0
  6
CONTINUOUS
 62
     8
100
AcDbVertex
100
AcDb2dVertex
 10
7.1687245897
 20
6.5679480413
 30
0.0
  0
VERTEX
  5
5F1
330
32A
100
AcDbEntity
  8
0
  6
CONTINUOUS
 62
     8
100
AcDbVertex
100
AcDb2dVertex
 10
7.1561965107
 20
6.5726767408
 30
0.0
  0
VERTEX
  5
5F2
330
32A
100
AcDbEntity
  8
0
  6
CONTINUOUS
 62
     8
100
AcDbVertex
100
AcDb2dVertex
 10
7.1435029518
 20
6.5791663986
 30
0.0
  0
SEQEND
  5
5F3
330
32A
100
AcDbEntity
  8
0
  6
CONTINUOUS
 62
     8
  0
ARC
  5
32B
330
1F
100
AcDbEntity
  8
0
  6
CONTINUOUS
 62
     8
100
AcDbCircle
 10
7.1927506386
 20
6.6352647688
 30
0.0
 40
0.0903780375387203
100
AcDbArc
 50
306.7246369615
 51
5.6084940406
  0
ENDSEC
  0
SECTION
  2
OBJECTS
  0
DICTIONARY
  5
C
330
0
100
AcDbDictionary
  3
ACAD_GROUP
350
D
  3
ACAD_LAYOUT
350
1A
  3
ACAD_MLEADERSTYLE
350
32E
  3
ACAD_MLINESTYLE
350
17
  3
ACAD_PLOTSETTINGS
350
19
  3
ACAD_SCALELIST
350
6F
  3
ACAD_VISUALSTYLE
350
2A
  3
ACDBVARIABLEDICTIONARY
350
32C
1001
ACAD
1000
TREAT_AS_HARD
1070
     0
  0
DICTIONARY
  5
D
102
{ACAD_REACTORS
330
C
102
}
330
C
100
AcDbDictionary
1001
ACAD
1000
TREAT_AS_HARD
1070
     0
  0
DICTIONARY
  5
1A
102
{ACAD_REACTORS
330
C
102
}
330
C
100
AcDbDictionary
1001
ACAD
1000
TREAT_AS_HARD
1070
     0
  0
DICTIONARY
  5
32E
102
{ACAD_REACTORS
330
C
102
}
330
C
100
AcDbDictionary
1001
ACAD
1000
TREAT_AS_HARD
1070
     0
  0
DICTIONARY
  5
17
102
{ACAD_REACTORS
330
C
102
}
330
C
100
AcDbDictionary
  3
STANDARD
350
18
1001
ACAD
1000
TREAT_AS_HARD
1070
     0
  0
DICTIONARY
  5
19
102
{ACAD_REACTORS
330
C
102
}
330
C
100
AcDbDictionary
1001
ACAD
1000
TREAT_AS_HARD
1070
     0
  0
DICTIONARY
  5
6F
102
{ACAD_REACTORS
330
C
102
}
330
C
100
AcDbDictionary
  3
A0
350
70
  3
A1
350
71
  3
A2
350
72
  3
A3
350
73
  3
A4
350
74
  3
A5
350
75
  3
A6
350
76
  3
A7
350
77
  3
A8
350
78
  3
A9
350
79
  3
B0
350
7A
  3
B1
350
7B
  3
B2
350
7C
  3
B3
350
7D
  3
B4
350
7E
  3
B5
350
7F
  3
B6
350
80
  3
B7
350
81
  3
B8
350
82
  3
B9
350
83
  3
C0
350
84
  3
C1
350
85
  3
C2
350
86
  3
C3
350
87
  3
C4
350
88
  3
C5
350
89
  3
C6
350
8A
  3
C7
350
8B
  3
C8
350
8C
  3
C9
350
8D
  3
D0
350
8E
  3
D1
350
8F
  3
D2
350
90
1001
ACAD
1000
TREAT_AS_HARD
1070
     0
  0
DICTIONARY
  5
2A
102
{ACAD_REACTORS
330
C
102
}
330
C
100
AcDbDictionary
  3
2DWIREFRAME
350
2F
  3
3D_HIDDEN
350
31
  3
3DWIREFRAME
350
30
  3
BASIC
350
32
  3
BRIGHTEN
350
36
  3
COLORCHANGE
350
3A
  3
CONCEPTUAL
350
34
  3
DIM
350
35
  3
FACEPATTERN
350
39
  3
FLAT
350
2B
  3
FLATWITHEDGES
350
2C
  3
GOURAUD
350
2D
  3
GOURAUDWITHEDGES
350
2E
  3
LINEPATTERN
350
38
  3
REALISTIC
350
33
  3
THICKEN
350
37
1001
ACAD
1000
TREAT_AS_HARD
1070
     0
  0
DICTIONARY
  5
32C
102
{ACAD_REACTORS
330
C
102
}
330
C
100
AcDbDictionary
  3
CANNOSCALE
350
32F
  3
DIMASSOC
350
330
  3
HIDETEXT
350
331
1001
ACAD
1000
TREAT_AS_HARD
1070
     0
  0
MLINESTYLE
  5
18
102
{ACAD_REACTORS
330
17
102
}
330
17
100
AcDbMlineStyle
  2
Standard
 70
     0
  3

 62
   256
 51
90.0
 52
90.0
 71
     2
 49
0.5
 62
   256
  6
BYLAYER
 49
-0.5
 62
   256
  6
BYLAYER
  0
ACAD_PROXY_OBJECT
  5
70
102
{ACAD_REACTORS
330
6F
102
}
330
6F
100
AcDbZombieObject
 90
      499
 91
      502
 93
       41
310
903313A31580
  0
ACAD_PROXY_OBJECT
  5
71
102
{ACAD_REACTORS
330
6F
102
}
330
6F
100
AcDbZombieObject
 90
      499
 91
      502
 93
      105
310
903313A324000000000000004000
  0
ACAD_PROXY_OBJECT
  5
72
102
{ACAD_REACTORS
330
6F
102
}
330
6F
100
AcDbZombieObject
 90
      499
 91
      502
 93
      105
310
903313A344000000000000104000
  0
ACAD_PROXY_OBJECT
  5
73
102
{ACAD_REACTORS
330
6F
102
}
330
6F
100
AcDbZombieObject
 90
      499
 91
      502
 93
      105
310
903313A354000000000000144000
  0
ACAD_PROXY_OBJECT
  5
74
102
{ACAD_REACTORS
330
6F
102
}
330
6F
100
AcDbZombieObject
 90
      499
 91
      502
 93
      105
310
903313A384000000000000204000
  0
ACAD_PROXY_OBJECT
  5
75
102
{ACAD_REACTORS
330
6F
102
}
330
6F
100
AcDbZombieObject
 90
      499
 91
      502
 93
      113
310
904313A31304000000000000244000
  0
ACAD_PROXY_OBJECT
  5
76
102
{ACAD_REACTORS
330
6F
102
}
330
6F
100
AcDbZombieObject
 90
      499
 91
      502
 93
      113
310
904313A31364000000000000304000
  0
ACAD_PROXY_OBJECT
  5
77
102
{ACAD_REACTORS
330
6F
102
}
330
6F
100
AcDbZombieObject
 90
      499
 91
      502
 93
      113
310
904313A32304000000000000344000
  0
ACAD_PROXY_OBJECT
  5
78
102
{ACAD_REACTORS
330
6F
102
}
330
6F
100
AcDbZombieObject
 90
      499
 91
      502
 93
      113
310
904313A333040000000000003E4000
  0
ACAD_PROXY_OBJECT
  5
79
102
{ACAD_REACTORS
330
6F
102
}
330
6F
100
AcDbZombieObject
 90
      499
 91
      502
 93
      113
310
904313A34304000000000000444000
  0
ACAD_PROXY_OBJECT
  5
7A
102
{ACAD_REACTORS
330
6F
102
}
330
6F
100
AcDbZombieObject
 90
      499
 91
      502
 93
      113
310
904313A35304000000000000494000
  0
ACAD_PROXY_OBJECT
  5
7B
102
{ACAD_REACTORS
330
6F
102
}
330
6F
100
AcDbZombieObject
 90
      499
 91
      502
 93
      121
310
905313A3130304000000000000594000
  0
ACAD_PROXY_OBJECT
  5
7C
102
{ACAD_REACTORS
330
6F
102
}
330
6F
100
AcDbZombieObject
 90
      499
 91
      502
 93
      105
310
903323A310000000000000010100
  0
ACAD_PROXY_OBJECT
  5
7D
102
{ACAD_REACTORS
330
6F
102
}
330
6F
100
AcDbZombieObject
 90
      499
 91
      502
 93
      105
310
903343A310000000000000410100
  0
ACAD_PROXY_OBJECT
  5
7E
102
{ACAD_REACTORS
330
6F
102
}
330
6F
100
AcDbZombieObject
 90
      499
 91
      502
 93
      105
310
903383A310000000000000810100
  0
ACAD_PROXY_OBJECT
  5
7F
102
{ACAD_REACTORS
330
6F
102
}
330
6F
100
AcDbZombieObject
 90
      499
 91
      502
 93
      113
310
90431303A310000000000000910100
  0
ACAD_PROXY_OBJECT
  5
80
102
{ACAD_REACTORS
330
6F
102
}
330
6F
100
AcDbZombieObject
 90
      499
 91
      502
 93
      121
310
9053130303A310000000000001650100
  0
ACAD_PROXY_OBJECT
  5
81
102
{ACAD_REACTORS
330
6F
102
}
330
6F
100
AcDbZombieObject
 90
      499
 91
      502
 93
      257
310
90E312F31323822203D2031272D3022000000000000200FC000000000000284000
  0
ACAD_PROXY_OBJECT
  5
82
102
{ACAD_REACTORS
330
6F
102
}
330
6F
100
AcDbZombieObject
 90
      499
 91
      502
 93
      249
310
90D312F363422203D2031272D3022000000000000240FC000000000000284000
  0
ACAD_PROXY_OBJECT
  5
83
102
{ACAD_REACTORS
330
6F
102
}
330
6F
100
AcDbZombieObject
 90
      499
 91
      502
 93
      249
310
90D312F333222203D2031272D3022000000000000280FC000000000000284000
  0
ACAD_PROXY_OBJECT
  5
84
102
{ACAD_REACTORS
330
6F
102
}
330
6F
100
AcDbZombieObject
 90
      499
 91
      502
 93
      249
310
90D312F313622203D2031272D30220000000000002C0FC000000000000284000
  0
ACAD_PROXY_OBJECT
  5
85
102
{ACAD_REACTORS
330
6F
102
}
330
6F
100
AcDbZombieObject
 90
      499
 91
      502
 93
      249
310
90D332F333222203D2031272D30220000000000002E0FC000000000000284000
  0
ACAD_PROXY_OBJECT
  5
86
102
{ACAD_REACTORS
330
6F
102
}
330
6F
100
AcDbZombieObject
 90
      499
 91
      502
 93
      241
310
90C312F3822203D2031272D3022000000000000300FC000000000000284000
  0
ACAD_PROXY_OBJECT
  5
87
102
{ACAD_REACTORS
330
6F
102
}
330
6F
100
AcDbZombieObject
 90
      499
 91
      502
 93
      249
310
90D332F313622203D2031272D3022000000000000320FC000000000000284000
  0
ACAD_PROXY_OBJECT
  5
88
102
{ACAD_REACTORS
330
6F
102
}
330
6F
100
AcDbZombieObject
 90
      499
 91
      502
 93
      241
310
90C312F3422203D2031272D3022000000000000340FC000000000000284000
  0
ACAD_PROXY_OBJECT
  5
89
102
{ACAD_REACTORS
330
6F
102
}
330
6F
100
AcDbZombieObject
 90
      499
 91
      502
 93
      241
310
90C332F3822203D2031272D3022000000000000360FC000000000000284000
  0
ACAD_PROXY_OBJECT
  5
8A
102
{ACAD_REACTORS
330
6F
102
}
330
6F
100
AcDbZombieObject
 90
      499
 91
      502
 93
      241
310
90C312F3222203D2031272D3022000000000000380FC000000000000284000
  0
ACAD_PROXY_OBJECT
  5
8B
102
{ACAD_REACTORS
330
6F
102
}
330
6F
100
AcDbZombieObject
 90
      499
 91
      502
 93
      241
310
90C332F3422203D2031272D30220000000000003A0FC000000000000284000
  0
ACAD_PROXY_OBJECT
  5
8C
102
{ACAD_REACTORS
330
6F
102
}
330
6F
100
AcDbZombieObject
 90
      499
 91
      502
 93
      161
310
90A3122203D2031272D30224000000000000284000
  0
ACAD_PROXY_OBJECT
  5
8D
102
{ACAD_REACTORS
330
6F
102
}
330
6F
100
AcDbZombieObject
 90
      499
 91
      502
 93
      257
310
90E312D312F3222203D2031272D30220000000000003E0FC000000000000284000
  0
ACAD_PROXY_OBJECT
  5
8E
102
{ACAD_REACTORS
330
6F
102
}
330
6F
100
AcDbZombieObject
 90
      499
 91
      502
 93
      225
310
90A3322203D2031272D302200000000000002100000000000000284000
  0
ACAD_PROXY_OBJECT
  5
8F
102
{ACAD_REACTORS
330
6F
102
}
330
6F
100
AcDbZombieObject
 90
      499
 91
      502
 93
      225
310
90A3622203D2031272D302200000000000006100000000000000284000
  0
ACAD_PROXY_OBJECT
  5
90
102
{ACAD_REACTORS
330
6F
102
}
330
6F
100
AcDbZombieObject
 90
      499
 91
      502
 93
      249
310
90D31272D3022203D2031272D30220000000000000A100000000000000284000
  0
ACAD_PROXY_OBJECT
  5
2F
102
{ACAD_REACTORS
330
2A
102
}
330
2A
100
AcDbZombieObject
 90
      499
 91
      501
 93
      436
310
42CC9915DA5C99599C985B595049028333333333333E3BF0000000000000FB0107901411070040501600405405064090741402480A0340
1001
ACAD
1000
AcDbSavedByObjectVersion
1070
     0
  0
ACAD_PROXY_OBJECT
  5
31
102
{ACAD_REACTORS
330
2A
102
}
330
2A
100
AcDbZombieObject
 90
      499
 91
      501
 93
      500
310
424CD108121A5919195B90640502408333333333333E3BF0000000000000FB01079024090700405020000000000001110200405405064090740C02480A0340
1001
ACAD
1000
AcDbSavedByObjectVersion
1070
     0
  0
ACAD_PROXY_OBJECT
  5
30
102
{ACAD_REACTORS
330
2A
102
}
330
2A
100
AcDbZombieObject
 90
      499
 91
      501
 93
      436
310
42CCD915DA5C99599C985B595059028333333333333E3BF0000000000000FB0107901411070040501600405405064090741402480A0340
1001
ACAD
1000
AcDbSavedByObjectVersion
1070
     0
  0
ACAD_PROXY_OBJECT
  5
32
102
{ACAD_REACTORS
330
2A
102
}
330
2A
100
AcDbZombieObject
 90
      499
 91
      501
 93
      388
310
4150985CDA58D07406404333333333333E3BF0000000000000FB0107A41107004050150841D405064090741402480A0350
1001
ACAD
1000
AcDbSavedByObjectVersion
1070
     0
  0
ACAD_PROXY_OBJECT
  5
36
102
{ACAD_REACTORS
330
2A
102
}
330
2A
100
AcDbZombieObject
 90
      499
 91
      501
 93
      428
310
42109C9A59DA1D195B90C409028333333333333E3BF0000000000000FB010790141107004050150841D405064090741402480A029950
1001
ACAD
1000
AcDbSavedByObjectVersion
1070
     0
  0
ACAD_PROXY_OBJECT
  5
3A
102
{ACAD_REACTORS
330
2A
102
}
330
2A
100
AcDbZombieObject
 90
      499
 91
      501
 93
      452
310
42D0DBDB1BDC90DA185B99D95104090240C333333333333E3BF0000000000000FB0108901411070040501508421405064090741402480A0350
1001
ACAD
1000
AcDbSavedByObjectVersion
1070
     0
  0
ACAD_PROXY_OBJECT
  5
34
102
{ACAD_REACTORS
330
2A
102
}
330
2A
100
AcDbZombieObject
 90
      499
 91
      501
 93
      500
310
4290DBDB98D95C1D1D585B10940D028333333333333E3BF0000000000000FB0107902409070040501000000000000111010841D405064090740C02480A0340
1001
ACAD
1000
AcDbSavedByObjectVersion
1070
     0
  0
ACAD_PROXY_OBJECT
  5
35
102
{ACAD_REACTORS
330
2A
102
}
330
2A
100
AcDbZombieObject
 90
      499
 91
      501
 93
      412
310
40D11A5B50B409028333333333333E3BF0000000000000FB010790141107004050150841D405064090741402480A02677FFFFFD0
1001
ACAD
1000
AcDbSavedByObjectVersion
1070
     0
  0
ACAD_PROXY_OBJECT
  5
39
102
{ACAD_REACTORS
330
2A
102
}
330
2A
100
AcDbZombieObject
 90
      499
 91
      501
 93
      444
310
42D19858D95C185D1D195C9B90F409028333333333333E3BF0000000000000FB010790141107004050150841D405064090741402480A0350
1001
ACAD
1000
AcDbSavedByObjectVersion
1070
     0
  0
ACAD_PROXY_OBJECT
  5
2B
102
{ACAD_REACTORS
330
2A
102
}
330
2A
100
AcDbZombieObject
 90
      499
 91
      501
 93
      388
310
41119B185D240901404333333333333E3BF0000000000000F9010740A41107004050150841D405064090741402480A1B50
1001
ACAD
1000
AcDbSavedByObjectVersion
1070
     0
  0
ACAD_PROXY_OBJECT
  5
2C
102
{ACAD_REACTORS
330
2A
102
}
330
2A
100
AcDbZombieObject
 90
      499
 91
      501
 93
      476
310
43519B185D15DA5D1A115919D95CD0140901404333333333333E3BF0000000000000F9010740901411070040501600405405064090741402480A1B50
1001
ACAD
1000
AcDbSavedByObjectVersion
1070
     0
  0
ACAD_PROXY_OBJECT
  5
2D
102
{ACAD_REACTORS
330
2A
102
}
330
2A
100
AcDbZombieObject
 90
      499
 91
      501
 93
      412
310
41D1DBDD5C985D5910240902404333333333333E3BF0000000000000F9010740A411070040501641D405064090741402480A1B50
1001
ACAD
1000
AcDbSavedByObjectVersion
1070
     0
  0
ACAD_PROXY_OBJECT
  5
2E
102
{ACAD_REACTORS
330
2A
102
}
330
2A
100
AcDbZombieObject
 90
      499
 91
      501
 93
      500
310
4411DBDD5C985D5915DA5D1A115919D95CD0340902404333333333333E3BF0000000000000F9010740901411070040501600405405064090741402480A1B50
1001
ACAD
1000
AcDbSavedByObjectVersion
1070
     0
  0
ACAD_PROXY_OBJECT
  5
38
102
{ACAD_REACTORS
330
2A
102
}
330
2A
100
AcDbZombieObject
 90
      499
 91
      501
 93
      444
310
42D31A5B995C185D1D195C9B90E409028333333333333E3BF0000000000000FB010790141107004050750841D405064090741402483A0350
1001
ACAD
1000
AcDbSavedByObjectVersion
1070
     0
  0
ACAD_PROXY_OBJECT
  5
33
102
{ACAD_REACTORS
330
2A
102
}
330
2A
100
AcDbZombieObject
 90
      499
 91
      501
 93
      420
310
425499585B1A5CDD1A58D08409028333333333333E3BF0000000000000FB01079019070040501508421405064090741402480A1B40
1001
ACAD
1000
AcDbSavedByObjectVersion
1070
     0
  0
ACAD_PROXY_OBJECT
  5
37
102
{ACAD_REACTORS
330
2A
102
}
330
2A
100
AcDbZombieObject
 90
      499
 91
      501
 93
      412
310
41D51A1A58DAD95B90D409028333333333333E3BF0000000000000FB010790141107004050150C41D405064090741402480A0350
1001
ACAD
1000
AcDbSavedByObjectVersion
1070
     0
  0
DICTIONARYVAR
  5
32F
102
{ACAD_REACTORS
330
32C
102
}
330
32C
100
DictionaryVariables
280
     0
  1
1:1
  0
DICTIONARYVAR
  5
330
102
{ACAD_REACTORS
330
32C
102
}
330
32C
100
DictionaryVariables
280
     0
  1
2
  0
DICTIONARYVAR
  5
331
102
{ACAD_REACTORS
330
32C
102
}
330
32C
100
DictionaryVariables
280
     0
  1
1
  0
ENDSEC
  0
EOF
