  0
SECTION
  2
HEADER
  9
$ACADVER
  1
AC1012
  9
$DWGCODEPAGE
  3
ansi_1252
  9
$INSBASE
 10
0.0
 20
0.0
 30
0.0
  9
$EXTMIN
 10
0.0
 20
0.0
 30
0.0
  9
$EXTMAX
 10
11.0
 20
8.5
 30
0.0
  9
$LIMMIN
 10
0.0
 20
0.0
  9
$LIMMAX
 10
11.0
 20
8.5
  9
$ORTHOMODE
 70
     0
  9
$REGENMODE
 70
     1
  9
$FILLMODE
 70
     1
  9
$QTEXTMODE
 70
     0
  9
$MIRRTEXT
 70
     1
  9
$DRAGMODE
 70
     2
  9
$LTSCALE
 40
1.0
  9
$OSMODE
 70
    37
  9
$ATTMODE
 70
     1
  9
$TEXTSIZE
 40
0.125
  9
$TRACEWID
 40
0.05
  9
$TEXTSTYLE
  7
STANDARD
  9
$CLAYER
  8
0
  9
$CELTYPE
  6
BYLAYER
  9
$CECOLOR
 62
   256
  9
$CELTSCALE
 40
1.0
  9
$DELOBJ
 70
     1
  9
$DISPSILH
 70
     0
  9
$DIMSCALE
 40
1.0
  9
$DIMASZ
 40
0.13
  9
$DIMEXO
 40
0.05
  9
$DIMDLI
 40
0.38
  9
$DIMRND
 40
0.0
  9
$DIMDLE
 40
0.0
  9
$DIMEXE
 40
0.125
  9
$DIMTP
 40
0.0
  9
$DIMTM
 40
0.0
  9
$DIMTXT
 40
0.125
  9
$DIMCEN
 40
0.09
  9
$DIMTSZ
 40
0.0
  9
$DIMTOL
 70
     0
  9
$DIMLIM
 70
     0
  9
$DIMTIH
 70
     1
  9
$DIMTOH
 70
     1
  9
$DIMSE1
 70
     0
  9
$DIMSE2
 70
     0
  9
$DIMTAD
 70
     0
  9
$DIMZIN
 70
     0
  9
$DIMBLK
  1

  9
$DIMASO
 70
     1
  9
$DIMSHO
 70
     1
  9
$DIMPOST
  1

  9
$DIMAPOST
  1

  9
$DIMALT
 70
     0
  9
$DIMALTD
 70
     2
  9
$DIMALTF
 40
25.4
  9
$DIMLFAC
 40
1.0
  9
$DIMTOFL
 70
     0
  9
$DIMTVP
 40
0.0
  9
$DIMTIX
 70
     0
  9
$DIMSOXD
 70
     0
  9
$DIMSAH
 70
     0
  9
$DIMBLK1
  1

  9
$DIMBLK2
  1

  9
$DIMSTYLE
  2
STANDARD
  9
$DIMCLRD
 70
     0
  9
$DIMCLRE
 70
     0
  9
$DIMCLRT
 70
     0
  9
$DIMTFAC
 40
1.0
  9
$DIMGAP
 40
0.06
  9
$DIMJUST
 70
     0
  9
$DIMSD1
 70
     0
  9
$DIMSD2
 70
     0
  9
$DIMTOLJ
 70
     1
  9
$DIMTZIN
 70
     0
  9
$DIMALTZ
 70
     0
  9
$DIMALTTZ
 70
     0
  9
$DIMFIT
 70
     3
  9
$DIMUPT
 70
     0
  9
$DIMUNIT
 70
     2
  9
$DIMDEC
 70
     3
  9
$DIMTDEC
 70
     3
  9
$DIMALTU
 70
     2
  9
$DIMALTTD
 70
     2
  9
$DIMTXSTY
  7
STANDARD
  9
$DIMAUNIT
 70
     0
  9
$LUNITS
 70
     2
  9
$LUPREC
 70
     2
  9
$SKETCHINC
 40
0.1
  9
$FILLETRAD
 40
0.5
  9
$AUNITS
 70
     0
  9
$AUPREC
 70
     2
  9
$MENU
  1
.
  9
$ELEVATION
 40
0.0
  9
$PELEVATION
 40
0.0
  9
$THICKNESS
 40
0.0
  9
$LIMCHECK
 70
     0
  9
$CHAMFERA
 40
0.5
  9
$CHAMFERB
 40
0.5
  9
$CHAMFERC
 40
1.0
  9
$CHAMFERD
 40
0.0
  9
$SKPOLY
 70
     0
  9
$TDCREATE
 40
2455784.017371794
  9
$TDUPDATE
 40
2455784.017371805
  9
$TDINDWG
 40
0.0000000116
  9
$TDUSRTIMER
 40
0.0000000116
  9
$USRTIMER
 70
     1
  9
$ANGBASE
 50
0.0
  9
$ANGDIR
 70
     0
  9
$PDMODE
 70
     0
  9
$PDSIZE
 40
-1.0
  9
$PLINEWID
 40
0.0
  9
$COORDS
 70
     1
  9
$SPLFRAME
 70
     0
  9
$SPLINETYPE
 70
     6
  9
$SPLINESEGS
 70
     8
  9
$ATTDIA
 70
     0
  9
$ATTREQ
 70
     1
  9
$HANDLING
 70
     1
  9
$HANDSEED
  5
6BC
  9
$SURFTAB1
 70
     6
  9
$SURFTAB2
 70
     6
  9
$SURFTYPE
 70
     6
  9
$SURFU
 70
     6
  9
$SURFV
 70
     6
  9
$UCSNAME
  2

  9
$UCSORG
 10
0.0
 20
0.0
 30
0.0
  9
$UCSXDIR
 10
1.0
 20
0.0
 30
0.0
  9
$UCSYDIR
 10
0.0
 20
1.0
 30
0.0
  9
$PUCSNAME
  2

  9
$PUCSORG
 10
0.0
 20
0.0
 30
0.0
  9
$PUCSXDIR
 10
1.0
 20
0.0
 30
0.0
  9
$PUCSYDIR
 10
0.0
 20
1.0
 30
0.0
  9
$USERI1
 70
     0
  9
$USERI2
 70
     0
  9
$USERI3
 70
     0
  9
$USERI4
 70
     0
  9
$USERI5
 70
     0
  9
$USERR1
 40
0.0
  9
$USERR2
 40
0.0
  9
$USERR3
 40
0.0
  9
$USERR4
 40
0.0
  9
$USERR5
 40
0.0
  9
$WORLDVIEW
 70
     1
  9
$SHADEDGE
 70
     3
  9
$SHADEDIF
 70
    70
  9
$TILEMODE
 70
     1
  9
$MAXACTVP
 70
    64
  9
$PINSBASE
 10
0.0
 20
0.0
 30
0.0
  9
$PLIMCHECK
 70
     0
  9
$PEXTMIN
 10
1.0000000000E+20
 20
1.0000000000E+20
 30
1.0000000000E+20
  9
$PEXTMAX
 10
-1.0000000000E+20
 20
-1.0000000000E+20
 30
-1.0000000000E+20
  9
$PLIMMIN
 10
0.0
 20
0.0
  9
$PLIMMAX
 10
12.0
 20
9.0
  9
$UNITMODE
 70
     0
  9
$VISRETAIN
 70
     1
  9
$PLINEGEN
 70
     0
  9
$PSLTSCALE
 70
     1
  9
$TREEDEPTH
 70
  3020
  9
$PICKSTYLE
 70
     1
  9
$CMLSTYLE
  2
STANDARD
  9
$CMLJUST
 70
     0
  9
$CMLSCALE
 40
1.0
  9
$SAVEIMAGES
 70
     1
  0
ENDSEC
  0
SECTION
  2
CLASSES
  0
CLASS
  1
ACDBDICTIONARYWDFLT
  2
AcDbDictionaryWithDefault
  3
ObjectDBX Classes
 90
    32768
280
     0
281
     0
  0
CLASS
  1
VISUALSTYLE
  2
AcDbVisualStyle
  3
ObjectDBX Classes
 90
     4095
280
     0
281
     0
  0
CLASS
  1
SCALE
  2
AcDbScale
  3
ObjectDBX Classes
 90
     1153
280
     0
281
     0
  0
CLASS
  1
DICTIONARYVAR
  2
AcDbDictionaryVar
  3
ObjectDBX Classes
 90
        0
280
     0
281
     0
  0
CLASS
  1
XRECORD
  2
AcDbXrecord
  3
AutoCAD 2000
 90
    32768
280
     0
281
     0
  0
CLASS
  1
LWPOLYLINE
  2
AcDbPolyline
  3
AutoCAD 2000
 90
    32768
280
     0
281
     1
  0
CLASS
  1
HATCH
  2
AcDbHatch
  3
AutoCAD 2000
 90
    32768
280
     0
281
     1
  0
CLASS
  1
ACDBPLACEHOLDER
  2
AcDbPlaceHolder
  3
ObjectDBX Classes
 90
        0
280
     0
281
     0
  0
CLASS
  1
LAYOUT
  2
AcDbLayout
  3
ObjectDBX Classes
 90
        0
280
     0
281
     0
  0
ENDSEC
  0
SECTION
  2
TABLES
  0
TABLE
  2
VPORT
  5
8
330
0
100
AcDbSymbolTable
 70
     1
  0
VPORT
  5
29
330
8
100
AcDbSymbolTableRecord
100
AcDbViewportTableRecord
  2
*ACTIVE
 70
     0
 10
0.0
 20
0.0
 11
1.0
 21
1.0
 12
5.5
 22
4.25
 13
0.0
 23
0.0
 14
0.5
 24
0.5
 15
0.5
 25
0.5
 16
0.0
 26
0.0
 36
1.0
 17
0.0
 27
0.0
 37
0.0
 40
8.5
 41
1.2941176471
 42
50.0
 43
0.0
 44
0.0
 50
0.0
 51
0.0
 71
     0
 72
  2000
 73
     1
 74
     3
 75
     0
 76
     0
 77
     0
 78
     0
  0
ENDTAB
  0
TABLE
  2
LTYPE
  5
5
330
0
100
AcDbSymbolTable
 70
     6
  0
LTYPE
  5
14
330
5
100
AcDbSymbolTableRecord
100
AcDbLinetypeTableRecord
  2
BYBLOCK
 70
     0
  3

 72
    65
 73
     0
 40
0.0
  0
LTYPE
  5
15
330
5
100
AcDbSymbolTableRecord
100
AcDbLinetypeTableRecord
  2
BYLAYER
 70
     0
  3

 72
    65
 73
     0
 40
0.0
  0
LTYPE
  5
16
330
5
100
AcDbSymbolTableRecord
100
AcDbLinetypeTableRecord
  2
CONTINUOUS
 70
     0
  3
Solid line
 72
    65
 73
     0
 40
0.0
  0
LTYPE
  5
3B
330
5
100
AcDbSymbolTableRecord
100
AcDbLinetypeTableRecord
  2
HIDDEN
 70
     0
  3
Hidden __ __ __ __ __ __ __ __ __ __ __ __ __ __
 72
    65
 73
     2
 40
0.075
 49
0.05
 74
     0
 49
-0.025
 74
     0
  0
LTYPE
  5
3C
330
5
100
AcDbSymbolTableRecord
100
AcDbLinetypeTableRecord
  2
PHANTOM
 70
     0
  3
Phantom ______  __  __  ______  __  __  ______
 72
    65
 73
     6
 40
0.5
 49
0.25
 74
     0
 49
-0.05
 74
     0
 49
0.05
 74
     0
 49
-0.05
 74
     0
 49
0.05
 74
     0
 49
-0.05
 74
     0
  0
LTYPE
  5
3D
330
5
100
AcDbSymbolTableRecord
100
AcDbLinetypeTableRecord
  2
CENTER
 70
     0
  3
Center ____ _ ____ _ ____ _ ____ _ ____ _ ____
 72
    65
 73
     4
 40
0.4
 49
0.25
 74
     0
 49
-0.05
 74
     0
 49
0.05
 74
     0
 49
-0.05
 74
     0
  0
LTYPE
  5
3E
330
5
100
AcDbSymbolTableRecord
100
AcDbLinetypeTableRecord
  2
CENTERX2
 70
     0
  3
Center (2x) ________  __  ________  __  _____
 72
    65
 73
     4
 40
0.8
 49
0.5
 74
     0
 49
-0.1
 74
     0
 49
0.1
 74
     0
 49
-0.1
 74
     0
  0
LTYPE
  5
3F
330
5
100
AcDbSymbolTableRecord
100
AcDbLinetypeTableRecord
  2
DOT2
 70
     0
  3
Dot (.5x) ........................................
 72
    65
 73
     2
 40
0.025
 49
0.0
 74
     0
 49
-0.025
 74
     0
  0
ENDTAB
  0
TABLE
  2
LAYER
  5
2
330
0
100
AcDbSymbolTable
 70
     2
  0
LAYER
  5
10
330
2
100
AcDbSymbolTableRecord
100
AcDbLayerTableRecord
  2
0
 70
     0
 62
     7
  6
CONTINUOUS
  0
LAYER
  5
40
330
2
100
AcDbSymbolTableRecord
100
AcDbLayerTableRecord
  2
FORMAT
 70
     0
 62
     7
  6
CONTINUOUS
  0
ENDTAB
  0
TABLE
  2
STYLE
  5
3
330
0
100
AcDbSymbolTable
 70
     4
  0
STYLE
  5
11
330
3
100
AcDbSymbolTableRecord
100
AcDbTextStyleTableRecord
  2
STANDARD
 70
     0
 40
0.0
 41
1.0
 50
0.0
 71
     0
 42
0.2
  3
txt
  4

  0
STYLE
  5
6E
330
3
100
AcDbSymbolTableRecord
100
AcDbTextStyleTableRecord
  2
SLDTEXTSTYLE0
 70
     0
 40
0.0
 41
0.75
 50
0.0
 71
     0
 42
0.2
  3
TXT
  4

  0
STYLE
  5
93
330
3
100
AcDbSymbolTableRecord
100
AcDbTextStyleTableRecord
  2
SLDTEXTSTYLE1
 70
     0
 40
0.0
 41
0.6875
 50
0.0
 71
     0
 42
0.2
  3
TXT
  4

  0
STYLE
  5
99
330
3
100
AcDbSymbolTableRecord
100
AcDbTextStyleTableRecord
  2
SLDTEXTSTYLE2
 70
     0
 40
0.0
 41
0.6944444444
 50
0.0
 71
     0
 42
0.2
  3
TXT
  4

  0
ENDTAB
  0
TABLE
  2
VIEW
  5
6
330
0
100
AcDbSymbolTable
 70
     0
  0
ENDTAB
  0
TABLE
  2
UCS
  5
7
330
0
100
AcDbSymbolTable
 70
     0
  0
ENDTAB
  0
TABLE
  2
APPID
  5
9
330
0
100
AcDbSymbolTable
 70
     1
  0
APPID
  5
12
330
9
100
AcDbSymbolTableRecord
100
AcDbRegAppTableRecord
  2
ACAD
 70
     0
  0
ENDTAB
  0
TABLE
  2
DIMSTYLE
  5
A
330
0
100
AcDbSymbolTable
 70
     1
  0
DIMSTYLE
105
27
330
A
100
AcDbSymbolTableRecord
100
AcDbDimStyleTableRecord
  2
STANDARD
 70
     0
  3

  4

  5

  6

  7

 40
1.0
 41
0.18
 42
0.0625
 43
0.38
 44
0.18
 45
0.0
 46
0.0
 47
0.0
 48
0.0
140
0.18
141
0.09
142
0.0
143
25.4
144
1.0
145
0.0
146
1.0
147
0.09
 71
     0
 72
     0
 73
     1
 74
     1
 75
     0
 76
     0
 77
     0
 78
     0
170
     0
171
     2
172
     0
173
     0
174
     0
175
     0
176
     0
177
     0
178
     0
270
     2
271
     4
272
     4
273
     2
274
     2
340
11
275
     0
280
     0
281
     0
282
     0
283
     1
284
     0
285
     0
286
     0
287
     3
288
     0
  0
ENDTAB
  0
TABLE
  2
BLOCK_RECORD
  5
1
330
0
100
AcDbSymbolTable
 70
     4
  0
BLOCK_RECORD
  5
1F
330
1
100
AcDbSymbolTableRecord
100
AcDbBlockTableRecord
  2
*MODEL_SPACE
  0
BLOCK_RECORD
  5
1B
330
1
100
AcDbSymbolTableRecord
100
AcDbBlockTableRecord
  2
*PAPER_SPACE
  0
BLOCK_RECORD
  5
A8
330
1
100
AcDbSymbolTableRecord
100
AcDbBlockTableRecord
  2
SW_NOTE_0
  0
BLOCK_RECORD
  5
AE
330
1
100
AcDbSymbolTableRecord
100
AcDbBlockTableRecord
  2
SW_NOTE_1
  0
BLOCK_RECORD
  5
C2
330
1
100
AcDbSymbolTableRecord
100
AcDbBlockTableRecord
  2
SW_NOTE_2
  0
ENDTAB
  0
ENDSEC
  0
SECTION
  2
BLOCKS
  0
BLOCK
  5
20
330
1F
100
AcDbEntity
  8
0
100
AcDbBlockBegin
  2
*MODEL_SPACE
 70
     0
 10
0.0
 20
0.0
 30
0.0
  3
*MODEL_SPACE
  1

  0
ENDBLK
  5
21
330
1F
100
AcDbEntity
  8
0
100
AcDbBlockEnd
  0
BLOCK
  5
1C
330
1B
100
AcDbEntity
 67
     1
  8
0
100
AcDbBlockBegin
  2
*PAPER_SPACE
 70
     0
 10
0.0
 20
0.0
 30
0.0
  3
*PAPER_SPACE
  1

  0
ENDBLK
  5
1D
330
1B
100
AcDbEntity
 67
     1
  8
0
100
AcDbBlockEnd
  0
BLOCK
  5
A9
330
A8
100
AcDbEntity
  8
0
100
AcDbBlockBegin
  2
SW_NOTE_0
 70
     0
 10
0.0
 20
0.0
 30
0.0
  3
SW_NOTE_0
  1

  0
MTEXT
  5
AB
330
A8
100
AcDbEntity
  8
0
  6
CONTINUOUS
 62
     0
100
AcDbMText
 10
0.0
 20
0.0773440644
 30
0.0
 40
0.06
 41
0.0
 71
     1
 72
     1
  1
INTERPRET GEOMETRIC
  7
SLDTEXTSTYLE0
  0
MTEXT
  5
AC
330
A8
100
AcDbEntity
  8
0
  6
CONTINUOUS
 62
     0
100
AcDbMText
 10
0.0
 20
-0.0220260102
 30
0.0
 40
0.06
 41
0.0
 71
     1
 72
     1
  1
TOLERANCING PER:
  7
SLDTEXTSTYLE0
  0
ENDBLK
  5
AA
330
A8
100
AcDbEntity
  8
0
100
AcDbBlockEnd
  0
BLOCK
  5
AF
330
AE
100
AcDbEntity
  8
0
100
AcDbBlockBegin
  2
SW_NOTE_1
 70
     0
 10
0.0
 20
0.0
 30
0.0
  3
SW_NOTE_1
  1

  0
MTEXT
  5
B1
330
AE
100
AcDbEntity
  8
0
  6
CONTINUOUS
 62
     0
100
AcDbMText
 10
0.0
 20
0.0837894031
 30
0.0
 40
0.065
 41
0.0
 71
     1
 72
     1
  1
DIMENSIONS ARE IN INCHES
  7
SLDTEXTSTYLE0
  0
MTEXT
  5
B2
330
AE
100
AcDbEntity
  8
0
  6
CONTINUOUS
 62
     0
100
AcDbMText
 10
0.0
 20
-0.0205806729
 30
0.0
 40
0.065
 41
0.0
 71
     1
 72
     1
  1
TOLERANCES:
  7
SLDTEXTSTYLE0
  0
MTEXT
  5
B3
330
AE
100
AcDbEntity
  8
0
  6
CONTINUOUS
 62
     0
100
AcDbMText
 10
0.0
 20
-0.1249507489
 30
0.0
 40
0.065
 41
0.0
 71
     1
 72
     1
  1
FRACTIONAL
  7
SLDTEXTSTYLE0
  0
MTEXT
  5
B4
330
AE
100
AcDbEntity
  8
0
  6
CONTINUOUS
 62
     0
100
AcDbMText
 10
0.5175850875
 20
-0.1249507489
 30
0.0
 40
0.065
 41
0.0
 71
     1
 72
     1
  1
%%p
  7
SLDTEXTSTYLE0
  0
MTEXT
  5
B5
330
AE
100
AcDbEntity
  8
0
  6
CONTINUOUS
 62
     0
100
AcDbMText
 10
0.0
 20
-0.2293208248
 30
0.0
 40
0.065
 41
0.0
 71
     1
 72
     1
  1
ANGULAR: MACH
  7
SLDTEXTSTYLE0
  0
MTEXT
  5
B6
330
AE
100
AcDbEntity
  8
0
  6
CONTINUOUS
 62
     0
100
AcDbMText
 10
0.7233732769
 20
-0.2293208248
 30
0.0
 40
0.065
 41
0.0
 71
     1
 72
     1
  1
%%p
  7
SLDTEXTSTYLE0
  0
MTEXT
  5
B7
330
AE
100
AcDbEntity
  8
0
  6
CONTINUOUS
 62
     0
100
AcDbMText
 10
0.7852857683
 20
-0.2293208248
 30
0.0
 40
0.065
 41
0.0
 71
     1
 72
     1
  1
     BEND 
  7
SLDTEXTSTYLE0
  0
MTEXT
  5
B8
330
AE
100
AcDbEntity
  8
0
  6
CONTINUOUS
 62
     0
100
AcDbMText
 10
1.14784136
 20
-0.2293208248
 30
0.0
 40
0.065
 41
0.0
 71
     1
 72
     1
  1
%%p
  7
SLDTEXTSTYLE0
  0
MTEXT
  5
B9
330
AE
100
AcDbEntity
  8
0
  6
CONTINUOUS
 62
     0
100
AcDbMText
 10
0.0
 20
-0.3336909008
 30
0.0
 40
0.065
 41
0.0
 71
     1
 72
     1
  1
TWO PLACE DECIMAL    
  7
SLDTEXTSTYLE0
  0
MTEXT
  5
BA
330
AE
100
AcDbEntity
  8
0
  6
CONTINUOUS
 62
     0
100
AcDbMText
 10
0.9794349188
 20
-0.3336909008
 30
0.0
 40
0.065
 41
0.0
 71
     1
 72
     1
  1
%%p
  7
SLDTEXTSTYLE0
  0
MTEXT
  5
BB
330
AE
100
AcDbEntity
  8
0
  6
CONTINUOUS
 62
     0
100
AcDbMText
 10
0.0
 20
-0.4380609768
 30
0.0
 40
0.065
 41
0.0
 71
     1
 72
     1
  1
THREE PLACE DECIMAL  
  7
SLDTEXTSTYLE0
  0
MTEXT
  5
BC
330
AE
100
AcDbEntity
  8
0
  6
CONTINUOUS
 62
     0
100
AcDbMText
 10
0.9738038639
 20
-0.4380609768
 30
0.0
 40
0.065
 41
0.0
 71
     1
 72
     1
  1
%%p
  7
SLDTEXTSTYLE0
  0
ENDBLK
  5
B0
330
AE
100
AcDbEntity
  8
0
100
AcDbBlockEnd
  0
BLOCK
  5
C3
330
C2
100
AcDbEntity
  8
0
100
AcDbBlockBegin
  2
SW_NOTE_2
 70
     0
 10
0.0
 20
0.0
 30
0.0
  3
SW_NOTE_2
  1

  0
MTEXT
  5
C5
330
C2
100
AcDbEntity
  8
0
  6
CONTINUOUS
 62
     0
100
AcDbMText
 10
0.0
 20
0.0773440644
 30
0.0
 40
0.06
 41
0.0
 71
     1
 72
     1
  1
THE INFORMATION CONTAINED IN THIS
  7
SLDTEXTSTYLE0
  0
MTEXT
  5
C6
330
C2
100
AcDbEntity
  8
0
  6
CONTINUOUS
 62
     0
100
AcDbMText
 10
0.0
 20
-0.0220260102
 30
0.0
 40
0.06
 41
0.0
 71
     1
 72
     1
  1
DRAWING IS THE SOLE PROPERTY OF
  7
SLDTEXTSTYLE0
  0
MTEXT
  5
C7
330
C2
100
AcDbEntity
  8
0
  6
CONTINUOUS
 62
     0
100
AcDbMText
 10
0.0
 20
-0.1213960848
 30
0.0
 40
0.06
 41
0.0
 71
     1
 72
     1
  1
Candy Controls.  ANY 
  7
SLDTEXTSTYLE0
  0
MTEXT
  5
C8
330
C2
100
AcDbEntity
  8
0
  6
CONTINUOUS
 62
     0
100
AcDbMText
 10
0.0
 20
-0.2207661593
 30
0.0
 40
0.06
 41
0.0
 71
     1
 72
     1
  1
REPRODUCTION IN PART OR AS A WHOLE
  7
SLDTEXTSTYLE0
  0
MTEXT
  5
C9
330
C2
100
AcDbEntity
  8
0
  6
CONTINUOUS
 62
     0
100
AcDbMText
 10
0.0
 20
-0.3201362339
 30
0.0
 40
0.06
 41
0.0
 71
     1
 72
     1
  1
WITHOUT THE WRITTEN PERMISSION OF
  7
SLDTEXTSTYLE0
  0
MTEXT
  5
CA
330
C2
100
AcDbEntity
  8
0
  6
CONTINUOUS
 62
     0
100
AcDbMText
 10
0.0
 20
-0.4195063085
 30
0.0
 40
0.06
 41
0.0
 71
     1
 72
     1
  1
Candy Controls IS 
  7
SLDTEXTSTYLE0
  0
MTEXT
  5
CB
330
C2
100
AcDbEntity
  8
0
  6
CONTINUOUS
 62
     0
100
AcDbMText
 10
0.0
 20
-0.518876383
 30
0.0
 40
0.06
 41
0.0
 71
     1
 72
     1
  1
PROHIBITED.
  7
SLDTEXTSTYLE0
  0
ENDBLK
  5
C4
330
C2
100
AcDbEntity
  8
0
100
AcDbBlockEnd
  0
ENDSEC
  0
SECTION
  2
ENTITIES
  0
LINE
  5
41
330
1F
100
AcDbEntity
  8
0
  6
CONTINUOUS
 62
     7
100
AcDbLine
 10
0.329927
 20
8.1920731707
 30
0.0
 11
10.629927
 21
8.1920731707
 31
0.0
  0
LINE
  5
42
330
1F
100
AcDbEntity
  8
0
  6
CONTINUOUS
 62
     7
100
AcDbLine
 10
0.329927
 20
8.1920731707
 30
0.0
 11
0.329927
 21
0.3920731707
 31
0.0
  0
LINE
  5
43
330
1F
100
AcDbEntity
  8
0
  6
CONTINUOUS
 62
     7
100
AcDbLine
 10
10.629927
 20
0.3920731707
 30
0.0
 11
0.329927
 21
0.3920731707
 31
0.0
  0
LINE
  5
44
330
1F
100
AcDbEntity
  8
0
  6
CONTINUOUS
 62
     7
100
AcDbLine
 10
10.629927
 20
0.3920731707
 30
0.0
 11
10.629927
 21
8.1920731707
 31
0.0
  0
LINE
  5
45
330
1F
100
AcDbEntity
  8
0
  6
CONTINUOUS
 62
     7
100
AcDbLine
 10
4.7981841288
 20
0.3920731707
 30
0.0
 11
4.7981841288
 21
2.3564211366
 31
0.0
  0
LINE
  5
46
330
1F
100
AcDbEntity
  8
0
  6
CONTINUOUS
 62
     7
100
AcDbLine
 10
2.8210345579
 20
2.3564211366
 30
0.0
 11
10.629927
 21
2.3564211366
 31
0.0
  0
LINE
  5
47
330
1F
100
AcDbEntity
  8
0
  6
CONTINUOUS
 62
     7
100
AcDbLine
 10
6.1796352514
 20
2.3564211366
 30
0.0
 11
6.1796352514
 21
0.3920731707
 31
0.0
  0
LINE
  5
48
330
1F
100
AcDbEntity
  8
0
  6
CONTINUOUS
 62
     7
100
AcDbLine
 10
7.8712070044
 20
2.3564211366
 30
0.0
 11
7.8712070044
 21
0.3920731707
 31
0.0
  0
LINE
  5
49
330
1F
100
AcDbEntity
  8
0
  6
CONTINUOUS
 62
     7
100
AcDbLine
 10
7.8712070044
 20
0.6049590101
 30
0.0
 11
10.629927
 21
0.6049590101
 31
0.0
  0
LINE
  5
4A
330
1F
100
AcDbEntity
  8
0
  6
CONTINUOUS
 62
     7
100
AcDbLine
 10
7.8712070044
 20
1.1119362457
 30
0.0
 11
10.629927
 21
1.1119362457
 31
0.0
  0
LINE
  5
4B
330
1F
100
AcDbEntity
  8
0
  6
CONTINUOUS
 62
     7
100
AcDbLine
 10
7.8712070044
 20
1.9892703708
 30
0.0
 11
10.629927
 21
1.9892703708
 31
0.0
  0
LINE
  5
4C
330
1F
100
AcDbEntity
  8
0
  6
CONTINUOUS
 62
     7
100
AcDbLine
 10
8.266751752
 20
1.1119362457
 30
0.0
 11
8.266751752
 21
0.6049590101
 31
0.0
  0
LINE
  5
4D
330
1F
100
AcDbEntity
  8
0
  6
CONTINUOUS
 62
     7
100
AcDbLine
 10
8.6943435176
 20
0.6049590101
 30
0.0
 11
8.6943435176
 21
0.3920731707
 31
0.0
  0
LINE
  5
4E
330
1F
100
AcDbEntity
  8
0
  6
CONTINUOUS
 62
     7
100
AcDbLine
 10
10.0579917045
 20
1.1119362457
 30
0.0
 11
10.0579917045
 21
0.6049590101
 31
0.0
  0
LINE
  5
4F
330
1F
100
AcDbEntity
  8
0
  6
CONTINUOUS
 62
     7
100
AcDbLine
 10
9.6662556631
 20
0.6049590101
 30
0.0
 11
9.6662556631
 21
0.3920731707
 31
0.0
  0
LINE
  5
50
330
1F
100
AcDbEntity
  8
0
  6
CONTINUOUS
 62
     7
100
AcDbLine
 10
2.8210345579
 20
0.5883479999
 30
0.0
 11
6.1796352514
 21
0.5883479999
 31
0.0
  0
LINE
  5
51
330
1F
100
AcDbEntity
  8
0
  6
CONTINUOUS
 62
     7
100
AcDbLine
 10
6.1796352514
 20
1.7939211366
 30
0.0
 11
7.8712070044
 21
1.7939211366
 31
0.0
  0
LINE
  5
52
330
1F
100
AcDbEntity
  8
0
  6
CONTINUOUS
 62
     7
100
AcDbLine
 10
6.1796352514
 20
1.9814211366
 30
0.0
 11
7.8712070044
 21
1.9814211366
 31
0.0
  0
LINE
  5
53
330
1F
100
AcDbEntity
  8
0
  6
CONTINUOUS
 62
     7
100
AcDbLine
 10
6.1796352514
 20
2.1689211366
 30
0.0
 11
7.8712070044
 21
2.1689211366
 31
0.0
  0
LINE
  5
54
330
1F
100
AcDbEntity
  8
0
  6
CONTINUOUS
 62
     7
100
AcDbLine
 10
7.8712070044
 20
1.2314211366
 30
0.0
 11
6.1796352514
 21
1.2314211366
 31
0.0
  0
LINE
  5
55
330
1F
100
AcDbEntity
  8
0
  6
CONTINUOUS
 62
     7
100
AcDbLine
 10
7.3921580388
 20
2.3564211366
 30
0.0
 11
7.3921580388
 21
1.2314211366
 31
0.0
  0
LINE
  5
56
330
1F
100
AcDbEntity
  8
0
  6
CONTINUOUS
 62
     7
100
AcDbLine
 10
6.9236308342
 20
2.3564211366
 30
0.0
 11
6.9236308342
 21
1.2314211366
 31
0.0
  0
LINE
  5
57
330
1F
100
AcDbEntity
  8
0
  6
CONTINUOUS
 62
     7
100
AcDbLine
 10
4.7981841288
 20
0.8557965305
 30
0.0
 11
6.1796352514
 21
0.8557965305
 31
0.0
  0
LINE
  5
58
330
1F
100
AcDbEntity
  8
0
  6
CONTINUOUS
 62
     7
100
AcDbLine
 10
4.7981841288
 20
1.1257965305
 30
0.0
 11
6.1796352514
 21
1.1257965305
 31
0.0
  0
LINE
  5
59
330
1F
100
AcDbEntity
  8
0
  6
CONTINUOUS
 62
     7
100
AcDbLine
 10
2.8210345579
 20
0.3920731707
 30
0.0
 11
2.8210345579
 21
2.3564211366
 31
0.0
  0
LINE
  5
5A
330
1F
100
AcDbEntity
  8
0
  6
CONTINUOUS
 62
     7
100
AcDbLine
 10
2.8210345579
 20
1.1064211366
 30
0.0
 11
4.7981841288
 21
1.1064211366
 31
0.0
  0
LINE
  5
5B
330
1F
100
AcDbEntity
  8
0
  6
CONTINUOUS
 62
     7
100
AcDbLine
 10
2.8210345579
 20
1.3564211366
 30
0.0
 11
4.7981841288
 21
1.3564211366
 31
0.0
  0
LINE
  5
5C
330
1F
100
AcDbEntity
  8
0
  6
CONTINUOUS
 62
     7
100
AcDbLine
 10
2.8210345579
 20
1.6064211366
 30
0.0
 11
4.7981841288
 21
1.6064211366
 31
0.0
  0
LINE
  5
5D
330
1F
100
AcDbEntity
  8
0
  6
CONTINUOUS
 62
     7
100
AcDbLine
 10
2.8210345579
 20
1.8564211366
 30
0.0
 11
4.7981841288
 21
1.8564211366
 31
0.0
  0
LINE
  5
5E
330
1F
100
AcDbEntity
  8
0
  6
CONTINUOUS
 62
     7
100
AcDbLine
 10
3.8190146875
 20
2.3564211366
 30
0.0
 11
3.8190146875
 21
0.5883479999
 31
0.0
  0
LINE
  5
5F
330
1F
100
AcDbEntity
  8
0
  6
CONTINUOUS
 62
     7
100
AcDbLine
 10
6.1796352514
 20
2.2020813496
 30
0.0
 11
4.7981841288
 21
2.2020813496
 31
0.0
  0
LINE
  5
60
330
1F
100
AcDbEntity
  8
0
  6
CONTINUOUS
 62
     7
100
AcDbLine
 10
7.8712070044
 20
1.6064211366
 30
0.0
 11
6.1796352514
 21
1.6064211366
 31
0.0
  0
LINE
  5
61
330
1F
100
AcDbEntity
  8
0
  6
CONTINUOUS
 62
     7
100
AcDbLine
 10
7.8712070044
 20
1.4189211366
 30
0.0
 11
6.1796352514
 21
1.4189211366
 31
0.0
  0
LINE
  5
62
330
1F
100
AcDbEntity
  8
0
  6
CONTINUOUS
 62
     7
100
AcDbLine
 10
2.8210345579
 20
2.1064211366
 30
0.0
 11
4.7981841288
 21
2.1064211366
 31
0.0
  0
LINE
  5
63
330
1F
100
AcDbEntity
  8
0
  6
CONTINUOUS
 62
     7
100
AcDbLine
 10
4.7981841288
 20
1.3957965305
 30
0.0
 11
6.1796352514
 21
1.3957965305
 31
0.0
  0
LINE
  5
64
330
1F
100
AcDbEntity
  8
0
  6
CONTINUOUS
 62
     7
100
AcDbLine
 10
2.8210345579
 20
0.8564211366
 30
0.0
 11
4.7981841288
 21
0.8564211366
 31
0.0
  0
LINE
  5
65
330
1F
100
AcDbEntity
  8
0
  6
CONTINUOUS
 62
     7
100
AcDbLine
 10
1.1838252943
 20
0.3920731707
 30
0.0
 11
1.1838252943
 21
1.3064211366
 31
0.0
  0
LINE
  5
66
330
1F
100
AcDbEntity
  8
0
  6
CONTINUOUS
 62
     7
100
AcDbLine
 10
2.8210345579
 20
1.3064211366
 30
0.0
 11
1.1838252943
 21
1.3064211366
 31
0.0
  0
LINE
  5
67
330
1F
100
AcDbEntity
  8
0
  6
CONTINUOUS
 62
     7
100
AcDbLine
 10
8.660927
 20
0.3920731707
 30
0.0
 11
8.660927
 21
0.3072739649
 31
0.0
  0
LINE
  5
68
330
1F
100
AcDbEntity
  8
0
  6
CONTINUOUS
 62
     7
100
AcDbLine
 10
6.692177
 20
0.3920731707
 30
0.0
 11
6.692177
 21
0.3072739649
 31
0.0
  0
LINE
  5
69
330
1F
100
AcDbEntity
  8
0
  6
CONTINUOUS
 62
     7
100
AcDbLine
 10
4.723427
 20
0.3920731707
 30
0.0
 11
4.723427
 21
0.3072739649
 31
0.0
  0
LINE
  5
6A
330
1F
100
AcDbEntity
  8
0
  6
CONTINUOUS
 62
     7
100
AcDbLine
 10
2.754677
 20
0.3920731707
 30
0.0
 11
2.754677
 21
0.3072739649
 31
0.0
  0
LINE
  5
6B
330
1F
100
AcDbEntity
  8
0
  6
CONTINUOUS
 62
     7
100
AcDbLine
 10
2.754677
 20
0.3920731707
 30
0.0
 11
2.7672319738
 21
0.3575
 31
0.0
  0
LINE
  5
6C
330
1F
100
AcDbEntity
  8
0
  6
CONTINUOUS
 62
     7
100
AcDbLine
 10
2.7672319738
 20
0.3575
 30
0.0
 11
2.7414258825
 21
0.3575
 31
0.0
  0
LINE
  5
6D
330
1F
100
AcDbEntity
  8
0
  6
CONTINUOUS
 62
     7
100
AcDbLine
 10
2.7414258825
 20
0.3575
 30
0.0
 11
2.754677
 21
0.3920731707
 31
0.0
  0
MTEXT
  5
91
330
1F
100
AcDbEntity
  8
0
  6
CONTINUOUS
 62
     7
100
AcDbMText
 10
4.9775846961
 20
0.5178452352
 30
0.0
 40
0.0625
 41
0.0
 71
     1
 72
     1
  1
DO NOT SCALE DRAWING
  7
SLDTEXTSTYLE0
  0
MTEXT
  5
92
330
1F
100
AcDbEntity
  8
0
  6
CONTINUOUS
 62
     7
100
AcDbMText
 10
8.8358185704
 20
0.9417064595
 30
0.0
 40
0.125
 41
0.0
 71
     1
 72
     1
  1
CL3-C34
  7
SLDTEXTSTYLE0
  0
MTEXT
  5
94
330
1F
100
AcDbEntity
  8
0
  6
CONTINUOUS
 62
     7
100
AcDbMText
 10
9.7571278483
 20
0.5524239532
 30
0.0
 40
0.1
 41
0.0
 71
     1
 72
     1
  1
SHEET 1 OF 1
  7
SLDTEXTSTYLE1
  0
MTEXT
  5
95
330
1F
100
AcDbEntity
  8
0
  6
CONTINUOUS
 62
     7
100
AcDbMText
 10
4.8448077858
 20
2.3132954224
 30
0.0
 40
0.07
 41
0.0
 71
     1
 72
     1
  1
UNLESS OTHERWISE SPECIFIED:
  7
SLDTEXTSTYLE0
  0
MTEXT
  5
96
330
1F
100
AcDbEntity
  8
0
  6
CONTINUOUS
 62
     7
100
AcDbMText
 10
7.9586139647
 20
0.5520987879
 30
0.0
 40
0.1
 41
0.0
 71
     1
 72
     1
  1
SCALE: 1:1
  7
SLDTEXTSTYLE0
  0
MTEXT
  5
97
330
1F
100
AcDbEntity
  8
0
  6
CONTINUOUS
 62
     7
100
AcDbMText
 10
8.7023691647
 20
0.5486763345
 30
0.0
 40
0.1
 41
0.0
 71
     1
 72
     1
  1
WEIGHT: 
  7
SLDTEXTSTYLE0
  0
MTEXT
  5
98
330
1F
100
AcDbEntity
  8
0
  6
CONTINUOUS
 62
     7
100
AcDbMText
 10
10.2277580983
 20
1.081966299
 30
0.0
 40
0.1
 41
0.0
 71
     1
 72
     1
  1
REV
  7
SLDTEXTSTYLE0
  0
MTEXT
  5
9A
330
1F
100
AcDbEntity
  8
0
  6
CONTINUOUS
 62
     7
100
AcDbMText
 10
8.2984570898
 20
1.0858725293
 30
0.0
 40
0.1
 41
0.0
 71
     1
 72
     1
  1
DWG.  NO.
  7
SLDTEXTSTYLE2
  0
MTEXT
  5
9B
330
1F
100
AcDbEntity
  8
0
  6
CONTINUOUS
 62
     7
100
AcDbMText
 10
7.9598482632
 20
0.9442140768
 30
0.0
 40
0.25
 41
0.0
 71
     1
 72
     1
  1
A
  7
SLDTEXTSTYLE0
  0
MTEXT
  5
9C
330
1F
100
AcDbEntity
  8
0
  6
CONTINUOUS
 62
     7
100
AcDbMText
 10
7.9519581822
 20
1.0872713483
 30
0.0
 40
0.1
 41
0.0
 71
     1
 72
     1
  1
SIZE
  7
SLDTEXTSTYLE0
  0
MTEXT
  5
9D
330
1F
100
AcDbEntity
  8
0
  6
CONTINUOUS
 62
     7
100
AcDbMText
 10
7.9170704177
 20
1.9547881128
 30
0.0
 40
0.1
 41
0.0
 71
     1
 72
     1
  1
TITLE:
  7
SLDTEXTSTYLE0
  0
MTEXT
  5
9E
330
1F
100
AcDbEntity
  8
0
  6
CONTINUOUS
 62
     7
100
AcDbMText
 10
7.0363774929
 20
2.2906161274
 30
0.0
 40
0.065
 41
0.0
 71
     1
 72
     1
  1
NAME
  7
SLDTEXTSTYLE0
  0
MTEXT
  5
9F
330
1F
100
AcDbEntity
  8
0
  6
CONTINUOUS
 62
     7
100
AcDbMText
 10
7.5281510634
 20
2.2888799118
 30
0.0
 40
0.065
 41
0.0
 71
     1
 72
     1
  1
DATE
  7
SLDTEXTSTYLE0
  0
MTEXT
  5
A0
330
1F
100
AcDbEntity
  8
0
  6
CONTINUOUS
 62
     7
100
AcDbMText
 10
6.2277147029
 20
1.1876913145
 30
0.0
 40
0.065
 41
0.0
 71
     1
 72
     1
  1
COMMENTS:
  7
SLDTEXTSTYLE0
  0
MTEXT
  5
A1
330
1F
100
AcDbEntity
  8
0
  6
CONTINUOUS
 62
     7
100
AcDbMText
 10
6.2268411461
 20
1.3536101679
 30
0.0
 40
0.065
 41
0.0
 71
     1
 72
     1
  1
Q.A.
  7
SLDTEXTSTYLE0
  0
MTEXT
  5
A2
330
1F
100
AcDbEntity
  8
0
  6
CONTINUOUS
 62
     7
100
AcDbMText
 10
6.2284654509
 20
1.5395328424
 30
0.0
 40
0.065
 41
0.0
 71
     1
 72
     1
  1
MFG APPR.
  7
SLDTEXTSTYLE0
  0
MTEXT
  5
A3
330
1F
100
AcDbEntity
  8
0
  6
CONTINUOUS
 62
     7
100
AcDbMText
 10
6.2235171344
 20
1.7267501785
 30
0.0
 40
0.065
 41
0.0
 71
     1
 72
     1
  1
ENG APPR.
  7
SLDTEXTSTYLE0
  0
MTEXT
  5
A4
330
1F
100
AcDbEntity
  8
0
  6
CONTINUOUS
 62
     7
100
AcDbMText
 10
6.2264103951
 20
1.9092699088
 30
0.0
 40
0.065
 41
0.0
 71
     1
 72
     1
  1
CHECKED
  7
SLDTEXTSTYLE0
  0
MTEXT
  5
A5
330
1F
100
AcDbEntity
  8
0
  6
CONTINUOUS
 62
     7
100
AcDbMText
 10
6.2242794356
 20
2.1016301232
 30
0.0
 40
0.065
 41
0.0
 71
     1
 72
     1
  1
DRAWN
  7
SLDTEXTSTYLE0
  0
MTEXT
  5
A6
330
1F
100
AcDbEntity
  8
0
  6
CONTINUOUS
 62
     7
100
AcDbMText
 10
4.8208600979
 20
0.834523235
 30
0.0
 40
0.06
 41
0.0
 71
     1
 72
     1
  1
FINISH
  7
SLDTEXTSTYLE0
  0
MTEXT
  5
A7
330
1F
100
AcDbEntity
  8
0
  6
CONTINUOUS
 62
     7
100
AcDbMText
 10
4.8181240648
 20
1.1028217587
 30
0.0
 40
0.06
 41
0.0
 71
     1
 72
     1
  1
MATERIAL
  7
SLDTEXTSTYLE0
  0
INSERT
  5
AD
330
1F
100
AcDbEntity
  8
0
  6
CONTINUOUS
 62
     7
100
AcDbBlockReference
  2
SW_NOTE_0
 10
4.8231926633
 20
1.2646542947
 30
0.0
  0
INSERT
  5
BD
330
1F
100
AcDbEntity
  8
0
  6
CONTINUOUS
 62
     7
100
AcDbBlockReference
  2
SW_NOTE_1
 10
4.8353339353
 20
2.0049168724
 30
0.0
  0
MTEXT
  5
BE
330
1F
100
AcDbEntity
  8
0
  6
CONTINUOUS
 62
     7
100
AcDbMText
 10
3.5531400086
 20
0.5200091997
 30
0.0
 40
0.0625
 41
0.0
 71
     1
 72
     1
  1
APPLICATION
  7
SLDTEXTSTYLE0
  0
MTEXT
  5
BF
330
1F
100
AcDbEntity
  8
0
  6
CONTINUOUS
 62
     7
100
AcDbMText
 10
4.1005607758
 20
0.7502454275
 30
0.0
 40
0.0625
 41
0.0
 71
     1
 72
     1
  1
USED ON
  7
SLDTEXTSTYLE0
  0
MTEXT
  5
C0
330
1F
100
AcDbEntity
  8
0
  6
CONTINUOUS
 62
     7
100
AcDbMText
 10
3.1040019536
 20
0.7492094783
 30
0.0
 40
0.0625
 41
0.0
 71
     1
 72
     1
  1
NEXT ASSY
  7
SLDTEXTSTYLE0
  0
MTEXT
  5
C1
330
1F
100
AcDbEntity
  8
0
  6
CONTINUOUS
 62
     7
100
AcDbMText
 10
1.3712489489
 20
1.2496672684
 30
0.0
 40
0.06
 41
0.0
 71
     1
 72
     1
  1
PROPRIETARY AND CONFIDENTIAL
  7
SLDTEXTSTYLE0
  0
INSERT
  5
CC
330
1F
100
AcDbEntity
  8
0
  6
CONTINUOUS
 62
     7
100
AcDbBlockReference
  2
SW_NOTE_2
 10
1.2226209074
 20
1.0313492921
 30
0.0
  0
MTEXT
  5
CD
330
1F
100
AcDbEntity
  8
0
  6
CONTINUOUS
 62
     7
100
AcDbMText
 10
1.7387909509
 20
0.3105864247
 30
0.0
 40
0.09375
 41
0.0
 71
     1
 72
     1
  1
5
  7
SLDTEXTSTYLE0
  0
MTEXT
  5
CE
330
1F
100
AcDbEntity
  8
0
  6
CONTINUOUS
 62
     7
100
AcDbMText
 10
3.723800327
 20
0.3137237518
 30
0.0
 40
0.09375
 41
0.0
 71
     1
 72
     1
  1
4
  7
SLDTEXTSTYLE0
  0
MTEXT
  5
CF
330
1F
100
AcDbEntity
  8
0
  6
CONTINUOUS
 62
     7
100
AcDbMText
 10
5.6324457277
 20
0.3116191842
 30
0.0
 40
0.09375
 41
0.0
 71
     1
 72
     1
  1
3
  7
SLDTEXTSTYLE0
  0
MTEXT
  5
D0
330
1F
100
AcDbEntity
  8
0
  6
CONTINUOUS
 62
     7
100
AcDbMText
 10
7.6059721724
 20
0.3124391351
 30
0.0
 40
0.09375
 41
0.0
 71
     1
 72
     1
  1
2
  7
SLDTEXTSTYLE0
  0
MTEXT
  5
D1
330
1F
100
AcDbEntity
  8
0
  6
CONTINUOUS
 62
     7
100
AcDbMText
 10
9.6619921328
 20
0.301372012
 30
0.0
 40
0.09375
 41
0.0
 71
     1
 72
     1
  1
1
  7
SLDTEXTSTYLE0
  0
LINE
  5
D2
330
1F
100
AcDbEntity
  8
0
  6
CONTINUOUS
 62
     7
100
AcDbLine
 10
3.4395888593
 20
3.0893869478
 30
0.0
 11
3.4592738987
 21
3.1090719872
 31
0.0
  0
LINE
  5
D3
330
1F
100
AcDbEntity
  8
0
  6
CONTINUOUS
 62
     7
100
AcDbLine
 10
3.4592738987
 20
4.4082845856
 30
0.0
 11
3.4395888593
 21
4.427969625
 31
0.0
  0
LINE
  5
D4
330
1F
100
AcDbEntity
  8
0
  6
CONTINUOUS
 62
     7
100
AcDbLine
 10
3.3856912215
 20
3.0893869478
 30
0.0
 11
3.4395888593
 21
3.0893869478
 31
0.0
  0
LINE
  5
D5
330
1F
100
AcDbEntity
  8
0
  6
CONTINUOUS
 62
     7
100
AcDbLine
 10
3.4395888593
 20
4.427969625
 30
0.0
 11
3.3856912215
 21
4.427969625
 31
0.0
  0
LINE
  5
D6
330
1F
100
AcDbEntity
  8
0
  6
CONTINUOUS
 62
     7
100
AcDbLine
 10
3.5642607753
 20
3.333481436
 30
0.0
 11
3.8431321664
 21
3.333481436
 31
0.0
  0
LINE
  5
D7
330
1F
100
AcDbEntity
  8
0
  6
CONTINUOUS
 62
     7
100
AcDbLine
 10
3.4592738987
 20
3.333481436
 30
0.0
 11
3.511767337
 21
3.333481436
 31
0.0
  0
LINE
  5
D8
330
1F
100
AcDbEntity
  8
0
  6
CONTINUOUS
 62
     7
100
AcDbLine
 10
3.511767337
 20
4.1838751368
 30
0.0
 11
3.4592738987
 21
4.1838751368
 31
0.0
  0
LINE
  5
D9
330
1F
100
AcDbEntity
  8
0
  6
CONTINUOUS
 62
     7
100
AcDbLine
 10
3.8431321664
 20
4.1838751368
 30
0.0
 11
3.5642607753
 21
4.1838751368
 31
0.0
  0
LINE
  5
DA
330
1F
100
AcDbEntity
  8
0
  6
CONTINUOUS
 62
     7
100
AcDbLine
 10
3.8431321664
 20
3.333481436
 30
0.0
 11
3.8581321664
 21
3.348481436
 31
0.0
  0
LINE
  5
DB
330
1F
100
AcDbEntity
  8
0
  6
CONTINUOUS
 62
     7
100
AcDbLine
 10
3.8581321664
 20
4.1688751368
 30
0.0
 11
3.8431321664
 21
4.1838751368
 31
0.0
  0
ARC
  5
DC
330
1F
100
AcDbEntity
  8
0
  6
CONTINUOUS
 62
     7
100
AcDbCircle
 10
3.636439253
 20
4.0795444281
 30
0.0
 40
0.0196850393700787
100
AcDbArc
 50
90.0
 51
170.0107417849
  0
ARC
  5
DD
330
1F
100
AcDbEntity
  8
0
  6
CONTINUOUS
 62
     7
100
AcDbCircle
 10
3.8136046073
 20
4.0795444281
 30
0.0
 40
0.0196850393700791
100
AcDbArc
 50
0.0
 51
90.0
  0
LINE
  5
DE
330
1F
100
AcDbEntity
  8
0
  6
CONTINUOUS
 62
     7
100
AcDbLine
 10
3.665966812
 20
3.7783633258
 30
0.0
 11
3.665966812
 21
3.738993247
 31
0.0
  0
LINE
  5
DF
330
1F
100
AcDbEntity
  8
0
  6
CONTINUOUS
 62
     7
100
AcDbLine
 10
3.7840770483
 20
3.738993247
 30
0.0
 11
3.7840770483
 21
3.7783633258
 31
0.0
  0
LINE
  5
E0
330
1F
100
AcDbEntity
  8
0
  6
CONTINUOUS
 62
     7
100
AcDbLine
 10
3.2136833475
 20
4.427969625
 30
0.0
 11
3.1939983081
 21
4.4082845856
 31
0.0
  0
LINE
  5
E1
330
1F
100
AcDbEntity
  8
0
  6
CONTINUOUS
 62
     7
100
AcDbLine
 10
3.1939983081
 20
3.1090719872
 30
0.0
 11
3.2136833475
 21
3.0893869478
 31
0.0
  0
LINE
  5
E2
330
1F
100
AcDbEntity
  8
0
  6
CONTINUOUS
 62
     7
100
AcDbLine
 10
3.2675809853
 20
4.427969625
 30
0.0
 11
3.2136833475
 21
4.427969625
 31
0.0
  0
LINE
  5
E3
330
1F
100
AcDbEntity
  8
0
  6
CONTINUOUS
 62
     7
100
AcDbLine
 10
3.2136833475
 20
3.0893869478
 30
0.0
 11
3.2675809853
 21
3.0893869478
 31
0.0
  0
LINE
  5
E4
330
1F
100
AcDbEntity
  8
0
  6
CONTINUOUS
 62
     7
100
AcDbLine
 10
3.3463211428
 20
3.6504105699
 30
0.0
 11
3.3856912215
 21
3.6504105699
 31
0.0
  0
LINE
  5
E5
330
1F
100
AcDbEntity
  8
0
  6
CONTINUOUS
 62
     7
100
AcDbLine
 10
3.3856912215
 20
3.8669460029
 30
0.0
 11
3.3463211428
 21
3.8669460029
 31
0.0
  0
LINE
  5
E6
330
1F
100
AcDbEntity
  8
0
  6
CONTINUOUS
 62
     7
100
AcDbLine
 10
3.2675809853
 20
3.6504105699
 30
0.0
 11
3.306951064
 21
3.6504105699
 31
0.0
  0
LINE
  5
E7
330
1F
100
AcDbEntity
  8
0
  6
CONTINUOUS
 62
     7
100
AcDbLine
 10
3.306951064
 20
3.8669460029
 30
0.0
 11
3.2675809853
 21
3.8669460029
 31
0.0
  0
LINE
  5
E8
330
1F
100
AcDbEntity
  8
0
  6
CONTINUOUS
 62
     7
100
AcDbLine
 10
3.1939983081
 20
4.1838751368
 30
0.0
 11
3.1415048698
 21
4.1838751368
 31
0.0
  0
LINE
  5
E9
330
1F
100
AcDbEntity
  8
0
  6
CONTINUOUS
 62
     7
100
AcDbLine
 10
2.8101400404
 20
3.333481436
 30
0.0
 11
3.1939983081
 21
3.333481436
 31
0.0
  0
LINE
  5
EA
330
1F
100
AcDbEntity
  8
0
  6
CONTINUOUS
 62
     7
100
AcDbLine
 10
2.7971512479
 20
3.3464702285
 30
0.0
 11
2.8101400404
 21
3.333481436
 31
0.0
  0
LINE
  5
EB
330
1F
100
AcDbEntity
  8
0
  6
CONTINUOUS
 62
     7
100
AcDbLine
 10
3.3463211428
 20
4.1573003336
 30
0.0
 11
3.3856912215
 21
4.1573003336
 31
0.0
  0
LINE
  5
EC
330
1F
100
AcDbEntity
  8
0
  6
CONTINUOUS
 62
     7
100
AcDbLine
 10
3.3856912215
 20
4.3738357667
 30
0.0
 11
3.3463211428
 21
4.3738357667
 31
0.0
  0
LINE
  5
ED
330
1F
100
AcDbEntity
  8
0
  6
CONTINUOUS
 62
     7
100
AcDbLine
 10
3.2675809853
 20
4.1573003336
 30
0.0
 11
3.306951064
 21
4.1573003336
 31
0.0
  0
LINE
  5
EE
330
1F
100
AcDbEntity
  8
0
  6
CONTINUOUS
 62
     7
100
AcDbLine
 10
3.306951064
 20
4.3738357667
 30
0.0
 11
3.2675809853
 21
4.3738357667
 31
0.0
  0
LINE
  5
EF
330
1F
100
AcDbEntity
  8
0
  6
CONTINUOUS
 62
     7
100
AcDbLine
 10
3.2675809853
 20
3.1435208061
 30
0.0
 11
3.306951064
 21
3.1435208061
 31
0.0
  0
LINE
  5
F0
330
1F
100
AcDbEntity
  8
0
  6
CONTINUOUS
 62
     7
100
AcDbLine
 10
3.306951064
 20
3.3600562391
 30
0.0
 11
3.2675809853
 21
3.3600562391
 31
0.0
  0
LINE
  5
F1
330
1F
100
AcDbEntity
  8
0
  6
CONTINUOUS
 62
     7
100
AcDbLine
 10
3.3463211428
 20
3.1435208061
 30
0.0
 11
3.3856912215
 21
3.1435208061
 31
0.0
  0
LINE
  5
F2
330
1F
100
AcDbEntity
  8
0
  6
CONTINUOUS
 62
     7
100
AcDbLine
 10
3.3856912215
 20
3.3600562391
 30
0.0
 11
3.3463211428
 21
3.3600562391
 31
0.0
  0
LINE
  5
F3
330
1F
100
AcDbEntity
  8
0
  6
CONTINUOUS
 62
     7
100
AcDbLine
 10
3.3463211428
 20
4.4009026958
 30
0.0
 11
3.306951064
 21
4.4009026958
 31
0.0
  0
LINE
  5
F4
330
1F
100
AcDbEntity
  8
0
  6
CONTINUOUS
 62
     7
100
AcDbLine
 10
3.306951064
 20
3.1164538769
 30
0.0
 11
3.3463211428
 21
3.1164538769
 31
0.0
  0
LINE
  5
F5
330
1F
100
AcDbEntity
  8
0
  6
CONTINUOUS
 62
     7
100
AcDbLine
 10
3.4395888593
 20
3.0893869478
 30
0.0
 11
3.4395888593
 21
4.427969625
 31
0.0
  0
LINE
  5
F6
330
1F
100
AcDbEntity
  8
0
  6
CONTINUOUS
 62
     7
100
AcDbLine
 10
3.4592738987
 20
4.4082845856
 30
0.0
 11
3.4592738987
 21
3.1090719872
 31
0.0
  0
LINE
  5
F7
330
1F
100
AcDbEntity
  8
0
  6
CONTINUOUS
 62
     7
100
AcDbLine
 10
3.3856912215
 20
3.7586782864
 30
0.0
 11
3.3856912215
 21
4.427969625
 31
0.0
  0
LINE
  5
F8
330
1F
100
AcDbEntity
  8
0
  6
CONTINUOUS
 62
     7
100
AcDbLine
 10
3.3856912215
 20
3.0893869478
 30
0.0
 11
3.3856912215
 21
3.7586782864
 31
0.0
  0
SPLINE
  5
F9
330
1F
100
AcDbEntity
  8
0
  6
CONTINUOUS
 62
     7
100
AcDbSpline
210
0.0
220
0.0
230
1.0
 70
     8
 71
     3
 72
    56
 73
    52
 74
     0
 42
0.00000001
 43
0.00000001
 40
0.0
 40
0.0
 40
0.0
 40
0.0
 40
0.0624999999999999
 40
0.0624999999999999
 40
0.1249999999999998
 40
0.1249999999999998
 40
0.1874999999999996
 40
0.1874999999999996
 40
0.2499999999999996
 40
0.2499999999999996
 40
0.2812499999999994
 40
0.2812499999999994
 40
0.3124999999999993
 40
0.3124999999999993
 40
0.3437499999999991
 40
0.3437499999999991
 40
0.3749999999999989
 40
0.3749999999999989
 40
0.4062499999999987
 40
0.4062499999999987
 40
0.4374999999999986
 40
0.4374999999999986
 40
0.4687499999999984
 40
0.4687499999999984
 40
0.4999999999999982
 40
0.4999999999999982
 40
0.531249999999998
 40
0.531249999999998
 40
0.5624999999999979
 40
0.5624999999999979
 40
0.5937499999999977
 40
0.5937499999999977
 40
0.6249999999999976
 40
0.6249999999999976
 40
0.6562499999999976
 40
0.6562499999999976
 40
0.6874999999999978
 40
0.6874999999999978
 40
0.7187499999999979
 40
0.7187499999999979
 40
0.7499999999999981
 40
0.7499999999999981
 40
0.7812499999999982
 40
0.7812499999999982
 40
0.8124999999999983
 40
0.8124999999999983
 40
0.8749999999999989
 40
0.8749999999999989
 40
0.9374999999999994
 40
0.9374999999999994
 40
1.0
 40
1.0
 40
1.0
 40
1.0
 10
3.782467539080537
 20
3.981119231273937
 30
0.0
 10
3.791563301704149
 20
3.99039455381987
 30
0.0
 10
3.799136439260928
 20
4.000236237708918
 30
0.0
 10
3.812299054481455
 20
4.020285855620605
 30
0.0
 10
3.817817211608082
 20
4.030500123659383
 30
0.0
 10
3.826496449680709
 20
4.050422261186413
 30
0.0
 10
3.829731976222981
 20
4.060293902928406
 30
0.0
 10
3.833419938396406
 20
4.07936850336853
 30
0.0
 10
3.833858357527315
 20
4.088392427307322
 30
0.0
 10
3.831844339399676
 20
4.101155949946738
 30
0.0
 10
3.830709921958749
 20
4.105280662789575
 30
0.0
 10
3.827477415434482
 20
4.113022648283624
 30
0.0
 10
3.825377474099905
 20
4.116673905015315
 30
0.0
 10
3.820078906645319
 20
4.123551725432381
 30
0.0
 10
3.816849989774148
 20
4.126788203140812
 30
0.0
 10
3.809437261879684
 20
4.132601847552492
 30
0.0
 10
3.805233621449796
 20
4.135216315586137
 30
0.0
 10
3.795749890050399
 20
4.139912164960045
 30
0.0
 10
3.790400757124346
 20
4.142007964508182
 30
0.0
 10
3.779037918012811
 20
4.145523802429409
 30
0.0
 10
3.772990695755286
 20
4.146971680150958
 30
0.0
 10
3.760135969906327
 20
4.149311519138243
 30
0.0
 10
3.753325137238158
 20
4.150193642572191
 30
0.0
 10
3.739595976716767
 20
4.151357060746544
 30
0.0
 10
3.732578958869655
 20
4.151655588481709
 30
0.0
 10
3.718333752440425
 20
4.151679199472772
 30
0.0
 10
3.711330472447669
 20
4.151405339715819
 30
0.0
 10
3.697553473550709
 20
4.150287777141609
 30
0.0
 10
3.690712017733397
 20
4.149427709606696
 30
0.0
 10
3.677817976726099
 20
4.14713760108272
 30
0.0
 10
3.671715478754438
 20
4.145709880455472
 30
0.0
 10
3.66019257159175
 20
4.142207964834088
 30
0.0
 10
3.654864194579968
 20
4.140153122278525
 30
0.0
 10
3.645282561950169
 20
4.135487286320281
 30
0.0
 10
3.640951834028435
 20
4.13283665552953
 30
0.0
 10
3.633406020066682
 20
4.126987970721168
 30
0.0
 10
3.630210370619118
 20
4.123818325595096
 30
0.0
 10
3.624849096727665
 20
4.116959027299584
 30
0.0
 10
3.62268040365868
 20
4.113243571660891
 30
0.0
 10
3.619397097287783
 20
4.105481197578755
 30
0.0
 10
3.618260660008251
 20
4.10141582760856
 30
0.0
 10
3.616879280056743
 20
4.092909125324948
 30
0.0
 10
3.616640804559444
 20
4.088450913255039
 30
0.0
 10
3.616967052488506
 20
4.079388493070891
 30
0.0
 10
3.617524786180469
 20
4.074757656208353
 30
0.0
 10
3.620240230652913
 20
4.060570407860419
 30
0.0
 10
3.623473043867311
 20
4.050615799384181
 30
0.0
 10
3.632182788865127
 20
4.030578267821149
 30
0.0
 10
3.637626622967173
 20
4.020484866280691
 30
0.0
 10
3.650823965508501
 20
4.000344655398831
 30
0.0
 10
3.658477052268382
 20
3.990398129378588
 30
0.0
 10
3.667576321231874
 20
3.981119231273937
 30
0.0
  0
SPLINE
  5
FA
330
1F
100
AcDbEntity
  8
0
  6
CONTINUOUS
 62
     7
100
AcDbSpline
210
0.0
220
0.0
230
1.0
 70
     8
 71
     3
 72
    46
 73
    42
 74
     0
 42
0.00000001
 43
0.00000001
 40
-0.0312499999999999
 40
-0.0312499999999999
 40
0.0
 40
0.0
 40
0.0625
 40
0.0625
 40
0.09375
 40
0.09375
 40
0.1250000000000001
 40
0.1250000000000001
 40
0.1875000000000004
 40
0.1875000000000004
 40
0.2500000000000006
 40
0.2500000000000006
 40
0.3125000000000008
 40
0.3125000000000008
 40
0.3750000000000011
 40
0.3750000000000011
 40
0.4062500000000012
 40
0.4062500000000012
 40
0.4375000000000011
 40
0.4375000000000011
 40
0.500000000000001
 40
0.500000000000001
 40
0.5625000000000009
 40
0.5625000000000009
 40
0.6250000000000007
 40
0.6250000000000007
 40
0.6875000000000006
 40
0.6875000000000006
 40
0.7500000000000004
 40
0.7500000000000004
 40
0.8125000000000003
 40
0.8125000000000003
 40
0.8750000000000001
 40
0.8750000000000001
 40
0.9062500000000001
 40
0.9062500000000001
 40
0.9375000000000001
 40
0.9375000000000001
 40
0.9687500000000001
 40
0.9687500000000001
 40
1.0
 40
1.0
 40
1.0625
 40
1.0625
 10
3.720462091944909
 20
3.49012637458768
 30
0.0
 10
3.7341416065788
 20
3.49012637458768
 30
0.0
 10
3.742804911956071
 20
3.487438002307034
 30
0.0
 10
3.753764829295879
 20
3.481382867440214
 30
0.0
 10
3.757099085501075
 20
3.479041380057068
 30
0.0
 10
3.763082161201017
 20
3.474062271310567
 30
0.0
 10
3.765772182169985
 20
3.471396377619667
 30
0.0
 10
3.77305651317319
 20
3.463029223746128
 30
0.0
 10
3.776692183883539
 20
3.457216384234375
 30
0.0
 10
3.781980642688896
 20
3.445374403726144
 30
0.0
 10
3.783561002951537
 20
3.439405191437129
 30
0.0
 10
3.784380195128578
 20
3.427912813964777
 30
0.0
 10
3.783604879385098
 20
3.422260528632924
 30
0.0
 10
3.779311105218321
 20
3.411932174267916
 30
0.0
 10
3.775719517042358
 20
3.407120040670906
 30
0.0
 10
3.768111083181741
 20
3.40105102942411
 30
0.0
 10
3.765150093710913
 20
3.399178168922935
 30
0.0
 10
3.758621346651406
 20
3.395935683556413
 30
0.0
 10
3.75505607287052
 20
3.394552346338525
 30
0.0
 10
3.743370820605591
 20
3.391115573979482
 30
0.0
 10
3.734405310492102
 20
3.38987328364075
 30
0.0
 10
3.716371791126514
 20
3.38980907142302
 30
0.0
 10
3.707395849474977
 20
3.390980800137551
 30
0.0
 10
3.691659480499376
 20
3.395459575604447
 30
0.0
 10
3.684890394303131
 20
3.398775710608344
 30
0.0
 10
3.674551644661582
 20
3.406859980462065
 30
0.0
 10
3.670909600370321
 20
3.411644456455685
 30
0.0
 10
3.666494870321432
 20
3.4219955657899
 30
0.0
 10
3.665678531843465
 20
3.427639226031368
 30
0.0
 10
3.666434009102281
 20
3.439181745583993
 30
0.0
 10
3.668009513335496
 20
3.445201762327044
 30
0.0
 10
3.67323844590555
 20
3.45701358382576
 30
0.0
 10
3.676946910880891
 20
3.462961453801999
 30
0.0
 10
3.684156814042183
 20
3.471274803725325
 30
0.0
 10
3.686828986062976
 20
3.473940204039883
 30
0.0
 10
3.69284300327956
 20
3.478967865303024
 30
0.0
 10
3.696184033767834
 20
3.481319819158709
 30
0.0
 10
3.703451546435425
 20
3.485355775050948
 30
0.0
 10
3.707473295413145
 20
3.487081186118936
 30
0.0
 10
3.715932718018361
 20
3.489457575358757
 30
0.0
 10
3.720462091944909
 20
3.49012637458768
 30
0.0
 10
3.7341416065788
 20
3.49012637458768
 30
0.0
  0
LINE
  5
FB
330
1F
100
AcDbEntity
  8
0
  6
CONTINUOUS
 62
     7
100
AcDbLine
 10
3.5642607753
 20
3.738993247
 30
0.0
 11
3.5642607753
 21
3.333481436
 31
0.0
  0
LINE
  5
FC
330
1F
100
AcDbEntity
  8
0
  6
CONTINUOUS
 62
     7
100
AcDbLine
 10
3.8431321664
 20
3.738993247
 30
0.0
 11
3.5642607753
 21
3.738993247
 31
0.0
  0
LINE
  5
FD
330
1F
100
AcDbEntity
  8
0
  6
CONTINUOUS
 62
     7
100
AcDbLine
 10
3.8431321664
 20
3.7783633258
 30
0.0
 11
3.8431321664
 21
4.1838751368
 31
0.0
  0
LINE
  5
FE
330
1F
100
AcDbEntity
  8
0
  6
CONTINUOUS
 62
     7
100
AcDbLine
 10
3.8431321664
 20
3.333481436
 30
0.0
 11
3.8431321664
 21
3.738993247
 31
0.0
  0
LINE
  5
FF
330
1F
100
AcDbEntity
  8
0
  6
CONTINUOUS
 62
     7
100
AcDbLine
 10
3.8431321664
 20
3.7783633258
 30
0.0
 11
3.5642607753
 21
3.7783633258
 31
0.0
  0
LINE
  5
100
330
1F
100
AcDbEntity
  8
0
  6
CONTINUOUS
 62
     7
100
AcDbLine
 10
3.5642607753
 20
4.1838751368
 30
0.0
 11
3.5642607753
 21
3.7783633258
 31
0.0
  0
LINE
  5
101
330
1F
100
AcDbEntity
  8
0
  6
CONTINUOUS
 62
     7
100
AcDbLine
 10
3.511767337
 20
4.1365849027
 30
0.0
 11
3.5642607753
 21
4.1365849027
 31
0.0
  0
LINE
  5
102
330
1F
100
AcDbEntity
  8
0
  6
CONTINUOUS
 62
     7
100
AcDbLine
 10
3.511767337
 20
3.333481436
 30
0.0
 11
3.511767337
 21
4.1838751368
 31
0.0
  0
LINE
  5
103
330
1F
100
AcDbEntity
  8
0
  6
CONTINUOUS
 62
     7
100
AcDbLine
 10
3.5642607753
 20
3.3807716701
 30
0.0
 11
3.511767337
 21
3.3807716701
 31
0.0
  0
SPLINE
  5
104
330
1F
100
AcDbEntity
  8
0
  6
CONTINUOUS
 62
     7
100
AcDbSpline
210
0.0
220
0.0
230
1.0
 70
     8
 71
     3
 72
     8
 73
     4
 74
     0
 42
0.00000001
 43
0.00000001
 40
0.0
 40
0.0
 40
0.0
 40
0.0
 40
1.0
 40
1.0
 40
1.0
 40
1.0
 10
3.855885943597492
 20
3.778363325762126
 30
0.0
 10
3.856507547923221
 20
3.765239966182073
 30
0.0
 10
3.856507547923221
 20
3.752116606602021
 30
0.0
 10
3.855885943597492
 20
3.738993247021968
 30
0.0
  0
LINE
  5
105
330
1F
100
AcDbEntity
  8
0
  6
CONTINUOUS
 62
     7
100
AcDbLine
 10
3.8581321664
 20
4.1688751368
 30
0.0
 11
3.8581321664
 21
3.7783633258
 31
0.0
  0
LINE
  5
106
330
1F
100
AcDbEntity
  8
0
  6
CONTINUOUS
 62
     7
100
AcDbLine
 10
3.8581321664
 20
3.738993247
 30
0.0
 11
3.8581321664
 21
3.348481436
 31
0.0
  0
LINE
  5
107
330
1F
100
AcDbEntity
  8
0
  6
CONTINUOUS
 62
     7
100
AcDbLine
 10
3.8431321664
 20
3.7783633258
 30
0.0
 11
3.8581321664
 21
3.7783633258
 31
0.0
  0
LINE
  5
108
330
1F
100
AcDbEntity
  8
0
  6
CONTINUOUS
 62
     7
100
AcDbLine
 10
3.8431321664
 20
3.738993247
 30
0.0
 11
3.8581321664
 21
3.738993247
 31
0.0
  0
LINE
  5
109
330
1F
100
AcDbEntity
  8
0
  6
CONTINUOUS
 62
     7
100
AcDbLine
 10
3.5642607753
 20
3.738993247
 30
0.0
 11
3.5642607753
 21
3.7783633258
 31
0.0
  0
LINE
  5
10A
330
1F
100
AcDbEntity
  8
0
  6
CONTINUOUS
 62
     7
100
AcDbLine
 10
3.7250219302
 20
3.9811192313
 30
0.0
 11
3.7824675391
 21
3.9811192313
 31
0.0
  0
LINE
  5
10B
330
1F
100
AcDbEntity
  8
0
  6
CONTINUOUS
 62
     7
100
AcDbLine
 10
3.6671946168
 20
3.9811192313
 30
0.0
 11
3.7250219302
 21
3.9811192313
 31
0.0
  0
LINE
  5
10C
330
1F
100
AcDbEntity
  8
0
  6
CONTINUOUS
 62
     7
100
AcDbLine
 10
3.7250219302
 20
4.0992294675
 30
0.0
 11
3.8136046073
 21
4.0992294675
 31
0.0
  0
LINE
  5
10D
330
1F
100
AcDbEntity
  8
0
  6
CONTINUOUS
 62
     7
100
AcDbLine
 10
3.636439253
 20
4.0992294675
 30
0.0
 11
3.7250219302
 21
4.0992294675
 31
0.0
  0
LINE
  5
10E
330
1F
100
AcDbEntity
  8
0
  6
CONTINUOUS
 62
     7
100
AcDbLine
 10
3.7416137837
 20
3.4870247431
 30
0.0
 11
3.7083705504
 21
3.4870247431
 31
0.0
  0
CIRCLE
  5
10F
330
1F
100
AcDbEntity
  8
0
  6
CONTINUOUS
 62
     7
100
AcDbCircle
 10
2.9282502766
 20
4.029277885
 30
0.0
 40
0.0393700787401574
  0
LINE
  5
110
330
1F
100
AcDbEntity
  8
0
  6
CONTINUOUS
 62
     7
100
AcDbLine
 10
3.2136833475
 20
3.0893869478
 30
0.0
 11
3.2136833475
 21
4.427969625
 31
0.0
  0
LINE
  5
111
330
1F
100
AcDbEntity
  8
0
  6
CONTINUOUS
 62
     7
100
AcDbLine
 10
3.1939983081
 20
4.4082845856
 30
0.0
 11
3.1939983081
 21
3.1090719872
 31
0.0
  0
LINE
  5
112
330
1F
100
AcDbEntity
  8
0
  6
CONTINUOUS
 62
     7
100
AcDbLine
 10
3.2675809853
 20
3.0893869478
 30
0.0
 11
3.2675809853
 21
4.427969625
 31
0.0
  0
LINE
  5
113
330
1F
100
AcDbEntity
  8
0
  6
CONTINUOUS
 62
     7
100
AcDbLine
 10
3.3463211428
 20
3.8543743321
 30
0.0
 11
3.306951064
 21
3.8543743321
 31
0.0
  0
LINE
  5
114
330
1F
100
AcDbEntity
  8
0
  6
CONTINUOUS
 62
     7
100
AcDbLine
 10
3.3463211428
 20
3.8543743321
 30
0.0
 11
3.3463211428
 21
3.6629822407
 31
0.0
  0
LINE
  5
115
330
1F
100
AcDbEntity
  8
0
  6
CONTINUOUS
 62
     7
100
AcDbLine
 10
3.3463211428
 20
3.6629822407
 30
0.0
 11
3.306951064
 21
3.6629822407
 31
0.0
  0
LINE
  5
116
330
1F
100
AcDbEntity
  8
0
  6
CONTINUOUS
 62
     7
100
AcDbLine
 10
3.306951064
 20
3.8543743321
 30
0.0
 11
3.306951064
 21
3.6629822407
 31
0.0
  0
LINE
  5
117
330
1F
100
AcDbEntity
  8
0
  6
CONTINUOUS
 62
     7
100
AcDbLine
 10
3.3463211428
 20
3.1560924769
 30
0.0
 11
3.306951064
 21
3.1560924769
 31
0.0
  0
LINE
  5
118
330
1F
100
AcDbEntity
  8
0
  6
CONTINUOUS
 62
     7
100
AcDbLine
 10
3.3463211428
 20
3.6629822407
 30
0.0
 11
3.3463211428
 21
3.1560924769
 31
0.0
  0
LINE
  5
119
330
1F
100
AcDbEntity
  8
0
  6
CONTINUOUS
 62
     7
100
AcDbLine
 10
3.306951064
 20
3.6629822407
 30
0.0
 11
3.306951064
 21
3.1560924769
 31
0.0
  0
LINE
  5
11A
330
1F
100
AcDbEntity
  8
0
  6
CONTINUOUS
 62
     7
100
AcDbLine
 10
3.3463211428
 20
4.3612640959
 30
0.0
 11
3.306951064
 21
4.3612640959
 31
0.0
  0
LINE
  5
11B
330
1F
100
AcDbEntity
  8
0
  6
CONTINUOUS
 62
     7
100
AcDbLine
 10
3.3463211428
 20
4.3612640959
 30
0.0
 11
3.3463211428
 21
3.8543743321
 31
0.0
  0
LINE
  5
11C
330
1F
100
AcDbEntity
  8
0
  6
CONTINUOUS
 62
     7
100
AcDbLine
 10
3.306951064
 20
4.3612640959
 30
0.0
 11
3.306951064
 21
3.8543743321
 31
0.0
  0
SPLINE
  5
11D
330
1F
100
AcDbEntity
  8
0
  6
CONTINUOUS
 62
     7
100
AcDbSpline
210
0.0
220
0.0
230
1.0
 70
     8
 71
     3
 72
    46
 73
    42
 74
     0
 42
0.00000001
 43
0.00000001
 40
-0.0312500000000001
 40
-0.0312500000000001
 40
0.0
 40
0.0
 40
0.0624999999999997
 40
0.0624999999999997
 40
0.0937499999999997
 40
0.0937499999999997
 40
0.1249999999999996
 40
0.1249999999999996
 40
0.1874999999999995
 40
0.1874999999999995
 40
0.2499999999999996
 40
0.2499999999999996
 40
0.3124999999999996
 40
0.3124999999999996
 40
0.3749999999999997
 40
0.3749999999999997
 40
0.4062499999999996
 40
0.4062499999999996
 40
0.4374999999999996
 40
0.4374999999999996
 40
0.4999999999999997
 40
0.4999999999999997
 40
0.5624999999999997
 40
0.5624999999999997
 40
0.6249999999999998
 40
0.6249999999999998
 40
0.6874999999999998
 40
0.6874999999999998
 40
0.7499999999999999
 40
0.7499999999999999
 40
0.8124999999999999
 40
0.8124999999999999
 40
0.875
 40
0.875
 40
0.90625
 40
0.90625
 40
0.9374999999999999
 40
0.9374999999999999
 40
0.9687499999999999
 40
0.9687499999999999
 40
1.0
 40
1.0
 40
1.0625
 40
1.0625
 10
2.932810114824196
 20
4.088333003104767
 30
0.0
 10
2.919130600190305
 20
4.088333003104767
 30
0.0
 10
2.910467294813034
 20
4.086167406574107
 30
0.0
 10
2.899507377473225
 20
4.081023793114113
 30
0.0
 10
2.89617312126803
 20
4.079000990789131
 30
0.0
 10
2.890190045568087
 20
4.074585168710236
 30
0.0
 10
2.887500024599121
 20
4.072168345631498
 30
0.0
 10
2.880215693595915
 20
4.064361449817584
 30
0.0
 10
2.876580022885566
 20
4.058655819722025
 30
0.0
 10
2.87129156408021
 20
4.046265622799146
 30
0.0
 10
2.869711203817568
 20
4.039634656904972
 30
0.0
 10
2.868892011640527
 20
4.026009529504132
 30
0.0
 10
2.869667327384006
 20
4.018852565857414
 30
0.0
 10
2.873961101550784
 20
4.004919422593533
 30
0.0
 10
2.877552689726747
 20
3.997955589984532
 30
0.0
 10
2.885161123587364
 20
3.988697249304641
 30
0.0
 10
2.888122113058192
 20
3.985749770147883
 30
0.0
 10
2.8946508601177
 20
3.980533187810547
 30
0.0
 10
2.898216133898585
 20
3.978245292762621
 30
0.0
 10
2.909901386163515
 20
3.972477373657015
 30
0.0
 10
2.918866896277003
 20
3.97027988301809
 30
0.0
 10
2.936900415642592
 20
3.970167926793672
 30
0.0
 10
2.945876357294128
 20
3.972243535237666
 30
0.0
 10
2.961612726269729
 20
3.979774928261977
 30
0.0
 10
2.968381812465974
 20
3.985210939322083
 30
0.0
 10
2.978720562107523
 20
3.997573214156998
 30
0.0
 10
2.982362606398784
 20
4.00451489716489
 30
0.0
 10
2.986777336447673
 20
4.018510663059226
 30
0.0
 10
2.987593674925639
 20
4.025672292132538
 30
0.0
 10
2.986838197666823
 20
4.039382078666968
 30
0.0
 10
2.98526269343361
 20
4.046076950426464
 30
0.0
 10
2.980033760863555
 20
4.058451418033689
 30
0.0
 10
2.976325295888214
 20
4.064294727722539
 30
0.0
 10
2.969115392726922
 20
4.072056608730612
 30
0.0
 10
2.966443220706129
 20
4.074475502900855
 30
0.0
 10
2.960429203489544
 20
4.07893714705089
 30
0.0
 10
2.957088173001271
 20
4.080969544853492
 30
0.0
 10
2.949820660333681
 20
4.084399301097705
 30
0.0
 10
2.94579891135596
 20
4.085832297967222
 30
0.0
 10
2.937339488750744
 20
4.087790639422471
 30
0.0
 10
2.932810114824196
 20
4.088333003104767
 30
0.0
 10
2.919130600190305
 20
4.088333003104767
 30
0.0
  0
LINE
  5
11E
330
1F
100
AcDbEntity
  8
0
  6
CONTINUOUS
 62
     7
100
AcDbLine
 10
2.8101400404
 20
3.333481436
 30
0.0
 11
2.8101400404
 21
4.1834192202
 31
0.0
  0
LINE
  5
11F
330
1F
100
AcDbEntity
  8
0
  6
CONTINUOUS
 62
     7
100
AcDbLine
 10
2.8101400404
 20
4.1834192202
 30
0.0
 11
3.0890114315
 21
4.1834192202
 31
0.0
  0
LINE
  5
120
330
1F
100
AcDbEntity
  8
0
  6
CONTINUOUS
 62
     7
100
AcDbLine
 10
3.0890114315
 20
3.5637963966
 30
0.0
 11
3.1415048698
 21
3.5637963966
 31
0.0
  0
LINE
  5
121
330
1F
100
AcDbEntity
  8
0
  6
CONTINUOUS
 62
     7
100
AcDbLine
 10
3.1415048698
 20
3.5637963966
 30
0.0
 11
3.1415048698
 21
4.1838751368
 31
0.0
  0
LINE
  5
122
330
1F
100
AcDbEntity
  8
0
  6
CONTINUOUS
 62
     7
100
AcDbLine
 10
3.0890114315
 20
4.1834192202
 30
0.0
 11
3.0890114315
 21
3.5637963966
 31
0.0
  0
LINE
  5
123
330
1F
100
AcDbEntity
  8
0
  6
CONTINUOUS
 62
     7
100
AcDbLine
 10
2.7951400404
 20
4.1684025294
 30
0.0
 11
2.7951400404
 21
3.3489540434
 31
0.0
  0
LINE
  5
124
330
1F
100
AcDbEntity
  8
0
  6
CONTINUOUS
 62
     7
100
AcDbLine
 10
2.8101400404
 20
4.1834192202
 30
0.0
 11
2.7951400404
 21
4.1684025294
 31
0.0
  0
POLYLINE
  5
125
330
1F
100
AcDbEntity
  8
0
  6
CONTINUOUS
 62
     7
100
AcDb2dPolyline
 66
     1
 10
0.0
 20
0.0
 30
0.0
  0
VERTEX
  5
2D7
330
125
100
AcDbEntity
  8
0
  6
CONTINUOUS
 62
     7
100
AcDbVertex
100
AcDb2dVertex
 10
2.7973862632
 20
3.3467052438
 30
0.0
  0
VERTEX
  5
2D8
330
125
100
AcDbEntity
  8
0
  6
CONTINUOUS
 62
     7
100
AcDbVertex
100
AcDb2dVertex
 10
2.7973862632
 20
3.3467052438
 30
0.0
  0
SEQEND
  5
2D9
330
125
100
AcDbEntity
  8
0
  6
CONTINUOUS
 62
     7
  0
LINE
  5
126
330
1F
100
AcDbEntity
  8
0
  6
CONTINUOUS
 62
     7
100
AcDbLine
 10
2.7951400404
 20
3.3489540434
 30
0.0
 11
2.7973862632
 21
3.3467052438
 31
0.0
  0
LINE
  5
127
330
1F
100
AcDbEntity
  8
0
  6
CONTINUOUS
 62
     7
100
AcDbLine
 10
3.3463211428
 20
4.4009026958
 30
0.0
 11
3.3463211428
 21
4.3612640959
 31
0.0
  0
LINE
  5
128
330
1F
100
AcDbEntity
  8
0
  6
CONTINUOUS
 62
     7
100
AcDbLine
 10
3.306951064
 20
4.4009026958
 30
0.0
 11
3.306951064
 21
4.3612640959
 31
0.0
  0
LINE
  5
129
330
1F
100
AcDbEntity
  8
0
  6
CONTINUOUS
 62
     7
100
AcDbLine
 10
3.3463211428
 20
3.1560924769
 30
0.0
 11
3.3463211428
 21
3.1164538769
 31
0.0
  0
LINE
  5
12A
330
1F
100
AcDbEntity
  8
0
  6
CONTINUOUS
 62
     7
100
AcDbLine
 10
3.306951064
 20
3.1560924769
 30
0.0
 11
3.306951064
 21
3.1164538769
 31
0.0
  0
LINE
  5
12B
330
1F
100
AcDbEntity
  8
0
  6
CONTINUOUS
 62
     8
100
AcDbLine
 10
3.7250219302
 20
4.0795444281
 30
0.0
 11
3.6167542136
 21
4.0795444281
 31
0.0
  0
LINE
  5
12C
330
1F
100
AcDbEntity
  8
0
  6
CONTINUOUS
 62
     8
100
AcDbLine
 10
3.8332896467
 20
4.0795444281
 30
0.0
 11
3.7250219302
 21
4.0795444281
 31
0.0
  0
LINE
  5
12D
330
1F
100
AcDbEntity
  8
0
  6
HIDDEN
 62
     7
100
AcDbLine
 10
3.8431321664
 20
3.7783633258
 30
0.0
 11
3.8431321664
 21
3.738993247
 31
0.0
  0
LINE
  5
12E
330
1F
100
AcDbEntity
  8
0
  6
HIDDEN
 62
     7
100
AcDbLine
 10
3.7824675391
 20
3.9811192313
 30
0.0
 11
3.8332896467
 21
3.9811192313
 31
0.0
  0
LINE
  5
12F
330
1F
100
AcDbEntity
  8
0
  6
HIDDEN
 62
     7
100
AcDbLine
 10
3.6167542136
 20
3.9811192313
 30
0.0
 11
3.6675763212
 21
3.9811192313
 31
0.0
  0
LINE
  5
130
330
1F
100
AcDbEntity
  8
0
  6
HIDDEN
 62
     7
100
AcDbLine
 10
3.6167542136
 20
3.9811192313
 30
0.0
 11
3.6671946168
 21
3.9811192313
 31
0.0
  0
LINE
  5
131
330
1F
100
AcDbEntity
  8
0
  6
HIDDEN
 62
     7
100
AcDbLine
 10
3.7643920089
 20
3.4870247431
 30
0.0
 11
3.7416137837
 21
3.4870247431
 31
0.0
  0
LINE
  5
132
330
1F
100
AcDbEntity
  8
0
  6
HIDDEN
 62
     7
100
AcDbLine
 10
3.7083705504
 20
3.4870247431
 30
0.0
 11
3.6856518514
 21
3.4870247431
 31
0.0
  0
LINE
  5
133
330
1F
100
AcDbEntity
  8
0
  6
HIDDEN
 62
     7
100
AcDbLine
 10
3.7840291545
 20
3.5067097825
 30
0.0
 11
3.6660147059
 21
3.5067097825
 31
0.0
  0
LINE
  5
134
330
1F
100
AcDbEntity
  8
0
  6
HIDDEN
 62
     7
100
AcDbLine
 10
3.7250219302
 20
3.9811192313
 30
0.0
 11
3.7250219302
 21
4.0992294675
 31
0.0
  0
LINE
  5
135
330
1F
100
AcDbEntity
  8
0
  6
HIDDEN
 62
     7
100
AcDbLine
 10
3.7742345286
 20
3.9811192313
 30
0.0
 11
3.7742345286
 21
4.0992294675
 31
0.0
  0
LINE
  5
136
330
1F
100
AcDbEntity
  8
0
  6
HIDDEN
 62
     7
100
AcDbLine
 10
3.6758093317
 20
3.9811192313
 30
0.0
 11
3.6758093317
 21
4.0992294675
 31
0.0
  0
LINE
  5
137
330
1F
100
AcDbEntity
  8
0
  6
HIDDEN
 62
     7
100
AcDbLine
 10
2.9873053947
 20
4.029277885
 30
0.0
 11
2.9872888449
 21
4.0306758946
 31
0.0
  0
ARC
  5
138
330
1F
100
AcDbEntity
  8
0
  6
HIDDEN
 62
     7
100
AcDbCircle
 10
2.9282502766
 20
4.029277885
 30
0.0
 40
0.0590551181102365
100
AcDbArc
 50
75.8963861982
 51
91.2644508758
  0
LINE
  5
139
330
1F
100
AcDbEntity
  8
0
  6
HIDDEN
 62
     7
100
AcDbLine
 10
2.9270705179
 20
3.9702345522
 30
0.0
 11
2.9282502766
 21
3.9702227669
 31
0.0
  0
LINE
  5
13A
330
1F
100
AcDbEntity
  8
0
  6
HIDDEN
 62
     7
100
AcDbLine
 10
2.9282502766
 20
3.9724520711
 30
0.0
 11
2.977462875
 21
4.000864978
 31
0.0
  0
LINE
  5
13B
330
1F
100
AcDbEntity
  8
0
  6
HIDDEN
 62
     7
100
AcDbLine
 10
2.8790376782
 20
4.000864978
 30
0.0
 11
2.9282502766
 21
3.9724520711
 31
0.0
  0
LINE
  5
13C
330
1F
100
AcDbEntity
  8
0
  6
HIDDEN
 62
     7
100
AcDbLine
 10
2.977462875
 20
4.000864978
 30
0.0
 11
2.977462875
 21
4.0576907919
 31
0.0
  0
LINE
  5
13D
330
1F
100
AcDbEntity
  8
0
  6
HIDDEN
 62
     7
100
AcDbLine
 10
2.8790376782
 20
4.0576907919
 30
0.0
 11
2.8790376782
 21
4.000864978
 31
0.0
  0
LINE
  5
13E
330
1F
100
AcDbEntity
  8
0
  6
HIDDEN
 62
     7
100
AcDbLine
 10
2.977462875
 20
4.0576907919
 30
0.0
 11
2.9282502766
 21
4.0861036989
 31
0.0
  0
LINE
  5
13F
330
1F
100
AcDbEntity
  8
0
  6
HIDDEN
 62
     7
100
AcDbLine
 10
2.9282502766
 20
4.0861036989
 30
0.0
 11
2.8790376782
 21
4.0576907919
 31
0.0
  0
CIRCLE
  5
140
330
1F
100
AcDbEntity
  8
0
  6
HIDDEN
 62
     7
100
AcDbCircle
 10
2.9282502766
 20
4.029277885
 30
0.0
 40
0.1082677165354333
  0
CIRCLE
  5
141
330
1F
100
AcDbEntity
  8
0
  6
HIDDEN
 62
     7
100
AcDbCircle
 10
2.9282502766
 20
4.029277885
 30
0.0
 40
0.0885826771653537
  0
LINE
  5
142
330
1F
100
AcDbEntity
  8
0
  6
HIDDEN
 62
     7
100
AcDbLine
 10
2.9856958855
 20
4.1210487979
 30
0.0
 11
2.8708046677
 21
4.1210487979
 31
0.0
  0
LINE
  5
143
330
1F
100
AcDbEntity
  8
0
  6
HIDDEN
 62
     7
100
AcDbLine
 10
3.3463211428
 20
4.3612640959
 30
0.0
 11
3.306951064
 21
4.3612640959
 31
0.0
  0
LINE
  5
144
330
1F
100
AcDbEntity
  8
0
  6
HIDDEN
 62
     7
100
AcDbLine
 10
3.3463211428
 20
3.1560924769
 30
0.0
 11
3.306951064
 21
3.1560924769
 31
0.0
  0
ARC
  5
145
330
1F
100
AcDbEntity
  8
0
  6
HIDDEN
 62
     7
100
AcDbCircle
 10
2.7951400404
 20
3.6405680502
 30
0.0
 40
0.2938713910761166
100
AcDbArc
 50
270.437947831
 51
0.0
  0
LINE
  5
146
330
1F
100
AcDbEntity
  8
0
  6
HIDDEN
 62
     7
100
AcDbLine
 10
2.8101400404
 20
3.6422200229
 30
0.0
 11
3.0890114315
 21
3.6422200229
 31
0.0
  0
SPLINE
  5
147
330
1F
100
AcDbEntity
  8
0
  6
HIDDEN
 62
     7
100
AcDbSpline
210
0.0
220
0.0
230
1.0
 70
     8
 71
     3
 72
     8
 73
     4
 74
     0
 42
0.00000001
 43
0.00000001
 40
0.0
 40
0.0
 40
0.0
 40
0.0
 40
1.0
 40
1.0
 40
1.0
 40
1.0
 10
2.810140040392426
 20
3.642220022945204
 30
0.0
 10
2.805144125486006
 20
3.637153240457897
 30
0.0
 10
2.800143637102803
 20
3.632090885391833
 30
0.0
 10
2.795140040392427
 20
3.627031660109151
 30
0.0
  0
LINE
  5
148
330
1F
100
AcDbEntity
  8
0
  6
HIDDEN
 62
     7
100
AcDbLine
 10
3.0890114315
 20
3.8751365498
 30
0.0
 11
2.8101400404
 21
3.8751365498
 31
0.0
  0
SPLINE
  5
149
330
1F
100
AcDbEntity
  8
0
  6
HIDDEN
 62
     7
100
AcDbSpline
210
0.0
220
0.0
230
1.0
 70
     8
 71
     3
 72
     8
 73
     4
 74
     0
 42
0.00000001
 43
0.00000001
 40
0.0
 40
0.0
 40
0.0
 40
0.0
 40
1.0
 40
1.0
 40
1.0
 40
1.0
 10
2.795140040392427
 20
3.890324912674943
 30
0.0
 10
2.800143642255056
 20
3.885265682182727
 30
0.0
 10
2.805144162998869
 20
3.880203294281211
 30
0.0
 10
2.810140040392426
 20
3.87513654983889
 30
0.0
  0
ARC
  5
14A
330
1F
100
AcDbEntity
  8
0
  6
HIDDEN
 62
     7
100
AcDbCircle
 10
2.9282502766
 20
4.029277885
 30
0.0
 40
0.1082677165354338
100
AcDbArc
 50
122.0452282823
 51
57.9547717177
  0
LINE
  5
14B
330
1F
100
AcDbEntity
  8
0
  6
HIDDEN
 62
     7
100
AcDbLine
 10
3.3463211428
 20
3.6629822407
 30
0.0
 11
3.306951064
 21
3.6629822407
 31
0.0
  0
LINE
  5
14C
330
1F
100
AcDbEntity
  8
0
  6
HIDDEN
 62
     7
100
AcDbLine
 10
3.3463211428
 20
3.8543743321
 30
0.0
 11
3.306951064
 21
3.8543743321
 31
0.0
  0
LINE
  5
14D
330
1F
100
AcDbEntity
  8
0
  6
HIDDEN
 62
     7
100
AcDbLine
 10
3.8332896467
 20
3.9811192313
 30
0.0
 11
3.8332896467
 21
4.0865023738
 31
0.0
  0
LINE
  5
14E
330
1F
100
AcDbEntity
  8
0
  6
HIDDEN
 62
     7
100
AcDbLine
 10
3.6167542136
 20
4.0864015601
 30
0.0
 11
3.6167542136
 21
3.9811192313
 31
0.0
  0
LINE
  5
14F
330
1F
100
AcDbEntity
  8
0
  6
HIDDEN
 62
     7
100
AcDbLine
 10
3.665966812
 20
3.9811192313
 30
0.0
 11
3.665966812
 21
3.7783633258
 31
0.0
  0
LINE
  5
150
330
1F
100
AcDbEntity
  8
0
  6
HIDDEN
 62
     7
100
AcDbLine
 10
3.7840770483
 20
3.7783633258
 30
0.0
 11
3.7840770483
 21
3.9811192313
 31
0.0
  0
LINE
  5
151
330
1F
100
AcDbEntity
  8
0
  6
HIDDEN
 62
     7
100
AcDbLine
 10
3.665966812
 20
3.738993247
 30
0.0
 11
3.665966812
 21
3.430760954
 31
0.0
  0
LINE
  5
152
330
1F
100
AcDbEntity
  8
0
  6
HIDDEN
 62
     7
100
AcDbLine
 10
3.7840770483
 20
3.4308092455
 30
0.0
 11
3.7840770483
 21
3.738993247
 31
0.0
  0
LINE
  5
153
330
1F
100
AcDbEntity
  8
0
  6
HIDDEN
 62
     7
100
AcDbLine
 10
3.8581321664
 20
3.8917885226
 30
0.0
 11
3.8431321664
 21
3.8767885226
 31
0.0
  0
LINE
  5
154
330
1F
100
AcDbEntity
  8
0
  6
HIDDEN
 62
     7
100
AcDbLine
 10
3.8431321664
 20
3.6405680502
 30
0.0
 11
3.8581321664
 21
3.6255680502
 31
0.0
  0
LINE
  5
155
330
1F
100
AcDbEntity
  8
0
  6
HIDDEN
 62
     7
100
AcDbLine
 10
3.511767337
 20
3.8767885226
 30
0.0
 11
3.3856912215
 21
3.8767885226
 31
0.0
  0
LINE
  5
156
330
1F
100
AcDbEntity
  8
0
  6
HIDDEN
 62
     7
100
AcDbLine
 10
3.3856912215
 20
3.6405680502
 30
0.0
 11
3.511767337
 21
3.6405680502
 31
0.0
  0
LINE
  5
157
330
1F
100
AcDbEntity
  8
0
  6
HIDDEN
 62
     7
100
AcDbLine
 10
3.5642607753
 20
3.6405680502
 30
0.0
 11
3.8431321664
 21
3.6405680502
 31
0.0
  0
LINE
  5
158
330
1F
100
AcDbEntity
  8
0
  6
HIDDEN
 62
     7
100
AcDbLine
 10
3.8431321664
 20
3.8767885226
 30
0.0
 11
3.5642607753
 21
3.8767885226
 31
0.0
  0
LINE
  5
159
330
1F
100
AcDbEntity
  8
0
  6
HIDDEN
 62
     7
100
AcDbLine
 10
3.8332896467
 20
3.9811192313
 30
0.0
 11
3.8332896467
 21
4.0795444281
 31
0.0
  0
LINE
  5
15A
330
1F
100
AcDbEntity
  8
0
  6
HIDDEN
 62
     7
100
AcDbLine
 10
3.6167542136
 20
4.0795444281
 30
0.0
 11
3.6167542136
 21
3.9811192313
 31
0.0
  0
LINE
  5
15B
330
1F
100
AcDbEntity
  8
0
  6
HIDDEN
 62
     7
100
AcDbLine
 10
3.6170526331
 20
4.0829590648
 30
0.0
 11
3.6167542136
 21
4.0795444281
 31
0.0
  0
ARC
  5
15C
330
1F
100
AcDbEntity
  8
0
  6
HIDDEN
 62
     7
100
AcDbCircle
 10
3.7643920089
 20
3.5067097825
 30
0.0
 40
0.0196850393700791
100
AcDbArc
 50
270.0
 51
0.0
  0
ARC
  5
15D
330
1F
100
AcDbEntity
  8
0
  6
HIDDEN
 62
     7
100
AcDbCircle
 10
3.6856518514
 20
3.5067097825
 30
0.0
 40
0.0196850393700791
100
AcDbArc
 50
180.0
 51
270.0
  0
LINE
  5
15E
330
1F
100
AcDbEntity
  8
0
  6
HIDDEN
 62
     7
100
AcDbLine
 10
3.665966812
 20
3.9811192313
 30
0.0
 11
3.665966812
 21
3.7783633258
 31
0.0
  0
LINE
  5
15F
330
1F
100
AcDbEntity
  8
0
  6
HIDDEN
 62
     7
100
AcDbLine
 10
3.665966812
 20
3.738993247
 30
0.0
 11
3.665966812
 21
3.5067097825
 31
0.0
  0
LINE
  5
160
330
1F
100
AcDbEntity
  8
0
  6
HIDDEN
 62
     7
100
AcDbLine
 10
3.7840770483
 20
3.5067097825
 30
0.0
 11
3.7840770483
 21
3.738993247
 31
0.0
  0
LINE
  5
161
330
1F
100
AcDbEntity
  8
0
  6
HIDDEN
 62
     7
100
AcDbLine
 10
3.7840770483
 20
3.7783633258
 30
0.0
 11
3.7840770483
 21
3.9811192313
 31
0.0
  0
LINE
  5
162
330
1F
100
AcDbEntity
  8
0
  6
HIDDEN
 62
     7
100
AcDbLine
 10
3.3463211428
 20
3.9555286801
 30
0.0
 11
3.306951064
 21
3.9555286801
 31
0.0
  0
LINE
  5
163
330
1F
100
AcDbEntity
  8
0
  6
HIDDEN
 62
     7
100
AcDbLine
 10
3.306951064
 20
3.5618278927
 30
0.0
 11
3.3463211428
 21
3.5618278927
 31
0.0
  0
LINE
  5
164
330
1F
100
AcDbEntity
  8
0
  6
HIDDEN
 62
     7
100
AcDbLine
 10
3.1415048698
 20
3.6405680502
 30
0.0
 11
3.2675809853
 21
3.6405680502
 31
0.0
  0
LINE
  5
165
330
1F
100
AcDbEntity
  8
0
  6
HIDDEN
 62
     7
100
AcDbLine
 10
3.2675809853
 20
3.8767885226
 30
0.0
 11
3.1415048698
 21
3.8767885226
 31
0.0
  0
LINE
  5
166
330
1F
100
AcDbEntity
  8
0
  6
HIDDEN
 62
     7
100
AcDbLine
 10
3.6167542136
 20
4.0795444281
 30
0.0
 11
3.8332896467
 21
4.0795444281
 31
0.0
  0
ARC
  5
167
330
1F
100
AcDbEntity
  8
0
  6
CONTINUOUS
 62
     7
100
AcDbCircle
 10
7.8917023306
 20
4.0795444281
 30
0.0
 40
0.0196850393700787
100
AcDbArc
 50
90.0
 51
180.0
  0
LINE
  5
168
330
1F
100
AcDbEntity
  8
0
  6
CONTINUOUS
 62
     7
100
AcDbLine
 10
7.8720172912
 20
4.0795444281
 30
0.0
 11
7.8720172912
 21
3.9811192313
 31
0.0
  0
LINE
  5
169
330
1F
100
AcDbEntity
  8
0
  6
CONTINUOUS
 62
     7
100
AcDbLine
 10
7.9212298896
 20
3.7783633258
 30
0.0
 11
7.9212298896
 21
3.738993247
 31
0.0
  0
LINE
  5
16A
330
1F
100
AcDbEntity
  8
0
  6
CONTINUOUS
 62
     7
100
AcDbLine
 10
8.0393401258
 20
3.738993247
 30
0.0
 11
8.0393401258
 21
3.7783633258
 31
0.0
  0
SPLINE
  5
16B
330
1F
100
AcDbEntity
  8
0
  6
CONTINUOUS
 62
     7
100
AcDbSpline
210
0.0
220
0.0
230
1.0
 70
     8
 71
     3
 72
     8
 73
     4
 74
     0
 42
0.00000001
 43
0.00000001
 40
0.0
 40
0.0
 40
0.0
 40
0.0
 40
1.0
 40
1.0
 40
1.0
 40
1.0
 10
8.662857648929078
 20
3.778363325762126
 30
0.0
 10
8.662862400336081
 20
3.765239966182073
 30
0.0
 10
8.662862400336081
 20
3.752116606602021
 30
0.0
 10
8.662857648929078
 20
3.738993247021968
 30
0.0
  0
LINE
  5
16C
330
1F
100
AcDbEntity
  8
0
  6
CONTINUOUS
 62
     7
100
AcDbLine
 10
8.6606088493
 20
3.7783633258
 30
0.0
 11
8.6628576489
 21
3.7783633258
 31
0.0
  0
ARC
  5
16D
330
1F
100
AcDbEntity
  8
0
  6
CONTINUOUS
 62
     7
100
AcDbCircle
 10
8.2508846063
 20
3.7586782864
 30
0.0
 40
0.4101968503937011
100
AcDbArc
 50
2.750637972
 51
177.249362028
  0
LINE
  5
16E
330
1F
100
AcDbEntity
  8
0
  6
CONTINUOUS
 62
     7
100
AcDbLine
 10
7.8261436726
 20
3.7783633258
 30
0.0
 11
7.8411603633
 21
3.7783633258
 31
0.0
  0
ARC
  5
16F
330
1F
100
AcDbEntity
  8
0
  6
CONTINUOUS
 62
     7
100
AcDbCircle
 10
8.2508846063
 20
3.7586782864
 30
0.0
 40
0.4251968503936999
100
AcDbArc
 50
182.6535308674
 51
177.3464691326
  0
LINE
  5
170
330
1F
100
AcDbEntity
  8
0
  6
CONTINUOUS
 62
     7
100
AcDbLine
 10
7.8261436726
 20
3.738993247
 30
0.0
 11
7.8411603633
 21
3.738993247
 31
0.0
  0
ARC
  5
171
330
1F
100
AcDbEntity
  8
0
  6
CONTINUOUS
 62
     7
100
AcDbCircle
 10
8.2508846063
 20
3.7586782864
 30
0.0
 40
0.4101968503937011
100
AcDbArc
 50
182.750637972
 51
357.249362028
  0
LINE
  5
172
330
1F
100
AcDbEntity
  8
0
  6
CONTINUOUS
 62
     7
100
AcDbLine
 10
8.6606088493
 20
3.738993247
 30
0.0
 11
8.6628576489
 21
3.738993247
 31
0.0
  0
LINE
  5
173
330
1F
100
AcDbEntity
  8
0
  6
CONTINUOUS
 62
     7
100
AcDbLine
 10
8.3689948425
 20
3.738993247
 30
0.0
 11
8.3689948425
 21
3.7783633258
 31
0.0
  0
LINE
  5
174
330
1F
100
AcDbEntity
  8
0
  6
CONTINUOUS
 62
     7
100
AcDbLine
 10
7.8411603633
 20
3.738993247
 30
0.0
 11
8.11923798
 21
3.738993247
 31
0.0
  0
ARC
  5
175
330
1F
100
AcDbEntity
  8
0
  6
CONTINUOUS
 62
     7
100
AcDbCircle
 10
8.2508846063
 20
3.7586782864
 30
0.0
 40
0.1331102362204741
100
AcDbArc
 50
188.5043930129
 51
351.4956069871
  0
LINE
  5
176
330
1F
100
AcDbEntity
  8
0
  6
CONTINUOUS
 62
     7
100
AcDbLine
 10
8.3825312326
 20
3.738993247
 30
0.0
 11
8.6606088493
 21
3.738993247
 31
0.0
  0
LINE
  5
177
330
1F
100
AcDbEntity
  8
0
  6
CONTINUOUS
 62
     7
100
AcDbLine
 10
7.8411603633
 20
3.7783633258
 30
0.0
 11
8.11923798
 21
3.7783633258
 31
0.0
  0
ARC
  5
178
330
1F
100
AcDbEntity
  8
0
  6
CONTINUOUS
 62
     7
100
AcDbCircle
 10
8.2508846063
 20
3.7586782864
 30
0.0
 40
0.1331102362204741
100
AcDbArc
 50
8.5043930129
 51
171.4956069871
  0
LINE
  5
179
330
1F
100
AcDbEntity
  8
0
  6
CONTINUOUS
 62
     7
100
AcDbLine
 10
8.6606088493
 20
3.7783633258
 30
0.0
 11
8.3825312326
 21
3.7783633258
 31
0.0
  0
SPLINE
  5
17A
330
1F
100
AcDbEntity
  8
0
  6
CONTINUOUS
 62
     7
100
AcDbSpline
210
0.0
220
0.0
230
1.0
 70
    24
 71
     3
 72
     8
 73
     4
 74
     0
 42
0.00000001
 43
0.00000001
 40
0.0
 40
0.0
 40
0.0
 40
0.0
 40
1.0
 40
1.0
 40
1.0
 40
1.0
 10
8.119237980041094
 20
3.778363325762126
 30
0.0
 10
8.12429721053331
 20
3.778363325762126
 30
0.0
 10
8.129359598434826
 20
3.778363325762126
 30
0.0
 10
8.134426342877147
 20
3.778363325762126
 30
0.0
  0
ARC
  5
17B
330
1F
100
AcDbEntity
  8
0
  6
CONTINUOUS
 62
     7
100
AcDbCircle
 10
8.2508846063
 20
3.7586782864
 30
0.0
 40
0.1181102362204723
100
AcDbArc
 50
9.5940682269
 51
170.4059317731
  0
SPLINE
  5
17C
330
1F
100
AcDbEntity
  8
0
  6
CONTINUOUS
 62
     7
100
AcDbSpline
210
0.0
220
0.0
230
1.0
 70
    24
 71
     3
 72
     8
 73
     4
 74
     0
 42
0.00000001
 43
0.00000001
 40
0.0
 40
0.0
 40
0.0
 40
0.0
 40
1.0
 40
1.0
 40
1.0
 40
1.0
 10
8.367342869770832
 20
3.778363325762126
 30
0.0
 10
8.37240965225814
 20
3.778363325762126
 30
0.0
 10
8.377472007324203
 20
3.778363325762126
 30
0.0
 10
8.382531232606887
 20
3.778363325762126
 30
0.0
  0
SPLINE
  5
17D
330
1F
100
AcDbEntity
  8
0
  6
CONTINUOUS
 62
     7
100
AcDbSpline
210
0.0
220
0.0
230
1.0
 70
    24
 71
     3
 72
     8
 73
     4
 74
     0
 42
0.00000001
 43
0.00000001
 40
0.0
 40
0.0
 40
0.0
 40
0.0
 40
1.0
 40
1.0
 40
1.0
 40
1.0
 10
8.119237980041094
 20
3.738993247021968
 30
0.0
 10
8.12429721053331
 20
3.738993247021968
 30
0.0
 10
8.129359598434826
 20
3.738993247021968
 30
0.0
 10
8.134426342877147
 20
3.738993247021968
 30
0.0
  0
ARC
  5
17E
330
1F
100
AcDbEntity
  8
0
  6
CONTINUOUS
 62
     7
100
AcDbCircle
 10
8.2508846063
 20
3.7586782864
 30
0.0
 40
0.1181102362204723
100
AcDbArc
 50
189.5940682269
 51
350.4059317731
  0
SPLINE
  5
17F
330
1F
100
AcDbEntity
  8
0
  6
CONTINUOUS
 62
     7
100
AcDbSpline
210
0.0
220
0.0
230
1.0
 70
    24
 71
     3
 72
     8
 73
     4
 74
     0
 42
0.00000001
 43
0.00000001
 40
0.0
 40
0.0
 40
0.0
 40
0.0
 40
1.0
 40
1.0
 40
1.0
 40
1.0
 10
8.367342869770832
 20
3.738993247021968
 30
0.0
 10
8.37240965225814
 20
3.738993247021968
 30
0.0
 10
8.377472007324203
 20
3.738993247021968
 30
0.0
 10
8.382531232606887
 20
3.738993247021968
 30
0.0
  0
POLYLINE
  5
180
330
1F
100
AcDbEntity
  8
0
  6
CONTINUOUS
 62
     7
100
AcDb2dPolyline
 66
     1
 10
0.0
 20
0.0
 30
0.0
  0
VERTEX
  5
2DA
330
180
100
AcDbEntity
  8
0
  6
CONTINUOUS
 62
     7
100
AcDbVertex
100
AcDb2dVertex
 10
8.1327743701
 20
3.7586782864
 30
0.0
  0
VERTEX
  5
2DB
330
180
100
AcDbEntity
  8
0
  6
CONTINUOUS
 62
     7
100
AcDbVertex
100
AcDb2dVertex
 10
8.1335170225
 20
3.7454541357
 30
0.0
  0
VERTEX
  5
2DC
330
180
100
AcDbEntity
  8
0
  6
CONTINUOUS
 62
     7
100
AcDbVertex
100
AcDb2dVertex
 10
8.1344263429
 20
3.738993247
 30
0.0
  0
SEQEND
  5
2DD
330
180
100
AcDbEntity
  8
0
  6
CONTINUOUS
 62
     7
  0
ARC
  5
181
330
1F
100
AcDbEntity
  8
0
  6
CONTINUOUS
 62
     7
100
AcDbCircle
 10
8.2508846063
 20
3.7586782864
 30
0.0
 40
0.1181102362204723
100
AcDbArc
 50
350.4059317731
 51
9.5940682269
  0
POLYLINE
  5
182
330
1F
100
AcDbEntity
  8
0
  6
CONTINUOUS
 62
     7
100
AcDb2dPolyline
 66
     1
 10
0.0
 20
0.0
 30
0.0
  0
VERTEX
  5
2DE
330
182
100
AcDbEntity
  8
0
  6
CONTINUOUS
 62
     7
100
AcDbVertex
100
AcDb2dVertex
 10
8.1344263429
 20
3.7783633258
 30
0.0
  0
VERTEX
  5
2DF
330
182
100
AcDbEntity
  8
0
  6
CONTINUOUS
 62
     7
100
AcDbVertex
100
AcDb2dVertex
 10
8.1335170225
 20
3.7719024371
 30
0.0
  0
VERTEX
  5
2E0
330
182
100
AcDbEntity
  8
0
  6
CONTINUOUS
 62
     7
100
AcDbVertex
100
AcDb2dVertex
 10
8.1327743701
 20
3.7586782864
 30
0.0
  0
SEQEND
  5
2E1
330
182
100
AcDbEntity
  8
0
  6
CONTINUOUS
 62
     7
  0
ARC
  5
183
330
1F
100
AcDbEntity
  8
0
  6
CONTINUOUS
 62
     7
100
AcDbCircle
 10
8.2508846063
 20
3.7586782864
 30
0.0
 40
0.4251968503937017
100
AcDbArc
 50
177.3464691326
 51
182.6535308674
  0
CIRCLE
  5
184
330
1F
100
AcDbEntity
  8
0
  6
CONTINUOUS
 62
     7
100
AcDbCircle
 10
8.2508846063
 20
3.7586782864
 30
0.0
 40
0.6692913385826778
  0
CIRCLE
  5
185
330
1F
100
AcDbEntity
  8
0
  6
CONTINUOUS
 62
     7
100
AcDbCircle
 10
8.2508846063
 20
3.7586782864
 30
0.0
 40
0.6496062992125999
  0
LINE
  5
186
330
1F
100
AcDbEntity
  8
0
  6
CONTINUOUS
 62
     7
100
AcDbLine
 10
7.8917023306
 20
4.0992294675
 30
0.0
 11
7.996292276
 21
4.0992294675
 31
0.0
  0
LINE
  5
187
330
1F
100
AcDbEntity
  8
0
  6
CONTINUOUS
 62
     7
100
AcDbLine
 10
7.8720172912
 20
3.9811192313
 30
0.0
 11
7.8885140948
 21
3.9811192313
 31
0.0
  0
LINE
  5
188
330
1F
100
AcDbEntity
  8
0
  6
CONTINUOUS
 62
     8
100
AcDbLine
 10
7.9718912719
 20
4.0795444281
 30
0.0
 11
7.8720172912
 21
4.0795444281
 31
0.0
  0
LINE
  5
189
330
1F
100
AcDbEntity
  8
0
  6
HIDDEN
 62
     7
100
AcDbLine
 10
7.8885140948
 20
3.9811192313
 30
0.0
 11
8.0885527243
 21
3.9811192313
 31
0.0
  0
LINE
  5
18A
330
1F
100
AcDbEntity
  8
0
  6
HIDDEN
 62
     7
100
AcDbLine
 10
8.4457664961
 20
3.3807716701
 30
0.0
 11
8.4457664961
 21
4.1365849027
 31
0.0
  0
LINE
  5
18B
330
1F
100
AcDbEntity
  8
0
  6
HIDDEN
 62
     7
100
AcDbLine
 10
7.996292276
 20
4.0992294675
 30
0.0
 11
8.0688676842
 21
4.0992294675
 31
0.0
  0
LINE
  5
18C
330
1F
100
AcDbEntity
  8
0
  6
HIDDEN
 62
     7
100
AcDbLine
 10
8.0393401258
 20
3.5067097825
 30
0.0
 11
7.9214213872
 21
3.5067097825
 31
0.0
  0
LINE
  5
18D
330
1F
100
AcDbEntity
  8
0
  6
HIDDEN
 62
     7
100
AcDbLine
 10
8.0196550865
 20
3.4870247431
 30
0.0
 11
7.9409149309
 21
3.4870247431
 31
0.0
  0
LINE
  5
18E
330
1F
100
AcDbEntity
  8
0
  6
HIDDEN
 62
     7
100
AcDbLine
 10
8.0086979147
 20
3.9811192313
 30
0.0
 11
8.0086979147
 21
4.0992294675
 31
0.0
  0
LINE
  5
18F
330
1F
100
AcDbEntity
  8
0
  6
HIDDEN
 62
     7
100
AcDbLine
 10
7.9518721008
 20
3.9811192313
 30
0.0
 11
7.9518721008
 21
4.0992294675
 31
0.0
  0
LINE
  5
190
330
1F
100
AcDbEntity
  8
0
  6
HIDDEN
 62
     7
100
AcDbLine
 10
8.0371108216
 20
3.9811192313
 30
0.0
 11
8.0371108216
 21
4.0992294675
 31
0.0
  0
LINE
  5
191
330
1F
100
AcDbEntity
  8
0
  6
HIDDEN
 62
     7
100
AcDbLine
 10
7.9234591938
 20
3.9811192313
 30
0.0
 11
7.9234591938
 21
4.0992294675
 31
0.0
  0
LINE
  5
192
330
1F
100
AcDbEntity
  8
0
  6
HIDDEN
 62
     7
100
AcDbLine
 10
8.5914357874
 20
4.1178605622
 30
0.0
 11
8.5914357874
 21
3.9406952078
 31
0.0
  0
LINE
  5
193
330
1F
100
AcDbEntity
  8
0
  6
HIDDEN
 62
     7
100
AcDbLine
 10
8.5717507481
 20
4.1375456015
 30
0.0
 11
8.5717507481
 21
3.9212003156
 31
0.0
  0
LINE
  5
194
330
1F
100
AcDbEntity
  8
0
  6
HIDDEN
 62
     7
100
AcDbLine
 10
8.4733255512
 20
3.9210101685
 30
0.0
 11
8.4733255512
 21
4.1375456015
 31
0.0
  0
LINE
  5
195
330
1F
100
AcDbEntity
  8
0
  6
HIDDEN
 62
     7
100
AcDbLine
 10
7.9989161024
 20
3.9702227669
 30
0.0
 11
7.9989161024
 21
4.0881415056
 31
0.0
  0
LINE
  5
196
330
1F
100
AcDbEntity
  8
0
  6
HIDDEN
 62
     7
100
AcDbLine
 10
7.979231063
 20
3.9899078063
 30
0.0
 11
7.979231063
 21
4.0686479637
 31
0.0
  0
LINE
  5
197
330
1F
100
AcDbEntity
  8
0
  6
HIDDEN
 62
     7
100
AcDbLine
 10
8.4733255512
 20
4.000864978
 30
0.0
 11
8.5914357874
 21
4.000864978
 31
0.0
  0
LINE
  5
198
330
1F
100
AcDbEntity
  8
0
  6
HIDDEN
 62
     7
100
AcDbLine
 10
8.4733255512
 20
4.0576907919
 30
0.0
 11
8.5914357874
 21
4.0576907919
 31
0.0
  0
LINE
  5
199
330
1F
100
AcDbEntity
  8
0
  6
HIDDEN
 62
     7
100
AcDbLine
 10
8.4733255512
 20
4.0861036989
 30
0.0
 11
8.5914357874
 21
4.0861036989
 31
0.0
  0
LINE
  5
19A
330
1F
100
AcDbEntity
  8
0
  6
HIDDEN
 62
     7
100
AcDbLine
 10
8.4733255512
 20
3.9724520711
 30
0.0
 11
8.5914357874
 21
3.9724520711
 31
0.0
  0
CIRCLE
  5
19B
330
1F
100
AcDbEntity
  8
0
  6
HIDDEN
 62
     7
100
AcDbCircle
 10
8.7577743701
 20
3.7586782864
 30
0.0
 40
0.1082677165354333
  0
CIRCLE
  5
19C
330
1F
100
AcDbEntity
  8
0
  6
HIDDEN
 62
     7
100
AcDbCircle
 10
8.2508846063
 20
4.2655680502
 30
0.0
 40
0.1082677165354333
  0
CIRCLE
  5
19D
330
1F
100
AcDbEntity
  8
0
  6
HIDDEN
 62
     7
100
AcDbCircle
 10
8.2508846063
 20
3.2517885226
 30
0.0
 40
0.1082677165354333
  0
CIRCLE
  5
19E
330
1F
100
AcDbEntity
  8
0
  6
HIDDEN
 62
     7
100
AcDbCircle
 10
7.7439948425
 20
3.7586782864
 30
0.0
 40
0.1082677165354333
  0
LINE
  5
19F
330
1F
100
AcDbEntity
  8
0
  6
HIDDEN
 62
     7
100
AcDbLine
 10
8.1551885606
 20
4.3612640959
 30
0.0
 11
7.6482987969
 21
3.8543743321
 31
0.0
  0
ARC
  5
1A0
330
1F
100
AcDbEntity
  8
0
  6
HIDDEN
 62
     7
100
AcDbCircle
 10
8.2508846063
 20
4.2655680502
 30
0.0
 40
0.1353346456692922
100
AcDbArc
 50
45.0
 51
135.0
  0
LINE
  5
1A1
330
1F
100
AcDbEntity
  8
0
  6
HIDDEN
 62
     7
100
AcDbLine
 10
8.8534704158
 20
3.8543743321
 30
0.0
 11
8.346580652
 21
4.3612640959
 31
0.0
  0
ARC
  5
1A2
330
1F
100
AcDbEntity
  8
0
  6
HIDDEN
 62
     7
100
AcDbCircle
 10
8.7577743701
 20
3.7586782864
 30
0.0
 40
0.1353346456692906
100
AcDbArc
 50
315.0
 51
45.0
  0
LINE
  5
1A3
330
1F
100
AcDbEntity
  8
0
  6
HIDDEN
 62
     7
100
AcDbLine
 10
8.346580652
 20
3.1560924769
 30
0.0
 11
8.8534704158
 21
3.6629822407
 31
0.0
  0
ARC
  5
1A4
330
1F
100
AcDbEntity
  8
0
  6
HIDDEN
 62
     7
100
AcDbCircle
 10
8.2508846063
 20
3.2517885226
 30
0.0
 40
0.1353346456692918
100
AcDbArc
 50
225.0
 51
315.0
  0
LINE
  5
1A5
330
1F
100
AcDbEntity
  8
0
  6
HIDDEN
 62
     7
100
AcDbLine
 10
7.6482987969
 20
3.6629822407
 30
0.0
 11
8.1551885606
 21
3.1560924769
 31
0.0
  0
ARC
  5
1A6
330
1F
100
AcDbEntity
  8
0
  6
HIDDEN
 62
     7
100
AcDbCircle
 10
7.7439948425
 20
3.7586782864
 30
0.0
 40
0.1353346456692956
100
AcDbArc
 50
135.0
 51
225.0
  0
CIRCLE
  5
1A7
330
1F
100
AcDbEntity
  8
0
  6
HIDDEN
 62
     7
100
AcDbCircle
 10
8.2508846063
 20
3.7586782864
 30
0.0
 40
0.1968503937007888
  0
CIRCLE
  5
1A8
330
1F
100
AcDbEntity
  8
0
  6
HIDDEN
 62
     7
100
AcDbCircle
 10
8.2508846063
 20
3.7586782864
 30
0.0
 40
0.4251968503937009
  0
LINE
  5
1A9
330
1F
100
AcDbEntity
  8
0
  6
HIDDEN
 62
     7
100
AcDbLine
 10
7.87297799
 20
3.5637963966
 30
0.0
 11
8.6287912226
 21
3.5637963966
 31
0.0
  0
LINE
  5
1AA
330
1F
100
AcDbEntity
  8
0
  6
HIDDEN
 62
     7
100
AcDbLine
 10
8.231199567
 20
3.6405680502
 30
0.0
 11
8.231199567
 21
3.6422200229
 31
0.0
  0
LINE
  5
1AB
330
1F
100
AcDbEntity
  8
0
  6
HIDDEN
 62
     7
100
AcDbLine
 10
8.231199567
 20
3.6405680502
 30
0.0
 11
8.2705696457
 21
3.6405680502
 31
0.0
  0
LINE
  5
1AC
330
1F
100
AcDbEntity
  8
0
  6
HIDDEN
 62
     7
100
AcDbLine
 10
8.2705696457
 20
3.6422200229
 30
0.0
 11
8.2705696457
 21
3.6405680502
 31
0.0
  0
LINE
  5
1AD
330
1F
100
AcDbEntity
  8
0
  6
HIDDEN
 62
     7
100
AcDbLine
 10
8.2705696457
 20
3.8751365498
 30
0.0
 11
8.2705696457
 21
4.1834192202
 31
0.0
  0
LINE
  5
1AE
330
1F
100
AcDbEntity
  8
0
  6
HIDDEN
 62
     7
100
AcDbLine
 10
8.231199567
 20
3.8751365498
 30
0.0
 11
8.231199567
 21
4.1834192202
 31
0.0
  0
LINE
  5
1AF
330
1F
100
AcDbEntity
  8
0
  6
HIDDEN
 62
     7
100
AcDbLine
 10
8.2705696457
 20
3.6405680502
 30
0.0
 11
8.2705696457
 21
3.3467052438
 31
0.0
  0
LINE
  5
1B0
330
1F
100
AcDbEntity
  8
0
  6
HIDDEN
 62
     7
100
AcDbLine
 10
8.231199567
 20
3.3467052438
 30
0.0
 11
8.231199567
 21
3.6405680502
 31
0.0
  0
LINE
  5
1B1
330
1F
100
AcDbEntity
  8
0
  6
HIDDEN
 62
     7
100
AcDbLine
 10
8.4733255512
 20
3.9210101685
 30
0.0
 11
8.4733255512
 21
4.1210487979
 31
0.0
  0
SPLINE
  5
1B2
330
1F
100
AcDbEntity
  8
0
  6
HIDDEN
 62
     7
100
AcDbSpline
210
0.0
220
0.0
230
1.0
 70
     8
 71
     3
 72
     8
 73
     4
 74
     0
 42
0.00000001
 43
0.00000001
 40
0.0
 40
0.0
 40
0.0
 40
0.0
 40
1.0
 40
1.0
 40
1.0
 40
1.0
 10
8.270569645694067
 20
3.346705243786958
 30
0.0
 10
8.257446286114014
 20
3.346700492379955
 30
0.0
 10
8.244322926533963
 20
3.346700492379955
 30
0.0
 10
8.23119956695391
 20
3.346705243786958
 30
0.0
  0
ARC
  5
1B3
330
1F
100
AcDbEntity
  8
0
  6
HIDDEN
 62
     7
100
AcDbCircle
 10
8.2508846063
 20
3.7586782864
 30
0.0
 40
0.1331102362204706
100
AcDbArc
 50
351.4956069871
 51
8.5043930129
  0
POLYLINE
  5
1B4
330
1F
100
AcDbEntity
  8
0
  6
HIDDEN
 62
     7
100
AcDb2dPolyline
 66
     1
 10
0.0
 20
0.0
 30
0.0
  0
VERTEX
  5
2E2
330
1B4
100
AcDbEntity
  8
0
  6
HIDDEN
 62
     7
100
AcDbVertex
100
AcDb2dVertex
 10
8.6606088493
 20
3.738993247
 30
0.0
  0
VERTEX
  5
2E3
330
1B4
100
AcDbEntity
  8
0
  6
HIDDEN
 62
     7
100
AcDbVertex
100
AcDb2dVertex
 10
8.6610814567
 20
3.7586782864
 30
0.0
  0
VERTEX
  5
2E4
330
1B4
100
AcDbEntity
  8
0
  6
HIDDEN
 62
     7
100
AcDbVertex
100
AcDb2dVertex
 10
8.6606088493
 20
3.7783633258
 30
0.0
  0
SEQEND
  5
2E5
330
1B4
100
AcDbEntity
  8
0
  6
HIDDEN
 62
     7
  0
ARC
  5
1B5
330
1F
100
AcDbEntity
  8
0
  6
HIDDEN
 62
     7
100
AcDbCircle
 10
8.2508846063
 20
3.7586782864
 30
0.0
 40
0.1331102362204759
100
AcDbArc
 50
171.4956069871
 51
188.5043930129
  0
POLYLINE
  5
1B6
330
1F
100
AcDbEntity
  8
0
  6
HIDDEN
 62
     7
100
AcDb2dPolyline
 66
     1
 10
0.0
 20
0.0
 30
0.0
  0
VERTEX
  5
2E6
330
1B6
100
AcDbEntity
  8
0
  6
HIDDEN
 62
     7
100
AcDbVertex
100
AcDb2dVertex
 10
7.8411603633
 20
3.7783633258
 30
0.0
  0
VERTEX
  5
2E7
330
1B6
100
AcDbEntity
  8
0
  6
HIDDEN
 62
     7
100
AcDbVertex
100
AcDb2dVertex
 10
7.8406877559
 20
3.7586782864
 30
0.0
  0
VERTEX
  5
2E8
330
1B6
100
AcDbEntity
  8
0
  6
HIDDEN
 62
     7
100
AcDbVertex
100
AcDb2dVertex
 10
7.8411603633
 20
3.738993247
 30
0.0
  0
SEQEND
  5
2E9
330
1B6
100
AcDbEntity
  8
0
  6
HIDDEN
 62
     7
  0
LINE
  5
1B7
330
1F
100
AcDbEntity
  8
0
  6
HIDDEN
 62
     7
100
AcDbLine
 10
8.0885527243
 20
3.9811192313
 30
0.0
 11
8.0885527243
 21
4.1516318453
 31
0.0
  0
LINE
  5
1B8
330
1F
100
AcDbEntity
  8
0
  6
HIDDEN
 62
     7
100
AcDbLine
 10
7.9212298896
 20
3.9811192313
 30
0.0
 11
7.9212298896
 21
3.7783633258
 31
0.0
  0
LINE
  5
1B9
330
1F
100
AcDbEntity
  8
0
  6
HIDDEN
 62
     7
100
AcDbLine
 10
8.0393401258
 20
3.7783633258
 30
0.0
 11
8.0393401258
 21
3.9811192313
 31
0.0
  0
LINE
  5
1BA
330
1F
100
AcDbEntity
  8
0
  6
HIDDEN
 62
     7
100
AcDbLine
 10
7.9212298896
 20
3.738993247
 30
0.0
 11
7.9212298896
 21
3.4901263746
 31
0.0
  0
LINE
  5
1BB
330
1F
100
AcDbEntity
  8
0
  6
HIDDEN
 62
     7
100
AcDbLine
 10
8.0393401258
 20
3.3899345194
 30
0.0
 11
8.0393401258
 21
3.738993247
 31
0.0
  0
ARC
  5
1BC
330
1F
100
AcDbEntity
  8
0
  6
HIDDEN
 62
     7
100
AcDbCircle
 10
8.0688676849
 20
4.0795444281
 30
0.0
 40
0.0196850393700787
100
AcDbArc
 50
0.0
 51
90.0
  0
LINE
  5
1BD
330
1F
100
AcDbEntity
  8
0
  6
HIDDEN
 62
     7
100
AcDbLine
 10
8.0885527243
 20
3.9811192313
 30
0.0
 11
8.0885527243
 21
4.0795444281
 31
0.0
  0
LINE
  5
1BE
330
1F
100
AcDbEntity
  8
0
  6
HIDDEN
 62
     7
100
AcDbLine
 10
7.9212298896
 20
3.9811192313
 30
0.0
 11
7.9212298896
 21
3.7783633258
 31
0.0
  0
LINE
  5
1BF
330
1F
100
AcDbEntity
  8
0
  6
HIDDEN
 62
     7
100
AcDbLine
 10
7.9212298896
 20
3.738993247
 30
0.0
 11
7.9212298896
 21
3.5067097825
 31
0.0
  0
LINE
  5
1C0
330
1F
100
AcDbEntity
  8
0
  6
HIDDEN
 62
     7
100
AcDbLine
 10
8.0393401258
 20
3.5067097825
 30
0.0
 11
8.0393401258
 21
3.738993247
 31
0.0
  0
LINE
  5
1C1
330
1F
100
AcDbEntity
  8
0
  6
HIDDEN
 62
     7
100
AcDbLine
 10
8.0393401258
 20
3.7783633258
 30
0.0
 11
8.0393401258
 21
3.9811192313
 31
0.0
  0
ARC
  5
1C2
330
1F
100
AcDbEntity
  8
0
  6
HIDDEN
 62
     7
100
AcDbCircle
 10
8.0196550865
 20
3.5067097825
 30
0.0
 40
0.0196850393700796
100
AcDbArc
 50
270.0
 51
0.0
  0
ARC
  5
1C3
330
1F
100
AcDbEntity
  8
0
  6
HIDDEN
 62
     7
100
AcDbCircle
 10
7.940914929
 20
3.5067097825
 30
0.0
 40
0.0196850393700791
100
AcDbArc
 50
180.0
 51
270.0
  0
ARC
  5
1C4
330
1F
100
AcDbEntity
  8
0
  6
HIDDEN
 62
     7
100
AcDbCircle
 10
8.5717507481
 20
4.1178605622
 30
0.0
 40
0.0196850393700796
100
AcDbArc
 50
0.0
 51
90.0
  0
ARC
  5
1C5
330
1F
100
AcDbEntity
  8
0
  6
HIDDEN
 62
     7
100
AcDbCircle
 10
8.5717507481
 20
3.9406952078
 30
0.0
 40
0.0196850393700787
100
AcDbArc
 50
270.0
 51
0.0
  0
LINE
  5
1C6
330
1F
100
AcDbEntity
  8
0
  6
HIDDEN
 62
     7
100
AcDbLine
 10
8.4733255512
 20
3.9210101685
 30
0.0
 11
8.5717507481
 21
3.9210101685
 31
0.0
  0
LINE
  5
1C7
330
1F
100
AcDbEntity
  8
0
  6
HIDDEN
 62
     7
100
AcDbLine
 10
8.5717507481
 20
4.1375456015
 30
0.0
 11
8.4733255512
 21
4.1375456015
 31
0.0
  0
LINE
  5
1C8
330
1F
100
AcDbEntity
  8
0
  6
HIDDEN
 62
     7
100
AcDbLine
 10
8.4733255512
 20
4.0883330031
 30
0.0
 11
7.9989161024
 21
4.0883330031
 31
0.0
  0
LINE
  5
1C9
330
1F
100
AcDbEntity
  8
0
  6
HIDDEN
 62
     7
100
AcDbLine
 10
7.9989161024
 20
3.9702227669
 30
0.0
 11
8.4733255512
 21
3.9702227669
 31
0.0
  0
ARC
  5
1CA
330
1F
100
AcDbEntity
  8
0
  6
HIDDEN
 62
     7
100
AcDbCircle
 10
7.9989161024
 20
3.9899078063
 30
0.0
 40
0.0196850393700787
100
AcDbArc
 50
180.0
 51
270.0
  0
ARC
  5
1CB
330
1F
100
AcDbEntity
  8
0
  6
HIDDEN
 62
     7
100
AcDbCircle
 10
7.9989161024
 20
4.0686479637
 30
0.0
 40
0.0196850393700787
100
AcDbArc
 50
90.0
 51
180.0
  0
LINE
  5
1CC
330
1F
100
AcDbEntity
  8
0
  6
HIDDEN
 62
     7
100
AcDbLine
 10
8.4733255512
 20
3.9210101685
 30
0.0
 11
8.6438381652
 21
3.9210101685
 31
0.0
  0
LINE
  5
1CD
330
1F
100
AcDbEntity
  8
0
  6
HIDDEN
 62
     7
100
AcDbLine
 10
8.4733255512
 20
4.0883330031
 30
0.0
 11
8.2705696457
 21
4.0883330031
 31
0.0
  0
LINE
  5
1CE
330
1F
100
AcDbEntity
  8
0
  6
HIDDEN
 62
     7
100
AcDbLine
 10
8.2705696457
 20
3.9702227669
 30
0.0
 11
8.4733255512
 21
3.9702227669
 31
0.0
  0
LINE
  5
1CF
330
1F
100
AcDbEntity
  8
0
  6
HIDDEN
 62
     7
100
AcDbLine
 10
8.231199567
 20
4.0883330031
 30
0.0
 11
7.9823326945
 21
4.0883330031
 31
0.0
  0
LINE
  5
1D0
330
1F
100
AcDbEntity
  8
0
  6
HIDDEN
 62
     7
100
AcDbLine
 10
7.8821408394
 20
3.9702227669
 30
0.0
 11
8.231199567
 21
3.9702227669
 31
0.0
  0
LINE
  5
1D1
330
1F
100
AcDbEntity
  8
0
  6
HIDDEN
 62
     7
100
AcDbLine
 10
7.8720172912
 20
4.0795444281
 30
0.0
 11
8.0883625771
 21
4.0795444281
 31
0.0
  0
LINE
  5
1D2
330
1F
100
AcDbEntity
  8
0
  6
CONTINUOUS
 62
     7
100
AcDbLine
 10
3.4395888593
 20
6.0026858003
 30
0.0
 11
3.4592738987
 21
6.0223708397
 31
0.0
  0
LINE
  5
1D3
330
1F
100
AcDbEntity
  8
0
  6
CONTINUOUS
 62
     7
100
AcDbLine
 10
3.4592738987
 20
7.3215834381
 30
0.0
 11
3.4395888593
 21
7.3412684775
 31
0.0
  0
LINE
  5
1D4
330
1F
100
AcDbEntity
  8
0
  6
CONTINUOUS
 62
     7
100
AcDbLine
 10
3.3856912215
 20
6.0026858003
 30
0.0
 11
3.4395888593
 21
6.0026858003
 31
0.0
  0
LINE
  5
1D5
330
1F
100
AcDbEntity
  8
0
  6
CONTINUOUS
 62
     7
100
AcDbLine
 10
3.4395888593
 20
7.3412684775
 30
0.0
 11
3.3856912215
 21
7.3412684775
 31
0.0
  0
LINE
  5
1D6
330
1F
100
AcDbEntity
  8
0
  6
CONTINUOUS
 62
     7
100
AcDbLine
 10
3.4592738987
 20
6.2467802885
 30
0.0
 11
3.511767337
 21
6.2467802885
 31
0.0
  0
LINE
  5
1D7
330
1F
100
AcDbEntity
  8
0
  6
CONTINUOUS
 62
     7
100
AcDbLine
 10
3.8431321664
 20
7.0971739893
 30
0.0
 11
3.4592738987
 21
7.0971739893
 31
0.0
  0
LINE
  5
1D8
330
1F
100
AcDbEntity
  8
0
  6
CONTINUOUS
 62
     7
100
AcDbLine
 10
3.8561209589
 20
7.0841851968
 30
0.0
 11
3.8431321664
 21
7.0971739893
 31
0.0
  0
ARC
  5
1D9
330
1F
100
AcDbEntity
  8
0
  6
CONTINUOUS
 62
     7
100
AcDbCircle
 10
2.8396675994
 20
6.9928432806
 30
0.0
 40
0.0196850393700787
100
AcDbArc
 50
90.0
 51
180.0
  0
ARC
  5
1DA
330
1F
100
AcDbEntity
  8
0
  6
CONTINUOUS
 62
     7
100
AcDbCircle
 10
3.0168329538
 20
6.9928432806
 30
0.0
 40
0.0196850393700787
100
AcDbArc
 50
10.3421072572
 51
90.0
  0
LINE
  5
1DB
330
1F
100
AcDbEntity
  8
0
  6
CONTINUOUS
 62
     7
100
AcDbLine
 10
2.8691951585
 20
6.6916621783
 30
0.0
 11
2.8691951585
 21
6.6522920995
 31
0.0
  0
LINE
  5
1DC
330
1F
100
AcDbEntity
  8
0
  6
CONTINUOUS
 62
     7
100
AcDbLine
 10
2.9873053947
 20
6.6522920995
 30
0.0
 11
2.9873053947
 21
6.6916621783
 31
0.0
  0
LINE
  5
1DD
330
1F
100
AcDbEntity
  8
0
  6
CONTINUOUS
 62
     7
100
AcDbLine
 10
3.2136833475
 20
7.3412684775
 30
0.0
 11
3.1939983081
 21
7.3215834381
 31
0.0
  0
LINE
  5
1DE
330
1F
100
AcDbEntity
  8
0
  6
CONTINUOUS
 62
     7
100
AcDbLine
 10
3.1939983081
 20
6.0223708397
 30
0.0
 11
3.2136833475
 21
6.0026858003
 31
0.0
  0
LINE
  5
1DF
330
1F
100
AcDbEntity
  8
0
  6
CONTINUOUS
 62
     7
100
AcDbLine
 10
3.2675809853
 20
7.3412684775
 30
0.0
 11
3.2136833475
 21
7.3412684775
 31
0.0
  0
LINE
  5
1E0
330
1F
100
AcDbEntity
  8
0
  6
CONTINUOUS
 62
     7
100
AcDbLine
 10
3.2136833475
 20
6.0026858003
 30
0.0
 11
3.2675809853
 21
6.0026858003
 31
0.0
  0
LINE
  5
1E1
330
1F
100
AcDbEntity
  8
0
  6
CONTINUOUS
 62
     7
100
AcDbLine
 10
3.3463211428
 20
6.5637094224
 30
0.0
 11
3.3856912215
 21
6.5637094224
 31
0.0
  0
LINE
  5
1E2
330
1F
100
AcDbEntity
  8
0
  6
CONTINUOUS
 62
     7
100
AcDbLine
 10
3.3856912215
 20
6.7802448555
 30
0.0
 11
3.3463211428
 21
6.7802448555
 31
0.0
  0
LINE
  5
1E3
330
1F
100
AcDbEntity
  8
0
  6
CONTINUOUS
 62
     7
100
AcDbLine
 10
3.2675809853
 20
6.5637094224
 30
0.0
 11
3.306951064
 21
6.5637094224
 31
0.0
  0
LINE
  5
1E4
330
1F
100
AcDbEntity
  8
0
  6
CONTINUOUS
 62
     7
100
AcDbLine
 10
3.306951064
 20
6.7802448555
 30
0.0
 11
3.2675809853
 21
6.7802448555
 31
0.0
  0
LINE
  5
1E5
330
1F
100
AcDbEntity
  8
0
  6
CONTINUOUS
 62
     7
100
AcDbLine
 10
3.0890114315
 20
7.0971739893
 30
0.0
 11
2.8101400404
 21
7.0971739893
 31
0.0
  0
LINE
  5
1E6
330
1F
100
AcDbEntity
  8
0
  6
CONTINUOUS
 62
     7
100
AcDbLine
 10
3.1939983081
 20
7.0971739893
 30
0.0
 11
3.1415048698
 21
7.0971739893
 31
0.0
  0
LINE
  5
1E7
330
1F
100
AcDbEntity
  8
0
  6
CONTINUOUS
 62
     7
100
AcDbLine
 10
3.1415048698
 20
6.2467802885
 30
0.0
 11
3.1939983081
 21
6.2467802885
 31
0.0
  0
LINE
  5
1E8
330
1F
100
AcDbEntity
  8
0
  6
CONTINUOUS
 62
     7
100
AcDbLine
 10
2.8101400404
 20
6.2467802885
 30
0.0
 11
3.0890114315
 21
6.2467802885
 31
0.0
  0
LINE
  5
1E9
330
1F
100
AcDbEntity
  8
0
  6
CONTINUOUS
 62
     7
100
AcDbLine
 10
2.8101400404
 20
7.0971739893
 30
0.0
 11
2.7951400404
 21
7.0821739893
 31
0.0
  0
LINE
  5
1EA
330
1F
100
AcDbEntity
  8
0
  6
CONTINUOUS
 62
     7
100
AcDbLine
 10
2.7951400404
 20
6.2617802885
 30
0.0
 11
2.8101400404
 21
6.2467802885
 31
0.0
  0
LINE
  5
1EB
330
1F
100
AcDbEntity
  8
0
  6
CONTINUOUS
 62
     7
100
AcDbLine
 10
3.3463211428
 20
7.0705991862
 30
0.0
 11
3.3856912215
 21
7.0705991862
 31
0.0
  0
LINE
  5
1EC
330
1F
100
AcDbEntity
  8
0
  6
CONTINUOUS
 62
     7
100
AcDbLine
 10
3.3856912215
 20
7.2871346192
 30
0.0
 11
3.3463211428
 21
7.2871346192
 31
0.0
  0
LINE
  5
1ED
330
1F
100
AcDbEntity
  8
0
  6
CONTINUOUS
 62
     7
100
AcDbLine
 10
3.2675809853
 20
7.0705991862
 30
0.0
 11
3.306951064
 21
7.0705991862
 31
0.0
  0
LINE
  5
1EE
330
1F
100
AcDbEntity
  8
0
  6
CONTINUOUS
 62
     7
100
AcDbLine
 10
3.306951064
 20
7.2871346192
 30
0.0
 11
3.2675809853
 21
7.2871346192
 31
0.0
  0
LINE
  5
1EF
330
1F
100
AcDbEntity
  8
0
  6
CONTINUOUS
 62
     7
100
AcDbLine
 10
3.2675809853
 20
6.0568196586
 30
0.0
 11
3.306951064
 21
6.0568196586
 31
0.0
  0
LINE
  5
1F0
330
1F
100
AcDbEntity
  8
0
  6
CONTINUOUS
 62
     7
100
AcDbLine
 10
3.306951064
 20
6.2733550917
 30
0.0
 11
3.2675809853
 21
6.2733550917
 31
0.0
  0
LINE
  5
1F1
330
1F
100
AcDbEntity
  8
0
  6
CONTINUOUS
 62
     7
100
AcDbLine
 10
3.3463211428
 20
6.0568196586
 30
0.0
 11
3.3856912215
 21
6.0568196586
 31
0.0
  0
LINE
  5
1F2
330
1F
100
AcDbEntity
  8
0
  6
CONTINUOUS
 62
     7
100
AcDbLine
 10
3.3856912215
 20
6.2733550917
 30
0.0
 11
3.3463211428
 21
6.2733550917
 31
0.0
  0
LINE
  5
1F3
330
1F
100
AcDbEntity
  8
0
  6
CONTINUOUS
 62
     7
100
AcDbLine
 10
3.3463211428
 20
7.3142015484
 30
0.0
 11
3.306951064
 21
7.3142015484
 31
0.0
  0
LINE
  5
1F4
330
1F
100
AcDbEntity
  8
0
  6
CONTINUOUS
 62
     7
100
AcDbLine
 10
3.306951064
 20
6.0297527295
 30
0.0
 11
3.3463211428
 21
6.0297527295
 31
0.0
  0
LINE
  5
1F5
330
1F
100
AcDbEntity
  8
0
  6
CONTINUOUS
 62
     7
100
AcDbLine
 10
3.4395888593
 20
6.0026858003
 30
0.0
 11
3.4395888593
 21
7.3412684775
 31
0.0
  0
LINE
  5
1F6
330
1F
100
AcDbEntity
  8
0
  6
CONTINUOUS
 62
     7
100
AcDbLine
 10
3.4592738987
 20
7.3215834381
 30
0.0
 11
3.4592738987
 21
6.0223708397
 31
0.0
  0
LINE
  5
1F7
330
1F
100
AcDbEntity
  8
0
  6
CONTINUOUS
 62
     7
100
AcDbLine
 10
3.3856912215
 20
6.0026858003
 30
0.0
 11
3.3856912215
 21
7.3412684775
 31
0.0
  0
SPLINE
  5
1F8
330
1F
100
AcDbEntity
  8
0
  6
CONTINUOUS
 62
     7
100
AcDbSpline
210
0.0
220
0.0
230
1.0
 70
     8
 71
     3
 72
    56
 73
    52
 74
     0
 42
0.00000001
 43
0.00000001
 40
0.0
 40
0.0
 40
0.0
 40
0.0
 40
0.0624999999999999
 40
0.0624999999999999
 40
0.1249999999999998
 40
0.1249999999999998
 40
0.1874999999999996
 40
0.1874999999999996
 40
0.2499999999999996
 40
0.2499999999999996
 40
0.2812499999999994
 40
0.2812499999999994
 40
0.3124999999999993
 40
0.3124999999999993
 40
0.3437499999999991
 40
0.3437499999999991
 40
0.3749999999999989
 40
0.3749999999999989
 40
0.4062499999999987
 40
0.4062499999999987
 40
0.4374999999999986
 40
0.4374999999999986
 40
0.4687499999999984
 40
0.4687499999999984
 40
0.4999999999999982
 40
0.4999999999999982
 40
0.531249999999998
 40
0.531249999999998
 40
0.5624999999999979
 40
0.5624999999999979
 40
0.5937499999999977
 40
0.5937499999999977
 40
0.6249999999999976
 40
0.6249999999999976
 40
0.6562499999999976
 40
0.6562499999999976
 40
0.6874999999999978
 40
0.6874999999999978
 40
0.7187499999999979
 40
0.7187499999999979
 40
0.7499999999999981
 40
0.7499999999999981
 40
0.7812499999999982
 40
0.7812499999999982
 40
0.8124999999999983
 40
0.8124999999999983
 40
0.8749999999999989
 40
0.8749999999999989
 40
0.9374999999999994
 40
0.9374999999999994
 40
1.0
 40
1.0
 40
1.0
 40
1.0
 10
3.782467539080537
 20
6.309606627388826
 30
0.0
 10
3.791563301704149
 20
6.315300279177719
 30
0.0
 10
3.799136439260928
 20
6.321838951935422
 30
0.0
 10
3.812299054481455
 20
6.336554310908144
 30
0.0
 10
3.817817211608082
 20
6.34474300689765
 30
0.0
 10
3.826496449680709
 20
6.362372969783231
 30
0.0
 10
3.829731976222981
 20
6.371950124498678
 30
0.0
 10
3.833419938396406
 20
6.392431124359586
 30
0.0
 10
3.833858357527315
 20
6.403131286204125
 30
0.0
 10
3.831844339399676
 20
6.419884501251841
 30
0.0
 10
3.830709921958749
 20
6.425591476870937
 30
0.0
 10
3.827477415434482
 20
6.436861901252725
 30
0.0
 10
3.825377474099905
 20
6.442468695089884
 30
0.0
 10
3.820078906645319
 20
6.453568434364577
 30
0.0
 10
3.816849989774148
 20
6.4590854703666
 30
0.0
 10
3.809437261879684
 20
6.469470487776759
 30
0.0
 10
3.805233621449796
 20
6.474396170748279
 30
0.0
 10
3.795749890050399
 20
6.48361616566657
 30
0.0
 10
3.790400757124346
 20
6.487944776966997
 30
0.0
 10
3.779037918012811
 20
6.49545490493132
 30
0.0
 10
3.772990695755286
 20
6.498688067271742
 30
0.0
 10
3.760135969906327
 20
6.504029112841259
 30
0.0
 10
3.753325137238158
 20
6.506114699175369
 30
0.0
 10
3.739595976716767
 20
6.5088881962711
 30
0.0
 10
3.732578958869655
 20
6.509615805517043
 30
0.0
 10
3.718333752440425
 20
6.509672965037218
 30
0.0
 10
3.711330472447669
 20
6.509005011880851
 30
0.0
 10
3.697553473550709
 20
6.506337592437512
 30
0.0
 10
3.690712017733397
 20
6.504300594314769
 30
0.0
 10
3.677817976726099
 20
6.499061274455745
 30
0.0
 10
3.671715478754438
 20
6.495863425406404
 30
0.0
 10
3.66019257159175
 20
6.488362105099173
 30
0.0
 10
3.654864194579968
 20
6.484105178902879
 30
0.0
 10
3.645282561950169
 20
6.474913947662881
 30
0.0
 10
3.640951834028435
 20
6.469903264290823
 30
0.0
 10
3.633406020066682
 20
6.45942993843802
 30
0.0
 10
3.630210370619118
 20
6.454014572110235
 30
0.0
 10
3.624849096727665
 20
6.442914179333929
 30
0.0
 10
3.62268040365868
 20
6.437194416257726
 30
0.0
 10
3.619397097287783
 20
6.425873077248943
 30
0.0
 10
3.618260660008251
 20
6.420237729109227
 30
0.0
 10
3.616879280056743
 20
6.409048443420049
 30
0.0
 10
3.616640804559444
 20
6.403477860151436
 30
0.0
 10
3.616967052488506
 20
6.392715950317918
 30
0.0
 10
3.617524786180469
 20
6.387487399149341
 30
0.0
 10
3.620240230652913
 20
6.372233277484662
 30
0.0
 10
3.623473043867311
 20
6.36255191741316
 30
0.0
 10
3.632182788865127
 20
6.344804586135432
 30
0.0
 10
3.637626622967173
 20
6.336707379004418
 30
0.0
 10
3.650823965508501
 20
6.321911626082725
 30
0.0
 10
3.658477052268382
 20
6.315302474032528
 30
0.0
 10
3.667576321231874
 20
6.309606627388826
 30
0.0
  0
LINE
  5
1F9
330
1F
100
AcDbEntity
  8
0
  6
CONTINUOUS
 62
     7
100
AcDbLine
 10
3.8431321664
 20
6.2472362052
 30
0.0
 11
3.8431321664
 21
7.0971739893
 31
0.0
  0
LINE
  5
1FA
330
1F
100
AcDbEntity
  8
0
  6
CONTINUOUS
 62
     7
100
AcDbLine
 10
3.8431321664
 20
6.2472362052
 30
0.0
 11
3.5642607753
 21
6.2472362052
 31
0.0
  0
LINE
  5
1FB
330
1F
100
AcDbEntity
  8
0
  6
CONTINUOUS
 62
     7
100
AcDbLine
 10
3.5642607753
 20
6.8668590287
 30
0.0
 11
3.5642607753
 21
6.2472362052
 31
0.0
  0
LINE
  5
1FC
330
1F
100
AcDbEntity
  8
0
  6
CONTINUOUS
 62
     7
100
AcDbLine
 10
3.511767337
 20
6.8668590287
 30
0.0
 11
3.5642607753
 21
6.8668590287
 31
0.0
  0
LINE
  5
1FD
330
1F
100
AcDbEntity
  8
0
  6
CONTINUOUS
 62
     7
100
AcDbLine
 10
3.511767337
 20
6.2467802885
 30
0.0
 11
3.511767337
 21
6.8668590287
 31
0.0
  0
POLYLINE
  5
1FE
330
1F
100
AcDbEntity
  8
0
  6
CONTINUOUS
 62
     7
100
AcDb2dPolyline
 66
     1
 10
0.0
 20
0.0
 30
0.0
  0
VERTEX
  5
2EA
330
1FE
100
AcDbEntity
  8
0
  6
CONTINUOUS
 62
     7
100
AcDbVertex
100
AcDb2dVertex
 10
3.8558859436
 20
7.0839501815
 30
0.0
  0
VERTEX
  5
2EB
330
1FE
100
AcDbEntity
  8
0
  6
CONTINUOUS
 62
     7
100
AcDbVertex
100
AcDb2dVertex
 10
3.8558859436
 20
7.0839501815
 30
0.0
  0
SEQEND
  5
2EC
330
1FE
100
AcDbEntity
  8
0
  6
CONTINUOUS
 62
     7
  0
LINE
  5
1FF
330
1F
100
AcDbEntity
  8
0
  6
CONTINUOUS
 62
     7
100
AcDbLine
 10
3.8581321664
 20
7.0817013819
 30
0.0
 11
3.8558859436
 21
7.0839501815
 31
0.0
  0
LINE
  5
200
330
1F
100
AcDbEntity
  8
0
  6
CONTINUOUS
 62
     7
100
AcDbLine
 10
3.8581321664
 20
7.0817013819
 30
0.0
 11
3.8581321664
 21
6.2622528959
 31
0.0
  0
LINE
  5
201
330
1F
100
AcDbEntity
  8
0
  6
CONTINUOUS
 62
     7
100
AcDbLine
 10
3.8431321664
 20
6.2472362052
 30
0.0
 11
3.8581321664
 21
6.2622528959
 31
0.0
  0
CIRCLE
  5
202
330
1F
100
AcDbEntity
  8
0
  6
CONTINUOUS
 62
     7
100
AcDbCircle
 10
3.7250219302
 20
6.4013775403
 30
0.0
 40
0.0885826771653546
  0
CIRCLE
  5
203
330
1F
100
AcDbEntity
  8
0
  6
CONTINUOUS
 62
     7
100
AcDbCircle
 10
3.7250219302
 20
6.4013775403
 30
0.0
 40
0.1082677165354333
  0
LINE
  5
204
330
1F
100
AcDbEntity
  8
0
  6
CONTINUOUS
 62
     7
100
AcDbLine
 10
3.7742345286
 20
6.3729646334
 30
0.0
 11
3.7742345286
 21
6.4297904473
 31
0.0
  0
LINE
  5
205
330
1F
100
AcDbEntity
  8
0
  6
CONTINUOUS
 62
     7
100
AcDbLine
 10
3.7742345286
 20
6.4297904473
 30
0.0
 11
3.7250219302
 21
6.4582033542
 31
0.0
  0
LINE
  5
206
330
1F
100
AcDbEntity
  8
0
  6
CONTINUOUS
 62
     7
100
AcDbLine
 10
3.7250219302
 20
6.4582033542
 30
0.0
 11
3.6758093317
 21
6.4297904473
 31
0.0
  0
LINE
  5
207
330
1F
100
AcDbEntity
  8
0
  6
CONTINUOUS
 62
     7
100
AcDbLine
 10
3.6758093317
 20
6.4297904473
 30
0.0
 11
3.6758093317
 21
6.3729646334
 31
0.0
  0
LINE
  5
208
330
1F
100
AcDbEntity
  8
0
  6
CONTINUOUS
 62
     7
100
AcDbLine
 10
3.6758093317
 20
6.3729646334
 30
0.0
 11
3.7250219302
 21
6.3445517264
 31
0.0
  0
LINE
  5
209
330
1F
100
AcDbEntity
  8
0
  6
CONTINUOUS
 62
     7
100
AcDbLine
 10
3.7250219302
 20
6.3445517264
 30
0.0
 11
3.7742345286
 21
6.3729646334
 31
0.0
  0
LINE
  5
20A
330
1F
100
AcDbEntity
  8
0
  6
CONTINUOUS
 62
     7
100
AcDbLine
 10
2.9282502766
 20
6.8944180838
 30
0.0
 11
2.8708046677
 21
6.8944180838
 31
0.0
  0
LINE
  5
20B
330
1F
100
AcDbEntity
  8
0
  6
CONTINUOUS
 62
     7
100
AcDbLine
 10
2.98607759
 20
6.8944180838
 30
0.0
 11
2.9282502766
 21
6.8944180838
 31
0.0
  0
LINE
  5
20C
330
1F
100
AcDbEntity
  8
0
  6
CONTINUOUS
 62
     7
100
AcDbLine
 10
2.9282502766
 20
7.01252832
 30
0.0
 11
2.8396675994
 21
7.01252832
 31
0.0
  0
LINE
  5
20D
330
1F
100
AcDbEntity
  8
0
  6
CONTINUOUS
 62
     7
100
AcDbLine
 10
3.0168329538
 20
7.01252832
 30
0.0
 11
2.9282502766
 21
7.01252832
 31
0.0
  0
LINE
  5
20E
330
1F
100
AcDbEntity
  8
0
  6
CONTINUOUS
 62
     7
100
AcDbLine
 10
2.9116584231
 20
6.4003235956
 30
0.0
 11
2.9449016563
 21
6.4003235956
 31
0.0
  0
LINE
  5
20F
330
1F
100
AcDbEntity
  8
0
  6
CONTINUOUS
 62
     7
100
AcDbLine
 10
3.2136833475
 20
6.0026858003
 30
0.0
 11
3.2136833475
 21
7.3412684775
 31
0.0
  0
LINE
  5
210
330
1F
100
AcDbEntity
  8
0
  6
CONTINUOUS
 62
     7
100
AcDbLine
 10
3.1939983081
 20
7.3215834381
 30
0.0
 11
3.1939983081
 21
6.0223708397
 31
0.0
  0
LINE
  5
211
330
1F
100
AcDbEntity
  8
0
  6
CONTINUOUS
 62
     7
100
AcDbLine
 10
3.2675809853
 20
6.6719771389
 30
0.0
 11
3.2675809853
 21
7.3412684775
 31
0.0
  0
LINE
  5
212
330
1F
100
AcDbEntity
  8
0
  6
CONTINUOUS
 62
     7
100
AcDbLine
 10
3.2675809853
 20
6.0026858003
 30
0.0
 11
3.2675809853
 21
6.6719771389
 31
0.0
  0
LINE
  5
213
330
1F
100
AcDbEntity
  8
0
  6
CONTINUOUS
 62
     7
100
AcDbLine
 10
3.3463211428
 20
6.7676731846
 30
0.0
 11
3.306951064
 21
6.7676731846
 31
0.0
  0
LINE
  5
214
330
1F
100
AcDbEntity
  8
0
  6
CONTINUOUS
 62
     7
100
AcDbLine
 10
3.3463211428
 20
6.5762810932
 30
0.0
 11
3.306951064
 21
6.5762810932
 31
0.0
  0
LINE
  5
215
330
1F
100
AcDbEntity
  8
0
  6
CONTINUOUS
 62
     7
100
AcDbLine
 10
3.3463211428
 20
6.7676731846
 30
0.0
 11
3.3463211428
 21
6.5762810932
 31
0.0
  0
LINE
  5
216
330
1F
100
AcDbEntity
  8
0
  6
CONTINUOUS
 62
     7
100
AcDbLine
 10
3.306951064
 20
6.7676731846
 30
0.0
 11
3.306951064
 21
6.5762810932
 31
0.0
  0
LINE
  5
217
330
1F
100
AcDbEntity
  8
0
  6
CONTINUOUS
 62
     7
100
AcDbLine
 10
3.3463211428
 20
7.2745629484
 30
0.0
 11
3.306951064
 21
7.2745629484
 31
0.0
  0
LINE
  5
218
330
1F
100
AcDbEntity
  8
0
  6
CONTINUOUS
 62
     7
100
AcDbLine
 10
3.3463211428
 20
7.2745629484
 30
0.0
 11
3.3463211428
 21
6.7676731846
 31
0.0
  0
LINE
  5
219
330
1F
100
AcDbEntity
  8
0
  6
CONTINUOUS
 62
     7
100
AcDbLine
 10
3.306951064
 20
7.2745629484
 30
0.0
 11
3.306951064
 21
6.7676731846
 31
0.0
  0
LINE
  5
21A
330
1F
100
AcDbEntity
  8
0
  6
CONTINUOUS
 62
     7
100
AcDbLine
 10
3.3463211428
 20
6.0693913295
 30
0.0
 11
3.306951064
 21
6.0693913295
 31
0.0
  0
LINE
  5
21B
330
1F
100
AcDbEntity
  8
0
  6
CONTINUOUS
 62
     7
100
AcDbLine
 10
3.3463211428
 20
6.5762810932
 30
0.0
 11
3.3463211428
 21
6.0693913295
 31
0.0
  0
LINE
  5
21C
330
1F
100
AcDbEntity
  8
0
  6
CONTINUOUS
 62
     7
100
AcDbLine
 10
3.306951064
 20
6.5762810932
 30
0.0
 11
3.306951064
 21
6.0693913295
 31
0.0
  0
SPLINE
  5
21D
330
1F
100
AcDbEntity
  8
0
  6
CONTINUOUS
 62
     7
100
AcDbSpline
210
0.0
220
0.0
230
1.0
 70
     8
 71
     3
 72
    56
 73
    52
 74
     0
 42
0.00000001
 43
0.00000001
 40
0.0
 40
0.0
 40
0.0
 40
0.0
 40
0.0624999999999999
 40
0.0624999999999999
 40
0.1249999999999998
 40
0.1249999999999998
 40
0.1874999999999996
 40
0.1874999999999996
 40
0.2499999999999995
 40
0.2499999999999995
 40
0.2812499999999994
 40
0.2812499999999994
 40
0.3124999999999994
 40
0.3124999999999994
 40
0.3437499999999993
 40
0.3437499999999993
 40
0.3749999999999992
 40
0.3749999999999992
 40
0.4062499999999992
 40
0.4062499999999992
 40
0.4374999999999991
 40
0.4374999999999991
 40
0.4687499999999991
 40
0.4687499999999991
 40
0.499999999999999
 40
0.499999999999999
 40
0.5312499999999989
 40
0.5312499999999989
 40
0.5624999999999989
 40
0.5624999999999989
 40
0.5937499999999988
 40
0.5937499999999988
 40
0.6249999999999988
 40
0.6249999999999988
 40
0.6562499999999987
 40
0.6562499999999987
 40
0.6874999999999988
 40
0.6874999999999988
 40
0.7187499999999988
 40
0.7187499999999988
 40
0.7499999999999988
 40
0.7499999999999988
 40
0.7812499999999989
 40
0.7812499999999989
 40
0.8124999999999989
 40
0.8124999999999989
 40
0.8749999999999991
 40
0.8749999999999991
 40
0.9374999999999996
 40
0.9374999999999996
 40
1.0
 40
1.0
 40
1.0
 40
1.0
 10
2.870804667688568
 20
6.894418083798318
 30
0.0
 10
2.861708905064956
 20
6.90369340634425
 30
0.0
 10
2.854135767508177
 20
6.913535090233297
 30
0.0
 10
2.84097315228765
 20
6.933584708144985
 30
0.0
 10
2.835454995161024
 20
6.943798976183763
 30
0.0
 10
2.826775757088396
 20
6.963721113710792
 30
0.0
 10
2.823540230546124
 20
6.973592755452787
 30
0.0
 10
2.8198522683727
 20
6.99266735589291
 30
0.0
 10
2.81941384924179
 20
7.001691279831702
 30
0.0
 10
2.821427867369429
 20
7.014454802471117
 30
0.0
 10
2.822562284810355
 20
7.018579515313954
 30
0.0
 10
2.825794791334623
 20
7.026321500808004
 30
0.0
 10
2.8278947326692
 20
7.029972757539695
 30
0.0
 10
2.833193300123786
 20
7.03685057795676
 30
0.0
 10
2.836422216994957
 20
7.040087055665192
 30
0.0
 10
2.843834944889421
 20
7.045900700076873
 30
0.0
 10
2.848038585319309
 20
7.048515168110518
 30
0.0
 10
2.857522316718706
 20
7.053211017484425
 30
0.0
 10
2.862871449644759
 20
7.055306817032561
 30
0.0
 10
2.874234288756293
 20
7.058822654953788
 30
0.0
 10
2.880281511013819
 20
7.060270532675337
 30
0.0
 10
2.893136236862778
 20
7.062610371662623
 30
0.0
 10
2.899947069530947
 20
7.063492495096571
 30
0.0
 10
2.913676230052338
 20
7.064655913270924
 30
0.0
 10
2.920693247899449
 20
7.064954441006089
 30
0.0
 10
2.934938454328679
 20
7.064978051997152
 30
0.0
 10
2.941941734321436
 20
7.064704192240199
 30
0.0
 10
2.955718733218395
 20
7.063586629665989
 30
0.0
 10
2.962560189035708
 20
7.062726562131076
 30
0.0
 10
2.975454230043006
 20
7.0604364536071
 30
0.0
 10
2.981556728014666
 20
7.059008732979852
 30
0.0
 10
2.993079635177355
 20
7.055506817358468
 30
0.0
 10
2.998408012189137
 20
7.053451974802905
 30
0.0
 10
3.007989644818936
 20
7.048786138844661
 30
0.0
 10
3.01232037274067
 20
7.04613550805391
 30
0.0
 10
3.019866186702423
 20
7.040286823245547
 30
0.0
 10
3.023061836149988
 20
7.037117178119475
 30
0.0
 10
3.02842311004144
 20
7.030257879823965
 30
0.0
 10
3.030591803110425
 20
7.026542424185272
 30
0.0
 10
3.033875109481322
 20
7.018780050103135
 30
0.0
 10
3.035011546760854
 20
7.01471468013294
 30
0.0
 10
3.036392926712363
 20
7.006207977849328
 30
0.0
 10
3.036631402209661
 20
7.001749765779418
 30
0.0
 10
3.036305154280599
 20
6.99268734559527
 30
0.0
 10
3.035747420588635
 20
6.988056508732734
 30
0.0
 10
3.033031976116192
 20
6.9738692603848
 30
0.0
 10
3.029799162901795
 20
6.963914651908562
 30
0.0
 10
3.021089417903978
 20
6.943877120345529
 30
0.0
 10
3.015645583801931
 20
6.933783718805071
 30
0.0
 10
3.002448241260604
 20
6.913643507923211
 30
0.0
 10
2.994795154500723
 20
6.903696981902969
 30
0.0
 10
2.98569588553723
 20
6.894418083798318
 30
0.0
  0
SPLINE
  5
21E
330
1F
100
AcDbEntity
  8
0
  6
CONTINUOUS
 62
     7
100
AcDbSpline
210
0.0
220
0.0
230
1.0
 70
     8
 71
     3
 72
    46
 73
    42
 74
     0
 42
0.00000001
 43
0.00000001
 40
-0.0312500000000001
 40
-0.0312500000000001
 40
0.0
 40
0.0
 40
0.0624999999999997
 40
0.0624999999999997
 40
0.0937499999999997
 40
0.0937499999999997
 40
0.1249999999999996
 40
0.1249999999999996
 40
0.1874999999999995
 40
0.1874999999999995
 40
0.2499999999999996
 40
0.2499999999999996
 40
0.3124999999999996
 40
0.3124999999999996
 40
0.3749999999999997
 40
0.3749999999999997
 40
0.4062499999999996
 40
0.4062499999999996
 40
0.4374999999999996
 40
0.4374999999999996
 40
0.4999999999999997
 40
0.4999999999999997
 40
0.5624999999999997
 40
0.5624999999999997
 40
0.6249999999999998
 40
0.6249999999999998
 40
0.6874999999999998
 40
0.6874999999999998
 40
0.7499999999999999
 40
0.7499999999999999
 40
0.8124999999999999
 40
0.8124999999999999
 40
0.875
 40
0.875
 40
0.90625
 40
0.90625
 40
0.9374999999999999
 40
0.9374999999999999
 40
0.9687499999999999
 40
0.9687499999999999
 40
1.0
 40
1.0
 40
1.0625
 40
1.0625
 10
2.932810114824196
 20
6.40342522711206
 30
0.0
 10
2.919130600190305
 20
6.40342522711206
 30
0.0
 10
2.910467294813034
 20
6.400736854831415
 30
0.0
 10
2.899507377473225
 20
6.394681719964594
 30
0.0
 10
2.89617312126803
 20
6.392340232581449
 30
0.0
 10
2.890190045568087
 20
6.387361123834948
 30
0.0
 10
2.887500024599121
 20
6.384695230144048
 30
0.0
 10
2.880215693595915
 20
6.376328076270508
 30
0.0
 10
2.876580022885566
 20
6.370515236758756
 30
0.0
 10
2.87129156408021
 20
6.358673256250524
 30
0.0
 10
2.869711203817568
 20
6.352704043961509
 30
0.0
 10
2.868892011640527
 20
6.341211666489157
 30
0.0
 10
2.869667327384006
 20
6.335559381157303
 30
0.0
 10
2.873961101550784
 20
6.325231026792296
 30
0.0
 10
2.877552689726747
 20
6.320418893195286
 30
0.0
 10
2.885161123587364
 20
6.314349881948489
 30
0.0
 10
2.888122113058192
 20
6.312477021447315
 30
0.0
 10
2.8946508601177
 20
6.309234536080792
 30
0.0
 10
2.898216133898585
 20
6.307851198862905
 30
0.0
 10
2.909901386163515
 20
6.304414426503861
 30
0.0
 10
2.918866896277003
 20
6.303172136165129
 30
0.0
 10
2.936900415642592
 20
6.3031079239474
 30
0.0
 10
2.945876357294128
 20
6.304279652661931
 30
0.0
 10
2.961612726269729
 20
6.308758428128828
 30
0.0
 10
2.968381812465974
 20
6.312074563132724
 30
0.0
 10
2.978720562107523
 20
6.320158832986444
 30
0.0
 10
2.982362606398784
 20
6.324943308980065
 30
0.0
 10
2.986777336447673
 20
6.33529441831428
 30
0.0
 10
2.987593674925639
 20
6.340938078555748
 30
0.0
 10
2.986838197666823
 20
6.352480598108373
 30
0.0
 10
2.98526269343361
 20
6.358500614851425
 30
0.0
 10
2.980033760863555
 20
6.370312436350139
 30
0.0
 10
2.976325295888214
 20
6.376260306326379
 30
0.0
 10
2.969115392726922
 20
6.384573656249705
 30
0.0
 10
2.966443220706129
 20
6.387239056564264
 30
0.0
 10
2.960429203489544
 20
6.392266717827405
 30
0.0
 10
2.957088173001271
 20
6.394618671683089
 30
0.0
 10
2.949820660333681
 20
6.398654627575328
 30
0.0
 10
2.94579891135596
 20
6.400380038643316
 30
0.0
 10
2.937339488750744
 20
6.402756427883137
 30
0.0
 10
2.932810114824196
 20
6.40342522711206
 30
0.0
 10
2.919130600190305
 20
6.40342522711206
 30
0.0
  0
LINE
  5
21F
330
1F
100
AcDbEntity
  8
0
  6
CONTINUOUS
 62
     7
100
AcDbLine
 10
3.1415048698
 20
7.0498837552
 30
0.0
 11
3.0890114315
 21
7.0498837552
 31
0.0
  0
LINE
  5
220
330
1F
100
AcDbEntity
  8
0
  6
CONTINUOUS
 62
     7
100
AcDbLine
 10
3.0890114315
 20
7.0971739893
 30
0.0
 11
3.0890114315
 21
6.6916621783
 31
0.0
  0
LINE
  5
221
330
1F
100
AcDbEntity
  8
0
  6
CONTINUOUS
 62
     7
100
AcDbLine
 10
2.8101400404
 20
6.6916621783
 30
0.0
 11
3.0890114315
 21
6.6916621783
 31
0.0
  0
LINE
  5
222
330
1F
100
AcDbEntity
  8
0
  6
CONTINUOUS
 62
     7
100
AcDbLine
 10
2.8101400404
 20
6.6916621783
 30
0.0
 11
2.8101400404
 21
7.0971739893
 31
0.0
  0
LINE
  5
223
330
1F
100
AcDbEntity
  8
0
  6
CONTINUOUS
 62
     7
100
AcDbLine
 10
2.8101400404
 20
6.2467802885
 30
0.0
 11
2.8101400404
 21
6.6522920995
 31
0.0
  0
LINE
  5
224
330
1F
100
AcDbEntity
  8
0
  6
CONTINUOUS
 62
     7
100
AcDbLine
 10
2.8101400404
 20
6.6522920995
 30
0.0
 11
3.0890114315
 21
6.6522920995
 31
0.0
  0
LINE
  5
225
330
1F
100
AcDbEntity
  8
0
  6
CONTINUOUS
 62
     7
100
AcDbLine
 10
3.0890114315
 20
6.6522920995
 30
0.0
 11
3.0890114315
 21
6.2467802885
 31
0.0
  0
LINE
  5
226
330
1F
100
AcDbEntity
  8
0
  6
CONTINUOUS
 62
     7
100
AcDbLine
 10
3.0890114315
 20
6.2940705226
 30
0.0
 11
3.1415048698
 21
6.2940705226
 31
0.0
  0
LINE
  5
227
330
1F
100
AcDbEntity
  8
0
  6
CONTINUOUS
 62
     7
100
AcDbLine
 10
3.1415048698
 20
6.2467802885
 30
0.0
 11
3.1415048698
 21
7.0971739893
 31
0.0
  0
LINE
  5
228
330
1F
100
AcDbEntity
  8
0
  6
CONTINUOUS
 62
     7
100
AcDbLine
 10
2.7951400404
 20
6.6522920995
 30
0.0
 11
2.7951400404
 21
6.2617802885
 31
0.0
  0
LINE
  5
229
330
1F
100
AcDbEntity
  8
0
  6
CONTINUOUS
 62
     7
100
AcDbLine
 10
2.8101400404
 20
6.6522920995
 30
0.0
 11
2.7951400404
 21
6.6522920995
 31
0.0
  0
LINE
  5
22A
330
1F
100
AcDbEntity
  8
0
  6
CONTINUOUS
 62
     7
100
AcDbLine
 10
2.8101400404
 20
6.6916621783
 30
0.0
 11
2.7951400404
 21
6.6916621783
 31
0.0
  0
LINE
  5
22B
330
1F
100
AcDbEntity
  8
0
  6
CONTINUOUS
 62
     7
100
AcDbLine
 10
2.7951400404
 20
7.0821739893
 30
0.0
 11
2.7951400404
 21
6.6916621783
 31
0.0
  0
SPLINE
  5
22C
330
1F
100
AcDbEntity
  8
0
  6
CONTINUOUS
 62
     7
100
AcDbSpline
210
0.0
220
0.0
230
1.0
 70
     8
 71
     3
 72
     8
 73
     4
 74
     0
 42
0.00000001
 43
0.00000001
 40
0.0
 40
0.0
 40
0.0
 40
0.0
 40
1.0
 40
1.0
 40
1.0
 40
1.0
 10
2.797386263171613
 20
6.691662178286504
 30
0.0
 10
2.796764658845884
 20
6.678538818706451
 30
0.0
 10
2.796764658845884
 20
6.665415459126399
 30
0.0
 10
2.797386263171613
 20
6.652292099546346
 30
0.0
  0
LINE
  5
22D
330
1F
100
AcDbEntity
  8
0
  6
CONTINUOUS
 62
     7
100
AcDbLine
 10
3.3463211428
 20
7.3142015484
 30
0.0
 11
3.3463211428
 21
7.2745629484
 31
0.0
  0
LINE
  5
22E
330
1F
100
AcDbEntity
  8
0
  6
CONTINUOUS
 62
     7
100
AcDbLine
 10
3.306951064
 20
7.3142015484
 30
0.0
 11
3.306951064
 21
7.2745629484
 31
0.0
  0
LINE
  5
22F
330
1F
100
AcDbEntity
  8
0
  6
CONTINUOUS
 62
     7
100
AcDbLine
 10
3.3463211428
 20
6.0693913295
 30
0.0
 11
3.3463211428
 21
6.0297527295
 31
0.0
  0
LINE
  5
230
330
1F
100
AcDbEntity
  8
0
  6
CONTINUOUS
 62
     7
100
AcDbLine
 10
3.306951064
 20
6.0693913295
 30
0.0
 11
3.306951064
 21
6.0297527295
 31
0.0
  0
LINE
  5
231
330
1F
100
AcDbEntity
  8
0
  6
CONTINUOUS
 62
     7
100
AcDbLine
 10
3.0890114315
 20
6.6522920995
 30
0.0
 11
3.0890114315
 21
6.6916621783
 31
0.0
  0
LINE
  5
232
330
1F
100
AcDbEntity
  8
0
  6
CONTINUOUS
 62
     8
100
AcDbLine
 10
2.9282502766
 20
6.9928432806
 30
0.0
 11
3.0365179931
 21
6.9928432806
 31
0.0
  0
LINE
  5
233
330
1F
100
AcDbEntity
  8
0
  6
CONTINUOUS
 62
     8
100
AcDbLine
 10
2.8199825601
 20
6.9928432806
 30
0.0
 11
2.9282502766
 21
6.9928432806
 31
0.0
  0
LINE
  5
234
330
1F
100
AcDbEntity
  8
0
  6
HIDDEN
 62
     7
100
AcDbLine
 10
3.6675763212
 20
6.3096066274
 30
0.0
 11
3.7824675391
 21
6.3096066274
 31
0.0
  0
CIRCLE
  5
235
330
1F
100
AcDbEntity
  8
0
  6
HIDDEN
 62
     7
100
AcDbCircle
 10
3.7250219302
 20
6.4013775403
 30
0.0
 40
0.0590551181102361
  0
LINE
  5
236
330
1F
100
AcDbEntity
  8
0
  6
HIDDEN
 62
     7
100
AcDbLine
 10
3.8431321664
 20
6.7884354024
 30
0.0
 11
3.5642607753
 21
6.7884354024
 31
0.0
  0
SPLINE
  5
237
330
1F
100
AcDbEntity
  8
0
  6
HIDDEN
 62
     7
100
AcDbSpline
210
0.0
220
0.0
230
1.0
 70
     8
 71
     3
 72
     8
 73
     4
 74
     0
 42
0.00000001
 43
0.00000001
 40
0.0
 40
0.0
 40
0.0
 40
0.0
 40
1.0
 40
1.0
 40
1.0
 40
1.0
 10
3.843132166376679
 20
6.788435402363269
 30
0.0
 10
3.848128081283099
 20
6.793502184850577
 30
0.0
 10
3.853128569666302
 20
6.798564539916639
 30
0.0
 10
3.858132166376679
 20
6.803623765199323
 30
0.0
  0
ARC
  5
238
330
1F
100
AcDbEntity
  8
0
  6
HIDDEN
 62
     7
100
AcDbCircle
 10
3.8581321664
 20
6.7900873751
 30
0.0
 40
0.2938713910761164
100
AcDbArc
 50
90.437947831
 51
180.0
  0
LINE
  5
239
330
1F
100
AcDbEntity
  8
0
  6
HIDDEN
 62
     7
100
AcDbLine
 10
3.5642607753
 20
6.5555188755
 30
0.0
 11
3.8431321664
 21
6.5555188755
 31
0.0
  0
SPLINE
  5
23A
330
1F
100
AcDbEntity
  8
0
  6
HIDDEN
 62
     7
100
AcDbSpline
210
0.0
220
0.0
230
1.0
 70
     8
 71
     3
 72
     8
 73
     4
 74
     0
 42
0.00000001
 43
0.00000001
 40
0.0
 40
0.0
 40
0.0
 40
0.0
 40
1.0
 40
1.0
 40
1.0
 40
1.0
 10
3.858132166376679
 20
6.54033051263353
 30
0.0
 10
3.853128564514049
 20
6.545389743125747
 30
0.0
 10
3.848128043770236
 20
6.550452131027263
 30
0.0
 10
3.843132166376679
 20
6.555518875469583
 30
0.0
  0
CIRCLE
  5
23B
330
1F
100
AcDbEntity
  8
0
  6
HIDDEN
 62
     7
100
AcDbCircle
 10
3.7250219302
 20
6.4013775403
 30
0.0
 40
0.0393700787401574
  0
LINE
  5
23C
330
1F
100
AcDbEntity
  8
0
  6
HIDDEN
 62
     7
100
AcDbLine
 10
2.8708046677
 20
6.8944180838
 30
0.0
 11
2.8199825601
 21
6.8944180838
 31
0.0
  0
LINE
  5
23D
330
1F
100
AcDbEntity
  8
0
  6
HIDDEN
 62
     7
100
AcDbLine
 10
3.0365179931
 20
6.8944180838
 30
0.0
 11
2.98607759
 21
6.8944180838
 31
0.0
  0
LINE
  5
23E
330
1F
100
AcDbEntity
  8
0
  6
HIDDEN
 62
     7
100
AcDbLine
 10
2.8692430523
 20
6.420008635
 30
0.0
 11
2.9872575009
 21
6.420008635
 31
0.0
  0
LINE
  5
23F
330
1F
100
AcDbEntity
  8
0
  6
HIDDEN
 62
     7
100
AcDbLine
 10
2.8888801979
 20
6.4003235956
 30
0.0
 11
2.9116584231
 21
6.4003235956
 31
0.0
  0
LINE
  5
240
330
1F
100
AcDbEntity
  8
0
  6
HIDDEN
 62
     7
100
AcDbLine
 10
2.9449016563
 20
6.4003235956
 30
0.0
 11
2.9676203554
 21
6.4003235956
 31
0.0
  0
LINE
  5
241
330
1F
100
AcDbEntity
  8
0
  6
HIDDEN
 62
     7
100
AcDbLine
 10
2.9282502766
 20
6.8944180838
 30
0.0
 11
2.9282502766
 21
7.01252832
 31
0.0
  0
LINE
  5
242
330
1F
100
AcDbEntity
  8
0
  6
HIDDEN
 62
     7
100
AcDbLine
 10
2.8790376782
 20
6.8944180838
 30
0.0
 11
2.8790376782
 21
7.01252832
 31
0.0
  0
LINE
  5
243
330
1F
100
AcDbEntity
  8
0
  6
HIDDEN
 62
     7
100
AcDbLine
 10
2.977462875
 20
6.8944180838
 30
0.0
 11
2.977462875
 21
7.01252832
 31
0.0
  0
LINE
  5
244
330
1F
100
AcDbEntity
  8
0
  6
HIDDEN
 62
     7
100
AcDbLine
 10
2.8101400404
 20
6.6916621783
 30
0.0
 11
2.8101400404
 21
6.6522920995
 31
0.0
  0
LINE
  5
245
330
1F
100
AcDbEntity
  8
0
  6
HIDDEN
 62
     7
100
AcDbLine
 10
3.0365179931
 20
6.8944180838
 30
0.0
 11
2.9856958855
 21
6.8944180838
 31
0.0
  0
LINE
  5
246
330
1F
100
AcDbEntity
  8
0
  6
HIDDEN
 62
     7
100
AcDbLine
 10
3.3463211428
 20
7.2745629484
 30
0.0
 11
3.306951064
 21
7.2745629484
 31
0.0
  0
LINE
  5
247
330
1F
100
AcDbEntity
  8
0
  6
HIDDEN
 62
     7
100
AcDbLine
 10
3.3463211428
 20
6.0693913295
 30
0.0
 11
3.306951064
 21
6.0693913295
 31
0.0
  0
LINE
  5
248
330
1F
100
AcDbEntity
  8
0
  6
HIDDEN
 62
     7
100
AcDbLine
 10
3.3463211428
 20
6.5762810932
 30
0.0
 11
3.306951064
 21
6.5762810932
 31
0.0
  0
LINE
  5
249
330
1F
100
AcDbEntity
  8
0
  6
HIDDEN
 62
     7
100
AcDbLine
 10
3.3463211428
 20
6.7676731846
 30
0.0
 11
3.306951064
 21
6.7676731846
 31
0.0
  0
LINE
  5
24A
330
1F
100
AcDbEntity
  8
0
  6
HIDDEN
 62
     7
100
AcDbLine
 10
3.511767337
 20
6.7900873751
 30
0.0
 11
3.3856912215
 21
6.7900873751
 31
0.0
  0
LINE
  5
24B
330
1F
100
AcDbEntity
  8
0
  6
HIDDEN
 62
     7
100
AcDbLine
 10
3.3856912215
 20
6.5538669027
 30
0.0
 11
3.511767337
 21
6.5538669027
 31
0.0
  0
LINE
  5
24C
330
1F
100
AcDbEntity
  8
0
  6
HIDDEN
 62
     7
100
AcDbLine
 10
3.0365179931
 20
6.8944180838
 30
0.0
 11
3.0365179931
 21
6.9928432806
 31
0.0
  0
LINE
  5
24D
330
1F
100
AcDbEntity
  8
0
  6
HIDDEN
 62
     7
100
AcDbLine
 10
2.8199825601
 20
6.9928432806
 30
0.0
 11
2.8199825601
 21
6.8944180838
 31
0.0
  0
LINE
  5
24E
330
1F
100
AcDbEntity
  8
0
  6
HIDDEN
 62
     7
100
AcDbLine
 10
3.0365179931
 20
6.9928432806
 30
0.0
 11
3.0361981776
 21
6.9963772419
 31
0.0
  0
LINE
  5
24F
330
1F
100
AcDbEntity
  8
0
  6
HIDDEN
 62
     7
100
AcDbLine
 10
2.8691951585
 20
6.8944180838
 30
0.0
 11
2.8691951585
 21
6.6916621783
 31
0.0
  0
LINE
  5
250
330
1F
100
AcDbEntity
  8
0
  6
HIDDEN
 62
     7
100
AcDbLine
 10
2.8691951585
 20
6.6522920995
 30
0.0
 11
2.8691951585
 21
6.420008635
 31
0.0
  0
LINE
  5
251
330
1F
100
AcDbEntity
  8
0
  6
HIDDEN
 62
     7
100
AcDbLine
 10
2.9873053947
 20
6.420008635
 30
0.0
 11
2.9873053947
 21
6.6522920995
 31
0.0
  0
LINE
  5
252
330
1F
100
AcDbEntity
  8
0
  6
HIDDEN
 62
     7
100
AcDbLine
 10
2.9873053947
 20
6.6916621783
 30
0.0
 11
2.9873053947
 21
6.8944180838
 31
0.0
  0
ARC
  5
253
330
1F
100
AcDbEntity
  8
0
  6
HIDDEN
 62
     7
100
AcDbCircle
 10
2.9676203554
 20
6.420008635
 30
0.0
 40
0.0196850393700787
100
AcDbArc
 50
270.0
 51
0.0
  0
ARC
  5
254
330
1F
100
AcDbEntity
  8
0
  6
HIDDEN
 62
     7
100
AcDbCircle
 10
2.8888801979
 20
6.420008635
 30
0.0
 40
0.0196850393700787
100
AcDbArc
 50
180.0
 51
270.0
  0
LINE
  5
255
330
1F
100
AcDbEntity
  8
0
  6
HIDDEN
 62
     7
100
AcDbLine
 10
3.0365179931
 20
6.8944180838
 30
0.0
 11
3.0365179931
 21
6.9997004127
 31
0.0
  0
LINE
  5
256
330
1F
100
AcDbEntity
  8
0
  6
HIDDEN
 62
     7
100
AcDbLine
 10
2.8199825601
 20
6.9998012263
 30
0.0
 11
2.8199825601
 21
6.8944180838
 31
0.0
  0
LINE
  5
257
330
1F
100
AcDbEntity
  8
0
  6
HIDDEN
 62
     7
100
AcDbLine
 10
2.8691951585
 20
6.6522920995
 30
0.0
 11
2.8691951585
 21
6.344108098
 31
0.0
  0
LINE
  5
258
330
1F
100
AcDbEntity
  8
0
  6
HIDDEN
 62
     7
100
AcDbLine
 10
2.9873053947
 20
6.3440598065
 30
0.0
 11
2.9873053947
 21
6.6522920995
 31
0.0
  0
LINE
  5
259
330
1F
100
AcDbEntity
  8
0
  6
HIDDEN
 62
     7
100
AcDbLine
 10
2.8691951585
 20
6.8944180838
 30
0.0
 11
2.8691951585
 21
6.6916621783
 31
0.0
  0
LINE
  5
25A
330
1F
100
AcDbEntity
  8
0
  6
HIDDEN
 62
     7
100
AcDbLine
 10
2.9873053947
 20
6.6916621783
 30
0.0
 11
2.9873053947
 21
6.8944180838
 31
0.0
  0
LINE
  5
25B
330
1F
100
AcDbEntity
  8
0
  6
HIDDEN
 62
     7
100
AcDbLine
 10
3.3463211428
 20
6.8688275326
 30
0.0
 11
3.306951064
 21
6.8688275326
 31
0.0
  0
LINE
  5
25C
330
1F
100
AcDbEntity
  8
0
  6
HIDDEN
 62
     7
100
AcDbLine
 10
3.306951064
 20
6.4751267452
 30
0.0
 11
3.3463211428
 21
6.4751267452
 31
0.0
  0
LINE
  5
25D
330
1F
100
AcDbEntity
  8
0
  6
HIDDEN
 62
     7
100
AcDbLine
 10
2.8101400404
 20
6.7900873751
 30
0.0
 11
2.7951400404
 21
6.8050873751
 31
0.0
  0
LINE
  5
25E
330
1F
100
AcDbEntity
  8
0
  6
HIDDEN
 62
     7
100
AcDbLine
 10
2.7951400404
 20
6.5388669027
 30
0.0
 11
2.8101400404
 21
6.5538669027
 31
0.0
  0
LINE
  5
25F
330
1F
100
AcDbEntity
  8
0
  6
HIDDEN
 62
     7
100
AcDbLine
 10
3.1415048698
 20
6.5538669027
 30
0.0
 11
3.2675809853
 21
6.5538669027
 31
0.0
  0
LINE
  5
260
330
1F
100
AcDbEntity
  8
0
  6
HIDDEN
 62
     7
100
AcDbLine
 10
3.2675809853
 20
6.7900873751
 30
0.0
 11
3.1415048698
 21
6.7900873751
 31
0.0
  0
LINE
  5
261
330
1F
100
AcDbEntity
  8
0
  6
HIDDEN
 62
     7
100
AcDbLine
 10
3.0890114315
 20
6.7900873751
 30
0.0
 11
2.8101400404
 21
6.7900873751
 31
0.0
  0
LINE
  5
262
330
1F
100
AcDbEntity
  8
0
  6
HIDDEN
 62
     7
100
AcDbLine
 10
2.8101400404
 20
6.5538669027
 30
0.0
 11
3.0890114315
 21
6.5538669027
 31
0.0
  0
LINE
  5
263
330
1F
100
AcDbEntity
  8
0
  6
HIDDEN
 62
     7
100
AcDbLine
 10
3.0365179931
 20
6.9928432806
 30
0.0
 11
2.8199825601
 21
6.9928432806
 31
0.0
  0
LINE
  5
264
330
1F
100
AcDbEntity
  8
0
  6
CONTINUOUS
 62
     7
100
AcDbLine
 10
8.2534869668
 20
6.2598799244
 30
0.0
 11
8.2674041293
 21
6.2679167433
 31
0.0
  0
LINE
  5
265
330
1F
100
AcDbEntity
  8
0
  6
CONTINUOUS
 62
     7
100
AcDbLine
 10
8.7266704928
 20
7.0634756194
 30
0.0
 11
8.7266704928
 21
7.0795466452
 31
0.0
  0
LINE
  5
266
330
1F
100
AcDbEntity
  8
0
  6
CONTINUOUS
 62
     7
100
AcDbLine
 10
7.88068019
 20
6.2487014382
 30
0.0
 11
7.9187915751
 21
6.2267002039
 31
0.0
  0
LINE
  5
267
330
1F
100
AcDbEntity
  8
0
  6
CONTINUOUS
 62
     7
100
AcDbLine
 10
8.5880285222
 20
7.3859782086
 30
0.0
 11
8.549917137
 21
7.407979443
 31
0.0
  0
LINE
  5
268
330
1F
100
AcDbEntity
  8
0
  6
CONTINUOUS
 62
     7
100
AcDbLine
 10
8.5388071232
 20
6.2944488242
 30
0.0
 11
8.5494120011
 21
6.3005728803
 31
0.0
  0
LINE
  5
269
330
1F
100
AcDbEntity
  8
0
  6
CONTINUOUS
 62
     7
100
AcDbLine
 10
8.8394178339
 20
6.8045741149
 30
0.0
 11
8.8394178339
 21
6.8151782705
 31
0.0
  0
LINE
  5
26A
330
1F
100
AcDbEntity
  8
0
  6
CONTINUOUS
 62
     7
100
AcDbLine
 10
8.2785737705
 20
6.3008507658
 30
0.0
 11
8.3261771097
 21
6.273369943
 31
0.0
  0
LINE
  5
26B
330
1F
100
AcDbEntity
  8
0
  6
CONTINUOUS
 62
     7
100
AcDbLine
 10
8.128985258
 20
6.3872063759
 30
0.0
 11
8.2069620797
 21
6.3421913149
 31
0.0
  0
LINE
  5
26C
330
1F
100
AcDbEntity
  8
0
  6
CONTINUOUS
 62
     7
100
AcDbLine
 10
8.0547483256
 20
6.4300624448
 30
0.0
 11
8.0918667918
 21
6.4086344103
 31
0.0
  0
LINE
  5
26D
330
1F
100
AcDbEntity
  8
0
  6
CONTINUOUS
 62
     7
100
AcDbLine
 10
8.7513394055
 20
7.0098524401
 30
0.0
 11
8.4799106214
 21
7.1665449419
 31
0.0
  0
SPLINE
  5
26E
330
1F
100
AcDbEntity
  8
0
  6
CONTINUOUS
 62
     7
100
AcDbSpline
210
0.0
220
0.0
230
1.0
 70
     8
 71
     3
 72
    33
 73
    29
 74
     0
 42
0.00000001
 43
0.00000001
 40
0.0
 40
0.0
 40
0.0
 40
0.0
 40
0.0298316828114604
 40
0.0661756326785586
 40
0.1035994590077514
 40
0.1421502420199694
 40
0.181633869618988
 40
0.2217045511078298
 40
0.2620137844962487
 40
0.3022790212017233
 40
0.3424194630778674
 40
0.3824273906194025
 40
0.4223341226067266
 40
0.462189516100822
 40
0.5020518385317365
 40
0.5419698433558297
 40
0.5820003878414421
 40
0.6222071228404491
 40
0.662647682548434
 40
0.7033606079820715
 40
0.7443380447507991
 40
0.785454538589803
 40
0.8263542564887026
 40
0.8665725452773924
 40
0.9056549899988092
 40
0.9433846754454585
 40
0.9798746807211741
 40
1.0
 40
1.0
 40
1.0
 40
1.0
 10
8.368124008539137
 20
6.860850822153243
 30
0.0
 10
8.367188183863957
 20
6.862963750296822
 30
0.0
 10
8.365112243651415
 20
6.867650859555434
 30
0.0
 10
8.360477028130736
 20
6.874386920364384
 30
0.0
 10
8.354527318618228
 20
6.881138295764957
 30
0.0
 10
8.347377798943715
 20
6.887410435088904
 30
0.0
 10
8.33913303044464
 20
6.893134737363105
 30
0.0
 10
8.32988898189914
 20
6.898215737859585
 30
0.0
 10
8.319799624634399
 20
6.902575632151611
 30
0.0
 10
8.309027353324133
 20
6.906160595904853
 30
0.0
 10
8.297730033127019
 20
6.908939912617788
 30
0.0
 10
8.28604981109076
 20
6.910897719030841
 30
0.0
 10
8.274123477807896
 20
6.912025018985288
 30
0.0
 10
8.262084934314325
 20
6.912317259229904
 30
0.0
 10
8.250067760955096
 20
6.911773446461569
 30
0.0
 10
8.238204510939083
 20
6.910396029994492
 30
0.0
 10
8.226625193541107
 20
6.908190288794807
 30
0.0
 10
8.215455639366912
 20
6.905162727865947
 30
0.0
 10
8.204819163748452
 20
6.901319629985366
 30
0.0
 10
8.194840519783856
 20
6.896666785296848
 30
0.0
 10
8.185653535982572
 20
6.891213114460819
 30
0.0
 10
8.17741392108047
 20
6.884984208648586
 30
0.0
 10
8.170290912498222
 20
6.878039677145741
 30
0.0
 10
8.16445875747733
 20
6.870489778719581
 30
0.0
 10
8.16002017277134
 20
6.862493186899195
 30
0.0
 10
8.157127417557081
 20
6.854238145080806
 30
0.0
 10
8.155691412252656
 20
6.847082570812404
 30
0.0
 10
8.155770701551846
 20
6.842740089122906
 30
0.0
 10
8.155798886896964
 20
6.841196446458111
 30
0.0
  0
LINE
  5
26F
330
1F
100
AcDbEntity
  8
0
  6
CONTINUOUS
 62
     7
100
AcDbLine
 10
8.1556311809
 20
6.8413647152
 30
0.0
 11
8.1556311809
 21
6.7609965251
 31
0.0
  0
SPLINE
  5
270
330
1F
100
AcDbEntity
  8
0
  6
CONTINUOUS
 62
     7
100
AcDbSpline
210
0.0
220
0.0
230
1.0
 70
     8
 71
     3
 72
    21
 73
    17
 74
     0
 42
0.00000001
 43
0.00000001
 40
0.0
 40
0.0
 40
0.0
 40
0.0
 40
0.0534412698977639
 40
0.119804626700052
 40
0.1885820851984125
 40
0.2606712064559563
 40
0.3360586332237248
 40
0.4136488186779343
 40
0.4918091975713649
 40
0.5697230146786536
 40
0.6473996461732723
 40
0.7251650355608624
 40
0.8033918606205986
 40
0.8825103059048109
 40
0.962985553848016
 40
1.0
 40
1.0
 40
1.0
 40
1.0
 10
7.675023869563143
 20
7.176405547765945
 30
0.0
 10
7.673937600238493
 20
7.175002926556268
 30
0.0
 10
7.671502401913594
 20
7.171858530647481
 30
0.0
 10
7.668883486722168
 20
7.166130008401022
 30
0.0
 10
7.666953260731875
 20
7.159476980496349
 30
0.0
 10
7.666045931128475
 20
7.152177905777525
 30
0.0
 10
7.666175853395772
 20
7.144340318842641
 30
0.0
 10
7.667385337889487
 20
7.136130505765641
 30
0.0
 10
7.669641252842703
 20
7.12779276645914
 30
0.0
 10
7.672862291183651
 20
7.119564289080214
 30
0.0
 10
7.676954392003307
 20
7.111631144226693
 30
0.0
 10
7.681833107112061
 20
7.104146870544724
 30
0.0
 10
7.687422839775337
 20
7.097248138806515
 30
0.0
 10
7.693668110126542
 20
7.09109420972012
 30
0.0
 10
7.699229450379091
 20
7.086757677078736
 30
0.0
 10
7.702726870016812
 20
7.084641840375078
 30
0.0
 10
7.70382871177279
 20
7.083975258303034
 30
0.0
  0
LINE
  5
271
330
1F
100
AcDbEntity
  8
0
  6
CONTINUOUS
 62
     7
100
AcDbLine
 10
8.0645962351
 20
7.4607692988
 30
0.0
 11
8.0113046157
 21
7.4300047017
 31
0.0
  0
SPLINE
  5
272
330
1F
100
AcDbEntity
  8
0
  6
CONTINUOUS
 62
     7
100
AcDbSpline
210
0.0
220
0.0
230
1.0
 70
     8
 71
     3
 72
    14
 73
    10
 74
     0
 42
0.00000001
 43
0.00000001
 40
0.0
 40
0.0
 40
0.0
 40
0.0
 40
0.126296847932254
 40
0.2912057279984108
 40
0.4535440492954089
 40
0.6114368124774141
 40
0.7639042239364234
 40
0.9112954287626879
 40
1.0
 40
1.0
 40
1.0
 40
1.0
 10
8.121294788932886
 20
7.460071566594044
 30
0.0
 10
8.118882206280382
 20
7.461179431642391
 30
0.0
 10
8.113319455513588
 20
7.463733863152045
 30
0.0
 10
8.10449214046083
 20
7.466213342300008
 30
0.0
 10
8.095023760695222
 20
7.467641628048193
 30
0.0
 10
8.085843607810702
 20
7.467599630353277
 30
0.0
 10
8.077195195923563
 20
7.466098579822918
 30
0.0
 10
8.070097434845481
 20
7.463798671013831
 30
0.0
 10
8.066216216245591
 20
7.461528950821959
 30
0.0
 10
8.064757986718906
 20
7.460676184373506
 30
0.0
  0
LINE
  5
273
330
1F
100
AcDbEntity
  8
0
  6
CONTINUOUS
 62
     7
100
AcDbLine
 10
8.466400588
 20
7.4561925205
 30
0.0
 11
8.4282892029
 21
7.4781937548
 31
0.0
  0
LINE
  5
274
330
1F
100
AcDbEntity
  8
0
  6
CONTINUOUS
 62
     7
100
AcDbLine
 10
7.7590522558
 20
6.31891575
 30
0.0
 11
7.797163641
 21
6.2969145157
 31
0.0
  0
LINE
  5
275
330
1F
100
AcDbEntity
  8
0
  6
CONTINUOUS
 62
     7
100
AcDbLine
 10
8.0935938112
 20
7.4450140343
 30
0.0
 11
8.0796766487
 21
7.4369772154
 31
0.0
  0
LINE
  5
276
330
1F
100
AcDbEntity
  8
0
  6
CONTINUOUS
 62
     7
100
AcDbLine
 10
7.6204102852
 20
6.6414183393
 30
0.0
 11
7.6204102852
 21
6.6253473134
 31
0.0
  0
LINE
  5
277
330
1F
100
AcDbEntity
  8
0
  6
CONTINUOUS
 62
     7
100
AcDbLine
 10
7.5957413725
 20
6.6950415185
 30
0.0
 11
7.6215916643
 21
6.6801184627
 31
0.0
  0
LINE
  5
278
330
1F
100
AcDbEntity
  8
0
  6
CONTINUOUS
 62
     7
100
AcDbLine
 10
7.5076629441
 20
6.9019618099
 30
0.0
 11
7.5076629441
 21
6.8897156882
 31
0.0
  0
POLYLINE
  5
279
330
1F
100
AcDbEntity
  8
0
  6
CONTINUOUS
 62
     7
100
AcDb2dPolyline
 66
     1
 10
0.0
 20
0.0
 30
0.0
  0
VERTEX
  5
2ED
330
279
100
AcDbEntity
  8
0
  6
CONTINUOUS
 62
     7
100
AcDbVertex
100
AcDb2dVertex
 10
8.2534869668
 20
6.2598799244
 30
0.0
  0
VERTEX
  5
2EE
330
279
100
AcDbEntity
  8
0
  6
CONTINUOUS
 62
     7
100
AcDbVertex
100
AcDb2dVertex
 10
8.2366452313
 20
6.2505003922
 30
0.0
  0
VERTEX
  5
2EF
330
279
100
AcDbEntity
  8
0
  6
CONTINUOUS
 62
     7
100
AcDbVertex
100
AcDb2dVertex
 10
8.2143285109
 20
6.239140809
 30
0.0
  0
VERTEX
  5
2F0
330
279
100
AcDbEntity
  8
0
  6
CONTINUOUS
 62
     7
100
AcDbVertex
100
AcDb2dVertex
 10
8.1920989968
 20
6.2290468671
 30
0.0
  0
VERTEX
  5
2F1
330
279
100
AcDbEntity
  8
0
  6
CONTINUOUS
 62
     7
100
AcDbVertex
100
AcDb2dVertex
 10
8.1700062915
 20
6.2202410902
 30
0.0
  0
VERTEX
  5
2F2
330
279
100
AcDbEntity
  8
0
  6
CONTINUOUS
 62
     7
100
AcDbVertex
100
AcDb2dVertex
 10
8.1480996926
 20
6.2127431274
 30
0.0
  0
VERTEX
  5
2F3
330
279
100
AcDbEntity
  8
0
  6
CONTINUOUS
 62
     7
100
AcDbVertex
100
AcDb2dVertex
 10
8.1264280823
 20
6.2065697095
 30
0.0
  0
VERTEX
  5
2F4
330
279
100
AcDbEntity
  8
0
  6
CONTINUOUS
 62
     7
100
AcDbVertex
100
AcDb2dVertex
 10
8.1050398185
 20
6.2017346119
 30
0.0
  0
VERTEX
  5
2F5
330
279
100
AcDbEntity
  8
0
  6
CONTINUOUS
 62
     7
100
AcDbVertex
100
AcDb2dVertex
 10
8.0839826266
 20
6.1982486235
 30
0.0
  0
VERTEX
  5
2F6
330
279
100
AcDbEntity
  8
0
  6
CONTINUOUS
 62
     7
100
AcDbVertex
100
AcDb2dVertex
 10
8.0633034936
 20
6.1961195231
 30
0.0
  0
VERTEX
  5
2F7
330
279
100
AcDbEntity
  8
0
  6
CONTINUOUS
 62
     7
100
AcDbVertex
100
AcDb2dVertex
 10
8.0430485626
 20
6.1953520613
 30
0.0
  0
VERTEX
  5
2F8
330
279
100
AcDbEntity
  8
0
  6
CONTINUOUS
 62
     7
100
AcDbVertex
100
AcDb2dVertex
 10
8.0232630304
 20
6.1959479508
 30
0.0
  0
VERTEX
  5
2F9
330
279
100
AcDbEntity
  8
0
  6
CONTINUOUS
 62
     7
100
AcDbVertex
100
AcDb2dVertex
 10
8.0039910461
 20
6.1979058618
 30
0.0
  0
VERTEX
  5
2FA
330
279
100
AcDbEntity
  8
0
  6
CONTINUOUS
 62
     7
100
AcDbVertex
100
AcDb2dVertex
 10
7.9852756132
 20
6.2012214256
 30
0.0
  0
VERTEX
  5
2FB
330
279
100
AcDbEntity
  8
0
  6
CONTINUOUS
 62
     7
100
AcDbVertex
100
AcDb2dVertex
 10
7.967158493
 20
6.2058872437
 30
0.0
  0
VERTEX
  5
2FC
330
279
100
AcDbEntity
  8
0
  6
CONTINUOUS
 62
     7
100
AcDbVertex
100
AcDb2dVertex
 10
7.949680112
 20
6.211892905
 30
0.0
  0
VERTEX
  5
2FD
330
279
100
AcDbEntity
  8
0
  6
CONTINUOUS
 62
     7
100
AcDbVertex
100
AcDb2dVertex
 10
7.9328794713
 20
6.2192250084
 30
0.0
  0
VERTEX
  5
2FE
330
279
100
AcDbEntity
  8
0
  6
CONTINUOUS
 62
     7
100
AcDbVertex
100
AcDb2dVertex
 10
7.9167940596
 20
6.2278671931
 30
0.0
  0
VERTEX
  5
2FF
330
279
100
AcDbEntity
  8
0
  6
CONTINUOUS
 62
     7
100
AcDbVertex
100
AcDb2dVertex
 10
7.9014597698
 20
6.2378001751
 30
0.0
  0
VERTEX
  5
300
330
279
100
AcDbEntity
  8
0
  6
CONTINUOUS
 62
     7
100
AcDbVertex
100
AcDb2dVertex
 10
7.8869108187
 20
6.24900179
 30
0.0
  0
VERTEX
  5
301
330
279
100
AcDbEntity
  8
0
  6
CONTINUOUS
 62
     7
100
AcDbVertex
100
AcDb2dVertex
 10
7.8731796707
 20
6.2614470426
 30
0.0
  0
VERTEX
  5
302
330
279
100
AcDbEntity
  8
0
  6
CONTINUOUS
 62
     7
100
AcDbVertex
100
AcDb2dVertex
 10
7.8602969653
 20
6.2751081627
 30
0.0
  0
VERTEX
  5
303
330
279
100
AcDbEntity
  8
0
  6
CONTINUOUS
 62
     7
100
AcDbVertex
100
AcDb2dVertex
 10
7.8482914489
 20
6.289954667
 30
0.0
  0
VERTEX
  5
304
330
279
100
AcDbEntity
  8
0
  6
CONTINUOUS
 62
     7
100
AcDbVertex
100
AcDb2dVertex
 10
7.8371899106
 20
6.3059534271
 30
0.0
  0
VERTEX
  5
305
330
279
100
AcDbEntity
  8
0
  6
CONTINUOUS
 62
     7
100
AcDbVertex
100
AcDb2dVertex
 10
7.8270171221
 20
6.3230687435
 30
0.0
  0
VERTEX
  5
306
330
279
100
AcDbEntity
  8
0
  6
CONTINUOUS
 62
     7
100
AcDbVertex
100
AcDb2dVertex
 10
7.817795783
 20
6.3412624253
 30
0.0
  0
VERTEX
  5
307
330
279
100
AcDbEntity
  8
0
  6
CONTINUOUS
 62
     7
100
AcDbVertex
100
AcDb2dVertex
 10
7.8095464696
 20
6.3604938752
 30
0.0
  0
VERTEX
  5
308
330
279
100
AcDbEntity
  8
0
  6
CONTINUOUS
 62
     7
100
AcDbVertex
100
AcDb2dVertex
 10
7.8022875895
 20
6.3807201804
 30
0.0
  0
VERTEX
  5
309
330
279
100
AcDbEntity
  8
0
  6
CONTINUOUS
 62
     7
100
AcDbVertex
100
AcDb2dVertex
 10
7.7960353399
 20
6.4018962081
 30
0.0
  0
VERTEX
  5
30A
330
279
100
AcDbEntity
  8
0
  6
CONTINUOUS
 62
     7
100
AcDbVertex
100
AcDb2dVertex
 10
7.7908036722
 20
6.4239747063
 30
0.0
  0
VERTEX
  5
30B
330
279
100
AcDbEntity
  8
0
  6
CONTINUOUS
 62
     7
100
AcDbVertex
100
AcDb2dVertex
 10
7.7866042602
 20
6.4469064092
 30
0.0
  0
VERTEX
  5
30C
330
279
100
AcDbEntity
  8
0
  6
CONTINUOUS
 62
     7
100
AcDbVertex
100
AcDb2dVertex
 10
7.7834464744
 20
6.4706401472
 30
0.0
  0
VERTEX
  5
30D
330
279
100
AcDbEntity
  8
0
  6
CONTINUOUS
 62
     7
100
AcDbVertex
100
AcDb2dVertex
 10
7.7813373611
 20
6.4951229611
 30
0.0
  0
VERTEX
  5
30E
330
279
100
AcDbEntity
  8
0
  6
CONTINUOUS
 62
     7
100
AcDbVertex
100
AcDb2dVertex
 10
7.7802816266
 20
6.5203002201
 30
0.0
  0
VERTEX
  5
30F
330
279
100
AcDbEntity
  8
0
  6
CONTINUOUS
 62
     7
100
AcDbVertex
100
AcDb2dVertex
 10
7.7802816266
 20
6.5461157439
 30
0.0
  0
VERTEX
  5
310
330
279
100
AcDbEntity
  8
0
  6
CONTINUOUS
 62
     7
100
AcDbVertex
100
AcDb2dVertex
 10
7.7813373611
 20
6.572511928
 30
0.0
  0
VERTEX
  5
311
330
279
100
AcDbEntity
  8
0
  6
CONTINUOUS
 62
     7
100
AcDbVertex
100
AcDb2dVertex
 10
7.7834464744
 20
6.5994298722
 30
0.0
  0
VERTEX
  5
312
330
279
100
AcDbEntity
  8
0
  6
CONTINUOUS
 62
     7
100
AcDbVertex
100
AcDb2dVertex
 10
7.7866042602
 20
6.6268095121
 30
0.0
  0
VERTEX
  5
313
330
279
100
AcDbEntity
  8
0
  6
CONTINUOUS
 62
     7
100
AcDbVertex
100
AcDb2dVertex
 10
7.7908036722
 20
6.6545897529
 30
0.0
  0
VERTEX
  5
314
330
279
100
AcDbEntity
  8
0
  6
CONTINUOUS
 62
     7
100
AcDbVertex
100
AcDb2dVertex
 10
7.7960353399
 20
6.682708606
 30
0.0
  0
VERTEX
  5
315
330
279
100
AcDbEntity
  8
0
  6
CONTINUOUS
 62
     7
100
AcDbVertex
100
AcDb2dVertex
 10
7.8022875895
 20
6.7111033274
 30
0.0
  0
VERTEX
  5
316
330
279
100
AcDbEntity
  8
0
  6
CONTINUOUS
 62
     7
100
AcDbVertex
100
AcDb2dVertex
 10
7.8095464696
 20
6.7397105572
 30
0.0
  0
VERTEX
  5
317
330
279
100
AcDbEntity
  8
0
  6
CONTINUOUS
 62
     7
100
AcDbVertex
100
AcDb2dVertex
 10
7.817795783
 20
6.7684664617
 30
0.0
  0
VERTEX
  5
318
330
279
100
AcDbEntity
  8
0
  6
CONTINUOUS
 62
     7
100
AcDbVertex
100
AcDb2dVertex
 10
7.8270171221
 20
6.797306875
 30
0.0
  0
VERTEX
  5
319
330
279
100
AcDbEntity
  8
0
  6
CONTINUOUS
 62
     7
100
AcDbVertex
100
AcDb2dVertex
 10
7.8371899106
 20
6.826167443
 30
0.0
  0
VERTEX
  5
31A
330
279
100
AcDbEntity
  8
0
  6
CONTINUOUS
 62
     7
100
AcDbVertex
100
AcDb2dVertex
 10
7.8482914489
 20
6.8549837664
 30
0.0
  0
VERTEX
  5
31B
330
279
100
AcDbEntity
  8
0
  6
CONTINUOUS
 62
     7
100
AcDbVertex
100
AcDb2dVertex
 10
7.8602969653
 20
6.8836915448
 30
0.0
  0
VERTEX
  5
31C
330
279
100
AcDbEntity
  8
0
  6
CONTINUOUS
 62
     7
100
AcDbVertex
100
AcDb2dVertex
 10
7.8731796707
 20
6.9122267199
 30
0.0
  0
VERTEX
  5
31D
330
279
100
AcDbEntity
  8
0
  6
CONTINUOUS
 62
     7
100
AcDbVertex
100
AcDb2dVertex
 10
7.8869108187
 20
6.9405256186
 30
0.0
  0
VERTEX
  5
31E
330
279
100
AcDbEntity
  8
0
  6
CONTINUOUS
 62
     7
100
AcDbVertex
100
AcDb2dVertex
 10
7.9014597698
 20
6.9685250949
 30
0.0
  0
VERTEX
  5
31F
330
279
100
AcDbEntity
  8
0
  6
CONTINUOUS
 62
     7
100
AcDbVertex
100
AcDb2dVertex
 10
7.9167940596
 20
6.996162671
 30
0.0
  0
VERTEX
  5
320
330
279
100
AcDbEntity
  8
0
  6
CONTINUOUS
 62
     7
100
AcDbVertex
100
AcDb2dVertex
 10
7.9328794713
 20
7.0233766768
 30
0.0
  0
VERTEX
  5
321
330
279
100
AcDbEntity
  8
0
  6
CONTINUOUS
 62
     7
100
AcDbVertex
100
AcDb2dVertex
 10
7.949680112
 20
7.0501063871
 30
0.0
  0
VERTEX
  5
322
330
279
100
AcDbEntity
  8
0
  6
CONTINUOUS
 62
     7
100
AcDbVertex
100
AcDb2dVertex
 10
7.967158493
 20
7.0762921575
 30
0.0
  0
VERTEX
  5
323
330
279
100
AcDbEntity
  8
0
  6
CONTINUOUS
 62
     7
100
AcDbVertex
100
AcDb2dVertex
 10
7.9852756132
 20
7.1018755574
 30
0.0
  0
VERTEX
  5
324
330
279
100
AcDbEntity
  8
0
  6
CONTINUOUS
 62
     7
100
AcDbVertex
100
AcDb2dVertex
 10
8.0039910461
 20
7.1267995
 30
0.0
  0
VERTEX
  5
325
330
279
100
AcDbEntity
  8
0
  6
CONTINUOUS
 62
     7
100
AcDbVertex
100
AcDb2dVertex
 10
8.0232630304
 20
7.1510083705
 30
0.0
  0
VERTEX
  5
326
330
279
100
AcDbEntity
  8
0
  6
CONTINUOUS
 62
     7
100
AcDbVertex
100
AcDb2dVertex
 10
8.0430485626
 20
7.1744481492
 30
0.0
  0
VERTEX
  5
327
330
279
100
AcDbEntity
  8
0
  6
CONTINUOUS
 62
     7
100
AcDbVertex
100
AcDb2dVertex
 10
8.0633034936
 20
7.197066533
 30
0.0
  0
VERTEX
  5
328
330
279
100
AcDbEntity
  8
0
  6
CONTINUOUS
 62
     7
100
AcDbVertex
100
AcDb2dVertex
 10
8.0839826266
 20
7.2188130513
 30
0.0
  0
VERTEX
  5
329
330
279
100
AcDbEntity
  8
0
  6
CONTINUOUS
 62
     7
100
AcDbVertex
100
AcDb2dVertex
 10
8.1050398185
 20
7.2396391792
 30
0.0
  0
VERTEX
  5
32A
330
279
100
AcDbEntity
  8
0
  6
CONTINUOUS
 62
     7
100
AcDbVertex
100
AcDb2dVertex
 10
8.1264280823
 20
7.2594984454
 30
0.0
  0
VERTEX
  5
32B
330
279
100
AcDbEntity
  8
0
  6
CONTINUOUS
 62
     7
100
AcDbVertex
100
AcDb2dVertex
 10
8.1480996926
 20
7.2783465362
 30
0.0
  0
VERTEX
  5
32C
330
279
100
AcDbEntity
  8
0
  6
CONTINUOUS
 62
     7
100
AcDbVertex
100
AcDb2dVertex
 10
8.1700062915
 20
7.296141394
 30
0.0
  0
VERTEX
  5
32D
330
279
100
AcDbEntity
  8
0
  6
CONTINUOUS
 62
     7
100
AcDbVertex
100
AcDb2dVertex
 10
8.1920989968
 20
7.3128433116
 30
0.0
  0
VERTEX
  5
32E
330
279
100
AcDbEntity
  8
0
  6
CONTINUOUS
 62
     7
100
AcDbVertex
100
AcDb2dVertex
 10
8.2143285109
 20
7.3284150206
 30
0.0
  0
VERTEX
  5
32F
330
279
100
AcDbEntity
  8
0
  6
CONTINUOUS
 62
     7
100
AcDbVertex
100
AcDb2dVertex
 10
8.2366452313
 20
7.3428217742
 30
0.0
  0
VERTEX
  5
330
330
279
100
AcDbEntity
  8
0
  6
CONTINUOUS
 62
     7
100
AcDbVertex
100
AcDb2dVertex
 10
8.2589993606
 20
7.3560314255
 30
0.0
  0
VERTEX
  5
331
330
279
100
AcDbEntity
  8
0
  6
CONTINUOUS
 62
     7
100
AcDbVertex
100
AcDb2dVertex
 10
8.2813410179
 20
7.3680144984
 30
0.0
  0
VERTEX
  5
332
330
279
100
AcDbEntity
  8
0
  6
CONTINUOUS
 62
     7
100
AcDbVertex
100
AcDb2dVertex
 10
8.3036203503
 20
7.3787442542
 30
0.0
  0
VERTEX
  5
333
330
279
100
AcDbEntity
  8
0
  6
CONTINUOUS
 62
     7
100
AcDbVertex
100
AcDb2dVertex
 10
8.3257876438
 20
7.3881967505
 30
0.0
  0
VERTEX
  5
334
330
279
100
AcDbEntity
  8
0
  6
CONTINUOUS
 62
     7
100
AcDbVertex
100
AcDb2dVertex
 10
8.3477934347
 20
7.396350895
 30
0.0
  0
VERTEX
  5
335
330
279
100
AcDbEntity
  8
0
  6
CONTINUOUS
 62
     7
100
AcDbVertex
100
AcDb2dVertex
 10
8.3695886193
 20
7.4031884928
 30
0.0
  0
VERTEX
  5
336
330
279
100
AcDbEntity
  8
0
  6
CONTINUOUS
 62
     7
100
AcDbVertex
100
AcDb2dVertex
 10
8.3911245641
 20
7.4086942865
 30
0.0
  0
VERTEX
  5
337
330
279
100
AcDbEntity
  8
0
  6
CONTINUOUS
 62
     7
100
AcDbVertex
100
AcDb2dVertex
 10
8.412353214
 20
7.4128559904
 30
0.0
  0
VERTEX
  5
338
330
279
100
AcDbEntity
  8
0
  6
CONTINUOUS
 62
     7
100
AcDbVertex
100
AcDb2dVertex
 10
8.4332271995
 20
7.4156643182
 30
0.0
  0
VERTEX
  5
339
330
279
100
AcDbEntity
  8
0
  6
CONTINUOUS
 62
     7
100
AcDbVertex
100
AcDb2dVertex
 10
8.4536999426
 20
7.4171130035
 30
0.0
  0
VERTEX
  5
33A
330
279
100
AcDbEntity
  8
0
  6
CONTINUOUS
 62
     7
100
AcDbVertex
100
AcDb2dVertex
 10
8.4737257607
 20
7.4171988135
 30
0.0
  0
VERTEX
  5
33B
330
279
100
AcDbEntity
  8
0
  6
CONTINUOUS
 62
     7
100
AcDbVertex
100
AcDb2dVertex
 10
8.4932599683
 20
7.415921557
 30
0.0
  0
VERTEX
  5
33C
330
279
100
AcDbEntity
  8
0
  6
CONTINUOUS
 62
     7
100
AcDbVertex
100
AcDb2dVertex
 10
8.5122589769
 20
7.4132840838
 30
0.0
  0
VERTEX
  5
33D
330
279
100
AcDbEntity
  8
0
  6
CONTINUOUS
 62
     7
100
AcDbVertex
100
AcDb2dVertex
 10
8.5306803923
 20
7.4092922793
 30
0.0
  0
VERTEX
  5
33E
330
279
100
AcDbEntity
  8
0
  6
CONTINUOUS
 62
     7
100
AcDbVertex
100
AcDb2dVertex
 10
8.5484831092
 20
7.4039550507
 30
0.0
  0
VERTEX
  5
33F
330
279
100
AcDbEntity
  8
0
  6
CONTINUOUS
 62
     7
100
AcDbVertex
100
AcDb2dVertex
 10
8.5656274027
 20
7.3972843075
 30
0.0
  0
VERTEX
  5
340
330
279
100
AcDbEntity
  8
0
  6
CONTINUOUS
 62
     7
100
AcDbVertex
100
AcDb2dVertex
 10
8.5820750172
 20
7.3892949347
 30
0.0
  0
VERTEX
  5
341
330
279
100
AcDbEntity
  8
0
  6
CONTINUOUS
 62
     7
100
AcDbVertex
100
AcDb2dVertex
 10
8.5977892516
 20
7.3800047597
 30
0.0
  0
VERTEX
  5
342
330
279
100
AcDbEntity
  8
0
  6
CONTINUOUS
 62
     7
100
AcDbVertex
100
AcDb2dVertex
 10
8.6127350414
 20
7.3694345126
 30
0.0
  0
VERTEX
  5
343
330
279
100
AcDbEntity
  8
0
  6
CONTINUOUS
 62
     7
100
AcDbVertex
100
AcDb2dVertex
 10
8.6268790366
 20
7.3576077796
 30
0.0
  0
VERTEX
  5
344
330
279
100
AcDbEntity
  8
0
  6
CONTINUOUS
 62
     7
100
AcDbVertex
100
AcDb2dVertex
 10
8.6401896765
 20
7.3445509509
 30
0.0
  0
VERTEX
  5
345
330
279
100
AcDbEntity
  8
0
  6
CONTINUOUS
 62
     7
100
AcDbVertex
100
AcDb2dVertex
 10
8.6526372597
 20
7.3302931613
 30
0.0
  0
VERTEX
  5
346
330
279
100
AcDbEntity
  8
0
  6
CONTINUOUS
 62
     7
100
AcDbVertex
100
AcDb2dVertex
 10
8.664194011
 20
7.3148662256
 30
0.0
  0
VERTEX
  5
347
330
279
100
AcDbEntity
  8
0
  6
CONTINUOUS
 62
     7
100
AcDbVertex
100
AcDb2dVertex
 10
8.6748341426
 20
7.2983045673
 30
0.0
  0
VERTEX
  5
348
330
279
100
AcDbEntity
  8
0
  6
CONTINUOUS
 62
     7
100
AcDbVertex
100
AcDb2dVertex
 10
8.6845339123
 20
7.2806451418
 30
0.0
  0
VERTEX
  5
349
330
279
100
AcDbEntity
  8
0
  6
CONTINUOUS
 62
     7
100
AcDbVertex
100
AcDb2dVertex
 10
8.693271676
 20
7.2619273544
 30
0.0
  0
VERTEX
  5
34A
330
279
100
AcDbEntity
  8
0
  6
CONTINUOUS
 62
     7
100
AcDbVertex
100
AcDb2dVertex
 10
8.7010279365
 20
7.2421929716
 30
0.0
  0
VERTEX
  5
34B
330
279
100
AcDbEntity
  8
0
  6
CONTINUOUS
 62
     7
100
AcDbVertex
100
AcDb2dVertex
 10
8.7077853864
 20
7.2214860287
 30
0.0
  0
VERTEX
  5
34C
330
279
100
AcDbEntity
  8
0
  6
CONTINUOUS
 62
     7
100
AcDbVertex
100
AcDb2dVertex
 10
8.7135289473
 20
7.1998527309
 30
0.0
  0
VERTEX
  5
34D
330
279
100
AcDbEntity
  8
0
  6
CONTINUOUS
 62
     7
100
AcDbVertex
100
AcDb2dVertex
 10
8.718245803
 20
7.1773413505
 30
0.0
  0
VERTEX
  5
34E
330
279
100
AcDbEntity
  8
0
  6
CONTINUOUS
 62
     7
100
AcDbVertex
100
AcDb2dVertex
 10
8.7219254284
 20
7.1540021193
 30
0.0
  0
VERTEX
  5
34F
330
279
100
AcDbEntity
  8
0
  6
CONTINUOUS
 62
     7
100
AcDbVertex
100
AcDb2dVertex
 10
8.7245596128
 20
7.1298871162
 30
0.0
  0
VERTEX
  5
350
330
279
100
AcDbEntity
  8
0
  6
CONTINUOUS
 62
     7
100
AcDbVertex
100
AcDb2dVertex
 10
8.7261424782
 20
7.1050501512
 30
0.0
  0
VERTEX
  5
351
330
279
100
AcDbEntity
  8
0
  6
CONTINUOUS
 62
     7
100
AcDbVertex
100
AcDb2dVertex
 10
8.7266704928
 20
7.0795466452
 30
0.0
  0
VERTEX
  5
352
330
279
100
AcDbEntity
  8
0
  6
CONTINUOUS
 62
     7
100
AcDbVertex
100
AcDb2dVertex
 10
8.7266704928
 20
7.0795466452
 30
0.0
  0
SEQEND
  5
353
330
279
100
AcDbEntity
  8
0
  6
CONTINUOUS
 62
     7
  0
POLYLINE
  5
27A
330
1F
100
AcDbEntity
  8
0
  6
CONTINUOUS
 62
     7
100
AcDb2dPolyline
 66
     1
 10
0.0
 20
0.0
 30
0.0
  0
VERTEX
  5
354
330
27A
100
AcDbEntity
  8
0
  6
CONTINUOUS
 62
     7
100
AcDbVertex
100
AcDb2dVertex
 10
8.7266704928
 20
7.0634756194
 30
0.0
  0
VERTEX
  5
355
330
27A
100
AcDbEntity
  8
0
  6
CONTINUOUS
 62
     7
100
AcDbVertex
100
AcDb2dVertex
 10
8.7261422432
 20
7.0886020617
 30
0.0
  0
VERTEX
  5
356
330
27A
100
AcDbEntity
  8
0
  6
CONTINUOUS
 62
     7
100
AcDbVertex
100
AcDb2dVertex
 10
8.7245587096
 20
7.1130608084
 30
0.0
  0
VERTEX
  5
357
330
27A
100
AcDbEntity
  8
0
  6
CONTINUOUS
 62
     7
100
AcDbVertex
100
AcDb2dVertex
 10
8.7219235341
 20
7.1367956036
 30
0.0
  0
VERTEX
  5
358
330
27A
100
AcDbEntity
  8
0
  6
CONTINUOUS
 62
     7
100
AcDbVertex
100
AcDb2dVertex
 10
8.7182427777
 20
7.1597518566
 30
0.0
  0
VERTEX
  5
359
330
27A
100
AcDbEntity
  8
0
  6
CONTINUOUS
 62
     7
100
AcDbVertex
100
AcDb2dVertex
 10
8.7135249063
 20
7.1818767673
 30
0.0
  0
VERTEX
  5
35A
330
27A
100
AcDbEntity
  8
0
  6
CONTINUOUS
 62
     7
100
AcDbVertex
100
AcDb2dVertex
 10
8.707780771
 20
7.2031194476
 30
0.0
  0
VERTEX
  5
35B
330
27A
100
AcDbEntity
  8
0
  6
CONTINUOUS
 62
     7
100
AcDbVertex
100
AcDb2dVertex
 10
8.7010235837
 20
7.2234310387
 30
0.0
  0
VERTEX
  5
35C
330
27A
100
AcDbEntity
  8
0
  6
CONTINUOUS
 62
     7
100
AcDbVertex
100
AcDb2dVertex
 10
8.693268886
 20
7.2427648232
 30
0.0
  0
VERTEX
  5
35D
330
27A
100
AcDbEntity
  8
0
  6
CONTINUOUS
 62
     7
100
AcDbVertex
100
AcDb2dVertex
 10
8.684534514
 20
7.261076333
 30
0.0
  0
VERTEX
  5
35E
330
27A
100
AcDbEntity
  8
0
  6
CONTINUOUS
 62
     7
100
AcDbVertex
100
AcDb2dVertex
 10
8.674840557
 20
7.2783234508
 30
0.0
  0
VERTEX
  5
35F
330
27A
100
AcDbEntity
  8
0
  6
CONTINUOUS
 62
     7
100
AcDbVertex
100
AcDb2dVertex
 10
8.6642093115
 20
7.2944665078
 30
0.0
  0
VERTEX
  5
360
330
27A
100
AcDbEntity
  8
0
  6
CONTINUOUS
 62
     7
100
AcDbVertex
100
AcDb2dVertex
 10
8.6526652296
 20
7.3094683744
 30
0.0
  0
VERTEX
  5
361
330
27A
100
AcDbEntity
  8
0
  6
CONTINUOUS
 62
     7
100
AcDbVertex
100
AcDb2dVertex
 10
8.6402348632
 20
7.3232945459
 30
0.0
  0
VERTEX
  5
362
330
27A
100
AcDbEntity
  8
0
  6
CONTINUOUS
 62
     7
100
AcDbVertex
100
AcDb2dVertex
 10
8.6269468024
 20
7.3359132216
 30
0.0
  0
VERTEX
  5
363
330
27A
100
AcDbEntity
  8
0
  6
CONTINUOUS
 62
     7
100
AcDbVertex
100
AcDb2dVertex
 10
8.6128316102
 20
7.3472953781
 30
0.0
  0
VERTEX
  5
364
330
27A
100
AcDbEntity
  8
0
  6
CONTINUOUS
 62
     7
100
AcDbVertex
100
AcDb2dVertex
 10
8.5979217521
 20
7.3574148362
 30
0.0
  0
VERTEX
  5
365
330
27A
100
AcDbEntity
  8
0
  6
CONTINUOUS
 62
     7
100
AcDbVertex
100
AcDb2dVertex
 10
8.5822515211
 20
7.3662483208
 30
0.0
  0
VERTEX
  5
366
330
27A
100
AcDbEntity
  8
0
  6
CONTINUOUS
 62
     7
100
AcDbVertex
100
AcDb2dVertex
 10
8.5658569593
 20
7.3737755145
 30
0.0
  0
VERTEX
  5
367
330
27A
100
AcDbEntity
  8
0
  6
CONTINUOUS
 62
     7
100
AcDbVertex
100
AcDb2dVertex
 10
8.5487757747
 20
7.3799791045
 30
0.0
  0
VERTEX
  5
368
330
27A
100
AcDbEntity
  8
0
  6
CONTINUOUS
 62
     7
100
AcDbVertex
100
AcDb2dVertex
 10
8.5310472546
 20
7.3848448225
 30
0.0
  0
VERTEX
  5
369
330
27A
100
AcDbEntity
  8
0
  6
CONTINUOUS
 62
     7
100
AcDbVertex
100
AcDb2dVertex
 10
8.5127121752
 20
7.3883614771
 30
0.0
  0
VERTEX
  5
36A
330
27A
100
AcDbEntity
  8
0
  6
CONTINUOUS
 62
     7
100
AcDbVertex
100
AcDb2dVertex
 10
8.4938127076
 20
7.3905209799
 30
0.0
  0
VERTEX
  5
36B
330
27A
100
AcDbEntity
  8
0
  6
CONTINUOUS
 62
     7
100
AcDbVertex
100
AcDb2dVertex
 10
8.4743923214
 20
7.3913183639
 30
0.0
  0
VERTEX
  5
36C
330
27A
100
AcDbEntity
  8
0
  6
CONTINUOUS
 62
     7
100
AcDbVertex
100
AcDb2dVertex
 10
8.454495684
 20
7.3907517952
 30
0.0
  0
VERTEX
  5
36D
330
27A
100
AcDbEntity
  8
0
  6
CONTINUOUS
 62
     7
100
AcDbVertex
100
AcDb2dVertex
 10
8.4341685584
 20
7.3888225769
 30
0.0
  0
VERTEX
  5
36E
330
27A
100
AcDbEntity
  8
0
  6
CONTINUOUS
 62
     7
100
AcDbVertex
100
AcDb2dVertex
 10
8.4134576974
 20
7.3855351462
 30
0.0
  0
VERTEX
  5
36F
330
27A
100
AcDbEntity
  8
0
  6
CONTINUOUS
 62
     7
100
AcDbVertex
100
AcDb2dVertex
 10
8.3924107369
 20
7.3808970643
 30
0.0
  0
VERTEX
  5
370
330
27A
100
AcDbEntity
  8
0
  6
CONTINUOUS
 62
     7
100
AcDbVertex
100
AcDb2dVertex
 10
8.3710760855
 20
7.3749189991
 30
0.0
  0
VERTEX
  5
371
330
27A
100
AcDbEntity
  8
0
  6
CONTINUOUS
 62
     7
100
AcDbVertex
100
AcDb2dVertex
 10
8.3495028135
 20
7.3676147001
 30
0.0
  0
VERTEX
  5
372
330
27A
100
AcDbEntity
  8
0
  6
CONTINUOUS
 62
     7
100
AcDbVertex
100
AcDb2dVertex
 10
8.3277405402
 20
7.3590009676
 30
0.0
  0
VERTEX
  5
373
330
27A
100
AcDbEntity
  8
0
  6
CONTINUOUS
 62
     7
100
AcDbVertex
100
AcDb2dVertex
 10
8.3058393196
 20
7.3490976134
 30
0.0
  0
VERTEX
  5
374
330
27A
100
AcDbEntity
  8
0
  6
CONTINUOUS
 62
     7
100
AcDbVertex
100
AcDb2dVertex
 10
8.283849525
 20
7.3379274156
 30
0.0
  0
VERTEX
  5
375
330
27A
100
AcDbEntity
  8
0
  6
CONTINUOUS
 62
     7
100
AcDbVertex
100
AcDb2dVertex
 10
8.2618217338
 20
7.3255160658
 30
0.0
  0
VERTEX
  5
376
330
27A
100
AcDbEntity
  8
0
  6
CONTINUOUS
 62
     7
100
AcDbVertex
100
AcDb2dVertex
 10
8.2398066106
 20
7.3118921108
 30
0.0
  0
VERTEX
  5
377
330
27A
100
AcDbEntity
  8
0
  6
CONTINUOUS
 62
     7
100
AcDbVertex
100
AcDb2dVertex
 10
8.2178547908
 20
7.2970868859
 30
0.0
  0
VERTEX
  5
378
330
27A
100
AcDbEntity
  8
0
  6
CONTINUOUS
 62
     7
100
AcDbVertex
100
AcDb2dVertex
 10
8.1960167644
 20
7.2811344436
 30
0.0
  0
VERTEX
  5
379
330
27A
100
AcDbEntity
  8
0
  6
CONTINUOUS
 62
     7
100
AcDbVertex
100
AcDb2dVertex
 10
8.1743427596
 20
7.2640714752
 30
0.0
  0
VERTEX
  5
37A
330
27A
100
AcDbEntity
  8
0
  6
CONTINUOUS
 62
     7
100
AcDbVertex
100
AcDb2dVertex
 10
8.1528826271
 20
7.245937226
 30
0.0
  0
VERTEX
  5
37B
330
27A
100
AcDbEntity
  8
0
  6
CONTINUOUS
 62
     7
100
AcDbVertex
100
AcDb2dVertex
 10
8.1316857261
 20
7.2267734053
 30
0.0
  0
VERTEX
  5
37C
330
27A
100
AcDbEntity
  8
0
  6
CONTINUOUS
 62
     7
100
AcDbVertex
100
AcDb2dVertex
 10
8.11080081
 20
7.2066240905
 30
0.0
  0
VERTEX
  5
37D
330
27A
100
AcDbEntity
  8
0
  6
CONTINUOUS
 62
     7
100
AcDbVertex
100
AcDb2dVertex
 10
8.0902759148
 20
7.1855356257
 30
0.0
  0
VERTEX
  5
37E
330
27A
100
AcDbEntity
  8
0
  6
CONTINUOUS
 62
     7
100
AcDbVertex
100
AcDb2dVertex
 10
8.0701582486
 20
7.1635565151
 30
0.0
  0
VERTEX
  5
37F
330
27A
100
AcDbEntity
  8
0
  6
CONTINUOUS
 62
     7
100
AcDbVertex
100
AcDb2dVertex
 10
8.0504940824
 20
7.1407373113
 30
0.0
  0
VERTEX
  5
380
330
27A
100
AcDbEntity
  8
0
  6
CONTINUOUS
 62
     7
100
AcDbVertex
100
AcDb2dVertex
 10
8.0313286446
 20
7.1171304991
 30
0.0
  0
VERTEX
  5
381
330
27A
100
AcDbEntity
  8
0
  6
CONTINUOUS
 62
     7
100
AcDbVertex
100
AcDb2dVertex
 10
8.0127060163
 20
7.0927903751
 30
0.0
  0
VERTEX
  5
382
330
27A
100
AcDbEntity
  8
0
  6
CONTINUOUS
 62
     7
100
AcDbVertex
100
AcDb2dVertex
 10
7.9946690301
 20
7.0677729223
 30
0.0
  0
VERTEX
  5
383
330
27A
100
AcDbEntity
  8
0
  6
CONTINUOUS
 62
     7
100
AcDbVertex
100
AcDb2dVertex
 10
7.9772591716
 20
7.0421356817
 30
0.0
  0
VERTEX
  5
384
330
27A
100
AcDbEntity
  8
0
  6
CONTINUOUS
 62
     7
100
AcDbVertex
100
AcDb2dVertex
 10
7.9605164842
 20
7.0159376196
 30
0.0
  0
VERTEX
  5
385
330
27A
100
AcDbEntity
  8
0
  6
CONTINUOUS
 62
     7
100
AcDbVertex
100
AcDb2dVertex
 10
7.9444794764
 20
6.9892389926
 30
0.0
  0
VERTEX
  5
386
330
27A
100
AcDbEntity
  8
0
  6
CONTINUOUS
 62
     7
100
AcDbVertex
100
AcDb2dVertex
 10
7.929185034
 20
6.9621012082
 30
0.0
  0
VERTEX
  5
387
330
27A
100
AcDbEntity
  8
0
  6
CONTINUOUS
 62
     7
100
AcDbVertex
100
AcDb2dVertex
 10
7.9146683346
 20
6.9345866843
 30
0.0
  0
VERTEX
  5
388
330
27A
100
AcDbEntity
  8
0
  6
CONTINUOUS
 62
     7
100
AcDbVertex
100
AcDb2dVertex
 10
7.9009627671
 20
6.9067587052
 30
0.0
  0
VERTEX
  5
389
330
27A
100
AcDbEntity
  8
0
  6
CONTINUOUS
 62
     7
100
AcDbVertex
100
AcDb2dVertex
 10
7.8880998549
 20
6.8786812761
 30
0.0
  0
VERTEX
  5
38A
330
27A
100
AcDbEntity
  8
0
  6
CONTINUOUS
 62
     7
100
AcDbVertex
100
AcDb2dVertex
 10
7.8761091828
 20
6.8504189759
 30
0.0
  0
VERTEX
  5
38B
330
27A
100
AcDbEntity
  8
0
  6
CONTINUOUS
 62
     7
100
AcDbVertex
100
AcDb2dVertex
 10
7.86501833
 20
6.8220368089
 30
0.0
  0
VERTEX
  5
38C
330
27A
100
AcDbEntity
  8
0
  6
CONTINUOUS
 62
     7
100
AcDbVertex
100
AcDb2dVertex
 10
7.8548528057
 20
6.793600055
 30
0.0
  0
VERTEX
  5
38D
330
27A
100
AcDbEntity
  8
0
  6
CONTINUOUS
 62
     7
100
AcDbVertex
100
AcDb2dVertex
 10
7.845635991
 20
6.7651741197
 30
0.0
  0
VERTEX
  5
38E
330
27A
100
AcDbEntity
  8
0
  6
CONTINUOUS
 62
     7
100
AcDbVertex
100
AcDb2dVertex
 10
7.8373890848
 20
6.7368243833
 30
0.0
  0
VERTEX
  5
38F
330
27A
100
AcDbEntity
  8
0
  6
CONTINUOUS
 62
     7
100
AcDbVertex
100
AcDb2dVertex
 10
7.8301310553
 20
6.7086160514
 30
0.0
  0
VERTEX
  5
390
330
27A
100
AcDbEntity
  8
0
  6
CONTINUOUS
 62
     7
100
AcDbVertex
100
AcDb2dVertex
 10
7.8238785961
 20
6.680614004
 30
0.0
  0
VERTEX
  5
391
330
27A
100
AcDbEntity
  8
0
  6
CONTINUOUS
 62
     7
100
AcDbVertex
100
AcDb2dVertex
 10
7.8186460882
 20
6.6528826466
 30
0.0
  0
VERTEX
  5
392
330
27A
100
AcDbEntity
  8
0
  6
CONTINUOUS
 62
     7
100
AcDbVertex
100
AcDb2dVertex
 10
7.8144455664
 20
6.6254857622
 30
0.0
  0
VERTEX
  5
393
330
27A
100
AcDbEntity
  8
0
  6
CONTINUOUS
 62
     7
100
AcDbVertex
100
AcDb2dVertex
 10
7.8112866921
 20
6.5984863646
 30
0.0
  0
VERTEX
  5
394
330
27A
100
AcDbEntity
  8
0
  6
CONTINUOUS
 62
     7
100
AcDbVertex
100
AcDb2dVertex
 10
7.8091767309
 20
6.5719465533
 30
0.0
  0
VERTEX
  5
395
330
27A
100
AcDbEntity
  8
0
  6
CONTINUOUS
 62
     7
100
AcDbVertex
100
AcDb2dVertex
 10
7.8081205356
 20
6.5459273707
 30
0.0
  0
VERTEX
  5
396
330
27A
100
AcDbEntity
  8
0
  6
CONTINUOUS
 62
     7
100
AcDbVertex
100
AcDb2dVertex
 10
7.8081205356
 20
6.5204886617
 30
0.0
  0
VERTEX
  5
397
330
27A
100
AcDbEntity
  8
0
  6
CONTINUOUS
 62
     7
100
AcDbVertex
100
AcDb2dVertex
 10
7.8091767309
 20
6.4956889362
 30
0.0
  0
VERTEX
  5
398
330
27A
100
AcDbEntity
  8
0
  6
CONTINUOUS
 62
     7
100
AcDbVertex
100
AcDb2dVertex
 10
7.8112866921
 20
6.4715852343
 30
0.0
  0
VERTEX
  5
399
330
27A
100
AcDbEntity
  8
0
  6
CONTINUOUS
 62
     7
100
AcDbVertex
100
AcDb2dVertex
 10
7.8144455664
 20
6.4482329953
 30
0.0
  0
VERTEX
  5
39A
330
27A
100
AcDbEntity
  8
0
  6
CONTINUOUS
 62
     7
100
AcDbVertex
100
AcDb2dVertex
 10
7.8186460882
 20
6.4256859302
 30
0.0
  0
VERTEX
  5
39B
330
27A
100
AcDbEntity
  8
0
  6
CONTINUOUS
 62
     7
100
AcDbVertex
100
AcDb2dVertex
 10
7.8238785961
 20
6.4039958979
 30
0.0
  0
VERTEX
  5
39C
330
27A
100
AcDbEntity
  8
0
  6
CONTINUOUS
 62
     7
100
AcDbVertex
100
AcDb2dVertex
 10
7.8301310553
 20
6.3832127861
 30
0.0
  0
VERTEX
  5
39D
330
27A
100
AcDbEntity
  8
0
  6
CONTINUOUS
 62
     7
100
AcDbVertex
100
AcDb2dVertex
 10
7.8373890848
 20
6.3633843967
 30
0.0
  0
VERTEX
  5
39E
330
27A
100
AcDbEntity
  8
0
  6
CONTINUOUS
 62
     7
100
AcDbVertex
100
AcDb2dVertex
 10
7.845635991
 20
6.3445563356
 30
0.0
  0
VERTEX
  5
39F
330
27A
100
AcDbEntity
  8
0
  6
CONTINUOUS
 62
     7
100
AcDbVertex
100
AcDb2dVertex
 10
7.8548528057
 20
6.326771908
 30
0.0
  0
VERTEX
  5
3A0
330
27A
100
AcDbEntity
  8
0
  6
CONTINUOUS
 62
     7
100
AcDbVertex
100
AcDb2dVertex
 10
7.86501833
 20
6.3100720186
 30
0.0
  0
VERTEX
  5
3A1
330
27A
100
AcDbEntity
  8
0
  6
CONTINUOUS
 62
     7
100
AcDbVertex
100
AcDb2dVertex
 10
7.8761091828
 20
6.2944950778
 30
0.0
  0
VERTEX
  5
3A2
330
27A
100
AcDbEntity
  8
0
  6
CONTINUOUS
 62
     7
100
AcDbVertex
100
AcDb2dVertex
 10
7.8880998549
 20
6.2800769128
 30
0.0
  0
VERTEX
  5
3A3
330
27A
100
AcDbEntity
  8
0
  6
CONTINUOUS
 62
     7
100
AcDbVertex
100
AcDb2dVertex
 10
7.9009627671
 20
6.2668506861
 30
0.0
  0
VERTEX
  5
3A4
330
27A
100
AcDbEntity
  8
0
  6
CONTINUOUS
 62
     7
100
AcDbVertex
100
AcDb2dVertex
 10
7.9146683346
 20
6.2548468183
 30
0.0
  0
VERTEX
  5
3A5
330
27A
100
AcDbEntity
  8
0
  6
CONTINUOUS
 62
     7
100
AcDbVertex
100
AcDb2dVertex
 10
7.929185034
 20
6.2440929188
 30
0.0
  0
VERTEX
  5
3A6
330
27A
100
AcDbEntity
  8
0
  6
CONTINUOUS
 62
     7
100
AcDbVertex
100
AcDb2dVertex
 10
7.9444794764
 20
6.2346137218
 30
0.0
  0
VERTEX
  5
3A7
330
27A
100
AcDbEntity
  8
0
  6
CONTINUOUS
 62
     7
100
AcDbVertex
100
AcDb2dVertex
 10
7.9605164842
 20
6.2264310297
 30
0.0
  0
VERTEX
  5
3A8
330
27A
100
AcDbEntity
  8
0
  6
CONTINUOUS
 62
     7
100
AcDbVertex
100
AcDb2dVertex
 10
7.9772591716
 20
6.2195636632
 30
0.0
  0
VERTEX
  5
3A9
330
27A
100
AcDbEntity
  8
0
  6
CONTINUOUS
 62
     7
100
AcDbVertex
100
AcDb2dVertex
 10
7.9946690301
 20
6.2140274172
 30
0.0
  0
VERTEX
  5
3AA
330
27A
100
AcDbEntity
  8
0
  6
CONTINUOUS
 62
     7
100
AcDbVertex
100
AcDb2dVertex
 10
8.0127060163
 20
6.2098350255
 30
0.0
  0
VERTEX
  5
3AB
330
27A
100
AcDbEntity
  8
0
  6
CONTINUOUS
 62
     7
100
AcDbVertex
100
AcDb2dVertex
 10
8.0313286446
 20
6.2069961305
 30
0.0
  0
VERTEX
  5
3AC
330
27A
100
AcDbEntity
  8
0
  6
CONTINUOUS
 62
     7
100
AcDbVertex
100
AcDb2dVertex
 10
8.0504940824
 20
6.2055172618
 30
0.0
  0
VERTEX
  5
3AD
330
27A
100
AcDbEntity
  8
0
  6
CONTINUOUS
 62
     7
100
AcDbVertex
100
AcDb2dVertex
 10
8.0701582486
 20
6.205401821
 30
0.0
  0
VERTEX
  5
3AE
330
27A
100
AcDbEntity
  8
0
  6
CONTINUOUS
 62
     7
100
AcDbVertex
100
AcDb2dVertex
 10
8.0902759148
 20
6.2066500734
 30
0.0
  0
VERTEX
  5
3AF
330
27A
100
AcDbEntity
  8
0
  6
CONTINUOUS
 62
     7
100
AcDbVertex
100
AcDb2dVertex
 10
8.11080081
 20
6.2092591481
 30
0.0
  0
VERTEX
  5
3B0
330
27A
100
AcDbEntity
  8
0
  6
CONTINUOUS
 62
     7
100
AcDbVertex
100
AcDb2dVertex
 10
8.1316857261
 20
6.2132230442
 30
0.0
  0
VERTEX
  5
3B1
330
27A
100
AcDbEntity
  8
0
  6
CONTINUOUS
 62
     7
100
AcDbVertex
100
AcDb2dVertex
 10
8.1528826271
 20
6.2185326445
 30
0.0
  0
VERTEX
  5
3B2
330
27A
100
AcDbEntity
  8
0
  6
CONTINUOUS
 62
     7
100
AcDbVertex
100
AcDb2dVertex
 10
8.1743427596
 20
6.2251757368
 30
0.0
  0
VERTEX
  5
3B3
330
27A
100
AcDbEntity
  8
0
  6
CONTINUOUS
 62
     7
100
AcDbVertex
100
AcDb2dVertex
 10
8.1960167644
 20
6.2331370418
 30
0.0
  0
VERTEX
  5
3B4
330
27A
100
AcDbEntity
  8
0
  6
CONTINUOUS
 62
     7
100
AcDbVertex
100
AcDb2dVertex
 10
8.2178547908
 20
6.2423982481
 30
0.0
  0
VERTEX
  5
3B5
330
27A
100
AcDbEntity
  8
0
  6
CONTINUOUS
 62
     7
100
AcDbVertex
100
AcDb2dVertex
 10
8.2398066106
 20
6.2529380548
 30
0.0
  0
VERTEX
  5
3B6
330
27A
100
AcDbEntity
  8
0
  6
CONTINUOUS
 62
     7
100
AcDbVertex
100
AcDb2dVertex
 10
8.2618217338
 20
6.26473222
 30
0.0
  0
VERTEX
  5
3B7
330
27A
100
AcDbEntity
  8
0
  6
CONTINUOUS
 62
     7
100
AcDbVertex
100
AcDb2dVertex
 10
8.283849525
 20
6.2777536166
 30
0.0
  0
VERTEX
  5
3B8
330
27A
100
AcDbEntity
  8
0
  6
CONTINUOUS
 62
     7
100
AcDbVertex
100
AcDb2dVertex
 10
8.3003268179
 20
6.2882929988
 30
0.0
  0
SEQEND
  5
3B9
330
27A
100
AcDbEntity
  8
0
  6
CONTINUOUS
 62
     7
  0
POLYLINE
  5
27B
330
1F
100
AcDbEntity
  8
0
  6
CONTINUOUS
 62
     7
100
AcDb2dPolyline
 66
     1
 10
0.0
 20
0.0
 30
0.0
  0
VERTEX
  5
3BA
330
27B
100
AcDbEntity
  8
0
  6
CONTINUOUS
 62
     7
100
AcDbVertex
100
AcDb2dVertex
 10
8.7254891137
 20
7.024775496
 30
0.0
  0
VERTEX
  5
3BB
330
27B
100
AcDbEntity
  8
0
  6
CONTINUOUS
 62
     7
100
AcDbVertex
100
AcDb2dVertex
 10
8.7261422432
 20
7.0377392732
 30
0.0
  0
VERTEX
  5
3BC
330
27B
100
AcDbEntity
  8
0
  6
CONTINUOUS
 62
     7
100
AcDbVertex
100
AcDb2dVertex
 10
8.7266704928
 20
7.0634756194
 30
0.0
  0
SEQEND
  5
3BD
330
27B
100
AcDbEntity
  8
0
  6
CONTINUOUS
 62
     7
  0
POLYLINE
  5
27C
330
1F
100
AcDbEntity
  8
0
  6
CONTINUOUS
 62
     7
100
AcDb2dPolyline
 66
     1
 10
0.0
 20
0.0
 30
0.0
  0
VERTEX
  5
3BE
330
27C
100
AcDbEntity
  8
0
  6
CONTINUOUS
 62
     7
100
AcDbVertex
100
AcDb2dVertex
 10
7.7420382194
 20
6.5551330016
 30
0.0
  0
VERTEX
  5
3BF
330
27C
100
AcDbEntity
  8
0
  6
CONTINUOUS
 62
     7
100
AcDbVertex
100
AcDb2dVertex
 10
7.7425662339
 20
6.5812461402
 30
0.0
  0
VERTEX
  5
3C0
330
27C
100
AcDbEntity
  8
0
  6
CONTINUOUS
 62
     7
100
AcDbVertex
100
AcDb2dVertex
 10
7.7441490994
 20
6.6079106427
 30
0.0
  0
VERTEX
  5
3C1
330
27C
100
AcDbEntity
  8
0
  6
CONTINUOUS
 62
     7
100
AcDbVertex
100
AcDb2dVertex
 10
7.7467832837
 20
6.6350670104
 30
0.0
  0
VERTEX
  5
3C2
330
27C
100
AcDbEntity
  8
0
  6
CONTINUOUS
 62
     7
100
AcDbVertex
100
AcDb2dVertex
 10
7.7504629091
 20
6.6626546466
 30
0.0
  0
VERTEX
  5
3C3
330
27C
100
AcDbEntity
  8
0
  6
CONTINUOUS
 62
     7
100
AcDbVertex
100
AcDb2dVertex
 10
7.7551797648
 20
6.6906119927
 30
0.0
  0
VERTEX
  5
3C4
330
27C
100
AcDbEntity
  8
0
  6
CONTINUOUS
 62
     7
100
AcDbVertex
100
AcDb2dVertex
 10
7.7609233257
 20
6.7188766647
 30
0.0
  0
VERTEX
  5
3C5
330
27C
100
AcDbEntity
  8
0
  6
CONTINUOUS
 62
     7
100
AcDbVertex
100
AcDb2dVertex
 10
7.7676807756
 20
6.7473855933
 30
0.0
  0
VERTEX
  5
3C6
330
27C
100
AcDbEntity
  8
0
  6
CONTINUOUS
 62
     7
100
AcDbVertex
100
AcDb2dVertex
 10
7.7754370361
 20
6.7760751637
 30
0.0
  0
VERTEX
  5
3C7
330
27C
100
AcDbEntity
  8
0
  6
CONTINUOUS
 62
     7
100
AcDbVertex
100
AcDb2dVertex
 10
7.7841747999
 20
6.8048813585
 30
0.0
  0
VERTEX
  5
3C8
330
27C
100
AcDbEntity
  8
0
  6
CONTINUOUS
 62
     7
100
AcDbVertex
100
AcDb2dVertex
 10
7.7938745695
 20
6.8337398996
 30
0.0
  0
VERTEX
  5
3C9
330
27C
100
AcDbEntity
  8
0
  6
CONTINUOUS
 62
     7
100
AcDbVertex
100
AcDb2dVertex
 10
7.8045147011
 20
6.8625863924
 30
0.0
  0
VERTEX
  5
3CA
330
27C
100
AcDbEntity
  8
0
  6
CONTINUOUS
 62
     7
100
AcDbVertex
100
AcDb2dVertex
 10
7.8160714524
 20
6.8913564691
 30
0.0
  0
VERTEX
  5
3CB
330
27C
100
AcDbEntity
  8
0
  6
CONTINUOUS
 62
     7
100
AcDbVertex
100
AcDb2dVertex
 10
7.8285190357
 20
6.9199859324
 30
0.0
  0
VERTEX
  5
3CC
330
27C
100
AcDbEntity
  8
0
  6
CONTINUOUS
 62
     7
100
AcDbVertex
100
AcDb2dVertex
 10
7.8418296755
 20
6.9484108988
 30
0.0
  0
VERTEX
  5
3CD
330
27C
100
AcDbEntity
  8
0
  6
CONTINUOUS
 62
     7
100
AcDbVertex
100
AcDb2dVertex
 10
7.8559736708
 20
6.976567941
 30
0.0
  0
VERTEX
  5
3CE
330
27C
100
AcDbEntity
  8
0
  6
CONTINUOUS
 62
     7
100
AcDbVertex
100
AcDb2dVertex
 10
7.8709194605
 20
7.0043942297
 30
0.0
  0
VERTEX
  5
3CF
330
27C
100
AcDbEntity
  8
0
  6
CONTINUOUS
 62
     7
100
AcDbVertex
100
AcDb2dVertex
 10
7.886633695
 20
7.0318276736
 30
0.0
  0
VERTEX
  5
3D0
330
27C
100
AcDbEntity
  8
0
  6
CONTINUOUS
 62
     7
100
AcDbVertex
100
AcDb2dVertex
 10
7.9030813095
 20
7.0588070579
 30
0.0
  0
VERTEX
  5
3D1
330
27C
100
AcDbEntity
  8
0
  6
CONTINUOUS
 62
     7
100
AcDbVertex
100
AcDb2dVertex
 10
7.920225603
 20
7.0852721811
 30
0.0
  0
VERTEX
  5
3D2
330
27C
100
AcDbEntity
  8
0
  6
CONTINUOUS
 62
     7
100
AcDbVertex
100
AcDb2dVertex
 10
7.9380283198
 20
7.111163989
 30
0.0
  0
VERTEX
  5
3D3
330
27C
100
AcDbEntity
  8
0
  6
CONTINUOUS
 62
     7
100
AcDbVertex
100
AcDb2dVertex
 10
7.9564497353
 20
7.1364247071
 30
0.0
  0
VERTEX
  5
3D4
330
27C
100
AcDbEntity
  8
0
  6
CONTINUOUS
 62
     7
100
AcDbVertex
100
AcDb2dVertex
 10
7.9754487439
 20
7.1609979687
 30
0.0
  0
VERTEX
  5
3D5
330
27C
100
AcDbEntity
  8
0
  6
CONTINUOUS
 62
     7
100
AcDbVertex
100
AcDb2dVertex
 10
7.9949829514
 20
7.1848289412
 30
0.0
  0
VERTEX
  5
3D6
330
27C
100
AcDbEntity
  8
0
  6
CONTINUOUS
 62
     7
100
AcDbVertex
100
AcDb2dVertex
 10
8.0150087695
 20
7.2078644485
 30
0.0
  0
VERTEX
  5
3D7
330
27C
100
AcDbEntity
  8
0
  6
CONTINUOUS
 62
     7
100
AcDbVertex
100
AcDb2dVertex
 10
8.0354815126
 20
7.2300530894
 30
0.0
  0
VERTEX
  5
3D8
330
27C
100
AcDbEntity
  8
0
  6
CONTINUOUS
 62
     7
100
AcDbVertex
100
AcDb2dVertex
 10
8.0563554982
 20
7.2513453522
 30
0.0
  0
VERTEX
  5
3D9
330
27C
100
AcDbEntity
  8
0
  6
CONTINUOUS
 62
     7
100
AcDbVertex
100
AcDb2dVertex
 10
8.077584148
 20
7.2716937257
 30
0.0
  0
VERTEX
  5
3DA
330
27C
100
AcDbEntity
  8
0
  6
CONTINUOUS
 62
     7
100
AcDbVertex
100
AcDb2dVertex
 10
8.0991200928
 20
7.2910528047
 30
0.0
  0
VERTEX
  5
3DB
330
27C
100
AcDbEntity
  8
0
  6
CONTINUOUS
 62
     7
100
AcDbVertex
100
AcDb2dVertex
 10
8.1209152774
 20
7.3093793914
 30
0.0
  0
VERTEX
  5
3DC
330
27C
100
AcDbEntity
  8
0
  6
CONTINUOUS
 62
     7
100
AcDbVertex
100
AcDb2dVertex
 10
8.1429210683
 20
7.3266325922
 30
0.0
  0
VERTEX
  5
3DD
330
27C
100
AcDbEntity
  8
0
  6
CONTINUOUS
 62
     7
100
AcDbVertex
100
AcDb2dVertex
 10
8.1650883619
 20
7.3427739083
 30
0.0
  0
VERTEX
  5
3DE
330
27C
100
AcDbEntity
  8
0
  6
CONTINUOUS
 62
     7
100
AcDbVertex
100
AcDb2dVertex
 10
8.1873676943
 20
7.3577673221
 30
0.0
  0
VERTEX
  5
3DF
330
27C
100
AcDbEntity
  8
0
  6
CONTINUOUS
 62
     7
100
AcDbVertex
100
AcDb2dVertex
 10
8.2097093516
 20
7.3715793776
 30
0.0
  0
VERTEX
  5
3E0
330
27C
100
AcDbEntity
  8
0
  6
CONTINUOUS
 62
     7
100
AcDbVertex
100
AcDb2dVertex
 10
8.2320634808
 20
7.3841792546
 30
0.0
  0
VERTEX
  5
3E1
330
27C
100
AcDbEntity
  8
0
  6
CONTINUOUS
 62
     7
100
AcDbVertex
100
AcDb2dVertex
 10
8.2543802012
 20
7.3955388379
 30
0.0
  0
VERTEX
  5
3E2
330
27C
100
AcDbEntity
  8
0
  6
CONTINUOUS
 62
     7
100
AcDbVertex
100
AcDb2dVertex
 10
8.2766097154
 20
7.4056327798
 30
0.0
  0
VERTEX
  5
3E3
330
27C
100
AcDbEntity
  8
0
  6
CONTINUOUS
 62
     7
100
AcDbVertex
100
AcDb2dVertex
 10
8.2987024206
 20
7.4144385567
 30
0.0
  0
VERTEX
  5
3E4
330
27C
100
AcDbEntity
  8
0
  6
CONTINUOUS
 62
     7
100
AcDbVertex
100
AcDb2dVertex
 10
8.3206090195
 20
7.4219365195
 30
0.0
  0
VERTEX
  5
3E5
330
27C
100
AcDbEntity
  8
0
  6
CONTINUOUS
 62
     7
100
AcDbVertex
100
AcDb2dVertex
 10
8.3422806298
 20
7.4281099374
 30
0.0
  0
VERTEX
  5
3E6
330
27C
100
AcDbEntity
  8
0
  6
CONTINUOUS
 62
     7
100
AcDbVertex
100
AcDb2dVertex
 10
8.3636688936
 20
7.432945035
 30
0.0
  0
VERTEX
  5
3E7
330
27C
100
AcDbEntity
  8
0
  6
CONTINUOUS
 62
     7
100
AcDbVertex
100
AcDb2dVertex
 10
8.3847260855
 20
7.4364310233
 30
0.0
  0
VERTEX
  5
3E8
330
27C
100
AcDbEntity
  8
0
  6
CONTINUOUS
 62
     7
100
AcDbVertex
100
AcDb2dVertex
 10
8.4054052185
 20
7.4385601238
 30
0.0
  0
VERTEX
  5
3E9
330
27C
100
AcDbEntity
  8
0
  6
CONTINUOUS
 62
     7
100
AcDbVertex
100
AcDb2dVertex
 10
8.4256601495
 20
7.4393275855
 30
0.0
  0
VERTEX
  5
3EA
330
27C
100
AcDbEntity
  8
0
  6
CONTINUOUS
 62
     7
100
AcDbVertex
100
AcDb2dVertex
 10
8.4454456818
 20
7.4387316961
 30
0.0
  0
VERTEX
  5
3EB
330
27C
100
AcDbEntity
  8
0
  6
CONTINUOUS
 62
     7
100
AcDbVertex
100
AcDb2dVertex
 10
8.464717666
 20
7.436773785
 30
0.0
  0
VERTEX
  5
3EC
330
27C
100
AcDbEntity
  8
0
  6
CONTINUOUS
 62
     7
100
AcDbVertex
100
AcDb2dVertex
 10
8.4834330989
 20
7.4334582213
 30
0.0
  0
VERTEX
  5
3ED
330
27C
100
AcDbEntity
  8
0
  6
CONTINUOUS
 62
     7
100
AcDbVertex
100
AcDb2dVertex
 10
8.5015502191
 20
7.4287924031
 30
0.0
  0
VERTEX
  5
3EE
330
27C
100
AcDbEntity
  8
0
  6
CONTINUOUS
 62
     7
100
AcDbVertex
100
AcDb2dVertex
 10
8.5190286001
 20
7.4227867419
 30
0.0
  0
VERTEX
  5
3EF
330
27C
100
AcDbEntity
  8
0
  6
CONTINUOUS
 62
     7
100
AcDbVertex
100
AcDb2dVertex
 10
8.5358292408
 20
7.4154546385
 30
0.0
  0
VERTEX
  5
3F0
330
27C
100
AcDbEntity
  8
0
  6
CONTINUOUS
 62
     7
100
AcDbVertex
100
AcDb2dVertex
 10
8.549917137
 20
7.407979443
 30
0.0
  0
SEQEND
  5
3F1
330
27C
100
AcDbEntity
  8
0
  6
CONTINUOUS
 62
     7
  0
ARC
  5
27D
330
1F
100
AcDbEntity
  8
0
  6
CONTINUOUS
 62
     7
100
AcDbCircle
 10
8.0773428908
 20
6.5222589431
 30
0.0
 40
0.3369123422897037
100
AcDbArc
 50
174.4004827012
 51
234.2873369054
  0
POLYLINE
  5
27E
330
1F
100
AcDbEntity
  8
0
  6
CONTINUOUS
 62
     7
100
AcDb2dPolyline
 66
     1
 10
0.0
 20
0.0
 30
0.0
  0
VERTEX
  5
3F2
330
27E
100
AcDbEntity
  8
0
  6
CONTINUOUS
 62
     7
100
AcDbVertex
100
AcDb2dVertex
 10
8.4799106214
 20
7.1665449419
 30
0.0
  0
VERTEX
  5
3F3
330
27E
100
AcDbEntity
  8
0
  6
CONTINUOUS
 62
     7
100
AcDbVertex
100
AcDb2dVertex
 10
8.4702695767
 20
7.1716272864
 30
0.0
  0
VERTEX
  5
3F4
330
27E
100
AcDbEntity
  8
0
  6
CONTINUOUS
 62
     7
100
AcDbVertex
100
AcDb2dVertex
 10
8.4567714175
 20
7.1772679712
 30
0.0
  0
VERTEX
  5
3F5
330
27E
100
AcDbEntity
  8
0
  6
CONTINUOUS
 62
     7
100
AcDbVertex
100
AcDb2dVertex
 10
8.4426078366
 20
7.1815775302
 30
0.0
  0
VERTEX
  5
3F6
330
27E
100
AcDbEntity
  8
0
  6
CONTINUOUS
 62
     7
100
AcDbVertex
100
AcDb2dVertex
 10
8.4278285841
 20
7.1845408258
 30
0.0
  0
VERTEX
  5
3F7
330
27E
100
AcDbEntity
  8
0
  6
CONTINUOUS
 62
     7
100
AcDbVertex
100
AcDb2dVertex
 10
8.4124855726
 20
7.1861474494
 30
0.0
  0
VERTEX
  5
3F8
330
27E
100
AcDbEntity
  8
0
  6
CONTINUOUS
 62
     7
100
AcDbVertex
100
AcDb2dVertex
 10
8.396632695
 20
7.1863917577
 30
0.0
  0
VERTEX
  5
3F9
330
27E
100
AcDbEntity
  8
0
  6
CONTINUOUS
 62
     7
100
AcDbVertex
100
AcDb2dVertex
 10
8.3803256351
 20
7.1852728925
 30
0.0
  0
VERTEX
  5
3FA
330
27E
100
AcDbEntity
  8
0
  6
CONTINUOUS
 62
     7
100
AcDbVertex
100
AcDb2dVertex
 10
8.363621672
 20
7.1827947839
 30
0.0
  0
VERTEX
  5
3FB
330
27E
100
AcDbEntity
  8
0
  6
CONTINUOUS
 62
     7
100
AcDbVertex
100
AcDb2dVertex
 10
8.3465794791
 20
7.1789661363
 30
0.0
  0
VERTEX
  5
3FC
330
27E
100
AcDbEntity
  8
0
  6
CONTINUOUS
 62
     7
100
AcDbVertex
100
AcDb2dVertex
 10
8.3292589177
 20
7.173800398
 30
0.0
  0
VERTEX
  5
3FD
330
27E
100
AcDbEntity
  8
0
  6
CONTINUOUS
 62
     7
100
AcDbVertex
100
AcDb2dVertex
 10
8.3117208268
 20
7.1673157139
 30
0.0
  0
VERTEX
  5
3FE
330
27E
100
AcDbEntity
  8
0
  6
CONTINUOUS
 62
     7
100
AcDbVertex
100
AcDb2dVertex
 10
8.2940268097
 20
7.1595348615
 30
0.0
  0
VERTEX
  5
3FF
330
27E
100
AcDbEntity
  8
0
  6
CONTINUOUS
 62
     7
100
AcDbVertex
100
AcDb2dVertex
 10
8.2762390173
 20
7.1504851715
 30
0.0
  0
VERTEX
  5
400
330
27E
100
AcDbEntity
  8
0
  6
CONTINUOUS
 62
     7
100
AcDbVertex
100
AcDb2dVertex
 10
8.2584199297
 20
7.1401984312
 30
0.0
  0
VERTEX
  5
401
330
27E
100
AcDbEntity
  8
0
  6
CONTINUOUS
 62
     7
100
AcDbVertex
100
AcDb2dVertex
 10
8.2406321372
 20
7.1287107732
 30
0.0
  0
VERTEX
  5
402
330
27E
100
AcDbEntity
  8
0
  6
CONTINUOUS
 62
     7
100
AcDbVertex
100
AcDb2dVertex
 10
8.2229381201
 20
7.1160625482
 30
0.0
  0
VERTEX
  5
403
330
27E
100
AcDbEntity
  8
0
  6
CONTINUOUS
 62
     7
100
AcDbVertex
100
AcDb2dVertex
 10
8.2054000293
 20
7.1022981837
 30
0.0
  0
VERTEX
  5
404
330
27E
100
AcDbEntity
  8
0
  6
CONTINUOUS
 62
     7
100
AcDbVertex
100
AcDb2dVertex
 10
8.1880794678
 20
7.0874660274
 30
0.0
  0
VERTEX
  5
405
330
27E
100
AcDbEntity
  8
0
  6
CONTINUOUS
 62
     7
100
AcDbVertex
100
AcDb2dVertex
 10
8.1710372749
 20
7.0716181779
 30
0.0
  0
VERTEX
  5
406
330
27E
100
AcDbEntity
  8
0
  6
CONTINUOUS
 62
     7
100
AcDbVertex
100
AcDb2dVertex
 10
8.1543333119
 20
7.0548103014
 30
0.0
  0
VERTEX
  5
407
330
27E
100
AcDbEntity
  8
0
  6
CONTINUOUS
 62
     7
100
AcDbVertex
100
AcDb2dVertex
 10
8.138026252
 20
7.0371014359
 30
0.0
  0
VERTEX
  5
408
330
27E
100
AcDbEntity
  8
0
  6
CONTINUOUS
 62
     7
100
AcDbVertex
100
AcDb2dVertex
 10
8.1221733744
 20
7.0185537848
 30
0.0
  0
VERTEX
  5
409
330
27E
100
AcDbEntity
  8
0
  6
CONTINUOUS
 62
     7
100
AcDbVertex
100
AcDb2dVertex
 10
8.1068303629
 20
6.9992324971
 30
0.0
  0
VERTEX
  5
40A
330
27E
100
AcDbEntity
  8
0
  6
CONTINUOUS
 62
     7
100
AcDbVertex
100
AcDb2dVertex
 10
8.0920511103
 20
6.9792054397
 30
0.0
  0
VERTEX
  5
40B
330
27E
100
AcDbEntity
  8
0
  6
CONTINUOUS
 62
     7
100
AcDbVertex
100
AcDb2dVertex
 10
8.0778875294
 20
6.9585429583
 30
0.0
  0
VERTEX
  5
40C
330
27E
100
AcDbEntity
  8
0
  6
CONTINUOUS
 62
     7
100
AcDbVertex
100
AcDb2dVertex
 10
8.0643893703
 20
6.9373176306
 30
0.0
  0
VERTEX
  5
40D
330
27E
100
AcDbEntity
  8
0
  6
CONTINUOUS
 62
     7
100
AcDbVertex
100
AcDb2dVertex
 10
8.0516040456
 20
6.9156040114
 30
0.0
  0
VERTEX
  5
40E
330
27E
100
AcDbEntity
  8
0
  6
CONTINUOUS
 62
     7
100
AcDbVertex
100
AcDb2dVertex
 10
8.0395764644
 20
6.8934783706
 30
0.0
  0
VERTEX
  5
40F
330
27E
100
AcDbEntity
  8
0
  6
CONTINUOUS
 62
     7
100
AcDbVertex
100
AcDb2dVertex
 10
8.0283488739
 20
6.8710184252
 30
0.0
  0
VERTEX
  5
410
330
27E
100
AcDbEntity
  8
0
  6
CONTINUOUS
 62
     7
100
AcDbVertex
100
AcDb2dVertex
 10
8.0179607116
 20
6.8483030667
 30
0.0
  0
VERTEX
  5
411
330
27E
100
AcDbEntity
  8
0
  6
CONTINUOUS
 62
     7
100
AcDbVertex
100
AcDb2dVertex
 10
8.008448466
 20
6.8254120836
 30
0.0
  0
VERTEX
  5
412
330
27E
100
AcDbEntity
  8
0
  6
CONTINUOUS
 62
     7
100
AcDbVertex
100
AcDb2dVertex
 10
7.9998455495
 20
6.8024258813
 30
0.0
  0
VERTEX
  5
413
330
27E
100
AcDbEntity
  8
0
  6
CONTINUOUS
 62
     7
100
AcDbVertex
100
AcDb2dVertex
 10
7.99218218
 20
6.7794251996
 30
0.0
  0
VERTEX
  5
414
330
27E
100
AcDbEntity
  8
0
  6
CONTINUOUS
 62
     7
100
AcDbVertex
100
AcDb2dVertex
 10
7.9854852754
 20
6.7564908293
 30
0.0
  0
VERTEX
  5
415
330
27E
100
AcDbEntity
  8
0
  6
CONTINUOUS
 62
     7
100
AcDbVertex
100
AcDb2dVertex
 10
7.9797783588
 20
6.7337033283
 30
0.0
  0
VERTEX
  5
416
330
27E
100
AcDbEntity
  8
0
  6
CONTINUOUS
 62
     7
100
AcDbVertex
100
AcDb2dVertex
 10
7.975081476
 20
6.7111427383
 30
0.0
  0
VERTEX
  5
417
330
27E
100
AcDbEntity
  8
0
  6
CONTINUOUS
 62
     7
100
AcDbVertex
100
AcDb2dVertex
 10
7.971411125
 20
6.6888883044
 30
0.0
  0
VERTEX
  5
418
330
27E
100
AcDbEntity
  8
0
  6
CONTINUOUS
 62
     7
100
AcDbVertex
100
AcDb2dVertex
 10
7.9687801979
 20
6.6670181961
 30
0.0
  0
VERTEX
  5
419
330
27E
100
AcDbEntity
  8
0
  6
CONTINUOUS
 62
     7
100
AcDbVertex
100
AcDb2dVertex
 10
7.9671979361
 20
6.6456092328
 30
0.0
  0
VERTEX
  5
41A
330
27E
100
AcDbEntity
  8
0
  6
CONTINUOUS
 62
     7
100
AcDbVertex
100
AcDb2dVertex
 10
7.9666698972
 20
6.6247366144
 30
0.0
  0
VERTEX
  5
41B
330
27E
100
AcDbEntity
  8
0
  6
CONTINUOUS
 62
     7
100
AcDbVertex
100
AcDb2dVertex
 10
7.9671979361
 20
6.6044736568
 30
0.0
  0
VERTEX
  5
41C
330
27E
100
AcDbEntity
  8
0
  6
CONTINUOUS
 62
     7
100
AcDbVertex
100
AcDb2dVertex
 10
7.9687801979
 20
6.5848915341
 30
0.0
  0
VERTEX
  5
41D
330
27E
100
AcDbEntity
  8
0
  6
CONTINUOUS
 62
     7
100
AcDbVertex
100
AcDb2dVertex
 10
7.971411125
 20
6.5660590295
 30
0.0
  0
VERTEX
  5
41E
330
27E
100
AcDbEntity
  8
0
  6
CONTINUOUS
 62
     7
100
AcDbVertex
100
AcDb2dVertex
 10
7.975081476
 20
6.5480422927
 30
0.0
  0
VERTEX
  5
41F
330
27E
100
AcDbEntity
  8
0
  6
CONTINUOUS
 62
     7
100
AcDbVertex
100
AcDb2dVertex
 10
7.9797783588
 20
6.5309046082
 30
0.0
  0
VERTEX
  5
420
330
27E
100
AcDbEntity
  8
0
  6
CONTINUOUS
 62
     7
100
AcDbVertex
100
AcDb2dVertex
 10
7.9854852754
 20
6.5147061728
 30
0.0
  0
VERTEX
  5
421
330
27E
100
AcDbEntity
  8
0
  6
CONTINUOUS
 62
     7
100
AcDbVertex
100
AcDb2dVertex
 10
7.99218218
 20
6.499503884
 30
0.0
  0
VERTEX
  5
422
330
27E
100
AcDbEntity
  8
0
  6
CONTINUOUS
 62
     7
100
AcDbVertex
100
AcDb2dVertex
 10
7.9998455495
 20
6.4853511404
 30
0.0
  0
VERTEX
  5
423
330
27E
100
AcDbEntity
  8
0
  6
CONTINUOUS
 62
     7
100
AcDbVertex
100
AcDb2dVertex
 10
8.008448466
 20
6.4722976541
 30
0.0
  0
VERTEX
  5
424
330
27E
100
AcDbEntity
  8
0
  6
CONTINUOUS
 62
     7
100
AcDbVertex
100
AcDb2dVertex
 10
8.0179607116
 20
6.4603892759
 30
0.0
  0
VERTEX
  5
425
330
27E
100
AcDbEntity
  8
0
  6
CONTINUOUS
 62
     7
100
AcDbVertex
100
AcDb2dVertex
 10
8.0283488739
 20
6.4496678344
 30
0.0
  0
VERTEX
  5
426
330
27E
100
AcDbEntity
  8
0
  6
CONTINUOUS
 62
     7
100
AcDbVertex
100
AcDb2dVertex
 10
8.0395764644
 20
6.440170989
 30
0.0
  0
VERTEX
  5
427
330
27E
100
AcDbEntity
  8
0
  6
CONTINUOUS
 62
     7
100
AcDbVertex
100
AcDb2dVertex
 10
8.0516040456
 20
6.4319320979
 30
0.0
  0
VERTEX
  5
428
330
27E
100
AcDbEntity
  8
0
  6
CONTINUOUS
 62
     7
100
AcDbVertex
100
AcDb2dVertex
 10
8.0547483256
 20
6.4300624448
 30
0.0
  0
SEQEND
  5
429
330
27E
100
AcDbEntity
  8
0
  6
CONTINUOUS
 62
     7
  0
SPLINE
  5
27F
330
1F
100
AcDbEntity
  8
0
  6
CONTINUOUS
 62
     7
100
AcDbSpline
210
0.0
220
0.0
230
1.0
 70
     8
 71
     3
 72
     8
 73
     4
 74
     0
 42
0.00000001
 43
0.00000001
 40
0.0
 40
0.0
 40
0.0
 40
0.0
 40
1.0
 40
1.0
 40
1.0
 40
1.0
 10
8.839085472048913
 20
6.820647752919715
 30
0.0
 10
8.839528372434962
 20
6.809680192370227
 30
0.0
 10
8.839528372434962
 20
6.798964433684062
 30
0.0
 10
8.839085472048913
 20
6.788500476861221
 30
0.0
  0
LINE
  5
280
330
1F
100
AcDbEntity
  8
0
  6
CONTINUOUS
 62
     7
100
AcDbLine
 10
8.83908365
 20
6.8188128665
 30
0.0
 11
8.839085472
 21
6.8206477529
 31
0.0
  0
POLYLINE
  5
281
330
1F
100
AcDbEntity
  8
0
  6
CONTINUOUS
 62
     7
100
AcDb2dPolyline
 66
     1
 10
0.0
 20
0.0
 30
0.0
  0
VERTEX
  5
42A
330
281
100
AcDbEntity
  8
0
  6
CONTINUOUS
 62
     7
100
AcDbVertex
100
AcDb2dVertex
 10
8.83908365
 20
6.8188128665
 30
0.0
  0
VERTEX
  5
42B
330
281
100
AcDbEntity
  8
0
  6
CONTINUOUS
 62
     7
100
AcDbVertex
100
AcDb2dVertex
 10
8.8376990269
 20
6.83834949
 30
0.0
  0
VERTEX
  5
42C
330
281
100
AcDbEntity
  8
0
  6
CONTINUOUS
 62
     7
100
AcDbVertex
100
AcDb2dVertex
 10
8.8352449525
 20
6.8571336867
 30
0.0
  0
VERTEX
  5
42D
330
281
100
AcDbEntity
  8
0
  6
CONTINUOUS
 62
     7
100
AcDbVertex
100
AcDb2dVertex
 10
8.8317305289
 20
6.8750957846
 30
0.0
  0
VERTEX
  5
42E
330
281
100
AcDbEntity
  8
0
  6
CONTINUOUS
 62
     7
100
AcDbVertex
100
AcDb2dVertex
 10
8.8271687915
 20
6.8921691611
 30
0.0
  0
VERTEX
  5
42F
330
281
100
AcDbEntity
  8
0
  6
CONTINUOUS
 62
     7
100
AcDbVertex
100
AcDb2dVertex
 10
8.82157666
 20
6.9082904898
 30
0.0
  0
VERTEX
  5
430
330
281
100
AcDbEntity
  8
0
  6
CONTINUOUS
 62
     7
100
AcDbVertex
100
AcDb2dVertex
 10
8.814974876
 20
6.9233999757
 30
0.0
  0
VERTEX
  5
431
330
281
100
AcDbEntity
  8
0
  6
CONTINUOUS
 62
     7
100
AcDbVertex
100
AcDb2dVertex
 10
8.8073879261
 20
6.9374415765
 30
0.0
  0
VERTEX
  5
432
330
281
100
AcDbEntity
  8
0
  6
CONTINUOUS
 62
     7
100
AcDbVertex
100
AcDb2dVertex
 10
8.7988439508
 20
6.9503632111
 30
0.0
  0
VERTEX
  5
433
330
281
100
AcDbEntity
  8
0
  6
CONTINUOUS
 62
     7
100
AcDbVertex
100
AcDb2dVertex
 10
8.7893746401
 20
6.9621169522
 30
0.0
  0
VERTEX
  5
434
330
281
100
AcDbEntity
  8
0
  6
CONTINUOUS
 62
     7
100
AcDbVertex
100
AcDb2dVertex
 10
8.7790151166
 20
6.9726592043
 30
0.0
  0
VERTEX
  5
435
330
281
100
AcDbEntity
  8
0
  6
CONTINUOUS
 62
     7
100
AcDbVertex
100
AcDb2dVertex
 10
8.7678038043
 20
6.9819508655
 30
0.0
  0
VERTEX
  5
436
330
281
100
AcDbEntity
  8
0
  6
CONTINUOUS
 62
     7
100
AcDbVertex
100
AcDb2dVertex
 10
8.7557822868
 20
6.9899574723
 30
0.0
  0
VERTEX
  5
437
330
281
100
AcDbEntity
  8
0
  6
CONTINUOUS
 62
     7
100
AcDbVertex
100
AcDb2dVertex
 10
8.7429951528
 20
6.9966493278
 30
0.0
  0
VERTEX
  5
438
330
281
100
AcDbEntity
  8
0
  6
CONTINUOUS
 62
     7
100
AcDbVertex
100
AcDb2dVertex
 10
8.7294898305
 20
7.0020016114
 30
0.0
  0
VERTEX
  5
439
330
281
100
AcDbEntity
  8
0
  6
CONTINUOUS
 62
     7
100
AcDbVertex
100
AcDb2dVertex
 10
8.7153164123
 20
7.005994471
 30
0.0
  0
VERTEX
  5
43A
330
281
100
AcDbEntity
  8
0
  6
CONTINUOUS
 62
     7
100
AcDbVertex
100
AcDb2dVertex
 10
8.7005274682
 20
7.0086130969
 30
0.0
  0
VERTEX
  5
43B
330
281
100
AcDbEntity
  8
0
  6
CONTINUOUS
 62
     7
100
AcDbVertex
100
AcDb2dVertex
 10
8.6851778515
 20
7.0098477765
 30
0.0
  0
VERTEX
  5
43C
330
281
100
AcDbEntity
  8
0
  6
CONTINUOUS
 62
     7
100
AcDbVertex
100
AcDb2dVertex
 10
8.669324495
 20
7.0096939301
 30
0.0
  0
VERTEX
  5
43D
330
281
100
AcDbEntity
  8
0
  6
CONTINUOUS
 62
     7
100
AcDbVertex
100
AcDb2dVertex
 10
8.6530261999
 20
7.0081521285
 30
0.0
  0
VERTEX
  5
43E
330
281
100
AcDbEntity
  8
0
  6
CONTINUOUS
 62
     7
100
AcDbVertex
100
AcDb2dVertex
 10
8.6363434177
 20
7.0052280902
 30
0.0
  0
VERTEX
  5
43F
330
281
100
AcDbEntity
  8
0
  6
CONTINUOUS
 62
     7
100
AcDbVertex
100
AcDb2dVertex
 10
8.619338026
 20
7.0009326608
 30
0.0
  0
VERTEX
  5
440
330
281
100
AcDbEntity
  8
0
  6
CONTINUOUS
 62
     7
100
AcDbVertex
100
AcDb2dVertex
 10
8.6020730989
 20
6.9952817722
 30
0.0
  0
VERTEX
  5
441
330
281
100
AcDbEntity
  8
0
  6
CONTINUOUS
 62
     7
100
AcDbVertex
100
AcDb2dVertex
 10
8.5846126734
 20
6.9882963841
 30
0.0
  0
VERTEX
  5
442
330
281
100
AcDbEntity
  8
0
  6
CONTINUOUS
 62
     7
100
AcDbVertex
100
AcDb2dVertex
 10
8.5670215112
 20
6.9800024057
 30
0.0
  0
VERTEX
  5
443
330
281
100
AcDbEntity
  8
0
  6
CONTINUOUS
 62
     7
100
AcDbVertex
100
AcDb2dVertex
 10
8.5493648593
 20
6.9704306
 30
0.0
  0
VERTEX
  5
444
330
281
100
AcDbEntity
  8
0
  6
CONTINUOUS
 62
     7
100
AcDbVertex
100
AcDb2dVertex
 10
8.5317082074
 20
6.9596164694
 30
0.0
  0
VERTEX
  5
445
330
281
100
AcDbEntity
  8
0
  6
CONTINUOUS
 62
     7
100
AcDbVertex
100
AcDb2dVertex
 10
8.5141170453
 20
6.9476001243
 30
0.0
  0
VERTEX
  5
446
330
281
100
AcDbEntity
  8
0
  6
CONTINUOUS
 62
     7
100
AcDbVertex
100
AcDb2dVertex
 10
8.4966566197
 20
6.9344261341
 30
0.0
  0
VERTEX
  5
447
330
281
100
AcDbEntity
  8
0
  6
CONTINUOUS
 62
     7
100
AcDbVertex
100
AcDb2dVertex
 10
8.4793916927
 20
6.9201433622
 30
0.0
  0
VERTEX
  5
448
330
281
100
AcDbEntity
  8
0
  6
CONTINUOUS
 62
     7
100
AcDbVertex
100
AcDb2dVertex
 10
8.4623863009
 20
6.9048047843
 30
0.0
  0
VERTEX
  5
449
330
281
100
AcDbEntity
  8
0
  6
CONTINUOUS
 62
     7
100
AcDbVertex
100
AcDb2dVertex
 10
8.4457035187
 20
6.8884672922
 30
0.0
  0
VERTEX
  5
44A
330
281
100
AcDbEntity
  8
0
  6
CONTINUOUS
 62
     7
100
AcDbVertex
100
AcDb2dVertex
 10
8.4294052236
 20
6.8711914829
 30
0.0
  0
VERTEX
  5
44B
330
281
100
AcDbEntity
  8
0
  6
CONTINUOUS
 62
     7
100
AcDbVertex
100
AcDb2dVertex
 10
8.4135518671
 20
6.8530414334
 30
0.0
  0
VERTEX
  5
44C
330
281
100
AcDbEntity
  8
0
  6
CONTINUOUS
 62
     7
100
AcDbVertex
100
AcDb2dVertex
 10
8.3982022505
 20
6.8340844637
 30
0.0
  0
VERTEX
  5
44D
330
281
100
AcDbEntity
  8
0
  6
CONTINUOUS
 62
     7
100
AcDbVertex
100
AcDb2dVertex
 10
8.3834133064
 20
6.8143908864
 30
0.0
  0
VERTEX
  5
44E
330
281
100
AcDbEntity
  8
0
  6
CONTINUOUS
 62
     7
100
AcDbVertex
100
AcDb2dVertex
 10
8.3692398881
 20
6.7940337464
 30
0.0
  0
VERTEX
  5
44F
330
281
100
AcDbEntity
  8
0
  6
CONTINUOUS
 62
     7
100
AcDbVertex
100
AcDb2dVertex
 10
8.3557345659
 20
6.7730885497
 30
0.0
  0
VERTEX
  5
450
330
281
100
AcDbEntity
  8
0
  6
CONTINUOUS
 62
     7
100
AcDbVertex
100
AcDb2dVertex
 10
8.3429474318
 20
6.7516329834
 30
0.0
  0
VERTEX
  5
451
330
281
100
AcDbEntity
  8
0
  6
CONTINUOUS
 62
     7
100
AcDbVertex
100
AcDb2dVertex
 10
8.3309259143
 20
6.7297466279
 30
0.0
  0
VERTEX
  5
452
330
281
100
AcDbEntity
  8
0
  6
CONTINUOUS
 62
     7
100
AcDbVertex
100
AcDb2dVertex
 10
8.319714602
 20
6.7075106611
 30
0.0
  0
VERTEX
  5
453
330
281
100
AcDbEntity
  8
0
  6
CONTINUOUS
 62
     7
100
AcDbVertex
100
AcDb2dVertex
 10
8.3093550785
 20
6.6850075577
 30
0.0
  0
VERTEX
  5
454
330
281
100
AcDbEntity
  8
0
  6
CONTINUOUS
 62
     7
100
AcDbVertex
100
AcDb2dVertex
 10
8.2998857679
 20
6.6623207833
 30
0.0
  0
VERTEX
  5
455
330
281
100
AcDbEntity
  8
0
  6
CONTINUOUS
 62
     7
100
AcDbVertex
100
AcDb2dVertex
 10
8.2913417925
 20
6.6395344847
 30
0.0
  0
VERTEX
  5
456
330
281
100
AcDbEntity
  8
0
  6
CONTINUOUS
 62
     7
100
AcDbVertex
100
AcDb2dVertex
 10
8.2837548426
 20
6.6167331779
 30
0.0
  0
VERTEX
  5
457
330
281
100
AcDbEntity
  8
0
  6
CONTINUOUS
 62
     7
100
AcDbVertex
100
AcDb2dVertex
 10
8.2771530587
 20
6.5940014346
 30
0.0
  0
VERTEX
  5
458
330
281
100
AcDbEntity
  8
0
  6
CONTINUOUS
 62
     7
100
AcDbVertex
100
AcDb2dVertex
 10
8.2715609272
 20
6.5714235683
 30
0.0
  0
VERTEX
  5
459
330
281
100
AcDbEntity
  8
0
  6
CONTINUOUS
 62
     7
100
AcDbVertex
100
AcDb2dVertex
 10
8.2669991897
 20
6.5490833219
 30
0.0
  0
VERTEX
  5
45A
330
281
100
AcDbEntity
  8
0
  6
CONTINUOUS
 62
     7
100
AcDbVertex
100
AcDb2dVertex
 10
8.2634847662
 20
6.5270635569
 30
0.0
  0
VERTEX
  5
45B
330
281
100
AcDbEntity
  8
0
  6
CONTINUOUS
 62
     7
100
AcDbVertex
100
AcDb2dVertex
 10
8.2610306917
 20
6.5054459462
 30
0.0
  0
VERTEX
  5
45C
330
281
100
AcDbEntity
  8
0
  6
CONTINUOUS
 62
     7
100
AcDbVertex
100
AcDb2dVertex
 10
8.2596460687
 20
6.484310671
 30
0.0
  0
SEQEND
  5
45D
330
281
100
AcDbEntity
  8
0
  6
CONTINUOUS
 62
     7
  0
LINE
  5
282
330
1F
100
AcDbEntity
  8
0
  6
CONTINUOUS
 62
     7
100
AcDbLine
 10
8.2384210631
 20
6.4843038577
 30
0.0
 11
8.2596460687
 21
6.484310671
 31
0.0
  0
POLYLINE
  5
283
330
1F
100
AcDbEntity
  8
0
  6
CONTINUOUS
 62
     7
100
AcDb2dPolyline
 66
     1
 10
0.0
 20
0.0
 30
0.0
  0
VERTEX
  5
45E
330
283
100
AcDbEntity
  8
0
  6
CONTINUOUS
 62
     7
100
AcDbVertex
100
AcDb2dVertex
 10
8.2384210631
 20
6.4843038577
 30
0.0
  0
VERTEX
  5
45F
330
283
100
AcDbEntity
  8
0
  6
CONTINUOUS
 62
     7
100
AcDbVertex
100
AcDb2dVertex
 10
8.2397810394
 20
6.505692524
 30
0.0
  0
VERTEX
  5
460
330
283
100
AcDbEntity
  8
0
  6
CONTINUOUS
 62
     7
100
AcDbVertex
100
AcDb2dVertex
 10
8.242200033
 20
6.5275626324
 30
0.0
  0
VERTEX
  5
461
330
283
100
AcDbEntity
  8
0
  6
CONTINUOUS
 62
     7
100
AcDbVertex
100
AcDb2dVertex
 10
8.2456694753
 20
6.5498367159
 30
0.0
  0
VERTEX
  5
462
330
283
100
AcDbEntity
  8
0
  6
CONTINUOUS
 62
     7
100
AcDbVertex
100
AcDb2dVertex
 10
8.2501770771
 20
6.5724358769
 30
0.0
  0
VERTEX
  5
463
330
283
100
AcDbEntity
  8
0
  6
CONTINUOUS
 62
     7
100
AcDbVertex
100
AcDb2dVertex
 10
8.255706872
 20
6.595280066
 30
0.0
  0
VERTEX
  5
464
330
283
100
AcDbEntity
  8
0
  6
CONTINUOUS
 62
     7
100
AcDbVertex
100
AcDb2dVertex
 10
8.2622392726
 20
6.6182883662
 30
0.0
  0
VERTEX
  5
465
330
283
100
AcDbEntity
  8
0
  6
CONTINUOUS
 62
     7
100
AcDbVertex
100
AcDb2dVertex
 10
8.2697511403
 20
6.6413792789
 30
0.0
  0
VERTEX
  5
466
330
283
100
AcDbEntity
  8
0
  6
CONTINUOUS
 62
     7
100
AcDbVertex
100
AcDb2dVertex
 10
8.2782158671
 20
6.6644710131
 30
0.0
  0
VERTEX
  5
467
330
283
100
AcDbEntity
  8
0
  6
CONTINUOUS
 62
     7
100
AcDbVertex
100
AcDb2dVertex
 10
8.2876034698
 20
6.6874817748
 30
0.0
  0
VERTEX
  5
468
330
283
100
AcDbEntity
  8
0
  6
CONTINUOUS
 62
     7
100
AcDbVertex
100
AcDb2dVertex
 10
8.2978806962
 20
6.7103300568
 30
0.0
  0
VERTEX
  5
469
330
283
100
AcDbEntity
  8
0
  6
CONTINUOUS
 62
     7
100
AcDbVertex
100
AcDb2dVertex
 10
8.3090111431
 20
6.7329349273
 30
0.0
  0
VERTEX
  5
46A
330
283
100
AcDbEntity
  8
0
  6
CONTINUOUS
 62
     7
100
AcDbVertex
100
AcDb2dVertex
 10
8.3209553849
 20
6.755216317
 30
0.0
  0
VERTEX
  5
46B
330
283
100
AcDbEntity
  8
0
  6
CONTINUOUS
 62
     7
100
AcDbVertex
100
AcDb2dVertex
 10
8.3336711135
 20
6.7770953023
 30
0.0
  0
VERTEX
  5
46C
330
283
100
AcDbEntity
  8
0
  6
CONTINUOUS
 62
     7
100
AcDbVertex
100
AcDb2dVertex
 10
8.3471132881
 20
6.7984943847
 30
0.0
  0
VERTEX
  5
46D
330
283
100
AcDbEntity
  8
0
  6
CONTINUOUS
 62
     7
100
AcDbVertex
100
AcDb2dVertex
 10
8.3612342947
 20
6.8193377659
 30
0.0
  0
VERTEX
  5
46E
330
283
100
AcDbEntity
  8
0
  6
CONTINUOUS
 62
     7
100
AcDbVertex
100
AcDb2dVertex
 10
8.3759841149
 20
6.8395516159
 30
0.0
  0
VERTEX
  5
46F
330
283
100
AcDbEntity
  8
0
  6
CONTINUOUS
 62
     7
100
AcDbVertex
100
AcDb2dVertex
 10
8.3913105028
 20
6.8590643346
 30
0.0
  0
VERTEX
  5
470
330
283
100
AcDbEntity
  8
0
  6
CONTINUOUS
 62
     7
100
AcDbVertex
100
AcDb2dVertex
 10
8.4071591703
 20
6.8778068052
 30
0.0
  0
VERTEX
  5
471
330
283
100
AcDbEntity
  8
0
  6
CONTINUOUS
 62
     7
100
AcDbVertex
100
AcDb2dVertex
 10
8.4234739794
 20
6.8957126395
 30
0.0
  0
VERTEX
  5
472
330
283
100
AcDbEntity
  8
0
  6
CONTINUOUS
 62
     7
100
AcDbVertex
100
AcDb2dVertex
 10
8.4401971407
 20
6.9127184125
 30
0.0
  0
VERTEX
  5
473
330
283
100
AcDbEntity
  8
0
  6
CONTINUOUS
 62
     7
100
AcDbVertex
100
AcDb2dVertex
 10
8.4572694186
 20
6.9287638876
 30
0.0
  0
VERTEX
  5
474
330
283
100
AcDbEntity
  8
0
  6
CONTINUOUS
 62
     7
100
AcDbVertex
100
AcDb2dVertex
 10
8.4746303409
 20
6.9437922296
 30
0.0
  0
VERTEX
  5
475
330
283
100
AcDbEntity
  8
0
  6
CONTINUOUS
 62
     7
100
AcDbVertex
100
AcDb2dVertex
 10
8.4922184128
 20
6.9577502061
 30
0.0
  0
VERTEX
  5
476
330
283
100
AcDbEntity
  8
0
  6
CONTINUOUS
 62
     7
100
AcDbVertex
100
AcDb2dVertex
 10
8.509971335
 20
6.970588376
 30
0.0
  0
VERTEX
  5
477
330
283
100
AcDbEntity
  8
0
  6
CONTINUOUS
 62
     7
100
AcDbVertex
100
AcDb2dVertex
 10
8.5278262243
 20
6.9822612649
 30
0.0
  0
VERTEX
  5
478
330
283
100
AcDbEntity
  8
0
  6
CONTINUOUS
 62
     7
100
AcDbVertex
100
AcDb2dVertex
 10
8.5457198364
 20
6.9927275258
 30
0.0
  0
VERTEX
  5
479
330
283
100
AcDbEntity
  8
0
  6
CONTINUOUS
 62
     7
100
AcDbVertex
100
AcDb2dVertex
 10
8.5635887896
 20
7.0019500858
 30
0.0
  0
VERTEX
  5
47A
330
283
100
AcDbEntity
  8
0
  6
CONTINUOUS
 62
     7
100
AcDbVertex
100
AcDb2dVertex
 10
8.5813697898
 20
7.0098962774
 30
0.0
  0
VERTEX
  5
47B
330
283
100
AcDbEntity
  8
0
  6
CONTINUOUS
 62
     7
100
AcDbVertex
100
AcDb2dVertex
 10
8.5989998542
 20
7.0165379541
 30
0.0
  0
VERTEX
  5
47C
330
283
100
AcDbEntity
  8
0
  6
CONTINUOUS
 62
     7
100
AcDbVertex
100
AcDb2dVertex
 10
8.6164165349
 20
7.0218515903
 30
0.0
  0
VERTEX
  5
47D
330
283
100
AcDbEntity
  8
0
  6
CONTINUOUS
 62
     7
100
AcDbVertex
100
AcDb2dVertex
 10
8.6335581396
 20
7.0258183643
 30
0.0
  0
VERTEX
  5
47E
330
283
100
AcDbEntity
  8
0
  6
CONTINUOUS
 62
     7
100
AcDbVertex
100
AcDb2dVertex
 10
8.6503639505
 20
7.0284242252
 30
0.0
  0
VERTEX
  5
47F
330
283
100
AcDbEntity
  8
0
  6
CONTINUOUS
 62
     7
100
AcDbVertex
100
AcDb2dVertex
 10
8.6667744391
 20
7.0296599428
 30
0.0
  0
VERTEX
  5
480
330
283
100
AcDbEntity
  8
0
  6
CONTINUOUS
 62
     7
100
AcDbVertex
100
AcDb2dVertex
 10
8.6827314774
 20
7.0295211399
 30
0.0
  0
VERTEX
  5
481
330
283
100
AcDbEntity
  8
0
  6
CONTINUOUS
 62
     7
100
AcDbVertex
100
AcDb2dVertex
 10
8.6981785433
 20
7.0280083084
 30
0.0
  0
VERTEX
  5
482
330
283
100
AcDbEntity
  8
0
  6
CONTINUOUS
 62
     7
100
AcDbVertex
100
AcDb2dVertex
 10
8.7130609213
 20
7.0251268067
 30
0.0
  0
VERTEX
  5
483
330
283
100
AcDbEntity
  8
0
  6
CONTINUOUS
 62
     7
100
AcDbVertex
100
AcDb2dVertex
 10
8.727325896
 20
7.0208868415
 30
0.0
  0
VERTEX
  5
484
330
283
100
AcDbEntity
  8
0
  6
CONTINUOUS
 62
     7
100
AcDbVertex
100
AcDb2dVertex
 10
8.740922939
 20
7.0153034315
 30
0.0
  0
VERTEX
  5
485
330
283
100
AcDbEntity
  8
0
  6
CONTINUOUS
 62
     7
100
AcDbVertex
100
AcDb2dVertex
 10
8.7538038878
 20
7.0083963537
 30
0.0
  0
VERTEX
  5
486
330
283
100
AcDbEntity
  8
0
  6
CONTINUOUS
 62
     7
100
AcDbVertex
100
AcDb2dVertex
 10
8.7659231162
 20
7.0001900739
 30
0.0
  0
VERTEX
  5
487
330
283
100
AcDbEntity
  8
0
  6
CONTINUOUS
 62
     7
100
AcDbVertex
100
AcDb2dVertex
 10
8.7772376965
 20
6.99071366
 30
0.0
  0
VERTEX
  5
488
330
283
100
AcDbEntity
  8
0
  6
CONTINUOUS
 62
     7
100
AcDbVertex
100
AcDb2dVertex
 10
8.7877075508
 20
6.9800006785
 30
0.0
  0
VERTEX
  5
489
330
283
100
AcDbEntity
  8
0
  6
CONTINUOUS
 62
     7
100
AcDbVertex
100
AcDb2dVertex
 10
8.7972955934
 20
6.9680890764
 30
0.0
  0
VERTEX
  5
48A
330
283
100
AcDbEntity
  8
0
  6
CONTINUOUS
 62
     7
100
AcDbVertex
100
AcDb2dVertex
 10
8.8059678624
 20
6.955021046
 30
0.0
  0
VERTEX
  5
48B
330
283
100
AcDbEntity
  8
0
  6
CONTINUOUS
 62
     7
100
AcDbVertex
100
AcDb2dVertex
 10
8.8136936393
 20
6.9408428762
 30
0.0
  0
VERTEX
  5
48C
330
283
100
AcDbEntity
  8
0
  6
CONTINUOUS
 62
     7
100
AcDbVertex
100
AcDb2dVertex
 10
8.8204455585
 20
6.9256047879
 30
0.0
  0
VERTEX
  5
48D
330
283
100
AcDbEntity
  8
0
  6
CONTINUOUS
 62
     7
100
AcDbVertex
100
AcDb2dVertex
 10
8.8261997036
 20
6.9093607563
 30
0.0
  0
VERTEX
  5
48E
330
283
100
AcDbEntity
  8
0
  6
CONTINUOUS
 62
     7
100
AcDbVertex
100
AcDb2dVertex
 10
8.8309356929
 20
6.8921683202
 30
0.0
  0
VERTEX
  5
48F
330
283
100
AcDbEntity
  8
0
  6
CONTINUOUS
 62
     7
100
AcDbVertex
100
AcDb2dVertex
 10
8.8346367507
 20
6.8740883772
 30
0.0
  0
VERTEX
  5
490
330
283
100
AcDbEntity
  8
0
  6
CONTINUOUS
 62
     7
100
AcDbVertex
100
AcDb2dVertex
 10
8.8372897674
 20
6.8551849691
 30
0.0
  0
VERTEX
  5
491
330
283
100
AcDbEntity
  8
0
  6
CONTINUOUS
 62
     7
100
AcDbVertex
100
AcDb2dVertex
 10
8.8388853457
 20
6.8355250541
 30
0.0
  0
VERTEX
  5
492
330
283
100
AcDbEntity
  8
0
  6
CONTINUOUS
 62
     7
100
AcDbVertex
100
AcDb2dVertex
 10
8.8394178339
 20
6.8151782705
 30
0.0
  0
SEQEND
  5
493
330
283
100
AcDbEntity
  8
0
  6
CONTINUOUS
 62
     7
  0
POLYLINE
  5
284
330
1F
100
AcDbEntity
  8
0
  6
CONTINUOUS
 62
     7
100
AcDb2dPolyline
 66
     1
 10
0.0
 20
0.0
 30
0.0
  0
VERTEX
  5
494
330
284
100
AcDbEntity
  8
0
  6
CONTINUOUS
 62
     7
100
AcDbVertex
100
AcDb2dVertex
 10
8.5388071232
 20
6.2944488242
 30
0.0
  0
VERTEX
  5
495
330
284
100
AcDbEntity
  8
0
  6
CONTINUOUS
 62
     7
100
AcDbVertex
100
AcDb2dVertex
 10
8.5278262243
 20
6.2883392613
 30
0.0
  0
VERTEX
  5
496
330
284
100
AcDbEntity
  8
0
  6
CONTINUOUS
 62
     7
100
AcDbVertex
100
AcDb2dVertex
 10
8.509971335
 20
6.2793973337
 30
0.0
  0
VERTEX
  5
497
330
284
100
AcDbEntity
  8
0
  6
CONTINUOUS
 62
     7
100
AcDbVertex
100
AcDb2dVertex
 10
8.4922184128
 20
6.2717384159
 30
0.0
  0
VERTEX
  5
498
330
284
100
AcDbEntity
  8
0
  6
CONTINUOUS
 62
     7
100
AcDbVertex
100
AcDb2dVertex
 10
8.4746303409
 20
6.2653896368
 30
0.0
  0
VERTEX
  5
499
330
284
100
AcDbEntity
  8
0
  6
CONTINUOUS
 62
     7
100
AcDbVertex
100
AcDb2dVertex
 10
8.4572694186
 20
6.2603734846
 30
0.0
  0
VERTEX
  5
49A
330
284
100
AcDbEntity
  8
0
  6
CONTINUOUS
 62
     7
100
AcDbVertex
100
AcDb2dVertex
 10
8.4401971407
 20
6.2567077272
 30
0.0
  0
VERTEX
  5
49B
330
284
100
AcDbEntity
  8
0
  6
CONTINUOUS
 62
     7
100
AcDbVertex
100
AcDb2dVertex
 10
8.4234739794
 20
6.2544053492
 30
0.0
  0
VERTEX
  5
49C
330
284
100
AcDbEntity
  8
0
  6
CONTINUOUS
 62
     7
100
AcDbVertex
100
AcDb2dVertex
 10
8.4071591703
 20
6.2534745059
 30
0.0
  0
VERTEX
  5
49D
330
284
100
AcDbEntity
  8
0
  6
CONTINUOUS
 62
     7
100
AcDbVertex
100
AcDb2dVertex
 10
8.3913105028
 20
6.2539184945
 30
0.0
  0
VERTEX
  5
49E
330
284
100
AcDbEntity
  8
0
  6
CONTINUOUS
 62
     7
100
AcDbVertex
100
AcDb2dVertex
 10
8.3759841149
 20
6.2557357424
 30
0.0
  0
VERTEX
  5
49F
330
284
100
AcDbEntity
  8
0
  6
CONTINUOUS
 62
     7
100
AcDbVertex
100
AcDb2dVertex
 10
8.3612342947
 20
6.2589198125
 30
0.0
  0
VERTEX
  5
4A0
330
284
100
AcDbEntity
  8
0
  6
CONTINUOUS
 62
     7
100
AcDbVertex
100
AcDb2dVertex
 10
8.3471132881
 20
6.2634594265
 30
0.0
  0
VERTEX
  5
4A1
330
284
100
AcDbEntity
  8
0
  6
CONTINUOUS
 62
     7
100
AcDbVertex
100
AcDb2dVertex
 10
8.3336711135
 20
6.2693385045
 30
0.0
  0
VERTEX
  5
4A2
330
284
100
AcDbEntity
  8
0
  6
CONTINUOUS
 62
     7
100
AcDbVertex
100
AcDb2dVertex
 10
8.3209553849
 20
6.2765362219
 30
0.0
  0
VERTEX
  5
4A3
330
284
100
AcDbEntity
  8
0
  6
CONTINUOUS
 62
     7
100
AcDbVertex
100
AcDb2dVertex
 10
8.3090111431
 20
6.2850270836
 30
0.0
  0
VERTEX
  5
4A4
330
284
100
AcDbEntity
  8
0
  6
CONTINUOUS
 62
     7
100
AcDbVertex
100
AcDb2dVertex
 10
8.2978806962
 20
6.2947810138
 30
0.0
  0
VERTEX
  5
4A5
330
284
100
AcDbEntity
  8
0
  6
CONTINUOUS
 62
     7
100
AcDbVertex
100
AcDb2dVertex
 10
8.2876034698
 20
6.3057634626
 30
0.0
  0
VERTEX
  5
4A6
330
284
100
AcDbEntity
  8
0
  6
CONTINUOUS
 62
     7
100
AcDbVertex
100
AcDb2dVertex
 10
8.2782158671
 20
6.317935529
 30
0.0
  0
VERTEX
  5
4A7
330
284
100
AcDbEntity
  8
0
  6
CONTINUOUS
 62
     7
100
AcDbVertex
100
AcDb2dVertex
 10
8.2697511403
 20
6.3312540976
 30
0.0
  0
VERTEX
  5
4A8
330
284
100
AcDbEntity
  8
0
  6
CONTINUOUS
 62
     7
100
AcDbVertex
100
AcDb2dVertex
 10
8.2622392726
 20
6.3456719925
 30
0.0
  0
VERTEX
  5
4A9
330
284
100
AcDbEntity
  8
0
  6
CONTINUOUS
 62
     7
100
AcDbVertex
100
AcDb2dVertex
 10
8.255706872
 20
6.3611381435
 30
0.0
  0
VERTEX
  5
4AA
330
284
100
AcDbEntity
  8
0
  6
CONTINUOUS
 62
     7
100
AcDbVertex
100
AcDb2dVertex
 10
8.2501770771
 20
6.3775977674
 30
0.0
  0
VERTEX
  5
4AB
330
284
100
AcDbEntity
  8
0
  6
CONTINUOUS
 62
     7
100
AcDbVertex
100
AcDb2dVertex
 10
8.2456694753
 20
6.3949925621
 30
0.0
  0
VERTEX
  5
4AC
330
284
100
AcDbEntity
  8
0
  6
CONTINUOUS
 62
     7
100
AcDbVertex
100
AcDb2dVertex
 10
8.242200033
 20
6.4132609128
 30
0.0
  0
VERTEX
  5
4AD
330
284
100
AcDbEntity
  8
0
  6
CONTINUOUS
 62
     7
100
AcDbVertex
100
AcDb2dVertex
 10
8.2397810394
 20
6.4323381106
 30
0.0
  0
VERTEX
  5
4AE
330
284
100
AcDbEntity
  8
0
  6
CONTINUOUS
 62
     7
100
AcDbVertex
100
AcDb2dVertex
 10
8.2384210631
 20
6.4521565817
 30
0.0
  0
SEQEND
  5
4AF
330
284
100
AcDbEntity
  8
0
  6
CONTINUOUS
 62
     7
  0
LINE
  5
285
330
1F
100
AcDbEntity
  8
0
  6
CONTINUOUS
 62
     7
100
AcDbLine
 10
8.2384210631
 20
6.4521565817
 30
0.0
 11
8.2596460687
 21
6.4521633949
 31
0.0
  0
POLYLINE
  5
286
330
1F
100
AcDbEntity
  8
0
  6
CONTINUOUS
 62
     7
100
AcDb2dPolyline
 66
     1
 10
0.0
 20
0.0
 30
0.0
  0
VERTEX
  5
4B0
330
286
100
AcDbEntity
  8
0
  6
CONTINUOUS
 62
     7
100
AcDbVertex
100
AcDb2dVertex
 10
8.2596460687
 20
6.4521633949
 30
0.0
  0
VERTEX
  5
4B1
330
286
100
AcDbEntity
  8
0
  6
CONTINUOUS
 62
     7
100
AcDbVertex
100
AcDb2dVertex
 10
8.2610306917
 20
6.4326267714
 30
0.0
  0
VERTEX
  5
4B2
330
286
100
AcDbEntity
  8
0
  6
CONTINUOUS
 62
     7
100
AcDbVertex
100
AcDb2dVertex
 10
8.2634847662
 20
6.4138425748
 30
0.0
  0
VERTEX
  5
4B3
330
286
100
AcDbEntity
  8
0
  6
CONTINUOUS
 62
     7
100
AcDbVertex
100
AcDb2dVertex
 10
8.2669991897
 20
6.3958804769
 30
0.0
  0
VERTEX
  5
4B4
330
286
100
AcDbEntity
  8
0
  6
CONTINUOUS
 62
     7
100
AcDbVertex
100
AcDb2dVertex
 10
8.2715609272
 20
6.3788071004
 30
0.0
  0
VERTEX
  5
4B5
330
286
100
AcDbEntity
  8
0
  6
CONTINUOUS
 62
     7
100
AcDbVertex
100
AcDb2dVertex
 10
8.2771530587
 20
6.3626857716
 30
0.0
  0
VERTEX
  5
4B6
330
286
100
AcDbEntity
  8
0
  6
CONTINUOUS
 62
     7
100
AcDbVertex
100
AcDb2dVertex
 10
8.2837548426
 20
6.3475762858
 30
0.0
  0
VERTEX
  5
4B7
330
286
100
AcDbEntity
  8
0
  6
CONTINUOUS
 62
     7
100
AcDbVertex
100
AcDb2dVertex
 10
8.2913417925
 20
6.3335346849
 30
0.0
  0
VERTEX
  5
4B8
330
286
100
AcDbEntity
  8
0
  6
CONTINUOUS
 62
     7
100
AcDbVertex
100
AcDb2dVertex
 10
8.2998857679
 20
6.3206130503
 30
0.0
  0
VERTEX
  5
4B9
330
286
100
AcDbEntity
  8
0
  6
CONTINUOUS
 62
     7
100
AcDbVertex
100
AcDb2dVertex
 10
8.3093550785
 20
6.3088593093
 30
0.0
  0
VERTEX
  5
4BA
330
286
100
AcDbEntity
  8
0
  6
CONTINUOUS
 62
     7
100
AcDbVertex
100
AcDb2dVertex
 10
8.319714602
 20
6.2983170572
 30
0.0
  0
VERTEX
  5
4BB
330
286
100
AcDbEntity
  8
0
  6
CONTINUOUS
 62
     7
100
AcDbVertex
100
AcDb2dVertex
 10
8.3309259143
 20
6.289025396
 30
0.0
  0
VERTEX
  5
4BC
330
286
100
AcDbEntity
  8
0
  6
CONTINUOUS
 62
     7
100
AcDbVertex
100
AcDb2dVertex
 10
8.3429474318
 20
6.2810187891
 30
0.0
  0
VERTEX
  5
4BD
330
286
100
AcDbEntity
  8
0
  6
CONTINUOUS
 62
     7
100
AcDbVertex
100
AcDb2dVertex
 10
8.3557345659
 20
6.2743269336
 30
0.0
  0
VERTEX
  5
4BE
330
286
100
AcDbEntity
  8
0
  6
CONTINUOUS
 62
     7
100
AcDbVertex
100
AcDb2dVertex
 10
8.3692398881
 20
6.2689746501
 30
0.0
  0
VERTEX
  5
4BF
330
286
100
AcDbEntity
  8
0
  6
CONTINUOUS
 62
     7
100
AcDbVertex
100
AcDb2dVertex
 10
8.3834133064
 20
6.2649817904
 30
0.0
  0
VERTEX
  5
4C0
330
286
100
AcDbEntity
  8
0
  6
CONTINUOUS
 62
     7
100
AcDbVertex
100
AcDb2dVertex
 10
8.3982022505
 20
6.2623631645
 30
0.0
  0
VERTEX
  5
4C1
330
286
100
AcDbEntity
  8
0
  6
CONTINUOUS
 62
     7
100
AcDbVertex
100
AcDb2dVertex
 10
8.4135518671
 20
6.261128485
 30
0.0
  0
VERTEX
  5
4C2
330
286
100
AcDbEntity
  8
0
  6
CONTINUOUS
 62
     7
100
AcDbVertex
100
AcDb2dVertex
 10
8.4294052236
 20
6.2612823313
 30
0.0
  0
VERTEX
  5
4C3
330
286
100
AcDbEntity
  8
0
  6
CONTINUOUS
 62
     7
100
AcDbVertex
100
AcDb2dVertex
 10
8.4457035187
 20
6.262824133
 30
0.0
  0
VERTEX
  5
4C4
330
286
100
AcDbEntity
  8
0
  6
CONTINUOUS
 62
     7
100
AcDbVertex
100
AcDb2dVertex
 10
8.4623863009
 20
6.2657481712
 30
0.0
  0
VERTEX
  5
4C5
330
286
100
AcDbEntity
  8
0
  6
CONTINUOUS
 62
     7
100
AcDbVertex
100
AcDb2dVertex
 10
8.4793916927
 20
6.2700436007
 30
0.0
  0
VERTEX
  5
4C6
330
286
100
AcDbEntity
  8
0
  6
CONTINUOUS
 62
     7
100
AcDbVertex
100
AcDb2dVertex
 10
8.4966566197
 20
6.2756944892
 30
0.0
  0
VERTEX
  5
4C7
330
286
100
AcDbEntity
  8
0
  6
CONTINUOUS
 62
     7
100
AcDbVertex
100
AcDb2dVertex
 10
8.5141170453
 20
6.2826798773
 30
0.0
  0
VERTEX
  5
4C8
330
286
100
AcDbEntity
  8
0
  6
CONTINUOUS
 62
     7
100
AcDbVertex
100
AcDb2dVertex
 10
8.5317082074
 20
6.2909738557
 30
0.0
  0
VERTEX
  5
4C9
330
286
100
AcDbEntity
  8
0
  6
CONTINUOUS
 62
     7
100
AcDbVertex
100
AcDb2dVertex
 10
8.5493648593
 20
6.3005456615
 30
0.0
  0
VERTEX
  5
4CA
330
286
100
AcDbEntity
  8
0
  6
CONTINUOUS
 62
     7
100
AcDbVertex
100
AcDb2dVertex
 10
8.5670215112
 20
6.3113597921
 30
0.0
  0
VERTEX
  5
4CB
330
286
100
AcDbEntity
  8
0
  6
CONTINUOUS
 62
     7
100
AcDbVertex
100
AcDb2dVertex
 10
8.5846126734
 20
6.3233761372
 30
0.0
  0
VERTEX
  5
4CC
330
286
100
AcDbEntity
  8
0
  6
CONTINUOUS
 62
     7
100
AcDbVertex
100
AcDb2dVertex
 10
8.6020730989
 20
6.3365501273
 30
0.0
  0
VERTEX
  5
4CD
330
286
100
AcDbEntity
  8
0
  6
CONTINUOUS
 62
     7
100
AcDbVertex
100
AcDb2dVertex
 10
8.619338026
 20
6.3508328992
 30
0.0
  0
VERTEX
  5
4CE
330
286
100
AcDbEntity
  8
0
  6
CONTINUOUS
 62
     7
100
AcDbVertex
100
AcDb2dVertex
 10
8.6363434177
 20
6.3661714772
 30
0.0
  0
VERTEX
  5
4CF
330
286
100
AcDbEntity
  8
0
  6
CONTINUOUS
 62
     7
100
AcDbVertex
100
AcDb2dVertex
 10
8.6530261999
 20
6.3825089693
 30
0.0
  0
VERTEX
  5
4D0
330
286
100
AcDbEntity
  8
0
  6
CONTINUOUS
 62
     7
100
AcDbVertex
100
AcDb2dVertex
 10
8.669324495
 20
6.3997847786
 30
0.0
  0
VERTEX
  5
4D1
330
286
100
AcDbEntity
  8
0
  6
CONTINUOUS
 62
     7
100
AcDbVertex
100
AcDb2dVertex
 10
8.6851778515
 20
6.417934828
 30
0.0
  0
VERTEX
  5
4D2
330
286
100
AcDbEntity
  8
0
  6
CONTINUOUS
 62
     7
100
AcDbVertex
100
AcDb2dVertex
 10
8.7005274682
 20
6.4368917977
 30
0.0
  0
VERTEX
  5
4D3
330
286
100
AcDbEntity
  8
0
  6
CONTINUOUS
 62
     7
100
AcDbVertex
100
AcDb2dVertex
 10
8.7153164123
 20
6.456585375
 30
0.0
  0
VERTEX
  5
4D4
330
286
100
AcDbEntity
  8
0
  6
CONTINUOUS
 62
     7
100
AcDbVertex
100
AcDb2dVertex
 10
8.7294898305
 20
6.4769425151
 30
0.0
  0
VERTEX
  5
4D5
330
286
100
AcDbEntity
  8
0
  6
CONTINUOUS
 62
     7
100
AcDbVertex
100
AcDb2dVertex
 10
8.7429951528
 20
6.4978877118
 30
0.0
  0
VERTEX
  5
4D6
330
286
100
AcDbEntity
  8
0
  6
CONTINUOUS
 62
     7
100
AcDbVertex
100
AcDb2dVertex
 10
8.7557822868
 20
6.519343278
 30
0.0
  0
VERTEX
  5
4D7
330
286
100
AcDbEntity
  8
0
  6
CONTINUOUS
 62
     7
100
AcDbVertex
100
AcDb2dVertex
 10
8.7678038043
 20
6.5412296335
 30
0.0
  0
VERTEX
  5
4D8
330
286
100
AcDbEntity
  8
0
  6
CONTINUOUS
 62
     7
100
AcDbVertex
100
AcDb2dVertex
 10
8.7790151166
 20
6.5634656004
 30
0.0
  0
VERTEX
  5
4D9
330
286
100
AcDbEntity
  8
0
  6
CONTINUOUS
 62
     7
100
AcDbVertex
100
AcDb2dVertex
 10
8.7893746401
 20
6.5859687038
 30
0.0
  0
VERTEX
  5
4DA
330
286
100
AcDbEntity
  8
0
  6
CONTINUOUS
 62
     7
100
AcDbVertex
100
AcDb2dVertex
 10
8.7988439508
 20
6.6086554782
 30
0.0
  0
VERTEX
  5
4DB
330
286
100
AcDbEntity
  8
0
  6
CONTINUOUS
 62
     7
100
AcDbVertex
100
AcDb2dVertex
 10
8.8073879261
 20
6.6314417767
 30
0.0
  0
VERTEX
  5
4DC
330
286
100
AcDbEntity
  8
0
  6
CONTINUOUS
 62
     7
100
AcDbVertex
100
AcDb2dVertex
 10
8.814974876
 20
6.6542430835
 30
0.0
  0
VERTEX
  5
4DD
330
286
100
AcDbEntity
  8
0
  6
CONTINUOUS
 62
     7
100
AcDbVertex
100
AcDb2dVertex
 10
8.82157666
 20
6.6769748269
 30
0.0
  0
VERTEX
  5
4DE
330
286
100
AcDbEntity
  8
0
  6
CONTINUOUS
 62
     7
100
AcDbVertex
100
AcDb2dVertex
 10
8.8271687915
 20
6.6995526932
 30
0.0
  0
VERTEX
  5
4DF
330
286
100
AcDbEntity
  8
0
  6
CONTINUOUS
 62
     7
100
AcDbVertex
100
AcDb2dVertex
 10
8.8317305289
 20
6.7218929396
 30
0.0
  0
VERTEX
  5
4E0
330
286
100
AcDbEntity
  8
0
  6
CONTINUOUS
 62
     7
100
AcDbVertex
100
AcDb2dVertex
 10
8.8352449525
 20
6.7439127046
 30
0.0
  0
VERTEX
  5
4E1
330
286
100
AcDbEntity
  8
0
  6
CONTINUOUS
 62
     7
100
AcDbVertex
100
AcDb2dVertex
 10
8.8376990269
 20
6.7655303153
 30
0.0
  0
VERTEX
  5
4E2
330
286
100
AcDbEntity
  8
0
  6
CONTINUOUS
 62
     7
100
AcDbVertex
100
AcDb2dVertex
 10
8.83908365
 20
6.7866655905
 30
0.0
  0
SEQEND
  5
4E3
330
286
100
AcDbEntity
  8
0
  6
CONTINUOUS
 62
     7
  0
LINE
  5
287
330
1F
100
AcDbEntity
  8
0
  6
CONTINUOUS
 62
     7
100
AcDbLine
 10
8.83908365
 20
6.7866655905
 30
0.0
 11
8.839085472
 21
6.7885004769
 31
0.0
  0
SPLINE
  5
288
330
1F
100
AcDbEntity
  8
0
  6
CONTINUOUS
 62
     7
100
AcDbSpline
210
0.0
220
0.0
230
1.0
 70
     8
 71
     3
 72
    32
 73
    28
 74
     0
 42
0.00000001
 43
0.00000001
 40
0.0
 40
0.0
 40
0.0
 40
0.0
 40
0.0525535987530997
 40
0.105164472295606
 40
0.1687484497647008
 40
0.2322936039022592
 40
0.2846024285296043
 40
0.3368524611122882
 40
0.3789225291412547
 40
0.4209541542435905
 40
0.4633335733729367
 40
0.505677141397201
 40
0.5421651785404845
 40
0.5786435659296431
 40
0.612003285778904
 40
0.6453612754151472
 40
0.6778012055363154
 40
0.7102424246051092
 40
0.742628133503397
 40
0.7750190003973843
 40
0.8080442093957587
 40
0.8410809161501961
 40
0.8760155253093102
 40
0.9109691120165739
 40
0.9500774178314758
 40
0.9892116404907054
 40
1.0
 40
1.0
 40
1.0
 40
1.0
 10
8.239627242255757
 20
6.700085735657544
 30
0.0
 10
8.246302618399
 20
6.704446330675734
 30
0.0
 10
8.259660645748882
 20
6.713172273044346
 30
0.0
 10
8.280161802968758
 20
6.731184162623721
 30
0.0
 10
8.301425285167626
 20
6.75248822425573
 30
0.0
 10
8.321502189556767
 20
6.776129981104409
 30
0.0
 10
8.338809577837475
 20
6.799803331544728
 30
0.0
 10
8.352067635359692
 20
6.821493135516334
 30
0.0
 10
8.362064765952596
 20
6.84216803617752
 30
0.0
 10
8.36886329068019
 20
6.86147775847013
 30
0.0
 10
8.37239570962704
 20
6.880478294808931
 30
0.0
 10
8.372238408655978
 20
6.897833384586131
 30
0.0
 10
8.368436469443822
 20
6.913010713890246
 30
0.0
 10
8.361930312186097
 20
6.925567817578981
 30
0.0
 10
8.352784387414701
 20
6.936001926753211
 30
0.0
 10
8.341738706697086
 20
6.94423784894132
 30
0.0
 10
8.328797979818873
 20
6.950346444235559
 30
0.0
 10
8.314494310464276
 20
6.954287440020587
 30
0.0
 10
8.29908168299779
 20
6.955892064829903
 30
0.0
 10
8.28297573027097
 20
6.955171715088386
 30
0.0
 10
8.266627537263052
 20
6.951961762303116
 30
0.0
 10
8.250206962068821
 20
6.946294602063553
 30
0.0
 10
8.234325170132864
 20
6.938097165915634
 30
0.0
 10
8.218712387646754
 20
6.927231030288929
 30
0.0
 10
8.20446404747566
 20
6.913635609534985
 30
0.0
 10
8.19406279943824
 20
6.902000466968191
 30
0.0
 10
8.189753864973223
 20
6.894496415201547
 30
0.0
 10
8.188822696510147
 20
6.89287477616129
 30
0.0
  0
SPLINE
  5
289
330
1F
100
AcDbEntity
  8
0
  6
CONTINUOUS
 62
     7
100
AcDbSpline
210
0.0
220
0.0
230
1.0
 70
     8
 71
     3
 72
     9
 73
     5
 74
     0
 42
0.00000001
 43
0.00000001
 40
0.0
 40
0.0
 40
0.0
 40
0.0
 40
0.4485202282322564
 40
1.0
 40
1.0
 40
1.0
 40
1.0
 10
8.155753554574357
 20
6.779875084681326
 30
0.0
 10
8.155784951192855
 20
6.774908024506112
 30
0.0
 10
8.15585495164439
 20
6.763833696387647
 30
0.0
 10
8.15748689775021
 20
6.752973806415323
 30
0.0
 10
8.158386883016188
 20
6.746984796771963
 30
0.0
  0
SPLINE
  5
28A
330
1F
100
AcDbEntity
  8
0
  6
CONTINUOUS
 62
     7
100
AcDbSpline
210
0.0
220
0.0
230
1.0
 70
     8
 71
     3
 72
    14
 73
    10
 74
     0
 42
0.00000001
 43
0.00000001
 40
0.0
 40
0.0
 40
0.0
 40
0.0
 40
0.1052088503549472
 40
0.2145513675661237
 40
0.426517192296296
 40
0.5908862036525969
 40
0.7598038887816354
 40
0.9900503601544381
 40
1.0
 40
1.0
 40
1.0
 40
1.0
 10
8.222140623001483
 20
6.335974280521853
 30
0.0
 10
8.223956538989077
 20
6.334908845033685
 30
0.0
 10
8.227659718495447
 20
6.33273611298435
 30
0.0
 10
8.235845263017435
 20
6.327660891677302
 30
0.0
 10
8.245566025273455
 20
6.321420368420125
 30
0.0
 10
8.256257057955612
 20
6.314517958481932
 30
0.0
 10
8.266864337187927
 20
6.307847141903149
 30
0.0
 10
8.274430150086067
 20
6.303142342291322
 30
0.0
 10
8.278414554502342
 20
6.300951835694165
 30
0.0
 10
8.278579600425608
 20
6.300861098372856
 30
0.0
  0
SPLINE
  5
28B
330
1F
100
AcDbEntity
  8
0
  6
CONTINUOUS
 62
     7
100
AcDbSpline
210
0.0
220
0.0
230
1.0
 70
     8
 71
     3
 72
    17
 73
    13
 74
     0
 42
0.00000001
 43
0.00000001
 40
0.0
 40
0.0
 40
0.0
 40
0.0
 40
0.043113192870894
 40
0.1656034639928494
 40
0.307427377711056
 40
0.4528642689057196
 40
0.5637192227072534
 40
0.6770906370924942
 40
0.7524005150261582
 40
0.8293888736899633
 40
0.9486893993389356
 40
1.0
 40
1.0
 40
1.0
 40
1.0
 10
8.223452468434088
 20
6.335196796347657
 30
0.0
 10
8.222482156283773
 20
6.335551817677549
 30
0.0
 10
8.21875505925044
 20
6.336915501462176
 30
0.0
 10
8.213570413390444
 20
6.339018616087119
 30
0.0
 10
8.208208648845538
 20
6.341435293405743
 30
0.0
 10
8.205305408932547
 20
6.343125345653633
 30
0.0
 10
8.204560314114808
 20
6.343986509429737
 30
0.0
 10
8.205542365959621
 20
6.34399166721547
 30
0.0
 10
8.207798003206435
 20
6.343263391329934
 30
0.0
 10
8.211396797217667
 20
6.34174591467025
 30
0.0
 10
8.216342282786556
 20
6.33927402712313
 30
0.0
 10
8.220799986718026
 20
6.336737216095813
 30
0.0
 10
8.222140623001483
 20
6.335974280521853
 30
0.0
  0
ARC
  5
28C
330
1F
100
AcDbEntity
  8
0
  6
CONTINUOUS
 62
     7
100
AcDbCircle
 10
8.2443413566
 20
6.5547585394
 30
0.0
 40
0.2034226068031909
100
AcDbArc
 50
176.8340997689
 51
235.4534160269
  0
LINE
  5
28D
330
1F
100
AcDbEntity
  8
0
  6
CONTINUOUS
 62
     7
100
AcDbLine
 10
8.2384210631
 20
6.4521565817
 30
0.0
 11
8.0412292114
 21
6.5659930146
 31
0.0
  0
LINE
  5
28E
330
1F
100
AcDbEntity
  8
0
  6
CONTINUOUS
 62
     7
100
AcDbLine
 10
8.2384210631
 20
6.4843038577
 30
0.0
 11
8.0412292114
 21
6.5981402906
 31
0.0
  0
POLYLINE
  5
28F
330
1F
100
AcDbEntity
  8
0
  6
CONTINUOUS
 62
     7
100
AcDb2dPolyline
 66
     1
 10
0.0
 20
0.0
 30
0.0
  0
VERTEX
  5
4E4
330
28F
100
AcDbEntity
  8
0
  6
CONTINUOUS
 62
     7
100
AcDbVertex
100
AcDb2dVertex
 10
8.4793687117
 20
7.1435753776
 30
0.0
  0
VERTEX
  5
4E5
330
28F
100
AcDbEntity
  8
0
  6
CONTINUOUS
 62
     7
100
AcDbVertex
100
AcDb2dVertex
 10
8.4629254271
 20
7.1431571689
 30
0.0
  0
VERTEX
  5
4E6
330
28F
100
AcDbEntity
  8
0
  6
CONTINUOUS
 62
     7
100
AcDbVertex
100
AcDb2dVertex
 10
8.4460362474
 20
7.1413144446
 30
0.0
  0
VERTEX
  5
4E7
330
28F
100
AcDbEntity
  8
0
  6
CONTINUOUS
 62
     7
100
AcDbVertex
100
AcDb2dVertex
 10
8.4287632263
 20
7.1380539751
 30
0.0
  0
VERTEX
  5
4E8
330
28F
100
AcDbEntity
  8
0
  6
CONTINUOUS
 62
     7
100
AcDbVertex
100
AcDb2dVertex
 10
8.4111698283
 20
7.1333877401
 30
0.0
  0
VERTEX
  5
4E9
330
28F
100
AcDbEntity
  8
0
  6
CONTINUOUS
 62
     7
100
AcDbVertex
100
AcDb2dVertex
 10
8.3933206945
 20
7.1273328841
 30
0.0
  0
VERTEX
  5
4EA
330
28F
100
AcDbEntity
  8
0
  6
CONTINUOUS
 62
     7
100
AcDbVertex
100
AcDb2dVertex
 10
8.3752814061
 20
7.1199116537
 30
0.0
  0
VERTEX
  5
4EB
330
28F
100
AcDbEntity
  8
0
  6
CONTINUOUS
 62
     7
100
AcDbVertex
100
AcDb2dVertex
 10
8.3571182426
 20
7.1111513159
 30
0.0
  0
VERTEX
  5
4EC
330
28F
100
AcDbEntity
  8
0
  6
CONTINUOUS
 62
     7
100
AcDbVertex
100
AcDb2dVertex
 10
8.3388979388
 20
7.1010840579
 30
0.0
  0
VERTEX
  5
4ED
330
28F
100
AcDbEntity
  8
0
  6
CONTINUOUS
 62
     7
100
AcDbVertex
100
AcDb2dVertex
 10
8.3206874394
 20
7.0897468684
 30
0.0
  0
VERTEX
  5
4EE
330
28F
100
AcDbEntity
  8
0
  6
CONTINUOUS
 62
     7
100
AcDbVertex
100
AcDb2dVertex
 10
8.3025536532
 20
7.0771814026
 30
0.0
  0
VERTEX
  5
4EF
330
28F
100
AcDbEntity
  8
0
  6
CONTINUOUS
 62
     7
100
AcDbVertex
100
AcDb2dVertex
 10
8.2845632069
 20
7.0634338281
 30
0.0
  0
VERTEX
  5
4F0
330
28F
100
AcDbEntity
  8
0
  6
CONTINUOUS
 62
     7
100
AcDbVertex
100
AcDb2dVertex
 10
8.2667822008
 20
7.048554656
 30
0.0
  0
VERTEX
  5
4F1
330
28F
100
AcDbEntity
  8
0
  6
CONTINUOUS
 62
     7
100
AcDbVertex
100
AcDb2dVertex
 10
8.2492759656
 20
7.0325985552
 30
0.0
  0
VERTEX
  5
4F2
330
28F
100
AcDbEntity
  8
0
  6
CONTINUOUS
 62
     7
100
AcDbVertex
100
AcDb2dVertex
 10
8.2321088222
 20
7.0156241513
 30
0.0
  0
VERTEX
  5
4F3
330
28F
100
AcDbEntity
  8
0
  6
CONTINUOUS
 62
     7
100
AcDbVertex
100
AcDb2dVertex
 10
8.215343846
 20
6.9976938113
 30
0.0
  0
VERTEX
  5
4F4
330
28F
100
AcDbEntity
  8
0
  6
CONTINUOUS
 62
     7
100
AcDbVertex
100
AcDb2dVertex
 10
8.1990426346
 20
6.9788734146
 30
0.0
  0
VERTEX
  5
4F5
330
28F
100
AcDbEntity
  8
0
  6
CONTINUOUS
 62
     7
100
AcDbVertex
100
AcDb2dVertex
 10
8.1832650814
 20
6.9592321107
 30
0.0
  0
VERTEX
  5
4F6
330
28F
100
AcDbEntity
  8
0
  6
CONTINUOUS
 62
     7
100
AcDbVertex
100
AcDb2dVertex
 10
8.1680691563
 20
6.9388420655
 30
0.0
  0
VERTEX
  5
4F7
330
28F
100
AcDbEntity
  8
0
  6
CONTINUOUS
 62
     7
100
AcDbVertex
100
AcDb2dVertex
 10
8.1535106917
 20
6.9177781956
 30
0.0
  0
VERTEX
  5
4F8
330
28F
100
AcDbEntity
  8
0
  6
CONTINUOUS
 62
     7
100
AcDbVertex
100
AcDb2dVertex
 10
8.1396431782
 20
6.8961178935
 30
0.0
  0
VERTEX
  5
4F9
330
28F
100
AcDbEntity
  8
0
  6
CONTINUOUS
 62
     7
100
AcDbVertex
100
AcDb2dVertex
 10
8.1265175674
 20
6.8739407432
 30
0.0
  0
VERTEX
  5
4FA
330
28F
100
AcDbEntity
  8
0
  6
CONTINUOUS
 62
     7
100
AcDbVertex
100
AcDb2dVertex
 10
8.1141820854
 20
6.8513282275
 30
0.0
  0
VERTEX
  5
4FB
330
28F
100
AcDbEntity
  8
0
  6
CONTINUOUS
 62
     7
100
AcDbVertex
100
AcDb2dVertex
 10
8.1026820549
 20
6.828363429
 30
0.0
  0
VERTEX
  5
4FC
330
28F
100
AcDbEntity
  8
0
  6
CONTINUOUS
 62
     7
100
AcDbVertex
100
AcDb2dVertex
 10
8.092059729
 20
6.8051307245
 30
0.0
  0
VERTEX
  5
4FD
330
28F
100
AcDbEntity
  8
0
  6
CONTINUOUS
 62
     7
100
AcDbVertex
100
AcDb2dVertex
 10
8.0823541363
 20
6.7817154752
 30
0.0
  0
VERTEX
  5
4FE
330
28F
100
AcDbEntity
  8
0
  6
CONTINUOUS
 62
     7
100
AcDbVertex
100
AcDb2dVertex
 10
8.0736009368
 20
6.7582037131
 30
0.0
  0
VERTEX
  5
4FF
330
28F
100
AcDbEntity
  8
0
  6
CONTINUOUS
 62
     7
100
AcDbVertex
100
AcDb2dVertex
 10
8.0658322913
 20
6.7346818245
 30
0.0
  0
VERTEX
  5
500
330
28F
100
AcDbEntity
  8
0
  6
CONTINUOUS
 62
     7
100
AcDbVertex
100
AcDb2dVertex
 10
8.0590767433
 20
6.7112362334
 30
0.0
  0
VERTEX
  5
501
330
28F
100
AcDbEntity
  8
0
  6
CONTINUOUS
 62
     7
100
AcDbVertex
100
AcDb2dVertex
 10
8.0533591139
 20
6.6879530829
 30
0.0
  0
VERTEX
  5
502
330
28F
100
AcDbEntity
  8
0
  6
CONTINUOUS
 62
     7
100
AcDbVertex
100
AcDb2dVertex
 10
8.0487004107
 20
6.6649179197
 30
0.0
  0
VERTEX
  5
503
330
28F
100
AcDbEntity
  8
0
  6
CONTINUOUS
 62
     7
100
AcDbVertex
100
AcDb2dVertex
 10
8.0451177506
 20
6.6422153792
 30
0.0
  0
VERTEX
  5
504
330
28F
100
AcDbEntity
  8
0
  6
CONTINUOUS
 62
     7
100
AcDbVertex
100
AcDb2dVertex
 10
8.0426242971
 20
6.6199288746
 30
0.0
  0
VERTEX
  5
505
330
28F
100
AcDbEntity
  8
0
  6
CONTINUOUS
 62
     7
100
AcDbVertex
100
AcDb2dVertex
 10
8.0412292114
 20
6.5981402906
 30
0.0
  0
SEQEND
  5
506
330
28F
100
AcDbEntity
  8
0
  6
CONTINUOUS
 62
     7
  0
LINE
  5
290
330
1F
100
AcDbEntity
  8
0
  6
CONTINUOUS
 62
     7
100
AcDbLine
 10
8.4422502455
 20
7.165003412
 30
0.0
 11
8.4793687117
 21
7.1435753776
 31
0.0
  0
POLYLINE
  5
291
330
1F
100
AcDbEntity
  8
0
  6
CONTINUOUS
 62
     7
100
AcDb2dPolyline
 66
     1
 10
0.0
 20
0.0
 30
0.0
  0
VERTEX
  5
507
330
291
100
AcDbEntity
  8
0
  6
CONTINUOUS
 62
     7
100
AcDbVertex
100
AcDb2dVertex
 10
8.11123746
 20
6.3993259923
 30
0.0
  0
VERTEX
  5
508
330
291
100
AcDbEntity
  8
0
  6
CONTINUOUS
 62
     7
100
AcDbVertex
100
AcDb2dVertex
 10
8.1083542237
 20
6.4004899266
 30
0.0
  0
VERTEX
  5
509
330
291
100
AcDbEntity
  8
0
  6
CONTINUOUS
 62
     7
100
AcDbVertex
100
AcDb2dVertex
 10
8.0951850326
 20
6.406777711
 30
0.0
  0
VERTEX
  5
50A
330
291
100
AcDbEntity
  8
0
  6
CONTINUOUS
 62
     7
100
AcDbVertex
100
AcDb2dVertex
 10
8.0827522629
 20
6.4143679147
 30
0.0
  0
VERTEX
  5
50B
330
291
100
AcDbEntity
  8
0
  6
CONTINUOUS
 62
     7
100
AcDbVertex
100
AcDb2dVertex
 10
8.0710996671
 20
6.4232338271
 30
0.0
  0
VERTEX
  5
50C
330
291
100
AcDbEntity
  8
0
  6
CONTINUOUS
 62
     7
100
AcDbVertex
100
AcDb2dVertex
 10
8.0602682521
 20
6.4333442478
 30
0.0
  0
VERTEX
  5
50D
330
291
100
AcDbEntity
  8
0
  6
CONTINUOUS
 62
     7
100
AcDbVertex
100
AcDb2dVertex
 10
8.0502961349
 20
6.4446635971
 30
0.0
  0
VERTEX
  5
50E
330
291
100
AcDbEntity
  8
0
  6
CONTINUOUS
 62
     7
100
AcDbVertex
100
AcDb2dVertex
 10
8.0412184087
 20
6.4571520409
 30
0.0
  0
VERTEX
  5
50F
330
291
100
AcDbEntity
  8
0
  6
CONTINUOUS
 62
     7
100
AcDbVertex
100
AcDb2dVertex
 10
8.033067019
 20
6.4707656306
 30
0.0
  0
VERTEX
  5
510
330
291
100
AcDbEntity
  8
0
  6
CONTINUOUS
 62
     7
100
AcDbVertex
100
AcDb2dVertex
 10
8.0258706516
 20
6.4854564586
 30
0.0
  0
VERTEX
  5
511
330
291
100
AcDbEntity
  8
0
  6
CONTINUOUS
 62
     7
100
AcDbVertex
100
AcDb2dVertex
 10
8.0196546313
 20
6.501172826
 30
0.0
  0
VERTEX
  5
512
330
291
100
AcDbEntity
  8
0
  6
CONTINUOUS
 62
     7
100
AcDbVertex
100
AcDb2dVertex
 10
8.0144408332
 20
6.517859425
 30
0.0
  0
VERTEX
  5
513
330
291
100
AcDbEntity
  8
0
  6
CONTINUOUS
 62
     7
100
AcDbVertex
100
AcDb2dVertex
 10
8.0102476051
 20
6.5354575335
 30
0.0
  0
VERTEX
  5
514
330
291
100
AcDbEntity
  8
0
  6
CONTINUOUS
 62
     7
100
AcDbVertex
100
AcDb2dVertex
 10
8.0070897035
 20
6.5539052215
 30
0.0
  0
VERTEX
  5
515
330
291
100
AcDbEntity
  8
0
  6
CONTINUOUS
 62
     7
100
AcDbVertex
100
AcDb2dVertex
 10
8.0049782416
 20
6.5731375694
 30
0.0
  0
VERTEX
  5
516
330
291
100
AcDbEntity
  8
0
  6
CONTINUOUS
 62
     7
100
AcDbVertex
100
AcDb2dVertex
 10
8.0039206497
 20
6.5930868964
 30
0.0
  0
VERTEX
  5
517
330
291
100
AcDbEntity
  8
0
  6
CONTINUOUS
 62
     7
100
AcDbVertex
100
AcDb2dVertex
 10
8.0039206497
 20
6.6136829982
 30
0.0
  0
VERTEX
  5
518
330
291
100
AcDbEntity
  8
0
  6
CONTINUOUS
 62
     7
100
AcDbVertex
100
AcDb2dVertex
 10
8.0049782416
 20
6.6348533947
 30
0.0
  0
VERTEX
  5
519
330
291
100
AcDbEntity
  8
0
  6
CONTINUOUS
 62
     7
100
AcDbVertex
100
AcDb2dVertex
 10
8.0070897035
 20
6.6565235847
 30
0.0
  0
VERTEX
  5
51A
330
291
100
AcDbEntity
  8
0
  6
CONTINUOUS
 62
     7
100
AcDbVertex
100
AcDb2dVertex
 10
8.0102476051
 20
6.6786173082
 30
0.0
  0
VERTEX
  5
51B
330
291
100
AcDbEntity
  8
0
  6
CONTINUOUS
 62
     7
100
AcDbVertex
100
AcDb2dVertex
 10
8.0144408332
 20
6.7010568148
 30
0.0
  0
VERTEX
  5
51C
330
291
100
AcDbEntity
  8
0
  6
CONTINUOUS
 62
     7
100
AcDbVertex
100
AcDb2dVertex
 10
8.0196546313
 20
6.723763137
 30
0.0
  0
VERTEX
  5
51D
330
291
100
AcDbEntity
  8
0
  6
CONTINUOUS
 62
     7
100
AcDbVertex
100
AcDb2dVertex
 10
8.0258706516
 20
6.7466563686
 30
0.0
  0
VERTEX
  5
51E
330
291
100
AcDbEntity
  8
0
  6
CONTINUOUS
 62
     7
100
AcDbVertex
100
AcDb2dVertex
 10
8.033067019
 20
6.7696559455
 30
0.0
  0
VERTEX
  5
51F
330
291
100
AcDbEntity
  8
0
  6
CONTINUOUS
 62
     7
100
AcDbVertex
100
AcDb2dVertex
 10
8.0412184087
 20
6.7926809295
 30
0.0
  0
VERTEX
  5
520
330
291
100
AcDbEntity
  8
0
  6
CONTINUOUS
 62
     7
100
AcDbVertex
100
AcDb2dVertex
 10
8.0502961349
 20
6.8156502929
 30
0.0
  0
VERTEX
  5
521
330
291
100
AcDbEntity
  8
0
  6
CONTINUOUS
 62
     7
100
AcDbVertex
100
AcDb2dVertex
 10
8.0602682521
 20
6.8384832036
 30
0.0
  0
VERTEX
  5
522
330
291
100
AcDbEntity
  8
0
  6
CONTINUOUS
 62
     7
100
AcDbVertex
100
AcDb2dVertex
 10
8.0710996671
 20
6.8610993099
 30
0.0
  0
VERTEX
  5
523
330
291
100
AcDbEntity
  8
0
  6
CONTINUOUS
 62
     7
100
AcDbVertex
100
AcDb2dVertex
 10
8.0827522629
 20
6.883419023
 30
0.0
  0
VERTEX
  5
524
330
291
100
AcDbEntity
  8
0
  6
CONTINUOUS
 62
     7
100
AcDbVertex
100
AcDb2dVertex
 10
8.0951850326
 20
6.9053637971
 30
0.0
  0
VERTEX
  5
525
330
291
100
AcDbEntity
  8
0
  6
CONTINUOUS
 62
     7
100
AcDbVertex
100
AcDb2dVertex
 10
8.1083542237
 20
6.9268564059
 30
0.0
  0
VERTEX
  5
526
330
291
100
AcDbEntity
  8
0
  6
CONTINUOUS
 62
     7
100
AcDbVertex
100
AcDb2dVertex
 10
8.1222134924
 20
6.9478212144
 30
0.0
  0
VERTEX
  5
527
330
291
100
AcDbEntity
  8
0
  6
CONTINUOUS
 62
     7
100
AcDbVertex
100
AcDb2dVertex
 10
8.1367140661
 20
6.9681844447
 30
0.0
  0
VERTEX
  5
528
330
291
100
AcDbEntity
  8
0
  6
CONTINUOUS
 62
     7
100
AcDbVertex
100
AcDb2dVertex
 10
8.1518049156
 20
6.9878744363
 30
0.0
  0
VERTEX
  5
529
330
291
100
AcDbEntity
  8
0
  6
CONTINUOUS
 62
     7
100
AcDbVertex
100
AcDb2dVertex
 10
8.1674329344
 20
7.0068218977
 30
0.0
  0
VERTEX
  5
52A
330
291
100
AcDbEntity
  8
0
  6
CONTINUOUS
 62
     7
100
AcDbVertex
100
AcDb2dVertex
 10
8.1835431255
 20
7.0249601505
 30
0.0
  0
VERTEX
  5
52B
330
291
100
AcDbEntity
  8
0
  6
CONTINUOUS
 62
     7
100
AcDbVertex
100
AcDb2dVertex
 10
8.2000787953
 20
7.042225364
 30
0.0
  0
VERTEX
  5
52C
330
291
100
AcDbEntity
  8
0
  6
CONTINUOUS
 62
     7
100
AcDbVertex
100
AcDb2dVertex
 10
8.2169817527
 20
7.0585567797
 30
0.0
  0
VERTEX
  5
52D
330
291
100
AcDbEntity
  8
0
  6
CONTINUOUS
 62
     7
100
AcDbVertex
100
AcDb2dVertex
 10
8.2341925142
 20
7.0738969256
 30
0.0
  0
VERTEX
  5
52E
330
291
100
AcDbEntity
  8
0
  6
CONTINUOUS
 62
     7
100
AcDbVertex
100
AcDb2dVertex
 10
8.2516505131
 20
7.0881918177
 30
0.0
  0
VERTEX
  5
52F
330
291
100
AcDbEntity
  8
0
  6
CONTINUOUS
 62
     7
100
AcDbVertex
100
AcDb2dVertex
 10
8.2692943124
 20
7.1013911505
 30
0.0
  0
VERTEX
  5
530
330
291
100
AcDbEntity
  8
0
  6
CONTINUOUS
 62
     7
100
AcDbVertex
100
AcDb2dVertex
 10
8.2870618217
 20
7.1134484742
 30
0.0
  0
VERTEX
  5
531
330
291
100
AcDbEntity
  8
0
  6
CONTINUOUS
 62
     7
100
AcDbVertex
100
AcDb2dVertex
 10
8.3048905148
 20
7.1243213574
 30
0.0
  0
VERTEX
  5
532
330
291
100
AcDbEntity
  8
0
  6
CONTINUOUS
 62
     7
100
AcDbVertex
100
AcDb2dVertex
 10
8.3227176504
 20
7.1339715371
 30
0.0
  0
VERTEX
  5
533
330
291
100
AcDbEntity
  8
0
  6
CONTINUOUS
 62
     7
100
AcDbVertex
100
AcDb2dVertex
 10
8.3404804927
 20
7.1423650533
 30
0.0
  0
VERTEX
  5
534
330
291
100
AcDbEntity
  8
0
  6
CONTINUOUS
 62
     7
100
AcDbVertex
100
AcDb2dVertex
 10
8.3581165321
 20
7.1494723681
 30
0.0
  0
VERTEX
  5
535
330
291
100
AcDbEntity
  8
0
  6
CONTINUOUS
 62
     7
100
AcDbVertex
100
AcDb2dVertex
 10
8.3755637052
 20
7.1552684701
 30
0.0
  0
VERTEX
  5
536
330
291
100
AcDbEntity
  8
0
  6
CONTINUOUS
 62
     7
100
AcDbVertex
100
AcDb2dVertex
 10
8.3927606134
 20
7.159732962
 30
0.0
  0
VERTEX
  5
537
330
291
100
AcDbEntity
  8
0
  6
CONTINUOUS
 62
     7
100
AcDbVertex
100
AcDb2dVertex
 10
8.4096467385
 20
7.1628501327
 30
0.0
  0
VERTEX
  5
538
330
291
100
AcDbEntity
  8
0
  6
CONTINUOUS
 62
     7
100
AcDbVertex
100
AcDb2dVertex
 10
8.4261626564
 20
7.1646090127
 30
0.0
  0
VERTEX
  5
539
330
291
100
AcDbEntity
  8
0
  6
CONTINUOUS
 62
     7
100
AcDbVertex
100
AcDb2dVertex
 10
8.4422502455
 20
7.165003412
 30
0.0
  0
SEQEND
  5
53A
330
291
100
AcDbEntity
  8
0
  6
CONTINUOUS
 62
     7
  0
LINE
  5
292
330
1F
100
AcDbEntity
  8
0
  6
CONTINUOUS
 62
     7
100
AcDbLine
 10
8.2596460687
 20
6.484310671
 30
0.0
 11
8.4562766372
 21
6.597823082
 31
0.0
  0
LINE
  5
293
330
1F
100
AcDbEntity
  8
0
  6
CONTINUOUS
 62
     7
100
AcDbLine
 10
8.83908365
 20
6.8188128665
 30
0.0
 11
8.6424530815
 21
6.7053004555
 31
0.0
  0
POLYLINE
  5
294
330
1F
100
AcDbEntity
  8
0
  6
CONTINUOUS
 62
     7
100
AcDb2dPolyline
 66
     1
 10
0.0
 20
0.0
 30
0.0
  0
VERTEX
  5
53B
330
294
100
AcDbEntity
  8
0
  6
CONTINUOUS
 62
     7
100
AcDbVertex
100
AcDb2dVertex
 10
8.4562766372
 20
6.597823082
 30
0.0
  0
VERTEX
  5
53C
330
294
100
AcDbEntity
  8
0
  6
CONTINUOUS
 62
     7
100
AcDbVertex
100
AcDb2dVertex
 10
8.4583531955
 20
6.6106636014
 30
0.0
  0
VERTEX
  5
53D
330
294
100
AcDbEntity
  8
0
  6
CONTINUOUS
 62
     7
100
AcDbVertex
100
AcDb2dVertex
 10
8.4615181831
 20
6.623801003
 30
0.0
  0
VERTEX
  5
53E
330
294
100
AcDbEntity
  8
0
  6
CONTINUOUS
 62
     7
100
AcDbVertex
100
AcDb2dVertex
 10
8.4657337491
 20
6.6370781736
 30
0.0
  0
VERTEX
  5
53F
330
294
100
AcDbEntity
  8
0
  6
CONTINUOUS
 62
     7
100
AcDbVertex
100
AcDb2dVertex
 10
8.4709494785
 20
6.6503363285
 30
0.0
  0
VERTEX
  5
540
330
294
100
AcDbEntity
  8
0
  6
CONTINUOUS
 62
     7
100
AcDbVertex
100
AcDb2dVertex
 10
8.4771029954
 20
6.6634169105
 30
0.0
  0
VERTEX
  5
541
330
294
100
AcDbEntity
  8
0
  6
CONTINUOUS
 62
     7
100
AcDbVertex
100
AcDb2dVertex
 10
8.4841207083
 20
6.6761634858
 30
0.0
  0
VERTEX
  5
542
330
294
100
AcDbEntity
  8
0
  6
CONTINUOUS
 62
     7
100
AcDbVertex
100
AcDb2dVertex
 10
8.4919186909
 20
6.6884236153
 30
0.0
  0
VERTEX
  5
543
330
294
100
AcDbEntity
  8
0
  6
CONTINUOUS
 62
     7
100
AcDbVertex
100
AcDb2dVertex
 10
8.5004036853
 20
6.7000506773
 30
0.0
  0
VERTEX
  5
544
330
294
100
AcDbEntity
  8
0
  6
CONTINUOUS
 62
     7
100
AcDbVertex
100
AcDb2dVertex
 10
8.5094742175
 20
6.710905621
 30
0.0
  0
VERTEX
  5
545
330
294
100
AcDbEntity
  8
0
  6
CONTINUOUS
 62
     7
100
AcDbVertex
100
AcDb2dVertex
 10
8.519021811
 20
6.7208586299
 30
0.0
  0
VERTEX
  5
546
330
294
100
AcDbEntity
  8
0
  6
CONTINUOUS
 62
     7
100
AcDbVertex
100
AcDb2dVertex
 10
8.5289322839
 20
6.7297906735
 30
0.0
  0
VERTEX
  5
547
330
294
100
AcDbEntity
  8
0
  6
CONTINUOUS
 62
     7
100
AcDbVertex
100
AcDb2dVertex
 10
8.5390871147
 20
6.7375949315
 30
0.0
  0
VERTEX
  5
548
330
294
100
AcDbEntity
  8
0
  6
CONTINUOUS
 62
     7
100
AcDbVertex
100
AcDb2dVertex
 10
8.5493648593
 20
6.7441780711
 30
0.0
  0
VERTEX
  5
549
330
294
100
AcDbEntity
  8
0
  6
CONTINUOUS
 62
     7
100
AcDbVertex
100
AcDb2dVertex
 10
8.5596426039
 20
6.7494613629
 30
0.0
  0
VERTEX
  5
54A
330
294
100
AcDbEntity
  8
0
  6
CONTINUOUS
 62
     7
100
AcDbVertex
100
AcDb2dVertex
 10
8.5697974347
 20
6.7533816229
 30
0.0
  0
VERTEX
  5
54B
330
294
100
AcDbEntity
  8
0
  6
CONTINUOUS
 62
     7
100
AcDbVertex
100
AcDb2dVertex
 10
8.5797079076
 20
6.7558919677
 30
0.0
  0
VERTEX
  5
54C
330
294
100
AcDbEntity
  8
0
  6
CONTINUOUS
 62
     7
100
AcDbVertex
100
AcDb2dVertex
 10
8.5892555011
 20
6.7569623757
 30
0.0
  0
VERTEX
  5
54D
330
294
100
AcDbEntity
  8
0
  6
CONTINUOUS
 62
     7
100
AcDbVertex
100
AcDb2dVertex
 10
8.5983260333
 20
6.7565800455
 30
0.0
  0
VERTEX
  5
54E
330
294
100
AcDbEntity
  8
0
  6
CONTINUOUS
 62
     7
100
AcDbVertex
100
AcDb2dVertex
 10
8.6068110277
 20
6.7547495495
 30
0.0
  0
VERTEX
  5
54F
330
294
100
AcDbEntity
  8
0
  6
CONTINUOUS
 62
     7
100
AcDbVertex
100
AcDb2dVertex
 10
8.6146090103
 20
6.7514927791
 30
0.0
  0
VERTEX
  5
550
330
294
100
AcDbEntity
  8
0
  6
CONTINUOUS
 62
     7
100
AcDbVertex
100
AcDb2dVertex
 10
8.6216267233
 20
6.7468486827
 30
0.0
  0
VERTEX
  5
551
330
294
100
AcDbEntity
  8
0
  6
CONTINUOUS
 62
     7
100
AcDbVertex
100
AcDb2dVertex
 10
8.6277802401
 20
6.7408728001
 30
0.0
  0
VERTEX
  5
552
330
294
100
AcDbEntity
  8
0
  6
CONTINUOUS
 62
     7
100
AcDbVertex
100
AcDb2dVertex
 10
8.6329959696
 20
6.7336365982
 30
0.0
  0
VERTEX
  5
553
330
294
100
AcDbEntity
  8
0
  6
CONTINUOUS
 62
     7
100
AcDbVertex
100
AcDb2dVertex
 10
8.6372115355
 20
6.7252266164
 30
0.0
  0
VERTEX
  5
554
330
294
100
AcDbEntity
  8
0
  6
CONTINUOUS
 62
     7
100
AcDbVertex
100
AcDb2dVertex
 10
8.6403765231
 20
6.7157434317
 30
0.0
  0
VERTEX
  5
555
330
294
100
AcDbEntity
  8
0
  6
CONTINUOUS
 62
     7
100
AcDbVertex
100
AcDb2dVertex
 10
8.6424530815
 20
6.7053004555
 30
0.0
  0
SEQEND
  5
556
330
294
100
AcDbEntity
  8
0
  6
CONTINUOUS
 62
     7
  0
LINE
  5
295
330
1F
100
AcDbEntity
  8
0
  6
CONTINUOUS
 62
     7
100
AcDbLine
 10
8.4422502455
 20
7.140715664
 30
0.0
 11
8.4422502455
 21
7.165003412
 31
0.0
  0
SPLINE
  5
296
330
1F
100
AcDbEntity
  8
0
  6
CONTINUOUS
 62
     7
100
AcDbSpline
210
0.0
220
0.0
230
1.0
 70
     8
 71
     3
 72
     8
 73
     4
 74
     0
 42
0.00000001
 43
0.00000001
 40
0.0
 40
0.0
 40
0.0
 40
0.0
 40
1.0
 40
1.0
 40
1.0
 40
1.0
 10
8.456276637151051
 20
6.565675805899014
 30
0.0
 10
8.45631597253226
 20
6.569783494880219
 30
0.0
 10
8.456359719219003
 20
6.573891215003507
 30
0.0
 10
8.456409829789747
 20
6.577998818050014
 30
0.0
  0
LINE
  5
297
330
1F
100
AcDbEntity
  8
0
  6
CONTINUOUS
 62
     7
100
AcDbLine
 10
8.2596460687
 20
6.4521633949
 30
0.0
 11
8.4562766372
 21
6.5656758059
 31
0.0
  0
LINE
  5
298
330
1F
100
AcDbEntity
  8
0
  6
CONTINUOUS
 62
     7
100
AcDbLine
 10
8.4391730569
 20
6.5879493952
 30
0.0
 11
8.4564098298
 21
6.5779988181
 31
0.0
  0
LINE
  5
299
330
1F
100
AcDbEntity
  8
0
  6
CONTINUOUS
 62
     7
100
AcDbLine
 10
8.069072586
 20
6.5820666526
 30
0.0
 11
8.0412292114
 21
6.5659930146
 31
0.0
  0
POLYLINE
  5
29A
330
1F
100
AcDbEntity
  8
0
  6
CONTINUOUS
 62
     7
100
AcDb2dPolyline
 66
     1
 10
0.0
 20
0.0
 30
0.0
  0
VERTEX
  5
557
330
29A
100
AcDbEntity
  8
0
  6
CONTINUOUS
 62
     7
100
AcDbVertex
100
AcDb2dVertex
 10
8.6424530815
 20
6.6731531795
 30
0.0
  0
VERTEX
  5
558
330
29A
100
AcDbEntity
  8
0
  6
CONTINUOUS
 62
     7
100
AcDbVertex
100
AcDb2dVertex
 10
8.6403765231
 20
6.6603126601
 30
0.0
  0
VERTEX
  5
559
330
29A
100
AcDbEntity
  8
0
  6
CONTINUOUS
 62
     7
100
AcDbVertex
100
AcDb2dVertex
 10
8.6372115355
 20
6.6471752585
 30
0.0
  0
VERTEX
  5
55A
330
29A
100
AcDbEntity
  8
0
  6
CONTINUOUS
 62
     7
100
AcDbVertex
100
AcDb2dVertex
 10
8.6329959696
 20
6.6338980879
 30
0.0
  0
VERTEX
  5
55B
330
29A
100
AcDbEntity
  8
0
  6
CONTINUOUS
 62
     7
100
AcDbVertex
100
AcDb2dVertex
 10
8.6277802401
 20
6.6206399329
 30
0.0
  0
VERTEX
  5
55C
330
29A
100
AcDbEntity
  8
0
  6
CONTINUOUS
 62
     7
100
AcDbVertex
100
AcDb2dVertex
 10
8.6216267233
 20
6.607559351
 30
0.0
  0
VERTEX
  5
55D
330
29A
100
AcDbEntity
  8
0
  6
CONTINUOUS
 62
     7
100
AcDbVertex
100
AcDb2dVertex
 10
8.6146090103
 20
6.5948127757
 30
0.0
  0
VERTEX
  5
55E
330
29A
100
AcDbEntity
  8
0
  6
CONTINUOUS
 62
     7
100
AcDbVertex
100
AcDb2dVertex
 10
8.6068110277
 20
6.5825526462
 30
0.0
  0
VERTEX
  5
55F
330
29A
100
AcDbEntity
  8
0
  6
CONTINUOUS
 62
     7
100
AcDbVertex
100
AcDb2dVertex
 10
8.5983260333
 20
6.5709255842
 30
0.0
  0
VERTEX
  5
560
330
29A
100
AcDbEntity
  8
0
  6
CONTINUOUS
 62
     7
100
AcDbVertex
100
AcDb2dVertex
 10
8.5892555011
 20
6.5600706404
 30
0.0
  0
VERTEX
  5
561
330
29A
100
AcDbEntity
  8
0
  6
CONTINUOUS
 62
     7
100
AcDbVertex
100
AcDb2dVertex
 10
8.5797079076
 20
6.5501176316
 30
0.0
  0
VERTEX
  5
562
330
29A
100
AcDbEntity
  8
0
  6
CONTINUOUS
 62
     7
100
AcDbVertex
100
AcDb2dVertex
 10
8.5697974347
 20
6.541185588
 30
0.0
  0
VERTEX
  5
563
330
29A
100
AcDbEntity
  8
0
  6
CONTINUOUS
 62
     7
100
AcDbVertex
100
AcDb2dVertex
 10
8.5596426039
 20
6.5333813299
 30
0.0
  0
VERTEX
  5
564
330
29A
100
AcDbEntity
  8
0
  6
CONTINUOUS
 62
     7
100
AcDbVertex
100
AcDb2dVertex
 10
8.5493648593
 20
6.5267981904
 30
0.0
  0
VERTEX
  5
565
330
29A
100
AcDbEntity
  8
0
  6
CONTINUOUS
 62
     7
100
AcDbVertex
100
AcDb2dVertex
 10
8.5390871147
 20
6.5215148986
 30
0.0
  0
VERTEX
  5
566
330
29A
100
AcDbEntity
  8
0
  6
CONTINUOUS
 62
     7
100
AcDbVertex
100
AcDb2dVertex
 10
8.5289322839
 20
6.5175946386
 30
0.0
  0
VERTEX
  5
567
330
29A
100
AcDbEntity
  8
0
  6
CONTINUOUS
 62
     7
100
AcDbVertex
100
AcDb2dVertex
 10
8.519021811
 20
6.5150842937
 30
0.0
  0
VERTEX
  5
568
330
29A
100
AcDbEntity
  8
0
  6
CONTINUOUS
 62
     7
100
AcDbVertex
100
AcDb2dVertex
 10
8.5094742175
 20
6.5140138858
 30
0.0
  0
VERTEX
  5
569
330
29A
100
AcDbEntity
  8
0
  6
CONTINUOUS
 62
     7
100
AcDbVertex
100
AcDb2dVertex
 10
8.5004036853
 20
6.5143962159
 30
0.0
  0
VERTEX
  5
56A
330
29A
100
AcDbEntity
  8
0
  6
CONTINUOUS
 62
     7
100
AcDbVertex
100
AcDb2dVertex
 10
8.4919186909
 20
6.5162267119
 30
0.0
  0
VERTEX
  5
56B
330
29A
100
AcDbEntity
  8
0
  6
CONTINUOUS
 62
     7
100
AcDbVertex
100
AcDb2dVertex
 10
8.4841207083
 20
6.5194834823
 30
0.0
  0
VERTEX
  5
56C
330
29A
100
AcDbEntity
  8
0
  6
CONTINUOUS
 62
     7
100
AcDbVertex
100
AcDb2dVertex
 10
8.4771029954
 20
6.5241275788
 30
0.0
  0
VERTEX
  5
56D
330
29A
100
AcDbEntity
  8
0
  6
CONTINUOUS
 62
     7
100
AcDbVertex
100
AcDb2dVertex
 10
8.4709494785
 20
6.5301034614
 30
0.0
  0
VERTEX
  5
56E
330
29A
100
AcDbEntity
  8
0
  6
CONTINUOUS
 62
     7
100
AcDbVertex
100
AcDb2dVertex
 10
8.4657337491
 20
6.5373396633
 30
0.0
  0
VERTEX
  5
56F
330
29A
100
AcDbEntity
  8
0
  6
CONTINUOUS
 62
     7
100
AcDbVertex
100
AcDb2dVertex
 10
8.4615181831
 20
6.545749645
 30
0.0
  0
VERTEX
  5
570
330
29A
100
AcDbEntity
  8
0
  6
CONTINUOUS
 62
     7
100
AcDbVertex
100
AcDb2dVertex
 10
8.4583531955
 20
6.5552328298
 30
0.0
  0
VERTEX
  5
571
330
29A
100
AcDbEntity
  8
0
  6
CONTINUOUS
 62
     7
100
AcDbVertex
100
AcDb2dVertex
 10
8.4562766372
 20
6.5656758059
 30
0.0
  0
SEQEND
  5
572
330
29A
100
AcDbEntity
  8
0
  6
CONTINUOUS
 62
     7
  0
LINE
  5
29B
330
1F
100
AcDbEntity
  8
0
  6
CONTINUOUS
 62
     7
100
AcDbLine
 10
8.6424530815
 20
6.6731531795
 30
0.0
 11
8.83908365
 21
6.7866655905
 31
0.0
  0
SPLINE
  5
29C
330
1F
100
AcDbEntity
  8
0
  6
CONTINUOUS
 62
     7
100
AcDbSpline
210
0.0
220
0.0
230
1.0
 70
     8
 71
     3
 72
     8
 73
     4
 74
     0
 42
0.00000001
 43
0.00000001
 40
0.0
 40
0.0
 40
0.0
 40
0.0
 40
1.0
 40
1.0
 40
1.0
 40
1.0
 10
8.62110668540669
 20
6.705223565075297
 30
0.0
 10
8.628222086970824
 20
6.705252493509247
 30
0.0
 10
8.635337591811819
 20
6.705277747740118
 30
0.0
 10
8.642453081480983
 20
6.705300455548957
 30
0.0
  0
ARC
  5
29D
330
1F
100
AcDbEntity
  8
0
  6
CONTINUOUS
 62
     7
100
AcDbCircle
 10
8.5724177981
 20
6.7011699429
 30
0.0
 40
0.0488573392214361
100
AcDbArc
 50
4.7592181331
 51
125.7273877335
  0
LINE
  5
29E
330
1F
100
AcDbEntity
  8
0
  6
CONTINUOUS
 62
     7
100
AcDbLine
 10
8.6211066854
 20
6.7052235651
 30
0.0
 11
8.5526642983
 21
6.7447345141
 31
0.0
  0
POLYLINE
  5
29F
330
1F
100
AcDbEntity
  8
0
  6
CONTINUOUS
 62
     7
100
AcDb2dPolyline
 66
     1
 10
0.0
 20
0.0
 30
0.0
  0
VERTEX
  5
573
330
29F
100
AcDbEntity
  8
0
  6
CONTINUOUS
 62
     7
100
AcDbVertex
100
AcDb2dVertex
 10
8.4564098298
 20
6.5779988181
 30
0.0
  0
VERTEX
  5
574
330
29F
100
AcDbEntity
  8
0
  6
CONTINUOUS
 62
     7
100
AcDbVertex
100
AcDb2dVertex
 10
8.4584876711
 20
6.5686460539
 30
0.0
  0
VERTEX
  5
575
330
29F
100
AcDbEntity
  8
0
  6
CONTINUOUS
 62
     7
100
AcDbVertex
100
AcDb2dVertex
 10
8.4615761864
 20
6.560211982
 30
0.0
  0
VERTEX
  5
576
330
29F
100
AcDbEntity
  8
0
  6
CONTINUOUS
 62
     7
100
AcDbVertex
100
AcDb2dVertex
 10
8.4656364888
 20
6.5528027946
 30
0.0
  0
VERTEX
  5
577
330
29F
100
AcDbEntity
  8
0
  6
CONTINUOUS
 62
     7
100
AcDbVertex
100
AcDb2dVertex
 10
8.4706174556
 20
6.5465117793
 30
0.0
  0
VERTEX
  5
578
330
29F
100
AcDbEntity
  8
0
  6
CONTINUOUS
 62
     7
100
AcDbVertex
100
AcDb2dVertex
 10
8.4764563724
 20
6.5414181455
 30
0.0
  0
VERTEX
  5
579
330
29F
100
AcDbEntity
  8
0
  6
CONTINUOUS
 62
     7
100
AcDbVertex
100
AcDb2dVertex
 10
8.4830797221
 20
6.5375860263
 30
0.0
  0
VERTEX
  5
57A
330
29F
100
AcDbEntity
  8
0
  6
CONTINUOUS
 62
     7
100
AcDbVertex
100
AcDb2dVertex
 10
8.4904041114
 20
6.5350636712
 30
0.0
  0
VERTEX
  5
57B
330
29F
100
AcDbEntity
  8
0
  6
CONTINUOUS
 62
     7
100
AcDbVertex
100
AcDb2dVertex
 10
8.4983373199
 20
6.5338828388
 30
0.0
  0
VERTEX
  5
57C
330
29F
100
AcDbEntity
  8
0
  6
CONTINUOUS
 62
     7
100
AcDbVertex
100
AcDb2dVertex
 10
8.506779462
 20
6.5340583968
 30
0.0
  0
VERTEX
  5
57D
330
29F
100
AcDbEntity
  8
0
  6
CONTINUOUS
 62
     7
100
AcDbVertex
100
AcDb2dVertex
 10
8.515624244
 20
6.5355881347
 30
0.0
  0
VERTEX
  5
57E
330
29F
100
AcDbEntity
  8
0
  6
CONTINUOUS
 62
     7
100
AcDbVertex
100
AcDb2dVertex
 10
8.5247603026
 20
6.538452792
 30
0.0
  0
VERTEX
  5
57F
330
29F
100
AcDbEntity
  8
0
  6
CONTINUOUS
 62
     7
100
AcDbVertex
100
AcDb2dVertex
 10
8.5340726072
 20
6.5426163
 30
0.0
  0
VERTEX
  5
580
330
29F
100
AcDbEntity
  8
0
  6
CONTINUOUS
 62
     7
100
AcDbVertex
100
AcDb2dVertex
 10
8.543443908
 20
6.5480262369
 30
0.0
  0
VERTEX
  5
581
330
29F
100
AcDbEntity
  8
0
  6
CONTINUOUS
 62
     7
100
AcDbVertex
100
AcDb2dVertex
 10
8.5527562126
 20
6.5546144869
 30
0.0
  0
VERTEX
  5
582
330
29F
100
AcDbEntity
  8
0
  6
CONTINUOUS
 62
     7
100
AcDbVertex
100
AcDb2dVertex
 10
8.5618922712
 20
6.5622980984
 30
0.0
  0
VERTEX
  5
583
330
29F
100
AcDbEntity
  8
0
  6
CONTINUOUS
 62
     7
100
AcDbVertex
100
AcDb2dVertex
 10
8.5707370532
 20
6.5709803283
 30
0.0
  0
VERTEX
  5
584
330
29F
100
AcDbEntity
  8
0
  6
CONTINUOUS
 62
     7
100
AcDbVertex
100
AcDb2dVertex
 10
8.5791791953
 20
6.5805518601
 30
0.0
  0
VERTEX
  5
585
330
29F
100
AcDbEntity
  8
0
  6
CONTINUOUS
 62
     7
100
AcDbVertex
100
AcDb2dVertex
 10
8.5871124038
 20
6.5908921801
 30
0.0
  0
VERTEX
  5
586
330
29F
100
AcDbEntity
  8
0
  6
CONTINUOUS
 62
     7
100
AcDbVertex
100
AcDb2dVertex
 10
8.5944367931
 20
6.601871095
 30
0.0
  0
VERTEX
  5
587
330
29F
100
AcDbEntity
  8
0
  6
CONTINUOUS
 62
     7
100
AcDbVertex
100
AcDb2dVertex
 10
8.6010601428
 20
6.6133503711
 30
0.0
  0
VERTEX
  5
588
330
29F
100
AcDbEntity
  8
0
  6
CONTINUOUS
 62
     7
100
AcDbVertex
100
AcDb2dVertex
 10
8.6068990596
 20
6.6251854747
 30
0.0
  0
VERTEX
  5
589
330
29F
100
AcDbEntity
  8
0
  6
CONTINUOUS
 62
     7
100
AcDbVertex
100
AcDb2dVertex
 10
8.6118800264
 20
6.6372273918
 30
0.0
  0
VERTEX
  5
58A
330
29F
100
AcDbEntity
  8
0
  6
CONTINUOUS
 62
     7
100
AcDbVertex
100
AcDb2dVertex
 10
8.6159403288
 20
6.6493245046
 30
0.0
  0
VERTEX
  5
58B
330
29F
100
AcDbEntity
  8
0
  6
CONTINUOUS
 62
     7
100
AcDbVertex
100
AcDb2dVertex
 10
8.6190288441
 20
6.6613245004
 30
0.0
  0
VERTEX
  5
58C
330
29F
100
AcDbEntity
  8
0
  6
CONTINUOUS
 62
     7
100
AcDbVertex
100
AcDb2dVertex
 10
8.6211066854
 20
6.673076289
 30
0.0
  0
SEQEND
  5
58D
330
29F
100
AcDbEntity
  8
0
  6
CONTINUOUS
 62
     7
  0
SPLINE
  5
2A0
330
1F
100
AcDbEntity
  8
0
  6
CONTINUOUS
 62
     7
100
AcDbSpline
210
0.0
220
0.0
230
1.0
 70
     8
 71
     3
 72
     8
 73
     4
 74
     0
 42
0.00000001
 43
0.00000001
 40
0.0
 40
0.0
 40
0.0
 40
0.0
 40
1.0
 40
1.0
 40
1.0
 40
1.0
 10
8.62110668540669
 20
6.673076289016802
 30
0.0
 10
8.628222086970824
 20
6.673105217450753
 30
0.0
 10
8.635337591811819
 20
6.673130471681623
 30
0.0
 10
8.642453081480983
 20
6.673153179490463
 30
0.0
  0
LINE
  5
2A1
330
1F
100
AcDbEntity
  8
0
  6
CONTINUOUS
 62
     7
100
AcDbLine
 10
8.6211066854
 20
6.673076289
 30
0.0
 11
8.5264784573
 21
6.7277040023
 31
0.0
  0
POLYLINE
  5
2A2
330
1F
100
AcDbEntity
  8
0
  6
CONTINUOUS
 62
     7
100
AcDb2dPolyline
 66
     1
 10
0.0
 20
0.0
 30
0.0
  0
VERTEX
  5
58E
330
2A2
100
AcDbEntity
  8
0
  6
CONTINUOUS
 62
     7
100
AcDbVertex
100
AcDb2dVertex
 10
8.839085472
 20
6.7885004769
 30
0.0
  0
VERTEX
  5
58F
330
2A2
100
AcDbEntity
  8
0
  6
CONTINUOUS
 62
     7
100
AcDbVertex
100
AcDb2dVertex
 10
8.8237007003
 20
6.7966463916
 30
0.0
  0
VERTEX
  5
590
330
2A2
100
AcDbEntity
  8
0
  6
CONTINUOUS
 62
     7
100
AcDbVertex
100
AcDb2dVertex
 10
8.8109626406
 20
6.8025789534
 30
0.0
  0
SEQEND
  5
591
330
2A2
100
AcDbEntity
  8
0
  6
CONTINUOUS
 62
     7
  0
POLYLINE
  5
2A3
330
1F
100
AcDbEntity
  8
0
  6
CONTINUOUS
 62
     7
100
AcDb2dPolyline
 66
     1
 10
0.0
 20
0.0
 30
0.0
  0
VERTEX
  5
592
330
2A3
100
AcDbEntity
  8
0
  6
CONTINUOUS
 62
     7
100
AcDbVertex
100
AcDb2dVertex
 10
8.2012614858
 20
6.8212785452
 30
0.0
  0
VERTEX
  5
593
330
2A3
100
AcDbEntity
  8
0
  6
CONTINUOUS
 62
     7
100
AcDbVertex
100
AcDb2dVertex
 10
8.2099731803
 20
6.8168680953
 30
0.0
  0
VERTEX
  5
594
330
2A3
100
AcDbEntity
  8
0
  6
CONTINUOUS
 62
     7
100
AcDbVertex
100
AcDb2dVertex
 10
8.2196075589
 20
6.8131518137
 30
0.0
  0
VERTEX
  5
595
330
2A3
100
AcDbEntity
  8
0
  6
CONTINUOUS
 62
     7
100
AcDbVertex
100
AcDb2dVertex
 10
8.2299997745
 20
6.8101932872
 30
0.0
  0
VERTEX
  5
596
330
2A3
100
AcDbEntity
  8
0
  6
CONTINUOUS
 62
     7
100
AcDbVertex
100
AcDb2dVertex
 10
8.2409720136
 20
6.8080431368
 30
0.0
  0
VERTEX
  5
597
330
2A3
100
AcDbEntity
  8
0
  6
CONTINUOUS
 62
     7
100
AcDbVertex
100
AcDb2dVertex
 10
8.2523365379
 20
6.8067381523
 30
0.0
  0
VERTEX
  5
598
330
2A3
100
AcDbEntity
  8
0
  6
CONTINUOUS
 62
     7
100
AcDbVertex
100
AcDb2dVertex
 10
8.2638988975
 20
6.8063006622
 30
0.0
  0
VERTEX
  5
599
330
2A3
100
AcDbEntity
  8
0
  6
CONTINUOUS
 62
     7
100
AcDbVertex
100
AcDb2dVertex
 10
8.275461257
 20
6.8067381523
 30
0.0
  0
VERTEX
  5
59A
330
2A3
100
AcDbEntity
  8
0
  6
CONTINUOUS
 62
     7
100
AcDbVertex
100
AcDb2dVertex
 10
8.2868257814
 20
6.8080431368
 30
0.0
  0
VERTEX
  5
59B
330
2A3
100
AcDbEntity
  8
0
  6
CONTINUOUS
 62
     7
100
AcDbVertex
100
AcDb2dVertex
 10
8.2977980204
 20
6.8101932872
 30
0.0
  0
VERTEX
  5
59C
330
2A3
100
AcDbEntity
  8
0
  6
CONTINUOUS
 62
     7
100
AcDbVertex
100
AcDb2dVertex
 10
8.3081902361
 20
6.8131518137
 30
0.0
  0
VERTEX
  5
59D
330
2A3
100
AcDbEntity
  8
0
  6
CONTINUOUS
 62
     7
100
AcDbVertex
100
AcDb2dVertex
 10
8.3178246146
 20
6.8168680953
 30
0.0
  0
VERTEX
  5
59E
330
2A3
100
AcDbEntity
  8
0
  6
CONTINUOUS
 62
     7
100
AcDbVertex
100
AcDb2dVertex
 10
8.3265363092
 20
6.8212785452
 30
0.0
  0
VERTEX
  5
59F
330
2A3
100
AcDbEntity
  8
0
  6
CONTINUOUS
 62
     7
100
AcDbVertex
100
AcDb2dVertex
 10
8.3341762603
 20
6.8263076994
 30
0.0
  0
VERTEX
  5
5A0
330
2A3
100
AcDbEntity
  8
0
  6
CONTINUOUS
 62
     7
100
AcDbVertex
100
AcDb2dVertex
 10
8.3406137462
 20
6.8318695077
 30
0.0
  0
VERTEX
  5
5A1
330
2A3
100
AcDbEntity
  8
0
  6
CONTINUOUS
 62
     7
100
AcDbVertex
100
AcDb2dVertex
 10
8.3457386198
 20
6.8378688061
 30
0.0
  0
VERTEX
  5
5A2
330
2A3
100
AcDbEntity
  8
0
  6
CONTINUOUS
 62
     7
100
AcDbVertex
100
AcDb2dVertex
 10
8.3494631931
 20
6.8442029449
 30
0.0
  0
VERTEX
  5
5A3
330
2A3
100
AcDbEntity
  8
0
  6
CONTINUOUS
 62
     7
100
AcDbVertex
100
AcDb2dVertex
 10
8.3517237376
 20
6.8507635452
 30
0.0
  0
VERTEX
  5
5A4
330
2A3
100
AcDbEntity
  8
0
  6
CONTINUOUS
 62
     7
100
AcDbVertex
100
AcDb2dVertex
 10
8.3524815746
 20
6.8574383533
 30
0.0
  0
VERTEX
  5
5A5
330
2A3
100
AcDbEntity
  8
0
  6
CONTINUOUS
 62
     7
100
AcDbVertex
100
AcDb2dVertex
 10
8.3517237376
 20
6.8641131614
 30
0.0
  0
VERTEX
  5
5A6
330
2A3
100
AcDbEntity
  8
0
  6
CONTINUOUS
 62
     7
100
AcDbVertex
100
AcDb2dVertex
 10
8.3494631931
 20
6.8706737616
 30
0.0
  0
VERTEX
  5
5A7
330
2A3
100
AcDbEntity
  8
0
  6
CONTINUOUS
 62
     7
100
AcDbVertex
100
AcDb2dVertex
 10
8.3457386198
 20
6.8770079004
 30
0.0
  0
VERTEX
  5
5A8
330
2A3
100
AcDbEntity
  8
0
  6
CONTINUOUS
 62
     7
100
AcDbVertex
100
AcDb2dVertex
 10
8.3406137462
 20
6.8830071988
 30
0.0
  0
VERTEX
  5
5A9
330
2A3
100
AcDbEntity
  8
0
  6
CONTINUOUS
 62
     7
100
AcDbVertex
100
AcDb2dVertex
 10
8.3341762603
 20
6.8885690071
 30
0.0
  0
VERTEX
  5
5AA
330
2A3
100
AcDbEntity
  8
0
  6
CONTINUOUS
 62
     7
100
AcDbVertex
100
AcDb2dVertex
 10
8.3265363092
 20
6.8935981614
 30
0.0
  0
VERTEX
  5
5AB
330
2A3
100
AcDbEntity
  8
0
  6
CONTINUOUS
 62
     7
100
AcDbVertex
100
AcDb2dVertex
 10
8.3178246146
 20
6.8980086113
 30
0.0
  0
VERTEX
  5
5AC
330
2A3
100
AcDbEntity
  8
0
  6
CONTINUOUS
 62
     7
100
AcDbVertex
100
AcDb2dVertex
 10
8.3081902361
 20
6.9017248928
 30
0.0
  0
VERTEX
  5
5AD
330
2A3
100
AcDbEntity
  8
0
  6
CONTINUOUS
 62
     7
100
AcDbVertex
100
AcDb2dVertex
 10
8.2977980204
 20
6.9046834193
 30
0.0
  0
VERTEX
  5
5AE
330
2A3
100
AcDbEntity
  8
0
  6
CONTINUOUS
 62
     7
100
AcDbVertex
100
AcDb2dVertex
 10
8.2868257814
 20
6.9068335697
 30
0.0
  0
VERTEX
  5
5AF
330
2A3
100
AcDbEntity
  8
0
  6
CONTINUOUS
 62
     7
100
AcDbVertex
100
AcDb2dVertex
 10
8.275461257
 20
6.9081385543
 30
0.0
  0
VERTEX
  5
5B0
330
2A3
100
AcDbEntity
  8
0
  6
CONTINUOUS
 62
     7
100
AcDbVertex
100
AcDb2dVertex
 10
8.2638988975
 20
6.9085760443
 30
0.0
  0
VERTEX
  5
5B1
330
2A3
100
AcDbEntity
  8
0
  6
CONTINUOUS
 62
     7
100
AcDbVertex
100
AcDb2dVertex
 10
8.2523365379
 20
6.9081385543
 30
0.0
  0
VERTEX
  5
5B2
330
2A3
100
AcDbEntity
  8
0
  6
CONTINUOUS
 62
     7
100
AcDbVertex
100
AcDb2dVertex
 10
8.2409720136
 20
6.9068335697
 30
0.0
  0
VERTEX
  5
5B3
330
2A3
100
AcDbEntity
  8
0
  6
CONTINUOUS
 62
     7
100
AcDbVertex
100
AcDb2dVertex
 10
8.2299997745
 20
6.9046834193
 30
0.0
  0
VERTEX
  5
5B4
330
2A3
100
AcDbEntity
  8
0
  6
CONTINUOUS
 62
     7
100
AcDbVertex
100
AcDb2dVertex
 10
8.2196075589
 20
6.9017248928
 30
0.0
  0
VERTEX
  5
5B5
330
2A3
100
AcDbEntity
  8
0
  6
CONTINUOUS
 62
     7
100
AcDbVertex
100
AcDb2dVertex
 10
8.2099731803
 20
6.8980086113
 30
0.0
  0
VERTEX
  5
5B6
330
2A3
100
AcDbEntity
  8
0
  6
CONTINUOUS
 62
     7
100
AcDbVertex
100
AcDb2dVertex
 10
8.2012614858
 20
6.8935981614
 30
0.0
  0
VERTEX
  5
5B7
330
2A3
100
AcDbEntity
  8
0
  6
CONTINUOUS
 62
     7
100
AcDbVertex
100
AcDb2dVertex
 10
8.1936215347
 20
6.8885690071
 30
0.0
  0
VERTEX
  5
5B8
330
2A3
100
AcDbEntity
  8
0
  6
CONTINUOUS
 62
     7
100
AcDbVertex
100
AcDb2dVertex
 10
8.1871840487
 20
6.8830071988
 30
0.0
  0
VERTEX
  5
5B9
330
2A3
100
AcDbEntity
  8
0
  6
CONTINUOUS
 62
     7
100
AcDbVertex
100
AcDb2dVertex
 10
8.1820591751
 20
6.8770079004
 30
0.0
  0
VERTEX
  5
5BA
330
2A3
100
AcDbEntity
  8
0
  6
CONTINUOUS
 62
     7
100
AcDbVertex
100
AcDb2dVertex
 10
8.1783346018
 20
6.8706737616
 30
0.0
  0
VERTEX
  5
5BB
330
2A3
100
AcDbEntity
  8
0
  6
CONTINUOUS
 62
     7
100
AcDbVertex
100
AcDb2dVertex
 10
8.1760740574
 20
6.8641131614
 30
0.0
  0
VERTEX
  5
5BC
330
2A3
100
AcDbEntity
  8
0
  6
CONTINUOUS
 62
     7
100
AcDbVertex
100
AcDb2dVertex
 10
8.1753162203
 20
6.8574383533
 30
0.0
  0
VERTEX
  5
5BD
330
2A3
100
AcDbEntity
  8
0
  6
CONTINUOUS
 62
     7
100
AcDbVertex
100
AcDb2dVertex
 10
8.1760740574
 20
6.8507635452
 30
0.0
  0
VERTEX
  5
5BE
330
2A3
100
AcDbEntity
  8
0
  6
CONTINUOUS
 62
     7
100
AcDbVertex
100
AcDb2dVertex
 10
8.1783346018
 20
6.8442029449
 30
0.0
  0
VERTEX
  5
5BF
330
2A3
100
AcDbEntity
  8
0
  6
CONTINUOUS
 62
     7
100
AcDbVertex
100
AcDb2dVertex
 10
8.1820591751
 20
6.8378688061
 30
0.0
  0
VERTEX
  5
5C0
330
2A3
100
AcDbEntity
  8
0
  6
CONTINUOUS
 62
     7
100
AcDbVertex
100
AcDb2dVertex
 10
8.1871840487
 20
6.8318695077
 30
0.0
  0
VERTEX
  5
5C1
330
2A3
100
AcDbEntity
  8
0
  6
CONTINUOUS
 62
     7
100
AcDbVertex
100
AcDb2dVertex
 10
8.1936215347
 20
6.8263076994
 30
0.0
  0
VERTEX
  5
5C2
330
2A3
100
AcDbEntity
  8
0
  6
CONTINUOUS
 62
     7
100
AcDbVertex
100
AcDb2dVertex
 10
8.2012614858
 20
6.8212785452
 30
0.0
  0
SEQEND
  5
5C3
330
2A3
100
AcDbEntity
  8
0
  6
CONTINUOUS
 62
     7
  0
ARC
  5
2A4
330
1F
100
AcDbEntity
  8
0
  6
CONTINUOUS
 62
     7
100
AcDbCircle
 10
8.2568006279
 20
6.8439337607
 30
0.0
 40
0.1448695257272535
100
AcDbArc
 50
241.350119801
 51
263.1919307739
  0
ARC
  5
2A5
330
1F
100
AcDbEntity
  8
0
  6
CONTINUOUS
 62
     7
100
AcDbCircle
 10
8.2143082666
 20
6.7714208404
 30
0.0
 40
0.0609137170140231
100
AcDbArc
 50
201.1404335939
 51
243.7240323631
  0
LINE
  5
2A6
330
1F
100
AcDbEntity
  8
0
  6
CONTINUOUS
 62
     7
100
AcDbLine
 10
8.2786065004
 20
6.8257513071
 30
0.0
 11
8.3187884187
 21
6.8489478348
 31
0.0
  0
LINE
  5
2A7
330
1F
100
AcDbEntity
  8
0
  6
CONTINUOUS
 62
     7
100
AcDbLine
 10
8.3187884187
 20
6.8489478348
 30
0.0
 11
8.3040808158
 21
6.880634881
 31
0.0
  0
LINE
  5
2A8
330
1F
100
AcDbEntity
  8
0
  6
CONTINUOUS
 62
     7
100
AcDbLine
 10
8.3040808158
 20
6.880634881
 30
0.0
 11
8.2491912946
 21
6.8891253994
 31
0.0
  0
LINE
  5
2A9
330
1F
100
AcDbEntity
  8
0
  6
CONTINUOUS
 62
     7
100
AcDbLine
 10
8.2491912946
 20
6.8891253994
 30
0.0
 11
8.2090093762
 21
6.8659288717
 31
0.0
  0
LINE
  5
2AA
330
1F
100
AcDbEntity
  8
0
  6
CONTINUOUS
 62
     7
100
AcDbLine
 10
8.2090093762
 20
6.8659288717
 30
0.0
 11
8.2237169791
 21
6.8342418255
 31
0.0
  0
LINE
  5
2AB
330
1F
100
AcDbEntity
  8
0
  6
CONTINUOUS
 62
     7
100
AcDbLine
 10
8.2237169791
 20
6.8342418255
 30
0.0
 11
8.2786065004
 21
6.8257513071
 31
0.0
  0
LINE
  5
2AC
330
1F
100
AcDbEntity
  8
0
  6
CONTINUOUS
 62
     7
100
AcDbLine
 10
8.3040808158
 20
6.8404573164
 30
0.0
 11
8.3040808158
 21
6.880634881
 31
0.0
  0
LINE
  5
2AD
330
1F
100
AcDbEntity
  8
0
  6
CONTINUOUS
 62
     7
100
AcDbLine
 10
8.2491912946
 20
6.8303013622
 30
0.0
 11
8.2491912946
 21
6.8891253994
 31
0.0
  0
ARC
  5
2AE
330
1F
100
AcDbEntity
  8
0
  6
CONTINUOUS
 62
     7
100
AcDbCircle
 10
8.0145972042
 20
7.3632754333
 30
0.0
 40
0.0622339677823132
100
AcDbArc
 50
58.9250760649
 51
95.6146559166
  0
ARC
  5
2AF
330
1F
100
AcDbEntity
  8
0
  6
CONTINUOUS
 62
     7
100
AcDbCircle
 10
8.2531180831
 20
7.2427479181
 30
0.0
 40
0.1413599401215602
100
AcDbArc
 50
100.3720582922
 51
146.5186508243
  0
ARC
  5
2B0
330
1F
100
AcDbEntity
  8
0
  6
CONTINUOUS
 62
     7
100
AcDbCircle
 10
7.8687990343
 20
6.5888157419
 30
0.0
 40
0.1353539683920177
100
AcDbArc
 50
152.3854322767
 51
200.7207178395
  0
POLYLINE
  5
2B1
330
1F
100
AcDbEntity
  8
0
  6
CONTINUOUS
 62
     7
100
AcDb2dPolyline
 66
     1
 10
0.0
 20
0.0
 30
0.0
  0
VERTEX
  5
5C4
330
2B1
100
AcDbEntity
  8
0
  6
CONTINUOUS
 62
     7
100
AcDbVertex
100
AcDb2dVertex
 10
8.1317821145
 20
7.4230572111
 30
0.0
  0
VERTEX
  5
5C5
330
2B1
100
AcDbEntity
  8
0
  6
CONTINUOUS
 62
     7
100
AcDbVertex
100
AcDb2dVertex
 10
8.1541315665
 20
7.4353495434
 30
0.0
  0
VERTEX
  5
5C6
330
2B1
100
AcDbEntity
  8
0
  6
CONTINUOUS
 62
     7
100
AcDbVertex
100
AcDb2dVertex
 10
8.1764311481
 20
7.4463949832
 30
0.0
  0
VERTEX
  5
5C7
330
2B1
100
AcDbEntity
  8
0
  6
CONTINUOUS
 62
     7
100
AcDbVertex
100
AcDb2dVertex
 10
8.1986311003
 20
7.4561688839
 30
0.0
  0
VERTEX
  5
5C8
330
2B1
100
AcDbEntity
  8
0
  6
CONTINUOUS
 62
     7
100
AcDbVertex
100
AcDb2dVertex
 10
8.2206818863
 20
7.4646494361
 30
0.0
  0
VERTEX
  5
5C9
330
2B1
100
AcDbEntity
  8
0
  6
CONTINUOUS
 62
     7
100
AcDbVertex
100
AcDb2dVertex
 10
8.2425343021
 20
7.4718177164
 30
0.0
  0
VERTEX
  5
5CA
330
2B1
100
AcDbEntity
  8
0
  6
CONTINUOUS
 62
     7
100
AcDbVertex
100
AcDb2dVertex
 10
8.2641395864
 20
7.4776577295
 30
0.0
  0
VERTEX
  5
5CB
330
2B1
100
AcDbEntity
  8
0
  6
CONTINUOUS
 62
     7
100
AcDbVertex
100
AcDb2dVertex
 10
8.2854495295
 20
7.482156444
 30
0.0
  0
VERTEX
  5
5CC
330
2B1
100
AcDbEntity
  8
0
  6
CONTINUOUS
 62
     7
100
AcDbVertex
100
AcDb2dVertex
 10
8.3064165805
 20
7.4853038216
 30
0.0
  0
VERTEX
  5
5CD
330
2B1
100
AcDbEntity
  8
0
  6
CONTINUOUS
 62
     7
100
AcDbVertex
100
AcDb2dVertex
 10
8.3269939537
 20
7.4870928392
 30
0.0
  0
VERTEX
  5
5CE
330
2B1
100
AcDbEntity
  8
0
  6
CONTINUOUS
 62
     7
100
AcDbVertex
100
AcDb2dVertex
 10
8.347135733
 20
7.4875195049
 30
0.0
  0
VERTEX
  5
5CF
330
2B1
100
AcDbEntity
  8
0
  6
CONTINUOUS
 62
     7
100
AcDbVertex
100
AcDb2dVertex
 10
8.3667969741
 20
7.4865828665
 30
0.0
  0
VERTEX
  5
5D0
330
2B1
100
AcDbEntity
  8
0
  6
CONTINUOUS
 62
     7
100
AcDbVertex
100
AcDb2dVertex
 10
8.3859338052
 20
7.4842850142
 30
0.0
  0
VERTEX
  5
5D1
330
2B1
100
AcDbEntity
  8
0
  6
CONTINUOUS
 62
     7
100
AcDbVertex
100
AcDb2dVertex
 10
8.4045035245
 20
7.4806310752
 30
0.0
  0
VERTEX
  5
5D2
330
2B1
100
AcDbEntity
  8
0
  6
CONTINUOUS
 62
     7
100
AcDbVertex
100
AcDb2dVertex
 10
8.4224646957
 20
7.475629203
 30
0.0
  0
VERTEX
  5
5D3
330
2B1
100
AcDbEntity
  8
0
  6
CONTINUOUS
 62
     7
100
AcDbVertex
100
AcDb2dVertex
 10
8.4397772404
 20
7.4692905587
 30
0.0
  0
VERTEX
  5
5D4
330
2B1
100
AcDbEntity
  8
0
  6
CONTINUOUS
 62
     7
100
AcDbVertex
100
AcDb2dVertex
 10
8.4564025275
 20
7.4616292862
 30
0.0
  0
VERTEX
  5
5D5
330
2B1
100
AcDbEntity
  8
0
  6
CONTINUOUS
 62
     7
100
AcDbVertex
100
AcDb2dVertex
 10
8.4723034596
 20
7.452662481
 30
0.0
  0
VERTEX
  5
5D6
330
2B1
100
AcDbEntity
  8
0
  6
CONTINUOUS
 62
     7
100
AcDbVertex
100
AcDb2dVertex
 10
8.4874445553
 20
7.4424101514
 30
0.0
  0
VERTEX
  5
5D7
330
2B1
100
AcDbEntity
  8
0
  6
CONTINUOUS
 62
     7
100
AcDbVertex
100
AcDb2dVertex
 10
8.5017920291
 20
7.4308951744
 30
0.0
  0
VERTEX
  5
5D8
330
2B1
100
AcDbEntity
  8
0
  6
CONTINUOUS
 62
     7
100
AcDbVertex
100
AcDb2dVertex
 10
8.5055439071
 20
7.4275562553
 30
0.0
  0
SEQEND
  5
5D9
330
2B1
100
AcDbEntity
  8
0
  6
CONTINUOUS
 62
     7
  0
POLYLINE
  5
2B2
330
1F
100
AcDbEntity
  8
0
  6
CONTINUOUS
 62
     7
100
AcDb2dPolyline
 66
     1
 10
0.0
 20
0.0
 30
0.0
  0
VERTEX
  5
5DA
330
2B2
100
AcDbEntity
  8
0
  6
CONTINUOUS
 62
     7
100
AcDbVertex
100
AcDb2dVertex
 10
7.8415368709
 20
6.2773377033
 30
0.0
  0
VERTEX
  5
5DB
330
2B2
100
AcDbEntity
  8
0
  6
CONTINUOUS
 62
     7
100
AcDbVertex
100
AcDb2dVertex
 10
7.8323597333
 20
6.2804808732
 30
0.0
  0
VERTEX
  5
5DC
330
2B2
100
AcDbEntity
  8
0
  6
CONTINUOUS
 62
     7
100
AcDbVertex
100
AcDb2dVertex
 10
7.8153860824
 20
6.2874827849
 30
0.0
  0
VERTEX
  5
5DD
330
2B2
100
AcDbEntity
  8
0
  6
CONTINUOUS
 62
     7
100
AcDbVertex
100
AcDb2dVertex
 10
7.7991184347
 20
6.2957991437
 30
0.0
  0
VERTEX
  5
5DE
330
2B2
100
AcDbEntity
  8
0
  6
CONTINUOUS
 62
     7
100
AcDbVertex
100
AcDb2dVertex
 10
7.7835930898
 20
6.3054113925
 30
0.0
  0
VERTEX
  5
5DF
330
2B2
100
AcDbEntity
  8
0
  6
CONTINUOUS
 62
     7
100
AcDbVertex
100
AcDb2dVertex
 10
7.7688446908
 20
6.3162980828
 30
0.0
  0
VERTEX
  5
5E0
330
2B2
100
AcDbEntity
  8
0
  6
CONTINUOUS
 62
     7
100
AcDbVertex
100
AcDb2dVertex
 10
7.754906147
 20
6.3284349221
 30
0.0
  0
VERTEX
  5
5E1
330
2B2
100
AcDbEntity
  8
0
  6
CONTINUOUS
 62
     7
100
AcDbVertex
100
AcDb2dVertex
 10
7.741808561
 20
6.3417948282
 30
0.0
  0
VERTEX
  5
5E2
330
2B2
100
AcDbEntity
  8
0
  6
CONTINUOUS
 62
     7
100
AcDbVertex
100
AcDb2dVertex
 10
7.7295811584
 20
6.3563479901
 30
0.0
  0
VERTEX
  5
5E3
330
2B2
100
AcDbEntity
  8
0
  6
CONTINUOUS
 62
     7
100
AcDbVertex
100
AcDb2dVertex
 10
7.7182512234
 20
6.372061934
 30
0.0
  0
VERTEX
  5
5E4
330
2B2
100
AcDbEntity
  8
0
  6
CONTINUOUS
 62
     7
100
AcDbVertex
100
AcDb2dVertex
 10
7.7078440375
 20
6.3889015958
 30
0.0
  0
VERTEX
  5
5E5
330
2B2
100
AcDbEntity
  8
0
  6
CONTINUOUS
 62
     7
100
AcDbVertex
100
AcDb2dVertex
 10
7.6983828233
 20
6.4068293998
 30
0.0
  0
VERTEX
  5
5E6
330
2B2
100
AcDbEntity
  8
0
  6
CONTINUOUS
 62
     7
100
AcDbVertex
100
AcDb2dVertex
 10
7.6898886923
 20
6.4258053419
 30
0.0
  0
VERTEX
  5
5E7
330
2B2
100
AcDbEntity
  8
0
  6
CONTINUOUS
 62
     7
100
AcDbVertex
100
AcDb2dVertex
 10
7.6823805983
 20
6.4457870795
 30
0.0
  0
VERTEX
  5
5E8
330
2B2
100
AcDbEntity
  8
0
  6
CONTINUOUS
 62
     7
100
AcDbVertex
100
AcDb2dVertex
 10
7.6758752949
 20
6.4667300254
 30
0.0
  0
VERTEX
  5
5E9
330
2B2
100
AcDbEntity
  8
0
  6
CONTINUOUS
 62
     7
100
AcDbVertex
100
AcDb2dVertex
 10
7.6703872978
 20
6.4885874478
 30
0.0
  0
VERTEX
  5
5EA
330
2B2
100
AcDbEntity
  8
0
  6
CONTINUOUS
 62
     7
100
AcDbVertex
100
AcDb2dVertex
 10
7.665928853
 20
6.5113105742
 30
0.0
  0
VERTEX
  5
5EB
330
2B2
100
AcDbEntity
  8
0
  6
CONTINUOUS
 62
     7
100
AcDbVertex
100
AcDb2dVertex
 10
7.662509909
 20
6.5348487004
 30
0.0
  0
VERTEX
  5
5EC
330
2B2
100
AcDbEntity
  8
0
  6
CONTINUOUS
 62
     7
100
AcDbVertex
100
AcDb2dVertex
 10
7.6601380948
 20
6.5591493037
 30
0.0
  0
VERTEX
  5
5ED
330
2B2
100
AcDbEntity
  8
0
  6
CONTINUOUS
 62
     7
100
AcDbVertex
100
AcDb2dVertex
 10
7.6588187028
 20
6.5841581599
 30
0.0
  0
VERTEX
  5
5EE
330
2B2
100
AcDbEntity
  8
0
  6
CONTINUOUS
 62
     7
100
AcDbVertex
100
AcDb2dVertex
 10
7.6585546771
 20
6.6098194645
 30
0.0
  0
VERTEX
  5
5EF
330
2B2
100
AcDbEntity
  8
0
  6
CONTINUOUS
 62
     7
100
AcDbVertex
100
AcDb2dVertex
 10
7.6593466068
 20
6.6360759571
 30
0.0
  0
VERTEX
  5
5F0
330
2B2
100
AcDbEntity
  8
0
  6
CONTINUOUS
 62
     7
100
AcDbVertex
100
AcDb2dVertex
 10
7.661192725
 20
6.6628690491
 30
0.0
  0
VERTEX
  5
5F1
330
2B2
100
AcDbEntity
  8
0
  6
CONTINUOUS
 62
     7
100
AcDbVertex
100
AcDb2dVertex
 10
7.664088912
 20
6.6901389547
 30
0.0
  0
VERTEX
  5
5F2
330
2B2
100
AcDbEntity
  8
0
  6
CONTINUOUS
 62
     7
100
AcDbVertex
100
AcDb2dVertex
 10
7.6680287055
 20
6.7178248242
 30
0.0
  0
VERTEX
  5
5F3
330
2B2
100
AcDbEntity
  8
0
  6
CONTINUOUS
 62
     7
100
AcDbVertex
100
AcDb2dVertex
 10
7.6730033142
 20
6.7458648794
 30
0.0
  0
VERTEX
  5
5F4
330
2B2
100
AcDbEntity
  8
0
  6
CONTINUOUS
 62
     7
100
AcDbVertex
100
AcDb2dVertex
 10
7.6790016377
 20
6.774196552
 30
0.0
  0
VERTEX
  5
5F5
330
2B2
100
AcDbEntity
  8
0
  6
CONTINUOUS
 62
     7
100
AcDbVertex
100
AcDb2dVertex
 10
7.6860102916
 20
6.8027566231
 30
0.0
  0
VERTEX
  5
5F6
330
2B2
100
AcDbEntity
  8
0
  6
CONTINUOUS
 62
     7
100
AcDbVertex
100
AcDb2dVertex
 10
7.6940136367
 20
6.8314813639
 30
0.0
  0
VERTEX
  5
5F7
330
2B2
100
AcDbEntity
  8
0
  6
CONTINUOUS
 62
     7
100
AcDbVertex
100
AcDb2dVertex
 10
7.7029938144
 20
6.8603066783
 30
0.0
  0
VERTEX
  5
5F8
330
2B2
100
AcDbEntity
  8
0
  6
CONTINUOUS
 62
     7
100
AcDbVertex
100
AcDb2dVertex
 10
7.7129307865
 20
6.8891682457
 30
0.0
  0
VERTEX
  5
5F9
330
2B2
100
AcDbEntity
  8
0
  6
CONTINUOUS
 62
     7
100
AcDbVertex
100
AcDb2dVertex
 10
7.7238023797
 20
6.9180016648
 30
0.0
  0
VERTEX
  5
5FA
330
2B2
100
AcDbEntity
  8
0
  6
CONTINUOUS
 62
     7
100
AcDbVertex
100
AcDb2dVertex
 10
7.7355843352
 20
6.9467425968
 30
0.0
  0
VERTEX
  5
5FB
330
2B2
100
AcDbEntity
  8
0
  6
CONTINUOUS
 62
     7
100
AcDbVertex
100
AcDb2dVertex
 10
7.7482503629
 20
6.9753269096
 30
0.0
  0
VERTEX
  5
5FC
330
2B2
100
AcDbEntity
  8
0
  6
CONTINUOUS
 62
     7
100
AcDbVertex
100
AcDb2dVertex
 10
7.7617721999
 20
7.0036908203
 30
0.0
  0
VERTEX
  5
5FD
330
2B2
100
AcDbEntity
  8
0
  6
CONTINUOUS
 62
     7
100
AcDbVertex
100
AcDb2dVertex
 10
7.7761196737
 20
7.0317710379
 30
0.0
  0
VERTEX
  5
5FE
330
2B2
100
AcDbEntity
  8
0
  6
CONTINUOUS
 62
     7
100
AcDbVertex
100
AcDb2dVertex
 10
7.7912607695
 20
7.0595049046
 30
0.0
  0
VERTEX
  5
5FF
330
2B2
100
AcDbEntity
  8
0
  6
CONTINUOUS
 62
     7
100
AcDbVertex
100
AcDb2dVertex
 10
7.8071617015
 20
7.0868305352
 30
0.0
  0
VERTEX
  5
600
330
2B2
100
AcDbEntity
  8
0
  6
CONTINUOUS
 62
     7
100
AcDbVertex
100
AcDb2dVertex
 10
7.8237869887
 20
7.1136869556
 30
0.0
  0
VERTEX
  5
601
330
2B2
100
AcDbEntity
  8
0
  6
CONTINUOUS
 62
     7
100
AcDbVertex
100
AcDb2dVertex
 10
7.8410995333
 20
7.1400142385
 30
0.0
  0
VERTEX
  5
602
330
2B2
100
AcDbEntity
  8
0
  6
CONTINUOUS
 62
     7
100
AcDbVertex
100
AcDb2dVertex
 10
7.8590607045
 20
7.1657536376
 30
0.0
  0
VERTEX
  5
603
330
2B2
100
AcDbEntity
  8
0
  6
CONTINUOUS
 62
     7
100
AcDbVertex
100
AcDb2dVertex
 10
7.8776304238
 20
7.1908477181
 30
0.0
  0
VERTEX
  5
604
330
2B2
100
AcDbEntity
  8
0
  6
CONTINUOUS
 62
     7
100
AcDbVertex
100
AcDb2dVertex
 10
7.8967672549
 20
7.2152404853
 30
0.0
  0
VERTEX
  5
605
330
2B2
100
AcDbEntity
  8
0
  6
CONTINUOUS
 62
     7
100
AcDbVertex
100
AcDb2dVertex
 10
7.916428496
 20
7.2388775095
 30
0.0
  0
VERTEX
  5
606
330
2B2
100
AcDbEntity
  8
0
  6
CONTINUOUS
 62
     7
100
AcDbVertex
100
AcDb2dVertex
 10
7.9365702753
 20
7.2617060471
 30
0.0
  0
VERTEX
  5
607
330
2B2
100
AcDbEntity
  8
0
  6
CONTINUOUS
 62
     7
100
AcDbVertex
100
AcDb2dVertex
 10
7.9571476485
 20
7.2836751589
 30
0.0
  0
VERTEX
  5
608
330
2B2
100
AcDbEntity
  8
0
  6
CONTINUOUS
 62
     7
100
AcDbVertex
100
AcDb2dVertex
 10
7.9781146995
 20
7.3047358231
 30
0.0
  0
VERTEX
  5
609
330
2B2
100
AcDbEntity
  8
0
  6
CONTINUOUS
 62
     7
100
AcDbVertex
100
AcDb2dVertex
 10
7.9994246426
 20
7.3248410452
 30
0.0
  0
VERTEX
  5
60A
330
2B2
100
AcDbEntity
  8
0
  6
CONTINUOUS
 62
     7
100
AcDbVertex
100
AcDb2dVertex
 10
8.021029927
 20
7.3439459625
 30
0.0
  0
VERTEX
  5
60B
330
2B2
100
AcDbEntity
  8
0
  6
CONTINUOUS
 62
     7
100
AcDbVertex
100
AcDb2dVertex
 10
8.0428823428
 20
7.3620079445
 30
0.0
  0
VERTEX
  5
60C
330
2B2
100
AcDbEntity
  8
0
  6
CONTINUOUS
 62
     7
100
AcDbVertex
100
AcDb2dVertex
 10
8.0649331287
 20
7.3789866878
 30
0.0
  0
VERTEX
  5
60D
330
2B2
100
AcDbEntity
  8
0
  6
CONTINUOUS
 62
     7
100
AcDbVertex
100
AcDb2dVertex
 10
8.0871330809
 20
7.3948443063
 30
0.0
  0
VERTEX
  5
60E
330
2B2
100
AcDbEntity
  8
0
  6
CONTINUOUS
 62
     7
100
AcDbVertex
100
AcDb2dVertex
 10
8.1094326625
 20
7.4095454153
 30
0.0
  0
VERTEX
  5
60F
330
2B2
100
AcDbEntity
  8
0
  6
CONTINUOUS
 62
     7
100
AcDbVertex
100
AcDb2dVertex
 10
8.1317821145
 20
7.4230572111
 30
0.0
  0
SEQEND
  5
610
330
2B2
100
AcDbEntity
  8
0
  6
CONTINUOUS
 62
     7
  0
POLYLINE
  5
2B3
330
1F
100
AcDbEntity
  8
0
  6
CONTINUOUS
 62
     7
100
AcDb2dPolyline
 66
     1
 10
0.0
 20
0.0
 30
0.0
  0
VERTEX
  5
611
330
2B3
100
AcDbEntity
  8
0
  6
CONTINUOUS
 62
     7
100
AcDbVertex
100
AcDb2dVertex
 10
7.7590522558
 20
6.31891575
 30
0.0
  0
VERTEX
  5
612
330
2B3
100
AcDbEntity
  8
0
  6
CONTINUOUS
 62
     7
100
AcDbVertex
100
AcDb2dVertex
 10
7.7531493843
 20
6.3224457895
 30
0.0
  0
VERTEX
  5
613
330
2B3
100
AcDbEntity
  8
0
  6
CONTINUOUS
 62
     7
100
AcDbVertex
100
AcDb2dVertex
 10
7.7380082885
 20
6.3326981191
 30
0.0
  0
VERTEX
  5
614
330
2B3
100
AcDbEntity
  8
0
  6
CONTINUOUS
 62
     7
100
AcDbVertex
100
AcDb2dVertex
 10
7.7236608147
 20
6.3442130961
 30
0.0
  0
VERTEX
  5
615
330
2B3
100
AcDbEntity
  8
0
  6
CONTINUOUS
 62
     7
100
AcDbVertex
100
AcDb2dVertex
 10
7.7101389777
 20
6.3569650261
 30
0.0
  0
VERTEX
  5
616
330
2B3
100
AcDbEntity
  8
0
  6
CONTINUOUS
 62
     7
100
AcDbVertex
100
AcDb2dVertex
 10
7.6974729501
 20
6.3709254546
 30
0.0
  0
VERTEX
  5
617
330
2B3
100
AcDbEntity
  8
0
  6
CONTINUOUS
 62
     7
100
AcDbVertex
100
AcDb2dVertex
 10
7.6856909945
 20
6.3860632303
 30
0.0
  0
VERTEX
  5
618
330
2B3
100
AcDbEntity
  8
0
  6
CONTINUOUS
 62
     7
100
AcDbVertex
100
AcDb2dVertex
 10
7.6748194013
 20
6.4023445751
 30
0.0
  0
VERTEX
  5
619
330
2B3
100
AcDbEntity
  8
0
  6
CONTINUOUS
 62
     7
100
AcDbVertex
100
AcDb2dVertex
 10
7.6648824292
 20
6.4197331587
 30
0.0
  0
VERTEX
  5
61A
330
2B3
100
AcDbEntity
  8
0
  6
CONTINUOUS
 62
     7
100
AcDbVertex
100
AcDb2dVertex
 10
7.6559022515
 20
6.4381901806
 30
0.0
  0
VERTEX
  5
61B
330
2B3
100
AcDbEntity
  8
0
  6
CONTINUOUS
 62
     7
100
AcDbVertex
100
AcDb2dVertex
 10
7.6478989064
 20
6.4576744558
 30
0.0
  0
VERTEX
  5
61C
330
2B3
100
AcDbEntity
  8
0
  6
CONTINUOUS
 62
     7
100
AcDbVertex
100
AcDb2dVertex
 10
7.6408902525
 20
6.4781425074
 30
0.0
  0
VERTEX
  5
61D
330
2B3
100
AcDbEntity
  8
0
  6
CONTINUOUS
 62
     7
100
AcDbVertex
100
AcDb2dVertex
 10
7.634891929
 20
6.4995486631
 30
0.0
  0
VERTEX
  5
61E
330
2B3
100
AcDbEntity
  8
0
  6
CONTINUOUS
 62
     7
100
AcDbVertex
100
AcDb2dVertex
 10
7.6299173203
 20
6.5218451574
 30
0.0
  0
VERTEX
  5
61F
330
2B3
100
AcDbEntity
  8
0
  6
CONTINUOUS
 62
     7
100
AcDbVertex
100
AcDb2dVertex
 10
7.6259775268
 20
6.5449822381
 30
0.0
  0
VERTEX
  5
620
330
2B3
100
AcDbEntity
  8
0
  6
CONTINUOUS
 62
     7
100
AcDbVertex
100
AcDb2dVertex
 10
7.6230813398
 20
6.5689082773
 30
0.0
  0
VERTEX
  5
621
330
2B3
100
AcDbEntity
  8
0
  6
CONTINUOUS
 62
     7
100
AcDbVertex
100
AcDb2dVertex
 10
7.6212352217
 20
6.5935698868
 30
0.0
  0
VERTEX
  5
622
330
2B3
100
AcDbEntity
  8
0
  6
CONTINUOUS
 62
     7
100
AcDbVertex
100
AcDb2dVertex
 10
7.6204432919
 20
6.6189120367
 30
0.0
  0
VERTEX
  5
623
330
2B3
100
AcDbEntity
  8
0
  6
CONTINUOUS
 62
     7
100
AcDbVertex
100
AcDb2dVertex
 10
7.6207073176
 20
6.6448781788
 30
0.0
  0
VERTEX
  5
624
330
2B3
100
AcDbEntity
  8
0
  6
CONTINUOUS
 62
     7
100
AcDbVertex
100
AcDb2dVertex
 10
7.6220267096
 20
6.6714103726
 30
0.0
  0
VERTEX
  5
625
330
2B3
100
AcDbEntity
  8
0
  6
CONTINUOUS
 62
     7
100
AcDbVertex
100
AcDb2dVertex
 10
7.6243985238
 20
6.6984494143
 30
0.0
  0
VERTEX
  5
626
330
2B3
100
AcDbEntity
  8
0
  6
CONTINUOUS
 62
     7
100
AcDbVertex
100
AcDb2dVertex
 10
7.6278174679
 20
6.7259349693
 30
0.0
  0
VERTEX
  5
627
330
2B3
100
AcDbEntity
  8
0
  6
CONTINUOUS
 62
     7
100
AcDbVertex
100
AcDb2dVertex
 10
7.6322759127
 20
6.7538057065
 30
0.0
  0
VERTEX
  5
628
330
2B3
100
AcDbEntity
  8
0
  6
CONTINUOUS
 62
     7
100
AcDbVertex
100
AcDb2dVertex
 10
7.6377639097
 20
6.7819994354
 30
0.0
  0
VERTEX
  5
629
330
2B3
100
AcDbEntity
  8
0
  6
CONTINUOUS
 62
     7
100
AcDbVertex
100
AcDb2dVertex
 10
7.6442692132
 20
6.8104532449
 30
0.0
  0
VERTEX
  5
62A
330
2B3
100
AcDbEntity
  8
0
  6
CONTINUOUS
 62
     7
100
AcDbVertex
100
AcDb2dVertex
 10
7.6517773071
 20
6.8391036432
 30
0.0
  0
VERTEX
  5
62B
330
2B3
100
AcDbEntity
  8
0
  6
CONTINUOUS
 62
     7
100
AcDbVertex
100
AcDb2dVertex
 10
7.6602714381
 20
6.8678867002
 30
0.0
  0
VERTEX
  5
62C
330
2B3
100
AcDbEntity
  8
0
  6
CONTINUOUS
 62
     7
100
AcDbVertex
100
AcDb2dVertex
 10
7.6697326523
 20
6.8967381896
 30
0.0
  0
VERTEX
  5
62D
330
2B3
100
AcDbEntity
  8
0
  6
CONTINUOUS
 62
     7
100
AcDbVertex
100
AcDb2dVertex
 10
7.6801398382
 20
6.9255937325
 30
0.0
  0
VERTEX
  5
62E
330
2B3
100
AcDbEntity
  8
0
  6
CONTINUOUS
 62
     7
100
AcDbVertex
100
AcDb2dVertex
 10
7.6914697732
 20
6.9543889408
 30
0.0
  0
VERTEX
  5
62F
330
2B3
100
AcDbEntity
  8
0
  6
CONTINUOUS
 62
     7
100
AcDbVertex
100
AcDb2dVertex
 10
7.7036971758
 20
6.9830595613
 30
0.0
  0
VERTEX
  5
630
330
2B3
100
AcDbEntity
  8
0
  6
CONTINUOUS
 62
     7
100
AcDbVertex
100
AcDb2dVertex
 10
7.7167947619
 20
7.0115416184
 30
0.0
  0
VERTEX
  5
631
330
2B3
100
AcDbEntity
  8
0
  6
CONTINUOUS
 62
     7
100
AcDbVertex
100
AcDb2dVertex
 10
7.7307333056
 20
7.0397715577
 30
0.0
  0
VERTEX
  5
632
330
2B3
100
AcDbEntity
  8
0
  6
CONTINUOUS
 62
     7
100
AcDbVertex
100
AcDb2dVertex
 10
7.7454817046
 20
7.0676863871
 30
0.0
  0
VERTEX
  5
633
330
2B3
100
AcDbEntity
  8
0
  6
CONTINUOUS
 62
     7
100
AcDbVertex
100
AcDb2dVertex
 10
7.7610070495
 20
7.0952238176
 30
0.0
  0
VERTEX
  5
634
330
2B3
100
AcDbEntity
  8
0
  6
CONTINUOUS
 62
     7
100
AcDbVertex
100
AcDb2dVertex
 10
7.7772746972
 20
7.1223224026
 30
0.0
  0
VERTEX
  5
635
330
2B3
100
AcDbEntity
  8
0
  6
CONTINUOUS
 62
     7
100
AcDbVertex
100
AcDb2dVertex
 10
7.7942483481
 20
7.1489216745
 30
0.0
  0
VERTEX
  5
636
330
2B3
100
AcDbEntity
  8
0
  6
CONTINUOUS
 62
     7
100
AcDbVertex
100
AcDb2dVertex
 10
7.8118901275
 20
7.1749622798
 30
0.0
  0
VERTEX
  5
637
330
2B3
100
AcDbEntity
  8
0
  6
CONTINUOUS
 62
     7
100
AcDbVertex
100
AcDb2dVertex
 10
7.8301606695
 20
7.2003861119
 30
0.0
  0
VERTEX
  5
638
330
2B3
100
AcDbEntity
  8
0
  6
CONTINUOUS
 62
     7
100
AcDbVertex
100
AcDb2dVertex
 10
7.8490192055
 20
7.2251364402
 30
0.0
  0
VERTEX
  5
639
330
2B3
100
AcDbEntity
  8
0
  6
CONTINUOUS
 62
     7
100
AcDbVertex
100
AcDb2dVertex
 10
7.8684236547
 20
7.249158037
 30
0.0
  0
VERTEX
  5
63A
330
2B3
100
AcDbEntity
  8
0
  6
CONTINUOUS
 62
     7
100
AcDbVertex
100
AcDb2dVertex
 10
7.8883307183
 20
7.2723973008
 30
0.0
  0
VERTEX
  5
63B
330
2B3
100
AcDbEntity
  8
0
  6
CONTINUOUS
 62
     7
100
AcDbVertex
100
AcDb2dVertex
 10
7.9086959757
 20
7.2948023757
 30
0.0
  0
VERTEX
  5
63C
330
2B3
100
AcDbEntity
  8
0
  6
CONTINUOUS
 62
     7
100
AcDbVertex
100
AcDb2dVertex
 10
7.9294739841
 20
7.3163232673
 30
0.0
  0
VERTEX
  5
63D
330
2B3
100
AcDbEntity
  8
0
  6
CONTINUOUS
 62
     7
100
AcDbVertex
100
AcDb2dVertex
 10
7.9506183796
 20
7.3369119539
 30
0.0
  0
VERTEX
  5
63E
330
2B3
100
AcDbEntity
  8
0
  6
CONTINUOUS
 62
     7
100
AcDbVertex
100
AcDb2dVertex
 10
7.9720819809
 20
7.3565224941
 30
0.0
  0
VERTEX
  5
63F
330
2B3
100
AcDbEntity
  8
0
  6
CONTINUOUS
 62
     7
100
AcDbVertex
100
AcDb2dVertex
 10
7.9938168942
 20
7.3751111293
 30
0.0
  0
VERTEX
  5
640
330
2B3
100
AcDbEntity
  8
0
  6
CONTINUOUS
 62
     7
100
AcDbVertex
100
AcDb2dVertex
 10
8.0157746205
 20
7.3926363809
 30
0.0
  0
VERTEX
  5
641
330
2B3
100
AcDbEntity
  8
0
  6
CONTINUOUS
 62
     7
100
AcDbVertex
100
AcDb2dVertex
 10
8.0379061634
 20
7.4090591431
 30
0.0
  0
VERTEX
  5
642
330
2B3
100
AcDbEntity
  8
0
  6
CONTINUOUS
 62
     7
100
AcDbVertex
100
AcDb2dVertex
 10
8.0601621389
 20
7.4243427705
 30
0.0
  0
VERTEX
  5
643
330
2B3
100
AcDbEntity
  8
0
  6
CONTINUOUS
 62
     7
100
AcDbVertex
100
AcDb2dVertex
 10
8.0824928851
 20
7.4384531591
 30
0.0
  0
VERTEX
  5
644
330
2B3
100
AcDbEntity
  8
0
  6
CONTINUOUS
 62
     7
100
AcDbVertex
100
AcDb2dVertex
 10
8.1048485735
 20
7.4513588233
 30
0.0
  0
VERTEX
  5
645
330
2B3
100
AcDbEntity
  8
0
  6
CONTINUOUS
 62
     7
100
AcDbVertex
100
AcDb2dVertex
 10
8.1271793198
 20
7.4630309655
 30
0.0
  0
VERTEX
  5
646
330
2B3
100
AcDbEntity
  8
0
  6
CONTINUOUS
 62
     7
100
AcDbVertex
100
AcDb2dVertex
 10
8.1494352953
 20
7.4734435405
 30
0.0
  0
VERTEX
  5
647
330
2B3
100
AcDbEntity
  8
0
  6
CONTINUOUS
 62
     7
100
AcDbVertex
100
AcDb2dVertex
 10
8.1715668382
 20
7.4825733138
 30
0.0
  0
VERTEX
  5
648
330
2B3
100
AcDbEntity
  8
0
  6
CONTINUOUS
 62
     7
100
AcDbVertex
100
AcDb2dVertex
 10
8.1935245645
 20
7.4903999134
 30
0.0
  0
VERTEX
  5
649
330
2B3
100
AcDbEntity
  8
0
  6
CONTINUOUS
 62
     7
100
AcDbVertex
100
AcDb2dVertex
 10
8.2152594778
 20
7.496905875
 30
0.0
  0
VERTEX
  5
64A
330
2B3
100
AcDbEntity
  8
0
  6
CONTINUOUS
 62
     7
100
AcDbVertex
100
AcDb2dVertex
 10
8.2367230791
 20
7.5020766812
 30
0.0
  0
VERTEX
  5
64B
330
2B3
100
AcDbEntity
  8
0
  6
CONTINUOUS
 62
     7
100
AcDbVertex
100
AcDb2dVertex
 10
8.2578674746
 20
7.5059007941
 30
0.0
  0
VERTEX
  5
64C
330
2B3
100
AcDbEntity
  8
0
  6
CONTINUOUS
 62
     7
100
AcDbVertex
100
AcDb2dVertex
 10
8.278645483
 20
7.5083696804
 30
0.0
  0
VERTEX
  5
64D
330
2B3
100
AcDbEntity
  8
0
  6
CONTINUOUS
 62
     7
100
AcDbVertex
100
AcDb2dVertex
 10
8.2990107404
 20
7.5094778312
 30
0.0
  0
VERTEX
  5
64E
330
2B3
100
AcDbEntity
  8
0
  6
CONTINUOUS
 62
     7
100
AcDbVertex
100
AcDb2dVertex
 10
8.3189178039
 20
7.5092227737
 30
0.0
  0
VERTEX
  5
64F
330
2B3
100
AcDbEntity
  8
0
  6
CONTINUOUS
 62
     7
100
AcDbVertex
100
AcDb2dVertex
 10
8.3383222532
 20
7.5076050771
 30
0.0
  0
VERTEX
  5
650
330
2B3
100
AcDbEntity
  8
0
  6
CONTINUOUS
 62
     7
100
AcDbVertex
100
AcDb2dVertex
 10
8.3571807892
 20
7.504628351
 30
0.0
  0
VERTEX
  5
651
330
2B3
100
AcDbEntity
  8
0
  6
CONTINUOUS
 62
     7
100
AcDbVertex
100
AcDb2dVertex
 10
8.3754513312
 20
7.5002992378
 30
0.0
  0
VERTEX
  5
652
330
2B3
100
AcDbEntity
  8
0
  6
CONTINUOUS
 62
     7
100
AcDbVertex
100
AcDb2dVertex
 10
8.3930931106
 20
7.4946273973
 30
0.0
  0
VERTEX
  5
653
330
2B3
100
AcDbEntity
  8
0
  6
CONTINUOUS
 62
     7
100
AcDbVertex
100
AcDb2dVertex
 10
8.4100667615
 20
7.4876254856
 30
0.0
  0
VERTEX
  5
654
330
2B3
100
AcDbEntity
  8
0
  6
CONTINUOUS
 62
     7
100
AcDbVertex
100
AcDb2dVertex
 10
8.4263344091
 20
7.4793091268
 30
0.0
  0
VERTEX
  5
655
330
2B3
100
AcDbEntity
  8
0
  6
CONTINUOUS
 62
     7
100
AcDbVertex
100
AcDb2dVertex
 10
8.4282892029
 20
7.4781937548
 30
0.0
  0
SEQEND
  5
656
330
2B3
100
AcDbEntity
  8
0
  6
CONTINUOUS
 62
     7
  0
ARC
  5
2B4
330
1F
100
AcDbEntity
  8
0
  6
CONTINUOUS
 62
     7
100
AcDbCircle
 10
7.762512105
 20
6.6223918197
 30
0.0
 40
0.0657828495565574
100
AcDbArc
 50
177.3408734892
 51
210.5478585923
  0
ARC
  5
2B5
330
1F
100
AcDbEntity
  8
0
  6
CONTINUOUS
 62
     7
100
AcDbCircle
 10
7.8634453916
 20
6.6178211667
 30
0.0
 40
0.1668195449691641
100
AcDbArc
 50
123.9894221606
 51
177.3810420343
  0
ARC
  5
2B6
330
1F
100
AcDbEntity
  8
0
  6
CONTINUOUS
 62
     7
100
AcDbCircle
 10
8.1979836195
 20
7.2497759355
 30
0.0
 40
0.1426807599627632
100
AcDbArc
 50
102.1732515665
 51
179.7881018635
  0
ARC
  5
2B7
330
1F
100
AcDbEntity
  8
0
  6
CONTINUOUS
 62
     7
100
AcDbCircle
 10
8.6143317627
 20
6.5979835357
 30
0.0
 40
0.9948700847510122
100
AcDbArc
 50
122.5076351052
 51
177.4977414275
  0
LINE
  5
2B8
330
1F
100
AcDbEntity
  8
0
  6
CONTINUOUS
 62
     7
100
AcDbLine
 10
8.0919536413
 20
7.3134548844
 30
0.0
 11
8.0557467953
 21
7.2507427876
 31
0.0
  0
LINE
  5
2B9
330
1F
100
AcDbEntity
  8
0
  6
CONTINUOUS
 62
     7
100
AcDbLine
 10
7.7697443466
 20
6.7553720168
 30
0.0
 11
7.7335284521
 21
6.6926442476
 31
0.0
  0
POLYLINE
  5
2BA
330
1F
100
AcDbEntity
  8
0
  6
CONTINUOUS
 62
     7
100
AcDb2dPolyline
 66
     1
 10
0.0
 20
0.0
 30
0.0
  0
VERTEX
  5
657
330
2BA
100
AcDbEntity
  8
0
  6
CONTINUOUS
 62
     7
100
AcDbVertex
100
AcDb2dVertex
 10
7.7335284521
 20
6.6926442476
 30
0.0
  0
VERTEX
  5
658
330
2BA
100
AcDbEntity
  8
0
  6
CONTINUOUS
 62
     7
100
AcDbVertex
100
AcDb2dVertex
 10
7.7268259795
 20
6.6801791094
 30
0.0
  0
VERTEX
  5
659
330
2BA
100
AcDbEntity
  8
0
  6
CONTINUOUS
 62
     7
100
AcDbVertex
100
AcDb2dVertex
 10
7.7209383179
 20
6.6674224147
 30
0.0
  0
VERTEX
  5
65A
330
2BA
100
AcDbEntity
  8
0
  6
CONTINUOUS
 62
     7
100
AcDbVertex
100
AcDb2dVertex
 10
7.7159299738
 20
6.6545139284
 30
0.0
  0
VERTEX
  5
65B
330
2BA
100
AcDbEntity
  8
0
  6
CONTINUOUS
 62
     7
100
AcDbVertex
100
AcDb2dVertex
 10
7.7118558197
 20
6.6415950788
 30
0.0
  0
VERTEX
  5
65C
330
2BA
100
AcDbEntity
  8
0
  6
CONTINUOUS
 62
     7
100
AcDbVertex
100
AcDb2dVertex
 10
7.7087604929
 20
6.6288074074
 30
0.0
  0
VERTEX
  5
65D
330
2BA
100
AcDbEntity
  8
0
  6
CONTINUOUS
 62
     7
100
AcDbVertex
100
AcDb2dVertex
 10
7.7066779063
 20
6.6162910186
 30
0.0
  0
VERTEX
  5
65E
330
2BA
100
AcDbEntity
  8
0
  6
CONTINUOUS
 62
     7
100
AcDbVertex
100
AcDb2dVertex
 10
7.7056308773
 20
6.6041830446
 30
0.0
  0
VERTEX
  5
65F
330
2BA
100
AcDbEntity
  8
0
  6
CONTINUOUS
 62
     7
100
AcDbVertex
100
AcDb2dVertex
 10
7.7056308773
 20
6.5926161428
 30
0.0
  0
VERTEX
  5
660
330
2BA
100
AcDbEntity
  8
0
  6
CONTINUOUS
 62
     7
100
AcDbVertex
100
AcDb2dVertex
 10
7.7066779063
 20
6.5817170428
 30
0.0
  0
VERTEX
  5
661
330
2BA
100
AcDbEntity
  8
0
  6
CONTINUOUS
 62
     7
100
AcDbVertex
100
AcDb2dVertex
 10
7.7087604929
 20
6.5716051572
 30
0.0
  0
VERTEX
  5
662
330
2BA
100
AcDbEntity
  8
0
  6
CONTINUOUS
 62
     7
100
AcDbVertex
100
AcDb2dVertex
 10
7.7118558197
 20
6.5623912741
 30
0.0
  0
VERTEX
  5
663
330
2BA
100
AcDbEntity
  8
0
  6
CONTINUOUS
 62
     7
100
AcDbVertex
100
AcDb2dVertex
 10
7.7159299738
 20
6.5541763427
 30
0.0
  0
VERTEX
  5
664
330
2BA
100
AcDbEntity
  8
0
  6
CONTINUOUS
 62
     7
100
AcDbVertex
100
AcDb2dVertex
 10
7.7209383179
 20
6.5470503675
 30
0.0
  0
VERTEX
  5
665
330
2BA
100
AcDbEntity
  8
0
  6
CONTINUOUS
 62
     7
100
AcDbVertex
100
AcDb2dVertex
 10
7.7268259795
 20
6.5410914221
 30
0.0
  0
VERTEX
  5
666
330
2BA
100
AcDbEntity
  8
0
  6
CONTINUOUS
 62
     7
100
AcDbVertex
100
AcDb2dVertex
 10
7.7335284521
 20
6.536364794
 30
0.0
  0
SEQEND
  5
667
330
2BA
100
AcDbEntity
  8
0
  6
CONTINUOUS
 62
     7
  0
LINE
  5
2BB
330
1F
100
AcDbEntity
  8
0
  6
CONTINUOUS
 62
     7
100
AcDbLine
 10
8.2362546568
 20
7.3864057372
 30
0.0
 11
8.227288287
 21
7.3915819123
 31
0.0
  0
POLYLINE
  5
2BC
330
1F
100
AcDbEntity
  8
0
  6
CONTINUOUS
 62
     7
100
AcDb2dPolyline
 66
     1
 10
0.0
 20
0.0
 30
0.0
  0
VERTEX
  5
668
330
2BC
100
AcDbEntity
  8
0
  6
CONTINUOUS
 62
     7
100
AcDbVertex
100
AcDb2dVertex
 10
8.227288287
 20
7.3915819123
 30
0.0
  0
VERTEX
  5
669
330
2BC
100
AcDbEntity
  8
0
  6
CONTINUOUS
 62
     7
100
AcDbVertex
100
AcDb2dVertex
 10
8.2198444371
 20
7.3950244372
 30
0.0
  0
VERTEX
  5
66A
330
2BC
100
AcDbEntity
  8
0
  6
CONTINUOUS
 62
     7
100
AcDbVertex
100
AcDb2dVertex
 10
8.2117407661
 20
7.3971451418
 30
0.0
  0
VERTEX
  5
66B
330
2BC
100
AcDbEntity
  8
0
  6
CONTINUOUS
 62
     7
100
AcDbVertex
100
AcDb2dVertex
 10
8.2030660598
 20
7.3979207913
 30
0.0
  0
VERTEX
  5
66C
330
2BC
100
AcDbEntity
  8
0
  6
CONTINUOUS
 62
     7
100
AcDbVertex
100
AcDb2dVertex
 10
8.1939153598
 20
7.3973428874
 30
0.0
  0
VERTEX
  5
66D
330
2BC
100
AcDbEntity
  8
0
  6
CONTINUOUS
 62
     7
100
AcDbVertex
100
AcDb2dVertex
 10
8.1843889233
 20
7.3954177619
 30
0.0
  0
VERTEX
  5
66E
330
2BC
100
AcDbEntity
  8
0
  6
CONTINUOUS
 62
     7
100
AcDbVertex
100
AcDb2dVertex
 10
8.1745911239
 20
7.3921665068
 30
0.0
  0
VERTEX
  5
66F
330
2BC
100
AcDbEntity
  8
0
  6
CONTINUOUS
 62
     7
100
AcDbVertex
100
AcDb2dVertex
 10
8.1646293082
 20
7.3876247434
 30
0.0
  0
VERTEX
  5
670
330
2BC
100
AcDbEntity
  8
0
  6
CONTINUOUS
 62
     7
100
AcDbVertex
100
AcDb2dVertex
 10
8.1546126201
 20
7.3818422325
 30
0.0
  0
VERTEX
  5
671
330
2BC
100
AcDbEntity
  8
0
  6
CONTINUOUS
 62
     7
100
AcDbVertex
100
AcDb2dVertex
 10
8.1446508045
 20
7.3748823283
 30
0.0
  0
VERTEX
  5
672
330
2BC
100
AcDbEntity
  8
0
  6
CONTINUOUS
 62
     7
100
AcDbVertex
100
AcDb2dVertex
 10
8.134853005
 20
7.3668212849
 30
0.0
  0
VERTEX
  5
673
330
2BC
100
AcDbEntity
  8
0
  6
CONTINUOUS
 62
     7
100
AcDbVertex
100
AcDb2dVertex
 10
8.1253265685
 20
7.357747421
 30
0.0
  0
VERTEX
  5
674
330
2BC
100
AcDbEntity
  8
0
  6
CONTINUOUS
 62
     7
100
AcDbVertex
100
AcDb2dVertex
 10
8.1161758686
 20
7.3477601516
 30
0.0
  0
VERTEX
  5
675
330
2BC
100
AcDbEntity
  8
0
  6
CONTINUOUS
 62
     7
100
AcDbVertex
100
AcDb2dVertex
 10
8.1075011622
 20
7.3369688993
 30
0.0
  0
VERTEX
  5
676
330
2BC
100
AcDbEntity
  8
0
  6
CONTINUOUS
 62
     7
100
AcDbVertex
100
AcDb2dVertex
 10
8.0993974913
 20
7.3254918954
 30
0.0
  0
VERTEX
  5
677
330
2BC
100
AcDbEntity
  8
0
  6
CONTINUOUS
 62
     7
100
AcDbVertex
100
AcDb2dVertex
 10
8.0919536413
 20
7.3134548844
 30
0.0
  0
SEQEND
  5
678
330
2BC
100
AcDbEntity
  8
0
  6
CONTINUOUS
 62
     7
  0
LINE
  5
2BD
330
1F
100
AcDbEntity
  8
0
  6
CONTINUOUS
 62
     7
100
AcDbLine
 10
8.0359909803
 20
7.4093454663
 30
0.0
 11
8.0085083903
 21
7.4252108278
 31
0.0
  0
SPLINE
  5
2BE
330
1F
100
AcDbEntity
  8
0
  6
CONTINUOUS
 62
     7
100
AcDbSpline
210
0.0
220
0.0
230
1.0
 70
     8
 71
     3
 72
     9
 73
     5
 74
     0
 42
0.00000001
 43
0.00000001
 40
0.0
 40
0.0
 40
0.0
 40
0.0
 40
0.8066725334436063
 40
1.0
 40
1.0
 40
1.0
 40
1.0
 10
8.00850839028123
 20
7.425210827789029
 30
0.0
 10
8.008790735609924
 20
7.426949980315486
 30
0.0
 10
8.009140747934614
 20
7.429105938841845
 30
0.0
 10
8.01114076193936
 20
7.429662097173185
 30
0.0
 10
8.011527419579975
 20
7.429769617854387
 30
0.0
  0
SPLINE
  5
2BF
330
1F
100
AcDbEntity
  8
0
  6
CONTINUOUS
 62
     7
100
AcDbSpline
210
0.0
220
0.0
230
1.0
 70
     8
 71
     3
 72
    46
 73
    42
 74
     0
 42
0.00000001
 43
0.00000001
 40
-0.0312500000000001
 40
-0.0312500000000001
 40
0.0
 40
0.0
 40
0.0624999999999997
 40
0.0624999999999997
 40
0.0937499999999997
 40
0.0937499999999997
 40
0.1249999999999996
 40
0.1249999999999996
 40
0.1874999999999995
 40
0.1874999999999995
 40
0.2499999999999996
 40
0.2499999999999996
 40
0.3124999999999996
 40
0.3124999999999996
 40
0.3749999999999997
 40
0.3749999999999997
 40
0.4062499999999996
 40
0.4062499999999996
 40
0.4374999999999996
 40
0.4374999999999996
 40
0.4999999999999997
 40
0.4999999999999997
 40
0.5624999999999997
 40
0.5624999999999997
 40
0.6249999999999998
 40
0.6249999999999998
 40
0.6874999999999998
 40
0.6874999999999998
 40
0.7499999999999999
 40
0.7499999999999999
 40
0.8124999999999999
 40
0.8124999999999999
 40
0.875
 40
0.875
 40
0.90625
 40
0.90625
 40
0.9374999999999999
 40
0.9374999999999999
 40
0.9687499999999999
 40
0.9687499999999999
 40
1.0
 40
1.0
 40
1.0625
 40
1.0625
 10
7.705168483944331
 20
7.172760895597206
 30
0.0
 10
7.695495606383366
 20
7.178344928953659
 30
0.0
 10
7.687468758133609
 20
7.179015622928138
 30
0.0
 10
7.675437299336059
 20
7.176817804716325
 30
0.0
 10
7.671423942556466
 20
7.175571356323344
 30
0.0
 10
7.663672507597767
 20
7.172375480760295
 30
0.0
 10
7.659885304022319
 20
7.170411894934162
 30
0.0
 10
7.648818032930334
 20
7.163595233200457
 30
0.0
 10
7.642136927280176
 20
7.158047624234775
 30
0.0
 10
7.630023877476833
 20
7.145255348640327
 30
0.0
 10
7.624685523530498
 20
7.138049347167549
 30
0.0
 10
7.615979929144361
 20
7.122567037050581
 30
0.0
 10
7.612531390876782
 20
7.114099311315123
 30
0.0
 10
7.608264298297
 20
7.096753519029581
 30
0.0
 10
7.60740124235303
 20
7.087636832184713
 30
0.0
 10
7.608489778522374
 20
7.074493830601889
 30
0.0
 10
7.609259201895623
 20
7.070113896413974
 30
0.0
 10
7.611582939823486
 20
7.061865687329418
 30
0.0
 10
7.6131258019633
 20
7.05797748456865
 30
0.0
 10
7.618958358039233
 20
7.047094871434171
 30
0.0
 10
7.624419499114557
 20
7.04113366509722
 30
0.0
 10
7.637125718052032
 20
7.033654680835733
 30
0.0
 10
7.644301204581126
 20
7.032163788465668
 30
0.0
 10
7.658595470299081
 20
7.033718082910314
 30
0.0
 10
7.665726798599466
 20
7.036747299113173
 30
0.0
 10
7.678753840614503
 20
7.045921313250267
 30
0.0
 10
7.684712290249749
 20
7.052055825983889
 30
0.0
 10
7.695153315407453
 20
7.065907194131912
 30
0.0
 10
7.699721224308422
 20
7.073725488872908
 30
0.0
 10
7.70734881506332
 20
7.089940181278528
 30
0.0
 10
7.710491559998094
 20
7.098507339769769
 30
0.0
 10
7.715146365399349
 20
7.115567702523085
 30
0.0
 10
7.716729863861308
 20
7.124280758452993
 30
0.0
 10
7.717510118549419
 20
7.136955305943165
 30
0.0
 10
7.717505330230021
 20
7.141109250428812
 30
0.0
 10
7.716807871246679
 20
7.149259622904919
 30
0.0
 10
7.716108488452661
 20
7.153243057956174
 30
0.0
 10
7.713823432743021
 20
7.160657715616384
 30
0.0
 10
7.712199676635153
 20
7.164173830084279
 30
0.0
 10
7.707898322492298
 20
7.170196118150333
 30
0.0
 10
7.705168483944331
 20
7.172760895597206
 30
0.0
 10
7.695495606383366
 20
7.178344928953659
 30
0.0
  0
LINE
  5
2C0
330
1F
100
AcDbEntity
  8
0
  6
CONTINUOUS
 62
     7
100
AcDbLine
 10
7.8222419452
 20
7.4181365869
 30
0.0
 11
7.9525947214
 21
7.342885531
 31
0.0
  0
ARC
  5
2C1
330
1F
100
AcDbEntity
  8
0
  6
CONTINUOUS
 62
     7
100
AcDbCircle
 10
7.9339820296
 20
7.2457463856
 30
0.0
 40
0.205436676287818
100
AcDbArc
 50
66.0545260885
 51
122.9505478733
  0
POLYLINE
  5
2C2
330
1F
100
AcDbEntity
  8
0
  6
CONTINUOUS
 62
     7
100
AcDb2dPolyline
 66
     1
 10
0.0
 20
0.0
 30
0.0
  0
VERTEX
  5
679
330
2C2
100
AcDbEntity
  8
0
  6
CONTINUOUS
 62
     7
100
AcDbVertex
100
AcDb2dVertex
 10
7.5957413725
 20
6.6950415185
 30
0.0
  0
VERTEX
  5
67A
330
2C2
100
AcDbEntity
  8
0
  6
CONTINUOUS
 62
     7
100
AcDbVertex
100
AcDb2dVertex
 10
7.5857789912
 20
6.70135881
 30
0.0
  0
VERTEX
  5
67B
330
2C2
100
AcDbEntity
  8
0
  6
CONTINUOUS
 62
     7
100
AcDbVertex
100
AcDb2dVertex
 10
7.5741464616
 20
6.710344857
 30
0.0
  0
VERTEX
  5
67C
330
2C2
100
AcDbEntity
  8
0
  6
CONTINUOUS
 62
     7
100
AcDbVertex
100
AcDb2dVertex
 10
7.5633434147
 20
6.7205810571
 30
0.0
  0
VERTEX
  5
67D
330
2C2
100
AcDbEntity
  8
0
  6
CONTINUOUS
 62
     7
100
AcDbVertex
100
AcDb2dVertex
 10
7.5534081165
 20
6.7320311523
 30
0.0
  0
VERTEX
  5
67E
330
2C2
100
AcDbEntity
  8
0
  6
CONTINUOUS
 62
     7
100
AcDbVertex
100
AcDb2dVertex
 10
7.5443757591
 20
6.744654585
 30
0.0
  0
VERTEX
  5
67F
330
2C2
100
AcDbEntity
  8
0
  6
CONTINUOUS
 62
     7
100
AcDbVertex
100
AcDb2dVertex
 10
7.5362783364
 20
6.7584066411
 30
0.0
  0
VERTEX
  5
680
330
2C2
100
AcDbEntity
  8
0
  6
CONTINUOUS
 62
     7
100
AcDbVertex
100
AcDb2dVertex
 10
7.5291445304
 20
6.7732386092
 30
0.0
  0
VERTEX
  5
681
330
2C2
100
AcDbEntity
  8
0
  6
CONTINUOUS
 62
     7
100
AcDbVertex
100
AcDb2dVertex
 10
7.5229996101
 20
6.7890979523
 30
0.0
  0
VERTEX
  5
682
330
2C2
100
AcDbEntity
  8
0
  6
CONTINUOUS
 62
     7
100
AcDbVertex
100
AcDb2dVertex
 10
7.5178653415
 20
6.8059284946
 30
0.0
  0
VERTEX
  5
683
330
2C2
100
AcDbEntity
  8
0
  6
CONTINUOUS
 62
     7
100
AcDbVertex
100
AcDb2dVertex
 10
7.5137599111
 20
6.82367062
 30
0.0
  0
VERTEX
  5
684
330
2C2
100
AcDbEntity
  8
0
  6
CONTINUOUS
 62
     7
100
AcDbVertex
100
AcDb2dVertex
 10
7.5106978606
 20
6.8422614836
 30
0.0
  0
VERTEX
  5
685
330
2C2
100
AcDbEntity
  8
0
  6
CONTINUOUS
 62
     7
100
AcDbVertex
100
AcDb2dVertex
 10
7.5086900364
 20
6.8616352341
 30
0.0
  0
VERTEX
  5
686
330
2C2
100
AcDbEntity
  8
0
  6
CONTINUOUS
 62
     7
100
AcDbVertex
100
AcDb2dVertex
 10
7.5077435504
 20
6.881723247
 30
0.0
  0
VERTEX
  5
687
330
2C2
100
AcDbEntity
  8
0
  6
CONTINUOUS
 62
     7
100
AcDbVertex
100
AcDb2dVertex
 10
7.5078617552
 20
6.9024543679
 30
0.0
  0
VERTEX
  5
688
330
2C2
100
AcDbEntity
  8
0
  6
CONTINUOUS
 62
     7
100
AcDbVertex
100
AcDb2dVertex
 10
7.5090442321
 20
6.9237551645
 30
0.0
  0
VERTEX
  5
689
330
2C2
100
AcDbEntity
  8
0
  6
CONTINUOUS
 62
     7
100
AcDbVertex
100
AcDb2dVertex
 10
7.5112867925
 20
6.9455501864
 30
0.0
  0
VERTEX
  5
68A
330
2C2
100
AcDbEntity
  8
0
  6
CONTINUOUS
 62
     7
100
AcDbVertex
100
AcDb2dVertex
 10
7.5145814932
 20
6.9677622329
 30
0.0
  0
VERTEX
  5
68B
330
2C2
100
AcDbEntity
  8
0
  6
CONTINUOUS
 62
     7
100
AcDbVertex
100
AcDb2dVertex
 10
7.5189166637
 20
6.9903126258
 30
0.0
  0
VERTEX
  5
68C
330
2C2
100
AcDbEntity
  8
0
  6
CONTINUOUS
 62
     7
100
AcDbVertex
100
AcDb2dVertex
 10
7.5242769483
 20
7.0131214887
 30
0.0
  0
VERTEX
  5
68D
330
2C2
100
AcDbEntity
  8
0
  6
CONTINUOUS
 62
     7
100
AcDbVertex
100
AcDb2dVertex
 10
7.5306433602
 20
7.0361080295
 30
0.0
  0
VERTEX
  5
68E
330
2C2
100
AcDbEntity
  8
0
  6
CONTINUOUS
 62
     7
100
AcDbVertex
100
AcDb2dVertex
 10
7.5379933488
 20
7.0591908268
 30
0.0
  0
VERTEX
  5
68F
330
2C2
100
AcDbEntity
  8
0
  6
CONTINUOUS
 62
     7
100
AcDbVertex
100
AcDb2dVertex
 10
7.5463008793
 20
7.0822881184
 30
0.0
  0
VERTEX
  5
690
330
2C2
100
AcDbEntity
  8
0
  6
CONTINUOUS
 62
     7
100
AcDbVertex
100
AcDb2dVertex
 10
7.5555365254
 20
7.1053180905
 30
0.0
  0
VERTEX
  5
691
330
2C2
100
AcDbEntity
  8
0
  6
CONTINUOUS
 62
     7
100
AcDbVertex
100
AcDb2dVertex
 10
7.5656675732
 20
7.1281991678
 30
0.0
  0
VERTEX
  5
692
330
2C2
100
AcDbEntity
  8
0
  6
CONTINUOUS
 62
     7
100
AcDbVertex
100
AcDb2dVertex
 10
7.5766581372
 20
7.1508503026
 30
0.0
  0
VERTEX
  5
693
330
2C2
100
AcDbEntity
  8
0
  6
CONTINUOUS
 62
     7
100
AcDbVertex
100
AcDb2dVertex
 10
7.5884692873
 20
7.1731912615
 30
0.0
  0
VERTEX
  5
694
330
2C2
100
AcDbEntity
  8
0
  6
CONTINUOUS
 62
     7
100
AcDbVertex
100
AcDb2dVertex
 10
7.6010591869
 20
7.1951429099
 30
0.0
  0
VERTEX
  5
695
330
2C2
100
AcDbEntity
  8
0
  6
CONTINUOUS
 62
     7
100
AcDbVertex
100
AcDb2dVertex
 10
7.6143832408
 20
7.2166274921
 30
0.0
  0
VERTEX
  5
696
330
2C2
100
AcDbEntity
  8
0
  6
CONTINUOUS
 62
     7
100
AcDbVertex
100
AcDb2dVertex
 10
7.6283942535
 20
7.2375689068
 30
0.0
  0
VERTEX
  5
697
330
2C2
100
AcDbEntity
  8
0
  6
CONTINUOUS
 62
     7
100
AcDbVertex
100
AcDb2dVertex
 10
7.6430425962
 20
7.2578929767
 30
0.0
  0
VERTEX
  5
698
330
2C2
100
AcDbEntity
  8
0
  6
CONTINUOUS
 62
     7
100
AcDbVertex
100
AcDb2dVertex
 10
7.6582763823
 20
7.2775277114
 30
0.0
  0
VERTEX
  5
699
330
2C2
100
AcDbEntity
  8
0
  6
CONTINUOUS
 62
     7
100
AcDbVertex
100
AcDb2dVertex
 10
7.6740416519
 20
7.2964035619
 30
0.0
  0
VERTEX
  5
69A
330
2C2
100
AcDbEntity
  8
0
  6
CONTINUOUS
 62
     7
100
AcDbVertex
100
AcDb2dVertex
 10
7.6902825623
 20
7.3144536674
 30
0.0
  0
VERTEX
  5
69B
330
2C2
100
AcDbEntity
  8
0
  6
CONTINUOUS
 62
     7
100
AcDbVertex
100
AcDb2dVertex
 10
7.7069415859
 20
7.3316140922
 30
0.0
  0
VERTEX
  5
69C
330
2C2
100
AcDbEntity
  8
0
  6
CONTINUOUS
 62
     7
100
AcDbVertex
100
AcDb2dVertex
 10
7.7239597143
 20
7.3478240516
 30
0.0
  0
VERTEX
  5
69D
330
2C2
100
AcDbEntity
  8
0
  6
CONTINUOUS
 62
     7
100
AcDbVertex
100
AcDb2dVertex
 10
7.741276667
 20
7.3630261278
 30
0.0
  0
VERTEX
  5
69E
330
2C2
100
AcDbEntity
  8
0
  6
CONTINUOUS
 62
     7
100
AcDbVertex
100
AcDb2dVertex
 10
7.758831105
 20
7.3771664731
 30
0.0
  0
VERTEX
  5
69F
330
2C2
100
AcDbEntity
  8
0
  6
CONTINUOUS
 62
     7
100
AcDbVertex
100
AcDb2dVertex
 10
7.7765608483
 20
7.3901950005
 30
0.0
  0
VERTEX
  5
6A0
330
2C2
100
AcDbEntity
  8
0
  6
CONTINUOUS
 62
     7
100
AcDbVertex
100
AcDb2dVertex
 10
7.7944030956
 20
7.4020655611
 30
0.0
  0
SEQEND
  5
6A1
330
2C2
100
AcDbEntity
  8
0
  6
CONTINUOUS
 62
     7
  0
LINE
  5
2C3
330
1F
100
AcDbEntity
  8
0
  6
CONTINUOUS
 62
     7
100
AcDbLine
 10
7.7944030956
 20
7.4020655611
 30
0.0
 11
7.931416371
 21
7.3229694808
 31
0.0
  0
LINE
  5
2C4
330
1F
100
AcDbEntity
  8
0
  6
CONTINUOUS
 62
     7
100
AcDbLine
 10
7.7335284521
 20
6.536364794
 30
0.0
 11
7.7425031853
 21
6.5311821065
 31
0.0
  0
ARC
  5
2C5
330
1F
100
AcDbEntity
  8
0
  6
CONTINUOUS
 62
     7
100
AcDbCircle
 10
8.1405869702
 20
6.8723120544
 30
0.0
 40
0.6336181269080083
100
AcDbArc
 50
124.2704676125
 51
177.3179011489
  0
LINE
  5
2C6
330
1F
100
AcDbEntity
  8
0
  6
CONTINUOUS
 62
     7
100
AcDbLine
 10
7.7944030956
 20
7.4020655611
 30
0.0
 11
7.7837964939
 21
7.3959268811
 31
0.0
  0
LINE
  5
2C7
330
1F
100
AcDbEntity
  8
0
  6
CONTINUOUS
 62
     7
100
AcDbLine
 10
7.8222419452
 20
7.4181365869
 30
0.0
 11
7.8116353435
 21
7.4119979069
 31
0.0
  0
LINE
  5
2C8
330
1F
100
AcDbEntity
  8
0
  6
CONTINUOUS
 62
     7
100
AcDbLine
 10
7.8116353435
 20
7.4119979069
 30
0.0
 11
7.8116353435
 21
7.3921175961
 31
0.0
  0
ARC
  5
2C9
330
1F
100
AcDbEntity
  8
0
  6
CONTINUOUS
 62
     8
100
AcDbCircle
 10
8.2081766825
 20
6.8456046542
 30
0.0
 40
0.0527262351016774
100
AcDbArc
 50
184.7481675019
 51
246.7248482222
  0
ARC
  5
2CA
330
1F
100
AcDbEntity
  8
0
  6
CONTINUOUS
 62
     8
100
AcDbCircle
 10
8.2641599675
 20
6.9458271261
 30
0.0
 40
0.1673323399673698
100
AcDbArc
 50
242.672637213
 51
295.0438623401
  0
POLYLINE
  5
2CB
330
1F
100
AcDbEntity
  8
0
  6
CONTINUOUS
 62
     8
100
AcDb2dPolyline
 66
     1
 10
0.0
 20
0.0
 30
0.0
  0
VERTEX
  5
6A2
330
2CB
100
AcDbEntity
  8
0
  6
CONTINUOUS
 62
     8
100
AcDbVertex
100
AcDb2dVertex
 10
7.6997510068
 20
7.0929879513
 30
0.0
  0
VERTEX
  5
6A3
330
2CB
100
AcDbEntity
  8
0
  6
CONTINUOUS
 62
     8
100
AcDbVertex
100
AcDb2dVertex
 10
7.6943199166
 20
7.0967409538
 30
0.0
  0
VERTEX
  5
6A4
330
2CB
100
AcDbEntity
  8
0
  6
CONTINUOUS
 62
     8
100
AcDbVertex
100
AcDb2dVertex
 10
7.6890975402
 20
7.1015851323
 30
0.0
  0
VERTEX
  5
6A5
330
2CB
100
AcDbEntity
  8
0
  6
CONTINUOUS
 62
     8
100
AcDbVertex
100
AcDb2dVertex
 10
7.6842845706
 20
7.1073343278
 30
0.0
  0
VERTEX
  5
6A6
330
2CB
100
AcDbEntity
  8
0
  6
CONTINUOUS
 62
     8
100
AcDbVertex
100
AcDb2dVertex
 10
7.6800659674
 20
7.1137676018
 30
0.0
  0
VERTEX
  5
6A7
330
2CB
100
AcDbEntity
  8
0
  6
CONTINUOUS
 62
     8
100
AcDbVertex
100
AcDb2dVertex
 10
7.6766038492
 20
7.1206377274
 30
0.0
  0
VERTEX
  5
6A8
330
2CB
100
AcDbEntity
  8
0
  6
CONTINUOUS
 62
     8
100
AcDbVertex
100
AcDb2dVertex
 10
7.6740312634
 20
7.1276806893
 30
0.0
  0
VERTEX
  5
6A9
330
2CB
100
AcDbEntity
  8
0
  6
CONTINUOUS
 62
     8
100
AcDbVertex
100
AcDb2dVertex
 10
7.6724470728
 20
7.1346258305
 30
0.0
  0
VERTEX
  5
6AA
330
2CB
100
AcDbEntity
  8
0
  6
CONTINUOUS
 62
     8
100
AcDbVertex
100
AcDb2dVertex
 10
7.6719121571
 20
7.1412062532
 30
0.0
  0
VERTEX
  5
6AB
330
2CB
100
AcDbEntity
  8
0
  6
CONTINUOUS
 62
     8
100
AcDbVertex
100
AcDb2dVertex
 10
7.6724470728
 20
7.1471690754
 30
0.0
  0
VERTEX
  5
6AC
330
2CB
100
AcDbEntity
  8
0
  6
CONTINUOUS
 62
     8
100
AcDbVertex
100
AcDb2dVertex
 10
7.6740312634
 20
7.1522851492
 30
0.0
  0
VERTEX
  5
6AD
330
2CB
100
AcDbEntity
  8
0
  6
CONTINUOUS
 62
     8
100
AcDbVertex
100
AcDb2dVertex
 10
7.6766038492
 20
7.1563578667
 30
0.0
  0
VERTEX
  5
6AE
330
2CB
100
AcDbEntity
  8
0
  6
CONTINUOUS
 62
     8
100
AcDbVertex
100
AcDb2dVertex
 10
7.6800659674
 20
7.1592307156
 30
0.0
  0
VERTEX
  5
6AF
330
2CB
100
AcDbEntity
  8
0
  6
CONTINUOUS
 62
     8
100
AcDbVertex
100
AcDb2dVertex
 10
7.6842845706
 20
7.1607932941
 30
0.0
  0
VERTEX
  5
6B0
330
2CB
100
AcDbEntity
  8
0
  6
CONTINUOUS
 62
     8
100
AcDbVertex
100
AcDb2dVertex
 10
7.6890975402
 20
7.1609855531
 30
0.0
  0
VERTEX
  5
6B1
330
2CB
100
AcDbEntity
  8
0
  6
CONTINUOUS
 62
     8
100
AcDbVertex
100
AcDb2dVertex
 10
7.6943199166
 20
7.1598001042
 30
0.0
  0
VERTEX
  5
6B2
330
2CB
100
AcDbEntity
  8
0
  6
CONTINUOUS
 62
     8
100
AcDbVertex
100
AcDb2dVertex
 10
7.6997510068
 20
7.1572825035
 30
0.0
  0
VERTEX
  5
6B3
330
2CB
100
AcDbEntity
  8
0
  6
CONTINUOUS
 62
     8
100
AcDbVertex
100
AcDb2dVertex
 10
7.7051820969
 20
7.153529501
 30
0.0
  0
VERTEX
  5
6B4
330
2CB
100
AcDbEntity
  8
0
  6
CONTINUOUS
 62
     8
100
AcDbVertex
100
AcDb2dVertex
 10
7.7104044733
 20
7.1486853225
 30
0.0
  0
VERTEX
  5
6B5
330
2CB
100
AcDbEntity
  8
0
  6
CONTINUOUS
 62
     8
100
AcDbVertex
100
AcDb2dVertex
 10
7.7152174429
 20
7.142936127
 30
0.0
  0
VERTEX
  5
6B6
330
2CB
100
AcDbEntity
  8
0
  6
CONTINUOUS
 62
     8
100
AcDbVertex
100
AcDb2dVertex
 10
7.7174167664
 20
7.1397824609
 30
0.0
  0
SEQEND
  5
6B7
330
2CB
100
AcDbEntity
  8
0
  6
CONTINUOUS
 62
     8
  0
POLYLINE
  5
2CC
330
1F
100
AcDbEntity
  8
0
  6
CONTINUOUS
 62
     8
100
AcDb2dPolyline
 66
     1
 10
0.0
 20
0.0
 30
0.0
  0
VERTEX
  5
6B8
330
2CC
100
AcDbEntity
  8
0
  6
CONTINUOUS
 62
     8
100
AcDbVertex
100
AcDb2dVertex
 10
7.7073031051
 20
7.0898337173
 30
0.0
  0
VERTEX
  5
6B9
330
2CC
100
AcDbEntity
  8
0
  6
CONTINUOUS
 62
     8
100
AcDbVertex
100
AcDb2dVertex
 10
7.7051820969
 20
7.0904703506
 30
0.0
  0
VERTEX
  5
6BA
330
2CC
100
AcDbEntity
  8
0
  6
CONTINUOUS
 62
     8
100
AcDbVertex
100
AcDb2dVertex
 10
7.6997510068
 20
7.0929879513
 30
0.0
  0
SEQEND
  5
6BB
330
2CC
100
AcDbEntity
  8
0
  6
CONTINUOUS
 62
     8
  0
ARC
  5
2CD
330
1F
100
AcDbEntity
  8
0
  6
CONTINUOUS
 62
     8
100
AcDbCircle
 10
8.0866974169
 20
7.4111543076
 30
0.0
 40
0.0543149112728483
100
AcDbArc
 50
57.8399480172
 51
114.0107590772
  0
LINE
  5
2CE
330
1F
100
AcDbEntity
  8
0
  6
CONTINUOUS
 62
     8
100
AcDbLine
 10
8.111892695
 20
7.3019443137
 30
0.0
 11
8.0919536413
 21
7.3134548844
 31
0.0
  0
LINE
  5
2CF
330
1F
100
AcDbEntity
  8
0
  6
CONTINUOUS
 62
     8
100
AcDbLine
 10
7.7534711889
 20
6.6811315507
 30
0.0
 11
7.7335284521
 21
6.6926442476
 31
0.0
  0
LINE
  5
2D0
330
1F
100
AcDbEntity
  8
0
  6
CONTINUOUS
 62
     8
100
AcDbLine
 10
7.7425031176
 20
6.5311838298
 30
0.0
 11
7.7335284521
 21
6.536364794
 31
0.0
  0
ENDSEC
  0
SECTION
  2
OBJECTS
  0
DICTIONARY
  5
C
330
0
100
AcDbDictionary
  3
ACAD_GROUP
350
D
  3
ACAD_LAYOUT
350
1A
  3
ACAD_MLEADERSTYLE
350
2D3
  3
ACAD_MLINESTYLE
350
17
  3
ACAD_PLOTSETTINGS
350
19
  3
ACAD_SCALELIST
350
6F
  3
ACAD_VISUALSTYLE
350
2A
  3
ACDBVARIABLEDICTIONARY
350
2D1
1001
ACAD
1000
TREAT_AS_HARD
1070
     0
  0
DICTIONARY
  5
D
102
{ACAD_REACTORS
330
C
102
}
330
C
100
AcDbDictionary
1001
ACAD
1000
TREAT_AS_HARD
1070
     0
  0
DICTIONARY
  5
1A
102
{ACAD_REACTORS
330
C
102
}
330
C
100
AcDbDictionary
1001
ACAD
1000
TREAT_AS_HARD
1070
     0
  0
DICTIONARY
  5
2D3
102
{ACAD_REACTORS
330
C
102
}
330
C
100
AcDbDictionary
1001
ACAD
1000
TREAT_AS_HARD
1070
     0
  0
DICTIONARY
  5
17
102
{ACAD_REACTORS
330
C
102
}
330
C
100
AcDbDictionary
  3
STANDARD
350
18
1001
ACAD
1000
TREAT_AS_HARD
1070
     0
  0
DICTIONARY
  5
19
102
{ACAD_REACTORS
330
C
102
}
330
C
100
AcDbDictionary
1001
ACAD
1000
TREAT_AS_HARD
1070
     0
  0
DICTIONARY
  5
6F
102
{ACAD_REACTORS
330
C
102
}
330
C
100
AcDbDictionary
  3
A0
350
70
  3
A1
350
71
  3
A2
350
72
  3
A3
350
73
  3
A4
350
74
  3
A5
350
75
  3
A6
350
76
  3
A7
350
77
  3
A8
350
78
  3
A9
350
79
  3
B0
350
7A
  3
B1
350
7B
  3
B2
350
7C
  3
B3
350
7D
  3
B4
350
7E
  3
B5
350
7F
  3
B6
350
80
  3
B7
350
81
  3
B8
350
82
  3
B9
350
83
  3
C0
350
84
  3
C1
350
85
  3
C2
350
86
  3
C3
350
87
  3
C4
350
88
  3
C5
350
89
  3
C6
350
8A
  3
C7
350
8B
  3
C8
350
8C
  3
C9
350
8D
  3
D0
350
8E
  3
D1
350
8F
  3
D2
350
90
1001
ACAD
1000
TREAT_AS_HARD
1070
     0
  0
DICTIONARY
  5
2A
102
{ACAD_REACTORS
330
C
102
}
330
C
100
AcDbDictionary
  3
2DWIREFRAME
350
2F
  3
3D_HIDDEN
350
31
  3
3DWIREFRAME
350
30
  3
BASIC
350
32
  3
BRIGHTEN
350
36
  3
COLORCHANGE
350
3A
  3
CONCEPTUAL
350
34
  3
DIM
350
35
  3
FACEPATTERN
350
39
  3
FLAT
350
2B
  3
FLATWITHEDGES
350
2C
  3
GOURAUD
350
2D
  3
GOURAUDWITHEDGES
350
2E
  3
LINEPATTERN
350
38
  3
REALISTIC
350
33
  3
THICKEN
350
37
1001
ACAD
1000
TREAT_AS_HARD
1070
     0
  0
DICTIONARY
  5
2D1
102
{ACAD_REACTORS
330
C
102
}
330
C
100
AcDbDictionary
  3
CANNOSCALE
350
2D4
  3
DIMASSOC
350
2D5
  3
HIDETEXT
350
2D6
1001
ACAD
1000
TREAT_AS_HARD
1070
     0
  0
MLINESTYLE
  5
18
102
{ACAD_REACTORS
330
17
102
}
330
17
100
AcDbMlineStyle
  2
Standard
 70
     0
  3

 62
   256
 51
90.0
 52
90.0
 71
     2
 49
0.5
 62
   256
  6
BYLAYER
 49
-0.5
 62
   256
  6
BYLAYER
  0
ACAD_PROXY_OBJECT
  5
70
102
{ACAD_REACTORS
330
6F
102
}
330
6F
100
AcDbZombieObject
 90
      499
 91
      502
 93
       41
310
903313A31580
  0
ACAD_PROXY_OBJECT
  5
71
102
{ACAD_REACTORS
330
6F
102
}
330
6F
100
AcDbZombieObject
 90
      499
 91
      502
 93
      105
310
903313A324000000000000004000
  0
ACAD_PROXY_OBJECT
  5
72
102
{ACAD_REACTORS
330
6F
102
}
330
6F
100
AcDbZombieObject
 90
      499
 91
      502
 93
      105
310
903313A344000000000000104000
  0
ACAD_PROXY_OBJECT
  5
73
102
{ACAD_REACTORS
330
6F
102
}
330
6F
100
AcDbZombieObject
 90
      499
 91
      502
 93
      105
310
903313A354000000000000144000
  0
ACAD_PROXY_OBJECT
  5
74
102
{ACAD_REACTORS
330
6F
102
}
330
6F
100
AcDbZombieObject
 90
      499
 91
      502
 93
      105
310
903313A384000000000000204000
  0
ACAD_PROXY_OBJECT
  5
75
102
{ACAD_REACTORS
330
6F
102
}
330
6F
100
AcDbZombieObject
 90
      499
 91
      502
 93
      113
310
904313A31304000000000000244000
  0
ACAD_PROXY_OBJECT
  5
76
102
{ACAD_REACTORS
330
6F
102
}
330
6F
100
AcDbZombieObject
 90
      499
 91
      502
 93
      113
310
904313A31364000000000000304000
  0
ACAD_PROXY_OBJECT
  5
77
102
{ACAD_REACTORS
330
6F
102
}
330
6F
100
AcDbZombieObject
 90
      499
 91
      502
 93
      113
310
904313A32304000000000000344000
  0
ACAD_PROXY_OBJECT
  5
78
102
{ACAD_REACTORS
330
6F
102
}
330
6F
100
AcDbZombieObject
 90
      499
 91
      502
 93
      113
310
904313A333040000000000003E4000
  0
ACAD_PROXY_OBJECT
  5
79
102
{ACAD_REACTORS
330
6F
102
}
330
6F
100
AcDbZombieObject
 90
      499
 91
      502
 93
      113
310
904313A34304000000000000444000
  0
ACAD_PROXY_OBJECT
  5
7A
102
{ACAD_REACTORS
330
6F
102
}
330
6F
100
AcDbZombieObject
 90
      499
 91
      502
 93
      113
310
904313A35304000000000000494000
  0
ACAD_PROXY_OBJECT
  5
7B
102
{ACAD_REACTORS
330
6F
102
}
330
6F
100
AcDbZombieObject
 90
      499
 91
      502
 93
      121
310
905313A3130304000000000000594000
  0
ACAD_PROXY_OBJECT
  5
7C
102
{ACAD_REACTORS
330
6F
102
}
330
6F
100
AcDbZombieObject
 90
      499
 91
      502
 93
      105
310
903323A310000000000000010100
  0
ACAD_PROXY_OBJECT
  5
7D
102
{ACAD_REACTORS
330
6F
102
}
330
6F
100
AcDbZombieObject
 90
      499
 91
      502
 93
      105
310
903343A310000000000000410100
  0
ACAD_PROXY_OBJECT
  5
7E
102
{ACAD_REACTORS
330
6F
102
}
330
6F
100
AcDbZombieObject
 90
      499
 91
      502
 93
      105
310
903383A310000000000000810100
  0
ACAD_PROXY_OBJECT
  5
7F
102
{ACAD_REACTORS
330
6F
102
}
330
6F
100
AcDbZombieObject
 90
      499
 91
      502
 93
      113
310
90431303A310000000000000910100
  0
ACAD_PROXY_OBJECT
  5
80
102
{ACAD_REACTORS
330
6F
102
}
330
6F
100
AcDbZombieObject
 90
      499
 91
      502
 93
      121
310
9053130303A310000000000001650100
  0
ACAD_PROXY_OBJECT
  5
81
102
{ACAD_REACTORS
330
6F
102
}
330
6F
100
AcDbZombieObject
 90
      499
 91
      502
 93
      257
310
90E312F31323822203D2031272D3022000000000000200FC000000000000284000
  0
ACAD_PROXY_OBJECT
  5
82
102
{ACAD_REACTORS
330
6F
102
}
330
6F
100
AcDbZombieObject
 90
      499
 91
      502
 93
      249
310
90D312F363422203D2031272D3022000000000000240FC000000000000284000
  0
ACAD_PROXY_OBJECT
  5
83
102
{ACAD_REACTORS
330
6F
102
}
330
6F
100
AcDbZombieObject
 90
      499
 91
      502
 93
      249
310
90D312F333222203D2031272D3022000000000000280FC000000000000284000
  0
ACAD_PROXY_OBJECT
  5
84
102
{ACAD_REACTORS
330
6F
102
}
330
6F
100
AcDbZombieObject
 90
      499
 91
      502
 93
      249
310
90D312F313622203D2031272D30220000000000002C0FC000000000000284000
  0
ACAD_PROXY_OBJECT
  5
85
102
{ACAD_REACTORS
330
6F
102
}
330
6F
100
AcDbZombieObject
 90
      499
 91
      502
 93
      249
310
90D332F333222203D2031272D30220000000000002E0FC000000000000284000
  0
ACAD_PROXY_OBJECT
  5
86
102
{ACAD_REACTORS
330
6F
102
}
330
6F
100
AcDbZombieObject
 90
      499
 91
      502
 93
      241
310
90C312F3822203D2031272D3022000000000000300FC000000000000284000
  0
ACAD_PROXY_OBJECT
  5
87
102
{ACAD_REACTORS
330
6F
102
}
330
6F
100
AcDbZombieObject
 90
      499
 91
      502
 93
      249
310
90D332F313622203D2031272D3022000000000000320FC000000000000284000
  0
ACAD_PROXY_OBJECT
  5
88
102
{ACAD_REACTORS
330
6F
102
}
330
6F
100
AcDbZombieObject
 90
      499
 91
      502
 93
      241
310
90C312F3422203D2031272D3022000000000000340FC000000000000284000
  0
ACAD_PROXY_OBJECT
  5
89
102
{ACAD_REACTORS
330
6F
102
}
330
6F
100
AcDbZombieObject
 90
      499
 91
      502
 93
      241
310
90C332F3822203D2031272D3022000000000000360FC000000000000284000
  0
ACAD_PROXY_OBJECT
  5
8A
102
{ACAD_REACTORS
330
6F
102
}
330
6F
100
AcDbZombieObject
 90
      499
 91
      502
 93
      241
310
90C312F3222203D2031272D3022000000000000380FC000000000000284000
  0
ACAD_PROXY_OBJECT
  5
8B
102
{ACAD_REACTORS
330
6F
102
}
330
6F
100
AcDbZombieObject
 90
      499
 91
      502
 93
      241
310
90C332F3422203D2031272D30220000000000003A0FC000000000000284000
  0
ACAD_PROXY_OBJECT
  5
8C
102
{ACAD_REACTORS
330
6F
102
}
330
6F
100
AcDbZombieObject
 90
      499
 91
      502
 93
      161
310
90A3122203D2031272D30224000000000000284000
  0
ACAD_PROXY_OBJECT
  5
8D
102
{ACAD_REACTORS
330
6F
102
}
330
6F
100
AcDbZombieObject
 90
      499
 91
      502
 93
      257
310
90E312D312F3222203D2031272D30220000000000003E0FC000000000000284000
  0
ACAD_PROXY_OBJECT
  5
8E
102
{ACAD_REACTORS
330
6F
102
}
330
6F
100
AcDbZombieObject
 90
      499
 91
      502
 93
      225
310
90A3322203D2031272D302200000000000002100000000000000284000
  0
ACAD_PROXY_OBJECT
  5
8F
102
{ACAD_REACTORS
330
6F
102
}
330
6F
100
AcDbZombieObject
 90
      499
 91
      502
 93
      225
310
90A3622203D2031272D302200000000000006100000000000000284000
  0
ACAD_PROXY_OBJECT
  5
90
102
{ACAD_REACTORS
330
6F
102
}
330
6F
100
AcDbZombieObject
 90
      499
 91
      502
 93
      249
310
90D31272D3022203D2031272D30220000000000000A100000000000000284000
  0
ACAD_PROXY_OBJECT
  5
2F
102
{ACAD_REACTORS
330
2A
102
}
330
2A
100
AcDbZombieObject
 90
      499
 91
      501
 93
      436
310
42CC9915DA5C99599C985B595049028333333333333E3BF0000000000000FB0107901411070040501600405405064090741402480A0340
1001
ACAD
1000
AcDbSavedByObjectVersion
1070
     0
  0
ACAD_PROXY_OBJECT
  5
31
102
{ACAD_REACTORS
330
2A
102
}
330
2A
100
AcDbZombieObject
 90
      499
 91
      501
 93
      500
310
424CD108121A5919195B90640502408333333333333E3BF0000000000000FB01079024090700405020000000000001110200405405064090740C02480A0340
1001
ACAD
1000
AcDbSavedByObjectVersion
1070
     0
  0
ACAD_PROXY_OBJECT
  5
30
102
{ACAD_REACTORS
330
2A
102
}
330
2A
100
AcDbZombieObject
 90
      499
 91
      501
 93
      436
310
42CCD915DA5C99599C985B595059028333333333333E3BF0000000000000FB0107901411070040501600405405064090741402480A0340
1001
ACAD
1000
AcDbSavedByObjectVersion
1070
     0
  0
ACAD_PROXY_OBJECT
  5
32
102
{ACAD_REACTORS
330
2A
102
}
330
2A
100
AcDbZombieObject
 90
      499
 91
      501
 93
      388
310
4150985CDA58D07406404333333333333E3BF0000000000000FB0107A41107004050150841D405064090741402480A0350
1001
ACAD
1000
AcDbSavedByObjectVersion
1070
     0
  0
ACAD_PROXY_OBJECT
  5
36
102
{ACAD_REACTORS
330
2A
102
}
330
2A
100
AcDbZombieObject
 90
      499
 91
      501
 93
      428
310
42109C9A59DA1D195B90C409028333333333333E3BF0000000000000FB010790141107004050150841D405064090741402480A029950
1001
ACAD
1000
AcDbSavedByObjectVersion
1070
     0
  0
ACAD_PROXY_OBJECT
  5
3A
102
{ACAD_REACTORS
330
2A
102
}
330
2A
100
AcDbZombieObject
 90
      499
 91
      501
 93
      452
310
42D0DBDB1BDC90DA185B99D95104090240C333333333333E3BF0000000000000FB0108901411070040501508421405064090741402480A0350
1001
ACAD
1000
AcDbSavedByObjectVersion
1070
     0
  0
ACAD_PROXY_OBJECT
  5
34
102
{ACAD_REACTORS
330
2A
102
}
330
2A
100
AcDbZombieObject
 90
      499
 91
      501
 93
      500
310
4290DBDB98D95C1D1D585B10940D028333333333333E3BF0000000000000FB0107902409070040501000000000000111010841D405064090740C02480A0340
1001
ACAD
1000
AcDbSavedByObjectVersion
1070
     0
  0
ACAD_PROXY_OBJECT
  5
35
102
{ACAD_REACTORS
330
2A
102
}
330
2A
100
AcDbZombieObject
 90
      499
 91
      501
 93
      412
310
40D11A5B50B409028333333333333E3BF0000000000000FB010790141107004050150841D405064090741402480A02677FFFFFD0
1001
ACAD
1000
AcDbSavedByObjectVersion
1070
     0
  0
ACAD_PROXY_OBJECT
  5
39
102
{ACAD_REACTORS
330
2A
102
}
330
2A
100
AcDbZombieObject
 90
      499
 91
      501
 93
      444
310
42D19858D95C185D1D195C9B90F409028333333333333E3BF0000000000000FB010790141107004050150841D405064090741402480A0350
1001
ACAD
1000
AcDbSavedByObjectVersion
1070
     0
  0
ACAD_PROXY_OBJECT
  5
2B
102
{ACAD_REACTORS
330
2A
102
}
330
2A
100
AcDbZombieObject
 90
      499
 91
      501
 93
      388
310
41119B185D240901404333333333333E3BF0000000000000F9010740A41107004050150841D405064090741402480A1B50
1001
ACAD
1000
AcDbSavedByObjectVersion
1070
     0
  0
ACAD_PROXY_OBJECT
  5
2C
102
{ACAD_REACTORS
330
2A
102
}
330
2A
100
AcDbZombieObject
 90
      499
 91
      501
 93
      476
310
43519B185D15DA5D1A115919D95CD0140901404333333333333E3BF0000000000000F9010740901411070040501600405405064090741402480A1B50
1001
ACAD
1000
AcDbSavedByObjectVersion
1070
     0
  0
ACAD_PROXY_OBJECT
  5
2D
102
{ACAD_REACTORS
330
2A
102
}
330
2A
100
AcDbZombieObject
 90
      499
 91
      501
 93
      412
310
41D1DBDD5C985D5910240902404333333333333E3BF0000000000000F9010740A411070040501641D405064090741402480A1B50
1001
ACAD
1000
AcDbSavedByObjectVersion
1070
     0
  0
ACAD_PROXY_OBJECT
  5
2E
102
{ACAD_REACTORS
330
2A
102
}
330
2A
100
AcDbZombieObject
 90
      499
 91
      501
 93
      500
310
4411DBDD5C985D5915DA5D1A115919D95CD0340902404333333333333E3BF0000000000000F9010740901411070040501600405405064090741402480A1B50
1001
ACAD
1000
AcDbSavedByObjectVersion
1070
     0
  0
ACAD_PROXY_OBJECT
  5
38
102
{ACAD_REACTORS
330
2A
102
}
330
2A
100
AcDbZombieObject
 90
      499
 91
      501
 93
      444
310
42D31A5B995C185D1D195C9B90E409028333333333333E3BF0000000000000FB010790141107004050750841D405064090741402483A0350
1001
ACAD
1000
AcDbSavedByObjectVersion
1070
     0
  0
ACAD_PROXY_OBJECT
  5
33
102
{ACAD_REACTORS
330
2A
102
}
330
2A
100
AcDbZombieObject
 90
      499
 91
      501
 93
      420
310
425499585B1A5CDD1A58D08409028333333333333E3BF0000000000000FB01079019070040501508421405064090741402480A1B40
1001
ACAD
1000
AcDbSavedByObjectVersion
1070
     0
  0
ACAD_PROXY_OBJECT
  5
37
102
{ACAD_REACTORS
330
2A
102
}
330
2A
100
AcDbZombieObject
 90
      499
 91
      501
 93
      412
310
41D51A1A58DAD95B90D409028333333333333E3BF0000000000000FB010790141107004050150C41D405064090741402480A0350
1001
ACAD
1000
AcDbSavedByObjectVersion
1070
     0
  0
DICTIONARYVAR
  5
2D4
102
{ACAD_REACTORS
330
2D1
102
}
330
2D1
100
DictionaryVariables
280
     0
  1
1:1
  0
DICTIONARYVAR
  5
2D5
102
{ACAD_REACTORS
330
2D1
102
}
330
2D1
100
DictionaryVariables
280
     0
  1
2
  0
DICTIONARYVAR
  5
2D6
102
{ACAD_REACTORS
330
2D1
102
}
330
2D1
100
DictionaryVariables
280
     0
  1
1
  0
ENDSEC
  0
EOF
