  0
SECTION
  2
HEADER
  9
$ACADVER
  1
AC1012
  9
$DWGCODEPAGE
  3
ansi_1252
  9
$INSBASE
 10
0.0
 20
0.0
 30
0.0
  9
$EXTMIN
 10
0.0
 20
0.0
 30
0.0
  9
$EXTMAX
 10
11.0
 20
8.5
 30
0.0
  9
$LIMMIN
 10
0.0
 20
0.0
  9
$LIMMAX
 10
11.0
 20
8.5
  9
$ORTHOMODE
 70
     0
  9
$REGENMODE
 70
     1
  9
$FILLMODE
 70
     1
  9
$QTEXTMODE
 70
     0
  9
$MIRRTEXT
 70
     1
  9
$DRAGMODE
 70
     2
  9
$LTSCALE
 40
1.0
  9
$OSMODE
 70
    37
  9
$ATTMODE
 70
     1
  9
$TEXTSIZE
 40
0.125
  9
$TRACEWID
 40
0.05
  9
$TEXTSTYLE
  7
STANDARD
  9
$CLAYER
  8
0
  9
$CELTYPE
  6
BYLAYER
  9
$CECOLOR
 62
   256
  9
$CELTSCALE
 40
1.0
  9
$DELOBJ
 70
     1
  9
$DISPSILH
 70
     0
  9
$DIMSCALE
 40
1.0
  9
$DIMASZ
 40
0.13
  9
$DIMEXO
 40
0.05
  9
$DIMDLI
 40
0.38
  9
$DIMRND
 40
0.0
  9
$DIMDLE
 40
0.0
  9
$DIMEXE
 40
0.125
  9
$DIMTP
 40
0.0
  9
$DIMTM
 40
0.0
  9
$DIMTXT
 40
0.125
  9
$DIMCEN
 40
0.09
  9
$DIMTSZ
 40
0.0
  9
$DIMTOL
 70
     0
  9
$DIMLIM
 70
     0
  9
$DIMTIH
 70
     1
  9
$DIMTOH
 70
     1
  9
$DIMSE1
 70
     0
  9
$DIMSE2
 70
     0
  9
$DIMTAD
 70
     0
  9
$DIMZIN
 70
     0
  9
$DIMBLK
  1

  9
$DIMASO
 70
     1
  9
$DIMSHO
 70
     1
  9
$DIMPOST
  1

  9
$DIMAPOST
  1

  9
$DIMALT
 70
     0
  9
$DIMALTD
 70
     2
  9
$DIMALTF
 40
25.4
  9
$DIMLFAC
 40
2.0
  9
$DIMTOFL
 70
     0
  9
$DIMTVP
 40
0.0
  9
$DIMTIX
 70
     0
  9
$DIMSOXD
 70
     0
  9
$DIMSAH
 70
     0
  9
$DIMBLK1
  1

  9
$DIMBLK2
  1

  9
$DIMSTYLE
  2
STANDARD
  9
$DIMCLRD
 70
     0
  9
$DIMCLRE
 70
     0
  9
$DIMCLRT
 70
     0
  9
$DIMTFAC
 40
1.0
  9
$DIMGAP
 40
0.06
  9
$DIMJUST
 70
     0
  9
$DIMSD1
 70
     0
  9
$DIMSD2
 70
     0
  9
$DIMTOLJ
 70
     1
  9
$DIMTZIN
 70
     0
  9
$DIMALTZ
 70
     0
  9
$DIMALTTZ
 70
     0
  9
$DIMFIT
 70
     3
  9
$DIMUPT
 70
     0
  9
$DIMUNIT
 70
     2
  9
$DIMDEC
 70
     3
  9
$DIMTDEC
 70
     3
  9
$DIMALTU
 70
     2
  9
$DIMALTTD
 70
     2
  9
$DIMTXSTY
  7
STANDARD
  9
$DIMAUNIT
 70
     0
  9
$LUNITS
 70
     2
  9
$LUPREC
 70
     2
  9
$SKETCHINC
 40
0.1
  9
$FILLETRAD
 40
0.5
  9
$AUNITS
 70
     0
  9
$AUPREC
 70
     2
  9
$MENU
  1
.
  9
$ELEVATION
 40
0.0
  9
$PELEVATION
 40
0.0
  9
$THICKNESS
 40
0.0
  9
$LIMCHECK
 70
     0
  9
$CHAMFERA
 40
0.5
  9
$CHAMFERB
 40
0.5
  9
$CHAMFERC
 40
1.0
  9
$CHAMFERD
 40
0.0
  9
$SKPOLY
 70
     0
  9
$TDCREATE
 40
2455784.010980475
  9
$TDUPDATE
 40
2455784.010980486
  9
$TDINDWG
 40
0.0000000116
  9
$TDUSRTIMER
 40
0.0000000116
  9
$USRTIMER
 70
     1
  9
$ANGBASE
 50
0.0
  9
$ANGDIR
 70
     0
  9
$PDMODE
 70
     0
  9
$PDSIZE
 40
-1.0
  9
$PLINEWID
 40
0.0
  9
$COORDS
 70
     1
  9
$SPLFRAME
 70
     0
  9
$SPLINETYPE
 70
     6
  9
$SPLINESEGS
 70
     8
  9
$ATTDIA
 70
     0
  9
$ATTREQ
 70
     1
  9
$HANDLING
 70
     1
  9
$HANDSEED
  5
6C6
  9
$SURFTAB1
 70
     6
  9
$SURFTAB2
 70
     6
  9
$SURFTYPE
 70
     6
  9
$SURFU
 70
     6
  9
$SURFV
 70
     6
  9
$UCSNAME
  2

  9
$UCSORG
 10
0.0
 20
0.0
 30
0.0
  9
$UCSXDIR
 10
1.0
 20
0.0
 30
0.0
  9
$UCSYDIR
 10
0.0
 20
1.0
 30
0.0
  9
$PUCSNAME
  2

  9
$PUCSORG
 10
0.0
 20
0.0
 30
0.0
  9
$PUCSXDIR
 10
1.0
 20
0.0
 30
0.0
  9
$PUCSYDIR
 10
0.0
 20
1.0
 30
0.0
  9
$USERI1
 70
     0
  9
$USERI2
 70
     0
  9
$USERI3
 70
     0
  9
$USERI4
 70
     0
  9
$USERI5
 70
     0
  9
$USERR1
 40
0.0
  9
$USERR2
 40
0.0
  9
$USERR3
 40
0.0
  9
$USERR4
 40
0.0
  9
$USERR5
 40
0.0
  9
$WORLDVIEW
 70
     1
  9
$SHADEDGE
 70
     3
  9
$SHADEDIF
 70
    70
  9
$TILEMODE
 70
     1
  9
$MAXACTVP
 70
    64
  9
$PINSBASE
 10
0.0
 20
0.0
 30
0.0
  9
$PLIMCHECK
 70
     0
  9
$PEXTMIN
 10
1.0000000000E+20
 20
1.0000000000E+20
 30
1.0000000000E+20
  9
$PEXTMAX
 10
-1.0000000000E+20
 20
-1.0000000000E+20
 30
-1.0000000000E+20
  9
$PLIMMIN
 10
0.0
 20
0.0
  9
$PLIMMAX
 10
12.0
 20
9.0
  9
$UNITMODE
 70
     0
  9
$VISRETAIN
 70
     1
  9
$PLINEGEN
 70
     0
  9
$PSLTSCALE
 70
     1
  9
$TREEDEPTH
 70
  3020
  9
$PICKSTYLE
 70
     1
  9
$CMLSTYLE
  2
STANDARD
  9
$CMLJUST
 70
     0
  9
$CMLSCALE
 40
1.0
  9
$SAVEIMAGES
 70
     1
  0
ENDSEC
  0
SECTION
  2
CLASSES
  0
CLASS
  1
ACDBDICTIONARYWDFLT
  2
AcDbDictionaryWithDefault
  3
ObjectDBX Classes
 90
    32768
280
     0
281
     0
  0
CLASS
  1
VISUALSTYLE
  2
AcDbVisualStyle
  3
ObjectDBX Classes
 90
     4095
280
     0
281
     0
  0
CLASS
  1
SCALE
  2
AcDbScale
  3
ObjectDBX Classes
 90
     1153
280
     0
281
     0
  0
CLASS
  1
DICTIONARYVAR
  2
AcDbDictionaryVar
  3
ObjectDBX Classes
 90
        0
280
     0
281
     0
  0
CLASS
  1
XRECORD
  2
AcDbXrecord
  3
AutoCAD 2000
 90
    32768
280
     0
281
     0
  0
CLASS
  1
LWPOLYLINE
  2
AcDbPolyline
  3
AutoCAD 2000
 90
    32768
280
     0
281
     1
  0
CLASS
  1
HATCH
  2
AcDbHatch
  3
AutoCAD 2000
 90
    32768
280
     0
281
     1
  0
CLASS
  1
ACDBPLACEHOLDER
  2
AcDbPlaceHolder
  3
ObjectDBX Classes
 90
        0
280
     0
281
     0
  0
CLASS
  1
LAYOUT
  2
AcDbLayout
  3
ObjectDBX Classes
 90
        0
280
     0
281
     0
  0
ENDSEC
  0
SECTION
  2
TABLES
  0
TABLE
  2
VPORT
  5
8
330
0
100
AcDbSymbolTable
 70
     1
  0
VPORT
  5
29
330
8
100
AcDbSymbolTableRecord
100
AcDbViewportTableRecord
  2
*ACTIVE
 70
     0
 10
0.0
 20
0.0
 11
1.0
 21
1.0
 12
5.5
 22
4.25
 13
0.0
 23
0.0
 14
0.5
 24
0.5
 15
0.5
 25
0.5
 16
0.0
 26
0.0
 36
1.0
 17
0.0
 27
0.0
 37
0.0
 40
8.5
 41
1.2941176471
 42
50.0
 43
0.0
 44
0.0
 50
0.0
 51
0.0
 71
     0
 72
  2000
 73
     1
 74
     3
 75
     0
 76
     0
 77
     0
 78
     0
  0
ENDTAB
  0
TABLE
  2
LTYPE
  5
5
330
0
100
AcDbSymbolTable
 70
     6
  0
LTYPE
  5
14
330
5
100
AcDbSymbolTableRecord
100
AcDbLinetypeTableRecord
  2
BYBLOCK
 70
     0
  3

 72
    65
 73
     0
 40
0.0
  0
LTYPE
  5
15
330
5
100
AcDbSymbolTableRecord
100
AcDbLinetypeTableRecord
  2
BYLAYER
 70
     0
  3

 72
    65
 73
     0
 40
0.0
  0
LTYPE
  5
16
330
5
100
AcDbSymbolTableRecord
100
AcDbLinetypeTableRecord
  2
CONTINUOUS
 70
     0
  3
Solid line
 72
    65
 73
     0
 40
0.0
  0
LTYPE
  5
3B
330
5
100
AcDbSymbolTableRecord
100
AcDbLinetypeTableRecord
  2
HIDDEN
 70
     0
  3
Hidden __ __ __ __ __ __ __ __ __ __ __ __ __ __
 72
    65
 73
     2
 40
0.075
 49
0.05
 74
     0
 49
-0.025
 74
     0
  0
LTYPE
  5
3C
330
5
100
AcDbSymbolTableRecord
100
AcDbLinetypeTableRecord
  2
PHANTOM
 70
     0
  3
Phantom ______  __  __  ______  __  __  ______
 72
    65
 73
     6
 40
0.5
 49
0.25
 74
     0
 49
-0.05
 74
     0
 49
0.05
 74
     0
 49
-0.05
 74
     0
 49
0.05
 74
     0
 49
-0.05
 74
     0
  0
LTYPE
  5
3D
330
5
100
AcDbSymbolTableRecord
100
AcDbLinetypeTableRecord
  2
CENTER
 70
     0
  3
Center ____ _ ____ _ ____ _ ____ _ ____ _ ____
 72
    65
 73
     4
 40
0.4
 49
0.25
 74
     0
 49
-0.05
 74
     0
 49
0.05
 74
     0
 49
-0.05
 74
     0
  0
LTYPE
  5
3E
330
5
100
AcDbSymbolTableRecord
100
AcDbLinetypeTableRecord
  2
CENTERX2
 70
     0
  3
Center (2x) ________  __  ________  __  _____
 72
    65
 73
     4
 40
0.8
 49
0.5
 74
     0
 49
-0.1
 74
     0
 49
0.1
 74
     0
 49
-0.1
 74
     0
  0
LTYPE
  5
3F
330
5
100
AcDbSymbolTableRecord
100
AcDbLinetypeTableRecord
  2
DOT2
 70
     0
  3
Dot (.5x) ........................................
 72
    65
 73
     2
 40
0.025
 49
0.0
 74
     0
 49
-0.025
 74
     0
  0
ENDTAB
  0
TABLE
  2
LAYER
  5
2
330
0
100
AcDbSymbolTable
 70
     2
  0
LAYER
  5
10
330
2
100
AcDbSymbolTableRecord
100
AcDbLayerTableRecord
  2
0
 70
     0
 62
     7
  6
CONTINUOUS
  0
LAYER
  5
40
330
2
100
AcDbSymbolTableRecord
100
AcDbLayerTableRecord
  2
FORMAT
 70
     0
 62
     7
  6
CONTINUOUS
  0
ENDTAB
  0
TABLE
  2
STYLE
  5
3
330
0
100
AcDbSymbolTable
 70
     4
  0
STYLE
  5
11
330
3
100
AcDbSymbolTableRecord
100
AcDbTextStyleTableRecord
  2
STANDARD
 70
     0
 40
0.0
 41
1.0
 50
0.0
 71
     0
 42
0.2
  3
txt
  4

  0
STYLE
  5
6E
330
3
100
AcDbSymbolTableRecord
100
AcDbTextStyleTableRecord
  2
SLDTEXTSTYLE0
 70
     0
 40
0.0
 41
0.75
 50
0.0
 71
     0
 42
0.2
  3
TXT
  4

  0
STYLE
  5
93
330
3
100
AcDbSymbolTableRecord
100
AcDbTextStyleTableRecord
  2
SLDTEXTSTYLE1
 70
     0
 40
0.0
 41
0.6875
 50
0.0
 71
     0
 42
0.2
  3
TXT
  4

  0
STYLE
  5
99
330
3
100
AcDbSymbolTableRecord
100
AcDbTextStyleTableRecord
  2
SLDTEXTSTYLE2
 70
     0
 40
0.0
 41
0.6944444444
 50
0.0
 71
     0
 42
0.2
  3
TXT
  4

  0
ENDTAB
  0
TABLE
  2
VIEW
  5
6
330
0
100
AcDbSymbolTable
 70
     0
  0
ENDTAB
  0
TABLE
  2
UCS
  5
7
330
0
100
AcDbSymbolTable
 70
     0
  0
ENDTAB
  0
TABLE
  2
APPID
  5
9
330
0
100
AcDbSymbolTable
 70
     1
  0
APPID
  5
12
330
9
100
AcDbSymbolTableRecord
100
AcDbRegAppTableRecord
  2
ACAD
 70
     0
  0
ENDTAB
  0
TABLE
  2
DIMSTYLE
  5
A
330
0
100
AcDbSymbolTable
 70
     1
  0
DIMSTYLE
105
27
330
A
100
AcDbSymbolTableRecord
100
AcDbDimStyleTableRecord
  2
STANDARD
 70
     0
  3

  4

  5

  6

  7

 40
1.0
 41
0.18
 42
0.0625
 43
0.38
 44
0.18
 45
0.0
 46
0.0
 47
0.0
 48
0.0
140
0.18
141
0.09
142
0.0
143
25.4
144
1.0
145
0.0
146
1.0
147
0.09
 71
     0
 72
     0
 73
     1
 74
     1
 75
     0
 76
     0
 77
     0
 78
     0
170
     0
171
     2
172
     0
173
     0
174
     0
175
     0
176
     0
177
     0
178
     0
270
     2
271
     4
272
     4
273
     2
274
     2
340
11
275
     0
280
     0
281
     0
282
     0
283
     1
284
     0
285
     0
286
     0
287
     3
288
     0
  0
ENDTAB
  0
TABLE
  2
BLOCK_RECORD
  5
1
330
0
100
AcDbSymbolTable
 70
     4
  0
BLOCK_RECORD
  5
1F
330
1
100
AcDbSymbolTableRecord
100
AcDbBlockTableRecord
  2
*MODEL_SPACE
  0
BLOCK_RECORD
  5
1B
330
1
100
AcDbSymbolTableRecord
100
AcDbBlockTableRecord
  2
*PAPER_SPACE
  0
BLOCK_RECORD
  5
A8
330
1
100
AcDbSymbolTableRecord
100
AcDbBlockTableRecord
  2
SW_NOTE_0
  0
BLOCK_RECORD
  5
AE
330
1
100
AcDbSymbolTableRecord
100
AcDbBlockTableRecord
  2
SW_NOTE_1
  0
BLOCK_RECORD
  5
C2
330
1
100
AcDbSymbolTableRecord
100
AcDbBlockTableRecord
  2
SW_NOTE_2
  0
ENDTAB
  0
ENDSEC
  0
SECTION
  2
BLOCKS
  0
BLOCK
  5
20
330
1F
100
AcDbEntity
  8
0
100
AcDbBlockBegin
  2
*MODEL_SPACE
 70
     0
 10
0.0
 20
0.0
 30
0.0
  3
*MODEL_SPACE
  1

  0
ENDBLK
  5
21
330
1F
100
AcDbEntity
  8
0
100
AcDbBlockEnd
  0
BLOCK
  5
1C
330
1B
100
AcDbEntity
 67
     1
  8
0
100
AcDbBlockBegin
  2
*PAPER_SPACE
 70
     0
 10
0.0
 20
0.0
 30
0.0
  3
*PAPER_SPACE
  1

  0
ENDBLK
  5
1D
330
1B
100
AcDbEntity
 67
     1
  8
0
100
AcDbBlockEnd
  0
BLOCK
  5
A9
330
A8
100
AcDbEntity
  8
0
100
AcDbBlockBegin
  2
SW_NOTE_0
 70
     0
 10
0.0
 20
0.0
 30
0.0
  3
SW_NOTE_0
  1

  0
MTEXT
  5
AB
330
A8
100
AcDbEntity
  8
0
  6
CONTINUOUS
 62
     0
100
AcDbMText
 10
0.0
 20
0.0773440644
 30
0.0
 40
0.06
 41
0.0
 71
     1
 72
     1
  1
INTERPRET GEOMETRIC
  7
SLDTEXTSTYLE0
  0
MTEXT
  5
AC
330
A8
100
AcDbEntity
  8
0
  6
CONTINUOUS
 62
     0
100
AcDbMText
 10
0.0
 20
-0.0220260102
 30
0.0
 40
0.06
 41
0.0
 71
     1
 72
     1
  1
TOLERANCING PER:
  7
SLDTEXTSTYLE0
  0
ENDBLK
  5
AA
330
A8
100
AcDbEntity
  8
0
100
AcDbBlockEnd
  0
BLOCK
  5
AF
330
AE
100
AcDbEntity
  8
0
100
AcDbBlockBegin
  2
SW_NOTE_1
 70
     0
 10
0.0
 20
0.0
 30
0.0
  3
SW_NOTE_1
  1

  0
MTEXT
  5
B1
330
AE
100
AcDbEntity
  8
0
  6
CONTINUOUS
 62
     0
100
AcDbMText
 10
0.0
 20
0.0837894031
 30
0.0
 40
0.065
 41
0.0
 71
     1
 72
     1
  1
DIMENSIONS ARE IN INCHES
  7
SLDTEXTSTYLE0
  0
MTEXT
  5
B2
330
AE
100
AcDbEntity
  8
0
  6
CONTINUOUS
 62
     0
100
AcDbMText
 10
0.0
 20
-0.0205806729
 30
0.0
 40
0.065
 41
0.0
 71
     1
 72
     1
  1
TOLERANCES:
  7
SLDTEXTSTYLE0
  0
MTEXT
  5
B3
330
AE
100
AcDbEntity
  8
0
  6
CONTINUOUS
 62
     0
100
AcDbMText
 10
0.0
 20
-0.1249507489
 30
0.0
 40
0.065
 41
0.0
 71
     1
 72
     1
  1
FRACTIONAL
  7
SLDTEXTSTYLE0
  0
MTEXT
  5
B4
330
AE
100
AcDbEntity
  8
0
  6
CONTINUOUS
 62
     0
100
AcDbMText
 10
0.5175850875
 20
-0.1249507489
 30
0.0
 40
0.065
 41
0.0
 71
     1
 72
     1
  1
%%p
  7
SLDTEXTSTYLE0
  0
MTEXT
  5
B5
330
AE
100
AcDbEntity
  8
0
  6
CONTINUOUS
 62
     0
100
AcDbMText
 10
0.0
 20
-0.2293208248
 30
0.0
 40
0.065
 41
0.0
 71
     1
 72
     1
  1
ANGULAR: MACH
  7
SLDTEXTSTYLE0
  0
MTEXT
  5
B6
330
AE
100
AcDbEntity
  8
0
  6
CONTINUOUS
 62
     0
100
AcDbMText
 10
0.7233732769
 20
-0.2293208248
 30
0.0
 40
0.065
 41
0.0
 71
     1
 72
     1
  1
%%p
  7
SLDTEXTSTYLE0
  0
MTEXT
  5
B7
330
AE
100
AcDbEntity
  8
0
  6
CONTINUOUS
 62
     0
100
AcDbMText
 10
0.7852857683
 20
-0.2293208248
 30
0.0
 40
0.065
 41
0.0
 71
     1
 72
     1
  1
     BEND 
  7
SLDTEXTSTYLE0
  0
MTEXT
  5
B8
330
AE
100
AcDbEntity
  8
0
  6
CONTINUOUS
 62
     0
100
AcDbMText
 10
1.14784136
 20
-0.2293208248
 30
0.0
 40
0.065
 41
0.0
 71
     1
 72
     1
  1
%%p
  7
SLDTEXTSTYLE0
  0
MTEXT
  5
B9
330
AE
100
AcDbEntity
  8
0
  6
CONTINUOUS
 62
     0
100
AcDbMText
 10
0.0
 20
-0.3336909008
 30
0.0
 40
0.065
 41
0.0
 71
     1
 72
     1
  1
TWO PLACE DECIMAL    
  7
SLDTEXTSTYLE0
  0
MTEXT
  5
BA
330
AE
100
AcDbEntity
  8
0
  6
CONTINUOUS
 62
     0
100
AcDbMText
 10
0.9794349188
 20
-0.3336909008
 30
0.0
 40
0.065
 41
0.0
 71
     1
 72
     1
  1
%%p
  7
SLDTEXTSTYLE0
  0
MTEXT
  5
BB
330
AE
100
AcDbEntity
  8
0
  6
CONTINUOUS
 62
     0
100
AcDbMText
 10
0.0
 20
-0.4380609768
 30
0.0
 40
0.065
 41
0.0
 71
     1
 72
     1
  1
THREE PLACE DECIMAL  
  7
SLDTEXTSTYLE0
  0
MTEXT
  5
BC
330
AE
100
AcDbEntity
  8
0
  6
CONTINUOUS
 62
     0
100
AcDbMText
 10
0.9738038639
 20
-0.4380609768
 30
0.0
 40
0.065
 41
0.0
 71
     1
 72
     1
  1
%%p
  7
SLDTEXTSTYLE0
  0
ENDBLK
  5
B0
330
AE
100
AcDbEntity
  8
0
100
AcDbBlockEnd
  0
BLOCK
  5
C3
330
C2
100
AcDbEntity
  8
0
100
AcDbBlockBegin
  2
SW_NOTE_2
 70
     0
 10
0.0
 20
0.0
 30
0.0
  3
SW_NOTE_2
  1

  0
MTEXT
  5
C5
330
C2
100
AcDbEntity
  8
0
  6
CONTINUOUS
 62
     0
100
AcDbMText
 10
0.0
 20
0.0773440644
 30
0.0
 40
0.06
 41
0.0
 71
     1
 72
     1
  1
THE INFORMATION CONTAINED IN THIS
  7
SLDTEXTSTYLE0
  0
MTEXT
  5
C6
330
C2
100
AcDbEntity
  8
0
  6
CONTINUOUS
 62
     0
100
AcDbMText
 10
0.0
 20
-0.0220260102
 30
0.0
 40
0.06
 41
0.0
 71
     1
 72
     1
  1
DRAWING IS THE SOLE PROPERTY OF
  7
SLDTEXTSTYLE0
  0
MTEXT
  5
C7
330
C2
100
AcDbEntity
  8
0
  6
CONTINUOUS
 62
     0
100
AcDbMText
 10
0.0
 20
-0.1213960848
 30
0.0
 40
0.06
 41
0.0
 71
     1
 72
     1
  1
Candy Controls.  ANY 
  7
SLDTEXTSTYLE0
  0
MTEXT
  5
C8
330
C2
100
AcDbEntity
  8
0
  6
CONTINUOUS
 62
     0
100
AcDbMText
 10
0.0
 20
-0.2207661593
 30
0.0
 40
0.06
 41
0.0
 71
     1
 72
     1
  1
REPRODUCTION IN PART OR AS A WHOLE
  7
SLDTEXTSTYLE0
  0
MTEXT
  5
C9
330
C2
100
AcDbEntity
  8
0
  6
CONTINUOUS
 62
     0
100
AcDbMText
 10
0.0
 20
-0.3201362339
 30
0.0
 40
0.06
 41
0.0
 71
     1
 72
     1
  1
WITHOUT THE WRITTEN PERMISSION OF
  7
SLDTEXTSTYLE0
  0
MTEXT
  5
CA
330
C2
100
AcDbEntity
  8
0
  6
CONTINUOUS
 62
     0
100
AcDbMText
 10
0.0
 20
-0.4195063085
 30
0.0
 40
0.06
 41
0.0
 71
     1
 72
     1
  1
Candy Controls IS 
  7
SLDTEXTSTYLE0
  0
MTEXT
  5
CB
330
C2
100
AcDbEntity
  8
0
  6
CONTINUOUS
 62
     0
100
AcDbMText
 10
0.0
 20
-0.518876383
 30
0.0
 40
0.06
 41
0.0
 71
     1
 72
     1
  1
PROHIBITED.
  7
SLDTEXTSTYLE0
  0
ENDBLK
  5
C4
330
C2
100
AcDbEntity
  8
0
100
AcDbBlockEnd
  0
ENDSEC
  0
SECTION
  2
ENTITIES
  0
LINE
  5
41
330
1F
100
AcDbEntity
  8
0
  6
CONTINUOUS
 62
     7
100
AcDbLine
 10
0.329927
 20
8.1920731707
 30
0.0
 11
10.629927
 21
8.1920731707
 31
0.0
  0
LINE
  5
42
330
1F
100
AcDbEntity
  8
0
  6
CONTINUOUS
 62
     7
100
AcDbLine
 10
0.329927
 20
8.1920731707
 30
0.0
 11
0.329927
 21
0.3920731707
 31
0.0
  0
LINE
  5
43
330
1F
100
AcDbEntity
  8
0
  6
CONTINUOUS
 62
     7
100
AcDbLine
 10
10.629927
 20
0.3920731707
 30
0.0
 11
0.329927
 21
0.3920731707
 31
0.0
  0
LINE
  5
44
330
1F
100
AcDbEntity
  8
0
  6
CONTINUOUS
 62
     7
100
AcDbLine
 10
10.629927
 20
0.3920731707
 30
0.0
 11
10.629927
 21
8.1920731707
 31
0.0
  0
LINE
  5
45
330
1F
100
AcDbEntity
  8
0
  6
CONTINUOUS
 62
     7
100
AcDbLine
 10
4.7981841288
 20
0.3920731707
 30
0.0
 11
4.7981841288
 21
2.3564211366
 31
0.0
  0
LINE
  5
46
330
1F
100
AcDbEntity
  8
0
  6
CONTINUOUS
 62
     7
100
AcDbLine
 10
2.8210345579
 20
2.3564211366
 30
0.0
 11
10.629927
 21
2.3564211366
 31
0.0
  0
LINE
  5
47
330
1F
100
AcDbEntity
  8
0
  6
CONTINUOUS
 62
     7
100
AcDbLine
 10
6.1796352514
 20
2.3564211366
 30
0.0
 11
6.1796352514
 21
0.3920731707
 31
0.0
  0
LINE
  5
48
330
1F
100
AcDbEntity
  8
0
  6
CONTINUOUS
 62
     7
100
AcDbLine
 10
7.8712070044
 20
2.3564211366
 30
0.0
 11
7.8712070044
 21
0.3920731707
 31
0.0
  0
LINE
  5
49
330
1F
100
AcDbEntity
  8
0
  6
CONTINUOUS
 62
     7
100
AcDbLine
 10
7.8712070044
 20
0.6049590101
 30
0.0
 11
10.629927
 21
0.6049590101
 31
0.0
  0
LINE
  5
4A
330
1F
100
AcDbEntity
  8
0
  6
CONTINUOUS
 62
     7
100
AcDbLine
 10
7.8712070044
 20
1.1119362457
 30
0.0
 11
10.629927
 21
1.1119362457
 31
0.0
  0
LINE
  5
4B
330
1F
100
AcDbEntity
  8
0
  6
CONTINUOUS
 62
     7
100
AcDbLine
 10
7.8712070044
 20
1.9892703708
 30
0.0
 11
10.629927
 21
1.9892703708
 31
0.0
  0
LINE
  5
4C
330
1F
100
AcDbEntity
  8
0
  6
CONTINUOUS
 62
     7
100
AcDbLine
 10
8.266751752
 20
1.1119362457
 30
0.0
 11
8.266751752
 21
0.6049590101
 31
0.0
  0
LINE
  5
4D
330
1F
100
AcDbEntity
  8
0
  6
CONTINUOUS
 62
     7
100
AcDbLine
 10
8.6943435176
 20
0.6049590101
 30
0.0
 11
8.6943435176
 21
0.3920731707
 31
0.0
  0
LINE
  5
4E
330
1F
100
AcDbEntity
  8
0
  6
CONTINUOUS
 62
     7
100
AcDbLine
 10
10.0579917045
 20
1.1119362457
 30
0.0
 11
10.0579917045
 21
0.6049590101
 31
0.0
  0
LINE
  5
4F
330
1F
100
AcDbEntity
  8
0
  6
CONTINUOUS
 62
     7
100
AcDbLine
 10
9.6662556631
 20
0.6049590101
 30
0.0
 11
9.6662556631
 21
0.3920731707
 31
0.0
  0
LINE
  5
50
330
1F
100
AcDbEntity
  8
0
  6
CONTINUOUS
 62
     7
100
AcDbLine
 10
2.8210345579
 20
0.5883479999
 30
0.0
 11
6.1796352514
 21
0.5883479999
 31
0.0
  0
LINE
  5
51
330
1F
100
AcDbEntity
  8
0
  6
CONTINUOUS
 62
     7
100
AcDbLine
 10
6.1796352514
 20
1.7939211366
 30
0.0
 11
7.8712070044
 21
1.7939211366
 31
0.0
  0
LINE
  5
52
330
1F
100
AcDbEntity
  8
0
  6
CONTINUOUS
 62
     7
100
AcDbLine
 10
6.1796352514
 20
1.9814211366
 30
0.0
 11
7.8712070044
 21
1.9814211366
 31
0.0
  0
LINE
  5
53
330
1F
100
AcDbEntity
  8
0
  6
CONTINUOUS
 62
     7
100
AcDbLine
 10
6.1796352514
 20
2.1689211366
 30
0.0
 11
7.8712070044
 21
2.1689211366
 31
0.0
  0
LINE
  5
54
330
1F
100
AcDbEntity
  8
0
  6
CONTINUOUS
 62
     7
100
AcDbLine
 10
7.8712070044
 20
1.2314211366
 30
0.0
 11
6.1796352514
 21
1.2314211366
 31
0.0
  0
LINE
  5
55
330
1F
100
AcDbEntity
  8
0
  6
CONTINUOUS
 62
     7
100
AcDbLine
 10
7.3921580388
 20
2.3564211366
 30
0.0
 11
7.3921580388
 21
1.2314211366
 31
0.0
  0
LINE
  5
56
330
1F
100
AcDbEntity
  8
0
  6
CONTINUOUS
 62
     7
100
AcDbLine
 10
6.9236308342
 20
2.3564211366
 30
0.0
 11
6.9236308342
 21
1.2314211366
 31
0.0
  0
LINE
  5
57
330
1F
100
AcDbEntity
  8
0
  6
CONTINUOUS
 62
     7
100
AcDbLine
 10
4.7981841288
 20
0.8557965305
 30
0.0
 11
6.1796352514
 21
0.8557965305
 31
0.0
  0
LINE
  5
58
330
1F
100
AcDbEntity
  8
0
  6
CONTINUOUS
 62
     7
100
AcDbLine
 10
4.7981841288
 20
1.1257965305
 30
0.0
 11
6.1796352514
 21
1.1257965305
 31
0.0
  0
LINE
  5
59
330
1F
100
AcDbEntity
  8
0
  6
CONTINUOUS
 62
     7
100
AcDbLine
 10
2.8210345579
 20
0.3920731707
 30
0.0
 11
2.8210345579
 21
2.3564211366
 31
0.0
  0
LINE
  5
5A
330
1F
100
AcDbEntity
  8
0
  6
CONTINUOUS
 62
     7
100
AcDbLine
 10
2.8210345579
 20
1.1064211366
 30
0.0
 11
4.7981841288
 21
1.1064211366
 31
0.0
  0
LINE
  5
5B
330
1F
100
AcDbEntity
  8
0
  6
CONTINUOUS
 62
     7
100
AcDbLine
 10
2.8210345579
 20
1.3564211366
 30
0.0
 11
4.7981841288
 21
1.3564211366
 31
0.0
  0
LINE
  5
5C
330
1F
100
AcDbEntity
  8
0
  6
CONTINUOUS
 62
     7
100
AcDbLine
 10
2.8210345579
 20
1.6064211366
 30
0.0
 11
4.7981841288
 21
1.6064211366
 31
0.0
  0
LINE
  5
5D
330
1F
100
AcDbEntity
  8
0
  6
CONTINUOUS
 62
     7
100
AcDbLine
 10
2.8210345579
 20
1.8564211366
 30
0.0
 11
4.7981841288
 21
1.8564211366
 31
0.0
  0
LINE
  5
5E
330
1F
100
AcDbEntity
  8
0
  6
CONTINUOUS
 62
     7
100
AcDbLine
 10
3.8190146875
 20
2.3564211366
 30
0.0
 11
3.8190146875
 21
0.5883479999
 31
0.0
  0
LINE
  5
5F
330
1F
100
AcDbEntity
  8
0
  6
CONTINUOUS
 62
     7
100
AcDbLine
 10
6.1796352514
 20
2.2020813496
 30
0.0
 11
4.7981841288
 21
2.2020813496
 31
0.0
  0
LINE
  5
60
330
1F
100
AcDbEntity
  8
0
  6
CONTINUOUS
 62
     7
100
AcDbLine
 10
7.8712070044
 20
1.6064211366
 30
0.0
 11
6.1796352514
 21
1.6064211366
 31
0.0
  0
LINE
  5
61
330
1F
100
AcDbEntity
  8
0
  6
CONTINUOUS
 62
     7
100
AcDbLine
 10
7.8712070044
 20
1.4189211366
 30
0.0
 11
6.1796352514
 21
1.4189211366
 31
0.0
  0
LINE
  5
62
330
1F
100
AcDbEntity
  8
0
  6
CONTINUOUS
 62
     7
100
AcDbLine
 10
2.8210345579
 20
2.1064211366
 30
0.0
 11
4.7981841288
 21
2.1064211366
 31
0.0
  0
LINE
  5
63
330
1F
100
AcDbEntity
  8
0
  6
CONTINUOUS
 62
     7
100
AcDbLine
 10
4.7981841288
 20
1.3957965305
 30
0.0
 11
6.1796352514
 21
1.3957965305
 31
0.0
  0
LINE
  5
64
330
1F
100
AcDbEntity
  8
0
  6
CONTINUOUS
 62
     7
100
AcDbLine
 10
2.8210345579
 20
0.8564211366
 30
0.0
 11
4.7981841288
 21
0.8564211366
 31
0.0
  0
LINE
  5
65
330
1F
100
AcDbEntity
  8
0
  6
CONTINUOUS
 62
     7
100
AcDbLine
 10
1.1838252943
 20
0.3920731707
 30
0.0
 11
1.1838252943
 21
1.3064211366
 31
0.0
  0
LINE
  5
66
330
1F
100
AcDbEntity
  8
0
  6
CONTINUOUS
 62
     7
100
AcDbLine
 10
2.8210345579
 20
1.3064211366
 30
0.0
 11
1.1838252943
 21
1.3064211366
 31
0.0
  0
LINE
  5
67
330
1F
100
AcDbEntity
  8
0
  6
CONTINUOUS
 62
     7
100
AcDbLine
 10
8.660927
 20
0.3920731707
 30
0.0
 11
8.660927
 21
0.3072739649
 31
0.0
  0
LINE
  5
68
330
1F
100
AcDbEntity
  8
0
  6
CONTINUOUS
 62
     7
100
AcDbLine
 10
6.692177
 20
0.3920731707
 30
0.0
 11
6.692177
 21
0.3072739649
 31
0.0
  0
LINE
  5
69
330
1F
100
AcDbEntity
  8
0
  6
CONTINUOUS
 62
     7
100
AcDbLine
 10
4.723427
 20
0.3920731707
 30
0.0
 11
4.723427
 21
0.3072739649
 31
0.0
  0
LINE
  5
6A
330
1F
100
AcDbEntity
  8
0
  6
CONTINUOUS
 62
     7
100
AcDbLine
 10
2.754677
 20
0.3920731707
 30
0.0
 11
2.754677
 21
0.3072739649
 31
0.0
  0
LINE
  5
6B
330
1F
100
AcDbEntity
  8
0
  6
CONTINUOUS
 62
     7
100
AcDbLine
 10
2.754677
 20
0.3920731707
 30
0.0
 11
2.7672319738
 21
0.3575
 31
0.0
  0
LINE
  5
6C
330
1F
100
AcDbEntity
  8
0
  6
CONTINUOUS
 62
     7
100
AcDbLine
 10
2.7672319738
 20
0.3575
 30
0.0
 11
2.7414258825
 21
0.3575
 31
0.0
  0
LINE
  5
6D
330
1F
100
AcDbEntity
  8
0
  6
CONTINUOUS
 62
     7
100
AcDbLine
 10
2.7414258825
 20
0.3575
 30
0.0
 11
2.754677
 21
0.3920731707
 31
0.0
  0
MTEXT
  5
91
330
1F
100
AcDbEntity
  8
0
  6
CONTINUOUS
 62
     7
100
AcDbMText
 10
4.9775846961
 20
0.5178452352
 30
0.0
 40
0.0625
 41
0.0
 71
     1
 72
     1
  1
DO NOT SCALE DRAWING
  7
SLDTEXTSTYLE0
  0
MTEXT
  5
92
330
1F
100
AcDbEntity
  8
0
  6
CONTINUOUS
 62
     7
100
AcDbMText
 10
8.7935297422
 20
0.9417064595
 30
0.0
 40
0.125
 41
0.0
 71
     1
 72
     1
  1
CL18-C82
  7
SLDTEXTSTYLE0
  0
MTEXT
  5
94
330
1F
100
AcDbEntity
  8
0
  6
CONTINUOUS
 62
     7
100
AcDbMText
 10
9.7571278483
 20
0.5524239532
 30
0.0
 40
0.1
 41
0.0
 71
     1
 72
     1
  1
SHEET 1 OF 1
  7
SLDTEXTSTYLE1
  0
MTEXT
  5
95
330
1F
100
AcDbEntity
  8
0
  6
CONTINUOUS
 62
     7
100
AcDbMText
 10
4.8448077858
 20
2.3132954224
 30
0.0
 40
0.07
 41
0.0
 71
     1
 72
     1
  1
UNLESS OTHERWISE SPECIFIED:
  7
SLDTEXTSTYLE0
  0
MTEXT
  5
96
330
1F
100
AcDbEntity
  8
0
  6
CONTINUOUS
 62
     7
100
AcDbMText
 10
7.9586139647
 20
0.5520987879
 30
0.0
 40
0.1
 41
0.0
 71
     1
 72
     1
  1
SCALE: 1:2
  7
SLDTEXTSTYLE0
  0
MTEXT
  5
97
330
1F
100
AcDbEntity
  8
0
  6
CONTINUOUS
 62
     7
100
AcDbMText
 10
8.7023691647
 20
0.5486763345
 30
0.0
 40
0.1
 41
0.0
 71
     1
 72
     1
  1
WEIGHT: 
  7
SLDTEXTSTYLE0
  0
MTEXT
  5
98
330
1F
100
AcDbEntity
  8
0
  6
CONTINUOUS
 62
     7
100
AcDbMText
 10
10.2277580983
 20
1.081966299
 30
0.0
 40
0.1
 41
0.0
 71
     1
 72
     1
  1
REV
  7
SLDTEXTSTYLE0
  0
MTEXT
  5
9A
330
1F
100
AcDbEntity
  8
0
  6
CONTINUOUS
 62
     7
100
AcDbMText
 10
8.2984570898
 20
1.0858725293
 30
0.0
 40
0.1
 41
0.0
 71
     1
 72
     1
  1
DWG.  NO.
  7
SLDTEXTSTYLE2
  0
MTEXT
  5
9B
330
1F
100
AcDbEntity
  8
0
  6
CONTINUOUS
 62
     7
100
AcDbMText
 10
7.9598482632
 20
0.9442140768
 30
0.0
 40
0.25
 41
0.0
 71
     1
 72
     1
  1
A
  7
SLDTEXTSTYLE0
  0
MTEXT
  5
9C
330
1F
100
AcDbEntity
  8
0
  6
CONTINUOUS
 62
     7
100
AcDbMText
 10
7.9519581822
 20
1.0872713483
 30
0.0
 40
0.1
 41
0.0
 71
     1
 72
     1
  1
SIZE
  7
SLDTEXTSTYLE0
  0
MTEXT
  5
9D
330
1F
100
AcDbEntity
  8
0
  6
CONTINUOUS
 62
     7
100
AcDbMText
 10
7.9170704177
 20
1.9547881128
 30
0.0
 40
0.1
 41
0.0
 71
     1
 72
     1
  1
TITLE:
  7
SLDTEXTSTYLE0
  0
MTEXT
  5
9E
330
1F
100
AcDbEntity
  8
0
  6
CONTINUOUS
 62
     7
100
AcDbMText
 10
7.0363774929
 20
2.2906161274
 30
0.0
 40
0.065
 41
0.0
 71
     1
 72
     1
  1
NAME
  7
SLDTEXTSTYLE0
  0
MTEXT
  5
9F
330
1F
100
AcDbEntity
  8
0
  6
CONTINUOUS
 62
     7
100
AcDbMText
 10
7.5281510634
 20
2.2888799118
 30
0.0
 40
0.065
 41
0.0
 71
     1
 72
     1
  1
DATE
  7
SLDTEXTSTYLE0
  0
MTEXT
  5
A0
330
1F
100
AcDbEntity
  8
0
  6
CONTINUOUS
 62
     7
100
AcDbMText
 10
6.2277147029
 20
1.1876913145
 30
0.0
 40
0.065
 41
0.0
 71
     1
 72
     1
  1
COMMENTS:
  7
SLDTEXTSTYLE0
  0
MTEXT
  5
A1
330
1F
100
AcDbEntity
  8
0
  6
CONTINUOUS
 62
     7
100
AcDbMText
 10
6.2268411461
 20
1.3536101679
 30
0.0
 40
0.065
 41
0.0
 71
     1
 72
     1
  1
Q.A.
  7
SLDTEXTSTYLE0
  0
MTEXT
  5
A2
330
1F
100
AcDbEntity
  8
0
  6
CONTINUOUS
 62
     7
100
AcDbMText
 10
6.2284654509
 20
1.5395328424
 30
0.0
 40
0.065
 41
0.0
 71
     1
 72
     1
  1
MFG APPR.
  7
SLDTEXTSTYLE0
  0
MTEXT
  5
A3
330
1F
100
AcDbEntity
  8
0
  6
CONTINUOUS
 62
     7
100
AcDbMText
 10
6.2235171344
 20
1.7267501785
 30
0.0
 40
0.065
 41
0.0
 71
     1
 72
     1
  1
ENG APPR.
  7
SLDTEXTSTYLE0
  0
MTEXT
  5
A4
330
1F
100
AcDbEntity
  8
0
  6
CONTINUOUS
 62
     7
100
AcDbMText
 10
6.2264103951
 20
1.9092699088
 30
0.0
 40
0.065
 41
0.0
 71
     1
 72
     1
  1
CHECKED
  7
SLDTEXTSTYLE0
  0
MTEXT
  5
A5
330
1F
100
AcDbEntity
  8
0
  6
CONTINUOUS
 62
     7
100
AcDbMText
 10
6.2242794356
 20
2.1016301232
 30
0.0
 40
0.065
 41
0.0
 71
     1
 72
     1
  1
DRAWN
  7
SLDTEXTSTYLE0
  0
MTEXT
  5
A6
330
1F
100
AcDbEntity
  8
0
  6
CONTINUOUS
 62
     7
100
AcDbMText
 10
4.8208600979
 20
0.834523235
 30
0.0
 40
0.06
 41
0.0
 71
     1
 72
     1
  1
FINISH
  7
SLDTEXTSTYLE0
  0
MTEXT
  5
A7
330
1F
100
AcDbEntity
  8
0
  6
CONTINUOUS
 62
     7
100
AcDbMText
 10
4.8181240648
 20
1.1028217587
 30
0.0
 40
0.06
 41
0.0
 71
     1
 72
     1
  1
MATERIAL
  7
SLDTEXTSTYLE0
  0
INSERT
  5
AD
330
1F
100
AcDbEntity
  8
0
  6
CONTINUOUS
 62
     7
100
AcDbBlockReference
  2
SW_NOTE_0
 10
4.8231926633
 20
1.2646542947
 30
0.0
  0
INSERT
  5
BD
330
1F
100
AcDbEntity
  8
0
  6
CONTINUOUS
 62
     7
100
AcDbBlockReference
  2
SW_NOTE_1
 10
4.8353339353
 20
2.0049168724
 30
0.0
  0
MTEXT
  5
BE
330
1F
100
AcDbEntity
  8
0
  6
CONTINUOUS
 62
     7
100
AcDbMText
 10
3.5531400086
 20
0.5200091997
 30
0.0
 40
0.0625
 41
0.0
 71
     1
 72
     1
  1
APPLICATION
  7
SLDTEXTSTYLE0
  0
MTEXT
  5
BF
330
1F
100
AcDbEntity
  8
0
  6
CONTINUOUS
 62
     7
100
AcDbMText
 10
4.1005607758
 20
0.7502454275
 30
0.0
 40
0.0625
 41
0.0
 71
     1
 72
     1
  1
USED ON
  7
SLDTEXTSTYLE0
  0
MTEXT
  5
C0
330
1F
100
AcDbEntity
  8
0
  6
CONTINUOUS
 62
     7
100
AcDbMText
 10
3.1040019536
 20
0.7492094783
 30
0.0
 40
0.0625
 41
0.0
 71
     1
 72
     1
  1
NEXT ASSY
  7
SLDTEXTSTYLE0
  0
MTEXT
  5
C1
330
1F
100
AcDbEntity
  8
0
  6
CONTINUOUS
 62
     7
100
AcDbMText
 10
1.3712489489
 20
1.2496672684
 30
0.0
 40
0.06
 41
0.0
 71
     1
 72
     1
  1
PROPRIETARY AND CONFIDENTIAL
  7
SLDTEXTSTYLE0
  0
INSERT
  5
CC
330
1F
100
AcDbEntity
  8
0
  6
CONTINUOUS
 62
     7
100
AcDbBlockReference
  2
SW_NOTE_2
 10
1.2226209074
 20
1.0313492921
 30
0.0
  0
MTEXT
  5
CD
330
1F
100
AcDbEntity
  8
0
  6
CONTINUOUS
 62
     7
100
AcDbMText
 10
1.7387909509
 20
0.3105864247
 30
0.0
 40
0.09375
 41
0.0
 71
     1
 72
     1
  1
5
  7
SLDTEXTSTYLE0
  0
MTEXT
  5
CE
330
1F
100
AcDbEntity
  8
0
  6
CONTINUOUS
 62
     7
100
AcDbMText
 10
3.723800327
 20
0.3137237518
 30
0.0
 40
0.09375
 41
0.0
 71
     1
 72
     1
  1
4
  7
SLDTEXTSTYLE0
  0
MTEXT
  5
CF
330
1F
100
AcDbEntity
  8
0
  6
CONTINUOUS
 62
     7
100
AcDbMText
 10
5.6324457277
 20
0.3116191842
 30
0.0
 40
0.09375
 41
0.0
 71
     1
 72
     1
  1
3
  7
SLDTEXTSTYLE0
  0
MTEXT
  5
D0
330
1F
100
AcDbEntity
  8
0
  6
CONTINUOUS
 62
     7
100
AcDbMText
 10
7.6059721724
 20
0.3124391351
 30
0.0
 40
0.09375
 41
0.0
 71
     1
 72
     1
  1
2
  7
SLDTEXTSTYLE0
  0
MTEXT
  5
D1
330
1F
100
AcDbEntity
  8
0
  6
CONTINUOUS
 62
     7
100
AcDbMText
 10
9.6619921328
 20
0.301372012
 30
0.0
 40
0.09375
 41
0.0
 71
     1
 72
     1
  1
1
  7
SLDTEXTSTYLE0
  0
LINE
  5
D2
330
1F
100
AcDbEntity
  8
0
  6
CONTINUOUS
 62
     7
100
AcDbLine
 10
3.6767476519
 20
2.9515916722
 30
0.0
 11
3.988427442
 21
2.9515916722
 31
0.0
  0
LINE
  5
D3
330
1F
100
AcDbEntity
  8
0
  6
CONTINUOUS
 62
     7
100
AcDbLine
 10
3.4053762609
 20
2.9515916722
 30
0.0
 11
3.6505009328
 21
2.9515916722
 31
0.0
  0
LINE
  5
D4
330
1F
100
AcDbEntity
  8
0
  6
CONTINUOUS
 62
     7
100
AcDbLine
 10
3.6505009328
 20
4.5657649006
 30
0.0
 11
3.4053762609
 21
4.5657649006
 31
0.0
  0
LINE
  5
D5
330
1F
100
AcDbEntity
  8
0
  6
CONTINUOUS
 62
     7
100
AcDbLine
 10
3.988427442
 20
4.5657649006
 30
0.0
 11
3.6767476519
 21
4.5657649006
 31
0.0
  0
LINE
  5
D6
330
1F
100
AcDbEntity
  8
0
  6
CONTINUOUS
 62
     7
100
AcDbLine
 10
3.988427442
 20
2.9515916722
 30
0.0
 11
3.995927442
 21
2.9590916722
 31
0.0
  0
LINE
  5
D7
330
1F
100
AcDbEntity
  8
0
  6
CONTINUOUS
 62
     7
100
AcDbLine
 10
3.995927442
 20
4.5582649006
 30
0.0
 11
3.988427442
 21
4.5657649006
 31
0.0
  0
LINE
  5
D8
330
1F
100
AcDbEntity
  8
0
  6
CONTINUOUS
 62
     7
100
AcDbLine
 10
3.7522069695
 20
3.7685208061
 30
0.0
 11
3.7522069695
 21
3.7488357667
 31
0.0
  0
LINE
  5
D9
330
1F
100
AcDbEntity
  8
0
  6
CONTINUOUS
 62
     7
100
AcDbLine
 10
3.9096872845
 20
3.7488357667
 30
0.0
 11
3.9096872845
 21
3.7685208061
 31
0.0
  0
LINE
  5
DA
330
1F
100
AcDbEntity
  8
0
  6
CONTINUOUS
 62
     7
100
AcDbLine
 10
2.6573447648
 20
2.9590916722
 30
0.0
 11
2.6648447648
 21
2.9515916722
 31
0.0
  0
LINE
  5
DB
330
1F
100
AcDbEntity
  8
0
  6
CONTINUOUS
 62
     7
100
AcDbLine
 10
3.2478959459
 20
4.5657649006
 30
0.0
 11
3.002771274
 21
4.5657649006
 31
0.0
  0
LINE
  5
DC
330
1F
100
AcDbEntity
  8
0
  6
CONTINUOUS
 62
     7
100
AcDbLine
 10
2.6648447648
 20
2.9515916722
 30
0.0
 11
3.2478959459
 21
2.9515916722
 31
0.0
  0
LINE
  5
DD
330
1F
100
AcDbEntity
  8
0
  6
CONTINUOUS
 62
     7
100
AcDbLine
 10
3.2478959459
 20
3.6307255305
 30
0.0
 11
3.3020298042
 21
3.6307255305
 31
0.0
  0
LINE
  5
DE
330
1F
100
AcDbEntity
  8
0
  6
CONTINUOUS
 62
     7
100
AcDbLine
 10
3.3020298042
 20
3.8866310423
 30
0.0
 11
3.2478959459
 21
3.8866310423
 31
0.0
  0
LINE
  5
DF
330
1F
100
AcDbEntity
  8
0
  6
CONTINUOUS
 62
     7
100
AcDbLine
 10
3.3512424026
 20
3.6307255305
 30
0.0
 11
3.4053762609
 21
3.6307255305
 31
0.0
  0
LINE
  5
E0
330
1F
100
AcDbEntity
  8
0
  6
CONTINUOUS
 62
     7
100
AcDbLine
 10
3.4053762609
 20
3.8866310423
 30
0.0
 11
3.3512424026
 21
3.8866310423
 31
0.0
  0
LINE
  5
E1
330
1F
100
AcDbEntity
  8
0
  6
CONTINUOUS
 62
     7
100
AcDbLine
 10
3.2478959459
 20
4.2458830108
 30
0.0
 11
3.3020298042
 21
4.2458830108
 31
0.0
  0
LINE
  5
E2
330
1F
100
AcDbEntity
  8
0
  6
CONTINUOUS
 62
     7
100
AcDbLine
 10
3.3020298042
 20
4.5017885226
 30
0.0
 11
3.2478959459
 21
4.5017885226
 31
0.0
  0
LINE
  5
E3
330
1F
100
AcDbEntity
  8
0
  6
CONTINUOUS
 62
     7
100
AcDbLine
 10
3.3512424026
 20
4.2458830108
 30
0.0
 11
3.4053762609
 21
4.2458830108
 31
0.0
  0
LINE
  5
E4
330
1F
100
AcDbEntity
  8
0
  6
CONTINUOUS
 62
     7
100
AcDbLine
 10
3.4053762609
 20
4.5017885226
 30
0.0
 11
3.3512424026
 21
4.5017885226
 31
0.0
  0
LINE
  5
E5
330
1F
100
AcDbEntity
  8
0
  6
CONTINUOUS
 62
     7
100
AcDbLine
 10
3.2478959459
 20
3.0155680502
 30
0.0
 11
3.3020298042
 21
3.0155680502
 31
0.0
  0
LINE
  5
E6
330
1F
100
AcDbEntity
  8
0
  6
CONTINUOUS
 62
     7
100
AcDbLine
 10
3.3020298042
 20
3.271473562
 30
0.0
 11
3.2478959459
 21
3.271473562
 31
0.0
  0
LINE
  5
E7
330
1F
100
AcDbEntity
  8
0
  6
CONTINUOUS
 62
     7
100
AcDbLine
 10
3.3512424026
 20
3.0155680502
 30
0.0
 11
3.4053762609
 21
3.0155680502
 31
0.0
  0
LINE
  5
E8
330
1F
100
AcDbEntity
  8
0
  6
CONTINUOUS
 62
     7
100
AcDbLine
 10
3.4053762609
 20
3.271473562
 30
0.0
 11
3.3512424026
 21
3.271473562
 31
0.0
  0
LINE
  5
E9
330
1F
100
AcDbEntity
  8
0
  6
CONTINUOUS
 62
     7
100
AcDbLine
 10
3.3512424026
 20
4.5337767116
 30
0.0
 11
3.3020298042
 21
4.5337767116
 31
0.0
  0
LINE
  5
EA
330
1F
100
AcDbEntity
  8
0
  6
CONTINUOUS
 62
     7
100
AcDbLine
 10
3.3020298042
 20
2.9835798612
 30
0.0
 11
3.3512424026
 21
2.9835798612
 31
0.0
  0
LINE
  5
EB
330
1F
100
AcDbEntity
  8
0
  6
CONTINUOUS
 62
     7
100
AcDbLine
 10
3.4053762609
 20
4.5657649006
 30
0.0
 11
3.4053762609
 21
2.9515916722
 31
0.0
  0
SPLINE
  5
EC
330
1F
100
AcDbEntity
  8
0
  6
CONTINUOUS
 62
     7
100
AcDbSpline
210
0.0
220
0.0
230
1.0
 70
     8
 71
     3
 72
    88
 73
    84
 74
     0
 42
0.00000001
 43
0.00000001
 40
-0.0156249999999997
 40
-0.0156249999999997
 40
0.0
 40
0.0
 40
0.0312500000000001
 40
0.0312500000000001
 40
0.0468750000000001
 40
0.0468750000000001
 40
0.0625000000000002
 40
0.0625000000000002
 40
0.0781250000000002
 40
0.0781250000000002
 40
0.0937500000000002
 40
0.0937500000000002
 40
0.1250000000000003
 40
0.1250000000000003
 40
0.1562500000000003
 40
0.1562500000000003
 40
0.1875000000000004
 40
0.1875000000000004
 40
0.2187500000000004
 40
0.2187500000000004
 40
0.2500000000000005
 40
0.2500000000000005
 40
0.2812500000000006
 40
0.2812500000000006
 40
0.3125000000000006
 40
0.3125000000000006
 40
0.3437500000000007
 40
0.3437500000000007
 40
0.3750000000000007
 40
0.3750000000000007
 40
0.4062500000000008
 40
0.4062500000000008
 40
0.4218750000000008
 40
0.4218750000000008
 40
0.4375000000000008
 40
0.4375000000000008
 40
0.4531250000000008
 40
0.4531250000000008
 40
0.4687500000000008
 40
0.4687500000000008
 40
0.4843750000000008
 40
0.4843750000000008
 40
0.5000000000000008
 40
0.5000000000000008
 40
0.5156250000000007
 40
0.5156250000000007
 40
0.5312500000000007
 40
0.5312500000000007
 40
0.5625000000000008
 40
0.5625000000000008
 40
0.5937500000000009
 40
0.5937500000000009
 40
0.625000000000001
 40
0.625000000000001
 40
0.6562500000000011
 40
0.6562500000000011
 40
0.6875000000000013
 40
0.6875000000000013
 40
0.7187500000000014
 40
0.7187500000000014
 40
0.7500000000000016
 40
0.7500000000000016
 40
0.8125000000000019
 40
0.8125000000000019
 40
0.828125000000002
 40
0.828125000000002
 40
0.8437500000000022
 40
0.8437500000000022
 40
0.8593750000000022
 40
0.8593750000000022
 40
0.8750000000000023
 40
0.8750000000000023
 40
0.906250000000002
 40
0.906250000000002
 40
0.9218750000000017
 40
0.9218750000000017
 40
0.9375000000000014
 40
0.9375000000000014
 40
0.9687500000000008
 40
0.9687500000000008
 40
0.9843750000000003
 40
0.9843750000000003
 40
1.0
 40
1.0
 40
1.03125
 40
1.03125
 10
3.835923069367011
 20
4.463300787148009
 30
0.0
 10
3.82099524228578
 20
4.463300787148009
 30
0.0
 10
3.811271980638295
 20
4.462664457733802
 30
0.0
 10
3.797013456269561
 20
4.460777950965922
 30
0.0
 10
3.792283230570298
 20
4.459983864459192
 30
0.0
 10
3.783152316570683
 20
4.458106794625941
 30
0.0
 10
3.778740934072536
 20
4.457025147512092
 30
0.0
 10
3.770211485814169
 20
4.454577727604474
 30
0.0
 10
3.766093497360503
 20
4.453211902581436
 30
0.0
 10
3.758147562951138
 20
4.450185580414662
 30
0.0
 10
3.754337972712031
 20
4.448529294415349
 30
0.0
 10
3.74359585911729
 20
4.443233126036837
 30
0.0
 10
3.737241863196048
 20
4.43922831920523
 30
0.0
 10
3.726070796422364
 20
4.430267013576799
 30
0.0
 10
3.721406337031179
 20
4.425436055003407
 30
0.0
 10
3.713662812598939
 20
4.415077461372984
 30
0.0
 10
3.71058355266642
 20
4.409512969852412
 30
0.0
 10
3.706033201022953
 20
4.398014790334747
 30
0.0
 10
3.70452792289889
 20
4.392047743752578
 30
0.0
 10
3.702900360336326
 20
4.379672455605672
 30
0.0
 10
3.702791504586886
 20
4.373286448861959
 30
0.0
 10
3.703840325558753
 20
4.360403816621734
 30
0.0
 10
3.704992238640083
 20
4.353867472110625
 30
0.0
 10
3.708488405344968
 20
4.34060979695994
 30
0.0
 10
3.710845284864057
 20
4.33387760687648
 30
0.0
 10
3.716624146918608
 20
4.320577997307582
 30
0.0
 10
3.720053760746315
 20
4.313968576946481
 30
0.0
 10
3.72803924962583
 20
4.300874733047359
 30
0.0
 10
3.73260846931529
 20
4.294369635807694
 30
0.0
 10
3.743009554353034
 20
4.281660781814115
 30
0.0
 10
3.748756132724561
 20
4.275552529297452
 30
0.0
 10
3.758376004443812
 20
4.266911792738354
 30
0.0
 10
3.761750895910913
 20
4.264119508657738
 30
0.0
 10
3.768898879298185
 20
4.2587568617447
 30
0.0
 10
3.772660723435243
 20
4.256198209646378
 30
0.0
 10
3.780483120147347
 20
4.251471339580719
 30
0.0
 10
3.784559845550469
 20
4.249289882106842
 30
0.0
 10
3.793106909281728
 20
4.245373760954345
 30
0.0
 10
3.797618360505314
 20
4.243628476987363
 30
0.0
 10
3.806845196402802
 20
4.240788669958978
 30
0.0
 10
3.811570253387029
 20
4.239683685895437
 30
0.0
 10
3.821270054684651
 20
4.238186623310919
 30
0.0
 10
3.826281231318346
 20
4.237802522569273
 30
0.0
 10
3.836132949787013
 20
4.237829654248044
 30
0.0
 10
3.841021524306415
 20
4.238228059850119
 30
0.0
 10
3.850726441689521
 20
4.23976739394134
 30
0.0
 10
3.855535952556137
 20
4.240915856726669
 30
0.0
 10
3.869334032470853
 20
4.245234276069063
 30
0.0
 10
3.877975840722367
 20
4.249354792151175
 30
0.0
 10
3.893536562195653
 20
4.258841441626307
 30
0.0
 10
3.900582288956975
 20
4.264244366178178
 30
0.0
 10
3.913482013016043
 20
4.275893191686894
 30
0.0
 10
3.919184125761558
 20
4.28200083865723
 30
0.0
 10
3.929433321316501
 20
4.294576861832253
 30
0.0
 10
3.93397506514126
 20
4.301048103309546
 30
0.0
 10
3.942005040502863
 20
4.314262726227245
 30
0.0
 10
3.945452662877767
 20
4.320951247854569
 30
0.0
 10
3.951187749551859
 20
4.334246579998561
 30
0.0
 10
3.9534932580816
 20
4.340884328249522
 30
0.0
 10
3.956953463756623
 20
4.354121818414358
 30
0.0
 10
3.958102467370116
 20
4.360748730671818
 30
0.0
 10
3.959607909666442
 20
4.380013462823332
 30
0.0
 10
3.958158106548872
 20
4.392211301376631
 30
0.0
 10
3.952441959729602
 20
4.40665419804117
 30
0.0
 10
3.951095737328111
 20
4.409499279020288
 30
0.0
 10
3.948027955816287
 20
4.414993806518644
 30
0.0
 10
3.946301226607064
 20
4.417658031604916
 30
0.0
 10
3.942442588194345
 20
4.422822759718073
 30
0.0
 10
3.940310785557279
 20
4.425323279365021
 30
0.0
 10
3.935611299994845
 20
4.430160377299327
 30
0.0
 10
3.933029932716059
 20
4.432507813567243
 30
0.0
 10
3.924660064753495
 20
4.439222432352927
 30
0.0
 10
3.918344323532552
 20
4.443201704219958
 30
0.0
 10
3.90769425842306
 20
4.448465557915053
 30
0.0
 10
3.903946902949503
 20
4.450101902052699
 30
0.0
 10
3.896024932535807
 20
4.453133559738139
 30
0.0
 10
3.891835911176027
 20
4.454529698584951
 30
0.0
 10
3.878997928877738
 20
4.458225463544316
 30
0.0
 10
3.869962311735096
 20
4.460091777729946
 30
0.0
 10
3.855649234464054
 20
4.462005966727702
 30
0.0
 10
3.850733930161535
 20
4.462493643251853
 30
0.0
 10
3.840892723211728
 20
4.463138506217978
 30
0.0
 10
3.835923069367011
 20
4.463300787148009
 30
0.0
 10
3.82099524228578
 20
4.463300787148009
 30
0.0
  0
SPLINE
  5
ED
330
1F
100
AcDbEntity
  8
0
  6
CONTINUOUS
 62
     7
100
AcDbSpline
210
0.0
220
0.0
230
1.0
 70
     8
 71
     3
 72
    74
 73
    70
 74
     0
 42
0.00000001
 43
0.00000001
 40
-0.0312499999999993
 40
-0.0312499999999993
 40
0.0
 40
0.0
 40
0.0312499999999997
 40
0.0312499999999997
 40
0.0468749999999998
 40
0.0468749999999998
 40
0.0624999999999998
 40
0.0624999999999998
 40
0.0781249999999998
 40
0.0781249999999998
 40
0.0937499999999998
 40
0.0937499999999998
 40
0.1249999999999999
 40
0.1249999999999999
 40
0.1875000000000002
 40
0.1875000000000002
 40
0.2187500000000005
 40
0.2187500000000005
 40
0.2500000000000007
 40
0.2500000000000007
 40
0.2812500000000009
 40
0.2812500000000009
 40
0.3125000000000012
 40
0.3125000000000012
 40
0.3437500000000014
 40
0.3437500000000014
 40
0.3750000000000016
 40
0.3750000000000016
 40
0.4062500000000019
 40
0.4062500000000019
 40
0.4375000000000021
 40
0.4375000000000021
 40
0.4687500000000023
 40
0.4687500000000023
 40
0.5000000000000026
 40
0.5000000000000026
 40
0.5156250000000026
 40
0.5156250000000026
 40
0.5312500000000026
 40
0.5312500000000026
 40
0.5625000000000023
 40
0.5625000000000023
 40
0.5937500000000022
 40
0.5937500000000022
 40
0.625000000000002
 40
0.625000000000002
 40
0.6562500000000019
 40
0.6562500000000019
 40
0.6875000000000017
 40
0.6875000000000017
 40
0.7187500000000016
 40
0.7187500000000016
 40
0.7500000000000013
 40
0.7500000000000013
 40
0.7812500000000014
 40
0.7812500000000014
 40
0.8125000000000016
 40
0.8125000000000016
 40
0.8750000000000016
 40
0.8750000000000016
 40
0.9062500000000013
 40
0.9062500000000013
 40
0.9375000000000012
 40
0.9375000000000012
 40
0.953125000000001
 40
0.953125000000001
 40
0.9687500000000007
 40
0.9687500000000007
 40
1.0
 40
1.0
 40
1.03125
 40
1.03125
 10
3.824858735537265
 20
3.219164255854115
 30
0.0
 10
3.837035518475937
 20
3.219164255854115
 30
0.0
 10
3.84292118912622
 20
3.218387681187822
 30
0.0
 10
3.851482309878369
 20
3.216209080013206
 30
0.0
 10
3.854282177485085
 20
3.215311149319547
 30
0.0
 10
3.859619641478517
 20
3.213267179193585
 30
0.0
 10
3.862182593725951
 20
3.212115188430231
 30
0.0
 10
3.867120706317602
 20
3.209584844753391
 30
0.0
 10
3.869506994605842
 20
3.20819799920967
 30
0.0
 10
3.874013930223375
 20
3.205283594847715
 30
0.0
 10
3.876144667898058
 20
3.203752425024764
 30
0.0
 10
3.882216687479542
 20
3.198972761500311
 30
0.0
 10
3.885843702679445
 20
3.195537742312777
 30
0.0
 10
3.895628634348255
 20
3.184668679589812
 30
0.0
 10
3.900429817039699
 20
3.177039089774959
 30
0.0
 10
3.905567790454584
 20
3.165259965149383
 30
0.0
 10
3.90691737568316
 20
3.161271728816992
 30
0.0
 10
3.908835910929761
 20
3.15340207374107
 30
0.0
 10
3.909418339623473
 20
3.149493050785334
 30
0.0
 10
3.909809739806916
 20
3.141728886662948
 30
0.0
 10
3.909613637303149
 20
3.137846553392925
 30
0.0
 10
3.908380793492491
 20
3.130276754780063
 30
0.0
 10
3.90735339386092
 20
3.126603462104213
 30
0.0
 10
3.904415963626394
 20
3.119478685584818
 30
0.0
 10
3.902495130958655
 20
3.116010468402318
 30
0.0
 10
3.897668637000605
 20
3.109379192080453
 30
0.0
 10
3.894810341840322
 20
3.106273596572595
 30
0.0
 10
3.888111762639233
 20
3.100488657391347
 30
0.0
 10
3.884216398366094
 20
3.097781978616217
 30
0.0
 10
3.87558208140021
 20
3.093030621906601
 30
0.0
 10
3.870848007600915
 20
3.090969868976617
 30
0.0
 10
3.860424703294421
 20
3.087525017379102
 30
0.0
 10
3.854906902200858
 20
3.086202764849879
 30
0.0
 10
3.84341703599074
 20
3.084397643681773
 30
0.0
 10
3.837329548713884
 20
3.083914157304238
 30
0.0
 10
3.828345174905018
 20
3.0838847444709
 30
0.0
 10
3.825358161300897
 20
3.083986626381023
 30
0.0
 10
3.819399744588042
 20
3.084415262946683
 30
0.0
 10
3.816406503828269
 20
3.084746070846085
 30
0.0
 10
3.807673408538373
 20
3.086056812241385
 30
0.0
 10
3.80214619141797
 20
3.08734496654038
 30
0.0
 10
3.791647013561979
 20
3.090732752571261
 30
0.0
 10
3.786848550227576
 20
3.092779573349287
 30
0.0
 10
3.778121869297342
 20
3.097498237912929
 30
0.0
 10
3.774193792448046
 20
3.100182652519173
 30
0.0
 10
3.76740225064875
 20
3.105954517538521
 30
0.0
 10
3.764473093611709
 20
3.109091613232144
 30
0.0
 10
3.759592068375617
 20
3.115697488161664
 30
0.0
 10
3.757648364471656
 20
3.119141182100815
 30
0.0
 10
3.754636817391865
 20
3.126302100575792
 30
0.0
 10
3.753571183862038
 20
3.13003986928525
 30
0.0
 10
3.752303362951053
 20
3.137596676587067
 30
0.0
 10
3.752088987270211
 20
3.141434935858331
 30
0.0
 10
3.752444758946309
 20
3.149231383836234
 30
0.0
 10
3.753023591290837
 20
3.153213477588457
 30
0.0
 10
3.754927816646542
 20
3.161114557904229
 30
0.0
 10
3.756249080419615
 20
3.165047321259683
 30
0.0
 10
3.761321116761505
 20
3.17677798988082
 30
0.0
 10
3.766237718137366
 20
3.184609605227668
 30
0.0
 10
3.775893155801293
 20
3.195376578650512
 30
0.0
 10
3.779506364376189
 20
3.198825689054886
 30
0.0
 10
3.787697605949917
 20
3.205297775265927
 30
0.0
 10
3.792162464132633
 20
3.208233222985124
 30
0.0
 10
3.799551664350692
 20
3.212039725979005
 30
0.0
 10
3.802151847718059
 20
3.213215325519789
 30
0.0
 10
3.807514305242222
 20
3.215278354128621
 30
0.0
 10
3.810270838583982
 20
3.216166372997572
 30
0.0
 10
3.818787417820071
 20
3.218353491279291
 30
0.0
 10
3.824858735537265
 20
3.219164255854115
 30
0.0
 10
3.837035518475937
 20
3.219164255854115
 30
0.0
  0
LINE
  5
EE
330
1F
100
AcDbEntity
  8
0
  6
CONTINUOUS
 62
     7
100
AcDbLine
 10
3.6767476519
 20
3.7488357667
 30
0.0
 11
3.6767476519
 21
2.9515916722
 31
0.0
  0
LINE
  5
EF
330
1F
100
AcDbEntity
  8
0
  6
CONTINUOUS
 62
     7
100
AcDbLine
 10
3.988427442
 20
3.7488357667
 30
0.0
 11
3.6767476519
 21
3.7488357667
 31
0.0
  0
LINE
  5
F0
330
1F
100
AcDbEntity
  8
0
  6
CONTINUOUS
 62
     7
100
AcDbLine
 10
3.988427442
 20
3.7685208061
 30
0.0
 11
3.988427442
 21
4.5657649006
 31
0.0
  0
LINE
  5
F1
330
1F
100
AcDbEntity
  8
0
  6
CONTINUOUS
 62
     7
100
AcDbLine
 10
3.988427442
 20
2.9515916722
 30
0.0
 11
3.988427442
 21
3.7488357667
 31
0.0
  0
LINE
  5
F2
330
1F
100
AcDbEntity
  8
0
  6
CONTINUOUS
 62
     7
100
AcDbLine
 10
3.988427442
 20
3.7685208061
 30
0.0
 11
3.6767476519
 21
3.7685208061
 31
0.0
  0
LINE
  5
F3
330
1F
100
AcDbEntity
  8
0
  6
CONTINUOUS
 62
     7
100
AcDbLine
 10
3.6767476519
 20
4.5657649006
 30
0.0
 11
3.6767476519
 21
3.7685208061
 31
0.0
  0
LINE
  5
F4
330
1F
100
AcDbEntity
  8
0
  6
CONTINUOUS
 62
     7
100
AcDbLine
 10
3.6505009328
 20
4.4712760319
 30
0.0
 11
3.6767476519
 21
4.4712760319
 31
0.0
  0
LINE
  5
F5
330
1F
100
AcDbEntity
  8
0
  6
CONTINUOUS
 62
     7
100
AcDbLine
 10
3.6505009328
 20
2.9515916722
 30
0.0
 11
3.6505009328
 21
4.5657649006
 31
0.0
  0
LINE
  5
F6
330
1F
100
AcDbEntity
  8
0
  6
CONTINUOUS
 62
     7
100
AcDbLine
 10
3.6767476519
 20
3.0460805409
 30
0.0
 11
3.6505009328
 21
3.0460805409
 31
0.0
  0
LINE
  5
F7
330
1F
100
AcDbEntity
  8
0
  6
CONTINUOUS
 62
     7
100
AcDbLine
 10
3.995927442
 20
3.7488357667
 30
0.0
 11
3.995927442
 21
2.9590916722
 31
0.0
  0
LINE
  5
F8
330
1F
100
AcDbEntity
  8
0
  6
CONTINUOUS
 62
     7
100
AcDbLine
 10
3.995927442
 20
4.5582649006
 30
0.0
 11
3.995927442
 21
3.7685208061
 31
0.0
  0
LINE
  5
F9
330
1F
100
AcDbEntity
  8
0
  6
CONTINUOUS
 62
     7
100
AcDbLine
 10
3.988427442
 20
3.7685208061
 30
0.0
 11
3.995927442
 21
3.7685208061
 31
0.0
  0
LINE
  5
FA
330
1F
100
AcDbEntity
  8
0
  6
CONTINUOUS
 62
     7
100
AcDbLine
 10
3.988427442
 20
3.7488357667
 30
0.0
 11
3.995927442
 21
3.7488357667
 31
0.0
  0
LINE
  5
FB
330
1F
100
AcDbEntity
  8
0
  6
CONTINUOUS
 62
     7
100
AcDbLine
 10
3.6767476519
 20
3.7685208061
 30
0.0
 11
3.6767476519
 21
3.7488357667
 31
0.0
  0
LINE
  5
FC
330
1F
100
AcDbEntity
  8
0
  6
CONTINUOUS
 62
     7
100
AcDbLine
 10
3.995927442
 20
3.7685208061
 30
0.0
 11
3.995927442
 21
3.7488357667
 31
0.0
  0
LINE
  5
FD
330
1F
100
AcDbEntity
  8
0
  6
CONTINUOUS
 62
     7
100
AcDbLine
 10
3.830947127
 20
4.3246231683
 30
0.0
 11
3.9490573632
 21
4.3246231683
 31
0.0
  0
LINE
  5
FE
330
1F
100
AcDbEntity
  8
0
  6
CONTINUOUS
 62
     7
100
AcDbLine
 10
3.7150239506
 20
4.3246231683
 30
0.0
 11
3.830947127
 21
4.3246231683
 31
0.0
  0
CIRCLE
  5
FF
330
1F
100
AcDbEntity
  8
0
  6
CONTINUOUS
 62
     7
100
AcDbCircle
 10
2.8223250798
 20
4.2801992501
 30
0.0
 40
0.0688976377952759
  0
LINE
  5
100
330
1F
100
AcDbEntity
  8
0
  6
CONTINUOUS
 62
     7
100
AcDbLine
 10
2.6648447648
 20
2.9515916722
 30
0.0
 11
2.6648447648
 21
4.565704883
 31
0.0
  0
LINE
  5
101
330
1F
100
AcDbEntity
  8
0
  6
CONTINUOUS
 62
     7
100
AcDbLine
 10
2.6573447648
 20
4.55820432
 30
0.0
 11
2.6573447648
 21
2.9590916722
 31
0.0
  0
LINE
  5
102
330
1F
100
AcDbEntity
  8
0
  6
CONTINUOUS
 62
     7
100
AcDbLine
 10
2.6648447648
 20
4.565704883
 30
0.0
 11
2.6573447648
 21
4.55820432
 31
0.0
  0
LINE
  5
103
330
1F
100
AcDbEntity
  8
0
  6
CONTINUOUS
 62
     7
100
AcDbLine
 10
3.2478959459
 20
4.5657649006
 30
0.0
 11
3.2478959459
 21
2.9515916722
 31
0.0
  0
SPLINE
  5
104
330
1F
100
AcDbEntity
  8
0
  6
CONTINUOUS
 62
     7
100
AcDbSpline
210
0.0
220
0.0
230
1.0
 70
     8
 71
     3
 72
    74
 73
    70
 74
     0
 42
0.00000001
 43
0.00000001
 40
-0.0312499999999999
 40
-0.0312499999999999
 40
0.0
 40
0.0
 40
0.031249999999999
 40
0.031249999999999
 40
0.0468749999999987
 40
0.0468749999999987
 40
0.0624999999999983
 40
0.0624999999999983
 40
0.078124999999998
 40
0.078124999999998
 40
0.0937499999999977
 40
0.0937499999999977
 40
0.1249999999999974
 40
0.1249999999999974
 40
0.1874999999999974
 40
0.1874999999999974
 40
0.2187499999999973
 40
0.2187499999999973
 40
0.2499999999999973
 40
0.2499999999999973
 40
0.2812499999999972
 40
0.2812499999999972
 40
0.3124999999999972
 40
0.3124999999999972
 40
0.3437499999999971
 40
0.3437499999999971
 40
0.3749999999999971
 40
0.3749999999999971
 40
0.4062499999999971
 40
0.4062499999999971
 40
0.437499999999997
 40
0.437499999999997
 40
0.4687499999999969
 40
0.4687499999999969
 40
0.4999999999999969
 40
0.4999999999999969
 40
0.5156249999999971
 40
0.5156249999999971
 40
0.5312499999999972
 40
0.5312499999999972
 40
0.5624999999999974
 40
0.5624999999999974
 40
0.5937499999999977
 40
0.5937499999999977
 40
0.6249999999999979
 40
0.6249999999999979
 40
0.6562499999999981
 40
0.6562499999999981
 40
0.6874999999999983
 40
0.6874999999999983
 40
0.7187499999999986
 40
0.7187499999999986
 40
0.7499999999999988
 40
0.7499999999999988
 40
0.7812499999999991
 40
0.7812499999999991
 40
0.8124999999999993
 40
0.8124999999999993
 40
0.8749999999999998
 40
0.8749999999999998
 40
0.9062499999999999
 40
0.9062499999999999
 40
0.9375
 40
0.9375
 40
0.953125
 40
0.953125
 40
0.9687500000000001
 40
0.9687500000000001
 40
1.0
 40
1.0
 40
1.031249999999999
 40
1.031249999999999
 10
2.828413471231841
 20
4.35893940759708
 30
0.0
 10
2.816236688293168
 20
4.35893940759708
 30
0.0
 10
2.810351017642885
 20
4.358243715653574
 30
0.0
 10
2.801789896890736
 20
4.356270892373156
 30
0.0
 10
2.79899002928402
 20
4.355455358199245
 30
0.0
 10
2.793652565290587
 20
4.353587895685497
 30
0.0
 10
2.791089613043154
 20
4.352530583628982
 30
0.0
 10
2.786151500451503
 20
4.3501917379184
 30
0.0
 10
2.783765212163264
 20
4.348902180479656
 30
0.0
 10
2.77925827654573
 20
4.346170505148081
 30
0.0
 10
2.777127538871047
 20
4.344725153478585
 30
0.0
 10
2.771055519289563
 20
4.340174533342541
 30
0.0
 10
2.76742850408966
 20
4.336854234746261
 30
0.0
 10
2.75764357242085
 20
4.326133448964987
 30
0.0
 10
2.752842389729406
 20
4.318336064937787
 30
0.0
 10
2.747704416314521
 20
4.305740023427983
 30
0.0
 10
2.746354831085945
 20
4.301383557780156
 30
0.0
 10
2.744436295839344
 20
4.292592430262584
 30
0.0
 10
2.743853867145632
 20
4.28812873669494
 30
0.0
 10
2.743462466962189
 20
4.279060711903369
 30
0.0
 10
2.743658569465956
 20
4.274422875804402
 30
0.0
 10
2.744891413276614
 20
4.265172153358395
 30
0.0
 10
2.745918812908185
 20
4.260578315343141
 30
0.0
 10
2.748856243142711
 20
4.251472455277479
 30
0.0
 10
2.75077707581045
 20
4.246937918977054
 30
0.0
 10
2.7556035697685
 20
4.238084251329767
 30
0.0
 10
2.758461864928784
 20
4.233842968164588
 30
0.0
 10
2.765160444129873
 20
4.225796864890414
 30
0.0
 10
2.769055808403011
 20
4.221951703207876
 30
0.0
 10
2.777690125368895
 20
4.21509846027244
 30
0.0
 10
2.78242419916819
 20
4.212069706769169
 30
0.0
 10
2.792847503474684
 20
4.206954540784626
 30
0.0
 10
2.798365304568247
 20
4.204960883327904
 30
0.0
 10
2.809855170778364
 20
4.20222884525478
 30
0.0
 10
2.81594265805522
 20
4.201489955334332
 30
0.0
 10
2.824927031864087
 20
4.201445131219535
 30
0.0
 10
2.827914045468208
 20
4.201600535750485
 30
0.0
 10
2.833872462181063
 20
4.202252778759999
 30
0.0
 10
2.836865702940836
 20
4.202755757442569
 30
0.0
 10
2.845598798230732
 20
4.204740692294887
 30
0.0
 10
2.851126015351135
 20
4.206684519240199
 30
0.0
 10
2.861625193207125
 20
4.211719978582422
 30
0.0
 10
2.866423656541528
 20
4.214731882718581
 30
0.0
 10
2.875150337471763
 20
4.22154643419174
 30
0.0
 10
2.879078414321059
 20
4.225365321373067
 30
0.0
 10
2.885869956120355
 20
4.233404491717456
 30
0.0
 10
2.888799113157396
 20
4.237694323327969
 30
0.0
 10
2.893680138393488
 20
4.24652549884259
 30
0.0
 10
2.895623842297449
 20
4.251034773341777
 30
0.0
 10
2.89863538937724
 20
4.260198951588587
 30
0.0
 10
2.899701022907067
 20
4.264878031285996
 30
0.0
 10
2.900968843818051
 20
4.274121857654016
 30
0.0
 10
2.901183219498893
 20
4.278712341245253
 30
0.0
 10
2.900827447822796
 20
4.287827835149562
 30
0.0
 10
2.900248615478267
 20
4.292378835046927
 30
0.0
 10
2.898344390122563
 20
4.301210774571166
 30
0.0
 10
2.897023126349489
 20
4.305509049202112
 30
0.0
 10
2.891951090007601
 20
4.318063717257917
 30
0.0
 10
2.887034488631739
 20
4.326072018422704
 30
0.0
 10
2.877379050967812
 20
4.336696809104812
 30
0.0
 10
2.873765842392916
 20
4.340033464169903
 30
0.0
 10
2.865574600819188
 20
4.346197463423813
 30
0.0
 10
2.861109742636472
 20
4.348941769571321
 30
0.0
 10
2.853720542418413
 20
4.352461136602256
 30
0.0
 10
2.851120359051046
 20
4.35354038264453
 30
0.0
 10
2.845757901526883
 20
4.355425526735505
 30
0.0
 10
2.843001368185123
 20
4.356232128362595
 30
0.0
 10
2.834484788949034
 20
4.358212929568168
 30
0.0
 10
2.828413471231841
 20
4.35893940759708
 30
0.0
 10
2.816236688293168
 20
4.35893940759708
 30
0.0
  0
LINE
  5
105
330
1F
100
AcDbEntity
  8
0
  6
CONTINUOUS
 62
     7
100
AcDbLine
 10
2.6648447648
 20
4.565704883
 30
0.0
 11
2.9765245548
 21
4.565704883
 31
0.0
  0
LINE
  5
106
330
1F
100
AcDbEntity
  8
0
  6
CONTINUOUS
 62
     7
100
AcDbLine
 10
2.9765245548
 20
3.3797412785
 30
0.0
 11
3.002771274
 21
3.3797412785
 31
0.0
  0
LINE
  5
107
330
1F
100
AcDbEntity
  8
0
  6
CONTINUOUS
 62
     7
100
AcDbLine
 10
2.9765245548
 20
4.565704883
 30
0.0
 11
2.9765245548
 21
3.3797412785
 31
0.0
  0
LINE
  5
108
330
1F
100
AcDbEntity
  8
0
  6
CONTINUOUS
 62
     7
100
AcDbLine
 10
3.002771274
 20
3.3797412785
 30
0.0
 11
3.002771274
 21
4.5657649006
 31
0.0
  0
LINE
  5
109
330
1F
100
AcDbEntity
  8
0
  6
CONTINUOUS
 62
     7
100
AcDbLine
 10
3.3512424026
 20
3.8717736131
 30
0.0
 11
3.3020298042
 21
3.8717736131
 31
0.0
  0
LINE
  5
10A
330
1F
100
AcDbEntity
  8
0
  6
CONTINUOUS
 62
     7
100
AcDbLine
 10
3.3512424026
 20
3.6455829597
 30
0.0
 11
3.3020298042
 21
3.6455829597
 31
0.0
  0
LINE
  5
10B
330
1F
100
AcDbEntity
  8
0
  6
CONTINUOUS
 62
     7
100
AcDbLine
 10
3.3020298042
 20
3.8717736131
 30
0.0
 11
3.3020298042
 21
3.6455829597
 31
0.0
  0
LINE
  5
10C
330
1F
100
AcDbEntity
  8
0
  6
CONTINUOUS
 62
     7
100
AcDbLine
 10
3.3512424026
 20
3.8717736131
 30
0.0
 11
3.3512424026
 21
3.6455829597
 31
0.0
  0
LINE
  5
10D
330
1F
100
AcDbEntity
  8
0
  6
CONTINUOUS
 62
     7
100
AcDbLine
 10
3.3512424026
 20
4.4869310934
 30
0.0
 11
3.3020298042
 21
4.4869310934
 31
0.0
  0
LINE
  5
10E
330
1F
100
AcDbEntity
  8
0
  6
CONTINUOUS
 62
     7
100
AcDbLine
 10
3.3020298042
 20
4.4869310934
 30
0.0
 11
3.3020298042
 21
3.8717736131
 31
0.0
  0
LINE
  5
10F
330
1F
100
AcDbEntity
  8
0
  6
CONTINUOUS
 62
     7
100
AcDbLine
 10
3.3512424026
 20
4.4869310934
 30
0.0
 11
3.3512424026
 21
3.8717736131
 31
0.0
  0
LINE
  5
110
330
1F
100
AcDbEntity
  8
0
  6
CONTINUOUS
 62
     7
100
AcDbLine
 10
3.3512424026
 20
3.0304254794
 30
0.0
 11
3.3020298042
 21
3.0304254794
 31
0.0
  0
LINE
  5
111
330
1F
100
AcDbEntity
  8
0
  6
CONTINUOUS
 62
     7
100
AcDbLine
 10
3.3020298042
 20
3.6455829597
 30
0.0
 11
3.3020298042
 21
3.0304254794
 31
0.0
  0
LINE
  5
112
330
1F
100
AcDbEntity
  8
0
  6
CONTINUOUS
 62
     7
100
AcDbLine
 10
3.3512424026
 20
3.6455829597
 30
0.0
 11
3.3512424026
 21
3.0304254794
 31
0.0
  0
LINE
  5
113
330
1F
100
AcDbEntity
  8
0
  6
CONTINUOUS
 62
     7
100
AcDbLine
 10
3.3020298042
 20
4.5337767116
 30
0.0
 11
3.3020298042
 21
4.4869310934
 31
0.0
  0
LINE
  5
114
330
1F
100
AcDbEntity
  8
0
  6
CONTINUOUS
 62
     7
100
AcDbLine
 10
3.3512424026
 20
4.5337767116
 30
0.0
 11
3.3512424026
 21
4.4869310934
 31
0.0
  0
LINE
  5
115
330
1F
100
AcDbEntity
  8
0
  6
CONTINUOUS
 62
     7
100
AcDbLine
 10
3.3020298042
 20
3.0304254794
 30
0.0
 11
3.3020298042
 21
2.9835798612
 31
0.0
  0
LINE
  5
116
330
1F
100
AcDbEntity
  8
0
  6
CONTINUOUS
 62
     7
100
AcDbLine
 10
3.3512424026
 20
3.0304254794
 30
0.0
 11
3.3512424026
 21
2.9835798612
 31
0.0
  0
LINE
  5
117
330
1F
100
AcDbEntity
  8
0
  6
CONTINUOUS
 62
     8
100
AcDbLine
 10
3.830947127
 20
4.3147806486
 30
0.0
 11
3.7190540171
 21
4.3147806486
 31
0.0
  0
LINE
  5
118
330
1F
100
AcDbEntity
  8
0
  6
CONTINUOUS
 62
     8
100
AcDbLine
 10
3.9418125532
 20
4.3147806486
 30
0.0
 11
3.830947127
 21
4.3147806486
 31
0.0
  0
LINE
  5
119
330
1F
100
AcDbEntity
  8
0
  6
HIDDEN
 62
     7
100
AcDbLine
 10
3.988427442
 20
3.7685208061
 30
0.0
 11
3.988427442
 21
3.7488357667
 31
0.0
  0
LINE
  5
11A
330
1F
100
AcDbEntity
  8
0
  6
HIDDEN
 62
     7
100
AcDbLine
 10
3.830947127
 20
4.1671428533
 30
0.0
 11
3.9588998829
 21
4.1671428533
 31
0.0
  0
LINE
  5
11B
330
1F
100
AcDbEntity
  8
0
  6
HIDDEN
 62
     7
100
AcDbLine
 10
3.7029943711
 20
4.1671428533
 30
0.0
 11
3.830947127
 21
4.1671428533
 31
0.0
  0
SPLINE
  5
11C
330
1F
100
AcDbEntity
  8
0
  6
HIDDEN
 62
     7
100
AcDbSpline
210
0.0
220
0.0
230
1.0
 70
     8
 71
     3
 72
     8
 73
     4
 74
     0
 42
0.00000001
 43
0.00000001
 40
0.0
 40
0.0
 40
0.0
 40
0.0
 40
1.0
 40
1.0
 40
1.0
 40
1.0
 10
3.780940424984974
 20
3.768520806077087
 30
0.0
 10
3.7812407047892
 20
3.76195912628706
 30
0.0
 10
3.7812407047892
 20
3.755397446497034
 30
0.0
 10
3.780940424984974
 20
3.748835766707008
 30
0.0
  0
LINE
  5
11D
330
1F
100
AcDbEntity
  8
0
  6
HIDDEN
 62
     7
100
AcDbLine
 10
3.7128368908
 20
4.3246231683
 30
0.0
 11
3.7150239506
 21
4.3246231683
 31
0.0
  0
LINE
  5
11E
330
1F
100
AcDbEntity
  8
0
  6
HIDDEN
 62
     7
100
AcDbLine
 10
3.9096295035
 20
3.2468672628
 30
0.0
 11
3.7522647505
 21
3.2468672628
 31
0.0
  0
LINE
  5
11F
330
1F
100
AcDbEntity
  8
0
  6
HIDDEN
 62
     7
100
AcDbLine
 10
3.8998447648
 20
3.2370247431
 30
0.0
 11
3.7620494892
 21
3.2370247431
 31
0.0
  0
LINE
  5
120
330
1F
100
AcDbEntity
  8
0
  6
HIDDEN
 62
     7
100
AcDbLine
 10
3.830947127
 20
4.2065129321
 30
0.0
 11
3.8900022451
 21
4.2065129321
 31
0.0
  0
LINE
  5
121
330
1F
100
AcDbEntity
  8
0
  6
HIDDEN
 62
     7
100
AcDbLine
 10
3.830947127
 20
4.2065129321
 30
0.0
 11
3.830947127
 21
4.3246231683
 31
0.0
  0
LINE
  5
122
330
1F
100
AcDbEntity
  8
0
  6
HIDDEN
 62
     7
100
AcDbLine
 10
3.7718920089
 20
4.2065129321
 30
0.0
 11
3.830947127
 21
4.2065129321
 31
0.0
  0
LINE
  5
123
330
1F
100
AcDbEntity
  8
0
  6
HIDDEN
 62
     7
100
AcDbLine
 10
3.7718920089
 20
4.2065129321
 30
0.0
 11
3.7718920089
 21
4.3246231683
 31
0.0
  0
LINE
  5
124
330
1F
100
AcDbEntity
  8
0
  6
HIDDEN
 62
     7
100
AcDbLine
 10
3.8900022451
 20
4.2065129321
 30
0.0
 11
3.8900022451
 21
4.3246231683
 31
0.0
  0
POLYLINE
  5
125
330
1F
100
AcDbEntity
  8
0
  6
HIDDEN
 62
     7
100
AcDb2dPolyline
 66
     1
 10
0.0
 20
0.0
 30
0.0
  0
VERTEX
  5
2B3
330
125
100
AcDbEntity
  8
0
  6
HIDDEN
 62
     7
100
AcDbVertex
100
AcDb2dVertex
 10
2.9010652372
 20
4.2801992501
 30
0.0
  0
VERTEX
  5
2B4
330
125
100
AcDbEntity
  8
0
  6
HIDDEN
 62
     7
100
AcDbVertex
100
AcDb2dVertex
 10
2.9005457168
 20
4.2892294411
 30
0.0
  0
VERTEX
  5
2B5
330
125
100
AcDbEntity
  8
0
  6
HIDDEN
 62
     7
100
AcDbVertex
100
AcDb2dVertex
 10
2.8993307131
 20
4.2966353332
 30
0.0
  0
SEQEND
  5
2B6
330
125
100
AcDbEntity
  8
0
  6
HIDDEN
 62
     7
  0
ARC
  5
126
330
1F
100
AcDbEntity
  8
0
  6
HIDDEN
 62
     7
100
AcDbCircle
 10
2.8223250798
 20
4.2801992501
 30
0.0
 40
0.0787401574803151
100
AcDbArc
 50
84.328679395
 51
100.2867080735
  0
LINE
  5
127
330
1F
100
AcDbEntity
  8
0
  6
HIDDEN
 62
     7
100
AcDbLine
 10
2.8200964585
 20
4.2014906378
 30
0.0
 11
2.8223250798
 21
4.2014590926
 31
0.0
  0
CIRCLE
  5
128
330
1F
100
AcDbEntity
  8
0
  6
HIDDEN
 62
     7
100
AcDbCircle
 10
2.8223250798
 20
4.2801992501
 30
0.0
 40
0.127952755905512
  0
LINE
  5
129
330
1F
100
AcDbEntity
  8
0
  6
HIDDEN
 62
     7
100
AcDbLine
 10
2.7632699617
 20
4.2461037618
 30
0.0
 11
2.8223250798
 21
4.2120082734
 31
0.0
  0
LINE
  5
12A
330
1F
100
AcDbEntity
  8
0
  6
HIDDEN
 62
     7
100
AcDbLine
 10
2.8223250798
 20
4.2120082734
 30
0.0
 11
2.8813801979
 21
4.2461037618
 31
0.0
  0
LINE
  5
12B
330
1F
100
AcDbEntity
  8
0
  6
HIDDEN
 62
     7
100
AcDbLine
 10
2.8813801979
 20
4.2461037618
 30
0.0
 11
2.8813801979
 21
4.3142947385
 31
0.0
  0
LINE
  5
12C
330
1F
100
AcDbEntity
  8
0
  6
HIDDEN
 62
     7
100
AcDbLine
 10
2.7632699617
 20
4.3142947385
 30
0.0
 11
2.7632699617
 21
4.2461037618
 31
0.0
  0
LINE
  5
12D
330
1F
100
AcDbEntity
  8
0
  6
HIDDEN
 62
     7
100
AcDbLine
 10
2.8223250798
 20
4.3483902268
 30
0.0
 11
2.7632699617
 21
4.3142947385
 31
0.0
  0
LINE
  5
12E
330
1F
100
AcDbEntity
  8
0
  6
HIDDEN
 62
     7
100
AcDbLine
 10
2.8813801979
 20
4.3142947385
 30
0.0
 11
2.8223250798
 21
4.3483902268
 31
0.0
  0
CIRCLE
  5
12F
330
1F
100
AcDbEntity
  8
0
  6
HIDDEN
 62
     7
100
AcDbCircle
 10
2.8223250798
 20
4.2801992501
 30
0.0
 40
0.1181102362204722
  0
LINE
  5
130
330
1F
100
AcDbEntity
  8
0
  6
HIDDEN
 62
     7
100
AcDbLine
 10
2.6648447648
 20
3.5226629555
 30
0.0
 11
2.8723317818
 21
3.5226629555
 31
0.0
  0
POLYLINE
  5
131
330
1F
100
AcDbEntity
  8
0
  6
HIDDEN
 62
     7
100
AcDb2dPolyline
 66
     1
 10
0.0
 20
0.0
 30
0.0
  0
VERTEX
  5
2B7
330
131
100
AcDbEntity
  8
0
  6
HIDDEN
 62
     7
100
AcDbVertex
100
AcDb2dVertex
 10
2.8723317818
 20
3.5226629555
 30
0.0
  0
VERTEX
  5
2B8
330
131
100
AcDbEntity
  8
0
  6
HIDDEN
 62
     7
100
AcDbVertex
100
AcDb2dVertex
 10
2.8723317818
 20
3.5226629555
 30
0.0
  0
SEQEND
  5
2B9
330
131
100
AcDbEntity
  8
0
  6
HIDDEN
 62
     7
  0
LINE
  5
132
330
1F
100
AcDbEntity
  8
0
  6
HIDDEN
 62
     7
100
AcDbLine
 10
2.9765245548
 20
3.9946936173
 30
0.0
 11
2.6648447648
 21
3.9946936173
 31
0.0
  0
LINE
  5
133
330
1F
100
AcDbEntity
  8
0
  6
HIDDEN
 62
     7
100
AcDbLine
 10
3.3512424026
 20
4.4869310934
 30
0.0
 11
3.3020298042
 21
4.4869310934
 31
0.0
  0
LINE
  5
134
330
1F
100
AcDbEntity
  8
0
  6
HIDDEN
 62
     7
100
AcDbLine
 10
3.3512424026
 20
3.0304254794
 30
0.0
 11
3.3020298042
 21
3.0304254794
 31
0.0
  0
ARC
  5
135
330
1F
100
AcDbEntity
  8
0
  6
HIDDEN
 62
     7
100
AcDbCircle
 10
2.6573447648
 20
3.7585788746
 30
0.0
 40
0.3191797900262461
100
AcDbArc
 50
270.0
 51
312.3424929498
  0
LINE
  5
136
330
1F
100
AcDbEntity
  8
0
  6
HIDDEN
 62
     7
100
AcDbLine
 10
2.6648447648
 20
3.5226629555
 30
0.0
 11
2.6573447648
 21
3.5151566375
 31
0.0
  0
LINE
  5
137
330
1F
100
AcDbEntity
  8
0
  6
HIDDEN
 62
     7
100
AcDbLine
 10
2.6573447648
 20
4.0021999353
 30
0.0
 11
2.6648447648
 21
3.9946936173
 31
0.0
  0
LINE
  5
138
330
1F
100
AcDbEntity
  8
0
  6
HIDDEN
 62
     7
100
AcDbLine
 10
3.3512424026
 20
3.6455829597
 30
0.0
 11
3.3020298042
 21
3.6455829597
 31
0.0
  0
LINE
  5
139
330
1F
100
AcDbEntity
  8
0
  6
HIDDEN
 62
     7
100
AcDbLine
 10
3.3512424026
 20
3.8717736131
 30
0.0
 11
3.3020298042
 21
3.8717736131
 31
0.0
  0
LINE
  5
13A
330
1F
100
AcDbEntity
  8
0
  6
HIDDEN
 62
     7
100
AcDbLine
 10
3.9588998829
 20
4.1671428533
 30
0.0
 11
3.9588998829
 21
4.3745858436
 31
0.0
  0
LINE
  5
13B
330
1F
100
AcDbEntity
  8
0
  6
HIDDEN
 62
     7
100
AcDbLine
 10
3.7029943711
 20
4.3744718034
 30
0.0
 11
3.7029943711
 21
4.1671428533
 31
0.0
  0
LINE
  5
13C
330
1F
100
AcDbEntity
  8
0
  6
HIDDEN
 62
     7
100
AcDbLine
 10
3.7522069695
 20
4.1671428533
 30
0.0
 11
3.7522069695
 21
3.7685208061
 31
0.0
  0
LINE
  5
13D
330
1F
100
AcDbEntity
  8
0
  6
HIDDEN
 62
     7
100
AcDbLine
 10
3.9096872845
 20
3.7685208061
 30
0.0
 11
3.9096872845
 21
4.1671428533
 31
0.0
  0
LINE
  5
13E
330
1F
100
AcDbEntity
  8
0
  6
HIDDEN
 62
     7
100
AcDbLine
 10
3.7522069695
 20
3.7488357667
 30
0.0
 11
3.7522069695
 21
3.142763534
 31
0.0
  0
LINE
  5
13F
330
1F
100
AcDbEntity
  8
0
  6
HIDDEN
 62
     7
100
AcDbLine
 10
3.9096872845
 20
3.1428072109
 30
0.0
 11
3.9096872845
 21
3.7488357667
 31
0.0
  0
LINE
  5
140
330
1F
100
AcDbEntity
  8
0
  6
HIDDEN
 62
     7
100
AcDbLine
 10
3.995927442
 20
4.0023987588
 30
0.0
 11
3.988427442
 21
3.9948987588
 31
0.0
  0
LINE
  5
141
330
1F
100
AcDbEntity
  8
0
  6
HIDDEN
 62
     7
100
AcDbLine
 10
3.988427442
 20
3.522457814
 30
0.0
 11
3.995927442
 21
3.514957814
 31
0.0
  0
LINE
  5
142
330
1F
100
AcDbEntity
  8
0
  6
HIDDEN
 62
     7
100
AcDbLine
 10
3.6505009328
 20
3.9948987588
 30
0.0
 11
3.4053762609
 21
3.9948987588
 31
0.0
  0
LINE
  5
143
330
1F
100
AcDbEntity
  8
0
  6
HIDDEN
 62
     7
100
AcDbLine
 10
3.4053762609
 20
3.522457814
 30
0.0
 11
3.6505009328
 21
3.522457814
 31
0.0
  0
LINE
  5
144
330
1F
100
AcDbEntity
  8
0
  6
HIDDEN
 62
     7
100
AcDbLine
 10
3.988427442
 20
3.9948987588
 30
0.0
 11
3.6767476519
 21
3.9948987588
 31
0.0
  0
LINE
  5
145
330
1F
100
AcDbEntity
  8
0
  6
HIDDEN
 62
     7
100
AcDbLine
 10
3.6767476519
 20
3.522457814
 30
0.0
 11
3.988427442
 21
3.522457814
 31
0.0
  0
ARC
  5
146
330
1F
100
AcDbEntity
  8
0
  6
HIDDEN
 62
     7
100
AcDbCircle
 10
3.7128368908
 20
4.3147806486
 30
0.0
 40
0.0098425196850394
100
AcDbArc
 50
90.0
 51
180.0
  0
ARC
  5
147
330
1F
100
AcDbEntity
  8
0
  6
HIDDEN
 62
     7
100
AcDbCircle
 10
3.9490573632
 20
4.3147806486
 30
0.0
 40
0.0098425196850398
100
AcDbArc
 50
0.0
 51
90.0
  0
LINE
  5
148
330
1F
100
AcDbEntity
  8
0
  6
HIDDEN
 62
     7
100
AcDbLine
 10
3.9588998829
 20
4.1671428533
 30
0.0
 11
3.9588998829
 21
4.3147806486
 31
0.0
  0
LINE
  5
149
330
1F
100
AcDbEntity
  8
0
  6
HIDDEN
 62
     7
100
AcDbLine
 10
3.7029943711
 20
4.3147806486
 30
0.0
 11
3.7029943711
 21
4.1671428533
 31
0.0
  0
LINE
  5
14A
330
1F
100
AcDbEntity
  8
0
  6
HIDDEN
 62
     7
100
AcDbLine
 10
3.7522069695
 20
4.1671428533
 30
0.0
 11
3.7522069695
 21
3.7685208061
 31
0.0
  0
LINE
  5
14B
330
1F
100
AcDbEntity
  8
0
  6
HIDDEN
 62
     7
100
AcDbLine
 10
3.7522069695
 20
3.7488357667
 30
0.0
 11
3.7522069695
 21
3.2468672628
 31
0.0
  0
LINE
  5
14C
330
1F
100
AcDbEntity
  8
0
  6
HIDDEN
 62
     7
100
AcDbLine
 10
3.9096872845
 20
3.2468672628
 30
0.0
 11
3.9096872845
 21
3.7488357667
 31
0.0
  0
LINE
  5
14D
330
1F
100
AcDbEntity
  8
0
  6
HIDDEN
 62
     7
100
AcDbLine
 10
3.9096872845
 20
3.7685208061
 30
0.0
 11
3.9096872845
 21
4.1671428533
 31
0.0
  0
ARC
  5
14E
330
1F
100
AcDbEntity
  8
0
  6
HIDDEN
 62
     7
100
AcDbCircle
 10
3.8998447648
 20
3.2468672628
 30
0.0
 40
0.0098425196850394
100
AcDbArc
 50
270.0
 51
0.0
  0
ARC
  5
14F
330
1F
100
AcDbEntity
  8
0
  6
HIDDEN
 62
     7
100
AcDbCircle
 10
3.7620494892
 20
3.2468672628
 30
0.0
 40
0.0098425196850394
100
AcDbArc
 50
180.0
 51
270.0
  0
LINE
  5
150
330
1F
100
AcDbEntity
  8
0
  6
HIDDEN
 62
     7
100
AcDbLine
 10
3.3512424026
 20
4.0342688376
 30
0.0
 11
3.3020298042
 21
4.0342688376
 31
0.0
  0
LINE
  5
151
330
1F
100
AcDbEntity
  8
0
  6
HIDDEN
 62
     7
100
AcDbLine
 10
3.3020298042
 20
3.4830877352
 30
0.0
 11
3.3512424026
 21
3.4830877352
 31
0.0
  0
LINE
  5
152
330
1F
100
AcDbEntity
  8
0
  6
HIDDEN
 62
     7
100
AcDbLine
 10
3.002771274
 20
3.522457814
 30
0.0
 11
3.2478959459
 21
3.522457814
 31
0.0
  0
LINE
  5
153
330
1F
100
AcDbEntity
  8
0
  6
HIDDEN
 62
     7
100
AcDbLine
 10
3.2478959459
 20
3.9948987588
 30
0.0
 11
3.002771274
 21
3.9948987588
 31
0.0
  0
LINE
  5
154
330
1F
100
AcDbEntity
  8
0
  6
HIDDEN
 62
     7
100
AcDbLine
 10
2.8723317818
 20
3.522457814
 30
0.0
 11
2.9765245548
 21
3.522457814
 31
0.0
  0
LINE
  5
155
330
1F
100
AcDbEntity
  8
0
  6
HIDDEN
 62
     7
100
AcDbLine
 10
3.9588998829
 20
4.3147806486
 30
0.0
 11
3.7029943711
 21
4.3147806486
 31
0.0
  0
ARC
  5
156
330
1F
100
AcDbEntity
  8
0
  6
CONTINUOUS
 62
     7
100
AcDbCircle
 10
7.6112534064
 20
4.3147806486
 30
0.0
 40
0.0098425196850407
100
AcDbArc
 50
90.0
 51
180.0
  0
LINE
  5
157
330
1F
100
AcDbEntity
  8
0
  6
CONTINUOUS
 62
     7
100
AcDbLine
 10
7.6014108867
 20
4.3147806486
 30
0.0
 11
7.6014108867
 21
4.2378157304
 31
0.0
  0
LINE
  5
158
330
1F
100
AcDbEntity
  8
0
  6
CONTINUOUS
 62
     7
100
AcDbLine
 10
7.6506234851
 20
3.7685208061
 30
0.0
 11
7.6506234851
 21
3.7488357667
 31
0.0
  0
LINE
  5
159
330
1F
100
AcDbEntity
  8
0
  6
CONTINUOUS
 62
     7
100
AcDbLine
 10
7.8081038001
 20
3.7488357667
 30
0.0
 11
7.8081038001
 21
3.7685208061
 31
0.0
  0
ARC
  5
15A
330
1F
100
AcDbEntity
  8
0
  6
CONTINUOUS
 62
     7
100
AcDbCircle
 10
8.8069869685
 20
4.3983094863
 30
0.0
 40
0.0098425196850398
100
AcDbArc
 50
0.0
 51
90.0
  0
LINE
  5
15B
330
1F
100
AcDbEntity
  8
0
  6
CONTINUOUS
 62
     7
100
AcDbLine
 10
8.8069869685
 20
4.408152006
 30
0.0
 11
8.7300220504
 21
4.408152006
 31
0.0
  0
ARC
  5
15C
330
1F
100
AcDbEntity
  8
0
  6
CONTINUOUS
 62
     7
100
AcDbCircle
 10
8.2508846063
 20
3.7586782864
 30
0.0
 40
0.7995866141732287
100
AcDbArc
 50
180.7053008021
 51
179.2946991979
  0
LINE
  5
15D
330
1F
100
AcDbEntity
  8
0
  6
CONTINUOUS
 62
     7
100
AcDbLine
 10
7.4438580097
 20
3.7685208061
 30
0.0
 11
7.4513585727
 21
3.7685208061
 31
0.0
  0
ARC
  5
15E
330
1F
100
AcDbEntity
  8
0
  6
CONTINUOUS
 62
     7
100
AcDbCircle
 10
8.2508846063
 20
3.7586782864
 30
0.0
 40
0.8070866141732286
100
AcDbArc
 50
180.6987463389
 51
179.3012536611
  0
LINE
  5
15F
330
1F
100
AcDbEntity
  8
0
  6
CONTINUOUS
 62
     7
100
AcDbLine
 10
7.4438580097
 20
3.7488357667
 30
0.0
 11
7.4513585727
 21
3.7488357667
 31
0.0
  0
LINE
  5
160
330
1F
100
AcDbEntity
  8
0
  6
CONTINUOUS
 62
     7
100
AcDbLine
 10
8.5701638081
 20
3.7685208061
 30
0.0
 11
8.5701638081
 21
3.7488357667
 31
0.0
  0
LINE
  5
161
330
1F
100
AcDbEntity
  8
0
  6
CONTINUOUS
 62
     7
100
AcDbLine
 10
8.5701638081
 20
3.7685208061
 30
0.0
 11
8.4944062552
 21
3.7685208061
 31
0.0
  0
ARC
  5
162
330
1F
100
AcDbEntity
  8
0
  6
CONTINUOUS
 62
     7
100
AcDbCircle
 10
8.2508846063
 20
3.7586782864
 30
0.0
 40
0.2437204724409445
100
AcDbArc
 50
2.3144885286
 51
177.6855114714
  0
LINE
  5
163
330
1F
100
AcDbEntity
  8
0
  6
CONTINUOUS
 62
     7
100
AcDbLine
 10
7.4513585727
 20
3.7685208061
 30
0.0
 11
8.0073629574
 21
3.7685208061
 31
0.0
  0
LINE
  5
164
330
1F
100
AcDbEntity
  8
0
  6
CONTINUOUS
 62
     7
100
AcDbLine
 10
7.4513585727
 20
3.7488357667
 30
0.0
 11
8.0073629574
 21
3.7488357667
 31
0.0
  0
ARC
  5
165
330
1F
100
AcDbEntity
  8
0
  6
CONTINUOUS
 62
     7
100
AcDbCircle
 10
8.2508846063
 20
3.7586782864
 30
0.0
 40
0.2437204724409445
100
AcDbArc
 50
182.3144885286
 51
357.6855114714
  0
LINE
  5
166
330
1F
100
AcDbEntity
  8
0
  6
CONTINUOUS
 62
     7
100
AcDbLine
 10
8.4944062552
 20
3.7488357667
 30
0.0
 11
8.5701638081
 21
3.7488357667
 31
0.0
  0
SPLINE
  5
167
330
1F
100
AcDbEntity
  8
0
  6
CONTINUOUS
 62
     7
100
AcDbSpline
210
0.0
220
0.0
230
1.0
 70
     8
 71
     3
 72
     8
 73
     4
 74
     0
 42
0.00000001
 43
0.00000001
 40
0.0
 40
0.0
 40
0.0
 40
0.0
 40
1.0
 40
1.0
 40
1.0
 40
1.0
 10
8.486899937195679
 20
3.768520806077087
 30
0.0
 10
8.487173578159009
 20
3.76195912628706
 30
0.0
 10
8.487173578159009
 20
3.755397446497034
 30
0.0
 10
8.486899937195679
 20
3.748835766707008
 30
0.0
  0
LINE
  5
168
330
1F
100
AcDbEntity
  8
0
  6
CONTINUOUS
 62
     7
100
AcDbLine
 10
8.0073629574
 20
3.7488357667
 30
0.0
 11
8.0148692755
 21
3.7488357667
 31
0.0
  0
ARC
  5
169
330
1F
100
AcDbEntity
  8
0
  6
CONTINUOUS
 62
     7
100
AcDbCircle
 10
8.2508846063
 20
3.7586782864
 30
0.0
 40
0.2362204724409452
100
AcDbArc
 50
182.3880154633
 51
357.6119845367
  0
LINE
  5
16A
330
1F
100
AcDbEntity
  8
0
  6
CONTINUOUS
 62
     7
100
AcDbLine
 10
8.4868999372
 20
3.7488357667
 30
0.0
 11
8.4944062552
 21
3.7488357667
 31
0.0
  0
LINE
  5
16B
330
1F
100
AcDbEntity
  8
0
  6
CONTINUOUS
 62
     7
100
AcDbLine
 10
8.0073629574
 20
3.7685208061
 30
0.0
 11
8.0148692755
 21
3.7685208061
 31
0.0
  0
ARC
  5
16C
330
1F
100
AcDbEntity
  8
0
  6
CONTINUOUS
 62
     7
100
AcDbCircle
 10
8.2508846063
 20
3.7586782864
 30
0.0
 40
0.2362204724409452
100
AcDbArc
 50
2.3880154633
 51
177.6119845367
  0
LINE
  5
16D
330
1F
100
AcDbEntity
  8
0
  6
CONTINUOUS
 62
     7
100
AcDbLine
 10
8.4868999372
 20
3.7685208061
 30
0.0
 11
8.4944062552
 21
3.7685208061
 31
0.0
  0
LINE
  5
16E
330
1F
100
AcDbEntity
  8
0
  6
CONTINUOUS
 62
     7
100
AcDbLine
 10
8.0146641339
 20
3.7586782864
 30
0.0
 11
8.0148692755
 21
3.7488357667
 31
0.0
  0
LINE
  5
16F
330
1F
100
AcDbEntity
  8
0
  6
CONTINUOUS
 62
     7
100
AcDbLine
 10
8.4868999372
 20
3.7488357667
 30
0.0
 11
8.4871038257
 21
3.7579088596
 31
0.0
  0
LINE
  5
170
330
1F
100
AcDbEntity
  8
0
  6
CONTINUOUS
 62
     7
100
AcDbLine
 10
8.4870741616
 20
3.7625000108
 30
0.0
 11
8.4868999372
 21
3.7685208061
 31
0.0
  0
LINE
  5
171
330
1F
100
AcDbEntity
  8
0
  6
CONTINUOUS
 62
     7
100
AcDbLine
 10
8.0148692755
 20
3.7685208061
 30
0.0
 11
8.0146641339
 21
3.7586782864
 31
0.0
  0
LINE
  5
172
330
1F
100
AcDbEntity
  8
0
  6
CONTINUOUS
 62
     7
100
AcDbLine
 10
7.4438580097
 20
3.7488357667
 30
0.0
 11
7.4438580097
 21
3.7685208061
 31
0.0
  0
LINE
  5
173
330
1F
100
AcDbEntity
  8
0
  6
CONTINUOUS
 62
     7
100
AcDbLine
 10
7.6112534064
 20
4.3246231683
 30
0.0
 11
7.6754758877
 21
4.3246231683
 31
0.0
  0
LINE
  5
174
330
1F
100
AcDbEntity
  8
0
  6
CONTINUOUS
 62
     7
100
AcDbLine
 10
8.8168294882
 20
4.334087005
 30
0.0
 11
8.8168294882
 21
4.3983094863
 31
0.0
  0
LINE
  5
175
330
1F
100
AcDbEntity
  8
0
  6
CONTINUOUS
 62
     8
100
AcDbLine
 10
7.6659581447
 20
4.3147806486
 30
0.0
 11
7.6014108867
 21
4.3147806486
 31
0.0
  0
LINE
  5
176
330
1F
100
AcDbEntity
  8
0
  6
CONTINUOUS
 62
     8
100
AcDbLine
 10
8.8069869685
 20
4.408152006
 30
0.0
 11
8.8069869685
 21
4.343604748
 31
0.0
  0
LINE
  5
177
330
1F
100
AcDbEntity
  8
0
  6
HIDDEN
 62
     7
100
AcDbLine
 10
7.6014108867
 20
4.1671428533
 30
0.0
 11
7.8573163985
 21
4.1671428533
 31
0.0
  0
LINE
  5
178
330
1F
100
AcDbEntity
  8
0
  6
HIDDEN
 62
     7
100
AcDbLine
 10
8.6298216142
 20
3.0460805409
 30
0.0
 11
8.6298216142
 21
4.4712760319
 31
0.0
  0
LINE
  5
179
330
1F
100
AcDbEntity
  8
0
  6
HIDDEN
 62
     7
100
AcDbLine
 10
7.6754758877
 20
4.3246231683
 30
0.0
 11
7.8474738788
 21
4.3246231683
 31
0.0
  0
LINE
  5
17A
330
1F
100
AcDbEntity
  8
0
  6
HIDDEN
 62
     7
100
AcDbLine
 10
7.8081038001
 20
3.2468672628
 30
0.0
 11
7.6508545244
 21
3.2468672628
 31
0.0
  0
LINE
  5
17B
330
1F
100
AcDbEntity
  8
0
  6
HIDDEN
 62
     7
100
AcDbLine
 10
7.7982612804
 20
3.2370247431
 30
0.0
 11
7.6604660048
 21
3.2370247431
 31
0.0
  0
LINE
  5
17C
330
1F
100
AcDbEntity
  8
0
  6
HIDDEN
 62
     7
100
AcDbLine
 10
7.7634591309
 20
4.2065129321
 30
0.0
 11
7.7975546193
 21
4.2065129321
 31
0.0
  0
LINE
  5
17D
330
1F
100
AcDbEntity
  8
0
  6
HIDDEN
 62
     7
100
AcDbLine
 10
7.7634591309
 20
4.2065129321
 30
0.0
 11
7.7634591309
 21
4.3246231683
 31
0.0
  0
LINE
  5
17E
330
1F
100
AcDbEntity
  8
0
  6
HIDDEN
 62
     7
100
AcDbLine
 10
7.6952681543
 20
4.2065129321
 30
0.0
 11
7.7634591309
 21
4.2065129321
 31
0.0
  0
LINE
  5
17F
330
1F
100
AcDbEntity
  8
0
  6
HIDDEN
 62
     7
100
AcDbLine
 10
7.6952681543
 20
4.2065129321
 30
0.0
 11
7.6952681543
 21
4.3246231683
 31
0.0
  0
LINE
  5
180
330
1F
100
AcDbEntity
  8
0
  6
HIDDEN
 62
     7
100
AcDbLine
 10
7.6611726659
 20
4.2065129321
 30
0.0
 11
7.6952681543
 21
4.2065129321
 31
0.0
  0
LINE
  5
181
330
1F
100
AcDbEntity
  8
0
  6
HIDDEN
 62
     7
100
AcDbLine
 10
7.7975546193
 20
4.2065129321
 30
0.0
 11
7.7975546193
 21
4.3246231683
 31
0.0
  0
LINE
  5
182
330
1F
100
AcDbEntity
  8
0
  6
HIDDEN
 62
     7
100
AcDbLine
 10
7.6611726659
 20
4.2065129321
 30
0.0
 11
7.6611726659
 21
4.3246231683
 31
0.0
  0
LINE
  5
183
330
1F
100
AcDbEntity
  8
0
  6
HIDDEN
 62
     7
100
AcDbLine
 10
8.8168294882
 20
4.1620890145
 30
0.0
 11
8.8168294882
 21
4.334087005
 31
0.0
  0
LINE
  5
184
330
1F
100
AcDbEntity
  8
0
  6
HIDDEN
 62
     7
100
AcDbLine
 10
8.6593491733
 20
4.1522464942
 30
0.0
 11
8.6593491733
 21
4.408152006
 31
0.0
  0
LINE
  5
185
330
1F
100
AcDbEntity
  8
0
  6
HIDDEN
 62
     7
100
AcDbLine
 10
7.7390735827
 20
4.2014590926
 30
0.0
 11
7.7390735827
 21
4.3587083683
 31
0.0
  0
LINE
  5
186
330
1F
100
AcDbEntity
  8
0
  6
HIDDEN
 62
     7
100
AcDbLine
 10
7.729231063
 20
4.3490968861
 30
0.0
 11
7.729231063
 21
4.2113016123
 31
0.0
  0
LINE
  5
187
330
1F
100
AcDbEntity
  8
0
  6
HIDDEN
 62
     7
100
AcDbLine
 10
8.698719252
 20
4.3142947385
 30
0.0
 11
8.8168294882
 21
4.3142947385
 31
0.0
  0
LINE
  5
188
330
1F
100
AcDbEntity
  8
0
  6
HIDDEN
 62
     7
100
AcDbLine
 10
8.698719252
 20
4.2461037618
 30
0.0
 11
8.8168294882
 21
4.2461037618
 31
0.0
  0
LINE
  5
189
330
1F
100
AcDbEntity
  8
0
  6
HIDDEN
 62
     7
100
AcDbLine
 10
8.698719252
 20
4.2461037618
 30
0.0
 11
8.698719252
 21
4.3142947385
 31
0.0
  0
LINE
  5
18A
330
1F
100
AcDbEntity
  8
0
  6
HIDDEN
 62
     7
100
AcDbLine
 10
8.698719252
 20
4.3142947385
 30
0.0
 11
8.698719252
 21
4.3483902268
 31
0.0
  0
LINE
  5
18B
330
1F
100
AcDbEntity
  8
0
  6
HIDDEN
 62
     7
100
AcDbLine
 10
8.698719252
 20
4.2120082734
 30
0.0
 11
8.698719252
 21
4.2461037618
 31
0.0
  0
LINE
  5
18C
330
1F
100
AcDbEntity
  8
0
  6
HIDDEN
 62
     7
100
AcDbLine
 10
8.698719252
 20
4.3483902268
 30
0.0
 11
8.8168294882
 21
4.3483902268
 31
0.0
  0
LINE
  5
18D
330
1F
100
AcDbEntity
  8
0
  6
HIDDEN
 62
     7
100
AcDbLine
 10
8.698719252
 20
4.2120082734
 30
0.0
 11
8.8168294882
 21
4.2120082734
 31
0.0
  0
CIRCLE
  5
18E
330
1F
100
AcDbEntity
  8
0
  6
HIDDEN
 62
     7
100
AcDbCircle
 10
8.8660420866
 20
3.7586782864
 30
0.0
 40
0.1279527559055129
  0
CIRCLE
  5
18F
330
1F
100
AcDbEntity
  8
0
  6
HIDDEN
 62
     7
100
AcDbCircle
 10
8.2508846063
 20
3.1435208061
 30
0.0
 40
0.1279527559055129
  0
CIRCLE
  5
190
330
1F
100
AcDbEntity
  8
0
  6
HIDDEN
 62
     7
100
AcDbCircle
 10
8.2508846063
 20
4.3738357667
 30
0.0
 40
0.1279527559055129
  0
CIRCLE
  5
191
330
1F
100
AcDbEntity
  8
0
  6
HIDDEN
 62
     7
100
AcDbCircle
 10
7.635727126
 20
3.7586782864
 30
0.0
 40
0.127952755905512
  0
LINE
  5
192
330
1F
100
AcDbEntity
  8
0
  6
HIDDEN
 62
     7
100
AcDbLine
 10
8.1377892796
 20
4.4869310934
 30
0.0
 11
7.5226317993
 21
3.8717736131
 31
0.0
  0
ARC
  5
193
330
1F
100
AcDbEntity
  8
0
  6
HIDDEN
 62
     7
100
AcDbCircle
 10
8.2508846063
 20
4.3738357667
 30
0.0
 40
0.1599409448818903
100
AcDbArc
 50
45.0
 51
135.0
  0
LINE
  5
194
330
1F
100
AcDbEntity
  8
0
  6
HIDDEN
 62
     7
100
AcDbLine
 10
8.9791374134
 20
3.8717736131
 30
0.0
 11
8.363979933
 21
4.4869310934
 31
0.0
  0
ARC
  5
195
330
1F
100
AcDbEntity
  8
0
  6
HIDDEN
 62
     7
100
AcDbCircle
 10
8.8660420866
 20
3.7586782864
 30
0.0
 40
0.1599409448818906
100
AcDbArc
 50
315.0
 51
45.0
  0
LINE
  5
196
330
1F
100
AcDbEntity
  8
0
  6
HIDDEN
 62
     7
100
AcDbLine
 10
8.363979933
 20
3.0304254794
 30
0.0
 11
8.9791374134
 21
3.6455829597
 31
0.0
  0
ARC
  5
197
330
1F
100
AcDbEntity
  8
0
  6
HIDDEN
 62
     7
100
AcDbCircle
 10
8.2508846063
 20
3.1435208061
 30
0.0
 40
0.1599409448818906
100
AcDbArc
 50
225.0
 51
315.0
  0
LINE
  5
198
330
1F
100
AcDbEntity
  8
0
  6
HIDDEN
 62
     7
100
AcDbLine
 10
7.5226317993
 20
3.6455829597
 30
0.0
 11
8.1377892796
 21
3.0304254794
 31
0.0
  0
ARC
  5
199
330
1F
100
AcDbEntity
  8
0
  6
HIDDEN
 62
     7
100
AcDbCircle
 10
7.635727126
 20
3.7586782864
 30
0.0
 40
0.15994094488189
100
AcDbArc
 50
135.0
 51
225.0
  0
CIRCLE
  5
19A
330
1F
100
AcDbEntity
  8
0
  6
HIDDEN
 62
     7
100
AcDbCircle
 10
8.2508846063
 20
3.7586782864
 30
0.0
 40
0.2755905511811036
  0
CIRCLE
  5
19B
330
1F
100
AcDbEntity
  8
0
  6
HIDDEN
 62
     7
100
AcDbCircle
 10
8.2508846063
 20
3.7586782864
 30
0.0
 40
0.8070866141732287
  0
LINE
  5
19C
330
1F
100
AcDbEntity
  8
0
  6
HIDDEN
 62
     7
100
AcDbLine
 10
7.5382868609
 20
3.3797412785
 30
0.0
 11
8.9634823518
 21
3.3797412785
 31
0.0
  0
LINE
  5
19D
330
1F
100
AcDbEntity
  8
0
  6
HIDDEN
 62
     7
100
AcDbLine
 10
8.2410420866
 20
3.9946936173
 30
0.0
 11
8.2410420866
 21
4.565704883
 31
0.0
  0
LINE
  5
19E
330
1F
100
AcDbEntity
  8
0
  6
HIDDEN
 62
     7
100
AcDbLine
 10
8.260727126
 20
3.9946936173
 30
0.0
 11
8.260727126
 21
4.565704883
 31
0.0
  0
LINE
  5
19F
330
1F
100
AcDbEntity
  8
0
  6
HIDDEN
 62
     7
100
AcDbLine
 10
8.2410420866
 20
3.4393990846
 30
0.0
 11
8.2410420866
 21
3.5226629555
 31
0.0
  0
LINE
  5
1A0
330
1F
100
AcDbEntity
  8
0
  6
HIDDEN
 62
     7
100
AcDbLine
 10
8.260727126
 20
3.4393990846
 30
0.0
 11
8.2410420866
 21
3.4393990846
 31
0.0
  0
LINE
  5
1A1
330
1F
100
AcDbEntity
  8
0
  6
HIDDEN
 62
     7
100
AcDbLine
 10
8.260727126
 20
3.5226629555
 30
0.0
 11
8.260727126
 21
3.4393990846
 31
0.0
  0
LINE
  5
1A2
330
1F
100
AcDbEntity
  8
0
  6
HIDDEN
 62
     7
100
AcDbLine
 10
8.0073629574
 20
3.7488357667
 30
0.0
 11
8.0073629574
 21
3.7685208061
 31
0.0
  0
LINE
  5
1A3
330
1F
100
AcDbEntity
  8
0
  6
HIDDEN
 62
     7
100
AcDbLine
 10
8.4944062552
 20
3.7685208061
 30
0.0
 11
8.4944062552
 21
3.7488357667
 31
0.0
  0
LINE
  5
1A4
330
1F
100
AcDbEntity
  8
0
  6
HIDDEN
 62
     7
100
AcDbLine
 10
7.4513585727
 20
3.7685208061
 30
0.0
 11
7.4513585727
 21
3.7488357667
 31
0.0
  0
LINE
  5
1A5
330
1F
100
AcDbEntity
  8
0
  6
HIDDEN
 62
     7
100
AcDbLine
 10
7.8573163985
 20
4.1671428533
 30
0.0
 11
7.8573163985
 21
4.4633007871
 31
0.0
  0
LINE
  5
1A6
330
1F
100
AcDbEntity
  8
0
  6
HIDDEN
 62
     7
100
AcDbLine
 10
7.6014108867
 20
4.238073075
 30
0.0
 11
7.6014108867
 21
4.1671428533
 31
0.0
  0
LINE
  5
1A7
330
1F
100
AcDbEntity
  8
0
  6
HIDDEN
 62
     7
100
AcDbLine
 10
7.6506234851
 20
4.1671428533
 30
0.0
 11
7.6506234851
 21
3.7685208061
 31
0.0
  0
LINE
  5
1A8
330
1F
100
AcDbEntity
  8
0
  6
HIDDEN
 62
     7
100
AcDbLine
 10
7.8081038001
 20
3.7685208061
 30
0.0
 11
7.8081038001
 21
4.1671428533
 31
0.0
  0
LINE
  5
1A9
330
1F
100
AcDbEntity
  8
0
  6
HIDDEN
 62
     7
100
AcDbLine
 10
7.6506234851
 20
3.7488357667
 30
0.0
 11
7.6506234851
 21
3.2191642559
 31
0.0
  0
LINE
  5
1AA
330
1F
100
AcDbEntity
  8
0
  6
HIDDEN
 62
     7
100
AcDbLine
 10
7.8081038001
 20
3.0839933351
 30
0.0
 11
7.8081038001
 21
3.7488357667
 31
0.0
  0
ARC
  5
1AB
330
1F
100
AcDbEntity
  8
0
  6
HIDDEN
 62
     7
100
AcDbCircle
 10
7.8474738788
 20
4.3147806486
 30
0.0
 40
0.0098425196850398
100
AcDbArc
 50
0.0
 51
90.0
  0
LINE
  5
1AC
330
1F
100
AcDbEntity
  8
0
  6
HIDDEN
 62
     7
100
AcDbLine
 10
7.8573163985
 20
4.1671428533
 30
0.0
 11
7.8573163985
 21
4.3147806486
 31
0.0
  0
LINE
  5
1AD
330
1F
100
AcDbEntity
  8
0
  6
HIDDEN
 62
     7
100
AcDbLine
 10
7.6014108867
 20
4.2378157304
 30
0.0
 11
7.6014108867
 21
4.1671428533
 31
0.0
  0
LINE
  5
1AE
330
1F
100
AcDbEntity
  8
0
  6
HIDDEN
 62
     7
100
AcDbLine
 10
7.6506234851
 20
4.1671428533
 30
0.0
 11
7.6506234851
 21
3.7685208061
 31
0.0
  0
LINE
  5
1AF
330
1F
100
AcDbEntity
  8
0
  6
HIDDEN
 62
     7
100
AcDbLine
 10
7.6506234851
 20
3.7488357667
 30
0.0
 11
7.6506234851
 21
3.2468672628
 31
0.0
  0
LINE
  5
1B0
330
1F
100
AcDbEntity
  8
0
  6
HIDDEN
 62
     7
100
AcDbLine
 10
7.8081038001
 20
3.2468672628
 30
0.0
 11
7.8081038001
 21
3.7488357667
 31
0.0
  0
LINE
  5
1B1
330
1F
100
AcDbEntity
  8
0
  6
HIDDEN
 62
     7
100
AcDbLine
 10
7.8081038001
 20
3.7685208061
 30
0.0
 11
7.8081038001
 21
4.1671428533
 31
0.0
  0
ARC
  5
1B2
330
1F
100
AcDbEntity
  8
0
  6
HIDDEN
 62
     7
100
AcDbCircle
 10
7.7982612804
 20
3.2468672628
 30
0.0
 40
0.0098425196850394
100
AcDbArc
 50
270.0
 51
0.0
  0
ARC
  5
1B3
330
1F
100
AcDbEntity
  8
0
  6
HIDDEN
 62
     7
100
AcDbCircle
 10
7.6604660048
 20
3.2468672628
 30
0.0
 40
0.0098425196850394
100
AcDbArc
 50
180.0
 51
270.0
  0
ARC
  5
1B4
330
1F
100
AcDbEntity
  8
0
  6
HIDDEN
 62
     7
100
AcDbCircle
 10
8.8069869685
 20
4.1620890139
 30
0.0
 40
0.0098425196850389
100
AcDbArc
 50
270.0
 51
0.0
  0
LINE
  5
1B5
330
1F
100
AcDbEntity
  8
0
  6
HIDDEN
 62
     7
100
AcDbLine
 10
8.6593491733
 20
4.1522464942
 30
0.0
 11
8.8069869685
 21
4.1522464942
 31
0.0
  0
LINE
  5
1B6
330
1F
100
AcDbEntity
  8
0
  6
HIDDEN
 62
     7
100
AcDbLine
 10
8.7300220504
 20
4.408152006
 30
0.0
 11
8.6593491733
 21
4.408152006
 31
0.0
  0
LINE
  5
1B7
330
1F
100
AcDbEntity
  8
0
  6
HIDDEN
 62
     7
100
AcDbLine
 10
8.6593491733
 20
4.3589394076
 30
0.0
 11
7.7390735827
 21
4.3589394076
 31
0.0
  0
LINE
  5
1B8
330
1F
100
AcDbEntity
  8
0
  6
HIDDEN
 62
     7
100
AcDbLine
 10
7.7390735827
 20
4.2014590926
 30
0.0
 11
8.6593491733
 21
4.2014590926
 31
0.0
  0
ARC
  5
1B9
330
1F
100
AcDbEntity
  8
0
  6
HIDDEN
 62
     7
100
AcDbCircle
 10
7.7390735827
 20
4.2113016123
 30
0.0
 40
0.0098425196850398
100
AcDbArc
 50
180.0
 51
270.0
  0
ARC
  5
1BA
330
1F
100
AcDbEntity
  8
0
  6
HIDDEN
 62
     7
100
AcDbCircle
 10
7.7390735827
 20
4.3490968879
 30
0.0
 40
0.0098425196850398
100
AcDbArc
 50
90.0
 51
180.0
  0
LINE
  5
1BB
330
1F
100
AcDbEntity
  8
0
  6
HIDDEN
 62
     7
100
AcDbLine
 10
8.6593491733
 20
4.1522464942
 30
0.0
 11
8.9555071071
 21
4.1522464942
 31
0.0
  0
LINE
  5
1BC
330
1F
100
AcDbEntity
  8
0
  6
HIDDEN
 62
     7
100
AcDbLine
 10
8.730279395
 20
4.408152006
 30
0.0
 11
8.6593491733
 21
4.408152006
 31
0.0
  0
LINE
  5
1BD
330
1F
100
AcDbEntity
  8
0
  6
HIDDEN
 62
     7
100
AcDbLine
 10
8.6593491733
 20
4.3589394076
 30
0.0
 11
8.260727126
 21
4.3589394076
 31
0.0
  0
LINE
  5
1BE
330
1F
100
AcDbEntity
  8
0
  6
HIDDEN
 62
     7
100
AcDbLine
 10
8.260727126
 20
4.2014590926
 30
0.0
 11
8.6593491733
 21
4.2014590926
 31
0.0
  0
LINE
  5
1BF
330
1F
100
AcDbEntity
  8
0
  6
HIDDEN
 62
     7
100
AcDbLine
 10
8.2410420866
 20
4.3589394076
 30
0.0
 11
7.7113705758
 21
4.3589394076
 31
0.0
  0
LINE
  5
1C0
330
1F
100
AcDbEntity
  8
0
  6
HIDDEN
 62
     7
100
AcDbLine
 10
7.576199655
 20
4.2014590926
 30
0.0
 11
8.2410420866
 21
4.2014590926
 31
0.0
  0
LINE
  5
1C1
330
1F
100
AcDbEntity
  8
0
  6
HIDDEN
 62
     7
100
AcDbLine
 10
7.6014108867
 20
4.3147806486
 30
0.0
 11
7.8573163985
 21
4.3147806486
 31
0.0
  0
LINE
  5
1C2
330
1F
100
AcDbEntity
  8
0
  6
HIDDEN
 62
     7
100
AcDbLine
 10
8.8069869685
 20
4.408152006
 30
0.0
 11
8.8069869685
 21
4.1522464942
 31
0.0
  0
LINE
  5
1C3
330
1F
100
AcDbEntity
  8
0
  6
CONTINUOUS
 62
     7
100
AcDbLine
 10
3.995927442
 20
7.4715637531
 30
0.0
 11
3.988427442
 21
7.4790637531
 31
0.0
  0
LINE
  5
1C4
330
1F
100
AcDbEntity
  8
0
  6
CONTINUOUS
 62
     7
100
AcDbLine
 10
3.4053762609
 20
5.8648905247
 30
0.0
 11
3.6505009328
 21
5.8648905247
 31
0.0
  0
LINE
  5
1C5
330
1F
100
AcDbEntity
  8
0
  6
CONTINUOUS
 62
     7
100
AcDbLine
 10
3.988427442
 20
7.4790637531
 30
0.0
 11
3.4053762609
 21
7.4790637531
 31
0.0
  0
LINE
  5
1C6
330
1F
100
AcDbEntity
  8
0
  6
CONTINUOUS
 62
     7
100
AcDbLine
 10
2.7435849223
 20
6.6818196586
 30
0.0
 11
2.7435849223
 21
6.6621346192
 31
0.0
  0
LINE
  5
1C7
330
1F
100
AcDbEntity
  8
0
  6
CONTINUOUS
 62
     7
100
AcDbLine
 10
2.9010652372
 20
6.6621346192
 30
0.0
 11
2.9010652372
 21
6.6818196586
 31
0.0
  0
LINE
  5
1C8
330
1F
100
AcDbEntity
  8
0
  6
CONTINUOUS
 62
     7
100
AcDbLine
 10
2.9765245548
 20
7.4790637531
 30
0.0
 11
2.6648447648
 21
7.4790637531
 31
0.0
  0
LINE
  5
1C9
330
1F
100
AcDbEntity
  8
0
  6
CONTINUOUS
 62
     7
100
AcDbLine
 10
3.2478959459
 20
7.4790637531
 30
0.0
 11
3.002771274
 21
7.4790637531
 31
0.0
  0
LINE
  5
1CA
330
1F
100
AcDbEntity
  8
0
  6
CONTINUOUS
 62
     7
100
AcDbLine
 10
3.002771274
 20
5.8648905247
 30
0.0
 11
3.2478959459
 21
5.8648905247
 31
0.0
  0
LINE
  5
1CB
330
1F
100
AcDbEntity
  8
0
  6
CONTINUOUS
 62
     7
100
AcDbLine
 10
2.6648447648
 20
5.8648905247
 30
0.0
 11
2.9765245548
 21
5.8648905247
 31
0.0
  0
LINE
  5
1CC
330
1F
100
AcDbEntity
  8
0
  6
CONTINUOUS
 62
     7
100
AcDbLine
 10
2.6648447648
 20
7.4790637531
 30
0.0
 11
2.6573447648
 21
7.4715637531
 31
0.0
  0
LINE
  5
1CD
330
1F
100
AcDbEntity
  8
0
  6
CONTINUOUS
 62
     7
100
AcDbLine
 10
2.6573447648
 20
5.8723905247
 30
0.0
 11
2.6648447648
 21
5.8648905247
 31
0.0
  0
LINE
  5
1CE
330
1F
100
AcDbEntity
  8
0
  6
CONTINUOUS
 62
     7
100
AcDbLine
 10
3.2478959459
 20
6.544024383
 30
0.0
 11
3.3020298042
 21
6.544024383
 31
0.0
  0
LINE
  5
1CF
330
1F
100
AcDbEntity
  8
0
  6
CONTINUOUS
 62
     7
100
AcDbLine
 10
3.3020298042
 20
6.7999298948
 30
0.0
 11
3.2478959459
 21
6.7999298948
 31
0.0
  0
LINE
  5
1D0
330
1F
100
AcDbEntity
  8
0
  6
CONTINUOUS
 62
     7
100
AcDbLine
 10
3.3512424026
 20
6.544024383
 30
0.0
 11
3.4053762609
 21
6.544024383
 31
0.0
  0
LINE
  5
1D1
330
1F
100
AcDbEntity
  8
0
  6
CONTINUOUS
 62
     7
100
AcDbLine
 10
3.4053762609
 20
6.7999298948
 30
0.0
 11
3.3512424026
 21
6.7999298948
 31
0.0
  0
LINE
  5
1D2
330
1F
100
AcDbEntity
  8
0
  6
CONTINUOUS
 62
     7
100
AcDbLine
 10
3.2478959459
 20
7.1591818633
 30
0.0
 11
3.3020298042
 21
7.1591818633
 31
0.0
  0
LINE
  5
1D3
330
1F
100
AcDbEntity
  8
0
  6
CONTINUOUS
 62
     7
100
AcDbLine
 10
3.3020298042
 20
7.4150873751
 30
0.0
 11
3.2478959459
 21
7.4150873751
 31
0.0
  0
LINE
  5
1D4
330
1F
100
AcDbEntity
  8
0
  6
CONTINUOUS
 62
     7
100
AcDbLine
 10
3.3512424026
 20
7.1591818633
 30
0.0
 11
3.4053762609
 21
7.1591818633
 31
0.0
  0
LINE
  5
1D5
330
1F
100
AcDbEntity
  8
0
  6
CONTINUOUS
 62
     7
100
AcDbLine
 10
3.4053762609
 20
7.4150873751
 30
0.0
 11
3.3512424026
 21
7.4150873751
 31
0.0
  0
LINE
  5
1D6
330
1F
100
AcDbEntity
  8
0
  6
CONTINUOUS
 62
     7
100
AcDbLine
 10
3.2478959459
 20
5.9288669027
 30
0.0
 11
3.3020298042
 21
5.9288669027
 31
0.0
  0
LINE
  5
1D7
330
1F
100
AcDbEntity
  8
0
  6
CONTINUOUS
 62
     7
100
AcDbLine
 10
3.3020298042
 20
6.1847724145
 30
0.0
 11
3.2478959459
 21
6.1847724145
 31
0.0
  0
LINE
  5
1D8
330
1F
100
AcDbEntity
  8
0
  6
CONTINUOUS
 62
     7
100
AcDbLine
 10
3.3512424026
 20
5.9288669027
 30
0.0
 11
3.4053762609
 21
5.9288669027
 31
0.0
  0
LINE
  5
1D9
330
1F
100
AcDbEntity
  8
0
  6
CONTINUOUS
 62
     7
100
AcDbLine
 10
3.4053762609
 20
6.1847724145
 30
0.0
 11
3.3512424026
 21
6.1847724145
 31
0.0
  0
LINE
  5
1DA
330
1F
100
AcDbEntity
  8
0
  6
CONTINUOUS
 62
     7
100
AcDbLine
 10
3.3512424026
 20
7.4470755641
 30
0.0
 11
3.3020298042
 21
7.4470755641
 31
0.0
  0
LINE
  5
1DB
330
1F
100
AcDbEntity
  8
0
  6
CONTINUOUS
 62
     7
100
AcDbLine
 10
3.3020298042
 20
5.8968787137
 30
0.0
 11
3.3512424026
 21
5.8968787137
 31
0.0
  0
LINE
  5
1DC
330
1F
100
AcDbEntity
  8
0
  6
CONTINUOUS
 62
     7
100
AcDbLine
 10
3.995927442
 20
7.4715637531
 30
0.0
 11
3.995927442
 21
5.8724511053
 31
0.0
  0
LINE
  5
1DD
330
1F
100
AcDbEntity
  8
0
  6
CONTINUOUS
 62
     7
100
AcDbLine
 10
3.988427442
 20
5.8649505423
 30
0.0
 11
3.995927442
 21
5.8724511053
 31
0.0
  0
LINE
  5
1DE
330
1F
100
AcDbEntity
  8
0
  6
CONTINUOUS
 62
     7
100
AcDbLine
 10
3.988427442
 20
5.8649505423
 30
0.0
 11
3.988427442
 21
7.4790637531
 31
0.0
  0
LINE
  5
1DF
330
1F
100
AcDbEntity
  8
0
  6
CONTINUOUS
 62
     7
100
AcDbLine
 10
3.4053762609
 20
7.4790637531
 30
0.0
 11
3.4053762609
 21
5.8648905247
 31
0.0
  0
SPLINE
  5
1E0
330
1F
100
AcDbEntity
  8
0
  6
CONTINUOUS
 62
     7
100
AcDbSpline
210
0.0
220
0.0
230
1.0
 70
     8
 71
     3
 72
    88
 73
    84
 74
     0
 42
0.00000001
 43
0.00000001
 40
-0.0156249999999997
 40
-0.0156249999999997
 40
0.0
 40
0.0
 40
0.0312500000000001
 40
0.0312500000000001
 40
0.0468750000000001
 40
0.0468750000000001
 40
0.0625000000000002
 40
0.0625000000000002
 40
0.0781250000000002
 40
0.0781250000000002
 40
0.0937500000000002
 40
0.0937500000000002
 40
0.1250000000000003
 40
0.1250000000000003
 40
0.1562500000000003
 40
0.1562500000000003
 40
0.1875000000000004
 40
0.1875000000000004
 40
0.2187500000000004
 40
0.2187500000000004
 40
0.2500000000000005
 40
0.2500000000000005
 40
0.2812500000000006
 40
0.2812500000000006
 40
0.3125000000000006
 40
0.3125000000000006
 40
0.3437500000000007
 40
0.3437500000000007
 40
0.3750000000000007
 40
0.3750000000000007
 40
0.4062500000000008
 40
0.4062500000000008
 40
0.4218750000000008
 40
0.4218750000000008
 40
0.4375000000000008
 40
0.4375000000000008
 40
0.4531250000000008
 40
0.4531250000000008
 40
0.4687500000000008
 40
0.4687500000000008
 40
0.4843750000000008
 40
0.4843750000000008
 40
0.5000000000000008
 40
0.5000000000000008
 40
0.5156250000000007
 40
0.5156250000000007
 40
0.5312500000000007
 40
0.5312500000000007
 40
0.5625000000000008
 40
0.5625000000000008
 40
0.5937500000000009
 40
0.5937500000000009
 40
0.625000000000001
 40
0.625000000000001
 40
0.6562500000000011
 40
0.6562500000000011
 40
0.6875000000000013
 40
0.6875000000000013
 40
0.7187500000000014
 40
0.7187500000000014
 40
0.7500000000000016
 40
0.7500000000000016
 40
0.8125000000000019
 40
0.8125000000000019
 40
0.828125000000002
 40
0.828125000000002
 40
0.8437500000000022
 40
0.8437500000000022
 40
0.8593750000000022
 40
0.8593750000000022
 40
0.8750000000000023
 40
0.8750000000000023
 40
0.906250000000002
 40
0.906250000000002
 40
0.9218750000000017
 40
0.9218750000000017
 40
0.9375000000000014
 40
0.9375000000000014
 40
0.9687500000000008
 40
0.9687500000000008
 40
0.9843750000000003
 40
0.9843750000000003
 40
1.0
 40
1.0
 40
1.03125
 40
1.03125
 10
3.835923069367011
 20
6.278408931097221
 30
0.0
 10
3.82099524228578
 20
6.278408931097221
 30
0.0
 10
3.811271980638295
 20
6.277263556003952
 30
0.0
 10
3.797013456269561
 20
6.273923752318017
 30
0.0
 10
3.792283230570298
 20
6.272523943236462
 30
0.0
 10
3.783152316570683
 20
6.269246296744217
 30
0.0
 10
3.778740934072536
 20
6.267370711053334
 30
0.0
 10
3.770211485814169
 20
6.263175637421406
 30
0.0
 10
3.766093497360503
 20
6.260856019235304
 30
0.0
 10
3.758147562951138
 20
6.255785859120116
 30
0.0
 10
3.754337972712031
 20
6.253043015997099
 30
0.0
 10
3.74359585911729
 20
6.244403620496632
 30
0.0
 10
3.737241863196048
 20
6.238032724893532
 30
0.0
 10
3.726070796422364
 20
6.224288985016791
 30
0.0
 10
3.721406337031179
 20
6.217109414628487
 30
0.0
 10
3.713662812598939
 20
6.202285014555336
 30
0.0
 10
3.71058355266642
 20
6.194594132562337
 30
0.0
 10
3.706033201022953
 20
6.179301632444929
 30
0.0
 10
3.70452792289889
 20
6.171648660018623
 30
0.0
 10
3.702900360336326
 20
6.156369053141927
 30
0.0
 10
3.702791504586886
 20
6.148773917639639
 30
0.0
 10
3.703840325558753
 20
6.134007631974955
 30
0.0
 10
3.704992238640083
 20
6.126786817729662
 30
0.0
 10
3.708488405344968
 20
6.112657578986469
 30
0.0
 10
3.710845284864057
 20
6.10574191827227
 30
0.0
 10
3.716624146918608
 20
6.092541811846416
 30
0.0
 10
3.720053760746315
 20
6.08621165180169
 30
0.0
 10
3.72803924962583
 20
6.074071188190775
 30
0.0
 10
3.73260846931529
 20
6.068243389655024
 30
0.0
 10
3.743009554353034
 20
6.057201593438164
 30
0.0
 10
3.748756132724561
 20
6.052069708837557
 30
0.0
 10
3.758376004443812
 20
6.044999183704564
 30
0.0
 10
3.761750895910913
 20
6.042747672029794
 30
0.0
 10
3.768898879298185
 20
6.03847736019734
 30
0.0
 10
3.772660723435243
 20
6.036468141288768
 30
0.0
 10
3.780483120147347
 20
6.032795813446342
 30
0.0
 10
3.784559845550469
 20
6.031122149289712
 30
0.0
 10
3.793106909281728
 20
6.028143021600596
 30
0.0
 10
3.797618360505314
 20
6.026829667134037
 30
0.0
 10
3.806845196402802
 20
6.024704765210744
 30
0.0
 10
3.811570253387029
 20
6.023884957297423
 30
0.0
 10
3.821270054684651
 20
6.022776534286092
 30
0.0
 10
3.826281231318346
 20
6.022493675409166
 30
0.0
 10
3.836132949787013
 20
6.022513691335637
 30
0.0
 10
3.841021524306415
 20
6.022807103553444
 30
0.0
 10
3.850726441689521
 20
6.023947054248832
 30
0.0
 10
3.855535952556137
 20
6.024799449368335
 30
0.0
 10
3.869334032470853
 20
6.028032261663115
 30
0.0
 10
3.877975840722367
 20
6.031148400613674
 30
0.0
 10
3.893536562195653
 20
6.038524912395123
 30
0.0
 10
3.900582288956975
 20
6.042812278730848
 30
0.0
 10
3.913482013016043
 20
6.052352878526714
 30
0.0
 10
3.919184125761558
 20
6.057492192915537
 30
0.0
 10
3.929433321316501
 20
6.068428500104095
 30
0.0
 10
3.93397506514126
 20
6.074227165111882
 30
0.0
 10
3.942005040502863
 20
6.086489325465569
 30
0.0
 10
3.945452662877767
 20
6.092903951199193
 30
0.0
 10
3.951187749551859
 20
6.106116927097536
 30
0.0
 10
3.9534932580816
 20
6.112943519183859
 30
0.0
 10
3.956953463756623
 20
6.127064794277916
 30
0.0
 10
3.958102467370116
 20
6.134394093184299
 30
0.0
 10
3.959607909666442
 20
6.156502994141179
 30
0.0
 10
3.958158106548872
 20
6.171582917151985
 30
0.0
 10
3.952441959729602
 20
6.190792014284376
 30
0.0
 10
3.951095737328111
 20
6.194648360187998
 30
0.0
 10
3.948027955816287
 20
6.202231819100531
 30
0.0
 10
3.946301226607064
 20
6.205978402075574
 30
0.0
 10
3.942442588194345
 20
6.213369195364875
 30
0.0
 10
3.940310785557279
 20
6.217013451078696
 30
0.0
 10
3.935611299994845
 20
6.224183318617808
 30
0.0
 10
3.933029932716059
 20
6.227725674344466
 30
0.0
 10
3.924660064753495
 20
6.238023640329904
 30
0.0
 10
3.918344323532552
 20
6.244353988374314
 30
0.0
 10
3.90769425842306
 20
6.252938251417137
 30
0.0
 10
3.903946902949503
 20
6.255646827988501
 30
0.0
 10
3.896024932535807
 20
6.260723667912964
 30
0.0
 10
3.891835911176027
 20
6.263093794355688
 30
0.0
 10
3.878997928877738
 20
6.269427206801656
 30
0.0
 10
3.869962311735096
 20
6.272709500447135
 30
0.0
 10
3.855649234464054
 20
6.276097536768517
 30
0.0
 10
3.850733930161535
 20
6.276966782720537
 30
0.0
 10
3.840892723211728
 20
6.278117980413669
 30
0.0
 10
3.835923069367011
 20
6.278408931097221
 30
0.0
 10
3.82099524228578
 20
6.278408931097221
 30
0.0
  0
LINE
  5
1E1
330
1F
100
AcDbEntity
  8
0
  6
CONTINUOUS
 62
     7
100
AcDbLine
 10
3.988427442
 20
5.8649505423
 30
0.0
 11
3.6767476519
 21
5.8649505423
 31
0.0
  0
LINE
  5
1E2
330
1F
100
AcDbEntity
  8
0
  6
CONTINUOUS
 62
     7
100
AcDbLine
 10
3.6767476519
 20
7.0509141468
 30
0.0
 11
3.6767476519
 21
5.8649505423
 31
0.0
  0
LINE
  5
1E3
330
1F
100
AcDbEntity
  8
0
  6
CONTINUOUS
 62
     7
100
AcDbLine
 10
3.6505009328
 20
7.0509141468
 30
0.0
 11
3.6767476519
 21
7.0509141468
 31
0.0
  0
LINE
  5
1E4
330
1F
100
AcDbEntity
  8
0
  6
CONTINUOUS
 62
     7
100
AcDbLine
 10
3.6505009328
 20
5.8648905247
 30
0.0
 11
3.6505009328
 21
7.0509141468
 31
0.0
  0
CIRCLE
  5
1E5
330
1F
100
AcDbEntity
  8
0
  6
CONTINUOUS
 62
     7
100
AcDbCircle
 10
3.830947127
 20
6.1504561752
 30
0.0
 40
0.1181102362204722
  0
CIRCLE
  5
1E6
330
1F
100
AcDbEntity
  8
0
  6
CONTINUOUS
 62
     7
100
AcDbCircle
 10
3.830947127
 20
6.1504561752
 30
0.0
 40
0.1279527559055103
  0
LINE
  5
1E7
330
1F
100
AcDbEntity
  8
0
  6
CONTINUOUS
 62
     7
100
AcDbLine
 10
3.8900022451
 20
6.1163606869
 30
0.0
 11
3.8900022451
 21
6.1845516635
 31
0.0
  0
LINE
  5
1E8
330
1F
100
AcDbEntity
  8
0
  6
CONTINUOUS
 62
     7
100
AcDbLine
 10
3.8900022451
 20
6.1845516635
 30
0.0
 11
3.830947127
 21
6.2186471519
 31
0.0
  0
LINE
  5
1E9
330
1F
100
AcDbEntity
  8
0
  6
CONTINUOUS
 62
     7
100
AcDbLine
 10
3.830947127
 20
6.2186471519
 30
0.0
 11
3.7718920089
 21
6.1845516635
 31
0.0
  0
LINE
  5
1EA
330
1F
100
AcDbEntity
  8
0
  6
CONTINUOUS
 62
     7
100
AcDbLine
 10
3.7718920089
 20
6.1845516635
 30
0.0
 11
3.7718920089
 21
6.1163606869
 31
0.0
  0
LINE
  5
1EB
330
1F
100
AcDbEntity
  8
0
  6
CONTINUOUS
 62
     7
100
AcDbLine
 10
3.7718920089
 20
6.1163606869
 30
0.0
 11
3.830947127
 21
6.0822651985
 31
0.0
  0
LINE
  5
1EC
330
1F
100
AcDbEntity
  8
0
  6
CONTINUOUS
 62
     7
100
AcDbLine
 10
3.830947127
 20
6.0822651985
 30
0.0
 11
3.8900022451
 21
6.1163606869
 31
0.0
  0
LINE
  5
1ED
330
1F
100
AcDbEntity
  8
0
  6
CONTINUOUS
 62
     7
100
AcDbLine
 10
2.8223250798
 20
7.2379220208
 30
0.0
 11
2.7042148435
 21
7.2379220208
 31
0.0
  0
LINE
  5
1EE
330
1F
100
AcDbEntity
  8
0
  6
CONTINUOUS
 62
     7
100
AcDbLine
 10
2.9382482562
 20
7.2379220208
 30
0.0
 11
2.8223250798
 21
7.2379220208
 31
0.0
  0
LINE
  5
1EF
330
1F
100
AcDbEntity
  8
0
  6
CONTINUOUS
 62
     7
100
AcDbLine
 10
3.2478959459
 20
7.4790637531
 30
0.0
 11
3.2478959459
 21
5.8648905247
 31
0.0
  0
SPLINE
  5
1F0
330
1F
100
AcDbEntity
  8
0
  6
CONTINUOUS
 62
     7
100
AcDbSpline
210
0.0
220
0.0
230
1.0
 70
     8
 71
     3
 72
    88
 73
    84
 74
     0
 42
0.00000001
 43
0.00000001
 40
-0.0156249999999999
 40
-0.0156249999999999
 40
0.0
 40
0.0
 40
0.0312500000000003
 40
0.0312500000000003
 40
0.0468750000000004
 40
0.0468750000000004
 40
0.0625000000000005
 40
0.0625000000000005
 40
0.0781250000000007
 40
0.0781250000000007
 40
0.0937500000000008
 40
0.0937500000000008
 40
0.1250000000000007
 40
0.1250000000000007
 40
0.1562500000000007
 40
0.1562500000000007
 40
0.1875000000000006
 40
0.1875000000000006
 40
0.2187500000000005
 40
0.2187500000000005
 40
0.2500000000000004
 40
0.2500000000000004
 40
0.2812500000000004
 40
0.2812500000000004
 40
0.3125000000000003
 40
0.3125000000000003
 40
0.3437500000000002
 40
0.3437500000000002
 40
0.3750000000000001
 40
0.3750000000000001
 40
0.4062500000000001
 40
0.4062500000000001
 40
0.4218750000000001
 40
0.4218750000000001
 40
0.4375
 40
0.4375
 40
0.453125
 40
0.453125
 40
0.46875
 40
0.46875
 40
0.4843749999999999
 40
0.4843749999999999
 40
0.4999999999999999
 40
0.4999999999999999
 40
0.5156249999999999
 40
0.5156249999999999
 40
0.53125
 40
0.53125
 40
0.5625000000000001
 40
0.5625000000000001
 40
0.5937500000000003
 40
0.5937500000000003
 40
0.6250000000000006
 40
0.6250000000000006
 40
0.6562500000000006
 40
0.6562500000000006
 40
0.6875000000000007
 40
0.6875000000000007
 40
0.7187500000000008
 40
0.7187500000000008
 40
0.7500000000000008
 40
0.7500000000000008
 40
0.8125000000000009
 40
0.8125000000000009
 40
0.8281250000000009
 40
0.8281250000000009
 40
0.843750000000001
 40
0.843750000000001
 40
0.8593750000000009
 40
0.8593750000000009
 40
0.8750000000000008
 40
0.8750000000000008
 40
0.9062500000000004
 40
0.9062500000000004
 40
0.9218750000000003
 40
0.9218750000000003
 40
0.9375000000000003
 40
0.9375000000000003
 40
0.96875
 40
0.96875
 40
0.9843750000000001
 40
0.9843750000000001
 40
1.0
 40
1.0
 40
1.03125
 40
1.03125
 10
2.817349137402093
 20
7.376599639672389
 30
0.0
 10
2.832276964483325
 20
7.376599639672389
 30
0.0
 10
2.84200022613081
 20
7.375963310258183
 30
0.0
 10
2.856258750499545
 20
7.374076803490302
 30
0.0
 10
2.860988976198807
 20
7.373282716983572
 30
0.0
 10
2.870119890198422
 20
7.371405647150322
 30
0.0
 10
2.874531272696569
 20
7.370324000036472
 30
0.0
 10
2.883060720954936
 20
7.367876580128856
 30
0.0
 10
2.887178709408603
 20
7.366510755105817
 30
0.0
 10
2.895124643817967
 20
7.363484432939042
 30
0.0
 10
2.898934234057074
 20
7.36182814693973
 30
0.0
 10
2.909676347651815
 20
7.356531978561217
 30
0.0
 10
2.916030343573056
 20
7.352527171729611
 30
0.0
 10
2.927201410346741
 20
7.343565866101179
 30
0.0
 10
2.931865869737926
 20
7.338734907527788
 30
0.0
 10
2.939609394170166
 20
7.328376313897364
 30
0.0
 10
2.942688654102685
 20
7.322811822376792
 30
0.0
 10
2.947239005746152
 20
7.311313642859128
 30
0.0
 10
2.948744283870214
 20
7.305346596276959
 30
0.0
 10
2.950371846432779
 20
7.292971308130052
 30
0.0
 10
2.950480702182219
 20
7.28658530138634
 30
0.0
 10
2.949431881210351
 20
7.273702669146116
 30
0.0
 10
2.948279968129022
 20
7.267166324635006
 30
0.0
 10
2.944783801424137
 20
7.253908649484321
 30
0.0
 10
2.942426921905049
 20
7.247176459400862
 30
0.0
 10
2.936648059850497
 20
7.233876849831963
 30
0.0
 10
2.93321844602279
 20
7.227267429470862
 30
0.0
 10
2.925232957143275
 20
7.21417358557174
 30
0.0
 10
2.920663737453815
 20
7.207668488332076
 30
0.0
 10
2.910262652416071
 20
7.194959634338495
 30
0.0
 10
2.904516074044543
 20
7.188851381821833
 30
0.0
 10
2.894896202325294
 20
7.180210645262735
 30
0.0
 10
2.891521310858192
 20
7.177418361182119
 30
0.0
 10
2.884373327470919
 20
7.172055714269082
 30
0.0
 10
2.880611483333863
 20
7.16949706217076
 30
0.0
 10
2.872789086621757
 20
7.1647701921051
 30
0.0
 10
2.868712361218636
 20
7.162588734631223
 30
0.0
 10
2.860165297487377
 20
7.158672613478726
 30
0.0
 10
2.855653846263791
 20
7.156927329511744
 30
0.0
 10
2.846427010366303
 20
7.15408752248336
 30
0.0
 10
2.841701953382076
 20
7.152982538419819
 30
0.0
 10
2.832002152084454
 20
7.1514854758353
 30
0.0
 10
2.826990975450759
 20
7.151101375093655
 30
0.0
 10
2.817139256982092
 20
7.151128506772425
 30
0.0
 10
2.81225068246269
 20
7.1515269123745
 30
0.0
 10
2.802545765079584
 20
7.153066246465722
 30
0.0
 10
2.797736254212968
 20
7.154214709251051
 30
0.0
 10
2.783938174298253
 20
7.158533128593443
 30
0.0
 10
2.775296366046738
 20
7.162653644675557
 30
0.0
 10
2.759735644573451
 20
7.172140294150688
 30
0.0
 10
2.75268991781213
 20
7.177543218702559
 30
0.0
 10
2.739790193753062
 20
7.189192044211275
 30
0.0
 10
2.734088081007547
 20
7.195299691181611
 30
0.0
 10
2.723838885452603
 20
7.207875714356634
 30
0.0
 10
2.719297141627845
 20
7.214346955833927
 30
0.0
 10
2.711267166266242
 20
7.227561578751625
 30
0.0
 10
2.707819543891338
 20
7.23425010037895
 30
0.0
 10
2.702084457217246
 20
7.247545432522942
 30
0.0
 10
2.699778948687504
 20
7.254183180773901
 30
0.0
 10
2.696318743012482
 20
7.267420670938738
 30
0.0
 10
2.695169739398989
 20
7.274047583196199
 30
0.0
 10
2.693664297102663
 20
7.293312315347714
 30
0.0
 10
2.695114100220233
 20
7.305510153901012
 30
0.0
 10
2.700830247039502
 20
7.31995305056555
 30
0.0
 10
2.702176469440994
 20
7.322798131544669
 30
0.0
 10
2.705244250952818
 20
7.328292659043025
 30
0.0
 10
2.706970980162041
 20
7.330956884129296
 30
0.0
 10
2.71082961857476
 20
7.336121612242454
 30
0.0
 10
2.712961421211827
 20
7.338622131889402
 30
0.0
 10
2.71766090677426
 20
7.343459229823708
 30
0.0
 10
2.720242274053045
 20
7.345806666091624
 30
0.0
 10
2.72861214201561
 20
7.352521284877308
 30
0.0
 10
2.734927883236554
 20
7.356500556744339
 30
0.0
 10
2.745577948346046
 20
7.361764410439434
 30
0.0
 10
2.749325303819603
 20
7.363400754577079
 30
0.0
 10
2.757247274233297
 20
7.366432412262519
 30
0.0
 10
2.761436295593079
 20
7.367828551109331
 30
0.0
 10
2.774274277891367
 20
7.371524316068697
 30
0.0
 10
2.783309895034009
 20
7.373390630254327
 30
0.0
 10
2.79762297230505
 20
7.375304819252082
 30
0.0
 10
2.802538276607569
 20
7.375792495776232
 30
0.0
 10
2.812379483557377
 20
7.376437358742359
 30
0.0
 10
2.817349137402093
 20
7.376599639672389
 30
0.0
 10
2.832276964483325
 20
7.376599639672389
 30
0.0
  0
SPLINE
  5
1F1
330
1F
100
AcDbEntity
  8
0
  6
CONTINUOUS
 62
     7
100
AcDbSpline
210
0.0
220
0.0
230
1.0
 70
     8
 71
     3
 72
    74
 73
    70
 74
     0
 42
0.00000001
 43
0.00000001
 40
-0.0312499999999999
 40
-0.0312499999999999
 40
0.0
 40
0.0
 40
0.031249999999999
 40
0.031249999999999
 40
0.0468749999999987
 40
0.0468749999999987
 40
0.0624999999999983
 40
0.0624999999999983
 40
0.078124999999998
 40
0.078124999999998
 40
0.0937499999999977
 40
0.0937499999999977
 40
0.1249999999999974
 40
0.1249999999999974
 40
0.1874999999999974
 40
0.1874999999999974
 40
0.2187499999999973
 40
0.2187499999999973
 40
0.2499999999999973
 40
0.2499999999999973
 40
0.2812499999999972
 40
0.2812499999999972
 40
0.3124999999999972
 40
0.3124999999999972
 40
0.3437499999999971
 40
0.3437499999999971
 40
0.3749999999999971
 40
0.3749999999999971
 40
0.4062499999999971
 40
0.4062499999999971
 40
0.437499999999997
 40
0.437499999999997
 40
0.4687499999999969
 40
0.4687499999999969
 40
0.4999999999999969
 40
0.4999999999999969
 40
0.5156249999999971
 40
0.5156249999999971
 40
0.5312499999999972
 40
0.5312499999999972
 40
0.5624999999999974
 40
0.5624999999999974
 40
0.5937499999999977
 40
0.5937499999999977
 40
0.6249999999999979
 40
0.6249999999999979
 40
0.6562499999999981
 40
0.6562499999999981
 40
0.6874999999999983
 40
0.6874999999999983
 40
0.7187499999999986
 40
0.7187499999999986
 40
0.7499999999999988
 40
0.7499999999999988
 40
0.7812499999999991
 40
0.7812499999999991
 40
0.8124999999999993
 40
0.8124999999999993
 40
0.8749999999999998
 40
0.8749999999999998
 40
0.9062499999999999
 40
0.9062499999999999
 40
0.9375
 40
0.9375
 40
0.953125
 40
0.953125
 40
0.9687500000000001
 40
0.9687500000000001
 40
1.0
 40
1.0
 40
1.031249999999999
 40
1.031249999999999
 10
2.828413471231841
 20
6.132463108378496
 30
0.0
 10
2.816236688293168
 20
6.132463108378496
 30
0.0
 10
2.810351017642885
 20
6.131686533712204
 30
0.0
 10
2.801789896890736
 20
6.129507932537588
 30
0.0
 10
2.79899002928402
 20
6.128610001843929
 30
0.0
 10
2.793652565290587
 20
6.126566031717966
 30
0.0
 10
2.791089613043154
 20
6.125414040954612
 30
0.0
 10
2.786151500451503
 20
6.122883697277771
 30
0.0
 10
2.783765212163264
 20
6.121496851734052
 30
0.0
 10
2.77925827654573
 20
6.118582447372097
 30
0.0
 10
2.777127538871047
 20
6.117051277549145
 30
0.0
 10
2.771055519289563
 20
6.112271614024692
 30
0.0
 10
2.76742850408966
 20
6.108836594837158
 30
0.0
 10
2.75764357242085
 20
6.097967532114193
 30
0.0
 10
2.752842389729406
 20
6.09033794229934
 30
0.0
 10
2.747704416314521
 20
6.078558817673764
 30
0.0
 10
2.746354831085945
 20
6.074570581341373
 30
0.0
 10
2.744436295839344
 20
6.066700926265451
 30
0.0
 10
2.743853867145632
 20
6.062791903309715
 30
0.0
 10
2.743462466962189
 20
6.055027739187329
 30
0.0
 10
2.743658569465956
 20
6.051145405917306
 30
0.0
 10
2.744891413276614
 20
6.043575607304446
 30
0.0
 10
2.745918812908185
 20
6.039902314628593
 30
0.0
 10
2.748856243142711
 20
6.032777538109198
 30
0.0
 10
2.75077707581045
 20
6.029309320926699
 30
0.0
 10
2.7556035697685
 20
6.022678044604834
 30
0.0
 10
2.758461864928784
 20
6.019572449096976
 30
0.0
 10
2.765160444129873
 20
6.013787509915727
 30
0.0
 10
2.769055808403011
 20
6.011080831140599
 30
0.0
 10
2.777690125368895
 20
6.006329474430982
 30
0.0
 10
2.78242419916819
 20
6.004268721500996
 30
0.0
 10
2.792847503474684
 20
6.000823869903484
 30
0.0
 10
2.798365304568247
 20
5.99950161737426
 30
0.0
 10
2.809855170778364
 20
5.997696496206153
 30
0.0
 10
2.81594265805522
 20
5.997213009828619
 30
0.0
 10
2.824927031864087
 20
5.99718359699528
 30
0.0
 10
2.827914045468208
 20
5.997285478905403
 30
0.0
 10
2.833872462181063
 20
5.997714115471064
 30
0.0
 10
2.836865702940836
 20
5.998044923370466
 30
0.0
 10
2.845598798230732
 20
5.999355664765766
 30
0.0
 10
2.851126015351135
 20
6.000643819064762
 30
0.0
 10
2.861625193207125
 20
6.004031605095642
 30
0.0
 10
2.866423656541528
 20
6.006078425873667
 30
0.0
 10
2.875150337471763
 20
6.010797090437308
 30
0.0
 10
2.879078414321059
 20
6.013481505043553
 30
0.0
 10
2.885869956120355
 20
6.019253370062901
 30
0.0
 10
2.888799113157396
 20
6.022390465756525
 30
0.0
 10
2.893680138393488
 20
6.028996340686044
 30
0.0
 10
2.895623842297449
 20
6.032440034625195
 30
0.0
 10
2.89863538937724
 20
6.039600953100174
 30
0.0
 10
2.899701022907067
 20
6.043338721809631
 30
0.0
 10
2.900968843818051
 20
6.050895529111448
 30
0.0
 10
2.901183219498893
 20
6.054733788382712
 30
0.0
 10
2.900827447822796
 20
6.062530236360614
 30
0.0
 10
2.900248615478267
 20
6.066512330112839
 30
0.0
 10
2.898344390122563
 20
6.074413410428611
 30
0.0
 10
2.897023126349489
 20
6.078346173784065
 30
0.0
 10
2.891951090007601
 20
6.090076842405201
 30
0.0
 10
2.887034488631739
 20
6.097908457752048
 30
0.0
 10
2.877379050967812
 20
6.108675431174893
 30
0.0
 10
2.873765842392916
 20
6.112124541579266
 30
0.0
 10
2.865574600819188
 20
6.118596627790309
 30
0.0
 10
2.861109742636472
 20
6.121532075509506
 30
0.0
 10
2.853720542418413
 20
6.125338578503387
 30
0.0
 10
2.851120359051046
 20
6.12651417804417
 30
0.0
 10
2.845757901526883
 20
6.128577206653002
 30
0.0
 10
2.843001368185123
 20
6.129465225521954
 30
0.0
 10
2.834484788949034
 20
6.131652343803673
 30
0.0
 10
2.828413471231841
 20
6.132463108378496
 30
0.0
 10
2.816236688293168
 20
6.132463108378496
 30
0.0
  0
LINE
  5
1F2
330
1F
100
AcDbEntity
  8
0
  6
CONTINUOUS
 62
     7
100
AcDbLine
 10
3.002771274
 20
7.3845748844
 30
0.0
 11
2.9765245548
 21
7.3845748844
 31
0.0
  0
LINE
  5
1F3
330
1F
100
AcDbEntity
  8
0
  6
CONTINUOUS
 62
     7
100
AcDbLine
 10
2.9765245548
 20
7.4790637531
 30
0.0
 11
2.9765245548
 21
6.6818196586
 31
0.0
  0
LINE
  5
1F4
330
1F
100
AcDbEntity
  8
0
  6
CONTINUOUS
 62
     7
100
AcDbLine
 10
2.6648447648
 20
6.6818196586
 30
0.0
 11
2.9765245548
 21
6.6818196586
 31
0.0
  0
LINE
  5
1F5
330
1F
100
AcDbEntity
  8
0
  6
CONTINUOUS
 62
     7
100
AcDbLine
 10
2.6648447648
 20
6.6818196586
 30
0.0
 11
2.6648447648
 21
7.4790637531
 31
0.0
  0
LINE
  5
1F6
330
1F
100
AcDbEntity
  8
0
  6
CONTINUOUS
 62
     7
100
AcDbLine
 10
2.6648447648
 20
5.8648905247
 30
0.0
 11
2.6648447648
 21
6.6621346192
 31
0.0
  0
LINE
  5
1F7
330
1F
100
AcDbEntity
  8
0
  6
CONTINUOUS
 62
     7
100
AcDbLine
 10
2.6648447648
 20
6.6621346192
 30
0.0
 11
2.9765245548
 21
6.6621346192
 31
0.0
  0
LINE
  5
1F8
330
1F
100
AcDbEntity
  8
0
  6
CONTINUOUS
 62
     7
100
AcDbLine
 10
2.9765245548
 20
6.6621346192
 30
0.0
 11
2.9765245548
 21
5.8648905247
 31
0.0
  0
LINE
  5
1F9
330
1F
100
AcDbEntity
  8
0
  6
CONTINUOUS
 62
     7
100
AcDbLine
 10
2.9765245548
 20
5.9593793935
 30
0.0
 11
3.002771274
 21
5.9593793935
 31
0.0
  0
LINE
  5
1FA
330
1F
100
AcDbEntity
  8
0
  6
CONTINUOUS
 62
     7
100
AcDbLine
 10
3.002771274
 20
5.8648905247
 30
0.0
 11
3.002771274
 21
7.4790637531
 31
0.0
  0
LINE
  5
1FB
330
1F
100
AcDbEntity
  8
0
  6
CONTINUOUS
 62
     7
100
AcDbLine
 10
2.6648447648
 20
6.6818196586
 30
0.0
 11
2.6573447648
 21
6.6818196586
 31
0.0
  0
LINE
  5
1FC
330
1F
100
AcDbEntity
  8
0
  6
CONTINUOUS
 62
     7
100
AcDbLine
 10
2.6573447648
 20
6.6621346192
 30
0.0
 11
2.6573447648
 21
5.8723905247
 31
0.0
  0
LINE
  5
1FD
330
1F
100
AcDbEntity
  8
0
  6
CONTINUOUS
 62
     7
100
AcDbLine
 10
2.6573447648
 20
7.4715637531
 30
0.0
 11
2.6573447648
 21
6.6818196586
 31
0.0
  0
LINE
  5
1FE
330
1F
100
AcDbEntity
  8
0
  6
CONTINUOUS
 62
     7
100
AcDbLine
 10
2.6648447648
 20
6.6621346192
 30
0.0
 11
2.6573447648
 21
6.6621346192
 31
0.0
  0
LINE
  5
1FF
330
1F
100
AcDbEntity
  8
0
  6
CONTINUOUS
 62
     7
100
AcDbLine
 10
3.3512424026
 20
6.7850724656
 30
0.0
 11
3.3020298042
 21
6.7850724656
 31
0.0
  0
LINE
  5
200
330
1F
100
AcDbEntity
  8
0
  6
CONTINUOUS
 62
     7
100
AcDbLine
 10
3.3512424026
 20
6.5588818122
 30
0.0
 11
3.3020298042
 21
6.5588818122
 31
0.0
  0
LINE
  5
201
330
1F
100
AcDbEntity
  8
0
  6
CONTINUOUS
 62
     7
100
AcDbLine
 10
3.3512424026
 20
6.7850724656
 30
0.0
 11
3.3512424026
 21
6.5588818122
 31
0.0
  0
LINE
  5
202
330
1F
100
AcDbEntity
  8
0
  6
CONTINUOUS
 62
     7
100
AcDbLine
 10
3.3020298042
 20
6.7850724656
 30
0.0
 11
3.3020298042
 21
6.5588818122
 31
0.0
  0
LINE
  5
203
330
1F
100
AcDbEntity
  8
0
  6
CONTINUOUS
 62
     7
100
AcDbLine
 10
3.3512424026
 20
7.4002299459
 30
0.0
 11
3.3020298042
 21
7.4002299459
 31
0.0
  0
LINE
  5
204
330
1F
100
AcDbEntity
  8
0
  6
CONTINUOUS
 62
     7
100
AcDbLine
 10
3.3512424026
 20
7.4002299459
 30
0.0
 11
3.3512424026
 21
6.7850724656
 31
0.0
  0
LINE
  5
205
330
1F
100
AcDbEntity
  8
0
  6
CONTINUOUS
 62
     7
100
AcDbLine
 10
3.3020298042
 20
7.4002299459
 30
0.0
 11
3.3020298042
 21
6.7850724656
 31
0.0
  0
LINE
  5
206
330
1F
100
AcDbEntity
  8
0
  6
CONTINUOUS
 62
     7
100
AcDbLine
 10
3.3512424026
 20
5.9437243319
 30
0.0
 11
3.3020298042
 21
5.9437243319
 31
0.0
  0
LINE
  5
207
330
1F
100
AcDbEntity
  8
0
  6
CONTINUOUS
 62
     7
100
AcDbLine
 10
3.3512424026
 20
6.5588818122
 30
0.0
 11
3.3512424026
 21
5.9437243319
 31
0.0
  0
LINE
  5
208
330
1F
100
AcDbEntity
  8
0
  6
CONTINUOUS
 62
     7
100
AcDbLine
 10
3.3020298042
 20
6.5588818122
 30
0.0
 11
3.3020298042
 21
5.9437243319
 31
0.0
  0
LINE
  5
209
330
1F
100
AcDbEntity
  8
0
  6
CONTINUOUS
 62
     7
100
AcDbLine
 10
2.9765245548
 20
6.6818196586
 30
0.0
 11
2.9765245548
 21
6.6621346192
 31
0.0
  0
LINE
  5
20A
330
1F
100
AcDbEntity
  8
0
  6
CONTINUOUS
 62
     7
100
AcDbLine
 10
3.3512424026
 20
7.4470755641
 30
0.0
 11
3.3512424026
 21
7.4002299459
 31
0.0
  0
LINE
  5
20B
330
1F
100
AcDbEntity
  8
0
  6
CONTINUOUS
 62
     7
100
AcDbLine
 10
3.3020298042
 20
7.4470755641
 30
0.0
 11
3.3020298042
 21
7.4002299459
 31
0.0
  0
LINE
  5
20C
330
1F
100
AcDbEntity
  8
0
  6
CONTINUOUS
 62
     7
100
AcDbLine
 10
3.3512424026
 20
5.9437243319
 30
0.0
 11
3.3512424026
 21
5.8968787137
 31
0.0
  0
LINE
  5
20D
330
1F
100
AcDbEntity
  8
0
  6
CONTINUOUS
 62
     7
100
AcDbLine
 10
3.3020298042
 20
5.9437243319
 30
0.0
 11
3.3020298042
 21
5.8968787137
 31
0.0
  0
LINE
  5
20E
330
1F
100
AcDbEntity
  8
0
  6
CONTINUOUS
 62
     7
100
AcDbLine
 10
2.6573447648
 20
6.6818196586
 30
0.0
 11
2.6573447648
 21
6.6621346192
 31
0.0
  0
LINE
  5
20F
330
1F
100
AcDbEntity
  8
0
  6
CONTINUOUS
 62
     8
100
AcDbLine
 10
2.8223250798
 20
7.2280795011
 30
0.0
 11
2.9342181897
 21
7.2280795011
 31
0.0
  0
LINE
  5
210
330
1F
100
AcDbEntity
  8
0
  6
CONTINUOUS
 62
     8
100
AcDbLine
 10
2.7114596536
 20
7.2280795011
 30
0.0
 11
2.8223250798
 21
7.2280795011
 31
0.0
  0
CIRCLE
  5
211
330
1F
100
AcDbEntity
  8
0
  6
HIDDEN
 62
     7
100
AcDbCircle
 10
3.830947127
 20
6.1504561752
 30
0.0
 40
0.0787401574803148
  0
LINE
  5
212
330
1F
100
AcDbEntity
  8
0
  6
HIDDEN
 62
     7
100
AcDbLine
 10
3.6767476519
 20
6.435961808
 30
0.0
 11
3.988427442
 21
6.435961808
 31
0.0
  0
LINE
  5
213
330
1F
100
AcDbEntity
  8
0
  6
HIDDEN
 62
     7
100
AcDbLine
 10
3.988427442
 20
6.9079924698
 30
0.0
 11
3.780940425
 21
6.9079924698
 31
0.0
  0
POLYLINE
  5
214
330
1F
100
AcDbEntity
  8
0
  6
HIDDEN
 62
     7
100
AcDb2dPolyline
 66
     1
 10
0.0
 20
0.0
 30
0.0
  0
VERTEX
  5
2BA
330
214
100
AcDbEntity
  8
0
  6
HIDDEN
 62
     7
100
AcDbVertex
100
AcDb2dVertex
 10
3.780940425
 20
6.9079924698
 30
0.0
  0
VERTEX
  5
2BB
330
214
100
AcDbEntity
  8
0
  6
HIDDEN
 62
     7
100
AcDbVertex
100
AcDb2dVertex
 10
3.780940425
 20
6.9079924698
 30
0.0
  0
SEQEND
  5
2BC
330
214
100
AcDbEntity
  8
0
  6
HIDDEN
 62
     7
  0
ARC
  5
215
330
1F
100
AcDbEntity
  8
0
  6
HIDDEN
 62
     7
100
AcDbCircle
 10
3.995927442
 20
6.6720765507
 30
0.0
 40
0.3191797900262457
100
AcDbArc
 50
90.0
 51
132.3424929498
  0
LINE
  5
216
330
1F
100
AcDbEntity
  8
0
  6
HIDDEN
 62
     7
100
AcDbLine
 10
3.988427442
 20
6.9079924698
 30
0.0
 11
3.995927442
 21
6.9154987878
 31
0.0
  0
LINE
  5
217
330
1F
100
AcDbEntity
  8
0
  6
HIDDEN
 62
     7
100
AcDbLine
 10
3.995927442
 20
6.42845549
 30
0.0
 11
3.988427442
 21
6.435961808
 31
0.0
  0
CIRCLE
  5
218
330
1F
100
AcDbEntity
  8
0
  6
HIDDEN
 62
     7
100
AcDbCircle
 10
3.830947127
 20
6.1504561752
 30
0.0
 40
0.0688976377952759
  0
LINE
  5
219
330
1F
100
AcDbEntity
  8
0
  6
HIDDEN
 62
     7
100
AcDbLine
 10
2.8223250798
 20
7.0804417058
 30
0.0
 11
2.6943723239
 21
7.0804417058
 31
0.0
  0
LINE
  5
21A
330
1F
100
AcDbEntity
  8
0
  6
HIDDEN
 62
     7
100
AcDbLine
 10
2.9502778357
 20
7.0804417058
 30
0.0
 11
2.8223250798
 21
7.0804417058
 31
0.0
  0
LINE
  5
21B
330
1F
100
AcDbEntity
  8
0
  6
HIDDEN
 62
     7
100
AcDbLine
 10
2.940435316
 20
7.2379220208
 30
0.0
 11
2.9382482562
 21
7.2379220208
 31
0.0
  0
LINE
  5
21C
330
1F
100
AcDbEntity
  8
0
  6
HIDDEN
 62
     7
100
AcDbLine
 10
2.7436427033
 20
6.1601661153
 30
0.0
 11
2.9010074562
 21
6.1601661153
 31
0.0
  0
LINE
  5
21D
330
1F
100
AcDbEntity
  8
0
  6
HIDDEN
 62
     7
100
AcDbLine
 10
2.753427442
 20
6.1503235956
 30
0.0
 11
2.8912227176
 21
6.1503235956
 31
0.0
  0
LINE
  5
21E
330
1F
100
AcDbEntity
  8
0
  6
HIDDEN
 62
     7
100
AcDbLine
 10
2.8223250798
 20
7.1198117846
 30
0.0
 11
2.8223250798
 21
7.2379220208
 31
0.0
  0
LINE
  5
21F
330
1F
100
AcDbEntity
  8
0
  6
HIDDEN
 62
     7
100
AcDbLine
 10
2.8223250798
 20
7.1198117846
 30
0.0
 11
2.7632699617
 21
7.1198117846
 31
0.0
  0
LINE
  5
220
330
1F
100
AcDbEntity
  8
0
  6
HIDDEN
 62
     7
100
AcDbLine
 10
2.8813801979
 20
7.1198117846
 30
0.0
 11
2.8223250798
 21
7.1198117846
 31
0.0
  0
LINE
  5
221
330
1F
100
AcDbEntity
  8
0
  6
HIDDEN
 62
     7
100
AcDbLine
 10
2.8813801979
 20
7.1198117846
 30
0.0
 11
2.8813801979
 21
7.2379220208
 31
0.0
  0
LINE
  5
222
330
1F
100
AcDbEntity
  8
0
  6
HIDDEN
 62
     7
100
AcDbLine
 10
2.7632699617
 20
7.1198117846
 30
0.0
 11
2.7632699617
 21
7.2379220208
 31
0.0
  0
LINE
  5
223
330
1F
100
AcDbEntity
  8
0
  6
HIDDEN
 62
     7
100
AcDbLine
 10
2.6648447648
 20
6.6818196586
 30
0.0
 11
2.6648447648
 21
6.6621346192
 31
0.0
  0
SPLINE
  5
224
330
1F
100
AcDbEntity
  8
0
  6
HIDDEN
 62
     7
100
AcDbSpline
210
0.0
220
0.0
230
1.0
 70
     8
 71
     3
 72
     8
 73
     4
 74
     0
 42
0.00000001
 43
0.00000001
 40
0.0
 40
0.0
 40
0.0
 40
0.0
 40
1.0
 40
1.0
 40
1.0
 40
1.0
 10
2.872331781784131
 20
6.681819658601465
 30
0.0
 10
2.872031501979905
 20
6.675257978811439
 30
0.0
 10
2.872031501979905
 20
6.668696299021413
 30
0.0
 10
2.872331781784131
 20
6.662134619231386
 30
0.0
  0
LINE
  5
225
330
1F
100
AcDbEntity
  8
0
  6
HIDDEN
 62
     7
100
AcDbLine
 10
3.3512424026
 20
7.4002299459
 30
0.0
 11
3.3020298042
 21
7.4002299459
 31
0.0
  0
LINE
  5
226
330
1F
100
AcDbEntity
  8
0
  6
HIDDEN
 62
     7
100
AcDbLine
 10
3.3512424026
 20
5.9437243319
 30
0.0
 11
3.3020298042
 21
5.9437243319
 31
0.0
  0
LINE
  5
227
330
1F
100
AcDbEntity
  8
0
  6
HIDDEN
 62
     7
100
AcDbLine
 10
3.3512424026
 20
6.5588818122
 30
0.0
 11
3.3020298042
 21
6.5588818122
 31
0.0
  0
LINE
  5
228
330
1F
100
AcDbEntity
  8
0
  6
HIDDEN
 62
     7
100
AcDbLine
 10
3.3512424026
 20
6.7850724656
 30
0.0
 11
3.3020298042
 21
6.7850724656
 31
0.0
  0
LINE
  5
229
330
1F
100
AcDbEntity
  8
0
  6
HIDDEN
 62
     7
100
AcDbLine
 10
3.780940425
 20
6.9081976114
 30
0.0
 11
3.6767476519
 21
6.9081976114
 31
0.0
  0
LINE
  5
22A
330
1F
100
AcDbEntity
  8
0
  6
HIDDEN
 62
     7
100
AcDbLine
 10
3.6505009328
 20
6.9081976114
 30
0.0
 11
3.4053762609
 21
6.9081976114
 31
0.0
  0
LINE
  5
22B
330
1F
100
AcDbEntity
  8
0
  6
HIDDEN
 62
     7
100
AcDbLine
 10
3.4053762609
 20
6.4357566665
 30
0.0
 11
3.6505009328
 21
6.4357566665
 31
0.0
  0
LINE
  5
22C
330
1F
100
AcDbEntity
  8
0
  6
HIDDEN
 62
     7
100
AcDbLine
 10
2.9502778357
 20
7.0804417058
 30
0.0
 11
2.9502778357
 21
7.2280795011
 31
0.0
  0
LINE
  5
22D
330
1F
100
AcDbEntity
  8
0
  6
HIDDEN
 62
     7
100
AcDbLine
 10
2.6943723239
 20
7.2280795011
 30
0.0
 11
2.6943723239
 21
7.0804417058
 31
0.0
  0
ARC
  5
22E
330
1F
100
AcDbEntity
  8
0
  6
HIDDEN
 62
     7
100
AcDbCircle
 10
2.7042148435
 20
7.2280795011
 30
0.0
 40
0.0098425196850398
100
AcDbArc
 50
90.0
 51
180.0
  0
ARC
  5
22F
330
1F
100
AcDbEntity
  8
0
  6
HIDDEN
 62
     7
100
AcDbCircle
 10
2.940435316
 20
7.2280795011
 30
0.0
 40
0.0098425196850398
100
AcDbArc
 50
0.0
 51
90.0
  0
LINE
  5
230
330
1F
100
AcDbEntity
  8
0
  6
HIDDEN
 62
     7
100
AcDbLine
 10
2.7435849223
 20
7.0804417058
 30
0.0
 11
2.7435849223
 21
6.6818196586
 31
0.0
  0
LINE
  5
231
330
1F
100
AcDbEntity
  8
0
  6
HIDDEN
 62
     7
100
AcDbLine
 10
2.7435849223
 20
6.6621346192
 30
0.0
 11
2.7435849223
 21
6.1601661153
 31
0.0
  0
LINE
  5
232
330
1F
100
AcDbEntity
  8
0
  6
HIDDEN
 62
     7
100
AcDbLine
 10
2.9010652372
 20
6.1601661153
 30
0.0
 11
2.9010652372
 21
6.6621346192
 31
0.0
  0
LINE
  5
233
330
1F
100
AcDbEntity
  8
0
  6
HIDDEN
 62
     7
100
AcDbLine
 10
2.9010652372
 20
6.6818196586
 30
0.0
 11
2.9010652372
 21
7.0804417058
 31
0.0
  0
ARC
  5
234
330
1F
100
AcDbEntity
  8
0
  6
HIDDEN
 62
     7
100
AcDbCircle
 10
2.8912227176
 20
6.1601661153
 30
0.0
 40
0.0098425196850394
100
AcDbArc
 50
270.0
 51
0.0
  0
ARC
  5
235
330
1F
100
AcDbEntity
  8
0
  6
HIDDEN
 62
     7
100
AcDbCircle
 10
2.753427442
 20
6.1601661153
 30
0.0
 40
0.0098425196850394
100
AcDbArc
 50
180.0
 51
270.0
  0
LINE
  5
236
330
1F
100
AcDbEntity
  8
0
  6
HIDDEN
 62
     7
100
AcDbLine
 10
2.9502778357
 20
7.0804417058
 30
0.0
 11
2.9502778357
 21
7.2877706559
 31
0.0
  0
LINE
  5
237
330
1F
100
AcDbEntity
  8
0
  6
HIDDEN
 62
     7
100
AcDbLine
 10
2.6943723239
 20
7.2878846961
 30
0.0
 11
2.6943723239
 21
7.0804417058
 31
0.0
  0
LINE
  5
238
330
1F
100
AcDbEntity
  8
0
  6
HIDDEN
 62
     7
100
AcDbLine
 10
2.7435849223
 20
6.6621346192
 30
0.0
 11
2.7435849223
 21
6.0561060634
 31
0.0
  0
LINE
  5
239
330
1F
100
AcDbEntity
  8
0
  6
HIDDEN
 62
     7
100
AcDbLine
 10
2.9010652372
 20
6.0560623865
 30
0.0
 11
2.9010652372
 21
6.6621346192
 31
0.0
  0
LINE
  5
23A
330
1F
100
AcDbEntity
  8
0
  6
HIDDEN
 62
     7
100
AcDbLine
 10
2.7435849223
 20
7.0804417058
 30
0.0
 11
2.7435849223
 21
6.6818196586
 31
0.0
  0
LINE
  5
23B
330
1F
100
AcDbEntity
  8
0
  6
HIDDEN
 62
     7
100
AcDbLine
 10
2.9010652372
 20
6.6818196586
 30
0.0
 11
2.9010652372
 21
7.0804417058
 31
0.0
  0
LINE
  5
23C
330
1F
100
AcDbEntity
  8
0
  6
HIDDEN
 62
     7
100
AcDbLine
 10
3.3512424026
 20
6.9475676901
 30
0.0
 11
3.3020298042
 21
6.9475676901
 31
0.0
  0
LINE
  5
23D
330
1F
100
AcDbEntity
  8
0
  6
HIDDEN
 62
     7
100
AcDbLine
 10
3.3020298042
 20
6.3963865877
 30
0.0
 11
3.3512424026
 21
6.3963865877
 31
0.0
  0
LINE
  5
23E
330
1F
100
AcDbEntity
  8
0
  6
HIDDEN
 62
     7
100
AcDbLine
 10
2.6648447648
 20
6.9081976114
 30
0.0
 11
2.6573447648
 21
6.9156976114
 31
0.0
  0
LINE
  5
23F
330
1F
100
AcDbEntity
  8
0
  6
HIDDEN
 62
     7
100
AcDbLine
 10
2.6573447648
 20
6.4282566665
 30
0.0
 11
2.6648447648
 21
6.4357566665
 31
0.0
  0
LINE
  5
240
330
1F
100
AcDbEntity
  8
0
  6
HIDDEN
 62
     7
100
AcDbLine
 10
3.002771274
 20
6.4357566665
 30
0.0
 11
3.2478959459
 21
6.4357566665
 31
0.0
  0
LINE
  5
241
330
1F
100
AcDbEntity
  8
0
  6
HIDDEN
 62
     7
100
AcDbLine
 10
3.2478959459
 20
6.9081976114
 30
0.0
 11
3.002771274
 21
6.9081976114
 31
0.0
  0
LINE
  5
242
330
1F
100
AcDbEntity
  8
0
  6
HIDDEN
 62
     7
100
AcDbLine
 10
2.6648447648
 20
6.4357566665
 30
0.0
 11
2.9765245548
 21
6.4357566665
 31
0.0
  0
LINE
  5
243
330
1F
100
AcDbEntity
  8
0
  6
HIDDEN
 62
     7
100
AcDbLine
 10
2.9765245548
 20
6.9081976114
 30
0.0
 11
2.6648447648
 21
6.9081976114
 31
0.0
  0
LINE
  5
244
330
1F
100
AcDbEntity
  8
0
  6
HIDDEN
 62
     7
100
AcDbLine
 10
2.6943723239
 20
7.2280795011
 30
0.0
 11
2.9502778357
 21
7.2280795011
 31
0.0
  0
LINE
  5
245
330
1F
100
AcDbEntity
  8
0
  6
CONTINUOUS
 62
     7
100
AcDbLine
 10
8.6415902865
 20
5.9233354661
 30
0.0
 11
8.6468927254
 21
5.9263974941
 31
0.0
  0
LINE
  5
246
330
1F
100
AcDbEntity
  8
0
  6
CONTINUOUS
 62
     7
100
AcDbLine
 10
9.2121939501
 20
6.9056340393
 30
0.0
 11
9.2121939501
 21
6.9117571001
 31
0.0
  0
LINE
  5
247
330
1F
100
AcDbEntity
  8
0
  6
CONTINUOUS
 62
     7
100
AcDbLine
 10
8.1698288155
 20
5.9226715207
 30
0.0
 11
8.2379870201
 21
5.8833246267
 31
0.0
  0
LINE
  5
248
330
1F
100
AcDbEntity
  8
0
  6
CONTINUOUS
 62
     7
100
AcDbLine
 10
8.017596127
 20
6.0105535811
 30
0.0
 11
8.0833485256
 21
5.9725955294
 31
0.0
  0
LINE
  5
249
330
1F
100
AcDbEntity
  8
0
  6
CONTINUOUS
 62
     7
100
AcDbLine
 10
7.8257075761
 20
6.1213284836
 30
0.0
 11
7.9990368939
 21
6.0212675984
 31
0.0
  0
LINE
  5
24A
330
1F
100
AcDbEntity
  8
0
  6
CONTINUOUS
 62
     7
100
AcDbLine
 10
9.0450080444
 20
7.2812775148
 30
0.0
 11
8.6327286005
 21
7.5192813717
 31
0.0
  0
SPLINE
  5
24B
330
1F
100
AcDbEntity
  8
0
  6
CONTINUOUS
 62
     7
100
AcDbSpline
210
0.0
220
0.0
230
1.0
 70
     8
 71
     3
 72
    31
 73
    27
 74
     0
 42
0.00000001
 43
0.00000001
 40
0.0
 40
0.0
 40
0.0
 40
0.0
 40
0.0278185593464983
 40
0.0704433836346853
 40
0.1134685856159973
 40
0.1566742955638104
 40
0.1998926911619708
 40
0.2430533837897818
 40
0.2861412746220335
 40
0.329163851745793
 40
0.3721395038770361
 40
0.4150914907545867
 40
0.4580451978175013
 40
0.5010210471324752
 40
0.5440432063043965
 40
0.5871385908635702
 40
0.6303325055120766
 40
0.6736447985558999
 40
0.7170815417799153
 40
0.7606190303829025
 40
0.8041441267860067
 40
0.847449100777959
 40
0.8902525381644462
 40
0.9322868873536962
 40
0.9734618326389513
 40
1.0
 40
1.0
 40
1.0
 40
1.0
 10
8.273711760623735
 20
6.925319996470568
 30
0.0
 10
8.272192851437222
 20
6.927035700136133
 30
0.0
 10
8.268346602564336
 20
6.931380280673588
 30
0.0
 10
8.260622450026629
 20
6.937656065769984
 30
0.0
 10
8.250828169874806
 20
6.94416689931038
 30
0.0
 10
8.239814147807
 20
6.949919489426462
 30
0.0
 10
8.22781385090663
 20
6.954868990948455
 30
0.0
 10
8.214978139772647
 20
6.958950527831951
 30
0.0
 10
8.201481155090859
 20
6.962125237208
 30
0.0
 10
8.187492037952332
 20
6.964362404411951
 30
0.0
 10
8.173184387198182
 20
6.965641411902808
 30
0.0
 10
8.158733489385664
 20
6.96595049452812
 30
0.0
 10
8.14431627514325
 20
6.965287010558401
 30
0.0
 10
8.130109034751616
 20
6.963657477892851
 30
0.0
 10
8.116285118960846
 20
6.961077277149315
 30
0.0
 10
8.10301249543402
 20
6.957569717170655
 30
0.0
 10
8.090452872312557
 20
6.953164999064263
 30
0.0
 10
8.078761679282884
 20
6.947899326832428
 30
0.0
 10
8.068088786371398
 20
6.941814638275287
 30
0.0
 10
8.05858408554292
 20
6.934962036243588
 30
0.0
 10
8.050396087483596
 20
6.927408749350867
 30
0.0
 10
8.043678137938038
 20
6.919248557128044
 30
0.0
 10
8.03853455767468
 20
6.910609333126667
 30
0.0
 10
8.035143340079514
 20
6.901653598223328
 30
0.0
 10
8.03343253877247
 20
6.893583691610468
 30
0.0
 10
8.033566580177236
 20
6.888558952605025
 30
0.0
 10
8.033619113772193
 20
6.886589653610181
 30
0.0
  0
LINE
  5
24C
330
1F
100
AcDbEntity
  8
0
  6
CONTINUOUS
 62
     7
100
AcDbLine
 10
8.0334183677
 20
6.8877784757
 30
0.0
 11
8.0334183677
 21
6.854926608
 31
0.0
  0
SPLINE
  5
24D
330
1F
100
AcDbEntity
  8
0
  6
CONTINUOUS
 62
     7
100
AcDbSpline
210
0.0
220
0.0
230
1.0
 70
     8
 71
     3
 72
    21
 73
    17
 74
     0
 42
0.00000001
 43
0.00000001
 40
0.0
 40
0.0
 40
0.0
 40
0.0
 40
0.0146471701995978
 40
0.0864315855523288
 40
0.1605228559961825
 40
0.2366860073413407
 40
0.3140767417752585
 40
0.3918270719961214
 40
0.4694314906917418
 40
0.5468114341066462
 40
0.6240198207453991
 40
0.7011623557940411
 40
0.778362889030381
 40
0.8557136189911674
 40
0.9333519842175746
 40
1.0
 40
1.0
 40
1.0
 40
1.0
 10
7.403811518057553
 20
7.331682827117148
 30
0.0
 10
7.403503827710604
 20
7.331264949289333
 30
0.0
 10
7.401688175664269
 20
7.328799091192987
 30
0.0
 10
7.39947080837347
 20
7.323260471585861
 30
0.0
 10
7.397245415899175
 20
7.315142125120863
 30
0.0
 10
7.396316893818924
 20
7.306047820401751
 30
0.0
 10
7.396593594161342
 20
7.296278671906421
 30
0.0
 10
7.398106986108708
 20
7.286042442100632
 30
0.0
 10
7.400796024630184
 20
7.275592689989451
 30
0.0
 10
7.404586506169484
 20
7.265151638476373
 30
0.0
 10
7.409387853845332
 20
7.254923862988793
 30
0.0
 10
7.415100518616494
 20
7.245108595524494
 30
0.0
 10
7.421610887952352
 20
7.235885030040254
 30
0.0
 10
7.428810078448232
 20
7.227476669270319
 30
0.0
 10
7.436159829299582
 20
7.220265689739628
 30
0.0
 10
7.441232434215404
 20
7.216497016705875
 30
0.0
 10
7.443575545534185
 20
7.214756210830253
 30
0.0
  0
LINE
  5
24E
330
1F
100
AcDbEntity
  8
0
  6
CONTINUOUS
 62
     7
100
AcDbLine
 10
8.146191217
 20
7.8219685142
 30
0.0
 11
8.1250153121
 21
7.8097439245
 31
0.0
  0
SPLINE
  5
24F
330
1F
100
AcDbEntity
  8
0
  6
CONTINUOUS
 62
     7
100
AcDbSpline
210
0.0
220
0.0
230
1.0
 70
     8
 71
     3
 72
    17
 73
    13
 74
     0
 42
0.00000001
 43
0.00000001
 40
0.0
 40
0.0
 40
0.0
 40
0.0
 40
0.0827098235532634
 40
0.187954525609463
 40
0.2931327781643249
 40
0.3983061982987997
 40
0.5035275668021796
 40
0.6088528456314983
 40
0.7143480768314591
 40
0.8200761470581135
 40
0.9260884270275344
 40
1.0
 40
1.0
 40
1.0
 40
1.0
 10
8.294015448377728
 20
7.714546832667558
 30
0.0
 10
8.292784013296307
 20
7.718012487877461
 30
0.0
 10
8.28998562990478
 20
7.72588804065849
 30
0.0
 10
8.284411568878346
 20
7.738015544166181
 30
0.0
 10
8.277605228114792
 20
7.750747615208359
 30
0.0
 10
8.269927858881424
 20
7.762984342265925
 30
0.0
 10
8.261513658151591
 20
7.774577929558484
 30
0.0
 10
8.252450609813122
 20
7.785382351039424
 30
0.0
 10
8.242845862737761
 20
7.795270005771302
 30
0.0
 10
8.232803515734195
 20
7.804087036407707
 30
0.0
 10
8.223495195301576
 20
7.811031456010467
 30
0.0
 10
8.217532636718085
 20
7.814639106723986
 30
0.0
 10
8.215083255623579
 20
7.816121106662357
 30
0.0
  0
SPLINE
  5
250
330
1F
100
AcDbEntity
  8
0
  6
CONTINUOUS
 62
     7
100
AcDbSpline
210
0.0
220
0.0
230
1.0
 70
     8
 71
     3
 72
    15
 73
    11
 74
     0
 42
0.00000001
 43
0.00000001
 40
0.0
 40
0.0
 40
0.0
 40
0.0
 40
0.0768129546512237
 40
0.2219793762439136
 40
0.3672032970759469
 40
0.5116253913131199
 40
0.6542937557567319
 40
0.7943432814439566
 40
0.9315415729582748
 40
1.0
 40
1.0
 40
1.0
 40
1.0
 10
8.215083255623579
 20
7.816121106662357
 30
0.0
 10
8.213208526001091
 20
7.81716310426228
 30
0.0
 10
8.207790802986588
 20
7.820174340821645
 30
0.0
 10
8.198773886647565
 20
7.82408080335022
 30
0.0
 10
8.188153605561116
 20
7.827284348292222
 30
0.0
 10
8.177751220299069
 20
7.828887544678967
 30
0.0
 10
8.167733571366192
 20
7.828895741023565
 30
0.0
 10
8.158342837320443
 20
7.827211823998278
 30
0.0
 10
8.150958161374442
 20
7.824739215608673
 30
0.0
 10
8.147083844466708
 20
7.82230725539502
 30
0.0
 10
8.145794172807904
 20
7.82149771135472
 30
0.0
  0
LINE
  5
251
330
1F
100
AcDbEntity
  8
0
  6
CONTINUOUS
 62
     7
100
AcDbLine
 10
8.127296748
 20
7.8110609695
 30
0.0
 11
8.1090937579
 21
7.821569332
 31
0.0
  0
LINE
  5
252
330
1F
100
AcDbEntity
  8
0
  6
CONTINUOUS
 62
     7
100
AcDbLine
 10
8.329484651
 20
7.6943403775
 30
0.0
 11
8.3034640353
 21
7.7093617593
 31
0.0
  0
LINE
  5
253
330
1F
100
AcDbEntity
  8
0
  6
CONTINUOUS
 62
     7
100
AcDbLine
 10
8.5213732019
 20
7.583565475
 30
0.0
 11
8.3480438841
 21
7.6836263603
 31
0.0
  0
LINE
  5
254
330
1F
100
AcDbEntity
  8
0
  6
CONTINUOUS
 62
     7
100
AcDbLine
 10
7.3020727336
 20
6.4236164439
 30
0.0
 11
7.7143521775
 21
6.1856125869
 31
0.0
  0
LINE
  5
255
330
1F
100
AcDbEntity
  8
0
  6
CONTINUOUS
 62
     7
100
AcDbLine
 10
7.1348868279
 20
6.7992599194
 30
0.0
 11
7.1348868279
 21
6.7931368585
 31
0.0
  0
POLYLINE
  5
256
330
1F
100
AcDbEntity
  8
0
  6
CONTINUOUS
 62
     7
100
AcDb2dPolyline
 66
     1
 10
0.0
 20
0.0
 30
0.0
  0
VERTEX
  5
2BD
330
256
100
AcDbEntity
  8
0
  6
CONTINUOUS
 62
     7
100
AcDbVertex
100
AcDb2dVertex
 10
8.081450553
 20
6.2448329516
 30
0.0
  0
VERTEX
  5
2BE
330
256
100
AcDbEntity
  8
0
  6
CONTINUOUS
 62
     7
100
AcDbVertex
100
AcDb2dVertex
 10
8.0824280067
 20
6.2142283546
 30
0.0
  0
VERTEX
  5
2BF
330
256
100
AcDbEntity
  8
0
  6
CONTINUOUS
 62
     7
100
AcDbVertex
100
AcDb2dVertex
 10
8.0846933852
 20
6.1844567299
 30
0.0
  0
VERTEX
  5
2C0
330
256
100
AcDbEntity
  8
0
  6
CONTINUOUS
 62
     7
100
AcDbVertex
100
AcDb2dVertex
 10
8.0882415189
 20
6.1555860178
 30
0.0
  0
VERTEX
  5
2C1
330
256
100
AcDbEntity
  8
0
  6
CONTINUOUS
 62
     7
100
AcDbVertex
100
AcDb2dVertex
 10
8.0930643107
 20
6.1276821027
 30
0.0
  0
VERTEX
  5
2C2
330
256
100
AcDbEntity
  8
0
  6
CONTINUOUS
 62
     7
100
AcDbVertex
100
AcDb2dVertex
 10
8.0991507548
 20
6.1008086624
 30
0.0
  0
VERTEX
  5
2C3
330
256
100
AcDbEntity
  8
0
  6
CONTINUOUS
 62
     7
100
AcDbVertex
100
AcDb2dVertex
 10
8.1064869617
 20
6.0750270235
 30
0.0
  0
VERTEX
  5
2C4
330
256
100
AcDbEntity
  8
0
  6
CONTINUOUS
 62
     7
100
AcDbVertex
100
AcDb2dVertex
 10
8.1150561898
 20
6.0503960209
 30
0.0
  0
VERTEX
  5
2C5
330
256
100
AcDbEntity
  8
0
  6
CONTINUOUS
 62
     7
100
AcDbVertex
100
AcDb2dVertex
 10
8.1248388838
 20
6.0269718636
 30
0.0
  0
VERTEX
  5
2C6
330
256
100
AcDbEntity
  8
0
  6
CONTINUOUS
 62
     7
100
AcDbVertex
100
AcDb2dVertex
 10
8.135812719
 20
6.0048080066
 30
0.0
  0
VERTEX
  5
2C7
330
256
100
AcDbEntity
  8
0
  6
CONTINUOUS
 62
     7
100
AcDbVertex
100
AcDb2dVertex
 10
8.1479526526
 20
5.9839550289
 30
0.0
  0
VERTEX
  5
2C8
330
256
100
AcDbEntity
  8
0
  6
CONTINUOUS
 62
     7
100
AcDbVertex
100
AcDb2dVertex
 10
8.1612309809
 20
5.964460518
 30
0.0
  0
VERTEX
  5
2C9
330
256
100
AcDbEntity
  8
0
  6
CONTINUOUS
 62
     7
100
AcDbVertex
100
AcDb2dVertex
 10
8.175617402
 20
5.9463689611
 30
0.0
  0
VERTEX
  5
2CA
330
256
100
AcDbEntity
  8
0
  6
CONTINUOUS
 62
     7
100
AcDbVertex
100
AcDb2dVertex
 10
8.1910790854
 20
5.9297216442
 30
0.0
  0
VERTEX
  5
2CB
330
256
100
AcDbEntity
  8
0
  6
CONTINUOUS
 62
     7
100
AcDbVertex
100
AcDb2dVertex
 10
8.2075807469
 20
5.9145565571
 30
0.0
  0
VERTEX
  5
2CC
330
256
100
AcDbEntity
  8
0
  6
CONTINUOUS
 62
     7
100
AcDbVertex
100
AcDb2dVertex
 10
8.2250847289
 20
5.9009083072
 30
0.0
  0
VERTEX
  5
2CD
330
256
100
AcDbEntity
  8
0
  6
CONTINUOUS
 62
     7
100
AcDbVertex
100
AcDb2dVertex
 10
8.2435510865
 20
5.8888080406
 30
0.0
  0
VERTEX
  5
2CE
330
256
100
AcDbEntity
  8
0
  6
CONTINUOUS
 62
     7
100
AcDbVertex
100
AcDb2dVertex
 10
8.2629376787
 20
5.8782833705
 30
0.0
  0
VERTEX
  5
2CF
330
256
100
AcDbEntity
  8
0
  6
CONTINUOUS
 62
     7
100
AcDbVertex
100
AcDb2dVertex
 10
8.2832002644
 20
5.8693583147
 30
0.0
  0
VERTEX
  5
2D0
330
256
100
AcDbEntity
  8
0
  6
CONTINUOUS
 62
     7
100
AcDbVertex
100
AcDb2dVertex
 10
8.3042926033
 20
5.8620532407
 30
0.0
  0
VERTEX
  5
2D1
330
256
100
AcDbEntity
  8
0
  6
CONTINUOUS
 62
     7
100
AcDbVertex
100
AcDb2dVertex
 10
8.3261665618
 20
5.856384819
 30
0.0
  0
VERTEX
  5
2D2
330
256
100
AcDbEntity
  8
0
  6
CONTINUOUS
 62
     7
100
AcDbVertex
100
AcDb2dVertex
 10
8.3487722225
 20
5.8523659851
 30
0.0
  0
VERTEX
  5
2D3
330
256
100
AcDbEntity
  8
0
  6
CONTINUOUS
 62
     7
100
AcDbVertex
100
AcDb2dVertex
 10
8.3720579983
 20
5.8500059102
 30
0.0
  0
VERTEX
  5
2D4
330
256
100
AcDbEntity
  8
0
  6
CONTINUOUS
 62
     7
100
AcDbVertex
100
AcDb2dVertex
 10
8.3959707499
 20
5.8493099801
 30
0.0
  0
VERTEX
  5
2D5
330
256
100
AcDbEntity
  8
0
  6
CONTINUOUS
 62
     7
100
AcDbVertex
100
AcDb2dVertex
 10
8.4204559073
 20
5.850279783
 30
0.0
  0
VERTEX
  5
2D6
330
256
100
AcDbEntity
  8
0
  6
CONTINUOUS
 62
     7
100
AcDbVertex
100
AcDb2dVertex
 10
8.4454575943
 20
5.8529131057
 30
0.0
  0
VERTEX
  5
2D7
330
256
100
AcDbEntity
  8
0
  6
CONTINUOUS
 62
     7
100
AcDbVertex
100
AcDb2dVertex
 10
8.4709187559
 20
5.8572039389
 30
0.0
  0
VERTEX
  5
2D8
330
256
100
AcDbEntity
  8
0
  6
CONTINUOUS
 62
     7
100
AcDbVertex
100
AcDb2dVertex
 10
8.4967812885
 20
5.8631424906
 30
0.0
  0
VERTEX
  5
2D9
330
256
100
AcDbEntity
  8
0
  6
CONTINUOUS
 62
     7
100
AcDbVertex
100
AcDb2dVertex
 10
8.5229861726
 20
5.8707152089
 30
0.0
  0
VERTEX
  5
2DA
330
256
100
AcDbEntity
  8
0
  6
CONTINUOUS
 62
     7
100
AcDbVertex
100
AcDb2dVertex
 10
8.5494736075
 20
5.8799048125
 30
0.0
  0
VERTEX
  5
2DB
330
256
100
AcDbEntity
  8
0
  6
CONTINUOUS
 62
     7
100
AcDbVertex
100
AcDb2dVertex
 10
8.5761831477
 20
5.8906903301
 30
0.0
  0
VERTEX
  5
2DC
330
256
100
AcDbEntity
  8
0
  6
CONTINUOUS
 62
     7
100
AcDbVertex
100
AcDb2dVertex
 10
8.6030538406
 20
5.9030471489
 30
0.0
  0
VERTEX
  5
2DD
330
256
100
AcDbEntity
  8
0
  6
CONTINUOUS
 62
     7
100
AcDbVertex
100
AcDb2dVertex
 10
8.6300243662
 20
5.9169470699
 30
0.0
  0
VERTEX
  5
2DE
330
256
100
AcDbEntity
  8
0
  6
CONTINUOUS
 62
     7
100
AcDbVertex
100
AcDb2dVertex
 10
8.6570331765
 20
5.932358373
 30
0.0
  0
VERTEX
  5
2DF
330
256
100
AcDbEntity
  8
0
  6
CONTINUOUS
 62
     7
100
AcDbVertex
100
AcDb2dVertex
 10
8.6840186361
 20
5.9492458887
 30
0.0
  0
VERTEX
  5
2E0
330
256
100
AcDbEntity
  8
0
  6
CONTINUOUS
 62
     7
100
AcDbVertex
100
AcDb2dVertex
 10
8.7109191629
 20
5.967571079
 30
0.0
  0
VERTEX
  5
2E1
330
256
100
AcDbEntity
  8
0
  6
CONTINUOUS
 62
     7
100
AcDbVertex
100
AcDb2dVertex
 10
8.7376733688
 20
5.987292125
 30
0.0
  0
VERTEX
  5
2E2
330
256
100
AcDbEntity
  8
0
  6
CONTINUOUS
 62
     7
100
AcDbVertex
100
AcDb2dVertex
 10
8.7642201993
 20
6.0083640224
 30
0.0
  0
VERTEX
  5
2E3
330
256
100
AcDbEntity
  8
0
  6
CONTINUOUS
 62
     7
100
AcDbVertex
100
AcDb2dVertex
 10
8.7904990734
 20
6.030738684
 30
0.0
  0
VERTEX
  5
2E4
330
256
100
AcDbEntity
  8
0
  6
CONTINUOUS
 62
     7
100
AcDbVertex
100
AcDb2dVertex
 10
8.8164500215
 20
6.0543650499
 30
0.0
  0
VERTEX
  5
2E5
330
256
100
AcDbEntity
  8
0
  6
CONTINUOUS
 62
     7
100
AcDbVertex
100
AcDb2dVertex
 10
8.8420138223
 20
6.0791892036
 30
0.0
  0
VERTEX
  5
2E6
330
256
100
AcDbEntity
  8
0
  6
CONTINUOUS
 62
     7
100
AcDbVertex
100
AcDb2dVertex
 10
8.8671321381
 20
6.1051544953
 30
0.0
  0
VERTEX
  5
2E7
330
256
100
AcDbEntity
  8
0
  6
CONTINUOUS
 62
     7
100
AcDbVertex
100
AcDb2dVertex
 10
8.8917476476
 20
6.132201671
 30
0.0
  0
VERTEX
  5
2E8
330
256
100
AcDbEntity
  8
0
  6
CONTINUOUS
 62
     7
100
AcDbVertex
100
AcDb2dVertex
 10
8.9158041773
 20
6.1602690077
 30
0.0
  0
VERTEX
  5
2E9
330
256
100
AcDbEntity
  8
0
  6
CONTINUOUS
 62
     7
100
AcDbVertex
100
AcDb2dVertex
 10
8.9392468288
 20
6.1892924545
 30
0.0
  0
VERTEX
  5
2EA
330
256
100
AcDbEntity
  8
0
  6
CONTINUOUS
 62
     7
100
AcDbVertex
100
AcDb2dVertex
 10
8.9620221051
 20
6.2192057786
 30
0.0
  0
VERTEX
  5
2EB
330
256
100
AcDbEntity
  8
0
  6
CONTINUOUS
 62
     7
100
AcDbVertex
100
AcDb2dVertex
 10
8.9840780319
 20
6.2499407163
 30
0.0
  0
VERTEX
  5
2EC
330
256
100
AcDbEntity
  8
0
  6
CONTINUOUS
 62
     7
100
AcDbVertex
100
AcDb2dVertex
 10
9.0053642766
 20
6.2814271292
 30
0.0
  0
VERTEX
  5
2ED
330
256
100
AcDbEntity
  8
0
  6
CONTINUOUS
 62
     7
100
AcDbVertex
100
AcDb2dVertex
 10
9.0258322629
 20
6.3135931637
 30
0.0
  0
VERTEX
  5
2EE
330
256
100
AcDbEntity
  8
0
  6
CONTINUOUS
 62
     7
100
AcDbVertex
100
AcDb2dVertex
 10
9.045435282
 20
6.3463654155
 30
0.0
  0
VERTEX
  5
2EF
330
256
100
AcDbEntity
  8
0
  6
CONTINUOUS
 62
     7
100
AcDbVertex
100
AcDb2dVertex
 10
9.0641285988
 20
6.3796690969
 30
0.0
  0
VERTEX
  5
2F0
330
256
100
AcDbEntity
  8
0
  6
CONTINUOUS
 62
     7
100
AcDbVertex
100
AcDb2dVertex
 10
9.0818695545
 20
6.4134282072
 30
0.0
  0
VERTEX
  5
2F1
330
256
100
AcDbEntity
  8
0
  6
CONTINUOUS
 62
     7
100
AcDbVertex
100
AcDb2dVertex
 10
9.0986176632
 20
6.4475657066
 30
0.0
  0
VERTEX
  5
2F2
330
256
100
AcDbEntity
  8
0
  6
CONTINUOUS
 62
     7
100
AcDbVertex
100
AcDb2dVertex
 10
9.1143347051
 20
6.4820036918
 30
0.0
  0
VERTEX
  5
2F3
330
256
100
AcDbEntity
  8
0
  6
CONTINUOUS
 62
     7
100
AcDbVertex
100
AcDb2dVertex
 10
9.128984813
 20
6.5166635737
 30
0.0
  0
VERTEX
  5
2F4
330
256
100
AcDbEntity
  8
0
  6
CONTINUOUS
 62
     7
100
AcDbVertex
100
AcDb2dVertex
 10
9.1425345549
 20
6.5514662568
 30
0.0
  0
VERTEX
  5
2F5
330
256
100
AcDbEntity
  8
0
  6
CONTINUOUS
 62
     7
100
AcDbVertex
100
AcDb2dVertex
 10
9.1549530095
 20
6.5863323199
 30
0.0
  0
VERTEX
  5
2F6
330
256
100
AcDbEntity
  8
0
  6
CONTINUOUS
 62
     7
100
AcDbVertex
100
AcDb2dVertex
 10
9.1662118374
 20
6.6211821969
 30
0.0
  0
VERTEX
  5
2F7
330
256
100
AcDbEntity
  8
0
  6
CONTINUOUS
 62
     7
100
AcDbVertex
100
AcDb2dVertex
 10
9.1762853454
 20
6.6559363588
 30
0.0
  0
VERTEX
  5
2F8
330
256
100
AcDbEntity
  8
0
  6
CONTINUOUS
 62
     7
100
AcDbVertex
100
AcDb2dVertex
 10
9.1851505453
 20
6.6905154951
 30
0.0
  0
VERTEX
  5
2F9
330
256
100
AcDbEntity
  8
0
  6
CONTINUOUS
 62
     7
100
AcDbVertex
100
AcDb2dVertex
 10
9.1927872063
 20
6.7248406944
 30
0.0
  0
VERTEX
  5
2FA
330
256
100
AcDbEntity
  8
0
  6
CONTINUOUS
 62
     7
100
AcDbVertex
100
AcDb2dVertex
 10
9.1991779012
 20
6.7588336253
 30
0.0
  0
VERTEX
  5
2FB
330
256
100
AcDbEntity
  8
0
  6
CONTINUOUS
 62
     7
100
AcDbVertex
100
AcDb2dVertex
 10
9.2043080461
 20
6.7924167141
 30
0.0
  0
VERTEX
  5
2FC
330
256
100
AcDbEntity
  8
0
  6
CONTINUOUS
 62
     7
100
AcDbVertex
100
AcDb2dVertex
 10
9.2081659338
 20
6.8255133227
 30
0.0
  0
VERTEX
  5
2FD
330
256
100
AcDbEntity
  8
0
  6
CONTINUOUS
 62
     7
100
AcDbVertex
100
AcDb2dVertex
 10
9.2107427604
 20
6.8580479233
 30
0.0
  0
VERTEX
  5
2FE
330
256
100
AcDbEntity
  8
0
  6
CONTINUOUS
 62
     7
100
AcDbVertex
100
AcDb2dVertex
 10
9.2120326455
 20
6.8899462702
 30
0.0
  0
VERTEX
  5
2FF
330
256
100
AcDbEntity
  8
0
  6
CONTINUOUS
 62
     7
100
AcDbVertex
100
AcDb2dVertex
 10
9.2120326455
 20
6.92113557
 30
0.0
  0
VERTEX
  5
300
330
256
100
AcDbEntity
  8
0
  6
CONTINUOUS
 62
     7
100
AcDbVertex
100
AcDb2dVertex
 10
9.2107427604
 20
6.9515446473
 30
0.0
  0
VERTEX
  5
301
330
256
100
AcDbEntity
  8
0
  6
CONTINUOUS
 62
     7
100
AcDbVertex
100
AcDb2dVertex
 10
9.2081659338
 20
6.9811041071
 30
0.0
  0
VERTEX
  5
302
330
256
100
AcDbEntity
  8
0
  6
CONTINUOUS
 62
     7
100
AcDbVertex
100
AcDb2dVertex
 10
9.2043080461
 20
7.0097464935
 30
0.0
  0
VERTEX
  5
303
330
256
100
AcDbEntity
  8
0
  6
CONTINUOUS
 62
     7
100
AcDbVertex
100
AcDb2dVertex
 10
9.1991779012
 20
7.0374064431
 30
0.0
  0
VERTEX
  5
304
330
256
100
AcDbEntity
  8
0
  6
CONTINUOUS
 62
     7
100
AcDbVertex
100
AcDb2dVertex
 10
9.1927872063
 20
7.0640208347
 30
0.0
  0
VERTEX
  5
305
330
256
100
AcDbEntity
  8
0
  6
CONTINUOUS
 62
     7
100
AcDbVertex
100
AcDb2dVertex
 10
9.1851505453
 20
7.0895289329
 30
0.0
  0
VERTEX
  5
306
330
256
100
AcDbEntity
  8
0
  6
CONTINUOUS
 62
     7
100
AcDbVertex
100
AcDb2dVertex
 10
9.1762853454
 20
7.1138725273
 30
0.0
  0
VERTEX
  5
307
330
256
100
AcDbEntity
  8
0
  6
CONTINUOUS
 62
     7
100
AcDbVertex
100
AcDb2dVertex
 10
9.1662118374
 20
7.1369960644
 30
0.0
  0
VERTEX
  5
308
330
256
100
AcDbEntity
  8
0
  6
CONTINUOUS
 62
     7
100
AcDbVertex
100
AcDb2dVertex
 10
9.1549530095
 20
7.1588467754
 30
0.0
  0
VERTEX
  5
309
330
256
100
AcDbEntity
  8
0
  6
CONTINUOUS
 62
     7
100
AcDbVertex
100
AcDb2dVertex
 10
9.1425345549
 20
7.179374796
 30
0.0
  0
VERTEX
  5
30A
330
256
100
AcDbEntity
  8
0
  6
CONTINUOUS
 62
     7
100
AcDbVertex
100
AcDb2dVertex
 10
9.128984813
 20
7.1985332801
 30
0.0
  0
VERTEX
  5
30B
330
256
100
AcDbEntity
  8
0
  6
CONTINUOUS
 62
     7
100
AcDbVertex
100
AcDb2dVertex
 10
9.1143347051
 20
7.2162785074
 30
0.0
  0
VERTEX
  5
30C
330
256
100
AcDbEntity
  8
0
  6
CONTINUOUS
 62
     7
100
AcDbVertex
100
AcDb2dVertex
 10
9.0986176632
 20
7.2325699823
 30
0.0
  0
VERTEX
  5
30D
330
256
100
AcDbEntity
  8
0
  6
CONTINUOUS
 62
     7
100
AcDbVertex
100
AcDb2dVertex
 10
9.0818695545
 20
7.247370527
 30
0.0
  0
VERTEX
  5
30E
330
256
100
AcDbEntity
  8
0
  6
CONTINUOUS
 62
     7
100
AcDbVertex
100
AcDb2dVertex
 10
9.0641285988
 20
7.2606463659
 30
0.0
  0
VERTEX
  5
30F
330
256
100
AcDbEntity
  8
0
  6
CONTINUOUS
 62
     7
100
AcDbVertex
100
AcDb2dVertex
 10
9.045435282
 20
7.272367203
 30
0.0
  0
VERTEX
  5
310
330
256
100
AcDbEntity
  8
0
  6
CONTINUOUS
 62
     7
100
AcDbVertex
100
AcDb2dVertex
 10
9.0258322629
 20
7.2825062908
 30
0.0
  0
VERTEX
  5
311
330
256
100
AcDbEntity
  8
0
  6
CONTINUOUS
 62
     7
100
AcDbVertex
100
AcDb2dVertex
 10
9.0053642766
 20
7.2910404913
 30
0.0
  0
VERTEX
  5
312
330
256
100
AcDbEntity
  8
0
  6
CONTINUOUS
 62
     7
100
AcDbVertex
100
AcDb2dVertex
 10
8.9840780319
 20
7.2979503292
 30
0.0
  0
VERTEX
  5
313
330
256
100
AcDbEntity
  8
0
  6
CONTINUOUS
 62
     7
100
AcDbVertex
100
AcDb2dVertex
 10
8.9620221051
 20
7.3032200359
 30
0.0
  0
VERTEX
  5
314
330
256
100
AcDbEntity
  8
0
  6
CONTINUOUS
 62
     7
100
AcDbVertex
100
AcDb2dVertex
 10
8.9392468288
 20
7.3068375857
 30
0.0
  0
VERTEX
  5
315
330
256
100
AcDbEntity
  8
0
  6
CONTINUOUS
 62
     7
100
AcDbVertex
100
AcDb2dVertex
 10
8.9158041773
 20
7.3087947232
 30
0.0
  0
VERTEX
  5
316
330
256
100
AcDbEntity
  8
0
  6
CONTINUOUS
 62
     7
100
AcDbVertex
100
AcDb2dVertex
 10
8.8917476476
 20
7.309086982
 30
0.0
  0
VERTEX
  5
317
330
256
100
AcDbEntity
  8
0
  6
CONTINUOUS
 62
     7
100
AcDbVertex
100
AcDb2dVertex
 10
8.8671321381
 20
7.3077136953
 30
0.0
  0
VERTEX
  5
318
330
256
100
AcDbEntity
  8
0
  6
CONTINUOUS
 62
     7
100
AcDbVertex
100
AcDb2dVertex
 10
8.8420138223
 20
7.3046779969
 30
0.0
  0
VERTEX
  5
319
330
256
100
AcDbEntity
  8
0
  6
CONTINUOUS
 62
     7
100
AcDbVertex
100
AcDb2dVertex
 10
8.8164500215
 20
7.2999868145
 30
0.0
  0
VERTEX
  5
31A
330
256
100
AcDbEntity
  8
0
  6
CONTINUOUS
 62
     7
100
AcDbVertex
100
AcDb2dVertex
 10
8.7904990734
 20
7.2936508535
 30
0.0
  0
VERTEX
  5
31B
330
256
100
AcDbEntity
  8
0
  6
CONTINUOUS
 62
     7
100
AcDbVertex
100
AcDb2dVertex
 10
8.7642201993
 20
7.2856845729
 30
0.0
  0
VERTEX
  5
31C
330
256
100
AcDbEntity
  8
0
  6
CONTINUOUS
 62
     7
100
AcDbVertex
100
AcDb2dVertex
 10
8.7376733688
 20
7.2761061521
 30
0.0
  0
VERTEX
  5
31D
330
256
100
AcDbEntity
  8
0
  6
CONTINUOUS
 62
     7
100
AcDbVertex
100
AcDb2dVertex
 10
8.7109191629
 20
7.2649374495
 30
0.0
  0
VERTEX
  5
31E
330
256
100
AcDbEntity
  8
0
  6
CONTINUOUS
 62
     7
100
AcDbVertex
100
AcDb2dVertex
 10
8.6840186361
 20
7.2522039526
 30
0.0
  0
VERTEX
  5
31F
330
256
100
AcDbEntity
  8
0
  6
CONTINUOUS
 62
     7
100
AcDbVertex
100
AcDb2dVertex
 10
8.6570331765
 20
7.2379347199
 30
0.0
  0
VERTEX
  5
320
330
256
100
AcDbEntity
  8
0
  6
CONTINUOUS
 62
     7
100
AcDbVertex
100
AcDb2dVertex
 10
8.6300243662
 20
7.2221623143
 30
0.0
  0
VERTEX
  5
321
330
256
100
AcDbEntity
  8
0
  6
CONTINUOUS
 62
     7
100
AcDbVertex
100
AcDb2dVertex
 10
8.6030538406
 20
7.2049227293
 30
0.0
  0
VERTEX
  5
322
330
256
100
AcDbEntity
  8
0
  6
CONTINUOUS
 62
     7
100
AcDbVertex
100
AcDb2dVertex
 10
8.5761831477
 20
7.1862553064
 30
0.0
  0
VERTEX
  5
323
330
256
100
AcDbEntity
  8
0
  6
CONTINUOUS
 62
     7
100
AcDbVertex
100
AcDb2dVertex
 10
8.5494736075
 20
7.1662026455
 30
0.0
  0
VERTEX
  5
324
330
256
100
AcDbEntity
  8
0
  6
CONTINUOUS
 62
     7
100
AcDbVertex
100
AcDb2dVertex
 10
8.5229861726
 20
7.1448105076
 30
0.0
  0
VERTEX
  5
325
330
256
100
AcDbEntity
  8
0
  6
CONTINUOUS
 62
     7
100
AcDbVertex
100
AcDb2dVertex
 10
8.4967812885
 20
7.1221277107
 30
0.0
  0
VERTEX
  5
326
330
256
100
AcDbEntity
  8
0
  6
CONTINUOUS
 62
     7
100
AcDbVertex
100
AcDb2dVertex
 10
8.4709187559
 20
7.0982060179
 30
0.0
  0
VERTEX
  5
327
330
256
100
AcDbEntity
  8
0
  6
CONTINUOUS
 62
     7
100
AcDbVertex
100
AcDb2dVertex
 10
8.4454575943
 20
7.0731000197
 30
0.0
  0
VERTEX
  5
328
330
256
100
AcDbEntity
  8
0
  6
CONTINUOUS
 62
     7
100
AcDbVertex
100
AcDb2dVertex
 10
8.4204559073
 20
7.046867009
 30
0.0
  0
VERTEX
  5
329
330
256
100
AcDbEntity
  8
0
  6
CONTINUOUS
 62
     7
100
AcDbVertex
100
AcDb2dVertex
 10
8.3959707499
 20
7.0195668508
 30
0.0
  0
VERTEX
  5
32A
330
256
100
AcDbEntity
  8
0
  6
CONTINUOUS
 62
     7
100
AcDbVertex
100
AcDb2dVertex
 10
8.3720579983
 20
6.9912618454
 30
0.0
  0
VERTEX
  5
32B
330
256
100
AcDbEntity
  8
0
  6
CONTINUOUS
 62
     7
100
AcDbVertex
100
AcDb2dVertex
 10
8.3487722225
 20
6.9620165861
 30
0.0
  0
VERTEX
  5
32C
330
256
100
AcDbEntity
  8
0
  6
CONTINUOUS
 62
     7
100
AcDbVertex
100
AcDb2dVertex
 10
8.3261665618
 20
6.9318978119
 30
0.0
  0
VERTEX
  5
32D
330
256
100
AcDbEntity
  8
0
  6
CONTINUOUS
 62
     7
100
AcDbVertex
100
AcDb2dVertex
 10
8.3042926033
 20
6.9009742552
 30
0.0
  0
VERTEX
  5
32E
330
256
100
AcDbEntity
  8
0
  6
CONTINUOUS
 62
     7
100
AcDbVertex
100
AcDb2dVertex
 10
8.2832002644
 20
6.8693164851
 30
0.0
  0
VERTEX
  5
32F
330
256
100
AcDbEntity
  8
0
  6
CONTINUOUS
 62
     7
100
AcDbVertex
100
AcDb2dVertex
 10
8.2629376787
 20
6.8369967459
 30
0.0
  0
VERTEX
  5
330
330
256
100
AcDbEntity
  8
0
  6
CONTINUOUS
 62
     7
100
AcDbVertex
100
AcDb2dVertex
 10
8.2435510865
 20
6.8040887929
 30
0.0
  0
VERTEX
  5
331
330
256
100
AcDbEntity
  8
0
  6
CONTINUOUS
 62
     7
100
AcDbVertex
100
AcDb2dVertex
 10
8.2250847289
 20
6.7706677236
 30
0.0
  0
VERTEX
  5
332
330
256
100
AcDbEntity
  8
0
  6
CONTINUOUS
 62
     7
100
AcDbVertex
100
AcDb2dVertex
 10
8.2075807469
 20
6.7368098063
 30
0.0
  0
VERTEX
  5
333
330
256
100
AcDbEntity
  8
0
  6
CONTINUOUS
 62
     7
100
AcDbVertex
100
AcDb2dVertex
 10
8.1910790854
 20
6.7025923063
 30
0.0
  0
VERTEX
  5
334
330
256
100
AcDbEntity
  8
0
  6
CONTINUOUS
 62
     7
100
AcDbVertex
100
AcDb2dVertex
 10
8.175617402
 20
6.6680933097
 30
0.0
  0
VERTEX
  5
335
330
256
100
AcDbEntity
  8
0
  6
CONTINUOUS
 62
     7
100
AcDbVertex
100
AcDb2dVertex
 10
8.1612309809
 20
6.6333915446
 30
0.0
  0
VERTEX
  5
336
330
256
100
AcDbEntity
  8
0
  6
CONTINUOUS
 62
     7
100
AcDbVertex
100
AcDb2dVertex
 10
8.1479526526
 20
6.5985662022
 30
0.0
  0
VERTEX
  5
337
330
256
100
AcDbEntity
  8
0
  6
CONTINUOUS
 62
     7
100
AcDbVertex
100
AcDb2dVertex
 10
8.135812719
 20
6.5636967555
 30
0.0
  0
VERTEX
  5
338
330
256
100
AcDbEntity
  8
0
  6
CONTINUOUS
 62
     7
100
AcDbVertex
100
AcDb2dVertex
 10
8.1248388838
 20
6.5288627781
 30
0.0
  0
VERTEX
  5
339
330
256
100
AcDbEntity
  8
0
  6
CONTINUOUS
 62
     7
100
AcDbVertex
100
AcDb2dVertex
 10
8.1150561898
 20
6.4941437628
 30
0.0
  0
VERTEX
  5
33A
330
256
100
AcDbEntity
  8
0
  6
CONTINUOUS
 62
     7
100
AcDbVertex
100
AcDb2dVertex
 10
8.1064869617
 20
6.4596189399
 30
0.0
  0
VERTEX
  5
33B
330
256
100
AcDbEntity
  8
0
  6
CONTINUOUS
 62
     7
100
AcDbVertex
100
AcDb2dVertex
 10
8.0991507548
 20
6.4253670969
 30
0.0
  0
VERTEX
  5
33C
330
256
100
AcDbEntity
  8
0
  6
CONTINUOUS
 62
     7
100
AcDbVertex
100
AcDb2dVertex
 10
8.0930643107
 20
6.3914663978
 30
0.0
  0
VERTEX
  5
33D
330
256
100
AcDbEntity
  8
0
  6
CONTINUOUS
 62
     7
100
AcDbVertex
100
AcDb2dVertex
 10
8.0882415189
 20
6.3579942057
 30
0.0
  0
VERTEX
  5
33E
330
256
100
AcDbEntity
  8
0
  6
CONTINUOUS
 62
     7
100
AcDbVertex
100
AcDb2dVertex
 10
8.0846933852
 20
6.3250269057
 30
0.0
  0
VERTEX
  5
33F
330
256
100
AcDbEntity
  8
0
  6
CONTINUOUS
 62
     7
100
AcDbVertex
100
AcDb2dVertex
 10
8.0824280067
 20
6.2926397307
 30
0.0
  0
VERTEX
  5
340
330
256
100
AcDbEntity
  8
0
  6
CONTINUOUS
 62
     7
100
AcDbVertex
100
AcDb2dVertex
 10
8.081450553
 20
6.2609065896
 30
0.0
  0
SEQEND
  5
341
330
256
100
AcDbEntity
  8
0
  6
CONTINUOUS
 62
     7
  0
LINE
  5
257
330
1F
100
AcDbEntity
  8
0
  6
CONTINUOUS
 62
     7
100
AcDbLine
 10
8.0708435532
 20
6.2609063598
 30
0.0
 11
8.081450553
 21
6.2609065896
 31
0.0
  0
POLYLINE
  5
258
330
1F
100
AcDbEntity
  8
0
  6
CONTINUOUS
 62
     7
100
AcDb2dPolyline
 66
     1
 10
0.0
 20
0.0
 30
0.0
  0
VERTEX
  5
342
330
258
100
AcDbEntity
  8
0
  6
CONTINUOUS
 62
     7
100
AcDbVertex
100
AcDb2dVertex
 10
8.0708435532
 20
6.2609063598
 30
0.0
  0
VERTEX
  5
343
330
258
100
AcDbEntity
  8
0
  6
CONTINUOUS
 62
     7
100
AcDbVertex
100
AcDb2dVertex
 10
8.071814775
 20
6.2926914375
 30
0.0
  0
VERTEX
  5
344
330
258
100
AcDbEntity
  8
0
  6
CONTINUOUS
 62
     7
100
AcDbVertex
100
AcDb2dVertex
 10
8.0740665133
 20
6.3251274914
 30
0.0
  0
VERTEX
  5
345
330
258
100
AcDbEntity
  8
0
  6
CONTINUOUS
 62
     7
100
AcDbVertex
100
AcDb2dVertex
 10
8.077593707
 20
6.3581416128
 30
0.0
  0
VERTEX
  5
346
330
258
100
AcDbEntity
  8
0
  6
CONTINUOUS
 62
     7
100
AcDbVertex
100
AcDb2dVertex
 10
8.0823884275
 20
6.3916595934
 30
0.0
  0
VERTEX
  5
347
330
258
100
AcDbEntity
  8
0
  6
CONTINUOUS
 62
     7
100
AcDbVertex
100
AcDb2dVertex
 10
8.0884398975
 20
6.4256060925
 30
0.0
  0
VERTEX
  5
348
330
258
100
AcDbEntity
  8
0
  6
CONTINUOUS
 62
     7
100
AcDbVertex
100
AcDb2dVertex
 10
8.0957345147
 20
6.459904806
 30
0.0
  0
VERTEX
  5
349
330
258
100
AcDbEntity
  8
0
  6
CONTINUOUS
 62
     7
100
AcDbVertex
100
AcDb2dVertex
 10
8.1042558824
 20
6.4944786384
 30
0.0
  0
VERTEX
  5
34A
330
258
100
AcDbEntity
  8
0
  6
CONTINUOUS
 62
     7
100
AcDbVertex
100
AcDb2dVertex
 10
8.1139848466
 20
6.5292498756
 30
0.0
  0
VERTEX
  5
34B
330
258
100
AcDbEntity
  8
0
  6
CONTINUOUS
 62
     7
100
AcDbVertex
100
AcDb2dVertex
 10
8.1248995387
 20
6.5641403597
 30
0.0
  0
VERTEX
  5
34C
330
258
100
AcDbEntity
  8
0
  6
CONTINUOUS
 62
     7
100
AcDbVertex
100
AcDb2dVertex
 10
8.136975425
 20
6.5990716649
 30
0.0
  0
VERTEX
  5
34D
330
258
100
AcDbEntity
  8
0
  6
CONTINUOUS
 62
     7
100
AcDbVertex
100
AcDb2dVertex
 10
8.1501853617
 20
6.6339652737
 30
0.0
  0
VERTEX
  5
34E
330
258
100
AcDbEntity
  8
0
  6
CONTINUOUS
 62
     7
100
AcDbVertex
100
AcDb2dVertex
 10
8.1644996559
 20
6.6687427531
 30
0.0
  0
VERTEX
  5
34F
330
258
100
AcDbEntity
  8
0
  6
CONTINUOUS
 62
     7
100
AcDbVertex
100
AcDb2dVertex
 10
8.1798861323
 20
6.7033259314
 30
0.0
  0
VERTEX
  5
350
330
258
100
AcDbEntity
  8
0
  6
CONTINUOUS
 62
     7
100
AcDbVertex
100
AcDb2dVertex
 10
8.1963102056
 20
6.7376370735
 30
0.0
  0
VERTEX
  5
351
330
258
100
AcDbEntity
  8
0
  6
CONTINUOUS
 62
     7
100
AcDbVertex
100
AcDb2dVertex
 10
8.2137349583
 20
6.7715990558
 30
0.0
  0
VERTEX
  5
352
330
258
100
AcDbEntity
  8
0
  6
CONTINUOUS
 62
     7
100
AcDbVertex
100
AcDb2dVertex
 10
8.2321212235
 20
6.8051355394
 30
0.0
  0
VERTEX
  5
353
330
258
100
AcDbEntity
  8
0
  6
CONTINUOUS
 62
     7
100
AcDbVertex
100
AcDb2dVertex
 10
8.251427673
 20
6.8381711421
 30
0.0
  0
VERTEX
  5
354
330
258
100
AcDbEntity
  8
0
  6
CONTINUOUS
 62
     7
100
AcDbVertex
100
AcDb2dVertex
 10
8.2716109104
 20
6.8706316073
 30
0.0
  0
VERTEX
  5
355
330
258
100
AcDbEntity
  8
0
  6
CONTINUOUS
 62
     7
100
AcDbVertex
100
AcDb2dVertex
 10
8.2926255685
 20
6.9024439714
 30
0.0
  0
VERTEX
  5
356
330
258
100
AcDbEntity
  8
0
  6
CONTINUOUS
 62
     7
100
AcDbVertex
100
AcDb2dVertex
 10
8.3144244109
 20
6.9335367275
 30
0.0
  0
VERTEX
  5
357
330
258
100
AcDbEntity
  8
0
  6
CONTINUOUS
 62
     7
100
AcDbVertex
100
AcDb2dVertex
 10
8.336958439
 20
6.963839986
 30
0.0
  0
VERTEX
  5
358
330
258
100
AcDbEntity
  8
0
  6
CONTINUOUS
 62
     7
100
AcDbVertex
100
AcDb2dVertex
 10
8.3601770014
 20
6.9932856323
 30
0.0
  0
VERTEX
  5
359
330
258
100
AcDbEntity
  8
0
  6
CONTINUOUS
 62
     7
100
AcDbVertex
100
AcDb2dVertex
 10
8.384027908
 20
7.0218074792
 30
0.0
  0
VERTEX
  5
35A
330
258
100
AcDbEntity
  8
0
  6
CONTINUOUS
 62
     7
100
AcDbVertex
100
AcDb2dVertex
 10
8.4084575475
 20
7.0493414162
 30
0.0
  0
VERTEX
  5
35B
330
258
100
AcDbEntity
  8
0
  6
CONTINUOUS
 62
     7
100
AcDbVertex
100
AcDb2dVertex
 10
8.4334110076
 20
7.0758255532
 30
0.0
  0
VERTEX
  5
35C
330
258
100
AcDbEntity
  8
0
  6
CONTINUOUS
 62
     7
100
AcDbVertex
100
AcDb2dVertex
 10
8.4588321987
 20
7.1012003599
 30
0.0
  0
VERTEX
  5
35D
330
258
100
AcDbEntity
  8
0
  6
CONTINUOUS
 62
     7
100
AcDbVertex
100
AcDb2dVertex
 10
8.4846639797
 20
7.1254087997
 30
0.0
  0
VERTEX
  5
35E
330
258
100
AcDbEntity
  8
0
  6
CONTINUOUS
 62
     7
100
AcDbVertex
100
AcDb2dVertex
 10
8.5108482866
 20
7.1483964574
 30
0.0
  0
VERTEX
  5
35F
330
258
100
AcDbEntity
  8
0
  6
CONTINUOUS
 62
     7
100
AcDbVertex
100
AcDb2dVertex
 10
8.5373262632
 20
7.170111662
 30
0.0
  0
VERTEX
  5
360
330
258
100
AcDbEntity
  8
0
  6
CONTINUOUS
 62
     7
100
AcDbVertex
100
AcDb2dVertex
 10
8.5640383931
 20
7.1905056028
 30
0.0
  0
VERTEX
  5
361
330
258
100
AcDbEntity
  8
0
  6
CONTINUOUS
 62
     7
100
AcDbVertex
100
AcDb2dVertex
 10
8.5909246333
 20
7.2095324389
 30
0.0
  0
VERTEX
  5
362
330
258
100
AcDbEntity
  8
0
  6
CONTINUOUS
 62
     7
100
AcDbVertex
100
AcDb2dVertex
 10
8.6179245499
 20
7.2271494021
 30
0.0
  0
VERTEX
  5
363
330
258
100
AcDbEntity
  8
0
  6
CONTINUOUS
 62
     7
100
AcDbVertex
100
AcDb2dVertex
 10
8.6449774531
 20
7.2433168937
 30
0.0
  0
VERTEX
  5
364
330
258
100
AcDbEntity
  8
0
  6
CONTINUOUS
 62
     7
100
AcDbVertex
100
AcDb2dVertex
 10
8.6720225343
 20
7.2579985728
 30
0.0
  0
VERTEX
  5
365
330
258
100
AcDbEntity
  8
0
  6
CONTINUOUS
 62
     7
100
AcDbVertex
100
AcDb2dVertex
 10
8.6989990023
 20
7.2711614384
 30
0.0
  0
VERTEX
  5
366
330
258
100
AcDbEntity
  8
0
  6
CONTINUOUS
 62
     7
100
AcDbVertex
100
AcDb2dVertex
 10
8.7258462201
 20
7.2827759033
 30
0.0
  0
VERTEX
  5
367
330
258
100
AcDbEntity
  8
0
  6
CONTINUOUS
 62
     7
100
AcDbVertex
100
AcDb2dVertex
 10
8.7525038413
 20
7.2928158608
 30
0.0
  0
VERTEX
  5
368
330
258
100
AcDbEntity
  8
0
  6
CONTINUOUS
 62
     7
100
AcDbVertex
100
AcDb2dVertex
 10
8.7789119457
 20
7.3012587435
 30
0.0
  0
VERTEX
  5
369
330
258
100
AcDbEntity
  8
0
  6
CONTINUOUS
 62
     7
100
AcDbVertex
100
AcDb2dVertex
 10
8.8050111739
 20
7.3080855737
 30
0.0
  0
VERTEX
  5
36A
330
258
100
AcDbEntity
  8
0
  6
CONTINUOUS
 62
     7
100
AcDbVertex
100
AcDb2dVertex
 10
8.8307428608
 20
7.3132810062
 30
0.0
  0
VERTEX
  5
36B
330
258
100
AcDbEntity
  8
0
  6
CONTINUOUS
 62
     7
100
AcDbVertex
100
AcDb2dVertex
 10
8.8560491675
 20
7.3168333628
 30
0.0
  0
VERTEX
  5
36C
330
258
100
AcDbEntity
  8
0
  6
CONTINUOUS
 62
     7
100
AcDbVertex
100
AcDb2dVertex
 10
8.8808732111
 20
7.3187346588
 30
0.0
  0
VERTEX
  5
36D
330
258
100
AcDbEntity
  8
0
  6
CONTINUOUS
 62
     7
100
AcDbVertex
100
AcDb2dVertex
 10
8.905159193
 20
7.3189806204
 30
0.0
  0
VERTEX
  5
36E
330
258
100
AcDbEntity
  8
0
  6
CONTINUOUS
 62
     7
100
AcDbVertex
100
AcDb2dVertex
 10
8.9288525236
 20
7.3175706947
 30
0.0
  0
VERTEX
  5
36F
330
258
100
AcDbEntity
  8
0
  6
CONTINUOUS
 62
     7
100
AcDbVertex
100
AcDb2dVertex
 10
8.951899946
 20
7.3145080509
 30
0.0
  0
VERTEX
  5
370
330
258
100
AcDbEntity
  8
0
  6
CONTINUOUS
 62
     7
100
AcDbVertex
100
AcDb2dVertex
 10
8.9742496546
 20
7.3097995732
 30
0.0
  0
VERTEX
  5
371
330
258
100
AcDbEntity
  8
0
  6
CONTINUOUS
 62
     7
100
AcDbVertex
100
AcDb2dVertex
 10
8.9958514125
 20
7.3034558451
 30
0.0
  0
VERTEX
  5
372
330
258
100
AcDbEntity
  8
0
  6
CONTINUOUS
 62
     7
100
AcDbVertex
100
AcDb2dVertex
 10
9.0166566639
 20
7.295491126
 30
0.0
  0
VERTEX
  5
373
330
258
100
AcDbEntity
  8
0
  6
CONTINUOUS
 62
     7
100
AcDbVertex
100
AcDb2dVertex
 10
9.0366186433
 20
7.2859233185
 30
0.0
  0
VERTEX
  5
374
330
258
100
AcDbEntity
  8
0
  6
CONTINUOUS
 62
     7
100
AcDbVertex
100
AcDb2dVertex
 10
9.0556924807
 20
7.2747739291
 30
0.0
  0
VERTEX
  5
375
330
258
100
AcDbEntity
  8
0
  6
CONTINUOUS
 62
     7
100
AcDbVertex
100
AcDb2dVertex
 10
9.0738353026
 20
7.262068019
 30
0.0
  0
VERTEX
  5
376
330
258
100
AcDbEntity
  8
0
  6
CONTINUOUS
 62
     7
100
AcDbVertex
100
AcDb2dVertex
 10
9.091006328
 20
7.2478341481
 30
0.0
  0
VERTEX
  5
377
330
258
100
AcDbEntity
  8
0
  6
CONTINUOUS
 62
     7
100
AcDbVertex
100
AcDb2dVertex
 10
9.1071669603
 20
7.232104311
 30
0.0
  0
VERTEX
  5
378
330
258
100
AcDbEntity
  8
0
  6
CONTINUOUS
 62
     7
100
AcDbVertex
100
AcDb2dVertex
 10
9.1222808742
 20
7.2149138647
 30
0.0
  0
VERTEX
  5
379
330
258
100
AcDbEntity
  8
0
  6
CONTINUOUS
 62
     7
100
AcDbVertex
100
AcDb2dVertex
 10
9.1363140971
 20
7.1963014494
 30
0.0
  0
VERTEX
  5
37A
330
258
100
AcDbEntity
  8
0
  6
CONTINUOUS
 62
     7
100
AcDbVertex
100
AcDb2dVertex
 10
9.1492350853
 20
7.1763089017
 30
0.0
  0
VERTEX
  5
37B
330
258
100
AcDbEntity
  8
0
  6
CONTINUOUS
 62
     7
100
AcDbVertex
100
AcDb2dVertex
 10
9.1610147957
 20
7.15498116
 30
0.0
  0
VERTEX
  5
37C
330
258
100
AcDbEntity
  8
0
  6
CONTINUOUS
 62
     7
100
AcDbVertex
100
AcDb2dVertex
 10
9.1716267499
 20
7.1323661645
 30
0.0
  0
VERTEX
  5
37D
330
258
100
AcDbEntity
  8
0
  6
CONTINUOUS
 62
     7
100
AcDbVertex
100
AcDb2dVertex
 10
9.1810470948
 20
7.1085147483
 30
0.0
  0
VERTEX
  5
37E
330
258
100
AcDbEntity
  8
0
  6
CONTINUOUS
 62
     7
100
AcDbVertex
100
AcDb2dVertex
 10
9.1892546556
 20
7.083480524
 30
0.0
  0
VERTEX
  5
37F
330
258
100
AcDbEntity
  8
0
  6
CONTINUOUS
 62
     7
100
AcDbVertex
100
AcDb2dVertex
 10
9.1962309836
 20
7.0573197629
 30
0.0
  0
VERTEX
  5
380
330
258
100
AcDbEntity
  8
0
  6
CONTINUOUS
 62
     7
100
AcDbVertex
100
AcDb2dVertex
 10
9.2019603976
 20
7.0300912683
 30
0.0
  0
VERTEX
  5
381
330
258
100
AcDbEntity
  8
0
  6
CONTINUOUS
 62
     7
100
AcDbVertex
100
AcDb2dVertex
 10
9.2064300192
 20
7.0018562437
 30
0.0
  0
VERTEX
  5
382
330
258
100
AcDbEntity
  8
0
  6
CONTINUOUS
 62
     7
100
AcDbVertex
100
AcDb2dVertex
 10
9.2096298016
 20
6.972678155
 30
0.0
  0
VERTEX
  5
383
330
258
100
AcDbEntity
  8
0
  6
CONTINUOUS
 62
     7
100
AcDbVertex
100
AcDb2dVertex
 10
9.2115525526
 20
6.9426225878
 30
0.0
  0
VERTEX
  5
384
330
258
100
AcDbEntity
  8
0
  6
CONTINUOUS
 62
     7
100
AcDbVertex
100
AcDb2dVertex
 10
9.2121939501
 20
6.9117571001
 30
0.0
  0
SEQEND
  5
385
330
258
100
AcDbEntity
  8
0
  6
CONTINUOUS
 62
     7
  0
POLYLINE
  5
259
330
1F
100
AcDbEntity
  8
0
  6
CONTINUOUS
 62
     7
100
AcDb2dPolyline
 66
     1
 10
0.0
 20
0.0
 30
0.0
  0
VERTEX
  5
386
330
259
100
AcDbEntity
  8
0
  6
CONTINUOUS
 62
     7
100
AcDbVertex
100
AcDb2dVertex
 10
8.6415902865
 20
5.9233354661
 30
0.0
  0
VERTEX
  5
387
330
259
100
AcDbEntity
  8
0
  6
CONTINUOUS
 62
     7
100
AcDbVertex
100
AcDb2dVertex
 10
8.6179245499
 20
5.9102359533
 30
0.0
  0
VERTEX
  5
388
330
259
100
AcDbEntity
  8
0
  6
CONTINUOUS
 62
     7
100
AcDbVertex
100
AcDb2dVertex
 10
8.5909246333
 20
5.8966794764
 30
0.0
  0
VERTEX
  5
389
330
259
100
AcDbEntity
  8
0
  6
CONTINUOUS
 62
     7
100
AcDbVertex
100
AcDb2dVertex
 10
8.5640383931
 20
5.8846641202
 30
0.0
  0
VERTEX
  5
38A
330
259
100
AcDbEntity
  8
0
  6
CONTINUOUS
 62
     7
100
AcDbVertex
100
AcDb2dVertex
 10
8.5373262632
 20
5.8742168924
 30
0.0
  0
VERTEX
  5
38B
330
259
100
AcDbEntity
  8
0
  6
CONTINUOUS
 62
     7
100
AcDbVertex
100
AcDb2dVertex
 10
8.5108482866
 20
5.865361276
 30
0.0
  0
VERTEX
  5
38C
330
259
100
AcDbEntity
  8
0
  6
CONTINUOUS
 62
     7
100
AcDbVertex
100
AcDb2dVertex
 10
8.4846639797
 20
5.8581171764
 30
0.0
  0
VERTEX
  5
38D
330
259
100
AcDbEntity
  8
0
  6
CONTINUOUS
 62
     7
100
AcDbVertex
100
AcDb2dVertex
 10
8.4588321987
 20
5.8525008766
 30
0.0
  0
VERTEX
  5
38E
330
259
100
AcDbEntity
  8
0
  6
CONTINUOUS
 62
     7
100
AcDbVertex
100
AcDb2dVertex
 10
8.4334110076
 20
5.8485250009
 30
0.0
  0
VERTEX
  5
38F
330
259
100
AcDbEntity
  8
0
  6
CONTINUOUS
 62
     7
100
AcDbVertex
100
AcDb2dVertex
 10
8.4084575475
 20
5.8461984861
 30
0.0
  0
VERTEX
  5
390
330
259
100
AcDbEntity
  8
0
  6
CONTINUOUS
 62
     7
100
AcDbVertex
100
AcDb2dVertex
 10
8.384027908
 20
5.8455265617
 30
0.0
  0
VERTEX
  5
391
330
259
100
AcDbEntity
  8
0
  6
CONTINUOUS
 62
     7
100
AcDbVertex
100
AcDb2dVertex
 10
8.3601770014
 20
5.846510738
 30
0.0
  0
VERTEX
  5
392
330
259
100
AcDbEntity
  8
0
  6
CONTINUOUS
 62
     7
100
AcDbVertex
100
AcDb2dVertex
 10
8.336958439
 20
5.8491488028
 30
0.0
  0
VERTEX
  5
393
330
259
100
AcDbEntity
  8
0
  6
CONTINUOUS
 62
     7
100
AcDbVertex
100
AcDb2dVertex
 10
8.3144244109
 20
5.8534348263
 30
0.0
  0
VERTEX
  5
394
330
259
100
AcDbEntity
  8
0
  6
CONTINUOUS
 62
     7
100
AcDbVertex
100
AcDb2dVertex
 10
8.2926255685
 20
5.8593591745
 30
0.0
  0
VERTEX
  5
395
330
259
100
AcDbEntity
  8
0
  6
CONTINUOUS
 62
     7
100
AcDbVertex
100
AcDb2dVertex
 10
8.2716109104
 20
5.8669085309
 30
0.0
  0
VERTEX
  5
396
330
259
100
AcDbEntity
  8
0
  6
CONTINUOUS
 62
     7
100
AcDbVertex
100
AcDb2dVertex
 10
8.251427673
 20
5.8760659262
 30
0.0
  0
VERTEX
  5
397
330
259
100
AcDbEntity
  8
0
  6
CONTINUOUS
 62
     7
100
AcDbVertex
100
AcDb2dVertex
 10
8.2321212235
 20
5.8868107768
 30
0.0
  0
VERTEX
  5
398
330
259
100
AcDbEntity
  8
0
  6
CONTINUOUS
 62
     7
100
AcDbVertex
100
AcDb2dVertex
 10
8.2137349583
 20
5.8991189305
 30
0.0
  0
VERTEX
  5
399
330
259
100
AcDbEntity
  8
0
  6
CONTINUOUS
 62
     7
100
AcDbVertex
100
AcDb2dVertex
 10
8.1963102056
 20
5.9129627215
 30
0.0
  0
VERTEX
  5
39A
330
259
100
AcDbEntity
  8
0
  6
CONTINUOUS
 62
     7
100
AcDbVertex
100
AcDb2dVertex
 10
8.1798861323
 20
5.9283110322
 30
0.0
  0
VERTEX
  5
39B
330
259
100
AcDbEntity
  8
0
  6
CONTINUOUS
 62
     7
100
AcDbVertex
100
AcDb2dVertex
 10
8.1644996559
 20
5.945129363
 30
0.0
  0
VERTEX
  5
39C
330
259
100
AcDbEntity
  8
0
  6
CONTINUOUS
 62
     7
100
AcDbVertex
100
AcDb2dVertex
 10
8.1501853617
 20
5.9633799102
 30
0.0
  0
VERTEX
  5
39D
330
259
100
AcDbEntity
  8
0
  6
CONTINUOUS
 62
     7
100
AcDbVertex
100
AcDb2dVertex
 10
8.136975425
 20
5.9830216507
 30
0.0
  0
VERTEX
  5
39E
330
259
100
AcDbEntity
  8
0
  6
CONTINUOUS
 62
     7
100
AcDbVertex
100
AcDb2dVertex
 10
8.1248995387
 20
6.0040104343
 30
0.0
  0
VERTEX
  5
39F
330
259
100
AcDbEntity
  8
0
  6
CONTINUOUS
 62
     7
100
AcDbVertex
100
AcDb2dVertex
 10
8.1139848466
 20
6.0262990832
 30
0.0
  0
VERTEX
  5
3A0
330
259
100
AcDbEntity
  8
0
  6
CONTINUOUS
 62
     7
100
AcDbVertex
100
AcDb2dVertex
 10
8.1042558824
 20
6.0498374974
 30
0.0
  0
VERTEX
  5
3A1
330
259
100
AcDbEntity
  8
0
  6
CONTINUOUS
 62
     7
100
AcDbVertex
100
AcDb2dVertex
 10
8.0957345147
 20
6.0745727681
 30
0.0
  0
VERTEX
  5
3A2
330
259
100
AcDbEntity
  8
0
  6
CONTINUOUS
 62
     7
100
AcDbVertex
100
AcDb2dVertex
 10
8.0884398975
 20
6.1004492959
 30
0.0
  0
VERTEX
  5
3A3
330
259
100
AcDbEntity
  8
0
  6
CONTINUOUS
 62
     7
100
AcDbVertex
100
AcDb2dVertex
 10
8.0823884275
 20
6.1274089164
 30
0.0
  0
VERTEX
  5
3A4
330
259
100
AcDbEntity
  8
0
  6
CONTINUOUS
 62
     7
100
AcDbVertex
100
AcDb2dVertex
 10
8.077593707
 20
6.1553910305
 30
0.0
  0
VERTEX
  5
3A5
330
259
100
AcDbEntity
  8
0
  6
CONTINUOUS
 62
     7
100
AcDbVertex
100
AcDb2dVertex
 10
8.0740665133
 20
6.1843327408
 30
0.0
  0
VERTEX
  5
3A6
330
259
100
AcDbEntity
  8
0
  6
CONTINUOUS
 62
     7
100
AcDbVertex
100
AcDb2dVertex
 10
8.071814775
 20
6.2141689929
 30
0.0
  0
VERTEX
  5
3A7
330
259
100
AcDbEntity
  8
0
  6
CONTINUOUS
 62
     7
100
AcDbVertex
100
AcDb2dVertex
 10
8.0708435532
 20
6.2448327218
 30
0.0
  0
SEQEND
  5
3A8
330
259
100
AcDbEntity
  8
0
  6
CONTINUOUS
 62
     7
  0
LINE
  5
25A
330
1F
100
AcDbEntity
  8
0
  6
CONTINUOUS
 62
     7
100
AcDbLine
 10
8.0708435532
 20
6.2448327218
 30
0.0
 11
8.081450553
 21
6.2448329516
 31
0.0
  0
POLYLINE
  5
25B
330
1F
100
AcDbEntity
  8
0
  6
CONTINUOUS
 62
     7
100
AcDb2dPolyline
 66
     1
 10
0.0
 20
0.0
 30
0.0
  0
VERTEX
  5
3A9
330
25B
100
AcDbEntity
  8
0
  6
CONTINUOUS
 62
     7
100
AcDbVertex
100
AcDb2dVertex
 10
8.6327286005
 20
7.5192813717
 30
0.0
  0
VERTEX
  5
3AA
330
25B
100
AcDbEntity
  8
0
  6
CONTINUOUS
 62
     7
100
AcDbVertex
100
AcDb2dVertex
 10
8.6230437082
 20
7.524610216
 30
0.0
  0
VERTEX
  5
3AB
330
25B
100
AcDbEntity
  8
0
  6
CONTINUOUS
 62
     7
100
AcDbVertex
100
AcDb2dVertex
 10
8.6029447634
 20
7.5341061939
 30
0.0
  0
VERTEX
  5
3AC
330
25B
100
AcDbEntity
  8
0
  6
CONTINUOUS
 62
     7
100
AcDbVertex
100
AcDb2dVertex
 10
8.5819992074
 20
7.5419851824
 30
0.0
  0
VERTEX
  5
3AD
330
25B
100
AcDbEntity
  8
0
  6
CONTINUOUS
 62
     7
100
AcDbVertex
100
AcDb2dVertex
 10
8.5602544888
 20
7.548229333
 30
0.0
  0
VERTEX
  5
3AE
330
25B
100
AcDbEntity
  8
0
  6
CONTINUOUS
 62
     7
100
AcDbVertex
100
AcDb2dVertex
 10
8.5377598662
 20
7.5528245006
 30
0.0
  0
VERTEX
  5
3AF
330
25B
100
AcDbEntity
  8
0
  6
CONTINUOUS
 62
     7
100
AcDbVertex
100
AcDb2dVertex
 10
8.5145662972
 20
7.5557602758
 30
0.0
  0
VERTEX
  5
3B0
330
25B
100
AcDbEntity
  8
0
  6
CONTINUOUS
 62
     7
100
AcDbVertex
100
AcDb2dVertex
 10
8.4907263228
 20
7.5570300081
 30
0.0
  0
VERTEX
  5
3B1
330
25B
100
AcDbEntity
  8
0
  6
CONTINUOUS
 62
     7
100
AcDbVertex
100
AcDb2dVertex
 10
8.4662939482
 20
7.5566308212
 30
0.0
  0
VERTEX
  5
3B2
330
25B
100
AcDbEntity
  8
0
  6
CONTINUOUS
 62
     7
100
AcDbVertex
100
AcDb2dVertex
 10
8.4413245204
 20
7.5545636192
 30
0.0
  0
VERTEX
  5
3B3
330
25B
100
AcDbEntity
  8
0
  6
CONTINUOUS
 62
     7
100
AcDbVertex
100
AcDb2dVertex
 10
8.4158746034
 20
7.5508330852
 30
0.0
  0
VERTEX
  5
3B4
330
25B
100
AcDbEntity
  8
0
  6
CONTINUOUS
 62
     7
100
AcDbVertex
100
AcDb2dVertex
 10
8.3900018493
 20
7.5454476699
 30
0.0
  0
VERTEX
  5
3B5
330
25B
100
AcDbEntity
  8
0
  6
CONTINUOUS
 62
     7
100
AcDbVertex
100
AcDb2dVertex
 10
8.3637648683
 20
7.5384195731
 30
0.0
  0
VERTEX
  5
3B6
330
25B
100
AcDbEntity
  8
0
  6
CONTINUOUS
 62
     7
100
AcDbVertex
100
AcDb2dVertex
 10
8.3372230955
 20
7.5297647157
 30
0.0
  0
VERTEX
  5
3B7
330
25B
100
AcDbEntity
  8
0
  6
CONTINUOUS
 62
     7
100
AcDbVertex
100
AcDb2dVertex
 10
8.3104366567
 20
7.5195027036
 30
0.0
  0
VERTEX
  5
3B8
330
25B
100
AcDbEntity
  8
0
  6
CONTINUOUS
 62
     7
100
AcDbVertex
100
AcDb2dVertex
 10
8.2834662317
 20
7.5076567837
 30
0.0
  0
VERTEX
  5
3B9
330
25B
100
AcDbEntity
  8
0
  6
CONTINUOUS
 62
     7
100
AcDbVertex
100
AcDb2dVertex
 10
8.2563729172
 20
7.4942537908
 30
0.0
  0
VERTEX
  5
3BA
330
25B
100
AcDbEntity
  8
0
  6
CONTINUOUS
 62
     7
100
AcDbVertex
100
AcDb2dVertex
 10
8.2292180883
 20
7.4793240869
 30
0.0
  0
VERTEX
  5
3BB
330
25B
100
AcDbEntity
  8
0
  6
CONTINUOUS
 62
     7
100
AcDbVertex
100
AcDb2dVertex
 10
8.2020632594
 20
7.4629014927
 30
0.0
  0
VERTEX
  5
3BC
330
25B
100
AcDbEntity
  8
0
  6
CONTINUOUS
 62
     7
100
AcDbVertex
100
AcDb2dVertex
 10
8.1749699449
 20
7.4450232105
 30
0.0
  0
VERTEX
  5
3BD
330
25B
100
AcDbEntity
  8
0
  6
CONTINUOUS
 62
     7
100
AcDbVertex
100
AcDb2dVertex
 10
8.1479995199
 20
7.4257297405
 30
0.0
  0
VERTEX
  5
3BE
330
25B
100
AcDbEntity
  8
0
  6
CONTINUOUS
 62
     7
100
AcDbVertex
100
AcDb2dVertex
 10
8.1212130811
 20
7.4050647886
 30
0.0
  0
VERTEX
  5
3BF
330
25B
100
AcDbEntity
  8
0
  6
CONTINUOUS
 62
     7
100
AcDbVertex
100
AcDb2dVertex
 10
8.0946713083
 20
7.3830751676
 30
0.0
  0
VERTEX
  5
3C0
330
25B
100
AcDbEntity
  8
0
  6
CONTINUOUS
 62
     7
100
AcDbVertex
100
AcDb2dVertex
 10
8.0684343273
 20
7.3598106909
 30
0.0
  0
VERTEX
  5
3C1
330
25B
100
AcDbEntity
  8
0
  6
CONTINUOUS
 62
     7
100
AcDbVertex
100
AcDb2dVertex
 10
8.0425615732
 20
7.3353240602
 30
0.0
  0
VERTEX
  5
3C2
330
25B
100
AcDbEntity
  8
0
  6
CONTINUOUS
 62
     7
100
AcDbVertex
100
AcDb2dVertex
 10
8.0171116562
 20
7.3096707454
 30
0.0
  0
VERTEX
  5
3C3
330
25B
100
AcDbEntity
  8
0
  6
CONTINUOUS
 62
     7
100
AcDbVertex
100
AcDb2dVertex
 10
7.9921422284
 20
7.2829088597
 30
0.0
  0
VERTEX
  5
3C4
330
25B
100
AcDbEntity
  8
0
  6
CONTINUOUS
 62
     7
100
AcDbVertex
100
AcDb2dVertex
 10
7.9677098538
 20
7.2550990273
 30
0.0
  0
VERTEX
  5
3C5
330
25B
100
AcDbEntity
  8
0
  6
CONTINUOUS
 62
     7
100
AcDbVertex
100
AcDb2dVertex
 10
7.9438698794
 20
7.2263042465
 30
0.0
  0
VERTEX
  5
3C6
330
25B
100
AcDbEntity
  8
0
  6
CONTINUOUS
 62
     7
100
AcDbVertex
100
AcDb2dVertex
 10
7.9206763104
 20
7.1965897465
 30
0.0
  0
VERTEX
  5
3C7
330
25B
100
AcDbEntity
  8
0
  6
CONTINUOUS
 62
     7
100
AcDbVertex
100
AcDb2dVertex
 10
7.8981816878
 20
7.1660228405
 30
0.0
  0
VERTEX
  5
3C8
330
25B
100
AcDbEntity
  8
0
  6
CONTINUOUS
 62
     7
100
AcDbVertex
100
AcDb2dVertex
 10
7.8764369692
 20
7.1346727722
 30
0.0
  0
VERTEX
  5
3C9
330
25B
100
AcDbEntity
  8
0
  6
CONTINUOUS
 62
     7
100
AcDbVertex
100
AcDb2dVertex
 10
7.8554914132
 20
7.1026105595
 30
0.0
  0
VERTEX
  5
3CA
330
25B
100
AcDbEntity
  8
0
  6
CONTINUOUS
 62
     7
100
AcDbVertex
100
AcDb2dVertex
 10
7.8353924684
 20
7.0699088339
 30
0.0
  0
VERTEX
  5
3CB
330
25B
100
AcDbEntity
  8
0
  6
CONTINUOUS
 62
     7
100
AcDbVertex
100
AcDb2dVertex
 10
7.8161856653
 20
7.0366416751
 30
0.0
  0
VERTEX
  5
3CC
330
25B
100
AcDbEntity
  8
0
  6
CONTINUOUS
 62
     7
100
AcDbVertex
100
AcDb2dVertex
 10
7.7979145134
 20
7.002884444
 30
0.0
  0
VERTEX
  5
3CD
330
25B
100
AcDbEntity
  8
0
  6
CONTINUOUS
 62
     7
100
AcDbVertex
100
AcDb2dVertex
 10
7.7806204029
 20
6.9687136116
 30
0.0
  0
VERTEX
  5
3CE
330
25B
100
AcDbEntity
  8
0
  6
CONTINUOUS
 62
     7
100
AcDbVertex
100
AcDb2dVertex
 10
7.7643425104
 20
6.9342065857
 30
0.0
  0
VERTEX
  5
3CF
330
25B
100
AcDbEntity
  8
0
  6
CONTINUOUS
 62
     7
100
AcDbVertex
100
AcDb2dVertex
 10
7.7491177106
 20
6.899441536
 30
0.0
  0
VERTEX
  5
3D0
330
25B
100
AcDbEntity
  8
0
  6
CONTINUOUS
 62
     7
100
AcDbVertex
100
AcDb2dVertex
 10
7.7349804926
 20
6.8644972164
 30
0.0
  0
VERTEX
  5
3D1
330
25B
100
AcDbEntity
  8
0
  6
CONTINUOUS
 62
     7
100
AcDbVertex
100
AcDb2dVertex
 10
7.7219628817
 20
6.8294527871
 30
0.0
  0
VERTEX
  5
3D2
330
25B
100
AcDbEntity
  8
0
  6
CONTINUOUS
 62
     7
100
AcDbVertex
100
AcDb2dVertex
 10
7.710094367
 20
6.7943876349
 30
0.0
  0
VERTEX
  5
3D3
330
25B
100
AcDbEntity
  8
0
  6
CONTINUOUS
 62
     7
100
AcDbVertex
100
AcDb2dVertex
 10
7.6994018345
 20
6.7593811937
 30
0.0
  0
VERTEX
  5
3D4
330
25B
100
AcDbEntity
  8
0
  6
CONTINUOUS
 62
     7
100
AcDbVertex
100
AcDb2dVertex
 10
7.6899095062
 20
6.7245127644
 30
0.0
  0
VERTEX
  5
3D5
330
25B
100
AcDbEntity
  8
0
  6
CONTINUOUS
 62
     7
100
AcDbVertex
100
AcDb2dVertex
 10
7.6816388853
 20
6.6898613351
 30
0.0
  0
VERTEX
  5
3D6
330
25B
100
AcDbEntity
  8
0
  6
CONTINUOUS
 62
     7
100
AcDbVertex
100
AcDb2dVertex
 10
7.6746087074
 20
6.6555054025
 30
0.0
  0
VERTEX
  5
3D7
330
25B
100
AcDbEntity
  8
0
  6
CONTINUOUS
 62
     7
100
AcDbVertex
100
AcDb2dVertex
 10
7.6688348982
 20
6.6215227939
 30
0.0
  0
VERTEX
  5
3D8
330
25B
100
AcDbEntity
  8
0
  6
CONTINUOUS
 62
     7
100
AcDbVertex
100
AcDb2dVertex
 10
7.6643305371
 20
6.5879904907
 30
0.0
  0
VERTEX
  5
3D9
330
25B
100
AcDbEntity
  8
0
  6
CONTINUOUS
 62
     7
100
AcDbVertex
100
AcDb2dVertex
 10
7.661105828
 20
6.5549844545
 30
0.0
  0
VERTEX
  5
3DA
330
25B
100
AcDbEntity
  8
0
  6
CONTINUOUS
 62
     7
100
AcDbVertex
100
AcDb2dVertex
 10
7.6591680759
 20
6.5225794544
 30
0.0
  0
VERTEX
  5
3DB
330
25B
100
AcDbEntity
  8
0
  6
CONTINUOUS
 62
     7
100
AcDbVertex
100
AcDb2dVertex
 10
7.6585216704
 20
6.4908488983
 30
0.0
  0
VERTEX
  5
3DC
330
25B
100
AcDbEntity
  8
0
  6
CONTINUOUS
 62
     7
100
AcDbVertex
100
AcDb2dVertex
 10
7.6591680759
 20
6.4598646661
 30
0.0
  0
VERTEX
  5
3DD
330
25B
100
AcDbEntity
  8
0
  6
CONTINUOUS
 62
     7
100
AcDbVertex
100
AcDb2dVertex
 10
7.661105828
 20
6.429696947
 30
0.0
  0
VERTEX
  5
3DE
330
25B
100
AcDbEntity
  8
0
  6
CONTINUOUS
 62
     7
100
AcDbVertex
100
AcDb2dVertex
 10
7.6643305371
 20
6.4004140806
 30
0.0
  0
VERTEX
  5
3DF
330
25B
100
AcDbEntity
  8
0
  6
CONTINUOUS
 62
     7
100
AcDbVertex
100
AcDb2dVertex
 10
7.6688348982
 20
6.372082402
 30
0.0
  0
VERTEX
  5
3E0
330
25B
100
AcDbEntity
  8
0
  6
CONTINUOUS
 62
     7
100
AcDbVertex
100
AcDb2dVertex
 10
7.6746087074
 20
6.3447660916
 30
0.0
  0
VERTEX
  5
3E1
330
25B
100
AcDbEntity
  8
0
  6
CONTINUOUS
 62
     7
100
AcDbVertex
100
AcDb2dVertex
 10
7.6816388853
 20
6.3185270297
 30
0.0
  0
VERTEX
  5
3E2
330
25B
100
AcDbEntity
  8
0
  6
CONTINUOUS
 62
     7
100
AcDbVertex
100
AcDb2dVertex
 10
7.6899095062
 20
6.293424656
 30
0.0
  0
VERTEX
  5
3E3
330
25B
100
AcDbEntity
  8
0
  6
CONTINUOUS
 62
     7
100
AcDbVertex
100
AcDb2dVertex
 10
7.6994018345
 20
6.2695158356
 30
0.0
  0
VERTEX
  5
3E4
330
25B
100
AcDbEntity
  8
0
  6
CONTINUOUS
 62
     7
100
AcDbVertex
100
AcDb2dVertex
 10
7.710094367
 20
6.2468547297
 30
0.0
  0
VERTEX
  5
3E5
330
25B
100
AcDbEntity
  8
0
  6
CONTINUOUS
 62
     7
100
AcDbVertex
100
AcDb2dVertex
 10
7.7219628817
 20
6.2254926729
 30
0.0
  0
VERTEX
  5
3E6
330
25B
100
AcDbEntity
  8
0
  6
CONTINUOUS
 62
     7
100
AcDbVertex
100
AcDb2dVertex
 10
7.7349804926
 20
6.2054780572
 30
0.0
  0
VERTEX
  5
3E7
330
25B
100
AcDbEntity
  8
0
  6
CONTINUOUS
 62
     7
100
AcDbVertex
100
AcDb2dVertex
 10
7.7491177106
 20
6.1868562221
 30
0.0
  0
VERTEX
  5
3E8
330
25B
100
AcDbEntity
  8
0
  6
CONTINUOUS
 62
     7
100
AcDbVertex
100
AcDb2dVertex
 10
7.7643425104
 20
6.1696693521
 30
0.0
  0
VERTEX
  5
3E9
330
25B
100
AcDbEntity
  8
0
  6
CONTINUOUS
 62
     7
100
AcDbVertex
100
AcDb2dVertex
 10
7.7806204029
 20
6.1539563809
 30
0.0
  0
VERTEX
  5
3EA
330
25B
100
AcDbEntity
  8
0
  6
CONTINUOUS
 62
     7
100
AcDbVertex
100
AcDb2dVertex
 10
7.7979145134
 20
6.1397529034
 30
0.0
  0
VERTEX
  5
3EB
330
25B
100
AcDbEntity
  8
0
  6
CONTINUOUS
 62
     7
100
AcDbVertex
100
AcDb2dVertex
 10
7.8161856653
 20
6.1270910952
 30
0.0
  0
VERTEX
  5
3EC
330
25B
100
AcDbEntity
  8
0
  6
CONTINUOUS
 62
     7
100
AcDbVertex
100
AcDb2dVertex
 10
7.8257075761
 20
6.1213284836
 30
0.0
  0
SEQEND
  5
3ED
330
25B
100
AcDbEntity
  8
0
  6
CONTINUOUS
 62
     7
  0
SPLINE
  5
25C
330
1F
100
AcDbEntity
  8
0
  6
CONTINUOUS
 62
     7
100
AcDbSpline
210
0.0
220
0.0
230
1.0
 70
     8
 71
     3
 72
    20
 73
    16
 74
     0
 42
0.00000001
 43
0.00000001
 40
0.0
 40
0.0
 40
0.0
 40
0.0
 40
0.062500129657492
 40
0.1250090553661426
 40
0.1873887748706671
 40
0.2497911586374519
 40
0.3144511283309701
 40
0.3791433259246278
 40
0.4511374761067224
 40
0.5231745953833639
 40
0.6071565266580088
 40
0.6911900339002109
 40
0.7923686606687212
 40
0.8935935404767458
 40
1.0
 40
1.0
 40
1.0
 40
1.0
 10
8.251847385022216
 20
7.06128206418564
 30
0.0
 10
8.2470723674205
 20
7.063669023165956
 30
0.0
 10
8.237521660197679
 20
7.068443277058907
 30
0.0
 10
8.22105329785925
 20
7.072227979669058
 30
0.0
 10
8.203626990948667
 20
7.073319827877913
 30
0.0
 10
8.185418834926065
 20
7.071616085869493
 30
0.0
 10
8.166951599243832
 20
7.067076235488441
 30
0.0
 10
8.148013504571228
 20
7.059628835608181
 30
0.0
 10
8.129338636345068
 20
7.049191597704333
 30
0.0
 10
8.110413269981976
 20
7.035205656496065
 30
0.0
 10
8.092512971061328
 20
7.017936130163338
 30
0.0
 10
8.075032726764444
 20
6.996221720484015
 30
0.0
 10
8.05975893972877
 20
6.970898199044874
 30
0.0
 10
8.04668234242569
 20
6.941883611819221
 30
0.0
 10
8.041603831975005
 20
6.921356211283173
 30
0.0
 10
8.039001207927742
 20
6.910836373472121
 30
0.0
  0
POLYLINE
  5
25D
330
1F
100
AcDbEntity
  8
0
  6
CONTINUOUS
 62
     7
100
AcDb2dPolyline
 66
     1
 10
0.0
 20
0.0
 30
0.0
  0
VERTEX
  5
3EE
330
25D
100
AcDbEntity
  8
0
  6
CONTINUOUS
 62
     7
100
AcDbVertex
100
AcDb2dVertex
 10
8.0337217604
 20
6.8634796085
 30
0.0
  0
VERTEX
  5
3EF
330
25D
100
AcDbEntity
  8
0
  6
CONTINUOUS
 62
     7
100
AcDbVertex
100
AcDb2dVertex
 10
8.0341657429
 20
6.8463872523
 30
0.0
  0
VERTEX
  5
3F0
330
25D
100
AcDbEntity
  8
0
  6
CONTINUOUS
 62
     7
100
AcDbVertex
100
AcDb2dVertex
 10
8.038012726
 20
6.8231550228
 30
0.0
  0
VERTEX
  5
3F1
330
25D
100
AcDbEntity
  8
0
  6
CONTINUOUS
 62
     7
100
AcDbVertex
100
AcDb2dVertex
 10
8.0429449512
 20
6.8077610843
 30
0.0
  0
VERTEX
  5
3F2
330
25D
100
AcDbEntity
  8
0
  6
CONTINUOUS
 62
     7
100
AcDbVertex
100
AcDb2dVertex
 10
8.0499570068
 20
6.7937394548
 30
0.0
  0
VERTEX
  5
3F3
330
25D
100
AcDbEntity
  8
0
  6
CONTINUOUS
 62
     7
100
AcDbVertex
100
AcDb2dVertex
 10
8.057061557
 20
6.7841497508
 30
0.0
  0
VERTEX
  5
3F4
330
25D
100
AcDbEntity
  8
0
  6
CONTINUOUS
 62
     7
100
AcDbVertex
100
AcDb2dVertex
 10
8.065518317
 20
6.776269195
 30
0.0
  0
VERTEX
  5
3F5
330
25D
100
AcDbEntity
  8
0
  6
CONTINUOUS
 62
     7
100
AcDbVertex
100
AcDb2dVertex
 10
8.0752386045
 20
6.7704848479
 30
0.0
  0
VERTEX
  5
3F6
330
25D
100
AcDbEntity
  8
0
  6
CONTINUOUS
 62
     7
100
AcDbVertex
100
AcDb2dVertex
 10
8.085857789
 20
6.7669765438
 30
0.0
  0
VERTEX
  5
3F7
330
25D
100
AcDbEntity
  8
0
  6
CONTINUOUS
 62
     7
100
AcDbVertex
100
AcDb2dVertex
 10
8.096323644
 20
6.765768026
 30
0.0
  0
VERTEX
  5
3F8
330
25D
100
AcDbEntity
  8
0
  6
CONTINUOUS
 62
     7
100
AcDbVertex
100
AcDb2dVertex
 10
8.107024666
 20
6.766352366
 30
0.0
  0
VERTEX
  5
3F9
330
25D
100
AcDbEntity
  8
0
  6
CONTINUOUS
 62
     7
100
AcDbVertex
100
AcDb2dVertex
 10
8.1243967169
 20
6.7704973399
 30
0.0
  0
VERTEX
  5
3FA
330
25D
100
AcDbEntity
  8
0
  6
CONTINUOUS
 62
     7
100
AcDbVertex
100
AcDb2dVertex
 10
8.141502993
 20
6.7777466747
 30
0.0
  0
VERTEX
  5
3FB
330
25D
100
AcDbEntity
  8
0
  6
CONTINUOUS
 62
     7
100
AcDbVertex
100
AcDb2dVertex
 10
8.166841173
 20
6.7932388931
 30
0.0
  0
VERTEX
  5
3FC
330
25D
100
AcDbEntity
  8
0
  6
CONTINUOUS
 62
     7
100
AcDbVertex
100
AcDb2dVertex
 10
8.190874721
 20
6.8126428961
 30
0.0
  0
VERTEX
  5
3FD
330
25D
100
AcDbEntity
  8
0
  6
CONTINUOUS
 62
     7
100
AcDbVertex
100
AcDb2dVertex
 10
8.214360307
 20
6.8359308673
 30
0.0
  0
VERTEX
  5
3FE
330
25D
100
AcDbEntity
  8
0
  6
CONTINUOUS
 62
     7
100
AcDbVertex
100
AcDb2dVertex
 10
8.2359112017
 20
6.8617067012
 30
0.0
  0
VERTEX
  5
3FF
330
25D
100
AcDbEntity
  8
0
  6
CONTINUOUS
 62
     7
100
AcDbVertex
100
AcDb2dVertex
 10
8.2511277213
 20
6.8833127408
 30
0.0
  0
VERTEX
  5
400
330
25D
100
AcDbEntity
  8
0
  6
CONTINUOUS
 62
     7
100
AcDbVertex
100
AcDb2dVertex
 10
8.2645470419
 20
6.9059976013
 30
0.0
  0
VERTEX
  5
401
330
25D
100
AcDbEntity
  8
0
  6
CONTINUOUS
 62
     7
100
AcDbVertex
100
AcDb2dVertex
 10
8.2755996641
 20
6.9293003496
 30
0.0
  0
VERTEX
  5
402
330
25D
100
AcDbEntity
  8
0
  6
CONTINUOUS
 62
     7
100
AcDbVertex
100
AcDb2dVertex
 10
8.2836846968
 20
6.9526368165
 30
0.0
  0
VERTEX
  5
403
330
25D
100
AcDbEntity
  8
0
  6
CONTINUOUS
 62
     7
100
AcDbVertex
100
AcDb2dVertex
 10
8.2883900074
 20
6.9758672686
 30
0.0
  0
VERTEX
  5
404
330
25D
100
AcDbEntity
  8
0
  6
CONTINUOUS
 62
     7
100
AcDbVertex
100
AcDb2dVertex
 10
8.2890264061
 20
6.9985860944
 30
0.0
  0
VERTEX
  5
405
330
25D
100
AcDbEntity
  8
0
  6
CONTINUOUS
 62
     7
100
AcDbVertex
100
AcDb2dVertex
 10
8.2850709226
 20
7.0197916975
 30
0.0
  0
VERTEX
  5
406
330
25D
100
AcDbEntity
  8
0
  6
CONTINUOUS
 62
     7
100
AcDbVertex
100
AcDb2dVertex
 10
8.2777439148
 20
7.035990941
 30
0.0
  0
VERTEX
  5
407
330
25D
100
AcDbEntity
  8
0
  6
CONTINUOUS
 62
     7
100
AcDbVertex
100
AcDb2dVertex
 10
8.2668821182
 20
7.0498473608
 30
0.0
  0
VERTEX
  5
408
330
25D
100
AcDbEntity
  8
0
  6
CONTINUOUS
 62
     7
100
AcDbVertex
100
AcDb2dVertex
 10
8.251847385
 20
7.0612820642
 30
0.0
  0
VERTEX
  5
409
330
25D
100
AcDbEntity
  8
0
  6
CONTINUOUS
 62
     7
100
AcDbVertex
100
AcDb2dVertex
 10
8.251847385
 20
7.0612820642
 30
0.0
  0
SEQEND
  5
40A
330
25D
100
AcDbEntity
  8
0
  6
CONTINUOUS
 62
     7
  0
SPLINE
  5
25E
330
1F
100
AcDbEntity
  8
0
  6
CONTINUOUS
 62
     7
100
AcDbSpline
210
0.0
220
0.0
230
1.0
 70
     8
 71
     3
 72
    13
 73
     9
 74
     0
 42
0.00000001
 43
0.00000001
 40
0.0
 40
0.0
 40
0.0
 40
0.0
 40
0.1294037290359263
 40
0.2636168898056687
 40
0.5244489792723801
 40
0.7174736375715823
 40
0.9159141487474478
 40
1.0
 40
1.0
 40
1.0
 40
1.0
 10
8.105693424343894
 20
5.961020925253974
 30
0.0
 10
8.108176944654632
 20
5.959575265113907
 30
0.0
 10
8.113236288036497
 20
5.956630215286673
 30
0.0
 10
8.124486802907857
 20
5.949895445752949
 30
0.0
 10
8.13778216357883
 20
5.941794346979533
 30
0.0
 10
8.152184949768301
 20
5.933081635953636
 30
0.0
 10
8.162502162035144
 20
5.926887851498273
 30
0.0
 10
8.168165852009784
 20
5.92366900940307
 30
0.0
 10
8.16985148654192
 20
5.922711013571119
 30
0.0
  0
SPLINE
  5
25F
330
1F
100
AcDbEntity
  8
0
  6
CONTINUOUS
 62
     7
100
AcDbSpline
210
0.0
220
0.0
230
1.0
 70
     8
 71
     3
 72
     9
 73
     5
 74
     0
 42
0.00000001
 43
0.00000001
 40
0.0
 40
0.0
 40
0.0
 40
0.0
 40
0.2108650285515413
 40
1.0
 40
1.0
 40
1.0
 40
1.0
 10
8.092470091189735
 20
5.968378572212621
 30
0.0
 10
8.091668464682767
 20
5.968718085329773
 30
0.0
 10
8.087866855129617
 20
5.970328182174588
 30
0.0
 10
8.086054645376542
 20
5.971225929520377
 30
0.0
 10
8.08462456728479
 20
5.971934373346463
 30
0.0
  0
SPLINE
  5
260
330
1F
100
AcDbEntity
  8
0
  6
CONTINUOUS
 62
     7
100
AcDbSpline
210
0.0
220
0.0
230
1.0
 70
     8
 71
     3
 72
    14
 73
    10
 74
     0
 42
0.00000001
 43
0.00000001
 40
0.0
 40
0.0
 40
0.0
 40
0.0
 40
0.0743681445092192
 40
0.3026408599888851
 40
0.4585038885012977
 40
0.61796563571158
 40
0.7417565080875927
 40
0.8688410370363668
 40
1.0
 40
1.0
 40
1.0
 40
1.0
 10
8.083364835194924
 20
5.972623901588136
 30
0.0
 10
8.083125566437333
 20
5.972751804029302
 30
0.0
 10
8.08215186320669
 20
5.973272302490631
 30
0.0
 10
8.08286484698311
 20
5.973093774124572
 30
0.0
 10
8.085217957845254
 20
5.972067096504967
 30
0.0
 10
8.08870138010363
 20
5.970367771757486
 30
0.0
 10
8.093333521947546
 20
5.967945137537888
 30
0.0
 10
8.09875635941437
 20
5.964989475319781
 30
0.0
 10
8.103356874507664
 20
5.962357616650197
 30
0.0
 10
8.105693424343894
 20
5.961020925253974
 30
0.0
  0
POLYLINE
  5
261
330
1F
100
AcDbEntity
  8
0
  6
CONTINUOUS
 62
     7
100
AcDb2dPolyline
 66
     1
 10
0.0
 20
0.0
 30
0.0
  0
VERTEX
  5
40B
330
261
100
AcDbEntity
  8
0
  6
CONTINUOUS
 62
     7
100
AcDbVertex
100
AcDb2dVertex
 10
7.8504526601
 20
6.3720616762
 30
0.0
  0
VERTEX
  5
40C
330
261
100
AcDbEntity
  8
0
  6
CONTINUOUS
 62
     7
100
AcDbVertex
100
AcDb2dVertex
 10
7.8514306054
 20
6.3412719518
 30
0.0
  0
VERTEX
  5
40D
330
261
100
AcDbEntity
  8
0
  6
CONTINUOUS
 62
     7
100
AcDbVertex
100
AcDb2dVertex
 10
7.8536997359
 20
6.3113168937
 30
0.0
  0
VERTEX
  5
40E
330
261
100
AcDbEntity
  8
0
  6
CONTINUOUS
 62
     7
100
AcDbVertex
100
AcDb2dVertex
 10
7.8572549087
 20
6.2822643957
 30
0.0
  0
VERTEX
  5
40F
330
261
100
AcDbEntity
  8
0
  6
CONTINUOUS
 62
     7
100
AcDbVertex
100
AcDb2dVertex
 10
7.8620880658
 20
6.2541803063
 30
0.0
  0
VERTEX
  5
410
330
261
100
AcDbEntity
  8
0
  6
CONTINUOUS
 62
     7
100
AcDbVertex
100
AcDb2dVertex
 10
7.8681882527
 20
6.2271282786
 30
0.0
  0
VERTEX
  5
411
330
261
100
AcDbEntity
  8
0
  6
CONTINUOUS
 62
     7
100
AcDbVertex
100
AcDb2dVertex
 10
7.8755416433
 20
6.2011696267
 30
0.0
  0
VERTEX
  5
412
330
261
100
AcDbEntity
  8
0
  6
CONTINUOUS
 62
     7
100
AcDbVertex
100
AcDb2dVertex
 10
7.8841315708
 20
6.1763631867
 30
0.0
  0
VERTEX
  5
413
330
261
100
AcDbEntity
  8
0
  6
CONTINUOUS
 62
     7
100
AcDbVertex
100
AcDb2dVertex
 10
7.893938566
 20
6.1527651828
 30
0.0
  0
VERTEX
  5
414
330
261
100
AcDbEntity
  8
0
  6
CONTINUOUS
 62
     7
100
AcDbVertex
100
AcDb2dVertex
 10
7.9049404012
 20
6.1304291008
 30
0.0
  0
VERTEX
  5
415
330
261
100
AcDbEntity
  8
0
  6
CONTINUOUS
 62
     7
100
AcDbVertex
100
AcDb2dVertex
 10
7.9171121402
 20
6.1094055657
 30
0.0
  0
VERTEX
  5
416
330
261
100
AcDbEntity
  8
0
  6
CONTINUOUS
 62
     7
100
AcDbVertex
100
AcDb2dVertex
 10
7.9304261956
 20
6.089742228
 30
0.0
  0
VERTEX
  5
417
330
261
100
AcDbEntity
  8
0
  6
CONTINUOUS
 62
     7
100
AcDbVertex
100
AcDb2dVertex
 10
7.9448523908
 20
6.0714836551
 30
0.0
  0
VERTEX
  5
418
330
261
100
AcDbEntity
  8
0
  6
CONTINUOUS
 62
     7
100
AcDbVertex
100
AcDb2dVertex
 10
7.9603580284
 20
6.0546712307
 30
0.0
  0
VERTEX
  5
419
330
261
100
AcDbEntity
  8
0
  6
CONTINUOUS
 62
     7
100
AcDbVertex
100
AcDb2dVertex
 10
7.9769079644
 20
6.0393430604
 30
0.0
  0
VERTEX
  5
41A
330
261
100
AcDbEntity
  8
0
  6
CONTINUOUS
 62
     7
100
AcDbVertex
100
AcDb2dVertex
 10
7.9944646881
 20
6.0255338859
 30
0.0
  0
VERTEX
  5
41B
330
261
100
AcDbEntity
  8
0
  6
CONTINUOUS
 62
     7
100
AcDbVertex
100
AcDb2dVertex
 10
8.0129884067
 20
6.0132750061
 30
0.0
  0
VERTEX
  5
41C
330
261
100
AcDbEntity
  8
0
  6
CONTINUOUS
 62
     7
100
AcDbVertex
100
AcDb2dVertex
 10
8.017596127
 20
6.0105535811
 30
0.0
  0
SEQEND
  5
41D
330
261
100
AcDbEntity
  8
0
  6
CONTINUOUS
 62
     7
  0
LINE
  5
262
330
1F
100
AcDbEntity
  8
0
  6
CONTINUOUS
 62
     7
100
AcDbLine
 10
8.0708435532
 20
6.2448327218
 30
0.0
 11
7.8504526601
 21
6.3720616762
 31
0.0
  0
LINE
  5
263
330
1F
100
AcDbEntity
  8
0
  6
CONTINUOUS
 62
     7
100
AcDbLine
 10
8.0708435532
 20
6.2609063598
 30
0.0
 11
7.8504526601
 21
6.3881353143
 31
0.0
  0
POLYLINE
  5
264
330
1F
100
AcDbEntity
  8
0
  6
CONTINUOUS
 62
     7
100
AcDb2dPolyline
 66
     1
 10
0.0
 20
0.0
 30
0.0
  0
VERTEX
  5
41E
330
264
100
AcDbEntity
  8
0
  6
CONTINUOUS
 62
     7
100
AcDbVertex
100
AcDb2dVertex
 10
8.6890555671
 20
7.4460787904
 30
0.0
  0
VERTEX
  5
41F
330
264
100
AcDbEntity
  8
0
  6
CONTINUOUS
 62
     7
100
AcDbVertex
100
AcDb2dVertex
 10
8.6647698401
 20
7.4461261208
 30
0.0
  0
VERTEX
  5
420
330
264
100
AcDbEntity
  8
0
  6
CONTINUOUS
 62
     7
100
AcDbVertex
100
AcDb2dVertex
 10
8.6399318443
 20
7.4445039374
 30
0.0
  0
VERTEX
  5
421
330
264
100
AcDbEntity
  8
0
  6
CONTINUOUS
 62
     7
100
AcDbVertex
100
AcDb2dVertex
 10
8.6145978756
 20
7.4412159169
 30
0.0
  0
VERTEX
  5
422
330
264
100
AcDbEntity
  8
0
  6
CONTINUOUS
 62
     7
100
AcDbVertex
100
AcDb2dVertex
 10
8.588825354
 20
7.4362695117
 30
0.0
  0
VERTEX
  5
423
330
264
100
AcDbEntity
  8
0
  6
CONTINUOUS
 62
     7
100
AcDbVertex
100
AcDb2dVertex
 10
8.5626726937
 20
7.4296759329
 30
0.0
  0
VERTEX
  5
424
330
264
100
AcDbEntity
  8
0
  6
CONTINUOUS
 62
     7
100
AcDbVertex
100
AcDb2dVertex
 10
8.5361991703
 20
7.421450125
 30
0.0
  0
VERTEX
  5
425
330
264
100
AcDbEntity
  8
0
  6
CONTINUOUS
 62
     7
100
AcDbVertex
100
AcDb2dVertex
 10
8.5094647868
 20
7.4116107321
 30
0.0
  0
VERTEX
  5
426
330
264
100
AcDbEntity
  8
0
  6
CONTINUOUS
 62
     7
100
AcDbVertex
100
AcDb2dVertex
 10
8.4825301373
 20
7.4001800553
 30
0.0
  0
VERTEX
  5
427
330
264
100
AcDbEntity
  8
0
  6
CONTINUOUS
 62
     7
100
AcDbVertex
100
AcDb2dVertex
 10
8.4554562699
 20
7.3871840026
 30
0.0
  0
VERTEX
  5
428
330
264
100
AcDbEntity
  8
0
  6
CONTINUOUS
 62
     7
100
AcDbVertex
100
AcDb2dVertex
 10
8.4283045481
 20
7.3726520299
 30
0.0
  0
VERTEX
  5
429
330
264
100
AcDbEntity
  8
0
  6
CONTINUOUS
 62
     7
100
AcDbVertex
100
AcDb2dVertex
 10
8.4011365121
 20
7.3566170743
 30
0.0
  0
VERTEX
  5
42A
330
264
100
AcDbEntity
  8
0
  6
CONTINUOUS
 62
     7
100
AcDbVertex
100
AcDb2dVertex
 10
8.3740137389
 20
7.3391154793
 30
0.0
  0
VERTEX
  5
42B
330
264
100
AcDbEntity
  8
0
  6
CONTINUOUS
 62
     7
100
AcDbVertex
100
AcDb2dVertex
 10
8.3469977029
 20
7.3201869129
 30
0.0
  0
VERTEX
  5
42C
330
264
100
AcDbEntity
  8
0
  6
CONTINUOUS
 62
     7
100
AcDbVertex
100
AcDb2dVertex
 10
8.3201496368
 20
7.2998742771
 30
0.0
  0
VERTEX
  5
42D
330
264
100
AcDbEntity
  8
0
  6
CONTINUOUS
 62
     7
100
AcDbVertex
100
AcDb2dVertex
 10
8.2935303923
 20
7.2782236109
 30
0.0
  0
VERTEX
  5
42E
330
264
100
AcDbEntity
  8
0
  6
CONTINUOUS
 62
     7
100
AcDbVertex
100
AcDb2dVertex
 10
8.2672003026
 20
7.2552839863
 30
0.0
  0
VERTEX
  5
42F
330
264
100
AcDbEntity
  8
0
  6
CONTINUOUS
 62
     7
100
AcDbVertex
100
AcDb2dVertex
 10
8.2412190455
 20
7.2311073964
 30
0.0
  0
VERTEX
  5
430
330
264
100
AcDbEntity
  8
0
  6
CONTINUOUS
 62
     7
100
AcDbVertex
100
AcDb2dVertex
 10
8.2156455082
 20
7.205748638
 30
0.0
  0
VERTEX
  5
431
330
264
100
AcDbEntity
  8
0
  6
CONTINUOUS
 62
     7
100
AcDbVertex
100
AcDb2dVertex
 10
8.1905376539
 20
7.1792651875
 30
0.0
  0
VERTEX
  5
432
330
264
100
AcDbEntity
  8
0
  6
CONTINUOUS
 62
     7
100
AcDbVertex
100
AcDb2dVertex
 10
8.16595239
 20
7.1517170703
 30
0.0
  0
VERTEX
  5
433
330
264
100
AcDbEntity
  8
0
  6
CONTINUOUS
 62
     7
100
AcDbVertex
100
AcDb2dVertex
 10
8.1419454397
 20
7.1231667249
 30
0.0
  0
VERTEX
  5
434
330
264
100
AcDbEntity
  8
0
  6
CONTINUOUS
 62
     7
100
AcDbVertex
100
AcDb2dVertex
 10
8.1185712155
 20
7.0936788614
 30
0.0
  0
VERTEX
  5
435
330
264
100
AcDbEntity
  8
0
  6
CONTINUOUS
 62
     7
100
AcDbVertex
100
AcDb2dVertex
 10
8.0958826954
 20
7.0633203147
 30
0.0
  0
VERTEX
  5
436
330
264
100
AcDbEntity
  8
0
  6
CONTINUOUS
 62
     7
100
AcDbVertex
100
AcDb2dVertex
 10
8.0739313038
 20
7.0321598933
 30
0.0
  0
VERTEX
  5
437
330
264
100
AcDbEntity
  8
0
  6
CONTINUOUS
 62
     7
100
AcDbVertex
100
AcDb2dVertex
 10
8.0527667938
 20
7.0002682231
 30
0.0
  0
VERTEX
  5
438
330
264
100
AcDbEntity
  8
0
  6
CONTINUOUS
 62
     7
100
AcDbVertex
100
AcDb2dVertex
 10
8.0324371356
 20
6.9677175873
 30
0.0
  0
VERTEX
  5
439
330
264
100
AcDbEntity
  8
0
  6
CONTINUOUS
 62
     7
100
AcDbVertex
100
AcDb2dVertex
 10
8.0129884067
 20
6.9345817628
 30
0.0
  0
VERTEX
  5
43A
330
264
100
AcDbEntity
  8
0
  6
CONTINUOUS
 62
     7
100
AcDbVertex
100
AcDb2dVertex
 10
7.9944646881
 20
6.9009358529
 30
0.0
  0
VERTEX
  5
43B
330
264
100
AcDbEntity
  8
0
  6
CONTINUOUS
 62
     7
100
AcDbVertex
100
AcDb2dVertex
 10
7.9769079644
 20
6.8668561167
 30
0.0
  0
VERTEX
  5
43C
330
264
100
AcDbEntity
  8
0
  6
CONTINUOUS
 62
     7
100
AcDbVertex
100
AcDb2dVertex
 10
7.9603580284
 20
6.832419797
 30
0.0
  0
VERTEX
  5
43D
330
264
100
AcDbEntity
  8
0
  6
CONTINUOUS
 62
     7
100
AcDbVertex
100
AcDb2dVertex
 10
7.9448523908
 20
6.7977049444
 30
0.0
  0
VERTEX
  5
43E
330
264
100
AcDbEntity
  8
0
  6
CONTINUOUS
 62
     7
100
AcDbVertex
100
AcDb2dVertex
 10
7.9304261956
 20
6.7627902412
 30
0.0
  0
VERTEX
  5
43F
330
264
100
AcDbEntity
  8
0
  6
CONTINUOUS
 62
     7
100
AcDbVertex
100
AcDb2dVertex
 10
7.9171121402
 20
6.7277548223
 30
0.0
  0
VERTEX
  5
440
330
264
100
AcDbEntity
  8
0
  6
CONTINUOUS
 62
     7
100
AcDbVertex
100
AcDb2dVertex
 10
7.9049404012
 20
6.6926780964
 30
0.0
  0
VERTEX
  5
441
330
264
100
AcDbEntity
  8
0
  6
CONTINUOUS
 62
     7
100
AcDbVertex
100
AcDb2dVertex
 10
7.893938566
 20
6.6576395659
 30
0.0
  0
VERTEX
  5
442
330
264
100
AcDbEntity
  8
0
  6
CONTINUOUS
 62
     7
100
AcDbVertex
100
AcDb2dVertex
 10
7.8841315708
 20
6.6227186464
 30
0.0
  0
VERTEX
  5
443
330
264
100
AcDbEntity
  8
0
  6
CONTINUOUS
 62
     7
100
AcDbVertex
100
AcDb2dVertex
 10
7.8755416433
 20
6.5879944872
 30
0.0
  0
VERTEX
  5
444
330
264
100
AcDbEntity
  8
0
  6
CONTINUOUS
 62
     7
100
AcDbVertex
100
AcDb2dVertex
 10
7.8681882527
 20
6.5535457913
 30
0.0
  0
VERTEX
  5
445
330
264
100
AcDbEntity
  8
0
  6
CONTINUOUS
 62
     7
100
AcDbVertex
100
AcDb2dVertex
 10
7.8620880658
 20
6.5194506376
 30
0.0
  0
VERTEX
  5
446
330
264
100
AcDbEntity
  8
0
  6
CONTINUOUS
 62
     7
100
AcDbVertex
100
AcDb2dVertex
 10
7.8572549087
 20
6.4857863038
 30
0.0
  0
VERTEX
  5
447
330
264
100
AcDbEntity
  8
0
  6
CONTINUOUS
 62
     7
100
AcDbVertex
100
AcDb2dVertex
 10
7.8536997359
 20
6.4526290908
 30
0.0
  0
VERTEX
  5
448
330
264
100
AcDbEntity
  8
0
  6
CONTINUOUS
 62
     7
100
AcDbVertex
100
AcDb2dVertex
 10
7.8514306054
 20
6.4200541503
 30
0.0
  0
VERTEX
  5
449
330
264
100
AcDbEntity
  8
0
  6
CONTINUOUS
 62
     7
100
AcDbVertex
100
AcDb2dVertex
 10
7.8504526601
 20
6.3881353143
 30
0.0
  0
SEQEND
  5
44A
330
264
100
AcDbEntity
  8
0
  6
CONTINUOUS
 62
     7
  0
LINE
  5
265
330
1F
100
AcDbEntity
  8
0
  6
CONTINUOUS
 62
     7
100
AcDbLine
 10
8.670496334
 20
7.4567928076
 30
0.0
 11
8.6890555671
 21
7.4460787904
 31
0.0
  0
POLYLINE
  5
266
330
1F
100
AcDbEntity
  8
0
  6
CONTINUOUS
 62
     7
100
AcDb2dPolyline
 66
     1
 10
0.0
 20
0.0
 30
0.0
  0
VERTEX
  5
44B
330
266
100
AcDbEntity
  8
0
  6
CONTINUOUS
 62
     7
100
AcDbVertex
100
AcDb2dVertex
 10
8.0084231925
 20
6.0160953886
 30
0.0
  0
VERTEX
  5
44C
330
266
100
AcDbEntity
  8
0
  6
CONTINUOUS
 62
     7
100
AcDbVertex
100
AcDb2dVertex
 10
7.9973146266
 20
6.0222703645
 30
0.0
  0
VERTEX
  5
44D
330
266
100
AcDbEntity
  8
0
  6
CONTINUOUS
 62
     7
100
AcDbVertex
100
AcDb2dVertex
 10
7.9787501522
 20
6.0342203255
 30
0.0
  0
VERTEX
  5
44E
330
266
100
AcDbEntity
  8
0
  6
CONTINUOUS
 62
     7
100
AcDbVertex
100
AcDb2dVertex
 10
7.9611354876
 20
6.0477077955
 30
0.0
  0
VERTEX
  5
44F
330
266
100
AcDbEntity
  8
0
  6
CONTINUOUS
 62
     7
100
AcDbVertex
100
AcDb2dVertex
 10
7.9445101106
 20
6.0627025465
 30
0.0
  0
VERTEX
  5
450
330
266
100
AcDbEntity
  8
0
  6
CONTINUOUS
 62
     7
100
AcDbVertex
100
AcDb2dVertex
 10
7.9289112819
 20
6.0791709724
 30
0.0
  0
VERTEX
  5
451
330
266
100
AcDbEntity
  8
0
  6
CONTINUOUS
 62
     7
100
AcDbVertex
100
AcDb2dVertex
 10
7.9143739613
 20
6.0970761642
 30
0.0
  0
VERTEX
  5
452
330
266
100
AcDbEntity
  8
0
  6
CONTINUOUS
 62
     7
100
AcDbVertex
100
AcDb2dVertex
 10
7.9009307298
 20
6.1163779932
 30
0.0
  0
VERTEX
  5
453
330
266
100
AcDbEntity
  8
0
  6
CONTINUOUS
 62
     7
100
AcDbVertex
100
AcDb2dVertex
 10
7.8886117161
 20
6.1370332002
 30
0.0
  0
VERTEX
  5
454
330
266
100
AcDbEntity
  8
0
  6
CONTINUOUS
 62
     7
100
AcDbVertex
100
AcDb2dVertex
 10
7.8774445295
 20
6.1589954931
 30
0.0
  0
VERTEX
  5
455
330
266
100
AcDbEntity
  8
0
  6
CONTINUOUS
 62
     7
100
AcDbVertex
100
AcDb2dVertex
 10
7.8674541979
 20
6.1822156501
 30
0.0
  0
VERTEX
  5
456
330
266
100
AcDbEntity
  8
0
  6
CONTINUOUS
 62
     7
100
AcDbVertex
100
AcDb2dVertex
 10
7.8586631113
 20
6.2066416306
 30
0.0
  0
VERTEX
  5
457
330
266
100
AcDbEntity
  8
0
  6
CONTINUOUS
 62
     7
100
AcDbVertex
100
AcDb2dVertex
 10
7.8510909723
 20
6.2322186912
 30
0.0
  0
VERTEX
  5
458
330
266
100
AcDbEntity
  8
0
  6
CONTINUOUS
 62
     7
100
AcDbVertex
100
AcDb2dVertex
 10
7.8447547515
 20
6.2588895089
 30
0.0
  0
VERTEX
  5
459
330
266
100
AcDbEntity
  8
0
  6
CONTINUOUS
 62
     7
100
AcDbVertex
100
AcDb2dVertex
 10
7.8396686496
 20
6.2865943095
 30
0.0
  0
VERTEX
  5
45A
330
266
100
AcDbEntity
  8
0
  6
CONTINUOUS
 62
     7
100
AcDbVertex
100
AcDb2dVertex
 10
7.8358440654
 20
6.3152710011
 30
0.0
  0
VERTEX
  5
45B
330
266
100
AcDbEntity
  8
0
  6
CONTINUOUS
 62
     7
100
AcDbVertex
100
AcDb2dVertex
 10
7.8332895707
 20
6.3448553139
 30
0.0
  0
VERTEX
  5
45C
330
266
100
AcDbEntity
  8
0
  6
CONTINUOUS
 62
     7
100
AcDbVertex
100
AcDb2dVertex
 10
7.8320108904
 20
6.3752809439
 30
0.0
  0
VERTEX
  5
45D
330
266
100
AcDbEntity
  8
0
  6
CONTINUOUS
 62
     7
100
AcDbVertex
100
AcDb2dVertex
 10
7.8320108904
 20
6.4064797014
 30
0.0
  0
VERTEX
  5
45E
330
266
100
AcDbEntity
  8
0
  6
CONTINUOUS
 62
     7
100
AcDbVertex
100
AcDb2dVertex
 10
7.8332895707
 20
6.4383816642
 30
0.0
  0
VERTEX
  5
45F
330
266
100
AcDbEntity
  8
0
  6
CONTINUOUS
 62
     7
100
AcDbVertex
100
AcDb2dVertex
 10
7.8358440654
 20
6.4709153339
 30
0.0
  0
VERTEX
  5
460
330
266
100
AcDbEntity
  8
0
  6
CONTINUOUS
 62
     7
100
AcDbVertex
100
AcDb2dVertex
 10
7.8396686496
 20
6.5040077964
 30
0.0
  0
VERTEX
  5
461
330
266
100
AcDbEntity
  8
0
  6
CONTINUOUS
 62
     7
100
AcDbVertex
100
AcDb2dVertex
 10
7.8447547515
 20
6.5375848852
 30
0.0
  0
VERTEX
  5
462
330
266
100
AcDbEntity
  8
0
  6
CONTINUOUS
 62
     7
100
AcDbVertex
100
AcDb2dVertex
 10
7.8510909723
 20
6.5715713477
 30
0.0
  0
VERTEX
  5
463
330
266
100
AcDbEntity
  8
0
  6
CONTINUOUS
 62
     7
100
AcDbVertex
100
AcDb2dVertex
 10
7.8586631113
 20
6.6058910139
 30
0.0
  0
VERTEX
  5
464
330
266
100
AcDbEntity
  8
0
  6
CONTINUOUS
 62
     7
100
AcDbVertex
100
AcDb2dVertex
 10
7.8674541979
 20
6.6404669669
 30
0.0
  0
VERTEX
  5
465
330
266
100
AcDbEntity
  8
0
  6
CONTINUOUS
 62
     7
100
AcDbVertex
100
AcDb2dVertex
 10
7.8774445295
 20
6.6752217153
 30
0.0
  0
VERTEX
  5
466
330
266
100
AcDbEntity
  8
0
  6
CONTINUOUS
 62
     7
100
AcDbVertex
100
AcDb2dVertex
 10
7.8886117161
 20
6.7100773674
 30
0.0
  0
VERTEX
  5
467
330
266
100
AcDbEntity
  8
0
  6
CONTINUOUS
 62
     7
100
AcDbVertex
100
AcDb2dVertex
 10
7.9009307298
 20
6.7449558048
 30
0.0
  0
VERTEX
  5
468
330
266
100
AcDbEntity
  8
0
  6
CONTINUOUS
 62
     7
100
AcDbVertex
100
AcDb2dVertex
 10
7.9143739613
 20
6.7797788586
 30
0.0
  0
VERTEX
  5
469
330
266
100
AcDbEntity
  8
0
  6
CONTINUOUS
 62
     7
100
AcDbVertex
100
AcDb2dVertex
 10
7.9289112819
 20
6.8144684835
 30
0.0
  0
VERTEX
  5
46A
330
266
100
AcDbEntity
  8
0
  6
CONTINUOUS
 62
     7
100
AcDbVertex
100
AcDb2dVertex
 10
7.9445101106
 20
6.8489469337
 30
0.0
  0
VERTEX
  5
46B
330
266
100
AcDbEntity
  8
0
  6
CONTINUOUS
 62
     7
100
AcDbVertex
100
AcDb2dVertex
 10
7.9611354876
 20
6.8831369363
 30
0.0
  0
VERTEX
  5
46C
330
266
100
AcDbEntity
  8
0
  6
CONTINUOUS
 62
     7
100
AcDbVertex
100
AcDb2dVertex
 10
7.9787501522
 20
6.9169618651
 30
0.0
  0
VERTEX
  5
46D
330
266
100
AcDbEntity
  8
0
  6
CONTINUOUS
 62
     7
100
AcDbVertex
100
AcDb2dVertex
 10
7.9973146266
 20
6.9503459121
 30
0.0
  0
VERTEX
  5
46E
330
266
100
AcDbEntity
  8
0
  6
CONTINUOUS
 62
     7
100
AcDbVertex
100
AcDb2dVertex
 10
8.0167873043
 20
6.9832142573
 30
0.0
  0
VERTEX
  5
46F
330
266
100
AcDbEntity
  8
0
  6
CONTINUOUS
 62
     7
100
AcDbVertex
100
AcDb2dVertex
 10
8.0371245434
 20
7.0154932364
 30
0.0
  0
VERTEX
  5
470
330
266
100
AcDbEntity
  8
0
  6
CONTINUOUS
 62
     7
100
AcDbVertex
100
AcDb2dVertex
 10
8.0582807642
 20
7.0471105063
 30
0.0
  0
VERTEX
  5
471
330
266
100
AcDbEntity
  8
0
  6
CONTINUOUS
 62
     7
100
AcDbVertex
100
AcDb2dVertex
 10
8.0802085517
 20
7.0779952066
 30
0.0
  0
VERTEX
  5
472
330
266
100
AcDbEntity
  8
0
  6
CONTINUOUS
 62
     7
100
AcDbVertex
100
AcDb2dVertex
 10
8.1028587616
 20
7.1080781188
 30
0.0
  0
VERTEX
  5
473
330
266
100
AcDbEntity
  8
0
  6
CONTINUOUS
 62
     7
100
AcDbVertex
100
AcDb2dVertex
 10
8.1261806304
 20
7.1372918215
 30
0.0
  0
VERTEX
  5
474
330
266
100
AcDbEntity
  8
0
  6
CONTINUOUS
 62
     7
100
AcDbVertex
100
AcDb2dVertex
 10
8.1501218894
 20
7.1655708413
 30
0.0
  0
VERTEX
  5
475
330
266
100
AcDbEntity
  8
0
  6
CONTINUOUS
 62
     7
100
AcDbVertex
100
AcDb2dVertex
 10
8.1746288818
 20
7.1928517994
 30
0.0
  0
VERTEX
  5
476
330
266
100
AcDbEntity
  8
0
  6
CONTINUOUS
 62
     7
100
AcDbVertex
100
AcDb2dVertex
 10
8.1996466827
 20
7.2190735542
 30
0.0
  0
VERTEX
  5
477
330
266
100
AcDbEntity
  8
0
  6
CONTINUOUS
 62
     7
100
AcDbVertex
100
AcDb2dVertex
 10
8.2251192225
 20
7.2441773376
 30
0.0
  0
VERTEX
  5
478
330
266
100
AcDbEntity
  8
0
  6
CONTINUOUS
 62
     7
100
AcDbVertex
100
AcDb2dVertex
 10
8.2509894125
 20
7.2681068874
 30
0.0
  0
VERTEX
  5
479
330
266
100
AcDbEntity
  8
0
  6
CONTINUOUS
 62
     7
100
AcDbVertex
100
AcDb2dVertex
 10
8.2771992725
 20
7.290808573
 30
0.0
  0
VERTEX
  5
47A
330
266
100
AcDbEntity
  8
0
  6
CONTINUOUS
 62
     7
100
AcDbVertex
100
AcDb2dVertex
 10
8.3036900615
 20
7.3122315154
 30
0.0
  0
VERTEX
  5
47B
330
266
100
AcDbEntity
  8
0
  6
CONTINUOUS
 62
     7
100
AcDbVertex
100
AcDb2dVertex
 10
8.3304024084
 20
7.332327702
 30
0.0
  0
VERTEX
  5
47C
330
266
100
AcDbEntity
  8
0
  6
CONTINUOUS
 62
     7
100
AcDbVertex
100
AcDb2dVertex
 10
8.357276446
 20
7.3510520933
 30
0.0
  0
VERTEX
  5
47D
330
266
100
AcDbEntity
  8
0
  6
CONTINUOUS
 62
     7
100
AcDbVertex
100
AcDb2dVertex
 10
8.3842519443
 20
7.3683627244
 30
0.0
  0
VERTEX
  5
47E
330
266
100
AcDbEntity
  8
0
  6
CONTINUOUS
 62
     7
100
AcDbVertex
100
AcDb2dVertex
 10
8.4112684462
 20
7.384220799
 30
0.0
  0
VERTEX
  5
47F
330
266
100
AcDbEntity
  8
0
  6
CONTINUOUS
 62
     7
100
AcDbVertex
100
AcDb2dVertex
 10
8.4382654027
 20
7.398590776
 30
0.0
  0
VERTEX
  5
480
330
266
100
AcDbEntity
  8
0
  6
CONTINUOUS
 62
     7
100
AcDbVertex
100
AcDb2dVertex
 10
8.4651823083
 20
7.4114404497
 30
0.0
  0
VERTEX
  5
481
330
266
100
AcDbEntity
  8
0
  6
CONTINUOUS
 62
     7
100
AcDbVertex
100
AcDb2dVertex
 10
8.4919588373
 20
7.4227410214
 30
0.0
  0
VERTEX
  5
482
330
266
100
AcDbEntity
  8
0
  6
CONTINUOUS
 62
     7
100
AcDbVertex
100
AcDb2dVertex
 10
8.5185349783
 20
7.4324671646
 30
0.0
  0
VERTEX
  5
483
330
266
100
AcDbEntity
  8
0
  6
CONTINUOUS
 62
     7
100
AcDbVertex
100
AcDb2dVertex
 10
8.5448511692
 20
7.440597081
 30
0.0
  0
VERTEX
  5
484
330
266
100
AcDbEntity
  8
0
  6
CONTINUOUS
 62
     7
100
AcDbVertex
100
AcDb2dVertex
 10
8.5708484305
 20
7.4471125499
 30
0.0
  0
VERTEX
  5
485
330
266
100
AcDbEntity
  8
0
  6
CONTINUOUS
 62
     7
100
AcDbVertex
100
AcDb2dVertex
 10
8.5964684974
 20
7.451998969
 30
0.0
  0
VERTEX
  5
486
330
266
100
AcDbEntity
  8
0
  6
CONTINUOUS
 62
     7
100
AcDbVertex
100
AcDb2dVertex
 10
8.6216539504
 20
7.4552453869
 30
0.0
  0
VERTEX
  5
487
330
266
100
AcDbEntity
  8
0
  6
CONTINUOUS
 62
     7
100
AcDbVertex
100
AcDb2dVertex
 10
8.6463483442
 20
7.4568445278
 30
0.0
  0
VERTEX
  5
488
330
266
100
AcDbEntity
  8
0
  6
CONTINUOUS
 62
     7
100
AcDbVertex
100
AcDb2dVertex
 10
8.670496334
 20
7.4567928076
 30
0.0
  0
SEQEND
  5
489
330
266
100
AcDbEntity
  8
0
  6
CONTINUOUS
 62
     7
  0
LINE
  5
267
330
1F
100
AcDbEntity
  8
0
  6
CONTINUOUS
 62
     7
100
AcDbLine
 10
8.8725653218
 20
6.7176074245
 30
0.0
 11
8.8725653218
 21
6.7015337865
 31
0.0
  0
LINE
  5
268
330
1F
100
AcDbEntity
  8
0
  6
CONTINUOUS
 62
     7
100
AcDbLine
 10
8.8725653218
 20
6.7176074245
 30
0.0
 11
8.8189966424
 21
6.6866828841
 31
0.0
  0
POLYLINE
  5
269
330
1F
100
AcDbEntity
  8
0
  6
CONTINUOUS
 62
     7
100
AcDb2dPolyline
 66
     1
 10
0.0
 20
0.0
 30
0.0
  0
VERTEX
  5
48A
330
269
100
AcDbEntity
  8
0
  6
CONTINUOUS
 62
     7
100
AcDbVertex
100
AcDb2dVertex
 10
8.4746050238
 20
6.4878698346
 30
0.0
  0
VERTEX
  5
48B
330
269
100
AcDbEntity
  8
0
  6
CONTINUOUS
 62
     7
100
AcDbVertex
100
AcDb2dVertex
 10
8.4758709221
 20
6.5059370747
 30
0.0
  0
VERTEX
  5
48C
330
269
100
AcDbEntity
  8
0
  6
CONTINUOUS
 62
     7
100
AcDbVertex
100
AcDb2dVertex
 10
8.4784432187
 20
6.5245645574
 30
0.0
  0
VERTEX
  5
48D
330
269
100
AcDbEntity
  8
0
  6
CONTINUOUS
 62
     7
100
AcDbVertex
100
AcDb2dVertex
 10
8.4823022537
 20
6.5436099148
 30
0.0
  0
VERTEX
  5
48E
330
269
100
AcDbEntity
  8
0
  6
CONTINUOUS
 62
     7
100
AcDbVertex
100
AcDb2dVertex
 10
8.487418533
 20
6.5629275856
 30
0.0
  0
VERTEX
  5
48F
330
269
100
AcDbEntity
  8
0
  6
CONTINUOUS
 62
     7
100
AcDbVertex
100
AcDb2dVertex
 10
8.4937529534
 20
6.5823699267
 30
0.0
  0
VERTEX
  5
490
330
269
100
AcDbEntity
  8
0
  6
CONTINUOUS
 62
     7
100
AcDbVertex
100
AcDb2dVertex
 10
8.5012571017
 20
6.6017883427
 30
0.0
  0
VERTEX
  5
491
330
269
100
AcDbEntity
  8
0
  6
CONTINUOUS
 62
     7
100
AcDbVertex
100
AcDb2dVertex
 10
8.5098736245
 20
6.6210344207
 30
0.0
  0
VERTEX
  5
492
330
269
100
AcDbEntity
  8
0
  6
CONTINUOUS
 62
     7
100
AcDbVertex
100
AcDb2dVertex
 10
8.5195366667
 20
6.6399610651
 30
0.0
  0
VERTEX
  5
493
330
269
100
AcDbEntity
  8
0
  6
CONTINUOUS
 62
     7
100
AcDbVertex
100
AcDb2dVertex
 10
8.5301723747
 20
6.6584236217
 30
0.0
  0
VERTEX
  5
494
330
269
100
AcDbEntity
  8
0
  6
CONTINUOUS
 62
     7
100
AcDbVertex
100
AcDb2dVertex
 10
8.5416994609
 20
6.6762809831
 30
0.0
  0
VERTEX
  5
495
330
269
100
AcDbEntity
  8
0
  6
CONTINUOUS
 62
     7
100
AcDbVertex
100
AcDb2dVertex
 10
8.5540298253
 20
6.6933966677
 30
0.0
  0
VERTEX
  5
496
330
269
100
AcDbEntity
  8
0
  6
CONTINUOUS
 62
     7
100
AcDbVertex
100
AcDb2dVertex
 10
8.5670692281
 20
6.709639862
 30
0.0
  0
VERTEX
  5
497
330
269
100
AcDbEntity
  8
0
  6
CONTINUOUS
 62
     7
100
AcDbVertex
100
AcDb2dVertex
 10
8.5807180106
 20
6.7248864213
 30
0.0
  0
VERTEX
  5
498
330
269
100
AcDbEntity
  8
0
  6
CONTINUOUS
 62
     7
100
AcDbVertex
100
AcDb2dVertex
 10
8.5948718568
 20
6.7390198177
 30
0.0
  0
VERTEX
  5
499
330
269
100
AcDbEntity
  8
0
  6
CONTINUOUS
 62
     7
100
AcDbVertex
100
AcDb2dVertex
 10
8.6094225904
 20
6.7519320313
 30
0.0
  0
VERTEX
  5
49A
330
269
100
AcDbEntity
  8
0
  6
CONTINUOUS
 62
     7
100
AcDbVertex
100
AcDb2dVertex
 10
8.6242590017
 20
6.7635243754
 30
0.0
  0
VERTEX
  5
49B
330
269
100
AcDbEntity
  8
0
  6
CONTINUOUS
 62
     7
100
AcDbVertex
100
AcDb2dVertex
 10
8.6392676976
 20
6.7737082511
 30
0.0
  0
VERTEX
  5
49C
330
269
100
AcDbEntity
  8
0
  6
CONTINUOUS
 62
     7
100
AcDbVertex
100
AcDb2dVertex
 10
8.6543339686
 20
6.7824058242
 30
0.0
  0
VERTEX
  5
49D
330
269
100
AcDbEntity
  8
0
  6
CONTINUOUS
 62
     7
100
AcDbVertex
100
AcDb2dVertex
 10
8.6693426646
 20
6.78955062
 30
0.0
  0
VERTEX
  5
49E
330
269
100
AcDbEntity
  8
0
  6
CONTINUOUS
 62
     7
100
AcDbVertex
100
AcDb2dVertex
 10
8.6841790758
 20
6.7950880317
 30
0.0
  0
VERTEX
  5
49F
330
269
100
AcDbEntity
  8
0
  6
CONTINUOUS
 62
     7
100
AcDbVertex
100
AcDb2dVertex
 10
8.6987298094
 20
6.7989757375
 30
0.0
  0
VERTEX
  5
4A0
330
269
100
AcDbEntity
  8
0
  6
CONTINUOUS
 62
     7
100
AcDbVertex
100
AcDb2dVertex
 10
8.7128836556
 20
6.8011840241
 30
0.0
  0
VERTEX
  5
4A1
330
269
100
AcDbEntity
  8
0
  6
CONTINUOUS
 62
     7
100
AcDbVertex
100
AcDb2dVertex
 10
8.7265324381
 20
6.8016960137
 30
0.0
  0
VERTEX
  5
4A2
330
269
100
AcDbEntity
  8
0
  6
CONTINUOUS
 62
     7
100
AcDbVertex
100
AcDb2dVertex
 10
8.7395718409
 20
6.8005077934
 30
0.0
  0
VERTEX
  5
4A3
330
269
100
AcDbEntity
  8
0
  6
CONTINUOUS
 62
     7
100
AcDbVertex
100
AcDb2dVertex
 10
8.7519022053
 20
6.7976284445
 30
0.0
  0
VERTEX
  5
4A4
330
269
100
AcDbEntity
  8
0
  6
CONTINUOUS
 62
     7
100
AcDbVertex
100
AcDb2dVertex
 10
8.7634292915
 20
6.7930799735
 30
0.0
  0
VERTEX
  5
4A5
330
269
100
AcDbEntity
  8
0
  6
CONTINUOUS
 62
     7
100
AcDbVertex
100
AcDb2dVertex
 10
8.7740649995
 20
6.786897144
 30
0.0
  0
VERTEX
  5
4A6
330
269
100
AcDbEntity
  8
0
  6
CONTINUOUS
 62
     7
100
AcDbVertex
100
AcDb2dVertex
 10
8.7837280417
 20
6.7791272106
 30
0.0
  0
VERTEX
  5
4A7
330
269
100
AcDbEntity
  8
0
  6
CONTINUOUS
 62
     7
100
AcDbVertex
100
AcDb2dVertex
 10
8.7923445645
 20
6.7698295581
 30
0.0
  0
VERTEX
  5
4A8
330
269
100
AcDbEntity
  8
0
  6
CONTINUOUS
 62
     7
100
AcDbVertex
100
AcDb2dVertex
 10
8.7998487128
 20
6.7590752473
 30
0.0
  0
VERTEX
  5
4A9
330
269
100
AcDbEntity
  8
0
  6
CONTINUOUS
 62
     7
100
AcDbVertex
100
AcDb2dVertex
 10
8.8061831332
 20
6.7469464723
 30
0.0
  0
VERTEX
  5
4AA
330
269
100
AcDbEntity
  8
0
  6
CONTINUOUS
 62
     7
100
AcDbVertex
100
AcDb2dVertex
 10
8.8112994125
 20
6.7335359319
 30
0.0
  0
VERTEX
  5
4AB
330
269
100
AcDbEntity
  8
0
  6
CONTINUOUS
 62
     7
100
AcDbVertex
100
AcDb2dVertex
 10
8.8151584475
 20
6.7189461214
 30
0.0
  0
VERTEX
  5
4AC
330
269
100
AcDbEntity
  8
0
  6
CONTINUOUS
 62
     7
100
AcDbVertex
100
AcDb2dVertex
 10
8.8177307441
 20
6.7032885492
 30
0.0
  0
VERTEX
  5
4AD
330
269
100
AcDbEntity
  8
0
  6
CONTINUOUS
 62
     7
100
AcDbVertex
100
AcDb2dVertex
 10
8.8189966424
 20
6.6866828841
 30
0.0
  0
SEQEND
  5
4AE
330
269
100
AcDbEntity
  8
0
  6
CONTINUOUS
 62
     7
  0
LINE
  5
26A
330
1F
100
AcDbEntity
  8
0
  6
CONTINUOUS
 62
     7
100
AcDbLine
 10
8.081450553
 20
6.2609065896
 30
0.0
 11
8.4746050238
 21
6.4878698346
 31
0.0
  0
LINE
  5
26B
330
1F
100
AcDbEntity
  8
0
  6
CONTINUOUS
 62
     7
100
AcDbLine
 10
8.081450553
 20
6.2448329516
 30
0.0
 11
8.4746050238
 21
6.4717961965
 31
0.0
  0
POLYLINE
  5
26C
330
1F
100
AcDbEntity
  8
0
  6
CONTINUOUS
 62
     7
100
AcDb2dPolyline
 66
     1
 10
0.0
 20
0.0
 30
0.0
  0
VERTEX
  5
4AF
330
26C
100
AcDbEntity
  8
0
  6
CONTINUOUS
 62
     7
100
AcDbVertex
100
AcDb2dVertex
 10
8.8189966424
 20
6.6706092461
 30
0.0
  0
VERTEX
  5
4B0
330
26C
100
AcDbEntity
  8
0
  6
CONTINUOUS
 62
     7
100
AcDbVertex
100
AcDb2dVertex
 10
8.8177307441
 20
6.652542006
 30
0.0
  0
VERTEX
  5
4B1
330
26C
100
AcDbEntity
  8
0
  6
CONTINUOUS
 62
     7
100
AcDbVertex
100
AcDb2dVertex
 10
8.8151584475
 20
6.6339145233
 30
0.0
  0
VERTEX
  5
4B2
330
26C
100
AcDbEntity
  8
0
  6
CONTINUOUS
 62
     7
100
AcDbVertex
100
AcDb2dVertex
 10
8.8112994125
 20
6.6148691658
 30
0.0
  0
VERTEX
  5
4B3
330
26C
100
AcDbEntity
  8
0
  6
CONTINUOUS
 62
     7
100
AcDbVertex
100
AcDb2dVertex
 10
8.8061831332
 20
6.5955514951
 30
0.0
  0
VERTEX
  5
4B4
330
26C
100
AcDbEntity
  8
0
  6
CONTINUOUS
 62
     7
100
AcDbVertex
100
AcDb2dVertex
 10
8.7998487128
 20
6.576109154
 30
0.0
  0
VERTEX
  5
4B5
330
26C
100
AcDbEntity
  8
0
  6
CONTINUOUS
 62
     7
100
AcDbVertex
100
AcDb2dVertex
 10
8.7923445645
 20
6.556690738
 30
0.0
  0
VERTEX
  5
4B6
330
26C
100
AcDbEntity
  8
0
  6
CONTINUOUS
 62
     7
100
AcDbVertex
100
AcDb2dVertex
 10
8.7837280417
 20
6.53744466
 30
0.0
  0
VERTEX
  5
4B7
330
26C
100
AcDbEntity
  8
0
  6
CONTINUOUS
 62
     7
100
AcDbVertex
100
AcDb2dVertex
 10
8.7740649995
 20
6.5185180156
 30
0.0
  0
VERTEX
  5
4B8
330
26C
100
AcDbEntity
  8
0
  6
CONTINUOUS
 62
     7
100
AcDbVertex
100
AcDb2dVertex
 10
8.7634292915
 20
6.500055459
 30
0.0
  0
VERTEX
  5
4B9
330
26C
100
AcDbEntity
  8
0
  6
CONTINUOUS
 62
     7
100
AcDbVertex
100
AcDb2dVertex
 10
8.7519022053
 20
6.4821980976
 30
0.0
  0
VERTEX
  5
4BA
330
26C
100
AcDbEntity
  8
0
  6
CONTINUOUS
 62
     7
100
AcDbVertex
100
AcDb2dVertex
 10
8.7395718409
 20
6.465082413
 30
0.0
  0
VERTEX
  5
4BB
330
26C
100
AcDbEntity
  8
0
  6
CONTINUOUS
 62
     7
100
AcDbVertex
100
AcDb2dVertex
 10
8.7265324381
 20
6.4488392186
 30
0.0
  0
VERTEX
  5
4BC
330
26C
100
AcDbEntity
  8
0
  6
CONTINUOUS
 62
     7
100
AcDbVertex
100
AcDb2dVertex
 10
8.7128836556
 20
6.4335926594
 30
0.0
  0
VERTEX
  5
4BD
330
26C
100
AcDbEntity
  8
0
  6
CONTINUOUS
 62
     7
100
AcDbVertex
100
AcDb2dVertex
 10
8.6987298094
 20
6.419459263
 30
0.0
  0
VERTEX
  5
4BE
330
26C
100
AcDbEntity
  8
0
  6
CONTINUOUS
 62
     7
100
AcDbVertex
100
AcDb2dVertex
 10
8.6841790758
 20
6.4065470494
 30
0.0
  0
VERTEX
  5
4BF
330
26C
100
AcDbEntity
  8
0
  6
CONTINUOUS
 62
     7
100
AcDbVertex
100
AcDb2dVertex
 10
8.6693426646
 20
6.3949547053
 30
0.0
  0
VERTEX
  5
4C0
330
26C
100
AcDbEntity
  8
0
  6
CONTINUOUS
 62
     7
100
AcDbVertex
100
AcDb2dVertex
 10
8.6543339686
 20
6.3847708296
 30
0.0
  0
VERTEX
  5
4C1
330
26C
100
AcDbEntity
  8
0
  6
CONTINUOUS
 62
     7
100
AcDbVertex
100
AcDb2dVertex
 10
8.6392676976
 20
6.3760732565
 30
0.0
  0
VERTEX
  5
4C2
330
26C
100
AcDbEntity
  8
0
  6
CONTINUOUS
 62
     7
100
AcDbVertex
100
AcDb2dVertex
 10
8.6242590017
 20
6.3689284607
 30
0.0
  0
VERTEX
  5
4C3
330
26C
100
AcDbEntity
  8
0
  6
CONTINUOUS
 62
     7
100
AcDbVertex
100
AcDb2dVertex
 10
8.6094225904
 20
6.3633910489
 30
0.0
  0
VERTEX
  5
4C4
330
26C
100
AcDbEntity
  8
0
  6
CONTINUOUS
 62
     7
100
AcDbVertex
100
AcDb2dVertex
 10
8.5948718568
 20
6.3595033431
 30
0.0
  0
VERTEX
  5
4C5
330
26C
100
AcDbEntity
  8
0
  6
CONTINUOUS
 62
     7
100
AcDbVertex
100
AcDb2dVertex
 10
8.5807180106
 20
6.3572950566
 30
0.0
  0
VERTEX
  5
4C6
330
26C
100
AcDbEntity
  8
0
  6
CONTINUOUS
 62
     7
100
AcDbVertex
100
AcDb2dVertex
 10
8.5670692281
 20
6.3567830669
 30
0.0
  0
VERTEX
  5
4C7
330
26C
100
AcDbEntity
  8
0
  6
CONTINUOUS
 62
     7
100
AcDbVertex
100
AcDb2dVertex
 10
8.5540298253
 20
6.3579712873
 30
0.0
  0
VERTEX
  5
4C8
330
26C
100
AcDbEntity
  8
0
  6
CONTINUOUS
 62
     7
100
AcDbVertex
100
AcDb2dVertex
 10
8.5416994609
 20
6.3608506362
 30
0.0
  0
VERTEX
  5
4C9
330
26C
100
AcDbEntity
  8
0
  6
CONTINUOUS
 62
     7
100
AcDbVertex
100
AcDb2dVertex
 10
8.5301723747
 20
6.3653991072
 30
0.0
  0
VERTEX
  5
4CA
330
26C
100
AcDbEntity
  8
0
  6
CONTINUOUS
 62
     7
100
AcDbVertex
100
AcDb2dVertex
 10
8.5195366667
 20
6.3715819367
 30
0.0
  0
VERTEX
  5
4CB
330
26C
100
AcDbEntity
  8
0
  6
CONTINUOUS
 62
     7
100
AcDbVertex
100
AcDb2dVertex
 10
8.5098736245
 20
6.37935187
 30
0.0
  0
VERTEX
  5
4CC
330
26C
100
AcDbEntity
  8
0
  6
CONTINUOUS
 62
     7
100
AcDbVertex
100
AcDb2dVertex
 10
8.5012571017
 20
6.3886495226
 30
0.0
  0
VERTEX
  5
4CD
330
26C
100
AcDbEntity
  8
0
  6
CONTINUOUS
 62
     7
100
AcDbVertex
100
AcDb2dVertex
 10
8.4937529534
 20
6.3994038334
 30
0.0
  0
VERTEX
  5
4CE
330
26C
100
AcDbEntity
  8
0
  6
CONTINUOUS
 62
     7
100
AcDbVertex
100
AcDb2dVertex
 10
8.487418533
 20
6.4115326084
 30
0.0
  0
VERTEX
  5
4CF
330
26C
100
AcDbEntity
  8
0
  6
CONTINUOUS
 62
     7
100
AcDbVertex
100
AcDb2dVertex
 10
8.4823022537
 20
6.4249431488
 30
0.0
  0
VERTEX
  5
4D0
330
26C
100
AcDbEntity
  8
0
  6
CONTINUOUS
 62
     7
100
AcDbVertex
100
AcDb2dVertex
 10
8.4784432187
 20
6.4395329592
 30
0.0
  0
VERTEX
  5
4D1
330
26C
100
AcDbEntity
  8
0
  6
CONTINUOUS
 62
     7
100
AcDbVertex
100
AcDb2dVertex
 10
8.4758709221
 20
6.4551905315
 30
0.0
  0
VERTEX
  5
4D2
330
26C
100
AcDbEntity
  8
0
  6
CONTINUOUS
 62
     7
100
AcDbVertex
100
AcDb2dVertex
 10
8.4746050238
 20
6.4717961965
 30
0.0
  0
SEQEND
  5
4D3
330
26C
100
AcDbEntity
  8
0
  6
CONTINUOUS
 62
     7
  0
LINE
  5
26D
330
1F
100
AcDbEntity
  8
0
  6
CONTINUOUS
 62
     7
100
AcDbLine
 10
8.8189966424
 20
6.6706092461
 30
0.0
 11
8.8725653218
 21
6.7015337865
 31
0.0
  0
LINE
  5
26E
330
1F
100
AcDbEntity
  8
0
  6
CONTINUOUS
 62
     7
100
AcDbLine
 10
8.670496334
 20
7.4462645997
 30
0.0
 11
8.670496334
 21
7.4567928076
 31
0.0
  0
LINE
  5
26F
330
1F
100
AcDbEntity
  8
0
  6
CONTINUOUS
 62
     7
100
AcDbLine
 10
8.4746050238
 20
6.4717961965
 30
0.0
 11
8.4746094913
 21
6.4779218364
 31
0.0
  0
LINE
  5
270
330
1F
100
AcDbEntity
  8
0
  6
CONTINUOUS
 62
     7
100
AcDbLine
 10
8.4659911049
 20
6.482897125
 30
0.0
 11
8.4746094913
 21
6.4779218364
 31
0.0
  0
LINE
  5
271
330
1F
100
AcDbEntity
  8
0
  6
CONTINUOUS
 62
     7
100
AcDbLine
 10
7.8643743474
 20
6.3800984952
 30
0.0
 11
7.8504526601
 21
6.3720616762
 31
0.0
  0
LINE
  5
272
330
1F
100
AcDbEntity
  8
0
  6
CONTINUOUS
 62
     7
100
AcDbLine
 10
8.8083855732
 20
6.6866803051
 30
0.0
 11
8.8189966424
 21
6.6866828841
 31
0.0
  0
POLYLINE
  5
273
330
1F
100
AcDbEntity
  8
0
  6
CONTINUOUS
 62
     7
100
AcDb2dPolyline
 66
     1
 10
0.0
 20
0.0
 30
0.0
  0
VERTEX
  5
4D4
330
273
100
AcDbEntity
  8
0
  6
CONTINUOUS
 62
     7
100
AcDbVertex
100
AcDb2dVertex
 10
8.8083855732
 20
6.6866803051
 30
0.0
  0
VERTEX
  5
4D5
330
273
100
AcDbEntity
  8
0
  6
CONTINUOUS
 62
     7
100
AcDbVertex
100
AcDb2dVertex
 10
8.807085742
 20
6.7032085241
 30
0.0
  0
VERTEX
  5
4D6
330
273
100
AcDbEntity
  8
0
  6
CONTINUOUS
 62
     7
100
AcDbVertex
100
AcDb2dVertex
 10
8.804447096
 20
6.7187591815
 30
0.0
  0
VERTEX
  5
4D7
330
273
100
AcDbEntity
  8
0
  6
CONTINUOUS
 62
     7
100
AcDbVertex
100
AcDb2dVertex
 10
8.8004909692
 20
6.7332065468
 30
0.0
  0
VERTEX
  5
4D8
330
273
100
AcDbEntity
  8
0
  6
CONTINUOUS
 62
     7
100
AcDbVertex
100
AcDb2dVertex
 10
8.7952493477
 20
6.7464338103
 30
0.0
  0
VERTEX
  5
4D9
330
273
100
AcDbEntity
  8
0
  6
CONTINUOUS
 62
     7
100
AcDbVertex
100
AcDb2dVertex
 10
8.7887646111
 20
6.7583340268
 30
0.0
  0
VERTEX
  5
4DA
330
273
100
AcDbEntity
  8
0
  6
CONTINUOUS
 62
     7
100
AcDbVertex
100
AcDb2dVertex
 10
8.7810891897
 20
6.7688109805
 30
0.0
  0
VERTEX
  5
4DB
330
273
100
AcDbEntity
  8
0
  6
CONTINUOUS
 62
     7
100
AcDbVertex
100
AcDb2dVertex
 10
8.7722851411
 20
6.7777799632
 30
0.0
  0
VERTEX
  5
4DC
330
273
100
AcDbEntity
  8
0
  6
CONTINUOUS
 62
     7
100
AcDbVertex
100
AcDb2dVertex
 10
8.7624236477
 20
6.7851684587
 30
0.0
  0
VERTEX
  5
4DD
330
273
100
AcDbEntity
  8
0
  6
CONTINUOUS
 62
     7
100
AcDbVertex
100
AcDb2dVertex
 10
8.7515844416
 20
6.7909167296
 30
0.0
  0
VERTEX
  5
4DE
330
273
100
AcDbEntity
  8
0
  6
CONTINUOUS
 62
     7
100
AcDbVertex
100
AcDb2dVertex
 10
8.7398551603
 20
6.7949782998
 30
0.0
  0
VERTEX
  5
4DF
330
273
100
AcDbEntity
  8
0
  6
CONTINUOUS
 62
     7
100
AcDbVertex
100
AcDb2dVertex
 10
8.7273306372
 20
6.7973203308
 30
0.0
  0
VERTEX
  5
4E0
330
273
100
AcDbEntity
  8
0
  6
CONTINUOUS
 62
     7
100
AcDbVertex
100
AcDb2dVertex
 10
8.7141121358
 20
6.7979238868
 30
0.0
  0
VERTEX
  5
4E1
330
273
100
AcDbEntity
  8
0
  6
CONTINUOUS
 62
     7
100
AcDbVertex
100
AcDb2dVertex
 10
8.7003065304
 20
6.7967840878
 30
0.0
  0
VERTEX
  5
4E2
330
273
100
AcDbEntity
  8
0
  6
CONTINUOUS
 62
     7
100
AcDbVertex
100
AcDb2dVertex
 10
8.686025442
 20
6.7939101495
 30
0.0
  0
VERTEX
  5
4E3
330
273
100
AcDbEntity
  8
0
  6
CONTINUOUS
 62
     7
100
AcDbVertex
100
AcDb2dVertex
 10
8.6713843364
 20
6.7893253081
 30
0.0
  0
VERTEX
  5
4E4
330
273
100
AcDbEntity
  8
0
  6
CONTINUOUS
 62
     7
100
AcDbVertex
100
AcDb2dVertex
 10
8.6565015898
 20
6.7830666331
 30
0.0
  0
VERTEX
  5
4E5
330
273
100
AcDbEntity
  8
0
  6
CONTINUOUS
 62
     7
100
AcDbVertex
100
AcDb2dVertex
 10
8.6441008898
 20
6.7766641844
 30
0.0
  0
SEQEND
  5
4E6
330
273
100
AcDbEntity
  8
0
  6
CONTINUOUS
 62
     7
  0
LINE
  5
274
330
1F
100
AcDbEntity
  8
0
  6
CONTINUOUS
 62
     7
100
AcDbLine
 10
8.8083855732
 20
6.6866803051
 30
0.0
 11
8.6616700964
 21
6.771377347
 31
0.0
  0
SPLINE
  5
275
330
1F
100
AcDbEntity
  8
0
  6
CONTINUOUS
 62
     7
100
AcDbSpline
210
0.0
220
0.0
230
1.0
 70
     8
 71
     3
 72
     8
 73
     4
 74
     0
 42
0.00000001
 43
0.00000001
 40
0.0
 40
0.0
 40
0.0
 40
0.0
 40
1.0
 40
1.0
 40
1.0
 40
1.0
 10
8.661670096449702
 20
6.771377346976648
 30
0.0
 10
8.662075919716305
 20
6.766008593550666
 30
0.0
 10
8.662075919716305
 20
6.760650714207583
 30
0.0
 10
8.661670096449702
 20
6.7553037089474
 30
0.0
  0
LINE
  5
276
330
1F
100
AcDbEntity
  8
0
  6
CONTINUOUS
 62
     7
100
AcDbLine
 10
8.8083855732
 20
6.6706066671
 30
0.0
 11
8.6616700964
 21
6.7553037089
 31
0.0
  0
POLYLINE
  5
277
330
1F
100
AcDbEntity
  8
0
  6
CONTINUOUS
 62
     7
100
AcDb2dPolyline
 66
     1
 10
0.0
 20
0.0
 30
0.0
  0
VERTEX
  5
4E7
330
277
100
AcDbEntity
  8
0
  6
CONTINUOUS
 62
     7
100
AcDbVertex
100
AcDb2dVertex
 10
8.4746094913
 20
6.4779218364
 30
0.0
  0
VERTEX
  5
4E8
330
277
100
AcDbEntity
  8
0
  6
CONTINUOUS
 62
     7
100
AcDbVertex
100
AcDb2dVertex
 10
8.4759093225
 20
6.4613936174
 30
0.0
  0
VERTEX
  5
4E9
330
277
100
AcDbEntity
  8
0
  6
CONTINUOUS
 62
     7
100
AcDbVertex
100
AcDb2dVertex
 10
8.4785479685
 20
6.4458429601
 30
0.0
  0
VERTEX
  5
4EA
330
277
100
AcDbEntity
  8
0
  6
CONTINUOUS
 62
     7
100
AcDbVertex
100
AcDb2dVertex
 10
8.4825040953
 20
6.4313955947
 30
0.0
  0
VERTEX
  5
4EB
330
277
100
AcDbEntity
  8
0
  6
CONTINUOUS
 62
     7
100
AcDbVertex
100
AcDb2dVertex
 10
8.4877457168
 20
6.4181683312
 30
0.0
  0
VERTEX
  5
4EC
330
277
100
AcDbEntity
  8
0
  6
CONTINUOUS
 62
     7
100
AcDbVertex
100
AcDb2dVertex
 10
8.4942304534
 20
6.4062681147
 30
0.0
  0
VERTEX
  5
4ED
330
277
100
AcDbEntity
  8
0
  6
CONTINUOUS
 62
     7
100
AcDbVertex
100
AcDb2dVertex
 10
8.5019058747
 20
6.395791161
 30
0.0
  0
VERTEX
  5
4EE
330
277
100
AcDbEntity
  8
0
  6
CONTINUOUS
 62
     7
100
AcDbVertex
100
AcDb2dVertex
 10
8.5107099234
 20
6.3868221783
 30
0.0
  0
VERTEX
  5
4EF
330
277
100
AcDbEntity
  8
0
  6
CONTINUOUS
 62
     7
100
AcDbVertex
100
AcDb2dVertex
 10
8.5205714168
 20
6.3794336828
 30
0.0
  0
VERTEX
  5
4F0
330
277
100
AcDbEntity
  8
0
  6
CONTINUOUS
 62
     7
100
AcDbVertex
100
AcDb2dVertex
 10
8.5314106228
 20
6.373685412
 30
0.0
  0
VERTEX
  5
4F1
330
277
100
AcDbEntity
  8
0
  6
CONTINUOUS
 62
     7
100
AcDbVertex
100
AcDb2dVertex
 10
8.5431399042
 20
6.3696238417
 30
0.0
  0
VERTEX
  5
4F2
330
277
100
AcDbEntity
  8
0
  6
CONTINUOUS
 62
     7
100
AcDbVertex
100
AcDb2dVertex
 10
8.5556644273
 20
6.3672818107
 30
0.0
  0
VERTEX
  5
4F3
330
277
100
AcDbEntity
  8
0
  6
CONTINUOUS
 62
     7
100
AcDbVertex
100
AcDb2dVertex
 10
8.5688829287
 20
6.3666782547
 30
0.0
  0
VERTEX
  5
4F4
330
277
100
AcDbEntity
  8
0
  6
CONTINUOUS
 62
     7
100
AcDbVertex
100
AcDb2dVertex
 10
8.5826885341
 20
6.3678180537
 30
0.0
  0
VERTEX
  5
4F5
330
277
100
AcDbEntity
  8
0
  6
CONTINUOUS
 62
     7
100
AcDbVertex
100
AcDb2dVertex
 10
8.5969696224
 20
6.370691992
 30
0.0
  0
VERTEX
  5
4F6
330
277
100
AcDbEntity
  8
0
  6
CONTINUOUS
 62
     7
100
AcDbVertex
100
AcDb2dVertex
 10
8.6116107281
 20
6.3752768334
 30
0.0
  0
VERTEX
  5
4F7
330
277
100
AcDbEntity
  8
0
  6
CONTINUOUS
 62
     7
100
AcDbVertex
100
AcDb2dVertex
 10
8.6264934747
 20
6.3815355084
 30
0.0
  0
VERTEX
  5
4F8
330
277
100
AcDbEntity
  8
0
  6
CONTINUOUS
 62
     7
100
AcDbVertex
100
AcDb2dVertex
 10
8.6414975322
 20
6.3894174144
 30
0.0
  0
VERTEX
  5
4F9
330
277
100
AcDbEntity
  8
0
  6
CONTINUOUS
 62
     7
100
AcDbVertex
100
AcDb2dVertex
 10
8.6565015898
 20
6.3988588245
 30
0.0
  0
VERTEX
  5
4FA
330
277
100
AcDbEntity
  8
0
  6
CONTINUOUS
 62
     7
100
AcDbVertex
100
AcDb2dVertex
 10
8.6713843364
 20
6.409783403
 30
0.0
  0
VERTEX
  5
4FB
330
277
100
AcDbEntity
  8
0
  6
CONTINUOUS
 62
     7
100
AcDbVertex
100
AcDb2dVertex
 10
8.686025442
 20
6.4221028224
 30
0.0
  0
VERTEX
  5
4FC
330
277
100
AcDbEntity
  8
0
  6
CONTINUOUS
 62
     7
100
AcDbVertex
100
AcDb2dVertex
 10
8.7003065304
 20
6.4357174776
 30
0.0
  0
VERTEX
  5
4FD
330
277
100
AcDbEntity
  8
0
  6
CONTINUOUS
 62
     7
100
AcDbVertex
100
AcDb2dVertex
 10
8.7141121358
 20
6.4505172914
 30
0.0
  0
VERTEX
  5
4FE
330
277
100
AcDbEntity
  8
0
  6
CONTINUOUS
 62
     7
100
AcDbVertex
100
AcDb2dVertex
 10
8.7273306372
 20
6.4663826043
 30
0.0
  0
VERTEX
  5
4FF
330
277
100
AcDbEntity
  8
0
  6
CONTINUOUS
 62
     7
100
AcDbVertex
100
AcDb2dVertex
 10
8.7398551603
 20
6.4831851418
 30
0.0
  0
VERTEX
  5
500
330
277
100
AcDbEntity
  8
0
  6
CONTINUOUS
 62
     7
100
AcDbVertex
100
AcDb2dVertex
 10
8.7515844416
 20
6.5007890521
 30
0.0
  0
VERTEX
  5
501
330
277
100
AcDbEntity
  8
0
  6
CONTINUOUS
 62
     7
100
AcDbVertex
100
AcDb2dVertex
 10
8.7624236477
 20
6.5190520038
 30
0.0
  0
VERTEX
  5
502
330
277
100
AcDbEntity
  8
0
  6
CONTINUOUS
 62
     7
100
AcDbVertex
100
AcDb2dVertex
 10
8.7722851411
 20
6.5378263373
 30
0.0
  0
VERTEX
  5
503
330
277
100
AcDbEntity
  8
0
  6
CONTINUOUS
 62
     7
100
AcDbVertex
100
AcDb2dVertex
 10
8.7810891897
 20
6.5569602582
 30
0.0
  0
VERTEX
  5
504
330
277
100
AcDbEntity
  8
0
  6
CONTINUOUS
 62
     7
100
AcDbVertex
100
AcDb2dVertex
 10
8.7887646111
 20
6.5762990647
 30
0.0
  0
VERTEX
  5
505
330
277
100
AcDbEntity
  8
0
  6
CONTINUOUS
 62
     7
100
AcDbVertex
100
AcDb2dVertex
 10
8.7952493477
 20
6.5956863987
 30
0.0
  0
VERTEX
  5
506
330
277
100
AcDbEntity
  8
0
  6
CONTINUOUS
 62
     7
100
AcDbVertex
100
AcDb2dVertex
 10
8.8004909692
 20
6.6149655096
 30
0.0
  0
VERTEX
  5
507
330
277
100
AcDbEntity
  8
0
  6
CONTINUOUS
 62
     7
100
AcDbVertex
100
AcDb2dVertex
 10
8.804447096
 20
6.6339805218
 30
0.0
  0
VERTEX
  5
508
330
277
100
AcDbEntity
  8
0
  6
CONTINUOUS
 62
     7
100
AcDbVertex
100
AcDb2dVertex
 10
8.807085742
 20
6.6525776949
 30
0.0
  0
VERTEX
  5
509
330
277
100
AcDbEntity
  8
0
  6
CONTINUOUS
 62
     7
100
AcDbVertex
100
AcDb2dVertex
 10
8.8083855732
 20
6.6706066671
 30
0.0
  0
SEQEND
  5
50A
330
277
100
AcDbEntity
  8
0
  6
CONTINUOUS
 62
     7
  0
ARC
  5
278
330
1F
100
AcDbEntity
  8
0
  6
CONTINUOUS
 62
     7
100
AcDbCircle
 10
8.1941363028
 20
6.8405572114
 30
0.0
 40
0.398512797621614
100
AcDbArc
 50
318.1909083762
 51
341.8144681565
  0
LINE
  5
279
330
1F
100
AcDbEntity
  8
0
  6
CONTINUOUS
 62
     7
100
AcDbLine
 10
8.8083855732
 20
6.6706066671
 30
0.0
 11
8.8189966424
 21
6.6706092461
 31
0.0
  0
LINE
  5
27A
330
1F
100
AcDbEntity
  8
0
  6
CONTINUOUS
 62
     7
100
AcDbLine
 10
8.8725653218
 20
6.7015337865
 30
0.0
 11
8.8582138536
 21
6.7093224983
 31
0.0
  0
POLYLINE
  5
27B
330
1F
100
AcDbEntity
  8
0
  6
CONTINUOUS
 62
     7
100
AcDb2dPolyline
 66
     1
 10
0.0
 20
0.0
 30
0.0
  0
VERTEX
  5
50B
330
27B
100
AcDbEntity
  8
0
  6
CONTINUOUS
 62
     7
100
AcDbVertex
100
AcDb2dVertex
 10
8.6924398309
 20
6.7536143574
 30
0.0
  0
VERTEX
  5
50C
330
27B
100
AcDbEntity
  8
0
  6
CONTINUOUS
 62
     7
100
AcDbVertex
100
AcDb2dVertex
 10
8.6877714077
 20
6.7539828177
 30
0.0
  0
VERTEX
  5
50D
330
27B
100
AcDbEntity
  8
0
  6
CONTINUOUS
 62
     7
100
AcDbVertex
100
AcDb2dVertex
 10
8.6616700964
 20
6.7553037089
 30
0.0
  0
SEQEND
  5
50E
330
27B
100
AcDbEntity
  8
0
  6
CONTINUOUS
 62
     7
  0
LINE
  5
27C
330
1F
100
AcDbEntity
  8
0
  6
CONTINUOUS
 62
     7
100
AcDbLine
 10
8.0334308861
 20
6.8867452494
 30
0.0
 11
8.0334183677
 21
6.8877784757
 31
0.0
  0
LINE
  5
27D
330
1F
100
AcDbEntity
  8
0
  6
CONTINUOUS
 62
     7
100
AcDbLine
 10
8.1790202471
 20
6.8577908394
 30
0.0
 11
8.2272385491
 21
6.8856266727
 31
0.0
  0
LINE
  5
27E
330
1F
100
AcDbEntity
  8
0
  6
CONTINUOUS
 62
     7
100
AcDbLine
 10
8.2272385491
 20
6.8856266727
 30
0.0
 11
8.2095894257
 21
6.923651128
 31
0.0
  0
LINE
  5
27F
330
1F
100
AcDbEntity
  8
0
  6
CONTINUOUS
 62
     7
100
AcDbLine
 10
8.2095894257
 20
6.923651128
 30
0.0
 11
8.1437220002
 21
6.9338397501
 31
0.0
  0
LINE
  5
280
330
1F
100
AcDbEntity
  8
0
  6
CONTINUOUS
 62
     7
100
AcDbLine
 10
8.1437220002
 20
6.9338397501
 30
0.0
 11
8.0955036982
 21
6.9060039169
 31
0.0
  0
LINE
  5
281
330
1F
100
AcDbEntity
  8
0
  6
CONTINUOUS
 62
     7
100
AcDbLine
 10
8.0955036982
 20
6.9060039169
 30
0.0
 11
8.1131528216
 21
6.8679794615
 31
0.0
  0
LINE
  5
282
330
1F
100
AcDbEntity
  8
0
  6
CONTINUOUS
 62
     7
100
AcDbLine
 10
8.1131528216
 20
6.8679794615
 30
0.0
 11
8.1790202471
 21
6.8577908394
 31
0.0
  0
LINE
  5
283
330
1F
100
AcDbEntity
  8
0
  6
CONTINUOUS
 62
     7
100
AcDbLine
 10
8.2095894257
 20
6.8754380505
 30
0.0
 11
8.2095894257
 21
6.923651128
 31
0.0
  0
LINE
  5
284
330
1F
100
AcDbEntity
  8
0
  6
CONTINUOUS
 62
     7
100
AcDbLine
 10
8.1437220002
 20
6.8632509055
 30
0.0
 11
8.1437220002
 21
6.9338397501
 31
0.0
  0
POLYLINE
  5
285
330
1F
100
AcDbEntity
  8
0
  6
CONTINUOUS
 62
     7
100
AcDb2dPolyline
 66
     1
 10
0.0
 20
0.0
 30
0.0
  0
VERTEX
  5
50F
330
285
100
AcDbEntity
  8
0
  6
CONTINUOUS
 62
     7
100
AcDbVertex
100
AcDb2dVertex
 10
8.2489203054
 20
7.4903050932
 30
0.0
  0
VERTEX
  5
510
330
285
100
AcDbEntity
  8
0
  6
CONTINUOUS
 62
     7
100
AcDbVertex
100
AcDb2dVertex
 10
8.2400098933
 20
7.4906964241
 30
0.0
  0
VERTEX
  5
511
330
285
100
AcDbEntity
  8
0
  6
CONTINUOUS
 62
     7
100
AcDbVertex
100
AcDb2dVertex
 10
8.2282926885
 20
7.489536782
 30
0.0
  0
VERTEX
  5
512
330
285
100
AcDbEntity
  8
0
  6
CONTINUOUS
 62
     7
100
AcDbVertex
100
AcDb2dVertex
 10
8.2161057478
 20
7.4865557808
 30
0.0
  0
VERTEX
  5
513
330
285
100
AcDbEntity
  8
0
  6
CONTINUOUS
 62
     7
100
AcDbVertex
100
AcDb2dVertex
 10
8.203602329
 20
7.4817909083
 30
0.0
  0
VERTEX
  5
514
330
285
100
AcDbEntity
  8
0
  6
CONTINUOUS
 62
     7
100
AcDbVertex
100
AcDb2dVertex
 10
8.19093967
 20
7.4753020856
 30
0.0
  0
VERTEX
  5
515
330
285
100
AcDbEntity
  8
0
  6
CONTINUOUS
 62
     7
100
AcDbVertex
100
AcDb2dVertex
 10
8.178277011
 20
7.4671709134
 30
0.0
  0
VERTEX
  5
516
330
285
100
AcDbEntity
  8
0
  6
CONTINUOUS
 62
     7
100
AcDbVertex
100
AcDb2dVertex
 10
8.1657735923
 20
7.4574996459
 30
0.0
  0
VERTEX
  5
517
330
285
100
AcDbEntity
  8
0
  6
CONTINUOUS
 62
     7
100
AcDbVertex
100
AcDb2dVertex
 10
8.1535866516
 20
7.4464099049
 30
0.0
  0
VERTEX
  5
518
330
285
100
AcDbEntity
  8
0
  6
CONTINUOUS
 62
     7
100
AcDbVertex
100
AcDb2dVertex
 10
8.1418694468
 20
7.4340411503
 30
0.0
  0
VERTEX
  5
519
330
285
100
AcDbEntity
  8
0
  6
CONTINUOUS
 62
     7
100
AcDbVertex
100
AcDb2dVertex
 10
8.1307693285
 20
7.4205489264
 30
0.0
  0
VERTEX
  5
51A
330
285
100
AcDbEntity
  8
0
  6
CONTINUOUS
 62
     7
100
AcDbVertex
100
AcDb2dVertex
 10
8.1204258872
 20
7.4061029058
 30
0.0
  0
VERTEX
  5
51B
330
285
100
AcDbEntity
  8
0
  6
CONTINUOUS
 62
     7
100
AcDbVertex
100
AcDb2dVertex
 10
8.1181069489
 20
7.4025700276
 30
0.0
  0
SEQEND
  5
51C
330
285
100
AcDbEntity
  8
0
  6
CONTINUOUS
 62
     7
  0
POLYLINE
  5
286
330
1F
100
AcDbEntity
  8
0
  6
CONTINUOUS
 62
     7
100
AcDb2dPolyline
 66
     1
 10
0.0
 20
0.0
 30
0.0
  0
VERTEX
  5
51D
330
286
100
AcDbEntity
  8
0
  6
CONTINUOUS
 62
     7
100
AcDbVertex
100
AcDb2dVertex
 10
7.6694427974
 20
6.6254623391
 30
0.0
  0
VERTEX
  5
51E
330
286
100
AcDbEntity
  8
0
  6
CONTINUOUS
 62
     7
100
AcDbVertex
100
AcDb2dVertex
 10
7.6675361573
 20
6.6216748856
 30
0.0
  0
VERTEX
  5
51F
330
286
100
AcDbEntity
  8
0
  6
CONTINUOUS
 62
     7
100
AcDbVertex
100
AcDb2dVertex
 10
7.6601970943
 20
6.6054939104
 30
0.0
  0
VERTEX
  5
520
330
286
100
AcDbEntity
  8
0
  6
CONTINUOUS
 62
     7
100
AcDbVertex
100
AcDb2dVertex
 10
7.6540622757
 20
6.5891343482
 30
0.0
  0
VERTEX
  5
521
330
286
100
AcDbEntity
  8
0
  6
CONTINUOUS
 62
     7
100
AcDbVertex
100
AcDb2dVertex
 10
7.6492088506
 20
6.5728019299
 30
0.0
  0
VERTEX
  5
522
330
286
100
AcDbEntity
  8
0
  6
CONTINUOUS
 62
     7
100
AcDbVertex
100
AcDb2dVertex
 10
7.6456978535
 20
6.5567020451
 30
0.0
  0
VERTEX
  5
523
330
286
100
AcDbEntity
  8
0
  6
CONTINUOUS
 62
     7
100
AcDbVertex
100
AcDb2dVertex
 10
7.6435734372
 20
6.5410371592
 30
0.0
  0
VERTEX
  5
524
330
286
100
AcDbEntity
  8
0
  6
CONTINUOUS
 62
     7
100
AcDbVertex
100
AcDb2dVertex
 10
7.6428623175
 20
6.5260042673
 30
0.0
  0
VERTEX
  5
525
330
286
100
AcDbEntity
  8
0
  6
CONTINUOUS
 62
     7
100
AcDbVertex
100
AcDb2dVertex
 10
7.6435734372
 20
6.5117924167
 30
0.0
  0
VERTEX
  5
526
330
286
100
AcDbEntity
  8
0
  6
CONTINUOUS
 62
     7
100
AcDbVertex
100
AcDb2dVertex
 10
7.6456978535
 20
6.4985803297
 30
0.0
  0
VERTEX
  5
527
330
286
100
AcDbEntity
  8
0
  6
CONTINUOUS
 62
     7
100
AcDbVertex
100
AcDb2dVertex
 10
7.6492088506
 20
6.4865341559
 30
0.0
  0
VERTEX
  5
528
330
286
100
AcDbEntity
  8
0
  6
CONTINUOUS
 62
     7
100
AcDbVertex
100
AcDb2dVertex
 10
7.6540622757
 20
6.4758053829
 30
0.0
  0
VERTEX
  5
529
330
286
100
AcDbEntity
  8
0
  6
CONTINUOUS
 62
     7
100
AcDbVertex
100
AcDb2dVertex
 10
7.6588624731
 20
6.4682738537
 30
0.0
  0
SEQEND
  5
52A
330
286
100
AcDbEntity
  8
0
  6
CONTINUOUS
 62
     7
  0
POLYLINE
  5
287
330
1F
100
AcDbEntity
  8
0
  6
CONTINUOUS
 62
     7
100
AcDb2dPolyline
 66
     1
 10
0.0
 20
0.0
 30
0.0
  0
VERTEX
  5
52B
330
287
100
AcDbEntity
  8
0
  6
CONTINUOUS
 62
     7
100
AcDbVertex
100
AcDb2dVertex
 10
8.5731924061
 20
7.5447395896
 30
0.0
  0
VERTEX
  5
52C
330
287
100
AcDbEntity
  8
0
  6
CONTINUOUS
 62
     7
100
AcDbVertex
100
AcDb2dVertex
 10
8.5664603751
 20
7.5509375778
 30
0.0
  0
VERTEX
  5
52D
330
287
100
AcDbEntity
  8
0
  6
CONTINUOUS
 62
     7
100
AcDbVertex
100
AcDb2dVertex
 10
8.5491662646
 20
7.5651410552
 30
0.0
  0
VERTEX
  5
52E
330
287
100
AcDbEntity
  8
0
  6
CONTINUOUS
 62
     7
100
AcDbVertex
100
AcDb2dVertex
 10
8.5308951127
 20
7.5778028634
 30
0.0
  0
VERTEX
  5
52F
330
287
100
AcDbEntity
  8
0
  6
CONTINUOUS
 62
     7
100
AcDbVertex
100
AcDb2dVertex
 10
8.5116883096
 20
7.5888943193
 30
0.0
  0
VERTEX
  5
530
330
287
100
AcDbEntity
  8
0
  6
CONTINUOUS
 62
     7
100
AcDbVertex
100
AcDb2dVertex
 10
8.4915893648
 20
7.5983902972
 30
0.0
  0
VERTEX
  5
531
330
287
100
AcDbEntity
  8
0
  6
CONTINUOUS
 62
     7
100
AcDbVertex
100
AcDb2dVertex
 10
8.4706438088
 20
7.6062692857
 30
0.0
  0
VERTEX
  5
532
330
287
100
AcDbEntity
  8
0
  6
CONTINUOUS
 62
     7
100
AcDbVertex
100
AcDb2dVertex
 10
8.4488990902
 20
7.6125134362
 30
0.0
  0
VERTEX
  5
533
330
287
100
AcDbEntity
  8
0
  6
CONTINUOUS
 62
     7
100
AcDbVertex
100
AcDb2dVertex
 10
8.4264044676
 20
7.6171086039
 30
0.0
  0
VERTEX
  5
534
330
287
100
AcDbEntity
  8
0
  6
CONTINUOUS
 62
     7
100
AcDbVertex
100
AcDb2dVertex
 10
8.4032108986
 20
7.6200443791
 30
0.0
  0
VERTEX
  5
535
330
287
100
AcDbEntity
  8
0
  6
CONTINUOUS
 62
     7
100
AcDbVertex
100
AcDb2dVertex
 10
8.3793709242
 20
7.6213141114
 30
0.0
  0
VERTEX
  5
536
330
287
100
AcDbEntity
  8
0
  6
CONTINUOUS
 62
     7
100
AcDbVertex
100
AcDb2dVertex
 10
8.3549385496
 20
7.6209149245
 30
0.0
  0
VERTEX
  5
537
330
287
100
AcDbEntity
  8
0
  6
CONTINUOUS
 62
     7
100
AcDbVertex
100
AcDb2dVertex
 10
8.3299691218
 20
7.6188477225
 30
0.0
  0
VERTEX
  5
538
330
287
100
AcDbEntity
  8
0
  6
CONTINUOUS
 62
     7
100
AcDbVertex
100
AcDb2dVertex
 10
8.3045192048
 20
7.6151171885
 30
0.0
  0
VERTEX
  5
539
330
287
100
AcDbEntity
  8
0
  6
CONTINUOUS
 62
     7
100
AcDbVertex
100
AcDb2dVertex
 10
8.2786464507
 20
7.6097317732
 30
0.0
  0
VERTEX
  5
53A
330
287
100
AcDbEntity
  8
0
  6
CONTINUOUS
 62
     7
100
AcDbVertex
100
AcDb2dVertex
 10
8.2524094697
 20
7.6027036764
 30
0.0
  0
VERTEX
  5
53B
330
287
100
AcDbEntity
  8
0
  6
CONTINUOUS
 62
     7
100
AcDbVertex
100
AcDb2dVertex
 10
8.2258676969
 20
7.594048819
 30
0.0
  0
VERTEX
  5
53C
330
287
100
AcDbEntity
  8
0
  6
CONTINUOUS
 62
     7
100
AcDbVertex
100
AcDb2dVertex
 10
8.1990812581
 20
7.5837868069
 30
0.0
  0
VERTEX
  5
53D
330
287
100
AcDbEntity
  8
0
  6
CONTINUOUS
 62
     7
100
AcDbVertex
100
AcDb2dVertex
 10
8.1721108331
 20
7.571940887
 30
0.0
  0
VERTEX
  5
53E
330
287
100
AcDbEntity
  8
0
  6
CONTINUOUS
 62
     7
100
AcDbVertex
100
AcDb2dVertex
 10
8.1450175186
 20
7.5585378941
 30
0.0
  0
VERTEX
  5
53F
330
287
100
AcDbEntity
  8
0
  6
CONTINUOUS
 62
     7
100
AcDbVertex
100
AcDb2dVertex
 10
8.1178626897
 20
7.5436081902
 30
0.0
  0
VERTEX
  5
540
330
287
100
AcDbEntity
  8
0
  6
CONTINUOUS
 62
     7
100
AcDbVertex
100
AcDb2dVertex
 10
8.0907078608
 20
7.5271855959
 30
0.0
  0
VERTEX
  5
541
330
287
100
AcDbEntity
  8
0
  6
CONTINUOUS
 62
     7
100
AcDbVertex
100
AcDb2dVertex
 10
8.0636145463
 20
7.5093073138
 30
0.0
  0
VERTEX
  5
542
330
287
100
AcDbEntity
  8
0
  6
CONTINUOUS
 62
     7
100
AcDbVertex
100
AcDb2dVertex
 10
8.0366441213
 20
7.4900138438
 30
0.0
  0
VERTEX
  5
543
330
287
100
AcDbEntity
  8
0
  6
CONTINUOUS
 62
     7
100
AcDbVertex
100
AcDb2dVertex
 10
8.0098576825
 20
7.4693488919
 30
0.0
  0
VERTEX
  5
544
330
287
100
AcDbEntity
  8
0
  6
CONTINUOUS
 62
     7
100
AcDbVertex
100
AcDb2dVertex
 10
7.9833159097
 20
7.4473592709
 30
0.0
  0
VERTEX
  5
545
330
287
100
AcDbEntity
  8
0
  6
CONTINUOUS
 62
     7
100
AcDbVertex
100
AcDb2dVertex
 10
7.9570789287
 20
7.4240947942
 30
0.0
  0
VERTEX
  5
546
330
287
100
AcDbEntity
  8
0
  6
CONTINUOUS
 62
     7
100
AcDbVertex
100
AcDb2dVertex
 10
7.9312061746
 20
7.3996081634
 30
0.0
  0
VERTEX
  5
547
330
287
100
AcDbEntity
  8
0
  6
CONTINUOUS
 62
     7
100
AcDbVertex
100
AcDb2dVertex
 10
7.9057562576
 20
7.3739548487
 30
0.0
  0
VERTEX
  5
548
330
287
100
AcDbEntity
  8
0
  6
CONTINUOUS
 62
     7
100
AcDbVertex
100
AcDb2dVertex
 10
7.8807868298
 20
7.347192963
 30
0.0
  0
VERTEX
  5
549
330
287
100
AcDbEntity
  8
0
  6
CONTINUOUS
 62
     7
100
AcDbVertex
100
AcDb2dVertex
 10
7.8563544552
 20
7.3193831306
 30
0.0
  0
VERTEX
  5
54A
330
287
100
AcDbEntity
  8
0
  6
CONTINUOUS
 62
     7
100
AcDbVertex
100
AcDb2dVertex
 10
7.8325144808
 20
7.2905883497
 30
0.0
  0
VERTEX
  5
54B
330
287
100
AcDbEntity
  8
0
  6
CONTINUOUS
 62
     7
100
AcDbVertex
100
AcDb2dVertex
 10
7.8093209118
 20
7.2608738498
 30
0.0
  0
VERTEX
  5
54C
330
287
100
AcDbEntity
  8
0
  6
CONTINUOUS
 62
     7
100
AcDbVertex
100
AcDb2dVertex
 10
7.7868262892
 20
7.2303069438
 30
0.0
  0
VERTEX
  5
54D
330
287
100
AcDbEntity
  8
0
  6
CONTINUOUS
 62
     7
100
AcDbVertex
100
AcDb2dVertex
 10
7.7650815706
 20
7.1989568754
 30
0.0
  0
VERTEX
  5
54E
330
287
100
AcDbEntity
  8
0
  6
CONTINUOUS
 62
     7
100
AcDbVertex
100
AcDb2dVertex
 10
7.7441360146
 20
7.1668946628
 30
0.0
  0
VERTEX
  5
54F
330
287
100
AcDbEntity
  8
0
  6
CONTINUOUS
 62
     7
100
AcDbVertex
100
AcDb2dVertex
 10
7.7240370698
 20
7.1341929372
 30
0.0
  0
VERTEX
  5
550
330
287
100
AcDbEntity
  8
0
  6
CONTINUOUS
 62
     7
100
AcDbVertex
100
AcDb2dVertex
 10
7.7048302666
 20
7.1009257784
 30
0.0
  0
VERTEX
  5
551
330
287
100
AcDbEntity
  8
0
  6
CONTINUOUS
 62
     7
100
AcDbVertex
100
AcDb2dVertex
 10
7.6865591148
 20
7.0671685473
 30
0.0
  0
VERTEX
  5
552
330
287
100
AcDbEntity
  8
0
  6
CONTINUOUS
 62
     7
100
AcDbVertex
100
AcDb2dVertex
 10
7.6692650043
 20
7.0329977149
 30
0.0
  0
VERTEX
  5
553
330
287
100
AcDbEntity
  8
0
  6
CONTINUOUS
 62
     7
100
AcDbVertex
100
AcDb2dVertex
 10
7.6529871118
 20
6.998490689
 30
0.0
  0
VERTEX
  5
554
330
287
100
AcDbEntity
  8
0
  6
CONTINUOUS
 62
     7
100
AcDbVertex
100
AcDb2dVertex
 10
7.637762312
 20
6.9637256393
 30
0.0
  0
VERTEX
  5
555
330
287
100
AcDbEntity
  8
0
  6
CONTINUOUS
 62
     7
100
AcDbVertex
100
AcDb2dVertex
 10
7.623625094
 20
6.9287813197
 30
0.0
  0
VERTEX
  5
556
330
287
100
AcDbEntity
  8
0
  6
CONTINUOUS
 62
     7
100
AcDbVertex
100
AcDb2dVertex
 10
7.6106074831
 20
6.8937368904
 30
0.0
  0
VERTEX
  5
557
330
287
100
AcDbEntity
  8
0
  6
CONTINUOUS
 62
     7
100
AcDbVertex
100
AcDb2dVertex
 10
7.5987389684
 20
6.8586717382
 30
0.0
  0
VERTEX
  5
558
330
287
100
AcDbEntity
  8
0
  6
CONTINUOUS
 62
     7
100
AcDbVertex
100
AcDb2dVertex
 10
7.5880464358
 20
6.823665297
 30
0.0
  0
VERTEX
  5
559
330
287
100
AcDbEntity
  8
0
  6
CONTINUOUS
 62
     7
100
AcDbVertex
100
AcDb2dVertex
 10
7.5785541076
 20
6.7887968677
 30
0.0
  0
VERTEX
  5
55A
330
287
100
AcDbEntity
  8
0
  6
CONTINUOUS
 62
     7
100
AcDbVertex
100
AcDb2dVertex
 10
7.5702834867
 20
6.7541454384
 30
0.0
  0
VERTEX
  5
55B
330
287
100
AcDbEntity
  8
0
  6
CONTINUOUS
 62
     7
100
AcDbVertex
100
AcDb2dVertex
 10
7.5632533088
 20
6.7197895058
 30
0.0
  0
VERTEX
  5
55C
330
287
100
AcDbEntity
  8
0
  6
CONTINUOUS
 62
     7
100
AcDbVertex
100
AcDb2dVertex
 10
7.5574794995
 20
6.6858068972
 30
0.0
  0
VERTEX
  5
55D
330
287
100
AcDbEntity
  8
0
  6
CONTINUOUS
 62
     7
100
AcDbVertex
100
AcDb2dVertex
 10
7.5529751385
 20
6.652274594
 30
0.0
  0
VERTEX
  5
55E
330
287
100
AcDbEntity
  8
0
  6
CONTINUOUS
 62
     7
100
AcDbVertex
100
AcDb2dVertex
 10
7.5497504294
 20
6.6192685578
 30
0.0
  0
VERTEX
  5
55F
330
287
100
AcDbEntity
  8
0
  6
CONTINUOUS
 62
     7
100
AcDbVertex
100
AcDb2dVertex
 10
7.5478126773
 20
6.5868635577
 30
0.0
  0
VERTEX
  5
560
330
287
100
AcDbEntity
  8
0
  6
CONTINUOUS
 62
     7
100
AcDbVertex
100
AcDb2dVertex
 10
7.5471662718
 20
6.5551330016
 30
0.0
  0
VERTEX
  5
561
330
287
100
AcDbEntity
  8
0
  6
CONTINUOUS
 62
     7
100
AcDbVertex
100
AcDb2dVertex
 10
7.5478126773
 20
6.5241487694
 30
0.0
  0
VERTEX
  5
562
330
287
100
AcDbEntity
  8
0
  6
CONTINUOUS
 62
     7
100
AcDbVertex
100
AcDb2dVertex
 10
7.5497504294
 20
6.4939810503
 30
0.0
  0
VERTEX
  5
563
330
287
100
AcDbEntity
  8
0
  6
CONTINUOUS
 62
     7
100
AcDbVertex
100
AcDb2dVertex
 10
7.5529751385
 20
6.4646981839
 30
0.0
  0
VERTEX
  5
564
330
287
100
AcDbEntity
  8
0
  6
CONTINUOUS
 62
     7
100
AcDbVertex
100
AcDb2dVertex
 10
7.5574794995
 20
6.4363665053
 30
0.0
  0
VERTEX
  5
565
330
287
100
AcDbEntity
  8
0
  6
CONTINUOUS
 62
     7
100
AcDbVertex
100
AcDb2dVertex
 10
7.5632533088
 20
6.4090501949
 30
0.0
  0
VERTEX
  5
566
330
287
100
AcDbEntity
  8
0
  6
CONTINUOUS
 62
     7
100
AcDbVertex
100
AcDb2dVertex
 10
7.5702834867
 20
6.382811133
 30
0.0
  0
VERTEX
  5
567
330
287
100
AcDbEntity
  8
0
  6
CONTINUOUS
 62
     7
100
AcDbVertex
100
AcDb2dVertex
 10
7.5785541076
 20
6.3577087593
 30
0.0
  0
VERTEX
  5
568
330
287
100
AcDbEntity
  8
0
  6
CONTINUOUS
 62
     7
100
AcDbVertex
100
AcDb2dVertex
 10
7.5880464358
 20
6.3337999389
 30
0.0
  0
VERTEX
  5
569
330
287
100
AcDbEntity
  8
0
  6
CONTINUOUS
 62
     7
100
AcDbVertex
100
AcDb2dVertex
 10
7.5987389684
 20
6.311138833
 30
0.0
  0
VERTEX
  5
56A
330
287
100
AcDbEntity
  8
0
  6
CONTINUOUS
 62
     7
100
AcDbVertex
100
AcDb2dVertex
 10
7.6106074831
 20
6.2897767762
 30
0.0
  0
VERTEX
  5
56B
330
287
100
AcDbEntity
  8
0
  6
CONTINUOUS
 62
     7
100
AcDbVertex
100
AcDb2dVertex
 10
7.623625094
 20
6.2697621605
 30
0.0
  0
VERTEX
  5
56C
330
287
100
AcDbEntity
  8
0
  6
CONTINUOUS
 62
     7
100
AcDbVertex
100
AcDb2dVertex
 10
7.637762312
 20
6.2511403254
 30
0.0
  0
VERTEX
  5
56D
330
287
100
AcDbEntity
  8
0
  6
CONTINUOUS
 62
     7
100
AcDbVertex
100
AcDb2dVertex
 10
7.6529871118
 20
6.2339534554
 30
0.0
  0
VERTEX
  5
56E
330
287
100
AcDbEntity
  8
0
  6
CONTINUOUS
 62
     7
100
AcDbVertex
100
AcDb2dVertex
 10
7.6692650043
 20
6.2182404842
 30
0.0
  0
VERTEX
  5
56F
330
287
100
AcDbEntity
  8
0
  6
CONTINUOUS
 62
     7
100
AcDbVertex
100
AcDb2dVertex
 10
7.6865591148
 20
6.2040370067
 30
0.0
  0
VERTEX
  5
570
330
287
100
AcDbEntity
  8
0
  6
CONTINUOUS
 62
     7
100
AcDbVertex
100
AcDb2dVertex
 10
7.7048302666
 20
6.1913751985
 30
0.0
  0
VERTEX
  5
571
330
287
100
AcDbEntity
  8
0
  6
CONTINUOUS
 62
     7
100
AcDbVertex
100
AcDb2dVertex
 10
7.7240370698
 20
6.1802837426
 30
0.0
  0
VERTEX
  5
572
330
287
100
AcDbEntity
  8
0
  6
CONTINUOUS
 62
     7
100
AcDbVertex
100
AcDb2dVertex
 10
7.7441360146
 20
6.1707877647
 30
0.0
  0
VERTEX
  5
573
330
287
100
AcDbEntity
  8
0
  6
CONTINUOUS
 62
     7
100
AcDbVertex
100
AcDb2dVertex
 10
7.7650815706
 20
6.1629087763
 30
0.0
  0
VERTEX
  5
574
330
287
100
AcDbEntity
  8
0
  6
CONTINUOUS
 62
     7
100
AcDbVertex
100
AcDb2dVertex
 10
7.7738883719
 20
6.1601543691
 30
0.0
  0
SEQEND
  5
575
330
287
100
AcDbEntity
  8
0
  6
CONTINUOUS
 62
     7
  0
SPLINE
  5
288
330
1F
100
AcDbEntity
  8
0
  6
CONTINUOUS
 62
     7
100
AcDbSpline
210
0.0
220
0.0
230
1.0
 70
     8
 71
     3
 72
    22
 73
    18
 74
     0
 42
0.00000001
 43
0.00000001
 40
0.0
 40
0.0
 40
0.0
 40
0.0
 40
0.0731461756180302
 40
0.2024795307766245
 40
0.2868678460436281
 40
0.3729165982625599
 40
0.4321014376156928
 40
0.4926128983170466
 40
0.5390345554418076
 40
0.5867027206898764
 40
0.6331774352479916
 40
0.6811994292725881
 40
0.7250585323057331
 40
0.7698451329248228
 40
0.8406759389990822
 40
0.9134670130250168
 40
0.9999999999999999
 40
0.9999999999999999
 40
0.9999999999999999
 40
0.9999999999999999
 10
8.303370532471428
 20
7.709199027513877
 30
0.0
 10
8.298563387997149
 20
7.711998548871422
 30
0.0
 10
8.285256494652371
 20
7.719748041802328
 30
0.0
 10
8.262878052541902
 20
7.731064379024737
 30
0.0
 10
8.238191952245504
 20
7.74308806198443
 30
0.0
 10
8.218280435586976
 20
7.752544446017942
 30
0.0
 10
8.200138186751193
 20
7.761218343653021
 30
0.0
 10
8.185551437875441
 20
7.768352935820307
 30
0.0
 10
8.172492261940945
 20
7.775003655944134
 30
0.0
 10
8.161401166092118
 20
7.780949026331985
 30
0.0
 10
8.151422337602355
 20
7.786676105020476
 30
0.0
 10
8.14324805129358
 20
7.791787269007294
 30
0.0
 10
8.13678905067029
 20
7.796248215846623
 30
0.0
 10
8.130996881922991
 20
7.800734454630547
 30
0.0
 10
8.126662639019845
 20
7.804849094389899
 30
0.0
 10
8.12410749471496
 20
7.808411673309452
 30
0.0
 10
8.124930332187569
 20
7.809110702562562
 30
0.0
 10
8.125377236339096
 20
7.809490363292238
 30
0.0
  0
SPLINE
  5
289
330
1F
100
AcDbEntity
  8
0
  6
CONTINUOUS
 62
     7
100
AcDbSpline
210
0.0
220
0.0
230
1.0
 70
     8
 71
     3
 72
    74
 73
    70
 74
     0
 42
0.00000001
 43
0.00000001
 40
-0.0312499999999999
 40
-0.0312499999999999
 40
0.0
 40
0.0
 40
0.031249999999999
 40
0.031249999999999
 40
0.0468749999999987
 40
0.0468749999999987
 40
0.0624999999999983
 40
0.0624999999999983
 40
0.078124999999998
 40
0.078124999999998
 40
0.0937499999999977
 40
0.0937499999999977
 40
0.1249999999999974
 40
0.1249999999999974
 40
0.1874999999999974
 40
0.1874999999999974
 40
0.2187499999999973
 40
0.2187499999999973
 40
0.2499999999999973
 40
0.2499999999999973
 40
0.2812499999999972
 40
0.2812499999999972
 40
0.3124999999999972
 40
0.3124999999999972
 40
0.3437499999999971
 40
0.3437499999999971
 40
0.3749999999999971
 40
0.3749999999999971
 40
0.4062499999999971
 40
0.4062499999999971
 40
0.437499999999997
 40
0.437499999999997
 40
0.4687499999999969
 40
0.4687499999999969
 40
0.4999999999999969
 40
0.4999999999999969
 40
0.5156249999999971
 40
0.5156249999999971
 40
0.5312499999999972
 40
0.5312499999999972
 40
0.5624999999999974
 40
0.5624999999999974
 40
0.5937499999999977
 40
0.5937499999999977
 40
0.6249999999999979
 40
0.6249999999999979
 40
0.6562499999999981
 40
0.6562499999999981
 40
0.6874999999999983
 40
0.6874999999999983
 40
0.7187499999999986
 40
0.7187499999999986
 40
0.7499999999999988
 40
0.7499999999999988
 40
0.7812499999999991
 40
0.7812499999999991
 40
0.8124999999999993
 40
0.8124999999999993
 40
0.8749999999999998
 40
0.8749999999999998
 40
0.9062499999999999
 40
0.9062499999999999
 40
0.9375
 40
0.9375
 40
0.953125
 40
0.953125
 40
0.9687500000000001
 40
0.9687500000000001
 40
1.0
 40
1.0
 40
1.031249999999999
 40
1.031249999999999
 10
7.439749757725884
 20
7.3257293662954
 30
0.0
 10
7.431139471936912
 20
7.330699978478918
 30
0.0
 10
7.426428553095632
 20
7.332217471317252
 30
0.0
 10
7.418834422893158
 20
7.333211950972633
 30
0.0
 10
7.416219684639503
 20
7.333322412398145
 30
0.0
 10
7.411000222518797
 20
7.333141970595824
 30
0.0
 10
7.408373361124147
 20
7.332854592351317
 30
0.0
 10
7.403092365051703
 20
7.331927690412645
 30
0.0
 10
7.4004243565328
 20
7.331282690716604
 30
0.0
 10
7.395176676707813
 20
7.329702244041243
 30
0.0
 10
7.392587317084157
 20
7.328766801444444
 30
0.0
 10
7.384914018372662
 20
7.325578579368136
 30
0.0
 10
7.379920405968333
 20
7.322945793607595
 30
0.0
 10
7.36531582647532
 20
7.313749287788256
 30
0.0
 10
7.356525942940729
 20
7.306227838244556
 30
0.0
 10
7.344563748198321
 20
7.293231711423469
 30
0.0
 10
7.340789338375798
 20
7.288597371343728
 30
0.0
 10
7.333868042623197
 20
7.278989785691595
 30
0.0
 10
7.3306921067045
 20
7.273987068451732
 30
0.0
 10
7.324925251879447
 20
7.26357306398307
 30
0.0
 10
7.32231869310761
 20
7.258121247504791
 30
0.0
 10
7.317837789394898
 20
7.24697438074818
 30
0.0
 10
7.315966860480993
 20
7.241304482860052
 30
0.0
 10
7.313005959527787
 20
7.229761742880749
 30
0.0
 10
7.311911793444295
 20
7.223859276922099
 30
0.0
 10
7.310635619596277
 20
7.211952787653255
 30
0.0
 10
7.310460751843516
 20
7.206055122494375
 30
0.0
 10
7.311106792897109
 20
7.194389327958651
 30
0.0
 10
7.31194732047345
 20
7.188554615766954
 30
0.0
 10
7.314692988001734
 20
7.177494576930958
 30
0.0
 10
7.316583311316712
 20
7.172247800256288
 30
0.0
 10
7.321517822549421
 20
7.162410020982313
 30
0.0
 10
7.324484523390062
 20
7.157989980672506
 30
0.0
 10
7.331332672283331
 20
7.150332092315093
 30
0.0
 10
7.335295299321016
 20
7.147046460442549
 30
0.0
 10
7.341627412952073
 20
7.143330395456992
 30
0.0
 10
7.343811591916572
 20
7.142279567139536
 30
0.0
 10
7.348327920601609
 20
7.140554871491688
 30
0.0
 10
7.350678377949507
 20
7.13987875822132
 30
0.0
 10
7.357780442978739
 20
7.138469703572988
 30
0.0
 10
7.362599638325701
 20
7.138326514968118
 30
0.0
 10
7.372419204660201
 20
7.139535274041449
 30
0.0
 10
7.377259551475247
 20
7.140871385038179
 30
0.0
 10
7.386766846449364
 20
7.144799655893707
 30
0.0
 10
7.391442583998113
 20
7.147410265161451
 30
0.0
 10
7.400326254154383
 20
7.153558339644053
 30
0.0
 10
7.404615742596627
 20
7.157146043633151
 30
0.0
 10
7.412738207598543
 20
7.165061149498461
 30
0.0
 10
7.416547673146357
 20
7.169355458175233
 30
0.0
 10
7.423740692521521
 20
7.178532173954147
 30
0.0
 10
7.427137210817685
 20
7.183443609907415
 30
0.0
 10
7.433377165268408
 20
7.193558761147199
 30
0.0
 10
7.436242810924715
 20
7.198786362325498
 30
0.0
 10
7.441504163594336
 20
7.209557304246304
 30
0.0
 10
7.443910632813868
 20
7.215135169928797
 30
0.0
 10
7.448151049621925
 20
7.226349374542991
 30
0.0
 10
7.449997658685691
 20
7.232003806383585
 30
0.0
 10
7.454706022723775
 20
7.249114137547018
 30
0.0
 10
7.456767248869912
 20
7.260857116053786
 30
0.0
 10
7.457553223342574
 20
7.277869202300579
 30
0.0
 10
7.457437188413417
 20
7.283476584587889
 30
0.0
 10
7.456221561998549
 20
7.294495371418041
 30
0.0
 10
7.455140105488577
 20
7.299757044271936
 30
0.0
 10
7.452606755986423
 20
7.307200882544592
 30
0.0
 10
7.451599423102278
 20
7.309623420881524
 30
0.0
 10
7.449266374542203
 20
7.314193831524692
 30
0.0
 10
7.447945135287735
 20
7.316340175666537
 30
0.0
 10
7.443469530525644
 20
7.322326873431138
 30
0.0
 10
7.439749757725884
 20
7.3257293662954
 30
0.0
 10
7.431139471936912
 20
7.330699978478918
 30
0.0
  0
POLYLINE
  5
28A
330
1F
100
AcDbEntity
  8
0
  6
CONTINUOUS
 62
     7
100
AcDb2dPolyline
 66
     1
 10
0.0
 20
0.0
 30
0.0
  0
VERTEX
  5
576
330
28A
100
AcDbEntity
  8
0
  6
CONTINUOUS
 62
     7
100
AcDbVertex
100
AcDb2dVertex
 10
7.4406506739
 20
6.3843470943
 30
0.0
  0
VERTEX
  5
577
330
28A
100
AcDbEntity
  8
0
  6
CONTINUOUS
 62
     7
100
AcDbVertex
100
AcDb2dVertex
 10
7.4285338526
 20
6.4052374095
 30
0.0
  0
VERTEX
  5
578
330
28A
100
AcDbEntity
  8
0
  6
CONTINUOUS
 62
     7
100
AcDbVertex
100
AcDb2dVertex
 10
7.4175734839
 20
6.4274262979
 30
0.0
  0
VERTEX
  5
579
330
28A
100
AcDbEntity
  8
0
  6
CONTINUOUS
 62
     7
100
AcDbVertex
100
AcDb2dVertex
 10
7.407794132
 20
6.4508640297
 30
0.0
  0
VERTEX
  5
57A
330
28A
100
AcDbEntity
  8
0
  6
CONTINUOUS
 62
     7
100
AcDbVertex
100
AcDb2dVertex
 10
7.3992177142
 20
6.4754980767
 30
0.0
  0
VERTEX
  5
57B
330
28A
100
AcDbEntity
  8
0
  6
CONTINUOUS
 62
     7
100
AcDbVertex
100
AcDb2dVertex
 10
7.391863452
 20
6.5012732293
 30
0.0
  0
VERTEX
  5
57C
330
28A
100
AcDbEntity
  8
0
  6
CONTINUOUS
 62
     7
100
AcDbVertex
100
AcDb2dVertex
 10
7.3857478277
 20
6.5281317205
 30
0.0
  0
VERTEX
  5
57D
330
28A
100
AcDbEntity
  8
0
  6
CONTINUOUS
 62
     7
100
AcDbVertex
100
AcDb2dVertex
 10
7.3808845474
 20
6.5560133553
 30
0.0
  0
VERTEX
  5
57E
330
28A
100
AcDbEntity
  8
0
  6
CONTINUOUS
 62
     7
100
AcDbVertex
100
AcDb2dVertex
 10
7.3772845109
 20
6.5848556458
 30
0.0
  0
VERTEX
  5
57F
330
28A
100
AcDbEntity
  8
0
  6
CONTINUOUS
 62
     7
100
AcDbVertex
100
AcDb2dVertex
 10
7.3749557863
 20
6.6145939508
 30
0.0
  0
VERTEX
  5
580
330
28A
100
AcDbEntity
  8
0
  6
CONTINUOUS
 62
     7
100
AcDbVertex
100
AcDb2dVertex
 10
7.3739035928
 20
6.6451616213
 30
0.0
  0
VERTEX
  5
581
330
28A
100
AcDbEntity
  8
0
  6
CONTINUOUS
 62
     7
100
AcDbVertex
100
AcDb2dVertex
 10
7.3741302886
 20
6.6764901493
 30
0.0
  0
VERTEX
  5
582
330
28A
100
AcDbEntity
  8
0
  6
CONTINUOUS
 62
     7
100
AcDbVertex
100
AcDb2dVertex
 10
7.3756353657
 20
6.7085093216
 30
0.0
  0
VERTEX
  5
583
330
28A
100
AcDbEntity
  8
0
  6
CONTINUOUS
 62
     7
100
AcDbVertex
100
AcDb2dVertex
 10
7.3784154507
 20
6.7411473772
 30
0.0
  0
VERTEX
  5
584
330
28A
100
AcDbEntity
  8
0
  6
CONTINUOUS
 62
     7
100
AcDbVertex
100
AcDb2dVertex
 10
7.3824643132
 20
6.774331168
 30
0.0
  0
VERTEX
  5
585
330
28A
100
AcDbEntity
  8
0
  6
CONTINUOUS
 62
     7
100
AcDbVertex
100
AcDb2dVertex
 10
7.3877728787
 20
6.807986323
 30
0.0
  0
VERTEX
  5
586
330
28A
100
AcDbEntity
  8
0
  6
CONTINUOUS
 62
     7
100
AcDbVertex
100
AcDb2dVertex
 10
7.3943292499
 20
6.8420374145
 30
0.0
  0
VERTEX
  5
587
330
28A
100
AcDbEntity
  8
0
  6
CONTINUOUS
 62
     7
100
AcDbVertex
100
AcDb2dVertex
 10
7.4021187325
 20
6.8764081276
 30
0.0
  0
VERTEX
  5
588
330
28A
100
AcDbEntity
  8
0
  6
CONTINUOUS
 62
     7
100
AcDbVertex
100
AcDb2dVertex
 10
7.411123869
 20
6.911021431
 30
0.0
  0
VERTEX
  5
589
330
28A
100
AcDbEntity
  8
0
  6
CONTINUOUS
 62
     7
100
AcDbVertex
100
AcDb2dVertex
 10
7.4213244771
 20
6.9457997498
 30
0.0
  0
VERTEX
  5
58A
330
28A
100
AcDbEntity
  8
0
  6
CONTINUOUS
 62
     7
100
AcDbVertex
100
AcDb2dVertex
 10
7.4326976952
 20
6.9806651392
 30
0.0
  0
VERTEX
  5
58B
330
28A
100
AcDbEntity
  8
0
  6
CONTINUOUS
 62
     7
100
AcDbVertex
100
AcDb2dVertex
 10
7.445218034
 20
7.0155394592
 30
0.0
  0
VERTEX
  5
58C
330
28A
100
AcDbEntity
  8
0
  6
CONTINUOUS
 62
     7
100
AcDbVertex
100
AcDb2dVertex
 10
7.4588574329
 20
7.0503445498
 30
0.0
  0
VERTEX
  5
58D
330
28A
100
AcDbEntity
  8
0
  6
CONTINUOUS
 62
     7
100
AcDbVertex
100
AcDb2dVertex
 10
7.4735853235
 20
7.0850024064
 30
0.0
  0
VERTEX
  5
58E
330
28A
100
AcDbEntity
  8
0
  6
CONTINUOUS
 62
     7
100
AcDbVertex
100
AcDb2dVertex
 10
7.4893686977
 20
7.1194353541
 30
0.0
  0
VERTEX
  5
58F
330
28A
100
AcDbEntity
  8
0
  6
CONTINUOUS
 62
     7
100
AcDbVertex
100
AcDb2dVertex
 10
7.506172182
 20
7.1535662221
 30
0.0
  0
VERTEX
  5
590
330
28A
100
AcDbEntity
  8
0
  6
CONTINUOUS
 62
     7
100
AcDbVertex
100
AcDb2dVertex
 10
7.5239581168
 20
7.1873185167
 30
0.0
  0
VERTEX
  5
591
330
28A
100
AcDbEntity
  8
0
  6
CONTINUOUS
 62
     7
100
AcDbVertex
100
AcDb2dVertex
 10
7.5426866402
 20
7.2206165926
 30
0.0
  0
VERTEX
  5
592
330
28A
100
AcDbEntity
  8
0
  6
CONTINUOUS
 62
     7
100
AcDbVertex
100
AcDb2dVertex
 10
7.5623157782
 20
7.2533858226
 30
0.0
  0
VERTEX
  5
593
330
28A
100
AcDbEntity
  8
0
  6
CONTINUOUS
 62
     7
100
AcDbVertex
100
AcDb2dVertex
 10
7.5828015381
 20
7.2855527646
 30
0.0
  0
VERTEX
  5
594
330
28A
100
AcDbEntity
  8
0
  6
CONTINUOUS
 62
     7
100
AcDbVertex
100
AcDb2dVertex
 10
7.6040980075
 20
7.3170453264
 30
0.0
  0
VERTEX
  5
595
330
28A
100
AcDbEntity
  8
0
  6
CONTINUOUS
 62
     7
100
AcDbVertex
100
AcDb2dVertex
 10
7.6261574569
 20
7.3477929271
 30
0.0
  0
VERTEX
  5
596
330
28A
100
AcDbEntity
  8
0
  6
CONTINUOUS
 62
     7
100
AcDbVertex
100
AcDb2dVertex
 10
7.648930447
 20
7.3777266557
 30
0.0
  0
VERTEX
  5
597
330
28A
100
AcDbEntity
  8
0
  6
CONTINUOUS
 62
     7
100
AcDbVertex
100
AcDb2dVertex
 10
7.6723659391
 20
7.406779425
 30
0.0
  0
VERTEX
  5
598
330
28A
100
AcDbEntity
  8
0
  6
CONTINUOUS
 62
     7
100
AcDbVertex
100
AcDb2dVertex
 10
7.69641141
 20
7.4348861221
 30
0.0
  0
VERTEX
  5
599
330
28A
100
AcDbEntity
  8
0
  6
CONTINUOUS
 62
     7
100
AcDbVertex
100
AcDb2dVertex
 10
7.7210129691
 20
7.4619837548
 30
0.0
  0
VERTEX
  5
59A
330
28A
100
AcDbEntity
  8
0
  6
CONTINUOUS
 62
     7
100
AcDbVertex
100
AcDb2dVertex
 10
7.7461154798
 20
7.488011592
 30
0.0
  0
VERTEX
  5
59B
330
28A
100
AcDbEntity
  8
0
  6
CONTINUOUS
 62
     7
100
AcDbVertex
100
AcDb2dVertex
 10
7.7716626824
 20
7.5129113005
 30
0.0
  0
VERTEX
  5
59C
330
28A
100
AcDbEntity
  8
0
  6
CONTINUOUS
 62
     7
100
AcDbVertex
100
AcDb2dVertex
 10
7.797597321
 20
7.5366270753
 30
0.0
  0
VERTEX
  5
59D
330
28A
100
AcDbEntity
  8
0
  6
CONTINUOUS
 62
     7
100
AcDbVertex
100
AcDb2dVertex
 10
7.8238612711
 20
7.5591057648
 30
0.0
  0
VERTEX
  5
59E
330
28A
100
AcDbEntity
  8
0
  6
CONTINUOUS
 62
     7
100
AcDbVertex
100
AcDb2dVertex
 10
7.8503956702
 20
7.5802969901
 30
0.0
  0
VERTEX
  5
59F
330
28A
100
AcDbEntity
  8
0
  6
CONTINUOUS
 62
     7
100
AcDbVertex
100
AcDb2dVertex
 10
7.8771410496
 20
7.6001532577
 30
0.0
  0
VERTEX
  5
5A0
330
28A
100
AcDbEntity
  8
0
  6
CONTINUOUS
 62
     7
100
AcDbVertex
100
AcDb2dVertex
 10
7.904037468
 20
7.6186300658
 30
0.0
  0
VERTEX
  5
5A1
330
28A
100
AcDbEntity
  8
0
  6
CONTINUOUS
 62
     7
100
AcDbVertex
100
AcDb2dVertex
 10
7.9310246454
 20
7.6356860045
 30
0.0
  0
VERTEX
  5
5A2
330
28A
100
AcDbEntity
  8
0
  6
CONTINUOUS
 62
     7
100
AcDbVertex
100
AcDb2dVertex
 10
7.9580420985
 20
7.6512828481
 30
0.0
  0
VERTEX
  5
5A3
330
28A
100
AcDbEntity
  8
0
  6
CONTINUOUS
 62
     7
100
AcDbVertex
100
AcDb2dVertex
 10
7.9850292758
 20
7.6653856412
 30
0.0
  0
VERTEX
  5
5A4
330
28A
100
AcDbEntity
  8
0
  6
CONTINUOUS
 62
     7
100
AcDbVertex
100
AcDb2dVertex
 10
8.0119256943
 20
7.6779627768
 30
0.0
  0
VERTEX
  5
5A5
330
28A
100
AcDbEntity
  8
0
  6
CONTINUOUS
 62
     7
100
AcDbVertex
100
AcDb2dVertex
 10
8.0386710737
 20
7.6889860671
 30
0.0
  0
VERTEX
  5
5A6
330
28A
100
AcDbEntity
  8
0
  6
CONTINUOUS
 62
     7
100
AcDbVertex
100
AcDb2dVertex
 10
8.0652054728
 20
7.6984308068
 30
0.0
  0
VERTEX
  5
5A7
330
28A
100
AcDbEntity
  8
0
  6
CONTINUOUS
 62
     7
100
AcDbVertex
100
AcDb2dVertex
 10
8.0914694229
 20
7.7062758286
 30
0.0
  0
VERTEX
  5
5A8
330
28A
100
AcDbEntity
  8
0
  6
CONTINUOUS
 62
     7
100
AcDbVertex
100
AcDb2dVertex
 10
8.1174040615
 20
7.7125035501
 30
0.0
  0
VERTEX
  5
5A9
330
28A
100
AcDbEntity
  8
0
  6
CONTINUOUS
 62
     7
100
AcDbVertex
100
AcDb2dVertex
 10
8.1429512641
 20
7.717100014
 30
0.0
  0
VERTEX
  5
5AA
330
28A
100
AcDbEntity
  8
0
  6
CONTINUOUS
 62
     7
100
AcDbVertex
100
AcDb2dVertex
 10
8.1680537748
 20
7.7200549187
 30
0.0
  0
VERTEX
  5
5AB
330
28A
100
AcDbEntity
  8
0
  6
CONTINUOUS
 62
     7
100
AcDbVertex
100
AcDb2dVertex
 10
8.1926553339
 20
7.7213616416
 30
0.0
  0
VERTEX
  5
5AC
330
28A
100
AcDbEntity
  8
0
  6
CONTINUOUS
 62
     7
100
AcDbVertex
100
AcDb2dVertex
 10
8.2167008048
 20
7.7210172541
 30
0.0
  0
VERTEX
  5
5AD
330
28A
100
AcDbEntity
  8
0
  6
CONTINUOUS
 62
     7
100
AcDbVertex
100
AcDb2dVertex
 10
8.2401362969
 20
7.7190225282
 30
0.0
  0
VERTEX
  5
5AE
330
28A
100
AcDbEntity
  8
0
  6
CONTINUOUS
 62
     7
100
AcDbVertex
100
AcDb2dVertex
 10
8.262909287
 20
7.7153819343
 30
0.0
  0
VERTEX
  5
5AF
330
28A
100
AcDbEntity
  8
0
  6
CONTINUOUS
 62
     7
100
AcDbVertex
100
AcDb2dVertex
 10
8.2849687364
 20
7.7101036317
 30
0.0
  0
VERTEX
  5
5B0
330
28A
100
AcDbEntity
  8
0
  6
CONTINUOUS
 62
     7
100
AcDbVertex
100
AcDb2dVertex
 10
8.3062652058
 20
7.7031994501
 30
0.0
  0
VERTEX
  5
5B1
330
28A
100
AcDbEntity
  8
0
  6
CONTINUOUS
 62
     7
100
AcDbVertex
100
AcDb2dVertex
 10
8.3267509657
 20
7.6946848631
 30
0.0
  0
VERTEX
  5
5B2
330
28A
100
AcDbEntity
  8
0
  6
CONTINUOUS
 62
     7
100
AcDbVertex
100
AcDb2dVertex
 10
8.3463801037
 20
7.6845789534
 30
0.0
  0
VERTEX
  5
5B3
330
28A
100
AcDbEntity
  8
0
  6
CONTINUOUS
 62
     7
100
AcDbVertex
100
AcDb2dVertex
 10
8.3480438841
 20
7.6836263603
 30
0.0
  0
SEQEND
  5
5B4
330
28A
100
AcDbEntity
  8
0
  6
CONTINUOUS
 62
     7
  0
POLYLINE
  5
28B
330
1F
100
AcDbEntity
  8
0
  6
CONTINUOUS
 62
     7
100
AcDb2dPolyline
 66
     1
 10
0.0
 20
0.0
 30
0.0
  0
VERTEX
  5
5B5
330
28B
100
AcDbEntity
  8
0
  6
CONTINUOUS
 62
     7
100
AcDbVertex
100
AcDb2dVertex
 10
8.3386575855
 20
7.6887985701
 30
0.0
  0
VERTEX
  5
5B6
330
28B
100
AcDbEntity
  8
0
  6
CONTINUOUS
 62
     7
100
AcDbVertex
100
AcDb2dVertex
 10
8.3248900569
 20
7.6969330626
 30
0.0
  0
VERTEX
  5
5B7
330
28B
100
AcDbEntity
  8
0
  6
CONTINUOUS
 62
     7
100
AcDbVertex
100
AcDb2dVertex
 10
8.3050137766
 20
7.7068492366
 30
0.0
  0
VERTEX
  5
5B8
330
28B
100
AcDbEntity
  8
0
  6
CONTINUOUS
 62
     7
100
AcDbVertex
100
AcDb2dVertex
 10
8.2842783933
 20
7.7151528111
 30
0.0
  0
VERTEX
  5
5B9
330
28B
100
AcDbEntity
  8
0
  6
CONTINUOUS
 62
     7
100
AcDbVertex
100
AcDb2dVertex
 10
8.2627309043
 20
7.7218249658
 30
0.0
  0
VERTEX
  5
5BA
330
28B
100
AcDbEntity
  8
0
  6
CONTINUOUS
 62
     7
100
AcDbVertex
100
AcDb2dVertex
 10
8.2404201474
 20
7.726850578
 30
0.0
  0
VERTEX
  5
5BB
330
28B
100
AcDbEntity
  8
0
  6
CONTINUOUS
 62
     7
100
AcDbVertex
100
AcDb2dVertex
 10
8.2173966907
 20
7.7302182571
 30
0.0
  0
VERTEX
  5
5BC
330
28B
100
AcDbEntity
  8
0
  6
CONTINUOUS
 62
     7
100
AcDbVertex
100
AcDb2dVertex
 10
8.1937127173
 20
7.7319203701
 30
0.0
  0
VERTEX
  5
5BD
330
28B
100
AcDbEntity
  8
0
  6
CONTINUOUS
 62
     7
100
AcDbVertex
100
AcDb2dVertex
 10
8.1694219076
 20
7.7319530591
 30
0.0
  0
VERTEX
  5
5BE
330
28B
100
AcDbEntity
  8
0
  6
CONTINUOUS
 62
     7
100
AcDbVertex
100
AcDb2dVertex
 10
8.1445793174
 20
7.7303162501
 30
0.0
  0
VERTEX
  5
5BF
330
28B
100
AcDbEntity
  8
0
  6
CONTINUOUS
 62
     7
100
AcDbVertex
100
AcDb2dVertex
 10
8.1192412529
 20
7.727013653
 30
0.0
  0
VERTEX
  5
5C0
330
28B
100
AcDbEntity
  8
0
  6
CONTINUOUS
 62
     7
100
AcDbVertex
100
AcDb2dVertex
 10
8.0934651436
 20
7.722052753
 30
0.0
  0
VERTEX
  5
5C1
330
28B
100
AcDbEntity
  8
0
  6
CONTINUOUS
 62
     7
100
AcDbVertex
100
AcDb2dVertex
 10
8.0673094116
 20
7.7154447944
 30
0.0
  0
VERTEX
  5
5C2
330
28B
100
AcDbEntity
  8
0
  6
CONTINUOUS
 62
     7
100
AcDbVertex
100
AcDb2dVertex
 10
8.0408333397
 20
7.7072047541
 30
0.0
  0
VERTEX
  5
5C3
330
28B
100
AcDbEntity
  8
0
  6
CONTINUOUS
 62
     7
100
AcDbVertex
100
AcDb2dVertex
 10
8.0140969364
 20
7.6973513084
 30
0.0
  0
VERTEX
  5
5C4
330
28B
100
AcDbEntity
  8
0
  6
CONTINUOUS
 62
     7
100
AcDbVertex
100
AcDb2dVertex
 10
7.9871608006
 20
7.6859067905
 30
0.0
  0
VERTEX
  5
5C5
330
28B
100
AcDbEntity
  8
0
  6
CONTINUOUS
 62
     7
100
AcDbVertex
100
AcDb2dVertex
 10
7.9600859836
 20
7.6728971396
 30
0.0
  0
VERTEX
  5
5C6
330
28B
100
AcDbEntity
  8
0
  6
CONTINUOUS
 62
     7
100
AcDbVertex
100
AcDb2dVertex
 10
7.9329338513
 20
7.6583518423
 30
0.0
  0
SEQEND
  5
5C7
330
28B
100
AcDbEntity
  8
0
  6
CONTINUOUS
 62
     7
  0
LINE
  5
28C
330
1F
100
AcDbEntity
  8
0
  6
CONTINUOUS
 62
     7
100
AcDbLine
 10
7.7125429582
 20
7.7855807968
 30
0.0
 11
7.9329338513
 21
7.6583518423
 31
0.0
  0
POLYLINE
  5
28D
330
1F
100
AcDbEntity
  8
0
  6
CONTINUOUS
 62
     7
100
AcDb2dPolyline
 66
     1
 10
0.0
 20
0.0
 30
0.0
  0
VERTEX
  5
5C8
330
28D
100
AcDbEntity
  8
0
  6
CONTINUOUS
 62
     7
100
AcDbVertex
100
AcDb2dVertex
 10
7.7125429582
 20
7.7855807968
 30
0.0
  0
VERTEX
  5
5C9
330
28D
100
AcDbEntity
  8
0
  6
CONTINUOUS
 62
     7
100
AcDbVertex
100
AcDb2dVertex
 10
7.7395826199
 20
7.8000689302
 30
0.0
  0
VERTEX
  5
5CA
330
28D
100
AcDbEntity
  8
0
  6
CONTINUOUS
 62
     7
100
AcDbVertex
100
AcDb2dVertex
 10
7.7665458587
 20
7.8130342522
 30
0.0
  0
VERTEX
  5
5CB
330
28D
100
AcDbEntity
  8
0
  6
CONTINUOUS
 62
     7
100
AcDbVertex
100
AcDb2dVertex
 10
7.7933720676
 20
7.82444762
 30
0.0
  0
VERTEX
  5
5CC
330
28D
100
AcDbEntity
  8
0
  6
CONTINUOUS
 62
     7
100
AcDbVertex
100
AcDb2dVertex
 10
7.8200009472
 20
7.8342833786
 30
0.0
  0
VERTEX
  5
5CD
330
28D
100
AcDbEntity
  8
0
  6
CONTINUOUS
 62
     7
100
AcDbVertex
100
AcDb2dVertex
 10
7.846372642
 20
7.8425194198
 30
0.0
  0
VERTEX
  5
5CE
330
28D
100
AcDbEntity
  8
0
  6
CONTINUOUS
 62
     7
100
AcDbVertex
100
AcDb2dVertex
 10
7.8724278744
 20
7.8491372306
 30
0.0
  0
VERTEX
  5
5CF
330
28D
100
AcDbEntity
  8
0
  6
CONTINUOUS
 62
     7
100
AcDbVertex
100
AcDb2dVertex
 10
7.8981080782
 20
7.8541219358
 30
0.0
  0
VERTEX
  5
5D0
330
28D
100
AcDbEntity
  8
0
  6
CONTINUOUS
 62
     7
100
AcDbVertex
100
AcDb2dVertex
 10
7.9233555302
 20
7.8574623309
 30
0.0
  0
VERTEX
  5
5D1
330
28D
100
AcDbEntity
  8
0
  6
CONTINUOUS
 62
     7
100
AcDbVertex
100
AcDb2dVertex
 10
7.9481134799
 20
7.8591509074
 30
0.0
  0
VERTEX
  5
5D2
330
28D
100
AcDbEntity
  8
0
  6
CONTINUOUS
 62
     7
100
AcDbVertex
100
AcDb2dVertex
 10
7.972326277
 20
7.8591838698
 30
0.0
  0
VERTEX
  5
5D3
330
28D
100
AcDbEntity
  8
0
  6
CONTINUOUS
 62
     7
100
AcDbVertex
100
AcDb2dVertex
 10
7.9959394968
 20
7.8575611441
 30
0.0
  0
VERTEX
  5
5D4
330
28D
100
AcDbEntity
  8
0
  6
CONTINUOUS
 62
     7
100
AcDbVertex
100
AcDb2dVertex
 10
8.018900062
 20
7.8542863777
 30
0.0
  0
VERTEX
  5
5D5
330
28D
100
AcDbEntity
  8
0
  6
CONTINUOUS
 62
     7
100
AcDbVertex
100
AcDb2dVertex
 10
8.0411563627
 20
7.8493669316
 30
0.0
  0
VERTEX
  5
5D6
330
28D
100
AcDbEntity
  8
0
  6
CONTINUOUS
 62
     7
100
AcDbVertex
100
AcDb2dVertex
 10
8.0626583717
 20
7.8428138635
 30
0.0
  0
VERTEX
  5
5D7
330
28D
100
AcDbEntity
  8
0
  6
CONTINUOUS
 62
     7
100
AcDbVertex
100
AcDb2dVertex
 10
8.0833577575
 20
7.8346419033
 30
0.0
  0
VERTEX
  5
5D8
330
28D
100
AcDbEntity
  8
0
  6
CONTINUOUS
 62
     7
100
AcDbVertex
100
AcDb2dVertex
 10
8.1032079925
 20
7.8248694197
 30
0.0
  0
VERTEX
  5
5D9
330
28D
100
AcDbEntity
  8
0
  6
CONTINUOUS
 62
     7
100
AcDbVertex
100
AcDb2dVertex
 10
8.1090937579
 20
7.821569332
 30
0.0
  0
SEQEND
  5
5DA
330
28D
100
AcDbEntity
  8
0
  6
CONTINUOUS
 62
     7
  0
POLYLINE
  5
28E
330
1F
100
AcDbEntity
  8
0
  6
CONTINUOUS
 62
     7
100
AcDb2dPolyline
 66
     1
 10
0.0
 20
0.0
 30
0.0
  0
VERTEX
  5
5DB
330
28E
100
AcDbEntity
  8
0
  6
CONTINUOUS
 62
     7
100
AcDbVertex
100
AcDb2dVertex
 10
7.3020727336
 20
6.4236164439
 30
0.0
  0
VERTEX
  5
5DC
330
28E
100
AcDbEntity
  8
0
  6
CONTINUOUS
 62
     7
100
AcDbVertex
100
AcDb2dVertex
 10
7.2937899615
 20
6.4285984097
 30
0.0
  0
VERTEX
  5
5DD
330
28E
100
AcDbEntity
  8
0
  6
CONTINUOUS
 62
     7
100
AcDbVertex
100
AcDb2dVertex
 10
7.2755250784
 20
6.4411056741
 30
0.0
  0
VERTEX
  5
5DE
330
28E
100
AcDbEntity
  8
0
  6
CONTINUOUS
 62
     7
100
AcDbVertex
100
AcDb2dVertex
 10
7.2582268678
 20
6.4551447661
 30
0.0
  0
VERTEX
  5
5DF
330
28E
100
AcDbEntity
  8
0
  6
CONTINUOUS
 62
     7
100
AcDbVertex
100
AcDb2dVertex
 10
7.241934212
 20
6.4706841289
 30
0.0
  0
VERTEX
  5
5E0
330
28E
100
AcDbEntity
  8
0
  6
CONTINUOUS
 62
     7
100
AcDbVertex
100
AcDb2dVertex
 10
7.2266837334
 20
6.4876888336
 30
0.0
  0
VERTEX
  5
5E1
330
28E
100
AcDbEntity
  8
0
  6
CONTINUOUS
 62
     7
100
AcDbVertex
100
AcDb2dVertex
 10
7.2125097114
 20
6.5061206575
 30
0.0
  0
VERTEX
  5
5E2
330
28E
100
AcDbEntity
  8
0
  6
CONTINUOUS
 62
     7
100
AcDbVertex
100
AcDb2dVertex
 10
7.199444006
 20
6.52593817
 30
0.0
  0
VERTEX
  5
5E3
330
28E
100
AcDbEntity
  8
0
  6
CONTINUOUS
 62
     7
100
AcDbVertex
100
AcDb2dVertex
 10
7.1875159859
 20
6.547096826
 30
0.0
  0
VERTEX
  5
5E4
330
28E
100
AcDbEntity
  8
0
  6
CONTINUOUS
 62
     7
100
AcDbVertex
100
AcDb2dVertex
 10
7.1767524626
 20
6.5695490656
 30
0.0
  0
VERTEX
  5
5E5
330
28E
100
AcDbEntity
  8
0
  6
CONTINUOUS
 62
     7
100
AcDbVertex
100
AcDb2dVertex
 10
7.1671776301
 20
6.5932444214
 30
0.0
  0
VERTEX
  5
5E6
330
28E
100
AcDbEntity
  8
0
  6
CONTINUOUS
 62
     7
100
AcDbVertex
100
AcDb2dVertex
 10
7.1588130103
 20
6.6181296315
 30
0.0
  0
VERTEX
  5
5E7
330
28E
100
AcDbEntity
  8
0
  6
CONTINUOUS
 62
     7
100
AcDbVertex
100
AcDb2dVertex
 10
7.1516774051
 20
6.6441487597
 30
0.0
  0
VERTEX
  5
5E8
330
28E
100
AcDbEntity
  8
0
  6
CONTINUOUS
 62
     7
100
AcDbVertex
100
AcDb2dVertex
 10
7.1457868535
 20
6.6712433209
 30
0.0
  0
VERTEX
  5
5E9
330
28E
100
AcDbEntity
  8
0
  6
CONTINUOUS
 62
     7
100
AcDbVertex
100
AcDb2dVertex
 10
7.1411545964
 20
6.6993524128
 30
0.0
  0
VERTEX
  5
5EA
330
28E
100
AcDbEntity
  8
0
  6
CONTINUOUS
 62
     7
100
AcDbVertex
100
AcDb2dVertex
 10
7.1377910458
 20
6.7284128526
 30
0.0
  0
VERTEX
  5
5EB
330
28E
100
AcDbEntity
  8
0
  6
CONTINUOUS
 62
     7
100
AcDbVertex
100
AcDb2dVertex
 10
7.1357037623
 20
6.758359319
 30
0.0
  0
VERTEX
  5
5EC
330
28E
100
AcDbEntity
  8
0
  6
CONTINUOUS
 62
     7
100
AcDbVertex
100
AcDb2dVertex
 10
7.1348974377
 20
6.7891244992
 30
0.0
  0
VERTEX
  5
5ED
330
28E
100
AcDbEntity
  8
0
  6
CONTINUOUS
 62
     7
100
AcDbVertex
100
AcDb2dVertex
 10
7.1353738843
 20
6.8206392402
 30
0.0
  0
VERTEX
  5
5EE
330
28E
100
AcDbEntity
  8
0
  6
CONTINUOUS
 62
     7
100
AcDbVertex
100
AcDb2dVertex
 10
7.1371320312
 20
6.8528327039
 30
0.0
  0
VERTEX
  5
5EF
330
28E
100
AcDbEntity
  8
0
  6
CONTINUOUS
 62
     7
100
AcDbVertex
100
AcDb2dVertex
 10
7.1401679266
 20
6.8856325269
 30
0.0
  0
VERTEX
  5
5F0
330
28E
100
AcDbEntity
  8
0
  6
CONTINUOUS
 62
     7
100
AcDbVertex
100
AcDb2dVertex
 10
7.1444747464
 20
6.9189649826
 30
0.0
  0
VERTEX
  5
5F1
330
28E
100
AcDbEntity
  8
0
  6
CONTINUOUS
 62
     7
100
AcDbVertex
100
AcDb2dVertex
 10
7.1500428098
 20
6.9527551473
 30
0.0
  0
VERTEX
  5
5F2
330
28E
100
AcDbEntity
  8
0
  6
CONTINUOUS
 62
     7
100
AcDbVertex
100
AcDb2dVertex
 10
7.1568596011
 20
6.9869270684
 30
0.0
  0
VERTEX
  5
5F3
330
28E
100
AcDbEntity
  8
0
  6
CONTINUOUS
 62
     7
100
AcDbVertex
100
AcDb2dVertex
 10
7.1649097978
 20
7.0214039353
 30
0.0
  0
VERTEX
  5
5F4
330
28E
100
AcDbEntity
  8
0
  6
CONTINUOUS
 62
     7
100
AcDbVertex
100
AcDb2dVertex
 10
7.1741753048
 20
7.0561082518
 30
0.0
  0
VERTEX
  5
5F5
330
28E
100
AcDbEntity
  8
0
  6
CONTINUOUS
 62
     7
100
AcDbVertex
100
AcDb2dVertex
 10
7.1846352955
 20
7.0909620105
 30
0.0
  0
VERTEX
  5
5F6
330
28E
100
AcDbEntity
  8
0
  6
CONTINUOUS
 62
     7
100
AcDbVertex
100
AcDb2dVertex
 10
7.196266258
 20
7.1258868683
 30
0.0
  0
VERTEX
  5
5F7
330
28E
100
AcDbEntity
  8
0
  6
CONTINUOUS
 62
     7
100
AcDbVertex
100
AcDb2dVertex
 10
7.2090420488
 20
7.1608043219
 30
0.0
  0
VERTEX
  5
5F8
330
28E
100
AcDbEntity
  8
0
  6
CONTINUOUS
 62
     7
100
AcDbVertex
100
AcDb2dVertex
 10
7.2229339506
 20
7.195635885
 30
0.0
  0
VERTEX
  5
5F9
330
28E
100
AcDbEntity
  8
0
  6
CONTINUOUS
 62
     7
100
AcDbVertex
100
AcDb2dVertex
 10
7.2379107378
 20
7.2303032641
 30
0.0
  0
VERTEX
  5
5FA
330
28E
100
AcDbEntity
  8
0
  6
CONTINUOUS
 62
     7
100
AcDbVertex
100
AcDb2dVertex
 10
7.2539387459
 20
7.2647285349
 30
0.0
  0
VERTEX
  5
5FB
330
28E
100
AcDbEntity
  8
0
  6
CONTINUOUS
 62
     7
100
AcDbVertex
100
AcDb2dVertex
 10
7.2709819476
 20
7.2988343173
 30
0.0
  0
VERTEX
  5
5FC
330
28E
100
AcDbEntity
  8
0
  6
CONTINUOUS
 62
     7
100
AcDbVertex
100
AcDb2dVertex
 10
7.2890020336
 20
7.3325439492
 30
0.0
  0
VERTEX
  5
5FD
330
28E
100
AcDbEntity
  8
0
  6
CONTINUOUS
 62
     7
100
AcDbVertex
100
AcDb2dVertex
 10
7.3079584991
 20
7.3657816591
 30
0.0
  0
VERTEX
  5
5FE
330
28E
100
AcDbEntity
  8
0
  6
CONTINUOUS
 62
     7
100
AcDbVertex
100
AcDb2dVertex
 10
7.327808734
 20
7.3984727362
 30
0.0
  0
VERTEX
  5
5FF
330
28E
100
AcDbEntity
  8
0
  6
CONTINUOUS
 62
     7
100
AcDbVertex
100
AcDb2dVertex
 10
7.3485081198
 20
7.4305436985
 30
0.0
  0
VERTEX
  5
600
330
28E
100
AcDbEntity
  8
0
  6
CONTINUOUS
 62
     7
100
AcDbVertex
100
AcDb2dVertex
 10
7.3700101288
 20
7.4619224577
 30
0.0
  0
VERTEX
  5
601
330
28E
100
AcDbEntity
  8
0
  6
CONTINUOUS
 62
     7
100
AcDbVertex
100
AcDb2dVertex
 10
7.3922664295
 20
7.4925384817
 30
0.0
  0
VERTEX
  5
602
330
28E
100
AcDbEntity
  8
0
  6
CONTINUOUS
 62
     7
100
AcDbVertex
100
AcDb2dVertex
 10
7.4152269947
 20
7.5223229524
 30
0.0
  0
VERTEX
  5
603
330
28E
100
AcDbEntity
  8
0
  6
CONTINUOUS
 62
     7
100
AcDbVertex
100
AcDb2dVertex
 10
7.4388402145
 20
7.5512089214
 30
0.0
  0
VERTEX
  5
604
330
28E
100
AcDbEntity
  8
0
  6
CONTINUOUS
 62
     7
100
AcDbVertex
100
AcDb2dVertex
 10
7.4630530116
 20
7.5791314595
 30
0.0
  0
VERTEX
  5
605
330
28E
100
AcDbEntity
  8
0
  6
CONTINUOUS
 62
     7
100
AcDbVertex
100
AcDb2dVertex
 10
7.4878109613
 20
7.6060278032
 30
0.0
  0
VERTEX
  5
606
330
28E
100
AcDbEntity
  8
0
  6
CONTINUOUS
 62
     7
100
AcDbVertex
100
AcDb2dVertex
 10
7.5130584133
 20
7.6318374957
 30
0.0
  0
VERTEX
  5
607
330
28E
100
AcDbEntity
  8
0
  6
CONTINUOUS
 62
     7
100
AcDbVertex
100
AcDb2dVertex
 10
7.5387386171
 20
7.6565025227
 30
0.0
  0
VERTEX
  5
608
330
28E
100
AcDbEntity
  8
0
  6
CONTINUOUS
 62
     7
100
AcDbVertex
100
AcDb2dVertex
 10
7.5647938495
 20
7.6799674429
 30
0.0
  0
VERTEX
  5
609
330
28E
100
AcDbEntity
  8
0
  6
CONTINUOUS
 62
     7
100
AcDbVertex
100
AcDb2dVertex
 10
7.5911655443
 20
7.7021795125
 30
0.0
  0
VERTEX
  5
60A
330
28E
100
AcDbEntity
  8
0
  6
CONTINUOUS
 62
     7
100
AcDbVertex
100
AcDb2dVertex
 10
7.617794424
 20
7.7230888038
 30
0.0
  0
VERTEX
  5
60B
330
28E
100
AcDbEntity
  8
0
  6
CONTINUOUS
 62
     7
100
AcDbVertex
100
AcDb2dVertex
 10
7.6446206328
 20
7.7426483175
 30
0.0
  0
VERTEX
  5
60C
330
28E
100
AcDbEntity
  8
0
  6
CONTINUOUS
 62
     7
100
AcDbVertex
100
AcDb2dVertex
 10
7.6715838717
 20
7.7608140884
 30
0.0
  0
VERTEX
  5
60D
330
28E
100
AcDbEntity
  8
0
  6
CONTINUOUS
 62
     7
100
AcDbVertex
100
AcDb2dVertex
 10
7.6986235333
 20
7.7775452838
 30
0.0
  0
SEQEND
  5
60E
330
28E
100
AcDbEntity
  8
0
  6
CONTINUOUS
 62
     7
  0
LINE
  5
28F
330
1F
100
AcDbEntity
  8
0
  6
CONTINUOUS
 62
     7
100
AcDbLine
 10
7.6986235333
 20
7.7775452838
 30
0.0
 11
7.9190144264
 21
7.6503163294
 31
0.0
  0
POLYLINE
  5
290
330
1F
100
AcDbEntity
  8
0
  6
CONTINUOUS
 62
     7
100
AcDb2dPolyline
 66
     1
 10
0.0
 20
0.0
 30
0.0
  0
VERTEX
  5
60F
330
290
100
AcDbEntity
  8
0
  6
CONTINUOUS
 62
     7
100
AcDbVertex
100
AcDb2dVertex
 10
7.9190144264
 20
7.6503163294
 30
0.0
  0
VERTEX
  5
610
330
290
100
AcDbEntity
  8
0
  6
CONTINUOUS
 62
     7
100
AcDbVertex
100
AcDb2dVertex
 10
7.8918622941
 20
7.6335124419
 30
0.0
  0
VERTEX
  5
611
330
290
100
AcDbEntity
  8
0
  6
CONTINUOUS
 62
     7
100
AcDbVertex
100
AcDb2dVertex
 10
7.8647874771
 20
7.6152621746
 30
0.0
  0
VERTEX
  5
612
330
290
100
AcDbEntity
  8
0
  6
CONTINUOUS
 62
     7
100
AcDbVertex
100
AcDb2dVertex
 10
7.8378513413
 20
7.5956068921
 30
0.0
  0
VERTEX
  5
613
330
290
100
AcDbEntity
  8
0
  6
CONTINUOUS
 62
     7
100
AcDbVertex
100
AcDb2dVertex
 10
7.811114938
 20
7.5745911436
 30
0.0
  0
VERTEX
  5
614
330
290
100
AcDbEntity
  8
0
  6
CONTINUOUS
 62
     7
100
AcDbVertex
100
AcDb2dVertex
 10
7.7846388661
 20
7.5522625619
 30
0.0
  0
VERTEX
  5
615
330
290
100
AcDbEntity
  8
0
  6
CONTINUOUS
 62
     7
100
AcDbVertex
100
AcDb2dVertex
 10
7.7584831341
 20
7.5286717552
 30
0.0
  0
VERTEX
  5
616
330
290
100
AcDbEntity
  8
0
  6
CONTINUOUS
 62
     7
100
AcDbVertex
100
AcDb2dVertex
 10
7.7327070248
 20
7.5038721928
 30
0.0
  0
VERTEX
  5
617
330
290
100
AcDbEntity
  8
0
  6
CONTINUOUS
 62
     7
100
AcDbVertex
100
AcDb2dVertex
 10
7.7073689603
 20
7.4779200834
 30
0.0
  0
VERTEX
  5
618
330
290
100
AcDbEntity
  8
0
  6
CONTINUOUS
 62
     7
100
AcDbVertex
100
AcDb2dVertex
 10
7.68252637
 20
7.4508742482
 30
0.0
  0
VERTEX
  5
619
330
290
100
AcDbEntity
  8
0
  6
CONTINUOUS
 62
     7
100
AcDbVertex
100
AcDb2dVertex
 10
7.6582355604
 20
7.4227959872
 30
0.0
  0
VERTEX
  5
61A
330
290
100
AcDbEntity
  8
0
  6
CONTINUOUS
 62
     7
100
AcDbVertex
100
AcDb2dVertex
 10
7.634551587
 20
7.3937489406
 30
0.0
  0
VERTEX
  5
61B
330
290
100
AcDbEntity
  8
0
  6
CONTINUOUS
 62
     7
100
AcDbVertex
100
AcDb2dVertex
 10
7.6115281302
 20
7.3637989442
 30
0.0
  0
VERTEX
  5
61C
330
290
100
AcDbEntity
  8
0
  6
CONTINUOUS
 62
     7
100
AcDbVertex
100
AcDb2dVertex
 10
7.5892173734
 20
7.3330138805
 30
0.0
  0
VERTEX
  5
61D
330
290
100
AcDbEntity
  8
0
  6
CONTINUOUS
 62
     7
100
AcDbVertex
100
AcDb2dVertex
 10
7.5676698844
 20
7.3014635246
 30
0.0
  0
VERTEX
  5
61E
330
290
100
AcDbEntity
  8
0
  6
CONTINUOUS
 62
     7
100
AcDbVertex
100
AcDb2dVertex
 10
7.5469345011
 20
7.2692193861
 30
0.0
  0
VERTEX
  5
61F
330
290
100
AcDbEntity
  8
0
  6
CONTINUOUS
 62
     7
100
AcDbVertex
100
AcDb2dVertex
 10
7.5270582208
 20
7.2363545472
 30
0.0
  0
VERTEX
  5
620
330
290
100
AcDbEntity
  8
0
  6
CONTINUOUS
 62
     7
100
AcDbVertex
100
AcDb2dVertex
 10
7.5080860936
 20
7.202943497
 30
0.0
  0
VERTEX
  5
621
330
290
100
AcDbEntity
  8
0
  6
CONTINUOUS
 62
     7
100
AcDbVertex
100
AcDb2dVertex
 10
7.4900611203
 20
7.1690619624
 30
0.0
  0
VERTEX
  5
622
330
290
100
AcDbEntity
  8
0
  6
CONTINUOUS
 62
     7
100
AcDbVertex
100
AcDb2dVertex
 10
7.473024155
 20
7.1347867368
 30
0.0
  0
VERTEX
  5
623
330
290
100
AcDbEntity
  8
0
  6
CONTINUOUS
 62
     7
100
AcDbVertex
100
AcDb2dVertex
 10
7.4570138124
 20
7.1001955059
 30
0.0
  0
VERTEX
  5
624
330
290
100
AcDbEntity
  8
0
  6
CONTINUOUS
 62
     7
100
AcDbVertex
100
AcDb2dVertex
 10
7.4420663803
 20
7.0653666715
 30
0.0
  0
VERTEX
  5
625
330
290
100
AcDbEntity
  8
0
  6
CONTINUOUS
 62
     7
100
AcDbVertex
100
AcDb2dVertex
 10
7.4282157375
 20
7.0303791741
 30
0.0
  0
VERTEX
  5
626
330
290
100
AcDbEntity
  8
0
  6
CONTINUOUS
 62
     7
100
AcDbVertex
100
AcDb2dVertex
 10
7.4154932768
 20
6.9953123138
 30
0.0
  0
VERTEX
  5
627
330
290
100
AcDbEntity
  8
0
  6
CONTINUOUS
 62
     7
100
AcDbVertex
100
AcDb2dVertex
 10
7.403927834
 20
6.9602455705
 30
0.0
  0
VERTEX
  5
628
330
290
100
AcDbEntity
  8
0
  6
CONTINUOUS
 62
     7
100
AcDbVertex
100
AcDb2dVertex
 10
7.3935456224
 20
6.9252584239
 30
0.0
  0
VERTEX
  5
629
330
290
100
AcDbEntity
  8
0
  6
CONTINUOUS
 62
     7
100
AcDbVertex
100
AcDb2dVertex
 10
7.3843701737
 20
6.8904301732
 30
0.0
  0
VERTEX
  5
62A
330
290
100
AcDbEntity
  8
0
  6
CONTINUOUS
 62
     7
100
AcDbVertex
100
AcDb2dVertex
 10
7.3764222842
 20
6.8558397575
 30
0.0
  0
VERTEX
  5
62B
330
290
100
AcDbEntity
  8
0
  6
CONTINUOUS
 62
     7
100
AcDbVertex
100
AcDb2dVertex
 10
7.369719968
 20
6.8215655769
 30
0.0
  0
VERTEX
  5
62C
330
290
100
AcDbEntity
  8
0
  6
CONTINUOUS
 62
     7
100
AcDbVertex
100
AcDb2dVertex
 10
7.364278416
 20
6.7876853148
 30
0.0
  0
VERTEX
  5
62D
330
290
100
AcDbEntity
  8
0
  6
CONTINUOUS
 62
     7
100
AcDbVertex
100
AcDb2dVertex
 10
7.3601099617
 20
6.7542757615
 30
0.0
  0
VERTEX
  5
62E
330
290
100
AcDbEntity
  8
0
  6
CONTINUOUS
 62
     7
100
AcDbVertex
100
AcDb2dVertex
 10
7.357224053
 20
6.7214126407
 30
0.0
  0
VERTEX
  5
62F
330
290
100
AcDbEntity
  8
0
  6
CONTINUOUS
 62
     7
100
AcDbVertex
100
AcDb2dVertex
 10
7.3556272309
 20
6.6891704375
 30
0.0
  0
VERTEX
  5
630
330
290
100
AcDbEntity
  8
0
  6
CONTINUOUS
 62
     7
100
AcDbVertex
100
AcDb2dVertex
 10
7.3553231146
 20
6.6576222297
 30
0.0
  0
VERTEX
  5
631
330
290
100
AcDbEntity
  8
0
  6
CONTINUOUS
 62
     7
100
AcDbVertex
100
AcDb2dVertex
 10
7.3563123934
 20
6.6268395221
 30
0.0
  0
VERTEX
  5
632
330
290
100
AcDbEntity
  8
0
  6
CONTINUOUS
 62
     7
100
AcDbVertex
100
AcDb2dVertex
 10
7.358592825
 20
6.5968920844
 30
0.0
  0
VERTEX
  5
633
330
290
100
AcDbEntity
  8
0
  6
CONTINUOUS
 62
     7
100
AcDbVertex
100
AcDb2dVertex
 10
7.3621592409
 20
6.5678477934
 30
0.0
  0
VERTEX
  5
634
330
290
100
AcDbEntity
  8
0
  6
CONTINUOUS
 62
     7
100
AcDbVertex
100
AcDb2dVertex
 10
7.3670035576
 20
6.5397724785
 30
0.0
  0
VERTEX
  5
635
330
290
100
AcDbEntity
  8
0
  6
CONTINUOUS
 62
     7
100
AcDbVertex
100
AcDb2dVertex
 10
7.3731147954
 20
6.5127297734
 30
0.0
  0
VERTEX
  5
636
330
290
100
AcDbEntity
  8
0
  6
CONTINUOUS
 62
     7
100
AcDbVertex
100
AcDb2dVertex
 10
7.380479103
 20
6.4867809708
 30
0.0
  0
VERTEX
  5
637
330
290
100
AcDbEntity
  8
0
  6
CONTINUOUS
 62
     7
100
AcDbVertex
100
AcDb2dVertex
 10
7.3890797891
 20
6.4619848846
 30
0.0
  0
VERTEX
  5
638
330
290
100
AcDbEntity
  8
0
  6
CONTINUOUS
 62
     7
100
AcDbVertex
100
AcDb2dVertex
 10
7.3988973598
 20
6.4383977155
 30
0.0
  0
VERTEX
  5
639
330
290
100
AcDbEntity
  8
0
  6
CONTINUOUS
 62
     7
100
AcDbVertex
100
AcDb2dVertex
 10
7.4099095635
 20
6.4160729246
 30
0.0
  0
VERTEX
  5
63A
330
290
100
AcDbEntity
  8
0
  6
CONTINUOUS
 62
     7
100
AcDbVertex
100
AcDb2dVertex
 10
7.4220914408
 20
6.3950611115
 30
0.0
  0
SEQEND
  5
63B
330
290
100
AcDbEntity
  8
0
  6
CONTINUOUS
 62
     7
  0
LINE
  5
291
330
1F
100
AcDbEntity
  8
0
  6
CONTINUOUS
 62
     7
100
AcDbLine
 10
7.4220914408
 20
6.3950611115
 30
0.0
 11
7.4406506739
 21
6.3843470943
 31
0.0
  0
ARC
  5
292
330
1F
100
AcDbEntity
  8
0
  6
CONTINUOUS
 62
     7
100
AcDbCircle
 10
7.6634895996
 20
6.5764142779
 30
0.0
 40
0.07124938013056
100
AcDbArc
 50
176.109597017
 51
220.0039896172
  0
ARC
  5
293
330
1F
100
AcDbEntity
  8
0
  6
CONTINUOUS
 62
     7
100
AcDbCircle
 10
7.7849091247
 20
6.5741335921
 30
0.0
 40
0.1926361565785978
100
AcDbArc
 50
119.6169249043
 51
177.8833554887
  0
LINE
  5
294
330
1F
100
AcDbEntity
  8
0
  6
CONTINUOUS
 62
     7
100
AcDbLine
 10
8.0273864283
 20
7.3346593855
 30
0.0
 11
8.0276444359
 21
7.3269236947
 31
0.0
  0
POLYLINE
  5
295
330
1F
100
AcDbEntity
  8
0
  6
CONTINUOUS
 62
     7
100
AcDb2dPolyline
 66
     1
 10
0.0
 20
0.0
 30
0.0
  0
VERTEX
  5
63C
330
295
100
AcDbEntity
  8
0
  6
CONTINUOUS
 62
     7
100
AcDbVertex
100
AcDb2dVertex
 10
8.1699532483
 20
7.5023868298
 30
0.0
  0
VERTEX
  5
63D
330
295
100
AcDbEntity
  8
0
  6
CONTINUOUS
 62
     7
100
AcDbVertex
100
AcDb2dVertex
 10
8.1692590642
 20
7.5025449558
 30
0.0
  0
VERTEX
  5
63E
330
295
100
AcDbEntity
  8
0
  6
CONTINUOUS
 62
     7
100
AcDbVertex
100
AcDb2dVertex
 10
8.1599091049
 20
7.5036743459
 30
0.0
  0
VERTEX
  5
63F
330
295
100
AcDbEntity
  8
0
  6
CONTINUOUS
 62
     7
100
AcDbVertex
100
AcDb2dVertex
 10
8.1499460141
 20
7.5031007605
 30
0.0
  0
VERTEX
  5
640
330
295
100
AcDbEntity
  8
0
  6
CONTINUOUS
 62
     7
100
AcDbVertex
100
AcDb2dVertex
 10
8.1395150763
 20
7.5008325637
 30
0.0
  0
VERTEX
  5
641
330
295
100
AcDbEntity
  8
0
  6
CONTINUOUS
 62
     7
100
AcDbVertex
100
AcDb2dVertex
 10
8.1287683979
 20
7.4969028309
 30
0.0
  0
VERTEX
  5
642
330
295
100
AcDbEntity
  8
0
  6
CONTINUOUS
 62
     7
100
AcDbVertex
100
AcDb2dVertex
 10
8.1178626897
 20
7.4913688666
 30
0.0
  0
VERTEX
  5
643
330
295
100
AcDbEntity
  8
0
  6
CONTINUOUS
 62
     7
100
AcDbVertex
100
AcDb2dVertex
 10
8.1069569815
 20
7.4843113683
 30
0.0
  0
VERTEX
  5
644
330
295
100
AcDbEntity
  8
0
  6
CONTINUOUS
 62
     7
100
AcDbVertex
100
AcDb2dVertex
 10
8.0962103031
 20
7.4758332503
 30
0.0
  0
VERTEX
  5
645
330
295
100
AcDbEntity
  8
0
  6
CONTINUOUS
 62
     7
100
AcDbVertex
100
AcDb2dVertex
 10
8.0857793653
 20
7.4660581426
 30
0.0
  0
VERTEX
  5
646
330
295
100
AcDbEntity
  8
0
  6
CONTINUOUS
 62
     7
100
AcDbVertex
100
AcDb2dVertex
 10
8.0758162745
 20
7.4551285883
 30
0.0
  0
VERTEX
  5
647
330
295
100
AcDbEntity
  8
0
  6
CONTINUOUS
 62
     7
100
AcDbVertex
100
AcDb2dVertex
 10
8.0664663152
 20
7.4432039649
 30
0.0
  0
VERTEX
  5
648
330
295
100
AcDbEntity
  8
0
  6
CONTINUOUS
 62
     7
100
AcDbVertex
100
AcDb2dVertex
 10
8.0578658307
 20
7.4304581603
 30
0.0
  0
VERTEX
  5
649
330
295
100
AcDbEntity
  8
0
  6
CONTINUOUS
 62
     7
100
AcDbVertex
100
AcDb2dVertex
 10
8.0501402356
 20
7.4170770371
 30
0.0
  0
VERTEX
  5
64A
330
295
100
AcDbEntity
  8
0
  6
CONTINUOUS
 62
     7
100
AcDbVertex
100
AcDb2dVertex
 10
8.0434021863
 20
7.403255722
 30
0.0
  0
VERTEX
  5
64B
330
295
100
AcDbEntity
  8
0
  6
CONTINUOUS
 62
     7
100
AcDbVertex
100
AcDb2dVertex
 10
8.0377499389
 20
7.3891957611
 30
0.0
  0
VERTEX
  5
64C
330
295
100
AcDbEntity
  8
0
  6
CONTINUOUS
 62
     7
100
AcDbVertex
100
AcDb2dVertex
 10
8.0332659157
 20
7.3751021802
 30
0.0
  0
VERTEX
  5
64D
330
295
100
AcDbEntity
  8
0
  6
CONTINUOUS
 62
     7
100
AcDbVertex
100
AcDb2dVertex
 10
8.030015504
 20
7.3611804954
 30
0.0
  0
VERTEX
  5
64E
330
295
100
AcDbEntity
  8
0
  6
CONTINUOUS
 62
     7
100
AcDbVertex
100
AcDb2dVertex
 10
8.0280461021
 20
7.3476337163
 30
0.0
  0
VERTEX
  5
64F
330
295
100
AcDbEntity
  8
0
  6
CONTINUOUS
 62
     7
100
AcDbVertex
100
AcDb2dVertex
 10
8.0273864283
 20
7.3346593855
 30
0.0
  0
SEQEND
  5
650
330
295
100
AcDbEntity
  8
0
  6
CONTINUOUS
 62
     7
  0
LINE
  5
296
330
1F
100
AcDbEntity
  8
0
  6
CONTINUOUS
 62
     7
100
AcDbLine
 10
8.0761706355
 20
7.4109735377
 30
0.0
 11
8.0185381385
 21
7.3111511251
 31
0.0
  0
LINE
  5
297
330
1F
100
AcDbEntity
  8
0
  6
CONTINUOUS
 62
     7
100
AcDbLine
 10
7.6988329828
 20
6.7574055535
 30
0.0
 11
7.6411886097
 21
6.6575625708
 31
0.0
  0
LINE
  5
298
330
1F
100
AcDbEntity
  8
0
  6
CONTINUOUS
 62
     7
100
AcDbLine
 10
7.9190144264
 20
7.6282781272
 30
0.0
 11
7.9190144264
 21
7.6503163294
 31
0.0
  0
LINE
  5
299
330
1F
100
AcDbEntity
  8
0
  6
CONTINUOUS
 62
     7
100
AcDbLine
 10
7.9329338513
 20
7.6368366757
 30
0.0
 11
7.9329338513
 21
7.6583518423
 31
0.0
  0
LINE
  5
29A
330
1F
100
AcDbEntity
  8
0
  6
CONTINUOUS
 62
     7
100
AcDbLine
 10
7.4220914408
 20
6.3950611115
 30
0.0
 11
7.4312131238
 21
6.400326947
 31
0.0
  0
LINE
  5
29B
330
1F
100
AcDbEntity
  8
0
  6
CONTINUOUS
 62
     7
100
AcDbLine
 10
7.7125429582
 20
7.7855807968
 30
0.0
 11
7.7072396573
 21
7.7825178114
 31
0.0
  0
POLYLINE
  5
29C
330
1F
100
AcDbEntity
  8
0
  6
CONTINUOUS
 62
     7
100
AcDb2dPolyline
 66
     1
 10
0.0
 20
0.0
 30
0.0
  0
VERTEX
  5
651
330
29C
100
AcDbEntity
  8
0
  6
CONTINUOUS
 62
     7
100
AcDbVertex
100
AcDb2dVertex
 10
7.6933202325
 20
7.7744822985
 30
0.0
  0
VERTEX
  5
652
330
29C
100
AcDbEntity
  8
0
  6
CONTINUOUS
 62
     7
100
AcDbVertex
100
AcDb2dVertex
 10
7.6663286623
 20
7.7577716692
 30
0.0
  0
VERTEX
  5
653
330
29C
100
AcDbEntity
  8
0
  6
CONTINUOUS
 62
     7
100
AcDbVertex
100
AcDb2dVertex
 10
7.6394145704
 20
7.7396185192
 30
0.0
  0
VERTEX
  5
654
330
29C
100
AcDbEntity
  8
0
  6
CONTINUOUS
 62
     7
100
AcDbVertex
100
AcDb2dVertex
 10
7.6126393762
 20
7.7200642748
 30
0.0
  0
VERTEX
  5
655
330
29C
100
AcDbEntity
  8
0
  6
CONTINUOUS
 62
     7
100
AcDbVertex
100
AcDb2dVertex
 10
7.5860641818
 20
7.6991535596
 30
0.0
  0
VERTEX
  5
656
330
29C
100
AcDbEntity
  8
0
  6
CONTINUOUS
 62
     7
100
AcDbVertex
100
AcDb2dVertex
 10
7.559749633
 20
7.676934093
 30
0.0
  0
VERTEX
  5
657
330
29C
100
AcDbEntity
  8
0
  6
CONTINUOUS
 62
     7
100
AcDbVertex
100
AcDb2dVertex
 10
7.5337557809
 20
7.6534565806
 30
0.0
  0
VERTEX
  5
658
330
29C
100
AcDbEntity
  8
0
  6
CONTINUOUS
 62
     7
100
AcDbVertex
100
AcDb2dVertex
 10
7.5081419447
 20
7.6287745993
 30
0.0
  0
VERTEX
  5
659
330
29C
100
AcDbEntity
  8
0
  6
CONTINUOUS
 62
     7
100
AcDbVertex
100
AcDb2dVertex
 10
7.4829665762
 20
7.6029444746
 30
0.0
  0
VERTEX
  5
65A
330
29C
100
AcDbEntity
  8
0
  6
CONTINUOUS
 62
     7
100
AcDbVertex
100
AcDb2dVertex
 10
7.4582871268
 20
7.5760251519
 30
0.0
  0
VERTEX
  5
65B
330
29C
100
AcDbEntity
  8
0
  6
CONTINUOUS
 62
     7
100
AcDbVertex
100
AcDb2dVertex
 10
7.4341599163
 20
7.5480780624
 30
0.0
  0
VERTEX
  5
65C
330
29C
100
AcDbEntity
  8
0
  6
CONTINUOUS
 62
     7
100
AcDbVertex
100
AcDb2dVertex
 10
7.4106400039
 20
7.5191669826
 30
0.0
  0
VERTEX
  5
65D
330
29C
100
AcDbEntity
  8
0
  6
CONTINUOUS
 62
     7
100
AcDbVertex
100
AcDb2dVertex
 10
7.3877810633
 20
7.489357889
 30
0.0
  0
VERTEX
  5
65E
330
29C
100
AcDbEntity
  8
0
  6
CONTINUOUS
 62
     7
100
AcDbVertex
100
AcDb2dVertex
 10
7.3656352595
 20
7.4587188073
 30
0.0
  0
VERTEX
  5
65F
330
29C
100
AcDbEntity
  8
0
  6
CONTINUOUS
 62
     7
100
AcDbVertex
100
AcDb2dVertex
 10
7.3442531304
 20
7.4273196573
 30
0.0
  0
VERTEX
  5
660
330
29C
100
AcDbEntity
  8
0
  6
CONTINUOUS
 62
     7
100
AcDbVertex
100
AcDb2dVertex
 10
7.3236834709
 20
7.3952320932
 30
0.0
  0
VERTEX
  5
661
330
29C
100
AcDbEntity
  8
0
  6
CONTINUOUS
 62
     7
100
AcDbVertex
100
AcDb2dVertex
 10
7.3039732219
 20
7.3625293405
 30
0.0
  0
VERTEX
  5
662
330
29C
100
AcDbEntity
  8
0
  6
CONTINUOUS
 62
     7
100
AcDbVertex
100
AcDb2dVertex
 10
7.2851673632
 20
7.3292860282
 30
0.0
  0
VERTEX
  5
663
330
29C
100
AcDbEntity
  8
0
  6
CONTINUOUS
 62
     7
100
AcDbVertex
100
AcDb2dVertex
 10
7.2673088105
 20
7.2955780192
 30
0.0
  0
VERTEX
  5
664
330
29C
100
AcDbEntity
  8
0
  6
CONTINUOUS
 62
     7
100
AcDbVertex
100
AcDb2dVertex
 10
7.250438318
 20
7.2614822367
 30
0.0
  0
VERTEX
  5
665
330
29C
100
AcDbEntity
  8
0
  6
CONTINUOUS
 62
     7
100
AcDbVertex
100
AcDb2dVertex
 10
7.2345943849
 20
7.2270764889
 30
0.0
  0
VERTEX
  5
666
330
29C
100
AcDbEntity
  8
0
  6
CONTINUOUS
 62
     7
100
AcDbVertex
100
AcDb2dVertex
 10
7.2198131676
 20
7.1924392912
 30
0.0
  0
VERTEX
  5
667
330
29C
100
AcDbEntity
  8
0
  6
CONTINUOUS
 62
     7
100
AcDbVertex
100
AcDb2dVertex
 10
7.2061283978
 20
7.1576496873
 30
0.0
  0
VERTEX
  5
668
330
29C
100
AcDbEntity
  8
0
  6
CONTINUOUS
 62
     7
100
AcDbVertex
100
AcDb2dVertex
 10
7.1935713046
 20
7.1227870688
 30
0.0
  0
VERTEX
  5
669
330
29C
100
AcDbEntity
  8
0
  6
CONTINUOUS
 62
     7
100
AcDbVertex
100
AcDb2dVertex
 10
7.182170544
 20
7.0879309937
 30
0.0
  0
VERTEX
  5
66A
330
29C
100
AcDbEntity
  8
0
  6
CONTINUOUS
 62
     7
100
AcDbVertex
100
AcDb2dVertex
 10
7.1719521329
 20
7.0531610051
 30
0.0
  0
VERTEX
  5
66B
330
29C
100
AcDbEntity
  8
0
  6
CONTINUOUS
 62
     7
100
AcDbVertex
100
AcDb2dVertex
 10
7.1629393902
 20
7.0185564499
 30
0.0
  0
VERTEX
  5
66C
330
29C
100
AcDbEntity
  8
0
  6
CONTINUOUS
 62
     7
100
AcDbVertex
100
AcDb2dVertex
 10
7.1551528835
 20
6.9841962972
 30
0.0
  0
VERTEX
  5
66D
330
29C
100
AcDbEntity
  8
0
  6
CONTINUOUS
 62
     7
100
AcDbVertex
100
AcDb2dVertex
 10
7.148610382
 20
6.9501589585
 30
0.0
  0
VERTEX
  5
66E
330
29C
100
AcDbEntity
  8
0
  6
CONTINUOUS
 62
     7
100
AcDbVertex
100
AcDb2dVertex
 10
7.1433268159
 20
6.9165221085
 30
0.0
  0
VERTEX
  5
66F
330
29C
100
AcDbEntity
  8
0
  6
CONTINUOUS
 62
     7
100
AcDbVertex
100
AcDb2dVertex
 10
7.1393142425
 20
6.8833625081
 30
0.0
  0
VERTEX
  5
670
330
29C
100
AcDbEntity
  8
0
  6
CONTINUOUS
 62
     7
100
AcDbVertex
100
AcDb2dVertex
 10
7.1365818187
 20
6.850755829
 30
0.0
  0
VERTEX
  5
671
330
29C
100
AcDbEntity
  8
0
  6
CONTINUOUS
 62
     7
100
AcDbVertex
100
AcDb2dVertex
 10
7.1351357802
 20
6.8187764812
 30
0.0
  0
VERTEX
  5
672
330
29C
100
AcDbEntity
  8
0
  6
CONTINUOUS
 62
     7
100
AcDbVertex
100
AcDb2dVertex
 10
7.1348868279
 20
6.7992599194
 30
0.0
  0
SEQEND
  5
673
330
29C
100
AcDbEntity
  8
0
  6
CONTINUOUS
 62
     7
  0
LINE
  5
29D
330
1F
100
AcDbEntity
  8
0
  6
CONTINUOUS
 62
     7
100
AcDbLine
 10
7.6986235333
 20
7.7775452838
 30
0.0
 11
7.6933202325
 21
7.7744822985
 31
0.0
  0
POLYLINE
  5
29E
330
1F
100
AcDbEntity
  8
0
  6
CONTINUOUS
 62
     7
100
AcDb2dPolyline
 66
     1
 10
0.0
 20
0.0
 30
0.0
  0
VERTEX
  5
674
330
29E
100
AcDbEntity
  8
0
  6
CONTINUOUS
 62
     7
100
AcDbVertex
100
AcDb2dVertex
 10
7.6411886097
 20
6.6575625708
 30
0.0
  0
VERTEX
  5
675
330
29E
100
AcDbEntity
  8
0
  6
CONTINUOUS
 62
     7
100
AcDbVertex
100
AcDb2dVertex
 10
7.6327375952
 20
6.6417636679
 30
0.0
  0
VERTEX
  5
676
330
29E
100
AcDbEntity
  8
0
  6
CONTINUOUS
 62
     7
100
AcDbVertex
100
AcDb2dVertex
 10
7.6253985322
 20
6.6255826927
 30
0.0
  0
VERTEX
  5
677
330
29E
100
AcDbEntity
  8
0
  6
CONTINUOUS
 62
     7
100
AcDbVertex
100
AcDb2dVertex
 10
7.6192637137
 20
6.6092231305
 30
0.0
  0
VERTEX
  5
678
330
29E
100
AcDbEntity
  8
0
  6
CONTINUOUS
 62
     7
100
AcDbVertex
100
AcDb2dVertex
 10
7.6144102885
 20
6.5928907121
 30
0.0
  0
VERTEX
  5
679
330
29E
100
AcDbEntity
  8
0
  6
CONTINUOUS
 62
     7
100
AcDbVertex
100
AcDb2dVertex
 10
7.6108992914
 20
6.5767908273
 30
0.0
  0
VERTEX
  5
67A
330
29E
100
AcDbEntity
  8
0
  6
CONTINUOUS
 62
     7
100
AcDbVertex
100
AcDb2dVertex
 10
7.6087748751
 20
6.5611259415
 30
0.0
  0
VERTEX
  5
67B
330
29E
100
AcDbEntity
  8
0
  6
CONTINUOUS
 62
     7
100
AcDbVertex
100
AcDb2dVertex
 10
7.6080637554
 20
6.5460930496
 30
0.0
  0
VERTEX
  5
67C
330
29E
100
AcDbEntity
  8
0
  6
CONTINUOUS
 62
     7
100
AcDbVertex
100
AcDb2dVertex
 10
7.6087748751
 20
6.531881199
 30
0.0
  0
VERTEX
  5
67D
330
29E
100
AcDbEntity
  8
0
  6
CONTINUOUS
 62
     7
100
AcDbVertex
100
AcDb2dVertex
 10
7.6108992914
 20
6.518669112
 30
0.0
  0
VERTEX
  5
67E
330
29E
100
AcDbEntity
  8
0
  6
CONTINUOUS
 62
     7
100
AcDbVertex
100
AcDb2dVertex
 10
7.6144102885
 20
6.5066229382
 30
0.0
  0
VERTEX
  5
67F
330
29E
100
AcDbEntity
  8
0
  6
CONTINUOUS
 62
     7
100
AcDbVertex
100
AcDb2dVertex
 10
7.6192637137
 20
6.4958941652
 30
0.0
  0
VERTEX
  5
680
330
29E
100
AcDbEntity
  8
0
  6
CONTINUOUS
 62
     7
100
AcDbVertex
100
AcDb2dVertex
 10
7.6253985322
 20
6.4866177137
 30
0.0
  0
VERTEX
  5
681
330
29E
100
AcDbEntity
  8
0
  6
CONTINUOUS
 62
     7
100
AcDbVertex
100
AcDb2dVertex
 10
7.6327375952
 20
6.4789102403
 30
0.0
  0
VERTEX
  5
682
330
29E
100
AcDbEntity
  8
0
  6
CONTINUOUS
 62
     7
100
AcDbVertex
100
AcDb2dVertex
 10
7.6411886097
 20
6.472868671
 30
0.0
  0
SEQEND
  5
683
330
29E
100
AcDbEntity
  8
0
  6
CONTINUOUS
 62
     7
  0
LINE
  5
29F
330
1F
100
AcDbEntity
  8
0
  6
CONTINUOUS
 62
     7
100
AcDbLine
 10
8.2539728049
 20
7.4929944144
 30
0.0
 11
8.2361115804
 21
7.5033054799
 31
0.0
  0
POLYLINE
  5
2A0
330
1F
100
AcDbEntity
  8
0
  6
CONTINUOUS
 62
     7
100
AcDb2dPolyline
 66
     1
 10
0.0
 20
0.0
 30
0.0
  0
VERTEX
  5
684
330
2A0
100
AcDbEntity
  8
0
  6
CONTINUOUS
 62
     7
100
AcDbVertex
100
AcDb2dVertex
 10
8.2361115804
 20
7.5033054799
 30
0.0
  0
VERTEX
  5
685
330
2A0
100
AcDbEntity
  8
0
  6
CONTINUOUS
 62
     7
100
AcDbVertex
100
AcDb2dVertex
 10
8.2266548908
 20
7.5076051688
 30
0.0
  0
VERTEX
  5
686
330
2A0
100
AcDbEntity
  8
0
  6
CONTINUOUS
 62
     7
100
AcDbVertex
100
AcDb2dVertex
 10
8.2163114495
 20
7.5101089063
 30
0.0
  0
VERTEX
  5
687
330
2A0
100
AcDbEntity
  8
0
  6
CONTINUOUS
 62
     7
100
AcDbVertex
100
AcDb2dVertex
 10
8.2052113312
 20
7.5107852064
 30
0.0
  0
VERTEX
  5
688
330
2A0
100
AcDbEntity
  8
0
  6
CONTINUOUS
 62
     7
100
AcDbVertex
100
AcDb2dVertex
 10
8.1934941264
 20
7.5096255643
 30
0.0
  0
VERTEX
  5
689
330
2A0
100
AcDbEntity
  8
0
  6
CONTINUOUS
 62
     7
100
AcDbVertex
100
AcDb2dVertex
 10
8.1813071857
 20
7.506644563
 30
0.0
  0
VERTEX
  5
68A
330
2A0
100
AcDbEntity
  8
0
  6
CONTINUOUS
 62
     7
100
AcDbVertex
100
AcDb2dVertex
 10
8.168803767
 20
7.5018796906
 30
0.0
  0
VERTEX
  5
68B
330
2A0
100
AcDbEntity
  8
0
  6
CONTINUOUS
 62
     7
100
AcDbVertex
100
AcDb2dVertex
 10
8.156141108
 20
7.4953908679
 30
0.0
  0
VERTEX
  5
68C
330
2A0
100
AcDbEntity
  8
0
  6
CONTINUOUS
 62
     7
100
AcDbVertex
100
AcDb2dVertex
 10
8.143478449
 20
7.4872596957
 30
0.0
  0
VERTEX
  5
68D
330
2A0
100
AcDbEntity
  8
0
  6
CONTINUOUS
 62
     7
100
AcDbVertex
100
AcDb2dVertex
 10
8.1309750302
 20
7.4775884282
 30
0.0
  0
VERTEX
  5
68E
330
2A0
100
AcDbEntity
  8
0
  6
CONTINUOUS
 62
     7
100
AcDbVertex
100
AcDb2dVertex
 10
8.1187880895
 20
7.4664986872
 30
0.0
  0
VERTEX
  5
68F
330
2A0
100
AcDbEntity
  8
0
  6
CONTINUOUS
 62
     7
100
AcDbVertex
100
AcDb2dVertex
 10
8.1070708847
 20
7.4541299326
 30
0.0
  0
VERTEX
  5
690
330
2A0
100
AcDbEntity
  8
0
  6
CONTINUOUS
 62
     7
100
AcDbVertex
100
AcDb2dVertex
 10
8.0959707665
 20
7.4406377087
 30
0.0
  0
VERTEX
  5
691
330
2A0
100
AcDbEntity
  8
0
  6
CONTINUOUS
 62
     7
100
AcDbVertex
100
AcDb2dVertex
 10
8.0856273251
 20
7.426191688
 30
0.0
  0
VERTEX
  5
692
330
2A0
100
AcDbEntity
  8
0
  6
CONTINUOUS
 62
     7
100
AcDbVertex
100
AcDb2dVertex
 10
8.0761706355
 20
7.4109735377
 30
0.0
  0
SEQEND
  5
693
330
2A0
100
AcDbEntity
  8
0
  6
CONTINUOUS
 62
     7
  0
LINE
  5
2A1
330
1F
100
AcDbEntity
  8
0
  6
CONTINUOUS
 62
     7
100
AcDbLine
 10
7.6411886097
 20
6.472868671
 30
0.0
 11
7.6590597543
 21
6.462548525
 31
0.0
  0
LINE
  5
2A2
330
1F
100
AcDbEntity
  8
0
  6
CONTINUOUS
 62
     7
100
AcDbLine
 10
7.7072396573
 20
7.7825178114
 30
0.0
 11
7.7072396573
 21
7.7725713013
 31
0.0
  0
ARC
  5
2A3
330
1F
100
AcDbEntity
  8
0
  6
CONTINUOUS
 62
     8
100
AcDbCircle
 10
8.1619519379
 20
7.011387688
 30
0.0
 40
0.184114222476875
100
AcDbArc
 50
242.8212944001
 51
286.0594548174
  0
POLYLINE
  5
2A4
330
1F
100
AcDbEntity
  8
0
  6
CONTINUOUS
 62
     8
100
AcDb2dPolyline
 66
     1
 10
0.0
 20
0.0
 30
0.0
  0
VERTEX
  5
694
330
2A4
100
AcDbEntity
  8
0
  6
CONTINUOUS
 62
     8
100
AcDbVertex
100
AcDb2dVertex
 10
8.2714721775
 20
6.9204958524
 30
0.0
  0
VERTEX
  5
695
330
2A4
100
AcDbEntity
  8
0
  6
CONTINUOUS
 62
     8
100
AcDbVertex
100
AcDb2dVertex
 10
8.2697673393
 20
6.9228942629
 30
0.0
  0
VERTEX
  5
696
330
2A4
100
AcDbEntity
  8
0
  6
CONTINUOUS
 62
     8
100
AcDbVertex
100
AcDb2dVertex
 10
8.2630335678
 20
6.9305235649
 30
0.0
  0
VERTEX
  5
697
330
2A4
100
AcDbEntity
  8
0
  6
CONTINUOUS
 62
     8
100
AcDbVertex
100
AcDb2dVertex
 10
8.2546965188
 20
6.9376054968
 30
0.0
  0
VERTEX
  5
698
330
2A4
100
AcDbEntity
  8
0
  6
CONTINUOUS
 62
     8
100
AcDbVertex
100
AcDb2dVertex
 10
8.2448876726
 20
6.9440283722
 30
0.0
  0
VERTEX
  5
699
330
2A4
100
AcDbEntity
  8
0
  6
CONTINUOUS
 62
     8
100
AcDbVertex
100
AcDb2dVertex
 10
8.2337617205
 20
6.9496908986
 30
0.0
  0
VERTEX
  5
69A
330
2A4
100
AcDbEntity
  8
0
  6
CONTINUOUS
 62
     8
100
AcDbVertex
100
AcDb2dVertex
 10
8.2214941255
 20
6.9545037745
 30
0.0
  0
VERTEX
  5
69B
330
2A4
100
AcDbEntity
  8
0
  6
CONTINUOUS
 62
     8
100
AcDbVertex
100
AcDb2dVertex
 10
8.2082783548
 20
6.9583910981
 30
0.0
  0
VERTEX
  5
69C
330
2A4
100
AcDbEntity
  8
0
  6
CONTINUOUS
 62
     8
100
AcDbVertex
100
AcDb2dVertex
 10
8.1943228291
 20
6.9612915638
 30
0.0
  0
VERTEX
  5
69D
330
2A4
100
AcDbEntity
  8
0
  6
CONTINUOUS
 62
     8
100
AcDbVertex
100
AcDb2dVertex
 10
8.1798476353
 20
6.9631594297
 30
0.0
  0
VERTEX
  5
69E
330
2A4
100
AcDbEntity
  8
0
  6
CONTINUOUS
 62
     8
100
AcDbVertex
100
AcDb2dVertex
 10
8.1650810558
 20
6.9639652383
 30
0.0
  0
VERTEX
  5
69F
330
2A4
100
AcDbEntity
  8
0
  6
CONTINUOUS
 62
     8
100
AcDbVertex
100
AcDb2dVertex
 10
8.1502559685
 20
6.9636962816
 30
0.0
  0
VERTEX
  5
6A0
330
2A4
100
AcDbEntity
  8
0
  6
CONTINUOUS
 62
     8
100
AcDbVertex
100
AcDb2dVertex
 10
8.1356061739
 20
6.9623568012
 30
0.0
  0
VERTEX
  5
6A1
330
2A4
100
AcDbEntity
  8
0
  6
CONTINUOUS
 62
     8
100
AcDbVertex
100
AcDb2dVertex
 10
8.1213627079
 20
6.9599679215
 30
0.0
  0
VERTEX
  5
6A2
330
2A4
100
AcDbEntity
  8
0
  6
CONTINUOUS
 62
     8
100
AcDbVertex
100
AcDb2dVertex
 10
8.1077501985
 20
6.9565673165
 30
0.0
  0
VERTEX
  5
6A3
330
2A4
100
AcDbEntity
  8
0
  6
CONTINUOUS
 62
     8
100
AcDbVertex
100
AcDb2dVertex
 10
8.0949833231
 20
6.9522086159
 30
0.0
  0
VERTEX
  5
6A4
330
2A4
100
AcDbEntity
  8
0
  6
CONTINUOUS
 62
     8
100
AcDbVertex
100
AcDb2dVertex
 10
8.083263423
 20
6.9469605589
 30
0.0
  0
VERTEX
  5
6A5
330
2A4
100
AcDbEntity
  8
0
  6
CONTINUOUS
 62
     8
100
AcDbVertex
100
AcDb2dVertex
 10
8.072775328
 20
6.9409059106
 30
0.0
  0
VERTEX
  5
6A6
330
2A4
100
AcDbEntity
  8
0
  6
CONTINUOUS
 62
     8
100
AcDbVertex
100
AcDb2dVertex
 10
8.0636844416
 20
6.9341401562
 30
0.0
  0
VERTEX
  5
6A7
330
2A4
100
AcDbEntity
  8
0
  6
CONTINUOUS
 62
     8
100
AcDbVertex
100
AcDb2dVertex
 10
8.0561341326
 20
6.926769996
 30
0.0
  0
VERTEX
  5
6A8
330
2A4
100
AcDbEntity
  8
0
  6
CONTINUOUS
 62
     8
100
AcDbVertex
100
AcDb2dVertex
 10
8.0502434738
 20
6.9189116616
 30
0.0
  0
VERTEX
  5
6A9
330
2A4
100
AcDbEntity
  8
0
  6
CONTINUOUS
 62
     8
100
AcDbVertex
100
AcDb2dVertex
 10
8.0461053644
 20
6.9106890837
 30
0.0
  0
VERTEX
  5
6AA
330
2A4
100
AcDbEntity
  8
0
  6
CONTINUOUS
 62
     8
100
AcDbVertex
100
AcDb2dVertex
 10
8.0437850648
 20
6.9022319372
 30
0.0
  0
VERTEX
  5
6AB
330
2A4
100
AcDbEntity
  8
0
  6
CONTINUOUS
 62
     8
100
AcDbVertex
100
AcDb2dVertex
 10
8.0433191677
 20
6.8936735965
 30
0.0
  0
VERTEX
  5
6AC
330
2A4
100
AcDbEntity
  8
0
  6
CONTINUOUS
 62
     8
100
AcDbVertex
100
AcDb2dVertex
 10
8.0447150204
 20
6.8851490316
 30
0.0
  0
VERTEX
  5
6AD
330
2A4
100
AcDbEntity
  8
0
  6
CONTINUOUS
 62
     8
100
AcDbVertex
100
AcDb2dVertex
 10
8.0479506096
 20
6.8767926801
 30
0.0
  0
VERTEX
  5
6AE
330
2A4
100
AcDbEntity
  8
0
  6
CONTINUOUS
 62
     8
100
AcDbVertex
100
AcDb2dVertex
 10
8.052974908
 20
6.8687363266
 30
0.0
  0
VERTEX
  5
6AF
330
2A4
100
AcDbEntity
  8
0
  6
CONTINUOUS
 62
     8
100
AcDbVertex
100
AcDb2dVertex
 10
8.0597086795
 20
6.8611070246
 30
0.0
  0
VERTEX
  5
6B0
330
2A4
100
AcDbEntity
  8
0
  6
CONTINUOUS
 62
     8
100
AcDbVertex
100
AcDb2dVertex
 10
8.0680457285
 20
6.8540250927
 30
0.0
  0
VERTEX
  5
6B1
330
2A4
100
AcDbEntity
  8
0
  6
CONTINUOUS
 62
     8
100
AcDbVertex
100
AcDb2dVertex
 10
8.0778545747
 20
6.8476022173
 30
0.0
  0
VERTEX
  5
6B2
330
2A4
100
AcDbEntity
  8
0
  6
CONTINUOUS
 62
     8
100
AcDbVertex
100
AcDb2dVertex
 10
8.0778545747
 20
6.8476022173
 30
0.0
  0
SEQEND
  5
6B3
330
2A4
100
AcDbEntity
  8
0
  6
CONTINUOUS
 62
     8
  0
ARC
  5
2A5
330
1F
100
AcDbEntity
  8
0
  6
CONTINUOUS
 62
     8
100
AcDbCircle
 10
8.0955373103
 20
6.8928857966
 30
0.0
 40
0.0624092480550443
100
AcDbArc
 50
185.6465605407
 51
246.7432244318
  0
ARC
  5
2A6
330
1F
100
AcDbEntity
  8
0
  6
CONTINUOUS
 62
     8
100
AcDbCircle
 10
8.161089136
 20
7.0095223289
 30
0.0
 40
0.1959647895854379
100
AcDbArc
 50
242.5962721006
 51
279.8975869593
  0
POLYLINE
  5
2A7
330
1F
100
AcDbEntity
  8
0
  6
CONTINUOUS
 62
     8
100
AcDb2dPolyline
 66
     1
 10
0.0
 20
0.0
 30
0.0
  0
VERTEX
  5
6B4
330
2A7
100
AcDbEntity
  8
0
  6
CONTINUOUS
 62
     8
100
AcDbVertex
100
AcDb2dVertex
 10
7.444545087
 20
7.2171380171
 30
0.0
  0
VERTEX
  5
6B5
330
2A7
100
AcDbEntity
  8
0
  6
CONTINUOUS
 62
     8
100
AcDbVertex
100
AcDb2dVertex
 10
7.4400551694
 20
7.2203494995
 30
0.0
  0
VERTEX
  5
6B6
330
2A7
100
AcDbEntity
  8
0
  6
CONTINUOUS
 62
     8
100
AcDbVertex
100
AcDb2dVertex
 10
7.432255182
 20
7.2271332534
 30
0.0
  0
VERTEX
  5
6B7
330
2A7
100
AcDbEntity
  8
0
  6
CONTINUOUS
 62
     8
100
AcDbVertex
100
AcDb2dVertex
 10
7.4248866876
 20
7.235119329
 30
0.0
  0
VERTEX
  5
6B8
330
2A7
100
AcDbEntity
  8
0
  6
CONTINUOUS
 62
     8
100
AcDbVertex
100
AcDb2dVertex
 10
7.4181506796
 20
7.2440898871
 30
0.0
  0
VERTEX
  5
6B9
330
2A7
100
AcDbEntity
  8
0
  6
CONTINUOUS
 62
     8
100
AcDbVertex
100
AcDb2dVertex
 10
7.4122308986
 20
7.2538002341
 30
0.0
  0
VERTEX
  5
6BA
330
2A7
100
AcDbEntity
  8
0
  6
CONTINUOUS
 62
     8
100
AcDbVertex
100
AcDb2dVertex
 10
7.407288821
 20
7.2639854973
 30
0.0
  0
VERTEX
  5
6BB
330
2A7
100
AcDbEntity
  8
0
  6
CONTINUOUS
 62
     8
100
AcDbVertex
100
AcDb2dVertex
 10
7.4034592535
 20
7.274367849
 30
0.0
  0
VERTEX
  5
6BC
330
2A7
100
AcDbEntity
  8
0
  6
CONTINUOUS
 62
     8
100
AcDbVertex
100
AcDb2dVertex
 10
7.400846657
 20
7.2846640858
 30
0.0
  0
VERTEX
  5
6BD
330
2A7
100
AcDbEntity
  8
0
  6
CONTINUOUS
 62
     8
100
AcDbVertex
100
AcDb2dVertex
 10
7.3995222962
 20
7.2945933533
 30
0.0
  0
VERTEX
  5
6BE
330
2A7
100
AcDbEntity
  8
0
  6
CONTINUOUS
 62
     8
100
AcDbVertex
100
AcDb2dVertex
 10
7.3995222962
 20
7.3038848068
 30
0.0
  0
VERTEX
  5
6BF
330
2A7
100
AcDbEntity
  8
0
  6
CONTINUOUS
 62
     8
100
AcDbVertex
100
AcDb2dVertex
 10
7.400846657
 20
7.3122849999
 30
0.0
  0
VERTEX
  5
6C0
330
2A7
100
AcDbEntity
  8
0
  6
CONTINUOUS
 62
     8
100
AcDbVertex
100
AcDb2dVertex
 10
7.4034592535
 20
7.319564797
 30
0.0
  0
VERTEX
  5
6C1
330
2A7
100
AcDbEntity
  8
0
  6
CONTINUOUS
 62
     8
100
AcDbVertex
100
AcDb2dVertex
 10
7.407288821
 20
7.3255256243
 30
0.0
  0
VERTEX
  5
6C2
330
2A7
100
AcDbEntity
  8
0
  6
CONTINUOUS
 62
     8
100
AcDbVertex
100
AcDb2dVertex
 10
7.4122308986
 20
7.3300048859
 30
0.0
  0
VERTEX
  5
6C3
330
2A7
100
AcDbEntity
  8
0
  6
CONTINUOUS
 62
     8
100
AcDbVertex
100
AcDb2dVertex
 10
7.4181506796
 20
7.3328803994
 30
0.0
  0
VERTEX
  5
6C4
330
2A7
100
AcDbEntity
  8
0
  6
CONTINUOUS
 62
     8
100
AcDbVertex
100
AcDb2dVertex
 10
7.4200568879
 20
7.3334087954
 30
0.0
  0
SEQEND
  5
6C5
330
2A7
100
AcDbEntity
  8
0
  6
CONTINUOUS
 62
     8
  0
ARC
  5
2A8
330
1F
100
AcDbEntity
  8
0
  6
CONTINUOUS
 62
     8
100
AcDbCircle
 10
8.1035402021
 20
7.6496875251
 30
0.0
 40
0.1972472201399721
100
AcDbArc
 50
20.2497518638
 51
57.2788403516
  0
ARC
  5
2A9
330
1F
100
AcDbEntity
  8
0
  6
CONTINUOUS
 62
     8
100
AcDbCircle
 10
8.1725587156
 20
7.7620666159
 30
0.0
 40
0.0654483185970176
100
AcDbArc
 50
54.9315025352
 51
113.7580390357
  0
LINE
  5
2AA
330
1F
100
AcDbEntity
  8
0
  6
CONTINUOUS
 62
     8
100
AcDbLine
 10
8.106784541
 20
7.3933005063
 30
0.0
 11
8.0761706355
 21
7.4109735377
 31
0.0
  0
LINE
  5
2AB
330
1F
100
AcDbEntity
  8
0
  6
CONTINUOUS
 62
     8
100
AcDbLine
 10
7.6718069307
 20
6.6398869903
 30
0.0
 11
7.6411886097
 21
6.6575625708
 31
0.0
  0
LINE
  5
2AC
330
1F
100
AcDbEntity
  8
0
  6
CONTINUOUS
 62
     8
100
AcDbLine
 10
7.6590596224
 20
6.462551955
 30
0.0
 11
7.6411886097
 21
6.472868671
 31
0.0
  0
ENDSEC
  0
SECTION
  2
OBJECTS
  0
DICTIONARY
  5
C
330
0
100
AcDbDictionary
  3
ACAD_GROUP
350
D
  3
ACAD_LAYOUT
350
1A
  3
ACAD_MLEADERSTYLE
350
2AF
  3
ACAD_MLINESTYLE
350
17
  3
ACAD_PLOTSETTINGS
350
19
  3
ACAD_SCALELIST
350
6F
  3
ACAD_VISUALSTYLE
350
2A
  3
ACDBVARIABLEDICTIONARY
350
2AD
1001
ACAD
1000
TREAT_AS_HARD
1070
     0
  0
DICTIONARY
  5
D
102
{ACAD_REACTORS
330
C
102
}
330
C
100
AcDbDictionary
1001
ACAD
1000
TREAT_AS_HARD
1070
     0
  0
DICTIONARY
  5
1A
102
{ACAD_REACTORS
330
C
102
}
330
C
100
AcDbDictionary
1001
ACAD
1000
TREAT_AS_HARD
1070
     0
  0
DICTIONARY
  5
2AF
102
{ACAD_REACTORS
330
C
102
}
330
C
100
AcDbDictionary
1001
ACAD
1000
TREAT_AS_HARD
1070
     0
  0
DICTIONARY
  5
17
102
{ACAD_REACTORS
330
C
102
}
330
C
100
AcDbDictionary
  3
STANDARD
350
18
1001
ACAD
1000
TREAT_AS_HARD
1070
     0
  0
DICTIONARY
  5
19
102
{ACAD_REACTORS
330
C
102
}
330
C
100
AcDbDictionary
1001
ACAD
1000
TREAT_AS_HARD
1070
     0
  0
DICTIONARY
  5
6F
102
{ACAD_REACTORS
330
C
102
}
330
C
100
AcDbDictionary
  3
A0
350
70
  3
A1
350
71
  3
A2
350
72
  3
A3
350
73
  3
A4
350
74
  3
A5
350
75
  3
A6
350
76
  3
A7
350
77
  3
A8
350
78
  3
A9
350
79
  3
B0
350
7A
  3
B1
350
7B
  3
B2
350
7C
  3
B3
350
7D
  3
B4
350
7E
  3
B5
350
7F
  3
B6
350
80
  3
B7
350
81
  3
B8
350
82
  3
B9
350
83
  3
C0
350
84
  3
C1
350
85
  3
C2
350
86
  3
C3
350
87
  3
C4
350
88
  3
C5
350
89
  3
C6
350
8A
  3
C7
350
8B
  3
C8
350
8C
  3
C9
350
8D
  3
D0
350
8E
  3
D1
350
8F
  3
D2
350
90
1001
ACAD
1000
TREAT_AS_HARD
1070
     0
  0
DICTIONARY
  5
2A
102
{ACAD_REACTORS
330
C
102
}
330
C
100
AcDbDictionary
  3
2DWIREFRAME
350
2F
  3
3D_HIDDEN
350
31
  3
3DWIREFRAME
350
30
  3
BASIC
350
32
  3
BRIGHTEN
350
36
  3
COLORCHANGE
350
3A
  3
CONCEPTUAL
350
34
  3
DIM
350
35
  3
FACEPATTERN
350
39
  3
FLAT
350
2B
  3
FLATWITHEDGES
350
2C
  3
GOURAUD
350
2D
  3
GOURAUDWITHEDGES
350
2E
  3
LINEPATTERN
350
38
  3
REALISTIC
350
33
  3
THICKEN
350
37
1001
ACAD
1000
TREAT_AS_HARD
1070
     0
  0
DICTIONARY
  5
2AD
102
{ACAD_REACTORS
330
C
102
}
330
C
100
AcDbDictionary
  3
CANNOSCALE
350
2B0
  3
DIMASSOC
350
2B1
  3
HIDETEXT
350
2B2
1001
ACAD
1000
TREAT_AS_HARD
1070
     0
  0
MLINESTYLE
  5
18
102
{ACAD_REACTORS
330
17
102
}
330
17
100
AcDbMlineStyle
  2
Standard
 70
     0
  3

 62
   256
 51
90.0
 52
90.0
 71
     2
 49
0.5
 62
   256
  6
BYLAYER
 49
-0.5
 62
   256
  6
BYLAYER
  0
ACAD_PROXY_OBJECT
  5
70
102
{ACAD_REACTORS
330
6F
102
}
330
6F
100
AcDbZombieObject
 90
      499
 91
      502
 93
       41
310
903313A31580
  0
ACAD_PROXY_OBJECT
  5
71
102
{ACAD_REACTORS
330
6F
102
}
330
6F
100
AcDbZombieObject
 90
      499
 91
      502
 93
      105
310
903313A324000000000000004000
  0
ACAD_PROXY_OBJECT
  5
72
102
{ACAD_REACTORS
330
6F
102
}
330
6F
100
AcDbZombieObject
 90
      499
 91
      502
 93
      105
310
903313A344000000000000104000
  0
ACAD_PROXY_OBJECT
  5
73
102
{ACAD_REACTORS
330
6F
102
}
330
6F
100
AcDbZombieObject
 90
      499
 91
      502
 93
      105
310
903313A354000000000000144000
  0
ACAD_PROXY_OBJECT
  5
74
102
{ACAD_REACTORS
330
6F
102
}
330
6F
100
AcDbZombieObject
 90
      499
 91
      502
 93
      105
310
903313A384000000000000204000
  0
ACAD_PROXY_OBJECT
  5
75
102
{ACAD_REACTORS
330
6F
102
}
330
6F
100
AcDbZombieObject
 90
      499
 91
      502
 93
      113
310
904313A31304000000000000244000
  0
ACAD_PROXY_OBJECT
  5
76
102
{ACAD_REACTORS
330
6F
102
}
330
6F
100
AcDbZombieObject
 90
      499
 91
      502
 93
      113
310
904313A31364000000000000304000
  0
ACAD_PROXY_OBJECT
  5
77
102
{ACAD_REACTORS
330
6F
102
}
330
6F
100
AcDbZombieObject
 90
      499
 91
      502
 93
      113
310
904313A32304000000000000344000
  0
ACAD_PROXY_OBJECT
  5
78
102
{ACAD_REACTORS
330
6F
102
}
330
6F
100
AcDbZombieObject
 90
      499
 91
      502
 93
      113
310
904313A333040000000000003E4000
  0
ACAD_PROXY_OBJECT
  5
79
102
{ACAD_REACTORS
330
6F
102
}
330
6F
100
AcDbZombieObject
 90
      499
 91
      502
 93
      113
310
904313A34304000000000000444000
  0
ACAD_PROXY_OBJECT
  5
7A
102
{ACAD_REACTORS
330
6F
102
}
330
6F
100
AcDbZombieObject
 90
      499
 91
      502
 93
      113
310
904313A35304000000000000494000
  0
ACAD_PROXY_OBJECT
  5
7B
102
{ACAD_REACTORS
330
6F
102
}
330
6F
100
AcDbZombieObject
 90
      499
 91
      502
 93
      121
310
905313A3130304000000000000594000
  0
ACAD_PROXY_OBJECT
  5
7C
102
{ACAD_REACTORS
330
6F
102
}
330
6F
100
AcDbZombieObject
 90
      499
 91
      502
 93
      105
310
903323A310000000000000010100
  0
ACAD_PROXY_OBJECT
  5
7D
102
{ACAD_REACTORS
330
6F
102
}
330
6F
100
AcDbZombieObject
 90
      499
 91
      502
 93
      105
310
903343A310000000000000410100
  0
ACAD_PROXY_OBJECT
  5
7E
102
{ACAD_REACTORS
330
6F
102
}
330
6F
100
AcDbZombieObject
 90
      499
 91
      502
 93
      105
310
903383A310000000000000810100
  0
ACAD_PROXY_OBJECT
  5
7F
102
{ACAD_REACTORS
330
6F
102
}
330
6F
100
AcDbZombieObject
 90
      499
 91
      502
 93
      113
310
90431303A310000000000000910100
  0
ACAD_PROXY_OBJECT
  5
80
102
{ACAD_REACTORS
330
6F
102
}
330
6F
100
AcDbZombieObject
 90
      499
 91
      502
 93
      121
310
9053130303A310000000000001650100
  0
ACAD_PROXY_OBJECT
  5
81
102
{ACAD_REACTORS
330
6F
102
}
330
6F
100
AcDbZombieObject
 90
      499
 91
      502
 93
      257
310
90E312F31323822203D2031272D3022000000000000200FC000000000000284000
  0
ACAD_PROXY_OBJECT
  5
82
102
{ACAD_REACTORS
330
6F
102
}
330
6F
100
AcDbZombieObject
 90
      499
 91
      502
 93
      249
310
90D312F363422203D2031272D3022000000000000240FC000000000000284000
  0
ACAD_PROXY_OBJECT
  5
83
102
{ACAD_REACTORS
330
6F
102
}
330
6F
100
AcDbZombieObject
 90
      499
 91
      502
 93
      249
310
90D312F333222203D2031272D3022000000000000280FC000000000000284000
  0
ACAD_PROXY_OBJECT
  5
84
102
{ACAD_REACTORS
330
6F
102
}
330
6F
100
AcDbZombieObject
 90
      499
 91
      502
 93
      249
310
90D312F313622203D2031272D30220000000000002C0FC000000000000284000
  0
ACAD_PROXY_OBJECT
  5
85
102
{ACAD_REACTORS
330
6F
102
}
330
6F
100
AcDbZombieObject
 90
      499
 91
      502
 93
      249
310
90D332F333222203D2031272D30220000000000002E0FC000000000000284000
  0
ACAD_PROXY_OBJECT
  5
86
102
{ACAD_REACTORS
330
6F
102
}
330
6F
100
AcDbZombieObject
 90
      499
 91
      502
 93
      241
310
90C312F3822203D2031272D3022000000000000300FC000000000000284000
  0
ACAD_PROXY_OBJECT
  5
87
102
{ACAD_REACTORS
330
6F
102
}
330
6F
100
AcDbZombieObject
 90
      499
 91
      502
 93
      249
310
90D332F313622203D2031272D3022000000000000320FC000000000000284000
  0
ACAD_PROXY_OBJECT
  5
88
102
{ACAD_REACTORS
330
6F
102
}
330
6F
100
AcDbZombieObject
 90
      499
 91
      502
 93
      241
310
90C312F3422203D2031272D3022000000000000340FC000000000000284000
  0
ACAD_PROXY_OBJECT
  5
89
102
{ACAD_REACTORS
330
6F
102
}
330
6F
100
AcDbZombieObject
 90
      499
 91
      502
 93
      241
310
90C332F3822203D2031272D3022000000000000360FC000000000000284000
  0
ACAD_PROXY_OBJECT
  5
8A
102
{ACAD_REACTORS
330
6F
102
}
330
6F
100
AcDbZombieObject
 90
      499
 91
      502
 93
      241
310
90C312F3222203D2031272D3022000000000000380FC000000000000284000
  0
ACAD_PROXY_OBJECT
  5
8B
102
{ACAD_REACTORS
330
6F
102
}
330
6F
100
AcDbZombieObject
 90
      499
 91
      502
 93
      241
310
90C332F3422203D2031272D30220000000000003A0FC000000000000284000
  0
ACAD_PROXY_OBJECT
  5
8C
102
{ACAD_REACTORS
330
6F
102
}
330
6F
100
AcDbZombieObject
 90
      499
 91
      502
 93
      161
310
90A3122203D2031272D30224000000000000284000
  0
ACAD_PROXY_OBJECT
  5
8D
102
{ACAD_REACTORS
330
6F
102
}
330
6F
100
AcDbZombieObject
 90
      499
 91
      502
 93
      257
310
90E312D312F3222203D2031272D30220000000000003E0FC000000000000284000
  0
ACAD_PROXY_OBJECT
  5
8E
102
{ACAD_REACTORS
330
6F
102
}
330
6F
100
AcDbZombieObject
 90
      499
 91
      502
 93
      225
310
90A3322203D2031272D302200000000000002100000000000000284000
  0
ACAD_PROXY_OBJECT
  5
8F
102
{ACAD_REACTORS
330
6F
102
}
330
6F
100
AcDbZombieObject
 90
      499
 91
      502
 93
      225
310
90A3622203D2031272D302200000000000006100000000000000284000
  0
ACAD_PROXY_OBJECT
  5
90
102
{ACAD_REACTORS
330
6F
102
}
330
6F
100
AcDbZombieObject
 90
      499
 91
      502
 93
      249
310
90D31272D3022203D2031272D30220000000000000A100000000000000284000
  0
ACAD_PROXY_OBJECT
  5
2F
102
{ACAD_REACTORS
330
2A
102
}
330
2A
100
AcDbZombieObject
 90
      499
 91
      501
 93
      436
310
42CC9915DA5C99599C985B595049028333333333333E3BF0000000000000FB0107901411070040501600405405064090741402480A0340
1001
ACAD
1000
AcDbSavedByObjectVersion
1070
     0
  0
ACAD_PROXY_OBJECT
  5
31
102
{ACAD_REACTORS
330
2A
102
}
330
2A
100
AcDbZombieObject
 90
      499
 91
      501
 93
      500
310
424CD108121A5919195B90640502408333333333333E3BF0000000000000FB01079024090700405020000000000001110200405405064090740C02480A0340
1001
ACAD
1000
AcDbSavedByObjectVersion
1070
     0
  0
ACAD_PROXY_OBJECT
  5
30
102
{ACAD_REACTORS
330
2A
102
}
330
2A
100
AcDbZombieObject
 90
      499
 91
      501
 93
      436
310
42CCD915DA5C99599C985B595059028333333333333E3BF0000000000000FB0107901411070040501600405405064090741402480A0340
1001
ACAD
1000
AcDbSavedByObjectVersion
1070
     0
  0
ACAD_PROXY_OBJECT
  5
32
102
{ACAD_REACTORS
330
2A
102
}
330
2A
100
AcDbZombieObject
 90
      499
 91
      501
 93
      388
310
4150985CDA58D07406404333333333333E3BF0000000000000FB0107A41107004050150841D405064090741402480A0350
1001
ACAD
1000
AcDbSavedByObjectVersion
1070
     0
  0
ACAD_PROXY_OBJECT
  5
36
102
{ACAD_REACTORS
330
2A
102
}
330
2A
100
AcDbZombieObject
 90
      499
 91
      501
 93
      428
310
42109C9A59DA1D195B90C409028333333333333E3BF0000000000000FB010790141107004050150841D405064090741402480A029950
1001
ACAD
1000
AcDbSavedByObjectVersion
1070
     0
  0
ACAD_PROXY_OBJECT
  5
3A
102
{ACAD_REACTORS
330
2A
102
}
330
2A
100
AcDbZombieObject
 90
      499
 91
      501
 93
      452
310
42D0DBDB1BDC90DA185B99D95104090240C333333333333E3BF0000000000000FB0108901411070040501508421405064090741402480A0350
1001
ACAD
1000
AcDbSavedByObjectVersion
1070
     0
  0
ACAD_PROXY_OBJECT
  5
34
102
{ACAD_REACTORS
330
2A
102
}
330
2A
100
AcDbZombieObject
 90
      499
 91
      501
 93
      500
310
4290DBDB98D95C1D1D585B10940D028333333333333E3BF0000000000000FB0107902409070040501000000000000111010841D405064090740C02480A0340
1001
ACAD
1000
AcDbSavedByObjectVersion
1070
     0
  0
ACAD_PROXY_OBJECT
  5
35
102
{ACAD_REACTORS
330
2A
102
}
330
2A
100
AcDbZombieObject
 90
      499
 91
      501
 93
      412
310
40D11A5B50B409028333333333333E3BF0000000000000FB010790141107004050150841D405064090741402480A02677FFFFFD0
1001
ACAD
1000
AcDbSavedByObjectVersion
1070
     0
  0
ACAD_PROXY_OBJECT
  5
39
102
{ACAD_REACTORS
330
2A
102
}
330
2A
100
AcDbZombieObject
 90
      499
 91
      501
 93
      444
310
42D19858D95C185D1D195C9B90F409028333333333333E3BF0000000000000FB010790141107004050150841D405064090741402480A0350
1001
ACAD
1000
AcDbSavedByObjectVersion
1070
     0
  0
ACAD_PROXY_OBJECT
  5
2B
102
{ACAD_REACTORS
330
2A
102
}
330
2A
100
AcDbZombieObject
 90
      499
 91
      501
 93
      388
310
41119B185D240901404333333333333E3BF0000000000000F9010740A41107004050150841D405064090741402480A1B50
1001
ACAD
1000
AcDbSavedByObjectVersion
1070
     0
  0
ACAD_PROXY_OBJECT
  5
2C
102
{ACAD_REACTORS
330
2A
102
}
330
2A
100
AcDbZombieObject
 90
      499
 91
      501
 93
      476
310
43519B185D15DA5D1A115919D95CD0140901404333333333333E3BF0000000000000F9010740901411070040501600405405064090741402480A1B50
1001
ACAD
1000
AcDbSavedByObjectVersion
1070
     0
  0
ACAD_PROXY_OBJECT
  5
2D
102
{ACAD_REACTORS
330
2A
102
}
330
2A
100
AcDbZombieObject
 90
      499
 91
      501
 93
      412
310
41D1DBDD5C985D5910240902404333333333333E3BF0000000000000F9010740A411070040501641D405064090741402480A1B50
1001
ACAD
1000
AcDbSavedByObjectVersion
1070
     0
  0
ACAD_PROXY_OBJECT
  5
2E
102
{ACAD_REACTORS
330
2A
102
}
330
2A
100
AcDbZombieObject
 90
      499
 91
      501
 93
      500
310
4411DBDD5C985D5915DA5D1A115919D95CD0340902404333333333333E3BF0000000000000F9010740901411070040501600405405064090741402480A1B50
1001
ACAD
1000
AcDbSavedByObjectVersion
1070
     0
  0
ACAD_PROXY_OBJECT
  5
38
102
{ACAD_REACTORS
330
2A
102
}
330
2A
100
AcDbZombieObject
 90
      499
 91
      501
 93
      444
310
42D31A5B995C185D1D195C9B90E409028333333333333E3BF0000000000000FB010790141107004050750841D405064090741402483A0350
1001
ACAD
1000
AcDbSavedByObjectVersion
1070
     0
  0
ACAD_PROXY_OBJECT
  5
33
102
{ACAD_REACTORS
330
2A
102
}
330
2A
100
AcDbZombieObject
 90
      499
 91
      501
 93
      420
310
425499585B1A5CDD1A58D08409028333333333333E3BF0000000000000FB01079019070040501508421405064090741402480A1B40
1001
ACAD
1000
AcDbSavedByObjectVersion
1070
     0
  0
ACAD_PROXY_OBJECT
  5
37
102
{ACAD_REACTORS
330
2A
102
}
330
2A
100
AcDbZombieObject
 90
      499
 91
      501
 93
      412
310
41D51A1A58DAD95B90D409028333333333333E3BF0000000000000FB010790141107004050150C41D405064090741402480A0350
1001
ACAD
1000
AcDbSavedByObjectVersion
1070
     0
  0
DICTIONARYVAR
  5
2B0
102
{ACAD_REACTORS
330
2AD
102
}
330
2AD
100
DictionaryVariables
280
     0
  1
1:1
  0
DICTIONARYVAR
  5
2B1
102
{ACAD_REACTORS
330
2AD
102
}
330
2AD
100
DictionaryVariables
280
     0
  1
2
  0
DICTIONARYVAR
  5
2B2
102
{ACAD_REACTORS
330
2AD
102
}
330
2AD
100
DictionaryVariables
280
     0
  1
1
  0
ENDSEC
  0
EOF
