  0
SECTION
  2
HEADER
  9
$ACADVER
  1
AC1012
  9
$DWGCODEPAGE
  3
ansi_1252
  9
$INSBASE
 10
0.0
 20
0.0
 30
0.0
  9
$EXTMIN
 10
0.0
 20
0.0
 30
0.0
  9
$EXTMAX
 10
11.0
 20
8.5
 30
0.0
  9
$LIMMIN
 10
0.0
 20
0.0
  9
$LIMMAX
 10
11.0
 20
8.5
  9
$ORTHOMODE
 70
     0
  9
$REGENMODE
 70
     1
  9
$FILLMODE
 70
     1
  9
$QTEXTMODE
 70
     0
  9
$MIRRTEXT
 70
     1
  9
$DRAGMODE
 70
     2
  9
$LTSCALE
 40
1.0
  9
$OSMODE
 70
    37
  9
$ATTMODE
 70
     1
  9
$TEXTSIZE
 40
0.125
  9
$TRACEWID
 40
0.05
  9
$TEXTSTYLE
  7
STANDARD
  9
$CLAYER
  8
0
  9
$CELTYPE
  6
BYLAYER
  9
$CECOLOR
 62
   256
  9
$CELTSCALE
 40
1.0
  9
$DELOBJ
 70
     1
  9
$DISPSILH
 70
     0
  9
$DIMSCALE
 40
1.0
  9
$DIMASZ
 40
0.13
  9
$DIMEXO
 40
0.05
  9
$DIMDLI
 40
0.38
  9
$DIMRND
 40
0.0
  9
$DIMDLE
 40
0.0
  9
$DIMEXE
 40
0.125
  9
$DIMTP
 40
0.0
  9
$DIMTM
 40
0.0
  9
$DIMTXT
 40
0.125
  9
$DIMCEN
 40
0.09
  9
$DIMTSZ
 40
0.0
  9
$DIMTOL
 70
     0
  9
$DIMLIM
 70
     0
  9
$DIMTIH
 70
     1
  9
$DIMTOH
 70
     1
  9
$DIMSE1
 70
     0
  9
$DIMSE2
 70
     0
  9
$DIMTAD
 70
     0
  9
$DIMZIN
 70
     0
  9
$DIMBLK
  1

  9
$DIMASO
 70
     1
  9
$DIMSHO
 70
     1
  9
$DIMPOST
  1

  9
$DIMAPOST
  1

  9
$DIMALT
 70
     0
  9
$DIMALTD
 70
     2
  9
$DIMALTF
 40
25.4
  9
$DIMLFAC
 40
0.5
  9
$DIMTOFL
 70
     0
  9
$DIMTVP
 40
0.0
  9
$DIMTIX
 70
     0
  9
$DIMSOXD
 70
     0
  9
$DIMSAH
 70
     0
  9
$DIMBLK1
  1

  9
$DIMBLK2
  1

  9
$DIMSTYLE
  2
STANDARD
  9
$DIMCLRD
 70
     0
  9
$DIMCLRE
 70
     0
  9
$DIMCLRT
 70
     0
  9
$DIMTFAC
 40
1.0
  9
$DIMGAP
 40
0.06
  9
$DIMJUST
 70
     0
  9
$DIMSD1
 70
     0
  9
$DIMSD2
 70
     0
  9
$DIMTOLJ
 70
     1
  9
$DIMTZIN
 70
     0
  9
$DIMALTZ
 70
     0
  9
$DIMALTTZ
 70
     0
  9
$DIMFIT
 70
     3
  9
$DIMUPT
 70
     0
  9
$DIMUNIT
 70
     2
  9
$DIMDEC
 70
     3
  9
$DIMTDEC
 70
     3
  9
$DIMALTU
 70
     2
  9
$DIMALTTD
 70
     2
  9
$DIMTXSTY
  7
STANDARD
  9
$DIMAUNIT
 70
     0
  9
$LUNITS
 70
     2
  9
$LUPREC
 70
     2
  9
$SKETCHINC
 40
0.1
  9
$FILLETRAD
 40
0.5
  9
$AUNITS
 70
     0
  9
$AUPREC
 70
     2
  9
$MENU
  1
.
  9
$ELEVATION
 40
0.0
  9
$PELEVATION
 40
0.0
  9
$THICKNESS
 40
0.0
  9
$LIMCHECK
 70
     0
  9
$CHAMFERA
 40
0.5
  9
$CHAMFERB
 40
0.5
  9
$CHAMFERC
 40
1.0
  9
$CHAMFERD
 40
0.0
  9
$SKPOLY
 70
     0
  9
$TDCREATE
 40
2455784.009246065
  9
$TDUPDATE
 40
2455784.009246076
  9
$TDINDWG
 40
0.0000000116
  9
$TDUSRTIMER
 40
0.0000000116
  9
$USRTIMER
 70
     1
  9
$ANGBASE
 50
0.0
  9
$ANGDIR
 70
     0
  9
$PDMODE
 70
     0
  9
$PDSIZE
 40
-1.0
  9
$PLINEWID
 40
0.0
  9
$COORDS
 70
     1
  9
$SPLFRAME
 70
     0
  9
$SPLINETYPE
 70
     6
  9
$SPLINESEGS
 70
     8
  9
$ATTDIA
 70
     0
  9
$ATTREQ
 70
     1
  9
$HANDLING
 70
     1
  9
$HANDSEED
  5
5E4
  9
$SURFTAB1
 70
     6
  9
$SURFTAB2
 70
     6
  9
$SURFTYPE
 70
     6
  9
$SURFU
 70
     6
  9
$SURFV
 70
     6
  9
$UCSNAME
  2

  9
$UCSORG
 10
0.0
 20
0.0
 30
0.0
  9
$UCSXDIR
 10
1.0
 20
0.0
 30
0.0
  9
$UCSYDIR
 10
0.0
 20
1.0
 30
0.0
  9
$PUCSNAME
  2

  9
$PUCSORG
 10
0.0
 20
0.0
 30
0.0
  9
$PUCSXDIR
 10
1.0
 20
0.0
 30
0.0
  9
$PUCSYDIR
 10
0.0
 20
1.0
 30
0.0
  9
$USERI1
 70
     0
  9
$USERI2
 70
     0
  9
$USERI3
 70
     0
  9
$USERI4
 70
     0
  9
$USERI5
 70
     0
  9
$USERR1
 40
0.0
  9
$USERR2
 40
0.0
  9
$USERR3
 40
0.0
  9
$USERR4
 40
0.0
  9
$USERR5
 40
0.0
  9
$WORLDVIEW
 70
     1
  9
$SHADEDGE
 70
     3
  9
$SHADEDIF
 70
    70
  9
$TILEMODE
 70
     1
  9
$MAXACTVP
 70
    64
  9
$PINSBASE
 10
0.0
 20
0.0
 30
0.0
  9
$PLIMCHECK
 70
     0
  9
$PEXTMIN
 10
1.0000000000E+20
 20
1.0000000000E+20
 30
1.0000000000E+20
  9
$PEXTMAX
 10
-1.0000000000E+20
 20
-1.0000000000E+20
 30
-1.0000000000E+20
  9
$PLIMMIN
 10
0.0
 20
0.0
  9
$PLIMMAX
 10
12.0
 20
9.0
  9
$UNITMODE
 70
     0
  9
$VISRETAIN
 70
     1
  9
$PLINEGEN
 70
     0
  9
$PSLTSCALE
 70
     1
  9
$TREEDEPTH
 70
  3020
  9
$PICKSTYLE
 70
     1
  9
$CMLSTYLE
  2
STANDARD
  9
$CMLJUST
 70
     0
  9
$CMLSCALE
 40
1.0
  9
$SAVEIMAGES
 70
     1
  0
ENDSEC
  0
SECTION
  2
CLASSES
  0
CLASS
  1
ACDBDICTIONARYWDFLT
  2
AcDbDictionaryWithDefault
  3
ObjectDBX Classes
 90
    32768
280
     0
281
     0
  0
CLASS
  1
VISUALSTYLE
  2
AcDbVisualStyle
  3
ObjectDBX Classes
 90
     4095
280
     0
281
     0
  0
CLASS
  1
SCALE
  2
AcDbScale
  3
ObjectDBX Classes
 90
     1153
280
     0
281
     0
  0
CLASS
  1
DICTIONARYVAR
  2
AcDbDictionaryVar
  3
ObjectDBX Classes
 90
        0
280
     0
281
     0
  0
CLASS
  1
XRECORD
  2
AcDbXrecord
  3
AutoCAD 2000
 90
    32768
280
     0
281
     0
  0
CLASS
  1
LWPOLYLINE
  2
AcDbPolyline
  3
AutoCAD 2000
 90
    32768
280
     0
281
     1
  0
CLASS
  1
HATCH
  2
AcDbHatch
  3
AutoCAD 2000
 90
    32768
280
     0
281
     1
  0
CLASS
  1
ACDBPLACEHOLDER
  2
AcDbPlaceHolder
  3
ObjectDBX Classes
 90
        0
280
     0
281
     0
  0
CLASS
  1
LAYOUT
  2
AcDbLayout
  3
ObjectDBX Classes
 90
        0
280
     0
281
     0
  0
ENDSEC
  0
SECTION
  2
TABLES
  0
TABLE
  2
VPORT
  5
8
330
0
100
AcDbSymbolTable
 70
     1
  0
VPORT
  5
29
330
8
100
AcDbSymbolTableRecord
100
AcDbViewportTableRecord
  2
*ACTIVE
 70
     0
 10
0.0
 20
0.0
 11
1.0
 21
1.0
 12
5.5
 22
4.25
 13
0.0
 23
0.0
 14
0.5
 24
0.5
 15
0.5
 25
0.5
 16
0.0
 26
0.0
 36
1.0
 17
0.0
 27
0.0
 37
0.0
 40
8.5
 41
1.2941176471
 42
50.0
 43
0.0
 44
0.0
 50
0.0
 51
0.0
 71
     0
 72
  2000
 73
     1
 74
     3
 75
     0
 76
     0
 77
     0
 78
     0
  0
ENDTAB
  0
TABLE
  2
LTYPE
  5
5
330
0
100
AcDbSymbolTable
 70
     6
  0
LTYPE
  5
14
330
5
100
AcDbSymbolTableRecord
100
AcDbLinetypeTableRecord
  2
BYBLOCK
 70
     0
  3

 72
    65
 73
     0
 40
0.0
  0
LTYPE
  5
15
330
5
100
AcDbSymbolTableRecord
100
AcDbLinetypeTableRecord
  2
BYLAYER
 70
     0
  3

 72
    65
 73
     0
 40
0.0
  0
LTYPE
  5
16
330
5
100
AcDbSymbolTableRecord
100
AcDbLinetypeTableRecord
  2
CONTINUOUS
 70
     0
  3
Solid line
 72
    65
 73
     0
 40
0.0
  0
LTYPE
  5
3B
330
5
100
AcDbSymbolTableRecord
100
AcDbLinetypeTableRecord
  2
HIDDEN
 70
     0
  3
Hidden __ __ __ __ __ __ __ __ __ __ __ __ __ __
 72
    65
 73
     2
 40
0.075
 49
0.05
 74
     0
 49
-0.025
 74
     0
  0
LTYPE
  5
3C
330
5
100
AcDbSymbolTableRecord
100
AcDbLinetypeTableRecord
  2
PHANTOM
 70
     0
  3
Phantom ______  __  __  ______  __  __  ______
 72
    65
 73
     6
 40
0.5
 49
0.25
 74
     0
 49
-0.05
 74
     0
 49
0.05
 74
     0
 49
-0.05
 74
     0
 49
0.05
 74
     0
 49
-0.05
 74
     0
  0
LTYPE
  5
3D
330
5
100
AcDbSymbolTableRecord
100
AcDbLinetypeTableRecord
  2
CENTER
 70
     0
  3
Center ____ _ ____ _ ____ _ ____ _ ____ _ ____
 72
    65
 73
     4
 40
0.4
 49
0.25
 74
     0
 49
-0.05
 74
     0
 49
0.05
 74
     0
 49
-0.05
 74
     0
  0
LTYPE
  5
3E
330
5
100
AcDbSymbolTableRecord
100
AcDbLinetypeTableRecord
  2
CENTERX2
 70
     0
  3
Center (2x) ________  __  ________  __  _____
 72
    65
 73
     4
 40
0.8
 49
0.5
 74
     0
 49
-0.1
 74
     0
 49
0.1
 74
     0
 49
-0.1
 74
     0
  0
LTYPE
  5
3F
330
5
100
AcDbSymbolTableRecord
100
AcDbLinetypeTableRecord
  2
DOT2
 70
     0
  3
Dot (.5x) ........................................
 72
    65
 73
     2
 40
0.025
 49
0.0
 74
     0
 49
-0.025
 74
     0
  0
ENDTAB
  0
TABLE
  2
LAYER
  5
2
330
0
100
AcDbSymbolTable
 70
     2
  0
LAYER
  5
10
330
2
100
AcDbSymbolTableRecord
100
AcDbLayerTableRecord
  2
0
 70
     0
 62
     7
  6
CONTINUOUS
  0
LAYER
  5
40
330
2
100
AcDbSymbolTableRecord
100
AcDbLayerTableRecord
  2
FORMAT
 70
     0
 62
     7
  6
CONTINUOUS
  0
ENDTAB
  0
TABLE
  2
STYLE
  5
3
330
0
100
AcDbSymbolTable
 70
     4
  0
STYLE
  5
11
330
3
100
AcDbSymbolTableRecord
100
AcDbTextStyleTableRecord
  2
STANDARD
 70
     0
 40
0.0
 41
1.0
 50
0.0
 71
     0
 42
0.2
  3
txt
  4

  0
STYLE
  5
6E
330
3
100
AcDbSymbolTableRecord
100
AcDbTextStyleTableRecord
  2
SLDTEXTSTYLE0
 70
     0
 40
0.0
 41
0.75
 50
0.0
 71
     0
 42
0.2
  3
TXT
  4

  0
STYLE
  5
93
330
3
100
AcDbSymbolTableRecord
100
AcDbTextStyleTableRecord
  2
SLDTEXTSTYLE1
 70
     0
 40
0.0
 41
0.6875
 50
0.0
 71
     0
 42
0.2
  3
TXT
  4

  0
STYLE
  5
99
330
3
100
AcDbSymbolTableRecord
100
AcDbTextStyleTableRecord
  2
SLDTEXTSTYLE2
 70
     0
 40
0.0
 41
0.6944444444
 50
0.0
 71
     0
 42
0.2
  3
TXT
  4

  0
ENDTAB
  0
TABLE
  2
VIEW
  5
6
330
0
100
AcDbSymbolTable
 70
     0
  0
ENDTAB
  0
TABLE
  2
UCS
  5
7
330
0
100
AcDbSymbolTable
 70
     0
  0
ENDTAB
  0
TABLE
  2
APPID
  5
9
330
0
100
AcDbSymbolTable
 70
     1
  0
APPID
  5
12
330
9
100
AcDbSymbolTableRecord
100
AcDbRegAppTableRecord
  2
ACAD
 70
     0
  0
ENDTAB
  0
TABLE
  2
DIMSTYLE
  5
A
330
0
100
AcDbSymbolTable
 70
     1
  0
DIMSTYLE
105
27
330
A
100
AcDbSymbolTableRecord
100
AcDbDimStyleTableRecord
  2
STANDARD
 70
     0
  3

  4

  5

  6

  7

 40
1.0
 41
0.18
 42
0.0625
 43
0.38
 44
0.18
 45
0.0
 46
0.0
 47
0.0
 48
0.0
140
0.18
141
0.09
142
0.0
143
25.4
144
1.0
145
0.0
146
1.0
147
0.09
 71
     0
 72
     0
 73
     1
 74
     1
 75
     0
 76
     0
 77
     0
 78
     0
170
     0
171
     2
172
     0
173
     0
174
     0
175
     0
176
     0
177
     0
178
     0
270
     2
271
     4
272
     4
273
     2
274
     2
340
11
275
     0
280
     0
281
     0
282
     0
283
     1
284
     0
285
     0
286
     0
287
     3
288
     0
  0
ENDTAB
  0
TABLE
  2
BLOCK_RECORD
  5
1
330
0
100
AcDbSymbolTable
 70
     4
  0
BLOCK_RECORD
  5
1F
330
1
100
AcDbSymbolTableRecord
100
AcDbBlockTableRecord
  2
*MODEL_SPACE
  0
BLOCK_RECORD
  5
1B
330
1
100
AcDbSymbolTableRecord
100
AcDbBlockTableRecord
  2
*PAPER_SPACE
  0
BLOCK_RECORD
  5
A8
330
1
100
AcDbSymbolTableRecord
100
AcDbBlockTableRecord
  2
SW_NOTE_0
  0
BLOCK_RECORD
  5
AE
330
1
100
AcDbSymbolTableRecord
100
AcDbBlockTableRecord
  2
SW_NOTE_1
  0
BLOCK_RECORD
  5
C2
330
1
100
AcDbSymbolTableRecord
100
AcDbBlockTableRecord
  2
SW_NOTE_2
  0
ENDTAB
  0
ENDSEC
  0
SECTION
  2
BLOCKS
  0
BLOCK
  5
20
330
1F
100
AcDbEntity
  8
0
100
AcDbBlockBegin
  2
*MODEL_SPACE
 70
     0
 10
0.0
 20
0.0
 30
0.0
  3
*MODEL_SPACE
  1

  0
ENDBLK
  5
21
330
1F
100
AcDbEntity
  8
0
100
AcDbBlockEnd
  0
BLOCK
  5
1C
330
1B
100
AcDbEntity
 67
     1
  8
0
100
AcDbBlockBegin
  2
*PAPER_SPACE
 70
     0
 10
0.0
 20
0.0
 30
0.0
  3
*PAPER_SPACE
  1

  0
ENDBLK
  5
1D
330
1B
100
AcDbEntity
 67
     1
  8
0
100
AcDbBlockEnd
  0
BLOCK
  5
A9
330
A8
100
AcDbEntity
  8
0
100
AcDbBlockBegin
  2
SW_NOTE_0
 70
     0
 10
0.0
 20
0.0
 30
0.0
  3
SW_NOTE_0
  1

  0
MTEXT
  5
AB
330
A8
100
AcDbEntity
  8
0
  6
CONTINUOUS
 62
     0
100
AcDbMText
 10
0.0
 20
0.0773440644
 30
0.0
 40
0.06
 41
0.0
 71
     1
 72
     1
  1
INTERPRET GEOMETRIC
  7
SLDTEXTSTYLE0
  0
MTEXT
  5
AC
330
A8
100
AcDbEntity
  8
0
  6
CONTINUOUS
 62
     0
100
AcDbMText
 10
0.0
 20
-0.0220260102
 30
0.0
 40
0.06
 41
0.0
 71
     1
 72
     1
  1
TOLERANCING PER:
  7
SLDTEXTSTYLE0
  0
ENDBLK
  5
AA
330
A8
100
AcDbEntity
  8
0
100
AcDbBlockEnd
  0
BLOCK
  5
AF
330
AE
100
AcDbEntity
  8
0
100
AcDbBlockBegin
  2
SW_NOTE_1
 70
     0
 10
0.0
 20
0.0
 30
0.0
  3
SW_NOTE_1
  1

  0
MTEXT
  5
B1
330
AE
100
AcDbEntity
  8
0
  6
CONTINUOUS
 62
     0
100
AcDbMText
 10
0.0
 20
0.0837894031
 30
0.0
 40
0.065
 41
0.0
 71
     1
 72
     1
  1
DIMENSIONS ARE IN INCHES
  7
SLDTEXTSTYLE0
  0
MTEXT
  5
B2
330
AE
100
AcDbEntity
  8
0
  6
CONTINUOUS
 62
     0
100
AcDbMText
 10
0.0
 20
-0.0205806729
 30
0.0
 40
0.065
 41
0.0
 71
     1
 72
     1
  1
TOLERANCES:
  7
SLDTEXTSTYLE0
  0
MTEXT
  5
B3
330
AE
100
AcDbEntity
  8
0
  6
CONTINUOUS
 62
     0
100
AcDbMText
 10
0.0
 20
-0.1249507489
 30
0.0
 40
0.065
 41
0.0
 71
     1
 72
     1
  1
FRACTIONAL
  7
SLDTEXTSTYLE0
  0
MTEXT
  5
B4
330
AE
100
AcDbEntity
  8
0
  6
CONTINUOUS
 62
     0
100
AcDbMText
 10
0.5175850875
 20
-0.1249507489
 30
0.0
 40
0.065
 41
0.0
 71
     1
 72
     1
  1
%%p
  7
SLDTEXTSTYLE0
  0
MTEXT
  5
B5
330
AE
100
AcDbEntity
  8
0
  6
CONTINUOUS
 62
     0
100
AcDbMText
 10
0.0
 20
-0.2293208248
 30
0.0
 40
0.065
 41
0.0
 71
     1
 72
     1
  1
ANGULAR: MACH
  7
SLDTEXTSTYLE0
  0
MTEXT
  5
B6
330
AE
100
AcDbEntity
  8
0
  6
CONTINUOUS
 62
     0
100
AcDbMText
 10
0.7233732769
 20
-0.2293208248
 30
0.0
 40
0.065
 41
0.0
 71
     1
 72
     1
  1
%%p
  7
SLDTEXTSTYLE0
  0
MTEXT
  5
B7
330
AE
100
AcDbEntity
  8
0
  6
CONTINUOUS
 62
     0
100
AcDbMText
 10
0.7852857683
 20
-0.2293208248
 30
0.0
 40
0.065
 41
0.0
 71
     1
 72
     1
  1
     BEND 
  7
SLDTEXTSTYLE0
  0
MTEXT
  5
B8
330
AE
100
AcDbEntity
  8
0
  6
CONTINUOUS
 62
     0
100
AcDbMText
 10
1.14784136
 20
-0.2293208248
 30
0.0
 40
0.065
 41
0.0
 71
     1
 72
     1
  1
%%p
  7
SLDTEXTSTYLE0
  0
MTEXT
  5
B9
330
AE
100
AcDbEntity
  8
0
  6
CONTINUOUS
 62
     0
100
AcDbMText
 10
0.0
 20
-0.3336909008
 30
0.0
 40
0.065
 41
0.0
 71
     1
 72
     1
  1
TWO PLACE DECIMAL    
  7
SLDTEXTSTYLE0
  0
MTEXT
  5
BA
330
AE
100
AcDbEntity
  8
0
  6
CONTINUOUS
 62
     0
100
AcDbMText
 10
0.9794349188
 20
-0.3336909008
 30
0.0
 40
0.065
 41
0.0
 71
     1
 72
     1
  1
%%p
  7
SLDTEXTSTYLE0
  0
MTEXT
  5
BB
330
AE
100
AcDbEntity
  8
0
  6
CONTINUOUS
 62
     0
100
AcDbMText
 10
0.0
 20
-0.4380609768
 30
0.0
 40
0.065
 41
0.0
 71
     1
 72
     1
  1
THREE PLACE DECIMAL  
  7
SLDTEXTSTYLE0
  0
MTEXT
  5
BC
330
AE
100
AcDbEntity
  8
0
  6
CONTINUOUS
 62
     0
100
AcDbMText
 10
0.9738038639
 20
-0.4380609768
 30
0.0
 40
0.065
 41
0.0
 71
     1
 72
     1
  1
%%p
  7
SLDTEXTSTYLE0
  0
ENDBLK
  5
B0
330
AE
100
AcDbEntity
  8
0
100
AcDbBlockEnd
  0
BLOCK
  5
C3
330
C2
100
AcDbEntity
  8
0
100
AcDbBlockBegin
  2
SW_NOTE_2
 70
     0
 10
0.0
 20
0.0
 30
0.0
  3
SW_NOTE_2
  1

  0
MTEXT
  5
C5
330
C2
100
AcDbEntity
  8
0
  6
CONTINUOUS
 62
     0
100
AcDbMText
 10
0.0
 20
0.0773440644
 30
0.0
 40
0.06
 41
0.0
 71
     1
 72
     1
  1
THE INFORMATION CONTAINED IN THIS
  7
SLDTEXTSTYLE0
  0
MTEXT
  5
C6
330
C2
100
AcDbEntity
  8
0
  6
CONTINUOUS
 62
     0
100
AcDbMText
 10
0.0
 20
-0.0220260102
 30
0.0
 40
0.06
 41
0.0
 71
     1
 72
     1
  1
DRAWING IS THE SOLE PROPERTY OF
  7
SLDTEXTSTYLE0
  0
MTEXT
  5
C7
330
C2
100
AcDbEntity
  8
0
  6
CONTINUOUS
 62
     0
100
AcDbMText
 10
0.0
 20
-0.1213960848
 30
0.0
 40
0.06
 41
0.0
 71
     1
 72
     1
  1
Candy Controls.  ANY 
  7
SLDTEXTSTYLE0
  0
MTEXT
  5
C8
330
C2
100
AcDbEntity
  8
0
  6
CONTINUOUS
 62
     0
100
AcDbMText
 10
0.0
 20
-0.2207661593
 30
0.0
 40
0.06
 41
0.0
 71
     1
 72
     1
  1
REPRODUCTION IN PART OR AS A WHOLE
  7
SLDTEXTSTYLE0
  0
MTEXT
  5
C9
330
C2
100
AcDbEntity
  8
0
  6
CONTINUOUS
 62
     0
100
AcDbMText
 10
0.0
 20
-0.3201362339
 30
0.0
 40
0.06
 41
0.0
 71
     1
 72
     1
  1
WITHOUT THE WRITTEN PERMISSION OF
  7
SLDTEXTSTYLE0
  0
MTEXT
  5
CA
330
C2
100
AcDbEntity
  8
0
  6
CONTINUOUS
 62
     0
100
AcDbMText
 10
0.0
 20
-0.4195063085
 30
0.0
 40
0.06
 41
0.0
 71
     1
 72
     1
  1
Candy Controls IS 
  7
SLDTEXTSTYLE0
  0
MTEXT
  5
CB
330
C2
100
AcDbEntity
  8
0
  6
CONTINUOUS
 62
     0
100
AcDbMText
 10
0.0
 20
-0.518876383
 30
0.0
 40
0.06
 41
0.0
 71
     1
 72
     1
  1
PROHIBITED.
  7
SLDTEXTSTYLE0
  0
ENDBLK
  5
C4
330
C2
100
AcDbEntity
  8
0
100
AcDbBlockEnd
  0
ENDSEC
  0
SECTION
  2
ENTITIES
  0
LINE
  5
41
330
1F
100
AcDbEntity
  8
0
  6
CONTINUOUS
 62
     7
100
AcDbLine
 10
0.329927
 20
8.1920731707
 30
0.0
 11
10.629927
 21
8.1920731707
 31
0.0
  0
LINE
  5
42
330
1F
100
AcDbEntity
  8
0
  6
CONTINUOUS
 62
     7
100
AcDbLine
 10
0.329927
 20
8.1920731707
 30
0.0
 11
0.329927
 21
0.3920731707
 31
0.0
  0
LINE
  5
43
330
1F
100
AcDbEntity
  8
0
  6
CONTINUOUS
 62
     7
100
AcDbLine
 10
10.629927
 20
0.3920731707
 30
0.0
 11
0.329927
 21
0.3920731707
 31
0.0
  0
LINE
  5
44
330
1F
100
AcDbEntity
  8
0
  6
CONTINUOUS
 62
     7
100
AcDbLine
 10
10.629927
 20
0.3920731707
 30
0.0
 11
10.629927
 21
8.1920731707
 31
0.0
  0
LINE
  5
45
330
1F
100
AcDbEntity
  8
0
  6
CONTINUOUS
 62
     7
100
AcDbLine
 10
4.7981841288
 20
0.3920731707
 30
0.0
 11
4.7981841288
 21
2.3564211366
 31
0.0
  0
LINE
  5
46
330
1F
100
AcDbEntity
  8
0
  6
CONTINUOUS
 62
     7
100
AcDbLine
 10
2.8210345579
 20
2.3564211366
 30
0.0
 11
10.629927
 21
2.3564211366
 31
0.0
  0
LINE
  5
47
330
1F
100
AcDbEntity
  8
0
  6
CONTINUOUS
 62
     7
100
AcDbLine
 10
6.1796352514
 20
2.3564211366
 30
0.0
 11
6.1796352514
 21
0.3920731707
 31
0.0
  0
LINE
  5
48
330
1F
100
AcDbEntity
  8
0
  6
CONTINUOUS
 62
     7
100
AcDbLine
 10
7.8712070044
 20
2.3564211366
 30
0.0
 11
7.8712070044
 21
0.3920731707
 31
0.0
  0
LINE
  5
49
330
1F
100
AcDbEntity
  8
0
  6
CONTINUOUS
 62
     7
100
AcDbLine
 10
7.8712070044
 20
0.6049590101
 30
0.0
 11
10.629927
 21
0.6049590101
 31
0.0
  0
LINE
  5
4A
330
1F
100
AcDbEntity
  8
0
  6
CONTINUOUS
 62
     7
100
AcDbLine
 10
7.8712070044
 20
1.1119362457
 30
0.0
 11
10.629927
 21
1.1119362457
 31
0.0
  0
LINE
  5
4B
330
1F
100
AcDbEntity
  8
0
  6
CONTINUOUS
 62
     7
100
AcDbLine
 10
7.8712070044
 20
1.9892703708
 30
0.0
 11
10.629927
 21
1.9892703708
 31
0.0
  0
LINE
  5
4C
330
1F
100
AcDbEntity
  8
0
  6
CONTINUOUS
 62
     7
100
AcDbLine
 10
8.266751752
 20
1.1119362457
 30
0.0
 11
8.266751752
 21
0.6049590101
 31
0.0
  0
LINE
  5
4D
330
1F
100
AcDbEntity
  8
0
  6
CONTINUOUS
 62
     7
100
AcDbLine
 10
8.6943435176
 20
0.6049590101
 30
0.0
 11
8.6943435176
 21
0.3920731707
 31
0.0
  0
LINE
  5
4E
330
1F
100
AcDbEntity
  8
0
  6
CONTINUOUS
 62
     7
100
AcDbLine
 10
10.0579917045
 20
1.1119362457
 30
0.0
 11
10.0579917045
 21
0.6049590101
 31
0.0
  0
LINE
  5
4F
330
1F
100
AcDbEntity
  8
0
  6
CONTINUOUS
 62
     7
100
AcDbLine
 10
9.6662556631
 20
0.6049590101
 30
0.0
 11
9.6662556631
 21
0.3920731707
 31
0.0
  0
LINE
  5
50
330
1F
100
AcDbEntity
  8
0
  6
CONTINUOUS
 62
     7
100
AcDbLine
 10
2.8210345579
 20
0.5883479999
 30
0.0
 11
6.1796352514
 21
0.5883479999
 31
0.0
  0
LINE
  5
51
330
1F
100
AcDbEntity
  8
0
  6
CONTINUOUS
 62
     7
100
AcDbLine
 10
6.1796352514
 20
1.7939211366
 30
0.0
 11
7.8712070044
 21
1.7939211366
 31
0.0
  0
LINE
  5
52
330
1F
100
AcDbEntity
  8
0
  6
CONTINUOUS
 62
     7
100
AcDbLine
 10
6.1796352514
 20
1.9814211366
 30
0.0
 11
7.8712070044
 21
1.9814211366
 31
0.0
  0
LINE
  5
53
330
1F
100
AcDbEntity
  8
0
  6
CONTINUOUS
 62
     7
100
AcDbLine
 10
6.1796352514
 20
2.1689211366
 30
0.0
 11
7.8712070044
 21
2.1689211366
 31
0.0
  0
LINE
  5
54
330
1F
100
AcDbEntity
  8
0
  6
CONTINUOUS
 62
     7
100
AcDbLine
 10
7.8712070044
 20
1.2314211366
 30
0.0
 11
6.1796352514
 21
1.2314211366
 31
0.0
  0
LINE
  5
55
330
1F
100
AcDbEntity
  8
0
  6
CONTINUOUS
 62
     7
100
AcDbLine
 10
7.3921580388
 20
2.3564211366
 30
0.0
 11
7.3921580388
 21
1.2314211366
 31
0.0
  0
LINE
  5
56
330
1F
100
AcDbEntity
  8
0
  6
CONTINUOUS
 62
     7
100
AcDbLine
 10
6.9236308342
 20
2.3564211366
 30
0.0
 11
6.9236308342
 21
1.2314211366
 31
0.0
  0
LINE
  5
57
330
1F
100
AcDbEntity
  8
0
  6
CONTINUOUS
 62
     7
100
AcDbLine
 10
4.7981841288
 20
0.8557965305
 30
0.0
 11
6.1796352514
 21
0.8557965305
 31
0.0
  0
LINE
  5
58
330
1F
100
AcDbEntity
  8
0
  6
CONTINUOUS
 62
     7
100
AcDbLine
 10
4.7981841288
 20
1.1257965305
 30
0.0
 11
6.1796352514
 21
1.1257965305
 31
0.0
  0
LINE
  5
59
330
1F
100
AcDbEntity
  8
0
  6
CONTINUOUS
 62
     7
100
AcDbLine
 10
2.8210345579
 20
0.3920731707
 30
0.0
 11
2.8210345579
 21
2.3564211366
 31
0.0
  0
LINE
  5
5A
330
1F
100
AcDbEntity
  8
0
  6
CONTINUOUS
 62
     7
100
AcDbLine
 10
2.8210345579
 20
1.1064211366
 30
0.0
 11
4.7981841288
 21
1.1064211366
 31
0.0
  0
LINE
  5
5B
330
1F
100
AcDbEntity
  8
0
  6
CONTINUOUS
 62
     7
100
AcDbLine
 10
2.8210345579
 20
1.3564211366
 30
0.0
 11
4.7981841288
 21
1.3564211366
 31
0.0
  0
LINE
  5
5C
330
1F
100
AcDbEntity
  8
0
  6
CONTINUOUS
 62
     7
100
AcDbLine
 10
2.8210345579
 20
1.6064211366
 30
0.0
 11
4.7981841288
 21
1.6064211366
 31
0.0
  0
LINE
  5
5D
330
1F
100
AcDbEntity
  8
0
  6
CONTINUOUS
 62
     7
100
AcDbLine
 10
2.8210345579
 20
1.8564211366
 30
0.0
 11
4.7981841288
 21
1.8564211366
 31
0.0
  0
LINE
  5
5E
330
1F
100
AcDbEntity
  8
0
  6
CONTINUOUS
 62
     7
100
AcDbLine
 10
3.8190146875
 20
2.3564211366
 30
0.0
 11
3.8190146875
 21
0.5883479999
 31
0.0
  0
LINE
  5
5F
330
1F
100
AcDbEntity
  8
0
  6
CONTINUOUS
 62
     7
100
AcDbLine
 10
6.1796352514
 20
2.2020813496
 30
0.0
 11
4.7981841288
 21
2.2020813496
 31
0.0
  0
LINE
  5
60
330
1F
100
AcDbEntity
  8
0
  6
CONTINUOUS
 62
     7
100
AcDbLine
 10
7.8712070044
 20
1.6064211366
 30
0.0
 11
6.1796352514
 21
1.6064211366
 31
0.0
  0
LINE
  5
61
330
1F
100
AcDbEntity
  8
0
  6
CONTINUOUS
 62
     7
100
AcDbLine
 10
7.8712070044
 20
1.4189211366
 30
0.0
 11
6.1796352514
 21
1.4189211366
 31
0.0
  0
LINE
  5
62
330
1F
100
AcDbEntity
  8
0
  6
CONTINUOUS
 62
     7
100
AcDbLine
 10
2.8210345579
 20
2.1064211366
 30
0.0
 11
4.7981841288
 21
2.1064211366
 31
0.0
  0
LINE
  5
63
330
1F
100
AcDbEntity
  8
0
  6
CONTINUOUS
 62
     7
100
AcDbLine
 10
4.7981841288
 20
1.3957965305
 30
0.0
 11
6.1796352514
 21
1.3957965305
 31
0.0
  0
LINE
  5
64
330
1F
100
AcDbEntity
  8
0
  6
CONTINUOUS
 62
     7
100
AcDbLine
 10
2.8210345579
 20
0.8564211366
 30
0.0
 11
4.7981841288
 21
0.8564211366
 31
0.0
  0
LINE
  5
65
330
1F
100
AcDbEntity
  8
0
  6
CONTINUOUS
 62
     7
100
AcDbLine
 10
1.1838252943
 20
0.3920731707
 30
0.0
 11
1.1838252943
 21
1.3064211366
 31
0.0
  0
LINE
  5
66
330
1F
100
AcDbEntity
  8
0
  6
CONTINUOUS
 62
     7
100
AcDbLine
 10
2.8210345579
 20
1.3064211366
 30
0.0
 11
1.1838252943
 21
1.3064211366
 31
0.0
  0
LINE
  5
67
330
1F
100
AcDbEntity
  8
0
  6
CONTINUOUS
 62
     7
100
AcDbLine
 10
8.660927
 20
0.3920731707
 30
0.0
 11
8.660927
 21
0.3072739649
 31
0.0
  0
LINE
  5
68
330
1F
100
AcDbEntity
  8
0
  6
CONTINUOUS
 62
     7
100
AcDbLine
 10
6.692177
 20
0.3920731707
 30
0.0
 11
6.692177
 21
0.3072739649
 31
0.0
  0
LINE
  5
69
330
1F
100
AcDbEntity
  8
0
  6
CONTINUOUS
 62
     7
100
AcDbLine
 10
4.723427
 20
0.3920731707
 30
0.0
 11
4.723427
 21
0.3072739649
 31
0.0
  0
LINE
  5
6A
330
1F
100
AcDbEntity
  8
0
  6
CONTINUOUS
 62
     7
100
AcDbLine
 10
2.754677
 20
0.3920731707
 30
0.0
 11
2.754677
 21
0.3072739649
 31
0.0
  0
LINE
  5
6B
330
1F
100
AcDbEntity
  8
0
  6
CONTINUOUS
 62
     7
100
AcDbLine
 10
2.754677
 20
0.3920731707
 30
0.0
 11
2.7672319738
 21
0.3575
 31
0.0
  0
LINE
  5
6C
330
1F
100
AcDbEntity
  8
0
  6
CONTINUOUS
 62
     7
100
AcDbLine
 10
2.7672319738
 20
0.3575
 30
0.0
 11
2.7414258825
 21
0.3575
 31
0.0
  0
LINE
  5
6D
330
1F
100
AcDbEntity
  8
0
  6
CONTINUOUS
 62
     7
100
AcDbLine
 10
2.7414258825
 20
0.3575
 30
0.0
 11
2.754677
 21
0.3920731707
 31
0.0
  0
MTEXT
  5
91
330
1F
100
AcDbEntity
  8
0
  6
CONTINUOUS
 62
     7
100
AcDbMText
 10
4.9775846961
 20
0.5178452352
 30
0.0
 40
0.0625
 41
0.0
 71
     1
 72
     1
  1
DO NOT SCALE DRAWING
  7
SLDTEXTSTYLE0
  0
MTEXT
  5
92
330
1F
100
AcDbEntity
  8
0
  6
CONTINUOUS
 62
     7
100
AcDbMText
 10
8.7939782804
 20
0.9417064595
 30
0.0
 40
0.125
 41
0.0
 71
     1
 72
     1
  1
CL18-C26
  7
SLDTEXTSTYLE0
  0
MTEXT
  5
94
330
1F
100
AcDbEntity
  8
0
  6
CONTINUOUS
 62
     7
100
AcDbMText
 10
9.7571278483
 20
0.5524239532
 30
0.0
 40
0.1
 41
0.0
 71
     1
 72
     1
  1
SHEET 1 OF 1
  7
SLDTEXTSTYLE1
  0
MTEXT
  5
95
330
1F
100
AcDbEntity
  8
0
  6
CONTINUOUS
 62
     7
100
AcDbMText
 10
4.8448077858
 20
2.3132954224
 30
0.0
 40
0.07
 41
0.0
 71
     1
 72
     1
  1
UNLESS OTHERWISE SPECIFIED:
  7
SLDTEXTSTYLE0
  0
MTEXT
  5
96
330
1F
100
AcDbEntity
  8
0
  6
CONTINUOUS
 62
     7
100
AcDbMText
 10
7.9586139647
 20
0.5520987879
 30
0.0
 40
0.1
 41
0.0
 71
     1
 72
     1
  1
SCALE: 2:1
  7
SLDTEXTSTYLE0
  0
MTEXT
  5
97
330
1F
100
AcDbEntity
  8
0
  6
CONTINUOUS
 62
     7
100
AcDbMText
 10
8.7023691647
 20
0.5486763345
 30
0.0
 40
0.1
 41
0.0
 71
     1
 72
     1
  1
WEIGHT: 
  7
SLDTEXTSTYLE0
  0
MTEXT
  5
98
330
1F
100
AcDbEntity
  8
0
  6
CONTINUOUS
 62
     7
100
AcDbMText
 10
10.2277580983
 20
1.081966299
 30
0.0
 40
0.1
 41
0.0
 71
     1
 72
     1
  1
REV
  7
SLDTEXTSTYLE0
  0
MTEXT
  5
9A
330
1F
100
AcDbEntity
  8
0
  6
CONTINUOUS
 62
     7
100
AcDbMText
 10
8.2984570898
 20
1.0858725293
 30
0.0
 40
0.1
 41
0.0
 71
     1
 72
     1
  1
DWG.  NO.
  7
SLDTEXTSTYLE2
  0
MTEXT
  5
9B
330
1F
100
AcDbEntity
  8
0
  6
CONTINUOUS
 62
     7
100
AcDbMText
 10
7.9598482632
 20
0.9442140768
 30
0.0
 40
0.25
 41
0.0
 71
     1
 72
     1
  1
A
  7
SLDTEXTSTYLE0
  0
MTEXT
  5
9C
330
1F
100
AcDbEntity
  8
0
  6
CONTINUOUS
 62
     7
100
AcDbMText
 10
7.9519581822
 20
1.0872713483
 30
0.0
 40
0.1
 41
0.0
 71
     1
 72
     1
  1
SIZE
  7
SLDTEXTSTYLE0
  0
MTEXT
  5
9D
330
1F
100
AcDbEntity
  8
0
  6
CONTINUOUS
 62
     7
100
AcDbMText
 10
7.9170704177
 20
1.9547881128
 30
0.0
 40
0.1
 41
0.0
 71
     1
 72
     1
  1
TITLE:
  7
SLDTEXTSTYLE0
  0
MTEXT
  5
9E
330
1F
100
AcDbEntity
  8
0
  6
CONTINUOUS
 62
     7
100
AcDbMText
 10
7.0363774929
 20
2.2906161274
 30
0.0
 40
0.065
 41
0.0
 71
     1
 72
     1
  1
NAME
  7
SLDTEXTSTYLE0
  0
MTEXT
  5
9F
330
1F
100
AcDbEntity
  8
0
  6
CONTINUOUS
 62
     7
100
AcDbMText
 10
7.5281510634
 20
2.2888799118
 30
0.0
 40
0.065
 41
0.0
 71
     1
 72
     1
  1
DATE
  7
SLDTEXTSTYLE0
  0
MTEXT
  5
A0
330
1F
100
AcDbEntity
  8
0
  6
CONTINUOUS
 62
     7
100
AcDbMText
 10
6.2277147029
 20
1.1876913145
 30
0.0
 40
0.065
 41
0.0
 71
     1
 72
     1
  1
COMMENTS:
  7
SLDTEXTSTYLE0
  0
MTEXT
  5
A1
330
1F
100
AcDbEntity
  8
0
  6
CONTINUOUS
 62
     7
100
AcDbMText
 10
6.2268411461
 20
1.3536101679
 30
0.0
 40
0.065
 41
0.0
 71
     1
 72
     1
  1
Q.A.
  7
SLDTEXTSTYLE0
  0
MTEXT
  5
A2
330
1F
100
AcDbEntity
  8
0
  6
CONTINUOUS
 62
     7
100
AcDbMText
 10
6.2284654509
 20
1.5395328424
 30
0.0
 40
0.065
 41
0.0
 71
     1
 72
     1
  1
MFG APPR.
  7
SLDTEXTSTYLE0
  0
MTEXT
  5
A3
330
1F
100
AcDbEntity
  8
0
  6
CONTINUOUS
 62
     7
100
AcDbMText
 10
6.2235171344
 20
1.7267501785
 30
0.0
 40
0.065
 41
0.0
 71
     1
 72
     1
  1
ENG APPR.
  7
SLDTEXTSTYLE0
  0
MTEXT
  5
A4
330
1F
100
AcDbEntity
  8
0
  6
CONTINUOUS
 62
     7
100
AcDbMText
 10
6.2264103951
 20
1.9092699088
 30
0.0
 40
0.065
 41
0.0
 71
     1
 72
     1
  1
CHECKED
  7
SLDTEXTSTYLE0
  0
MTEXT
  5
A5
330
1F
100
AcDbEntity
  8
0
  6
CONTINUOUS
 62
     7
100
AcDbMText
 10
6.2242794356
 20
2.1016301232
 30
0.0
 40
0.065
 41
0.0
 71
     1
 72
     1
  1
DRAWN
  7
SLDTEXTSTYLE0
  0
MTEXT
  5
A6
330
1F
100
AcDbEntity
  8
0
  6
CONTINUOUS
 62
     7
100
AcDbMText
 10
4.8208600979
 20
0.834523235
 30
0.0
 40
0.06
 41
0.0
 71
     1
 72
     1
  1
FINISH
  7
SLDTEXTSTYLE0
  0
MTEXT
  5
A7
330
1F
100
AcDbEntity
  8
0
  6
CONTINUOUS
 62
     7
100
AcDbMText
 10
4.8181240648
 20
1.1028217587
 30
0.0
 40
0.06
 41
0.0
 71
     1
 72
     1
  1
MATERIAL
  7
SLDTEXTSTYLE0
  0
INSERT
  5
AD
330
1F
100
AcDbEntity
  8
0
  6
CONTINUOUS
 62
     7
100
AcDbBlockReference
  2
SW_NOTE_0
 10
4.8231926633
 20
1.2646542947
 30
0.0
  0
INSERT
  5
BD
330
1F
100
AcDbEntity
  8
0
  6
CONTINUOUS
 62
     7
100
AcDbBlockReference
  2
SW_NOTE_1
 10
4.8353339353
 20
2.0049168724
 30
0.0
  0
MTEXT
  5
BE
330
1F
100
AcDbEntity
  8
0
  6
CONTINUOUS
 62
     7
100
AcDbMText
 10
3.5531400086
 20
0.5200091997
 30
0.0
 40
0.0625
 41
0.0
 71
     1
 72
     1
  1
APPLICATION
  7
SLDTEXTSTYLE0
  0
MTEXT
  5
BF
330
1F
100
AcDbEntity
  8
0
  6
CONTINUOUS
 62
     7
100
AcDbMText
 10
4.1005607758
 20
0.7502454275
 30
0.0
 40
0.0625
 41
0.0
 71
     1
 72
     1
  1
USED ON
  7
SLDTEXTSTYLE0
  0
MTEXT
  5
C0
330
1F
100
AcDbEntity
  8
0
  6
CONTINUOUS
 62
     7
100
AcDbMText
 10
3.1040019536
 20
0.7492094783
 30
0.0
 40
0.0625
 41
0.0
 71
     1
 72
     1
  1
NEXT ASSY
  7
SLDTEXTSTYLE0
  0
MTEXT
  5
C1
330
1F
100
AcDbEntity
  8
0
  6
CONTINUOUS
 62
     7
100
AcDbMText
 10
1.3712489489
 20
1.2496672684
 30
0.0
 40
0.06
 41
0.0
 71
     1
 72
     1
  1
PROPRIETARY AND CONFIDENTIAL
  7
SLDTEXTSTYLE0
  0
INSERT
  5
CC
330
1F
100
AcDbEntity
  8
0
  6
CONTINUOUS
 62
     7
100
AcDbBlockReference
  2
SW_NOTE_2
 10
1.2226209074
 20
1.0313492921
 30
0.0
  0
MTEXT
  5
CD
330
1F
100
AcDbEntity
  8
0
  6
CONTINUOUS
 62
     7
100
AcDbMText
 10
1.7387909509
 20
0.3105864247
 30
0.0
 40
0.09375
 41
0.0
 71
     1
 72
     1
  1
5
  7
SLDTEXTSTYLE0
  0
MTEXT
  5
CE
330
1F
100
AcDbEntity
  8
0
  6
CONTINUOUS
 62
     7
100
AcDbMText
 10
3.723800327
 20
0.3137237518
 30
0.0
 40
0.09375
 41
0.0
 71
     1
 72
     1
  1
4
  7
SLDTEXTSTYLE0
  0
MTEXT
  5
CF
330
1F
100
AcDbEntity
  8
0
  6
CONTINUOUS
 62
     7
100
AcDbMText
 10
5.6324457277
 20
0.3116191842
 30
0.0
 40
0.09375
 41
0.0
 71
     1
 72
     1
  1
3
  7
SLDTEXTSTYLE0
  0
MTEXT
  5
D0
330
1F
100
AcDbEntity
  8
0
  6
CONTINUOUS
 62
     7
100
AcDbMText
 10
7.6059721724
 20
0.3124391351
 30
0.0
 40
0.09375
 41
0.0
 71
     1
 72
     1
  1
2
  7
SLDTEXTSTYLE0
  0
MTEXT
  5
D1
330
1F
100
AcDbEntity
  8
0
  6
CONTINUOUS
 62
     7
100
AcDbMText
 10
9.6619921328
 20
0.301372012
 30
0.0
 40
0.09375
 41
0.0
 71
     1
 72
     1
  1
1
  7
SLDTEXTSTYLE0
  0
LINE
  5
D2
330
1F
100
AcDbEntity
  8
0
  6
CONTINUOUS
 62
     7
100
AcDbLine
 10
3.7428303291
 20
2.7350562391
 30
0.0
 11
4.3005731113
 21
2.7350562391
 31
0.0
  0
LINE
  5
D3
330
1F
100
AcDbEntity
  8
0
  6
CONTINUOUS
 62
     7
100
AcDbLine
 10
3.4250613002
 20
2.7350562391
 30
0.0
 11
3.6378434525
 21
2.7350562391
 31
0.0
  0
LINE
  5
D4
330
1F
100
AcDbEntity
  8
0
  6
CONTINUOUS
 62
     7
100
AcDbLine
 10
3.6378434525
 20
4.7823003336
 30
0.0
 11
3.4250613002
 21
4.7823003336
 31
0.0
  0
LINE
  5
D5
330
1F
100
AcDbEntity
  8
0
  6
CONTINUOUS
 62
     7
100
AcDbLine
 10
4.3005731113
 20
4.7823003336
 30
0.0
 11
3.7428303291
 21
4.7823003336
 31
0.0
  0
LINE
  5
D6
330
1F
100
AcDbEntity
  8
0
  6
CONTINUOUS
 62
     7
100
AcDbLine
 10
4.3005731113
 20
2.7350562391
 30
0.0
 11
4.3305731113
 21
2.7650562391
 31
0.0
  0
LINE
  5
D7
330
1F
100
AcDbEntity
  8
0
  6
CONTINUOUS
 62
     7
100
AcDbLine
 10
4.3305731113
 20
4.7523003336
 30
0.0
 11
4.3005731113
 21
4.7823003336
 31
0.0
  0
ARC
  5
D8
330
1F
100
AcDbEntity
  8
0
  6
CONTINUOUS
 62
     7
100
AcDbCircle
 10
3.8871872845
 20
4.4870247431
 30
0.0
 40
0.0393700787401574
100
AcDbArc
 50
90.0
 51
127.8442133817
  0
ARC
  5
D9
330
1F
100
AcDbEntity
  8
0
  6
CONTINUOUS
 62
     7
100
AcDbCircle
 10
4.2415179931
 20
4.4870247431
 30
0.0
 40
0.0393700787401574
100
AcDbArc
 50
51.637164197
 51
90.0
  0
LINE
  5
DA
330
1F
100
AcDbEntity
  8
0
  6
CONTINUOUS
 62
     7
100
AcDbLine
 10
3.9462424026
 20
3.7980483651
 30
0.0
 11
3.9462424026
 21
3.7193082077
 31
0.0
  0
LINE
  5
DB
330
1F
100
AcDbEntity
  8
0
  6
CONTINUOUS
 62
     7
100
AcDbLine
 10
4.182462875
 20
3.7193082077
 30
0.0
 11
4.182462875
 21
3.7980483651
 31
0.0
  0
LINE
  5
DC
330
1F
100
AcDbEntity
  8
0
  6
CONTINUOUS
 62
     7
100
AcDbLine
 10
2.3226990955
 20
2.7650562391
 30
0.0
 11
2.3526990955
 21
2.7350562391
 31
0.0
  0
LINE
  5
DD
330
1F
100
AcDbEntity
  8
0
  6
CONTINUOUS
 62
     7
100
AcDbLine
 10
3.2282109065
 20
4.7823003336
 30
0.0
 11
3.0154287543
 21
4.7823003336
 31
0.0
  0
LINE
  5
DE
330
1F
100
AcDbEntity
  8
0
  6
CONTINUOUS
 62
     7
100
AcDbLine
 10
2.3526990955
 20
2.7350562391
 30
0.0
 11
3.2282109065
 21
2.7350562391
 31
0.0
  0
LINE
  5
DF
330
1F
100
AcDbEntity
  8
0
  6
CONTINUOUS
 62
     7
100
AcDbLine
 10
3.2282109065
 20
3.5421428533
 30
0.0
 11
3.306951064
 21
3.5421428533
 31
0.0
  0
LINE
  5
E0
330
1F
100
AcDbEntity
  8
0
  6
CONTINUOUS
 62
     7
100
AcDbLine
 10
3.306951064
 20
3.9752137195
 30
0.0
 11
3.2282109065
 21
3.9752137195
 31
0.0
  0
LINE
  5
E1
330
1F
100
AcDbEntity
  8
0
  6
CONTINUOUS
 62
     7
100
AcDbLine
 10
3.3463211428
 20
3.5421428533
 30
0.0
 11
3.4250613002
 21
3.5421428533
 31
0.0
  0
LINE
  5
E2
330
1F
100
AcDbEntity
  8
0
  6
CONTINUOUS
 62
     7
100
AcDbLine
 10
3.4250613002
 20
3.9752137195
 30
0.0
 11
3.3463211428
 21
3.9752137195
 31
0.0
  0
LINE
  5
E3
330
1F
100
AcDbEntity
  8
0
  6
CONTINUOUS
 62
     7
100
AcDbLine
 10
3.2282109065
 20
4.240961751
 30
0.0
 11
3.306951064
 21
4.240961751
 31
0.0
  0
LINE
  5
E4
330
1F
100
AcDbEntity
  8
0
  6
CONTINUOUS
 62
     7
100
AcDbLine
 10
3.306951064
 20
4.6740326171
 30
0.0
 11
3.2282109065
 21
4.6740326171
 31
0.0
  0
LINE
  5
E5
330
1F
100
AcDbEntity
  8
0
  6
CONTINUOUS
 62
     7
100
AcDbLine
 10
3.3463211428
 20
4.240961751
 30
0.0
 11
3.4250613002
 21
4.240961751
 31
0.0
  0
LINE
  5
E6
330
1F
100
AcDbEntity
  8
0
  6
CONTINUOUS
 62
     7
100
AcDbLine
 10
3.4250613002
 20
4.6740326171
 30
0.0
 11
3.3463211428
 21
4.6740326171
 31
0.0
  0
LINE
  5
E7
330
1F
100
AcDbEntity
  8
0
  6
CONTINUOUS
 62
     7
100
AcDbLine
 10
3.2282109065
 20
2.8433239557
 30
0.0
 11
3.306951064
 21
2.8433239557
 31
0.0
  0
LINE
  5
E8
330
1F
100
AcDbEntity
  8
0
  6
CONTINUOUS
 62
     7
100
AcDbLine
 10
3.306951064
 20
3.2763948218
 30
0.0
 11
3.2282109065
 21
3.2763948218
 31
0.0
  0
LINE
  5
E9
330
1F
100
AcDbEntity
  8
0
  6
CONTINUOUS
 62
     7
100
AcDbLine
 10
3.3463211428
 20
2.8433239557
 30
0.0
 11
3.4250613002
 21
2.8433239557
 31
0.0
  0
LINE
  5
EA
330
1F
100
AcDbEntity
  8
0
  6
CONTINUOUS
 62
     7
100
AcDbLine
 10
3.4250613002
 20
3.2763948218
 30
0.0
 11
3.3463211428
 21
3.2763948218
 31
0.0
  0
LINE
  5
EB
330
1F
100
AcDbEntity
  8
0
  6
CONTINUOUS
 62
     7
100
AcDbLine
 10
3.3463211428
 20
4.7281664754
 30
0.0
 11
3.306951064
 21
4.7281664754
 31
0.0
  0
LINE
  5
EC
330
1F
100
AcDbEntity
  8
0
  6
CONTINUOUS
 62
     7
100
AcDbLine
 10
3.306951064
 20
2.7891900974
 30
0.0
 11
3.3463211428
 21
2.7891900974
 31
0.0
  0
LINE
  5
ED
330
1F
100
AcDbEntity
  8
0
  6
CONTINUOUS
 62
     7
100
AcDbLine
 10
3.4250613002
 20
4.7823003336
 30
0.0
 11
3.4250613002
 21
2.7350562391
 31
0.0
  0
SPLINE
  5
EE
330
1F
100
AcDbEntity
  8
0
  6
CONTINUOUS
 62
     7
100
AcDbSpline
210
0.0
220
0.0
230
1.0
 70
     8
 71
     3
 72
    72
 73
    68
 74
     0
 42
0.00000001
 43
0.00000001
 40
-0.0312500000000003
 40
-0.0312500000000003
 40
0.0
 40
0.0
 40
0.0312499999999999
 40
0.0312499999999999
 40
0.0624999999999997
 40
0.0624999999999997
 40
0.0937499999999996
 40
0.0937499999999996
 40
0.1249999999999994
 40
0.1249999999999994
 40
0.1562499999999991
 40
0.1562499999999991
 40
0.1874999999999989
 40
0.1874999999999989
 40
0.2187499999999987
 40
0.2187499999999987
 40
0.2499999999999984
 40
0.2499999999999984
 40
0.2812499999999982
 40
0.2812499999999982
 40
0.3124999999999979
 40
0.3124999999999979
 40
0.3437499999999977
 40
0.3437499999999977
 40
0.3749999999999975
 40
0.3749999999999975
 40
0.4062499999999972
 40
0.4062499999999972
 40
0.437499999999997
 40
0.437499999999997
 40
0.4687499999999967
 40
0.4687499999999967
 40
0.4843749999999966
 40
0.4843749999999966
 40
0.4999999999999965
 40
0.4999999999999965
 40
0.5156249999999963
 40
0.5156249999999963
 40
0.5312499999999963
 40
0.5312499999999963
 40
0.5624999999999963
 40
0.5624999999999963
 40
0.6249999999999967
 40
0.6249999999999967
 40
0.6562499999999969
 40
0.6562499999999969
 40
0.6874999999999971
 40
0.6874999999999971
 40
0.7187499999999973
 40
0.7187499999999973
 40
0.7499999999999974
 40
0.7499999999999974
 40
0.7812499999999978
 40
0.7812499999999978
 40
0.8124999999999981
 40
0.8124999999999981
 40
0.8437499999999984
 40
0.8437499999999984
 40
0.8749999999999988
 40
0.8749999999999988
 40
0.9062499999999991
 40
0.9062499999999991
 40
0.9374999999999993
 40
0.9374999999999993
 40
0.9687499999999997
 40
0.9687499999999997
 40
1.0
 40
1.0
 40
1.03125
 40
1.03125
 10
4.080735718771637
 20
4.704543070849732
 30
0.0
 10
4.047969558863609
 20
4.704543070849732
 30
0.0
 10
4.031927750758591
 20
4.703789520740788
 30
0.0
 10
4.000498715266675
 20
4.70077624387161
 30
0.0
 10
3.985052433170364
 20
4.698477858846334
 30
0.0
 10
3.956424984999226
 20
4.692432350801518
 30
0.0
 10
3.942899442721748
 20
4.688623608877594
 30
0.0
 10
3.918329466863621
 20
4.679499837411584
 30
0.0
 10
3.907408771448093
 20
4.674255657489281
 30
0.0
 10
3.888105595651576
 20
4.662254256741702
 30
0.0
 10
3.879833047777478
 20
4.655528186771923
 30
0.0
 10
3.866293720231497
 20
4.640998407007261
 30
0.0
 10
3.860899458904915
 20
4.633062053489378
 30
0.0
 10
3.852920605427105
 20
4.616261463196806
 30
0.0
 10
3.85032531553126
 20
4.60744626520066
 30
0.0
 10
3.84759368338385
 20
4.588967767012624
 30
0.0
 10
3.847479157779482
 20
4.579260639885844
 30
0.0
 10
3.84950119246652
 20
4.559537110113507
 30
0.0
 10
3.851620124379197
 20
4.549459620006939
 30
0.0
 10
3.857914752241776
 20
4.528889251999883
 30
0.0
 10
3.862119949892017
 20
4.518359491124239
 30
0.0
 10
3.872325700134738
 20
4.497456115363121
 30
0.0
 10
3.878338157441358
 20
4.487019315925189
 30
0.0
 10
3.892225388667941
 20
4.466261158690862
 30
0.0
 10
3.900151542733602
 20
4.455876806059284
 30
0.0
 10
3.917910548807523
 20
4.435688054881969
 30
0.0
 10
3.927664776611088
 20
4.425949505044766
 30
0.0
 10
3.949298839786831
 20
4.407535175902241
 30
0.0
 10
3.961321979591229
 20
4.398768952631118
 30
0.0
 10
3.987414920636099
 20
4.383599778950462
 30
0.0
 10
4.001697904840122
 20
4.377078700510955
 30
0.0
 10
4.024573601523032
 20
4.370229484889517
 30
0.0
 10
4.032369850984498
 20
4.368452190736686
 30
0.0
 10
4.04834382078112
 20
4.366043232108557
 30
0.0
 10
4.056597248450501
 20
4.365421600521698
 30
0.0
 10
4.072839082926854
 20
4.365458852369701
 30
0.0
 10
4.080890146246426
 20
4.366097365631531
 30
0.0
 10
4.096858168222633
 20
4.368558361211038
 30
0.0
 10
4.104805519043017
 20
4.370400517289414
 30
0.0
 10
4.127635220699775
 20
4.377332298281535
 30
0.0
 10
4.141965774523454
 20
4.383937193107045
 30
0.0
 10
4.180958334711737
 20
4.406775395164218
 30
0.0
 10
4.202497721705581
 20
4.426180307614708
 30
0.0
 10
4.228820995155347
 20
4.456219627962508
 30
0.0
 10
4.236640972142205
 20
4.466478031102086
 30
0.0
 10
4.250548344293714
 20
4.487314707942835
 30
0.0
 10
4.256633262756998
 20
4.497921596265484
 30
0.0
 10
4.266776718407209
 20
4.518808034012203
 30
0.0
 10
4.270886379203377
 20
4.529157873840721
 30
0.0
 10
4.277123406877382
 20
4.549630218641837
 30
0.0
 10
4.279256463898418
 20
4.559825552594385
 30
0.0
 10
4.281236960526035
 20
4.579595987021807
 30
0.0
 10
4.281097790358977
 20
4.589129067003222
 30
0.0
 10
4.278361734604945
 20
4.607500843277745
 30
0.0
 10
4.275735897324609
 20
4.61640329705676
 30
0.0
 10
4.267714634397676
 20
4.633214233182864
 30
0.0
 10
4.262388419613875
 20
4.641027858615469
 30
0.0
 10
4.248850987222102
 20
4.655546347004509
 30
0.0
 10
4.240510251196161
 20
4.662313314678864
 30
0.0
 10
4.221321274113868
 20
4.674236790849977
 30
0.0
 10
4.21046211356583
 20
4.679458411656019
 30
0.0
 10
4.186006662209539
 20
4.688558302831167
 30
0.0
 10
4.172397089633126
 20
4.692401089658124
 30
0.0
 10
4.143835400731362
 20
4.698445834193773
 30
0.0
 10
4.128557158422853
 20
4.700734922364715
 30
0.0
 10
4.096874035013221
 20
4.703787867886589
 30
0.0
 10
4.080735718771637
 20
4.704543070849732
 30
0.0
 10
4.047969558863609
 20
4.704543070849732
 30
0.0
  0
SPLINE
  5
EF
330
1F
100
AcDbEntity
  8
0
  6
CONTINUOUS
 62
     7
100
AcDbSpline
210
0.0
220
0.0
230
1.0
 70
     8
 71
     3
 72
    48
 73
    44
 74
     0
 42
0.00000001
 43
0.00000001
 40
-0.0624999999999998
 40
-0.0624999999999998
 40
0.0
 40
0.0
 40
0.0312499999999997
 40
0.0312499999999997
 40
0.0624999999999995
 40
0.0624999999999995
 40
0.0937499999999992
 40
0.0937499999999992
 40
0.1249999999999989
 40
0.1249999999999989
 40
0.1874999999999987
 40
0.1874999999999987
 40
0.2499999999999984
 40
0.2499999999999984
 40
0.3124999999999986
 40
0.3124999999999986
 40
0.3749999999999987
 40
0.3749999999999987
 40
0.4374999999999988
 40
0.4374999999999988
 40
0.4687499999999991
 40
0.4687499999999991
 40
0.4999999999999993
 40
0.4999999999999993
 40
0.5312499999999996
 40
0.5312499999999996
 40
0.5624999999999997
 40
0.5624999999999997
 40
0.5937499999999999
 40
0.5937499999999999
 40
0.625
 40
0.625
 40
0.7500000000000004
 40
0.7500000000000004
 40
0.8125000000000003
 40
0.8125000000000003
 40
0.8750000000000002
 40
0.8750000000000002
 40
0.9062500000000002
 40
0.9062500000000002
 40
0.9375000000000002
 40
0.9375000000000002
 40
1.0
 40
1.0
 40
1.03125
 40
1.03125
 10
4.046659154462095
 20
3.037043789502272
 30
0.0
 10
4.073199380995387
 20
3.037043789502272
 30
0.0
 10
4.081780732673626
 20
3.036054031545897
 30
0.0
 10
4.098469812130856
 20
3.032329384217202
 30
0.0
 10
4.106453644166619
 20
3.029597800438908
 30
0.0
 10
4.12113960402394
 20
3.022987628578056
 30
0.0
 10
4.127980955164498
 20
3.019049324235827
 30
0.0
 10
4.140241784152098
 20
3.010566243758811
 30
0.0
 10
4.145750295666105
 20
3.005984346454301
 30
0.0
 10
4.160673535687589
 20
2.991444134188844
 30
0.0
 10
4.168170872321135
 20
2.981049161120047
 30
0.0
 10
4.178758893440556
 20
2.959879408301888
 30
0.0
 10
4.181783845008729
 20
2.949115950599373
 30
0.0
 10
4.182938356116274
 20
2.928345835988923
 30
0.0
 10
4.181028310957898
 20
2.918142082280714
 30
0.0
 10
4.171852747848039
 20
2.899594191968974
 30
0.0
 10
4.164375588367935
 20
2.890898749594311
 30
0.0
 10
4.143839549732353
 20
2.876327406505919
 30
0.0
 10
4.130562864613184
 20
2.870316345535167
 30
0.0
 10
4.107681844502024
 20
2.86416980274776
 30
0.0
 10
4.099393293571912
 20
2.862556978941913
 30
0.0
 10
4.082562536586176
 20
2.860417932417529
 30
0.0
 10
4.073884807491837
 20
2.859854466024731
 30
0.0
 10
4.056246508556324
 20
2.859796446552417
 30
0.0
 10
4.047593330660225
 20
2.860297590851896
 30
0.0
 10
4.030606588529007
 20
2.862338016941619
 30
0.0
 10
4.022314887565518
 20
2.863891145011183
 30
0.0
 10
4.006912349668872
 20
2.867902235226308
 30
0.0
 10
3.999609634911446
 20
2.8704108425979
 30
0.0
 10
3.986445349267886
 20
2.876197944778577
 30
0.0
 10
3.980545097923919
 20
2.879471589391037
 30
0.0
 10
3.954220849284172
 20
2.897781564923488
 30
0.0
 10
3.9452668838272
 20
2.917550668597614
 30
0.0
 10
3.946857561476763
 20
2.948846218999081
 30
0.0
 10
3.949863948578729
 20
2.959650302307216
 30
0.0
 10
3.960404084703173
 20
2.980851600000483
 30
0.0
 10
3.967861020519878
 20
2.991243250513352
 30
0.0
 10
3.982800723986453
 20
3.005850907933367
 30
0.0
 10
3.988317132594218
 20
3.010453184709657
 30
0.0
 10
4.000597065754324
 20
3.018972811652545
 30
0.0
 10
4.007449640575552
 20
3.022926538472217
 30
0.0
 10
4.029483783415494
 20
3.032870523304263
 30
0.0
 10
4.046659154462095
 20
3.037043789502272
 30
0.0
 10
4.073199380995387
 20
3.037043789502272
 30
0.0
  0
LINE
  5
F0
330
1F
100
AcDbEntity
  8
0
  6
CONTINUOUS
 62
     7
100
AcDbLine
 10
3.7428303291
 20
3.7193082077
 30
0.0
 11
3.7428303291
 21
2.7350562391
 31
0.0
  0
LINE
  5
F1
330
1F
100
AcDbEntity
  8
0
  6
CONTINUOUS
 62
     7
100
AcDbLine
 10
4.3005731113
 20
3.7193082077
 30
0.0
 11
3.7428303291
 21
3.7193082077
 31
0.0
  0
LINE
  5
F2
330
1F
100
AcDbEntity
  8
0
  6
CONTINUOUS
 62
     7
100
AcDbLine
 10
4.3005731113
 20
3.7980483651
 30
0.0
 11
4.3005731113
 21
4.7823003336
 31
0.0
  0
LINE
  5
F3
330
1F
100
AcDbEntity
  8
0
  6
CONTINUOUS
 62
     7
100
AcDbLine
 10
4.3005731113
 20
2.7350562391
 30
0.0
 11
4.3005731113
 21
3.7193082077
 31
0.0
  0
LINE
  5
F4
330
1F
100
AcDbEntity
  8
0
  6
CONTINUOUS
 62
     7
100
AcDbLine
 10
4.3005731113
 20
3.7980483651
 30
0.0
 11
3.7428303291
 21
3.7980483651
 31
0.0
  0
LINE
  5
F5
330
1F
100
AcDbEntity
  8
0
  6
CONTINUOUS
 62
     7
100
AcDbLine
 10
3.7428303291
 20
4.7823003336
 30
0.0
 11
3.7428303291
 21
3.7980483651
 31
0.0
  0
LINE
  5
F6
330
1F
100
AcDbEntity
  8
0
  6
CONTINUOUS
 62
     7
100
AcDbLine
 10
3.6378434525
 20
4.6993986991
 30
0.0
 11
3.7428303291
 21
4.6993986991
 31
0.0
  0
LINE
  5
F7
330
1F
100
AcDbEntity
  8
0
  6
CONTINUOUS
 62
     7
100
AcDbLine
 10
3.6378434525
 20
2.7350562391
 30
0.0
 11
3.6378434525
 21
4.7823003336
 31
0.0
  0
LINE
  5
F8
330
1F
100
AcDbEntity
  8
0
  6
CONTINUOUS
 62
     7
100
AcDbLine
 10
3.7428303291
 20
2.8179578737
 30
0.0
 11
3.6378434525
 21
2.8179578737
 31
0.0
  0
LINE
  5
F9
330
1F
100
AcDbEntity
  8
0
  6
CONTINUOUS
 62
     7
100
AcDbLine
 10
4.3305731113
 20
3.7193082077
 30
0.0
 11
4.3305731113
 21
2.7650562391
 31
0.0
  0
LINE
  5
FA
330
1F
100
AcDbEntity
  8
0
  6
CONTINUOUS
 62
     7
100
AcDbLine
 10
4.3305731113
 20
4.7523003336
 30
0.0
 11
4.3305731113
 21
3.7980483651
 31
0.0
  0
LINE
  5
FB
330
1F
100
AcDbEntity
  8
0
  6
CONTINUOUS
 62
     7
100
AcDbLine
 10
4.3005731113
 20
3.7980483651
 30
0.0
 11
4.3305731113
 21
3.7980483651
 31
0.0
  0
LINE
  5
FC
330
1F
100
AcDbEntity
  8
0
  6
CONTINUOUS
 62
     7
100
AcDbLine
 10
4.3005731113
 20
3.7193082077
 30
0.0
 11
4.3305731113
 21
3.7193082077
 31
0.0
  0
SPLINE
  5
FD
330
1F
100
AcDbEntity
  8
0
  6
CONTINUOUS
 62
     7
100
AcDbSpline
210
0.0
220
0.0
230
1.0
 70
     8
 71
     3
 72
    10
 73
     6
 74
     0
 42
0.00000001
 43
0.00000001
 40
0.0
 40
0.0
 40
0.0
 40
0.0
 40
0.5
 40
0.5
 40
1.0
 40
1.0
 40
1.0
 40
1.0
 10
3.774783130996211
 20
3.798048365132205
 30
0.0
 10
3.775697533708548
 20
3.785023445258236
 30
0.0
 10
3.776164368050902
 20
3.771936033521524
 30
0.0
 10
3.776169512739548
 20
3.745639381329334
 30
0.0
 10
3.775697611607816
 20
3.732334237137318
 30
0.0
 10
3.774783130996211
 20
3.71930820765189
 30
0.0
  0
LINE
  5
FE
330
1F
100
AcDbEntity
  8
0
  6
CONTINUOUS
 62
     7
100
AcDbLine
 10
3.7428303291
 20
3.7980483651
 30
0.0
 11
3.7428303291
 21
3.7193082077
 31
0.0
  0
LINE
  5
FF
330
1F
100
AcDbEntity
  8
0
  6
CONTINUOUS
 62
     7
100
AcDbLine
 10
4.3305731113
 20
3.7980483651
 30
0.0
 11
4.3305731113
 21
3.7193082077
 31
0.0
  0
LINE
  5
100
330
1F
100
AcDbEntity
  8
0
  6
CONTINUOUS
 62
     7
100
AcDbLine
 10
4.0643526388
 20
4.5263948218
 30
0.0
 11
4.2415179931
 21
4.5263948218
 31
0.0
  0
LINE
  5
101
330
1F
100
AcDbEntity
  8
0
  6
CONTINUOUS
 62
     7
100
AcDbLine
 10
3.8871872845
 20
4.5263948218
 30
0.0
 11
4.0643526388
 21
4.5263948218
 31
0.0
  0
CIRCLE
  5
102
330
1F
100
AcDbEntity
  8
0
  6
CONTINUOUS
 62
     7
100
AcDbCircle
 10
2.588919568
 20
4.3665472155
 30
0.0
 40
0.0787401574803157
  0
LINE
  5
103
330
1F
100
AcDbEntity
  8
0
  6
CONTINUOUS
 62
     7
100
AcDbLine
 10
2.3526990955
 20
2.7350562391
 30
0.0
 11
2.3526990955
 21
4.7815429365
 31
0.0
  0
LINE
  5
104
330
1F
100
AcDbEntity
  8
0
  6
CONTINUOUS
 62
     7
100
AcDbLine
 10
2.3226990955
 20
4.7515200511
 30
0.0
 11
2.3226990955
 21
2.7650562391
 31
0.0
  0
LINE
  5
105
330
1F
100
AcDbEntity
  8
0
  6
CONTINUOUS
 62
     7
100
AcDbLine
 10
2.3526990955
 20
4.7815429365
 30
0.0
 11
2.3226990955
 21
4.7515200511
 31
0.0
  0
LINE
  5
106
330
1F
100
AcDbEntity
  8
0
  6
CONTINUOUS
 62
     7
100
AcDbLine
 10
3.2282109065
 20
4.7823003336
 30
0.0
 11
3.2282109065
 21
2.7350562391
 31
0.0
  0
SPLINE
  5
107
330
1F
100
AcDbEntity
  8
0
  6
CONTINUOUS
 62
     7
100
AcDbSpline
210
0.0
220
0.0
230
1.0
 70
     8
 71
     3
 72
    48
 73
    44
 74
     0
 42
0.00000001
 43
0.00000001
 40
-0.0624999999999999
 40
-0.0624999999999999
 40
0.0
 40
0.0
 40
0.0312500000000001
 40
0.0312500000000001
 40
0.0625000000000001
 40
0.0625000000000001
 40
0.0937500000000002
 40
0.0937500000000002
 40
0.1250000000000002
 40
0.1250000000000002
 40
0.1875000000000006
 40
0.1875000000000006
 40
0.250000000000001
 40
0.250000000000001
 40
0.3125000000000012
 40
0.3125000000000012
 40
0.3750000000000013
 40
0.3750000000000013
 40
0.4375000000000015
 40
0.4375000000000015
 40
0.4687500000000014
 40
0.4687500000000014
 40
0.5000000000000012
 40
0.5000000000000012
 40
0.5312500000000011
 40
0.5312500000000011
 40
0.5625000000000009
 40
0.5625000000000009
 40
0.5937500000000007
 40
0.5937500000000007
 40
0.6250000000000006
 40
0.6250000000000006
 40
0.7500000000000004
 40
0.7500000000000004
 40
0.8125000000000002
 40
0.8125000000000002
 40
0.875
 40
0.875
 40
0.90625
 40
0.90625
 40
0.9375000000000001
 40
0.9375000000000001
 40
1.0
 40
1.0
 40
1.03125
 40
1.03125
 10
2.60661305230701
 20
4.484657451728655
 30
0.0
 10
2.580072825773718
 20
4.484657451728655
 30
0.0
 10
2.571491474095479
 20
4.483677066672021
 30
0.0
 10
2.554802394638248
 20
4.479945447303177
 30
0.0
 10
2.546818562602486
 20
4.477194898066528
 30
0.0
 10
2.532132602745166
 20
4.470425244415094
 30
0.0
 10
2.525291251604607
 20
4.466342908765884
 30
0.0
 10
2.513030422617007
 20
4.457368912554241
 30
0.0
 10
2.507521911103002
 20
4.45244039503633
 30
0.0
 10
2.492598671081517
 20
4.436440480172964
 30
0.0
 10
2.48510133444797
 20
4.424538841284421
 30
0.0
 10
2.474513313328549
 20
4.3989889042915
 30
0.0
 10
2.471488361760376
 20
4.385345562050783
 30
0.0
 10
2.470333850652831
 20
4.357553124503631
 30
0.0
 10
2.472243895811207
 20
4.343124808513795
 30
0.0
 10
2.481419458921065
 20
4.315502645010977
 30
0.0
 10
2.48889661840117
 20
4.301778604407956
 30
0.0
 10
2.509432657036752
 20
4.277769997632027
 30
0.0
 10
2.522709342155922
 20
4.267289300452076
 30
0.0
 10
2.54559036226708
 20
4.256347021383594
 30
0.0
 10
2.553878913197192
 20
4.253424315497215
 30
0.0
 10
2.57070967018293
 20
4.249529962012129
 30
0.0
 10
2.579387399277268
 20
4.24849237277656
 30
0.0
 10
2.597025698212781
 20
4.248385890260837
 30
0.0
 10
2.60567887610888
 20
4.249309224980688
 30
0.0
 10
2.622665618240098
 20
4.253027063452445
 30
0.0
 10
2.630957319203587
 20
4.255845134832017
 30
0.0
 10
2.646359857100233
 20
4.262996569064647
 30
0.0
 10
2.653662571857658
 20
4.26741818569258
 30
0.0
 10
2.666826857501219
 20
4.277391871630256
 30
0.0
 10
2.672727108845187
 20
4.282937424822112
 30
0.0
 10
2.699051357484934
 20
4.313167569754237
 30
0.0
 10
2.708005322941905
 20
4.343077805526877
 30
0.0
 10
2.706414645292341
 20
4.384999458931001
 30
0.0
 10
2.703408258190375
 20
4.398703797155399
 30
0.0
 10
2.692868122065932
 20
4.424308829347882
 30
0.0
 10
2.685411186249227
 20
4.436214512427056
 30
0.0
 10
2.670471482782653
 20
4.452295960559272
 30
0.0
 10
2.664955074174888
 20
4.457248080182999
 30
0.0
 10
2.652675141014781
 20
4.466263171918273
 30
0.0
 10
2.645822566193553
 20
4.470362187346313
 30
0.0
 10
2.62378842335361
 20
4.48054755572493
 30
0.0
 10
2.60661305230701
 20
4.484657451728655
 30
0.0
 10
2.580072825773718
 20
4.484657451728655
 30
0.0
  0
LINE
  5
108
330
1F
100
AcDbEntity
  8
0
  6
CONTINUOUS
 62
     7
100
AcDbLine
 10
2.3526990955
 20
4.7815429365
 30
0.0
 11
2.9104418777
 21
4.7815429365
 31
0.0
  0
LINE
  5
109
330
1F
100
AcDbEntity
  8
0
  6
CONTINUOUS
 62
     7
100
AcDbLine
 10
2.9104418777
 20
3.3551349793
 30
0.0
 11
3.0154287543
 21
3.3551349793
 31
0.0
  0
LINE
  5
10A
330
1F
100
AcDbEntity
  8
0
  6
CONTINUOUS
 62
     7
100
AcDbLine
 10
2.9104418777
 20
4.7815429365
 30
0.0
 11
2.9104418777
 21
3.3551349793
 31
0.0
  0
LINE
  5
10B
330
1F
100
AcDbEntity
  8
0
  6
CONTINUOUS
 62
     7
100
AcDbLine
 10
3.0154287543
 20
3.3551349793
 30
0.0
 11
3.0154287543
 21
4.7823003336
 31
0.0
  0
LINE
  5
10C
330
1F
100
AcDbEntity
  8
0
  6
CONTINUOUS
 62
     7
100
AcDbLine
 10
3.3463211428
 20
3.9500703778
 30
0.0
 11
3.306951064
 21
3.9500703778
 31
0.0
  0
LINE
  5
10D
330
1F
100
AcDbEntity
  8
0
  6
CONTINUOUS
 62
     7
100
AcDbLine
 10
3.3463211428
 20
3.567286195
 30
0.0
 11
3.306951064
 21
3.567286195
 31
0.0
  0
LINE
  5
10E
330
1F
100
AcDbEntity
  8
0
  6
CONTINUOUS
 62
     7
100
AcDbLine
 10
3.306951064
 20
3.9500703778
 30
0.0
 11
3.306951064
 21
3.567286195
 31
0.0
  0
LINE
  5
10F
330
1F
100
AcDbEntity
  8
0
  6
CONTINUOUS
 62
     7
100
AcDbLine
 10
3.3463211428
 20
3.9500703778
 30
0.0
 11
3.3463211428
 21
3.567286195
 31
0.0
  0
LINE
  5
110
330
1F
100
AcDbEntity
  8
0
  6
CONTINUOUS
 62
     7
100
AcDbLine
 10
3.3463211428
 20
2.8684672974
 30
0.0
 11
3.306951064
 21
2.8684672974
 31
0.0
  0
LINE
  5
111
330
1F
100
AcDbEntity
  8
0
  6
CONTINUOUS
 62
     7
100
AcDbLine
 10
3.306951064
 20
3.567286195
 30
0.0
 11
3.306951064
 21
2.8684672974
 31
0.0
  0
LINE
  5
112
330
1F
100
AcDbEntity
  8
0
  6
CONTINUOUS
 62
     7
100
AcDbLine
 10
3.3463211428
 20
3.567286195
 30
0.0
 11
3.3463211428
 21
2.8684672974
 31
0.0
  0
LINE
  5
113
330
1F
100
AcDbEntity
  8
0
  6
CONTINUOUS
 62
     7
100
AcDbLine
 10
3.3463211428
 20
4.6488892754
 30
0.0
 11
3.306951064
 21
4.6488892754
 31
0.0
  0
LINE
  5
114
330
1F
100
AcDbEntity
  8
0
  6
CONTINUOUS
 62
     7
100
AcDbLine
 10
3.306951064
 20
4.6488892754
 30
0.0
 11
3.306951064
 21
3.9500703778
 31
0.0
  0
LINE
  5
115
330
1F
100
AcDbEntity
  8
0
  6
CONTINUOUS
 62
     7
100
AcDbLine
 10
3.3463211428
 20
4.6488892754
 30
0.0
 11
3.3463211428
 21
3.9500703778
 31
0.0
  0
LINE
  5
116
330
1F
100
AcDbEntity
  8
0
  6
CONTINUOUS
 62
     7
100
AcDbLine
 10
3.306951064
 20
4.7281664754
 30
0.0
 11
3.306951064
 21
4.6488892754
 31
0.0
  0
LINE
  5
117
330
1F
100
AcDbEntity
  8
0
  6
CONTINUOUS
 62
     7
100
AcDbLine
 10
3.3463211428
 20
4.7281664754
 30
0.0
 11
3.3463211428
 21
4.6488892754
 31
0.0
  0
LINE
  5
118
330
1F
100
AcDbEntity
  8
0
  6
CONTINUOUS
 62
     7
100
AcDbLine
 10
3.306951064
 20
2.8684672974
 30
0.0
 11
3.306951064
 21
2.7891900974
 31
0.0
  0
LINE
  5
119
330
1F
100
AcDbEntity
  8
0
  6
CONTINUOUS
 62
     7
100
AcDbLine
 10
3.3463211428
 20
2.8684672974
 30
0.0
 11
3.3463211428
 21
2.7891900974
 31
0.0
  0
LINE
  5
11A
330
1F
100
AcDbEntity
  8
0
  6
CONTINUOUS
 62
     8
100
AcDbLine
 10
4.0643526388
 20
4.4870247431
 30
0.0
 11
3.8784319821
 21
4.4870247431
 31
0.0
  0
LINE
  5
11B
330
1F
100
AcDbEntity
  8
0
  6
CONTINUOUS
 62
     8
100
AcDbLine
 10
4.250274254
 20
4.4870247431
 30
0.0
 11
4.0643526388
 21
4.4870247431
 31
0.0
  0
LINE
  5
11C
330
1F
100
AcDbEntity
  8
0
  6
HIDDEN
 62
     7
100
AcDbLine
 10
4.3005731113
 20
3.7980483651
 30
0.0
 11
4.3005731113
 21
3.7193082077
 31
0.0
  0
LINE
  5
11D
330
1F
100
AcDbEntity
  8
0
  6
HIDDEN
 62
     7
100
AcDbLine
 10
4.0643526388
 20
4.2901743494
 30
0.0
 11
4.2808880719
 21
4.2901743494
 31
0.0
  0
LINE
  5
11E
330
1F
100
AcDbEntity
  8
0
  6
HIDDEN
 62
     7
100
AcDbLine
 10
3.8478172057
 20
4.2901743494
 30
0.0
 11
4.0643526388
 21
4.2901743494
 31
0.0
  0
LINE
  5
11F
330
1F
100
AcDbEntity
  8
0
  6
HIDDEN
 62
     7
100
AcDbLine
 10
4.1823840776
 20
3.1878121447
 30
0.0
 11
3.9463212
 21
3.1878121447
 31
0.0
  0
LINE
  5
120
330
1F
100
AcDbEntity
  8
0
  6
HIDDEN
 62
     7
100
AcDbLine
 10
4.1430927963
 20
3.1484420659
 30
0.0
 11
3.9856124813
 21
3.1484420659
 31
0.0
  0
LINE
  5
121
330
1F
100
AcDbEntity
  8
0
  6
HIDDEN
 62
     7
100
AcDbLine
 10
4.0643526388
 20
4.3295444281
 30
0.0
 11
4.1627778357
 21
4.3295444281
 31
0.0
  0
LINE
  5
122
330
1F
100
AcDbEntity
  8
0
  6
HIDDEN
 62
     7
100
AcDbLine
 10
4.0643526388
 20
4.3295444281
 30
0.0
 11
4.0643526388
 21
4.5263948218
 31
0.0
  0
LINE
  5
123
330
1F
100
AcDbEntity
  8
0
  6
HIDDEN
 62
     7
100
AcDbLine
 10
3.965927442
 20
4.3295444281
 30
0.0
 11
4.0643526388
 21
4.3295444281
 31
0.0
  0
LINE
  5
124
330
1F
100
AcDbEntity
  8
0
  6
HIDDEN
 62
     7
100
AcDbLine
 10
4.1627778357
 20
4.3295444281
 30
0.0
 11
4.1627778357
 21
4.5263948218
 31
0.0
  0
LINE
  5
125
330
1F
100
AcDbEntity
  8
0
  6
HIDDEN
 62
     7
100
AcDbLine
 10
3.965927442
 20
4.3295444281
 30
0.0
 11
3.965927442
 21
4.5263948218
 31
0.0
  0
POLYLINE
  5
126
330
1F
100
AcDbEntity
  8
0
  6
HIDDEN
 62
     7
100
AcDb2dPolyline
 66
     1
 10
0.0
 20
0.0
 30
0.0
  0
VERTEX
  5
2A8
330
126
100
AcDbEntity
  8
0
  6
HIDDEN
 62
     7
100
AcDbVertex
100
AcDb2dVertex
 10
2.7070298042
 20
4.3665472155
 30
0.0
  0
VERTEX
  5
2A9
330
126
100
AcDbEntity
  8
0
  6
HIDDEN
 62
     7
100
AcDbVertex
100
AcDb2dVertex
 10
2.7069510067
 20
4.3708608403
 30
0.0
  0
VERTEX
  5
2AA
330
126
100
AcDbEntity
  8
0
  6
HIDDEN
 62
     7
100
AcDbVertex
100
AcDb2dVertex
 10
2.7059875489
 20
4.3822033883
 30
0.0
  0
SEQEND
  5
2AB
330
126
100
AcDbEntity
  8
0
  6
HIDDEN
 62
     7
  0
ARC
  5
127
330
1F
100
AcDbEntity
  8
0
  6
HIDDEN
 62
     7
100
AcDbCircle
 10
2.588919568
 20
4.3665472155
 30
0.0
 40
0.1181102362204727
100
AcDbArc
 50
74.1834058744
 51
90.0075893784
  0
CIRCLE
  5
128
330
1F
100
AcDbEntity
  8
0
  6
HIDDEN
 62
     7
100
AcDbCircle
 10
2.588919568
 20
4.3665472155
 30
0.0
 40
0.2165354330708658
  0
LINE
  5
129
330
1F
100
AcDbEntity
  8
0
  6
HIDDEN
 62
     7
100
AcDbLine
 10
2.4904943711
 20
4.3097214016
 30
0.0
 11
2.588919568
 21
4.2528955877
 31
0.0
  0
LINE
  5
12A
330
1F
100
AcDbEntity
  8
0
  6
HIDDEN
 62
     7
100
AcDbLine
 10
2.588919568
 20
4.2528955877
 30
0.0
 11
2.6873447648
 21
4.3097214016
 31
0.0
  0
LINE
  5
12B
330
1F
100
AcDbEntity
  8
0
  6
HIDDEN
 62
     7
100
AcDbLine
 10
2.4904943711
 20
4.4233730294
 30
0.0
 11
2.4904943711
 21
4.3097214016
 31
0.0
  0
LINE
  5
12C
330
1F
100
AcDbEntity
  8
0
  6
HIDDEN
 62
     7
100
AcDbLine
 10
2.6873447648
 20
4.3097214016
 30
0.0
 11
2.6873447648
 21
4.4233730294
 31
0.0
  0
LINE
  5
12D
330
1F
100
AcDbEntity
  8
0
  6
HIDDEN
 62
     7
100
AcDbLine
 10
2.6873447648
 20
4.4233730294
 30
0.0
 11
2.588919568
 21
4.4801988433
 31
0.0
  0
LINE
  5
12E
330
1F
100
AcDbEntity
  8
0
  6
HIDDEN
 62
     7
100
AcDbLine
 10
2.588919568
 20
4.4801988433
 30
0.0
 11
2.4904943711
 21
4.4233730294
 31
0.0
  0
CIRCLE
  5
12F
330
1F
100
AcDbEntity
  8
0
  6
HIDDEN
 62
     7
100
AcDbCircle
 10
2.588919568
 20
4.3665472155
 30
0.0
 40
0.1771653543307083
  0
LINE
  5
130
330
1F
100
AcDbEntity
  8
0
  6
HIDDEN
 62
     7
100
AcDbLine
 10
2.3526990955
 20
3.5658050783
 30
0.0
 11
2.8784890758
 21
3.5658050783
 31
0.0
  0
LINE
  5
131
330
1F
100
AcDbEntity
  8
0
  6
HIDDEN
 62
     7
100
AcDbLine
 10
2.9104418777
 20
3.9515514945
 30
0.0
 11
2.3526990955
 21
3.9515514945
 31
0.0
  0
LINE
  5
132
330
1F
100
AcDbEntity
  8
0
  6
HIDDEN
 62
     7
100
AcDbLine
 10
3.3463211428
 20
4.6488892754
 30
0.0
 11
3.306951064
 21
4.6488892754
 31
0.0
  0
LINE
  5
133
330
1F
100
AcDbEntity
  8
0
  6
HIDDEN
 62
     7
100
AcDbLine
 10
3.3463211428
 20
2.8684672974
 30
0.0
 11
3.306951064
 21
2.8684672974
 31
0.0
  0
ARC
  5
134
330
1F
100
AcDbEntity
  8
0
  6
HIDDEN
 62
     7
100
AcDbCircle
 10
2.3226990955
 20
3.7569570488
 30
0.0
 40
0.5877427821522319
100
AcDbArc
 50
270.0
 51
341.0204502197
  0
SPLINE
  5
135
330
1F
100
AcDbEntity
  8
0
  6
HIDDEN
 62
     7
100
AcDbSpline
210
0.0
220
0.0
230
1.0
 70
     8
 71
     3
 72
     8
 73
     4
 74
     0
 42
0.00000001
 43
0.00000001
 40
0.0
 40
0.0
 40
0.0
 40
0.0
 40
1.0
 40
1.0
 40
1.0
 40
1.0
 10
2.352699095510537
 20
3.565805078298884
 30
0.0
 10
2.342713200164588
 20
3.555613266539547
 30
0.0
 10
2.332711175420548
 20
3.545436723222473
 30
0.0
 10
2.322699095510536
 20
3.535270367950923
 30
0.0
  0
SPLINE
  5
136
330
1F
100
AcDbEntity
  8
0
  6
HIDDEN
 62
     7
100
AcDbSpline
210
0.0
220
0.0
230
1.0
 70
     8
 71
     3
 72
     8
 73
     4
 74
     0
 42
0.00000001
 43
0.00000001
 40
0.0
 40
0.0
 40
0.0
 40
0.0
 40
1.0
 40
1.0
 40
1.0
 40
1.0
 10
2.322699095510537
 20
3.982086204833172
 30
0.0
 10
2.332711220605593
 20
3.971919803680325
 30
0.0
 10
2.342713430023148
 20
3.961743071646137
 30
0.0
 10
2.352699095510537
 20
3.951551494485211
 30
0.0
  0
LINE
  5
137
330
1F
100
AcDbEntity
  8
0
  6
HIDDEN
 62
     7
100
AcDbLine
 10
3.3463211428
 20
3.567286195
 30
0.0
 11
3.306951064
 21
3.567286195
 31
0.0
  0
LINE
  5
138
330
1F
100
AcDbEntity
  8
0
  6
HIDDEN
 62
     7
100
AcDbLine
 10
3.3463211428
 20
3.9500703778
 30
0.0
 11
3.306951064
 21
3.9500703778
 31
0.0
  0
LINE
  5
139
330
1F
100
AcDbEntity
  8
0
  6
HIDDEN
 62
     7
100
AcDbLine
 10
4.2808880719
 20
4.2901743494
 30
0.0
 11
4.2808880719
 21
4.5819204557
 31
0.0
  0
LINE
  5
13A
330
1F
100
AcDbEntity
  8
0
  6
HIDDEN
 62
     7
100
AcDbLine
 10
3.8478172057
 20
4.582136588
 30
0.0
 11
3.8478172057
 21
4.2901743494
 31
0.0
  0
LINE
  5
13B
330
1F
100
AcDbEntity
  8
0
  6
HIDDEN
 62
     7
100
AcDbLine
 10
3.9462424026
 20
4.2901743494
 30
0.0
 11
3.9462424026
 21
3.7980483651
 31
0.0
  0
LINE
  5
13C
330
1F
100
AcDbEntity
  8
0
  6
HIDDEN
 62
     7
100
AcDbLine
 10
4.182462875
 20
3.7980483651
 30
0.0
 11
4.182462875
 21
4.2901743494
 31
0.0
  0
LINE
  5
13D
330
1F
100
AcDbEntity
  8
0
  6
HIDDEN
 62
     7
100
AcDbLine
 10
3.9462424026
 20
3.7193082077
 30
0.0
 11
3.9462424026
 21
2.9351901694
 31
0.0
  0
LINE
  5
13E
330
1F
100
AcDbEntity
  8
0
  6
HIDDEN
 62
     7
100
AcDbLine
 10
4.182462875
 20
2.9352272322
 30
0.0
 11
4.182462875
 21
3.7193082077
 31
0.0
  0
LINE
  5
13F
330
1F
100
AcDbEntity
  8
0
  6
HIDDEN
 62
     7
100
AcDbLine
 10
4.3305731113
 20
3.9855286801
 30
0.0
 11
4.3005731113
 21
3.9555286801
 31
0.0
  0
LINE
  5
140
330
1F
100
AcDbEntity
  8
0
  6
HIDDEN
 62
     7
100
AcDbLine
 10
4.3005731113
 20
3.5618278927
 30
0.0
 11
4.3305731113
 21
3.5318278927
 31
0.0
  0
LINE
  5
141
330
1F
100
AcDbEntity
  8
0
  6
HIDDEN
 62
     7
100
AcDbLine
 10
3.6378434525
 20
3.9555286801
 30
0.0
 11
3.4250613002
 21
3.9555286801
 31
0.0
  0
LINE
  5
142
330
1F
100
AcDbEntity
  8
0
  6
HIDDEN
 62
     7
100
AcDbLine
 10
3.4250613002
 20
3.5618278927
 30
0.0
 11
3.6378434525
 21
3.5618278927
 31
0.0
  0
LINE
  5
143
330
1F
100
AcDbEntity
  8
0
  6
HIDDEN
 62
     7
100
AcDbLine
 10
4.3005731113
 20
3.9555286801
 30
0.0
 11
3.7428303291
 21
3.9555286801
 31
0.0
  0
LINE
  5
144
330
1F
100
AcDbEntity
  8
0
  6
HIDDEN
 62
     7
100
AcDbLine
 10
3.7428303291
 20
3.5618278927
 30
0.0
 11
4.3005731113
 21
3.5618278927
 31
0.0
  0
ARC
  5
145
330
1F
100
AcDbEntity
  8
0
  6
HIDDEN
 62
     7
100
AcDbCircle
 10
3.8871872845
 20
4.4870247431
 30
0.0
 40
0.0393700787401574
100
AcDbArc
 50
127.8442133817
 51
180.0
  0
ARC
  5
146
330
1F
100
AcDbEntity
  8
0
  6
HIDDEN
 62
     7
100
AcDbCircle
 10
4.2415179931
 20
4.4870247431
 30
0.0
 40
0.0393700787401574
100
AcDbArc
 50
0.0
 51
51.637164197
  0
LINE
  5
147
330
1F
100
AcDbEntity
  8
0
  6
HIDDEN
 62
     7
100
AcDbLine
 10
4.2808880719
 20
4.2901743494
 30
0.0
 11
4.2808880719
 21
4.4870247431
 31
0.0
  0
LINE
  5
148
330
1F
100
AcDbEntity
  8
0
  6
HIDDEN
 62
     7
100
AcDbLine
 10
3.8478172057
 20
4.4870247431
 30
0.0
 11
3.8478172057
 21
4.2901743494
 31
0.0
  0
LINE
  5
149
330
1F
100
AcDbEntity
  8
0
  6
HIDDEN
 62
     7
100
AcDbLine
 10
3.9462424026
 20
4.2901743494
 30
0.0
 11
3.9462424026
 21
3.7980483651
 31
0.0
  0
LINE
  5
14A
330
1F
100
AcDbEntity
  8
0
  6
HIDDEN
 62
     7
100
AcDbLine
 10
3.9462424026
 20
3.7193082077
 30
0.0
 11
3.9462424026
 21
3.1878121447
 31
0.0
  0
LINE
  5
14B
330
1F
100
AcDbEntity
  8
0
  6
HIDDEN
 62
     7
100
AcDbLine
 10
4.182462875
 20
3.1878121447
 30
0.0
 11
4.182462875
 21
3.7193082077
 31
0.0
  0
LINE
  5
14C
330
1F
100
AcDbEntity
  8
0
  6
HIDDEN
 62
     7
100
AcDbLine
 10
4.182462875
 20
3.7980483651
 30
0.0
 11
4.182462875
 21
4.2901743494
 31
0.0
  0
ARC
  5
14D
330
1F
100
AcDbEntity
  8
0
  6
HIDDEN
 62
     7
100
AcDbCircle
 10
4.1430927963
 20
3.1878121447
 30
0.0
 40
0.0393700787401579
100
AcDbArc
 50
270.0
 51
0.0
  0
ARC
  5
14E
330
1F
100
AcDbEntity
  8
0
  6
HIDDEN
 62
     7
100
AcDbCircle
 10
3.9856124813
 20
3.1878121447
 30
0.0
 40
0.0393700787401579
100
AcDbArc
 50
180.0
 51
270.0
  0
LINE
  5
14F
330
1F
100
AcDbEntity
  8
0
  6
HIDDEN
 62
     7
100
AcDbLine
 10
3.3463211428
 20
4.1130089951
 30
0.0
 11
3.306951064
 21
4.1130089951
 31
0.0
  0
LINE
  5
150
330
1F
100
AcDbEntity
  8
0
  6
HIDDEN
 62
     7
100
AcDbLine
 10
3.306951064
 20
3.4043475777
 30
0.0
 11
3.3463211428
 21
3.4043475777
 31
0.0
  0
LINE
  5
151
330
1F
100
AcDbEntity
  8
0
  6
HIDDEN
 62
     7
100
AcDbLine
 10
3.0154287543
 20
3.5618278927
 30
0.0
 11
3.2282109065
 21
3.5618278927
 31
0.0
  0
LINE
  5
152
330
1F
100
AcDbEntity
  8
0
  6
HIDDEN
 62
     7
100
AcDbLine
 10
3.2282109065
 20
3.9555286801
 30
0.0
 11
3.0154287543
 21
3.9555286801
 31
0.0
  0
LINE
  5
153
330
1F
100
AcDbEntity
  8
0
  6
HIDDEN
 62
     7
100
AcDbLine
 10
2.8772843643
 20
3.5618278927
 30
0.0
 11
2.9104418777
 21
3.5618278927
 31
0.0
  0
LINE
  5
154
330
1F
100
AcDbEntity
  8
0
  6
HIDDEN
 62
     7
100
AcDbLine
 10
4.2808113341
 20
4.4870247431
 30
0.0
 11
3.8478939435
 21
4.4870247431
 31
0.0
  0
ARC
  5
155
330
1F
100
AcDbEntity
  8
0
  6
CONTINUOUS
 62
     7
100
AcDbCircle
 10
7.4658503229
 20
4.4870247431
 30
0.0
 40
0.0393700787401583
100
AcDbArc
 50
90.0
 51
180.0
  0
LINE
  5
156
330
1F
100
AcDbEntity
  8
0
  6
CONTINUOUS
 62
     7
100
AcDbLine
 10
7.4264802441
 20
4.4870247431
 30
0.0
 11
7.4264802441
 21
4.3654398073
 31
0.0
  0
LINE
  5
157
330
1F
100
AcDbEntity
  8
0
  6
CONTINUOUS
 62
     7
100
AcDbLine
 10
7.524905441
 20
3.7980483651
 30
0.0
 11
7.524905441
 21
3.7193082077
 31
0.0
  0
LINE
  5
158
330
1F
100
AcDbEntity
  8
0
  6
CONTINUOUS
 62
     7
100
AcDbLine
 10
7.7611259134
 20
3.7193082077
 30
0.0
 11
7.7611259134
 21
3.7980483651
 31
0.0
  0
ARC
  5
159
330
1F
100
AcDbEntity
  8
0
  6
CONTINUOUS
 62
     7
100
AcDbCircle
 10
8.979231063
 20
4.5437125698
 30
0.0
 40
0.0393700787401574
100
AcDbArc
 50
0.0
 51
90.0
  0
LINE
  5
15A
330
1F
100
AcDbEntity
  8
0
  6
CONTINUOUS
 62
     7
100
AcDbLine
 10
8.979231063
 20
4.5830826486
 30
0.0
 11
8.8576461272
 21
4.5830826486
 31
0.0
  0
ARC
  5
15B
330
1F
100
AcDbEntity
  8
0
  6
CONTINUOUS
 62
     7
100
AcDbCircle
 10
8.2508846063
 20
3.7586782864
 30
0.0
 40
0.993622047244093
100
AcDbArc
 50
182.2708131461
 51
177.7291868539
  0
LINE
  5
15C
330
1F
100
AcDbEntity
  8
0
  6
CONTINUOUS
 62
     7
100
AcDbLine
 10
7.2280199562
 20
3.7980483651
 30
0.0
 11
7.2580428417
 21
3.7980483651
 31
0.0
  0
ARC
  5
15D
330
1F
100
AcDbEntity
  8
0
  6
CONTINUOUS
 62
     7
100
AcDbCircle
 10
8.2508846063
 20
3.7586782864
 30
0.0
 40
1.023622047244095
100
AcDbArc
 50
182.204227504
 51
177.795772496
  0
LINE
  5
15E
330
1F
100
AcDbEntity
  8
0
  6
CONTINUOUS
 62
     7
100
AcDbLine
 10
7.2280199562
 20
3.7193082077
 30
0.0
 11
7.2580428417
 21
3.7193082077
 31
0.0
  0
LINE
  5
15F
330
1F
100
AcDbEntity
  8
0
  6
CONTINUOUS
 62
     7
100
AcDbLine
 10
8.8403486261
 20
3.7980483651
 30
0.0
 11
8.8403486261
 21
3.7193082077
 31
0.0
  0
LINE
  5
160
330
1F
100
AcDbEntity
  8
0
  6
CONTINUOUS
 62
     7
100
AcDbLine
 10
8.8403486261
 20
3.7980483651
 30
0.0
 11
8.4742925248
 21
3.7980483651
 31
0.0
  0
ARC
  5
161
330
1F
100
AcDbEntity
  8
0
  6
CONTINUOUS
 62
     7
100
AcDbCircle
 10
8.2508846063
 20
3.7586782864
 30
0.0
 40
0.2268503937007888
100
AcDbArc
 50
9.9943375821
 51
170.0056624179
  0
LINE
  5
162
330
1F
100
AcDbEntity
  8
0
  6
CONTINUOUS
 62
     7
100
AcDbLine
 10
7.2580428417
 20
3.7980483651
 30
0.0
 11
8.0274766879
 21
3.7980483651
 31
0.0
  0
LINE
  5
163
330
1F
100
AcDbEntity
  8
0
  6
CONTINUOUS
 62
     7
100
AcDbLine
 10
7.2580428417
 20
3.7193082077
 30
0.0
 11
8.0274766879
 21
3.7193082077
 31
0.0
  0
ARC
  5
164
330
1F
100
AcDbEntity
  8
0
  6
CONTINUOUS
 62
     7
100
AcDbCircle
 10
8.2508846063
 20
3.7586782864
 30
0.0
 40
0.2268503937007888
100
AcDbArc
 50
189.9943375821
 51
350.0056624179
  0
LINE
  5
165
330
1F
100
AcDbEntity
  8
0
  6
CONTINUOUS
 62
     7
100
AcDbLine
 10
8.4742925248
 20
3.7193082077
 30
0.0
 11
8.8403486261
 21
3.7193082077
 31
0.0
  0
SPLINE
  5
166
330
1F
100
AcDbEntity
  8
0
  6
CONTINUOUS
 62
     7
100
AcDbSpline
210
0.0
220
0.0
230
1.0
 70
     8
 71
     3
 72
    10
 73
     6
 74
     0
 42
0.00000001
 43
0.00000001
 40
0.0
 40
0.0
 40
0.0
 40
0.0
 40
0.5
 40
0.5
 40
1.0
 40
1.0
 40
1.0
 40
1.0
 10
8.443757814417154
 20
3.798048365132205
 30
0.0
 10
8.44641651505314
 20
3.785023445258236
 30
0.0
 10
8.447727660998904
 20
3.771936033521524
 30
0.0
 10
8.447742278227997
 20
3.745639381329334
 30
0.0
 10
8.446416741551632
 20
3.732334237137318
 30
0.0
 10
8.443757814417154
 20
3.71930820765189
 30
0.0
  0
SPLINE
  5
167
330
1F
100
AcDbEntity
  8
0
  6
CONTINUOUS
 62
     7
100
AcDbSpline
210
0.0
220
0.0
230
1.0
 70
    24
 71
     3
 72
     8
 73
     4
 74
     0
 42
0.00000001
 43
0.00000001
 40
0.0
 40
0.0
 40
0.0
 40
0.0
 40
1.0
 40
1.0
 40
1.0
 40
1.0
 10
8.027476687882865
 20
3.71930820765189
 30
0.0
 10
8.037643089035713
 20
3.71930820765189
 30
0.0
 10
8.0478198210699
 20
3.71930820765189
 30
0.0
 10
8.058011398230827
 20
3.71930820765189
 30
0.0
  0
ARC
  5
168
330
1F
100
AcDbEntity
  8
0
  6
CONTINUOUS
 62
     7
100
AcDbCircle
 10
8.2508846063
 20
3.7586782864
 30
0.0
 40
0.1968503937007883
100
AcDbArc
 50
191.5369590328
 51
348.4630409672
  0
SPLINE
  5
169
330
1F
100
AcDbEntity
  8
0
  6
CONTINUOUS
 62
     7
100
AcDbSpline
210
0.0
220
0.0
230
1.0
 70
    24
 71
     3
 72
     8
 73
     4
 74
     0
 42
0.00000001
 43
0.00000001
 40
0.0
 40
0.0
 40
0.0
 40
0.0
 40
1.0
 40
1.0
 40
1.0
 40
1.0
 10
8.443757814417154
 20
3.71930820765189
 30
0.0
 10
8.45394962617649
 20
3.71930820765189
 30
0.0
 10
8.464126169493564
 20
3.71930820765189
 30
0.0
 10
8.474292524765115
 20
3.71930820765189
 30
0.0
  0
SPLINE
  5
16A
330
1F
100
AcDbEntity
  8
0
  6
CONTINUOUS
 62
     7
100
AcDbSpline
210
0.0
220
0.0
230
1.0
 70
    24
 71
     3
 72
     8
 73
     4
 74
     0
 42
0.00000001
 43
0.00000001
 40
0.0
 40
0.0
 40
0.0
 40
0.0
 40
1.0
 40
1.0
 40
1.0
 40
1.0
 10
8.027476687882865
 20
3.798048365132205
 30
0.0
 10
8.037643089035713
 20
3.798048365132205
 30
0.0
 10
8.0478198210699
 20
3.798048365132205
 30
0.0
 10
8.058011398230827
 20
3.798048365132205
 30
0.0
  0
ARC
  5
16B
330
1F
100
AcDbEntity
  8
0
  6
CONTINUOUS
 62
     7
100
AcDbCircle
 10
8.2508846063
 20
3.7586782864
 30
0.0
 40
0.1968503937007883
100
AcDbArc
 50
11.5369590328
 51
168.4630409672
  0
SPLINE
  5
16C
330
1F
100
AcDbEntity
  8
0
  6
CONTINUOUS
 62
     7
100
AcDbSpline
210
0.0
220
0.0
230
1.0
 70
    24
 71
     3
 72
     8
 73
     4
 74
     0
 42
0.00000001
 43
0.00000001
 40
0.0
 40
0.0
 40
0.0
 40
0.0
 40
1.0
 40
1.0
 40
1.0
 40
1.0
 10
8.443757814417154
 20
3.798048365132205
 30
0.0
 10
8.45394962617649
 20
3.798048365132205
 30
0.0
 10
8.464126169493564
 20
3.798048365132205
 30
0.0
 10
8.474292524765115
 20
3.798048365132205
 30
0.0
  0
POLYLINE
  5
16D
330
1F
100
AcDbEntity
  8
0
  6
CONTINUOUS
 62
     7
100
AcDb2dPolyline
 66
     1
 10
0.0
 20
0.0
 30
0.0
  0
VERTEX
  5
2AC
330
16D
100
AcDbEntity
  8
0
  6
CONTINUOUS
 62
     7
100
AcDbVertex
100
AcDb2dVertex
 10
8.0540342126
 20
3.7586782864
 30
0.0
  0
VERTEX
  5
2AD
330
16D
100
AcDbEntity
  8
0
  6
CONTINUOUS
 62
     7
100
AcDbVertex
100
AcDb2dVertex
 10
8.0552719666
 20
3.7366380352
 30
0.0
  0
VERTEX
  5
2AE
330
16D
100
AcDbEntity
  8
0
  6
CONTINUOUS
 62
     7
100
AcDbVertex
100
AcDb2dVertex
 10
8.0580113982
 20
3.7193082077
 30
0.0
  0
SEQEND
  5
2AF
330
16D
100
AcDbEntity
  8
0
  6
CONTINUOUS
 62
     7
  0
POLYLINE
  5
16E
330
1F
100
AcDbEntity
  8
0
  6
CONTINUOUS
 62
     7
100
AcDb2dPolyline
 66
     1
 10
0.0
 20
0.0
 30
0.0
  0
VERTEX
  5
2B0
330
16E
100
AcDbEntity
  8
0
  6
CONTINUOUS
 62
     7
100
AcDbVertex
100
AcDb2dVertex
 10
8.4437578144
 20
3.7193082077
 30
0.0
  0
VERTEX
  5
2B1
330
16E
100
AcDbEntity
  8
0
  6
CONTINUOUS
 62
     7
100
AcDbVertex
100
AcDb2dVertex
 10
8.4464972461
 20
3.7366380352
 30
0.0
  0
VERTEX
  5
2B2
330
16E
100
AcDbEntity
  8
0
  6
CONTINUOUS
 62
     7
100
AcDbVertex
100
AcDb2dVertex
 10
8.4472133393
 20
3.7443567597
 30
0.0
  0
SEQEND
  5
2B3
330
16E
100
AcDbEntity
  8
0
  6
CONTINUOUS
 62
     7
  0
LINE
  5
16F
330
1F
100
AcDbEntity
  8
0
  6
CONTINUOUS
 62
     7
100
AcDbLine
 10
8.4443330479
 20
3.795116974
 30
0.0
 11
8.4437578144
 21
3.7980483651
 31
0.0
  0
POLYLINE
  5
170
330
1F
100
AcDbEntity
  8
0
  6
CONTINUOUS
 62
     7
100
AcDb2dPolyline
 66
     1
 10
0.0
 20
0.0
 30
0.0
  0
VERTEX
  5
2B4
330
170
100
AcDbEntity
  8
0
  6
CONTINUOUS
 62
     7
100
AcDbVertex
100
AcDb2dVertex
 10
8.0580113982
 20
3.7980483651
 30
0.0
  0
VERTEX
  5
2B5
330
170
100
AcDbEntity
  8
0
  6
CONTINUOUS
 62
     7
100
AcDbVertex
100
AcDb2dVertex
 10
8.0552719666
 20
3.7807185376
 30
0.0
  0
VERTEX
  5
2B6
330
170
100
AcDbEntity
  8
0
  6
CONTINUOUS
 62
     7
100
AcDbVertex
100
AcDb2dVertex
 10
8.0540342126
 20
3.7586782864
 30
0.0
  0
SEQEND
  5
2B7
330
170
100
AcDbEntity
  8
0
  6
CONTINUOUS
 62
     7
  0
ARC
  5
171
330
1F
100
AcDbEntity
  8
0
  6
CONTINUOUS
 62
     7
100
AcDbCircle
 10
8.2508846063
 20
3.7586782864
 30
0.0
 40
1.023622047244096
100
AcDbArc
 50
177.795772496
 51
182.204227504
  0
LINE
  5
172
330
1F
100
AcDbEntity
  8
0
  6
CONTINUOUS
 62
     7
100
AcDbLine
 10
7.4658503229
 20
4.5263948218
 30
0.0
 11
7.5738222629
 21
4.5263948218
 31
0.0
  0
LINE
  5
173
330
1F
100
AcDbEntity
  8
0
  6
CONTINUOUS
 62
     7
100
AcDbLine
 10
9.0186011418
 20
4.4357406298
 30
0.0
 11
9.0186011418
 21
4.5437125698
 31
0.0
  0
LINE
  5
174
330
1F
100
AcDbEntity
  8
0
  6
CONTINUOUS
 62
     8
100
AcDbLine
 10
7.5316394919
 20
4.4870247431
 30
0.0
 11
7.4264802441
 21
4.4870247431
 31
0.0
  0
LINE
  5
175
330
1F
100
AcDbEntity
  8
0
  6
CONTINUOUS
 62
     8
100
AcDbLine
 10
8.979231063
 20
4.5830826486
 30
0.0
 11
8.979231063
 21
4.4779234008
 31
0.0
  0
LINE
  5
176
330
1F
100
AcDbEntity
  8
0
  6
HIDDEN
 62
     7
100
AcDbLine
 10
7.4264802441
 20
4.2901743494
 30
0.0
 11
7.8595511103
 21
4.2901743494
 31
0.0
  0
LINE
  5
177
330
1F
100
AcDbEntity
  8
0
  6
HIDDEN
 62
     7
100
AcDbLine
 10
8.6544279134
 20
2.8179578737
 30
0.0
 11
8.6544279134
 21
4.6993986991
 31
0.0
  0
LINE
  5
178
330
1F
100
AcDbEntity
  8
0
  6
HIDDEN
 62
     7
100
AcDbLine
 10
7.5738222629
 20
4.5263948218
 30
0.0
 11
7.8201810315
 21
4.5263948218
 31
0.0
  0
LINE
  5
179
330
1F
100
AcDbEntity
  8
0
  6
HIDDEN
 62
     7
100
AcDbLine
 10
7.7611259134
 20
3.1878121447
 30
0.0
 11
7.5252205256
 21
3.1878121447
 31
0.0
  0
LINE
  5
17A
330
1F
100
AcDbEntity
  8
0
  6
HIDDEN
 62
     7
100
AcDbLine
 10
7.7217558347
 20
3.1484420659
 30
0.0
 11
7.56427552
 21
3.1484420659
 31
0.0
  0
LINE
  5
17B
330
1F
100
AcDbEntity
  8
0
  6
HIDDEN
 62
     7
100
AcDbLine
 10
7.6998414911
 20
4.3295444281
 30
0.0
 11
7.756667305
 21
4.3295444281
 31
0.0
  0
LINE
  5
17C
330
1F
100
AcDbEntity
  8
0
  6
HIDDEN
 62
     7
100
AcDbLine
 10
7.6998414911
 20
4.3295444281
 30
0.0
 11
7.6998414911
 21
4.5263948218
 31
0.0
  0
LINE
  5
17D
330
1F
100
AcDbEntity
  8
0
  6
HIDDEN
 62
     7
100
AcDbLine
 10
7.5861898633
 20
4.3295444281
 30
0.0
 11
7.6998414911
 21
4.3295444281
 31
0.0
  0
LINE
  5
17E
330
1F
100
AcDbEntity
  8
0
  6
HIDDEN
 62
     7
100
AcDbLine
 10
7.5861898633
 20
4.3295444281
 30
0.0
 11
7.5861898633
 21
4.5263948218
 31
0.0
  0
LINE
  5
17F
330
1F
100
AcDbEntity
  8
0
  6
HIDDEN
 62
     7
100
AcDbLine
 10
7.5293640494
 20
4.3295444281
 30
0.0
 11
7.5861898633
 21
4.3295444281
 31
0.0
  0
LINE
  5
180
330
1F
100
AcDbEntity
  8
0
  6
HIDDEN
 62
     7
100
AcDbLine
 10
7.756667305
 20
4.3295444281
 30
0.0
 11
7.756667305
 21
4.5263948218
 31
0.0
  0
LINE
  5
181
330
1F
100
AcDbEntity
  8
0
  6
HIDDEN
 62
     7
100
AcDbLine
 10
7.5293640494
 20
4.3295444281
 30
0.0
 11
7.5293640494
 21
4.5263948218
 31
0.0
  0
LINE
  5
182
330
1F
100
AcDbEntity
  8
0
  6
HIDDEN
 62
     7
100
AcDbLine
 10
9.0186011418
 20
4.1893818612
 30
0.0
 11
9.0186011418
 21
4.4357406298
 31
0.0
  0
LINE
  5
183
330
1F
100
AcDbEntity
  8
0
  6
HIDDEN
 62
     7
100
AcDbLine
 10
8.7823806693
 20
4.1500117824
 30
0.0
 11
8.7823806693
 21
4.5830826486
 31
0.0
  0
LINE
  5
184
330
1F
100
AcDbEntity
  8
0
  6
HIDDEN
 62
     7
100
AcDbLine
 10
7.6800184646
 20
4.2484369793
 30
0.0
 11
7.6800184646
 21
4.4843423671
 31
0.0
  0
LINE
  5
185
330
1F
100
AcDbEntity
  8
0
  6
HIDDEN
 62
     7
100
AcDbLine
 10
7.6406483859
 20
4.4452848387
 30
0.0
 11
7.6406483859
 21
4.287807058
 31
0.0
  0
LINE
  5
186
330
1F
100
AcDbEntity
  8
0
  6
HIDDEN
 62
     7
100
AcDbLine
 10
8.8217507481
 20
4.3097214016
 30
0.0
 11
9.0186011418
 21
4.3097214016
 31
0.0
  0
LINE
  5
187
330
1F
100
AcDbEntity
  8
0
  6
HIDDEN
 62
     7
100
AcDbLine
 10
8.8217507481
 20
4.4233730294
 30
0.0
 11
9.0186011418
 21
4.4233730294
 31
0.0
  0
LINE
  5
188
330
1F
100
AcDbEntity
  8
0
  6
HIDDEN
 62
     7
100
AcDbLine
 10
8.8217507481
 20
4.4233730294
 30
0.0
 11
8.8217507481
 21
4.4801988433
 31
0.0
  0
LINE
  5
189
330
1F
100
AcDbEntity
  8
0
  6
HIDDEN
 62
     7
100
AcDbLine
 10
8.8217507481
 20
4.3097214016
 30
0.0
 11
8.8217507481
 21
4.4233730294
 31
0.0
  0
LINE
  5
18A
330
1F
100
AcDbEntity
  8
0
  6
HIDDEN
 62
     7
100
AcDbLine
 10
8.8217507481
 20
4.2528955877
 30
0.0
 11
8.8217507481
 21
4.3097214016
 31
0.0
  0
LINE
  5
18B
330
1F
100
AcDbEntity
  8
0
  6
HIDDEN
 62
     7
100
AcDbLine
 10
8.8217507481
 20
4.2528955877
 30
0.0
 11
9.0186011418
 21
4.2528955877
 31
0.0
  0
LINE
  5
18C
330
1F
100
AcDbEntity
  8
0
  6
HIDDEN
 62
     7
100
AcDbLine
 10
8.8217507481
 20
4.4801988433
 30
0.0
 11
9.0186011418
 21
4.4801988433
 31
0.0
  0
CIRCLE
  5
18D
330
1F
100
AcDbEntity
  8
0
  6
HIDDEN
 62
     7
100
AcDbCircle
 10
8.949703504
 20
3.7586782864
 30
0.0
 40
0.2165354330708666
  0
CIRCLE
  5
18E
330
1F
100
AcDbEntity
  8
0
  6
HIDDEN
 62
     7
100
AcDbCircle
 10
8.2508846063
 20
3.0598593888
 30
0.0
 40
0.2165354330708666
  0
CIRCLE
  5
18F
330
1F
100
AcDbEntity
  8
0
  6
HIDDEN
 62
     7
100
AcDbCircle
 10
8.2508846063
 20
4.457497184
 30
0.0
 40
0.2165354330708666
  0
CIRCLE
  5
190
330
1F
100
AcDbEntity
  8
0
  6
HIDDEN
 62
     7
100
AcDbCircle
 10
7.5520657087
 20
3.7586782864
 30
0.0
 40
0.2165354330708666
  0
LINE
  5
191
330
1F
100
AcDbEntity
  8
0
  6
HIDDEN
 62
     7
100
AcDbLine
 10
8.059492515
 20
4.6488892754
 30
0.0
 11
7.3606736173
 21
3.9500703778
 31
0.0
  0
ARC
  5
192
330
1F
100
AcDbEntity
  8
0
  6
HIDDEN
 62
     7
100
AcDbCircle
 10
8.2508846063
 20
4.457497184
 30
0.0
 40
0.2706692913385831
100
AcDbArc
 50
45.0
 51
135.0
  0
LINE
  5
193
330
1F
100
AcDbEntity
  8
0
  6
HIDDEN
 62
     7
100
AcDbLine
 10
9.1410955953
 20
3.9500703778
 30
0.0
 11
8.4422766977
 21
4.6488892754
 31
0.0
  0
ARC
  5
194
330
1F
100
AcDbEntity
  8
0
  6
HIDDEN
 62
     7
100
AcDbCircle
 10
8.949703504
 20
3.7586782864
 30
0.0
 40
0.2706692913385824
100
AcDbArc
 50
315.0
 51
45.0
  0
LINE
  5
195
330
1F
100
AcDbEntity
  8
0
  6
HIDDEN
 62
     7
100
AcDbLine
 10
8.4422766977
 20
2.8684672974
 30
0.0
 11
9.1410955953
 21
3.567286195
 31
0.0
  0
ARC
  5
196
330
1F
100
AcDbEntity
  8
0
  6
HIDDEN
 62
     7
100
AcDbCircle
 10
8.2508846063
 20
3.0598593888
 30
0.0
 40
0.2706692913385837
100
AcDbArc
 50
225.0
 51
315.0
  0
LINE
  5
197
330
1F
100
AcDbEntity
  8
0
  6
HIDDEN
 62
     7
100
AcDbLine
 10
7.3606736173
 20
3.567286195
 30
0.0
 11
8.059492515
 21
2.8684672974
 31
0.0
  0
ARC
  5
198
330
1F
100
AcDbEntity
  8
0
  6
HIDDEN
 62
     7
100
AcDbCircle
 10
7.5520657087
 20
3.7586782864
 30
0.0
 40
0.2706692913385828
100
AcDbArc
 50
135.0
 51
225.0
  0
CIRCLE
  5
199
330
1F
100
AcDbEntity
  8
0
  6
HIDDEN
 62
     7
100
AcDbCircle
 10
8.2508846063
 20
3.7586782864
 30
0.0
 40
0.3543307086614185
  0
CIRCLE
  5
19A
330
1F
100
AcDbEntity
  8
0
  6
HIDDEN
 62
     7
100
AcDbCircle
 10
8.2508846063
 20
3.7586782864
 30
0.0
 40
1.023622047244094
  0
LINE
  5
19B
330
1F
100
AcDbEntity
  8
0
  6
HIDDEN
 62
     7
100
AcDbLine
 10
7.3101641936
 20
3.3551349793
 30
0.0
 11
9.191605019
 21
3.3551349793
 31
0.0
  0
LINE
  5
19C
330
1F
100
AcDbEntity
  8
0
  6
HIDDEN
 62
     7
100
AcDbLine
 10
8.2115145276
 20
3.9515514945
 30
0.0
 11
8.2115145276
 21
4.7815429365
 31
0.0
  0
LINE
  5
19D
330
1F
100
AcDbEntity
  8
0
  6
HIDDEN
 62
     7
100
AcDbLine
 10
8.2902546851
 20
3.9515514945
 30
0.0
 11
8.2902546851
 21
4.7815429365
 31
0.0
  0
LINE
  5
19E
330
1F
100
AcDbEntity
  8
0
  6
HIDDEN
 62
     7
100
AcDbLine
 10
8.2115145276
 20
3.1692142666
 30
0.0
 11
8.2115145276
 21
3.5658050783
 31
0.0
  0
LINE
  5
19F
330
1F
100
AcDbEntity
  8
0
  6
HIDDEN
 62
     7
100
AcDbLine
 10
8.2902546851
 20
3.1692142666
 30
0.0
 11
8.2115145276
 21
3.1692142666
 31
0.0
  0
LINE
  5
1A0
330
1F
100
AcDbEntity
  8
0
  6
HIDDEN
 62
     7
100
AcDbLine
 10
8.2902546851
 20
3.5658050783
 30
0.0
 11
8.2902546851
 21
3.1692142666
 31
0.0
  0
ARC
  5
1A1
330
1F
100
AcDbEntity
  8
0
  6
HIDDEN
 62
     7
100
AcDbCircle
 10
8.2508846063
 20
3.7586782864
 30
0.0
 40
0.226850393700794
100
AcDbArc
 50
170.0056624179
 51
189.9943375821
  0
ARC
  5
1A2
330
1F
100
AcDbEntity
  8
0
  6
HIDDEN
 62
     7
100
AcDbCircle
 10
8.2508846063
 20
3.7586782864
 30
0.0
 40
0.2268503937007818
100
AcDbArc
 50
350.0056624179
 51
9.9943375821
  0
POLYLINE
  5
1A3
330
1F
100
AcDbEntity
  8
0
  6
HIDDEN
 62
     7
100
AcDb2dPolyline
 66
     1
 10
0.0
 20
0.0
 30
0.0
  0
VERTEX
  5
2B8
330
1A3
100
AcDbEntity
  8
0
  6
HIDDEN
 62
     7
100
AcDbVertex
100
AcDb2dVertex
 10
7.2580428417
 20
3.7980483651
 30
0.0
  0
VERTEX
  5
2B9
330
1A3
100
AcDbEntity
  8
0
  6
HIDDEN
 62
     7
100
AcDbVertex
100
AcDb2dVertex
 10
7.2572740158
 20
3.7634497833
 30
0.0
  0
VERTEX
  5
2BA
330
1A3
100
AcDbEntity
  8
0
  6
HIDDEN
 62
     7
100
AcDbVertex
100
AcDb2dVertex
 10
7.2580428417
 20
3.7193082077
 30
0.0
  0
SEQEND
  5
2BB
330
1A3
100
AcDbEntity
  8
0
  6
HIDDEN
 62
     7
  0
LINE
  5
1A4
330
1F
100
AcDbEntity
  8
0
  6
HIDDEN
 62
     7
100
AcDbLine
 10
7.8595511103
 20
4.2901743494
 30
0.0
 11
7.8595511103
 21
4.7045430708
 31
0.0
  0
LINE
  5
1A5
330
1F
100
AcDbEntity
  8
0
  6
HIDDEN
 62
     7
100
AcDbLine
 10
7.4264802441
 20
4.3658796898
 30
0.0
 11
7.4264802441
 21
4.2901743494
 31
0.0
  0
LINE
  5
1A6
330
1F
100
AcDbEntity
  8
0
  6
HIDDEN
 62
     7
100
AcDbLine
 10
7.524905441
 20
4.2901743494
 30
0.0
 11
7.524905441
 21
3.7980483651
 31
0.0
  0
LINE
  5
1A7
330
1F
100
AcDbEntity
  8
0
  6
HIDDEN
 62
     7
100
AcDbLine
 10
7.7611259134
 20
3.7980483651
 30
0.0
 11
7.7611259134
 21
4.2901743494
 31
0.0
  0
LINE
  5
1A8
330
1F
100
AcDbEntity
  8
0
  6
HIDDEN
 62
     7
100
AcDbLine
 10
7.524905441
 20
3.7193082077
 30
0.0
 11
7.524905441
 21
3.0370437895
 31
0.0
  0
LINE
  5
1A9
330
1F
100
AcDbEntity
  8
0
  6
HIDDEN
 62
     7
100
AcDbLine
 10
7.7611259134
 20
2.859906948
 30
0.0
 11
7.7611259134
 21
3.7193082077
 31
0.0
  0
ARC
  5
1AA
330
1F
100
AcDbEntity
  8
0
  6
HIDDEN
 62
     7
100
AcDbCircle
 10
7.8201810315
 20
4.4870247431
 30
0.0
 40
0.0393700787401574
100
AcDbArc
 50
0.0
 51
90.0
  0
LINE
  5
1AB
330
1F
100
AcDbEntity
  8
0
  6
HIDDEN
 62
     7
100
AcDbLine
 10
7.8595511103
 20
4.2901743494
 30
0.0
 11
7.8595511103
 21
4.4870247431
 31
0.0
  0
LINE
  5
1AC
330
1F
100
AcDbEntity
  8
0
  6
HIDDEN
 62
     7
100
AcDbLine
 10
7.4264802441
 20
4.3654398073
 30
0.0
 11
7.4264802441
 21
4.2901743494
 31
0.0
  0
LINE
  5
1AD
330
1F
100
AcDbEntity
  8
0
  6
HIDDEN
 62
     7
100
AcDbLine
 10
7.524905441
 20
4.2901743494
 30
0.0
 11
7.524905441
 21
3.7980483651
 31
0.0
  0
LINE
  5
1AE
330
1F
100
AcDbEntity
  8
0
  6
HIDDEN
 62
     7
100
AcDbLine
 10
7.524905441
 20
3.7193082077
 30
0.0
 11
7.524905441
 21
3.1878121447
 31
0.0
  0
LINE
  5
1AF
330
1F
100
AcDbEntity
  8
0
  6
HIDDEN
 62
     7
100
AcDbLine
 10
7.7611259134
 20
3.1878121447
 30
0.0
 11
7.7611259134
 21
3.7193082077
 31
0.0
  0
LINE
  5
1B0
330
1F
100
AcDbEntity
  8
0
  6
HIDDEN
 62
     7
100
AcDbLine
 10
7.7611259134
 20
3.7980483651
 30
0.0
 11
7.7611259134
 21
4.2901743494
 31
0.0
  0
ARC
  5
1B1
330
1F
100
AcDbEntity
  8
0
  6
HIDDEN
 62
     7
100
AcDbCircle
 10
7.7217558347
 20
3.1878121447
 30
0.0
 40
0.0393700787401579
100
AcDbArc
 50
270.0
 51
0.0
  0
ARC
  5
1B2
330
1F
100
AcDbEntity
  8
0
  6
HIDDEN
 62
     7
100
AcDbCircle
 10
7.5642755197
 20
3.1878121447
 30
0.0
 40
0.0393700787401579
100
AcDbArc
 50
180.0
 51
270.0
  0
ARC
  5
1B3
330
1F
100
AcDbEntity
  8
0
  6
HIDDEN
 62
     7
100
AcDbCircle
 10
8.979231063
 20
4.1893818612
 30
0.0
 40
0.0393700787401574
100
AcDbArc
 50
270.0
 51
0.0
  0
LINE
  5
1B4
330
1F
100
AcDbEntity
  8
0
  6
HIDDEN
 62
     7
100
AcDbLine
 10
8.7823806693
 20
4.1500117824
 30
0.0
 11
8.979231063
 21
4.1500117824
 31
0.0
  0
LINE
  5
1B5
330
1F
100
AcDbEntity
  8
0
  6
HIDDEN
 62
     7
100
AcDbLine
 10
8.8576461272
 20
4.5830826486
 30
0.0
 11
8.7823806693
 21
4.5830826486
 31
0.0
  0
LINE
  5
1B6
330
1F
100
AcDbEntity
  8
0
  6
HIDDEN
 62
     7
100
AcDbLine
 10
8.7823806693
 20
4.4846574517
 30
0.0
 11
7.6800184646
 21
4.4846574517
 31
0.0
  0
LINE
  5
1B7
330
1F
100
AcDbEntity
  8
0
  6
HIDDEN
 62
     7
100
AcDbLine
 10
7.6800184646
 20
4.2484369793
 30
0.0
 11
8.7823806693
 21
4.2484369793
 31
0.0
  0
ARC
  5
1B8
330
1F
100
AcDbEntity
  8
0
  6
HIDDEN
 62
     7
100
AcDbCircle
 10
7.6800184646
 20
4.287807058
 30
0.0
 40
0.0393700787401583
100
AcDbArc
 50
180.0
 51
270.0
  0
ARC
  5
1B9
330
1F
100
AcDbEntity
  8
0
  6
HIDDEN
 62
     7
100
AcDbCircle
 10
7.6800184646
 20
4.445287373
 30
0.0
 40
0.0393700787401574
100
AcDbArc
 50
90.0
 51
180.0
  0
LINE
  5
1BA
330
1F
100
AcDbEntity
  8
0
  6
HIDDEN
 62
     7
100
AcDbLine
 10
8.7823806693
 20
4.1500117824
 30
0.0
 11
9.1967493908
 21
4.1500117824
 31
0.0
  0
LINE
  5
1BB
330
1F
100
AcDbEntity
  8
0
  6
HIDDEN
 62
     7
100
AcDbLine
 10
8.8580860098
 20
4.5830826486
 30
0.0
 11
8.7823806693
 21
4.5830826486
 31
0.0
  0
LINE
  5
1BC
330
1F
100
AcDbEntity
  8
0
  6
HIDDEN
 62
     7
100
AcDbLine
 10
8.7823806693
 20
4.4846574517
 30
0.0
 11
8.2902546851
 21
4.4846574517
 31
0.0
  0
LINE
  5
1BD
330
1F
100
AcDbEntity
  8
0
  6
HIDDEN
 62
     7
100
AcDbLine
 10
8.2902546851
 20
4.2484369793
 30
0.0
 11
8.7823806693
 21
4.2484369793
 31
0.0
  0
LINE
  5
1BE
330
1F
100
AcDbEntity
  8
0
  6
HIDDEN
 62
     7
100
AcDbLine
 10
8.2115145276
 20
4.4846574517
 30
0.0
 11
7.5292501094
 21
4.4846574517
 31
0.0
  0
LINE
  5
1BF
330
1F
100
AcDbEntity
  8
0
  6
HIDDEN
 62
     7
100
AcDbLine
 10
7.3521132679
 20
4.2484369793
 30
0.0
 11
8.2115145276
 21
4.2484369793
 31
0.0
  0
LINE
  5
1C0
330
1F
100
AcDbEntity
  8
0
  6
HIDDEN
 62
     7
100
AcDbLine
 10
7.4264802441
 20
4.4870247431
 30
0.0
 11
7.8592442137
 21
4.4870247431
 31
0.0
  0
LINE
  5
1C1
330
1F
100
AcDbEntity
  8
0
  6
HIDDEN
 62
     7
100
AcDbLine
 10
8.979231063
 20
4.5830826486
 30
0.0
 11
8.979231063
 21
4.150318679
 31
0.0
  0
LINE
  5
1C2
330
1F
100
AcDbEntity
  8
0
  6
CONTINUOUS
 62
     7
100
AcDbLine
 10
4.3305731113
 20
7.6655991862
 30
0.0
 11
4.3005731113
 21
7.6955991862
 31
0.0
  0
LINE
  5
1C3
330
1F
100
AcDbEntity
  8
0
  6
CONTINUOUS
 62
     7
100
AcDbLine
 10
3.4250613002
 20
5.6483550917
 30
0.0
 11
3.6378434525
 21
5.6483550917
 31
0.0
  0
LINE
  5
1C4
330
1F
100
AcDbEntity
  8
0
  6
CONTINUOUS
 62
     7
100
AcDbLine
 10
4.3005731113
 20
7.6955991862
 30
0.0
 11
3.4250613002
 21
7.6955991862
 31
0.0
  0
ARC
  5
1C5
330
1F
100
AcDbEntity
  8
0
  6
CONTINUOUS
 62
     7
100
AcDbCircle
 10
2.4117542136
 20
7.4003235956
 30
0.0
 40
0.0393700787401574
100
AcDbArc
 50
90.0
 51
128.4872672882
  0
ARC
  5
1C6
330
1F
100
AcDbEntity
  8
0
  6
CONTINUOUS
 62
     7
100
AcDbCircle
 10
2.7660849223
 20
7.4003235956
 30
0.0
 40
0.0393700787401574
100
AcDbArc
 50
52.2406920555
 51
90.0
  0
LINE
  5
1C7
330
1F
100
AcDbEntity
  8
0
  6
CONTINUOUS
 62
     7
100
AcDbLine
 10
2.4708093317
 20
6.7113472177
 30
0.0
 11
2.4708093317
 21
6.6326070602
 31
0.0
  0
LINE
  5
1C8
330
1F
100
AcDbEntity
  8
0
  6
CONTINUOUS
 62
     7
100
AcDbLine
 10
2.7070298042
 20
6.6326070602
 30
0.0
 11
2.7070298042
 21
6.7113472177
 31
0.0
  0
LINE
  5
1C9
330
1F
100
AcDbEntity
  8
0
  6
CONTINUOUS
 62
     7
100
AcDbLine
 10
2.9104418777
 20
7.6955991862
 30
0.0
 11
2.3526990955
 21
7.6955991862
 31
0.0
  0
LINE
  5
1CA
330
1F
100
AcDbEntity
  8
0
  6
CONTINUOUS
 62
     7
100
AcDbLine
 10
3.2282109065
 20
7.6955991862
 30
0.0
 11
3.0154287543
 21
7.6955991862
 31
0.0
  0
LINE
  5
1CB
330
1F
100
AcDbEntity
  8
0
  6
CONTINUOUS
 62
     7
100
AcDbLine
 10
3.0154287543
 20
5.6483550917
 30
0.0
 11
3.2282109065
 21
5.6483550917
 31
0.0
  0
LINE
  5
1CC
330
1F
100
AcDbEntity
  8
0
  6
CONTINUOUS
 62
     7
100
AcDbLine
 10
2.3526990955
 20
5.6483550917
 30
0.0
 11
2.9104418777
 21
5.6483550917
 31
0.0
  0
LINE
  5
1CD
330
1F
100
AcDbEntity
  8
0
  6
CONTINUOUS
 62
     7
100
AcDbLine
 10
2.3526990955
 20
7.6955991862
 30
0.0
 11
2.3226990955
 21
7.6655991862
 31
0.0
  0
LINE
  5
1CE
330
1F
100
AcDbEntity
  8
0
  6
CONTINUOUS
 62
     7
100
AcDbLine
 10
2.3226990955
 20
5.6783550917
 30
0.0
 11
2.3526990955
 21
5.6483550917
 31
0.0
  0
LINE
  5
1CF
330
1F
100
AcDbEntity
  8
0
  6
CONTINUOUS
 62
     7
100
AcDbLine
 10
3.2282109065
 20
6.4554417058
 30
0.0
 11
3.306951064
 21
6.4554417058
 31
0.0
  0
LINE
  5
1D0
330
1F
100
AcDbEntity
  8
0
  6
CONTINUOUS
 62
     7
100
AcDbLine
 10
3.306951064
 20
6.888512572
 30
0.0
 11
3.2282109065
 21
6.888512572
 31
0.0
  0
LINE
  5
1D1
330
1F
100
AcDbEntity
  8
0
  6
CONTINUOUS
 62
     7
100
AcDbLine
 10
3.3463211428
 20
6.4554417058
 30
0.0
 11
3.4250613002
 21
6.4554417058
 31
0.0
  0
LINE
  5
1D2
330
1F
100
AcDbEntity
  8
0
  6
CONTINUOUS
 62
     7
100
AcDbLine
 10
3.4250613002
 20
6.888512572
 30
0.0
 11
3.3463211428
 21
6.888512572
 31
0.0
  0
LINE
  5
1D3
330
1F
100
AcDbEntity
  8
0
  6
CONTINUOUS
 62
     7
100
AcDbLine
 10
3.2282109065
 20
7.1542606035
 30
0.0
 11
3.306951064
 21
7.1542606035
 31
0.0
  0
LINE
  5
1D4
330
1F
100
AcDbEntity
  8
0
  6
CONTINUOUS
 62
     7
100
AcDbLine
 10
3.306951064
 20
7.5873314696
 30
0.0
 11
3.2282109065
 21
7.5873314696
 31
0.0
  0
LINE
  5
1D5
330
1F
100
AcDbEntity
  8
0
  6
CONTINUOUS
 62
     7
100
AcDbLine
 10
3.3463211428
 20
7.1542606035
 30
0.0
 11
3.4250613002
 21
7.1542606035
 31
0.0
  0
LINE
  5
1D6
330
1F
100
AcDbEntity
  8
0
  6
CONTINUOUS
 62
     7
100
AcDbLine
 10
3.4250613002
 20
7.5873314696
 30
0.0
 11
3.3463211428
 21
7.5873314696
 31
0.0
  0
LINE
  5
1D7
330
1F
100
AcDbEntity
  8
0
  6
CONTINUOUS
 62
     7
100
AcDbLine
 10
3.2282109065
 20
5.7566228082
 30
0.0
 11
3.306951064
 21
5.7566228082
 31
0.0
  0
LINE
  5
1D8
330
1F
100
AcDbEntity
  8
0
  6
CONTINUOUS
 62
     7
100
AcDbLine
 10
3.306951064
 20
6.1896936743
 30
0.0
 11
3.2282109065
 21
6.1896936743
 31
0.0
  0
LINE
  5
1D9
330
1F
100
AcDbEntity
  8
0
  6
CONTINUOUS
 62
     7
100
AcDbLine
 10
3.3463211428
 20
5.7566228082
 30
0.0
 11
3.4250613002
 21
5.7566228082
 31
0.0
  0
LINE
  5
1DA
330
1F
100
AcDbEntity
  8
0
  6
CONTINUOUS
 62
     7
100
AcDbLine
 10
3.4250613002
 20
6.1896936743
 30
0.0
 11
3.3463211428
 21
6.1896936743
 31
0.0
  0
LINE
  5
1DB
330
1F
100
AcDbEntity
  8
0
  6
CONTINUOUS
 62
     7
100
AcDbLine
 10
3.3463211428
 20
7.6414653279
 30
0.0
 11
3.306951064
 21
7.6414653279
 31
0.0
  0
LINE
  5
1DC
330
1F
100
AcDbEntity
  8
0
  6
CONTINUOUS
 62
     7
100
AcDbLine
 10
3.306951064
 20
5.7024889499
 30
0.0
 11
3.3463211428
 21
5.7024889499
 31
0.0
  0
LINE
  5
1DD
330
1F
100
AcDbEntity
  8
0
  6
CONTINUOUS
 62
     7
100
AcDbLine
 10
4.3305731113
 20
7.6655991862
 30
0.0
 11
4.3305731113
 21
5.6791353742
 31
0.0
  0
LINE
  5
1DE
330
1F
100
AcDbEntity
  8
0
  6
CONTINUOUS
 62
     7
100
AcDbLine
 10
4.3005731113
 20
5.6491124888
 30
0.0
 11
4.3305731113
 21
5.6791353742
 31
0.0
  0
LINE
  5
1DF
330
1F
100
AcDbEntity
  8
0
  6
CONTINUOUS
 62
     7
100
AcDbLine
 10
4.3005731113
 20
5.6491124888
 30
0.0
 11
4.3005731113
 21
7.6955991862
 31
0.0
  0
LINE
  5
1E0
330
1F
100
AcDbEntity
  8
0
  6
CONTINUOUS
 62
     7
100
AcDbLine
 10
3.4250613002
 20
7.6955991862
 30
0.0
 11
3.4250613002
 21
5.6483550917
 31
0.0
  0
SPLINE
  5
1E1
330
1F
100
AcDbEntity
  8
0
  6
CONTINUOUS
 62
     7
100
AcDbSpline
210
0.0
220
0.0
230
1.0
 70
     8
 71
     3
 72
    72
 73
    68
 74
     0
 42
0.00000001
 43
0.00000001
 40
-0.0312500000000003
 40
-0.0312500000000003
 40
0.0
 40
0.0
 40
0.0312499999999999
 40
0.0312499999999999
 40
0.0624999999999997
 40
0.0624999999999997
 40
0.0937499999999996
 40
0.0937499999999996
 40
0.1249999999999994
 40
0.1249999999999994
 40
0.1562499999999991
 40
0.1562499999999991
 40
0.1874999999999989
 40
0.1874999999999989
 40
0.2187499999999987
 40
0.2187499999999987
 40
0.2499999999999984
 40
0.2499999999999984
 40
0.2812499999999982
 40
0.2812499999999982
 40
0.3124999999999979
 40
0.3124999999999979
 40
0.3437499999999977
 40
0.3437499999999977
 40
0.3749999999999975
 40
0.3749999999999975
 40
0.4062499999999972
 40
0.4062499999999972
 40
0.437499999999997
 40
0.437499999999997
 40
0.4687499999999967
 40
0.4687499999999967
 40
0.4843749999999966
 40
0.4843749999999966
 40
0.4999999999999965
 40
0.4999999999999965
 40
0.5156249999999963
 40
0.5156249999999963
 40
0.5312499999999963
 40
0.5312499999999963
 40
0.5624999999999963
 40
0.5624999999999963
 40
0.6249999999999967
 40
0.6249999999999967
 40
0.6562499999999969
 40
0.6562499999999969
 40
0.6874999999999971
 40
0.6874999999999971
 40
0.7187499999999973
 40
0.7187499999999973
 40
0.7499999999999974
 40
0.7499999999999974
 40
0.7812499999999978
 40
0.7812499999999978
 40
0.8124999999999981
 40
0.8124999999999981
 40
0.8437499999999984
 40
0.8437499999999984
 40
0.8749999999999988
 40
0.8749999999999988
 40
0.9062499999999991
 40
0.9062499999999991
 40
0.9374999999999993
 40
0.9374999999999993
 40
0.9687499999999997
 40
0.9687499999999997
 40
1.0
 40
1.0
 40
1.03125
 40
1.03125
 10
4.080735718771637
 20
6.28064364287116
 30
0.0
 10
4.047969558863609
 20
6.280643642871159
 30
0.0
 10
4.031927750758591
 20
6.278808014880393
 30
0.0
 10
4.000498715266675
 20
6.271641474878987
 30
0.0
 10
3.985052433170364
 20
6.26622463721661
 30
0.0
 10
3.956424984999226
 20
6.252499277498551
 30
0.0
 10
3.942899442721748
 20
6.244054623225067
 30
0.0
 10
3.918329466863621
 20
6.224759458780295
 30
0.0
 10
3.907408771448093
 20
6.214056507968173
 30
0.0
 10
3.888105595651576
 20
6.190808049593297
 30
0.0
 10
3.879833047777478
 20
6.178339617724109
 30
0.0
 10
3.866293720231497
 20
6.152815361723768
 30
0.0
 10
3.860899458904915
 20
6.139526819863978
 30
0.0
 10
3.852920605427105
 20
6.112869448677926
 30
0.0
 10
3.85032531553126
 20
6.099564884387959
 30
0.0
 10
3.84759368338385
 20
6.073076271196206
 30
0.0
 10
3.847479157779482
 20
6.059843468867959
 30
0.0
 10
3.84950119246652
 20
6.034256060905117
 30
0.0
 10
3.851620124379197
 20
6.021808176921875
 30
0.0
 10
3.857914752241776
 20
5.997566384856065
 30
0.0
 10
3.862119949892017
 20
5.985739676410604
 30
0.0
 10
3.872325700134738
 20
5.963284887519129
 30
0.0
 10
3.878338157441358
 20
5.952579141768471
 30
0.0
 10
3.892225388667941
 20
5.932152421546665
 30
0.0
 10
3.900151542733602
 20
5.922376058703121
 30
0.0
 10
3.917910548807523
 20
5.904093470218905
 30
0.0
 10
3.927664776611088
 20
5.895642350489644
 30
0.0
 10
3.949298839786831
 20
5.880187192087662
 30
0.0
 10
3.961321979591229
 20
5.873116018045627
 30
0.0
 10
3.987414920636099
 20
5.86119462826151
 30
0.0
 10
4.001697904840122
 20
5.856247048248879
 30
0.0
 10
4.024573601523032
 20
5.851114564199938
 30
0.0
 10
4.032369850984498
 20
5.849797033899609
 30
0.0
 10
4.04834382078112
 20
5.848015876343998
 30
0.0
 10
4.056597248450501
 20
5.847559376554399
 30
0.0
 10
4.072839082926854
 20
5.847586793939678
 30
0.0
 10
4.080890146246426
 20
5.848055722755675
 30
0.0
 10
4.096858168222633
 20
5.849875726576524
 30
0.0
 10
4.104805519043017
 20
5.851241890722555
 30
0.0
 10
4.127635220699775
 20
5.856438869815531
 30
0.0
 10
4.141965774523454
 20
5.861454338511323
 30
0.0
 10
4.180958334711737
 20
5.879419574823798
 30
0.0
 10
4.202497721705581
 20
5.895463243967097
 30
0.0
 10
4.228820995155347
 20
5.922696922408841
 30
0.0
 10
4.236640972142205
 20
5.932358717117162
 30
0.0
 10
4.250548344293714
 20
5.952877108554801
 30
0.0
 10
4.256633262756998
 20
5.963770483566503
 30
0.0
 10
4.266776718407209
 20
5.986236586916272
 30
0.0
 10
4.270886379203377
 20
5.997874924689961
 30
0.0
 10
4.277123406877382
 20
6.022017424187561
 30
0.0
 10
4.279256463898418
 20
6.034617217626324
 30
0.0
 10
4.281236960526035
 20
6.060291974634054
 30
0.0
 10
4.281097790358977
 20
6.07330234843843
 30
0.0
 10
4.278361734604945
 20
6.09964832547645
 30
0.0
 10
4.275735897324609
 20
6.113086596026169
 30
0.0
 10
4.267714634397676
 20
6.139776320970196
 30
0.0
 10
4.262388419613875
 20
6.152865706694096
 30
0.0
 10
4.248850987222102
 20
6.178372916365591
 30
0.0
 10
4.240510251196161
 20
6.190921242683332
 30
0.0
 10
4.221321274113868
 20
6.214021175354099
 30
0.0
 10
4.21046211356583
 20
6.224674903988774
 30
0.0
 10
4.186006662209539
 20
6.243913494723659
 30
0.0
 10
4.172397089633126
 20
6.252429737649918
 30
0.0
 10
4.143835400731362
 20
6.266150511713048
 30
0.0
 10
4.128557158422853
 20
6.271543753119673
 30
0.0
 10
4.096874035013221
 20
6.278803537554378
 30
0.0
 10
4.080735718771637
 20
6.28064364287116
 30
0.0
 10
4.047969558863609
 20
6.280643642871159
 30
0.0
  0
LINE
  5
1E2
330
1F
100
AcDbEntity
  8
0
  6
CONTINUOUS
 62
     7
100
AcDbLine
 10
4.3005731113
 20
5.6491124888
 30
0.0
 11
3.7428303291
 21
5.6491124888
 31
0.0
  0
LINE
  5
1E3
330
1F
100
AcDbEntity
  8
0
  6
CONTINUOUS
 62
     7
100
AcDbLine
 10
3.7428303291
 20
7.075520446
 30
0.0
 11
3.7428303291
 21
5.6491124888
 31
0.0
  0
LINE
  5
1E4
330
1F
100
AcDbEntity
  8
0
  6
CONTINUOUS
 62
     7
100
AcDbLine
 10
3.6378434525
 20
7.075520446
 30
0.0
 11
3.7428303291
 21
7.075520446
 31
0.0
  0
LINE
  5
1E5
330
1F
100
AcDbEntity
  8
0
  6
CONTINUOUS
 62
     7
100
AcDbLine
 10
3.6378434525
 20
5.6483550917
 30
0.0
 11
3.6378434525
 21
7.075520446
 31
0.0
  0
CIRCLE
  5
1E6
330
1F
100
AcDbEntity
  8
0
  6
CONTINUOUS
 62
     7
100
AcDbCircle
 10
4.0643526388
 20
6.0641082098
 30
0.0
 40
0.1771653543307092
  0
CIRCLE
  5
1E7
330
1F
100
AcDbEntity
  8
0
  6
CONTINUOUS
 62
     7
100
AcDbCircle
 10
4.0643526388
 20
6.0641082098
 30
0.0
 40
0.2165354330708666
  0
LINE
  5
1E8
330
1F
100
AcDbEntity
  8
0
  6
CONTINUOUS
 62
     7
100
AcDbLine
 10
4.1627778357
 20
6.0072823959
 30
0.0
 11
4.1627778357
 21
6.1209340237
 31
0.0
  0
LINE
  5
1E9
330
1F
100
AcDbEntity
  8
0
  6
CONTINUOUS
 62
     7
100
AcDbLine
 10
4.1627778357
 20
6.1209340237
 30
0.0
 11
4.0643526388
 21
6.1777598376
 31
0.0
  0
LINE
  5
1EA
330
1F
100
AcDbEntity
  8
0
  6
CONTINUOUS
 62
     7
100
AcDbLine
 10
4.0643526388
 20
6.1777598376
 30
0.0
 11
3.965927442
 21
6.1209340237
 31
0.0
  0
LINE
  5
1EB
330
1F
100
AcDbEntity
  8
0
  6
CONTINUOUS
 62
     7
100
AcDbLine
 10
3.965927442
 20
6.1209340237
 30
0.0
 11
3.965927442
 21
6.0072823959
 31
0.0
  0
LINE
  5
1EC
330
1F
100
AcDbEntity
  8
0
  6
CONTINUOUS
 62
     7
100
AcDbLine
 10
3.965927442
 20
6.0072823959
 30
0.0
 11
4.0643526388
 21
5.950456582
 31
0.0
  0
LINE
  5
1ED
330
1F
100
AcDbEntity
  8
0
  6
CONTINUOUS
 62
     7
100
AcDbLine
 10
4.0643526388
 20
5.950456582
 30
0.0
 11
4.1627778357
 21
6.0072823959
 31
0.0
  0
LINE
  5
1EE
330
1F
100
AcDbEntity
  8
0
  6
CONTINUOUS
 62
     7
100
AcDbLine
 10
2.588919568
 20
7.4396936743
 30
0.0
 11
2.4117542136
 21
7.4396936743
 31
0.0
  0
LINE
  5
1EF
330
1F
100
AcDbEntity
  8
0
  6
CONTINUOUS
 62
     7
100
AcDbLine
 10
2.7660849223
 20
7.4396936743
 30
0.0
 11
2.588919568
 21
7.4396936743
 31
0.0
  0
LINE
  5
1F0
330
1F
100
AcDbEntity
  8
0
  6
CONTINUOUS
 62
     7
100
AcDbLine
 10
3.2282109065
 20
7.6955991862
 30
0.0
 11
3.2282109065
 21
5.6483550917
 31
0.0
  0
SPLINE
  5
1F1
330
1F
100
AcDbEntity
  8
0
  6
CONTINUOUS
 62
     7
100
AcDbSpline
210
0.0
220
0.0
230
1.0
 70
     8
 71
     3
 72
    72
 73
    68
 74
     0
 42
0.00000001
 43
0.00000001
 40
-0.03125
 40
-0.03125
 40
0.0
 40
0.0
 40
0.03125
 40
0.03125
 40
0.0625
 40
0.0625
 40
0.09375
 40
0.09375
 40
0.1249999999999998
 40
0.1249999999999998
 40
0.1562499999999998
 40
0.1562499999999998
 40
0.1874999999999996
 40
0.1874999999999996
 40
0.2187499999999995
 40
0.2187499999999995
 40
0.2499999999999994
 40
0.2499999999999994
 40
0.2812499999999993
 40
0.2812499999999993
 40
0.3124999999999992
 40
0.3124999999999992
 40
0.343749999999999
 40
0.343749999999999
 40
0.3749999999999989
 40
0.3749999999999989
 40
0.4062499999999988
 40
0.4062499999999988
 40
0.4374999999999987
 40
0.4374999999999987
 40
0.4687499999999985
 40
0.4687499999999985
 40
0.4843749999999985
 40
0.4843749999999985
 40
0.4999999999999985
 40
0.4999999999999985
 40
0.5156249999999984
 40
0.5156249999999984
 40
0.5312499999999984
 40
0.5312499999999984
 40
0.5624999999999987
 40
0.5624999999999987
 40
0.624999999999999
 40
0.624999999999999
 40
0.656249999999999
 40
0.656249999999999
 40
0.6874999999999991
 40
0.6874999999999991
 40
0.7187499999999992
 40
0.7187499999999992
 40
0.7499999999999993
 40
0.7499999999999993
 40
0.7812499999999994
 40
0.7812499999999994
 40
0.8124999999999996
 40
0.8124999999999996
 40
0.8437499999999997
 40
0.8437499999999997
 40
0.8749999999999997
 40
0.8749999999999997
 40
0.9062499999999998
 40
0.9062499999999998
 40
0.9374999999999999
 40
0.9374999999999999
 40
0.96875
 40
0.96875
 40
1.0
 40
1.0
 40
1.03125
 40
1.03125
 10
2.572536487997468
 20
7.617841923374112
 30
0.0
 10
2.605302647905495
 20
7.617841923374112
 30
0.0
 10
2.621344456010514
 20
7.617088373265168
 30
0.0
 10
2.652773491502431
 20
7.61407509639599
 30
0.0
 10
2.668219773598741
 20
7.611776711370715
 30
0.0
 10
2.696847221769878
 20
7.605731203325898
 30
0.0
 10
2.710372764047356
 20
7.601922461401975
 30
0.0
 10
2.734942739905484
 20
7.592798689935965
 30
0.0
 10
2.745863435321012
 20
7.587554510013661
 30
0.0
 10
2.76516661111753
 20
7.575553109266083
 30
0.0
 10
2.773439158991627
 20
7.568827039296303
 30
0.0
 10
2.786978486537607
 20
7.554297259531642
 30
0.0
 10
2.79237274786419
 20
7.54636090601376
 30
0.0
 10
2.800351601342
 20
7.529560315721187
 30
0.0
 10
2.802946891237845
 20
7.520745117725041
 30
0.0
 10
2.805678523385255
 20
7.502266619537004
 30
0.0
 10
2.805793048989623
 20
7.492559492410226
 30
0.0
 10
2.803771014302585
 20
7.472835962637888
 30
0.0
 10
2.801652082389908
 20
7.462758472531319
 30
0.0
 10
2.795357454527328
 20
7.442188104524265
 30
0.0
 10
2.791152256877088
 20
7.431658343648619
 30
0.0
 10
2.780946506634367
 20
7.410754967887504
 30
0.0
 10
2.774934049327746
 20
7.400318168449571
 30
0.0
 10
2.761046818101164
 20
7.379560011215244
 30
0.0
 10
2.753120664035503
 20
7.369175658583666
 30
0.0
 10
2.735361657961582
 20
7.348986907406351
 30
0.0
 10
2.725607430158016
 20
7.339248357569149
 30
0.0
 10
2.703973366982273
 20
7.320834028426622
 30
0.0
 10
2.691950227177876
 20
7.312067805155499
 30
0.0
 10
2.665857286133007
 20
7.296898631474843
 30
0.0
 10
2.651574301928983
 20
7.290377553035336
 30
0.0
 10
2.628698605246073
 20
7.283528337413898
 30
0.0
 10
2.620902355784608
 20
7.281751043261068
 30
0.0
 10
2.604928385987985
 20
7.279342084632939
 30
0.0
 10
2.596674958318604
 20
7.27872045304608
 30
0.0
 10
2.580433123842251
 20
7.278757704894083
 30
0.0
 10
2.572382060522679
 20
7.279396218155912
 30
0.0
 10
2.556414038546472
 20
7.28185721373542
 30
0.0
 10
2.548466687726088
 20
7.283699369813796
 30
0.0
 10
2.525636986069331
 20
7.290631150805917
 30
0.0
 10
2.511306432245652
 20
7.297236045631427
 30
0.0
 10
2.472313872057368
 20
7.3200742476886
 30
0.0
 10
2.450774485063524
 20
7.33947916013909
 30
0.0
 10
2.424451211613758
 20
7.36951848048689
 30
0.0
 10
2.416631234626901
 20
7.379776883626468
 30
0.0
 10
2.402723862475391
 20
7.400613560467217
 30
0.0
 10
2.396638944012107
 20
7.411220448789865
 30
0.0
 10
2.386495488361896
 20
7.432106886536585
 30
0.0
 10
2.382385827565728
 20
7.442456726365103
 30
0.0
 10
2.376148799891723
 20
7.462929071166217
 30
0.0
 10
2.374015742870688
 20
7.473124405118766
 30
0.0
 10
2.372035246243071
 20
7.492894839546189
 30
0.0
 10
2.372174416410128
 20
7.502427919527603
 30
0.0
 10
2.374910472164161
 20
7.520799695802126
 30
0.0
 10
2.377536309444496
 20
7.529702149581141
 30
0.0
 10
2.385557572371428
 20
7.546513085707244
 30
0.0
 10
2.39088378715523
 20
7.55432671113985
 30
0.0
 10
2.404421219547002
 20
7.568845199528891
 30
0.0
 10
2.412761955572944
 20
7.575612167203245
 30
0.0
 10
2.431950932655237
 20
7.587535643374357
 30
0.0
 10
2.442810093203275
 20
7.592757264180399
 30
0.0
 10
2.467265544559566
 20
7.601857155355547
 30
0.0
 10
2.480875117135979
 20
7.605699942182504
 30
0.0
 10
2.509436806037743
 20
7.611744686718153
 30
0.0
 10
2.524715048346252
 20
7.614033774889095
 30
0.0
 10
2.556398171755883
 20
7.61708672041097
 30
0.0
 10
2.572536487997468
 20
7.617841923374112
 30
0.0
 10
2.605302647905495
 20
7.617841923374112
 30
0.0
  0
SPLINE
  5
1F2
330
1F
100
AcDbEntity
  8
0
  6
CONTINUOUS
 62
     7
100
AcDbSpline
210
0.0
220
0.0
230
1.0
 70
     8
 71
     3
 72
    48
 73
    44
 74
     0
 42
0.00000001
 43
0.00000001
 40
-0.0624999999999999
 40
-0.0624999999999999
 40
0.0
 40
0.0
 40
0.0312500000000001
 40
0.0312500000000001
 40
0.0625000000000001
 40
0.0625000000000001
 40
0.0937500000000002
 40
0.0937500000000002
 40
0.1250000000000002
 40
0.1250000000000002
 40
0.1875000000000006
 40
0.1875000000000006
 40
0.250000000000001
 40
0.250000000000001
 40
0.3125000000000012
 40
0.3125000000000012
 40
0.3750000000000013
 40
0.3750000000000013
 40
0.4375000000000015
 40
0.4375000000000015
 40
0.4687500000000014
 40
0.4687500000000014
 40
0.5000000000000012
 40
0.5000000000000012
 40
0.5312500000000011
 40
0.5312500000000011
 40
0.5625000000000009
 40
0.5625000000000009
 40
0.5937500000000007
 40
0.5937500000000007
 40
0.6250000000000006
 40
0.6250000000000006
 40
0.7500000000000004
 40
0.7500000000000004
 40
0.8125000000000002
 40
0.8125000000000002
 40
0.875
 40
0.875
 40
0.90625
 40
0.90625
 40
0.9375000000000001
 40
0.9375000000000001
 40
1.0
 40
1.0
 40
1.03125
 40
1.03125
 10
2.60661305230701
 20
5.950342642026654
 30
0.0
 10
2.580072825773718
 20
5.950342642026654
 30
0.0
 10
2.571491474095479
 20
5.949352884070278
 30
0.0
 10
2.554802394638248
 20
5.945628236741584
 30
0.0
 10
2.546818562602486
 20
5.942896652963289
 30
0.0
 10
2.532132602745166
 20
5.936286481102438
 30
0.0
 10
2.525291251604607
 20
5.932348176760208
 30
0.0
 10
2.513030422617007
 20
5.923865096283192
 30
0.0
 10
2.507521911103002
 20
5.919283198978683
 30
0.0
 10
2.492598671081517
 20
5.904742986713226
 30
0.0
 10
2.48510133444797
 20
5.894348013644428
 30
0.0
 10
2.474513313328549
 20
5.873178260826269
 30
0.0
 10
2.471488361760376
 20
5.862414803123754
 30
0.0
 10
2.470333850652831
 20
5.841644688513305
 30
0.0
 10
2.472243895811207
 20
5.831440934805097
 30
0.0
 10
2.481419458921065
 20
5.812893044493356
 30
0.0
 10
2.48889661840117
 20
5.804197602118692
 30
0.0
 10
2.509432657036752
 20
5.7896262590303
 30
0.0
 10
2.522709342155922
 20
5.783615198059548
 30
0.0
 10
2.54559036226708
 20
5.77746865527214
 30
0.0
 10
2.553878913197192
 20
5.775855831466293
 30
0.0
 10
2.57070967018293
 20
5.773716784941911
 30
0.0
 10
2.579387399277268
 20
5.773153318549112
 30
0.0
 10
2.597025698212781
 20
5.773095299076797
 30
0.0
 10
2.60567887610888
 20
5.773596443376277
 30
0.0
 10
2.622665618240098
 20
5.775636869466
 30
0.0
 10
2.630957319203587
 20
5.777189997535564
 30
0.0
 10
2.646359857100233
 20
5.781201087750688
 30
0.0
 10
2.653662571857658
 20
5.783709695122282
 30
0.0
 10
2.666826857501219
 20
5.789496797302958
 30
0.0
 10
2.672727108845187
 20
5.792770441915418
 30
0.0
 10
2.699051357484934
 20
5.811080417447868
 30
0.0
 10
2.708005322941905
 20
5.830849521121996
 30
0.0
 10
2.706414645292341
 20
5.862145071523462
 30
0.0
 10
2.703408258190375
 20
5.872949154831597
 30
0.0
 10
2.692868122065932
 20
5.894150452524864
 30
0.0
 10
2.685411186249227
 20
5.904542103037733
 30
0.0
 10
2.670471482782653
 20
5.919149760457747
 30
0.0
 10
2.664955074174888
 20
5.923752037234038
 30
0.0
 10
2.652675141014781
 20
5.932271664176926
 30
0.0
 10
2.645822566193553
 20
5.936225390996598
 30
0.0
 10
2.62378842335361
 20
5.946169375828644
 30
0.0
 10
2.60661305230701
 20
5.950342642026654
 30
0.0
 10
2.580072825773718
 20
5.950342642026654
 30
0.0
  0
LINE
  5
1F3
330
1F
100
AcDbEntity
  8
0
  6
CONTINUOUS
 62
     7
100
AcDbLine
 10
3.0154287543
 20
7.6126975516
 30
0.0
 11
2.9104418777
 21
7.6126975516
 31
0.0
  0
LINE
  5
1F4
330
1F
100
AcDbEntity
  8
0
  6
CONTINUOUS
 62
     7
100
AcDbLine
 10
2.9104418777
 20
7.6955991862
 30
0.0
 11
2.9104418777
 21
6.7113472177
 31
0.0
  0
LINE
  5
1F5
330
1F
100
AcDbEntity
  8
0
  6
CONTINUOUS
 62
     7
100
AcDbLine
 10
2.3526990955
 20
6.7113472177
 30
0.0
 11
2.9104418777
 21
6.7113472177
 31
0.0
  0
LINE
  5
1F6
330
1F
100
AcDbEntity
  8
0
  6
CONTINUOUS
 62
     7
100
AcDbLine
 10
2.3526990955
 20
6.7113472177
 30
0.0
 11
2.3526990955
 21
7.6955991862
 31
0.0
  0
LINE
  5
1F7
330
1F
100
AcDbEntity
  8
0
  6
CONTINUOUS
 62
     7
100
AcDbLine
 10
2.3526990955
 20
5.6483550917
 30
0.0
 11
2.3526990955
 21
6.6326070602
 31
0.0
  0
LINE
  5
1F8
330
1F
100
AcDbEntity
  8
0
  6
CONTINUOUS
 62
     7
100
AcDbLine
 10
2.3526990955
 20
6.6326070602
 30
0.0
 11
2.9104418777
 21
6.6326070602
 31
0.0
  0
LINE
  5
1F9
330
1F
100
AcDbEntity
  8
0
  6
CONTINUOUS
 62
     7
100
AcDbLine
 10
2.9104418777
 20
6.6326070602
 30
0.0
 11
2.9104418777
 21
5.6483550917
 31
0.0
  0
LINE
  5
1FA
330
1F
100
AcDbEntity
  8
0
  6
CONTINUOUS
 62
     7
100
AcDbLine
 10
2.9104418777
 20
5.7312567262
 30
0.0
 11
3.0154287543
 21
5.7312567262
 31
0.0
  0
LINE
  5
1FB
330
1F
100
AcDbEntity
  8
0
  6
CONTINUOUS
 62
     7
100
AcDbLine
 10
3.0154287543
 20
5.6483550917
 30
0.0
 11
3.0154287543
 21
7.6955991862
 31
0.0
  0
LINE
  5
1FC
330
1F
100
AcDbEntity
  8
0
  6
CONTINUOUS
 62
     7
100
AcDbLine
 10
2.3526990955
 20
6.7113472177
 30
0.0
 11
2.3226990955
 21
6.7113472177
 31
0.0
  0
LINE
  5
1FD
330
1F
100
AcDbEntity
  8
0
  6
CONTINUOUS
 62
     7
100
AcDbLine
 10
2.3226990955
 20
6.6326070602
 30
0.0
 11
2.3226990955
 21
5.6783550917
 31
0.0
  0
LINE
  5
1FE
330
1F
100
AcDbEntity
  8
0
  6
CONTINUOUS
 62
     7
100
AcDbLine
 10
2.3226990955
 20
7.6655991862
 30
0.0
 11
2.3226990955
 21
6.7113472177
 31
0.0
  0
LINE
  5
1FF
330
1F
100
AcDbEntity
  8
0
  6
CONTINUOUS
 62
     7
100
AcDbLine
 10
2.3526990955
 20
6.6326070602
 30
0.0
 11
2.3226990955
 21
6.6326070602
 31
0.0
  0
LINE
  5
200
330
1F
100
AcDbEntity
  8
0
  6
CONTINUOUS
 62
     7
100
AcDbLine
 10
3.3463211428
 20
6.8633692303
 30
0.0
 11
3.306951064
 21
6.8633692303
 31
0.0
  0
LINE
  5
201
330
1F
100
AcDbEntity
  8
0
  6
CONTINUOUS
 62
     7
100
AcDbLine
 10
3.3463211428
 20
6.4805850476
 30
0.0
 11
3.306951064
 21
6.4805850476
 31
0.0
  0
LINE
  5
202
330
1F
100
AcDbEntity
  8
0
  6
CONTINUOUS
 62
     7
100
AcDbLine
 10
3.3463211428
 20
6.8633692303
 30
0.0
 11
3.3463211428
 21
6.4805850476
 31
0.0
  0
LINE
  5
203
330
1F
100
AcDbEntity
  8
0
  6
CONTINUOUS
 62
     7
100
AcDbLine
 10
3.306951064
 20
6.8633692303
 30
0.0
 11
3.306951064
 21
6.4805850476
 31
0.0
  0
LINE
  5
204
330
1F
100
AcDbEntity
  8
0
  6
CONTINUOUS
 62
     7
100
AcDbLine
 10
3.3463211428
 20
7.5621881279
 30
0.0
 11
3.306951064
 21
7.5621881279
 31
0.0
  0
LINE
  5
205
330
1F
100
AcDbEntity
  8
0
  6
CONTINUOUS
 62
     7
100
AcDbLine
 10
3.3463211428
 20
7.5621881279
 30
0.0
 11
3.3463211428
 21
6.8633692303
 31
0.0
  0
LINE
  5
206
330
1F
100
AcDbEntity
  8
0
  6
CONTINUOUS
 62
     7
100
AcDbLine
 10
3.306951064
 20
7.5621881279
 30
0.0
 11
3.306951064
 21
6.8633692303
 31
0.0
  0
LINE
  5
207
330
1F
100
AcDbEntity
  8
0
  6
CONTINUOUS
 62
     7
100
AcDbLine
 10
3.3463211428
 20
5.7817661499
 30
0.0
 11
3.306951064
 21
5.7817661499
 31
0.0
  0
LINE
  5
208
330
1F
100
AcDbEntity
  8
0
  6
CONTINUOUS
 62
     7
100
AcDbLine
 10
3.3463211428
 20
6.4805850476
 30
0.0
 11
3.3463211428
 21
5.7817661499
 31
0.0
  0
LINE
  5
209
330
1F
100
AcDbEntity
  8
0
  6
CONTINUOUS
 62
     7
100
AcDbLine
 10
3.306951064
 20
6.4805850476
 30
0.0
 11
3.306951064
 21
5.7817661499
 31
0.0
  0
SPLINE
  5
20A
330
1F
100
AcDbEntity
  8
0
  6
CONTINUOUS
 62
     7
100
AcDbSpline
210
0.0
220
0.0
230
1.0
 70
     8
 71
     3
 72
    10
 73
     6
 74
     0
 42
0.00000001
 43
0.00000001
 40
0.0
 40
0.0
 40
0.0
 40
0.0
 40
0.5
 40
0.5
 40
1.0
 40
1.0
 40
1.0
 40
1.0
 10
2.878489075772893
 20
6.711347217656583
 30
0.0
 10
2.877574673060557
 20
6.698322297782614
 30
0.0
 10
2.877107838718203
 20
6.685234886045903
 30
0.0
 10
2.877102694029557
 20
6.658938233853712
 30
0.0
 10
2.877574595161289
 20
6.645633089661696
 30
0.0
 10
2.878489075772893
 20
6.632607060176269
 30
0.0
  0
LINE
  5
20B
330
1F
100
AcDbEntity
  8
0
  6
CONTINUOUS
 62
     7
100
AcDbLine
 10
2.9104418777
 20
6.7113472177
 30
0.0
 11
2.9104418777
 21
6.6326070602
 31
0.0
  0
LINE
  5
20C
330
1F
100
AcDbEntity
  8
0
  6
CONTINUOUS
 62
     7
100
AcDbLine
 10
3.3463211428
 20
7.6414653279
 30
0.0
 11
3.3463211428
 21
7.5621881279
 31
0.0
  0
LINE
  5
20D
330
1F
100
AcDbEntity
  8
0
  6
CONTINUOUS
 62
     7
100
AcDbLine
 10
3.306951064
 20
7.6414653279
 30
0.0
 11
3.306951064
 21
7.5621881279
 31
0.0
  0
LINE
  5
20E
330
1F
100
AcDbEntity
  8
0
  6
CONTINUOUS
 62
     7
100
AcDbLine
 10
3.3463211428
 20
5.7817661499
 30
0.0
 11
3.3463211428
 21
5.7024889499
 31
0.0
  0
LINE
  5
20F
330
1F
100
AcDbEntity
  8
0
  6
CONTINUOUS
 62
     7
100
AcDbLine
 10
3.306951064
 20
5.7817661499
 30
0.0
 11
3.306951064
 21
5.7024889499
 31
0.0
  0
LINE
  5
210
330
1F
100
AcDbEntity
  8
0
  6
CONTINUOUS
 62
     7
100
AcDbLine
 10
2.3226990955
 20
6.7113472177
 30
0.0
 11
2.3226990955
 21
6.6326070602
 31
0.0
  0
LINE
  5
211
330
1F
100
AcDbEntity
  8
0
  6
CONTINUOUS
 62
     8
100
AcDbLine
 10
2.588919568
 20
7.4003235956
 30
0.0
 11
2.7748402247
 21
7.4003235956
 31
0.0
  0
LINE
  5
212
330
1F
100
AcDbEntity
  8
0
  6
CONTINUOUS
 62
     8
100
AcDbLine
 10
2.4029979528
 20
7.4003235956
 30
0.0
 11
2.588919568
 21
7.4003235956
 31
0.0
  0
CIRCLE
  5
213
330
1F
100
AcDbEntity
  8
0
  6
HIDDEN
 62
     7
100
AcDbCircle
 10
4.0643526388
 20
6.0641082098
 30
0.0
 40
0.1181102362204731
  0
LINE
  5
214
330
1F
100
AcDbEntity
  8
0
  6
HIDDEN
 62
     7
100
AcDbLine
 10
3.7428303291
 20
6.4791039308
 30
0.0
 11
4.3005731113
 21
6.4791039308
 31
0.0
  0
LINE
  5
215
330
1F
100
AcDbEntity
  8
0
  6
HIDDEN
 62
     7
100
AcDbLine
 10
4.3005731113
 20
6.864850347
 30
0.0
 11
3.774783131
 21
6.864850347
 31
0.0
  0
ARC
  5
216
330
1F
100
AcDbEntity
  8
0
  6
HIDDEN
 62
     7
100
AcDbCircle
 10
4.3305731113
 20
6.6736983765
 30
0.0
 40
0.5877427821522323
100
AcDbArc
 50
90.0
 51
161.0204502197
  0
SPLINE
  5
217
330
1F
100
AcDbEntity
  8
0
  6
HIDDEN
 62
     7
100
AcDbSpline
210
0.0
220
0.0
230
1.0
 70
     8
 71
     3
 72
     8
 73
     4
 74
     0
 42
0.00000001
 43
0.00000001
 40
0.0
 40
0.0
 40
0.0
 40
0.0
 40
1.0
 40
1.0
 40
1.0
 40
1.0
 10
4.300573111258568
 20
6.864850347009591
 30
0.0
 10
4.310559006604517
 20
6.875042158768927
 30
0.0
 10
4.320561031348556
 20
6.885218702086001
 30
0.0
 10
4.330573111258568
 20
6.895385057357551
 30
0.0
  0
SPLINE
  5
218
330
1F
100
AcDbEntity
  8
0
  6
HIDDEN
 62
     7
100
AcDbSpline
210
0.0
220
0.0
230
1.0
 70
     8
 71
     3
 72
     8
 73
     4
 74
     0
 42
0.00000001
 43
0.00000001
 40
0.0
 40
0.0
 40
0.0
 40
0.0
 40
1.0
 40
1.0
 40
1.0
 40
1.0
 10
4.330573111258568
 20
6.448569220475302
 30
0.0
 10
4.320560986163512
 20
6.458735621628149
 30
0.0
 10
4.310558776745957
 20
6.468912353662337
 30
0.0
 10
4.300573111258568
 20
6.479103930823262
 30
0.0
  0
CIRCLE
  5
219
330
1F
100
AcDbEntity
  8
0
  6
HIDDEN
 62
     7
100
AcDbCircle
 10
4.0643526388
 20
6.0641082098
 30
0.0
 40
0.0787401574803148
  0
LINE
  5
21A
330
1F
100
AcDbEntity
  8
0
  6
HIDDEN
 62
     7
100
AcDbLine
 10
2.588919568
 20
7.2034732019
 30
0.0
 11
2.3723841349
 21
7.2034732019
 31
0.0
  0
LINE
  5
21B
330
1F
100
AcDbEntity
  8
0
  6
HIDDEN
 62
     7
100
AcDbLine
 10
2.805455001
 20
7.2034732019
 30
0.0
 11
2.588919568
 21
7.2034732019
 31
0.0
  0
LINE
  5
21C
330
1F
100
AcDbEntity
  8
0
  6
HIDDEN
 62
     7
100
AcDbLine
 10
2.4708881292
 20
6.1011109972
 30
0.0
 11
2.7069510067
 21
6.1011109972
 31
0.0
  0
LINE
  5
21D
330
1F
100
AcDbEntity
  8
0
  6
HIDDEN
 62
     7
100
AcDbLine
 10
2.5101794105
 20
6.0617409184
 30
0.0
 11
2.6676597254
 21
6.0617409184
 31
0.0
  0
LINE
  5
21E
330
1F
100
AcDbEntity
  8
0
  6
HIDDEN
 62
     7
100
AcDbLine
 10
2.588919568
 20
7.2428432806
 30
0.0
 11
2.588919568
 21
7.4396936743
 31
0.0
  0
LINE
  5
21F
330
1F
100
AcDbEntity
  8
0
  6
HIDDEN
 62
     7
100
AcDbLine
 10
2.6873447648
 20
7.2428432806
 30
0.0
 11
2.588919568
 21
7.2428432806
 31
0.0
  0
LINE
  5
220
330
1F
100
AcDbEntity
  8
0
  6
HIDDEN
 62
     7
100
AcDbLine
 10
2.588919568
 20
7.2428432806
 30
0.0
 11
2.4904943711
 21
7.2428432806
 31
0.0
  0
LINE
  5
221
330
1F
100
AcDbEntity
  8
0
  6
HIDDEN
 62
     7
100
AcDbLine
 10
2.4904943711
 20
7.2428432806
 30
0.0
 11
2.4904943711
 21
7.4396936743
 31
0.0
  0
LINE
  5
222
330
1F
100
AcDbEntity
  8
0
  6
HIDDEN
 62
     7
100
AcDbLine
 10
2.6873447648
 20
7.2428432806
 30
0.0
 11
2.6873447648
 21
7.4396936743
 31
0.0
  0
LINE
  5
223
330
1F
100
AcDbEntity
  8
0
  6
HIDDEN
 62
     7
100
AcDbLine
 10
2.3526990955
 20
6.7113472177
 30
0.0
 11
2.3526990955
 21
6.6326070602
 31
0.0
  0
LINE
  5
224
330
1F
100
AcDbEntity
  8
0
  6
HIDDEN
 62
     7
100
AcDbLine
 10
3.3463211428
 20
7.5621881279
 30
0.0
 11
3.306951064
 21
7.5621881279
 31
0.0
  0
LINE
  5
225
330
1F
100
AcDbEntity
  8
0
  6
HIDDEN
 62
     7
100
AcDbLine
 10
3.3463211428
 20
5.7817661499
 30
0.0
 11
3.306951064
 21
5.7817661499
 31
0.0
  0
LINE
  5
226
330
1F
100
AcDbEntity
  8
0
  6
HIDDEN
 62
     7
100
AcDbLine
 10
3.3463211428
 20
6.4805850476
 30
0.0
 11
3.306951064
 21
6.4805850476
 31
0.0
  0
LINE
  5
227
330
1F
100
AcDbEntity
  8
0
  6
HIDDEN
 62
     7
100
AcDbLine
 10
3.3463211428
 20
6.8633692303
 30
0.0
 11
3.306951064
 21
6.8633692303
 31
0.0
  0
LINE
  5
228
330
1F
100
AcDbEntity
  8
0
  6
HIDDEN
 62
     7
100
AcDbLine
 10
3.7759878424
 20
6.8688275326
 30
0.0
 11
3.7428303291
 21
6.8688275326
 31
0.0
  0
LINE
  5
229
330
1F
100
AcDbEntity
  8
0
  6
HIDDEN
 62
     7
100
AcDbLine
 10
3.6378434525
 20
6.8688275326
 30
0.0
 11
3.4250613002
 21
6.8688275326
 31
0.0
  0
LINE
  5
22A
330
1F
100
AcDbEntity
  8
0
  6
HIDDEN
 62
     7
100
AcDbLine
 10
3.4250613002
 20
6.4751267452
 30
0.0
 11
3.6378434525
 21
6.4751267452
 31
0.0
  0
LINE
  5
22B
330
1F
100
AcDbEntity
  8
0
  6
HIDDEN
 62
     7
100
AcDbLine
 10
2.805455001
 20
7.2034732019
 30
0.0
 11
2.805455001
 21
7.4003235956
 31
0.0
  0
LINE
  5
22C
330
1F
100
AcDbEntity
  8
0
  6
HIDDEN
 62
     7
100
AcDbLine
 10
2.3723841349
 20
7.4003235956
 30
0.0
 11
2.3723841349
 21
7.2034732019
 31
0.0
  0
ARC
  5
22D
330
1F
100
AcDbEntity
  8
0
  6
HIDDEN
 62
     7
100
AcDbCircle
 10
2.4117542136
 20
7.4003235956
 30
0.0
 40
0.0393700787401574
100
AcDbArc
 50
128.4872672882
 51
180.0
  0
ARC
  5
22E
330
1F
100
AcDbEntity
  8
0
  6
HIDDEN
 62
     7
100
AcDbCircle
 10
2.7660849223
 20
7.4003235956
 30
0.0
 40
0.0393700787401574
100
AcDbArc
 50
0.0
 51
52.2406920555
  0
LINE
  5
22F
330
1F
100
AcDbEntity
  8
0
  6
HIDDEN
 62
     7
100
AcDbLine
 10
2.4708093317
 20
7.2034732019
 30
0.0
 11
2.4708093317
 21
6.7113472177
 31
0.0
  0
LINE
  5
230
330
1F
100
AcDbEntity
  8
0
  6
HIDDEN
 62
     7
100
AcDbLine
 10
2.4708093317
 20
6.6326070602
 30
0.0
 11
2.4708093317
 21
6.1011109972
 31
0.0
  0
LINE
  5
231
330
1F
100
AcDbEntity
  8
0
  6
HIDDEN
 62
     7
100
AcDbLine
 10
2.7070298042
 20
6.1011109972
 30
0.0
 11
2.7070298042
 21
6.6326070602
 31
0.0
  0
LINE
  5
232
330
1F
100
AcDbEntity
  8
0
  6
HIDDEN
 62
     7
100
AcDbLine
 10
2.7070298042
 20
6.7113472177
 30
0.0
 11
2.7070298042
 21
7.2034732019
 31
0.0
  0
ARC
  5
233
330
1F
100
AcDbEntity
  8
0
  6
HIDDEN
 62
     7
100
AcDbCircle
 10
2.6676597254
 20
6.1011109972
 30
0.0
 40
0.0393700787401579
100
AcDbArc
 50
270.0
 51
0.0
  0
ARC
  5
234
330
1F
100
AcDbEntity
  8
0
  6
HIDDEN
 62
     7
100
AcDbCircle
 10
2.5101794105
 20
6.1011109972
 30
0.0
 40
0.0393700787401574
100
AcDbArc
 50
180.0
 51
270.0
  0
LINE
  5
235
330
1F
100
AcDbEntity
  8
0
  6
HIDDEN
 62
     7
100
AcDbLine
 10
2.805455001
 20
7.2034732019
 30
0.0
 11
2.805455001
 21
7.4954354406
 31
0.0
  0
LINE
  5
236
330
1F
100
AcDbEntity
  8
0
  6
HIDDEN
 62
     7
100
AcDbLine
 10
2.3723841349
 20
7.4952193083
 30
0.0
 11
2.3723841349
 21
7.2034732019
 31
0.0
  0
LINE
  5
237
330
1F
100
AcDbEntity
  8
0
  6
HIDDEN
 62
     7
100
AcDbLine
 10
2.4708093317
 20
6.6326070602
 30
0.0
 11
2.4708093317
 21
5.8485260847
 31
0.0
  0
LINE
  5
238
330
1F
100
AcDbEntity
  8
0
  6
HIDDEN
 62
     7
100
AcDbLine
 10
2.7070298042
 20
5.8484890219
 30
0.0
 11
2.7070298042
 21
6.6326070602
 31
0.0
  0
LINE
  5
239
330
1F
100
AcDbEntity
  8
0
  6
HIDDEN
 62
     7
100
AcDbLine
 10
2.4708093317
 20
7.2034732019
 30
0.0
 11
2.4708093317
 21
6.7113472177
 31
0.0
  0
LINE
  5
23A
330
1F
100
AcDbEntity
  8
0
  6
HIDDEN
 62
     7
100
AcDbLine
 10
2.7070298042
 20
6.7113472177
 30
0.0
 11
2.7070298042
 21
7.2034732019
 31
0.0
  0
LINE
  5
23B
330
1F
100
AcDbEntity
  8
0
  6
HIDDEN
 62
     7
100
AcDbLine
 10
3.3463211428
 20
7.0263078476
 30
0.0
 11
3.306951064
 21
7.0263078476
 31
0.0
  0
LINE
  5
23C
330
1F
100
AcDbEntity
  8
0
  6
HIDDEN
 62
     7
100
AcDbLine
 10
3.306951064
 20
6.3176464303
 30
0.0
 11
3.3463211428
 21
6.3176464303
 31
0.0
  0
LINE
  5
23D
330
1F
100
AcDbEntity
  8
0
  6
HIDDEN
 62
     7
100
AcDbLine
 10
2.3526990955
 20
6.8688275326
 30
0.0
 11
2.3226990955
 21
6.8988275326
 31
0.0
  0
LINE
  5
23E
330
1F
100
AcDbEntity
  8
0
  6
HIDDEN
 62
     7
100
AcDbLine
 10
2.3226990955
 20
6.4451267452
 30
0.0
 11
2.3526990955
 21
6.4751267452
 31
0.0
  0
LINE
  5
23F
330
1F
100
AcDbEntity
  8
0
  6
HIDDEN
 62
     7
100
AcDbLine
 10
3.0154287543
 20
6.4751267452
 30
0.0
 11
3.2282109065
 21
6.4751267452
 31
0.0
  0
LINE
  5
240
330
1F
100
AcDbEntity
  8
0
  6
HIDDEN
 62
     7
100
AcDbLine
 10
3.2282109065
 20
6.8688275326
 30
0.0
 11
3.0154287543
 21
6.8688275326
 31
0.0
  0
LINE
  5
241
330
1F
100
AcDbEntity
  8
0
  6
HIDDEN
 62
     7
100
AcDbLine
 10
2.3526990955
 20
6.4751267452
 30
0.0
 11
2.9104418777
 21
6.4751267452
 31
0.0
  0
LINE
  5
242
330
1F
100
AcDbEntity
  8
0
  6
HIDDEN
 62
     7
100
AcDbLine
 10
2.9104418777
 20
6.8688275326
 30
0.0
 11
2.3526990955
 21
6.8688275326
 31
0.0
  0
LINE
  5
243
330
1F
100
AcDbEntity
  8
0
  6
HIDDEN
 62
     7
100
AcDbLine
 10
2.3724608726
 20
7.4003235956
 30
0.0
 11
2.8053782633
 21
7.4003235956
 31
0.0
  0
LINE
  5
244
330
1F
100
AcDbEntity
  8
0
  6
CONTINUOUS
 62
     7
100
AcDbLine
 10
8.8623354912
 20
5.6191206879
 30
0.0
 11
8.8835452469
 21
5.6313687999
 31
0.0
  0
LINE
  5
245
330
1F
100
AcDbEntity
  8
0
  6
CONTINUOUS
 62
     7
100
AcDbLine
 10
9.5860279427
 20
6.8482363706
 30
0.0
 11
9.5860279427
 21
6.8727286139
 31
0.0
  0
LINE
  5
246
330
1F
100
AcDbEntity
  8
0
  6
CONTINUOUS
 62
     7
100
AcDbLine
 10
8.19861507
 20
5.6560267612
 30
0.0
 11
8.3504484216
 21
5.568375233
 31
0.0
  0
LINE
  5
247
330
1F
100
AcDbEntity
  8
0
  6
CONTINUOUS
 62
     7
100
AcDbLine
 10
7.9560647182
 20
5.7960480988
 30
0.0
 11
8.1681056717
 21
5.6736394619
 31
0.0
  0
LINE
  5
248
330
1F
100
AcDbEntity
  8
0
  6
CONTINUOUS
 62
     7
100
AcDbLine
 10
7.731368083
 20
5.9257627053
 30
0.0
 11
7.8818277858
 21
5.8389041677
 31
0.0
  0
LINE
  5
249
330
1F
100
AcDbEntity
  8
0
  6
CONTINUOUS
 62
     7
100
AcDbLine
 10
9.3739872818
 20
7.341388652
 30
0.0
 11
8.7549069432
 21
7.6987761243
 31
0.0
  0
SPLINE
  5
24A
330
1F
100
AcDbEntity
  8
0
  6
CONTINUOUS
 62
     7
100
AcDbSpline
210
0.0
220
0.0
230
1.0
 70
     8
 71
     3
 72
    34
 73
    30
 74
     0
 42
0.00000001
 43
0.00000001
 40
0.0
 40
0.0
 40
0.0
 40
0.0
 40
0.0168489629105481
 40
0.0531946347382133
 40
0.0904931064571672
 40
0.1285523544352345
 40
0.1670900129558405
 40
0.2058350310230444
 40
0.2445539790985266
 40
0.2831682139009605
 40
0.3216592708478741
 40
0.3600429587325912
 40
0.3983529797129013
 40
0.4366317946291398
 40
0.4749260942779559
 40
0.5132707555090235
 40
0.5517133364359285
 40
0.5903029539743652
 40
0.6290845029214647
 40
0.6680909235480385
 40
0.7073279318991306
 40
0.7467474884102903
 40
0.7861509699349273
 40
0.8252270845610497
 40
0.8636000325369985
 40
0.9009463603968142
 40
0.9371318900371183
 40
0.9722526481834854
 40
1.0
 40
1.0
 40
1.0
 40
1.0
 10
8.45991864902908
 20
6.961097927056553
 30
0.0
 10
8.45848356684638
 20
6.963132834196624
 30
0.0
 10
8.453952802968912
 20
6.969557332999127
 30
0.0
 10
8.444374147827416
 20
6.979418015834763
 30
0.0
 10
8.431306421865198
 20
6.990711061250113
 30
0.0
 10
8.416347457170922
 20
7.001030006161922
 30
0.0
 10
8.399798001867685
 20
7.0103104264773
 30
0.0
 10
8.381846742903775
 20
7.018416613695179
 30
0.0
 10
8.362742859608439
 20
7.02527354878428
 30
0.0
 10
8.342715706628123
 20
7.030831193908594
 30
0.0
 10
8.321975523203188
 20
7.035063627325533
 30
0.0
 10
8.300723054800367
 20
7.037954742630868
 30
0.0
 10
8.279154652943022
 20
7.039495022017619
 30
0.0
 10
8.257464248030873
 20
7.03967979253798
 30
0.0
 10
8.235846725120272
 20
7.038508752633163
 30
0.0
 10
8.214495198612514
 20
7.035986049384719
 30
0.0
 10
8.193599523770075
 20
7.032119458020428
 30
0.0
 10
8.173343457629043
 20
7.026918219245368
 30
0.0
 10
8.153907962995053
 20
7.020391650033043
 30
0.0
 10
8.13547491221802
 20
7.012548604993684
 30
0.0
 10
8.118233552335578
 20
7.003399524061483
 30
0.0
 10
8.102397374734103
 20
6.992969473321734
 30
0.0
 10
8.088207110712213
 20
6.981317429020036
 30
0.0
 10
8.07591464098885
 20
6.968559758850398
 30
0.0
 10
8.065757809165929
 20
6.954878844873496
 30
0.0
 10
8.057879018997317
 20
6.940515951502043
 30
0.0
 10
8.052449003373958
 20
6.925737514996286
 30
0.0
 10
8.049337730126137
 20
6.911735083883614
 30
0.0
 10
8.0491010505077
 20
6.902691136328605
 30
0.0
 10
8.048996590032516
 20
6.898699516495162
 30
0.0
  0
LINE
  5
24B
330
1F
100
AcDbEntity
  8
0
  6
CONTINUOUS
 62
     7
100
AcDbLine
 10
8.0488210789
 20
6.8978981422
 30
0.0
 11
8.0488210789
 21
6.850420147
 31
0.0
  0
SPLINE
  5
24C
330
1F
100
AcDbEntity
  8
0
  6
CONTINUOUS
 62
     7
100
AcDbSpline
210
0.0
220
0.0
230
1.0
 70
     8
 71
     3
 72
    13
 73
     9
 74
     0
 42
0.00000001
 43
0.00000001
 40
0.0
 40
0.0
 40
0.0
 40
0.0
 40
0.1358354064743835
 40
0.3418299014765046
 40
0.5477390531449045
 40
0.7528172386671633
 40
0.9573397174862077
 40
1.0
 40
1.0
 40
1.0
 40
1.0
 10
7.153580097528256
 20
7.442204407666242
 30
0.0
 10
7.153768948980412
 20
7.43894718221773
 30
0.0
 10
7.154244193800298
 20
7.430750371952644
 30
0.0
 10
7.157025268385599
 20
7.417371154193023
 30
0.0
 10
7.16151985490565
 20
7.402335665824707
 30
0.0
 10
7.167713040247873
 20
7.387642947458666
 30
0.0
 10
7.172997030996292
 20
7.37701208512632
 30
0.0
 10
7.176543889899481
 20
7.371632106757867
 30
0.0
 10
7.177156028068141
 20
7.370703597844549
 30
0.0
  0
LINE
  5
24D
330
1F
100
AcDbEntity
  8
0
  6
CONTINUOUS
 62
     7
100
AcDbLine
 10
8.0586558249
 20
8.1347798933
 30
0.0
 11
8.0277283364
 21
8.1169258342
 31
0.0
  0
SPLINE
  5
24E
330
1F
100
AcDbEntity
  8
0
  6
CONTINUOUS
 62
     7
100
AcDbSpline
210
0.0
220
0.0
230
1.0
 70
     8
 71
     3
 72
    19
 73
    15
 74
     0
 42
0.00000001
 43
0.00000001
 40
0.0
 40
0.0
 40
0.0
 40
0.0
 40
0.0390851921285361
 40
0.132143242211568
 40
0.2249865862612396
 40
0.3177112334531732
 40
0.4104269210596393
 40
0.5032321809902179
 40
0.5962257670945121
 40
0.6895278865519614
 40
0.7832528610997083
 40
0.8774952785578962
 40
0.9723015310447969
 40
1.0
 40
1.0
 40
1.0
 40
1.0
 10
8.319210858221398
 20
7.950298120378354
 30
0.0
 10
8.318387117538906
 20
7.953102984440513
 30
0.0
 10
8.315602130217666
 20
7.962585957683103
 30
0.0
 10
8.309296152164826
 20
7.978669678232447
 30
0.0
 10
8.300443864766118
 20
7.99830294540093
 30
0.0
 10
8.29022798402811
 20
8.0174316657162
 30
0.0
 10
8.278858697468609
 20
8.03588748685973
 30
0.0
 10
8.266404403953933
 20
8.053503130255038
 30
0.0
 10
8.252974609805369
 20
8.070116636549766
 30
0.0
 10
8.238667807304939
 20
8.085569504435982
 30
0.0
 10
8.223584295323679
 20
8.099714934479444
 30
0.0
 10
8.207819547194564
 20
8.11237876713111
 30
0.0
 10
8.195368537888594
 20
8.120846271808139
 30
0.0
 10
8.188215494381174
 20
8.12505678073985
 30
0.0
 10
8.18659818240174
 20
8.126008782014233
 30
0.0
  0
SPLINE
  5
24F
330
1F
100
AcDbEntity
  8
0
  6
CONTINUOUS
 62
     7
100
AcDbSpline
210
0.0
220
0.0
230
1.0
 70
     8
 71
     3
 72
    16
 73
    12
 74
     0
 42
0.00000001
 43
0.00000001
 40
0.0
 40
0.0
 40
0.0
 40
0.0
 40
0.0709704244244001
 40
0.2024838134311851
 40
0.3338802790681897
 40
0.4636654069177432
 40
0.5905914423938289
 40
0.7138029876323839
 40
0.833184054409047
 40
0.9493346200958999
 40
1.0
 40
1.0
 40
1.0
 40
1.0
 10
8.18659818240174
 20
8.126008782014233
 30
0.0
 10
8.18357920181689
 20
8.127690584772774
 30
0.0
 10
8.174965829324712
 20
8.132488891091924
 30
0.0
 10
8.160508118690936
 20
8.1389015549298
 30
0.0
 10
8.143307019341783
 20
8.144466478550738
 30
0.0
 10
8.12618710177625
 20
8.147761411485673
 30
0.0
 10
8.109463026386763
 20
8.148725656181854
 30
0.0
 10
8.093397203469866
 20
8.147407309331118
 30
0.0
 10
8.07832953318156
 20
8.14375671674364
 30
0.0
 10
8.066706019186705
 20
8.139424570311027
 30
0.0
 10
8.060595492850444
 20
8.135658829236544
 30
0.0
 10
8.058739602293075
 20
8.134515097433907
 30
0.0
  0
LINE
  5
250
330
1F
100
AcDbEntity
  8
0
  6
CONTINUOUS
 62
     7
100
AcDbLine
 10
8.0291501268
 20
8.1177466164
 30
0.0
 11
7.9966323564
 21
8.1365187257
 31
0.0
  0
LINE
  5
251
330
1F
100
AcDbEntity
  8
0
  6
CONTINUOUS
 62
     7
100
AcDbLine
 10
8.3910160598
 20
7.9088458598
 30
0.0
 11
8.292955049
 21
7.9654552764
 31
0.0
  0
LINE
  5
252
330
1F
100
AcDbEntity
  8
0
  6
CONTINUOUS
 62
     7
100
AcDbLine
 10
8.615712695
 20
7.7791312534
 30
0.0
 11
8.4652529922
 21
7.865989791
 31
0.0
  0
LINE
  5
253
330
1F
100
AcDbEntity
  8
0
  6
CONTINUOUS
 62
     7
100
AcDbLine
 10
6.9730934962
 20
6.3635053066
 30
0.0
 11
7.5921738348
 21
6.0061178344
 31
0.0
  0
LINE
  5
254
330
1F
100
AcDbEntity
  8
0
  6
CONTINUOUS
 62
     7
100
AcDbLine
 10
6.7610528353
 20
6.8566575881
 30
0.0
 11
6.7610528353
 21
6.8321653447
 31
0.0
  0
POLYLINE
  5
255
330
1F
100
AcDbEntity
  8
0
  6
CONTINUOUS
 62
     7
100
AcDb2dPolyline
 66
     1
 10
0.0
 20
0.0
 30
0.0
  0
VERTEX
  5
2BC
330
255
100
AcDbEntity
  8
0
  6
CONTINUOUS
 62
     7
100
AcDbVertex
100
AcDb2dVertex
 10
8.1813859107
 20
6.0052065096
 30
0.0
  0
VERTEX
  5
2BD
330
255
100
AcDbEntity
  8
0
  6
CONTINUOUS
 62
     7
100
AcDbVertex
100
AcDb2dVertex
 10
8.1836068924
 20
5.9666271447
 30
0.0
  0
VERTEX
  5
2BE
330
255
100
AcDbEntity
  8
0
  6
CONTINUOUS
 62
     7
100
AcDbVertex
100
AcDb2dVertex
 10
8.1875241339
 20
5.9292015473
 30
0.0
  0
VERTEX
  5
2BF
330
255
100
AcDbEntity
  8
0
  6
CONTINUOUS
 62
     7
100
AcDbVertex
100
AcDb2dVertex
 10
8.1931281402
 20
5.8930204309
 30
0.0
  0
VERTEX
  5
2C0
330
255
100
AcDbEntity
  8
0
  6
CONTINUOUS
 62
     7
100
AcDbVertex
100
AcDb2dVertex
 10
8.2004053282
 20
5.8581714925
 30
0.0
  0
VERTEX
  5
2C1
330
255
100
AcDbEntity
  8
0
  6
CONTINUOUS
 62
     7
100
AcDbVertex
100
AcDb2dVertex
 10
8.2093380592
 20
5.8247392004
 30
0.0
  0
VERTEX
  5
2C2
330
255
100
AcDbEntity
  8
0
  6
CONTINUOUS
 62
     7
100
AcDbVertex
100
AcDb2dVertex
 10
8.2199046818
 20
5.792804589
 30
0.0
  0
VERTEX
  5
2C3
330
255
100
AcDbEntity
  8
0
  6
CONTINUOUS
 62
     7
100
AcDbVertex
100
AcDb2dVertex
 10
8.2320795841
 20
5.7624450625
 30
0.0
  0
VERTEX
  5
2C4
330
255
100
AcDbEntity
  8
0
  6
CONTINUOUS
 62
     7
100
AcDbVertex
100
AcDb2dVertex
 10
8.2458332562
 20
5.7337342075
 30
0.0
  0
VERTEX
  5
2C5
330
255
100
AcDbEntity
  8
0
  6
CONTINUOUS
 62
     7
100
AcDbVertex
100
AcDb2dVertex
 10
8.2611323613
 20
5.7067416144
 30
0.0
  0
VERTEX
  5
2C6
330
255
100
AcDbEntity
  8
0
  6
CONTINUOUS
 62
     7
100
AcDbVertex
100
AcDb2dVertex
 10
8.2779398171
 20
5.6815327089
 30
0.0
  0
VERTEX
  5
2C7
330
255
100
AcDbEntity
  8
0
  6
CONTINUOUS
 62
     7
100
AcDbVertex
100
AcDb2dVertex
 10
8.2962148849
 20
5.6581685933
 30
0.0
  0
VERTEX
  5
2C8
330
255
100
AcDbEntity
  8
0
  6
CONTINUOUS
 62
     7
100
AcDbVertex
100
AcDb2dVertex
 10
8.3159132689
 20
5.6367058983
 30
0.0
  0
VERTEX
  5
2C9
330
255
100
AcDbEntity
  8
0
  6
CONTINUOUS
 62
     7
100
AcDbVertex
100
AcDb2dVertex
 10
8.3369872235
 20
5.617196646
 30
0.0
  0
VERTEX
  5
2CA
330
255
100
AcDbEntity
  8
0
  6
CONTINUOUS
 62
     7
100
AcDbVertex
100
AcDb2dVertex
 10
8.3593856689
 20
5.5996881238
 30
0.0
  0
VERTEX
  5
2CB
330
255
100
AcDbEntity
  8
0
  6
CONTINUOUS
 62
     7
100
AcDbVertex
100
AcDb2dVertex
 10
8.3830543149
 20
5.5842227693
 30
0.0
  0
VERTEX
  5
2CC
330
255
100
AcDbEntity
  8
0
  6
CONTINUOUS
 62
     7
100
AcDbVertex
100
AcDb2dVertex
 10
8.4079357925
 20
5.5708380681
 30
0.0
  0
VERTEX
  5
2CD
330
255
100
AcDbEntity
  8
0
  6
CONTINUOUS
 62
     7
100
AcDbVertex
100
AcDb2dVertex
 10
8.433969793
 20
5.5595664625
 30
0.0
  0
VERTEX
  5
2CE
330
255
100
AcDbEntity
  8
0
  6
CONTINUOUS
 62
     7
100
AcDbVertex
100
AcDb2dVertex
 10
8.4610932144
 20
5.550435273
 30
0.0
  0
VERTEX
  5
2CF
330
255
100
AcDbEntity
  8
0
  6
CONTINUOUS
 62
     7
100
AcDbVertex
100
AcDb2dVertex
 10
8.4892403139
 20
5.5434666322
 30
0.0
  0
VERTEX
  5
2D0
330
255
100
AcDbEntity
  8
0
  6
CONTINUOUS
 62
     7
100
AcDbVertex
100
AcDb2dVertex
 10
8.5183428674
 20
5.5386774309
 30
0.0
  0
VERTEX
  5
2D1
330
255
100
AcDbEntity
  8
0
  6
CONTINUOUS
 62
     7
100
AcDbVertex
100
AcDb2dVertex
 10
8.5483303352
 20
5.5360792774
 30
0.0
  0
VERTEX
  5
2D2
330
255
100
AcDbEntity
  8
0
  6
CONTINUOUS
 62
     7
100
AcDbVertex
100
AcDb2dVertex
 10
8.5791300325
 20
5.5356784691
 30
0.0
  0
VERTEX
  5
2D3
330
255
100
AcDbEntity
  8
0
  6
CONTINUOUS
 62
     7
100
AcDbVertex
100
AcDb2dVertex
 10
8.6106673059
 20
5.5374759776
 30
0.0
  0
VERTEX
  5
2D4
330
255
100
AcDbEntity
  8
0
  6
CONTINUOUS
 62
     7
100
AcDbVertex
100
AcDb2dVertex
 10
8.6428657141
 20
5.5414674459
 30
0.0
  0
VERTEX
  5
2D5
330
255
100
AcDbEntity
  8
0
  6
CONTINUOUS
 62
     7
100
AcDbVertex
100
AcDb2dVertex
 10
8.6756472135
 20
5.5476431995
 30
0.0
  0
VERTEX
  5
2D6
330
255
100
AcDbEntity
  8
0
  6
CONTINUOUS
 62
     7
100
AcDbVertex
100
AcDb2dVertex
 10
8.7089323471
 20
5.5559882692
 30
0.0
  0
VERTEX
  5
2D7
330
255
100
AcDbEntity
  8
0
  6
CONTINUOUS
 62
     7
100
AcDbVertex
100
AcDb2dVertex
 10
8.742640437
 20
5.5664824281
 30
0.0
  0
VERTEX
  5
2D8
330
255
100
AcDbEntity
  8
0
  6
CONTINUOUS
 62
     7
100
AcDbVertex
100
AcDb2dVertex
 10
8.7766897805
 20
5.5791002399
 30
0.0
  0
VERTEX
  5
2D9
330
255
100
AcDbEntity
  8
0
  6
CONTINUOUS
 62
     7
100
AcDbVertex
100
AcDb2dVertex
 10
8.8109978474
 20
5.5938111212
 30
0.0
  0
VERTEX
  5
2DA
330
255
100
AcDbEntity
  8
0
  6
CONTINUOUS
 62
     7
100
AcDbVertex
100
AcDb2dVertex
 10
8.8454814806
 20
5.6105794152
 30
0.0
  0
VERTEX
  5
2DB
330
255
100
AcDbEntity
  8
0
  6
CONTINUOUS
 62
     7
100
AcDbVertex
100
AcDb2dVertex
 10
8.8800570974
 20
5.6293644782
 30
0.0
  0
VERTEX
  5
2DC
330
255
100
AcDbEntity
  8
0
  6
CONTINUOUS
 62
     7
100
AcDbVertex
100
AcDb2dVertex
 10
8.9146408921
 20
5.6501207784
 30
0.0
  0
VERTEX
  5
2DD
330
255
100
AcDbEntity
  8
0
  6
CONTINUOUS
 62
     7
100
AcDbVertex
100
AcDb2dVertex
 10
8.9491490392
 20
5.6727980058
 30
0.0
  0
VERTEX
  5
2DE
330
255
100
AcDbEntity
  8
0
  6
CONTINUOUS
 62
     7
100
AcDbVertex
100
AcDb2dVertex
 10
8.9834978967
 20
5.6973411945
 30
0.0
  0
VERTEX
  5
2DF
330
255
100
AcDbEntity
  8
0
  6
CONTINUOUS
 62
     7
100
AcDbVertex
100
AcDb2dVertex
 10
9.0176042084
 20
5.7236908559
 30
0.0
  0
VERTEX
  5
2E0
330
255
100
AcDbEntity
  8
0
  6
CONTINUOUS
 62
     7
100
AcDbVertex
100
AcDb2dVertex
 10
9.0513853063
 20
5.7517831227
 30
0.0
  0
VERTEX
  5
2E1
330
255
100
AcDbEntity
  8
0
  6
CONTINUOUS
 62
     7
100
AcDbVertex
100
AcDb2dVertex
 10
9.0847593105
 20
5.7815499038
 30
0.0
  0
VERTEX
  5
2E2
330
255
100
AcDbEntity
  8
0
  6
CONTINUOUS
 62
     7
100
AcDbVertex
100
AcDb2dVertex
 10
9.1176453278
 20
5.8129190494
 30
0.0
  0
VERTEX
  5
2E3
330
255
100
AcDbEntity
  8
0
  6
CONTINUOUS
 62
     7
100
AcDbVertex
100
AcDb2dVertex
 10
9.149963648
 20
5.8458145258
 30
0.0
  0
VERTEX
  5
2E4
330
255
100
AcDbEntity
  8
0
  6
CONTINUOUS
 62
     7
100
AcDbVertex
100
AcDb2dVertex
 10
9.1816359365
 20
5.8801565996
 30
0.0
  0
VERTEX
  5
2E5
330
255
100
AcDbEntity
  8
0
  6
CONTINUOUS
 62
     7
100
AcDbVertex
100
AcDb2dVertex
 10
9.2125854251
 20
5.9158620314
 30
0.0
  0
VERTEX
  5
2E6
330
255
100
AcDbEntity
  8
0
  6
CONTINUOUS
 62
     7
100
AcDbVertex
100
AcDb2dVertex
 10
9.2427370971
 20
5.952844277
 30
0.0
  0
VERTEX
  5
2E7
330
255
100
AcDbEntity
  8
0
  6
CONTINUOUS
 62
     7
100
AcDbVertex
100
AcDb2dVertex
 10
9.2720178699
 20
5.9910136974
 30
0.0
  0
VERTEX
  5
2E8
330
255
100
AcDbEntity
  8
0
  6
CONTINUOUS
 62
     7
100
AcDbVertex
100
AcDb2dVertex
 10
9.3003567715
 20
6.0302777762
 30
0.0
  0
VERTEX
  5
2E9
330
255
100
AcDbEntity
  8
0
  6
CONTINUOUS
 62
     7
100
AcDbVertex
100
AcDb2dVertex
 10
9.3276851133
 20
6.0705413437
 30
0.0
  0
VERTEX
  5
2EA
330
255
100
AcDbEntity
  8
0
  6
CONTINUOUS
 62
     7
100
AcDbVertex
100
AcDb2dVertex
 10
9.3539366556
 20
6.1117068075
 30
0.0
  0
VERTEX
  5
2EB
330
255
100
AcDbEntity
  8
0
  6
CONTINUOUS
 62
     7
100
AcDbVertex
100
AcDb2dVertex
 10
9.379047769
 20
6.1536743893
 30
0.0
  0
VERTEX
  5
2EC
330
255
100
AcDbEntity
  8
0
  6
CONTINUOUS
 62
     7
100
AcDbVertex
100
AcDb2dVertex
 10
9.4029575884
 20
6.1963423665
 30
0.0
  0
VERTEX
  5
2ED
330
255
100
AcDbEntity
  8
0
  6
CONTINUOUS
 62
     7
100
AcDbVertex
100
AcDb2dVertex
 10
9.4256081601
 20
6.2396073189
 30
0.0
  0
VERTEX
  5
2EE
330
255
100
AcDbEntity
  8
0
  6
CONTINUOUS
 62
     7
100
AcDbVertex
100
AcDb2dVertex
 10
9.4469445829
 20
6.2833643792
 30
0.0
  0
VERTEX
  5
2EF
330
255
100
AcDbEntity
  8
0
  6
CONTINUOUS
 62
     7
100
AcDbVertex
100
AcDb2dVertex
 10
9.4669151408
 20
6.3275074876
 30
0.0
  0
VERTEX
  5
2F0
330
255
100
AcDbEntity
  8
0
  6
CONTINUOUS
 62
     7
100
AcDbVertex
100
AcDb2dVertex
 10
9.4854714285
 20
6.3719296483
 30
0.0
  0
VERTEX
  5
2F1
330
255
100
AcDbEntity
  8
0
  6
CONTINUOUS
 62
     7
100
AcDbVertex
100
AcDb2dVertex
 10
9.5025684684
 20
6.4165231892
 30
0.0
  0
VERTEX
  5
2F2
330
255
100
AcDbEntity
  8
0
  6
CONTINUOUS
 62
     7
100
AcDbVertex
100
AcDb2dVertex
 10
9.5181648202
 20
6.4611800229
 30
0.0
  0
VERTEX
  5
2F3
330
255
100
AcDbEntity
  8
0
  6
CONTINUOUS
 62
     7
100
AcDbVertex
100
AcDb2dVertex
 10
9.5322226808
 20
6.5057919084
 30
0.0
  0
VERTEX
  5
2F4
330
255
100
AcDbEntity
  8
0
  6
CONTINUOUS
 62
     7
100
AcDbVertex
100
AcDb2dVertex
 10
9.5447079763
 20
6.5502507139
 30
0.0
  0
VERTEX
  5
2F5
330
255
100
AcDbEntity
  8
0
  6
CONTINUOUS
 62
     7
100
AcDbVertex
100
AcDb2dVertex
 10
9.5555904443
 20
6.5944486784
 30
0.0
  0
VERTEX
  5
2F6
330
255
100
AcDbEntity
  8
0
  6
CONTINUOUS
 62
     7
100
AcDbVertex
100
AcDb2dVertex
 10
9.5648437076
 20
6.6382786733
 30
0.0
  0
VERTEX
  5
2F7
330
255
100
AcDbEntity
  8
0
  6
CONTINUOUS
 62
     7
100
AcDbVertex
100
AcDb2dVertex
 10
9.5724453377
 20
6.6816344619
 30
0.0
  0
VERTEX
  5
2F8
330
255
100
AcDbEntity
  8
0
  6
CONTINUOUS
 62
     7
100
AcDbVertex
100
AcDb2dVertex
 10
9.5783769096
 20
6.7244109567
 30
0.0
  0
VERTEX
  5
2F9
330
255
100
AcDbEntity
  8
0
  6
CONTINUOUS
 62
     7
100
AcDbVertex
100
AcDb2dVertex
 10
9.582624046
 20
6.7665044745
 30
0.0
  0
VERTEX
  5
2FA
330
255
100
AcDbEntity
  8
0
  6
CONTINUOUS
 62
     7
100
AcDbVertex
100
AcDb2dVertex
 10
9.5851764525
 20
6.8078129875
 30
0.0
  0
VERTEX
  5
2FB
330
255
100
AcDbEntity
  8
0
  6
CONTINUOUS
 62
     7
100
AcDbVertex
100
AcDb2dVertex
 10
9.5860279427
 20
6.8482363706
 30
0.0
  0
VERTEX
  5
2FC
330
255
100
AcDbEntity
  8
0
  6
CONTINUOUS
 62
     7
100
AcDbVertex
100
AcDb2dVertex
 10
9.5851764525
 20
6.8876766441
 30
0.0
  0
VERTEX
  5
2FD
330
255
100
AcDbEntity
  8
0
  6
CONTINUOUS
 62
     7
100
AcDbVertex
100
AcDb2dVertex
 10
9.582624046
 20
6.9260382112
 30
0.0
  0
VERTEX
  5
2FE
330
255
100
AcDbEntity
  8
0
  6
CONTINUOUS
 62
     7
100
AcDbVertex
100
AcDb2dVertex
 10
9.5783769096
 20
6.9632280897
 30
0.0
  0
VERTEX
  5
2FF
330
255
100
AcDbEntity
  8
0
  6
CONTINUOUS
 62
     7
100
AcDbVertex
100
AcDb2dVertex
 10
9.5724453377
 20
6.9991561374
 30
0.0
  0
VERTEX
  5
300
330
255
100
AcDbEntity
  8
0
  6
CONTINUOUS
 62
     7
100
AcDbVertex
100
AcDb2dVertex
 10
9.5648437076
 20
7.0337352706
 30
0.0
  0
VERTEX
  5
301
330
255
100
AcDbEntity
  8
0
  6
CONTINUOUS
 62
     7
100
AcDbVertex
100
AcDb2dVertex
 10
9.5555904443
 20
7.0668816752
 30
0.0
  0
VERTEX
  5
302
330
255
100
AcDbEntity
  8
0
  6
CONTINUOUS
 62
     7
100
AcDbVertex
100
AcDb2dVertex
 10
9.5447079763
 20
7.0985150095
 30
0.0
  0
VERTEX
  5
303
330
255
100
AcDbEntity
  8
0
  6
CONTINUOUS
 62
     7
100
AcDbVertex
100
AcDb2dVertex
 10
9.5322226808
 20
7.1285585997
 30
0.0
  0
VERTEX
  5
304
330
255
100
AcDbEntity
  8
0
  6
CONTINUOUS
 62
     7
100
AcDbVertex
100
AcDb2dVertex
 10
9.5181648202
 20
7.1569396248
 30
0.0
  0
VERTEX
  5
305
330
255
100
AcDbEntity
  8
0
  6
CONTINUOUS
 62
     7
100
AcDbVertex
100
AcDb2dVertex
 10
9.5025684684
 20
7.183589294
 30
0.0
  0
VERTEX
  5
306
330
255
100
AcDbEntity
  8
0
  6
CONTINUOUS
 62
     7
100
AcDbVertex
100
AcDb2dVertex
 10
9.4854714285
 20
7.2084430128
 30
0.0
  0
VERTEX
  5
307
330
255
100
AcDbEntity
  8
0
  6
CONTINUOUS
 62
     7
100
AcDbVertex
100
AcDb2dVertex
 10
9.4669151408
 20
7.2314405398
 30
0.0
  0
VERTEX
  5
308
330
255
100
AcDbEntity
  8
0
  6
CONTINUOUS
 62
     7
100
AcDbVertex
100
AcDb2dVertex
 10
9.4469445829
 20
7.2525261328
 30
0.0
  0
VERTEX
  5
309
330
255
100
AcDbEntity
  8
0
  6
CONTINUOUS
 62
     7
100
AcDbVertex
100
AcDb2dVertex
 10
9.4256081601
 20
7.2716486837
 30
0.0
  0
VERTEX
  5
30A
330
255
100
AcDbEntity
  8
0
  6
CONTINUOUS
 62
     7
100
AcDbVertex
100
AcDb2dVertex
 10
9.4029575884
 20
7.2887618426
 30
0.0
  0
VERTEX
  5
30B
330
255
100
AcDbEntity
  8
0
  6
CONTINUOUS
 62
     7
100
AcDbVertex
100
AcDb2dVertex
 10
9.379047769
 20
7.30382413
 30
0.0
  0
VERTEX
  5
30C
330
255
100
AcDbEntity
  8
0
  6
CONTINUOUS
 62
     7
100
AcDbVertex
100
AcDb2dVertex
 10
9.3539366556
 20
7.3167990373
 30
0.0
  0
VERTEX
  5
30D
330
255
100
AcDbEntity
  8
0
  6
CONTINUOUS
 62
     7
100
AcDbVertex
100
AcDb2dVertex
 10
9.3276851133
 20
7.3276551156
 30
0.0
  0
VERTEX
  5
30E
330
255
100
AcDbEntity
  8
0
  6
CONTINUOUS
 62
     7
100
AcDbVertex
100
AcDb2dVertex
 10
9.3003567715
 20
7.3363660513
 30
0.0
  0
VERTEX
  5
30F
330
255
100
AcDbEntity
  8
0
  6
CONTINUOUS
 62
     7
100
AcDbVertex
100
AcDb2dVertex
 10
9.2720178699
 20
7.3429107307
 30
0.0
  0
VERTEX
  5
310
330
255
100
AcDbEntity
  8
0
  6
CONTINUOUS
 62
     7
100
AcDbVertex
100
AcDb2dVertex
 10
9.2427370971
 20
7.3472732905
 30
0.0
  0
VERTEX
  5
311
330
255
100
AcDbEntity
  8
0
  6
CONTINUOUS
 62
     7
100
AcDbVertex
100
AcDb2dVertex
 10
9.2125854251
 20
7.3494431565
 30
0.0
  0
VERTEX
  5
312
330
255
100
AcDbEntity
  8
0
  6
CONTINUOUS
 62
     7
100
AcDbVertex
100
AcDb2dVertex
 10
9.1816359365
 20
7.3494150694
 30
0.0
  0
VERTEX
  5
313
330
255
100
AcDbEntity
  8
0
  6
CONTINUOUS
 62
     7
100
AcDbVertex
100
AcDb2dVertex
 10
9.149963648
 20
7.3471890973
 30
0.0
  0
VERTEX
  5
314
330
255
100
AcDbEntity
  8
0
  6
CONTINUOUS
 62
     7
100
AcDbVertex
100
AcDb2dVertex
 10
9.1176453278
 20
7.3427706355
 30
0.0
  0
VERTEX
  5
315
330
255
100
AcDbEntity
  8
0
  6
CONTINUOUS
 62
     7
100
AcDbVertex
100
AcDb2dVertex
 10
9.0847593105
 20
7.3361703937
 30
0.0
  0
VERTEX
  5
316
330
255
100
AcDbEntity
  8
0
  6
CONTINUOUS
 62
     7
100
AcDbVertex
100
AcDb2dVertex
 10
9.0513853063
 20
7.3274043697
 30
0.0
  0
VERTEX
  5
317
330
255
100
AcDbEntity
  8
0
  6
CONTINUOUS
 62
     7
100
AcDbVertex
100
AcDb2dVertex
 10
9.0176042084
 20
7.3164938111
 30
0.0
  0
VERTEX
  5
318
330
255
100
AcDbEntity
  8
0
  6
CONTINUOUS
 62
     7
100
AcDbVertex
100
AcDb2dVertex
 10
8.9834978967
 20
7.3034651632
 30
0.0
  0
VERTEX
  5
319
330
255
100
AcDbEntity
  8
0
  6
CONTINUOUS
 62
     7
100
AcDbVertex
100
AcDb2dVertex
 10
8.9491490392
 20
7.2883500052
 30
0.0
  0
VERTEX
  5
31A
330
255
100
AcDbEntity
  8
0
  6
CONTINUOUS
 62
     7
100
AcDbVertex
100
AcDb2dVertex
 10
8.9146408921
 20
7.271184974
 30
0.0
  0
VERTEX
  5
31B
330
255
100
AcDbEntity
  8
0
  6
CONTINUOUS
 62
     7
100
AcDbVertex
100
AcDb2dVertex
 10
8.8800570974
 20
7.2520116748
 30
0.0
  0
VERTEX
  5
31C
330
255
100
AcDbEntity
  8
0
  6
CONTINUOUS
 62
     7
100
AcDbVertex
100
AcDb2dVertex
 10
8.8454814806
 20
7.2308765804
 30
0.0
  0
VERTEX
  5
31D
330
255
100
AcDbEntity
  8
0
  6
CONTINUOUS
 62
     7
100
AcDbVertex
100
AcDb2dVertex
 10
8.8109978474
 20
7.2078309189
 30
0.0
  0
VERTEX
  5
31E
330
255
100
AcDbEntity
  8
0
  6
CONTINUOUS
 62
     7
100
AcDbVertex
100
AcDb2dVertex
 10
8.7766897805
 20
7.1829305493
 30
0.0
  0
VERTEX
  5
31F
330
255
100
AcDbEntity
  8
0
  6
CONTINUOUS
 62
     7
100
AcDbVertex
100
AcDb2dVertex
 10
8.742640437
 20
7.156235826
 30
0.0
  0
VERTEX
  5
320
330
255
100
AcDbEntity
  8
0
  6
CONTINUOUS
 62
     7
100
AcDbVertex
100
AcDb2dVertex
 10
8.7089323471
 20
7.1278114525
 30
0.0
  0
VERTEX
  5
321
330
255
100
AcDbEntity
  8
0
  6
CONTINUOUS
 62
     7
100
AcDbVertex
100
AcDb2dVertex
 10
8.6756472135
 20
7.0977263251
 30
0.0
  0
VERTEX
  5
322
330
255
100
AcDbEntity
  8
0
  6
CONTINUOUS
 62
     7
100
AcDbVertex
100
AcDb2dVertex
 10
8.6428657141
 20
7.0660533651
 30
0.0
  0
VERTEX
  5
323
330
255
100
AcDbEntity
  8
0
  6
CONTINUOUS
 62
     7
100
AcDbVertex
100
AcDb2dVertex
 10
8.6106673059
 20
7.0328693426
 30
0.0
  0
VERTEX
  5
324
330
255
100
AcDbEntity
  8
0
  6
CONTINUOUS
 62
     7
100
AcDbVertex
100
AcDb2dVertex
 10
8.5791300325
 20
6.9982546903
 30
0.0
  0
VERTEX
  5
325
330
255
100
AcDbEntity
  8
0
  6
CONTINUOUS
 62
     7
100
AcDbVertex
100
AcDb2dVertex
 10
8.5483303352
 20
6.9622933085
 30
0.0
  0
VERTEX
  5
326
330
255
100
AcDbEntity
  8
0
  6
CONTINUOUS
 62
     7
100
AcDbVertex
100
AcDb2dVertex
 10
8.5183428674
 20
6.9250723616
 30
0.0
  0
VERTEX
  5
327
330
255
100
AcDbEntity
  8
0
  6
CONTINUOUS
 62
     7
100
AcDbVertex
100
AcDb2dVertex
 10
8.4892403139
 20
6.8866820672
 30
0.0
  0
VERTEX
  5
328
330
255
100
AcDbEntity
  8
0
  6
CONTINUOUS
 62
     7
100
AcDbVertex
100
AcDb2dVertex
 10
8.4610932144
 20
6.8472154771
 30
0.0
  0
VERTEX
  5
329
330
255
100
AcDbEntity
  8
0
  6
CONTINUOUS
 62
     7
100
AcDbVertex
100
AcDb2dVertex
 10
8.433969793
 20
6.8067682519
 30
0.0
  0
VERTEX
  5
32A
330
255
100
AcDbEntity
  8
0
  6
CONTINUOUS
 62
     7
100
AcDbVertex
100
AcDb2dVertex
 10
8.4079357925
 20
6.765438429
 30
0.0
  0
VERTEX
  5
32B
330
255
100
AcDbEntity
  8
0
  6
CONTINUOUS
 62
     7
100
AcDbVertex
100
AcDb2dVertex
 10
8.3830543149
 20
6.7233261853
 30
0.0
  0
VERTEX
  5
32C
330
255
100
AcDbEntity
  8
0
  6
CONTINUOUS
 62
     7
100
AcDbVertex
100
AcDb2dVertex
 10
8.3593856689
 20
6.6805335938
 30
0.0
  0
VERTEX
  5
32D
330
255
100
AcDbEntity
  8
0
  6
CONTINUOUS
 62
     7
100
AcDbVertex
100
AcDb2dVertex
 10
8.3369872235
 20
6.637164377
 30
0.0
  0
VERTEX
  5
32E
330
255
100
AcDbEntity
  8
0
  6
CONTINUOUS
 62
     7
100
AcDbVertex
100
AcDb2dVertex
 10
8.3159132689
 20
6.5933236546
 30
0.0
  0
VERTEX
  5
32F
330
255
100
AcDbEntity
  8
0
  6
CONTINUOUS
 62
     7
100
AcDbVertex
100
AcDb2dVertex
 10
8.2962148849
 20
6.5491176895
 30
0.0
  0
VERTEX
  5
330
330
255
100
AcDbEntity
  8
0
  6
CONTINUOUS
 62
     7
100
AcDbVertex
100
AcDb2dVertex
 10
8.2779398171
 20
6.5046536297
 30
0.0
  0
VERTEX
  5
331
330
255
100
AcDbEntity
  8
0
  6
CONTINUOUS
 62
     7
100
AcDbVertex
100
AcDb2dVertex
 10
8.2611323613
 20
6.4600392489
 30
0.0
  0
VERTEX
  5
332
330
255
100
AcDbEntity
  8
0
  6
CONTINUOUS
 62
     7
100
AcDbVertex
100
AcDb2dVertex
 10
8.2458332562
 20
6.415382685
 30
0.0
  0
VERTEX
  5
333
330
255
100
AcDbEntity
  8
0
  6
CONTINUOUS
 62
     7
100
AcDbVertex
100
AcDb2dVertex
 10
8.2320795841
 20
6.3707921782
 30
0.0
  0
VERTEX
  5
334
330
255
100
AcDbEntity
  8
0
  6
CONTINUOUS
 62
     7
100
AcDbVertex
100
AcDb2dVertex
 10
8.2199046818
 20
6.3263758088
 30
0.0
  0
VERTEX
  5
335
330
255
100
AcDbEntity
  8
0
  6
CONTINUOUS
 62
     7
100
AcDbVertex
100
AcDb2dVertex
 10
8.2093380592
 20
6.2822412346
 30
0.0
  0
VERTEX
  5
336
330
255
100
AcDbEntity
  8
0
  6
CONTINUOUS
 62
     7
100
AcDbVertex
100
AcDb2dVertex
 10
8.2004053282
 20
6.2384954308
 30
0.0
  0
VERTEX
  5
337
330
255
100
AcDbEntity
  8
0
  6
CONTINUOUS
 62
     7
100
AcDbVertex
100
AcDb2dVertex
 10
8.1931281402
 20
6.1952444299
 30
0.0
  0
VERTEX
  5
338
330
255
100
AcDbEntity
  8
0
  6
CONTINUOUS
 62
     7
100
AcDbVertex
100
AcDb2dVertex
 10
8.1875241339
 20
6.1525930655
 30
0.0
  0
VERTEX
  5
339
330
255
100
AcDbEntity
  8
0
  6
CONTINUOUS
 62
     7
100
AcDbVertex
100
AcDb2dVertex
 10
8.1836068924
 20
6.1106447175
 30
0.0
  0
VERTEX
  5
33A
330
255
100
AcDbEntity
  8
0
  6
CONTINUOUS
 62
     7
100
AcDbVertex
100
AcDb2dVertex
 10
8.1813859107
 20
6.0695010617
 30
0.0
  0
SEQEND
  5
33B
330
255
100
AcDbEntity
  8
0
  6
CONTINUOUS
 62
     7
  0
LINE
  5
256
330
1F
100
AcDbEntity
  8
0
  6
CONTINUOUS
 62
     7
100
AcDbLine
 10
8.1389433214
 20
6.0694917197
 30
0.0
 11
8.1813859107
 21
6.0695010617
 31
0.0
  0
POLYLINE
  5
257
330
1F
100
AcDbEntity
  8
0
  6
CONTINUOUS
 62
     7
100
AcDb2dPolyline
 66
     1
 10
0.0
 20
0.0
 30
0.0
  0
VERTEX
  5
33C
330
257
100
AcDbEntity
  8
0
  6
CONTINUOUS
 62
     7
100
AcDbVertex
100
AcDb2dVertex
 10
8.1389433214
 20
6.0694917197
 30
0.0
  0
VERTEX
  5
33D
330
257
100
AcDbEntity
  8
0
  6
CONTINUOUS
 62
     7
100
AcDbVertex
100
AcDb2dVertex
 10
8.141142608
 20
6.1112039527
 30
0.0
  0
VERTEX
  5
33E
330
257
100
AcDbEntity
  8
0
  6
CONTINUOUS
 62
     7
100
AcDbVertex
100
AcDb2dVertex
 10
8.145036752
 20
6.1537239864
 30
0.0
  0
VERTEX
  5
33F
330
257
100
AcDbEntity
  8
0
  6
CONTINUOUS
 62
     7
100
AcDbVertex
100
AcDb2dVertex
 10
8.1506166003
 20
6.1969518794
 30
0.0
  0
VERTEX
  5
340
330
257
100
AcDbEntity
  8
0
  6
CONTINUOUS
 62
     7
100
AcDbVertex
100
AcDb2dVertex
 10
8.1578690378
 20
6.2407860263
 30
0.0
  0
VERTEX
  5
341
330
257
100
AcDbEntity
  8
0
  6
CONTINUOUS
 62
     7
100
AcDbVertex
100
AcDb2dVertex
 10
8.1667770178
 20
6.2851233967
 30
0.0
  0
VERTEX
  5
342
330
257
100
AcDbEntity
  8
0
  6
CONTINUOUS
 62
     7
100
AcDbVertex
100
AcDb2dVertex
 10
8.1773196025
 20
6.3298597775
 30
0.0
  0
VERTEX
  5
343
330
257
100
AcDbEntity
  8
0
  6
CONTINUOUS
 62
     7
100
AcDbVertex
100
AcDb2dVertex
 10
8.189472012
 20
6.3748900177
 30
0.0
  0
VERTEX
  5
344
330
257
100
AcDbEntity
  8
0
  6
CONTINUOUS
 62
     7
100
AcDbVertex
100
AcDb2dVertex
 10
8.2032056827
 20
6.4201082756
 30
0.0
  0
VERTEX
  5
345
330
257
100
AcDbEntity
  8
0
  6
CONTINUOUS
 62
     7
100
AcDbVertex
100
AcDb2dVertex
 10
8.218488334
 20
6.4654082675
 30
0.0
  0
VERTEX
  5
346
330
257
100
AcDbEntity
  8
0
  6
CONTINUOUS
 62
     7
100
AcDbVertex
100
AcDb2dVertex
 10
8.2352840447
 20
6.5106835177
 30
0.0
  0
VERTEX
  5
347
330
257
100
AcDbEntity
  8
0
  6
CONTINUOUS
 62
     7
100
AcDbVertex
100
AcDb2dVertex
 10
8.2535533373
 20
6.5558276087
 30
0.0
  0
VERTEX
  5
348
330
257
100
AcDbEntity
  8
0
  6
CONTINUOUS
 62
     7
100
AcDbVertex
100
AcDb2dVertex
 10
8.2732532704
 20
6.6007344311
 30
0.0
  0
VERTEX
  5
349
330
257
100
AcDbEntity
  8
0
  6
CONTINUOUS
 62
     7
100
AcDbVertex
100
AcDb2dVertex
 10
8.2943375403
 20
6.6452984333
 30
0.0
  0
VERTEX
  5
34A
330
257
100
AcDbEntity
  8
0
  6
CONTINUOUS
 62
     7
100
AcDbVertex
100
AcDb2dVertex
 10
8.3167565893
 20
6.6894148694
 30
0.0
  0
VERTEX
  5
34B
330
257
100
AcDbEntity
  8
0
  6
CONTINUOUS
 62
     7
100
AcDbVertex
100
AcDb2dVertex
 10
8.3404577222
 20
6.7329800457
 30
0.0
  0
VERTEX
  5
34C
330
257
100
AcDbEntity
  8
0
  6
CONTINUOUS
 62
     7
100
AcDbVertex
100
AcDb2dVertex
 10
8.3653852305
 20
6.7758915639
 30
0.0
  0
VERTEX
  5
34D
330
257
100
AcDbEntity
  8
0
  6
CONTINUOUS
 62
     7
100
AcDbVertex
100
AcDb2dVertex
 10
8.3914805233
 20
6.8180485624
 30
0.0
  0
VERTEX
  5
34E
330
257
100
AcDbEntity
  8
0
  6
CONTINUOUS
 62
     7
100
AcDbVertex
100
AcDb2dVertex
 10
8.4186822646
 20
6.8593519529
 30
0.0
  0
VERTEX
  5
34F
330
257
100
AcDbEntity
  8
0
  6
CONTINUOUS
 62
     7
100
AcDbVertex
100
AcDb2dVertex
 10
8.4469265178
 20
6.8997046535
 30
0.0
  0
VERTEX
  5
350
330
257
100
AcDbEntity
  8
0
  6
CONTINUOUS
 62
     7
100
AcDbVertex
100
AcDb2dVertex
 10
8.476146896
 20
6.9390118168
 30
0.0
  0
VERTEX
  5
351
330
257
100
AcDbEntity
  8
0
  6
CONTINUOUS
 62
     7
100
AcDbVertex
100
AcDb2dVertex
 10
8.5062747179
 20
6.9771810529
 30
0.0
  0
VERTEX
  5
352
330
257
100
AcDbEntity
  8
0
  6
CONTINUOUS
 62
     7
100
AcDbVertex
100
AcDb2dVertex
 10
8.5372391693
 20
7.0141226468
 30
0.0
  0
VERTEX
  5
353
330
257
100
AcDbEntity
  8
0
  6
CONTINUOUS
 62
     7
100
AcDbVertex
100
AcDb2dVertex
 10
8.5689674696
 20
7.0497497687
 30
0.0
  0
VERTEX
  5
354
330
257
100
AcDbEntity
  8
0
  6
CONTINUOUS
 62
     7
100
AcDbVertex
100
AcDb2dVertex
 10
8.6013850427
 20
7.0839786785
 30
0.0
  0
VERTEX
  5
355
330
257
100
AcDbEntity
  8
0
  6
CONTINUOUS
 62
     7
100
AcDbVertex
100
AcDb2dVertex
 10
8.6344156924
 20
7.1167289226
 30
0.0
  0
VERTEX
  5
356
330
257
100
AcDbEntity
  8
0
  6
CONTINUOUS
 62
     7
100
AcDbVertex
100
AcDb2dVertex
 10
8.6679817817
 20
7.1479235229
 30
0.0
  0
VERTEX
  5
357
330
257
100
AcDbEntity
  8
0
  6
CONTINUOUS
 62
     7
100
AcDbVertex
100
AcDb2dVertex
 10
8.7020044147
 20
7.1774891579
 30
0.0
  0
VERTEX
  5
358
330
257
100
AcDbEntity
  8
0
  6
CONTINUOUS
 62
     7
100
AcDbVertex
100
AcDb2dVertex
 10
8.7364036228
 20
7.2053563347
 30
0.0
  0
VERTEX
  5
359
330
257
100
AcDbEntity
  8
0
  6
CONTINUOUS
 62
     7
100
AcDbVertex
100
AcDb2dVertex
 10
8.7710985519
 20
7.2314595526
 30
0.0
  0
VERTEX
  5
35A
330
257
100
AcDbEntity
  8
0
  6
CONTINUOUS
 62
     7
100
AcDbVertex
100
AcDb2dVertex
 10
8.8060076532
 20
7.2557374572
 30
0.0
  0
VERTEX
  5
35B
330
257
100
AcDbEntity
  8
0
  6
CONTINUOUS
 62
     7
100
AcDbVertex
100
AcDb2dVertex
 10
8.8410488742
 20
7.2781329843
 30
0.0
  0
VERTEX
  5
35C
330
257
100
AcDbEntity
  8
0
  6
CONTINUOUS
 62
     7
100
AcDbVertex
100
AcDb2dVertex
 10
8.8761398521
 20
7.2985934941
 30
0.0
  0
VERTEX
  5
35D
330
257
100
AcDbEntity
  8
0
  6
CONTINUOUS
 62
     7
100
AcDbVertex
100
AcDb2dVertex
 10
8.9111981068
 20
7.3170708949
 30
0.0
  0
VERTEX
  5
35E
330
257
100
AcDbEntity
  8
0
  6
CONTINUOUS
 62
     7
100
AcDbVertex
100
AcDb2dVertex
 10
8.9461412355
 20
7.3335217566
 30
0.0
  0
VERTEX
  5
35F
330
257
100
AcDbEntity
  8
0
  6
CONTINUOUS
 62
     7
100
AcDbVertex
100
AcDb2dVertex
 10
8.9808871058
 20
7.3479074119
 30
0.0
  0
VERTEX
  5
360
330
257
100
AcDbEntity
  8
0
  6
CONTINUOUS
 62
     7
100
AcDbVertex
100
AcDb2dVertex
 10
9.0153540489
 20
7.3601940481
 30
0.0
  0
VERTEX
  5
361
330
257
100
AcDbEntity
  8
0
  6
CONTINUOUS
 62
     7
100
AcDbVertex
100
AcDb2dVertex
 10
9.0494610518
 20
7.3703527858
 30
0.0
  0
VERTEX
  5
362
330
257
100
AcDbEntity
  8
0
  6
CONTINUOUS
 62
     7
100
AcDbVertex
100
AcDb2dVertex
 10
9.0831279473
 20
7.3783597474
 30
0.0
  0
VERTEX
  5
363
330
257
100
AcDbEntity
  8
0
  6
CONTINUOUS
 62
     7
100
AcDbVertex
100
AcDb2dVertex
 10
9.1162756028
 20
7.3841961129
 30
0.0
  0
VERTEX
  5
364
330
257
100
AcDbEntity
  8
0
  6
CONTINUOUS
 62
     7
100
AcDbVertex
100
AcDb2dVertex
 10
9.1488261062
 20
7.3878481641
 30
0.0
  0
VERTEX
  5
365
330
257
100
AcDbEntity
  8
0
  6
CONTINUOUS
 62
     7
100
AcDbVertex
100
AcDb2dVertex
 10
9.1807029488
 20
7.3893073171
 30
0.0
  0
VERTEX
  5
366
330
257
100
AcDbEntity
  8
0
  6
CONTINUOUS
 62
     7
100
AcDbVertex
100
AcDb2dVertex
 10
9.2118312054
 20
7.3885701421
 30
0.0
  0
VERTEX
  5
367
330
257
100
AcDbEntity
  8
0
  6
CONTINUOUS
 62
     7
100
AcDbVertex
100
AcDb2dVertex
 10
9.2421377104
 20
7.3856383719
 30
0.0
  0
VERTEX
  5
368
330
257
100
AcDbEntity
  8
0
  6
CONTINUOUS
 62
     7
100
AcDbVertex
100
AcDb2dVertex
 10
9.2715512296
 20
7.3805188974
 30
0.0
  0
VERTEX
  5
369
330
257
100
AcDbEntity
  8
0
  6
CONTINUOUS
 62
     7
100
AcDbVertex
100
AcDb2dVertex
 10
9.3000026278
 20
7.3732237518
 30
0.0
  0
VERTEX
  5
36A
330
257
100
AcDbEntity
  8
0
  6
CONTINUOUS
 62
     7
100
AcDbVertex
100
AcDb2dVertex
 10
9.327425031
 20
7.363770082
 30
0.0
  0
VERTEX
  5
36B
330
257
100
AcDbEntity
  8
0
  6
CONTINUOUS
 62
     7
100
AcDbVertex
100
AcDb2dVertex
 10
9.3537539841
 20
7.3521801085
 30
0.0
  0
VERTEX
  5
36C
330
257
100
AcDbEntity
  8
0
  6
CONTINUOUS
 62
     7
100
AcDbVertex
100
AcDb2dVertex
 10
9.378927602
 20
7.3384810729
 30
0.0
  0
VERTEX
  5
36D
330
257
100
AcDbEntity
  8
0
  6
CONTINUOUS
 62
     7
100
AcDbVertex
100
AcDb2dVertex
 10
9.4028867152
 20
7.3227051745
 30
0.0
  0
VERTEX
  5
36E
330
257
100
AcDbEntity
  8
0
  6
CONTINUOUS
 62
     7
100
AcDbVertex
100
AcDb2dVertex
 10
9.4255750087
 20
7.3048894936
 30
0.0
  0
VERTEX
  5
36F
330
257
100
AcDbEntity
  8
0
  6
CONTINUOUS
 62
     7
100
AcDbVertex
100
AcDb2dVertex
 10
9.4469391546
 20
7.2850759054
 30
0.0
  0
VERTEX
  5
370
330
257
100
AcDbEntity
  8
0
  6
CONTINUOUS
 62
     7
100
AcDbVertex
100
AcDb2dVertex
 10
9.4669289375
 20
7.2633109808
 30
0.0
  0
VERTEX
  5
371
330
257
100
AcDbEntity
  8
0
  6
CONTINUOUS
 62
     7
100
AcDbVertex
100
AcDb2dVertex
 10
9.4854973721
 20
7.2396458774
 30
0.0
  0
VERTEX
  5
372
330
257
100
AcDbEntity
  8
0
  6
CONTINUOUS
 62
     7
100
AcDbVertex
100
AcDb2dVertex
 10
9.5026008142
 20
7.214136219
 30
0.0
  0
VERTEX
  5
373
330
257
100
AcDbEntity
  8
0
  6
CONTINUOUS
 62
     7
100
AcDbVertex
100
AcDb2dVertex
 10
9.5181990628
 20
7.1868419651
 30
0.0
  0
VERTEX
  5
374
330
257
100
AcDbEntity
  8
0
  6
CONTINUOUS
 62
     7
100
AcDbVertex
100
AcDb2dVertex
 10
9.5322554548
 20
7.1578272697
 30
0.0
  0
VERTEX
  5
375
330
257
100
AcDbEntity
  8
0
  6
CONTINUOUS
 62
     7
100
AcDbVertex
100
AcDb2dVertex
 10
9.5447369514
 20
7.1271603304
 30
0.0
  0
VERTEX
  5
376
330
257
100
AcDbEntity
  8
0
  6
CONTINUOUS
 62
     7
100
AcDbVertex
100
AcDb2dVertex
 10
9.5556142152
 20
7.0949132289
 30
0.0
  0
VERTEX
  5
377
330
257
100
AcDbEntity
  8
0
  6
CONTINUOUS
 62
     7
100
AcDbVertex
100
AcDb2dVertex
 10
9.5648616798
 20
7.0611617604
 30
0.0
  0
VERTEX
  5
378
330
257
100
AcDbEntity
  8
0
  6
CONTINUOUS
 62
     7
100
AcDbVertex
100
AcDb2dVertex
 10
9.5724576092
 20
7.0259852565
 30
0.0
  0
VERTEX
  5
379
330
257
100
AcDbEntity
  8
0
  6
CONTINUOUS
 62
     7
100
AcDbVertex
100
AcDb2dVertex
 10
9.5783841497
 20
6.989466398
 30
0.0
  0
VERTEX
  5
37A
330
257
100
AcDbEntity
  8
0
  6
CONTINUOUS
 62
     7
100
AcDbVertex
100
AcDb2dVertex
 10
9.5826273711
 20
6.951691021
 30
0.0
  0
VERTEX
  5
37B
330
257
100
AcDbEntity
  8
0
  6
CONTINUOUS
 62
     7
100
AcDbVertex
100
AcDb2dVertex
 10
9.5851773
 20
6.9127479149
 30
0.0
  0
VERTEX
  5
37C
330
257
100
AcDbEntity
  8
0
  6
CONTINUOUS
 62
     7
100
AcDbVertex
100
AcDb2dVertex
 10
9.5860279427
 20
6.8727286139
 30
0.0
  0
SEQEND
  5
37D
330
257
100
AcDbEntity
  8
0
  6
CONTINUOUS
 62
     7
  0
POLYLINE
  5
258
330
1F
100
AcDbEntity
  8
0
  6
CONTINUOUS
 62
     7
100
AcDb2dPolyline
 66
     1
 10
0.0
 20
0.0
 30
0.0
  0
VERTEX
  5
37E
330
258
100
AcDbEntity
  8
0
  6
CONTINUOUS
 62
     7
100
AcDbVertex
100
AcDb2dVertex
 10
8.8623354912
 20
5.6191206879
 30
0.0
  0
VERTEX
  5
37F
330
258
100
AcDbEntity
  8
0
  6
CONTINUOUS
 62
     7
100
AcDbVertex
100
AcDb2dVertex
 10
8.8410488742
 20
5.6071897196
 30
0.0
  0
VERTEX
  5
380
330
258
100
AcDbEntity
  8
0
  6
CONTINUOUS
 62
     7
100
AcDbVertex
100
AcDb2dVertex
 10
8.8060076532
 20
5.5891275141
 30
0.0
  0
VERTEX
  5
381
330
258
100
AcDbEntity
  8
0
  6
CONTINUOUS
 62
     7
100
AcDbVertex
100
AcDb2dVertex
 10
8.7710985519
 20
5.5731002282
 30
0.0
  0
VERTEX
  5
382
330
258
100
AcDbEntity
  8
0
  6
CONTINUOUS
 62
     7
100
AcDbVertex
100
AcDb2dVertex
 10
8.7364036228
 20
5.5591455336
 30
0.0
  0
VERTEX
  5
383
330
258
100
AcDbEntity
  8
0
  6
CONTINUOUS
 62
     7
100
AcDbVertex
100
AcDb2dVertex
 10
8.7020044147
 20
5.5472962302
 30
0.0
  0
VERTEX
  5
384
330
258
100
AcDbEntity
  8
0
  6
CONTINUOUS
 62
     7
100
AcDbVertex
100
AcDb2dVertex
 10
8.6679817817
 20
5.5375801692
 30
0.0
  0
VERTEX
  5
385
330
258
100
AcDbEntity
  8
0
  6
CONTINUOUS
 62
     7
100
AcDbVertex
100
AcDb2dVertex
 10
8.6344156924
 20
5.5300201878
 30
0.0
  0
VERTEX
  5
386
330
258
100
AcDbEntity
  8
0
  6
CONTINUOUS
 62
     7
100
AcDbVertex
100
AcDb2dVertex
 10
8.6013850427
 20
5.5246340554
 30
0.0
  0
VERTEX
  5
387
330
258
100
AcDbEntity
  8
0
  6
CONTINUOUS
 62
     7
100
AcDbVertex
100
AcDb2dVertex
 10
8.5689674696
 20
5.521434432
 30
0.0
  0
VERTEX
  5
388
330
258
100
AcDbEntity
  8
0
  6
CONTINUOUS
 62
     7
100
AcDbVertex
100
AcDb2dVertex
 10
8.5372391693
 20
5.5204288381
 30
0.0
  0
VERTEX
  5
389
330
258
100
AcDbEntity
  8
0
  6
CONTINUOUS
 62
     7
100
AcDbVertex
100
AcDb2dVertex
 10
8.5062747179
 20
5.5216196374
 30
0.0
  0
VERTEX
  5
38A
330
258
100
AcDbEntity
  8
0
  6
CONTINUOUS
 62
     7
100
AcDbVertex
100
AcDb2dVertex
 10
8.476146896
 20
5.5250040308
 30
0.0
  0
VERTEX
  5
38B
330
258
100
AcDbEntity
  8
0
  6
CONTINUOUS
 62
     7
100
AcDbVertex
100
AcDb2dVertex
 10
8.4469265178
 20
5.5305740635
 30
0.0
  0
VERTEX
  5
38C
330
258
100
AcDbEntity
  8
0
  6
CONTINUOUS
 62
     7
100
AcDbVertex
100
AcDb2dVertex
 10
8.4186822646
 20
5.5383166435
 30
0.0
  0
VERTEX
  5
38D
330
258
100
AcDbEntity
  8
0
  6
CONTINUOUS
 62
     7
100
AcDbVertex
100
AcDb2dVertex
 10
8.3914805233
 20
5.548213572
 30
0.0
  0
VERTEX
  5
38E
330
258
100
AcDbEntity
  8
0
  6
CONTINUOUS
 62
     7
100
AcDbVertex
100
AcDb2dVertex
 10
8.3653852305
 20
5.5602415868
 30
0.0
  0
VERTEX
  5
38F
330
258
100
AcDbEntity
  8
0
  6
CONTINUOUS
 62
     7
100
AcDbVertex
100
AcDb2dVertex
 10
8.3404577222
 20
5.5743724165
 30
0.0
  0
VERTEX
  5
390
330
258
100
AcDbEntity
  8
0
  6
CONTINUOUS
 62
     7
100
AcDbVertex
100
AcDb2dVertex
 10
8.3167565893
 20
5.5905728471
 30
0.0
  0
VERTEX
  5
391
330
258
100
AcDbEntity
  8
0
  6
CONTINUOUS
 62
     7
100
AcDbVertex
100
AcDb2dVertex
 10
8.2943375403
 20
5.6088048004
 30
0.0
  0
VERTEX
  5
392
330
258
100
AcDbEntity
  8
0
  6
CONTINUOUS
 62
     7
100
AcDbVertex
100
AcDb2dVertex
 10
8.2732532704
 20
5.6290254227
 30
0.0
  0
VERTEX
  5
393
330
258
100
AcDbEntity
  8
0
  6
CONTINUOUS
 62
     7
100
AcDbVertex
100
AcDb2dVertex
 10
8.2535533373
 20
5.6511871864
 30
0.0
  0
VERTEX
  5
394
330
258
100
AcDbEntity
  8
0
  6
CONTINUOUS
 62
     7
100
AcDbVertex
100
AcDb2dVertex
 10
8.2352840447
 20
5.6752380012
 30
0.0
  0
VERTEX
  5
395
330
258
100
AcDbEntity
  8
0
  6
CONTINUOUS
 62
     7
100
AcDbVertex
100
AcDb2dVertex
 10
8.218488334
 20
5.7011213366
 30
0.0
  0
VERTEX
  5
396
330
258
100
AcDbEntity
  8
0
  6
CONTINUOUS
 62
     7
100
AcDbVertex
100
AcDb2dVertex
 10
8.2032056827
 20
5.7287763549
 30
0.0
  0
VERTEX
  5
397
330
258
100
AcDbEntity
  8
0
  6
CONTINUOUS
 62
     7
100
AcDbVertex
100
AcDb2dVertex
 10
8.189472012
 20
5.7581380541
 30
0.0
  0
VERTEX
  5
398
330
258
100
AcDbEntity
  8
0
  6
CONTINUOUS
 62
     7
100
AcDbVertex
100
AcDb2dVertex
 10
8.1773196025
 20
5.7891374209
 30
0.0
  0
VERTEX
  5
399
330
258
100
AcDbEntity
  8
0
  6
CONTINUOUS
 62
     7
100
AcDbVertex
100
AcDb2dVertex
 10
8.1667770178
 20
5.8217015925
 30
0.0
  0
VERTEX
  5
39A
330
258
100
AcDbEntity
  8
0
  6
CONTINUOUS
 62
     7
100
AcDbVertex
100
AcDb2dVertex
 10
8.1578690378
 20
5.8557540281
 30
0.0
  0
VERTEX
  5
39B
330
258
100
AcDbEntity
  8
0
  6
CONTINUOUS
 62
     7
100
AcDbVertex
100
AcDb2dVertex
 10
8.1506166003
 20
5.891214689
 30
0.0
  0
VERTEX
  5
39C
330
258
100
AcDbEntity
  8
0
  6
CONTINUOUS
 62
     7
100
AcDbVertex
100
AcDb2dVertex
 10
8.145036752
 20
5.9280002262
 30
0.0
  0
VERTEX
  5
39D
330
258
100
AcDbEntity
  8
0
  6
CONTINUOUS
 62
     7
100
AcDbVertex
100
AcDb2dVertex
 10
8.141142608
 20
5.966024177
 30
0.0
  0
VERTEX
  5
39E
330
258
100
AcDbEntity
  8
0
  6
CONTINUOUS
 62
     7
100
AcDbVertex
100
AcDb2dVertex
 10
8.1389433214
 20
6.0051971676
 30
0.0
  0
SEQEND
  5
39F
330
258
100
AcDbEntity
  8
0
  6
CONTINUOUS
 62
     7
  0
LINE
  5
259
330
1F
100
AcDbEntity
  8
0
  6
CONTINUOUS
 62
     7
100
AcDbLine
 10
8.1389433214
 20
6.0051971676
 30
0.0
 11
8.1813859107
 21
6.0052065096
 31
0.0
  0
POLYLINE
  5
25A
330
1F
100
AcDbEntity
  8
0
  6
CONTINUOUS
 62
     7
100
AcDb2dPolyline
 66
     1
 10
0.0
 20
0.0
 30
0.0
  0
VERTEX
  5
3A0
330
25A
100
AcDbEntity
  8
0
  6
CONTINUOUS
 62
     7
100
AcDbVertex
100
AcDb2dVertex
 10
8.7549069432
 20
7.6987761243
 30
0.0
  0
VERTEX
  5
3A1
330
25A
100
AcDbEntity
  8
0
  6
CONTINUOUS
 62
     7
100
AcDbVertex
100
AcDb2dVertex
 10
8.7326777784
 20
7.7105395937
 30
0.0
  0
VERTEX
  5
3A2
330
25A
100
AcDbEntity
  8
0
  6
CONTINUOUS
 62
     7
100
AcDbVertex
100
AcDb2dVertex
 10
8.7061393011
 20
7.7220123643
 30
0.0
  0
VERTEX
  5
3A3
330
25A
100
AcDbEntity
  8
0
  6
CONTINUOUS
 62
     7
100
AcDbVertex
100
AcDb2dVertex
 10
8.6785026347
 20
7.7313273251
 30
0.0
  0
VERTEX
  5
3A4
330
25A
100
AcDbEntity
  8
0
  6
CONTINUOUS
 62
     7
100
AcDbVertex
100
AcDb2dVertex
 10
8.6498333303
 20
7.738462382
 30
0.0
  0
VERTEX
  5
3A5
330
25A
100
AcDbEntity
  8
0
  6
CONTINUOUS
 62
     7
100
AcDbVertex
100
AcDb2dVertex
 10
8.6201993884
 20
7.7434006116
 30
0.0
  0
VERTEX
  5
3A6
330
25A
100
AcDbEntity
  8
0
  6
CONTINUOUS
 62
     7
100
AcDbVertex
100
AcDb2dVertex
 10
8.5896710973
 20
7.7461303009
 30
0.0
  0
VERTEX
  5
3A7
330
25A
100
AcDbEntity
  8
0
  6
CONTINUOUS
 62
     7
100
AcDbVertex
100
AcDb2dVertex
 10
8.5583208669
 20
7.7466449753
 30
0.0
  0
VERTEX
  5
3A8
330
25A
100
AcDbEntity
  8
0
  6
CONTINUOUS
 62
     7
100
AcDbVertex
100
AcDb2dVertex
 10
8.5262230565
 20
7.7449434141
 30
0.0
  0
VERTEX
  5
3A9
330
25A
100
AcDbEntity
  8
0
  6
CONTINUOUS
 62
     7
100
AcDbVertex
100
AcDb2dVertex
 10
8.4934537983
 20
7.7410296532
 30
0.0
  0
VERTEX
  5
3AA
330
25A
100
AcDbEntity
  8
0
  6
CONTINUOUS
 62
     7
100
AcDbVertex
100
AcDb2dVertex
 10
8.4600908176
 20
7.7349129756
 30
0.0
  0
VERTEX
  5
3AB
330
25A
100
AcDbEntity
  8
0
  6
CONTINUOUS
 62
     7
100
AcDbVertex
100
AcDb2dVertex
 10
8.4262132477
 20
7.7266078895
 30
0.0
  0
VERTEX
  5
3AC
330
25A
100
AcDbEntity
  8
0
  6
CONTINUOUS
 62
     7
100
AcDbVertex
100
AcDb2dVertex
 10
8.3919014423
 20
7.7161340935
 30
0.0
  0
VERTEX
  5
3AD
330
25A
100
AcDbEntity
  8
0
  6
CONTINUOUS
 62
     7
100
AcDbVertex
100
AcDb2dVertex
 10
8.3572367853
 20
7.7035164303
 30
0.0
  0
VERTEX
  5
3AE
330
25A
100
AcDbEntity
  8
0
  6
CONTINUOUS
 62
     7
100
AcDbVertex
100
AcDb2dVertex
 10
8.3223014974
 20
7.6887848277
 30
0.0
  0
VERTEX
  5
3AF
330
25A
100
AcDbEntity
  8
0
  6
CONTINUOUS
 62
     7
100
AcDbVertex
100
AcDb2dVertex
 10
8.2871784413
 20
7.6719742274
 30
0.0
  0
VERTEX
  5
3B0
330
25A
100
AcDbEntity
  8
0
  6
CONTINUOUS
 62
     7
100
AcDbVertex
100
AcDb2dVertex
 10
8.251950925
 20
7.6531245023
 30
0.0
  0
VERTEX
  5
3B1
330
25A
100
AcDbEntity
  8
0
  6
CONTINUOUS
 62
     7
100
AcDbVertex
100
AcDb2dVertex
 10
8.2167025043
 20
7.6322803617
 30
0.0
  0
VERTEX
  5
3B2
330
25A
100
AcDbEntity
  8
0
  6
CONTINUOUS
 62
     7
100
AcDbVertex
100
AcDb2dVertex
 10
8.1815167845
 20
7.6094912458
 30
0.0
  0
VERTEX
  5
3B3
330
25A
100
AcDbEntity
  8
0
  6
CONTINUOUS
 62
     7
100
AcDbVertex
100
AcDb2dVertex
 10
8.1464772222
 20
7.5848112078
 30
0.0
  0
VERTEX
  5
3B4
330
25A
100
AcDbEntity
  8
0
  6
CONTINUOUS
 62
     7
100
AcDbVertex
100
AcDb2dVertex
 10
8.1116669275
 20
7.5582987861
 30
0.0
  0
VERTEX
  5
3B5
330
25A
100
AcDbEntity
  8
0
  6
CONTINUOUS
 62
     7
100
AcDbVertex
100
AcDb2dVertex
 10
8.0771684665
 20
7.530016865
 30
0.0
  0
VERTEX
  5
3B6
330
25A
100
AcDbEntity
  8
0
  6
CONTINUOUS
 62
     7
100
AcDbVertex
100
AcDb2dVertex
 10
8.0430636657
 20
7.5000325264
 30
0.0
  0
VERTEX
  5
3B7
330
25A
100
AcDbEntity
  8
0
  6
CONTINUOUS
 62
     7
100
AcDbVertex
100
AcDb2dVertex
 10
8.009433418
 20
7.4684168896
 30
0.0
  0
VERTEX
  5
3B8
330
25A
100
AcDbEntity
  8
0
  6
CONTINUOUS
 62
     7
100
AcDbVertex
100
AcDb2dVertex
 10
7.9763574906
 20
7.4352449434
 30
0.0
  0
VERTEX
  5
3B9
330
25A
100
AcDbEntity
  8
0
  6
CONTINUOUS
 62
     7
100
AcDbVertex
100
AcDb2dVertex
 10
7.9439143359
 20
7.4005953682
 30
0.0
  0
VERTEX
  5
3BA
330
25A
100
AcDbEntity
  8
0
  6
CONTINUOUS
 62
     7
100
AcDbVertex
100
AcDb2dVertex
 10
7.9121809055
 20
7.3645503488
 30
0.0
  0
VERTEX
  5
3BB
330
25A
100
AcDbEntity
  8
0
  6
CONTINUOUS
 62
     7
100
AcDbVertex
100
AcDb2dVertex
 10
7.8812324676
 20
7.32719538
 30
0.0
  0
VERTEX
  5
3BC
330
25A
100
AcDbEntity
  8
0
  6
CONTINUOUS
 62
     7
100
AcDbVertex
100
AcDb2dVertex
 10
7.8511424286
 20
7.2886190638
 30
0.0
  0
VERTEX
  5
3BD
330
25A
100
AcDbEntity
  8
0
  6
CONTINUOUS
 62
     7
100
AcDbVertex
100
AcDb2dVertex
 10
7.8219821585
 20
7.2489128988
 30
0.0
  0
VERTEX
  5
3BE
330
25A
100
AcDbEntity
  8
0
  6
CONTINUOUS
 62
     7
100
AcDbVertex
100
AcDb2dVertex
 10
7.7938208225
 20
7.2081710637
 30
0.0
  0
VERTEX
  5
3BF
330
25A
100
AcDbEntity
  8
0
  6
CONTINUOUS
 62
     7
100
AcDbVertex
100
AcDb2dVertex
 10
7.7667252159
 20
7.1664901936
 30
0.0
  0
VERTEX
  5
3C0
330
25A
100
AcDbEntity
  8
0
  6
CONTINUOUS
 62
     7
100
AcDbVertex
100
AcDb2dVertex
 10
7.7407596067
 20
7.123969151
 30
0.0
  0
VERTEX
  5
3C1
330
25A
100
AcDbEntity
  8
0
  6
CONTINUOUS
 62
     7
100
AcDbVertex
100
AcDb2dVertex
 10
7.7159855824
 20
7.080708791
 30
0.0
  0
VERTEX
  5
3C2
330
25A
100
AcDbEntity
  8
0
  6
CONTINUOUS
 62
     7
100
AcDbVertex
100
AcDb2dVertex
 10
7.6924619043
 20
7.0368117225
 30
0.0
  0
VERTEX
  5
3C3
330
25A
100
AcDbEntity
  8
0
  6
CONTINUOUS
 62
     7
100
AcDbVertex
100
AcDb2dVertex
 10
7.6702443678
 20
6.9923820644
 30
0.0
  0
VERTEX
  5
3C4
330
25A
100
AcDbEntity
  8
0
  6
CONTINUOUS
 62
     7
100
AcDbVertex
100
AcDb2dVertex
 10
7.6493856706
 20
6.9475251991
 30
0.0
  0
VERTEX
  5
3C5
330
25A
100
AcDbEntity
  8
0
  6
CONTINUOUS
 62
     7
100
AcDbVertex
100
AcDb2dVertex
 10
7.6299352872
 20
6.9023475219
 30
0.0
  0
VERTEX
  5
3C6
330
25A
100
AcDbEntity
  8
0
  6
CONTINUOUS
 62
     7
100
AcDbVertex
100
AcDb2dVertex
 10
7.6119393517
 20
6.8569561895
 30
0.0
  0
VERTEX
  5
3C7
330
25A
100
AcDbEntity
  8
0
  6
CONTINUOUS
 62
     7
100
AcDbVertex
100
AcDb2dVertex
 10
7.5954405485
 20
6.8114588649
 30
0.0
  0
VERTEX
  5
3C8
330
25A
100
AcDbEntity
  8
0
  6
CONTINUOUS
 62
     7
100
AcDbVertex
100
AcDb2dVertex
 10
7.5804780109
 20
6.7659634629
 30
0.0
  0
VERTEX
  5
3C9
330
25A
100
AcDbEntity
  8
0
  6
CONTINUOUS
 62
     7
100
AcDbVertex
100
AcDb2dVertex
 10
7.5670872285
 20
6.7205778935
 30
0.0
  0
VERTEX
  5
3CA
330
25A
100
AcDbEntity
  8
0
  6
CONTINUOUS
 62
     7
100
AcDbVertex
100
AcDb2dVertex
 10
7.5552999626
 20
6.6754098063
 30
0.0
  0
VERTEX
  5
3CB
330
25A
100
AcDbEntity
  8
0
  6
CONTINUOUS
 62
     7
100
AcDbVertex
100
AcDb2dVertex
 10
7.5451441715
 20
6.6305663349
 30
0.0
  0
VERTEX
  5
3CC
330
25A
100
AcDbEntity
  8
0
  6
CONTINUOUS
 62
     7
100
AcDbVertex
100
AcDb2dVertex
 10
7.5366439434
 20
6.5861538431
 30
0.0
  0
VERTEX
  5
3CD
330
25A
100
AcDbEntity
  8
0
  6
CONTINUOUS
 62
     7
100
AcDbVertex
100
AcDb2dVertex
 10
7.52981944
 20
6.5422776725
 30
0.0
  0
VERTEX
  5
3CE
330
25A
100
AcDbEntity
  8
0
  6
CONTINUOUS
 62
     7
100
AcDbVertex
100
AcDb2dVertex
 10
7.5246868483
 20
6.4990418925
 30
0.0
  0
VERTEX
  5
3CF
330
25A
100
AcDbEntity
  8
0
  6
CONTINUOUS
 62
     7
100
AcDbVertex
100
AcDb2dVertex
 10
7.5212583422
 20
6.4565490536
 30
0.0
  0
VERTEX
  5
3D0
330
25A
100
AcDbEntity
  8
0
  6
CONTINUOUS
 62
     7
100
AcDbVertex
100
AcDb2dVertex
 10
7.5195420537
 20
6.414899944
 30
0.0
  0
VERTEX
  5
3D1
330
25A
100
AcDbEntity
  8
0
  6
CONTINUOUS
 62
     7
100
AcDbVertex
100
AcDb2dVertex
 10
7.5195420537
 20
6.374193351
 30
0.0
  0
VERTEX
  5
3D2
330
25A
100
AcDbEntity
  8
0
  6
CONTINUOUS
 62
     7
100
AcDbVertex
100
AcDb2dVertex
 10
7.5212583422
 20
6.334525826
 30
0.0
  0
VERTEX
  5
3D3
330
25A
100
AcDbEntity
  8
0
  6
CONTINUOUS
 62
     7
100
AcDbVertex
100
AcDb2dVertex
 10
7.5246868483
 20
6.2959914559
 30
0.0
  0
VERTEX
  5
3D4
330
25A
100
AcDbEntity
  8
0
  6
CONTINUOUS
 62
     7
100
AcDbVertex
100
AcDb2dVertex
 10
7.52981944
 20
6.2586816402
 30
0.0
  0
VERTEX
  5
3D5
330
25A
100
AcDbEntity
  8
0
  6
CONTINUOUS
 62
     7
100
AcDbVertex
100
AcDb2dVertex
 10
7.5366439434
 20
6.2226848735
 30
0.0
  0
VERTEX
  5
3D6
330
25A
100
AcDbEntity
  8
0
  6
CONTINUOUS
 62
     7
100
AcDbVertex
100
AcDb2dVertex
 10
7.5451441715
 20
6.1880865362
 30
0.0
  0
VERTEX
  5
3D7
330
25A
100
AcDbEntity
  8
0
  6
CONTINUOUS
 62
     7
100
AcDbVertex
100
AcDb2dVertex
 10
7.5552999626
 20
6.1549686917
 30
0.0
  0
VERTEX
  5
3D8
330
25A
100
AcDbEntity
  8
0
  6
CONTINUOUS
 62
     7
100
AcDbVertex
100
AcDb2dVertex
 10
7.5670872285
 20
6.1234098919
 30
0.0
  0
VERTEX
  5
3D9
330
25A
100
AcDbEntity
  8
0
  6
CONTINUOUS
 62
     7
100
AcDbVertex
100
AcDb2dVertex
 10
7.5804780109
 20
6.0934849908
 30
0.0
  0
VERTEX
  5
3DA
330
25A
100
AcDbEntity
  8
0
  6
CONTINUOUS
 62
     7
100
AcDbVertex
100
AcDb2dVertex
 10
7.5954405485
 20
6.0652649669
 30
0.0
  0
VERTEX
  5
3DB
330
25A
100
AcDbEntity
  8
0
  6
CONTINUOUS
 62
     7
100
AcDbVertex
100
AcDb2dVertex
 10
7.6119393517
 20
6.0388167551
 30
0.0
  0
VERTEX
  5
3DC
330
25A
100
AcDbEntity
  8
0
  6
CONTINUOUS
 62
     7
100
AcDbVertex
100
AcDb2dVertex
 10
7.6299352872
 20
6.0142030875
 30
0.0
  0
VERTEX
  5
3DD
330
25A
100
AcDbEntity
  8
0
  6
CONTINUOUS
 62
     7
100
AcDbVertex
100
AcDb2dVertex
 10
7.6493856706
 20
5.9914823451
 30
0.0
  0
VERTEX
  5
3DE
330
25A
100
AcDbEntity
  8
0
  6
CONTINUOUS
 62
     7
100
AcDbVertex
100
AcDb2dVertex
 10
7.6702443678
 20
5.9707084189
 30
0.0
  0
VERTEX
  5
3DF
330
25A
100
AcDbEntity
  8
0
  6
CONTINUOUS
 62
     7
100
AcDbVertex
100
AcDb2dVertex
 10
7.6924619043
 20
5.9519305824
 30
0.0
  0
VERTEX
  5
3E0
330
25A
100
AcDbEntity
  8
0
  6
CONTINUOUS
 62
     7
100
AcDbVertex
100
AcDb2dVertex
 10
7.7159855824
 20
5.9351933746
 30
0.0
  0
VERTEX
  5
3E1
330
25A
100
AcDbEntity
  8
0
  6
CONTINUOUS
 62
     7
100
AcDbVertex
100
AcDb2dVertex
 10
7.731368083
 20
5.9257627053
 30
0.0
  0
SEQEND
  5
3E2
330
25A
100
AcDbEntity
  8
0
  6
CONTINUOUS
 62
     7
  0
SPLINE
  5
25B
330
1F
100
AcDbEntity
  8
0
  6
CONTINUOUS
 62
     7
100
AcDbSpline
210
0.0
220
0.0
230
1.0
 70
     8
 71
     3
 72
    20
 73
    16
 74
     0
 42
0.00000001
 43
0.00000001
 40
0.0
 40
0.0
 40
0.0
 40
0.0
 40
0.0675876064419652
 40
0.1351790812008617
 40
0.2027060749368191
 40
0.2702460992240421
 40
0.3389723801635989
 40
0.4077232990807539
 40
0.4808850200443192
 40
0.5540843413057787
 40
0.6358685927553369
 40
0.7177009984616785
 40
0.8134398640498104
 40
0.9092269446502884
 40
1.0
 40
1.0
 40
1.0
 40
1.0
 10
8.418470185039455
 20
7.163901376197206
 30
0.0
 10
8.410047157557768
 20
7.168151803212051
 30
0.0
 10
8.39320062050986
 20
7.176652900511177
 30
0.0
 10
8.363925103519087
 20
7.184002207155519
 30
0.0
 10
8.332745254407666
 20
7.186906835387255
 30
0.0
 10
8.30016548637849
 20
7.185059065011024
 30
0.0
 10
8.267189495799478
 20
7.17829143465716
 30
0.0
 10
8.234040071076056
 20
7.166648468662527
 30
0.0
 10
8.201873198270754
 20
7.150010712110951
 30
0.0
 10
8.170303007967325
 20
7.127972858995757
 30
0.0
 10
8.141014921220666
 20
7.100822976479619
 30
0.0
 10
8.11322334511058
 20
7.067273736917115
 30
0.0
 10
8.089375651042586
 20
7.028350820282662
 30
0.0
 10
8.069830106628524
 20
6.985596670296583
 30
0.0
 10
8.062406971142059
 20
6.955825595578239
 30
0.0
 10
8.058795156190545
 20
6.941340124716715
 30
0.0
  0
POLYLINE
  5
25C
330
1F
100
AcDbEntity
  8
0
  6
CONTINUOUS
 62
     7
100
AcDb2dPolyline
 66
     1
 10
0.0
 20
0.0
 30
0.0
  0
VERTEX
  5
3E3
330
25C
100
AcDbEntity
  8
0
  6
CONTINUOUS
 62
     7
100
AcDbVertex
100
AcDb2dVertex
 10
8.0494151212
 20
6.8624318205
 30
0.0
  0
VERTEX
  5
3E4
330
25C
100
AcDbEntity
  8
0
  6
CONTINUOUS
 62
     7
100
AcDbVertex
100
AcDb2dVertex
 10
8.0501521052
 20
6.8333916183
 30
0.0
  0
VERTEX
  5
3E5
330
25C
100
AcDbEntity
  8
0
  6
CONTINUOUS
 62
     7
100
AcDbVertex
100
AcDb2dVertex
 10
8.057238848
 20
6.7928393459
 30
0.0
  0
VERTEX
  5
3E6
330
25C
100
AcDbEntity
  8
0
  6
CONTINUOUS
 62
     7
100
AcDbVertex
100
AcDb2dVertex
 10
8.0657527018
 20
6.7674953333
 30
0.0
  0
VERTEX
  5
3E7
330
25C
100
AcDbEntity
  8
0
  6
CONTINUOUS
 62
     7
100
AcDbVertex
100
AcDb2dVertex
 10
8.0776804389
 20
6.7444364879
 30
0.0
  0
VERTEX
  5
3E8
330
25C
100
AcDbEntity
  8
0
  6
CONTINUOUS
 62
     7
100
AcDbVertex
100
AcDb2dVertex
 10
8.0898568609
 20
6.7284643878
 30
0.0
  0
VERTEX
  5
3E9
330
25C
100
AcDbEntity
  8
0
  6
CONTINUOUS
 62
     7
100
AcDbVertex
100
AcDb2dVertex
 10
8.1042937707
 20
6.7154108038
 30
0.0
  0
VERTEX
  5
3EA
330
25C
100
AcDbEntity
  8
0
  6
CONTINUOUS
 62
     7
100
AcDbVertex
100
AcDb2dVertex
 10
8.1208225323
 20
6.7059279594
 30
0.0
  0
VERTEX
  5
3EB
330
25C
100
AcDbEntity
  8
0
  6
CONTINUOUS
 62
     7
100
AcDbVertex
100
AcDb2dVertex
 10
8.1388230023
 20
6.7002829949
 30
0.0
  0
VERTEX
  5
3EC
330
25C
100
AcDbEntity
  8
0
  6
CONTINUOUS
 62
     7
100
AcDbVertex
100
AcDb2dVertex
 10
8.1566053547
 20
6.6984602719
 30
0.0
  0
VERTEX
  5
3ED
330
25C
100
AcDbEntity
  8
0
  6
CONTINUOUS
 62
     7
100
AcDbVertex
100
AcDb2dVertex
 10
8.1747735738
 20
6.6996233587
 30
0.0
  0
VERTEX
  5
3EE
330
25C
100
AcDbEntity
  8
0
  6
CONTINUOUS
 62
     7
100
AcDbVertex
100
AcDb2dVertex
 10
8.2051118987
 20
6.707048411
 30
0.0
  0
VERTEX
  5
3EF
330
25C
100
AcDbEntity
  8
0
  6
CONTINUOUS
 62
     7
100
AcDbVertex
100
AcDb2dVertex
 10
8.2350712238
 20
6.7198039729
 30
0.0
  0
VERTEX
  5
3F0
330
25C
100
AcDbEntity
  8
0
  6
CONTINUOUS
 62
     7
100
AcDbVertex
100
AcDb2dVertex
 10
8.2644431689
 20
6.7365794192
 30
0.0
  0
VERTEX
  5
3F1
330
25C
100
AcDbEntity
  8
0
  6
CONTINUOUS
 62
     7
100
AcDbVertex
100
AcDb2dVertex
 10
8.293090295
 20
6.7565766666
 30
0.0
  0
VERTEX
  5
3F2
330
25C
100
AcDbEntity
  8
0
  6
CONTINUOUS
 62
     7
100
AcDbVertex
100
AcDb2dVertex
 10
8.3207446917
 20
6.7790798784
 30
0.0
  0
VERTEX
  5
3F3
330
25C
100
AcDbEntity
  8
0
  6
CONTINUOUS
 62
     7
100
AcDbVertex
100
AcDb2dVertex
 10
8.3481804596
 20
6.8044829227
 30
0.0
  0
VERTEX
  5
3F4
330
25C
100
AcDbEntity
  8
0
  6
CONTINUOUS
 62
     7
100
AcDbVertex
100
AcDb2dVertex
 10
8.3743563732
 20
6.8319011335
 30
0.0
  0
VERTEX
  5
3F5
330
25C
100
AcDbEntity
  8
0
  6
CONTINUOUS
 62
     7
100
AcDbVertex
100
AcDb2dVertex
 10
8.3988271339
 20
6.8609125168
 30
0.0
  0
VERTEX
  5
3F6
330
25C
100
AcDbEntity
  8
0
  6
CONTINUOUS
 62
     7
100
AcDbVertex
100
AcDb2dVertex
 10
8.4281192638
 20
6.9015816148
 30
0.0
  0
VERTEX
  5
3F7
330
25C
100
AcDbEntity
  8
0
  6
CONTINUOUS
 62
     7
100
AcDbVertex
100
AcDb2dVertex
 10
8.4525720855
 20
6.9440262173
 30
0.0
  0
VERTEX
  5
3F8
330
25C
100
AcDbEntity
  8
0
  6
CONTINUOUS
 62
     7
100
AcDbVertex
100
AcDb2dVertex
 10
8.4681328265
 20
6.9801857704
 30
0.0
  0
VERTEX
  5
3F9
330
25C
100
AcDbEntity
  8
0
  6
CONTINUOUS
 62
     7
100
AcDbVertex
100
AcDb2dVertex
 10
8.4782472309
 20
7.0162549859
 30
0.0
  0
VERTEX
  5
3FA
330
25C
100
AcDbEntity
  8
0
  6
CONTINUOUS
 62
     7
100
AcDbVertex
100
AcDb2dVertex
 10
8.4818528405
 20
7.0515927075
 30
0.0
  0
VERTEX
  5
3FB
330
25C
100
AcDbEntity
  8
0
  6
CONTINUOUS
 62
     7
100
AcDbVertex
100
AcDb2dVertex
 10
8.4782056429
 20
7.0849371095
 30
0.0
  0
VERTEX
  5
3FC
330
25C
100
AcDbEntity
  8
0
  6
CONTINUOUS
 62
     7
100
AcDbVertex
100
AcDb2dVertex
 10
8.4684863546
 20
7.1118281238
 30
0.0
  0
VERTEX
  5
3FD
330
25C
100
AcDbEntity
  8
0
  6
CONTINUOUS
 62
     7
100
AcDbVertex
100
AcDb2dVertex
 10
8.4528223885
 20
7.1355620117
 30
0.0
  0
VERTEX
  5
3FE
330
25C
100
AcDbEntity
  8
0
  6
CONTINUOUS
 62
     7
100
AcDbVertex
100
AcDb2dVertex
 10
8.4371263489
 20
7.1509836356
 30
0.0
  0
VERTEX
  5
3FF
330
25C
100
AcDbEntity
  8
0
  6
CONTINUOUS
 62
     7
100
AcDbVertex
100
AcDb2dVertex
 10
8.418470185
 20
7.1639013762
 30
0.0
  0
VERTEX
  5
400
330
25C
100
AcDbEntity
  8
0
  6
CONTINUOUS
 62
     7
100
AcDbVertex
100
AcDb2dVertex
 10
8.418470185
 20
7.1639013762
 30
0.0
  0
SEQEND
  5
401
330
25C
100
AcDbEntity
  8
0
  6
CONTINUOUS
 62
     7
  0
SPLINE
  5
25D
330
1F
100
AcDbEntity
  8
0
  6
CONTINUOUS
 62
     7
100
AcDbSpline
210
0.0
220
0.0
230
1.0
 70
     8
 71
     3
 72
     9
 73
     5
 74
     0
 42
0.00000001
 43
0.00000001
 40
0.0
 40
0.0
 40
0.0
 40
0.0
 40
0.719873317391566
 40
1.0
 40
1.0
 40
1.0
 40
1.0
 10
8.181839962988837
 20
5.665716439688953
 30
0.0
 10
8.185641616489766
 20
5.663519645007325
 30
0.0
 10
8.190922619978968
 20
5.660468004352564
 30
0.0
 10
8.196932650114528
 20
5.65700018370775
 30
0.0
 10
8.198616219918778
 20
5.656028754614638
 30
0.0
  0
SPLINE
  5
25E
330
1F
100
AcDbEntity
  8
0
  6
CONTINUOUS
 62
     7
100
AcDbSpline
210
0.0
220
0.0
230
1.0
 70
     8
 71
     3
 72
     9
 73
     5
 74
     0
 42
0.00000001
 43
0.00000001
 40
0.0
 40
0.0
 40
0.0
 40
0.0
 40
0.3001541100605902
 40
1.0
 40
1.0
 40
1.0
 40
1.0
 10
8.16810660979657
 20
5.673641087325453
 30
0.0
 10
8.1692772847724
 20
5.672965015174634
 30
0.0
 10
8.173177531134488
 20
5.67071259840552
 30
0.0
 10
8.178273541252594
 20
5.667773415067703
 30
0.0
 10
8.181839962988837
 20
5.665716439688953
 30
0.0
  0
ARC
  5
25F
330
1F
100
AcDbEntity
  8
0
  6
CONTINUOUS
 62
     7
100
AcDbCircle
 10
8.2381335829
 20
6.2022385725
 30
0.0
 40
0.4945235538634087
100
AcDbArc
 50
176.4487482103
 51
235.2229159658
  0
LINE
  5
260
330
1F
100
AcDbEntity
  8
0
  6
CONTINUOUS
 62
     7
100
AcDbLine
 10
8.1389433214
 20
6.0051971676
 30
0.0
 11
7.7445596179
 21
6.2328700335
 31
0.0
  0
LINE
  5
261
330
1F
100
AcDbEntity
  8
0
  6
CONTINUOUS
 62
     7
100
AcDbLine
 10
8.1389433214
 20
6.0694917197
 30
0.0
 11
7.7445596179
 21
6.2971645856
 31
0.0
  0
POLYLINE
  5
262
330
1F
100
AcDbEntity
  8
0
  6
CONTINUOUS
 62
     7
100
AcDb2dPolyline
 66
     1
 10
0.0
 20
0.0
 30
0.0
  0
VERTEX
  5
402
330
262
100
AcDbEntity
  8
0
  6
CONTINUOUS
 62
     7
100
AcDbVertex
100
AcDb2dVertex
 10
8.7531823572
 20
7.6154194326
 30
0.0
  0
VERTEX
  5
403
330
262
100
AcDbEntity
  8
0
  6
CONTINUOUS
 62
     7
100
AcDbVertex
100
AcDb2dVertex
 10
8.719796633
 20
7.6115621106
 30
0.0
  0
VERTEX
  5
404
330
262
100
AcDbEntity
  8
0
  6
CONTINUOUS
 62
     7
100
AcDbVertex
100
AcDb2dVertex
 10
8.6857891444
 20
7.6054122899
 30
0.0
  0
VERTEX
  5
405
330
262
100
AcDbEntity
  8
0
  6
CONTINUOUS
 62
     7
100
AcDbVertex
100
AcDb2dVertex
 10
8.6512438111
 20
7.5969851464
 30
0.0
  0
VERTEX
  5
406
330
262
100
AcDbEntity
  8
0
  6
CONTINUOUS
 62
     7
100
AcDbVertex
100
AcDb2dVertex
 10
8.6162458804
 20
7.5863014754
 30
0.0
  0
VERTEX
  5
407
330
262
100
AcDbEntity
  8
0
  6
CONTINUOUS
 62
     7
100
AcDbVertex
100
AcDb2dVertex
 10
8.580881716
 20
7.5733876411
 30
0.0
  0
VERTEX
  5
408
330
262
100
AcDbEntity
  8
0
  6
CONTINUOUS
 62
     7
100
AcDbVertex
100
AcDb2dVertex
 10
8.5452385856
 20
7.5582755106
 30
0.0
  0
VERTEX
  5
409
330
262
100
AcDbEntity
  8
0
  6
CONTINUOUS
 62
     7
100
AcDbVertex
100
AcDb2dVertex
 10
8.5094044454
 20
7.5410023761
 30
0.0
  0
VERTEX
  5
40A
330
262
100
AcDbEntity
  8
0
  6
CONTINUOUS
 62
     7
100
AcDbVertex
100
AcDb2dVertex
 10
8.4734677227
 20
7.5216108621
 30
0.0
  0
VERTEX
  5
40B
330
262
100
AcDbEntity
  8
0
  6
CONTINUOUS
 62
     7
100
AcDbVertex
100
AcDb2dVertex
 10
8.4375170981
 20
7.5001488209
 30
0.0
  0
VERTEX
  5
40C
330
262
100
AcDbEntity
  8
0
  6
CONTINUOUS
 62
     7
100
AcDbVertex
100
AcDb2dVertex
 10
8.4016412865
 20
7.476669214
 30
0.0
  0
VERTEX
  5
40D
330
262
100
AcDbEntity
  8
0
  6
CONTINUOUS
 62
     7
100
AcDbVertex
100
AcDb2dVertex
 10
8.3659288182
 20
7.4512299818
 30
0.0
  0
VERTEX
  5
40E
330
262
100
AcDbEntity
  8
0
  6
CONTINUOUS
 62
     7
100
AcDbVertex
100
AcDb2dVertex
 10
8.3304678202
 20
7.4238939002
 30
0.0
  0
VERTEX
  5
40F
330
262
100
AcDbEntity
  8
0
  6
CONTINUOUS
 62
     7
100
AcDbVertex
100
AcDb2dVertex
 10
8.2953457993
 20
7.3947284263
 30
0.0
  0
VERTEX
  5
410
330
262
100
AcDbEntity
  8
0
  6
CONTINUOUS
 62
     7
100
AcDbVertex
100
AcDb2dVertex
 10
8.2606494255
 20
7.3638055311
 30
0.0
  0
VERTEX
  5
411
330
262
100
AcDbEntity
  8
0
  6
CONTINUOUS
 62
     7
100
AcDbVertex
100
AcDb2dVertex
 10
8.2264643186
 20
7.3312015228
 30
0.0
  0
VERTEX
  5
412
330
262
100
AcDbEntity
  8
0
  6
CONTINUOUS
 62
     7
100
AcDbVertex
100
AcDb2dVertex
 10
8.1928748368
 20
7.2969968577
 30
0.0
  0
VERTEX
  5
413
330
262
100
AcDbEntity
  8
0
  6
CONTINUOUS
 62
     7
100
AcDbVertex
100
AcDb2dVertex
 10
8.1599638684
 20
7.2612759424
 30
0.0
  0
VERTEX
  5
414
330
262
100
AcDbEntity
  8
0
  6
CONTINUOUS
 62
     7
100
AcDbVertex
100
AcDb2dVertex
 10
8.1278126273
 20
7.2241269248
 30
0.0
  0
VERTEX
  5
415
330
262
100
AcDbEntity
  8
0
  6
CONTINUOUS
 62
     7
100
AcDbVertex
100
AcDb2dVertex
 10
8.0965004526
 20
7.1856414769
 30
0.0
  0
VERTEX
  5
416
330
262
100
AcDbEntity
  8
0
  6
CONTINUOUS
 62
     7
100
AcDbVertex
100
AcDb2dVertex
 10
8.0661046132
 20
7.145914569
 30
0.0
  0
VERTEX
  5
417
330
262
100
AcDbEntity
  8
0
  6
CONTINUOUS
 62
     7
100
AcDbVertex
100
AcDb2dVertex
 10
8.0367001162
 20
7.1050442344
 30
0.0
  0
VERTEX
  5
418
330
262
100
AcDbEntity
  8
0
  6
CONTINUOUS
 62
     7
100
AcDbVertex
100
AcDb2dVertex
 10
8.0083595228
 20
7.0631313284
 30
0.0
  0
VERTEX
  5
419
330
262
100
AcDbEntity
  8
0
  6
CONTINUOUS
 62
     7
100
AcDbVertex
100
AcDb2dVertex
 10
7.9811527688
 20
7.0202792789
 30
0.0
  0
VERTEX
  5
41A
330
262
100
AcDbEntity
  8
0
  6
CONTINUOUS
 62
     7
100
AcDbVertex
100
AcDb2dVertex
 10
7.9551469918
 20
6.9765938313
 30
0.0
  0
VERTEX
  5
41B
330
262
100
AcDbEntity
  8
0
  6
CONTINUOUS
 62
     7
100
AcDbVertex
100
AcDb2dVertex
 10
7.9304063659
 20
6.9321827876
 30
0.0
  0
VERTEX
  5
41C
330
262
100
AcDbEntity
  8
0
  6
CONTINUOUS
 62
     7
100
AcDbVertex
100
AcDb2dVertex
 10
7.9069919433
 20
6.8871557402
 30
0.0
  0
VERTEX
  5
41D
330
262
100
AcDbEntity
  8
0
  6
CONTINUOUS
 62
     7
100
AcDbVertex
100
AcDb2dVertex
 10
7.8849615034
 20
6.841623802
 30
0.0
  0
VERTEX
  5
41E
330
262
100
AcDbEntity
  8
0
  6
CONTINUOUS
 62
     7
100
AcDbVertex
100
AcDb2dVertex
 10
7.8643694104
 20
6.7956993313
 30
0.0
  0
VERTEX
  5
41F
330
262
100
AcDbEntity
  8
0
  6
CONTINUOUS
 62
     7
100
AcDbVertex
100
AcDb2dVertex
 10
7.8452664792
 20
6.7494956555
 30
0.0
  0
VERTEX
  5
420
330
262
100
AcDbEntity
  8
0
  6
CONTINUOUS
 62
     7
100
AcDbVertex
100
AcDb2dVertex
 10
7.8276998498
 20
6.7031267906
 30
0.0
  0
VERTEX
  5
421
330
262
100
AcDbEntity
  8
0
  6
CONTINUOUS
 62
     7
100
AcDbVertex
100
AcDb2dVertex
 10
7.8117128711
 20
6.6567071605
 30
0.0
  0
VERTEX
  5
422
330
262
100
AcDbEntity
  8
0
  6
CONTINUOUS
 62
     7
100
AcDbVertex
100
AcDb2dVertex
 10
7.797344994
 20
6.6103513143
 30
0.0
  0
VERTEX
  5
423
330
262
100
AcDbEntity
  8
0
  6
CONTINUOUS
 62
     7
100
AcDbVertex
100
AcDb2dVertex
 10
7.7846316738
 20
6.5641736437
 30
0.0
  0
VERTEX
  5
424
330
262
100
AcDbEntity
  8
0
  6
CONTINUOUS
 62
     7
100
AcDbVertex
100
AcDb2dVertex
 10
7.7736042832
 20
6.5182881007
 30
0.0
  0
VERTEX
  5
425
330
262
100
AcDbEntity
  8
0
  6
CONTINUOUS
 62
     7
100
AcDbVertex
100
AcDb2dVertex
 10
7.7642900342
 20
6.4728079164
 30
0.0
  0
VERTEX
  5
426
330
262
100
AcDbEntity
  8
0
  6
CONTINUOUS
 62
     7
100
AcDbVertex
100
AcDb2dVertex
 10
7.7567119115
 20
6.4278453217
 30
0.0
  0
VERTEX
  5
427
330
262
100
AcDbEntity
  8
0
  6
CONTINUOUS
 62
     7
100
AcDbVertex
100
AcDb2dVertex
 10
7.7508886154
 20
6.3835112701
 30
0.0
  0
VERTEX
  5
428
330
262
100
AcDbEntity
  8
0
  6
CONTINUOUS
 62
     7
100
AcDbVertex
100
AcDb2dVertex
 10
7.7468345162
 20
6.3399151643
 30
0.0
  0
VERTEX
  5
429
330
262
100
AcDbEntity
  8
0
  6
CONTINUOUS
 62
     7
100
AcDbVertex
100
AcDb2dVertex
 10
7.7445596179
 20
6.2971645856
 30
0.0
  0
SEQEND
  5
42A
330
262
100
AcDbEntity
  8
0
  6
CONTINUOUS
 62
     7
  0
LINE
  5
263
330
1F
100
AcDbEntity
  8
0
  6
CONTINUOUS
 62
     7
100
AcDbLine
 10
8.6789454248
 20
7.6582755015
 30
0.0
 11
8.7531823572
 21
7.6154194326
 31
0.0
  0
POLYLINE
  5
264
330
1F
100
AcDbEntity
  8
0
  6
CONTINUOUS
 62
     7
100
AcDb2dPolyline
 66
     1
 10
0.0
 20
0.0
 30
0.0
  0
VERTEX
  5
42B
330
264
100
AcDbEntity
  8
0
  6
CONTINUOUS
 62
     7
100
AcDbVertex
100
AcDb2dVertex
 10
7.9202936833
 20
5.8198102057
 30
0.0
  0
VERTEX
  5
42C
330
264
100
AcDbEntity
  8
0
  6
CONTINUOUS
 62
     7
100
AcDbVertex
100
AcDb2dVertex
 10
7.9179857656
 20
5.820791154
 30
0.0
  0
VERTEX
  5
42D
330
264
100
AcDbEntity
  8
0
  6
CONTINUOUS
 62
     7
100
AcDbVertex
100
AcDb2dVertex
 10
7.8919413751
 20
5.8332920111
 30
0.0
  0
VERTEX
  5
42E
330
264
100
AcDbEntity
  8
0
  6
CONTINUOUS
 62
     7
100
AcDbVertex
100
AcDb2dVertex
 10
7.86709096
 20
5.8479161727
 30
0.0
  0
VERTEX
  5
42F
330
264
100
AcDbEntity
  8
0
  6
CONTINUOUS
 62
     7
100
AcDbVertex
100
AcDb2dVertex
 10
7.8434936662
 20
5.8646288322
 30
0.0
  0
VERTEX
  5
430
330
264
100
AcDbEntity
  8
0
  6
CONTINUOUS
 62
     7
100
AcDbVertex
100
AcDb2dVertex
 10
7.8212056568
 20
5.8833902124
 30
0.0
  0
VERTEX
  5
431
330
264
100
AcDbEntity
  8
0
  6
CONTINUOUS
 62
     7
100
AcDbVertex
100
AcDb2dVertex
 10
7.8002799788
 20
5.9041556599
 30
0.0
  0
VERTEX
  5
432
330
264
100
AcDbEntity
  8
0
  6
CONTINUOUS
 62
     7
100
AcDbVertex
100
AcDb2dVertex
 10
7.7807664368
 20
5.9268757514
 30
0.0
  0
VERTEX
  5
433
330
264
100
AcDbEntity
  8
0
  6
CONTINUOUS
 62
     7
100
AcDbVertex
100
AcDb2dVertex
 10
7.7627114743
 20
5.9514964117
 30
0.0
  0
VERTEX
  5
434
330
264
100
AcDbEntity
  8
0
  6
CONTINUOUS
 62
     7
100
AcDbVertex
100
AcDb2dVertex
 10
7.7461580634
 20
5.9779590418
 30
0.0
  0
VERTEX
  5
435
330
264
100
AcDbEntity
  8
0
  6
CONTINUOUS
 62
     7
100
AcDbVertex
100
AcDb2dVertex
 10
7.7311456024
 20
6.0062006589
 30
0.0
  0
VERTEX
  5
436
330
264
100
AcDbEntity
  8
0
  6
CONTINUOUS
 62
     7
100
AcDbVertex
100
AcDb2dVertex
 10
7.7177098219
 20
6.0361540459
 30
0.0
  0
VERTEX
  5
437
330
264
100
AcDbEntity
  8
0
  6
CONTINUOUS
 62
     7
100
AcDbVertex
100
AcDb2dVertex
 10
7.7058827001
 20
6.0677479117
 30
0.0
  0
VERTEX
  5
438
330
264
100
AcDbEntity
  8
0
  6
CONTINUOUS
 62
     7
100
AcDbVertex
100
AcDb2dVertex
 10
7.6956923863
 20
6.1009070608
 30
0.0
  0
VERTEX
  5
439
330
264
100
AcDbEntity
  8
0
  6
CONTINUOUS
 62
     7
100
AcDbVertex
100
AcDb2dVertex
 10
7.6871631341
 20
6.1355525721
 30
0.0
  0
VERTEX
  5
43A
330
264
100
AcDbEntity
  8
0
  6
CONTINUOUS
 62
     7
100
AcDbVertex
100
AcDb2dVertex
 10
7.6803152438
 20
6.1716019868
 30
0.0
  0
VERTEX
  5
43B
330
264
100
AcDbEntity
  8
0
  6
CONTINUOUS
 62
     7
100
AcDbVertex
100
AcDb2dVertex
 10
7.6751650138
 20
6.2089695049
 30
0.0
  0
VERTEX
  5
43C
330
264
100
AcDbEntity
  8
0
  6
CONTINUOUS
 62
     7
100
AcDbVertex
100
AcDb2dVertex
 10
7.6717247021
 20
6.2475661891
 30
0.0
  0
VERTEX
  5
43D
330
264
100
AcDbEntity
  8
0
  6
CONTINUOUS
 62
     7
100
AcDbVertex
100
AcDb2dVertex
 10
7.6700024967
 20
6.2873001767
 30
0.0
  0
VERTEX
  5
43E
330
264
100
AcDbEntity
  8
0
  6
CONTINUOUS
 62
     7
100
AcDbVertex
100
AcDb2dVertex
 10
7.6700024967
 20
6.3280768979
 30
0.0
  0
VERTEX
  5
43F
330
264
100
AcDbEntity
  8
0
  6
CONTINUOUS
 62
     7
100
AcDbVertex
100
AcDb2dVertex
 10
7.6717247021
 20
6.3697993015
 30
0.0
  0
VERTEX
  5
440
330
264
100
AcDbEntity
  8
0
  6
CONTINUOUS
 62
     7
100
AcDbVertex
100
AcDb2dVertex
 10
7.6751650138
 20
6.4123680851
 30
0.0
  0
VERTEX
  5
441
330
264
100
AcDbEntity
  8
0
  6
CONTINUOUS
 62
     7
100
AcDbVertex
100
AcDb2dVertex
 10
7.6803152438
 20
6.4556819322
 30
0.0
  0
VERTEX
  5
442
330
264
100
AcDbEntity
  8
0
  6
CONTINUOUS
 62
     7
100
AcDbVertex
100
AcDb2dVertex
 10
7.6871631341
 20
6.4996377527
 30
0.0
  0
VERTEX
  5
443
330
264
100
AcDbEntity
  8
0
  6
CONTINUOUS
 62
     7
100
AcDbVertex
100
AcDb2dVertex
 10
7.6956923863
 20
6.5441309289
 30
0.0
  0
VERTEX
  5
444
330
264
100
AcDbEntity
  8
0
  6
CONTINUOUS
 62
     7
100
AcDbVertex
100
AcDb2dVertex
 10
7.7058827001
 20
6.5890555639
 30
0.0
  0
VERTEX
  5
445
330
264
100
AcDbEntity
  8
0
  6
CONTINUOUS
 62
     7
100
AcDbVertex
100
AcDb2dVertex
 10
7.7177098219
 20
6.6343047339
 30
0.0
  0
VERTEX
  5
446
330
264
100
AcDbEntity
  8
0
  6
CONTINUOUS
 62
     7
100
AcDbVertex
100
AcDb2dVertex
 10
7.7311456024
 20
6.6797707429
 30
0.0
  0
VERTEX
  5
447
330
264
100
AcDbEntity
  8
0
  6
CONTINUOUS
 62
     7
100
AcDbVertex
100
AcDb2dVertex
 10
7.7461580634
 20
6.7253453785
 30
0.0
  0
VERTEX
  5
448
330
264
100
AcDbEntity
  8
0
  6
CONTINUOUS
 62
     7
100
AcDbVertex
100
AcDb2dVertex
 10
7.7627114743
 20
6.77092017
 30
0.0
  0
VERTEX
  5
449
330
264
100
AcDbEntity
  8
0
  6
CONTINUOUS
 62
     7
100
AcDbVertex
100
AcDb2dVertex
 10
7.7807664368
 20
6.8163866463
 30
0.0
  0
VERTEX
  5
44A
330
264
100
AcDbEntity
  8
0
  6
CONTINUOUS
 62
     7
100
AcDbVertex
100
AcDb2dVertex
 10
7.8002799788
 20
6.8616365939
 30
0.0
  0
VERTEX
  5
44B
330
264
100
AcDbEntity
  8
0
  6
CONTINUOUS
 62
     7
100
AcDbVertex
100
AcDb2dVertex
 10
7.8212056568
 20
6.9065623149
 30
0.0
  0
VERTEX
  5
44C
330
264
100
AcDbEntity
  8
0
  6
CONTINUOUS
 62
     7
100
AcDbVertex
100
AcDb2dVertex
 10
7.8434936662
 20
6.951056883
 30
0.0
  0
VERTEX
  5
44D
330
264
100
AcDbEntity
  8
0
  6
CONTINUOUS
 62
     7
100
AcDbVertex
100
AcDb2dVertex
 10
7.86709096
 20
6.9950143981
 30
0.0
  0
VERTEX
  5
44E
330
264
100
AcDbEntity
  8
0
  6
CONTINUOUS
 62
     7
100
AcDbVertex
100
AcDb2dVertex
 10
7.8919413751
 20
7.0383302381
 30
0.0
  0
VERTEX
  5
44F
330
264
100
AcDbEntity
  8
0
  6
CONTINUOUS
 62
     7
100
AcDbVertex
100
AcDb2dVertex
 10
7.9179857656
 20
7.0809013085
 30
0.0
  0
VERTEX
  5
450
330
264
100
AcDbEntity
  8
0
  6
CONTINUOUS
 62
     7
100
AcDbVertex
100
AcDb2dVertex
 10
7.9451621443
 20
7.1226262872
 30
0.0
  0
VERTEX
  5
451
330
264
100
AcDbEntity
  8
0
  6
CONTINUOUS
 62
     7
100
AcDbVertex
100
AcDb2dVertex
 10
7.9734058293
 20
7.1634058657
 30
0.0
  0
VERTEX
  5
452
330
264
100
AcDbEntity
  8
0
  6
CONTINUOUS
 62
     7
100
AcDbVertex
100
AcDb2dVertex
 10
8.0026495989
 20
7.2031429859
 30
0.0
  0
VERTEX
  5
453
330
264
100
AcDbEntity
  8
0
  6
CONTINUOUS
 62
     7
100
AcDbVertex
100
AcDb2dVertex
 10
8.0328238507
 20
7.2417430708
 30
0.0
  0
VERTEX
  5
454
330
264
100
AcDbEntity
  8
0
  6
CONTINUOUS
 62
     7
100
AcDbVertex
100
AcDb2dVertex
 10
8.0638567681
 20
7.2791142494
 30
0.0
  0
VERTEX
  5
455
330
264
100
AcDbEntity
  8
0
  6
CONTINUOUS
 62
     7
100
AcDbVertex
100
AcDb2dVertex
 10
8.0956744905
 20
7.3151675758
 30
0.0
  0
VERTEX
  5
456
330
264
100
AcDbEntity
  8
0
  6
CONTINUOUS
 62
     7
100
AcDbVertex
100
AcDb2dVertex
 10
8.1282012895
 20
7.3498172405
 30
0.0
  0
VERTEX
  5
457
330
264
100
AcDbEntity
  8
0
  6
CONTINUOUS
 62
     7
100
AcDbVertex
100
AcDb2dVertex
 10
8.1613597491
 20
7.382980775
 30
0.0
  0
VERTEX
  5
458
330
264
100
AcDbEntity
  8
0
  6
CONTINUOUS
 62
     7
100
AcDbVertex
100
AcDb2dVertex
 10
8.19507095
 20
7.4145792478
 30
0.0
  0
VERTEX
  5
459
330
264
100
AcDbEntity
  8
0
  6
CONTINUOUS
 62
     7
100
AcDbVertex
100
AcDb2dVertex
 10
8.229254657
 20
7.4445374522
 30
0.0
  0
VERTEX
  5
45A
330
264
100
AcDbEntity
  8
0
  6
CONTINUOUS
 62
     7
100
AcDbVertex
100
AcDb2dVertex
 10
8.2638295107
 20
7.4727840858
 30
0.0
  0
VERTEX
  5
45B
330
264
100
AcDbEntity
  8
0
  6
CONTINUOUS
 62
     7
100
AcDbVertex
100
AcDb2dVertex
 10
8.2987132205
 20
7.4992519196
 30
0.0
  0
VERTEX
  5
45C
330
264
100
AcDbEntity
  8
0
  6
CONTINUOUS
 62
     7
100
AcDbVertex
100
AcDb2dVertex
 10
8.3338227608
 20
7.5238779583
 30
0.0
  0
VERTEX
  5
45D
330
264
100
AcDbEntity
  8
0
  6
CONTINUOUS
 62
     7
100
AcDbVertex
100
AcDb2dVertex
 10
8.3690745683
 20
7.5466035903
 30
0.0
  0
VERTEX
  5
45E
330
264
100
AcDbEntity
  8
0
  6
CONTINUOUS
 62
     7
100
AcDbVertex
100
AcDb2dVertex
 10
8.4043847415
 20
7.5673747269
 30
0.0
  0
VERTEX
  5
45F
330
264
100
AcDbEntity
  8
0
  6
CONTINUOUS
 62
     7
100
AcDbVertex
100
AcDb2dVertex
 10
8.4396692396
 20
7.5861419315
 30
0.0
  0
VERTEX
  5
460
330
264
100
AcDbEntity
  8
0
  6
CONTINUOUS
 62
     7
100
AcDbVertex
100
AcDb2dVertex
 10
8.4748440831
 20
7.6028605367
 30
0.0
  0
VERTEX
  5
461
330
264
100
AcDbEntity
  8
0
  6
CONTINUOUS
 62
     7
100
AcDbVertex
100
AcDb2dVertex
 10
8.5098255535
 20
7.6174907512
 30
0.0
  0
VERTEX
  5
462
330
264
100
AcDbEntity
  8
0
  6
CONTINUOUS
 62
     7
100
AcDbVertex
100
AcDb2dVertex
 10
8.5445303923
 20
7.6299977541
 30
0.0
  0
VERTEX
  5
463
330
264
100
AcDbEntity
  8
0
  6
CONTINUOUS
 62
     7
100
AcDbVertex
100
AcDb2dVertex
 10
8.5788759999
 20
7.6403517778
 30
0.0
  0
VERTEX
  5
464
330
264
100
AcDbEntity
  8
0
  6
CONTINUOUS
 62
     7
100
AcDbVertex
100
AcDb2dVertex
 10
8.6127806311
 20
7.6485281789
 30
0.0
  0
VERTEX
  5
465
330
264
100
AcDbEntity
  8
0
  6
CONTINUOUS
 62
     7
100
AcDbVertex
100
AcDb2dVertex
 10
8.6461635907
 20
7.6545074972
 30
0.0
  0
VERTEX
  5
466
330
264
100
AcDbEntity
  8
0
  6
CONTINUOUS
 62
     7
100
AcDbVertex
100
AcDb2dVertex
 10
8.6789454248
 20
7.6582755015
 30
0.0
  0
SEQEND
  5
467
330
264
100
AcDbEntity
  8
0
  6
CONTINUOUS
 62
     7
  0
LINE
  5
265
330
1F
100
AcDbEntity
  8
0
  6
CONTINUOUS
 62
     7
100
AcDbLine
 10
9.3002450608
 20
6.7154047006
 30
0.0
 11
9.3002450608
 21
6.6511101485
 31
0.0
  0
LINE
  5
266
330
1F
100
AcDbEntity
  8
0
  6
CONTINUOUS
 62
     7
100
AcDbLine
 10
9.3002450608
 20
6.7154047006
 30
0.0
 11
9.0414043093
 21
6.5659791153
 31
0.0
  0
POLYLINE
  5
267
330
1F
100
AcDbEntity
  8
0
  6
CONTINUOUS
 62
     7
100
AcDb2dPolyline
 66
     1
 10
0.0
 20
0.0
 30
0.0
  0
VERTEX
  5
468
330
267
100
AcDbEntity
  8
0
  6
CONTINUOUS
 62
     7
100
AcDbVertex
100
AcDb2dVertex
 10
8.7254578011
 20
6.3835870785
 30
0.0
  0
VERTEX
  5
469
330
267
100
AcDbEntity
  8
0
  6
CONTINUOUS
 62
     7
100
AcDbVertex
100
AcDb2dVertex
 10
8.7291764561
 20
6.4043970207
 30
0.0
  0
VERTEX
  5
46A
330
267
100
AcDbEntity
  8
0
  6
CONTINUOUS
 62
     7
100
AcDbVertex
100
AcDb2dVertex
 10
8.734543955
 20
6.4256157015
 30
0.0
  0
VERTEX
  5
46B
330
267
100
AcDbEntity
  8
0
  6
CONTINUOUS
 62
     7
100
AcDbVertex
100
AcDb2dVertex
 10
8.7415029241
 20
6.4470163122
 30
0.0
  0
VERTEX
  5
46C
330
267
100
AcDbEntity
  8
0
  6
CONTINUOUS
 62
     7
100
AcDbVertex
100
AcDb2dVertex
 10
8.7499789781
 20
6.4683700994
 30
0.0
  0
VERTEX
  5
46D
330
267
100
AcDbEntity
  8
0
  6
CONTINUOUS
 62
     7
100
AcDbVertex
100
AcDb2dVertex
 10
8.7598815156
 20
6.4894488101
 30
0.0
  0
VERTEX
  5
46E
330
267
100
AcDbEntity
  8
0
  6
CONTINUOUS
 62
     7
100
AcDbVertex
100
AcDb2dVertex
 10
8.7711046873
 20
6.5100271317
 30
0.0
  0
VERTEX
  5
46F
330
267
100
AcDbEntity
  8
0
  6
CONTINUOUS
 62
     7
100
AcDbVertex
100
AcDb2dVertex
 10
8.7835285276
 20
6.5298851005
 30
0.0
  0
VERTEX
  5
470
330
267
100
AcDbEntity
  8
0
  6
CONTINUOUS
 62
     7
100
AcDbVertex
100
AcDb2dVertex
 10
8.7970202367
 20
6.5488104524
 30
0.0
  0
VERTEX
  5
471
330
267
100
AcDbEntity
  8
0
  6
CONTINUOUS
 62
     7
100
AcDbVertex
100
AcDb2dVertex
 10
8.8114356002
 20
6.5666008923
 30
0.0
  0
VERTEX
  5
472
330
267
100
AcDbEntity
  8
0
  6
CONTINUOUS
 62
     7
100
AcDbVertex
100
AcDb2dVertex
 10
8.8266205309
 20
6.5830662563
 30
0.0
  0
VERTEX
  5
473
330
267
100
AcDbEntity
  8
0
  6
CONTINUOUS
 62
     7
100
AcDbVertex
100
AcDb2dVertex
 10
8.8424127153
 20
6.5980305443
 30
0.0
  0
VERTEX
  5
474
330
267
100
AcDbEntity
  8
0
  6
CONTINUOUS
 62
     7
100
AcDbVertex
100
AcDb2dVertex
 10
8.8586433491
 20
6.6113338016
 30
0.0
  0
VERTEX
  5
475
330
267
100
AcDbEntity
  8
0
  6
CONTINUOUS
 62
     7
100
AcDbVertex
100
AcDb2dVertex
 10
8.8751389414
 20
6.6228338281
 30
0.0
  0
VERTEX
  5
476
330
267
100
AcDbEntity
  8
0
  6
CONTINUOUS
 62
     7
100
AcDbVertex
100
AcDb2dVertex
 10
8.8917231689
 20
6.6324076989
 30
0.0
  0
VERTEX
  5
477
330
267
100
AcDbEntity
  8
0
  6
CONTINUOUS
 62
     7
100
AcDbVertex
100
AcDb2dVertex
 10
8.9082187612
 20
6.6399530778
 30
0.0
  0
VERTEX
  5
478
330
267
100
AcDbEntity
  8
0
  6
CONTINUOUS
 62
     7
100
AcDbVertex
100
AcDb2dVertex
 10
8.924449395
 20
6.6453893115
 30
0.0
  0
VERTEX
  5
479
330
267
100
AcDbEntity
  8
0
  6
CONTINUOUS
 62
     7
100
AcDbVertex
100
AcDb2dVertex
 10
8.9402415795
 20
6.6486582915
 30
0.0
  0
VERTEX
  5
47A
330
267
100
AcDbEntity
  8
0
  6
CONTINUOUS
 62
     7
100
AcDbVertex
100
AcDb2dVertex
 10
8.9554265101
 20
6.6497250752
 30
0.0
  0
VERTEX
  5
47B
330
267
100
AcDbEntity
  8
0
  6
CONTINUOUS
 62
     7
100
AcDbVertex
100
AcDb2dVertex
 10
8.9698418736
 20
6.6485782598
 30
0.0
  0
VERTEX
  5
47C
330
267
100
AcDbEntity
  8
0
  6
CONTINUOUS
 62
     7
100
AcDbVertex
100
AcDb2dVertex
 10
8.9833335827
 20
6.6452301036
 30
0.0
  0
VERTEX
  5
47D
330
267
100
AcDbEntity
  8
0
  6
CONTINUOUS
 62
     7
100
AcDbVertex
100
AcDb2dVertex
 10
8.995757423
 20
6.6397163956
 30
0.0
  0
VERTEX
  5
47E
330
267
100
AcDbEntity
  8
0
  6
CONTINUOUS
 62
     7
100
AcDbVertex
100
AcDb2dVertex
 10
9.0069805947
 20
6.6320960722
 30
0.0
  0
VERTEX
  5
47F
330
267
100
AcDbEntity
  8
0
  6
CONTINUOUS
 62
     7
100
AcDbVertex
100
AcDb2dVertex
 10
9.0168831322
 20
6.6224505879
 30
0.0
  0
VERTEX
  5
480
330
267
100
AcDbEntity
  8
0
  6
CONTINUOUS
 62
     7
100
AcDbVertex
100
AcDb2dVertex
 10
9.0253591862
 20
6.6108830444
 30
0.0
  0
VERTEX
  5
481
330
267
100
AcDbEntity
  8
0
  6
CONTINUOUS
 62
     7
100
AcDbVertex
100
AcDb2dVertex
 10
9.0323181553
 20
6.5975170883
 30
0.0
  0
VERTEX
  5
482
330
267
100
AcDbEntity
  8
0
  6
CONTINUOUS
 62
     7
100
AcDbVertex
100
AcDb2dVertex
 10
9.0376856542
 20
6.5824955898
 30
0.0
  0
VERTEX
  5
483
330
267
100
AcDbEntity
  8
0
  6
CONTINUOUS
 62
     7
100
AcDbVertex
100
AcDb2dVertex
 10
9.0414043093
 20
6.5659791153
 30
0.0
  0
SEQEND
  5
484
330
267
100
AcDbEntity
  8
0
  6
CONTINUOUS
 62
     7
  0
LINE
  5
268
330
1F
100
AcDbEntity
  8
0
  6
CONTINUOUS
 62
     7
100
AcDbLine
 10
8.1813859107
 20
6.0695010617
 30
0.0
 11
8.7254578011
 21
6.3835870785
 31
0.0
  0
LINE
  5
269
330
1F
100
AcDbEntity
  8
0
  6
CONTINUOUS
 62
     7
100
AcDbLine
 10
8.1813859107
 20
6.0052065096
 30
0.0
 11
8.7254578011
 21
6.3192925264
 31
0.0
  0
POLYLINE
  5
26A
330
1F
100
AcDbEntity
  8
0
  6
CONTINUOUS
 62
     7
100
AcDb2dPolyline
 66
     1
 10
0.0
 20
0.0
 30
0.0
  0
VERTEX
  5
485
330
26A
100
AcDbEntity
  8
0
  6
CONTINUOUS
 62
     7
100
AcDbVertex
100
AcDb2dVertex
 10
9.0414043093
 20
6.5016845632
 30
0.0
  0
VERTEX
  5
486
330
26A
100
AcDbEntity
  8
0
  6
CONTINUOUS
 62
     7
100
AcDbVertex
100
AcDb2dVertex
 10
9.0376856542
 20
6.480874621
 30
0.0
  0
VERTEX
  5
487
330
26A
100
AcDbEntity
  8
0
  6
CONTINUOUS
 62
     7
100
AcDbVertex
100
AcDb2dVertex
 10
9.0323181553
 20
6.4596559402
 30
0.0
  0
VERTEX
  5
488
330
26A
100
AcDbEntity
  8
0
  6
CONTINUOUS
 62
     7
100
AcDbVertex
100
AcDb2dVertex
 10
9.0253591862
 20
6.4382553295
 30
0.0
  0
VERTEX
  5
489
330
26A
100
AcDbEntity
  8
0
  6
CONTINUOUS
 62
     7
100
AcDbVertex
100
AcDb2dVertex
 10
9.0168831322
 20
6.4169015423
 30
0.0
  0
VERTEX
  5
48A
330
26A
100
AcDbEntity
  8
0
  6
CONTINUOUS
 62
     7
100
AcDbVertex
100
AcDb2dVertex
 10
9.0069805947
 20
6.3958228316
 30
0.0
  0
VERTEX
  5
48B
330
26A
100
AcDbEntity
  8
0
  6
CONTINUOUS
 62
     7
100
AcDbVertex
100
AcDb2dVertex
 10
8.995757423
 20
6.3752445099
 30
0.0
  0
VERTEX
  5
48C
330
26A
100
AcDbEntity
  8
0
  6
CONTINUOUS
 62
     7
100
AcDbVertex
100
AcDb2dVertex
 10
8.9833335827
 20
6.3553865412
 30
0.0
  0
VERTEX
  5
48D
330
26A
100
AcDbEntity
  8
0
  6
CONTINUOUS
 62
     7
100
AcDbVertex
100
AcDb2dVertex
 10
8.9698418736
 20
6.3364611893
 30
0.0
  0
VERTEX
  5
48E
330
26A
100
AcDbEntity
  8
0
  6
CONTINUOUS
 62
     7
100
AcDbVertex
100
AcDb2dVertex
 10
8.9554265101
 20
6.3186707494
 30
0.0
  0
VERTEX
  5
48F
330
26A
100
AcDbEntity
  8
0
  6
CONTINUOUS
 62
     7
100
AcDbVertex
100
AcDb2dVertex
 10
8.9402415795
 20
6.3022053854
 30
0.0
  0
VERTEX
  5
490
330
26A
100
AcDbEntity
  8
0
  6
CONTINUOUS
 62
     7
100
AcDbVertex
100
AcDb2dVertex
 10
8.924449395
 20
6.2872410974
 30
0.0
  0
VERTEX
  5
491
330
26A
100
AcDbEntity
  8
0
  6
CONTINUOUS
 62
     7
100
AcDbVertex
100
AcDb2dVertex
 10
8.9082187612
 20
6.2739378401
 30
0.0
  0
VERTEX
  5
492
330
26A
100
AcDbEntity
  8
0
  6
CONTINUOUS
 62
     7
100
AcDbVertex
100
AcDb2dVertex
 10
8.8917231689
 20
6.2624378135
 30
0.0
  0
VERTEX
  5
493
330
26A
100
AcDbEntity
  8
0
  6
CONTINUOUS
 62
     7
100
AcDbVertex
100
AcDb2dVertex
 10
8.8751389414
 20
6.2528639428
 30
0.0
  0
VERTEX
  5
494
330
26A
100
AcDbEntity
  8
0
  6
CONTINUOUS
 62
     7
100
AcDbVertex
100
AcDb2dVertex
 10
8.8586433491
 20
6.2453185638
 30
0.0
  0
VERTEX
  5
495
330
26A
100
AcDbEntity
  8
0
  6
CONTINUOUS
 62
     7
100
AcDbVertex
100
AcDb2dVertex
 10
8.8424127153
 20
6.2398823302
 30
0.0
  0
VERTEX
  5
496
330
26A
100
AcDbEntity
  8
0
  6
CONTINUOUS
 62
     7
100
AcDbVertex
100
AcDb2dVertex
 10
8.8266205309
 20
6.2366133502
 30
0.0
  0
VERTEX
  5
497
330
26A
100
AcDbEntity
  8
0
  6
CONTINUOUS
 62
     7
100
AcDbVertex
100
AcDb2dVertex
 10
8.8114356002
 20
6.2355465665
 30
0.0
  0
VERTEX
  5
498
330
26A
100
AcDbEntity
  8
0
  6
CONTINUOUS
 62
     7
100
AcDbVertex
100
AcDb2dVertex
 10
8.7970202367
 20
6.2366933819
 30
0.0
  0
VERTEX
  5
499
330
26A
100
AcDbEntity
  8
0
  6
CONTINUOUS
 62
     7
100
AcDbVertex
100
AcDb2dVertex
 10
8.7835285276
 20
6.2400415381
 30
0.0
  0
VERTEX
  5
49A
330
26A
100
AcDbEntity
  8
0
  6
CONTINUOUS
 62
     7
100
AcDbVertex
100
AcDb2dVertex
 10
8.7711046873
 20
6.2455552461
 30
0.0
  0
VERTEX
  5
49B
330
26A
100
AcDbEntity
  8
0
  6
CONTINUOUS
 62
     7
100
AcDbVertex
100
AcDb2dVertex
 10
8.7598815156
 20
6.2531755695
 30
0.0
  0
VERTEX
  5
49C
330
26A
100
AcDbEntity
  8
0
  6
CONTINUOUS
 62
     7
100
AcDbVertex
100
AcDb2dVertex
 10
8.7499789781
 20
6.2628210538
 30
0.0
  0
VERTEX
  5
49D
330
26A
100
AcDbEntity
  8
0
  6
CONTINUOUS
 62
     7
100
AcDbVertex
100
AcDb2dVertex
 10
8.7415029241
 20
6.2743885973
 30
0.0
  0
VERTEX
  5
49E
330
26A
100
AcDbEntity
  8
0
  6
CONTINUOUS
 62
     7
100
AcDbVertex
100
AcDb2dVertex
 10
8.734543955
 20
6.2877545534
 30
0.0
  0
VERTEX
  5
49F
330
26A
100
AcDbEntity
  8
0
  6
CONTINUOUS
 62
     7
100
AcDbVertex
100
AcDb2dVertex
 10
8.7291764561
 20
6.3027760519
 30
0.0
  0
VERTEX
  5
4A0
330
26A
100
AcDbEntity
  8
0
  6
CONTINUOUS
 62
     7
100
AcDbVertex
100
AcDb2dVertex
 10
8.7254578011
 20
6.3192925264
 30
0.0
  0
SEQEND
  5
4A1
330
26A
100
AcDbEntity
  8
0
  6
CONTINUOUS
 62
     7
  0
LINE
  5
26B
330
1F
100
AcDbEntity
  8
0
  6
CONTINUOUS
 62
     7
100
AcDbLine
 10
9.0414043093
 20
6.5016845632
 30
0.0
 11
9.3002450608
 21
6.6511101485
 31
0.0
  0
LINE
  5
26C
330
1F
100
AcDbEntity
  8
0
  6
CONTINUOUS
 62
     7
100
AcDbLine
 10
8.6789454248
 20
7.6039140988
 30
0.0
 11
8.6789454248
 21
7.6582755015
 31
0.0
  0
SPLINE
  5
26D
330
1F
100
AcDbEntity
  8
0
  6
CONTINUOUS
 62
     7
100
AcDbSpline
210
0.0
220
0.0
230
1.0
 70
     8
 71
     3
 72
     8
 73
     4
 74
     0
 42
0.00000001
 43
0.00000001
 40
0.0
 40
0.0
 40
0.0
 40
0.0
 40
1.0
 40
1.0
 40
1.0
 40
1.0
 10
8.72545780105169
 20
6.319292526355731
 30
0.0
 10
8.725566890698328
 20
6.327529482612439
 30
0.0
 10
8.72569029682402
 20
6.335766608357038
 30
0.0
 10
8.725835898364704
 20
6.344003040643187
 30
0.0
  0
LINE
  5
26E
330
1F
100
AcDbEntity
  8
0
  6
CONTINUOUS
 62
     7
100
AcDbLine
 10
8.6913623526
 20
6.363904195
 30
0.0
 11
8.7258358984
 21
6.3440030406
 31
0.0
  0
LINE
  5
26F
330
1F
100
AcDbEntity
  8
0
  6
CONTINUOUS
 62
     7
100
AcDbLine
 10
7.8002463672
 20
6.2650173095
 30
0.0
 11
7.7445596179
 21
6.2328700335
 31
0.0
  0
SPLINE
  5
270
330
1F
100
AcDbEntity
  8
0
  6
CONTINUOUS
 62
     7
100
AcDbSpline
210
0.0
220
0.0
230
1.0
 70
     8
 71
     3
 72
     8
 73
     4
 74
     0
 42
0.00000001
 43
0.00000001
 40
0.0
 40
0.0
 40
0.0
 40
0.0
 40
1.0
 40
1.0
 40
1.0
 40
1.0
 10
8.998599805068464
 20
6.565760844400704
 30
0.0
 10
9.012867598591408
 20
6.565844900315827
 30
0.0
 10
9.027136000902056
 20
6.565916139505172
 30
0.0
 10
9.041404309252671
 20
6.565979115333479
 30
0.0
  0
ARC
  5
271
330
1F
100
AcDbEntity
  8
0
  6
CONTINUOUS
 62
     7
100
AcDbCircle
 10
8.9184144915
 20
6.5544205406
 30
0.0
 40
0.0809832513425769
100
AcDbArc
 50
8.0497388006
 51
124.6041896147
  0
LINE
  5
272
330
1F
100
AcDbEntity
  8
0
  6
CONTINUOUS
 62
     7
100
AcDbLine
 10
8.9985998051
 20
6.5657608444
 30
0.0
 11
8.8900345351
 21
6.6284342407
 31
0.0
  0
LINE
  5
273
330
1F
100
AcDbEntity
  8
0
  6
CONTINUOUS
 62
     7
100
AcDbLine
 10
8.9985998051
 20
6.5014662923
 30
0.0
 11
8.8380812308
 21
6.5941316928
 31
0.0
  0
POLYLINE
  5
274
330
1F
100
AcDbEntity
  8
0
  6
CONTINUOUS
 62
     7
100
AcDb2dPolyline
 66
     1
 10
0.0
 20
0.0
 30
0.0
  0
VERTEX
  5
4A2
330
274
100
AcDbEntity
  8
0
  6
CONTINUOUS
 62
     7
100
AcDbVertex
100
AcDb2dVertex
 10
8.7258358984
 20
6.3440030406
 30
0.0
  0
VERTEX
  5
4A3
330
274
100
AcDbEntity
  8
0
  6
CONTINUOUS
 62
     7
100
AcDbVertex
100
AcDb2dVertex
 10
8.7298930841
 20
6.3286206885
 30
0.0
  0
VERTEX
  5
4A4
330
274
100
AcDbEntity
  8
0
  6
CONTINUOUS
 62
     7
100
AcDbVertex
100
AcDb2dVertex
 10
8.7356717113
 20
6.3148808964
 30
0.0
  0
VERTEX
  5
4A5
330
274
100
AcDbEntity
  8
0
  6
CONTINUOUS
 62
     7
100
AcDbVertex
100
AcDb2dVertex
 10
8.7430966046
 20
6.3029624081
 30
0.0
  0
VERTEX
  5
4A6
330
274
100
AcDbEntity
  8
0
  6
CONTINUOUS
 62
     7
100
AcDbVertex
100
AcDb2dVertex
 10
8.752071172
 20
6.2930202739
 30
0.0
  0
VERTEX
  5
4A7
330
274
100
AcDbEntity
  8
0
  6
CONTINUOUS
 62
     7
100
AcDbVertex
100
AcDb2dVertex
 10
8.7624786613
 20
6.2851838331
 30
0.0
  0
VERTEX
  5
4A8
330
274
100
AcDbEntity
  8
0
  6
CONTINUOUS
 62
     7
100
AcDbVertex
100
AcDb2dVertex
 10
8.7741836794
 20
6.2795550318
 30
0.0
  0
VERTEX
  5
4A9
330
274
100
AcDbEntity
  8
0
  6
CONTINUOUS
 62
     7
100
AcDbVertex
100
AcDb2dVertex
 10
8.787033953
 20
6.2762070961
 30
0.0
  0
VERTEX
  5
4AA
330
274
100
AcDbEntity
  8
0
  6
CONTINUOUS
 62
     7
100
AcDbVertex
100
AcDb2dVertex
 10
8.8008623103
 20
6.2751835802
 30
0.0
  0
VERTEX
  5
4AB
330
274
100
AcDbEntity
  8
0
  6
CONTINUOUS
 62
     7
100
AcDbVertex
100
AcDb2dVertex
 10
8.815488855
 20
6.2764977991
 30
0.0
  0
VERTEX
  5
4AC
330
274
100
AcDbEntity
  8
0
  6
CONTINUOUS
 62
     7
100
AcDbVertex
100
AcDb2dVertex
 10
8.8307233074
 20
6.280132656
 30
0.0
  0
VERTEX
  5
4AD
330
274
100
AcDbEntity
  8
0
  6
CONTINUOUS
 62
     7
100
AcDbVertex
100
AcDb2dVertex
 10
8.8463674791
 20
6.286040864
 30
0.0
  0
VERTEX
  5
4AE
330
274
100
AcDbEntity
  8
0
  6
CONTINUOUS
 62
     7
100
AcDbVertex
100
AcDb2dVertex
 10
8.8622178517
 20
6.2941455622
 30
0.0
  0
VERTEX
  5
4AF
330
274
100
AcDbEntity
  8
0
  6
CONTINUOUS
 62
     7
100
AcDbVertex
100
AcDb2dVertex
 10
8.8780682244
 20
6.3043413147
 30
0.0
  0
VERTEX
  5
4B0
330
274
100
AcDbEntity
  8
0
  6
CONTINUOUS
 62
     7
100
AcDbVertex
100
AcDb2dVertex
 10
8.8937123961
 20
6.3164954829
 30
0.0
  0
VERTEX
  5
4B1
330
274
100
AcDbEntity
  8
0
  6
CONTINUOUS
 62
     7
100
AcDbVertex
100
AcDb2dVertex
 10
8.9089468484
 20
6.3304499503
 30
0.0
  0
VERTEX
  5
4B2
330
274
100
AcDbEntity
  8
0
  6
CONTINUOUS
 62
     7
100
AcDbVertex
100
AcDb2dVertex
 10
8.9235733932
 20
6.3460231805
 30
0.0
  0
VERTEX
  5
4B3
330
274
100
AcDbEntity
  8
0
  6
CONTINUOUS
 62
     7
100
AcDbVertex
100
AcDb2dVertex
 10
8.9374017504
 20
6.3630125779
 30
0.0
  0
VERTEX
  5
4B4
330
274
100
AcDbEntity
  8
0
  6
CONTINUOUS
 62
     7
100
AcDbVertex
100
AcDb2dVertex
 10
8.9502520241
 20
6.3811971237
 30
0.0
  0
VERTEX
  5
4B5
330
274
100
AcDbEntity
  8
0
  6
CONTINUOUS
 62
     7
100
AcDbVertex
100
AcDb2dVertex
 10
8.9619570421
 20
6.4003402512
 30
0.0
  0
VERTEX
  5
4B6
330
274
100
AcDbEntity
  8
0
  6
CONTINUOUS
 62
     7
100
AcDbVertex
100
AcDb2dVertex
 10
8.9723645315
 20
6.4201929234
 30
0.0
  0
VERTEX
  5
4B7
330
274
100
AcDbEntity
  8
0
  6
CONTINUOUS
 62
     7
100
AcDbVertex
100
AcDb2dVertex
 10
8.9813390989
 20
6.4404968725
 30
0.0
  0
VERTEX
  5
4B8
330
274
100
AcDbEntity
  8
0
  6
CONTINUOUS
 62
     7
100
AcDbVertex
100
AcDb2dVertex
 10
8.9887639922
 20
6.4609879601
 30
0.0
  0
VERTEX
  5
4B9
330
274
100
AcDbEntity
  8
0
  6
CONTINUOUS
 62
     7
100
AcDbVertex
100
AcDb2dVertex
 10
8.9945426194
 20
6.4813996133
 30
0.0
  0
VERTEX
  5
4BA
330
274
100
AcDbEntity
  8
0
  6
CONTINUOUS
 62
     7
100
AcDbVertex
100
AcDb2dVertex
 10
8.9985998051
 20
6.5014662923
 30
0.0
  0
SEQEND
  5
4BB
330
274
100
AcDbEntity
  8
0
  6
CONTINUOUS
 62
     7
  0
SPLINE
  5
275
330
1F
100
AcDbEntity
  8
0
  6
CONTINUOUS
 62
     7
100
AcDbSpline
210
0.0
220
0.0
230
1.0
 70
     8
 71
     3
 72
     8
 73
     4
 74
     0
 42
0.00000001
 43
0.00000001
 40
0.0
 40
0.0
 40
0.0
 40
0.0
 40
1.0
 40
1.0
 40
1.0
 40
1.0
 10
8.998599805068464
 20
6.501466292283716
 30
0.0
 10
9.012867598591408
 20
6.501550348198839
 30
0.0
 10
9.027136000902056
 20
6.501621587388184
 30
0.0
 10
9.041404309252671
 20
6.501684563216491
 30
0.0
  0
ARC
  5
276
330
1F
100
AcDbEntity
  8
0
  6
CONTINUOUS
 62
     7
100
AcDbCircle
 10
8.9921154135
 20
6.1142273961
 30
0.0
 40
0.6190209764410206
100
AcDbArc
 50
60.1474715377
 51
66.3120183334
  0
LINE
  5
277
330
1F
100
AcDbEntity
  8
0
  6
CONTINUOUS
 62
     7
100
AcDbLine
 10
8.2947717177
 20
6.866671326
 30
0.0
 11
8.3751355544
 21
6.9130643814
 31
0.0
  0
LINE
  5
278
330
1F
100
AcDbEntity
  8
0
  6
CONTINUOUS
 62
     7
100
AcDbLine
 10
8.3751355544
 20
6.9130643814
 30
0.0
 11
8.3457203487
 21
6.9764384737
 31
0.0
  0
LINE
  5
279
330
1F
100
AcDbEntity
  8
0
  6
CONTINUOUS
 62
     7
100
AcDbLine
 10
8.3457203487
 20
6.9764384737
 30
0.0
 11
8.2359413062
 21
6.9934195105
 31
0.0
  0
LINE
  5
27A
330
1F
100
AcDbEntity
  8
0
  6
CONTINUOUS
 62
     7
100
AcDbLine
 10
8.2359413062
 20
6.9934195105
 30
0.0
 11
8.1555774695
 21
6.9470264551
 31
0.0
  0
LINE
  5
27B
330
1F
100
AcDbEntity
  8
0
  6
CONTINUOUS
 62
     7
100
AcDbLine
 10
8.1555774695
 20
6.9470264551
 30
0.0
 11
8.1849926752
 21
6.8836523628
 31
0.0
  0
LINE
  5
27C
330
1F
100
AcDbEntity
  8
0
  6
CONTINUOUS
 62
     7
100
AcDbLine
 10
8.1849926752
 20
6.8836523628
 30
0.0
 11
8.2947717177
 21
6.866671326
 31
0.0
  0
LINE
  5
27D
330
1F
100
AcDbEntity
  8
0
  6
CONTINUOUS
 62
     7
100
AcDbLine
 10
8.3457203487
 20
6.8960833446
 30
0.0
 11
8.3457203487
 21
6.9764384737
 31
0.0
  0
LINE
  5
27E
330
1F
100
AcDbEntity
  8
0
  6
CONTINUOUS
 62
     7
100
AcDbLine
 10
8.2359413062
 20
6.8757714362
 30
0.0
 11
8.2359413062
 21
6.9934195105
 31
0.0
  0
ARC
  5
27F
330
1F
100
AcDbEntity
  8
0
  6
CONTINUOUS
 62
     7
100
AcDbCircle
 10
8.316770974
 20
7.3843688953
 30
0.0
 40
0.2818793995747184
100
AcDbArc
 50
99.941334838
 51
149.5975676511
  0
ARC
  5
280
330
1F
100
AcDbEntity
  8
0
  6
CONTINUOUS
 62
     7
100
AcDbCircle
 10
7.784585577
 20
6.4625020381
 30
0.0
 40
0.281928723850605
100
AcDbArc
 50
150.3994243595
 51
200.0593841159
  0
ARC
  5
281
330
1F
100
AcDbEntity
  8
0
  6
CONTINUOUS
 62
     7
100
AcDbCircle
 10
7.5903797699
 20
6.5134319267
 30
0.0
 40
0.1338045493464115
100
AcDbArc
 50
177.6265229645
 51
210.262209117
  0
ARC
  5
282
330
1F
100
AcDbEntity
  8
0
  6
CONTINUOUS
 62
     7
100
AcDbCircle
 10
7.7942016522
 20
6.5022249656
 30
0.0
 40
0.3379269321841908
100
AcDbArc
 50
129.4127078502
 51
177.1591608325
  0
POLYLINE
  5
283
330
1F
100
AcDbEntity
  8
0
  6
CONTINUOUS
 62
     7
100
AcDb2dPolyline
 66
     1
 10
0.0
 20
0.0
 30
0.0
  0
VERTEX
  5
4BC
330
283
100
AcDbEntity
  8
0
  6
CONTINUOUS
 62
     7
100
AcDbVertex
100
AcDb2dVertex
 10
8.6805569214
 20
7.7307205365
 30
0.0
  0
VERTEX
  5
4BD
330
283
100
AcDbEntity
  8
0
  6
CONTINUOUS
 62
     7
100
AcDbVertex
100
AcDb2dVertex
 10
8.6714074129
 20
7.7390689539
 30
0.0
  0
VERTEX
  5
4BE
330
283
100
AcDbEntity
  8
0
  6
CONTINUOUS
 62
     7
100
AcDbVertex
100
AcDb2dVertex
 10
8.6488582774
 20
7.7573406214
 30
0.0
  0
VERTEX
  5
4BF
330
283
100
AcDbEntity
  8
0
  6
CONTINUOUS
 62
     7
100
AcDbVertex
100
AcDb2dVertex
 10
8.6250166637
 20
7.7735612779
 30
0.0
  0
VERTEX
  5
4C0
330
283
100
AcDbEntity
  8
0
  6
CONTINUOUS
 62
     7
100
AcDbVertex
100
AcDb2dVertex
 10
8.5999391215
 20
7.7876924498
 30
0.0
  0
VERTEX
  5
4C1
330
283
100
AcDbEntity
  8
0
  6
CONTINUOUS
 62
     7
100
AcDbVertex
100
AcDb2dVertex
 10
8.5736851319
 20
7.7997006195
 30
0.0
  0
VERTEX
  5
4C2
330
283
100
AcDbEntity
  8
0
  6
CONTINUOUS
 62
     7
100
AcDbVertex
100
AcDb2dVertex
 10
8.5463169665
 20
7.8095573049
 30
0.0
  0
VERTEX
  5
4C3
330
283
100
AcDbEntity
  8
0
  6
CONTINUOUS
 62
     7
100
AcDbVertex
100
AcDb2dVertex
 10
8.5178995395
 20
7.8172391272
 30
0.0
  0
VERTEX
  5
4C4
330
283
100
AcDbEntity
  8
0
  6
CONTINUOUS
 62
     7
100
AcDbVertex
100
AcDb2dVertex
 10
8.488500254
 20
7.8227278658
 30
0.0
  0
VERTEX
  5
4C5
330
283
100
AcDbEntity
  8
0
  6
CONTINUOUS
 62
     7
100
AcDbVertex
100
AcDb2dVertex
 10
8.4581888418
 20
7.8260105021
 30
0.0
  0
VERTEX
  5
4C6
330
283
100
AcDbEntity
  8
0
  6
CONTINUOUS
 62
     7
100
AcDbVertex
100
AcDb2dVertex
 10
8.4270371983
 20
7.82707925
 30
0.0
  0
VERTEX
  5
4C7
330
283
100
AcDbEntity
  8
0
  6
CONTINUOUS
 62
     7
100
AcDbVertex
100
AcDb2dVertex
 10
8.3951192116
 20
7.8259315746
 30
0.0
  0
VERTEX
  5
4C8
330
283
100
AcDbEntity
  8
0
  6
CONTINUOUS
 62
     7
100
AcDbVertex
100
AcDb2dVertex
 10
8.3625105877
 20
7.8225701981
 30
0.0
  0
VERTEX
  5
4C9
330
283
100
AcDbEntity
  8
0
  6
CONTINUOUS
 62
     7
100
AcDbVertex
100
AcDb2dVertex
 10
8.3292886707
 20
7.8170030932
 30
0.0
  0
VERTEX
  5
4CA
330
283
100
AcDbEntity
  8
0
  6
CONTINUOUS
 62
     7
100
AcDbVertex
100
AcDb2dVertex
 10
8.2955322594
 20
7.8092434645
 30
0.0
  0
VERTEX
  5
4CB
330
283
100
AcDbEntity
  8
0
  6
CONTINUOUS
 62
     7
100
AcDbVertex
100
AcDb2dVertex
 10
8.26132142
 20
7.799309717
 30
0.0
  0
VERTEX
  5
4CC
330
283
100
AcDbEntity
  8
0
  6
CONTINUOUS
 62
     7
100
AcDbVertex
100
AcDb2dVertex
 10
8.2267372971
 20
7.7872254124
 30
0.0
  0
VERTEX
  5
4CD
330
283
100
AcDbEntity
  8
0
  6
CONTINUOUS
 62
     7
100
AcDbVertex
100
AcDb2dVertex
 10
8.1918619203
 20
7.7730192134
 30
0.0
  0
VERTEX
  5
4CE
330
283
100
AcDbEntity
  8
0
  6
CONTINUOUS
 62
     7
100
AcDbVertex
100
AcDb2dVertex
 10
8.1567780102
 20
7.7567248155
 30
0.0
  0
VERTEX
  5
4CF
330
283
100
AcDbEntity
  8
0
  6
CONTINUOUS
 62
     7
100
AcDbVertex
100
AcDb2dVertex
 10
8.1215687819
 20
7.7383808673
 30
0.0
  0
VERTEX
  5
4D0
330
283
100
AcDbEntity
  8
0
  6
CONTINUOUS
 62
     7
100
AcDbVertex
100
AcDb2dVertex
 10
8.0863177478
 20
7.7180308785
 30
0.0
  0
VERTEX
  5
4D1
330
283
100
AcDbEntity
  8
0
  6
CONTINUOUS
 62
     7
100
AcDbVertex
100
AcDb2dVertex
 10
8.0511085195
 20
7.695723117
 30
0.0
  0
VERTEX
  5
4D2
330
283
100
AcDbEntity
  8
0
  6
CONTINUOUS
 62
     7
100
AcDbVertex
100
AcDb2dVertex
 10
8.0160246094
 20
7.6715104945
 30
0.0
  0
VERTEX
  5
4D3
330
283
100
AcDbEntity
  8
0
  6
CONTINUOUS
 62
     7
100
AcDbVertex
100
AcDb2dVertex
 10
7.9811492326
 20
7.6454504405
 30
0.0
  0
VERTEX
  5
4D4
330
283
100
AcDbEntity
  8
0
  6
CONTINUOUS
 62
     7
100
AcDbVertex
100
AcDb2dVertex
 10
7.9465651097
 20
7.6176047667
 30
0.0
  0
VERTEX
  5
4D5
330
283
100
AcDbEntity
  8
0
  6
CONTINUOUS
 62
     7
100
AcDbVertex
100
AcDb2dVertex
 10
7.9123542704
 20
7.5880395199
 30
0.0
  0
VERTEX
  5
4D6
330
283
100
AcDbEntity
  8
0
  6
CONTINUOUS
 62
     7
100
AcDbVertex
100
AcDb2dVertex
 10
7.878597859
 20
7.5568248256
 30
0.0
  0
VERTEX
  5
4D7
330
283
100
AcDbEntity
  8
0
  6
CONTINUOUS
 62
     7
100
AcDbVertex
100
AcDb2dVertex
 10
7.845375942
 20
7.5240347216
 30
0.0
  0
VERTEX
  5
4D8
330
283
100
AcDbEntity
  8
0
  6
CONTINUOUS
 62
     7
100
AcDbVertex
100
AcDb2dVertex
 10
7.8127673182
 20
7.4897469825
 30
0.0
  0
VERTEX
  5
4D9
330
283
100
AcDbEntity
  8
0
  6
CONTINUOUS
 62
     7
100
AcDbVertex
100
AcDb2dVertex
 10
7.7808493315
 20
7.4540429348
 30
0.0
  0
VERTEX
  5
4DA
330
283
100
AcDbEntity
  8
0
  6
CONTINUOUS
 62
     7
100
AcDbVertex
100
AcDb2dVertex
 10
7.7496976879
 20
7.4170072648
 30
0.0
  0
VERTEX
  5
4DB
330
283
100
AcDbEntity
  8
0
  6
CONTINUOUS
 62
     7
100
AcDbVertex
100
AcDb2dVertex
 10
7.7193862757
 20
7.3787278169
 30
0.0
  0
VERTEX
  5
4DC
330
283
100
AcDbEntity
  8
0
  6
CONTINUOUS
 62
     7
100
AcDbVertex
100
AcDb2dVertex
 10
7.6899869902
 20
7.3392953858
 30
0.0
  0
VERTEX
  5
4DD
330
283
100
AcDbEntity
  8
0
  6
CONTINUOUS
 62
     7
100
AcDbVertex
100
AcDb2dVertex
 10
7.6615695633
 20
7.2988035007
 30
0.0
  0
VERTEX
  5
4DE
330
283
100
AcDbEntity
  8
0
  6
CONTINUOUS
 62
     7
100
AcDbVertex
100
AcDb2dVertex
 10
7.6342013979
 20
7.2573482041
 30
0.0
  0
VERTEX
  5
4DF
330
283
100
AcDbEntity
  8
0
  6
CONTINUOUS
 62
     7
100
AcDbVertex
100
AcDb2dVertex
 10
7.6079474083
 20
7.2150278232
 30
0.0
  0
VERTEX
  5
4E0
330
283
100
AcDbEntity
  8
0
  6
CONTINUOUS
 62
     7
100
AcDbVertex
100
AcDb2dVertex
 10
7.582869866
 20
7.1719427374
 30
0.0
  0
VERTEX
  5
4E1
330
283
100
AcDbEntity
  8
0
  6
CONTINUOUS
 62
     7
100
AcDbVertex
100
AcDb2dVertex
 10
7.5590282523
 20
7.1281951397
 30
0.0
  0
VERTEX
  5
4E2
330
283
100
AcDbEntity
  8
0
  6
CONTINUOUS
 62
     7
100
AcDbVertex
100
AcDb2dVertex
 10
7.5364791169
 20
7.0838887945
 30
0.0
  0
VERTEX
  5
4E3
330
283
100
AcDbEntity
  8
0
  6
CONTINUOUS
 62
     7
100
AcDbVertex
100
AcDb2dVertex
 10
7.5152759436
 20
7.0391287917
 30
0.0
  0
VERTEX
  5
4E4
330
283
100
AcDbEntity
  8
0
  6
CONTINUOUS
 62
     7
100
AcDbVertex
100
AcDb2dVertex
 10
7.4954690243
 20
6.9940212969
 30
0.0
  0
VERTEX
  5
4E5
330
283
100
AcDbEntity
  8
0
  6
CONTINUOUS
 62
     7
100
AcDbVertex
100
AcDb2dVertex
 10
7.4771053386
 20
6.9486733003
 30
0.0
  0
VERTEX
  5
4E6
330
283
100
AcDbEntity
  8
0
  6
CONTINUOUS
 62
     7
100
AcDbVertex
100
AcDb2dVertex
 10
7.4602284432
 20
6.9031923623
 30
0.0
  0
VERTEX
  5
4E7
330
283
100
AcDbEntity
  8
0
  6
CONTINUOUS
 62
     7
100
AcDbVertex
100
AcDb2dVertex
 10
7.4448783682
 20
6.8576863585
 30
0.0
  0
VERTEX
  5
4E8
330
283
100
AcDbEntity
  8
0
  6
CONTINUOUS
 62
     7
100
AcDbVertex
100
AcDb2dVertex
 10
7.4310915224
 20
6.8122632242
 30
0.0
  0
VERTEX
  5
4E9
330
283
100
AcDbEntity
  8
0
  6
CONTINUOUS
 62
     7
100
AcDbVertex
100
AcDb2dVertex
 10
7.4189006066
 20
6.7670306982
 30
0.0
  0
VERTEX
  5
4EA
330
283
100
AcDbEntity
  8
0
  6
CONTINUOUS
 62
     7
100
AcDbVertex
100
AcDb2dVertex
 10
7.4083345362
 20
6.7220960668
 30
0.0
  0
VERTEX
  5
4EB
330
283
100
AcDbEntity
  8
0
  6
CONTINUOUS
 62
     7
100
AcDbVertex
100
AcDb2dVertex
 10
7.3994183729
 20
6.6775659102
 30
0.0
  0
VERTEX
  5
4EC
330
283
100
AcDbEntity
  8
0
  6
CONTINUOUS
 62
     7
100
AcDbVertex
100
AcDb2dVertex
 10
7.3921732649
 20
6.6335458488
 30
0.0
  0
VERTEX
  5
4ED
330
283
100
AcDbEntity
  8
0
  6
CONTINUOUS
 62
     7
100
AcDbVertex
100
AcDb2dVertex
 10
7.3866163966
 20
6.5901402935
 30
0.0
  0
VERTEX
  5
4EE
330
283
100
AcDbEntity
  8
0
  6
CONTINUOUS
 62
     7
100
AcDbVertex
100
AcDb2dVertex
 10
7.3827609484
 20
6.5474521975
 30
0.0
  0
VERTEX
  5
4EF
330
283
100
AcDbEntity
  8
0
  6
CONTINUOUS
 62
     7
100
AcDbVertex
100
AcDb2dVertex
 10
7.380616065
 20
6.5055828121
 30
0.0
  0
VERTEX
  5
4F0
330
283
100
AcDbEntity
  8
0
  6
CONTINUOUS
 62
     7
100
AcDbVertex
100
AcDb2dVertex
 10
7.3801868338
 20
6.4646314469
 30
0.0
  0
VERTEX
  5
4F1
330
283
100
AcDbEntity
  8
0
  6
CONTINUOUS
 62
     7
100
AcDbVertex
100
AcDb2dVertex
 10
7.3814742728
 20
6.4246952341
 30
0.0
  0
VERTEX
  5
4F2
330
283
100
AcDbEntity
  8
0
  6
CONTINUOUS
 62
     7
100
AcDbVertex
100
AcDb2dVertex
 10
7.3844753285
 20
6.3858688979
 30
0.0
  0
VERTEX
  5
4F3
330
283
100
AcDbEntity
  8
0
  6
CONTINUOUS
 62
     7
100
AcDbVertex
100
AcDb2dVertex
 10
7.3891828827
 20
6.3482445301
 30
0.0
  0
VERTEX
  5
4F4
330
283
100
AcDbEntity
  8
0
  6
CONTINUOUS
 62
     7
100
AcDbVertex
100
AcDb2dVertex
 10
7.3955857695
 20
6.3119113715
 30
0.0
  0
VERTEX
  5
4F5
330
283
100
AcDbEntity
  8
0
  6
CONTINUOUS
 62
     7
100
AcDbVertex
100
AcDb2dVertex
 10
7.4036688021
 20
6.2769556005
 30
0.0
  0
VERTEX
  5
4F6
330
283
100
AcDbEntity
  8
0
  6
CONTINUOUS
 62
     7
100
AcDbVertex
100
AcDb2dVertex
 10
7.4134128083
 20
6.2434601281
 30
0.0
  0
VERTEX
  5
4F7
330
283
100
AcDbEntity
  8
0
  6
CONTINUOUS
 62
     7
100
AcDbVertex
100
AcDb2dVertex
 10
7.4247946764
 20
6.211504402
 30
0.0
  0
VERTEX
  5
4F8
330
283
100
AcDbEntity
  8
0
  6
CONTINUOUS
 62
     7
100
AcDbVertex
100
AcDb2dVertex
 10
7.43778741
 20
6.1811642177
 30
0.0
  0
VERTEX
  5
4F9
330
283
100
AcDbEntity
  8
0
  6
CONTINUOUS
 62
     7
100
AcDbVertex
100
AcDb2dVertex
 10
7.4523601917
 20
6.1525115386
 30
0.0
  0
VERTEX
  5
4FA
330
283
100
AcDbEntity
  8
0
  6
CONTINUOUS
 62
     7
100
AcDbVertex
100
AcDb2dVertex
 10
7.4684784564
 20
6.1256143259
 30
0.0
  0
VERTEX
  5
4FB
330
283
100
AcDbEntity
  8
0
  6
CONTINUOUS
 62
     7
100
AcDbVertex
100
AcDb2dVertex
 10
7.4861039734
 20
6.1005363766
 30
0.0
  0
VERTEX
  5
4FC
330
283
100
AcDbEntity
  8
0
  6
CONTINUOUS
 62
     7
100
AcDbVertex
100
AcDb2dVertex
 10
7.505194937
 20
6.0773371729
 30
0.0
  0
VERTEX
  5
4FD
330
283
100
AcDbEntity
  8
0
  6
CONTINUOUS
 62
     7
100
AcDbVertex
100
AcDb2dVertex
 10
7.5257060655
 20
6.0560717408
 30
0.0
  0
VERTEX
  5
4FE
330
283
100
AcDbEntity
  8
0
  6
CONTINUOUS
 62
     7
100
AcDbVertex
100
AcDb2dVertex
 10
7.5475887087
 20
6.0367905196
 30
0.0
  0
VERTEX
  5
4FF
330
283
100
AcDbEntity
  8
0
  6
CONTINUOUS
 62
     7
100
AcDbVertex
100
AcDb2dVertex
 10
7.5707909635
 20
6.019539242
 30
0.0
  0
VERTEX
  5
500
330
283
100
AcDbEntity
  8
0
  6
CONTINUOUS
 62
     7
100
AcDbVertex
100
AcDb2dVertex
 10
7.5952577966
 20
6.0043588264
 30
0.0
  0
VERTEX
  5
501
330
283
100
AcDbEntity
  8
0
  6
CONTINUOUS
 62
     7
100
AcDbVertex
100
AcDb2dVertex
 10
7.6209311754
 20
5.9912852789
 30
0.0
  0
VERTEX
  5
502
330
283
100
AcDbEntity
  8
0
  6
CONTINUOUS
 62
     7
100
AcDbVertex
100
AcDb2dVertex
 10
7.6477502056
 20
5.9803496086
 30
0.0
  0
VERTEX
  5
503
330
283
100
AcDbEntity
  8
0
  6
CONTINUOUS
 62
     7
100
AcDbVertex
100
AcDb2dVertex
 10
7.6665238566
 20
5.9741734222
 30
0.0
  0
SEQEND
  5
504
330
283
100
AcDbEntity
  8
0
  6
CONTINUOUS
 62
     7
  0
ARC
  5
284
330
1F
100
AcDbEntity
  8
0
  6
CONTINUOUS
 62
     7
100
AcDbCircle
 10
8.2380178779
 20
7.3818934104
 30
0.0
 40
0.2857164938355922
100
AcDbArc
 50
102.501023336
 51
174.0692071041
  0
SPLINE
  5
285
330
1F
100
AcDbEntity
  8
0
  6
CONTINUOUS
 62
     7
100
AcDbSpline
210
0.0
220
0.0
230
1.0
 70
     8
 71
     3
 72
    23
 73
    19
 74
     0
 42
0.00000001
 43
0.00000001
 40
0.0
 40
0.0
 40
0.0
 40
0.0
 40
0.042429917171991
 40
0.1080801878434697
 40
0.2062310072900256
 40
0.306477704029869
 40
0.3716372398733773
 40
0.4382092265058138
 40
0.4900785159525271
 40
0.5433450940549214
 40
0.5952732720707176
 40
0.6489170806352746
 40
0.69815750393459
 40
0.7484077357571514
 40
0.8301087016699457
 40
0.9140603062052046
 40
0.9756820380044116
 40
1.0
 40
1.0
 40
1.0
 40
1.0
 10
8.29272296104606
 20
7.965499169993517
 30
0.0
 10
8.288060279941357
 20
7.968193028864528
 30
0.0
 10
8.276183201614579
 20
7.975054997781941
 30
0.0
 10
8.251857193277965
 20
7.988100919038247
 30
0.0
 10
8.219156251772437
 20
8.004791874186925
 30
0.0
 10
8.184711904511737
 20
8.021573029311142
 30
0.0
 10
8.15387420295682
 20
8.036518784828438
 30
0.0
 10
8.129599343101457
 20
8.048475371062722
 30
0.0
 10
8.107787584526482
 20
8.0596283605376
 30
0.0
 10
8.089199561649261
 20
8.069632578759819
 30
0.0
 10
8.07253968269847
 20
8.079248061681207
 30
0.0
 10
8.05892778209777
 20
8.087821015184907
 30
0.0
 10
8.048179760717103
 20
8.095295502321777
 30
0.0
 10
8.038429016730337
 20
8.102864948672858
 30
0.0
 10
8.030950987027765
 20
8.109865719522064
 30
0.0
 10
8.027607348199606
 20
8.114450936050897
 30
0.0
 10
8.026986731416667
 20
8.116542498876427
 30
0.0
 10
8.027721542784302
 20
8.11670494194145
 30
0.0
 10
8.027929468995382
 20
8.116750907712413
 30
0.0
  0
SPLINE
  5
286
330
1F
100
AcDbEntity
  8
0
  6
CONTINUOUS
 62
     7
100
AcDbSpline
210
0.0
220
0.0
230
1.0
 70
     8
 71
     3
 72
    48
 73
    44
 74
     0
 42
0.00000001
 43
0.00000001
 40
-0.0624999999999999
 40
-0.0624999999999999
 40
0.0
 40
0.0
 40
0.0312500000000001
 40
0.0312500000000001
 40
0.0625000000000001
 40
0.0625000000000001
 40
0.0937500000000002
 40
0.0937500000000002
 40
0.1250000000000002
 40
0.1250000000000002
 40
0.1875000000000006
 40
0.1875000000000006
 40
0.250000000000001
 40
0.250000000000001
 40
0.3125000000000012
 40
0.3125000000000012
 40
0.3750000000000013
 40
0.3750000000000013
 40
0.4375000000000015
 40
0.4375000000000015
 40
0.4687500000000014
 40
0.4687500000000014
 40
0.5000000000000012
 40
0.5000000000000012
 40
0.5312500000000011
 40
0.5312500000000011
 40
0.5625000000000009
 40
0.5625000000000009
 40
0.5937500000000007
 40
0.5937500000000007
 40
0.6250000000000006
 40
0.6250000000000006
 40
0.7500000000000004
 40
0.7500000000000004
 40
0.8125000000000002
 40
0.8125000000000002
 40
0.875
 40
0.875
 40
0.90625
 40
0.90625
 40
0.9375000000000001
 40
0.9375000000000001
 40
1.0
 40
1.0
 40
1.03125
 40
1.03125
 10
7.154134560683874
 20
7.444580797697948
 30
0.0
 10
7.135367786527956
 20
7.455414625813645
 30
0.0
 10
7.12859999000184
 20
7.457713020751636
 30
0.0
 10
7.114165305362223
 20
7.459958135020008
 30
0.0
 10
7.10658836217687
 20
7.459856188354533
 30
0.0
 10
7.091529723025909
 20
7.457625059280645
 30
0.0
 10
7.083907355535175
 20
7.455476701092827
 30
0.0
 10
7.069239196484425
 20
7.449691159204546
 30
0.0
 10
7.062104199983908
 20
7.446045071187661
 30
0.0
 10
7.041270393074645
 20
7.433136841198561
 30
0.0
 10
7.028618619553028
 20
7.422235840372313
 30
0.0
 10
7.006162482246375
 20
7.397053768278494
 30
0.0
 10
6.996412604549297
 20
7.38275453293769
 30
0.0
 10
6.980909553029127
 20
7.352053704509621
 30
0.0
 10
6.975045015472355
 20
7.335327493827301
 30
0.0
 10
6.968417779352404
 20
7.301456043884103
 30
0.0
 10
6.967556323256257
 20
7.283648082956003
 30
0.0
 10
6.971773999925389
 20
7.249713100074787
 30
0.0
 10
6.976911572030287
 20
7.233281846907046
 30
0.0
 10
6.988744634425525
 20
7.212497860564172
 30
0.0
 10
6.993465086344444
 20
7.206069570600486
 30
0.0
 10
7.003853694438897
 20
7.195146121311332
 30
0.0
 10
7.009591344619484
 20
7.190526593875196
 30
0.0
 10
7.022022479443067
 20
7.183215937606583
 30
0.0
 10
7.028495562744726
 20
7.180642184910307
 30
0.0
 10
7.041949802420532
 20
7.177576804925424
 30
0.0
 10
7.048911147789426
 20
7.177127162431297
 30
0.0
 10
7.062638655874692
 20
7.178316565199458
 30
0.0
 10
7.069576308284526
 20
7.179970021551306
 30
0.0
 10
7.082976963127941
 20
7.185102546953599
 30
0.0
 10
7.08946388716863
 20
7.188558525938147
 30
0.0
 10
7.121025049753791
 20
7.209971214236868
 30
0.0
 10
7.141335326712881
 20
7.238808925723839
 30
0.0
 10
7.162339843670035
 20
7.286463958304092
 30
0.0
 10
7.16785364753505
 20
7.303291599799644
 30
0.0
 10
7.175392227175691
 20
7.337156135599287
 30
0.0
 10
7.177467383838196
 20
7.354163477058826
 30
0.0
 10
7.177232591827009
 20
7.379355988328387
 30
0.0
 10
7.176586203010074
 20
7.387530084520763
 30
0.0
 10
7.17392726498454
 20
7.403381739640722
 30
0.0
 10
7.171877469905011
 20
7.411139929185483
 30
0.0
 10
7.163328437192011
 20
7.432510299566871
 30
0.0
 10
7.154134560683874
 20
7.444580797697948
 30
0.0
 10
7.135367786527956
 20
7.455414625813645
 30
0.0
  0
POLYLINE
  5
287
330
1F
100
AcDbEntity
  8
0
  6
CONTINUOUS
 62
     7
100
AcDb2dPolyline
 66
     1
 10
0.0
 20
0.0
 30
0.0
  0
VERTEX
  5
505
330
287
100
AcDbEntity
  8
0
  6
CONTINUOUS
 62
     7
100
AcDbVertex
100
AcDb2dVertex
 10
7.2882937791
 20
6.2659676139
 30
0.0
  0
VERTEX
  5
506
330
287
100
AcDbEntity
  8
0
  6
CONTINUOUS
 62
     7
100
AcDbVertex
100
AcDb2dVertex
 10
7.2751685364
 20
6.2962458247
 30
0.0
  0
VERTEX
  5
507
330
287
100
AcDbEntity
  8
0
  6
CONTINUOUS
 62
     7
100
AcDbVertex
100
AcDb2dVertex
 10
7.2636577302
 20
6.3281501873
 30
0.0
  0
VERTEX
  5
508
330
287
100
AcDbEntity
  8
0
  6
CONTINUOUS
 62
     7
100
AcDbVertex
100
AcDb2dVertex
 10
7.2537887572
 20
6.3616047672
 30
0.0
  0
VERTEX
  5
509
330
287
100
AcDbEntity
  8
0
  6
CONTINUOUS
 62
     7
100
AcDbVertex
100
AcDb2dVertex
 10
7.2455851061
 20
6.3965299401
 30
0.0
  0
VERTEX
  5
50A
330
287
100
AcDbEntity
  8
0
  6
CONTINUOUS
 62
     7
100
AcDbVertex
100
AcDb2dVertex
 10
7.2390663021
 20
6.4328425817
 30
0.0
  0
VERTEX
  5
50B
330
287
100
AcDbEntity
  8
0
  6
CONTINUOUS
 62
     7
100
AcDbVertex
100
AcDb2dVertex
 10
7.2342478606
 20
6.4704562654
 30
0.0
  0
VERTEX
  5
50C
330
287
100
AcDbEntity
  8
0
  6
CONTINUOUS
 62
     7
100
AcDbVertex
100
AcDb2dVertex
 10
7.2311412496
 20
6.5092814681
 30
0.0
  0
VERTEX
  5
50D
330
287
100
AcDbEntity
  8
0
  6
CONTINUOUS
 62
     7
100
AcDbVertex
100
AcDb2dVertex
 10
7.2297538632
 20
6.549225783
 30
0.0
  0
VERTEX
  5
50E
330
287
100
AcDbEntity
  8
0
  6
CONTINUOUS
 62
     7
100
AcDbVertex
100
AcDb2dVertex
 10
7.2300890034
 20
6.59019414
 30
0.0
  0
VERTEX
  5
50F
330
287
100
AcDbEntity
  8
0
  6
CONTINUOUS
 62
     7
100
AcDbVertex
100
AcDb2dVertex
 10
7.2321458726
 20
6.6320890316
 30
0.0
  0
VERTEX
  5
510
330
287
100
AcDbEntity
  8
0
  6
CONTINUOUS
 62
     7
100
AcDbVertex
100
AcDb2dVertex
 10
7.2359195753
 20
6.6748107449
 30
0.0
  0
VERTEX
  5
511
330
287
100
AcDbEntity
  8
0
  6
CONTINUOUS
 62
     7
100
AcDbVertex
100
AcDb2dVertex
 10
7.2414011297
 20
6.7182575995
 30
0.0
  0
VERTEX
  5
512
330
287
100
AcDbEntity
  8
0
  6
CONTINUOUS
 62
     7
100
AcDbVertex
100
AcDb2dVertex
 10
7.2485774895
 20
6.7623261887
 30
0.0
  0
VERTEX
  5
513
330
287
100
AcDbEntity
  8
0
  6
CONTINUOUS
 62
     7
100
AcDbVertex
100
AcDb2dVertex
 10
7.2574315744
 20
6.8069116263
 30
0.0
  0
VERTEX
  5
514
330
287
100
AcDbEntity
  8
0
  6
CONTINUOUS
 62
     7
100
AcDbVertex
100
AcDb2dVertex
 10
7.2679423111
 20
6.8519077959
 30
0.0
  0
VERTEX
  5
515
330
287
100
AcDbEntity
  8
0
  6
CONTINUOUS
 62
     7
100
AcDbVertex
100
AcDb2dVertex
 10
7.2800846832
 20
6.8972076035
 30
0.0
  0
VERTEX
  5
516
330
287
100
AcDbEntity
  8
0
  6
CONTINUOUS
 62
     7
100
AcDbVertex
100
AcDb2dVertex
 10
7.2938297912
 20
6.9427032324
 30
0.0
  0
VERTEX
  5
517
330
287
100
AcDbEntity
  8
0
  6
CONTINUOUS
 62
     7
100
AcDbVertex
100
AcDb2dVertex
 10
7.3091449206
 20
6.9882863999
 30
0.0
  0
VERTEX
  5
518
330
287
100
AcDbEntity
  8
0
  6
CONTINUOUS
 62
     7
100
AcDbVertex
100
AcDb2dVertex
 10
7.3259936205
 20
7.0338486148
 30
0.0
  0
VERTEX
  5
519
330
287
100
AcDbEntity
  8
0
  6
CONTINUOUS
 62
     7
100
AcDbVertex
100
AcDb2dVertex
 10
7.3443357898
 20
7.0792814361
 30
0.0
  0
VERTEX
  5
51A
330
287
100
AcDbEntity
  8
0
  6
CONTINUOUS
 62
     7
100
AcDbVertex
100
AcDb2dVertex
 10
7.3641277727
 20
7.1244767303
 30
0.0
  0
VERTEX
  5
51B
330
287
100
AcDbEntity
  8
0
  6
CONTINUOUS
 62
     7
100
AcDbVertex
100
AcDb2dVertex
 10
7.3853224632
 20
7.1693269297
 30
0.0
  0
VERTEX
  5
51C
330
287
100
AcDbEntity
  8
0
  6
CONTINUOUS
 62
     7
100
AcDbVertex
100
AcDb2dVertex
 10
7.4078694162
 20
7.2137252876
 30
0.0
  0
VERTEX
  5
51D
330
287
100
AcDbEntity
  8
0
  6
CONTINUOUS
 62
     7
100
AcDbVertex
100
AcDb2dVertex
 10
7.4317149686
 20
7.2575661329
 30
0.0
  0
VERTEX
  5
51E
330
287
100
AcDbEntity
  8
0
  6
CONTINUOUS
 62
     7
100
AcDbVertex
100
AcDb2dVertex
 10
7.4568023662
 20
7.3007451214
 30
0.0
  0
VERTEX
  5
51F
330
287
100
AcDbEntity
  8
0
  6
CONTINUOUS
 62
     7
100
AcDbVertex
100
AcDb2dVertex
 10
7.4830718994
 20
7.343159484
 30
0.0
  0
VERTEX
  5
520
330
287
100
AcDbEntity
  8
0
  6
CONTINUOUS
 62
     7
100
AcDbVertex
100
AcDb2dVertex
 10
7.5104610447
 20
7.3847082717
 30
0.0
  0
VERTEX
  5
521
330
287
100
AcDbEntity
  8
0
  6
CONTINUOUS
 62
     7
100
AcDbVertex
100
AcDb2dVertex
 10
7.5389046143
 20
7.4252925955
 30
0.0
  0
VERTEX
  5
522
330
287
100
AcDbEntity
  8
0
  6
CONTINUOUS
 62
     7
100
AcDbVertex
100
AcDb2dVertex
 10
7.5683349103
 20
7.4648158618
 30
0.0
  0
VERTEX
  5
523
330
287
100
AcDbEntity
  8
0
  6
CONTINUOUS
 62
     7
100
AcDbVertex
100
AcDb2dVertex
 10
7.5986818867
 20
7.5031840027
 30
0.0
  0
VERTEX
  5
524
330
287
100
AcDbEntity
  8
0
  6
CONTINUOUS
 62
     7
100
AcDbVertex
100
AcDb2dVertex
 10
7.6298733156
 20
7.5403056992
 30
0.0
  0
VERTEX
  5
525
330
287
100
AcDbEntity
  8
0
  6
CONTINUOUS
 62
     7
100
AcDbVertex
100
AcDb2dVertex
 10
7.6618349592
 20
7.5760925992
 30
0.0
  0
VERTEX
  5
526
330
287
100
AcDbEntity
  8
0
  6
CONTINUOUS
 62
     7
100
AcDbVertex
100
AcDb2dVertex
 10
7.6944907466
 20
7.6104595274
 30
0.0
  0
VERTEX
  5
527
330
287
100
AcDbEntity
  8
0
  6
CONTINUOUS
 62
     7
100
AcDbVertex
100
AcDb2dVertex
 10
7.7277629548
 20
7.6433246881
 30
0.0
  0
VERTEX
  5
528
330
287
100
AcDbEntity
  8
0
  6
CONTINUOUS
 62
     7
100
AcDbVertex
100
AcDb2dVertex
 10
7.7615723936
 20
7.6746098599
 30
0.0
  0
VERTEX
  5
529
330
287
100
AcDbEntity
  8
0
  6
CONTINUOUS
 62
     7
100
AcDbVertex
100
AcDb2dVertex
 10
7.7958385942
 20
7.7042405821
 30
0.0
  0
VERTEX
  5
52A
330
287
100
AcDbEntity
  8
0
  6
CONTINUOUS
 62
     7
100
AcDbVertex
100
AcDb2dVertex
 10
7.8304800007
 20
7.7321463313
 30
0.0
  0
VERTEX
  5
52B
330
287
100
AcDbEntity
  8
0
  6
CONTINUOUS
 62
     7
100
AcDbVertex
100
AcDb2dVertex
 10
7.8654141642
 20
7.7582606901
 30
0.0
  0
VERTEX
  5
52C
330
287
100
AcDbEntity
  8
0
  6
CONTINUOUS
 62
     7
100
AcDbVertex
100
AcDb2dVertex
 10
7.9005579389
 20
7.7825215045
 30
0.0
  0
VERTEX
  5
52D
330
287
100
AcDbEntity
  8
0
  6
CONTINUOUS
 62
     7
100
AcDbVertex
100
AcDb2dVertex
 10
7.9358276803
 20
7.804871032
 30
0.0
  0
VERTEX
  5
52E
330
287
100
AcDbEntity
  8
0
  6
CONTINUOUS
 62
     7
100
AcDbVertex
100
AcDb2dVertex
 10
7.9711394439
 20
7.8252560792
 30
0.0
  0
VERTEX
  5
52F
330
287
100
AcDbEntity
  8
0
  6
CONTINUOUS
 62
     7
100
AcDbVertex
100
AcDb2dVertex
 10
8.0064091853
 20
7.8436281283
 30
0.0
  0
VERTEX
  5
530
330
287
100
AcDbEntity
  8
0
  6
CONTINUOUS
 62
     7
100
AcDbVertex
100
AcDb2dVertex
 10
8.04155296
 20
7.8599434526
 30
0.0
  0
VERTEX
  5
531
330
287
100
AcDbEntity
  8
0
  6
CONTINUOUS
 62
     7
100
AcDbVertex
100
AcDb2dVertex
 10
8.0764871235
 20
7.8741632204
 30
0.0
  0
VERTEX
  5
532
330
287
100
AcDbEntity
  8
0
  6
CONTINUOUS
 62
     7
100
AcDbVertex
100
AcDb2dVertex
 10
8.11112853
 20
7.8862535877
 30
0.0
  0
VERTEX
  5
533
330
287
100
AcDbEntity
  8
0
  6
CONTINUOUS
 62
     7
100
AcDbVertex
100
AcDb2dVertex
 10
8.1453947306
 20
7.8961857787
 30
0.0
  0
VERTEX
  5
534
330
287
100
AcDbEntity
  8
0
  6
CONTINUOUS
 62
     7
100
AcDbVertex
100
AcDb2dVertex
 10
8.1792041694
 20
7.903936154
 30
0.0
  0
VERTEX
  5
535
330
287
100
AcDbEntity
  8
0
  6
CONTINUOUS
 62
     7
100
AcDbVertex
100
AcDb2dVertex
 10
8.2124763776
 20
7.9094862672
 30
0.0
  0
VERTEX
  5
536
330
287
100
AcDbEntity
  8
0
  6
CONTINUOUS
 62
     7
100
AcDbVertex
100
AcDb2dVertex
 10
8.245132165
 20
7.9128229086
 30
0.0
  0
VERTEX
  5
537
330
287
100
AcDbEntity
  8
0
  6
CONTINUOUS
 62
     7
100
AcDbVertex
100
AcDb2dVertex
 10
8.2770938086
 20
7.9139381368
 30
0.0
  0
VERTEX
  5
538
330
287
100
AcDbEntity
  8
0
  6
CONTINUOUS
 62
     7
100
AcDbVertex
100
AcDb2dVertex
 10
8.3082852375
 20
7.9128292975
 30
0.0
  0
VERTEX
  5
539
330
287
100
AcDbEntity
  8
0
  6
CONTINUOUS
 62
     7
100
AcDbVertex
100
AcDb2dVertex
 10
8.3386322139
 20
7.9094990298
 30
0.0
  0
VERTEX
  5
53A
330
287
100
AcDbEntity
  8
0
  6
CONTINUOUS
 62
     7
100
AcDbVertex
100
AcDb2dVertex
 10
8.3680625099
 20
7.90395526
 30
0.0
  0
VERTEX
  5
53B
330
287
100
AcDbEntity
  8
0
  6
CONTINUOUS
 62
     7
100
AcDbVertex
100
AcDb2dVertex
 10
8.3965060795
 20
7.8962111826
 30
0.0
  0
VERTEX
  5
53C
330
287
100
AcDbEntity
  8
0
  6
CONTINUOUS
 62
     7
100
AcDbVertex
100
AcDb2dVertex
 10
8.4238952248
 20
7.886285229
 30
0.0
  0
VERTEX
  5
53D
330
287
100
AcDbEntity
  8
0
  6
CONTINUOUS
 62
     7
100
AcDbVertex
100
AcDb2dVertex
 10
8.450164758
 20
7.8742010238
 30
0.0
  0
VERTEX
  5
53E
330
287
100
AcDbEntity
  8
0
  6
CONTINUOUS
 62
     7
100
AcDbVertex
100
AcDb2dVertex
 10
8.4652529922
 20
7.865989791
 30
0.0
  0
SEQEND
  5
53F
330
287
100
AcDbEntity
  8
0
  6
CONTINUOUS
 62
     7
  0
ARC
  5
288
330
1F
100
AcDbEntity
  8
0
  6
CONTINUOUS
 62
     7
100
AcDbCircle
 10
8.1757732538
 20
7.4787025868
 30
0.0
 40
0.477654268830869
100
AcDbArc
 50
58.2971712704
 51
124.2299179103
  0
LINE
  5
289
330
1F
100
AcDbEntity
  8
0
  6
CONTINUOUS
 62
     7
100
AcDbLine
 10
7.5127017759
 20
8.1012937739
 30
0.0
 11
7.9070854794
 21
7.873620908
 31
0.0
  0
ARC
  5
28A
330
1F
100
AcDbEntity
  8
0
  6
CONTINUOUS
 62
     7
100
AcDbCircle
 10
7.7861063117
 20
7.6869847981
 30
0.0
 40
0.4963889277012945
100
AcDbArc
 50
64.9053343878
 51
123.4210167162
  0
POLYLINE
  5
28B
330
1F
100
AcDbEntity
  8
0
  6
CONTINUOUS
 62
     7
100
AcDb2dPolyline
 66
     1
 10
0.0
 20
0.0
 30
0.0
  0
VERTEX
  5
540
330
28B
100
AcDbEntity
  8
0
  6
CONTINUOUS
 62
     7
100
AcDbVertex
100
AcDb2dVertex
 10
6.9730934962
 20
6.3635053066
 30
0.0
  0
VERTEX
  5
541
330
28B
100
AcDbEntity
  8
0
  6
CONTINUOUS
 62
     7
100
AcDbVertex
100
AcDb2dVertex
 10
6.9535501386
 20
6.3756838893
 30
0.0
  0
VERTEX
  5
542
330
28B
100
AcDbEntity
  8
0
  6
CONTINUOUS
 62
     7
100
AcDbVertex
100
AcDb2dVertex
 10
6.9303511337
 20
6.3926950921
 30
0.0
  0
VERTEX
  5
543
330
28B
100
AcDbEntity
  8
0
  6
CONTINUOUS
 62
     7
100
AcDbVertex
100
AcDb2dVertex
 10
6.9084554856
 20
6.4117213826
 30
0.0
  0
VERTEX
  5
544
330
28B
100
AcDbEntity
  8
0
  6
CONTINUOUS
 62
     7
100
AcDbVertex
100
AcDb2dVertex
 10
6.8879146592
 20
6.4327180404
 30
0.0
  0
VERTEX
  5
545
330
28B
100
AcDbEntity
  8
0
  6
CONTINUOUS
 62
     7
100
AcDbVertex
100
AcDb2dVertex
 10
6.8687769349
 20
6.4556357136
 30
0.0
  0
VERTEX
  5
546
330
28B
100
AcDbEntity
  8
0
  6
CONTINUOUS
 62
     7
100
AcDbVertex
100
AcDb2dVertex
 10
6.8510872951
 20
6.4804205353
 30
0.0
  0
VERTEX
  5
547
330
28B
100
AcDbEntity
  8
0
  6
CONTINUOUS
 62
     7
100
AcDbVertex
100
AcDb2dVertex
 10
6.8348873185
 20
6.5070142497
 30
0.0
  0
VERTEX
  5
548
330
28B
100
AcDbEntity
  8
0
  6
CONTINUOUS
 62
     7
100
AcDbVertex
100
AcDb2dVertex
 10
6.8202150825
 20
6.5353543494
 30
0.0
  0
VERTEX
  5
549
330
28B
100
AcDbEntity
  8
0
  6
CONTINUOUS
 62
     7
100
AcDbVertex
100
AcDb2dVertex
 10
6.8071050736
 20
6.5653742222
 30
0.0
  0
VERTEX
  5
54A
330
28B
100
AcDbEntity
  8
0
  6
CONTINUOUS
 62
     7
100
AcDbVertex
100
AcDb2dVertex
 10
6.7955881063
 20
6.5970033077
 30
0.0
  0
VERTEX
  5
54B
330
28B
100
AcDbEntity
  8
0
  6
CONTINUOUS
 62
     7
100
AcDbVertex
100
AcDb2dVertex
 10
6.7856912508
 20
6.6301672629
 30
0.0
  0
VERTEX
  5
54C
330
28B
100
AcDbEntity
  8
0
  6
CONTINUOUS
 62
     7
100
AcDbVertex
100
AcDb2dVertex
 10
6.7774377692
 20
6.6647881374
 30
0.0
  0
VERTEX
  5
54D
330
28B
100
AcDbEntity
  8
0
  6
CONTINUOUS
 62
     7
100
AcDbVertex
100
AcDb2dVertex
 10
6.770847061
 20
6.7007845563
 30
0.0
  0
VERTEX
  5
54E
330
28B
100
AcDbEntity
  8
0
  6
CONTINUOUS
 62
     7
100
AcDbVertex
100
AcDb2dVertex
 10
6.7659346173
 20
6.7380719115
 30
0.0
  0
VERTEX
  5
54F
330
28B
100
AcDbEntity
  8
0
  6
CONTINUOUS
 62
     7
100
AcDbVertex
100
AcDb2dVertex
 10
6.7627119847
 20
6.7765625606
 30
0.0
  0
VERTEX
  5
550
330
28B
100
AcDbEntity
  8
0
  6
CONTINUOUS
 62
     7
100
AcDbVertex
100
AcDb2dVertex
 10
6.7611867378
 20
6.8161660329
 30
0.0
  0
VERTEX
  5
551
330
28B
100
AcDbEntity
  8
0
  6
CONTINUOUS
 62
     7
100
AcDbVertex
100
AcDb2dVertex
 10
6.7613624617
 20
6.8567892421
 30
0.0
  0
VERTEX
  5
552
330
28B
100
AcDbEntity
  8
0
  6
CONTINUOUS
 62
     7
100
AcDbVertex
100
AcDb2dVertex
 10
6.7632387434
 20
6.8983367051
 30
0.0
  0
VERTEX
  5
553
330
28B
100
AcDbEntity
  8
0
  6
CONTINUOUS
 62
     7
100
AcDbVertex
100
AcDb2dVertex
 10
6.7668111726
 20
6.9407107663
 30
0.0
  0
VERTEX
  5
554
330
28B
100
AcDbEntity
  8
0
  6
CONTINUOUS
 62
     7
100
AcDbVertex
100
AcDb2dVertex
 10
6.7720713525
 20
6.9838118272
 30
0.0
  0
VERTEX
  5
555
330
28B
100
AcDbEntity
  8
0
  6
CONTINUOUS
 62
     7
100
AcDbVertex
100
AcDb2dVertex
 10
6.7790069194
 20
7.0275385805
 30
0.0
  0
VERTEX
  5
556
330
28B
100
AcDbEntity
  8
0
  6
CONTINUOUS
 62
     7
100
AcDbVertex
100
AcDb2dVertex
 10
6.7876015715
 20
7.0717882484
 30
0.0
  0
VERTEX
  5
557
330
28B
100
AcDbEntity
  8
0
  6
CONTINUOUS
 62
     7
100
AcDbVertex
100
AcDb2dVertex
 10
6.7978351073
 20
7.1164568239
 30
0.0
  0
VERTEX
  5
558
330
28B
100
AcDbEntity
  8
0
  6
CONTINUOUS
 62
     7
100
AcDbVertex
100
AcDb2dVertex
 10
6.8096834735
 20
7.1614393153
 30
0.0
  0
VERTEX
  5
559
330
28B
100
AcDbEntity
  8
0
  6
CONTINUOUS
 62
     7
100
AcDbVertex
100
AcDb2dVertex
 10
6.8231188208
 20
7.2066299931
 30
0.0
  0
VERTEX
  5
55A
330
28B
100
AcDbEntity
  8
0
  6
CONTINUOUS
 62
     7
100
AcDbVertex
100
AcDb2dVertex
 10
6.8381095701
 20
7.2519226385
 30
0.0
  0
VERTEX
  5
55B
330
28B
100
AcDbEntity
  8
0
  6
CONTINUOUS
 62
     7
100
AcDbVertex
100
AcDb2dVertex
 10
6.8546204862
 20
7.2972107931
 30
0.0
  0
VERTEX
  5
55C
330
28B
100
AcDbEntity
  8
0
  6
CONTINUOUS
 62
     7
100
AcDbVertex
100
AcDb2dVertex
 10
6.872612761
 20
7.342388009
 30
0.0
  0
VERTEX
  5
55D
330
28B
100
AcDbEntity
  8
0
  6
CONTINUOUS
 62
     7
100
AcDbVertex
100
AcDb2dVertex
 10
6.8920441043
 20
7.3873480989
 30
0.0
  0
VERTEX
  5
55E
330
28B
100
AcDbEntity
  8
0
  6
CONTINUOUS
 62
     7
100
AcDbVertex
100
AcDb2dVertex
 10
6.9128688435
 20
7.4319853861
 30
0.0
  0
VERTEX
  5
55F
330
28B
100
AcDbEntity
  8
0
  6
CONTINUOUS
 62
     7
100
AcDbVertex
100
AcDb2dVertex
 10
6.935038031
 20
7.4761949524
 30
0.0
  0
VERTEX
  5
560
330
28B
100
AcDbEntity
  8
0
  6
CONTINUOUS
 62
     7
100
AcDbVertex
100
AcDb2dVertex
 10
6.9584995591
 20
7.5198728852
 30
0.0
  0
VERTEX
  5
561
330
28B
100
AcDbEntity
  8
0
  6
CONTINUOUS
 62
     7
100
AcDbVertex
100
AcDb2dVertex
 10
6.9831982823
 20
7.5629165213
 30
0.0
  0
VERTEX
  5
562
330
28B
100
AcDbEntity
  8
0
  6
CONTINUOUS
 62
     7
100
AcDbVertex
100
AcDb2dVertex
 10
7.0090761474
 20
7.6052246883
 30
0.0
  0
VERTEX
  5
563
330
28B
100
AcDbEntity
  8
0
  6
CONTINUOUS
 62
     7
100
AcDbVertex
100
AcDb2dVertex
 10
7.0360723295
 20
7.6466979427
 30
0.0
  0
VERTEX
  5
564
330
28B
100
AcDbEntity
  8
0
  6
CONTINUOUS
 62
     7
100
AcDbVertex
100
AcDb2dVertex
 10
7.0641233753
 20
7.6872388034
 30
0.0
  0
VERTEX
  5
565
330
28B
100
AcDbEntity
  8
0
  6
CONTINUOUS
 62
     7
100
AcDbVertex
100
AcDb2dVertex
 10
7.0931633518
 20
7.7267519807
 30
0.0
  0
VERTEX
  5
566
330
28B
100
AcDbEntity
  8
0
  6
CONTINUOUS
 62
     7
100
AcDbVertex
100
AcDb2dVertex
 10
7.1231240019
 20
7.7651446005
 30
0.0
  0
VERTEX
  5
567
330
28B
100
AcDbEntity
  8
0
  6
CONTINUOUS
 62
     7
100
AcDbVertex
100
AcDb2dVertex
 10
7.1539349042
 20
7.8023264227
 30
0.0
  0
VERTEX
  5
568
330
28B
100
AcDbEntity
  8
0
  6
CONTINUOUS
 62
     7
100
AcDbVertex
100
AcDb2dVertex
 10
7.1855236391
 20
7.8382100529
 30
0.0
  0
VERTEX
  5
569
330
28B
100
AcDbEntity
  8
0
  6
CONTINUOUS
 62
     7
100
AcDbVertex
100
AcDb2dVertex
 10
7.2178159585
 20
7.872711148
 30
0.0
  0
VERTEX
  5
56A
330
28B
100
AcDbEntity
  8
0
  6
CONTINUOUS
 62
     7
100
AcDbVertex
100
AcDb2dVertex
 10
7.2507359607
 20
7.9057486148
 30
0.0
  0
VERTEX
  5
56B
330
28B
100
AcDbEntity
  8
0
  6
CONTINUOUS
 62
     7
100
AcDbVertex
100
AcDb2dVertex
 10
7.2842062686
 20
7.9372448
 30
0.0
  0
VERTEX
  5
56C
330
28B
100
AcDbEntity
  8
0
  6
CONTINUOUS
 62
     7
100
AcDbVertex
100
AcDb2dVertex
 10
7.3181482116
 20
7.9671256731
 30
0.0
  0
VERTEX
  5
56D
330
28B
100
AcDbEntity
  8
0
  6
CONTINUOUS
 62
     7
100
AcDbVertex
100
AcDb2dVertex
 10
7.3524820107
 20
7.9953210004
 30
0.0
  0
VERTEX
  5
56E
330
28B
100
AcDbEntity
  8
0
  6
CONTINUOUS
 62
     7
100
AcDbVertex
100
AcDb2dVertex
 10
7.3871269655
 20
8.02176451
 30
0.0
  0
VERTEX
  5
56F
330
28B
100
AcDbEntity
  8
0
  6
CONTINUOUS
 62
     7
100
AcDbVertex
100
AcDb2dVertex
 10
7.4220016447
 20
8.0463940475
 30
0.0
  0
VERTEX
  5
570
330
28B
100
AcDbEntity
  8
0
  6
CONTINUOUS
 62
     7
100
AcDbVertex
100
AcDb2dVertex
 10
7.4570240766
 20
8.0691517222
 30
0.0
  0
SEQEND
  5
571
330
28B
100
AcDbEntity
  8
0
  6
CONTINUOUS
 62
     7
  0
LINE
  5
28C
330
1F
100
AcDbEntity
  8
0
  6
CONTINUOUS
 62
     7
100
AcDbLine
 10
7.4570240766
 20
8.0691517222
 30
0.0
 11
7.85140778
 21
7.8414788564
 31
0.0
  0
POLYLINE
  5
28D
330
1F
100
AcDbEntity
  8
0
  6
CONTINUOUS
 62
     7
100
AcDb2dPolyline
 66
     1
 10
0.0
 20
0.0
 30
0.0
  0
VERTEX
  5
572
330
28D
100
AcDbEntity
  8
0
  6
CONTINUOUS
 62
     7
100
AcDbVertex
100
AcDb2dVertex
 10
7.85140778
 20
7.8414788564
 30
0.0
  0
VERTEX
  5
573
330
28D
100
AcDbEntity
  8
0
  6
CONTINUOUS
 62
     7
100
AcDbVertex
100
AcDb2dVertex
 10
7.8155239626
 20
7.818136601
 30
0.0
  0
VERTEX
  5
574
330
28D
100
AcDbEntity
  8
0
  6
CONTINUOUS
 62
     7
100
AcDbVertex
100
AcDb2dVertex
 10
7.7797973928
 20
7.7928305671
 30
0.0
  0
VERTEX
  5
575
330
28D
100
AcDbEntity
  8
0
  6
CONTINUOUS
 62
     7
100
AcDbVertex
100
AcDb2dVertex
 10
7.7443162325
 20
7.7656232019
 30
0.0
  0
VERTEX
  5
576
330
28D
100
AcDbEntity
  8
0
  6
CONTINUOUS
 62
     7
100
AcDbVertex
100
AcDb2dVertex
 10
7.7091680381
 20
7.7365816447
 30
0.0
  0
VERTEX
  5
577
330
28D
100
AcDbEntity
  8
0
  6
CONTINUOUS
 62
     7
100
AcDbVertex
100
AcDb2dVertex
 10
7.6744395443
 20
7.705777561
 30
0.0
  0
VERTEX
  5
578
330
28D
100
AcDbEntity
  8
0
  6
CONTINUOUS
 62
     7
100
AcDbVertex
100
AcDb2dVertex
 10
7.6402164502
 20
7.6732869657
 30
0.0
  0
VERTEX
  5
579
330
28D
100
AcDbEntity
  8
0
  6
CONTINUOUS
 62
     7
100
AcDbVertex
100
AcDb2dVertex
 10
7.6065832077
 20
7.6391900352
 30
0.0
  0
VERTEX
  5
57A
330
28D
100
AcDbEntity
  8
0
  6
CONTINUOUS
 62
     7
100
AcDbVertex
100
AcDb2dVertex
 10
7.5736228129
 20
7.6035709101
 30
0.0
  0
VERTEX
  5
57B
330
28D
100
AcDbEntity
  8
0
  6
CONTINUOUS
 62
     7
100
AcDbVertex
100
AcDb2dVertex
 10
7.5414166019
 20
7.5665174874
 30
0.0
  0
VERTEX
  5
57C
330
28D
100
AcDbEntity
  8
0
  6
CONTINUOUS
 62
     7
100
AcDbVertex
100
AcDb2dVertex
 10
7.5100440495
 20
7.5281212031
 30
0.0
  0
VERTEX
  5
57D
330
28D
100
AcDbEntity
  8
0
  6
CONTINUOUS
 62
     7
100
AcDbVertex
100
AcDb2dVertex
 10
7.4795825733
 20
7.4884768073
 30
0.0
  0
VERTEX
  5
57E
330
28D
100
AcDbEntity
  8
0
  6
CONTINUOUS
 62
     7
100
AcDbVertex
100
AcDb2dVertex
 10
7.4501073427
 20
7.4476821299
 30
0.0
  0
VERTEX
  5
57F
330
28D
100
AcDbEntity
  8
0
  6
CONTINUOUS
 62
     7
100
AcDbVertex
100
AcDb2dVertex
 10
7.4216910933
 20
7.4058378394
 30
0.0
  0
VERTEX
  5
580
330
28D
100
AcDbEntity
  8
0
  6
CONTINUOUS
 62
     7
100
AcDbVertex
100
AcDb2dVertex
 10
7.3944039475
 20
7.3630471944
 30
0.0
  0
VERTEX
  5
581
330
28D
100
AcDbEntity
  8
0
  6
CONTINUOUS
 62
     7
100
AcDbVertex
100
AcDb2dVertex
 10
7.3683132413
 20
7.3194157888
 30
0.0
  0
VERTEX
  5
582
330
28D
100
AcDbEntity
  8
0
  6
CONTINUOUS
 62
     7
100
AcDbVertex
100
AcDb2dVertex
 10
7.3434833586
 20
7.2750512912
 30
0.0
  0
VERTEX
  5
583
330
28D
100
AcDbEntity
  8
0
  6
CONTINUOUS
 62
     7
100
AcDbVertex
100
AcDb2dVertex
 10
7.3199755717
 20
7.2300631793
 30
0.0
  0
VERTEX
  5
584
330
28D
100
AcDbEntity
  8
0
  6
CONTINUOUS
 62
     7
100
AcDbVertex
100
AcDb2dVertex
 10
7.2978478903
 20
7.1845624695
 30
0.0
  0
VERTEX
  5
585
330
28D
100
AcDbEntity
  8
0
  6
CONTINUOUS
 62
     7
100
AcDbVertex
100
AcDb2dVertex
 10
7.2771549188
 20
7.1386614436
 30
0.0
  0
VERTEX
  5
586
330
28D
100
AcDbEntity
  8
0
  6
CONTINUOUS
 62
     7
100
AcDbVertex
100
AcDb2dVertex
 10
7.2579477207
 20
7.0924733706
 30
0.0
  0
VERTEX
  5
587
330
28D
100
AcDbEntity
  8
0
  6
CONTINUOUS
 62
     7
100
AcDbVertex
100
AcDb2dVertex
 10
7.2402736936
 20
7.0461122284
 30
0.0
  0
VERTEX
  5
588
330
28D
100
AcDbEntity
  8
0
  6
CONTINUOUS
 62
     7
100
AcDbVertex
100
AcDb2dVertex
 10
7.2241764514
 20
6.9996924217
 30
0.0
  0
VERTEX
  5
589
330
28D
100
AcDbEntity
  8
0
  6
CONTINUOUS
 62
     7
100
AcDbVertex
100
AcDb2dVertex
 10
7.2096957169
 20
6.9533285
 30
0.0
  0
VERTEX
  5
58A
330
28D
100
AcDbEntity
  8
0
  6
CONTINUOUS
 62
     7
100
AcDbVertex
100
AcDb2dVertex
 10
7.1968672242
 20
6.907134875
 30
0.0
  0
VERTEX
  5
58B
330
28D
100
AcDbEntity
  8
0
  6
CONTINUOUS
 62
     7
100
AcDbVertex
100
AcDb2dVertex
 10
7.1857226298
 20
6.861225538
 30
0.0
  0
VERTEX
  5
58C
330
28D
100
AcDbEntity
  8
0
  6
CONTINUOUS
 62
     7
100
AcDbVertex
100
AcDb2dVertex
 10
7.1762894352
 20
6.8157137788
 30
0.0
  0
VERTEX
  5
58D
330
28D
100
AcDbEntity
  8
0
  6
CONTINUOUS
 62
     7
100
AcDbVertex
100
AcDb2dVertex
 10
7.1685909186
 20
6.7707119063
 30
0.0
  0
VERTEX
  5
58E
330
28D
100
AcDbEntity
  8
0
  6
CONTINUOUS
 62
     7
100
AcDbVertex
100
AcDb2dVertex
 10
7.1626460774
 20
6.726330971
 30
0.0
  0
VERTEX
  5
58F
330
28D
100
AcDbEntity
  8
0
  6
CONTINUOUS
 62
     7
100
AcDbVertex
100
AcDb2dVertex
 10
7.1584695817
 20
6.682680491
 30
0.0
  0
VERTEX
  5
590
330
28D
100
AcDbEntity
  8
0
  6
CONTINUOUS
 62
     7
100
AcDbVertex
100
AcDb2dVertex
 10
7.1560717378
 20
6.6398681821
 30
0.0
  0
VERTEX
  5
591
330
28D
100
AcDbEntity
  8
0
  6
CONTINUOUS
 62
     7
100
AcDbVertex
100
AcDb2dVertex
 10
7.1554584627
 20
6.5979996916
 30
0.0
  0
VERTEX
  5
592
330
28D
100
AcDbEntity
  8
0
  6
CONTINUOUS
 62
     7
100
AcDbVertex
100
AcDb2dVertex
 10
7.1566312699
 20
6.5571783378
 30
0.0
  0
VERTEX
  5
593
330
28D
100
AcDbEntity
  8
0
  6
CONTINUOUS
 62
     7
100
AcDbVertex
100
AcDb2dVertex
 10
7.1595872652
 20
6.5175048551
 30
0.0
  0
VERTEX
  5
594
330
28D
100
AcDbEntity
  8
0
  6
CONTINUOUS
 62
     7
100
AcDbVertex
100
AcDb2dVertex
 10
7.1643191542
 20
6.4790771451
 30
0.0
  0
VERTEX
  5
595
330
28D
100
AcDbEntity
  8
0
  6
CONTINUOUS
 62
     7
100
AcDbVertex
100
AcDb2dVertex
 10
7.17081526
 20
6.4419900354
 30
0.0
  0
VERTEX
  5
596
330
28D
100
AcDbEntity
  8
0
  6
CONTINUOUS
 62
     7
100
AcDbVertex
100
AcDb2dVertex
 10
7.1790595523
 20
6.4063350453
 30
0.0
  0
VERTEX
  5
597
330
28D
100
AcDbEntity
  8
0
  6
CONTINUOUS
 62
     7
100
AcDbVertex
100
AcDb2dVertex
 10
7.1890316867
 20
6.3722001602
 30
0.0
  0
VERTEX
  5
598
330
28D
100
AcDbEntity
  8
0
  6
CONTINUOUS
 62
     7
100
AcDbVertex
100
AcDb2dVertex
 10
7.2007070552
 20
6.3396696143
 30
0.0
  0
VERTEX
  5
599
330
28D
100
AcDbEntity
  8
0
  6
CONTINUOUS
 62
     7
100
AcDbVertex
100
AcDb2dVertex
 10
7.2140568467
 20
6.3088236828
 30
0.0
  0
SEQEND
  5
59A
330
28D
100
AcDbEntity
  8
0
  6
CONTINUOUS
 62
     7
  0
LINE
  5
28E
330
1F
100
AcDbEntity
  8
0
  6
CONTINUOUS
 62
     7
100
AcDbLine
 10
7.2140568467
 20
6.3088236828
 30
0.0
 11
7.2882937791
 21
6.2659676139
 31
0.0
  0
LINE
  5
28F
330
1F
100
AcDbEntity
  8
0
  6
CONTINUOUS
 62
     7
100
AcDbLine
 10
8.0242863185
 20
7.509249068
 30
0.0
 11
7.9890592958
 21
7.4482340751
 31
0.0
  0
LINE
  5
290
330
1F
100
AcDbEntity
  8
0
  6
CONTINUOUS
 62
     7
100
AcDbLine
 10
7.5653873325
 20
6.7144127111
 30
0.0
 11
7.5301467372
 21
6.6533742096
 31
0.0
  0
LINE
  5
291
330
1F
100
AcDbEntity
  8
0
  6
CONTINUOUS
 62
     7
100
AcDbLine
 10
7.85140778
 20
7.7480318404
 30
0.0
 11
7.85140778
 21
7.8414788564
 31
0.0
  0
LINE
  5
292
330
1F
100
AcDbEntity
  8
0
  6
CONTINUOUS
 62
     7
100
AcDbLine
 10
7.9070854794
 20
7.7868081792
 30
0.0
 11
7.9070854794
 21
7.873620908
 31
0.0
  0
LINE
  5
293
330
1F
100
AcDbEntity
  8
0
  6
CONTINUOUS
 62
     7
100
AcDbLine
 10
7.2140568467
 20
6.3088236828
 30
0.0
 11
7.2611483957
 21
6.3360090554
 31
0.0
  0
POLYLINE
  5
294
330
1F
100
AcDbEntity
  8
0
  6
CONTINUOUS
 62
     7
100
AcDb2dPolyline
 66
     1
 10
0.0
 20
0.0
 30
0.0
  0
VERTEX
  5
59B
330
294
100
AcDbEntity
  8
0
  6
CONTINUOUS
 62
     7
100
AcDbVertex
100
AcDb2dVertex
 10
7.5301467372
 20
6.6533742096
 30
0.0
  0
VERTEX
  5
59C
330
294
100
AcDbEntity
  8
0
  6
CONTINUOUS
 62
     7
100
AcDbVertex
100
AcDb2dVertex
 10
7.5175332955
 20
6.6300220313
 30
0.0
  0
VERTEX
  5
59D
330
294
100
AcDbEntity
  8
0
  6
CONTINUOUS
 62
     7
100
AcDbVertex
100
AcDb2dVertex
 10
7.5063446748
 20
6.6061420967
 30
0.0
  0
VERTEX
  5
59E
330
294
100
AcDbEntity
  8
0
  6
CONTINUOUS
 62
     7
100
AcDbVertex
100
AcDb2dVertex
 10
7.4966886276
 20
6.5819643825
 30
0.0
  0
VERTEX
  5
59F
330
294
100
AcDbEntity
  8
0
  6
CONTINUOUS
 62
     7
100
AcDbVertex
100
AcDb2dVertex
 10
7.4886581469
 20
6.5577217335
 30
0.0
  0
VERTEX
  5
5A0
330
294
100
AcDbEntity
  8
0
  6
CONTINUOUS
 62
     7
100
AcDbVertex
100
AcDb2dVertex
 10
7.4823305707
 20
6.5336476194
 30
0.0
  0
VERTEX
  5
5A1
330
294
100
AcDbEntity
  8
0
  6
CONTINUOUS
 62
     7
100
AcDbVertex
100
AcDb2dVertex
 10
7.4777668368
 20
6.5099738874
 30
0.0
  0
VERTEX
  5
5A2
330
294
100
AcDbEntity
  8
0
  6
CONTINUOUS
 62
     7
100
AcDbVertex
100
AcDb2dVertex
 10
7.4750108967
 20
6.4869285282
 30
0.0
  0
VERTEX
  5
5A3
330
294
100
AcDbEntity
  8
0
  6
CONTINUOUS
 62
     7
100
AcDbVertex
100
AcDb2dVertex
 10
7.4740892915
 20
6.4647334814
 30
0.0
  0
VERTEX
  5
5A4
330
294
100
AcDbEntity
  8
0
  6
CONTINUOUS
 62
     7
100
AcDbVertex
100
AcDb2dVertex
 10
7.4750108967
 20
6.4436024973
 30
0.0
  0
VERTEX
  5
5A5
330
294
100
AcDbEntity
  8
0
  6
CONTINUOUS
 62
     7
100
AcDbVertex
100
AcDb2dVertex
 10
7.4777668368
 20
6.4237390788
 30
0.0
  0
VERTEX
  5
5A6
330
294
100
AcDbEntity
  8
0
  6
CONTINUOUS
 62
     7
100
AcDbVertex
100
AcDb2dVertex
 10
7.4823305707
 20
6.4053345217
 30
0.0
  0
VERTEX
  5
5A7
330
294
100
AcDbEntity
  8
0
  6
CONTINUOUS
 62
     7
100
AcDbVertex
100
AcDb2dVertex
 10
7.4886581469
 20
6.3885660717
 30
0.0
  0
VERTEX
  5
5A8
330
294
100
AcDbEntity
  8
0
  6
CONTINUOUS
 62
     7
100
AcDbVertex
100
AcDb2dVertex
 10
7.4966886276
 20
6.3735952183
 30
0.0
  0
VERTEX
  5
5A9
330
294
100
AcDbEntity
  8
0
  6
CONTINUOUS
 62
     7
100
AcDbVertex
100
AcDb2dVertex
 10
7.5063446748
 20
6.360566139
 30
0.0
  0
VERTEX
  5
5AA
330
294
100
AcDbEntity
  8
0
  6
CONTINUOUS
 62
     7
100
AcDbVertex
100
AcDb2dVertex
 10
7.5175332955
 20
6.3496043108
 30
0.0
  0
VERTEX
  5
5AB
330
294
100
AcDbEntity
  8
0
  6
CONTINUOUS
 62
     7
100
AcDbVertex
100
AcDb2dVertex
 10
7.5205158589
 20
6.3472314851
 30
0.0
  0
SEQEND
  5
5AC
330
294
100
AcDbEntity
  8
0
  6
CONTINUOUS
 62
     7
  0
POLYLINE
  5
295
330
1F
100
AcDbEntity
  8
0
  6
CONTINUOUS
 62
     7
100
AcDb2dPolyline
 66
     1
 10
0.0
 20
0.0
 30
0.0
  0
VERTEX
  5
5AD
330
295
100
AcDbEntity
  8
0
  6
CONTINUOUS
 62
     7
100
AcDbVertex
100
AcDb2dVertex
 10
8.2845668398
 20
7.6706449509
 30
0.0
  0
VERTEX
  5
5AE
330
295
100
AcDbEntity
  8
0
  6
CONTINUOUS
 62
     7
100
AcDbVertex
100
AcDb2dVertex
 10
8.2810388216
 20
7.6720346699
 30
0.0
  0
VERTEX
  5
5AF
330
295
100
AcDbEntity
  8
0
  6
CONTINUOUS
 62
     7
100
AcDbVertex
100
AcDb2dVertex
 10
8.265952713
 20
7.676245851
 30
0.0
  0
VERTEX
  5
5B0
330
295
100
AcDbEntity
  8
0
  6
CONTINUOUS
 62
     7
100
AcDbVertex
100
AcDb2dVertex
 10
8.2498425715
 20
7.6780961112
 30
0.0
  0
VERTEX
  5
5B1
330
295
100
AcDbEntity
  8
0
  6
CONTINUOUS
 62
     7
100
AcDbVertex
100
AcDb2dVertex
 10
8.2328635466
 20
7.6775676315
 30
0.0
  0
VERTEX
  5
5B2
330
295
100
AcDbEntity
  8
0
  6
CONTINUOUS
 62
     7
100
AcDbVertex
100
AcDb2dVertex
 10
8.2151791556
 20
7.6746655014
 30
0.0
  0
VERTEX
  5
5B3
330
295
100
AcDbEntity
  8
0
  6
CONTINUOUS
 62
     7
100
AcDbVertex
100
AcDb2dVertex
 10
8.1969597089
 20
7.6694176701
 30
0.0
  0
VERTEX
  5
5B4
330
295
100
AcDbEntity
  8
0
  6
CONTINUOUS
 62
     7
100
AcDbVertex
100
AcDb2dVertex
 10
8.1783806697
 20
7.6618746769
 30
0.0
  0
VERTEX
  5
5B5
330
295
100
AcDbEntity
  8
0
  6
CONTINUOUS
 62
     7
100
AcDbVertex
100
AcDb2dVertex
 10
8.1596209642
 20
7.6521091652
 30
0.0
  0
VERTEX
  5
5B6
330
295
100
AcDbEntity
  8
0
  6
CONTINUOUS
 62
     7
100
AcDbVertex
100
AcDb2dVertex
 10
8.1408612587
 20
7.640215182
 30
0.0
  0
VERTEX
  5
5B7
330
295
100
AcDbEntity
  8
0
  6
CONTINUOUS
 62
     7
100
AcDbVertex
100
AcDb2dVertex
 10
8.1222822194
 20
7.626307273
 30
0.0
  0
VERTEX
  5
5B8
330
295
100
AcDbEntity
  8
0
  6
CONTINUOUS
 62
     7
100
AcDbVertex
100
AcDb2dVertex
 10
8.1040627727
 20
7.6105193789
 30
0.0
  0
VERTEX
  5
5B9
330
295
100
AcDbEntity
  8
0
  6
CONTINUOUS
 62
     7
100
AcDbVertex
100
AcDb2dVertex
 10
8.0863783817
 20
7.5930035458
 30
0.0
  0
VERTEX
  5
5BA
330
295
100
AcDbEntity
  8
0
  6
CONTINUOUS
 62
     7
100
AcDbVertex
100
AcDb2dVertex
 10
8.0693993569
 20
7.5739284607
 30
0.0
  0
VERTEX
  5
5BB
330
295
100
AcDbEntity
  8
0
  6
CONTINUOUS
 62
     7
100
AcDbVertex
100
AcDb2dVertex
 10
8.0532892154
 20
7.553477827
 30
0.0
  0
VERTEX
  5
5BC
330
295
100
AcDbEntity
  8
0
  6
CONTINUOUS
 62
     7
100
AcDbVertex
100
AcDb2dVertex
 10
8.0382031068
 20
7.5318485957
 30
0.0
  0
VERTEX
  5
5BD
330
295
100
AcDbEntity
  8
0
  6
CONTINUOUS
 62
     7
100
AcDbVertex
100
AcDb2dVertex
 10
8.0242863185
 20
7.509249068
 30
0.0
  0
SEQEND
  5
5BE
330
295
100
AcDbEntity
  8
0
  6
CONTINUOUS
 62
     7
  0
LINE
  5
296
330
1F
100
AcDbEntity
  8
0
  6
CONTINUOUS
 62
     7
100
AcDbLine
 10
7.5127017759
 20
8.1012937739
 30
0.0
 11
7.4914885725
 21
8.0890249843
 31
0.0
  0
ARC
  5
297
330
1F
100
AcDbEntity
  8
0
  6
CONTINUOUS
 62
     7
100
AcDbCircle
 10
8.2929007955
 20
6.7852484309
 30
0.0
 40
1.533511473976405
100
AcDbArc
 50
123.980226265
 51
177.3310122101
  0
LINE
  5
298
330
1F
100
AcDbEntity
  8
0
  6
CONTINUOUS
 62
     7
100
AcDbLine
 10
7.4570240766
 20
8.0691517222
 30
0.0
 11
7.4358108732
 21
8.0568829326
 31
0.0
  0
LINE
  5
299
330
1F
100
AcDbEntity
  8
0
  6
CONTINUOUS
 62
     7
100
AcDbLine
 10
7.4914885725
 20
8.0890249843
 30
0.0
 11
7.4914885725
 21
8.0492557922
 31
0.0
  0
ARC
  5
29A
330
1F
100
AcDbEntity
  8
0
  6
CONTINUOUS
 62
     8
100
AcDbCircle
 10
8.2646290906
 20
7.0908873568
 30
0.0
 40
0.2643413815014152
100
AcDbArc
 50
241.8903011279
 51
301.568013424
  0
POLYLINE
  5
29B
330
1F
100
AcDbEntity
  8
0
  6
CONTINUOUS
 62
     8
100
AcDb2dPolyline
 66
     1
 10
0.0
 20
0.0
 30
0.0
  0
VERTEX
  5
5BF
330
29B
100
AcDbEntity
  8
0
  6
CONTINUOUS
 62
     8
100
AcDbVertex
100
AcDb2dVertex
 10
8.442361951
 20
6.9257008802
 30
0.0
  0
VERTEX
  5
5C0
330
29B
100
AcDbEntity
  8
0
  6
CONTINUOUS
 62
     8
100
AcDbVertex
100
AcDb2dVertex
 10
8.4425024141
 20
6.9315609646
 30
0.0
  0
VERTEX
  5
5C1
330
29B
100
AcDbEntity
  8
0
  6
CONTINUOUS
 62
     8
100
AcDbVertex
100
AcDb2dVertex
 10
8.4409485429
 20
6.9436454328
 30
0.0
  0
VERTEX
  5
5C2
330
29B
100
AcDbEntity
  8
0
  6
CONTINUOUS
 62
     8
100
AcDbVertex
100
AcDb2dVertex
 10
8.4369297445
 20
6.9555389865
 30
0.0
  0
VERTEX
  5
5C3
330
29B
100
AcDbEntity
  8
0
  6
CONTINUOUS
 62
     8
100
AcDbVertex
100
AcDb2dVertex
 10
8.430502434
 20
6.9670746664
 30
0.0
  0
VERTEX
  5
5C4
330
29B
100
AcDbEntity
  8
0
  6
CONTINUOUS
 62
     8
100
AcDbVertex
100
AcDb2dVertex
 10
8.4217568368
 20
6.9780905368
 30
0.0
  0
VERTEX
  5
5C5
330
29B
100
AcDbEntity
  8
0
  6
CONTINUOUS
 62
     8
100
AcDbVertex
100
AcDb2dVertex
 10
8.4108157218
 20
6.9884319591
 30
0.0
  0
VERTEX
  5
5C6
330
29B
100
AcDbEntity
  8
0
  6
CONTINUOUS
 62
     8
100
AcDbVertex
100
AcDb2dVertex
 10
8.3978326784
 20
6.9979537624
 30
0.0
  0
VERTEX
  5
5C7
330
29B
100
AcDbEntity
  8
0
  6
CONTINUOUS
 62
     8
100
AcDbVertex
100
AcDb2dVertex
 10
8.38298996
 20
7.0065222813
 30
0.0
  0
VERTEX
  5
5C8
330
29B
100
AcDbEntity
  8
0
  6
CONTINUOUS
 62
     8
100
AcDbVertex
100
AcDb2dVertex
 10
8.3664959258
 20
7.0140172327
 30
0.0
  0
VERTEX
  5
5C9
330
29B
100
AcDbEntity
  8
0
  6
CONTINUOUS
 62
     8
100
AcDbVertex
100
AcDb2dVertex
 10
8.348582116
 20
7.020333404
 30
0.0
  0
VERTEX
  5
5CA
330
29B
100
AcDbEntity
  8
0
  6
CONTINUOUS
 62
     8
100
AcDbVertex
100
AcDb2dVertex
 10
8.3295000011
 20
7.0253821298
 30
0.0
  0
VERTEX
  5
5CB
330
29B
100
AcDbEntity
  8
0
  6
CONTINUOUS
 62
     8
100
AcDbVertex
100
AcDb2dVertex
 10
8.3095174523
 20
7.0290925371
 30
0.0
  0
VERTEX
  5
5CC
330
29B
100
AcDbEntity
  8
0
  6
CONTINUOUS
 62
     8
100
AcDbVertex
100
AcDb2dVertex
 10
8.2889149806
 20
7.0314125401
 30
0.0
  0
VERTEX
  5
5CD
330
29B
100
AcDbEntity
  8
0
  6
CONTINUOUS
 62
     8
100
AcDbVertex
100
AcDb2dVertex
 10
8.2679817997
 20
7.0323095708
 30
0.0
  0
VERTEX
  5
5CE
330
29B
100
AcDbEntity
  8
0
  6
CONTINUOUS
 62
     8
100
AcDbVertex
100
AcDb2dVertex
 10
8.2470117655
 20
7.031771037
 30
0.0
  0
VERTEX
  5
5CF
330
29B
100
AcDbEntity
  8
0
  6
CONTINUOUS
 62
     8
100
AcDbVertex
100
AcDb2dVertex
 10
8.2262992513
 20
7.0298044985
 30
0.0
  0
VERTEX
  5
5D0
330
29B
100
AcDbEntity
  8
0
  6
CONTINUOUS
 62
     8
100
AcDbVertex
100
AcDb2dVertex
 10
8.2061350155
 20
7.0264375612
 30
0.0
  0
VERTEX
  5
5D1
330
29B
100
AcDbEntity
  8
0
  6
CONTINUOUS
 62
     8
100
AcDbVertex
100
AcDb2dVertex
 10
8.1868021196
 20
7.0217174895
 30
0.0
  0
VERTEX
  5
5D2
330
29B
100
AcDbEntity
  8
0
  6
CONTINUOUS
 62
     8
100
AcDbVertex
100
AcDb2dVertex
 10
8.1685719552
 20
7.0157105429
 30
0.0
  0
VERTEX
  5
5D3
330
29B
100
AcDbEntity
  8
0
  6
CONTINUOUS
 62
     8
100
AcDbVertex
100
AcDb2dVertex
 10
8.1517004339
 20
7.0085010457
 30
0.0
  0
VERTEX
  5
5D4
330
29B
100
AcDbEntity
  8
0
  6
CONTINUOUS
 62
     8
100
AcDbVertex
100
AcDb2dVertex
 10
8.1364243947
 20
7.0001902034
 30
0.0
  0
VERTEX
  5
5D5
330
29B
100
AcDbEntity
  8
0
  6
CONTINUOUS
 62
     8
100
AcDbVertex
100
AcDb2dVertex
 10
8.1229582799
 20
6.9908946822
 30
0.0
  0
VERTEX
  5
5D6
330
29B
100
AcDbEntity
  8
0
  6
CONTINUOUS
 62
     8
100
AcDbVertex
100
AcDb2dVertex
 10
8.1114911241
 20
6.9807449706
 30
0.0
  0
VERTEX
  5
5D7
330
29B
100
AcDbEntity
  8
0
  6
CONTINUOUS
 62
     8
100
AcDbVertex
100
AcDb2dVertex
 10
8.102183901
 20
6.9698835485
 30
0.0
  0
VERTEX
  5
5D8
330
29B
100
AcDbEntity
  8
0
  6
CONTINUOUS
 62
     8
100
AcDbVertex
100
AcDb2dVertex
 10
8.0951672637
 20
6.9584628864
 30
0.0
  0
VERTEX
  5
5D9
330
29B
100
AcDbEntity
  8
0
  6
CONTINUOUS
 62
     8
100
AcDbVertex
100
AcDb2dVertex
 10
8.0905397104
 20
6.9466433053
 30
0.0
  0
VERTEX
  5
5DA
330
29B
100
AcDbEntity
  8
0
  6
CONTINUOUS
 62
     8
100
AcDbVertex
100
AcDb2dVertex
 10
8.0883662018
 20
6.9345907262
 30
0.0
  0
VERTEX
  5
5DB
330
29B
100
AcDbEntity
  8
0
  6
CONTINUOUS
 62
     8
100
AcDbVertex
100
AcDb2dVertex
 10
8.0886772492
 20
6.922474341
 30
0.0
  0
VERTEX
  5
5DC
330
29B
100
AcDbEntity
  8
0
  6
CONTINUOUS
 62
     8
100
AcDbVertex
100
AcDb2dVertex
 10
8.0914684862
 20
6.9104642371
 30
0.0
  0
VERTEX
  5
5DD
330
29B
100
AcDbEntity
  8
0
  6
CONTINUOUS
 62
     8
100
AcDbVertex
100
AcDb2dVertex
 10
8.0967007299
 20
6.8987290101
 30
0.0
  0
VERTEX
  5
5DE
330
29B
100
AcDbEntity
  8
0
  6
CONTINUOUS
 62
     8
100
AcDbVertex
100
AcDb2dVertex
 10
8.104300531
 20
6.8874333968
 30
0.0
  0
VERTEX
  5
5DF
330
29B
100
AcDbEntity
  8
0
  6
CONTINUOUS
 62
     8
100
AcDbVertex
100
AcDb2dVertex
 10
8.1141612051
 20
6.8767359629
 30
0.0
  0
VERTEX
  5
5E0
330
29B
100
AcDbEntity
  8
0
  6
CONTINUOUS
 62
     8
100
AcDbVertex
100
AcDb2dVertex
 10
8.1261443299
 20
6.8667868768
 30
0.0
  0
VERTEX
  5
5E1
330
29B
100
AcDbEntity
  8
0
  6
CONTINUOUS
 62
     8
100
AcDbVertex
100
AcDb2dVertex
 10
8.1400816885
 20
6.8577258021
 30
0.0
  0
VERTEX
  5
5E2
330
29B
100
AcDbEntity
  8
0
  6
CONTINUOUS
 62
     8
100
AcDbVertex
100
AcDb2dVertex
 10
8.1400816885
 20
6.8577258021
 30
0.0
  0
SEQEND
  5
5E3
330
29B
100
AcDbEntity
  8
0
  6
CONTINUOUS
 62
     8
  0
ARC
  5
29C
330
1F
100
AcDbEntity
  8
0
  6
CONTINUOUS
 62
     8
100
AcDbCircle
 10
8.155621039
 20
6.9075148871
 30
0.0
 40
0.1071779647973097
100
AcDbArc
 50
184.8290599798
 51
246.1257548108
  0
ARC
  5
29D
330
1F
100
AcDbEntity
  8
0
  6
CONTINUOUS
 62
     8
100
AcDbCircle
 10
8.2647335105
 20
7.10367368
 30
0.0
 40
0.3313414346240673
100
AcDbArc
 50
242.5985558084
 51
279.2851203852
  0
ARC
  5
29E
330
1F
100
AcDbEntity
  8
0
  6
CONTINUOUS
 62
     8
100
AcDbCircle
 10
7.98848953
 20
7.8449866313
 30
0.0
 40
0.3312360249294983
100
AcDbArc
 50
20.7650963428
 51
57.4072025526
  0
ARC
  5
29F
330
1F
100
AcDbEntity
  8
0
  6
CONTINUOUS
 62
     8
100
AcDbCircle
 10
8.1036585326
 20
8.0372528447
 30
0.0
 40
0.1074093520348995
100
AcDbArc
 50
53.919136004
 51
114.7704055669
  0
LINE
  5
2A0
330
1F
100
AcDbEntity
  8
0
  6
CONTINUOUS
 62
     8
100
AcDbLine
 10
8.0419724535
 20
7.4990390796
 30
0.0
 11
8.0242863185
 21
7.509249068
 31
0.0
  0
LINE
  5
2A1
330
1F
100
AcDbEntity
  8
0
  6
CONTINUOUS
 62
     8
100
AcDbLine
 10
7.5478387695
 20
6.6431608167
 30
0.0
 11
7.5301467372
 21
6.6533742096
 31
0.0
  0
ENDSEC
  0
SECTION
  2
OBJECTS
  0
DICTIONARY
  5
C
330
0
100
AcDbDictionary
  3
ACAD_GROUP
350
D
  3
ACAD_LAYOUT
350
1A
  3
ACAD_MLEADERSTYLE
350
2A4
  3
ACAD_MLINESTYLE
350
17
  3
ACAD_PLOTSETTINGS
350
19
  3
ACAD_SCALELIST
350
6F
  3
ACAD_VISUALSTYLE
350
2A
  3
ACDBVARIABLEDICTIONARY
350
2A2
1001
ACAD
1000
TREAT_AS_HARD
1070
     0
  0
DICTIONARY
  5
D
102
{ACAD_REACTORS
330
C
102
}
330
C
100
AcDbDictionary
1001
ACAD
1000
TREAT_AS_HARD
1070
     0
  0
DICTIONARY
  5
1A
102
{ACAD_REACTORS
330
C
102
}
330
C
100
AcDbDictionary
1001
ACAD
1000
TREAT_AS_HARD
1070
     0
  0
DICTIONARY
  5
2A4
102
{ACAD_REACTORS
330
C
102
}
330
C
100
AcDbDictionary
1001
ACAD
1000
TREAT_AS_HARD
1070
     0
  0
DICTIONARY
  5
17
102
{ACAD_REACTORS
330
C
102
}
330
C
100
AcDbDictionary
  3
STANDARD
350
18
1001
ACAD
1000
TREAT_AS_HARD
1070
     0
  0
DICTIONARY
  5
19
102
{ACAD_REACTORS
330
C
102
}
330
C
100
AcDbDictionary
1001
ACAD
1000
TREAT_AS_HARD
1070
     0
  0
DICTIONARY
  5
6F
102
{ACAD_REACTORS
330
C
102
}
330
C
100
AcDbDictionary
  3
A0
350
70
  3
A1
350
71
  3
A2
350
72
  3
A3
350
73
  3
A4
350
74
  3
A5
350
75
  3
A6
350
76
  3
A7
350
77
  3
A8
350
78
  3
A9
350
79
  3
B0
350
7A
  3
B1
350
7B
  3
B2
350
7C
  3
B3
350
7D
  3
B4
350
7E
  3
B5
350
7F
  3
B6
350
80
  3
B7
350
81
  3
B8
350
82
  3
B9
350
83
  3
C0
350
84
  3
C1
350
85
  3
C2
350
86
  3
C3
350
87
  3
C4
350
88
  3
C5
350
89
  3
C6
350
8A
  3
C7
350
8B
  3
C8
350
8C
  3
C9
350
8D
  3
D0
350
8E
  3
D1
350
8F
  3
D2
350
90
1001
ACAD
1000
TREAT_AS_HARD
1070
     0
  0
DICTIONARY
  5
2A
102
{ACAD_REACTORS
330
C
102
}
330
C
100
AcDbDictionary
  3
2DWIREFRAME
350
2F
  3
3D_HIDDEN
350
31
  3
3DWIREFRAME
350
30
  3
BASIC
350
32
  3
BRIGHTEN
350
36
  3
COLORCHANGE
350
3A
  3
CONCEPTUAL
350
34
  3
DIM
350
35
  3
FACEPATTERN
350
39
  3
FLAT
350
2B
  3
FLATWITHEDGES
350
2C
  3
GOURAUD
350
2D
  3
GOURAUDWITHEDGES
350
2E
  3
LINEPATTERN
350
38
  3
REALISTIC
350
33
  3
THICKEN
350
37
1001
ACAD
1000
TREAT_AS_HARD
1070
     0
  0
DICTIONARY
  5
2A2
102
{ACAD_REACTORS
330
C
102
}
330
C
100
AcDbDictionary
  3
CANNOSCALE
350
2A5
  3
DIMASSOC
350
2A6
  3
HIDETEXT
350
2A7
1001
ACAD
1000
TREAT_AS_HARD
1070
     0
  0
MLINESTYLE
  5
18
102
{ACAD_REACTORS
330
17
102
}
330
17
100
AcDbMlineStyle
  2
Standard
 70
     0
  3

 62
   256
 51
90.0
 52
90.0
 71
     2
 49
0.5
 62
   256
  6
BYLAYER
 49
-0.5
 62
   256
  6
BYLAYER
  0
ACAD_PROXY_OBJECT
  5
70
102
{ACAD_REACTORS
330
6F
102
}
330
6F
100
AcDbZombieObject
 90
      499
 91
      502
 93
       41
310
903313A31580
  0
ACAD_PROXY_OBJECT
  5
71
102
{ACAD_REACTORS
330
6F
102
}
330
6F
100
AcDbZombieObject
 90
      499
 91
      502
 93
      105
310
903313A324000000000000004000
  0
ACAD_PROXY_OBJECT
  5
72
102
{ACAD_REACTORS
330
6F
102
}
330
6F
100
AcDbZombieObject
 90
      499
 91
      502
 93
      105
310
903313A344000000000000104000
  0
ACAD_PROXY_OBJECT
  5
73
102
{ACAD_REACTORS
330
6F
102
}
330
6F
100
AcDbZombieObject
 90
      499
 91
      502
 93
      105
310
903313A354000000000000144000
  0
ACAD_PROXY_OBJECT
  5
74
102
{ACAD_REACTORS
330
6F
102
}
330
6F
100
AcDbZombieObject
 90
      499
 91
      502
 93
      105
310
903313A384000000000000204000
  0
ACAD_PROXY_OBJECT
  5
75
102
{ACAD_REACTORS
330
6F
102
}
330
6F
100
AcDbZombieObject
 90
      499
 91
      502
 93
      113
310
904313A31304000000000000244000
  0
ACAD_PROXY_OBJECT
  5
76
102
{ACAD_REACTORS
330
6F
102
}
330
6F
100
AcDbZombieObject
 90
      499
 91
      502
 93
      113
310
904313A31364000000000000304000
  0
ACAD_PROXY_OBJECT
  5
77
102
{ACAD_REACTORS
330
6F
102
}
330
6F
100
AcDbZombieObject
 90
      499
 91
      502
 93
      113
310
904313A32304000000000000344000
  0
ACAD_PROXY_OBJECT
  5
78
102
{ACAD_REACTORS
330
6F
102
}
330
6F
100
AcDbZombieObject
 90
      499
 91
      502
 93
      113
310
904313A333040000000000003E4000
  0
ACAD_PROXY_OBJECT
  5
79
102
{ACAD_REACTORS
330
6F
102
}
330
6F
100
AcDbZombieObject
 90
      499
 91
      502
 93
      113
310
904313A34304000000000000444000
  0
ACAD_PROXY_OBJECT
  5
7A
102
{ACAD_REACTORS
330
6F
102
}
330
6F
100
AcDbZombieObject
 90
      499
 91
      502
 93
      113
310
904313A35304000000000000494000
  0
ACAD_PROXY_OBJECT
  5
7B
102
{ACAD_REACTORS
330
6F
102
}
330
6F
100
AcDbZombieObject
 90
      499
 91
      502
 93
      121
310
905313A3130304000000000000594000
  0
ACAD_PROXY_OBJECT
  5
7C
102
{ACAD_REACTORS
330
6F
102
}
330
6F
100
AcDbZombieObject
 90
      499
 91
      502
 93
      105
310
903323A310000000000000010100
  0
ACAD_PROXY_OBJECT
  5
7D
102
{ACAD_REACTORS
330
6F
102
}
330
6F
100
AcDbZombieObject
 90
      499
 91
      502
 93
      105
310
903343A310000000000000410100
  0
ACAD_PROXY_OBJECT
  5
7E
102
{ACAD_REACTORS
330
6F
102
}
330
6F
100
AcDbZombieObject
 90
      499
 91
      502
 93
      105
310
903383A310000000000000810100
  0
ACAD_PROXY_OBJECT
  5
7F
102
{ACAD_REACTORS
330
6F
102
}
330
6F
100
AcDbZombieObject
 90
      499
 91
      502
 93
      113
310
90431303A310000000000000910100
  0
ACAD_PROXY_OBJECT
  5
80
102
{ACAD_REACTORS
330
6F
102
}
330
6F
100
AcDbZombieObject
 90
      499
 91
      502
 93
      121
310
9053130303A310000000000001650100
  0
ACAD_PROXY_OBJECT
  5
81
102
{ACAD_REACTORS
330
6F
102
}
330
6F
100
AcDbZombieObject
 90
      499
 91
      502
 93
      257
310
90E312F31323822203D2031272D3022000000000000200FC000000000000284000
  0
ACAD_PROXY_OBJECT
  5
82
102
{ACAD_REACTORS
330
6F
102
}
330
6F
100
AcDbZombieObject
 90
      499
 91
      502
 93
      249
310
90D312F363422203D2031272D3022000000000000240FC000000000000284000
  0
ACAD_PROXY_OBJECT
  5
83
102
{ACAD_REACTORS
330
6F
102
}
330
6F
100
AcDbZombieObject
 90
      499
 91
      502
 93
      249
310
90D312F333222203D2031272D3022000000000000280FC000000000000284000
  0
ACAD_PROXY_OBJECT
  5
84
102
{ACAD_REACTORS
330
6F
102
}
330
6F
100
AcDbZombieObject
 90
      499
 91
      502
 93
      249
310
90D312F313622203D2031272D30220000000000002C0FC000000000000284000
  0
ACAD_PROXY_OBJECT
  5
85
102
{ACAD_REACTORS
330
6F
102
}
330
6F
100
AcDbZombieObject
 90
      499
 91
      502
 93
      249
310
90D332F333222203D2031272D30220000000000002E0FC000000000000284000
  0
ACAD_PROXY_OBJECT
  5
86
102
{ACAD_REACTORS
330
6F
102
}
330
6F
100
AcDbZombieObject
 90
      499
 91
      502
 93
      241
310
90C312F3822203D2031272D3022000000000000300FC000000000000284000
  0
ACAD_PROXY_OBJECT
  5
87
102
{ACAD_REACTORS
330
6F
102
}
330
6F
100
AcDbZombieObject
 90
      499
 91
      502
 93
      249
310
90D332F313622203D2031272D3022000000000000320FC000000000000284000
  0
ACAD_PROXY_OBJECT
  5
88
102
{ACAD_REACTORS
330
6F
102
}
330
6F
100
AcDbZombieObject
 90
      499
 91
      502
 93
      241
310
90C312F3422203D2031272D3022000000000000340FC000000000000284000
  0
ACAD_PROXY_OBJECT
  5
89
102
{ACAD_REACTORS
330
6F
102
}
330
6F
100
AcDbZombieObject
 90
      499
 91
      502
 93
      241
310
90C332F3822203D2031272D3022000000000000360FC000000000000284000
  0
ACAD_PROXY_OBJECT
  5
8A
102
{ACAD_REACTORS
330
6F
102
}
330
6F
100
AcDbZombieObject
 90
      499
 91
      502
 93
      241
310
90C312F3222203D2031272D3022000000000000380FC000000000000284000
  0
ACAD_PROXY_OBJECT
  5
8B
102
{ACAD_REACTORS
330
6F
102
}
330
6F
100
AcDbZombieObject
 90
      499
 91
      502
 93
      241
310
90C332F3422203D2031272D30220000000000003A0FC000000000000284000
  0
ACAD_PROXY_OBJECT
  5
8C
102
{ACAD_REACTORS
330
6F
102
}
330
6F
100
AcDbZombieObject
 90
      499
 91
      502
 93
      161
310
90A3122203D2031272D30224000000000000284000
  0
ACAD_PROXY_OBJECT
  5
8D
102
{ACAD_REACTORS
330
6F
102
}
330
6F
100
AcDbZombieObject
 90
      499
 91
      502
 93
      257
310
90E312D312F3222203D2031272D30220000000000003E0FC000000000000284000
  0
ACAD_PROXY_OBJECT
  5
8E
102
{ACAD_REACTORS
330
6F
102
}
330
6F
100
AcDbZombieObject
 90
      499
 91
      502
 93
      225
310
90A3322203D2031272D302200000000000002100000000000000284000
  0
ACAD_PROXY_OBJECT
  5
8F
102
{ACAD_REACTORS
330
6F
102
}
330
6F
100
AcDbZombieObject
 90
      499
 91
      502
 93
      225
310
90A3622203D2031272D302200000000000006100000000000000284000
  0
ACAD_PROXY_OBJECT
  5
90
102
{ACAD_REACTORS
330
6F
102
}
330
6F
100
AcDbZombieObject
 90
      499
 91
      502
 93
      249
310
90D31272D3022203D2031272D30220000000000000A100000000000000284000
  0
ACAD_PROXY_OBJECT
  5
2F
102
{ACAD_REACTORS
330
2A
102
}
330
2A
100
AcDbZombieObject
 90
      499
 91
      501
 93
      436
310
42CC9915DA5C99599C985B595049028333333333333E3BF0000000000000FB0107901411070040501600405405064090741402480A0340
1001
ACAD
1000
AcDbSavedByObjectVersion
1070
     0
  0
ACAD_PROXY_OBJECT
  5
31
102
{ACAD_REACTORS
330
2A
102
}
330
2A
100
AcDbZombieObject
 90
      499
 91
      501
 93
      500
310
424CD108121A5919195B90640502408333333333333E3BF0000000000000FB01079024090700405020000000000001110200405405064090740C02480A0340
1001
ACAD
1000
AcDbSavedByObjectVersion
1070
     0
  0
ACAD_PROXY_OBJECT
  5
30
102
{ACAD_REACTORS
330
2A
102
}
330
2A
100
AcDbZombieObject
 90
      499
 91
      501
 93
      436
310
42CCD915DA5C99599C985B595059028333333333333E3BF0000000000000FB0107901411070040501600405405064090741402480A0340
1001
ACAD
1000
AcDbSavedByObjectVersion
1070
     0
  0
ACAD_PROXY_OBJECT
  5
32
102
{ACAD_REACTORS
330
2A
102
}
330
2A
100
AcDbZombieObject
 90
      499
 91
      501
 93
      388
310
4150985CDA58D07406404333333333333E3BF0000000000000FB0107A41107004050150841D405064090741402480A0350
1001
ACAD
1000
AcDbSavedByObjectVersion
1070
     0
  0
ACAD_PROXY_OBJECT
  5
36
102
{ACAD_REACTORS
330
2A
102
}
330
2A
100
AcDbZombieObject
 90
      499
 91
      501
 93
      428
310
42109C9A59DA1D195B90C409028333333333333E3BF0000000000000FB010790141107004050150841D405064090741402480A029950
1001
ACAD
1000
AcDbSavedByObjectVersion
1070
     0
  0
ACAD_PROXY_OBJECT
  5
3A
102
{ACAD_REACTORS
330
2A
102
}
330
2A
100
AcDbZombieObject
 90
      499
 91
      501
 93
      452
310
42D0DBDB1BDC90DA185B99D95104090240C333333333333E3BF0000000000000FB0108901411070040501508421405064090741402480A0350
1001
ACAD
1000
AcDbSavedByObjectVersion
1070
     0
  0
ACAD_PROXY_OBJECT
  5
34
102
{ACAD_REACTORS
330
2A
102
}
330
2A
100
AcDbZombieObject
 90
      499
 91
      501
 93
      500
310
4290DBDB98D95C1D1D585B10940D028333333333333E3BF0000000000000FB0107902409070040501000000000000111010841D405064090740C02480A0340
1001
ACAD
1000
AcDbSavedByObjectVersion
1070
     0
  0
ACAD_PROXY_OBJECT
  5
35
102
{ACAD_REACTORS
330
2A
102
}
330
2A
100
AcDbZombieObject
 90
      499
 91
      501
 93
      412
310
40D11A5B50B409028333333333333E3BF0000000000000FB010790141107004050150841D405064090741402480A02677FFFFFD0
1001
ACAD
1000
AcDbSavedByObjectVersion
1070
     0
  0
ACAD_PROXY_OBJECT
  5
39
102
{ACAD_REACTORS
330
2A
102
}
330
2A
100
AcDbZombieObject
 90
      499
 91
      501
 93
      444
310
42D19858D95C185D1D195C9B90F409028333333333333E3BF0000000000000FB010790141107004050150841D405064090741402480A0350
1001
ACAD
1000
AcDbSavedByObjectVersion
1070
     0
  0
ACAD_PROXY_OBJECT
  5
2B
102
{ACAD_REACTORS
330
2A
102
}
330
2A
100
AcDbZombieObject
 90
      499
 91
      501
 93
      388
310
41119B185D240901404333333333333E3BF0000000000000F9010740A41107004050150841D405064090741402480A1B50
1001
ACAD
1000
AcDbSavedByObjectVersion
1070
     0
  0
ACAD_PROXY_OBJECT
  5
2C
102
{ACAD_REACTORS
330
2A
102
}
330
2A
100
AcDbZombieObject
 90
      499
 91
      501
 93
      476
310
43519B185D15DA5D1A115919D95CD0140901404333333333333E3BF0000000000000F9010740901411070040501600405405064090741402480A1B50
1001
ACAD
1000
AcDbSavedByObjectVersion
1070
     0
  0
ACAD_PROXY_OBJECT
  5
2D
102
{ACAD_REACTORS
330
2A
102
}
330
2A
100
AcDbZombieObject
 90
      499
 91
      501
 93
      412
310
41D1DBDD5C985D5910240902404333333333333E3BF0000000000000F9010740A411070040501641D405064090741402480A1B50
1001
ACAD
1000
AcDbSavedByObjectVersion
1070
     0
  0
ACAD_PROXY_OBJECT
  5
2E
102
{ACAD_REACTORS
330
2A
102
}
330
2A
100
AcDbZombieObject
 90
      499
 91
      501
 93
      500
310
4411DBDD5C985D5915DA5D1A115919D95CD0340902404333333333333E3BF0000000000000F9010740901411070040501600405405064090741402480A1B50
1001
ACAD
1000
AcDbSavedByObjectVersion
1070
     0
  0
ACAD_PROXY_OBJECT
  5
38
102
{ACAD_REACTORS
330
2A
102
}
330
2A
100
AcDbZombieObject
 90
      499
 91
      501
 93
      444
310
42D31A5B995C185D1D195C9B90E409028333333333333E3BF0000000000000FB010790141107004050750841D405064090741402483A0350
1001
ACAD
1000
AcDbSavedByObjectVersion
1070
     0
  0
ACAD_PROXY_OBJECT
  5
33
102
{ACAD_REACTORS
330
2A
102
}
330
2A
100
AcDbZombieObject
 90
      499
 91
      501
 93
      420
310
425499585B1A5CDD1A58D08409028333333333333E3BF0000000000000FB01079019070040501508421405064090741402480A1B40
1001
ACAD
1000
AcDbSavedByObjectVersion
1070
     0
  0
ACAD_PROXY_OBJECT
  5
37
102
{ACAD_REACTORS
330
2A
102
}
330
2A
100
AcDbZombieObject
 90
      499
 91
      501
 93
      412
310
41D51A1A58DAD95B90D409028333333333333E3BF0000000000000FB010790141107004050150C41D405064090741402480A0350
1001
ACAD
1000
AcDbSavedByObjectVersion
1070
     0
  0
DICTIONARYVAR
  5
2A5
102
{ACAD_REACTORS
330
2A2
102
}
330
2A2
100
DictionaryVariables
280
     0
  1
1:1
  0
DICTIONARYVAR
  5
2A6
102
{ACAD_REACTORS
330
2A2
102
}
330
2A2
100
DictionaryVariables
280
     0
  1
2
  0
DICTIONARYVAR
  5
2A7
102
{ACAD_REACTORS
330
2A2
102
}
330
2A2
100
DictionaryVariables
280
     0
  1
1
  0
ENDSEC
  0
EOF
