  0
SECTION
  2
HEADER
  9
$ACADVER
  1
AC1012
  9
$DWGCODEPAGE
  3
ansi_1252
  9
$INSBASE
 10
0.0
 20
0.0
 30
0.0
  9
$EXTMIN
 10
0.0
 20
0.0
 30
0.0
  9
$EXTMAX
 10
11.0
 20
8.5
 30
0.0
  9
$LIMMIN
 10
0.0
 20
0.0
  9
$LIMMAX
 10
11.0
 20
8.5
  9
$ORTHOMODE
 70
     0
  9
$REGENMODE
 70
     1
  9
$FILLMODE
 70
     1
  9
$QTEXTMODE
 70
     0
  9
$MIRRTEXT
 70
     1
  9
$DRAGMODE
 70
     2
  9
$LTSCALE
 40
1.0
  9
$OSMODE
 70
    37
  9
$ATTMODE
 70
     1
  9
$TEXTSIZE
 40
0.125
  9
$TRACEWID
 40
0.05
  9
$TEXTSTYLE
  7
STANDARD
  9
$CLAYER
  8
0
  9
$CELTYPE
  6
BYLAYER
  9
$CECOLOR
 62
   256
  9
$CELTSCALE
 40
1.0
  9
$DELOBJ
 70
     1
  9
$DISPSILH
 70
     0
  9
$DIMSCALE
 40
1.0
  9
$DIMASZ
 40
0.13
  9
$DIMEXO
 40
0.05
  9
$DIMDLI
 40
0.38
  9
$DIMRND
 40
0.0
  9
$DIMDLE
 40
0.0
  9
$DIMEXE
 40
0.125
  9
$DIMTP
 40
0.0
  9
$DIMTM
 40
0.0
  9
$DIMTXT
 40
0.125
  9
$DIMCEN
 40
0.09
  9
$DIMTSZ
 40
0.0
  9
$DIMTOL
 70
     0
  9
$DIMLIM
 70
     0
  9
$DIMTIH
 70
     1
  9
$DIMTOH
 70
     1
  9
$DIMSE1
 70
     0
  9
$DIMSE2
 70
     0
  9
$DIMTAD
 70
     0
  9
$DIMZIN
 70
     0
  9
$DIMBLK
  1

  9
$DIMASO
 70
     1
  9
$DIMSHO
 70
     1
  9
$DIMPOST
  1

  9
$DIMAPOST
  1

  9
$DIMALT
 70
     0
  9
$DIMALTD
 70
     2
  9
$DIMALTF
 40
25.4
  9
$DIMLFAC
 40
1.0
  9
$DIMTOFL
 70
     0
  9
$DIMTVP
 40
0.0
  9
$DIMTIX
 70
     0
  9
$DIMSOXD
 70
     0
  9
$DIMSAH
 70
     0
  9
$DIMBLK1
  1

  9
$DIMBLK2
  1

  9
$DIMSTYLE
  2
STANDARD
  9
$DIMCLRD
 70
     0
  9
$DIMCLRE
 70
     0
  9
$DIMCLRT
 70
     0
  9
$DIMTFAC
 40
1.0
  9
$DIMGAP
 40
0.06
  9
$DIMJUST
 70
     0
  9
$DIMSD1
 70
     0
  9
$DIMSD2
 70
     0
  9
$DIMTOLJ
 70
     1
  9
$DIMTZIN
 70
     0
  9
$DIMALTZ
 70
     0
  9
$DIMALTTZ
 70
     0
  9
$DIMFIT
 70
     3
  9
$DIMUPT
 70
     0
  9
$DIMUNIT
 70
     2
  9
$DIMDEC
 70
     3
  9
$DIMTDEC
 70
     3
  9
$DIMALTU
 70
     2
  9
$DIMALTTD
 70
     2
  9
$DIMTXSTY
  7
STANDARD
  9
$DIMAUNIT
 70
     0
  9
$LUNITS
 70
     2
  9
$LUPREC
 70
     2
  9
$SKETCHINC
 40
0.1
  9
$FILLETRAD
 40
0.5
  9
$AUNITS
 70
     0
  9
$AUPREC
 70
     2
  9
$MENU
  1
.
  9
$ELEVATION
 40
0.0
  9
$PELEVATION
 40
0.0
  9
$THICKNESS
 40
0.0
  9
$LIMCHECK
 70
     0
  9
$CHAMFERA
 40
0.5
  9
$CHAMFERB
 40
0.5
  9
$CHAMFERC
 40
1.0
  9
$CHAMFERD
 40
0.0
  9
$SKPOLY
 70
     0
  9
$TDCREATE
 40
2455783.999910058
  9
$TDUPDATE
 40
2455783.99991007
  9
$TDINDWG
 40
0.0000000116
  9
$TDUSRTIMER
 40
0.0000000116
  9
$USRTIMER
 70
     1
  9
$ANGBASE
 50
0.0
  9
$ANGDIR
 70
     0
  9
$PDMODE
 70
     0
  9
$PDSIZE
 40
-1.0
  9
$PLINEWID
 40
0.0
  9
$COORDS
 70
     1
  9
$SPLFRAME
 70
     0
  9
$SPLINETYPE
 70
     6
  9
$SPLINESEGS
 70
     8
  9
$ATTDIA
 70
     0
  9
$ATTREQ
 70
     1
  9
$HANDLING
 70
     1
  9
$HANDSEED
  5
487
  9
$SURFTAB1
 70
     6
  9
$SURFTAB2
 70
     6
  9
$SURFTYPE
 70
     6
  9
$SURFU
 70
     6
  9
$SURFV
 70
     6
  9
$UCSNAME
  2

  9
$UCSORG
 10
0.0
 20
0.0
 30
0.0
  9
$UCSXDIR
 10
1.0
 20
0.0
 30
0.0
  9
$UCSYDIR
 10
0.0
 20
1.0
 30
0.0
  9
$PUCSNAME
  2

  9
$PUCSORG
 10
0.0
 20
0.0
 30
0.0
  9
$PUCSXDIR
 10
1.0
 20
0.0
 30
0.0
  9
$PUCSYDIR
 10
0.0
 20
1.0
 30
0.0
  9
$USERI1
 70
     0
  9
$USERI2
 70
     0
  9
$USERI3
 70
     0
  9
$USERI4
 70
     0
  9
$USERI5
 70
     0
  9
$USERR1
 40
0.0
  9
$USERR2
 40
0.0
  9
$USERR3
 40
0.0
  9
$USERR4
 40
0.0
  9
$USERR5
 40
0.0
  9
$WORLDVIEW
 70
     1
  9
$SHADEDGE
 70
     3
  9
$SHADEDIF
 70
    70
  9
$TILEMODE
 70
     1
  9
$MAXACTVP
 70
    64
  9
$PINSBASE
 10
0.0
 20
0.0
 30
0.0
  9
$PLIMCHECK
 70
     0
  9
$PEXTMIN
 10
1.0000000000E+20
 20
1.0000000000E+20
 30
1.0000000000E+20
  9
$PEXTMAX
 10
-1.0000000000E+20
 20
-1.0000000000E+20
 30
-1.0000000000E+20
  9
$PLIMMIN
 10
0.0
 20
0.0
  9
$PLIMMAX
 10
12.0
 20
9.0
  9
$UNITMODE
 70
     0
  9
$VISRETAIN
 70
     1
  9
$PLINEGEN
 70
     0
  9
$PSLTSCALE
 70
     1
  9
$TREEDEPTH
 70
  3020
  9
$PICKSTYLE
 70
     1
  9
$CMLSTYLE
  2
STANDARD
  9
$CMLJUST
 70
     0
  9
$CMLSCALE
 40
1.0
  9
$SAVEIMAGES
 70
     1
  0
ENDSEC
  0
SECTION
  2
CLASSES
  0
CLASS
  1
ACDBDICTIONARYWDFLT
  2
AcDbDictionaryWithDefault
  3
ObjectDBX Classes
 90
    32768
280
     0
281
     0
  0
CLASS
  1
VISUALSTYLE
  2
AcDbVisualStyle
  3
ObjectDBX Classes
 90
     4095
280
     0
281
     0
  0
CLASS
  1
SCALE
  2
AcDbScale
  3
ObjectDBX Classes
 90
     1153
280
     0
281
     0
  0
CLASS
  1
DICTIONARYVAR
  2
AcDbDictionaryVar
  3
ObjectDBX Classes
 90
        0
280
     0
281
     0
  0
CLASS
  1
XRECORD
  2
AcDbXrecord
  3
AutoCAD 2000
 90
    32768
280
     0
281
     0
  0
CLASS
  1
LWPOLYLINE
  2
AcDbPolyline
  3
AutoCAD 2000
 90
    32768
280
     0
281
     1
  0
CLASS
  1
HATCH
  2
AcDbHatch
  3
AutoCAD 2000
 90
    32768
280
     0
281
     1
  0
CLASS
  1
ACDBPLACEHOLDER
  2
AcDbPlaceHolder
  3
ObjectDBX Classes
 90
        0
280
     0
281
     0
  0
CLASS
  1
LAYOUT
  2
AcDbLayout
  3
ObjectDBX Classes
 90
        0
280
     0
281
     0
  0
ENDSEC
  0
SECTION
  2
TABLES
  0
TABLE
  2
VPORT
  5
8
330
0
100
AcDbSymbolTable
 70
     1
  0
VPORT
  5
29
330
8
100
AcDbSymbolTableRecord
100
AcDbViewportTableRecord
  2
*ACTIVE
 70
     0
 10
0.0
 20
0.0
 11
1.0
 21
1.0
 12
5.5
 22
4.25
 13
0.0
 23
0.0
 14
0.5
 24
0.5
 15
0.5
 25
0.5
 16
0.0
 26
0.0
 36
1.0
 17
0.0
 27
0.0
 37
0.0
 40
8.5
 41
1.2941176471
 42
50.0
 43
0.0
 44
0.0
 50
0.0
 51
0.0
 71
     0
 72
  2000
 73
     1
 74
     3
 75
     0
 76
     0
 77
     0
 78
     0
  0
ENDTAB
  0
TABLE
  2
LTYPE
  5
5
330
0
100
AcDbSymbolTable
 70
     6
  0
LTYPE
  5
14
330
5
100
AcDbSymbolTableRecord
100
AcDbLinetypeTableRecord
  2
BYBLOCK
 70
     0
  3

 72
    65
 73
     0
 40
0.0
  0
LTYPE
  5
15
330
5
100
AcDbSymbolTableRecord
100
AcDbLinetypeTableRecord
  2
BYLAYER
 70
     0
  3

 72
    65
 73
     0
 40
0.0
  0
LTYPE
  5
16
330
5
100
AcDbSymbolTableRecord
100
AcDbLinetypeTableRecord
  2
CONTINUOUS
 70
     0
  3
Solid line
 72
    65
 73
     0
 40
0.0
  0
LTYPE
  5
3B
330
5
100
AcDbSymbolTableRecord
100
AcDbLinetypeTableRecord
  2
HIDDEN
 70
     0
  3
Hidden __ __ __ __ __ __ __ __ __ __ __ __ __ __
 72
    65
 73
     2
 40
0.075
 49
0.05
 74
     0
 49
-0.025
 74
     0
  0
LTYPE
  5
3C
330
5
100
AcDbSymbolTableRecord
100
AcDbLinetypeTableRecord
  2
PHANTOM
 70
     0
  3
Phantom ______  __  __  ______  __  __  ______
 72
    65
 73
     6
 40
0.5
 49
0.25
 74
     0
 49
-0.05
 74
     0
 49
0.05
 74
     0
 49
-0.05
 74
     0
 49
0.05
 74
     0
 49
-0.05
 74
     0
  0
LTYPE
  5
3D
330
5
100
AcDbSymbolTableRecord
100
AcDbLinetypeTableRecord
  2
CENTER
 70
     0
  3
Center ____ _ ____ _ ____ _ ____ _ ____ _ ____
 72
    65
 73
     4
 40
0.4
 49
0.25
 74
     0
 49
-0.05
 74
     0
 49
0.05
 74
     0
 49
-0.05
 74
     0
  0
LTYPE
  5
3E
330
5
100
AcDbSymbolTableRecord
100
AcDbLinetypeTableRecord
  2
CENTERX2
 70
     0
  3
Center (2x) ________  __  ________  __  _____
 72
    65
 73
     4
 40
0.8
 49
0.5
 74
     0
 49
-0.1
 74
     0
 49
0.1
 74
     0
 49
-0.1
 74
     0
  0
LTYPE
  5
3F
330
5
100
AcDbSymbolTableRecord
100
AcDbLinetypeTableRecord
  2
DOT2
 70
     0
  3
Dot (.5x) ........................................
 72
    65
 73
     2
 40
0.025
 49
0.0
 74
     0
 49
-0.025
 74
     0
  0
ENDTAB
  0
TABLE
  2
LAYER
  5
2
330
0
100
AcDbSymbolTable
 70
     2
  0
LAYER
  5
10
330
2
100
AcDbSymbolTableRecord
100
AcDbLayerTableRecord
  2
0
 70
     0
 62
     7
  6
CONTINUOUS
  0
LAYER
  5
40
330
2
100
AcDbSymbolTableRecord
100
AcDbLayerTableRecord
  2
FORMAT
 70
     0
 62
     7
  6
CONTINUOUS
  0
ENDTAB
  0
TABLE
  2
STYLE
  5
3
330
0
100
AcDbSymbolTable
 70
     4
  0
STYLE
  5
11
330
3
100
AcDbSymbolTableRecord
100
AcDbTextStyleTableRecord
  2
STANDARD
 70
     0
 40
0.0
 41
1.0
 50
0.0
 71
     0
 42
0.2
  3
txt
  4

  0
STYLE
  5
6E
330
3
100
AcDbSymbolTableRecord
100
AcDbTextStyleTableRecord
  2
SLDTEXTSTYLE0
 70
     0
 40
0.0
 41
0.75
 50
0.0
 71
     0
 42
0.2
  3
TXT
  4

  0
STYLE
  5
93
330
3
100
AcDbSymbolTableRecord
100
AcDbTextStyleTableRecord
  2
SLDTEXTSTYLE1
 70
     0
 40
0.0
 41
0.6875
 50
0.0
 71
     0
 42
0.2
  3
TXT
  4

  0
STYLE
  5
99
330
3
100
AcDbSymbolTableRecord
100
AcDbTextStyleTableRecord
  2
SLDTEXTSTYLE2
 70
     0
 40
0.0
 41
0.6944444444
 50
0.0
 71
     0
 42
0.2
  3
TXT
  4

  0
ENDTAB
  0
TABLE
  2
VIEW
  5
6
330
0
100
AcDbSymbolTable
 70
     0
  0
ENDTAB
  0
TABLE
  2
UCS
  5
7
330
0
100
AcDbSymbolTable
 70
     0
  0
ENDTAB
  0
TABLE
  2
APPID
  5
9
330
0
100
AcDbSymbolTable
 70
     1
  0
APPID
  5
12
330
9
100
AcDbSymbolTableRecord
100
AcDbRegAppTableRecord
  2
ACAD
 70
     0
  0
ENDTAB
  0
TABLE
  2
DIMSTYLE
  5
A
330
0
100
AcDbSymbolTable
 70
     1
  0
DIMSTYLE
105
27
330
A
100
AcDbSymbolTableRecord
100
AcDbDimStyleTableRecord
  2
STANDARD
 70
     0
  3

  4

  5

  6

  7

 40
1.0
 41
0.18
 42
0.0625
 43
0.38
 44
0.18
 45
0.0
 46
0.0
 47
0.0
 48
0.0
140
0.18
141
0.09
142
0.0
143
25.4
144
1.0
145
0.0
146
1.0
147
0.09
 71
     0
 72
     0
 73
     1
 74
     1
 75
     0
 76
     0
 77
     0
 78
     0
170
     0
171
     2
172
     0
173
     0
174
     0
175
     0
176
     0
177
     0
178
     0
270
     2
271
     4
272
     4
273
     2
274
     2
340
11
275
     0
280
     0
281
     0
282
     0
283
     1
284
     0
285
     0
286
     0
287
     3
288
     0
  0
ENDTAB
  0
TABLE
  2
BLOCK_RECORD
  5
1
330
0
100
AcDbSymbolTable
 70
     4
  0
BLOCK_RECORD
  5
1F
330
1
100
AcDbSymbolTableRecord
100
AcDbBlockTableRecord
  2
*MODEL_SPACE
  0
BLOCK_RECORD
  5
1B
330
1
100
AcDbSymbolTableRecord
100
AcDbBlockTableRecord
  2
*PAPER_SPACE
  0
BLOCK_RECORD
  5
A8
330
1
100
AcDbSymbolTableRecord
100
AcDbBlockTableRecord
  2
SW_NOTE_0
  0
BLOCK_RECORD
  5
AE
330
1
100
AcDbSymbolTableRecord
100
AcDbBlockTableRecord
  2
SW_NOTE_1
  0
BLOCK_RECORD
  5
C2
330
1
100
AcDbSymbolTableRecord
100
AcDbBlockTableRecord
  2
SW_NOTE_2
  0
ENDTAB
  0
ENDSEC
  0
SECTION
  2
BLOCKS
  0
BLOCK
  5
20
330
1F
100
AcDbEntity
  8
0
100
AcDbBlockBegin
  2
*MODEL_SPACE
 70
     0
 10
0.0
 20
0.0
 30
0.0
  3
*MODEL_SPACE
  1

  0
ENDBLK
  5
21
330
1F
100
AcDbEntity
  8
0
100
AcDbBlockEnd
  0
BLOCK
  5
1C
330
1B
100
AcDbEntity
 67
     1
  8
0
100
AcDbBlockBegin
  2
*PAPER_SPACE
 70
     0
 10
0.0
 20
0.0
 30
0.0
  3
*PAPER_SPACE
  1

  0
ENDBLK
  5
1D
330
1B
100
AcDbEntity
 67
     1
  8
0
100
AcDbBlockEnd
  0
BLOCK
  5
A9
330
A8
100
AcDbEntity
  8
0
100
AcDbBlockBegin
  2
SW_NOTE_0
 70
     0
 10
0.0
 20
0.0
 30
0.0
  3
SW_NOTE_0
  1

  0
MTEXT
  5
AB
330
A8
100
AcDbEntity
  8
0
  6
CONTINUOUS
 62
     0
100
AcDbMText
 10
0.0
 20
0.0773440644
 30
0.0
 40
0.06
 41
0.0
 71
     1
 72
     1
  1
INTERPRET GEOMETRIC
  7
SLDTEXTSTYLE0
  0
MTEXT
  5
AC
330
A8
100
AcDbEntity
  8
0
  6
CONTINUOUS
 62
     0
100
AcDbMText
 10
0.0
 20
-0.0220260102
 30
0.0
 40
0.06
 41
0.0
 71
     1
 72
     1
  1
TOLERANCING PER:
  7
SLDTEXTSTYLE0
  0
ENDBLK
  5
AA
330
A8
100
AcDbEntity
  8
0
100
AcDbBlockEnd
  0
BLOCK
  5
AF
330
AE
100
AcDbEntity
  8
0
100
AcDbBlockBegin
  2
SW_NOTE_1
 70
     0
 10
0.0
 20
0.0
 30
0.0
  3
SW_NOTE_1
  1

  0
MTEXT
  5
B1
330
AE
100
AcDbEntity
  8
0
  6
CONTINUOUS
 62
     0
100
AcDbMText
 10
0.0
 20
0.0837894031
 30
0.0
 40
0.065
 41
0.0
 71
     1
 72
     1
  1
DIMENSIONS ARE IN INCHES
  7
SLDTEXTSTYLE0
  0
MTEXT
  5
B2
330
AE
100
AcDbEntity
  8
0
  6
CONTINUOUS
 62
     0
100
AcDbMText
 10
0.0
 20
-0.0205806729
 30
0.0
 40
0.065
 41
0.0
 71
     1
 72
     1
  1
TOLERANCES:
  7
SLDTEXTSTYLE0
  0
MTEXT
  5
B3
330
AE
100
AcDbEntity
  8
0
  6
CONTINUOUS
 62
     0
100
AcDbMText
 10
0.0
 20
-0.1249507489
 30
0.0
 40
0.065
 41
0.0
 71
     1
 72
     1
  1
FRACTIONAL
  7
SLDTEXTSTYLE0
  0
MTEXT
  5
B4
330
AE
100
AcDbEntity
  8
0
  6
CONTINUOUS
 62
     0
100
AcDbMText
 10
0.5175850875
 20
-0.1249507489
 30
0.0
 40
0.065
 41
0.0
 71
     1
 72
     1
  1
%%p
  7
SLDTEXTSTYLE0
  0
MTEXT
  5
B5
330
AE
100
AcDbEntity
  8
0
  6
CONTINUOUS
 62
     0
100
AcDbMText
 10
0.0
 20
-0.2293208248
 30
0.0
 40
0.065
 41
0.0
 71
     1
 72
     1
  1
ANGULAR: MACH
  7
SLDTEXTSTYLE0
  0
MTEXT
  5
B6
330
AE
100
AcDbEntity
  8
0
  6
CONTINUOUS
 62
     0
100
AcDbMText
 10
0.7233732769
 20
-0.2293208248
 30
0.0
 40
0.065
 41
0.0
 71
     1
 72
     1
  1
%%p
  7
SLDTEXTSTYLE0
  0
MTEXT
  5
B7
330
AE
100
AcDbEntity
  8
0
  6
CONTINUOUS
 62
     0
100
AcDbMText
 10
0.7852857683
 20
-0.2293208248
 30
0.0
 40
0.065
 41
0.0
 71
     1
 72
     1
  1
     BEND 
  7
SLDTEXTSTYLE0
  0
MTEXT
  5
B8
330
AE
100
AcDbEntity
  8
0
  6
CONTINUOUS
 62
     0
100
AcDbMText
 10
1.14784136
 20
-0.2293208248
 30
0.0
 40
0.065
 41
0.0
 71
     1
 72
     1
  1
%%p
  7
SLDTEXTSTYLE0
  0
MTEXT
  5
B9
330
AE
100
AcDbEntity
  8
0
  6
CONTINUOUS
 62
     0
100
AcDbMText
 10
0.0
 20
-0.3336909008
 30
0.0
 40
0.065
 41
0.0
 71
     1
 72
     1
  1
TWO PLACE DECIMAL    
  7
SLDTEXTSTYLE0
  0
MTEXT
  5
BA
330
AE
100
AcDbEntity
  8
0
  6
CONTINUOUS
 62
     0
100
AcDbMText
 10
0.9794349188
 20
-0.3336909008
 30
0.0
 40
0.065
 41
0.0
 71
     1
 72
     1
  1
%%p
  7
SLDTEXTSTYLE0
  0
MTEXT
  5
BB
330
AE
100
AcDbEntity
  8
0
  6
CONTINUOUS
 62
     0
100
AcDbMText
 10
0.0
 20
-0.4380609768
 30
0.0
 40
0.065
 41
0.0
 71
     1
 72
     1
  1
THREE PLACE DECIMAL  
  7
SLDTEXTSTYLE0
  0
MTEXT
  5
BC
330
AE
100
AcDbEntity
  8
0
  6
CONTINUOUS
 62
     0
100
AcDbMText
 10
0.9738038639
 20
-0.4380609768
 30
0.0
 40
0.065
 41
0.0
 71
     1
 72
     1
  1
%%p
  7
SLDTEXTSTYLE0
  0
ENDBLK
  5
B0
330
AE
100
AcDbEntity
  8
0
100
AcDbBlockEnd
  0
BLOCK
  5
C3
330
C2
100
AcDbEntity
  8
0
100
AcDbBlockBegin
  2
SW_NOTE_2
 70
     0
 10
0.0
 20
0.0
 30
0.0
  3
SW_NOTE_2
  1

  0
MTEXT
  5
C5
330
C2
100
AcDbEntity
  8
0
  6
CONTINUOUS
 62
     0
100
AcDbMText
 10
0.0
 20
0.0773440644
 30
0.0
 40
0.06
 41
0.0
 71
     1
 72
     1
  1
THE INFORMATION CONTAINED IN THIS
  7
SLDTEXTSTYLE0
  0
MTEXT
  5
C6
330
C2
100
AcDbEntity
  8
0
  6
CONTINUOUS
 62
     0
100
AcDbMText
 10
0.0
 20
-0.0220260102
 30
0.0
 40
0.06
 41
0.0
 71
     1
 72
     1
  1
DRAWING IS THE SOLE PROPERTY OF
  7
SLDTEXTSTYLE0
  0
MTEXT
  5
C7
330
C2
100
AcDbEntity
  8
0
  6
CONTINUOUS
 62
     0
100
AcDbMText
 10
0.0
 20
-0.1213960848
 30
0.0
 40
0.06
 41
0.0
 71
     1
 72
     1
  1
Candy Controls.  ANY 
  7
SLDTEXTSTYLE0
  0
MTEXT
  5
C8
330
C2
100
AcDbEntity
  8
0
  6
CONTINUOUS
 62
     0
100
AcDbMText
 10
0.0
 20
-0.2207661593
 30
0.0
 40
0.06
 41
0.0
 71
     1
 72
     1
  1
REPRODUCTION IN PART OR AS A WHOLE
  7
SLDTEXTSTYLE0
  0
MTEXT
  5
C9
330
C2
100
AcDbEntity
  8
0
  6
CONTINUOUS
 62
     0
100
AcDbMText
 10
0.0
 20
-0.3201362339
 30
0.0
 40
0.06
 41
0.0
 71
     1
 72
     1
  1
WITHOUT THE WRITTEN PERMISSION OF
  7
SLDTEXTSTYLE0
  0
MTEXT
  5
CA
330
C2
100
AcDbEntity
  8
0
  6
CONTINUOUS
 62
     0
100
AcDbMText
 10
0.0
 20
-0.4195063085
 30
0.0
 40
0.06
 41
0.0
 71
     1
 72
     1
  1
Candy Controls IS 
  7
SLDTEXTSTYLE0
  0
MTEXT
  5
CB
330
C2
100
AcDbEntity
  8
0
  6
CONTINUOUS
 62
     0
100
AcDbMText
 10
0.0
 20
-0.518876383
 30
0.0
 40
0.06
 41
0.0
 71
     1
 72
     1
  1
PROHIBITED.
  7
SLDTEXTSTYLE0
  0
ENDBLK
  5
C4
330
C2
100
AcDbEntity
  8
0
100
AcDbBlockEnd
  0
ENDSEC
  0
SECTION
  2
ENTITIES
  0
LINE
  5
41
330
1F
100
AcDbEntity
  8
0
  6
CONTINUOUS
 62
     7
100
AcDbLine
 10
0.329927
 20
8.1920731707
 30
0.0
 11
10.629927
 21
8.1920731707
 31
0.0
  0
LINE
  5
42
330
1F
100
AcDbEntity
  8
0
  6
CONTINUOUS
 62
     7
100
AcDbLine
 10
0.329927
 20
8.1920731707
 30
0.0
 11
0.329927
 21
0.3920731707
 31
0.0
  0
LINE
  5
43
330
1F
100
AcDbEntity
  8
0
  6
CONTINUOUS
 62
     7
100
AcDbLine
 10
10.629927
 20
0.3920731707
 30
0.0
 11
0.329927
 21
0.3920731707
 31
0.0
  0
LINE
  5
44
330
1F
100
AcDbEntity
  8
0
  6
CONTINUOUS
 62
     7
100
AcDbLine
 10
10.629927
 20
0.3920731707
 30
0.0
 11
10.629927
 21
8.1920731707
 31
0.0
  0
LINE
  5
45
330
1F
100
AcDbEntity
  8
0
  6
CONTINUOUS
 62
     7
100
AcDbLine
 10
4.7981841288
 20
0.3920731707
 30
0.0
 11
4.7981841288
 21
2.3564211366
 31
0.0
  0
LINE
  5
46
330
1F
100
AcDbEntity
  8
0
  6
CONTINUOUS
 62
     7
100
AcDbLine
 10
2.8210345579
 20
2.3564211366
 30
0.0
 11
10.629927
 21
2.3564211366
 31
0.0
  0
LINE
  5
47
330
1F
100
AcDbEntity
  8
0
  6
CONTINUOUS
 62
     7
100
AcDbLine
 10
6.1796352514
 20
2.3564211366
 30
0.0
 11
6.1796352514
 21
0.3920731707
 31
0.0
  0
LINE
  5
48
330
1F
100
AcDbEntity
  8
0
  6
CONTINUOUS
 62
     7
100
AcDbLine
 10
7.8712070044
 20
2.3564211366
 30
0.0
 11
7.8712070044
 21
0.3920731707
 31
0.0
  0
LINE
  5
49
330
1F
100
AcDbEntity
  8
0
  6
CONTINUOUS
 62
     7
100
AcDbLine
 10
7.8712070044
 20
0.6049590101
 30
0.0
 11
10.629927
 21
0.6049590101
 31
0.0
  0
LINE
  5
4A
330
1F
100
AcDbEntity
  8
0
  6
CONTINUOUS
 62
     7
100
AcDbLine
 10
7.8712070044
 20
1.1119362457
 30
0.0
 11
10.629927
 21
1.1119362457
 31
0.0
  0
LINE
  5
4B
330
1F
100
AcDbEntity
  8
0
  6
CONTINUOUS
 62
     7
100
AcDbLine
 10
7.8712070044
 20
1.9892703708
 30
0.0
 11
10.629927
 21
1.9892703708
 31
0.0
  0
LINE
  5
4C
330
1F
100
AcDbEntity
  8
0
  6
CONTINUOUS
 62
     7
100
AcDbLine
 10
8.266751752
 20
1.1119362457
 30
0.0
 11
8.266751752
 21
0.6049590101
 31
0.0
  0
LINE
  5
4D
330
1F
100
AcDbEntity
  8
0
  6
CONTINUOUS
 62
     7
100
AcDbLine
 10
8.6943435176
 20
0.6049590101
 30
0.0
 11
8.6943435176
 21
0.3920731707
 31
0.0
  0
LINE
  5
4E
330
1F
100
AcDbEntity
  8
0
  6
CONTINUOUS
 62
     7
100
AcDbLine
 10
10.0579917045
 20
1.1119362457
 30
0.0
 11
10.0579917045
 21
0.6049590101
 31
0.0
  0
LINE
  5
4F
330
1F
100
AcDbEntity
  8
0
  6
CONTINUOUS
 62
     7
100
AcDbLine
 10
9.6662556631
 20
0.6049590101
 30
0.0
 11
9.6662556631
 21
0.3920731707
 31
0.0
  0
LINE
  5
50
330
1F
100
AcDbEntity
  8
0
  6
CONTINUOUS
 62
     7
100
AcDbLine
 10
2.8210345579
 20
0.5883479999
 30
0.0
 11
6.1796352514
 21
0.5883479999
 31
0.0
  0
LINE
  5
51
330
1F
100
AcDbEntity
  8
0
  6
CONTINUOUS
 62
     7
100
AcDbLine
 10
6.1796352514
 20
1.7939211366
 30
0.0
 11
7.8712070044
 21
1.7939211366
 31
0.0
  0
LINE
  5
52
330
1F
100
AcDbEntity
  8
0
  6
CONTINUOUS
 62
     7
100
AcDbLine
 10
6.1796352514
 20
1.9814211366
 30
0.0
 11
7.8712070044
 21
1.9814211366
 31
0.0
  0
LINE
  5
53
330
1F
100
AcDbEntity
  8
0
  6
CONTINUOUS
 62
     7
100
AcDbLine
 10
6.1796352514
 20
2.1689211366
 30
0.0
 11
7.8712070044
 21
2.1689211366
 31
0.0
  0
LINE
  5
54
330
1F
100
AcDbEntity
  8
0
  6
CONTINUOUS
 62
     7
100
AcDbLine
 10
7.8712070044
 20
1.2314211366
 30
0.0
 11
6.1796352514
 21
1.2314211366
 31
0.0
  0
LINE
  5
55
330
1F
100
AcDbEntity
  8
0
  6
CONTINUOUS
 62
     7
100
AcDbLine
 10
7.3921580388
 20
2.3564211366
 30
0.0
 11
7.3921580388
 21
1.2314211366
 31
0.0
  0
LINE
  5
56
330
1F
100
AcDbEntity
  8
0
  6
CONTINUOUS
 62
     7
100
AcDbLine
 10
6.9236308342
 20
2.3564211366
 30
0.0
 11
6.9236308342
 21
1.2314211366
 31
0.0
  0
LINE
  5
57
330
1F
100
AcDbEntity
  8
0
  6
CONTINUOUS
 62
     7
100
AcDbLine
 10
4.7981841288
 20
0.8557965305
 30
0.0
 11
6.1796352514
 21
0.8557965305
 31
0.0
  0
LINE
  5
58
330
1F
100
AcDbEntity
  8
0
  6
CONTINUOUS
 62
     7
100
AcDbLine
 10
4.7981841288
 20
1.1257965305
 30
0.0
 11
6.1796352514
 21
1.1257965305
 31
0.0
  0
LINE
  5
59
330
1F
100
AcDbEntity
  8
0
  6
CONTINUOUS
 62
     7
100
AcDbLine
 10
2.8210345579
 20
0.3920731707
 30
0.0
 11
2.8210345579
 21
2.3564211366
 31
0.0
  0
LINE
  5
5A
330
1F
100
AcDbEntity
  8
0
  6
CONTINUOUS
 62
     7
100
AcDbLine
 10
2.8210345579
 20
1.1064211366
 30
0.0
 11
4.7981841288
 21
1.1064211366
 31
0.0
  0
LINE
  5
5B
330
1F
100
AcDbEntity
  8
0
  6
CONTINUOUS
 62
     7
100
AcDbLine
 10
2.8210345579
 20
1.3564211366
 30
0.0
 11
4.7981841288
 21
1.3564211366
 31
0.0
  0
LINE
  5
5C
330
1F
100
AcDbEntity
  8
0
  6
CONTINUOUS
 62
     7
100
AcDbLine
 10
2.8210345579
 20
1.6064211366
 30
0.0
 11
4.7981841288
 21
1.6064211366
 31
0.0
  0
LINE
  5
5D
330
1F
100
AcDbEntity
  8
0
  6
CONTINUOUS
 62
     7
100
AcDbLine
 10
2.8210345579
 20
1.8564211366
 30
0.0
 11
4.7981841288
 21
1.8564211366
 31
0.0
  0
LINE
  5
5E
330
1F
100
AcDbEntity
  8
0
  6
CONTINUOUS
 62
     7
100
AcDbLine
 10
3.8190146875
 20
2.3564211366
 30
0.0
 11
3.8190146875
 21
0.5883479999
 31
0.0
  0
LINE
  5
5F
330
1F
100
AcDbEntity
  8
0
  6
CONTINUOUS
 62
     7
100
AcDbLine
 10
6.1796352514
 20
2.2020813496
 30
0.0
 11
4.7981841288
 21
2.2020813496
 31
0.0
  0
LINE
  5
60
330
1F
100
AcDbEntity
  8
0
  6
CONTINUOUS
 62
     7
100
AcDbLine
 10
7.8712070044
 20
1.6064211366
 30
0.0
 11
6.1796352514
 21
1.6064211366
 31
0.0
  0
LINE
  5
61
330
1F
100
AcDbEntity
  8
0
  6
CONTINUOUS
 62
     7
100
AcDbLine
 10
7.8712070044
 20
1.4189211366
 30
0.0
 11
6.1796352514
 21
1.4189211366
 31
0.0
  0
LINE
  5
62
330
1F
100
AcDbEntity
  8
0
  6
CONTINUOUS
 62
     7
100
AcDbLine
 10
2.8210345579
 20
2.1064211366
 30
0.0
 11
4.7981841288
 21
2.1064211366
 31
0.0
  0
LINE
  5
63
330
1F
100
AcDbEntity
  8
0
  6
CONTINUOUS
 62
     7
100
AcDbLine
 10
4.7981841288
 20
1.3957965305
 30
0.0
 11
6.1796352514
 21
1.3957965305
 31
0.0
  0
LINE
  5
64
330
1F
100
AcDbEntity
  8
0
  6
CONTINUOUS
 62
     7
100
AcDbLine
 10
2.8210345579
 20
0.8564211366
 30
0.0
 11
4.7981841288
 21
0.8564211366
 31
0.0
  0
LINE
  5
65
330
1F
100
AcDbEntity
  8
0
  6
CONTINUOUS
 62
     7
100
AcDbLine
 10
1.1838252943
 20
0.3920731707
 30
0.0
 11
1.1838252943
 21
1.3064211366
 31
0.0
  0
LINE
  5
66
330
1F
100
AcDbEntity
  8
0
  6
CONTINUOUS
 62
     7
100
AcDbLine
 10
2.8210345579
 20
1.3064211366
 30
0.0
 11
1.1838252943
 21
1.3064211366
 31
0.0
  0
LINE
  5
67
330
1F
100
AcDbEntity
  8
0
  6
CONTINUOUS
 62
     7
100
AcDbLine
 10
8.660927
 20
0.3920731707
 30
0.0
 11
8.660927
 21
0.3072739649
 31
0.0
  0
LINE
  5
68
330
1F
100
AcDbEntity
  8
0
  6
CONTINUOUS
 62
     7
100
AcDbLine
 10
6.692177
 20
0.3920731707
 30
0.0
 11
6.692177
 21
0.3072739649
 31
0.0
  0
LINE
  5
69
330
1F
100
AcDbEntity
  8
0
  6
CONTINUOUS
 62
     7
100
AcDbLine
 10
4.723427
 20
0.3920731707
 30
0.0
 11
4.723427
 21
0.3072739649
 31
0.0
  0
LINE
  5
6A
330
1F
100
AcDbEntity
  8
0
  6
CONTINUOUS
 62
     7
100
AcDbLine
 10
2.754677
 20
0.3920731707
 30
0.0
 11
2.754677
 21
0.3072739649
 31
0.0
  0
LINE
  5
6B
330
1F
100
AcDbEntity
  8
0
  6
CONTINUOUS
 62
     7
100
AcDbLine
 10
2.754677
 20
0.3920731707
 30
0.0
 11
2.7672319738
 21
0.3575
 31
0.0
  0
LINE
  5
6C
330
1F
100
AcDbEntity
  8
0
  6
CONTINUOUS
 62
     7
100
AcDbLine
 10
2.7672319738
 20
0.3575
 30
0.0
 11
2.7414258825
 21
0.3575
 31
0.0
  0
LINE
  5
6D
330
1F
100
AcDbEntity
  8
0
  6
CONTINUOUS
 62
     7
100
AcDbLine
 10
2.7414258825
 20
0.3575
 30
0.0
 11
2.754677
 21
0.3920731707
 31
0.0
  0
MTEXT
  5
91
330
1F
100
AcDbEntity
  8
0
  6
CONTINUOUS
 62
     7
100
AcDbMText
 10
4.9775846961
 20
0.5178452352
 30
0.0
 40
0.0625
 41
0.0
 71
     1
 72
     1
  1
DO NOT SCALE DRAWING
  7
SLDTEXTSTYLE0
  0
MTEXT
  5
92
330
1F
100
AcDbEntity
  8
0
  6
CONTINUOUS
 62
     7
100
AcDbMText
 10
8.8601674857
 20
0.9417064595
 30
0.0
 40
0.125
 41
0.0
 71
     1
 72
     1
  1
CL13-32
  7
SLDTEXTSTYLE0
  0
MTEXT
  5
94
330
1F
100
AcDbEntity
  8
0
  6
CONTINUOUS
 62
     7
100
AcDbMText
 10
9.7571278483
 20
0.5524239532
 30
0.0
 40
0.1
 41
0.0
 71
     1
 72
     1
  1
SHEET 1 OF 1
  7
SLDTEXTSTYLE1
  0
MTEXT
  5
95
330
1F
100
AcDbEntity
  8
0
  6
CONTINUOUS
 62
     7
100
AcDbMText
 10
4.8448077858
 20
2.3132954224
 30
0.0
 40
0.07
 41
0.0
 71
     1
 72
     1
  1
UNLESS OTHERWISE SPECIFIED:
  7
SLDTEXTSTYLE0
  0
MTEXT
  5
96
330
1F
100
AcDbEntity
  8
0
  6
CONTINUOUS
 62
     7
100
AcDbMText
 10
7.9586139647
 20
0.5520987879
 30
0.0
 40
0.1
 41
0.0
 71
     1
 72
     1
  1
SCALE: 1:1
  7
SLDTEXTSTYLE0
  0
MTEXT
  5
97
330
1F
100
AcDbEntity
  8
0
  6
CONTINUOUS
 62
     7
100
AcDbMText
 10
8.7023691647
 20
0.5486763345
 30
0.0
 40
0.1
 41
0.0
 71
     1
 72
     1
  1
WEIGHT: 
  7
SLDTEXTSTYLE0
  0
MTEXT
  5
98
330
1F
100
AcDbEntity
  8
0
  6
CONTINUOUS
 62
     7
100
AcDbMText
 10
10.2277580983
 20
1.081966299
 30
0.0
 40
0.1
 41
0.0
 71
     1
 72
     1
  1
REV
  7
SLDTEXTSTYLE0
  0
MTEXT
  5
9A
330
1F
100
AcDbEntity
  8
0
  6
CONTINUOUS
 62
     7
100
AcDbMText
 10
8.2984570898
 20
1.0858725293
 30
0.0
 40
0.1
 41
0.0
 71
     1
 72
     1
  1
DWG.  NO.
  7
SLDTEXTSTYLE2
  0
MTEXT
  5
9B
330
1F
100
AcDbEntity
  8
0
  6
CONTINUOUS
 62
     7
100
AcDbMText
 10
7.9598482632
 20
0.9442140768
 30
0.0
 40
0.25
 41
0.0
 71
     1
 72
     1
  1
A
  7
SLDTEXTSTYLE0
  0
MTEXT
  5
9C
330
1F
100
AcDbEntity
  8
0
  6
CONTINUOUS
 62
     7
100
AcDbMText
 10
7.9519581822
 20
1.0872713483
 30
0.0
 40
0.1
 41
0.0
 71
     1
 72
     1
  1
SIZE
  7
SLDTEXTSTYLE0
  0
MTEXT
  5
9D
330
1F
100
AcDbEntity
  8
0
  6
CONTINUOUS
 62
     7
100
AcDbMText
 10
7.9170704177
 20
1.9547881128
 30
0.0
 40
0.1
 41
0.0
 71
     1
 72
     1
  1
TITLE:
  7
SLDTEXTSTYLE0
  0
MTEXT
  5
9E
330
1F
100
AcDbEntity
  8
0
  6
CONTINUOUS
 62
     7
100
AcDbMText
 10
7.0363774929
 20
2.2906161274
 30
0.0
 40
0.065
 41
0.0
 71
     1
 72
     1
  1
NAME
  7
SLDTEXTSTYLE0
  0
MTEXT
  5
9F
330
1F
100
AcDbEntity
  8
0
  6
CONTINUOUS
 62
     7
100
AcDbMText
 10
7.5281510634
 20
2.2888799118
 30
0.0
 40
0.065
 41
0.0
 71
     1
 72
     1
  1
DATE
  7
SLDTEXTSTYLE0
  0
MTEXT
  5
A0
330
1F
100
AcDbEntity
  8
0
  6
CONTINUOUS
 62
     7
100
AcDbMText
 10
6.2277147029
 20
1.1876913145
 30
0.0
 40
0.065
 41
0.0
 71
     1
 72
     1
  1
COMMENTS:
  7
SLDTEXTSTYLE0
  0
MTEXT
  5
A1
330
1F
100
AcDbEntity
  8
0
  6
CONTINUOUS
 62
     7
100
AcDbMText
 10
6.2268411461
 20
1.3536101679
 30
0.0
 40
0.065
 41
0.0
 71
     1
 72
     1
  1
Q.A.
  7
SLDTEXTSTYLE0
  0
MTEXT
  5
A2
330
1F
100
AcDbEntity
  8
0
  6
CONTINUOUS
 62
     7
100
AcDbMText
 10
6.2284654509
 20
1.5395328424
 30
0.0
 40
0.065
 41
0.0
 71
     1
 72
     1
  1
MFG APPR.
  7
SLDTEXTSTYLE0
  0
MTEXT
  5
A3
330
1F
100
AcDbEntity
  8
0
  6
CONTINUOUS
 62
     7
100
AcDbMText
 10
6.2235171344
 20
1.7267501785
 30
0.0
 40
0.065
 41
0.0
 71
     1
 72
     1
  1
ENG APPR.
  7
SLDTEXTSTYLE0
  0
MTEXT
  5
A4
330
1F
100
AcDbEntity
  8
0
  6
CONTINUOUS
 62
     7
100
AcDbMText
 10
6.2264103951
 20
1.9092699088
 30
0.0
 40
0.065
 41
0.0
 71
     1
 72
     1
  1
CHECKED
  7
SLDTEXTSTYLE0
  0
MTEXT
  5
A5
330
1F
100
AcDbEntity
  8
0
  6
CONTINUOUS
 62
     7
100
AcDbMText
 10
6.2242794356
 20
2.1016301232
 30
0.0
 40
0.065
 41
0.0
 71
     1
 72
     1
  1
DRAWN
  7
SLDTEXTSTYLE0
  0
MTEXT
  5
A6
330
1F
100
AcDbEntity
  8
0
  6
CONTINUOUS
 62
     7
100
AcDbMText
 10
4.8208600979
 20
0.834523235
 30
0.0
 40
0.06
 41
0.0
 71
     1
 72
     1
  1
FINISH
  7
SLDTEXTSTYLE0
  0
MTEXT
  5
A7
330
1F
100
AcDbEntity
  8
0
  6
CONTINUOUS
 62
     7
100
AcDbMText
 10
4.8181240648
 20
1.1028217587
 30
0.0
 40
0.06
 41
0.0
 71
     1
 72
     1
  1
MATERIAL
  7
SLDTEXTSTYLE0
  0
INSERT
  5
AD
330
1F
100
AcDbEntity
  8
0
  6
CONTINUOUS
 62
     7
100
AcDbBlockReference
  2
SW_NOTE_0
 10
4.8231926633
 20
1.2646542947
 30
0.0
  0
INSERT
  5
BD
330
1F
100
AcDbEntity
  8
0
  6
CONTINUOUS
 62
     7
100
AcDbBlockReference
  2
SW_NOTE_1
 10
4.8353339353
 20
2.0049168724
 30
0.0
  0
MTEXT
  5
BE
330
1F
100
AcDbEntity
  8
0
  6
CONTINUOUS
 62
     7
100
AcDbMText
 10
3.5531400086
 20
0.5200091997
 30
0.0
 40
0.0625
 41
0.0
 71
     1
 72
     1
  1
APPLICATION
  7
SLDTEXTSTYLE0
  0
MTEXT
  5
BF
330
1F
100
AcDbEntity
  8
0
  6
CONTINUOUS
 62
     7
100
AcDbMText
 10
4.1005607758
 20
0.7502454275
 30
0.0
 40
0.0625
 41
0.0
 71
     1
 72
     1
  1
USED ON
  7
SLDTEXTSTYLE0
  0
MTEXT
  5
C0
330
1F
100
AcDbEntity
  8
0
  6
CONTINUOUS
 62
     7
100
AcDbMText
 10
3.1040019536
 20
0.7492094783
 30
0.0
 40
0.0625
 41
0.0
 71
     1
 72
     1
  1
NEXT ASSY
  7
SLDTEXTSTYLE0
  0
MTEXT
  5
C1
330
1F
100
AcDbEntity
  8
0
  6
CONTINUOUS
 62
     7
100
AcDbMText
 10
1.3712489489
 20
1.2496672684
 30
0.0
 40
0.06
 41
0.0
 71
     1
 72
     1
  1
PROPRIETARY AND CONFIDENTIAL
  7
SLDTEXTSTYLE0
  0
INSERT
  5
CC
330
1F
100
AcDbEntity
  8
0
  6
CONTINUOUS
 62
     7
100
AcDbBlockReference
  2
SW_NOTE_2
 10
1.2226209074
 20
1.0313492921
 30
0.0
  0
MTEXT
  5
CD
330
1F
100
AcDbEntity
  8
0
  6
CONTINUOUS
 62
     7
100
AcDbMText
 10
1.7387909509
 20
0.3105864247
 30
0.0
 40
0.09375
 41
0.0
 71
     1
 72
     1
  1
5
  7
SLDTEXTSTYLE0
  0
MTEXT
  5
CE
330
1F
100
AcDbEntity
  8
0
  6
CONTINUOUS
 62
     7
100
AcDbMText
 10
3.723800327
 20
0.3137237518
 30
0.0
 40
0.09375
 41
0.0
 71
     1
 72
     1
  1
4
  7
SLDTEXTSTYLE0
  0
MTEXT
  5
CF
330
1F
100
AcDbEntity
  8
0
  6
CONTINUOUS
 62
     7
100
AcDbMText
 10
5.6324457277
 20
0.3116191842
 30
0.0
 40
0.09375
 41
0.0
 71
     1
 72
     1
  1
3
  7
SLDTEXTSTYLE0
  0
MTEXT
  5
D0
330
1F
100
AcDbEntity
  8
0
  6
CONTINUOUS
 62
     7
100
AcDbMText
 10
7.6059721724
 20
0.3124391351
 30
0.0
 40
0.09375
 41
0.0
 71
     1
 72
     1
  1
2
  7
SLDTEXTSTYLE0
  0
MTEXT
  5
D1
330
1F
100
AcDbEntity
  8
0
  6
CONTINUOUS
 62
     7
100
AcDbMText
 10
9.6619921328
 20
0.301372012
 30
0.0
 40
0.09375
 41
0.0
 71
     1
 72
     1
  1
1
  7
SLDTEXTSTYLE0
  0
LINE
  5
D2
330
1F
100
AcDbEntity
  8
0
  6
CONTINUOUS
 62
     7
100
AcDbLine
 10
2.5345494892
 20
3.1267885226
 30
0.0
 11
4.1187227176
 21
3.1267885226
 31
0.0
  0
LINE
  5
D3
330
1F
100
AcDbEntity
  8
0
  6
CONTINUOUS
 62
     7
100
AcDbLine
 10
2.8215325079
 20
4.3866310423
 30
0.0
 11
2.5345494892
 21
4.3866310423
 31
0.0
  0
LINE
  5
D4
330
1F
100
AcDbEntity
  8
0
  6
CONTINUOUS
 62
     7
100
AcDbLine
 10
3.6483041614
 20
4.3866310423
 30
0.0
 11
3.0049679238
 21
4.3866310423
 31
0.0
  0
LINE
  5
D5
330
1F
100
AcDbEntity
  8
0
  6
CONTINUOUS
 62
     7
100
AcDbLine
 10
4.1187227176
 20
4.3866310423
 30
0.0
 11
3.8317395773
 21
4.3866310423
 31
0.0
  0
LINE
  5
D6
330
1F
100
AcDbEntity
  8
0
  6
CONTINUOUS
 62
     7
100
AcDbLine
 10
4.1187227176
 20
3.1267885226
 30
0.0
 11
4.1337227176
 21
3.1417885226
 31
0.0
  0
LINE
  5
D7
330
1F
100
AcDbEntity
  8
0
  6
CONTINUOUS
 62
     7
100
AcDbLine
 10
4.1337227176
 20
4.3716310423
 30
0.0
 11
4.1187227176
 21
4.3866310423
 31
0.0
  0
LINE
  5
D8
330
1F
100
AcDbEntity
  8
0
  6
CONTINUOUS
 62
     7
100
AcDbLine
 10
2.5345494892
 20
4.3866310423
 30
0.0
 11
2.5195494892
 21
4.3716310423
 31
0.0
  0
LINE
  5
D9
330
1F
100
AcDbEntity
  8
0
  6
CONTINUOUS
 62
     7
100
AcDbLine
 10
2.5195494892
 20
3.1417885226
 30
0.0
 11
2.5345494892
 21
3.1267885226
 31
0.0
  0
LINE
  5
DA
330
1F
100
AcDbEntity
  8
0
  6
CONTINUOUS
 62
     7
100
AcDbLine
 10
3.8114653619
 20
4.383927768
 30
0.0
 11
3.8087620876
 21
4.3866310423
 31
0.0
  0
LINE
  5
DB
330
1F
100
AcDbEntity
  8
0
  6
CONTINUOUS
 62
     7
100
AcDbLine
 10
3.6712817727
 20
4.3866310423
 30
0.0
 11
3.6685793765
 21
4.3839286461
 31
0.0
  0
LINE
  5
DC
330
1F
100
AcDbEntity
  8
0
  6
CONTINUOUS
 62
     7
100
AcDbLine
 10
2.9846937083
 20
4.383927768
 30
0.0
 11
2.9819904341
 21
4.3866310423
 31
0.0
  0
LINE
  5
DD
330
1F
100
AcDbEntity
  8
0
  6
CONTINUOUS
 62
     7
100
AcDbLine
 10
2.8445101191
 20
4.3866310423
 30
0.0
 11
2.841807723
 21
4.3839286461
 31
0.0
  0
LINE
  5
DE
330
1F
100
AcDbEntity
  8
0
  6
CONTINUOUS
 62
     7
100
AcDbLine
 10
4.1187227176
 20
3.1267885226
 30
0.0
 11
4.1187227176
 21
4.3866310423
 31
0.0
  0
LINE
  5
DF
330
1F
100
AcDbEntity
  8
0
  6
CONTINUOUS
 62
     7
100
AcDbLine
 10
2.5345494892
 20
4.3866310423
 30
0.0
 11
2.5345494892
 21
3.1267885226
 31
0.0
  0
POLYLINE
  5
E0
330
1F
100
AcDbEntity
  8
0
  6
CONTINUOUS
 62
     7
100
AcDb2dPolyline
 66
     1
 10
0.0
 20
0.0
 30
0.0
  0
VERTEX
  5
205
330
E0
100
AcDbEntity
  8
0
  6
CONTINUOUS
 62
     7
100
AcDbVertex
100
AcDb2dVertex
 10
3.8317395773
 20
4.3866310242
 30
0.0
  0
VERTEX
  5
206
330
E0
100
AcDbEntity
  8
0
  6
CONTINUOUS
 62
     7
100
AcDbVertex
100
AcDb2dVertex
 10
3.8317396989
 20
4.3866310423
 30
0.0
  0
VERTEX
  5
207
330
E0
100
AcDbEntity
  8
0
  6
CONTINUOUS
 62
     7
100
AcDbVertex
100
AcDb2dVertex
 10
3.8299708832
 20
4.3863688819
 30
0.0
  0
VERTEX
  5
208
330
E0
100
AcDbEntity
  8
0
  6
CONTINUOUS
 62
     7
100
AcDbVertex
100
AcDb2dVertex
 10
3.8246615622
 20
4.3856123248
 30
0.0
  0
VERTEX
  5
209
330
E0
100
AcDbEntity
  8
0
  6
CONTINUOUS
 62
     7
100
AcDbVertex
100
AcDb2dVertex
 10
3.8161877318
 20
4.3844797635
 30
0.0
  0
VERTEX
  5
20A
330
E0
100
AcDbEntity
  8
0
  6
CONTINUOUS
 62
     7
100
AcDbVertex
100
AcDb2dVertex
 10
3.8048439107
 20
4.3831537899
 30
0.0
  0
VERTEX
  5
20B
330
E0
100
AcDbEntity
  8
0
  6
CONTINUOUS
 62
     7
100
AcDbVertex
100
AcDb2dVertex
 10
3.7910311919
 20
4.3818306276
 30
0.0
  0
VERTEX
  5
20C
330
E0
100
AcDbEntity
  8
0
  6
CONTINUOUS
 62
     7
100
AcDbVertex
100
AcDb2dVertex
 10
3.7750656533
 20
4.3806989962
 30
0.0
  0
VERTEX
  5
20D
330
E0
100
AcDbEntity
  8
0
  6
CONTINUOUS
 62
     7
100
AcDbVertex
100
AcDb2dVertex
 10
3.7577788242
 20
4.3799313728
 30
0.0
  0
VERTEX
  5
20E
330
E0
100
AcDbEntity
  8
0
  6
CONTINUOUS
 62
     7
100
AcDbVertex
100
AcDb2dVertex
 10
3.7399771958
 20
4.3796641011
 30
0.0
  0
VERTEX
  5
20F
330
E0
100
AcDbEntity
  8
0
  6
CONTINUOUS
 62
     7
100
AcDbVertex
100
AcDb2dVertex
 10
3.7222144009
 20
4.3799303028
 30
0.0
  0
VERTEX
  5
210
330
E0
100
AcDbEntity
  8
0
  6
CONTINUOUS
 62
     7
100
AcDbVertex
100
AcDb2dVertex
 10
3.7049053772
 20
4.380700923
 30
0.0
  0
VERTEX
  5
211
330
E0
100
AcDbEntity
  8
0
  6
CONTINUOUS
 62
     7
100
AcDbVertex
100
AcDb2dVertex
 10
3.6889802981
 20
4.3818320916
 30
0.0
  0
VERTEX
  5
212
330
E0
100
AcDbEntity
  8
0
  6
CONTINUOUS
 62
     7
100
AcDbVertex
100
AcDb2dVertex
 10
3.6751723098
 20
4.3831567582
 30
0.0
  0
VERTEX
  5
213
330
E0
100
AcDbEntity
  8
0
  6
CONTINUOUS
 62
     7
100
AcDbVertex
100
AcDb2dVertex
 10
3.6638635729
 20
4.3844807634
 30
0.0
  0
VERTEX
  5
214
330
E0
100
AcDbEntity
  8
0
  6
CONTINUOUS
 62
     7
100
AcDbVertex
100
AcDb2dVertex
 10
3.6553829512
 20
4.3856153849
 30
0.0
  0
VERTEX
  5
215
330
E0
100
AcDbEntity
  8
0
  6
CONTINUOUS
 62
     7
100
AcDbVertex
100
AcDb2dVertex
 10
3.650071475
 20
4.3863702334
 30
0.0
  0
VERTEX
  5
216
330
E0
100
AcDbEntity
  8
0
  6
CONTINUOUS
 62
     7
100
AcDbVertex
100
AcDb2dVertex
 10
3.6483041614
 20
4.3866310423
 30
0.0
  0
VERTEX
  5
217
330
E0
100
AcDbEntity
  8
0
  6
CONTINUOUS
 62
     7
100
AcDbVertex
100
AcDb2dVertex
 10
3.6483041614
 20
4.3866310423
 30
0.0
  0
SEQEND
  5
218
330
E0
100
AcDbEntity
  8
0
  6
CONTINUOUS
 62
     7
  0
POLYLINE
  5
E1
330
1F
100
AcDbEntity
  8
0
  6
CONTINUOUS
 62
     7
100
AcDb2dPolyline
 66
     1
 10
0.0
 20
0.0
 30
0.0
  0
VERTEX
  5
219
330
E1
100
AcDbEntity
  8
0
  6
CONTINUOUS
 62
     7
100
AcDbVertex
100
AcDb2dVertex
 10
3.0049679238
 20
4.3866310242
 30
0.0
  0
VERTEX
  5
21A
330
E1
100
AcDbEntity
  8
0
  6
CONTINUOUS
 62
     7
100
AcDbVertex
100
AcDb2dVertex
 10
3.0049680454
 20
4.3866310423
 30
0.0
  0
VERTEX
  5
21B
330
E1
100
AcDbEntity
  8
0
  6
CONTINUOUS
 62
     7
100
AcDbVertex
100
AcDb2dVertex
 10
3.0031992296
 20
4.3863688819
 30
0.0
  0
VERTEX
  5
21C
330
E1
100
AcDbEntity
  8
0
  6
CONTINUOUS
 62
     7
100
AcDbVertex
100
AcDb2dVertex
 10
2.9978899087
 20
4.3856123248
 30
0.0
  0
VERTEX
  5
21D
330
E1
100
AcDbEntity
  8
0
  6
CONTINUOUS
 62
     7
100
AcDbVertex
100
AcDb2dVertex
 10
2.9894160782
 20
4.3844797635
 30
0.0
  0
VERTEX
  5
21E
330
E1
100
AcDbEntity
  8
0
  6
CONTINUOUS
 62
     7
100
AcDbVertex
100
AcDb2dVertex
 10
2.9780722571
 20
4.3831537899
 30
0.0
  0
VERTEX
  5
21F
330
E1
100
AcDbEntity
  8
0
  6
CONTINUOUS
 62
     7
100
AcDbVertex
100
AcDb2dVertex
 10
2.9642595384
 20
4.3818306276
 30
0.0
  0
VERTEX
  5
220
330
E1
100
AcDbEntity
  8
0
  6
CONTINUOUS
 62
     7
100
AcDbVertex
100
AcDb2dVertex
 10
2.9482939998
 20
4.3806989962
 30
0.0
  0
VERTEX
  5
221
330
E1
100
AcDbEntity
  8
0
  6
CONTINUOUS
 62
     7
100
AcDbVertex
100
AcDb2dVertex
 10
2.9310071707
 20
4.3799313728
 30
0.0
  0
VERTEX
  5
222
330
E1
100
AcDbEntity
  8
0
  6
CONTINUOUS
 62
     7
100
AcDbVertex
100
AcDb2dVertex
 10
2.9132055423
 20
4.3796641011
 30
0.0
  0
VERTEX
  5
223
330
E1
100
AcDbEntity
  8
0
  6
CONTINUOUS
 62
     7
100
AcDbVertex
100
AcDb2dVertex
 10
2.8954427474
 20
4.3799303028
 30
0.0
  0
VERTEX
  5
224
330
E1
100
AcDbEntity
  8
0
  6
CONTINUOUS
 62
     7
100
AcDbVertex
100
AcDb2dVertex
 10
2.8781337237
 20
4.380700923
 30
0.0
  0
VERTEX
  5
225
330
E1
100
AcDbEntity
  8
0
  6
CONTINUOUS
 62
     7
100
AcDbVertex
100
AcDb2dVertex
 10
2.8622086446
 20
4.3818320916
 30
0.0
  0
VERTEX
  5
226
330
E1
100
AcDbEntity
  8
0
  6
CONTINUOUS
 62
     7
100
AcDbVertex
100
AcDb2dVertex
 10
2.8484006563
 20
4.3831567582
 30
0.0
  0
VERTEX
  5
227
330
E1
100
AcDbEntity
  8
0
  6
CONTINUOUS
 62
     7
100
AcDbVertex
100
AcDb2dVertex
 10
2.8370919194
 20
4.3844807634
 30
0.0
  0
VERTEX
  5
228
330
E1
100
AcDbEntity
  8
0
  6
CONTINUOUS
 62
     7
100
AcDbVertex
100
AcDb2dVertex
 10
2.8286112977
 20
4.3856153849
 30
0.0
  0
VERTEX
  5
229
330
E1
100
AcDbEntity
  8
0
  6
CONTINUOUS
 62
     7
100
AcDbVertex
100
AcDb2dVertex
 10
2.8232998215
 20
4.3863702334
 30
0.0
  0
VERTEX
  5
22A
330
E1
100
AcDbEntity
  8
0
  6
CONTINUOUS
 62
     7
100
AcDbVertex
100
AcDb2dVertex
 10
2.8215325079
 20
4.3866310423
 30
0.0
  0
VERTEX
  5
22B
330
E1
100
AcDbEntity
  8
0
  6
CONTINUOUS
 62
     7
100
AcDbVertex
100
AcDb2dVertex
 10
2.8215325079
 20
4.3866310423
 30
0.0
  0
SEQEND
  5
22C
330
E1
100
AcDbEntity
  8
0
  6
CONTINUOUS
 62
     7
  0
LINE
  5
E2
330
1F
100
AcDbEntity
  8
0
  6
CONTINUOUS
 62
     7
100
AcDbLine
 10
4.1337227176
 20
4.3716310423
 30
0.0
 11
4.1337227176
 21
3.1417885226
 31
0.0
  0
LINE
  5
E3
330
1F
100
AcDbEntity
  8
0
  6
CONTINUOUS
 62
     7
100
AcDbLine
 10
2.5195494892
 20
3.1417885226
 30
0.0
 11
2.5195494892
 21
4.3716310423
 31
0.0
  0
LINE
  5
E4
330
1F
100
AcDbEntity
  8
0
  6
CONTINUOUS
 62
     7
100
AcDbLine
 10
3.6712817727
 20
4.3866310423
 30
0.0
 11
3.8087620876
 21
4.3866310423
 31
0.0
  0
LINE
  5
E5
330
1F
100
AcDbEntity
  8
0
  6
CONTINUOUS
 62
     7
100
AcDbLine
 10
2.9819904341
 20
4.3866310423
 30
0.0
 11
2.8445101191
 21
4.3866310423
 31
0.0
  0
SPLINE
  5
E6
330
1F
100
AcDbEntity
  8
0
  6
HIDDEN
 62
     7
100
AcDbSpline
210
0.0
220
0.0
230
1.0
 70
     8
 71
     3
 72
    12
 73
     8
 74
     0
 42
0.00000001
 43
0.00000001
 40
0.0
 40
0.0
 40
0.0
 40
0.0
 40
0.0001108878812564
 40
0.2477248036670162
 40
0.4984140672327765
 40
0.7501542974411817
 40
1.0
 40
1.0
 40
1.0
 40
1.0
 10
2.978079838962403
 20
4.383154676109653
 30
0.0
 10
2.978081909399898
 20
4.383154874397207
 30
0.0
 10
2.98270729060555
 20
4.383597851076741
 30
0.0
 10
2.989792789607733
 20
4.384526833449774
 30
0.0
 10
2.99843840853034
 20
4.385671795161595
 30
0.0
 10
3.003935897057095
 20
4.386475184676665
 30
0.0
 10
3.004624782181812
 20
4.386579208686461
 30
0.0
 10
3.004967923758805
 20
4.386631024238119
 30
0.0
  0
SPLINE
  5
E7
330
1F
100
AcDbEntity
  8
0
  6
HIDDEN
 62
     7
100
AcDbSpline
210
0.0
220
0.0
230
1.0
 70
     8
 71
     3
 72
    39
 73
    35
 74
     0
 42
0.00000001
 43
0.00000001
 40
-0.0946153151591252
 40
-0.0630297623871058
 40
-0.0313280494959108
 40
0.0
 40
0.0313436522811895
 40
0.0630338827605092
 40
0.0945901764159527
 40
0.1257490946969628
 40
0.1567525273834179
 40
0.1879854419413511
 40
0.2191519189321783
 40
0.2499113389889362
 40
0.2806516612736889
 40
0.3118883410485787
 40
0.3431447021858877
 40
0.3742081634624655
 40
0.4053596611237499
 40
0.436898058240023
 40
0.4685686740358345
 40
0.500003107462568
 40
0.5314095660002733
 40
0.5631216740695081
 40
0.5946381341267114
 40
0.6258239327444541
 40
0.6568491782001772
 40
0.6881247348286588
 40
0.7192962093283795
 40
0.7500767494886706
 40
0.7807895513980468
 40
0.8120085129781307
 40
0.8432211683272196
 40
0.8742583491596342
 40
0.9053846848408746
 40
0.9369702376128941
 40
0.968671950504089
 40
0.9999999999999999
 40
1.031343652281189
 40
1.063033882760509
 40
1.094590176415953
 10
3.649487534624777
 20
3.775028392416281
 30
0.0
 10
3.647714425679188
 20
3.756706516946156
 30
0.0
 10
3.649493288269657
 20
3.738388294839008
 30
0.0
 10
3.654851556763986
 20
3.720758133646348
 30
0.0
 10
3.663303655246105
 20
3.704449310791216
 30
0.0
 10
3.674731681750777
 20
3.690247003276371
 30
0.0
 10
3.688658229984462
 20
3.678578564315923
 30
0.0
 10
3.704664447303395
 20
3.669960813175469
 30
0.0
 10
3.721974253856246
 20
3.664492384075062
 30
0.0
 10
3.739966450420384
 20
3.662682171001104
 30
0.0
 10
3.757971902746654
 20
3.664489870888462
 30
0.0
 10
3.775299336109149
 20
3.669948999430209
 30
0.0
 10
3.791343467543805
 20
3.678559475850044
 30
0.0
 10
3.805291562519113
 20
3.690226236975464
 30
0.0
 10
3.816738564326532
 20
3.704421300721716
 30
0.0
 10
3.825202682679487
 20
3.720714984628518
 30
0.0
 10
3.830561104848548
 20
3.738357194751847
 30
0.0
 10
3.832327323122837
 20
3.756705710425593
 30
0.0
 10
3.830557665259255
 20
3.775061632419178
 30
0.0
 10
3.825198398297003
 20
3.792702084970249
 30
0.0
 10
3.816730685403298
 20
3.809005213827162
 30
0.0
 10
3.805287575551082
 20
3.823197490641601
 30
0.0
 10
3.791337968857349
 20
3.834866295820769
 30
0.0
 10
3.775308575473579
 20
3.843470967303531
 30
0.0
 10
3.757981561900934
 20
3.848925762551482
 30
0.0
 10
3.739990602466599
 20
3.85073704927236
 30
0.0
 10
3.721988887601397
 20
3.848932635170421
 30
0.0
 10
3.704681365951223
 20
3.84346466960354
 30
0.0
 10
3.688661818972776
 20
3.83484543366965
 30
0.0
 10
3.674737759686317
 20
3.823178897226493
 30
0.0
 10
3.663306588755201
 20
3.808971714531052
 30
0.0
 10
3.654856053729662
 20
3.792660671998825
 30
0.0
 10
3.649487534624777
 20
3.775028392416281
 30
0.0
 10
3.647714425679188
 20
3.756706516946156
 30
0.0
 10
3.649493288269657
 20
3.738388294839008
 30
0.0
  0
SPLINE
  5
E8
330
1F
100
AcDbEntity
  8
0
  6
HIDDEN
 62
     7
100
AcDbSpline
210
0.0
220
0.0
230
1.0
 70
     8
 71
     3
 72
    39
 73
    35
 74
     0
 42
0.00000001
 43
0.00000001
 40
-0.0946153151591071
 40
-0.0630297623871029
 40
-0.031328049495837
 40
0.0
 40
0.0313436522811162
 40
0.0630338827605068
 40
0.0945901764157131
 40
0.1257490946969571
 40
0.1567525273832557
 40
0.1879854419413518
 40
0.2191519189321785
 40
0.2499113389889367
 40
0.2806516612739777
 40
0.311888341048591
 40
0.3431447021861265
 40
0.3742081634624641
 40
0.4053596611236952
 40
0.4368980582400236
 40
0.4685686740358351
 40
0.5000031074625685
 40
0.5314095660002743
 40
0.5631216740695085
 40
0.5946381341266556
 40
0.6258239327444528
 40
0.6568491782000926
 40
0.6881247348286579
 40
0.7192962093283497
 40
0.7500767494886706
 40
0.7807895513980773
 40
0.8120085129781323
 40
0.8432211683271963
 40
0.8742583491596325
 40
0.9053846848408929
 40
0.9369702376128971
 40
0.968671950504163
 40
1.0
 40
1.031343652281116
 40
1.063033882760507
 40
1.094590176415713
 10
2.82271588108148
 20
3.775028392416265
 30
0.0
 10
2.820942772135876
 20
3.756706516946156
 30
0.0
 10
2.822721634726363
 20
3.738388294839025
 30
0.0
 10
2.828079903220651
 20
3.720758133646401
 30
0.0
 10
2.836532001702787
 20
3.704449310791263
 30
0.0
 10
2.847960028207418
 20
3.690247003276427
 30
0.0
 10
2.861886576441111
 20
3.678578564315915
 30
0.0
 10
2.877892793760062
 20
3.669960813175486
 30
0.0
 10
2.895202600312939
 20
3.664492384075056
 30
0.0
 10
2.913194796877132
 20
3.662682171001113
 30
0.0
 10
2.931200249203412
 20
3.66448987088842
 30
0.0
 10
2.948527682565936
 20
3.669948999430248
 30
0.0
 10
2.9645718140005
 20
3.678559475850122
 30
0.0
 10
2.978519908975836
 20
3.690226236975482
 30
0.0
 10
2.989966910783225
 20
3.704421300721704
 30
0.0
 10
2.998431029136175
 20
3.720714984628508
 30
0.0
 10
3.003789451305241
 20
3.738357194751847
 30
0.0
 10
3.00555566957953
 20
3.756705710425594
 30
0.0
 10
3.003786011715947
 20
3.775061632419178
 30
0.0
 10
2.998426744753702
 20
3.79270208497024
 30
0.0
 10
2.989959031859988
 20
3.809005213827147
 30
0.0
 10
2.978515922007795
 20
3.823197490641583
 30
0.0
 10
2.964566315314058
 20
3.834866295820763
 30
0.0
 10
2.948536921930291
 20
3.843470967303521
 30
0.0
 10
2.931209908357634
 20
3.848925762551488
 30
0.0
 10
2.913218948923293
 20
3.850737049272357
 30
0.0
 10
2.895217234058083
 20
3.848932635170426
 30
0.0
 10
2.877909712407915
 20
3.843464669603541
 30
0.0
 10
2.861890165429481
 20
3.834845433669641
 30
0.0
 10
2.847966106143013
 20
3.823178897226494
 30
0.0
 10
2.836534935211871
 20
3.808971714531061
 30
0.0
 10
2.828084400186349
 20
3.792660671998808
 30
0.0
 10
2.82271588108148
 20
3.775028392416265
 30
0.0
 10
2.820942772135876
 20
3.756706516946156
 30
0.0
 10
2.822721634726363
 20
3.738388294839025
 30
0.0
  0
LINE
  5
E9
330
1F
100
AcDbEntity
  8
0
  6
HIDDEN
 62
     7
100
AcDbLine
 10
3.3766361034
 20
4.0079302549
 30
0.0
 11
3.3766361034
 21
3.50548931
 31
0.0
  0
LINE
  5
EA
330
1F
100
AcDbEntity
  8
0
  6
HIDDEN
 62
     7
100
AcDbLine
 10
3.2766361034
 20
4.0079302549
 30
0.0
 11
3.2766361034
 21
3.50548931
 31
0.0
  0
SPLINE
  5
EB
330
1F
100
AcDbEntity
  8
0
  6
HIDDEN
 62
     7
100
AcDbSpline
210
0.0
220
0.0
230
1.0
 70
     8
 71
     3
 72
    62
 73
    58
 74
     0
 42
0.00000001
 43
0.00000001
 40
-0.0312499999999998
 40
-0.0312499999999998
 40
0.0
 40
0.0
 40
0.0312499999999999
 40
0.0312499999999999
 40
0.0624999999999998
 40
0.0624999999999998
 40
0.0937499999999996
 40
0.0937499999999996
 40
0.1249999999999995
 40
0.1249999999999995
 40
0.1874999999999993
 40
0.1874999999999993
 40
0.2187499999999994
 40
0.2187499999999994
 40
0.2499999999999995
 40
0.2499999999999995
 40
0.2812499999999996
 40
0.2812499999999996
 40
0.3124999999999997
 40
0.3124999999999997
 40
0.3437499999999998
 40
0.3437499999999998
 40
0.3749999999999998
 40
0.3749999999999998
 40
0.4062499999999999
 40
0.4062499999999999
 40
0.4375000000000001
 40
0.4375000000000001
 40
0.4687500000000001
 40
0.4687500000000001
 40
0.5000000000000002
 40
0.5000000000000002
 40
0.5625000000000006
 40
0.5625000000000006
 40
0.5937500000000007
 40
0.5937500000000007
 40
0.6250000000000009
 40
0.6250000000000009
 40
0.6875000000000012
 40
0.6875000000000012
 40
0.7187500000000012
 40
0.7187500000000012
 40
0.7500000000000011
 40
0.7500000000000011
 40
0.7812500000000011
 40
0.7812500000000011
 40
0.8125000000000011
 40
0.8125000000000011
 40
0.875000000000001
 40
0.875000000000001
 40
0.9062500000000008
 40
0.9062500000000008
 40
0.9375000000000004
 40
0.9375000000000004
 40
0.9687500000000002
 40
0.9687500000000002
 40
1.0
 40
1.0
 40
1.03125
 40
1.03125
 10
2.834510119132584
 20
3.761952123981981
 30
0.0
 10
2.834510119132584
 20
3.751467440928097
 30
0.0
 10
2.835028367691345
 20
3.746319886824652
 30
0.0
 10
2.837052194979998
 20
3.73620443383552
 30
0.0
 10
2.838584536120868
 20
3.73118270472273
 30
0.0
 10
2.84255158552576
 20
3.721662677305826
 30
0.0
 10
2.844973673098659
 20
3.717153765795801
 30
0.0
 10
2.850688469525164
 20
3.708622431360351
 30
0.0
 10
2.853987049766943
 20
3.704615113208755
 30
0.0
 10
2.864801679120388
 20
3.693807996461047
 30
0.0
 10
2.873518528677617
 20
3.687961388607952
 30
0.0
 10
2.887703404313537
 20
3.682053202179919
 30
0.0
 10
2.892703458603283
 20
3.680520604787689
 30
0.0
 10
2.902884159260287
 20
3.678482510132791
 30
0.0
 10
2.908018038085992
 20
3.677973252270042
 30
0.0
 10
2.918372765031997
 20
3.677966035922558
 30
0.0
 10
2.92363245065807
 20
3.678486322669698
 30
0.0
 10
2.933763522228465
 20
3.680513286780969
 30
0.0
 10
2.938690984418879
 20
3.682012420460536
 30
0.0
 10
2.948271380870793
 20
3.685995938271846
 30
0.0
 10
2.95281154818447
 20
3.688438159574241
 30
0.0
 10
2.961301347088225
 20
3.694122217193937
 30
0.0
 10
2.965309095811969
 20
3.69741264157066
 30
0.0
 10
2.972555488301492
 20
3.704660157672197
 30
0.0
 10
2.975790328474282
 20
3.708595636659889
 30
0.0
 10
2.981494731433058
 20
3.717100143492776
 30
0.0
 10
2.983969354526025
 20
3.721707082228476
 30
0.0
 10
2.98791618084591
 20
3.731187640125286
 30
0.0
 10
2.989423310539143
 20
3.736101459770444
 30
0.0
 10
2.99147143474944
 20
3.746294194080912
 30
0.0
 10
2.991988357887694
 20
3.751514025141411
 30
0.0
 10
2.991994567529661
 20
3.767006616703269
 30
0.0
 10
2.989908316064731
 20
3.77743390845708
 30
0.0
 10
2.983981580581371
 20
3.791689462867033
 30
0.0
 10
2.981507971567108
 20
3.796296446108295
 30
0.0
 10
2.97580788814888
 20
3.804800967703183
 30
0.0
 10
2.972570121793246
 20
3.808744471329
 30
0.0
 10
2.961663523468477
 20
3.819653660970325
 30
0.0
 10
2.953076881240666
 20
3.825421277726015
 30
0.0
 10
2.938724345791548
 20
3.831395377479365
 30
0.0
 10
2.933805856407675
 20
3.832894059088894
 30
0.0
 10
2.923699659291486
 20
3.834923504195918
 30
0.0
 10
2.918446104410526
 20
3.835449512790252
 30
0.0
 10
2.908067403228282
 20
3.835450366547637
 30
0.0
 10
2.902928830441677
 20
3.834942772453308
 30
0.0
 10
2.89275247853308
 20
3.832911969096983
 30
0.0
 10
2.887740939436386
 20
3.83138007676956
 30
0.0
 10
2.873518527639276
 20
3.825462000370038
 30
0.0
 10
2.864807742158279
 20
3.81961865836235
 30
0.0
 10
2.853978047362495
 20
3.808794939580494
 30
0.0
 10
2.850671874228623
 20
3.804774124728852
 30
0.0
 10
2.844973430274047
 20
3.796263665920552
 30
0.0
 10
2.842553561763034
 20
3.791760926635639
 30
0.0
 10
2.838585737169406
 20
3.782240445365024
 30
0.0
 10
2.837052913780858
 20
3.777217785797249
 30
0.0
 10
2.835028750925272
 20
3.767102531020339
 30
0.0
 10
2.834510119132584
 20
3.761952123981981
 30
0.0
 10
2.834510119132584
 20
3.751467440928097
 30
0.0
  0
SPLINE
  5
EC
330
1F
100
AcDbEntity
  8
0
  6
HIDDEN
 62
     7
100
AcDbSpline
210
0.0
220
0.0
230
1.0
 70
     8
 71
     3
 72
    27
 73
    23
 74
     0
 42
0.00000001
 43
0.00000001
 40
0.0
 40
0.0
 40
0.0
 40
0.0
 40
0.0284046381144493
 40
0.0784739194941779
 40
0.1299626594778282
 40
0.180744879368145
 40
0.2328733649368494
 40
0.2860158206597574
 40
0.340652452209187
 40
0.394450958807846
 40
0.4499534369884096
 40
0.5013226384663462
 40
0.554291962887247
 40
0.6039892897468976
 40
0.6550462664708687
 40
0.7063557936078279
 40
0.7590207867259869
 40
0.8127300053270027
 40
0.868011681006076
 40
0.921285711476516
 40
0.9762569381249997
 40
1.0
 40
1.0
 40
1.0
 40
1.0
 10
2.991707598477294
 20
3.99283612899732
 30
0.0
 10
2.991756722471022
 20
3.992852429905333
 30
0.0
 10
2.991892438064846
 20
3.992897464668244
 30
0.0
 10
2.989810194489381
 20
3.992206319209599
 30
0.0
 10
2.985807120889806
 20
3.990925958864176
 30
0.0
 10
2.979789369256559
 20
3.989117286244969
 30
0.0
 10
2.972022959521571
 20
3.986994630761551
 30
0.0
 10
2.962467479176511
 20
3.984719087538515
 30
0.0
 10
2.951403592985083
 20
3.982566000745929
 30
0.0
 10
2.939021400940514
 20
3.980785492731869
 30
0.0
 10
2.926066332465035
 20
3.979659061229903
 30
0.0
 10
2.912786030458157
 20
3.979293170005734
 30
0.0
 10
2.899994407262466
 20
3.979695752620048
 30
0.0
 10
2.887630161444466
 20
3.980786120641582
 30
0.0
 10
2.876098629417268
 20
3.982408292484966
 30
0.0
 10
2.865354716234932
 20
3.984439630888272
 30
0.0
 10
2.855716154237414
 20
3.986677344124256
 30
0.0
 10
2.847432791574061
 20
3.988905513563343
 30
0.0
 10
2.840944201779901
 20
3.990846018252901
 30
0.0
 10
2.836607017230215
 20
3.992232545523358
 30
0.0
 10
2.834533630027163
 20
3.992922380536846
 30
0.0
 10
2.83471004516947
 20
3.992863698470086
 30
0.0
 10
2.834763258324516
 20
3.992845997847135
 30
0.0
  0
SPLINE
  5
ED
330
1F
100
AcDbEntity
  8
0
  6
HIDDEN
 62
     7
100
AcDbSpline
210
0.0
220
0.0
230
1.0
 70
     8
 71
     3
 72
    27
 73
    23
 74
     0
 42
0.00000001
 43
0.00000001
 40
0.0
 40
0.0
 40
0.0
 40
0.0
 40
0.0284046381144489
 40
0.0784739194941776
 40
0.1299626594778279
 40
0.1807448793681448
 40
0.2328733649368492
 40
0.2860158206597573
 40
0.3406524522091871
 40
0.3944509588078461
 40
0.4499534369884097
 40
0.5013226384663461
 40
0.554291962887247
 40
0.6039892897468976
 40
0.6550462664708688
 40
0.7063557936078279
 40
0.759020786725987
 40
0.8127300053270029
 40
0.8680116810060763
 40
0.9212857114765163
 40
0.976256938125
 40
1.0
 40
1.0
 40
1.0
 40
1.0
 10
3.8184792520206
 20
3.99283612899732
 30
0.0
 10
3.818528376014329
 20
3.992852429905333
 30
0.0
 10
3.818664091608153
 20
3.992897464668244
 30
0.0
 10
3.816581848032688
 20
3.992206319209599
 30
0.0
 10
3.812578774433113
 20
3.990925958864176
 30
0.0
 10
3.806561022799866
 20
3.989117286244969
 30
0.0
 10
3.798794613064878
 20
3.986994630761551
 30
0.0
 10
3.789239132719817
 20
3.984719087538515
 30
0.0
 10
3.77817524652839
 20
3.982566000745929
 30
0.0
 10
3.765793054483822
 20
3.980785492731868
 30
0.0
 10
3.752837986008342
 20
3.979659061229903
 30
0.0
 10
3.739557684001464
 20
3.979293170005734
 30
0.0
 10
3.726766060805773
 20
3.979695752620048
 30
0.0
 10
3.714401814987773
 20
3.980786120641582
 30
0.0
 10
3.702870282960575
 20
3.982408292484966
 30
0.0
 10
3.692126369778239
 20
3.984439630888272
 30
0.0
 10
3.682487807780721
 20
3.986677344124256
 30
0.0
 10
3.674204445117368
 20
3.988905513563343
 30
0.0
 10
3.667715855323208
 20
3.990846018252901
 30
0.0
 10
3.663378670773522
 20
3.992232545523358
 30
0.0
 10
3.66130528357047
 20
3.992922380536846
 30
0.0
 10
3.661481698712777
 20
3.992863698470086
 30
0.0
 10
3.661534911867823
 20
3.992845997847135
 30
0.0
  0
SPLINE
  5
EE
330
1F
100
AcDbEntity
  8
0
  6
HIDDEN
 62
     7
100
AcDbSpline
210
0.0
220
0.0
230
1.0
 70
     8
 71
     3
 72
    62
 73
    58
 74
     0
 42
0.00000001
 43
0.00000001
 40
-0.0312499999999997
 40
-0.0312499999999997
 40
0.0
 40
0.0
 40
0.03125
 40
0.03125
 40
0.0625
 40
0.0625
 40
0.09375
 40
0.09375
 40
0.125
 40
0.125
 40
0.1874999999999999
 40
0.1874999999999999
 40
0.21875
 40
0.21875
 40
0.2500000000000002
 40
0.2500000000000002
 40
0.2812500000000003
 40
0.2812500000000003
 40
0.3125000000000004
 40
0.3125000000000004
 40
0.3437500000000005
 40
0.3437500000000005
 40
0.3750000000000006
 40
0.3750000000000006
 40
0.4062500000000007
 40
0.4062500000000007
 40
0.4375000000000008
 40
0.4375000000000008
 40
0.4687500000000009
 40
0.4687500000000009
 40
0.5000000000000011
 40
0.5000000000000011
 40
0.5625000000000013
 40
0.5625000000000013
 40
0.5937500000000014
 40
0.5937500000000014
 40
0.6250000000000016
 40
0.6250000000000016
 40
0.6875000000000017
 40
0.6875000000000017
 40
0.7187500000000016
 40
0.7187500000000016
 40
0.7500000000000014
 40
0.7500000000000014
 40
0.7812500000000013
 40
0.7812500000000013
 40
0.8125000000000012
 40
0.8125000000000012
 40
0.875000000000001
 40
0.875000000000001
 40
0.9062500000000008
 40
0.9062500000000008
 40
0.9375000000000006
 40
0.9375000000000006
 40
0.9687500000000003
 40
0.9687500000000003
 40
1.0
 40
1.0
 40
1.03125
 40
1.03125
 10
3.661281772675891
 20
3.761952123981981
 30
0.0
 10
3.661281772675891
 20
3.751467440928097
 30
0.0
 10
3.661800021234652
 20
3.746319886824652
 30
0.0
 10
3.663823848523305
 20
3.73620443383552
 30
0.0
 10
3.665356189664175
 20
3.73118270472273
 30
0.0
 10
3.669323239069067
 20
3.721662677305826
 30
0.0
 10
3.671745326641965
 20
3.717153765795801
 30
0.0
 10
3.677460123068471
 20
3.708622431360351
 30
0.0
 10
3.68075870331025
 20
3.704615113208755
 30
0.0
 10
3.691573332663696
 20
3.693807996461047
 30
0.0
 10
3.700290182220923
 20
3.687961388607952
 30
0.0
 10
3.714475057856843
 20
3.682053202179919
 30
0.0
 10
3.71947511214659
 20
3.680520604787689
 30
0.0
 10
3.729655812803594
 20
3.67848251013279
 30
0.0
 10
3.734789691629298
 20
3.677973252270042
 30
0.0
 10
3.745144418575304
 20
3.677966035922558
 30
0.0
 10
3.750404104201377
 20
3.678486322669698
 30
0.0
 10
3.760535175771772
 20
3.680513286780969
 30
0.0
 10
3.765462637962186
 20
3.682012420460536
 30
0.0
 10
3.7750430344141
 20
3.685995938271846
 30
0.0
 10
3.779583201727777
 20
3.688438159574241
 30
0.0
 10
3.788073000631532
 20
3.694122217193937
 30
0.0
 10
3.792080749355276
 20
3.69741264157066
 30
0.0
 10
3.799327141844798
 20
3.704660157672197
 30
0.0
 10
3.802561982017589
 20
3.708595636659889
 30
0.0
 10
3.808266384976365
 20
3.717100143492776
 30
0.0
 10
3.810741008069331
 20
3.721707082228476
 30
0.0
 10
3.814687834389217
 20
3.731187640125286
 30
0.0
 10
3.81619496408245
 20
3.736101459770444
 30
0.0
 10
3.818243088292748
 20
3.746294194080912
 30
0.0
 10
3.818760011431001
 20
3.751514025141411
 30
0.0
 10
3.818766221072967
 20
3.767006616703269
 30
0.0
 10
3.816679969608038
 20
3.77743390845708
 30
0.0
 10
3.810753234124677
 20
3.791689462867033
 30
0.0
 10
3.808279625110416
 20
3.796296446108295
 30
0.0
 10
3.802579541692186
 20
3.804800967703183
 30
0.0
 10
3.799341775336553
 20
3.808744471329
 30
0.0
 10
3.788435177011785
 20
3.819653660970325
 30
0.0
 10
3.779848534783974
 20
3.825421277726015
 30
0.0
 10
3.765495999334855
 20
3.831395377479365
 30
0.0
 10
3.760577509950982
 20
3.832894059088894
 30
0.0
 10
3.750471312834792
 20
3.834923504195917
 30
0.0
 10
3.745217757953833
 20
3.835449512790251
 30
0.0
 10
3.734839056771588
 20
3.835450366547637
 30
0.0
 10
3.729700483984984
 20
3.834942772453308
 30
0.0
 10
3.719524132076387
 20
3.832911969096983
 30
0.0
 10
3.714512592979694
 20
3.83138007676956
 30
0.0
 10
3.700290181182582
 20
3.825462000370038
 30
0.0
 10
3.691579395701586
 20
3.81961865836235
 30
0.0
 10
3.680749700905802
 20
3.808794939580494
 30
0.0
 10
3.677443527771931
 20
3.804774124728852
 30
0.0
 10
3.671745083817354
 20
3.796263665920552
 30
0.0
 10
3.669325215306342
 20
3.791760926635639
 30
0.0
 10
3.665357390712713
 20
3.782240445365024
 30
0.0
 10
3.663824567324166
 20
3.777217785797249
 30
0.0
 10
3.661800404468578
 20
3.767102531020339
 30
0.0
 10
3.661281772675891
 20
3.761952123981981
 30
0.0
 10
3.661281772675891
 20
3.751467440928097
 30
0.0
  0
SPLINE
  5
EF
330
1F
100
AcDbEntity
  8
0
  6
HIDDEN
 62
     7
100
AcDbSpline
210
0.0
220
0.0
230
1.0
 70
     8
 71
     3
 72
    24
 73
    20
 74
     0
 42
0.00000001
 43
0.00000001
 40
0.0
 40
0.0
 40
0.0
 40
0.0
 40
0.0509643646358825
 40
0.1096074813694553
 40
0.1759540487873771
 40
0.2500173432797752
 40
0.3244074461163932
 40
0.3908306247884424
 40
0.4492992172421264
 40
0.499837384807133
 40
0.5504143463216364
 40
0.608924721565887
 40
0.6753926661588577
 40
0.7498305111496106
 40
0.8240315953772153
 40
0.8904460239054881
 40
0.9490867991617248
 40
0.9999784451878314
 40
1.0
 40
1.0
 40
1.0
 40
1.0
 10
2.834510119132584
 20
4.37510290542854
 30
0.0
 10
2.834707327340409
 20
4.375055486292887
 30
0.0
 10
2.835131456928203
 20
4.374953503425744
 30
0.0
 10
2.838912983361649
 20
4.37425599877498
 30
0.0
 10
2.846028202758156
 20
4.373194836606442
 30
0.0
 10
2.857092993383623
 20
4.371689556019969
 30
0.0
 10
2.871071704372117
 20
4.370185818527019
 30
0.0
 10
2.885964243680235
 20
4.369107462461439
 30
0.0
 10
2.900042009207127
 20
4.368439399259555
 30
0.0
 10
2.913214927379559
 20
4.36818209273387
 30
0.0
 10
2.926392222460849
 20
4.368438555856843
 30
0.0
 10
2.940483597438214
 20
4.369105947822648
 30
0.0
 10
2.955388633341378
 20
4.370183098378932
 30
0.0
 10
2.969398443206754
 20
4.371689011867707
 30
0.0
 10
2.98044189429558
 20
4.373186592755542
 30
0.0
 10
2.987684574135678
 20
4.37427598260985
 30
0.0
 10
2.991085724432326
 20
4.374890339071217
 30
0.0
 10
2.992325528032037
 20
4.37517388283811
 30
0.0
 10
2.991990150275857
 20
4.375102845314222
 30
0.0
 10
2.991990008289016
 20
4.375102815239497
 30
0.0
  0
SPLINE
  5
F0
330
1F
100
AcDbEntity
  8
0
  6
HIDDEN
 62
     7
100
AcDbSpline
210
0.0
220
0.0
230
1.0
 70
     8
 71
     3
 72
    24
 73
    20
 74
     0
 42
0.00000001
 43
0.00000001
 40
0.0
 40
0.0
 40
0.0
 40
0.0
 40
0.0509643646358865
 40
0.1096074813694616
 40
0.175954048787384
 40
0.2500173432797816
 40
0.3244074461164024
 40
0.3908306247884534
 40
0.4492992172421378
 40
0.4998373848071439
 40
0.5504143463202448
 40
0.6089247215640298
 40
0.6753926661574685
 40
0.7498305111496184
 40
0.8240315953786139
 40
0.8904460239073523
 40
0.9490867991631242
 40
0.9999784451878322
 40
1.0
 40
1.0
 40
1.0
 40
1.0
 10
3.661281772675891
 20
4.375102905428539
 30
0.0
 10
3.661478980883717
 20
4.375055486292886
 30
0.0
 10
3.66190311047151
 20
4.374953503425743
 30
0.0
 10
3.665684636904956
 20
4.37425599877498
 30
0.0
 10
3.672799856301463
 20
4.373194836606442
 30
0.0
 10
3.68386464692693
 20
4.371689556019968
 30
0.0
 10
3.697843357915425
 20
4.37018581852702
 30
0.0
 10
3.712735897223542
 20
4.369107462461438
 30
0.0
 10
3.726813662750434
 20
4.368439399259555
 30
0.0
 10
3.739986580922751
 20
4.368182092733869
 30
0.0
 10
3.753163876003885
 20
4.368438555856847
 30
0.0
 10
3.767255250981154
 20
4.369105947822654
 30
0.0
 10
3.782160286884462
 20
4.37018309837894
 30
0.0
 10
3.79617009675008
 20
4.371689011867706
 30
0.0
 10
3.807213547839048
 20
4.373186592755534
 30
0.0
 10
3.814456227679117
 20
4.37427598260984
 30
0.0
 10
3.817857377975677
 20
4.374890339071227
 30
0.0
 10
3.819097181575316
 20
4.375173882838082
 30
0.0
 10
3.818761803819164
 20
4.375102845314222
 30
0.0
 10
3.818761661832323
 20
4.375102815239497
 30
0.0
  0
CIRCLE
  5
F1
330
1F
100
AcDbEntity
  8
0
  6
HIDDEN
 62
     7
100
AcDbCircle
 10
3.7400219302
 20
3.7567097825
 30
0.0
 40
0.068740157480315
  0
ARC
  5
F2
330
1F
100
AcDbEntity
  8
0
  6
HIDDEN
 62
     7
100
AcDbCircle
 10
3.7400219302
 20
3.7567097825
 30
0.0
 40
0.0787401574803148
100
AcDbArc
 50
178.4980370802
 51
192.9036173745
  0
POLYLINE
  5
F3
330
1F
100
AcDbEntity
  8
0
  6
HIDDEN
 62
     7
100
AcDb2dPolyline
 66
     1
 10
0.0
 20
0.0
 30
0.0
  0
VERTEX
  5
22D
330
F3
100
AcDbEntity
  8
0
  6
HIDDEN
 62
     7
100
AcDbVertex
100
AcDb2dVertex
 10
3.8172935834
 20
3.7718459645
 30
0.0
  0
VERTEX
  5
22E
330
F3
100
AcDbEntity
  8
0
  6
HIDDEN
 62
     7
100
AcDbVertex
100
AcDb2dVertex
 10
3.8179229828
 20
3.7681744413
 30
0.0
  0
VERTEX
  5
22F
330
F3
100
AcDbEntity
  8
0
  6
HIDDEN
 62
     7
100
AcDbVertex
100
AcDb2dVertex
 10
3.8187620876
 20
3.7567097825
 30
0.0
  0
SEQEND
  5
230
330
F3
100
AcDbEntity
  8
0
  6
HIDDEN
 62
     7
  0
LINE
  5
F4
330
1F
100
AcDbEntity
  8
0
  6
HIDDEN
 62
     7
100
AcDbLine
 10
3.7006518514
 20
3.779440108
 30
0.0
 11
3.7400219302
 21
3.8021704336
 31
0.0
  0
LINE
  5
F5
330
1F
100
AcDbEntity
  8
0
  6
HIDDEN
 62
     7
100
AcDbLine
 10
3.7400219302
 20
3.8021704336
 30
0.0
 11
3.7793920089
 21
3.779440108
 31
0.0
  0
LINE
  5
F6
330
1F
100
AcDbEntity
  8
0
  6
HIDDEN
 62
     7
100
AcDbLine
 10
3.7400219302
 20
3.7112491313
 30
0.0
 11
3.7006518514
 21
3.7339794569
 31
0.0
  0
LINE
  5
F7
330
1F
100
AcDbEntity
  8
0
  6
HIDDEN
 62
     7
100
AcDbLine
 10
3.7793920089
 20
3.779440108
 30
0.0
 11
3.7793920089
 21
3.7339794569
 31
0.0
  0
LINE
  5
F8
330
1F
100
AcDbEntity
  8
0
  6
HIDDEN
 62
     7
100
AcDbLine
 10
3.7006518514
 20
3.7339794569
 30
0.0
 11
3.7006518514
 21
3.779440108
 31
0.0
  0
LINE
  5
F9
330
1F
100
AcDbEntity
  8
0
  6
HIDDEN
 62
     7
100
AcDbLine
 10
3.7793920089
 20
3.7339794569
 30
0.0
 11
3.7400219302
 21
3.7112491313
 31
0.0
  0
CIRCLE
  5
FA
330
1F
100
AcDbEntity
  8
0
  6
HIDDEN
 62
     7
100
AcDbCircle
 10
2.9132502766
 20
3.7567097825
 30
0.0
 40
0.0687401574803146
  0
LINE
  5
FB
330
1F
100
AcDbEntity
  8
0
  6
HIDDEN
 62
     7
100
AcDbLine
 10
2.8738801979
 20
3.7339794569
 30
0.0
 11
2.9132502766
 21
3.7112491313
 31
0.0
  0
LINE
  5
FC
330
1F
100
AcDbEntity
  8
0
  6
HIDDEN
 62
     7
100
AcDbLine
 10
2.9132502766
 20
3.7112491313
 30
0.0
 11
2.9526203554
 21
3.7339794569
 31
0.0
  0
LINE
  5
FD
330
1F
100
AcDbEntity
  8
0
  6
HIDDEN
 62
     7
100
AcDbLine
 10
2.9526203554
 20
3.7339794569
 30
0.0
 11
2.9526203554
 21
3.779440108
 31
0.0
  0
LINE
  5
FE
330
1F
100
AcDbEntity
  8
0
  6
HIDDEN
 62
     7
100
AcDbLine
 10
2.9526203554
 20
3.779440108
 30
0.0
 11
2.9132502766
 21
3.8021704336
 31
0.0
  0
LINE
  5
FF
330
1F
100
AcDbEntity
  8
0
  6
HIDDEN
 62
     7
100
AcDbLine
 10
2.8738801979
 20
3.779440108
 30
0.0
 11
2.8738801979
 21
3.7339794569
 31
0.0
  0
LINE
  5
100
330
1F
100
AcDbEntity
  8
0
  6
HIDDEN
 62
     7
100
AcDbLine
 10
2.9132502766
 20
3.8021704336
 30
0.0
 11
2.8738801979
 21
3.779440108
 31
0.0
  0
LINE
  5
101
330
1F
100
AcDbEntity
  8
0
  6
HIDDEN
 62
     7
100
AcDbLine
 10
3.8187620876
 20
4.3766310423
 30
0.0
 11
3.6612817727
 21
4.3766310423
 31
0.0
  0
LINE
  5
102
330
1F
100
AcDbEntity
  8
0
  6
HIDDEN
 62
     7
100
AcDbLine
 10
3.6612817727
 20
4.0029302549
 30
0.0
 11
3.8187620876
 21
4.0029302549
 31
0.0
  0
LINE
  5
103
330
1F
100
AcDbEntity
  8
0
  6
HIDDEN
 62
     7
100
AcDbLine
 10
3.8087620876
 20
3.9929302549
 30
0.0
 11
3.6712817727
 21
3.9929302549
 31
0.0
  0
LINE
  5
104
330
1F
100
AcDbEntity
  8
0
  6
HIDDEN
 62
     7
100
AcDbLine
 10
3.7400219302
 20
4.3078908848
 30
0.0
 11
3.7400219302
 21
4.3866310423
 31
0.0
  0
LINE
  5
105
330
1F
100
AcDbEntity
  8
0
  6
HIDDEN
 62
     7
100
AcDbLine
 10
3.7006518514
 20
4.3078908848
 30
0.0
 11
3.7400219302
 21
4.3078908848
 31
0.0
  0
LINE
  5
106
330
1F
100
AcDbEntity
  8
0
  6
HIDDEN
 62
     7
100
AcDbLine
 10
3.7400219302
 20
4.3078908848
 30
0.0
 11
3.7793920089
 21
4.3078908848
 31
0.0
  0
LINE
  5
107
330
1F
100
AcDbEntity
  8
0
  6
HIDDEN
 62
     7
100
AcDbLine
 10
3.7793920089
 20
4.3078908848
 30
0.0
 11
3.7793920089
 21
4.3866310423
 31
0.0
  0
LINE
  5
108
330
1F
100
AcDbEntity
  8
0
  6
HIDDEN
 62
     7
100
AcDbLine
 10
3.7006518514
 20
4.3078908848
 30
0.0
 11
3.7006518514
 21
4.3866310423
 31
0.0
  0
LINE
  5
109
330
1F
100
AcDbEntity
  8
0
  6
HIDDEN
 62
     7
100
AcDbLine
 10
2.8345101191
 20
4.3766310423
 30
0.0
 11
2.9919904341
 21
4.3766310423
 31
0.0
  0
LINE
  5
10A
330
1F
100
AcDbEntity
  8
0
  6
HIDDEN
 62
     7
100
AcDbLine
 10
2.9919904341
 20
4.0029302549
 30
0.0
 11
2.8345101191
 21
4.0029302549
 31
0.0
  0
LINE
  5
10B
330
1F
100
AcDbEntity
  8
0
  6
HIDDEN
 62
     7
100
AcDbLine
 10
2.8445101191
 20
3.9929302549
 30
0.0
 11
2.9819904341
 21
3.9929302549
 31
0.0
  0
LINE
  5
10C
330
1F
100
AcDbEntity
  8
0
  6
HIDDEN
 62
     7
100
AcDbLine
 10
2.9132502766
 20
4.3078908848
 30
0.0
 11
2.9132502766
 21
4.3866310423
 31
0.0
  0
LINE
  5
10D
330
1F
100
AcDbEntity
  8
0
  6
HIDDEN
 62
     7
100
AcDbLine
 10
2.9526203554
 20
4.3078908848
 30
0.0
 11
2.9132502766
 21
4.3078908848
 31
0.0
  0
LINE
  5
10E
330
1F
100
AcDbEntity
  8
0
  6
HIDDEN
 62
     7
100
AcDbLine
 10
2.9132502766
 20
4.3078908848
 30
0.0
 11
2.8738801979
 21
4.3078908848
 31
0.0
  0
LINE
  5
10F
330
1F
100
AcDbEntity
  8
0
  6
HIDDEN
 62
     7
100
AcDbLine
 10
2.8738801979
 20
4.3078908848
 30
0.0
 11
2.8738801979
 21
4.3866310423
 31
0.0
  0
LINE
  5
110
330
1F
100
AcDbEntity
  8
0
  6
HIDDEN
 62
     7
100
AcDbLine
 10
2.9526203554
 20
4.3078908848
 30
0.0
 11
2.9526203554
 21
4.3866310423
 31
0.0
  0
LINE
  5
111
330
1F
100
AcDbEntity
  8
0
  6
HIDDEN
 62
     7
100
AcDbLine
 10
4.1337227176
 20
4.0079302549
 30
0.0
 11
4.1187227176
 21
3.9929302549
 31
0.0
  0
LINE
  5
112
330
1F
100
AcDbEntity
  8
0
  6
HIDDEN
 62
     7
100
AcDbLine
 10
4.1187227176
 20
3.52048931
 30
0.0
 11
4.1337227176
 21
3.50548931
 31
0.0
  0
LINE
  5
113
330
1F
100
AcDbEntity
  8
0
  6
HIDDEN
 62
     7
100
AcDbLine
 10
3.3766361034
 20
4.0079302549
 30
0.0
 11
3.2766361034
 21
4.0079302549
 31
0.0
  0
LINE
  5
114
330
1F
100
AcDbEntity
  8
0
  6
HIDDEN
 62
     7
100
AcDbLine
 10
3.2766361034
 20
3.50548931
 30
0.0
 11
3.3766361034
 21
3.50548931
 31
0.0
  0
LINE
  5
115
330
1F
100
AcDbEntity
  8
0
  6
HIDDEN
 62
     7
100
AcDbLine
 10
2.5195494892
 20
3.50548931
 30
0.0
 11
2.5345494892
 21
3.52048931
 31
0.0
  0
LINE
  5
116
330
1F
100
AcDbEntity
  8
0
  6
HIDDEN
 62
     7
100
AcDbLine
 10
2.5345494892
 20
3.9929302549
 30
0.0
 11
2.5195494892
 21
4.0079302549
 31
0.0
  0
LINE
  5
117
330
1F
100
AcDbEntity
  8
0
  6
HIDDEN
 62
     7
100
AcDbLine
 10
2.8347632583
 20
3.9929302549
 30
0.0
 11
2.5345494892
 21
3.9929302549
 31
0.0
  0
LINE
  5
118
330
1F
100
AcDbEntity
  8
0
  6
HIDDEN
 62
     7
100
AcDbLine
 10
3.2766361034
 20
3.9929302549
 30
0.0
 11
2.9917075985
 21
3.9929302549
 31
0.0
  0
LINE
  5
119
330
1F
100
AcDbEntity
  8
0
  6
HIDDEN
 62
     7
100
AcDbLine
 10
2.5345494892
 20
3.52048931
 30
0.0
 11
3.2766361034
 21
3.52048931
 31
0.0
  0
LINE
  5
11A
330
1F
100
AcDbEntity
  8
0
  6
HIDDEN
 62
     7
100
AcDbLine
 10
3.6615349119
 20
3.9929302549
 30
0.0
 11
3.3766361034
 21
3.9929302549
 31
0.0
  0
LINE
  5
11B
330
1F
100
AcDbEntity
  8
0
  6
HIDDEN
 62
     7
100
AcDbLine
 10
4.1187227176
 20
3.9929302549
 30
0.0
 11
3.818479252
 21
3.9929302549
 31
0.0
  0
LINE
  5
11C
330
1F
100
AcDbEntity
  8
0
  6
HIDDEN
 62
     7
100
AcDbLine
 10
3.3766361034
 20
3.52048931
 30
0.0
 11
4.1187227176
 21
3.52048931
 31
0.0
  0
LINE
  5
11D
330
1F
100
AcDbEntity
  8
0
  6
HIDDEN
 62
     7
100
AcDbLine
 10
2.9919904347
 20
4.3751029054
 30
0.0
 11
3.004968046
 21
4.3866310423
 31
0.0
  0
LINE
  5
11E
330
1F
100
AcDbEntity
  8
0
  6
HIDDEN
 62
     7
100
AcDbLine
 10
2.8215325069
 20
4.3866310424
 30
0.0
 11
2.8345101183
 21
4.3751029055
 31
0.0
  0
LINE
  5
11F
330
1F
100
AcDbEntity
  8
0
  6
HIDDEN
 62
     7
100
AcDbLine
 10
3.8187620882
 20
4.3751029054
 30
0.0
 11
3.8317396996
 21
4.3866310423
 31
0.0
  0
LINE
  5
120
330
1F
100
AcDbEntity
  8
0
  6
HIDDEN
 62
     7
100
AcDbLine
 10
3.6483041605
 20
4.3866310424
 30
0.0
 11
3.6612817719
 21
4.3751029055
 31
0.0
  0
LINE
  5
121
330
1F
100
AcDbEntity
  8
0
  6
HIDDEN
 62
     7
100
AcDbLine
 10
2.9919904341
 20
3.9928361311
 30
0.0
 11
2.9919904341
 21
4.3751028876
 31
0.0
  0
LINE
  5
122
330
1F
100
AcDbEntity
  8
0
  6
HIDDEN
 62
     7
100
AcDbLine
 10
2.8345101191
 20
4.3751029054
 30
0.0
 11
2.8345101191
 21
3.9928459999
 31
0.0
  0
LINE
  5
123
330
1F
100
AcDbEntity
  8
0
  6
HIDDEN
 62
     7
100
AcDbLine
 10
3.8187620876
 20
3.9928361311
 30
0.0
 11
3.8187620876
 21
4.3751028876
 31
0.0
  0
LINE
  5
124
330
1F
100
AcDbEntity
  8
0
  6
HIDDEN
 62
     7
100
AcDbLine
 10
3.6612817727
 20
4.3751029054
 30
0.0
 11
3.6612817727
 21
3.9928459999
 31
0.0
  0
LINE
  5
125
330
1F
100
AcDbEntity
  8
0
  6
HIDDEN
 62
     7
100
AcDbLine
 10
3.8187620876
 20
4.0029302549
 30
0.0
 11
3.8187620876
 21
4.3766310423
 31
0.0
  0
LINE
  5
126
330
1F
100
AcDbEntity
  8
0
  6
HIDDEN
 62
     7
100
AcDbLine
 10
3.6612817727
 20
4.3766310423
 30
0.0
 11
3.6612817727
 21
4.0029302549
 31
0.0
  0
LINE
  5
127
330
1F
100
AcDbEntity
  8
0
  6
HIDDEN
 62
     7
100
AcDbLine
 10
3.8187620876
 20
4.3766310423
 30
0.0
 11
3.8114653619
 21
4.383927768
 31
0.0
  0
LINE
  5
128
330
1F
100
AcDbEntity
  8
0
  6
HIDDEN
 62
     7
100
AcDbLine
 10
3.6685793765
 20
4.3839286461
 30
0.0
 11
3.6612817727
 21
4.3766310423
 31
0.0
  0
LINE
  5
129
330
1F
100
AcDbEntity
  8
0
  6
HIDDEN
 62
     7
100
AcDbLine
 10
3.6612817727
 20
4.0029302549
 30
0.0
 11
3.6712817727
 21
3.9929302549
 31
0.0
  0
LINE
  5
12A
330
1F
100
AcDbEntity
  8
0
  6
HIDDEN
 62
     7
100
AcDbLine
 10
3.8087620876
 20
3.9929302549
 30
0.0
 11
3.8187620876
 21
4.0029302549
 31
0.0
  0
LINE
  5
12B
330
1F
100
AcDbEntity
  8
0
  6
HIDDEN
 62
     7
100
AcDbLine
 10
2.9919904341
 20
4.3766310423
 30
0.0
 11
2.9846937083
 21
4.383927768
 31
0.0
  0
LINE
  5
12C
330
1F
100
AcDbEntity
  8
0
  6
HIDDEN
 62
     7
100
AcDbLine
 10
2.841807723
 20
4.3839286461
 30
0.0
 11
2.8345101191
 21
4.3766310423
 31
0.0
  0
LINE
  5
12D
330
1F
100
AcDbEntity
  8
0
  6
HIDDEN
 62
     7
100
AcDbLine
 10
2.9919904341
 20
4.0029302549
 30
0.0
 11
2.9919904341
 21
4.3766310423
 31
0.0
  0
LINE
  5
12E
330
1F
100
AcDbEntity
  8
0
  6
HIDDEN
 62
     7
100
AcDbLine
 10
2.8345101191
 20
4.3766310423
 30
0.0
 11
2.8345101191
 21
4.0029302549
 31
0.0
  0
LINE
  5
12F
330
1F
100
AcDbEntity
  8
0
  6
HIDDEN
 62
     7
100
AcDbLine
 10
2.8345101191
 20
4.0029302549
 30
0.0
 11
2.8445101191
 21
3.9929302549
 31
0.0
  0
LINE
  5
130
330
1F
100
AcDbEntity
  8
0
  6
HIDDEN
 62
     7
100
AcDbLine
 10
2.9819904341
 20
3.9929302549
 30
0.0
 11
2.9919904341
 21
4.0029302549
 31
0.0
  0
LINE
  5
131
330
1F
100
AcDbEntity
  8
0
  6
CONTINUOUS
 62
     7
100
AcDbLine
 10
8.8745952375
 20
3.6837275002
 30
0.0
 11
8.8788373622
 21
3.687969625
 31
0.0
  0
LINE
  5
132
330
1F
100
AcDbEntity
  8
0
  6
CONTINUOUS
 62
     7
100
AcDbLine
 10
8.8788373622
 20
3.8254499399
 30
0.0
 11
8.8745952375
 21
3.8296920647
 31
0.0
  0
LINE
  5
133
330
1F
100
AcDbEntity
  8
0
  6
CONTINUOUS
 62
     7
100
AcDbLine
 10
8.3218983846
 20
4.3823889175
 30
0.0
 11
8.3176562599
 21
4.3866310423
 31
0.0
  0
LINE
  5
134
330
1F
100
AcDbEntity
  8
0
  6
CONTINUOUS
 62
     7
100
AcDbLine
 10
8.1801759449
 20
4.3866310423
 30
0.0
 11
8.1759338201
 21
4.3823889175
 31
0.0
  0
CIRCLE
  5
135
330
1F
100
AcDbEntity
  8
0
  6
CONTINUOUS
 62
     7
100
AcDbCircle
 10
8.2489161024
 20
3.7567097825
 30
0.0
 40
0.2512204724409468
  0
CIRCLE
  5
136
330
1F
100
AcDbEntity
  8
0
  6
CONTINUOUS
 62
     7
100
AcDbCircle
 10
8.2489161024
 20
3.7567097825
 30
0.0
 40
0.6149212598425198
  0
CIRCLE
  5
137
330
1F
100
AcDbEntity
  8
0
  6
CONTINUOUS
 62
     7
100
AcDbCircle
 10
8.2489161024
 20
3.7567097825
 30
0.0
 40
0.6299212598425203
  0
CIRCLE
  5
138
330
1F
100
AcDbEntity
  8
0
  6
CONTINUOUS
 62
     7
100
AcDbCircle
 10
8.2489161024
 20
3.7567097825
 30
0.0
 40
0.2362204724409462
  0
LINE
  5
139
330
1F
100
AcDbEntity
  8
0
  6
CONTINUOUS
 62
     7
100
AcDbLine
 10
8.8788373622
 20
3.8254499399
 30
0.0
 11
8.8788373622
 21
3.687969625
 31
0.0
  0
LINE
  5
13A
330
1F
100
AcDbEntity
  8
0
  6
CONTINUOUS
 62
     7
100
AcDbLine
 10
8.1801759449
 20
4.3866310423
 30
0.0
 11
8.3176562599
 21
4.3866310423
 31
0.0
  0
LINE
  5
13B
330
1F
100
AcDbEntity
  8
0
  6
HIDDEN
 62
     7
100
AcDbLine
 10
8.8673092254
 20
3.7567097825
 30
0.0
 11
8.8671906422
 21
3.7636683542
 31
0.0
  0
SPLINE
  5
13C
330
1F
100
AcDbEntity
  8
0
  6
HIDDEN
 62
     7
100
AcDbSpline
210
0.0
220
0.0
230
1.0
 70
     8
 71
     3
 72
    25
 73
    21
 74
     0
 42
0.00000001
 43
0.00000001
 40
0.0
 40
0.0
 40
0.0
 40
0.0
 40
0.0000259513623792
 40
0.0505868751964536
 40
0.109078697118837
 40
0.1755255650888841
 40
0.2499398062455437
 40
0.3241173617145973
 40
0.3905107305895967
 40
0.4491329111748346
 40
0.5000084197357734
 40
0.550841039774223
 40
0.6094415833126254
 40
0.6758346096718388
 40
0.7500333919414003
 40
0.8244445311529494
 40
0.8908884582978301
 40
0.9493774470302601
 40
0.9999354693203889
 40
1.0
 40
1.0
 40
1.0
 40
1.0
 10
8.860469895817472
 20
3.835449417689006
 30
0.0
 10
8.860469859056277
 20
3.835449588728182
 30
0.0
 10
8.860398200621965
 20
3.835782994634546
 30
0.0
 10
8.860683239531214
 20
3.834560797456421
 30
0.0
 10
8.861299699167192
 20
3.831190095384603
 30
0.0
 10
8.862393686748447
 20
3.823969148527047
 30
0.0
 10
8.863893094784157
 20
3.812941312927093
 30
0.0
 10
8.865397118209703
 20
3.798951029471367
 30
0.0
 10
8.866469888733636
 20
3.784070906168813
 30
0.0
 10
8.867134728994612
 20
3.769953742098088
 30
0.0
 10
8.867389999024391
 20
3.756714380581691
 30
0.0
 10
8.867135983553094
 20
3.743476792116692
 30
0.0
 10
8.866471478234837
 20
3.72936416353037
 30
0.0
 10
8.86539872223967
 20
3.714482449544754
 30
0.0
 10
8.86389425647307
 20
3.700488762824284
 30
0.0
 10
8.862395147478274
 20
3.689457749775084
 30
0.0
 10
8.86130102870207
 20
3.682234575910897
 30
0.0
 10
8.860684152540303
 20
3.678861101242088
 30
0.0
 10
8.860398457836524
 20
3.677637418139647
 30
0.0
 10
8.860469969000752
 20
3.677970475858726
 30
0.0
 10
8.860470060159015
 20
3.677970900421291
 30
0.0
  0
SPLINE
  5
13D
330
1F
100
AcDbEntity
  8
0
  6
HIDDEN
 62
     7
100
AcDbSpline
210
0.0
220
0.0
230
1.0
 70
     8
 71
     3
 72
    12
 73
     8
 74
     0
 42
0.00000001
 43
0.00000001
 40
0.0
 40
0.0
 40
0.0
 40
0.0
 40
0.0002735589382033
 40
0.2968102005188131
 40
0.5622340752578302
 40
0.7965977356031338
 40
1.0
 40
1.0
 40
1.0
 40
1.0
 10
8.863897185915599
 20
3.701017936472044
 30
0.0
 10
8.863897645711697
 20
3.701021421452798
 30
0.0
 10
8.864396522381304
 20
3.704802609678835
 30
0.0
 10
8.865411428655937
 20
3.714712397767096
 30
0.0
 10
8.866462703815253
 20
3.729313391769539
 30
0.0
 10
8.86716231180251
 20
3.743483249939402
 30
0.0
 10
8.867262618946022
 20
3.752513837133091
 30
0.0
 10
8.867309225360483
 20
3.756709782455037
 30
0.0
  0
SPLINE
  5
13E
330
1F
100
AcDbEntity
  8
0
  6
HIDDEN
 62
     7
100
AcDbSpline
210
0.0
220
0.0
230
1.0
 70
     8
 71
     3
 72
    25
 73
    21
 74
     0
 42
0.00000001
 43
0.00000001
 40
0.0
 40
0.0
 40
0.0
 40
0.0
 40
0.00002595136238
 40
0.0505868751963454
 40
0.1090786971186934
 40
0.1755255650887784
 40
0.2499398062455493
 40
0.3241173617147148
 40
0.3905107305897523
 40
0.4491329111749534
 40
0.5000084197357806
 40
0.5508410397730158
 40
0.6094415833110152
 40
0.6758346096706341
 40
0.7500333919414053
 40
0.8244445311541727
 40
0.8908884582994607
 40
0.9493774470314823
 40
0.9999354693203841
 40
1.0
 40
1.0
 40
1.0
 40
1.0
 10
8.170176467153013
 20
4.368263575885528
 30
0.0
 10
8.170176296113837
 20
4.368263539124333
 30
0.0
 10
8.169842890207459
 20
4.36819188069017
 30
0.0
 10
8.171065087385605
 20
4.368476919599191
 30
0.0
 10
8.174435789457403
 20
4.369093379235276
 30
0.0
 10
8.181656736314961
 20
4.370187366816496
 30
0.0
 10
8.192684571914924
 20
4.371686774852217
 30
0.0
 10
8.20667485537067
 20
4.373190798277758
 30
0.0
 10
8.221554978673236
 20
4.374263568801692
 30
0.0
 10
8.235672142743953
 20
4.374928409062668
 30
0.0
 10
8.248911504260237
 20
4.375183679092449
 30
0.0
 10
8.262149092725092
 20
4.374929663621149
 30
0.0
 10
8.27626172131133
 20
4.374265158302888
 30
0.0
 10
8.291143435297071
 20
4.373192402307718
 30
0.0
 10
8.305137122017753
 20
4.37168793654113
 30
0.0
 10
8.316168135067075
 20
4.370188827546333
 30
0.0
 10
8.32339130893124
 20
4.369094708770146
 30
0.0
 10
8.326764783599959
 20
4.36847783260832
 30
0.0
 10
8.327988466702367
 20
4.368192137904662
 30
0.0
 10
8.327655408983293
 20
4.368263649068808
 30
0.0
 10
8.327654984420727
 20
4.368263740227072
 30
0.0
  0
SPLINE
  5
13F
330
1F
100
AcDbEntity
  8
0
  6
HIDDEN
 62
     7
100
AcDbSpline
210
0.0
220
0.0
230
1.0
 70
     8
 71
     3
 72
    12
 73
     8
 74
     0
 42
0.00000001
 43
0.00000001
 40
0.0
 40
0.0
 40
0.0
 40
0.0
 40
0.0002735589372112
 40
0.2968102005234429
 40
0.5622340752645113
 40
0.7965977356082756
 40
0.9999999999999999
 40
0.9999999999999999
 40
0.9999999999999999
 40
0.9999999999999999
 10
8.304607948369936
 20
4.371690865983661
 30
0.0
 10
8.304604463389195
 20
4.371691325779757
 30
0.0
 10
8.300823275163099
 20
4.372190202449277
 30
0.0
 10
8.290913487074707
 20
4.37320510872402
 30
0.0
 10
8.27631249307213
 20
4.374256383883296
 30
0.0
 10
8.262142634902359
 20
4.374955991870566
 30
0.0
 10
8.253112047708818
 20
4.375056299014078
 30
0.0
 10
8.248916102386982
 20
4.375102905428539
 30
0.0
  0
LINE
  5
140
330
1F
100
AcDbEntity
  8
0
  6
HIDDEN
 62
     7
100
AcDbLine
 10
8.8688373622
 20
3.677969625
 30
0.0
 11
8.8688373622
 21
3.8354499399
 31
0.0
  0
LINE
  5
141
330
1F
100
AcDbEntity
  8
0
  6
HIDDEN
 62
     7
100
AcDbLine
 10
8.4951365748
 20
3.7567097825
 30
0.0
 11
8.4951365748
 21
3.677969625
 31
0.0
  0
LINE
  5
142
330
1F
100
AcDbEntity
  8
0
  6
HIDDEN
 62
     7
100
AcDbLine
 10
8.4951365748
 20
3.8354499399
 30
0.0
 11
8.4951365748
 21
3.7567097825
 31
0.0
  0
LINE
  5
143
330
1F
100
AcDbEntity
  8
0
  6
HIDDEN
 62
     7
100
AcDbLine
 10
8.4851365748
 20
3.7567097825
 30
0.0
 11
8.4851365748
 21
3.8254499399
 31
0.0
  0
LINE
  5
144
330
1F
100
AcDbEntity
  8
0
  6
HIDDEN
 62
     7
100
AcDbLine
 10
8.4851365748
 20
3.687969625
 30
0.0
 11
8.4851365748
 21
3.7567097825
 31
0.0
  0
LINE
  5
145
330
1F
100
AcDbEntity
  8
0
  6
HIDDEN
 62
     7
100
AcDbLine
 10
8.8000972047
 20
3.7339794569
 30
0.0
 11
8.8788373622
 21
3.7339794569
 31
0.0
  0
LINE
  5
146
330
1F
100
AcDbEntity
  8
0
  6
HIDDEN
 62
     7
100
AcDbLine
 10
8.8000972047
 20
3.779440108
 30
0.0
 11
8.8788373622
 21
3.779440108
 31
0.0
  0
LINE
  5
147
330
1F
100
AcDbEntity
  8
0
  6
HIDDEN
 62
     7
100
AcDbLine
 10
8.8000972047
 20
3.8021704336
 30
0.0
 11
8.8000972047
 21
3.779440108
 31
0.0
  0
LINE
  5
148
330
1F
100
AcDbEntity
  8
0
  6
HIDDEN
 62
     7
100
AcDbLine
 10
8.8000972047
 20
3.7339794569
 30
0.0
 11
8.8000972047
 21
3.7112491313
 31
0.0
  0
LINE
  5
149
330
1F
100
AcDbEntity
  8
0
  6
HIDDEN
 62
     7
100
AcDbLine
 10
8.8000972047
 20
3.779440108
 30
0.0
 11
8.8000972047
 21
3.7339794569
 31
0.0
  0
LINE
  5
14A
330
1F
100
AcDbEntity
  8
0
  6
HIDDEN
 62
     7
100
AcDbLine
 10
8.8000972047
 20
3.7112491313
 30
0.0
 11
8.8788373622
 21
3.7112491313
 31
0.0
  0
LINE
  5
14B
330
1F
100
AcDbEntity
  8
0
  6
HIDDEN
 62
     7
100
AcDbLine
 10
8.8000972047
 20
3.8021704336
 30
0.0
 11
8.8788373622
 21
3.8021704336
 31
0.0
  0
LINE
  5
14C
330
1F
100
AcDbEntity
  8
0
  6
HIDDEN
 62
     7
100
AcDbLine
 10
8.2489161024
 20
3.9929302549
 30
0.0
 11
8.1801759449
 21
3.9929302549
 31
0.0
  0
LINE
  5
14D
330
1F
100
AcDbEntity
  8
0
  6
HIDDEN
 62
     7
100
AcDbLine
 10
8.3176562599
 20
3.9929302549
 30
0.0
 11
8.2489161024
 21
3.9929302549
 31
0.0
  0
LINE
  5
14E
330
1F
100
AcDbEntity
  8
0
  6
HIDDEN
 62
     7
100
AcDbLine
 10
8.2489161024
 20
4.0029302549
 30
0.0
 11
8.3276562599
 21
4.0029302549
 31
0.0
  0
LINE
  5
14F
330
1F
100
AcDbEntity
  8
0
  6
HIDDEN
 62
     7
100
AcDbLine
 10
8.1701759449
 20
4.0029302549
 30
0.0
 11
8.2489161024
 21
4.0029302549
 31
0.0
  0
LINE
  5
150
330
1F
100
AcDbEntity
  8
0
  6
HIDDEN
 62
     7
100
AcDbLine
 10
8.3276562599
 20
4.3766310423
 30
0.0
 11
8.1701759449
 21
4.3766310423
 31
0.0
  0
LINE
  5
151
330
1F
100
AcDbEntity
  8
0
  6
HIDDEN
 62
     7
100
AcDbLine
 10
8.2716464279
 20
4.3078908848
 30
0.0
 11
8.2943767535
 21
4.3078908848
 31
0.0
  0
LINE
  5
152
330
1F
100
AcDbEntity
  8
0
  6
HIDDEN
 62
     7
100
AcDbLine
 10
8.2716464279
 20
4.3078908848
 30
0.0
 11
8.2716464279
 21
4.3866310423
 31
0.0
  0
LINE
  5
153
330
1F
100
AcDbEntity
  8
0
  6
HIDDEN
 62
     7
100
AcDbLine
 10
8.2261857768
 20
4.3078908848
 30
0.0
 11
8.2716464279
 21
4.3078908848
 31
0.0
  0
LINE
  5
154
330
1F
100
AcDbEntity
  8
0
  6
HIDDEN
 62
     7
100
AcDbLine
 10
8.2261857768
 20
4.3078908848
 30
0.0
 11
8.2261857768
 21
4.3866310423
 31
0.0
  0
LINE
  5
155
330
1F
100
AcDbEntity
  8
0
  6
HIDDEN
 62
     7
100
AcDbLine
 10
8.2034554513
 20
4.3078908848
 30
0.0
 11
8.2261857768
 21
4.3078908848
 31
0.0
  0
LINE
  5
156
330
1F
100
AcDbEntity
  8
0
  6
HIDDEN
 62
     7
100
AcDbLine
 10
8.2943767535
 20
4.3078908848
 30
0.0
 11
8.2943767535
 21
4.3866310423
 31
0.0
  0
LINE
  5
157
330
1F
100
AcDbEntity
  8
0
  6
HIDDEN
 62
     7
100
AcDbLine
 10
8.2034554513
 20
4.3078908848
 30
0.0
 11
8.2034554513
 21
4.3866310423
 31
0.0
  0
LINE
  5
158
330
1F
100
AcDbEntity
  8
0
  6
HIDDEN
 62
     7
100
AcDbLine
 10
8.8604697863
 20
3.6779696367
 30
0.0
 11
8.8718704217
 21
3.6632822172
 31
0.0
  0
LINE
  5
159
330
1F
100
AcDbEntity
  8
0
  6
HIDDEN
 62
     7
100
AcDbLine
 10
8.8718704211
 20
3.8501373519
 30
0.0
 11
8.8604697856
 21
3.8354499318
 31
0.0
  0
LINE
  5
15A
330
1F
100
AcDbEntity
  8
0
  6
HIDDEN
 62
     7
100
AcDbLine
 10
8.3276562481
 20
4.3682634663
 30
0.0
 11
8.3423436676
 21
4.3796641018
 31
0.0
  0
LINE
  5
15B
330
1F
100
AcDbEntity
  8
0
  6
HIDDEN
 62
     7
100
AcDbLine
 10
8.1554885329
 20
4.3796641012
 30
0.0
 11
8.1701759531
 21
4.3682634657
 31
0.0
  0
LINE
  5
15C
330
1F
100
AcDbEntity
  8
0
  6
HIDDEN
 62
     7
100
AcDbLine
 10
8.4717269345
 20
3.677969625
 30
0.0
 11
8.8604701723
 21
3.677969625
 31
0.0
  0
LINE
  5
15D
330
1F
100
AcDbEntity
  8
0
  6
HIDDEN
 62
     7
100
AcDbLine
 10
8.8604704399
 20
3.8354499399
 30
0.0
 11
8.4717206653
 21
3.8354499399
 31
0.0
  0
LINE
  5
15E
330
1F
100
AcDbEntity
  8
0
  6
HIDDEN
 62
     7
100
AcDbLine
 10
8.3276562599
 20
3.9794205797
 30
0.0
 11
8.3276562599
 21
4.3682638523
 31
0.0
  0
LINE
  5
15F
330
1F
100
AcDbEntity
  8
0
  6
HIDDEN
 62
     7
100
AcDbLine
 10
8.1701759449
 20
4.3682641199
 30
0.0
 11
8.1701759449
 21
3.9794297211
 31
0.0
  0
LINE
  5
160
330
1F
100
AcDbEntity
  8
0
  6
HIDDEN
 62
     7
100
AcDbLine
 10
8.8688373622
 20
3.677969625
 30
0.0
 11
8.8745952375
 21
3.6837275002
 31
0.0
  0
LINE
  5
161
330
1F
100
AcDbEntity
  8
0
  6
HIDDEN
 62
     7
100
AcDbLine
 10
8.8745952375
 20
3.8296920647
 30
0.0
 11
8.8688373622
 21
3.8354499399
 31
0.0
  0
LINE
  5
162
330
1F
100
AcDbEntity
  8
0
  6
HIDDEN
 62
     7
100
AcDbLine
 10
8.4951365748
 20
3.677969625
 30
0.0
 11
8.8688373622
 21
3.677969625
 31
0.0
  0
LINE
  5
163
330
1F
100
AcDbEntity
  8
0
  6
HIDDEN
 62
     7
100
AcDbLine
 10
8.8688373622
 20
3.8354499399
 30
0.0
 11
8.4951365748
 21
3.8354499399
 31
0.0
  0
LINE
  5
164
330
1F
100
AcDbEntity
  8
0
  6
HIDDEN
 62
     7
100
AcDbLine
 10
8.4951365748
 20
3.8354499399
 30
0.0
 11
8.4851365748
 21
3.8254499399
 31
0.0
  0
LINE
  5
165
330
1F
100
AcDbEntity
  8
0
  6
HIDDEN
 62
     7
100
AcDbLine
 10
8.4851365748
 20
3.687969625
 30
0.0
 11
8.4951365748
 21
3.677969625
 31
0.0
  0
LINE
  5
166
330
1F
100
AcDbEntity
  8
0
  6
HIDDEN
 62
     7
100
AcDbLine
 10
8.1701759449
 20
4.0029302549
 30
0.0
 11
8.1801759449
 21
3.9929302549
 31
0.0
  0
LINE
  5
167
330
1F
100
AcDbEntity
  8
0
  6
HIDDEN
 62
     7
100
AcDbLine
 10
8.3176562599
 20
3.9929302549
 30
0.0
 11
8.3276562599
 21
4.0029302549
 31
0.0
  0
LINE
  5
168
330
1F
100
AcDbEntity
  8
0
  6
HIDDEN
 62
     7
100
AcDbLine
 10
8.3276562599
 20
4.0029302549
 30
0.0
 11
8.3276562599
 21
4.3766310423
 31
0.0
  0
LINE
  5
169
330
1F
100
AcDbEntity
  8
0
  6
HIDDEN
 62
     7
100
AcDbLine
 10
8.1701759449
 20
4.3766310423
 30
0.0
 11
8.1701759449
 21
4.0029302549
 31
0.0
  0
LINE
  5
16A
330
1F
100
AcDbEntity
  8
0
  6
HIDDEN
 62
     7
100
AcDbLine
 10
8.3276562599
 20
4.3766310423
 30
0.0
 11
8.3218983846
 21
4.3823889175
 31
0.0
  0
LINE
  5
16B
330
1F
100
AcDbEntity
  8
0
  6
HIDDEN
 62
     7
100
AcDbLine
 10
8.1759338201
 20
4.3823889175
 30
0.0
 11
8.1701759449
 21
4.3766310423
 31
0.0
  0
LINE
  5
16C
330
1F
100
AcDbEntity
  8
0
  6
CONTINUOUS
 62
     7
100
AcDbLine
 10
2.5345494892
 20
6.0400873751
 30
0.0
 11
4.1187227176
 21
6.0400873751
 31
0.0
  0
LINE
  5
16D
330
1F
100
AcDbEntity
  8
0
  6
CONTINUOUS
 62
     7
100
AcDbLine
 10
2.8215325079
 20
7.2999298948
 30
0.0
 11
2.5345494892
 21
7.2999298948
 31
0.0
  0
LINE
  5
16E
330
1F
100
AcDbEntity
  8
0
  6
CONTINUOUS
 62
     7
100
AcDbLine
 10
3.6483041614
 20
7.2999298948
 30
0.0
 11
3.0049679238
 21
7.2999298948
 31
0.0
  0
LINE
  5
16F
330
1F
100
AcDbEntity
  8
0
  6
CONTINUOUS
 62
     7
100
AcDbLine
 10
4.1187227176
 20
7.2999298948
 30
0.0
 11
3.8317395773
 21
7.2999298948
 31
0.0
  0
LINE
  5
170
330
1F
100
AcDbEntity
  8
0
  6
CONTINUOUS
 62
     7
100
AcDbLine
 10
2.5345494892
 20
7.2999298948
 30
0.0
 11
2.5195494892
 21
7.2849298948
 31
0.0
  0
LINE
  5
171
330
1F
100
AcDbEntity
  8
0
  6
CONTINUOUS
 62
     7
100
AcDbLine
 10
2.5195494892
 20
6.0550873751
 30
0.0
 11
2.5345494892
 21
6.0400873751
 31
0.0
  0
LINE
  5
172
330
1F
100
AcDbEntity
  8
0
  6
CONTINUOUS
 62
     7
100
AcDbLine
 10
4.1187227176
 20
6.0400873751
 30
0.0
 11
4.1337227176
 21
6.0550873751
 31
0.0
  0
LINE
  5
173
330
1F
100
AcDbEntity
  8
0
  6
CONTINUOUS
 62
     7
100
AcDbLine
 10
4.1337227176
 20
7.2849298948
 30
0.0
 11
4.1187227176
 21
7.2999298948
 31
0.0
  0
LINE
  5
174
330
1F
100
AcDbEntity
  8
0
  6
CONTINUOUS
 62
     7
100
AcDbLine
 10
3.8114653619
 20
7.2972266206
 30
0.0
 11
3.8087620876
 21
7.2999298948
 31
0.0
  0
LINE
  5
175
330
1F
100
AcDbEntity
  8
0
  6
CONTINUOUS
 62
     7
100
AcDbLine
 10
3.6712817727
 20
7.2999298948
 30
0.0
 11
3.6685793765
 21
7.2972274987
 31
0.0
  0
LINE
  5
176
330
1F
100
AcDbEntity
  8
0
  6
CONTINUOUS
 62
     7
100
AcDbLine
 10
2.9846937083
 20
7.2972266206
 30
0.0
 11
2.9819904341
 21
7.2999298948
 31
0.0
  0
LINE
  5
177
330
1F
100
AcDbEntity
  8
0
  6
CONTINUOUS
 62
     7
100
AcDbLine
 10
2.8445101191
 20
7.2999298948
 30
0.0
 11
2.841807723
 21
7.2972274987
 31
0.0
  0
LINE
  5
178
330
1F
100
AcDbEntity
  8
0
  6
CONTINUOUS
 62
     7
100
AcDbLine
 10
4.1187227176
 20
6.0400873751
 30
0.0
 11
4.1187227176
 21
7.2999298948
 31
0.0
  0
LINE
  5
179
330
1F
100
AcDbEntity
  8
0
  6
CONTINUOUS
 62
     7
100
AcDbLine
 10
2.5345494892
 20
7.2999298948
 30
0.0
 11
2.5345494892
 21
6.0400873751
 31
0.0
  0
SPLINE
  5
17A
330
1F
100
AcDbEntity
  8
0
  6
CONTINUOUS
 62
     7
100
AcDbSpline
210
0.0
220
0.0
230
1.0
 70
     8
 71
     3
 72
    39
 73
    35
 74
     0
 42
0.00000001
 43
0.00000001
 40
-0.0946153151592497
 40
-0.063029762387107
 40
-0.0313280494959234
 40
0.0
 40
0.0313436522811892
 40
0.0630338827605092
 40
0.0945901764157862
 40
0.1257490946969568
 40
0.1567525273832551
 40
0.1879854419413515
 40
0.2191519189322542
 40
0.2499113389889396
 40
0.28065166127388
 40
0.3118883410485836
 40
0.3431447021858949
 40
0.3742081634624613
 40
0.4053596611235775
 40
0.4368980582400209
 40
0.4685686740357738
 40
0.5000031074625687
 40
0.5314095660002744
 40
0.5631216740695084
 40
0.5946381341267117
 40
0.6258239327444539
 40
0.6568491782003232
 40
0.6881247348286644
 40
0.7192962093286009
 40
0.7500767494886736
 40
0.7807895513979493
 40
0.8120085129781233
 40
0.8432211683269334
 40
0.8742583491596292
 40
0.9053846848407503
 40
0.936970237612893
 40
0.9686719505040766
 40
1.0
 40
1.031343652281189
 40
1.063033882760509
 40
1.094590176415786
 10
3.649487534624774
 20
6.651690025018171
 30
0.0
 10
3.647714425679188
 20
6.670011900488298
 30
0.0
 10
3.649493288269658
 20
6.688330122595447
 30
0.0
 10
3.654851556763969
 20
6.705960283788081
 30
0.0
 10
3.663303655246112
 20
6.722269106643197
 30
0.0
 10
3.674731681750733
 20
6.736471414158039
 30
0.0
 10
3.688658229984419
 20
6.74813985311854
 30
0.0
 10
3.704664447303382
 20
6.756757604258974
 30
0.0
 10
3.721974253856256
 20
6.762226033359413
 30
0.0
 10
3.739966450420436
 20
6.764036246433348
 30
0.0
 10
3.757971902746691
 20
6.762228546545994
 30
0.0
 10
3.775299336109187
 20
6.756769418004237
 30
0.0
 10
3.791343467543781
 20
6.748158941584376
 30
0.0
 10
3.805291562519095
 20
6.736492180459019
 30
0.0
 10
3.81673856432652
 20
6.722297116712772
 30
0.0
 10
3.825202682679467
 20
6.706003432805979
 30
0.0
 10
3.830561104848557
 20
6.688361222682623
 30
0.0
 10
3.832327323122835
 20
6.670012707008873
 30
0.0
 10
3.830557665259256
 20
6.651656785015277
 30
0.0
 10
3.825198398297003
 20
6.634016332464207
 30
0.0
 10
3.8167306854033
 20
6.617713203607292
 30
0.0
 10
3.80528757555106
 20
6.603520926792838
 30
0.0
 10
3.791337968857341
 20
6.591852121613648
 30
0.0
 10
3.775308575473513
 20
6.583247450130899
 30
0.0
 10
3.75798156190089
 20
6.577792654882979
 30
0.0
 10
3.739990602466575
 20
6.575981368162086
 30
0.0
 10
3.721988887601425
 20
6.57778578226408
 30
0.0
 10
3.704681365951289
 20
6.583253747830881
 30
0.0
 10
3.688661818972815
 20
6.591872983764765
 30
0.0
 10
3.674737759686376
 20
6.603539520207909
 30
0.0
 10
3.663306588755197
 20
6.617746702903371
 30
0.0
 10
3.654856053729675
 20
6.634057745435608
 30
0.0
 10
3.649487534624774
 20
6.651690025018171
 30
0.0
 10
3.647714425679188
 20
6.670011900488298
 30
0.0
 10
3.649493288269658
 20
6.688330122595447
 30
0.0
  0
SPLINE
  5
17B
330
1F
100
AcDbEntity
  8
0
  6
CONTINUOUS
 62
     7
100
AcDbSpline
210
0.0
220
0.0
230
1.0
 70
     8
 71
     3
 72
    39
 73
    35
 74
     0
 42
0.00000001
 43
0.00000001
 40
-0.0946153151595128
 40
-0.0630297623871148
 40
-0.0313280494961323
 40
0.0
 40
0.0313436522814111
 40
0.0630338827605177
 40
0.0945901764160067
 40
0.1257490946969568
 40
0.1567525273833774
 40
0.1879854419413565
 40
0.2191519189323746
 40
0.2499113389889394
 40
0.2806516612738497
 40
0.3118883410485823
 40
0.3431447021858101
 40
0.3742081634624592
 40
0.4053596611235223
 40
0.4368980582400205
 40
0.4685686740357732
 40
0.5000031074625685
 40
0.5314095660003355
 40
0.5631216740695106
 40
0.5946381341268284
 40
0.6258239327444566
 40
0.656849178200262
 40
0.6881247348286602
 40
0.71929620932841
 40
0.7500767494886705
 40
0.7807895513978131
 40
0.8120085129781206
 40
0.8432211683268178
 40
0.8742583491596273
 40
0.9053846848404872
 40
0.9369702376128852
 40
0.9686719505038677
 40
1.0
 40
1.031343652281411
 40
1.063033882760518
 40
1.094590176416007
 10
2.822715881081434
 20
6.651690025018125
 30
0.0
 10
2.820942772135894
 20
6.6700119004883
 30
0.0
 10
2.822721634726318
 20
6.688330122595496
 30
0.0
 10
2.828079903220696
 20
6.705960283788158
 30
0.0
 10
2.836532001702861
 20
6.722269106643211
 30
0.0
 10
2.847960028207469
 20
6.736471414158086
 30
0.0
 10
2.861886576441121
 20
6.74813985311857
 30
0.0
 10
2.877892793760118
 20
6.756757604258993
 30
0.0
 10
2.895202600312977
 20
6.762226033359394
 30
0.0
 10
2.913194796877145
 20
6.764036246433352
 30
0.0
 10
2.931200249203377
 20
6.762228546545986
 30
0.0
 10
2.94852768256586
 20
6.756769418004247
 30
0.0
 10
2.964571814000458
 20
6.748158941584381
 30
0.0
 10
2.978519908975768
 20
6.736492180459036
 30
0.0
 10
2.989966910783216
 20
6.722297116712786
 30
0.0
 10
2.998431029136154
 20
6.706003432805987
 30
0.0
 10
3.003789451305252
 20
6.688361222682623
 30
0.0
 10
3.005555669579525
 20
6.670012707008862
 30
0.0
 10
3.003786011715958
 20
6.651656785015263
 30
0.0
 10
2.998426744753681
 20
6.634016332464176
 30
0.0
 10
2.989959031859978
 20
6.617713203607275
 30
0.0
 10
2.978515922007748
 20
6.603520926792827
 30
0.0
 10
2.964566315314025
 20
6.591852121613682
 30
0.0
 10
2.948536921930252
 20
6.583247450130913
 30
0.0
 10
2.931209908357621
 20
6.577792654882982
 30
0.0
 10
2.91321894892333
 20
6.575981368162088
 30
0.0
 10
2.895217234058145
 20
6.577785782264071
 30
0.0
 10
2.877909712408026
 20
6.583253747830863
 30
0.0
 10
2.861890165429528
 20
6.591872983764752
 30
0.0
 10
2.847966106143116
 20
6.603539520207856
 30
0.0
 10
2.836534935211941
 20
6.617746702903345
 30
0.0
 10
2.828084400186405
 20
6.634057745435524
 30
0.0
 10
2.822715881081434
 20
6.651690025018125
 30
0.0
 10
2.820942772135894
 20
6.6700119004883
 30
0.0
 10
2.822721634726318
 20
6.688330122595496
 30
0.0
  0
POLYLINE
  5
17C
330
1F
100
AcDbEntity
  8
0
  6
CONTINUOUS
 62
     7
100
AcDb2dPolyline
 66
     1
 10
0.0
 20
0.0
 30
0.0
  0
VERTEX
  5
231
330
17C
100
AcDbEntity
  8
0
  6
CONTINUOUS
 62
     7
100
AcDbVertex
100
AcDb2dVertex
 10
3.8317395773
 20
7.2999298768
 30
0.0
  0
VERTEX
  5
232
330
17C
100
AcDbEntity
  8
0
  6
CONTINUOUS
 62
     7
100
AcDbVertex
100
AcDb2dVertex
 10
3.8317396989
 20
7.2999298948
 30
0.0
  0
VERTEX
  5
233
330
17C
100
AcDbEntity
  8
0
  6
CONTINUOUS
 62
     7
100
AcDbVertex
100
AcDb2dVertex
 10
3.8299708832
 20
7.2996677345
 30
0.0
  0
VERTEX
  5
234
330
17C
100
AcDbEntity
  8
0
  6
CONTINUOUS
 62
     7
100
AcDbVertex
100
AcDb2dVertex
 10
3.8246615622
 20
7.2989111773
 30
0.0
  0
VERTEX
  5
235
330
17C
100
AcDbEntity
  8
0
  6
CONTINUOUS
 62
     7
100
AcDbVertex
100
AcDb2dVertex
 10
3.8161877318
 20
7.2977786161
 30
0.0
  0
VERTEX
  5
236
330
17C
100
AcDbEntity
  8
0
  6
CONTINUOUS
 62
     7
100
AcDbVertex
100
AcDb2dVertex
 10
3.8048439107
 20
7.2964526424
 30
0.0
  0
VERTEX
  5
237
330
17C
100
AcDbEntity
  8
0
  6
CONTINUOUS
 62
     7
100
AcDbVertex
100
AcDb2dVertex
 10
3.7910311919
 20
7.2951294801
 30
0.0
  0
VERTEX
  5
238
330
17C
100
AcDbEntity
  8
0
  6
CONTINUOUS
 62
     7
100
AcDbVertex
100
AcDb2dVertex
 10
3.7750656533
 20
7.2939978487
 30
0.0
  0
VERTEX
  5
239
330
17C
100
AcDbEntity
  8
0
  6
CONTINUOUS
 62
     7
100
AcDbVertex
100
AcDb2dVertex
 10
3.7577788242
 20
7.2932302254
 30
0.0
  0
VERTEX
  5
23A
330
17C
100
AcDbEntity
  8
0
  6
CONTINUOUS
 62
     7
100
AcDbVertex
100
AcDb2dVertex
 10
3.7399771958
 20
7.2929629536
 30
0.0
  0
VERTEX
  5
23B
330
17C
100
AcDbEntity
  8
0
  6
CONTINUOUS
 62
     7
100
AcDbVertex
100
AcDb2dVertex
 10
3.7222144009
 20
7.2932291554
 30
0.0
  0
VERTEX
  5
23C
330
17C
100
AcDbEntity
  8
0
  6
CONTINUOUS
 62
     7
100
AcDbVertex
100
AcDb2dVertex
 10
3.7049053772
 20
7.2939997755
 30
0.0
  0
VERTEX
  5
23D
330
17C
100
AcDbEntity
  8
0
  6
CONTINUOUS
 62
     7
100
AcDbVertex
100
AcDb2dVertex
 10
3.6889802981
 20
7.2951309441
 30
0.0
  0
VERTEX
  5
23E
330
17C
100
AcDbEntity
  8
0
  6
CONTINUOUS
 62
     7
100
AcDbVertex
100
AcDb2dVertex
 10
3.6751723098
 20
7.2964556107
 30
0.0
  0
VERTEX
  5
23F
330
17C
100
AcDbEntity
  8
0
  6
CONTINUOUS
 62
     7
100
AcDbVertex
100
AcDb2dVertex
 10
3.6638635729
 20
7.2977796159
 30
0.0
  0
VERTEX
  5
240
330
17C
100
AcDbEntity
  8
0
  6
CONTINUOUS
 62
     7
100
AcDbVertex
100
AcDb2dVertex
 10
3.6553829512
 20
7.2989142374
 30
0.0
  0
VERTEX
  5
241
330
17C
100
AcDbEntity
  8
0
  6
CONTINUOUS
 62
     7
100
AcDbVertex
100
AcDb2dVertex
 10
3.650071475
 20
7.2996690859
 30
0.0
  0
VERTEX
  5
242
330
17C
100
AcDbEntity
  8
0
  6
CONTINUOUS
 62
     7
100
AcDbVertex
100
AcDb2dVertex
 10
3.6483041614
 20
7.2999298948
 30
0.0
  0
VERTEX
  5
243
330
17C
100
AcDbEntity
  8
0
  6
CONTINUOUS
 62
     7
100
AcDbVertex
100
AcDb2dVertex
 10
3.6483041614
 20
7.2999298948
 30
0.0
  0
SEQEND
  5
244
330
17C
100
AcDbEntity
  8
0
  6
CONTINUOUS
 62
     7
  0
POLYLINE
  5
17D
330
1F
100
AcDbEntity
  8
0
  6
CONTINUOUS
 62
     7
100
AcDb2dPolyline
 66
     1
 10
0.0
 20
0.0
 30
0.0
  0
VERTEX
  5
245
330
17D
100
AcDbEntity
  8
0
  6
CONTINUOUS
 62
     7
100
AcDbVertex
100
AcDb2dVertex
 10
3.0049679238
 20
7.2999298768
 30
0.0
  0
VERTEX
  5
246
330
17D
100
AcDbEntity
  8
0
  6
CONTINUOUS
 62
     7
100
AcDbVertex
100
AcDb2dVertex
 10
3.0049680454
 20
7.2999298948
 30
0.0
  0
VERTEX
  5
247
330
17D
100
AcDbEntity
  8
0
  6
CONTINUOUS
 62
     7
100
AcDbVertex
100
AcDb2dVertex
 10
3.0031992296
 20
7.2996677345
 30
0.0
  0
VERTEX
  5
248
330
17D
100
AcDbEntity
  8
0
  6
CONTINUOUS
 62
     7
100
AcDbVertex
100
AcDb2dVertex
 10
2.9978899087
 20
7.2989111773
 30
0.0
  0
VERTEX
  5
249
330
17D
100
AcDbEntity
  8
0
  6
CONTINUOUS
 62
     7
100
AcDbVertex
100
AcDb2dVertex
 10
2.9894160782
 20
7.2977786161
 30
0.0
  0
VERTEX
  5
24A
330
17D
100
AcDbEntity
  8
0
  6
CONTINUOUS
 62
     7
100
AcDbVertex
100
AcDb2dVertex
 10
2.9780722571
 20
7.2964526424
 30
0.0
  0
VERTEX
  5
24B
330
17D
100
AcDbEntity
  8
0
  6
CONTINUOUS
 62
     7
100
AcDbVertex
100
AcDb2dVertex
 10
2.9642595384
 20
7.2951294801
 30
0.0
  0
VERTEX
  5
24C
330
17D
100
AcDbEntity
  8
0
  6
CONTINUOUS
 62
     7
100
AcDbVertex
100
AcDb2dVertex
 10
2.9482939998
 20
7.2939978487
 30
0.0
  0
VERTEX
  5
24D
330
17D
100
AcDbEntity
  8
0
  6
CONTINUOUS
 62
     7
100
AcDbVertex
100
AcDb2dVertex
 10
2.9310071707
 20
7.2932302254
 30
0.0
  0
VERTEX
  5
24E
330
17D
100
AcDbEntity
  8
0
  6
CONTINUOUS
 62
     7
100
AcDbVertex
100
AcDb2dVertex
 10
2.9132055423
 20
7.2929629536
 30
0.0
  0
VERTEX
  5
24F
330
17D
100
AcDbEntity
  8
0
  6
CONTINUOUS
 62
     7
100
AcDbVertex
100
AcDb2dVertex
 10
2.8954427474
 20
7.2932291554
 30
0.0
  0
VERTEX
  5
250
330
17D
100
AcDbEntity
  8
0
  6
CONTINUOUS
 62
     7
100
AcDbVertex
100
AcDb2dVertex
 10
2.8781337237
 20
7.2939997755
 30
0.0
  0
VERTEX
  5
251
330
17D
100
AcDbEntity
  8
0
  6
CONTINUOUS
 62
     7
100
AcDbVertex
100
AcDb2dVertex
 10
2.8622086446
 20
7.2951309441
 30
0.0
  0
VERTEX
  5
252
330
17D
100
AcDbEntity
  8
0
  6
CONTINUOUS
 62
     7
100
AcDbVertex
100
AcDb2dVertex
 10
2.8484006563
 20
7.2964556107
 30
0.0
  0
VERTEX
  5
253
330
17D
100
AcDbEntity
  8
0
  6
CONTINUOUS
 62
     7
100
AcDbVertex
100
AcDb2dVertex
 10
2.8370919194
 20
7.2977796159
 30
0.0
  0
VERTEX
  5
254
330
17D
100
AcDbEntity
  8
0
  6
CONTINUOUS
 62
     7
100
AcDbVertex
100
AcDb2dVertex
 10
2.8286112977
 20
7.2989142374
 30
0.0
  0
VERTEX
  5
255
330
17D
100
AcDbEntity
  8
0
  6
CONTINUOUS
 62
     7
100
AcDbVertex
100
AcDb2dVertex
 10
2.8232998215
 20
7.2996690859
 30
0.0
  0
VERTEX
  5
256
330
17D
100
AcDbEntity
  8
0
  6
CONTINUOUS
 62
     7
100
AcDbVertex
100
AcDb2dVertex
 10
2.8215325079
 20
7.2999298948
 30
0.0
  0
VERTEX
  5
257
330
17D
100
AcDbEntity
  8
0
  6
CONTINUOUS
 62
     7
100
AcDbVertex
100
AcDb2dVertex
 10
2.8215325079
 20
7.2999298948
 30
0.0
  0
SEQEND
  5
258
330
17D
100
AcDbEntity
  8
0
  6
CONTINUOUS
 62
     7
  0
SPLINE
  5
17E
330
1F
100
AcDbEntity
  8
0
  6
CONTINUOUS
 62
     7
100
AcDbSpline
210
0.0
220
0.0
230
1.0
 70
     8
 71
     3
 72
    29
 73
    25
 74
     0
 42
0.00000001
 43
0.00000001
 40
-0.0881812443126274
 40
-0.0548958613744902
 40
-0.0255062442259331
 40
0.0
 40
0.0348873360066114
 40
0.07660469266311
 40
0.1251660464680402
 40
0.1739170493733496
 40
0.2156018767908574
 40
0.250233058433588
 40
0.3047130174555797
 40
0.3749177732801704
 40
0.423563020060694
 40
0.46530221105356
 40
0.5001488927721085
 40
0.5548023739464759
 40
0.6248518402538691
 40
0.6736264372929239
 40
0.7153357978993103
 40
0.7499923320255311
 40
0.8044401344906538
 40
0.874631018978708
 40
0.9118187556873726
 40
0.9451041386255098
 40
0.9744937557740669
 40
1.0
 40
1.034887336006611
 40
1.07660469266311
 40
1.12516604646804
 10
3.662007180536562
 20
6.683248109225634
 30
0.0
 10
3.660820242130311
 20
6.668466616929455
 30
0.0
 10
3.662669662142965
 20
6.651632396940622
 30
0.0
 10
3.669800182124808
 20
6.632098386947591
 30
0.0
 10
3.683499585244573
 20
6.613433998938937
 30
0.0
 10
3.70217049754591
 20
6.599749750094806
 30
0.0
 10
3.721702685067788
 20
6.592650582188946
 30
0.0
 10
3.743243538688113
 20
6.590284743346246
 30
0.0
 10
3.769586610798656
 20
6.594798082902289
 30
0.0
 10
3.794451159057981
 20
6.610549518568787
 30
0.0
 10
3.810238864714911
 20
6.632092158954777
 30
0.0
 10
3.81737637746811
 20
6.651646016986908
 30
0.0
 10
3.819753212369088
 20
6.67326088983979
 30
0.0
 10
3.815205805086425
 20
6.69964228555392
 30
0.0
 10
3.799416479306618
 20
6.724506354875896
 30
0.0
 10
3.777863652976384
 20
6.740268638057233
 30
0.0
 10
3.758315602930971
 20
6.747375172215361
 30
0.0
 10
3.736770506140842
 20
6.749729881626163
 30
0.0
 10
3.710437460462729
 20
6.745213165702999
 30
0.0
 10
3.687208234712463
 20
6.730478652541784
 30
0.0
 10
3.672812314670907
 20
6.712243573802541
 30
0.0
 10
3.665642174830528
 20
6.697362540965623
 30
0.0
 10
3.662007180536562
 20
6.683248109225634
 30
0.0
 10
3.660820242130311
 20
6.668466616929455
 30
0.0
 10
3.662669662142965
 20
6.651632396940622
 30
0.0
  0
LINE
  5
17F
330
1F
100
AcDbEntity
  8
0
  6
CONTINUOUS
 62
     7
100
AcDbLine
 10
2.8345101191
 20
6.670008635
 30
0.0
 11
2.8349043524
 21
6.6650997954
 31
0.0
  0
SPLINE
  5
180
330
1F
100
AcDbEntity
  8
0
  6
CONTINUOUS
 62
     7
100
AcDbSpline
210
0.0
220
0.0
230
1.0
 70
     8
 71
     3
 72
     9
 73
     5
 74
     0
 42
0.00000001
 43
0.00000001
 40
0.0
 40
0.0
 40
0.0
 40
0.0
 40
0.6237977255604941
 40
1.0
 40
1.0
 40
1.0
 40
1.0
 10
2.991990386123189
 20
6.670008179243655
 30
0.0
 10
2.99187697007623
 20
6.674225511669377
 30
0.0
 10
2.991695154653839
 20
6.680986248768784
 30
0.0
 10
2.989806483237254
 20
6.687452582511028
 30
0.0
 10
2.989095960754666
 20
6.689885231972147
 30
0.0
  0
SPLINE
  5
181
330
1F
100
AcDbEntity
  8
0
  6
CONTINUOUS
 62
     7
100
AcDbSpline
210
0.0
220
0.0
230
1.0
 70
     8
 71
     3
 72
     9
 73
     5
 74
     0
 42
0.00000001
 43
0.00000001
 40
0.0
 40
0.0
 40
0.0
 40
0.0
 40
0.2757951680635722
 40
1.0
 40
1.0
 40
1.0
 40
1.0
 10
2.836709752409039
 20
6.6871878685565
 30
0.0
 10
2.836274376403194
 20
6.685648779860021
 30
0.0
 10
2.834695755541552
 20
6.68006822996393
 30
0.0
 10
2.834588090602022
 20
6.674233891259976
 30
0.0
 10
2.834510119132584
 20
6.670008634979419
 30
0.0
  0
LINE
  5
182
330
1F
100
AcDbEntity
  8
0
  6
CONTINUOUS
 62
     7
100
AcDbLine
 10
2.5195494892
 20
6.0550873751
 30
0.0
 11
2.5195494892
 21
7.2849298948
 31
0.0
  0
LINE
  5
183
330
1F
100
AcDbEntity
  8
0
  6
CONTINUOUS
 62
     7
100
AcDbLine
 10
4.1337227176
 20
7.2849298948
 30
0.0
 11
4.1337227176
 21
6.0550873751
 31
0.0
  0
LINE
  5
184
330
1F
100
AcDbEntity
  8
0
  6
CONTINUOUS
 62
     7
100
AcDbLine
 10
3.6712817727
 20
7.2999298948
 30
0.0
 11
3.8087620876
 21
7.2999298948
 31
0.0
  0
LINE
  5
185
330
1F
100
AcDbEntity
  8
0
  6
CONTINUOUS
 62
     7
100
AcDbLine
 10
2.9819904341
 20
7.2999298948
 30
0.0
 11
2.8445101191
 21
7.2999298948
 31
0.0
  0
CIRCLE
  5
186
330
1F
100
AcDbEntity
  8
0
  6
CONTINUOUS
 62
     7
100
AcDbCircle
 10
3.7400219302
 20
6.670008635
 30
0.0
 40
0.068740157480315
  0
LINE
  5
187
330
1F
100
AcDbEntity
  8
0
  6
CONTINUOUS
 62
     7
100
AcDbLine
 10
3.7400219302
 20
6.7154692861
 30
0.0
 11
3.7006518514
 21
6.6927389605
 31
0.0
  0
LINE
  5
188
330
1F
100
AcDbEntity
  8
0
  6
CONTINUOUS
 62
     7
100
AcDbLine
 10
3.7006518514
 20
6.6927389605
 30
0.0
 11
3.7006518514
 21
6.6472783094
 31
0.0
  0
LINE
  5
189
330
1F
100
AcDbEntity
  8
0
  6
CONTINUOUS
 62
     7
100
AcDbLine
 10
3.7006518514
 20
6.6472783094
 30
0.0
 11
3.7400219302
 21
6.6245479839
 31
0.0
  0
LINE
  5
18A
330
1F
100
AcDbEntity
  8
0
  6
CONTINUOUS
 62
     7
100
AcDbLine
 10
3.7400219302
 20
6.6245479839
 30
0.0
 11
3.7793920089
 21
6.6472783094
 31
0.0
  0
LINE
  5
18B
330
1F
100
AcDbEntity
  8
0
  6
CONTINUOUS
 62
     7
100
AcDbLine
 10
3.7793920089
 20
6.6472783094
 30
0.0
 11
3.7793920089
 21
6.6927389605
 31
0.0
  0
LINE
  5
18C
330
1F
100
AcDbEntity
  8
0
  6
CONTINUOUS
 62
     7
100
AcDbLine
 10
3.7793920089
 20
6.6927389605
 30
0.0
 11
3.7400219302
 21
6.7154692861
 31
0.0
  0
CIRCLE
  5
18D
330
1F
100
AcDbEntity
  8
0
  6
CONTINUOUS
 62
     7
100
AcDbCircle
 10
3.7400219302
 20
6.670008635
 30
0.0
 40
0.0787401574803153
  0
CIRCLE
  5
18E
330
1F
100
AcDbEntity
  8
0
  6
CONTINUOUS
 62
     7
100
AcDbCircle
 10
2.9132502766
 20
6.670008635
 30
0.0
 40
0.068740157480315
  0
LINE
  5
18F
330
1F
100
AcDbEntity
  8
0
  6
CONTINUOUS
 62
     7
100
AcDbLine
 10
2.8738801979
 20
6.6472783094
 30
0.0
 11
2.8738801979
 21
6.6927389605
 31
0.0
  0
LINE
  5
190
330
1F
100
AcDbEntity
  8
0
  6
CONTINUOUS
 62
     7
100
AcDbLine
 10
2.9132502766
 20
6.6245479839
 30
0.0
 11
2.8738801979
 21
6.6472783094
 31
0.0
  0
LINE
  5
191
330
1F
100
AcDbEntity
  8
0
  6
CONTINUOUS
 62
     7
100
AcDbLine
 10
2.9526203554
 20
6.6472783094
 30
0.0
 11
2.9132502766
 21
6.6245479839
 31
0.0
  0
LINE
  5
192
330
1F
100
AcDbEntity
  8
0
  6
CONTINUOUS
 62
     7
100
AcDbLine
 10
2.9526203554
 20
6.6927389605
 30
0.0
 11
2.9526203554
 21
6.6472783094
 31
0.0
  0
LINE
  5
193
330
1F
100
AcDbEntity
  8
0
  6
CONTINUOUS
 62
     7
100
AcDbLine
 10
2.9132502766
 20
6.7154692861
 30
0.0
 11
2.9526203554
 21
6.6927389605
 31
0.0
  0
LINE
  5
194
330
1F
100
AcDbEntity
  8
0
  6
CONTINUOUS
 62
     7
100
AcDbLine
 10
2.8738801979
 20
6.6927389605
 30
0.0
 11
2.9132502766
 21
6.7154692861
 31
0.0
  0
CIRCLE
  5
195
330
1F
100
AcDbEntity
  8
0
  6
CONTINUOUS
 62
     7
100
AcDbCircle
 10
2.9132502766
 20
6.670008635
 30
0.0
 40
0.0787401574803153
  0
SPLINE
  5
196
330
1F
100
AcDbEntity
  8
0
  6
HIDDEN
 62
     7
100
AcDbSpline
210
0.0
220
0.0
230
1.0
 70
     8
 71
     3
 72
    12
 73
     8
 74
     0
 42
0.00000001
 43
0.00000001
 40
0.0
 40
0.0
 40
0.0
 40
0.0
 40
0.0001108878812404
 40
0.2477248036683498
 40
0.498414067232775
 40
0.7501542974416627
 40
1.0
 40
1.0
 40
1.0
 40
1.0
 10
2.978079838962404
 20
7.296453528634031
 30
0.0
 10
2.978081909399898
 20
7.296453726921586
 30
0.0
 10
2.982707290605648
 20
7.296896703601064
 30
0.0
 10
2.989792789607709
 20
7.297825685974182
 30
0.0
 10
2.99843840853037
 20
7.298970647685968
 30
0.0
 10
3.003935897057084
 20
7.299774037201046
 30
0.0
 10
3.004624782181808
 20
7.299878061210841
 30
0.0
 10
3.004967923758805
 20
7.299929876762498
 30
0.0
  0
SPLINE
  5
197
330
1F
100
AcDbEntity
  8
0
  6
HIDDEN
 62
     7
100
AcDbSpline
210
0.0
220
0.0
230
1.0
 70
     8
 71
     3
 72
    24
 73
    20
 74
     0
 42
0.00000001
 43
0.00000001
 40
0.0
 40
0.0
 40
0.0
 40
0.0
 40
0.0316873933116667
 40
0.0915228848097506
 40
0.1592184591888895
 40
0.2347876627844906
 40
0.3106903196307249
 40
0.3784640629800743
 40
0.4381214816428936
 40
0.489687228214707
 40
0.541292557522988
 40
0.6009926085346482
 40
0.6688120280183831
 40
0.744763397747168
 40
0.8204731927197065
 40
0.888238008010953
 40
0.94807111042307
 40
0.9999975226387304
 40
1.0
 40
1.0
 40
1.0
 40
1.0
 10
2.834904352408138
 20
6.665099795432019
 30
0.0
 10
2.835045158758719
 20
6.662538843751774
 30
0.0
 10
2.83545185057076
 20
6.655142031924147
 30
0.0
 10
2.838953948591824
 20
6.642642173217101
 30
0.0
 10
2.846015161582388
 20
6.627769651186017
 30
0.0
 10
2.857096681762569
 20
6.613802787720746
 30
0.0
 10
2.871070827209866
 20
6.602755570908524
 30
0.0
 10
2.885964438654189
 20
6.595606572853588
 30
0.0
 10
2.900041967253071
 20
6.591991592150499
 30
0.0
 10
2.913214937886517
 20
6.590935957912699
 30
0.0
 10
2.926392219124927
 20
6.591979826448579
 30
0.0
 10
2.94048359870186
 20
6.595586330757303
 30
0.0
 10
2.955388632148249
 20
6.602730639445234
 30
0.0
 10
2.969398446875439
 20
6.613782601606072
 30
0.0
 10
2.980441881629811
 20
6.627765140344736
 30
0.0
 10
2.987684613800062
 20
6.642650952793035
 30
0.0
 10
2.991085602260548
 20
6.656754865697242
 30
0.0
 10
2.992325539775175
 20
6.665824908863496
 30
0.0
 10
2.991990402111535
 20
6.670007979682722
 30
0.0
 10
2.991990386123189
 20
6.670008179243655
 30
0.0
  0
SPLINE
  5
198
330
1F
100
AcDbEntity
  8
0
  6
HIDDEN
 62
     7
100
AcDbSpline
210
0.0
220
0.0
230
1.0
 70
     8
 71
     3
 72
    21
 73
    17
 74
     0
 42
0.00000001
 43
0.00000001
 40
0.0
 40
0.0
 40
0.0
 40
0.0
 40
0.032956166827909
 40
0.1112530503610964
 40
0.198755213347766
 40
0.2865078075569007
 40
0.364864718070416
 40
0.4338404191324826
 40
0.4934631807385701
 40
0.5530483942157945
 40
0.6219926670418279
 40
0.7003245560536616
 40
0.7880582332177986
 40
0.8754858123789833
 40
0.9537404479472035
 40
1.0
 40
1.0
 40
1.0
 40
1.0
 10
2.989095960754666
 20
6.689885231972147
 30
0.0
 10
2.988576239486924
 20
6.692133098834359
 30
0.0
 10
2.986821770386322
 20
6.69972142203143
 30
0.0
 10
2.980352513581411
 20
6.712206401404329
 30
0.0
 10
2.969436994608435
 20
6.726233148839426
 30
0.0
 10
2.955393673593035
 20
6.737277136019903
 30
0.0
 10
2.940498656137427
 20
6.744426386532703
 30
0.0
 10
2.926406933501585
 20
6.748034764183373
 30
0.0
 10
2.913230308331248
 20
6.749081368191943
 30
0.0
 10
2.900056323197489
 20
6.748028094156642
 30
0.0
 10
2.885973239731067
 20
6.744415134870812
 30
0.0
 10
2.871082992322315
 20
6.7372638218721
 30
0.0
 10
2.857061068285612
 20
6.726217388247217
 30
0.0
 10
2.846112144249554
 20
6.712210013963231
 30
0.0
 10
2.839335448284823
 20
6.698857714022061
 30
0.0
 10
2.837421006465269
 20
6.69034902099594
 30
0.0
 10
2.836709752409039
 20
6.6871878685565
 30
0.0
  0
LINE
  5
199
330
1F
100
AcDbEntity
  8
0
  6
HIDDEN
 62
     7
100
AcDbLine
 10
3.3766361034
 20
6.9212291074
 30
0.0
 11
3.3766361034
 21
6.4187881625
 31
0.0
  0
LINE
  5
19A
330
1F
100
AcDbEntity
  8
0
  6
HIDDEN
 62
     7
100
AcDbLine
 10
3.2766361034
 20
6.9212291074
 30
0.0
 11
3.2766361034
 21
6.4187881625
 31
0.0
  0
SPLINE
  5
19B
330
1F
100
AcDbEntity
  8
0
  6
HIDDEN
 62
     7
100
AcDbSpline
210
0.0
220
0.0
230
1.0
 70
     8
 71
     3
 72
    27
 73
    23
 74
     0
 42
0.00000001
 43
0.00000001
 40
0.0
 40
0.0
 40
0.0
 40
0.0
 40
0.0010192426231151
 40
0.0539881476649524
 40
0.1039629808703251
 40
0.1553187069462159
 40
0.2066461074376643
 40
0.2593371480244358
 40
0.3129404802943364
 40
0.3680987885503428
 40
0.4214990927292409
 40
0.4766150062506463
 40
0.5273066032160725
 40
0.5795300983749809
 40
0.6293487254072325
 40
0.6804988252025015
 40
0.7325012373125122
 40
0.7858998968233175
 40
0.8398405138394233
 40
0.8954101674861761
 40
0.946924757475501
 40
1.0
 40
1.0
 40
1.0
 40
1.0
 10
2.991970252229923
 20
6.906222417310977
 30
0.0
 10
2.991976963628034
 20
6.906224642011016
 30
0.0
 10
2.992332458918338
 20
6.906342481896747
 30
0.0
 10
2.991078707786936
 20
6.905923944658622
 30
0.0
 10
2.988100095024695
 20
6.904951347859243
 30
0.0
 10
2.983022660824146
 20
6.903369780975895
 30
0.0
 10
2.976131175242224
 20
6.901386546149853
 30
0.0
 10
2.967470665580488
 20
6.899162536116541
 30
0.0
 10
2.957097163784152
 20
6.89690677710282
 30
0.0
 10
2.945378758897863
 20
6.894914737175076
 30
0.0
 10
2.932557987571281
 20
6.893427247670972
 30
0.0
 10
2.919467227925293
 20
6.89267545950388
 30
0.0
 10
2.906294779646397
 20
6.892704881162036
 30
0.0
 10
2.893762430955918
 20
6.893458076504431
 30
0.0
 10
2.881758910720162
 20
6.894838862345069
 30
0.0
 10
2.870622263705626
 20
6.896680675509666
 30
0.0
 10
2.860379334089822
 20
6.898844846030271
 30
0.0
 10
2.851396260021904
 20
6.901103819032296
 30
0.0
 10
2.843930239903999
 20
6.903230813939326
 30
0.0
 10
2.83855517034421
 20
6.90489990585486
 30
0.0
 10
2.8351464813337
 20
6.906015630022801
 30
0.0
 10
2.834724339549816
 20
6.906157243917007
 30
0.0
 10
2.834510119132584
 20
6.906229107420364
 30
0.0
  0
SPLINE
  5
19C
330
1F
100
AcDbEntity
  8
0
  6
HIDDEN
 62
     7
100
AcDbSpline
210
0.0
220
0.0
230
1.0
 70
     8
 71
     3
 72
    27
 73
    23
 74
     0
 42
0.00000001
 43
0.00000001
 40
0.0
 40
0.0
 40
0.0
 40
0.0
 40
0.0010192426231142
 40
0.0539881476649514
 40
0.1039629808703241
 40
0.1553187069462149
 40
0.2066461074376632
 40
0.2593371480244347
 40
0.3129404802943355
 40
0.368098788550342
 40
0.4214990927292401
 40
0.4766150062506454
 40
0.5273066032160716
 40
0.5795300983749804
 40
0.629348725407232
 40
0.680498825202501
 40
0.7325012373125117
 40
0.7858998968233173
 40
0.8398405138394234
 40
0.8954101674861762
 40
0.946924757475501
 40
1.0
 40
1.0
 40
1.0
 40
1.0
 10
3.81874190577323
 20
6.906222417310977
 30
0.0
 10
3.81874861717134
 20
6.906224642011016
 30
0.0
 10
3.819104112461649
 20
6.906342481896747
 30
0.0
 10
3.817850361330241
 20
6.905923944658622
 30
0.0
 10
3.814871748568002
 20
6.904951347859243
 30
0.0
 10
3.809794314367454
 20
6.903369780975895
 30
0.0
 10
3.802902828785531
 20
6.901386546149853
 30
0.0
 10
3.794242319123796
 20
6.899162536116541
 30
0.0
 10
3.783868817327459
 20
6.89690677710282
 30
0.0
 10
3.77215041244117
 20
6.894914737175076
 30
0.0
 10
3.759329641114588
 20
6.893427247670972
 30
0.0
 10
3.7462388814686
 20
6.89267545950388
 30
0.0
 10
3.733066433189704
 20
6.892704881162036
 30
0.0
 10
3.720534084499226
 20
6.893458076504431
 30
0.0
 10
3.708530564263468
 20
6.894838862345069
 30
0.0
 10
3.697393917248933
 20
6.896680675509666
 30
0.0
 10
3.687150987633129
 20
6.898844846030271
 30
0.0
 10
3.678167913565212
 20
6.901103819032296
 30
0.0
 10
3.670701893447307
 20
6.903230813939326
 30
0.0
 10
3.665326823887517
 20
6.90489990585486
 30
0.0
 10
3.661918134877007
 20
6.906015630022801
 30
0.0
 10
3.661495993093123
 20
6.906157243917007
 30
0.0
 10
3.661281772675891
 20
6.906229107420364
 30
0.0
  0
SPLINE
  5
19D
330
1F
100
AcDbEntity
  8
0
  6
HIDDEN
 62
     7
100
AcDbSpline
210
0.0
220
0.0
230
1.0
 70
     8
 71
     3
 72
    24
 73
    20
 74
     0
 42
0.00000001
 43
0.00000001
 40
0.0
 40
0.0
 40
0.0
 40
0.0
 40
0.0509643646358351
 40
0.109607481369393
 40
0.1759540487873319
 40
0.250017343279779
 40
0.3244074461164579
 40
0.3908306247885281
 40
0.4492992172421929
 40
0.4998373848071406
 40
0.5504143463203514
 40
0.6089247215641725
 40
0.6753926661575743
 40
0.7498305111496141
 40
0.8240315953784987
 40
0.8904460239072001
 40
0.9490867991630098
 40
0.9999784451878303
 40
1.0
 40
1.0
 40
1.0
 40
1.0
 10
3.661281772675891
 20
7.288401757952919
 30
0.0
 10
3.661478980883716
 20
7.288354338817266
 30
0.0
 10
3.661903110471509
 20
7.288252355950124
 30
0.0
 10
3.665684636904952
 20
7.287554851299359
 30
0.0
 10
3.672799856301457
 20
7.28649368913082
 30
0.0
 10
3.683864646926929
 20
7.284988408544348
 30
0.0
 10
3.697843357915434
 20
7.283484671051399
 30
0.0
 10
3.712735897223558
 20
7.282406314985818
 30
0.0
 10
3.726813662750445
 20
7.281738251783936
 30
0.0
 10
3.739986580922765
 20
7.28148094525825
 30
0.0
 10
3.753163876003905
 20
7.281737408381226
 30
0.0
 10
3.767255250981183
 20
7.282404800347034
 30
0.0
 10
3.782160286884479
 20
7.283481950903319
 30
0.0
 10
3.796170096750079
 20
7.284987864392086
 30
0.0
 10
3.807213547839033
 20
7.286485445279913
 30
0.0
 10
3.814456227679113
 20
7.287574835134224
 30
0.0
 10
3.817857377975653
 20
7.288189191595593
 30
0.0
 10
3.819097181575356
 20
7.288472735362487
 30
0.0
 10
3.818761803819164
 20
7.288401697838601
 30
0.0
 10
3.818761661832323
 20
7.288401667763877
 30
0.0
  0
SPLINE
  5
19E
330
1F
100
AcDbEntity
  8
0
  6
HIDDEN
 62
     7
100
AcDbSpline
210
0.0
220
0.0
230
1.0
 70
     8
 71
     3
 72
    24
 73
    20
 74
     0
 42
0.00000001
 43
0.00000001
 40
0.0
 40
0.0
 40
0.0
 40
0.0
 40
0.0509643646371135
 40
0.1096074813710953
 40
0.1759540487886065
 40
0.2500173432797786
 40
0.3244074461151701
 40
0.3908306247868086
 40
0.4492992172409023
 40
0.4998373848071416
 40
0.5504143463216438
 40
0.6089247215658926
 40
0.6753926661588622
 40
0.7498305111496139
 40
0.8240315953757418
 40
0.8904460239035213
 40
0.9490867991602494
 40
0.9999784451878316
 40
1.0
 40
1.0
 40
1.0
 40
1.0
 10
2.834510119132584
 20
7.288401757952919
 30
0.0
 10
2.834707327340419
 20
7.288354338817267
 30
0.0
 10
2.835131456928228
 20
7.288252355950126
 30
0.0
 10
2.838912983361768
 20
7.287554851299365
 30
0.0
 10
2.846028202758297
 20
7.286493689130828
 30
0.0
 10
2.85709299338364
 20
7.284988408544348
 30
0.0
 10
2.87107170437192
 20
7.283484671051391
 30
0.0
 10
2.885964243679912
 20
7.282406314985812
 30
0.0
 10
2.900042009206889
 20
7.281738251783931
 30
0.0
 10
2.913214927379457
 20
7.281480945258251
 30
0.0
 10
2.926392222460848
 20
7.281737408381222
 30
0.0
 10
2.940483597438214
 20
7.282404800347028
 30
0.0
 10
2.955388633341378
 20
7.283481950903311
 30
0.0
 10
2.969398443206658
 20
7.284987864392077
 30
0.0
 10
2.980441894295411
 20
7.286485445279889
 30
0.0
 10
2.987684574135538
 20
7.287574835134206
 30
0.0
 10
2.991085724432281
 20
7.288189191595515
 30
0.0
 10
2.992325528032063
 20
7.288472735362568
 30
0.0
 10
2.991990150275857
 20
7.288401697838601
 30
0.0
 10
2.991990008289016
 20
7.288401667763877
 30
0.0
  0
LINE
  5
19F
330
1F
100
AcDbEntity
  8
0
  6
HIDDEN
 62
     7
100
AcDbLine
 10
3.8187620876
 20
7.2899298948
 30
0.0
 11
3.6612817727
 21
7.2899298948
 31
0.0
  0
LINE
  5
1A0
330
1F
100
AcDbEntity
  8
0
  6
HIDDEN
 62
     7
100
AcDbLine
 10
3.6612817727
 20
6.9162291074
 30
0.0
 11
3.8187620876
 21
6.9162291074
 31
0.0
  0
LINE
  5
1A1
330
1F
100
AcDbEntity
  8
0
  6
HIDDEN
 62
     7
100
AcDbLine
 10
3.8087620876
 20
6.9062291074
 30
0.0
 11
3.6712817727
 21
6.9062291074
 31
0.0
  0
LINE
  5
1A2
330
1F
100
AcDbEntity
  8
0
  6
HIDDEN
 62
     7
100
AcDbLine
 10
3.7400219302
 20
7.2211897373
 30
0.0
 11
3.7400219302
 21
7.2999298948
 31
0.0
  0
LINE
  5
1A3
330
1F
100
AcDbEntity
  8
0
  6
HIDDEN
 62
     7
100
AcDbLine
 10
3.7400219302
 20
7.2211897373
 30
0.0
 11
3.7793920089
 21
7.2211897373
 31
0.0
  0
LINE
  5
1A4
330
1F
100
AcDbEntity
  8
0
  6
HIDDEN
 62
     7
100
AcDbLine
 10
3.7006518514
 20
7.2211897373
 30
0.0
 11
3.7400219302
 21
7.2211897373
 31
0.0
  0
LINE
  5
1A5
330
1F
100
AcDbEntity
  8
0
  6
HIDDEN
 62
     7
100
AcDbLine
 10
3.7793920089
 20
7.2211897373
 30
0.0
 11
3.7793920089
 21
7.2999298948
 31
0.0
  0
LINE
  5
1A6
330
1F
100
AcDbEntity
  8
0
  6
HIDDEN
 62
     7
100
AcDbLine
 10
3.7006518514
 20
7.2211897373
 30
0.0
 11
3.7006518514
 21
7.2999298948
 31
0.0
  0
LINE
  5
1A7
330
1F
100
AcDbEntity
  8
0
  6
HIDDEN
 62
     7
100
AcDbLine
 10
2.8345101191
 20
7.2899298948
 30
0.0
 11
2.9919904341
 21
7.2899298948
 31
0.0
  0
LINE
  5
1A8
330
1F
100
AcDbEntity
  8
0
  6
HIDDEN
 62
     7
100
AcDbLine
 10
2.9919904341
 20
6.9162291074
 30
0.0
 11
2.8345101191
 21
6.9162291074
 31
0.0
  0
LINE
  5
1A9
330
1F
100
AcDbEntity
  8
0
  6
HIDDEN
 62
     7
100
AcDbLine
 10
2.8445101191
 20
6.9062291074
 30
0.0
 11
2.9819904341
 21
6.9062291074
 31
0.0
  0
LINE
  5
1AA
330
1F
100
AcDbEntity
  8
0
  6
HIDDEN
 62
     7
100
AcDbLine
 10
2.9132502766
 20
7.2211897373
 30
0.0
 11
2.9132502766
 21
7.2999298948
 31
0.0
  0
LINE
  5
1AB
330
1F
100
AcDbEntity
  8
0
  6
HIDDEN
 62
     7
100
AcDbLine
 10
2.9132502766
 20
7.2211897373
 30
0.0
 11
2.8738801979
 21
7.2211897373
 31
0.0
  0
LINE
  5
1AC
330
1F
100
AcDbEntity
  8
0
  6
HIDDEN
 62
     7
100
AcDbLine
 10
2.9526203554
 20
7.2211897373
 30
0.0
 11
2.9132502766
 21
7.2211897373
 31
0.0
  0
LINE
  5
1AD
330
1F
100
AcDbEntity
  8
0
  6
HIDDEN
 62
     7
100
AcDbLine
 10
2.8738801979
 20
7.2211897373
 30
0.0
 11
2.8738801979
 21
7.2999298948
 31
0.0
  0
LINE
  5
1AE
330
1F
100
AcDbEntity
  8
0
  6
HIDDEN
 62
     7
100
AcDbLine
 10
2.9526203554
 20
7.2211897373
 30
0.0
 11
2.9526203554
 21
7.2999298948
 31
0.0
  0
LINE
  5
1AF
330
1F
100
AcDbEntity
  8
0
  6
HIDDEN
 62
     7
100
AcDbLine
 10
4.1337227176
 20
6.9212291074
 30
0.0
 11
4.1187227176
 21
6.9062291074
 31
0.0
  0
LINE
  5
1B0
330
1F
100
AcDbEntity
  8
0
  6
HIDDEN
 62
     7
100
AcDbLine
 10
4.1187227176
 20
6.4337881625
 30
0.0
 11
4.1337227176
 21
6.4187881625
 31
0.0
  0
LINE
  5
1B1
330
1F
100
AcDbEntity
  8
0
  6
HIDDEN
 62
     7
100
AcDbLine
 10
2.5195494892
 20
6.4187881625
 30
0.0
 11
2.5345494892
 21
6.4337881625
 31
0.0
  0
LINE
  5
1B2
330
1F
100
AcDbEntity
  8
0
  6
HIDDEN
 62
     7
100
AcDbLine
 10
2.5345494892
 20
6.9062291074
 30
0.0
 11
2.5195494892
 21
6.9212291074
 31
0.0
  0
LINE
  5
1B3
330
1F
100
AcDbEntity
  8
0
  6
HIDDEN
 62
     7
100
AcDbLine
 10
3.3766361034
 20
6.9212291074
 30
0.0
 11
3.2766361034
 21
6.9212291074
 31
0.0
  0
LINE
  5
1B4
330
1F
100
AcDbEntity
  8
0
  6
HIDDEN
 62
     7
100
AcDbLine
 10
3.2766361034
 20
6.4187881625
 30
0.0
 11
3.3766361034
 21
6.4187881625
 31
0.0
  0
LINE
  5
1B5
330
1F
100
AcDbEntity
  8
0
  6
HIDDEN
 62
     7
100
AcDbLine
 10
2.8345101191
 20
6.9062291074
 30
0.0
 11
2.5345494892
 21
6.9062291074
 31
0.0
  0
LINE
  5
1B6
330
1F
100
AcDbEntity
  8
0
  6
HIDDEN
 62
     7
100
AcDbLine
 10
3.2766361034
 20
6.9062291074
 30
0.0
 11
2.9919702522
 21
6.9062291074
 31
0.0
  0
LINE
  5
1B7
330
1F
100
AcDbEntity
  8
0
  6
HIDDEN
 62
     7
100
AcDbLine
 10
2.5345494892
 20
6.4337881625
 30
0.0
 11
3.2766361034
 21
6.4337881625
 31
0.0
  0
LINE
  5
1B8
330
1F
100
AcDbEntity
  8
0
  6
HIDDEN
 62
     7
100
AcDbLine
 10
3.6612817727
 20
6.9062291074
 30
0.0
 11
3.3766361034
 21
6.9062291074
 31
0.0
  0
LINE
  5
1B9
330
1F
100
AcDbEntity
  8
0
  6
HIDDEN
 62
     7
100
AcDbLine
 10
4.1187227176
 20
6.9062291074
 30
0.0
 11
3.8187419058
 21
6.9062291074
 31
0.0
  0
LINE
  5
1BA
330
1F
100
AcDbEntity
  8
0
  6
HIDDEN
 62
     7
100
AcDbLine
 10
3.3766361034
 20
6.4337881625
 30
0.0
 11
4.1187227176
 21
6.4337881625
 31
0.0
  0
LINE
  5
1BB
330
1F
100
AcDbEntity
  8
0
  6
HIDDEN
 62
     7
100
AcDbLine
 10
3.8187620882
 20
7.288401758
 30
0.0
 11
3.8317396996
 21
7.2999298948
 31
0.0
  0
LINE
  5
1BC
330
1F
100
AcDbEntity
  8
0
  6
HIDDEN
 62
     7
100
AcDbLine
 10
3.6483041605
 20
7.2999298949
 30
0.0
 11
3.6612817719
 21
7.288401758
 31
0.0
  0
LINE
  5
1BD
330
1F
100
AcDbEntity
  8
0
  6
HIDDEN
 62
     7
100
AcDbLine
 10
2.9919904347
 20
7.288401758
 30
0.0
 11
3.004968046
 21
7.2999298948
 31
0.0
  0
LINE
  5
1BE
330
1F
100
AcDbEntity
  8
0
  6
HIDDEN
 62
     7
100
AcDbLine
 10
2.8215325069
 20
7.2999298949
 30
0.0
 11
2.8345101183
 21
7.288401758
 31
0.0
  0
LINE
  5
1BF
330
1F
100
AcDbEntity
  8
0
  6
HIDDEN
 62
     7
100
AcDbLine
 10
2.9919904341
 20
6.9062224535
 30
0.0
 11
2.9919904341
 21
7.2884017402
 31
0.0
  0
LINE
  5
1C0
330
1F
100
AcDbEntity
  8
0
  6
HIDDEN
 62
     7
100
AcDbLine
 10
2.8345101191
 20
7.288401758
 30
0.0
 11
2.8345101191
 21
6.9062291074
 31
0.0
  0
LINE
  5
1C1
330
1F
100
AcDbEntity
  8
0
  6
HIDDEN
 62
     7
100
AcDbLine
 10
3.8187620876
 20
6.9062224535
 30
0.0
 11
3.8187620876
 21
7.2884017402
 31
0.0
  0
LINE
  5
1C2
330
1F
100
AcDbEntity
  8
0
  6
HIDDEN
 62
     7
100
AcDbLine
 10
3.6612817727
 20
7.288401758
 30
0.0
 11
3.6612817727
 21
6.9062291074
 31
0.0
  0
LINE
  5
1C3
330
1F
100
AcDbEntity
  8
0
  6
HIDDEN
 62
     7
100
AcDbLine
 10
3.8187620876
 20
7.2899298948
 30
0.0
 11
3.8114653619
 21
7.2972266206
 31
0.0
  0
LINE
  5
1C4
330
1F
100
AcDbEntity
  8
0
  6
HIDDEN
 62
     7
100
AcDbLine
 10
3.6685793765
 20
7.2972274987
 30
0.0
 11
3.6612817727
 21
7.2899298948
 31
0.0
  0
LINE
  5
1C5
330
1F
100
AcDbEntity
  8
0
  6
HIDDEN
 62
     7
100
AcDbLine
 10
3.8187620876
 20
6.9162291074
 30
0.0
 11
3.8187620876
 21
7.2899298948
 31
0.0
  0
LINE
  5
1C6
330
1F
100
AcDbEntity
  8
0
  6
HIDDEN
 62
     7
100
AcDbLine
 10
3.6612817727
 20
7.2899298948
 30
0.0
 11
3.6612817727
 21
6.9162291074
 31
0.0
  0
LINE
  5
1C7
330
1F
100
AcDbEntity
  8
0
  6
HIDDEN
 62
     7
100
AcDbLine
 10
3.6612817727
 20
6.9162291074
 30
0.0
 11
3.6712817727
 21
6.9062291074
 31
0.0
  0
LINE
  5
1C8
330
1F
100
AcDbEntity
  8
0
  6
HIDDEN
 62
     7
100
AcDbLine
 10
3.8087620876
 20
6.9062291074
 30
0.0
 11
3.8187620876
 21
6.9162291074
 31
0.0
  0
LINE
  5
1C9
330
1F
100
AcDbEntity
  8
0
  6
HIDDEN
 62
     7
100
AcDbLine
 10
2.9919904341
 20
7.2899298948
 30
0.0
 11
2.9846937083
 21
7.2972266206
 31
0.0
  0
LINE
  5
1CA
330
1F
100
AcDbEntity
  8
0
  6
HIDDEN
 62
     7
100
AcDbLine
 10
2.841807723
 20
7.2972274987
 30
0.0
 11
2.8345101191
 21
7.2899298948
 31
0.0
  0
LINE
  5
1CB
330
1F
100
AcDbEntity
  8
0
  6
HIDDEN
 62
     7
100
AcDbLine
 10
2.9919904341
 20
6.9162291074
 30
0.0
 11
2.9919904341
 21
7.2899298948
 31
0.0
  0
LINE
  5
1CC
330
1F
100
AcDbEntity
  8
0
  6
HIDDEN
 62
     7
100
AcDbLine
 10
2.8345101191
 20
7.2899298948
 30
0.0
 11
2.8345101191
 21
6.9162291074
 31
0.0
  0
LINE
  5
1CD
330
1F
100
AcDbEntity
  8
0
  6
HIDDEN
 62
     7
100
AcDbLine
 10
2.8345101191
 20
6.9162291074
 30
0.0
 11
2.8445101191
 21
6.9062291074
 31
0.0
  0
LINE
  5
1CE
330
1F
100
AcDbEntity
  8
0
  6
HIDDEN
 62
     7
100
AcDbLine
 10
2.9819904341
 20
6.9062291074
 30
0.0
 11
2.9919904341
 21
6.9162291074
 31
0.0
  0
LINE
  5
1CF
330
1F
100
AcDbEntity
  8
0
  6
CONTINUOUS
 62
     7
100
AcDbLine
 10
8.7323106562
 20
6.0123884775
 30
0.0
 11
8.7429155341
 21
6.0185125335
 31
0.0
  0
LINE
  5
1D0
330
1F
100
AcDbEntity
  8
0
  6
CONTINUOUS
 62
     7
100
AcDbLine
 10
9.1776598571
 20
6.7715933872
 30
0.0
 11
9.1776598571
 21
6.7838395089
 31
0.0
  0
LINE
  5
1D1
330
1F
100
AcDbEntity
  8
0
  6
CONTINUOUS
 62
     7
100
AcDbLine
 10
7.2971235964
 20
6.6278264423
 30
0.0
 11
8.4173032288
 21
5.9811605052
 31
0.0
  0
LINE
  5
1D2
330
1F
100
AcDbEntity
  8
0
  6
CONTINUOUS
 62
     7
100
AcDbLine
 10
9.0471732966
 20
7.0722456862
 30
0.0
 11
7.9269936642
 21
7.7189116233
 31
0.0
  0
LINE
  5
1D3
330
1F
100
AcDbEntity
  8
0
  6
CONTINUOUS
 62
     7
100
AcDbLine
 10
7.6119862368
 20
7.687683651
 30
0.0
 11
7.601381359
 21
7.681559595
 31
0.0
  0
LINE
  5
1D4
330
1F
100
AcDbEntity
  8
0
  6
CONTINUOUS
 62
     7
100
AcDbLine
 10
7.1666370359
 20
6.9284787413
 30
0.0
 11
7.1666370359
 21
6.9162326196
 31
0.0
  0
LINE
  5
1D5
330
1F
100
AcDbEntity
  8
0
  6
CONTINUOUS
 62
     7
100
AcDbLine
 10
8.5201431142
 20
7.21961813
 30
0.0
 11
8.5130708974
 21
7.223702161
 31
0.0
  0
LINE
  5
1D6
330
1F
100
AcDbEntity
  8
0
  6
CONTINUOUS
 62
     7
100
AcDbLine
 10
8.4158418384
 20
7.223702161
 30
0.0
 11
8.4087696216
 21
7.21961813
 31
0.0
  0
LINE
  5
1D7
330
1F
100
AcDbEntity
  8
0
  6
CONTINUOUS
 62
     7
100
AcDbLine
 10
8.5431965254
 20
7.1816112698
 30
0.0
 11
8.5431965254
 21
7.1874813019
 31
0.0
  0
LINE
  5
1D8
330
1F
100
AcDbEntity
  8
0
  6
CONTINUOUS
 62
     7
100
AcDbLine
 10
8.3857162104
 20
7.1874813019
 30
0.0
 11
8.3857162104
 21
7.1834471079
 31
0.0
  0
LINE
  5
1D9
330
1F
100
AcDbEntity
  8
0
  6
CONTINUOUS
 62
     7
100
AcDbLine
 10
7.9355272715
 20
7.5571096723
 30
0.0
 11
7.9284550547
 21
7.5611937032
 31
0.0
  0
LINE
  5
1DA
330
1F
100
AcDbEntity
  8
0
  6
CONTINUOUS
 62
     7
100
AcDbLine
 10
7.8312259956
 20
7.5611937032
 30
0.0
 11
7.8241537789
 21
7.5571096723
 31
0.0
  0
LINE
  5
1DB
330
1F
100
AcDbEntity
  8
0
  6
CONTINUOUS
 62
     7
100
AcDbLine
 10
7.9585806826
 20
7.5191028121
 30
0.0
 11
7.9585806826
 21
7.5249728442
 31
0.0
  0
LINE
  5
1DC
330
1F
100
AcDbEntity
  8
0
  6
CONTINUOUS
 62
     7
100
AcDbLine
 10
7.8011003677
 20
7.5249728442
 30
0.0
 11
7.8011003677
 21
7.5209386502
 31
0.0
  0
POLYLINE
  5
1DD
330
1F
100
AcDbEntity
  8
0
  6
CONTINUOUS
 62
     7
100
AcDb2dPolyline
 66
     1
 10
0.0
 20
0.0
 30
0.0
  0
VERTEX
  5
259
330
1DD
100
AcDbEntity
  8
0
  6
CONTINUOUS
 62
     7
100
AcDbVertex
100
AcDb2dVertex
 10
9.1776598571
 20
6.7715933872
 30
0.0
  0
VERTEX
  5
25A
330
1DD
100
AcDbEntity
  8
0
  6
CONTINUOUS
 62
     7
100
AcDbVertex
100
AcDb2dVertex
 10
9.177073765
 20
6.7973163815
 30
0.0
  0
VERTEX
  5
25B
330
1DD
100
AcDbEntity
  8
0
  6
CONTINUOUS
 62
     7
100
AcDbVertex
100
AcDb2dVertex
 10
9.1753170684
 20
6.8222933436
 30
0.0
  0
VERTEX
  5
25C
330
1DD
100
AcDbEntity
  8
0
  6
CONTINUOUS
 62
     7
100
AcDbVertex
100
AcDb2dVertex
 10
9.1723945033
 20
6.8464569399
 30
0.0
  0
VERTEX
  5
25D
330
1DD
100
AcDbEntity
  8
0
  6
CONTINUOUS
 62
     7
100
AcDbVertex
100
AcDb2dVertex
 10
9.1683139483
 20
6.8697420297
 30
0.0
  0
VERTEX
  5
25E
330
1DD
100
AcDbEntity
  8
0
  6
CONTINUOUS
 62
     7
100
AcDbVertex
100
AcDb2dVertex
 10
9.1630864039
 20
6.8920858405
 30
0.0
  0
VERTEX
  5
25F
330
1DD
100
AcDbEntity
  8
0
  6
CONTINUOUS
 62
     7
100
AcDbVertex
100
AcDb2dVertex
 10
9.1567259626
 20
6.9134281373
 30
0.0
  0
VERTEX
  5
260
330
1DD
100
AcDbEntity
  8
0
  6
CONTINUOUS
 62
     7
100
AcDbVertex
100
AcDb2dVertex
 10
9.149249771
 20
6.9337113851
 30
0.0
  0
VERTEX
  5
261
330
1DD
100
AcDbEntity
  8
0
  6
CONTINUOUS
 62
     7
100
AcDbVertex
100
AcDb2dVertex
 10
9.1406779836
 20
6.9528809038
 30
0.0
  0
VERTEX
  5
262
330
1DD
100
AcDbEntity
  8
0
  6
CONTINUOUS
 62
     7
100
AcDbVertex
100
AcDb2dVertex
 10
9.1310337085
 20
6.9708850158
 30
0.0
  0
VERTEX
  5
263
330
1DD
100
AcDbEntity
  8
0
  6
CONTINUOUS
 62
     7
100
AcDbVertex
100
AcDb2dVertex
 10
9.1203429449
 20
6.9876751852
 30
0.0
  0
VERTEX
  5
264
330
1DD
100
AcDbEntity
  8
0
  6
CONTINUOUS
 62
     7
100
AcDbVertex
100
AcDb2dVertex
 10
9.1086345132
 20
7.0032061486
 30
0.0
  0
VERTEX
  5
265
330
1DD
100
AcDbEntity
  8
0
  6
CONTINUOUS
 62
     7
100
AcDbVertex
100
AcDb2dVertex
 10
9.0959399772
 20
7.0174360374
 30
0.0
  0
VERTEX
  5
266
330
1DD
100
AcDbEntity
  8
0
  6
CONTINUOUS
 62
     7
100
AcDbVertex
100
AcDb2dVertex
 10
9.0822935593
 20
7.0303264902
 30
0.0
  0
VERTEX
  5
267
330
1DD
100
AcDbEntity
  8
0
  6
CONTINUOUS
 62
     7
100
AcDbVertex
100
AcDb2dVertex
 10
9.0677320477
 20
7.0418427567
 30
0.0
  0
VERTEX
  5
268
330
1DD
100
AcDbEntity
  8
0
  6
CONTINUOUS
 62
     7
100
AcDbVertex
100
AcDb2dVertex
 10
9.0522946977
 20
7.0519537911
 30
0.0
  0
VERTEX
  5
269
330
1DD
100
AcDbEntity
  8
0
  6
CONTINUOUS
 62
     7
100
AcDbVertex
100
AcDb2dVertex
 10
9.0360231257
 20
7.0606323358
 30
0.0
  0
VERTEX
  5
26A
330
1DD
100
AcDbEntity
  8
0
  6
CONTINUOUS
 62
     7
100
AcDbVertex
100
AcDb2dVertex
 10
9.0189611969
 20
7.0678549949
 30
0.0
  0
VERTEX
  5
26B
330
1DD
100
AcDbEntity
  8
0
  6
CONTINUOUS
 62
     7
100
AcDbVertex
100
AcDb2dVertex
 10
9.0011549073
 20
7.0736022975
 30
0.0
  0
VERTEX
  5
26C
330
1DD
100
AcDbEntity
  8
0
  6
CONTINUOUS
 62
     7
100
AcDbVertex
100
AcDb2dVertex
 10
8.9826522595
 20
7.0778587498
 30
0.0
  0
VERTEX
  5
26D
330
1DD
100
AcDbEntity
  8
0
  6
CONTINUOUS
 62
     7
100
AcDbVertex
100
AcDb2dVertex
 10
8.9635031333
 20
7.0806128773
 30
0.0
  0
VERTEX
  5
26E
330
1DD
100
AcDbEntity
  8
0
  6
CONTINUOUS
 62
     7
100
AcDbVertex
100
AcDb2dVertex
 10
8.9437591515
 20
7.0818572553
 30
0.0
  0
VERTEX
  5
26F
330
1DD
100
AcDbEntity
  8
0
  6
CONTINUOUS
 62
     7
100
AcDbVertex
100
AcDb2dVertex
 10
8.9234735403
 20
7.081588529
 30
0.0
  0
VERTEX
  5
270
330
1DD
100
AcDbEntity
  8
0
  6
CONTINUOUS
 62
     7
100
AcDbVertex
100
AcDb2dVertex
 10
8.9027009861
 20
7.0798074231
 30
0.0
  0
VERTEX
  5
271
330
1DD
100
AcDbEntity
  8
0
  6
CONTINUOUS
 62
     7
100
AcDbVertex
100
AcDb2dVertex
 10
8.881497488
 20
7.076518739
 30
0.0
  0
VERTEX
  5
272
330
1DD
100
AcDbEntity
  8
0
  6
CONTINUOUS
 62
     7
100
AcDbVertex
100
AcDb2dVertex
 10
8.859920207
 20
7.0717313424
 30
0.0
  0
VERTEX
  5
273
330
1DD
100
AcDbEntity
  8
0
  6
CONTINUOUS
 62
     7
100
AcDbVertex
100
AcDb2dVertex
 10
8.8380273116
 20
7.0654581394
 30
0.0
  0
VERTEX
  5
274
330
1DD
100
AcDbEntity
  8
0
  6
CONTINUOUS
 62
     7
100
AcDbVertex
100
AcDb2dVertex
 10
8.8158778211
 20
7.0577160413
 30
0.0
  0
VERTEX
  5
275
330
1DD
100
AcDbEntity
  8
0
  6
CONTINUOUS
 62
     7
100
AcDbVertex
100
AcDb2dVertex
 10
8.7935314466
 20
7.0485259195
 30
0.0
  0
VERTEX
  5
276
330
1DD
100
AcDbEntity
  8
0
  6
CONTINUOUS
 62
     7
100
AcDbVertex
100
AcDb2dVertex
 10
8.7710484302
 20
7.037912549
 30
0.0
  0
VERTEX
  5
277
330
1DD
100
AcDbEntity
  8
0
  6
CONTINUOUS
 62
     7
100
AcDbVertex
100
AcDb2dVertex
 10
8.7484893818
 20
7.0259045414
 30
0.0
  0
VERTEX
  5
278
330
1DD
100
AcDbEntity
  8
0
  6
CONTINUOUS
 62
     7
100
AcDbVertex
100
AcDb2dVertex
 10
8.7259151169
 20
7.0125342683
 30
0.0
  0
VERTEX
  5
279
330
1DD
100
AcDbEntity
  8
0
  6
CONTINUOUS
 62
     7
100
AcDbVertex
100
AcDb2dVertex
 10
8.7033864916
 20
6.9978377736
 30
0.0
  0
VERTEX
  5
27A
330
1DD
100
AcDbEntity
  8
0
  6
CONTINUOUS
 62
     7
100
AcDbVertex
100
AcDb2dVertex
 10
8.680964239
 20
6.9818546764
 30
0.0
  0
VERTEX
  5
27B
330
1DD
100
AcDbEntity
  8
0
  6
CONTINUOUS
 62
     7
100
AcDbVertex
100
AcDb2dVertex
 10
8.6587088057
 20
6.9646280643
 30
0.0
  0
VERTEX
  5
27C
330
1DD
100
AcDbEntity
  8
0
  6
CONTINUOUS
 62
     7
100
AcDbVertex
100
AcDb2dVertex
 10
8.6366801884
 20
6.9462043773
 30
0.0
  0
VERTEX
  5
27D
330
1DD
100
AcDbEntity
  8
0
  6
CONTINUOUS
 62
     7
100
AcDbVertex
100
AcDb2dVertex
 10
8.6149377722
 20
6.9266332822
 30
0.0
  0
VERTEX
  5
27E
330
1DD
100
AcDbEntity
  8
0
  6
CONTINUOUS
 62
     7
100
AcDbVertex
100
AcDb2dVertex
 10
8.5935401709
 20
6.9059675394
 30
0.0
  0
VERTEX
  5
27F
330
1DD
100
AcDbEntity
  8
0
  6
CONTINUOUS
 62
     7
100
AcDbVertex
100
AcDb2dVertex
 10
8.5725450687
 20
6.88426286
 30
0.0
  0
VERTEX
  5
280
330
1DD
100
AcDbEntity
  8
0
  6
CONTINUOUS
 62
     7
100
AcDbVertex
100
AcDb2dVertex
 10
8.5520090646
 20
6.8615777561
 30
0.0
  0
VERTEX
  5
281
330
1DD
100
AcDbEntity
  8
0
  6
CONTINUOUS
 62
     7
100
AcDbVertex
100
AcDb2dVertex
 10
8.5319875202
 20
6.8379733825
 30
0.0
  0
VERTEX
  5
282
330
1DD
100
AcDbEntity
  8
0
  6
CONTINUOUS
 62
     7
100
AcDbVertex
100
AcDb2dVertex
 10
8.5125344098
 20
6.8135133726
 30
0.0
  0
VERTEX
  5
283
330
1DD
100
AcDbEntity
  8
0
  6
CONTINUOUS
 62
     7
100
AcDbVertex
100
AcDb2dVertex
 10
8.4937021757
 20
6.7882636662
 30
0.0
  0
VERTEX
  5
284
330
1DD
100
AcDbEntity
  8
0
  6
CONTINUOUS
 62
     7
100
AcDbVertex
100
AcDb2dVertex
 10
8.4755415862
 20
6.7622923321
 30
0.0
  0
VERTEX
  5
285
330
1DD
100
AcDbEntity
  8
0
  6
CONTINUOUS
 62
     7
100
AcDbVertex
100
AcDb2dVertex
 10
8.4581015991
 20
6.7356693843
 30
0.0
  0
VERTEX
  5
286
330
1DD
100
AcDbEntity
  8
0
  6
CONTINUOUS
 62
     7
100
AcDbVertex
100
AcDb2dVertex
 10
8.4414292296
 20
6.7084665937
 30
0.0
  0
VERTEX
  5
287
330
1DD
100
AcDbEntity
  8
0
  6
CONTINUOUS
 62
     7
100
AcDbVertex
100
AcDb2dVertex
 10
8.4255694232
 20
6.6807572942
 30
0.0
  0
VERTEX
  5
288
330
1DD
100
AcDbEntity
  8
0
  6
CONTINUOUS
 62
     7
100
AcDbVertex
100
AcDb2dVertex
 10
8.4105649354
 20
6.652616185
 30
0.0
  0
VERTEX
  5
289
330
1DD
100
AcDbEntity
  8
0
  6
CONTINUOUS
 62
     7
100
AcDbVertex
100
AcDb2dVertex
 10
8.3964562155
 20
6.6241191298
 30
0.0
  0
VERTEX
  5
28A
330
1DD
100
AcDbEntity
  8
0
  6
CONTINUOUS
 62
     7
100
AcDbVertex
100
AcDb2dVertex
 10
8.3832812982
 20
6.5953429514
 30
0.0
  0
VERTEX
  5
28B
330
1DD
100
AcDbEntity
  8
0
  6
CONTINUOUS
 62
     7
100
AcDbVertex
100
AcDb2dVertex
 10
8.3710757007
 20
6.5663652255
 30
0.0
  0
VERTEX
  5
28C
330
1DD
100
AcDbEntity
  8
0
  6
CONTINUOUS
 62
     7
100
AcDbVertex
100
AcDb2dVertex
 10
8.3598723271
 20
6.5372640708
 30
0.0
  0
VERTEX
  5
28D
330
1DD
100
AcDbEntity
  8
0
  6
CONTINUOUS
 62
     7
100
AcDbVertex
100
AcDb2dVertex
 10
8.3497013798
 20
6.5081179388
 30
0.0
  0
VERTEX
  5
28E
330
1DD
100
AcDbEntity
  8
0
  6
CONTINUOUS
 62
     7
100
AcDbVertex
100
AcDb2dVertex
 10
8.3405902778
 20
6.4790054025
 30
0.0
  0
VERTEX
  5
28F
330
1DD
100
AcDbEntity
  8
0
  6
CONTINUOUS
 62
     7
100
AcDbVertex
100
AcDb2dVertex
 10
8.332563583
 20
6.450004944
 30
0.0
  0
VERTEX
  5
290
330
1DD
100
AcDbEntity
  8
0
  6
CONTINUOUS
 62
     7
100
AcDbVertex
100
AcDb2dVertex
 10
8.3256429341
 20
6.4211947435
 30
0.0
  0
VERTEX
  5
291
330
1DD
100
AcDbEntity
  8
0
  6
CONTINUOUS
 62
     7
100
AcDbVertex
100
AcDb2dVertex
 10
8.3198469877
 20
6.3926524682
 30
0.0
  0
VERTEX
  5
292
330
1DD
100
AcDbEntity
  8
0
  6
CONTINUOUS
 62
     7
100
AcDbVertex
100
AcDb2dVertex
 10
8.3151913689
 20
6.364455063
 30
0.0
  0
VERTEX
  5
293
330
1DD
100
AcDbEntity
  8
0
  6
CONTINUOUS
 62
     7
100
AcDbVertex
100
AcDb2dVertex
 10
8.3116886283
 20
6.3366785431
 30
0.0
  0
VERTEX
  5
294
330
1DD
100
AcDbEntity
  8
0
  6
CONTINUOUS
 62
     7
100
AcDbVertex
100
AcDb2dVertex
 10
8.3093482087
 20
6.3093977891
 30
0.0
  0
VERTEX
  5
295
330
1DD
100
AcDbEntity
  8
0
  6
CONTINUOUS
 62
     7
100
AcDbVertex
100
AcDb2dVertex
 10
8.3081764194
 20
6.2826863451
 30
0.0
  0
VERTEX
  5
296
330
1DD
100
AcDbEntity
  8
0
  6
CONTINUOUS
 62
     7
100
AcDbVertex
100
AcDb2dVertex
 10
8.3081764194
 20
6.2566162204
 30
0.0
  0
VERTEX
  5
297
330
1DD
100
AcDbEntity
  8
0
  6
CONTINUOUS
 62
     7
100
AcDbVertex
100
AcDb2dVertex
 10
8.3093482087
 20
6.2312576955
 30
0.0
  0
VERTEX
  5
298
330
1DD
100
AcDbEntity
  8
0
  6
CONTINUOUS
 62
     7
100
AcDbVertex
100
AcDb2dVertex
 10
8.3116886283
 20
6.2066791325
 30
0.0
  0
VERTEX
  5
299
330
1DD
100
AcDbEntity
  8
0
  6
CONTINUOUS
 62
     7
100
AcDbVertex
100
AcDb2dVertex
 10
8.3151913689
 20
6.1829467908
 30
0.0
  0
VERTEX
  5
29A
330
1DD
100
AcDbEntity
  8
0
  6
CONTINUOUS
 62
     7
100
AcDbVertex
100
AcDb2dVertex
 10
8.3198469877
 20
6.1601246487
 30
0.0
  0
VERTEX
  5
29B
330
1DD
100
AcDbEntity
  8
0
  6
CONTINUOUS
 62
     7
100
AcDbVertex
100
AcDb2dVertex
 10
8.3256429341
 20
6.1382742305
 30
0.0
  0
VERTEX
  5
29C
330
1DD
100
AcDbEntity
  8
0
  6
CONTINUOUS
 62
     7
100
AcDbVertex
100
AcDb2dVertex
 10
8.332563583
 20
6.1174544412
 30
0.0
  0
VERTEX
  5
29D
330
1DD
100
AcDbEntity
  8
0
  6
CONTINUOUS
 62
     7
100
AcDbVertex
100
AcDb2dVertex
 10
8.3405902778
 20
6.0977214072
 30
0.0
  0
VERTEX
  5
29E
330
1DD
100
AcDbEntity
  8
0
  6
CONTINUOUS
 62
     7
100
AcDbVertex
100
AcDb2dVertex
 10
8.3497013798
 20
6.0791283254
 30
0.0
  0
VERTEX
  5
29F
330
1DD
100
AcDbEntity
  8
0
  6
CONTINUOUS
 62
     7
100
AcDbVertex
100
AcDb2dVertex
 10
8.3598723271
 20
6.0617253193
 30
0.0
  0
VERTEX
  5
2A0
330
1DD
100
AcDbEntity
  8
0
  6
CONTINUOUS
 62
     7
100
AcDbVertex
100
AcDb2dVertex
 10
8.3710757007
 20
6.0455593043
 30
0.0
  0
VERTEX
  5
2A1
330
1DD
100
AcDbEntity
  8
0
  6
CONTINUOUS
 62
     7
100
AcDbVertex
100
AcDb2dVertex
 10
8.3832812982
 20
6.0306738613
 30
0.0
  0
VERTEX
  5
2A2
330
1DD
100
AcDbEntity
  8
0
  6
CONTINUOUS
 62
     7
100
AcDbVertex
100
AcDb2dVertex
 10
8.3964562155
 20
6.0171091187
 30
0.0
  0
VERTEX
  5
2A3
330
1DD
100
AcDbEntity
  8
0
  6
CONTINUOUS
 62
     7
100
AcDbVertex
100
AcDb2dVertex
 10
8.4105649354
 20
6.0049016447
 30
0.0
  0
VERTEX
  5
2A4
330
1DD
100
AcDbEntity
  8
0
  6
CONTINUOUS
 62
     7
100
AcDbVertex
100
AcDb2dVertex
 10
8.4255694232
 20
5.9940843485
 30
0.0
  0
VERTEX
  5
2A5
330
1DD
100
AcDbEntity
  8
0
  6
CONTINUOUS
 62
     7
100
AcDbVertex
100
AcDb2dVertex
 10
8.4414292296
 20
5.9846863916
 30
0.0
  0
VERTEX
  5
2A6
330
1DD
100
AcDbEntity
  8
0
  6
CONTINUOUS
 62
     7
100
AcDbVertex
100
AcDb2dVertex
 10
8.4581015991
 20
5.9767331091
 30
0.0
  0
VERTEX
  5
2A7
330
1DD
100
AcDbEntity
  8
0
  6
CONTINUOUS
 62
     7
100
AcDbVertex
100
AcDb2dVertex
 10
8.4755415862
 20
5.9702459419
 30
0.0
  0
VERTEX
  5
2A8
330
1DD
100
AcDbEntity
  8
0
  6
CONTINUOUS
 62
     7
100
AcDbVertex
100
AcDb2dVertex
 10
8.4937021757
 20
5.965242378
 30
0.0
  0
VERTEX
  5
2A9
330
1DD
100
AcDbEntity
  8
0
  6
CONTINUOUS
 62
     7
100
AcDbVertex
100
AcDb2dVertex
 10
8.5125344098
 20
5.9617359063
 30
0.0
  0
VERTEX
  5
2AA
330
1DD
100
AcDbEntity
  8
0
  6
CONTINUOUS
 62
     7
100
AcDbVertex
100
AcDb2dVertex
 10
8.5319875202
 20
5.9597359795
 30
0.0
  0
VERTEX
  5
2AB
330
1DD
100
AcDbEntity
  8
0
  6
CONTINUOUS
 62
     7
100
AcDbVertex
100
AcDb2dVertex
 10
8.5520090646
 20
5.9592479892
 30
0.0
  0
VERTEX
  5
2AC
330
1DD
100
AcDbEntity
  8
0
  6
CONTINUOUS
 62
     7
100
AcDbVertex
100
AcDb2dVertex
 10
8.5725450687
 20
5.9602732508
 30
0.0
  0
VERTEX
  5
2AD
330
1DD
100
AcDbEntity
  8
0
  6
CONTINUOUS
 62
     7
100
AcDbVertex
100
AcDb2dVertex
 10
8.5935401709
 20
5.9628090005
 30
0.0
  0
VERTEX
  5
2AE
330
1DD
100
AcDbEntity
  8
0
  6
CONTINUOUS
 62
     7
100
AcDbVertex
100
AcDb2dVertex
 10
8.6149377722
 20
5.9668484022
 30
0.0
  0
VERTEX
  5
2AF
330
1DD
100
AcDbEntity
  8
0
  6
CONTINUOUS
 62
     7
100
AcDbVertex
100
AcDb2dVertex
 10
8.6366801884
 20
5.9723805666
 30
0.0
  0
VERTEX
  5
2B0
330
1DD
100
AcDbEntity
  8
0
  6
CONTINUOUS
 62
     7
100
AcDbVertex
100
AcDb2dVertex
 10
8.6587088057
 20
5.9793905798
 30
0.0
  0
VERTEX
  5
2B1
330
1DD
100
AcDbEntity
  8
0
  6
CONTINUOUS
 62
     7
100
AcDbVertex
100
AcDb2dVertex
 10
8.680964239
 20
5.987859544
 30
0.0
  0
VERTEX
  5
2B2
330
1DD
100
AcDbEntity
  8
0
  6
CONTINUOUS
 62
     7
100
AcDbVertex
100
AcDb2dVertex
 10
8.7033864916
 20
5.9977646286
 30
0.0
  0
VERTEX
  5
2B3
330
1DD
100
AcDbEntity
  8
0
  6
CONTINUOUS
 62
     7
100
AcDbVertex
100
AcDb2dVertex
 10
8.7259151169
 20
6.009079131
 30
0.0
  0
VERTEX
  5
2B4
330
1DD
100
AcDbEntity
  8
0
  6
CONTINUOUS
 62
     7
100
AcDbVertex
100
AcDb2dVertex
 10
8.7484893818
 20
6.0217725494
 30
0.0
  0
VERTEX
  5
2B5
330
1DD
100
AcDbEntity
  8
0
  6
CONTINUOUS
 62
     7
100
AcDbVertex
100
AcDb2dVertex
 10
8.7710484302
 20
6.0358106647
 30
0.0
  0
VERTEX
  5
2B6
330
1DD
100
AcDbEntity
  8
0
  6
CONTINUOUS
 62
     7
100
AcDbVertex
100
AcDb2dVertex
 10
8.7935314466
 20
6.0511556324
 30
0.0
  0
VERTEX
  5
2B7
330
1DD
100
AcDbEntity
  8
0
  6
CONTINUOUS
 62
     7
100
AcDbVertex
100
AcDb2dVertex
 10
8.8158778211
 20
6.0677660853
 30
0.0
  0
VERTEX
  5
2B8
330
1DD
100
AcDbEntity
  8
0
  6
CONTINUOUS
 62
     7
100
AcDbVertex
100
AcDb2dVertex
 10
8.8380273116
 20
6.0855972446
 30
0.0
  0
VERTEX
  5
2B9
330
1DD
100
AcDbEntity
  8
0
  6
CONTINUOUS
 62
     7
100
AcDbVertex
100
AcDb2dVertex
 10
8.859920207
 20
6.1046010406
 30
0.0
  0
VERTEX
  5
2BA
330
1DD
100
AcDbEntity
  8
0
  6
CONTINUOUS
 62
     7
100
AcDbVertex
100
AcDb2dVertex
 10
8.881497488
 20
6.1247262424
 30
0.0
  0
VERTEX
  5
2BB
330
1DD
100
AcDbEntity
  8
0
  6
CONTINUOUS
 62
     7
100
AcDbVertex
100
AcDb2dVertex
 10
8.9027009861
 20
6.1459185961
 30
0.0
  0
VERTEX
  5
2BC
330
1DD
100
AcDbEntity
  8
0
  6
CONTINUOUS
 62
     7
100
AcDbVertex
100
AcDb2dVertex
 10
8.9234735403
 20
6.1681209707
 30
0.0
  0
VERTEX
  5
2BD
330
1DD
100
AcDbEntity
  8
0
  6
CONTINUOUS
 62
     7
100
AcDbVertex
100
AcDb2dVertex
 10
8.9437591515
 20
6.1912735127
 30
0.0
  0
VERTEX
  5
2BE
330
1DD
100
AcDbEntity
  8
0
  6
CONTINUOUS
 62
     7
100
AcDbVertex
100
AcDb2dVertex
 10
8.9635031333
 20
6.2153138069
 30
0.0
  0
VERTEX
  5
2BF
330
1DD
100
AcDbEntity
  8
0
  6
CONTINUOUS
 62
     7
100
AcDbVertex
100
AcDb2dVertex
 10
8.9826522595
 20
6.2401770448
 30
0.0
  0
VERTEX
  5
2C0
330
1DD
100
AcDbEntity
  8
0
  6
CONTINUOUS
 62
     7
100
AcDbVertex
100
AcDb2dVertex
 10
9.0011549073
 20
6.2657961996
 30
0.0
  0
VERTEX
  5
2C1
330
1DD
100
AcDbEntity
  8
0
  6
CONTINUOUS
 62
     7
100
AcDbVertex
100
AcDb2dVertex
 10
9.0189611969
 20
6.2921022066
 30
0.0
  0
VERTEX
  5
2C2
330
1DD
100
AcDbEntity
  8
0
  6
CONTINUOUS
 62
     7
100
AcDbVertex
100
AcDb2dVertex
 10
9.0360231257
 20
6.3190241494
 30
0.0
  0
VERTEX
  5
2C3
330
1DD
100
AcDbEntity
  8
0
  6
CONTINUOUS
 62
     7
100
AcDbVertex
100
AcDb2dVertex
 10
9.0522946977
 20
6.3464894512
 30
0.0
  0
VERTEX
  5
2C4
330
1DD
100
AcDbEntity
  8
0
  6
CONTINUOUS
 62
     7
100
AcDbVertex
100
AcDb2dVertex
 10
9.0677320477
 20
6.3744240705
 30
0.0
  0
VERTEX
  5
2C5
330
1DD
100
AcDbEntity
  8
0
  6
CONTINUOUS
 62
     7
100
AcDbVertex
100
AcDb2dVertex
 10
9.0822935593
 20
6.4027527004
 30
0.0
  0
VERTEX
  5
2C6
330
1DD
100
AcDbEntity
  8
0
  6
CONTINUOUS
 62
     7
100
AcDbVertex
100
AcDb2dVertex
 10
9.0959399772
 20
6.431398972
 30
0.0
  0
VERTEX
  5
2C7
330
1DD
100
AcDbEntity
  8
0
  6
CONTINUOUS
 62
     7
100
AcDbVertex
100
AcDb2dVertex
 10
9.1086345132
 20
6.46028566
 30
0.0
  0
VERTEX
  5
2C8
330
1DD
100
AcDbEntity
  8
0
  6
CONTINUOUS
 62
     7
100
AcDbVertex
100
AcDb2dVertex
 10
9.1203429449
 20
6.4893348909
 30
0.0
  0
VERTEX
  5
2C9
330
1DD
100
AcDbEntity
  8
0
  6
CONTINUOUS
 62
     7
100
AcDbVertex
100
AcDb2dVertex
 10
9.1310337085
 20
6.5184683532
 30
0.0
  0
VERTEX
  5
2CA
330
1DD
100
AcDbEntity
  8
0
  6
CONTINUOUS
 62
     7
100
AcDbVertex
100
AcDb2dVertex
 10
9.1406779836
 20
6.5476075083
 30
0.0
  0
VERTEX
  5
2CB
330
1DD
100
AcDbEntity
  8
0
  6
CONTINUOUS
 62
     7
100
AcDbVertex
100
AcDb2dVertex
 10
9.149249771
 20
6.576673802
 30
0.0
  0
VERTEX
  5
2CC
330
1DD
100
AcDbEntity
  8
0
  6
CONTINUOUS
 62
     7
100
AcDbVertex
100
AcDb2dVertex
 10
9.1567259626
 20
6.6055888769
 30
0.0
  0
VERTEX
  5
2CD
330
1DD
100
AcDbEntity
  8
0
  6
CONTINUOUS
 62
     7
100
AcDbVertex
100
AcDb2dVertex
 10
9.1630864039
 20
6.6342747829
 30
0.0
  0
VERTEX
  5
2CE
330
1DD
100
AcDbEntity
  8
0
  6
CONTINUOUS
 62
     7
100
AcDbVertex
100
AcDb2dVertex
 10
9.1683139483
 20
6.6626541881
 30
0.0
  0
VERTEX
  5
2CF
330
1DD
100
AcDbEntity
  8
0
  6
CONTINUOUS
 62
     7
100
AcDbVertex
100
AcDb2dVertex
 10
9.1723945033
 20
6.6906505864
 30
0.0
  0
VERTEX
  5
2D0
330
1DD
100
AcDbEntity
  8
0
  6
CONTINUOUS
 62
     7
100
AcDbVertex
100
AcDb2dVertex
 10
9.1753170684
 20
6.7181885046
 30
0.0
  0
VERTEX
  5
2D1
330
1DD
100
AcDbEntity
  8
0
  6
CONTINUOUS
 62
     7
100
AcDbVertex
100
AcDb2dVertex
 10
9.177073765
 20
6.7451937053
 30
0.0
  0
VERTEX
  5
2D2
330
1DD
100
AcDbEntity
  8
0
  6
CONTINUOUS
 62
     7
100
AcDbVertex
100
AcDb2dVertex
 10
9.1776598571
 20
6.7715933872
 30
0.0
  0
SEQEND
  5
2D3
330
1DD
100
AcDbEntity
  8
0
  6
CONTINUOUS
 62
     7
  0
POLYLINE
  5
1DE
330
1F
100
AcDbEntity
  8
0
  6
CONTINUOUS
 62
     7
100
AcDb2dPolyline
 66
     1
 10
0.0
 20
0.0
 30
0.0
  0
VERTEX
  5
2D4
330
1DE
100
AcDbEntity
  8
0
  6
CONTINUOUS
 62
     7
100
AcDbVertex
100
AcDb2dVertex
 10
8.7323106562
 20
6.0123884775
 30
0.0
  0
VERTEX
  5
2D5
330
1DE
100
AcDbEntity
  8
0
  6
CONTINUOUS
 62
     7
100
AcDbVertex
100
AcDb2dVertex
 10
8.7207695859
 20
6.0058964785
 30
0.0
  0
VERTEX
  5
2D6
330
1DE
100
AcDbEntity
  8
0
  6
CONTINUOUS
 62
     7
100
AcDbVertex
100
AcDb2dVertex
 10
8.6978626453
 20
5.9940361117
 30
0.0
  0
VERTEX
  5
2D7
330
1DE
100
AcDbEntity
  8
0
  6
CONTINUOUS
 62
     7
100
AcDbVertex
100
AcDb2dVertex
 10
8.6750468626
 20
5.9835882819
 30
0.0
  0
VERTEX
  5
2D8
330
1DE
100
AcDbEntity
  8
0
  6
CONTINUOUS
 62
     7
100
AcDbVertex
100
AcDb2dVertex
 10
8.6523827412
 20
5.9745806951
 30
0.0
  0
VERTEX
  5
2D9
330
1DE
100
AcDbEntity
  8
0
  6
CONTINUOUS
 62
     7
100
AcDbVertex
100
AcDb2dVertex
 10
8.6299303824
 20
5.9670372376
 30
0.0
  0
VERTEX
  5
2DA
330
1DE
100
AcDbEntity
  8
0
  6
CONTINUOUS
 62
     7
100
AcDbVertex
100
AcDb2dVertex
 10
8.6077493256
 20
5.9609779133
 30
0.0
  0
VERTEX
  5
2DB
330
1DE
100
AcDbEntity
  8
0
  6
CONTINUOUS
 62
     7
100
AcDbVertex
100
AcDb2dVertex
 10
8.5858983911
 20
5.9564187905
 30
0.0
  0
VERTEX
  5
2DC
330
1DE
100
AcDbEntity
  8
0
  6
CONTINUOUS
 62
     7
100
AcDbVertex
100
AcDb2dVertex
 10
8.5644355236
 20
5.9533719592
 30
0.0
  0
VERTEX
  5
2DD
330
1DE
100
AcDbEntity
  8
0
  6
CONTINUOUS
 62
     7
100
AcDbVertex
100
AcDb2dVertex
 10
8.5434176389
 20
5.9518454989
 30
0.0
  0
VERTEX
  5
2DE
330
1DE
100
AcDbEntity
  8
0
  6
CONTINUOUS
 62
     7
100
AcDbVertex
100
AcDb2dVertex
 10
8.5229004725
 20
5.9518434577
 30
0.0
  0
VERTEX
  5
2DF
330
1DE
100
AcDbEntity
  8
0
  6
CONTINUOUS
 62
     7
100
AcDbVertex
100
AcDb2dVertex
 10
8.5029384322
 20
5.9533658409
 30
0.0
  0
VERTEX
  5
2E0
330
1DE
100
AcDbEntity
  8
0
  6
CONTINUOUS
 62
     7
100
AcDbVertex
100
AcDb2dVertex
 10
8.4835844539
 20
5.9564086114
 30
0.0
  0
VERTEX
  5
2E1
330
1DE
100
AcDbEntity
  8
0
  6
CONTINUOUS
 62
     7
100
AcDbVertex
100
AcDb2dVertex
 10
8.4648898608
 20
5.9609637004
 30
0.0
  0
VERTEX
  5
2E2
330
1DE
100
AcDbEntity
  8
0
  6
CONTINUOUS
 62
     7
100
AcDbVertex
100
AcDb2dVertex
 10
8.4469042276
 20
5.9670190286
 30
0.0
  0
VERTEX
  5
2E3
330
1DE
100
AcDbEntity
  8
0
  6
CONTINUOUS
 62
     7
100
AcDbVertex
100
AcDb2dVertex
 10
8.429675249
 20
5.9745585383
 30
0.0
  0
VERTEX
  5
2E4
330
1DE
100
AcDbEntity
  8
0
  6
CONTINUOUS
 62
     7
100
AcDbVertex
100
AcDb2dVertex
 10
8.4132486131
 20
5.983562236
 30
0.0
  0
VERTEX
  5
2E5
330
1DE
100
AcDbEntity
  8
0
  6
CONTINUOUS
 62
     7
100
AcDbVertex
100
AcDb2dVertex
 10
8.3976678804
 20
5.9940062458
 30
0.0
  0
VERTEX
  5
2E6
330
1DE
100
AcDbEntity
  8
0
  6
CONTINUOUS
 62
     7
100
AcDbVertex
100
AcDb2dVertex
 10
8.3829743682
 20
6.0058628718
 30
0.0
  0
VERTEX
  5
2E7
330
1DE
100
AcDbEntity
  8
0
  6
CONTINUOUS
 62
     7
100
AcDbVertex
100
AcDb2dVertex
 10
8.3692070411
 20
6.0191006724
 30
0.0
  0
VERTEX
  5
2E8
330
1DE
100
AcDbEntity
  8
0
  6
CONTINUOUS
 62
     7
100
AcDbVertex
100
AcDb2dVertex
 10
8.3564024075
 20
6.0336845434
 30
0.0
  0
VERTEX
  5
2E9
330
1DE
100
AcDbEntity
  8
0
  6
CONTINUOUS
 62
     7
100
AcDbVertex
100
AcDb2dVertex
 10
8.344594423
 20
6.049575811
 30
0.0
  0
VERTEX
  5
2EA
330
1DE
100
AcDbEntity
  8
0
  6
CONTINUOUS
 62
     7
100
AcDbVertex
100
AcDb2dVertex
 10
8.3338144003
 20
6.0667323344
 30
0.0
  0
VERTEX
  5
2EB
330
1DE
100
AcDbEntity
  8
0
  6
CONTINUOUS
 62
     7
100
AcDbVertex
100
AcDb2dVertex
 10
8.3240909261
 20
6.0851086175
 30
0.0
  0
VERTEX
  5
2EC
330
1DE
100
AcDbEntity
  8
0
  6
CONTINUOUS
 62
     7
100
AcDbVertex
100
AcDb2dVertex
 10
8.3154497852
 20
6.1046559298
 30
0.0
  0
VERTEX
  5
2ED
330
1DE
100
AcDbEntity
  8
0
  6
CONTINUOUS
 62
     7
100
AcDbVertex
100
AcDb2dVertex
 10
8.3079138924
 20
6.1253224353
 30
0.0
  0
VERTEX
  5
2EE
330
1DE
100
AcDbEntity
  8
0
  6
CONTINUOUS
 62
     7
100
AcDbVertex
100
AcDb2dVertex
 10
8.3015032316
 20
6.1470533302
 30
0.0
  0
VERTEX
  5
2EF
330
1DE
100
AcDbEntity
  8
0
  6
CONTINUOUS
 62
     7
100
AcDbVertex
100
AcDb2dVertex
 10
8.2962348027
 20
6.169790988
 30
0.0
  0
VERTEX
  5
2F0
330
1DE
100
AcDbEntity
  8
0
  6
CONTINUOUS
 62
     7
100
AcDbVertex
100
AcDb2dVertex
 10
8.2921225766
 20
6.1934751126
 30
0.0
  0
VERTEX
  5
2F1
330
1DE
100
AcDbEntity
  8
0
  6
CONTINUOUS
 62
     7
100
AcDbVertex
100
AcDb2dVertex
 10
8.2891774581
 20
6.2180428978
 30
0.0
  0
VERTEX
  5
2F2
330
1DE
100
AcDbEntity
  8
0
  6
CONTINUOUS
 62
     7
100
AcDbVertex
100
AcDb2dVertex
 10
8.2874072572
 20
6.2434291945
 30
0.0
  0
VERTEX
  5
2F3
330
1DE
100
AcDbEntity
  8
0
  6
CONTINUOUS
 62
     7
100
AcDbVertex
100
AcDb2dVertex
 10
8.2868166682
 20
6.2695666825
 30
0.0
  0
VERTEX
  5
2F4
330
1DE
100
AcDbEntity
  8
0
  6
CONTINUOUS
 62
     7
100
AcDbVertex
100
AcDb2dVertex
 10
8.2874072572
 20
6.2963860502
 30
0.0
  0
VERTEX
  5
2F5
330
1DE
100
AcDbEntity
  8
0
  6
CONTINUOUS
 62
     7
100
AcDbVertex
100
AcDb2dVertex
 10
8.2891774581
 20
6.3238161772
 30
0.0
  0
VERTEX
  5
2F6
330
1DE
100
AcDbEntity
  8
0
  6
CONTINUOUS
 62
     7
100
AcDbVertex
100
AcDb2dVertex
 10
8.2921225766
 20
6.3517843238
 30
0.0
  0
VERTEX
  5
2F7
330
1DE
100
AcDbEntity
  8
0
  6
CONTINUOUS
 62
     7
100
AcDbVertex
100
AcDb2dVertex
 10
8.2962348027
 20
6.3802163236
 30
0.0
  0
VERTEX
  5
2F8
330
1DE
100
AcDbEntity
  8
0
  6
CONTINUOUS
 62
     7
100
AcDbVertex
100
AcDb2dVertex
 10
8.3015032316
 20
6.40903678
 30
0.0
  0
VERTEX
  5
2F9
330
1DE
100
AcDbEntity
  8
0
  6
CONTINUOUS
 62
     7
100
AcDbVertex
100
AcDb2dVertex
 10
8.3079138924
 20
6.4381692663
 30
0.0
  0
VERTEX
  5
2FA
330
1DE
100
AcDbEntity
  8
0
  6
CONTINUOUS
 62
     7
100
AcDbVertex
100
AcDb2dVertex
 10
8.3154497852
 20
6.4675365284
 30
0.0
  0
VERTEX
  5
2FB
330
1DE
100
AcDbEntity
  8
0
  6
CONTINUOUS
 62
     7
100
AcDbVertex
100
AcDb2dVertex
 10
8.3240909261
 20
6.4970606896
 30
0.0
  0
VERTEX
  5
2FC
330
1DE
100
AcDbEntity
  8
0
  6
CONTINUOUS
 62
     7
100
AcDbVertex
100
AcDb2dVertex
 10
8.3338144003
 20
6.5266634571
 30
0.0
  0
VERTEX
  5
2FD
330
1DE
100
AcDbEntity
  8
0
  6
CONTINUOUS
 62
     7
100
AcDbVertex
100
AcDb2dVertex
 10
8.344594423
 20
6.5562663298
 30
0.0
  0
VERTEX
  5
2FE
330
1DE
100
AcDbEntity
  8
0
  6
CONTINUOUS
 62
     7
100
AcDbVertex
100
AcDb2dVertex
 10
8.3564024075
 20
6.5857908061
 30
0.0
  0
VERTEX
  5
2FF
330
1DE
100
AcDbEntity
  8
0
  6
CONTINUOUS
 62
     7
100
AcDbVertex
100
AcDb2dVertex
 10
8.3692070411
 20
6.6151585923
 30
0.0
  0
VERTEX
  5
300
330
1DE
100
AcDbEntity
  8
0
  6
CONTINUOUS
 62
     7
100
AcDbVertex
100
AcDb2dVertex
 10
8.3829743682
 20
6.6442918105
 30
0.0
  0
VERTEX
  5
301
330
1DE
100
AcDbEntity
  8
0
  6
CONTINUOUS
 62
     7
100
AcDbVertex
100
AcDb2dVertex
 10
8.3976678804
 20
6.6731132046
 30
0.0
  0
VERTEX
  5
302
330
1DE
100
AcDbEntity
  8
0
  6
CONTINUOUS
 62
     7
100
AcDbVertex
100
AcDb2dVertex
 10
8.4132486131
 20
6.7015463454
 30
0.0
  0
VERTEX
  5
303
330
1DE
100
AcDbEntity
  8
0
  6
CONTINUOUS
 62
     7
100
AcDbVertex
100
AcDb2dVertex
 10
8.429675249
 20
6.7295158333
 30
0.0
  0
VERTEX
  5
304
330
1DE
100
AcDbEntity
  8
0
  6
CONTINUOUS
 62
     7
100
AcDbVertex
100
AcDb2dVertex
 10
8.4469042276
 20
6.7569474983
 30
0.0
  0
VERTEX
  5
305
330
1DE
100
AcDbEntity
  8
0
  6
CONTINUOUS
 62
     7
100
AcDbVertex
100
AcDb2dVertex
 10
8.4648898608
 20
6.7837685965
 30
0.0
  0
VERTEX
  5
306
330
1DE
100
AcDbEntity
  8
0
  6
CONTINUOUS
 62
     7
100
AcDbVertex
100
AcDb2dVertex
 10
8.4835844539
 20
6.8099080033
 30
0.0
  0
VERTEX
  5
307
330
1DE
100
AcDbEntity
  8
0
  6
CONTINUOUS
 62
     7
100
AcDbVertex
100
AcDb2dVertex
 10
8.5029384322
 20
6.8352964015
 30
0.0
  0
VERTEX
  5
308
330
1DE
100
AcDbEntity
  8
0
  6
CONTINUOUS
 62
     7
100
AcDbVertex
100
AcDb2dVertex
 10
8.5229004725
 20
6.8598664657
 30
0.0
  0
VERTEX
  5
309
330
1DE
100
AcDbEntity
  8
0
  6
CONTINUOUS
 62
     7
100
AcDbVertex
100
AcDb2dVertex
 10
8.5434176389
 20
6.8835530406
 30
0.0
  0
VERTEX
  5
30A
330
1DE
100
AcDbEntity
  8
0
  6
CONTINUOUS
 62
     7
100
AcDbVertex
100
AcDb2dVertex
 10
8.5644355236
 20
6.9062933136
 30
0.0
  0
VERTEX
  5
30B
330
1DE
100
AcDbEntity
  8
0
  6
CONTINUOUS
 62
     7
100
AcDbVertex
100
AcDb2dVertex
 10
8.5858983911
 20
6.9280269816
 30
0.0
  0
VERTEX
  5
30C
330
1DE
100
AcDbEntity
  8
0
  6
CONTINUOUS
 62
     7
100
AcDbVertex
100
AcDb2dVertex
 10
8.6077493256
 20
6.9486964108
 30
0.0
  0
VERTEX
  5
30D
330
1DE
100
AcDbEntity
  8
0
  6
CONTINUOUS
 62
     7
100
AcDbVertex
100
AcDb2dVertex
 10
8.6299303824
 20
6.9682467895
 30
0.0
  0
VERTEX
  5
30E
330
1DE
100
AcDbEntity
  8
0
  6
CONTINUOUS
 62
     7
100
AcDbVertex
100
AcDb2dVertex
 10
8.6523827412
 20
6.9866262738
 30
0.0
  0
VERTEX
  5
30F
330
1DE
100
AcDbEntity
  8
0
  6
CONTINUOUS
 62
     7
100
AcDbVertex
100
AcDb2dVertex
 10
8.6750468626
 20
7.0037861245
 30
0.0
  0
VERTEX
  5
310
330
1DE
100
AcDbEntity
  8
0
  6
CONTINUOUS
 62
     7
100
AcDbVertex
100
AcDb2dVertex
 10
8.6978626453
 20
7.0196808367
 30
0.0
  0
VERTEX
  5
311
330
1DE
100
AcDbEntity
  8
0
  6
CONTINUOUS
 62
     7
100
AcDbVertex
100
AcDb2dVertex
 10
8.7207695859
 20
7.0342682606
 30
0.0
  0
VERTEX
  5
312
330
1DE
100
AcDbEntity
  8
0
  6
CONTINUOUS
 62
     7
100
AcDbVertex
100
AcDb2dVertex
 10
8.7437069394
 20
7.0475097129
 30
0.0
  0
VERTEX
  5
313
330
1DE
100
AcDbEntity
  8
0
  6
CONTINUOUS
 62
     7
100
AcDbVertex
100
AcDb2dVertex
 10
8.7666138801
 20
7.0593700797
 30
0.0
  0
VERTEX
  5
314
330
1DE
100
AcDbEntity
  8
0
  6
CONTINUOUS
 62
     7
100
AcDbVertex
100
AcDb2dVertex
 10
8.7894296628
 20
7.0698179095
 30
0.0
  0
VERTEX
  5
315
330
1DE
100
AcDbEntity
  8
0
  6
CONTINUOUS
 62
     7
100
AcDbVertex
100
AcDb2dVertex
 10
8.8120937841
 20
7.0788254963
 30
0.0
  0
VERTEX
  5
316
330
1DE
100
AcDbEntity
  8
0
  6
CONTINUOUS
 62
     7
100
AcDbVertex
100
AcDb2dVertex
 10
8.834546143
 20
7.0863689539
 30
0.0
  0
VERTEX
  5
317
330
1DE
100
AcDbEntity
  8
0
  6
CONTINUOUS
 62
     7
100
AcDbVertex
100
AcDb2dVertex
 10
8.8567271998
 20
7.0924282781
 30
0.0
  0
VERTEX
  5
318
330
1DE
100
AcDbEntity
  8
0
  6
CONTINUOUS
 62
     7
100
AcDbVertex
100
AcDb2dVertex
 10
8.8785781343
 20
7.0969874009
 30
0.0
  0
VERTEX
  5
319
330
1DE
100
AcDbEntity
  8
0
  6
CONTINUOUS
 62
     7
100
AcDbVertex
100
AcDb2dVertex
 10
8.9000410017
 20
7.1000342322
 30
0.0
  0
VERTEX
  5
31A
330
1DE
100
AcDbEntity
  8
0
  6
CONTINUOUS
 62
     7
100
AcDbVertex
100
AcDb2dVertex
 10
8.9210588865
 20
7.1015606925
 30
0.0
  0
VERTEX
  5
31B
330
1DE
100
AcDbEntity
  8
0
  6
CONTINUOUS
 62
     7
100
AcDbVertex
100
AcDb2dVertex
 10
8.9415760529
 20
7.1015627337
 30
0.0
  0
VERTEX
  5
31C
330
1DE
100
AcDbEntity
  8
0
  6
CONTINUOUS
 62
     7
100
AcDbVertex
100
AcDb2dVertex
 10
8.9615380931
 20
7.1000403505
 30
0.0
  0
VERTEX
  5
31D
330
1DE
100
AcDbEntity
  8
0
  6
CONTINUOUS
 62
     7
100
AcDbVertex
100
AcDb2dVertex
 10
8.9808920714
 20
7.09699758
 30
0.0
  0
VERTEX
  5
31E
330
1DE
100
AcDbEntity
  8
0
  6
CONTINUOUS
 62
     7
100
AcDbVertex
100
AcDb2dVertex
 10
8.9995866645
 20
7.092442491
 30
0.0
  0
VERTEX
  5
31F
330
1DE
100
AcDbEntity
  8
0
  6
CONTINUOUS
 62
     7
100
AcDbVertex
100
AcDb2dVertex
 10
9.0175722977
 20
7.0863871628
 30
0.0
  0
VERTEX
  5
320
330
1DE
100
AcDbEntity
  8
0
  6
CONTINUOUS
 62
     7
100
AcDbVertex
100
AcDb2dVertex
 10
9.0348012764
 20
7.0788476532
 30
0.0
  0
VERTEX
  5
321
330
1DE
100
AcDbEntity
  8
0
  6
CONTINUOUS
 62
     7
100
AcDbVertex
100
AcDb2dVertex
 10
9.0512279123
 20
7.0698439554
 30
0.0
  0
VERTEX
  5
322
330
1DE
100
AcDbEntity
  8
0
  6
CONTINUOUS
 62
     7
100
AcDbVertex
100
AcDb2dVertex
 10
9.066808645
 20
7.0593999457
 30
0.0
  0
VERTEX
  5
323
330
1DE
100
AcDbEntity
  8
0
  6
CONTINUOUS
 62
     7
100
AcDbVertex
100
AcDb2dVertex
 10
9.0815021572
 20
7.0475433197
 30
0.0
  0
VERTEX
  5
324
330
1DE
100
AcDbEntity
  8
0
  6
CONTINUOUS
 62
     7
100
AcDbVertex
100
AcDb2dVertex
 10
9.0952694843
 20
7.034305519
 30
0.0
  0
VERTEX
  5
325
330
1DE
100
AcDbEntity
  8
0
  6
CONTINUOUS
 62
     7
100
AcDbVertex
100
AcDb2dVertex
 10
9.1080741179
 20
7.019721648
 30
0.0
  0
VERTEX
  5
326
330
1DE
100
AcDbEntity
  8
0
  6
CONTINUOUS
 62
     7
100
AcDbVertex
100
AcDb2dVertex
 10
9.1198821024
 20
7.0038303804
 30
0.0
  0
VERTEX
  5
327
330
1DE
100
AcDbEntity
  8
0
  6
CONTINUOUS
 62
     7
100
AcDbVertex
100
AcDb2dVertex
 10
9.1306621251
 20
6.9866738571
 30
0.0
  0
VERTEX
  5
328
330
1DE
100
AcDbEntity
  8
0
  6
CONTINUOUS
 62
     7
100
AcDbVertex
100
AcDb2dVertex
 10
9.1403855993
 20
6.9682975739
 30
0.0
  0
VERTEX
  5
329
330
1DE
100
AcDbEntity
  8
0
  6
CONTINUOUS
 62
     7
100
AcDbVertex
100
AcDb2dVertex
 10
9.1490267402
 20
6.9487502616
 30
0.0
  0
VERTEX
  5
32A
330
1DE
100
AcDbEntity
  8
0
  6
CONTINUOUS
 62
     7
100
AcDbVertex
100
AcDb2dVertex
 10
9.1565626329
 20
6.9280837561
 30
0.0
  0
VERTEX
  5
32B
330
1DE
100
AcDbEntity
  8
0
  6
CONTINUOUS
 62
     7
100
AcDbVertex
100
AcDb2dVertex
 10
9.1629732937
 20
6.9063528612
 30
0.0
  0
VERTEX
  5
32C
330
1DE
100
AcDbEntity
  8
0
  6
CONTINUOUS
 62
     7
100
AcDbVertex
100
AcDb2dVertex
 10
9.1682417227
 20
6.8836152034
 30
0.0
  0
VERTEX
  5
32D
330
1DE
100
AcDbEntity
  8
0
  6
CONTINUOUS
 62
     7
100
AcDbVertex
100
AcDb2dVertex
 10
9.1723539488
 20
6.8599310788
 30
0.0
  0
VERTEX
  5
32E
330
1DE
100
AcDbEntity
  8
0
  6
CONTINUOUS
 62
     7
100
AcDbVertex
100
AcDb2dVertex
 10
9.1752990673
 20
6.8353632936
 30
0.0
  0
VERTEX
  5
32F
330
1DE
100
AcDbEntity
  8
0
  6
CONTINUOUS
 62
     7
100
AcDbVertex
100
AcDb2dVertex
 10
9.1770692681
 20
6.809976997
 30
0.0
  0
VERTEX
  5
330
330
1DE
100
AcDbEntity
  8
0
  6
CONTINUOUS
 62
     7
100
AcDbVertex
100
AcDb2dVertex
 10
9.1776598571
 20
6.7838395089
 30
0.0
  0
VERTEX
  5
331
330
1DE
100
AcDbEntity
  8
0
  6
CONTINUOUS
 62
     7
100
AcDbVertex
100
AcDb2dVertex
 10
9.1776598571
 20
6.7838395089
 30
0.0
  0
SEQEND
  5
332
330
1DE
100
AcDbEntity
  8
0
  6
CONTINUOUS
 62
     7
  0
POLYLINE
  5
1DF
330
1F
100
AcDbEntity
  8
0
  6
CONTINUOUS
 62
     7
100
AcDb2dPolyline
 66
     1
 10
0.0
 20
0.0
 30
0.0
  0
VERTEX
  5
333
330
1DF
100
AcDbEntity
  8
0
  6
CONTINUOUS
 62
     7
100
AcDbVertex
100
AcDb2dVertex
 10
7.9269936642
 20
7.7189116233
 30
0.0
  0
VERTEX
  5
334
330
1DF
100
AcDbEntity
  8
0
  6
CONTINUOUS
 62
     7
100
AcDbVertex
100
AcDb2dVertex
 10
7.914621644
 20
7.7255135902
 30
0.0
  0
VERTEX
  5
335
330
1DF
100
AcDbEntity
  8
0
  6
CONTINUOUS
 62
     7
100
AcDbVertex
100
AcDb2dVertex
 10
7.8973926654
 20
7.7330530999
 30
0.0
  0
VERTEX
  5
336
330
1DF
100
AcDbEntity
  8
0
  6
CONTINUOUS
 62
     7
100
AcDbVertex
100
AcDb2dVertex
 10
7.8794070322
 20
7.7391084281
 30
0.0
  0
VERTEX
  5
337
330
1DF
100
AcDbEntity
  8
0
  6
CONTINUOUS
 62
     7
100
AcDbVertex
100
AcDb2dVertex
 10
7.8607124391
 20
7.743663517
 30
0.0
  0
VERTEX
  5
338
330
1DF
100
AcDbEntity
  8
0
  6
CONTINUOUS
 62
     7
100
AcDbVertex
100
AcDb2dVertex
 10
7.8413584608
 20
7.7467062876
 30
0.0
  0
VERTEX
  5
339
330
1DF
100
AcDbEntity
  8
0
  6
CONTINUOUS
 62
     7
100
AcDbVertex
100
AcDb2dVertex
 10
7.8213964206
 20
7.7482286708
 30
0.0
  0
VERTEX
  5
33A
330
1DF
100
AcDbEntity
  8
0
  6
CONTINUOUS
 62
     7
100
AcDbVertex
100
AcDb2dVertex
 10
7.8008792542
 20
7.7482266296
 30
0.0
  0
VERTEX
  5
33B
330
1DF
100
AcDbEntity
  8
0
  6
CONTINUOUS
 62
     7
100
AcDbVertex
100
AcDb2dVertex
 10
7.7798613694
 20
7.7467001693
 30
0.0
  0
VERTEX
  5
33C
330
1DF
100
AcDbEntity
  8
0
  6
CONTINUOUS
 62
     7
100
AcDbVertex
100
AcDb2dVertex
 10
7.7583985019
 20
7.743653338
 30
0.0
  0
VERTEX
  5
33D
330
1DF
100
AcDbEntity
  8
0
  6
CONTINUOUS
 62
     7
100
AcDbVertex
100
AcDb2dVertex
 10
7.7365475674
 20
7.7390942152
 30
0.0
  0
VERTEX
  5
33E
330
1DF
100
AcDbEntity
  8
0
  6
CONTINUOUS
 62
     7
100
AcDbVertex
100
AcDb2dVertex
 10
7.7143665107
 20
7.7330348909
 30
0.0
  0
VERTEX
  5
33F
330
1DF
100
AcDbEntity
  8
0
  6
CONTINUOUS
 62
     7
100
AcDbVertex
100
AcDb2dVertex
 10
7.6919141518
 20
7.7254914334
 30
0.0
  0
VERTEX
  5
340
330
1DF
100
AcDbEntity
  8
0
  6
CONTINUOUS
 62
     7
100
AcDbVertex
100
AcDb2dVertex
 10
7.6692500304
 20
7.7164838465
 30
0.0
  0
VERTEX
  5
341
330
1DF
100
AcDbEntity
  8
0
  6
CONTINUOUS
 62
     7
100
AcDbVertex
100
AcDb2dVertex
 10
7.6464342477
 20
7.7060360168
 30
0.0
  0
VERTEX
  5
342
330
1DF
100
AcDbEntity
  8
0
  6
CONTINUOUS
 62
     7
100
AcDbVertex
100
AcDb2dVertex
 10
7.6235273071
 20
7.69417565
 30
0.0
  0
VERTEX
  5
343
330
1DF
100
AcDbEntity
  8
0
  6
CONTINUOUS
 62
     7
100
AcDbVertex
100
AcDb2dVertex
 10
7.6005899536
 20
7.6809341977
 30
0.0
  0
VERTEX
  5
344
330
1DF
100
AcDbEntity
  8
0
  6
CONTINUOUS
 62
     7
100
AcDbVertex
100
AcDb2dVertex
 10
7.577683013
 20
7.6663467738
 30
0.0
  0
VERTEX
  5
345
330
1DF
100
AcDbEntity
  8
0
  6
CONTINUOUS
 62
     7
100
AcDbVertex
100
AcDb2dVertex
 10
7.5548672303
 20
7.6504520615
 30
0.0
  0
VERTEX
  5
346
330
1DF
100
AcDbEntity
  8
0
  6
CONTINUOUS
 62
     7
100
AcDbVertex
100
AcDb2dVertex
 10
7.5322031089
 20
7.6332922109
 30
0.0
  0
VERTEX
  5
347
330
1DF
100
AcDbEntity
  8
0
  6
CONTINUOUS
 62
     7
100
AcDbVertex
100
AcDb2dVertex
 10
7.50975075
 20
7.6149127266
 30
0.0
  0
VERTEX
  5
348
330
1DF
100
AcDbEntity
  8
0
  6
CONTINUOUS
 62
     7
100
AcDbVertex
100
AcDb2dVertex
 10
7.4875696932
 20
7.5953623478
 30
0.0
  0
VERTEX
  5
349
330
1DF
100
AcDbEntity
  8
0
  6
CONTINUOUS
 62
     7
100
AcDbVertex
100
AcDb2dVertex
 10
7.4657187588
 20
7.5746929187
 30
0.0
  0
VERTEX
  5
34A
330
1DF
100
AcDbEntity
  8
0
  6
CONTINUOUS
 62
     7
100
AcDbVertex
100
AcDb2dVertex
 10
7.4442558913
 20
7.5529592507
 30
0.0
  0
VERTEX
  5
34B
330
1DF
100
AcDbEntity
  8
0
  6
CONTINUOUS
 62
     7
100
AcDbVertex
100
AcDb2dVertex
 10
7.4232380065
 20
7.5302189777
 30
0.0
  0
VERTEX
  5
34C
330
1DF
100
AcDbEntity
  8
0
  6
CONTINUOUS
 62
     7
100
AcDbVertex
100
AcDb2dVertex
 10
7.4027208401
 20
7.5065324028
 30
0.0
  0
VERTEX
  5
34D
330
1DF
100
AcDbEntity
  8
0
  6
CONTINUOUS
 62
     7
100
AcDbVertex
100
AcDb2dVertex
 10
7.3827587999
 20
7.4819623386
 30
0.0
  0
VERTEX
  5
34E
330
1DF
100
AcDbEntity
  8
0
  6
CONTINUOUS
 62
     7
100
AcDbVertex
100
AcDb2dVertex
 10
7.3634048216
 20
7.4565739403
 30
0.0
  0
VERTEX
  5
34F
330
1DF
100
AcDbEntity
  8
0
  6
CONTINUOUS
 62
     7
100
AcDbVertex
100
AcDb2dVertex
 10
7.3447102285
 20
7.4304345336
 30
0.0
  0
VERTEX
  5
350
330
1DF
100
AcDbEntity
  8
0
  6
CONTINUOUS
 62
     7
100
AcDbVertex
100
AcDb2dVertex
 10
7.3267245953
 20
7.4036134354
 30
0.0
  0
VERTEX
  5
351
330
1DF
100
AcDbEntity
  8
0
  6
CONTINUOUS
 62
     7
100
AcDbVertex
100
AcDb2dVertex
 10
7.3094956167
 20
7.3761817704
 30
0.0
  0
VERTEX
  5
352
330
1DF
100
AcDbEntity
  8
0
  6
CONTINUOUS
 62
     7
100
AcDbVertex
100
AcDb2dVertex
 10
7.2930689808
 20
7.3482122825
 30
0.0
  0
VERTEX
  5
353
330
1DF
100
AcDbEntity
  8
0
  6
CONTINUOUS
 62
     7
100
AcDbVertex
100
AcDb2dVertex
 10
7.2774882481
 20
7.3197791417
 30
0.0
  0
VERTEX
  5
354
330
1DF
100
AcDbEntity
  8
0
  6
CONTINUOUS
 62
     7
100
AcDbVertex
100
AcDb2dVertex
 10
7.2627947359
 20
7.2909577476
 30
0.0
  0
VERTEX
  5
355
330
1DF
100
AcDbEntity
  8
0
  6
CONTINUOUS
 62
     7
100
AcDbVertex
100
AcDb2dVertex
 10
7.2490274087
 20
7.2618245294
 30
0.0
  0
VERTEX
  5
356
330
1DF
100
AcDbEntity
  8
0
  6
CONTINUOUS
 62
     7
100
AcDbVertex
100
AcDb2dVertex
 10
7.2362227751
 20
7.2324567431
 30
0.0
  0
VERTEX
  5
357
330
1DF
100
AcDbEntity
  8
0
  6
CONTINUOUS
 62
     7
100
AcDbVertex
100
AcDb2dVertex
 10
7.2244147907
 20
7.2029322669
 30
0.0
  0
VERTEX
  5
358
330
1DF
100
AcDbEntity
  8
0
  6
CONTINUOUS
 62
     7
100
AcDbVertex
100
AcDb2dVertex
 10
7.213634768
 20
7.1733293942
 30
0.0
  0
VERTEX
  5
359
330
1DF
100
AcDbEntity
  8
0
  6
CONTINUOUS
 62
     7
100
AcDbVertex
100
AcDb2dVertex
 10
7.2039112937
 20
7.1437266267
 30
0.0
  0
VERTEX
  5
35A
330
1DF
100
AcDbEntity
  8
0
  6
CONTINUOUS
 62
     7
100
AcDbVertex
100
AcDb2dVertex
 10
7.1952701529
 20
7.1142024655
 30
0.0
  0
VERTEX
  5
35B
330
1DF
100
AcDbEntity
  8
0
  6
CONTINUOUS
 62
     7
100
AcDbVertex
100
AcDb2dVertex
 10
7.1877342601
 20
7.0848352034
 30
0.0
  0
VERTEX
  5
35C
330
1DF
100
AcDbEntity
  8
0
  6
CONTINUOUS
 62
     7
100
AcDbVertex
100
AcDb2dVertex
 10
7.1813235993
 20
7.0557027171
 30
0.0
  0
VERTEX
  5
35D
330
1DF
100
AcDbEntity
  8
0
  6
CONTINUOUS
 62
     7
100
AcDbVertex
100
AcDb2dVertex
 10
7.1760551704
 20
7.0268822607
 30
0.0
  0
VERTEX
  5
35E
330
1DF
100
AcDbEntity
  8
0
  6
CONTINUOUS
 62
     7
100
AcDbVertex
100
AcDb2dVertex
 10
7.1719429442
 20
6.9984502609
 30
0.0
  0
VERTEX
  5
35F
330
1DF
100
AcDbEntity
  8
0
  6
CONTINUOUS
 62
     7
100
AcDbVertex
100
AcDb2dVertex
 10
7.1689978258
 20
6.9704821143
 30
0.0
  0
VERTEX
  5
360
330
1DF
100
AcDbEntity
  8
0
  6
CONTINUOUS
 62
     7
100
AcDbVertex
100
AcDb2dVertex
 10
7.1672276249
 20
6.9430519872
 30
0.0
  0
VERTEX
  5
361
330
1DF
100
AcDbEntity
  8
0
  6
CONTINUOUS
 62
     7
100
AcDbVertex
100
AcDb2dVertex
 10
7.1666370359
 20
6.9162326196
 30
0.0
  0
VERTEX
  5
362
330
1DF
100
AcDbEntity
  8
0
  6
CONTINUOUS
 62
     7
100
AcDbVertex
100
AcDb2dVertex
 10
7.1672276249
 20
6.8900951315
 30
0.0
  0
VERTEX
  5
363
330
1DF
100
AcDbEntity
  8
0
  6
CONTINUOUS
 62
     7
100
AcDbVertex
100
AcDb2dVertex
 10
7.1689978258
 20
6.8647088349
 30
0.0
  0
VERTEX
  5
364
330
1DF
100
AcDbEntity
  8
0
  6
CONTINUOUS
 62
     7
100
AcDbVertex
100
AcDb2dVertex
 10
7.1719429442
 20
6.8401410496
 30
0.0
  0
VERTEX
  5
365
330
1DF
100
AcDbEntity
  8
0
  6
CONTINUOUS
 62
     7
100
AcDbVertex
100
AcDb2dVertex
 10
7.1760551704
 20
6.8164569251
 30
0.0
  0
VERTEX
  5
366
330
1DF
100
AcDbEntity
  8
0
  6
CONTINUOUS
 62
     7
100
AcDbVertex
100
AcDb2dVertex
 10
7.1813235993
 20
6.7937192673
 30
0.0
  0
VERTEX
  5
367
330
1DF
100
AcDbEntity
  8
0
  6
CONTINUOUS
 62
     7
100
AcDbVertex
100
AcDb2dVertex
 10
7.1877342601
 20
6.7719883724
 30
0.0
  0
VERTEX
  5
368
330
1DF
100
AcDbEntity
  8
0
  6
CONTINUOUS
 62
     7
100
AcDbVertex
100
AcDb2dVertex
 10
7.1952701529
 20
6.7513218669
 30
0.0
  0
VERTEX
  5
369
330
1DF
100
AcDbEntity
  8
0
  6
CONTINUOUS
 62
     7
100
AcDbVertex
100
AcDb2dVertex
 10
7.2039112937
 20
6.7317745546
 30
0.0
  0
VERTEX
  5
36A
330
1DF
100
AcDbEntity
  8
0
  6
CONTINUOUS
 62
     7
100
AcDbVertex
100
AcDb2dVertex
 10
7.213634768
 20
6.7133982714
 30
0.0
  0
VERTEX
  5
36B
330
1DF
100
AcDbEntity
  8
0
  6
CONTINUOUS
 62
     7
100
AcDbVertex
100
AcDb2dVertex
 10
7.2244147907
 20
6.6962417481
 30
0.0
  0
VERTEX
  5
36C
330
1DF
100
AcDbEntity
  8
0
  6
CONTINUOUS
 62
     7
100
AcDbVertex
100
AcDb2dVertex
 10
7.2362227751
 20
6.6803504805
 30
0.0
  0
VERTEX
  5
36D
330
1DF
100
AcDbEntity
  8
0
  6
CONTINUOUS
 62
     7
100
AcDbVertex
100
AcDb2dVertex
 10
7.2490274087
 20
6.6657666095
 30
0.0
  0
VERTEX
  5
36E
330
1DF
100
AcDbEntity
  8
0
  6
CONTINUOUS
 62
     7
100
AcDbVertex
100
AcDb2dVertex
 10
7.2627947359
 20
6.6525288088
 30
0.0
  0
VERTEX
  5
36F
330
1DF
100
AcDbEntity
  8
0
  6
CONTINUOUS
 62
     7
100
AcDbVertex
100
AcDb2dVertex
 10
7.2774882481
 20
6.6406721828
 30
0.0
  0
VERTEX
  5
370
330
1DF
100
AcDbEntity
  8
0
  6
CONTINUOUS
 62
     7
100
AcDbVertex
100
AcDb2dVertex
 10
7.2930689808
 20
6.6302281731
 30
0.0
  0
VERTEX
  5
371
330
1DF
100
AcDbEntity
  8
0
  6
CONTINUOUS
 62
     7
100
AcDbVertex
100
AcDb2dVertex
 10
7.2971235964
 20
6.6278264423
 30
0.0
  0
SEQEND
  5
372
330
1DF
100
AcDbEntity
  8
0
  6
CONTINUOUS
 62
     7
  0
SPLINE
  5
1E0
330
1F
100
AcDbEntity
  8
0
  6
CONTINUOUS
 62
     7
100
AcDbSpline
210
0.0
220
0.0
230
1.0
 70
     8
 71
     3
 72
    39
 73
    35
 74
     0
 42
0.00000001
 43
0.00000001
 40
-0.0946153151592497
 40
-0.063029762387107
 40
-0.0313280494959234
 40
0.0
 40
0.0313436522811892
 40
0.0630338827605092
 40
0.0945901764157862
 40
0.1257490946969568
 40
0.1567525273832551
 40
0.1879854419413515
 40
0.2191519189322542
 40
0.2499113389889396
 40
0.28065166127388
 40
0.3118883410485836
 40
0.3431447021858949
 40
0.3742081634624613
 40
0.4053596611235775
 40
0.4368980582400209
 40
0.4685686740357738
 40
0.5000031074625687
 40
0.5314095660002744
 40
0.5631216740695084
 40
0.5946381341267117
 40
0.6258239327444539
 40
0.6568491782003232
 40
0.6881247348286644
 40
0.7192962093286009
 40
0.7500767494886736
 40
0.7807895513979493
 40
0.8120085129781233
 40
0.8432211683269334
 40
0.8742583491596292
 40
0.9053846848407503
 40
0.936970237612893
 40
0.9686719505040766
 40
1.0
 40
1.031343652281189
 40
1.063033882760509
 40
1.094590176415786
 10
8.387485669537915
 20
7.22497871723048
 30
0.0
 10
8.39918741456769
 20
7.233401320249994
 30
0.0
 10
8.413398199439458
 20
7.239932948340673
 30
0.0
 10
8.429653473959927
 20
7.244314531268035
 30
0.0
 10
8.447162089345928
 20
7.246574468035086
 30
0.0
 10
8.465285472335168
 20
7.246594614296998
 30
0.0
 10
8.483383861344562
 20
7.244557929713486
 30
0.0
 10
8.500795636421923
 20
7.240601094895837
 30
0.0
 10
8.516902281315847
 20
7.235118398147625
 30
0.0
 10
8.53090469945479
 20
7.228288728003178
 30
0.0
 10
8.542358240044319
 20
7.220424723344308
 30
0.0
 10
8.550750398864253
 20
7.211771101700096
 30
0.0
 10
8.556006786734173
 20
7.20264722256647
 30
0.0
 10
8.557619933369626
 20
7.193306228791293
 30
0.0
 10
8.555676760137565
 20
7.183951125181083
 30
0.0
 10
8.550140421240696
 20
7.174792020664309
 30
0.0
 10
8.541454471479577
 20
7.166032466316416
 30
0.0
 10
8.529729016540758
 20
7.158042301223321
 30
0.0
 10
8.515498082548438
 20
7.1510510181007
 30
0.0
 10
8.49923482491518
 20
7.145408491305226
 30
0.0
 10
8.481719194737618
 20
7.141262326726536
 30
0.0
 10
8.46359223898726
 20
7.139028076245705
 30
0.0
 10
8.445477286228696
 20
7.138843759182842
 30
0.0
 10
8.42805837191335
 20
7.140934883491781
 30
0.0
 10
8.41194920040865
 20
7.145133780193116
 30
0.0
 10
8.397946897869575
 20
7.151514147893108
 30
0.0
 10
8.38649367666303
 20
7.159822497766609
 30
0.0
 10
8.378121846270265
 20
7.169768550643627
 30
0.0
 10
8.372889036147745
 20
7.180767231294191
 30
0.0
 10
8.371292726436568
 20
7.192328262831532
 30
0.0
 10
8.373255663179748
 20
7.203906694516045
 30
0.0
 10
8.378813881341312
 20
7.214961896980966
 30
0.0
 10
8.387485669537915
 20
7.22497871723048
 30
0.0
 10
8.39918741456769
 20
7.233401320249994
 30
0.0
 10
8.413398199439458
 20
7.239932948340673
 30
0.0
  0
SPLINE
  5
1E1
330
1F
100
AcDbEntity
  8
0
  6
CONTINUOUS
 62
     7
100
AcDbSpline
210
0.0
220
0.0
230
1.0
 70
     8
 71
     3
 72
    39
 73
    35
 74
     0
 42
0.00000001
 43
0.00000001
 40
-0.0946153151595128
 40
-0.0630297623871148
 40
-0.0313280494961323
 40
0.0
 40
0.0313436522814111
 40
0.0630338827605177
 40
0.0945901764160067
 40
0.1257490946969568
 40
0.1567525273833774
 40
0.1879854419413565
 40
0.2191519189323746
 40
0.2499113389889394
 40
0.2806516612738497
 40
0.3118883410485823
 40
0.3431447021858101
 40
0.3742081634624592
 40
0.4053596611235223
 40
0.4368980582400205
 40
0.4685686740357732
 40
0.5000031074625685
 40
0.5314095660003355
 40
0.5631216740695106
 40
0.5946381341268284
 40
0.6258239327444566
 40
0.656849178200262
 40
0.6881247348286602
 40
0.71929620932841
 40
0.7500767494886705
 40
0.7807895513978131
 40
0.8120085129781206
 40
0.8432211683268178
 40
0.8742583491596273
 40
0.9053846848404872
 40
0.9369702376128852
 40
0.9686719505038677
 40
1.0
 40
1.031343652281411
 40
1.063033882760518
 40
1.094590176416007
 10
7.802869826824572
 20
7.56247025951939
 30
0.0
 10
7.814571571854416
 20
7.570892862538908
 30
0.0
 10
7.828782356726183
 20
7.577424490629621
 30
0.0
 10
7.84503763124672
 20
7.581806073556965
 30
0.0
 10
7.862546246632693
 20
7.584066010323983
 30
0.0
 10
7.880669629621946
 20
7.584086156585911
 30
0.0
 10
7.898768018631302
 20
7.582049472002407
 30
0.0
 10
7.916179793708681
 20
7.57809263718474
 30
0.0
 10
7.932286438602567
 20
7.572609940436524
 30
0.0
 10
7.94628885674152
 20
7.565780270292088
 30
0.0
 10
7.957742397331022
 20
7.557916265633223
 30
0.0
 10
7.966134556150959
 20
7.549262643989024
 30
0.0
 10
7.971390944020879
 20
7.540138764855394
 30
0.0
 10
7.973004090656339
 20
7.530797771080222
 30
0.0
 10
7.971060917424291
 20
7.521442667470002
 30
0.0
 10
7.965524578527411
 20
7.512283562953231
 30
0.0
 10
7.956838628766292
 20
7.50352400860533
 30
0.0
 10
7.945113173827463
 20
7.495533843512233
 30
0.0
 10
7.93088223983515
 20
7.488542560389607
 30
0.0
 10
7.91461898220186
 20
7.482900033594134
 30
0.0
 10
7.897103352024309
 20
7.478753869015449
 30
0.0
 10
7.878976396273963
 20
7.476519618534617
 30
0.0
 10
7.860861443515427
 20
7.476335301471779
 30
0.0
 10
7.843442529200106
 20
7.478426425780685
 30
0.0
 10
7.827333357695391
 20
7.482625322482018
 30
0.0
 10
7.813331055156334
 20
7.489005690181999
 30
0.0
 10
7.801877833949757
 20
7.49731404005551
 30
0.0
 10
7.793506003556997
 20
7.507260092932516
 30
0.0
 10
7.788273193434465
 20
7.518258773583092
 30
0.0
 10
7.786676883723278
 20
7.529819805120402
 30
0.0
 10
7.788639820466478
 20
7.541398236804926
 30
0.0
 10
7.794198038627993
 20
7.552453439269828
 30
0.0
 10
7.802869826824572
 20
7.56247025951939
 30
0.0
 10
7.814571571854416
 20
7.570892862538908
 30
0.0
 10
7.828782356726183
 20
7.577424490629621
 30
0.0
  0
POLYLINE
  5
1E2
330
1F
100
AcDbEntity
  8
0
  6
CONTINUOUS
 62
     7
100
AcDb2dPolyline
 66
     1
 10
0.0
 20
0.0
 30
0.0
  0
VERTEX
  5
373
330
1E2
100
AcDbEntity
  8
0
  6
CONTINUOUS
 62
     7
100
AcDbVertex
100
AcDb2dVertex
 10
8.920484564
 20
6.6231292506
 30
0.0
  0
VERTEX
  5
374
330
1E2
100
AcDbEntity
  8
0
  6
CONTINUOUS
 62
     7
100
AcDbVertex
100
AcDb2dVertex
 10
8.9198934826
 20
6.6060678831
 30
0.0
  0
VERTEX
  5
375
330
1E2
100
AcDbEntity
  8
0
  6
CONTINUOUS
 62
     7
100
AcDbVertex
100
AcDb2dVertex
 10
8.9181241718
 20
6.588437608
 30
0.0
  0
VERTEX
  5
376
330
1E2
100
AcDbEntity
  8
0
  6
CONTINUOUS
 62
     7
100
AcDbVertex
100
AcDb2dVertex
 10
8.9151884061
 20
6.570355752
 30
0.0
  0
VERTEX
  5
377
330
1E2
100
AcDbEntity
  8
0
  6
CONTINUOUS
 62
     7
100
AcDbVertex
100
AcDb2dVertex
 10
8.9111057226
 20
6.5519426468
 30
0.0
  0
VERTEX
  5
378
330
1E2
100
AcDbEntity
  8
0
  6
CONTINUOUS
 62
     7
100
AcDbVertex
100
AcDb2dVertex
 10
8.9059032909
 20
6.5333208286
 30
0.0
  0
VERTEX
  5
379
330
1E2
100
AcDbEntity
  8
0
  6
CONTINUOUS
 62
     7
100
AcDbVertex
100
AcDb2dVertex
 10
8.8996157322
 20
6.5146142225
 30
0.0
  0
VERTEX
  5
37A
330
1E2
100
AcDbEntity
  8
0
  6
CONTINUOUS
 62
     7
100
AcDbVertex
100
AcDb2dVertex
 10
8.8922848893
 20
6.4959473179
 30
0.0
  0
VERTEX
  5
37B
330
1E2
100
AcDbEntity
  8
0
  6
CONTINUOUS
 62
     7
100
AcDbVertex
100
AcDb2dVertex
 10
8.8839595477
 20
6.47744434
 30
0.0
  0
VERTEX
  5
37C
330
1E2
100
AcDbEntity
  8
0
  6
CONTINUOUS
 62
     7
100
AcDbVertex
100
AcDb2dVertex
 10
8.8746951111
 20
6.459228423
 30
0.0
  0
VERTEX
  5
37D
330
1E2
100
AcDbEntity
  8
0
  6
CONTINUOUS
 62
     7
100
AcDbVertex
100
AcDb2dVertex
 10
8.8645532329
 20
6.4414207908
 30
0.0
  0
VERTEX
  5
37E
330
1E2
100
AcDbEntity
  8
0
  6
CONTINUOUS
 62
     7
100
AcDbVertex
100
AcDb2dVertex
 10
8.8536014055
 20
6.4241399504
 30
0.0
  0
VERTEX
  5
37F
330
1E2
100
AcDbEntity
  8
0
  6
CONTINUOUS
 62
     7
100
AcDbVertex
100
AcDb2dVertex
 10
8.8419125117
 20
6.4075009028
 30
0.0
  0
VERTEX
  5
380
330
1E2
100
AcDbEntity
  8
0
  6
CONTINUOUS
 62
     7
100
AcDbVertex
100
AcDb2dVertex
 10
8.829564339
 20
6.3916143782
 30
0.0
  0
VERTEX
  5
381
330
1E2
100
AcDbEntity
  8
0
  6
CONTINUOUS
 62
     7
100
AcDbVertex
100
AcDb2dVertex
 10
8.8166390625
 20
6.3765860988
 30
0.0
  0
VERTEX
  5
382
330
1E2
100
AcDbEntity
  8
0
  6
CONTINUOUS
 62
     7
100
AcDbVertex
100
AcDb2dVertex
 10
8.8032226978
 20
6.3625160752
 30
0.0
  0
VERTEX
  5
383
330
1E2
100
AcDbEntity
  8
0
  6
CONTINUOUS
 62
     7
100
AcDbVertex
100
AcDb2dVertex
 10
8.7894045286
 20
6.3494979412
 30
0.0
  0
VERTEX
  5
384
330
1E2
100
AcDbEntity
  8
0
  6
CONTINUOUS
 62
     7
100
AcDbVertex
100
AcDb2dVertex
 10
8.7752765125
 20
6.3376183303
 30
0.0
  0
VERTEX
  5
385
330
1E2
100
AcDbEntity
  8
0
  6
CONTINUOUS
 62
     7
100
AcDbVertex
100
AcDb2dVertex
 10
8.7609326692
 20
6.3269562994
 30
0.0
  0
VERTEX
  5
386
330
1E2
100
AcDbEntity
  8
0
  6
CONTINUOUS
 62
     7
100
AcDbVertex
100
AcDb2dVertex
 10
8.7464684545
 20
6.3175828025
 30
0.0
  0
VERTEX
  5
387
330
1E2
100
AcDbEntity
  8
0
  6
CONTINUOUS
 62
     7
100
AcDbVertex
100
AcDb2dVertex
 10
8.7319801253
 20
6.3095602187
 30
0.0
  0
VERTEX
  5
388
330
1E2
100
AcDbEntity
  8
0
  6
CONTINUOUS
 62
     7
100
AcDbVertex
100
AcDb2dVertex
 10
8.7175640993
 20
6.3029419369
 30
0.0
  0
VERTEX
  5
389
330
1E2
100
AcDbEntity
  8
0
  6
CONTINUOUS
 62
     7
100
AcDbVertex
100
AcDb2dVertex
 10
8.7033163125
 20
6.2977720008
 30
0.0
  0
VERTEX
  5
38A
330
1E2
100
AcDbEntity
  8
0
  6
CONTINUOUS
 62
     7
100
AcDbVertex
100
AcDb2dVertex
 10
8.6893315818
 20
6.2940848154
 30
0.0
  0
VERTEX
  5
38B
330
1E2
100
AcDbEntity
  8
0
  6
CONTINUOUS
 62
     7
100
AcDbVertex
100
AcDb2dVertex
 10
8.6757029731
 20
6.2919049183
 30
0.0
  0
VERTEX
  5
38C
330
1E2
100
AcDbEntity
  8
0
  6
CONTINUOUS
 62
     7
100
AcDbVertex
100
AcDb2dVertex
 10
8.6625211826
 20
6.2912468163
 30
0.0
  0
VERTEX
  5
38D
330
1E2
100
AcDbEntity
  8
0
  6
CONTINUOUS
 62
     7
100
AcDbVertex
100
AcDb2dVertex
 10
8.649873933
 20
6.2921148891
 30
0.0
  0
VERTEX
  5
38E
330
1E2
100
AcDbEntity
  8
0
  6
CONTINUOUS
 62
     7
100
AcDbVertex
100
AcDb2dVertex
 10
8.6378453896
 20
6.2945033598
 30
0.0
  0
VERTEX
  5
38F
330
1E2
100
AcDbEntity
  8
0
  6
CONTINUOUS
 62
     7
100
AcDbVertex
100
AcDb2dVertex
 10
8.6265156003
 20
6.2983963334
 30
0.0
  0
VERTEX
  5
390
330
1E2
100
AcDbEntity
  8
0
  6
CONTINUOUS
 62
     7
100
AcDbVertex
100
AcDb2dVertex
 10
8.6159599631
 20
6.3037679029
 30
0.0
  0
VERTEX
  5
391
330
1E2
100
AcDbEntity
  8
0
  6
CONTINUOUS
 62
     7
100
AcDbVertex
100
AcDb2dVertex
 10
8.606248724
 20
6.3105823214
 30
0.0
  0
VERTEX
  5
392
330
1E2
100
AcDbEntity
  8
0
  6
CONTINUOUS
 62
     7
100
AcDbVertex
100
AcDb2dVertex
 10
8.5974465097
 20
6.31879424
 30
0.0
  0
VERTEX
  5
393
330
1E2
100
AcDbEntity
  8
0
  6
CONTINUOUS
 62
     7
100
AcDbVertex
100
AcDb2dVertex
 10
8.5896118975
 20
6.3283490097
 30
0.0
  0
VERTEX
  5
394
330
1E2
100
AcDbEntity
  8
0
  6
CONTINUOUS
 62
     7
100
AcDbVertex
100
AcDb2dVertex
 10
8.5827970253
 20
6.3391830453
 30
0.0
  0
VERTEX
  5
395
330
1E2
100
AcDbEntity
  8
0
  6
CONTINUOUS
 62
     7
100
AcDbVertex
100
AcDb2dVertex
 10
8.5770472451
 20
6.3512242479
 30
0.0
  0
VERTEX
  5
396
330
1E2
100
AcDbEntity
  8
0
  6
CONTINUOUS
 62
     7
100
AcDbVertex
100
AcDb2dVertex
 10
8.5724008208
 20
6.3643924852
 30
0.0
  0
VERTEX
  5
397
330
1E2
100
AcDbEntity
  8
0
  6
CONTINUOUS
 62
     7
100
AcDbVertex
100
AcDb2dVertex
 10
8.5688886734
 20
6.378600125
 30
0.0
  0
VERTEX
  5
398
330
1E2
100
AcDbEntity
  8
0
  6
CONTINUOUS
 62
     7
100
AcDbVertex
100
AcDb2dVertex
 10
8.5665341757
 20
6.3937526176
 30
0.0
  0
VERTEX
  5
399
330
1E2
100
AcDbEntity
  8
0
  6
CONTINUOUS
 62
     7
100
AcDbVertex
100
AcDb2dVertex
 10
8.5653529966
 20
6.4097491258
 30
0.0
  0
VERTEX
  5
39A
330
1E2
100
AcDbEntity
  8
0
  6
CONTINUOUS
 62
     7
100
AcDbVertex
100
AcDb2dVertex
 10
8.5653529966
 20
6.4264831954
 30
0.0
  0
VERTEX
  5
39B
330
1E2
100
AcDbEntity
  8
0
  6
CONTINUOUS
 62
     7
100
AcDbVertex
100
AcDb2dVertex
 10
8.5665341757
 20
6.4438434639
 30
0.0
  0
VERTEX
  5
39C
330
1E2
100
AcDbEntity
  8
0
  6
CONTINUOUS
 62
     7
100
AcDbVertex
100
AcDb2dVertex
 10
8.5688886734
 20
6.4617144017
 30
0.0
  0
VERTEX
  5
39D
330
1E2
100
AcDbEntity
  8
0
  6
CONTINUOUS
 62
     7
100
AcDbVertex
100
AcDb2dVertex
 10
8.5724008208
 20
6.4799770805
 30
0.0
  0
VERTEX
  5
39E
330
1E2
100
AcDbEntity
  8
0
  6
CONTINUOUS
 62
     7
100
AcDbVertex
100
AcDb2dVertex
 10
8.5770472451
 20
6.4985099653
 30
0.0
  0
VERTEX
  5
39F
330
1E2
100
AcDbEntity
  8
0
  6
CONTINUOUS
 62
     7
100
AcDbVertex
100
AcDb2dVertex
 10
8.5827970253
 20
6.5171897228
 30
0.0
  0
VERTEX
  5
3A0
330
1E2
100
AcDbEntity
  8
0
  6
CONTINUOUS
 62
     7
100
AcDbVertex
100
AcDb2dVertex
 10
8.5896118975
 20
6.5358920422
 30
0.0
  0
VERTEX
  5
3A1
330
1E2
100
AcDbEntity
  8
0
  6
CONTINUOUS
 62
     7
100
AcDbVertex
100
AcDb2dVertex
 10
8.5974465097
 20
6.5544924627
 30
0.0
  0
VERTEX
  5
3A2
330
1E2
100
AcDbEntity
  8
0
  6
CONTINUOUS
 62
     7
100
AcDbVertex
100
AcDb2dVertex
 10
8.606248724
 20
6.5728672017
 30
0.0
  0
VERTEX
  5
3A3
330
1E2
100
AcDbEntity
  8
0
  6
CONTINUOUS
 62
     7
100
AcDbVertex
100
AcDb2dVertex
 10
8.6159599631
 20
6.5908939781
 30
0.0
  0
VERTEX
  5
3A4
330
1E2
100
AcDbEntity
  8
0
  6
CONTINUOUS
 62
     7
100
AcDbVertex
100
AcDb2dVertex
 10
8.6265156003
 20
6.6084528269
 30
0.0
  0
VERTEX
  5
3A5
330
1E2
100
AcDbEntity
  8
0
  6
CONTINUOUS
 62
     7
100
AcDbVertex
100
AcDb2dVertex
 10
8.6378453896
 20
6.6254268967
 30
0.0
  0
VERTEX
  5
3A6
330
1E2
100
AcDbEntity
  8
0
  6
CONTINUOUS
 62
     7
100
AcDbVertex
100
AcDb2dVertex
 10
8.649873933
 20
6.641703228
 30
0.0
  0
VERTEX
  5
3A7
330
1E2
100
AcDbEntity
  8
0
  6
CONTINUOUS
 62
     7
100
AcDbVertex
100
AcDb2dVertex
 10
8.6625211826
 20
6.6571735044
 30
0.0
  0
VERTEX
  5
3A8
330
1E2
100
AcDbEntity
  8
0
  6
CONTINUOUS
 62
     7
100
AcDbVertex
100
AcDb2dVertex
 10
8.6757029731
 20
6.6717347738
 30
0.0
  0
VERTEX
  5
3A9
330
1E2
100
AcDbEntity
  8
0
  6
CONTINUOUS
 62
     7
100
AcDbVertex
100
AcDb2dVertex
 10
8.6893315818
 20
6.6852901334
 30
0.0
  0
VERTEX
  5
3AA
330
1E2
100
AcDbEntity
  8
0
  6
CONTINUOUS
 62
     7
100
AcDbVertex
100
AcDb2dVertex
 10
8.7033163125
 20
6.6977493744
 30
0.0
  0
VERTEX
  5
3AB
330
1E2
100
AcDbEntity
  8
0
  6
CONTINUOUS
 62
     7
100
AcDbVertex
100
AcDb2dVertex
 10
8.7175640993
 20
6.7090295827
 30
0.0
  0
VERTEX
  5
3AC
330
1E2
100
AcDbEntity
  8
0
  6
CONTINUOUS
 62
     7
100
AcDbVertex
100
AcDb2dVertex
 10
8.7319801253
 20
6.7190556904
 30
0.0
  0
VERTEX
  5
3AD
330
1E2
100
AcDbEntity
  8
0
  6
CONTINUOUS
 62
     7
100
AcDbVertex
100
AcDb2dVertex
 10
8.7464684545
 20
6.7277609753
 30
0.0
  0
VERTEX
  5
3AE
330
1E2
100
AcDbEntity
  8
0
  6
CONTINUOUS
 62
     7
100
AcDbVertex
100
AcDb2dVertex
 10
8.7609326692
 20
6.7350875052
 30
0.0
  0
VERTEX
  5
3AF
330
1E2
100
AcDbEntity
  8
0
  6
CONTINUOUS
 62
     7
100
AcDbVertex
100
AcDb2dVertex
 10
8.7752765125
 20
6.7409865233
 30
0.0
  0
VERTEX
  5
3B0
330
1E2
100
AcDbEntity
  8
0
  6
CONTINUOUS
 62
     7
100
AcDbVertex
100
AcDb2dVertex
 10
8.7894045286
 20
6.7454187726
 30
0.0
  0
VERTEX
  5
3B1
330
1E2
100
AcDbEntity
  8
0
  6
CONTINUOUS
 62
     7
100
AcDbVertex
100
AcDb2dVertex
 10
8.8032226978
 20
6.7483547572
 30
0.0
  0
VERTEX
  5
3B2
330
1E2
100
AcDbEntity
  8
0
  6
CONTINUOUS
 62
     7
100
AcDbVertex
100
AcDb2dVertex
 10
8.8166390625
 20
6.7497749386
 30
0.0
  0
VERTEX
  5
3B3
330
1E2
100
AcDbEntity
  8
0
  6
CONTINUOUS
 62
     7
100
AcDbVertex
100
AcDb2dVertex
 10
8.829564339
 20
6.7496698657
 30
0.0
  0
VERTEX
  5
3B4
330
1E2
100
AcDbEntity
  8
0
  6
CONTINUOUS
 62
     7
100
AcDbVertex
100
AcDb2dVertex
 10
8.8419125117
 20
6.7480402378
 30
0.0
  0
VERTEX
  5
3B5
330
1E2
100
AcDbEntity
  8
0
  6
CONTINUOUS
 62
     7
100
AcDbVertex
100
AcDb2dVertex
 10
8.8536014055
 20
6.7448968998
 30
0.0
  0
VERTEX
  5
3B6
330
1E2
100
AcDbEntity
  8
0
  6
CONTINUOUS
 62
     7
100
AcDbVertex
100
AcDb2dVertex
 10
8.8645532329
 20
6.74026077
 30
0.0
  0
VERTEX
  5
3B7
330
1E2
100
AcDbEntity
  8
0
  6
CONTINUOUS
 62
     7
100
AcDbVertex
100
AcDb2dVertex
 10
8.8746951111
 20
6.7341627012
 30
0.0
  0
VERTEX
  5
3B8
330
1E2
100
AcDbEntity
  8
0
  6
CONTINUOUS
 62
     7
100
AcDbVertex
100
AcDb2dVertex
 10
8.8839595477
 20
6.726643275
 30
0.0
  0
VERTEX
  5
3B9
330
1E2
100
AcDbEntity
  8
0
  6
CONTINUOUS
 62
     7
100
AcDbVertex
100
AcDb2dVertex
 10
8.8922848893
 20
6.717752532
 30
0.0
  0
VERTEX
  5
3BA
330
1E2
100
AcDbEntity
  8
0
  6
CONTINUOUS
 62
     7
100
AcDbVertex
100
AcDb2dVertex
 10
8.8996157322
 20
6.7075496384
 30
0.0
  0
VERTEX
  5
3BB
330
1E2
100
AcDbEntity
  8
0
  6
CONTINUOUS
 62
     7
100
AcDbVertex
100
AcDb2dVertex
 10
8.9059032909
 20
6.6961024931
 30
0.0
  0
VERTEX
  5
3BC
330
1E2
100
AcDbEntity
  8
0
  6
CONTINUOUS
 62
     7
100
AcDbVertex
100
AcDb2dVertex
 10
8.9111057226
 20
6.6834872747
 30
0.0
  0
VERTEX
  5
3BD
330
1E2
100
AcDbEntity
  8
0
  6
CONTINUOUS
 62
     7
100
AcDbVertex
100
AcDb2dVertex
 10
8.9151884061
 20
6.6697879355
 30
0.0
  0
VERTEX
  5
3BE
330
1E2
100
AcDbEntity
  8
0
  6
CONTINUOUS
 62
     7
100
AcDbVertex
100
AcDb2dVertex
 10
8.9181241718
 20
6.6550956424
 30
0.0
  0
VERTEX
  5
3BF
330
1E2
100
AcDbEntity
  8
0
  6
CONTINUOUS
 62
     7
100
AcDbVertex
100
AcDb2dVertex
 10
8.9198934826
 20
6.6395081701
 30
0.0
  0
VERTEX
  5
3C0
330
1E2
100
AcDbEntity
  8
0
  6
CONTINUOUS
 62
     7
100
AcDbVertex
100
AcDb2dVertex
 10
8.920484564
 20
6.6231292506
 30
0.0
  0
SEQEND
  5
3C1
330
1E2
100
AcDbEntity
  8
0
  6
CONTINUOUS
 62
     7
  0
ARC
  5
1E3
330
1F
100
AcDbEntity
  8
0
  6
CONTINUOUS
 62
     7
100
AcDbCircle
 10
8.7979787518
 20
6.6396275642
 30
0.0
 40
0.1026274181328421
100
AcDbArc
 50
350.7490276438
 51
126.1546795993
  0
POLYLINE
  5
1E4
330
1F
100
AcDbEntity
  8
0
  6
CONTINUOUS
 62
     7
100
AcDb2dPolyline
 66
     1
 10
0.0
 20
0.0
 30
0.0
  0
VERTEX
  5
3C2
330
1E4
100
AcDbEntity
  8
0
  6
CONTINUOUS
 62
     7
100
AcDbVertex
100
AcDb2dVertex
 10
8.565286776
 20
6.4242952501
 30
0.0
  0
VERTEX
  5
3C3
330
1E4
100
AcDbEntity
  8
0
  6
CONTINUOUS
 62
     7
100
AcDbVertex
100
AcDb2dVertex
 10
8.5653516812
 20
6.4222843937
 30
0.0
  0
VERTEX
  5
3C4
330
1E4
100
AcDbEntity
  8
0
  6
CONTINUOUS
 62
     7
100
AcDbVertex
100
AcDb2dVertex
 10
8.5665222706
 20
6.4068625574
 30
0.0
  0
VERTEX
  5
3C5
330
1E4
100
AcDbEntity
  8
0
  6
CONTINUOUS
 62
     7
100
AcDbVertex
100
AcDb2dVertex
 10
8.5688552387
 20
6.3922813165
 30
0.0
  0
VERTEX
  5
3C6
330
1E4
100
AcDbEntity
  8
0
  6
CONTINUOUS
 62
     7
100
AcDbVertex
100
AcDb2dVertex
 10
8.5723342213
 20
6.3786429477
 30
0.0
  0
VERTEX
  5
3C7
330
1E4
100
AcDbEntity
  8
0
  6
CONTINUOUS
 62
     7
100
AcDbVertex
100
AcDb2dVertex
 10
8.5769348159
 20
6.3660431145
 30
0.0
  0
VERTEX
  5
3C8
330
1E4
100
AcDbEntity
  8
0
  6
CONTINUOUS
 62
     7
100
AcDbVertex
100
AcDb2dVertex
 10
8.5826247525
 20
6.3545701956
 30
0.0
  0
VERTEX
  5
3C9
330
1E4
100
AcDbEntity
  8
0
  6
CONTINUOUS
 62
     7
100
AcDbVertex
100
AcDb2dVertex
 10
8.5893641205
 20
6.3443046654
 30
0.0
  0
VERTEX
  5
3CA
330
1E4
100
AcDbEntity
  8
0
  6
CONTINUOUS
 62
     7
100
AcDbVertex
100
AcDb2dVertex
 10
8.5971056478
 20
6.335318529
 30
0.0
  0
VERTEX
  5
3CB
330
1E4
100
AcDbEntity
  8
0
  6
CONTINUOUS
 62
     7
100
AcDbVertex
100
AcDb2dVertex
 10
8.6057950334
 20
6.3276748179
 30
0.0
  0
VERTEX
  5
3CC
330
1E4
100
AcDbEntity
  8
0
  6
CONTINUOUS
 62
     7
100
AcDbVertex
100
AcDb2dVertex
 10
8.6153713274
 20
6.3214271472
 30
0.0
  0
VERTEX
  5
3CD
330
1E4
100
AcDbEntity
  8
0
  6
CONTINUOUS
 62
     7
100
AcDbVertex
100
AcDb2dVertex
 10
8.625767359
 20
6.3166193398
 30
0.0
  0
VERTEX
  5
3CE
330
1E4
100
AcDbEntity
  8
0
  6
CONTINUOUS
 62
     7
100
AcDbVertex
100
AcDb2dVertex
 10
8.6369102075
 20
6.3132851189
 30
0.0
  0
VERTEX
  5
3CF
330
1E4
100
AcDbEntity
  8
0
  6
CONTINUOUS
 62
     7
100
AcDbVertex
100
AcDb2dVertex
 10
8.6487217137
 20
6.3114478719
 30
0.0
  0
VERTEX
  5
3D0
330
1E4
100
AcDbEntity
  8
0
  6
CONTINUOUS
 62
     7
100
AcDbVertex
100
AcDb2dVertex
 10
8.6611190286
 20
6.3111204855
 30
0.0
  0
VERTEX
  5
3D1
330
1E4
100
AcDbEntity
  8
0
  6
CONTINUOUS
 62
     7
100
AcDbVertex
100
AcDb2dVertex
 10
8.6740151938
 20
6.3123052563
 30
0.0
  0
VERTEX
  5
3D2
330
1E4
100
AcDbEntity
  8
0
  6
CONTINUOUS
 62
     7
100
AcDbVertex
100
AcDb2dVertex
 10
8.687319752
 20
6.3149938739
 30
0.0
  0
VERTEX
  5
3D3
330
1E4
100
AcDbEntity
  8
0
  6
CONTINUOUS
 62
     7
100
AcDbVertex
100
AcDb2dVertex
 10
8.7009393812
 20
6.3191674795
 30
0.0
  0
VERTEX
  5
3D4
330
1E4
100
AcDbEntity
  8
0
  6
CONTINUOUS
 62
     7
100
AcDbVertex
100
AcDb2dVertex
 10
8.7147785496
 20
6.3247967984
 30
0.0
  0
VERTEX
  5
3D5
330
1E4
100
AcDbEntity
  8
0
  6
CONTINUOUS
 62
     7
100
AcDbVertex
100
AcDb2dVertex
 10
8.7287401854
 20
6.3318423449
 30
0.0
  0
VERTEX
  5
3D6
330
1E4
100
AcDbEntity
  8
0
  6
CONTINUOUS
 62
     7
100
AcDbVertex
100
AcDb2dVertex
 10
8.7427263577
 20
6.3402546996
 30
0.0
  0
VERTEX
  5
3D7
330
1E4
100
AcDbEntity
  8
0
  6
CONTINUOUS
 62
     7
100
AcDbVertex
100
AcDb2dVertex
 10
8.7566389635
 20
6.3499748557
 30
0.0
  0
VERTEX
  5
3D8
330
1E4
100
AcDbEntity
  8
0
  6
CONTINUOUS
 62
     7
100
AcDbVertex
100
AcDb2dVertex
 10
8.7703804159
 20
6.3609346336
 30
0.0
  0
VERTEX
  5
3D9
330
1E4
100
AcDbEntity
  8
0
  6
CONTINUOUS
 62
     7
100
AcDbVertex
100
AcDb2dVertex
 10
8.7838543286
 20
6.373057158
 30
0.0
  0
VERTEX
  5
3DA
330
1E4
100
AcDbEntity
  8
0
  6
CONTINUOUS
 62
     7
100
AcDbVertex
100
AcDb2dVertex
 10
8.7969661916
 20
6.3862573984
 30
0.0
  0
VERTEX
  5
3DB
330
1E4
100
AcDbEntity
  8
0
  6
CONTINUOUS
 62
     7
100
AcDbVertex
100
AcDb2dVertex
 10
8.8096240347
 20
6.4004427643
 30
0.0
  0
VERTEX
  5
3DC
330
1E4
100
AcDbEntity
  8
0
  6
CONTINUOUS
 62
     7
100
AcDbVertex
100
AcDb2dVertex
 10
8.8217390722
 20
6.4155137558
 30
0.0
  0
VERTEX
  5
3DD
330
1E4
100
AcDbEntity
  8
0
  6
CONTINUOUS
 62
     7
100
AcDbVertex
100
AcDb2dVertex
 10
8.8332263258
 20
6.4313646607
 30
0.0
  0
VERTEX
  5
3DE
330
1E4
100
AcDbEntity
  8
0
  6
CONTINUOUS
 62
     7
100
AcDbVertex
100
AcDb2dVertex
 10
8.8440052208
 20
6.4478842961
 30
0.0
  0
VERTEX
  5
3DF
330
1E4
100
AcDbEntity
  8
0
  6
CONTINUOUS
 62
     7
100
AcDbVertex
100
AcDb2dVertex
 10
8.8540001508
 20
6.4649567888
 30
0.0
  0
VERTEX
  5
3E0
330
1E4
100
AcDbEntity
  8
0
  6
CONTINUOUS
 62
     7
100
AcDbVertex
100
AcDb2dVertex
 10
8.8631410087
 20
6.4824623875
 30
0.0
  0
VERTEX
  5
3E1
330
1E4
100
AcDbEntity
  8
0
  6
CONTINUOUS
 62
     7
100
AcDbVertex
100
AcDb2dVertex
 10
8.8713636778
 20
6.5002783029
 30
0.0
  0
VERTEX
  5
3E2
330
1E4
100
AcDbEntity
  8
0
  6
CONTINUOUS
 62
     7
100
AcDbVertex
100
AcDb2dVertex
 10
8.8786104822
 20
6.5182795693
 30
0.0
  0
VERTEX
  5
3E3
330
1E4
100
AcDbEntity
  8
0
  6
CONTINUOUS
 62
     7
100
AcDbVertex
100
AcDb2dVertex
 10
8.8848305906
 20
6.5363399207
 30
0.0
  0
VERTEX
  5
3E4
330
1E4
100
AcDbEntity
  8
0
  6
CONTINUOUS
 62
     7
100
AcDbVertex
100
AcDb2dVertex
 10
8.8899803734
 20
6.5543326766
 30
0.0
  0
VERTEX
  5
3E5
330
1E4
100
AcDbEntity
  8
0
  6
CONTINUOUS
 62
     7
100
AcDbVertex
100
AcDb2dVertex
 10
8.8940237087
 20
6.5721316309
 30
0.0
  0
VERTEX
  5
3E6
330
1E4
100
AcDbEntity
  8
0
  6
CONTINUOUS
 62
     7
100
AcDbVertex
100
AcDb2dVertex
 10
8.8969322353
 20
6.5896119367
 30
0.0
  0
VERTEX
  5
3E7
330
1E4
100
AcDbEntity
  8
0
  6
CONTINUOUS
 62
     7
100
AcDbVertex
100
AcDb2dVertex
 10
8.898685552
 20
6.6066509822
 30
0.0
  0
VERTEX
  5
3E8
330
1E4
100
AcDbEntity
  8
0
  6
CONTINUOUS
 62
     7
100
AcDbVertex
100
AcDb2dVertex
 10
8.8992713606
 20
6.6231292506
 30
0.0
  0
SEQEND
  5
3E9
330
1E4
100
AcDbEntity
  8
0
  6
CONTINUOUS
 62
     7
  0
SPLINE
  5
1E5
330
1F
100
AcDbEntity
  8
0
  6
CONTINUOUS
 62
     7
100
AcDbSpline
210
0.0
220
0.0
230
1.0
 70
     8
 71
     3
 72
    14
 73
    10
 74
     0
 42
0.00000001
 43
0.00000001
 40
0.0
 40
0.0
 40
0.0
 40
0.0
 40
0.000072883933682
 40
0.239221329405467
 40
0.4527577988683879
 40
0.6407219562097402
 40
0.8031914749938173
 40
0.9657857081152432
 40
1.0
 40
1.0
 40
1.0
 40
1.0
 10
8.385716858491573
 20
7.183448867879751
 30
0.0
 10
8.385716642465562
 20
7.183447675146935
 30
0.0
 10
8.385007596906286
 20
7.179532859968281
 30
0.0
 10
8.387368780566536
 20
7.171959879200577
 30
0.0
 10
8.39249329004819
 20
7.162117310174803
 30
0.0
 10
8.399943860220223
 20
7.154312759087368
 30
0.0
 10
8.408580528757604
 20
7.148394302218459
 30
0.0
 10
8.415394685357025
 20
7.144810225069177
 30
0.0
 10
8.419771199403469
 20
7.143549709302044
 30
0.0
 10
8.420532037019715
 20
7.14333057420929
 30
0.0
  0
SPLINE
  5
1E6
330
1F
100
AcDbEntity
  8
0
  6
CONTINUOUS
 62
     7
100
AcDbSpline
210
0.0
220
0.0
230
1.0
 70
     8
 71
     3
 72
    12
 73
     8
 74
     0
 42
0.00000001
 43
0.00000001
 40
0.0
 40
0.0
 40
0.0
 40
0.0
 40
0.1242760412049633
 40
0.3023949450783472
 40
0.5077328673362818
 40
0.7403758645170193
 40
1.0
 40
1.0
 40
1.0
 40
1.0
 10
8.513451484110831
 20
7.15068478693912
 30
0.0
 10
8.515734541237778
 20
7.151800413162722
 30
0.0
 10
8.521289794911942
 20
7.154515013075489
 30
0.0
 10
8.528953796635966
 20
7.159663117048191
 30
0.0
 10
8.536360998919951
 20
7.166344004087098
 30
0.0
 10
8.542012049716373
 20
7.174469274301856
 30
0.0
 10
8.542785550759467
 20
7.180348355815272
 30
0.0
 10
8.543193499058843
 20
7.183449012662083
 30
0.0
  0
ARC
  5
1E7
330
1F
100
AcDbEntity
  8
0
  6
CONTINUOUS
 62
     7
100
AcDbCircle
 10
8.108807726
 20
6.8866018839
 30
0.0
 40
0.9431008855911461
100
AcDbArc
 50
122.5503389866
 51
177.4550375461
  0
SPLINE
  5
1E8
330
1F
100
AcDbEntity
  8
0
  6
CONTINUOUS
 62
     7
100
AcDbSpline
210
0.0
220
0.0
230
1.0
 70
     8
 71
     3
 72
    13
 73
     9
 74
     0
 42
0.00000001
 43
0.00000001
 40
0.0
 40
0.0
 40
0.0
 40
0.0
 40
0.0000759530388426
 40
0.2492948172119369
 40
0.471823198168363
 40
0.6677024300214205
 40
0.83701345712946
 40
1.0
 40
1.0
 40
1.0
 40
1.0
 10
7.801101015778287
 20
7.520940410168667
 30
0.0
 10
7.801100799752206
 20
7.520939217435775
 30
0.0
 10
7.800391753962261
 20
7.51702440200736
 30
0.0
 10
7.802757237933599
 20
7.509456070582826
 30
0.0
 10
7.807864793691753
 20
7.499595171796987
 30
0.0
 10
7.815366636656876
 20
7.491846055020853
 30
0.0
 10
7.823739319274128
 20
7.485826368714939
 30
0.0
 10
7.83014749005897
 20
7.483039565068029
 30
0.0
 10
7.833290593399788
 20
7.481672683293667
 30
0.0
  0
SPLINE
  5
1E9
330
1F
100
AcDbEntity
  8
0
  6
CONTINUOUS
 62
     7
100
AcDbSpline
210
0.0
220
0.0
230
1.0
 70
     8
 71
     3
 72
    12
 73
     8
 74
     0
 42
0.00000001
 43
0.00000001
 40
0.0
 40
0.0
 40
0.0
 40
0.0
 40
0.1242760412071756
 40
0.3023949450845093
 40
0.5077328673433829
 40
0.7403758645220592
 40
1.0
 40
1.0
 40
1.0
 40
1.0
 10
7.928835641397396
 20
7.488176329227979
 30
0.0
 10
7.931118698524396
 20
7.489291955451598
 30
0.0
 10
7.936673952198699
 20
7.492006555364414
 30
0.0
 10
7.94433795392283
 20
7.497154659337221
 30
0.0
 10
7.951745156206812
 20
7.503835546376203
 30
0.0
 10
7.957396207003123
 20
7.51196081659092
 30
0.0
 10
7.958169708046194
 20
7.517839898104247
 30
0.0
 10
7.958577656345556
 20
7.520940554950999
 30
0.0
  0
POLYLINE
  5
1EA
330
1F
100
AcDbEntity
  8
0
  6
CONTINUOUS
 62
     7
100
AcDb2dPolyline
 66
     1
 10
0.0
 20
0.0
 30
0.0
  0
VERTEX
  5
3EA
330
1EA
100
AcDbEntity
  8
0
  6
CONTINUOUS
 62
     7
100
AcDbVertex
100
AcDb2dVertex
 10
8.5201431142
 20
7.21961813
 30
0.0
  0
VERTEX
  5
3EB
330
1EA
100
AcDbEntity
  8
0
  6
CONTINUOUS
 62
     7
100
AcDbVertex
100
AcDb2dVertex
 10
8.5221303839
 20
7.2184280172
 30
0.0
  0
VERTEX
  5
3EC
330
1EA
100
AcDbEntity
  8
0
  6
CONTINUOUS
 62
     7
100
AcDbVertex
100
AcDb2dVertex
 10
8.5293210283
 20
7.2132505112
 30
0.0
  0
VERTEX
  5
3ED
330
1EA
100
AcDbEntity
  8
0
  6
CONTINUOUS
 62
     7
100
AcDbVertex
100
AcDb2dVertex
 10
8.5351291951
 20
7.2075237793
 30
0.0
  0
VERTEX
  5
3EE
330
1EA
100
AcDbEntity
  8
0
  6
CONTINUOUS
 62
     7
100
AcDbVertex
100
AcDb2dVertex
 10
8.5394310932
 20
7.2013698768
 30
0.0
  0
VERTEX
  5
3EF
330
1EA
100
AcDbEntity
  8
0
  6
CONTINUOUS
 62
     7
100
AcDbVertex
100
AcDb2dVertex
 10
8.5421350352
 20
7.1949199635
 30
0.0
  0
VERTEX
  5
3F0
330
1EA
100
AcDbEntity
  8
0
  6
CONTINUOUS
 62
     7
100
AcDbVertex
100
AcDb2dVertex
 10
8.5431833914
 20
7.1883115079
 30
0.0
  0
VERTEX
  5
3F1
330
1EA
100
AcDbEntity
  8
0
  6
CONTINUOUS
 62
     7
100
AcDbVertex
100
AcDb2dVertex
 10
8.5425538176
 20
7.181685358
 30
0.0
  0
VERTEX
  5
3F2
330
1EA
100
AcDbEntity
  8
0
  6
CONTINUOUS
 62
     7
100
AcDbVertex
100
AcDb2dVertex
 10
8.5402597324
 20
7.1751827385
 30
0.0
  0
VERTEX
  5
3F3
330
1EA
100
AcDbEntity
  8
0
  6
CONTINUOUS
 62
     7
100
AcDbVertex
100
AcDb2dVertex
 10
8.53635003
 20
7.1689422416
 30
0.0
  0
VERTEX
  5
3F4
330
1EA
100
AcDbEntity
  8
0
  6
CONTINUOUS
 62
     7
100
AcDbVertex
100
AcDb2dVertex
 10
8.530908039
 20
7.1630968726
 30
0.0
  0
VERTEX
  5
3F5
330
1EA
100
AcDbEntity
  8
0
  6
CONTINUOUS
 62
     7
100
AcDbVertex
100
AcDb2dVertex
 10
8.5240497461
 20
7.1577712153
 30
0.0
  0
VERTEX
  5
3F6
330
1EA
100
AcDbEntity
  8
0
  6
CONTINUOUS
 62
     7
100
AcDbVertex
100
AcDb2dVertex
 10
8.5159213237
 20
7.153078777
 30
0.0
  0
VERTEX
  5
3F7
330
1EA
100
AcDbEntity
  8
0
  6
CONTINUOUS
 62
     7
100
AcDbVertex
100
AcDb2dVertex
 10
8.5066960151
 20
7.1491195687
 30
0.0
  0
VERTEX
  5
3F8
330
1EA
100
AcDbEntity
  8
0
  6
CONTINUOUS
 62
     7
100
AcDbVertex
100
AcDb2dVertex
 10
8.4965704419
 20
7.1459779742
 30
0.0
  0
VERTEX
  5
3F9
330
1EA
100
AcDbEntity
  8
0
  6
CONTINUOUS
 62
     7
100
AcDbVertex
100
AcDb2dVertex
 10
8.4857604128
 20
7.1437209511
 30
0.0
  0
VERTEX
  5
3FA
330
1EA
100
AcDbEntity
  8
0
  6
CONTINUOUS
 62
     7
100
AcDbVertex
100
AcDb2dVertex
 10
8.4744963251
 20
7.1423966038
 30
0.0
  0
VERTEX
  5
3FB
330
1EA
100
AcDbEntity
  8
0
  6
CONTINUOUS
 62
     7
100
AcDbVertex
100
AcDb2dVertex
 10
8.4630182531
 20
7.1420331587
 30
0.0
  0
VERTEX
  5
3FC
330
1EA
100
AcDbEntity
  8
0
  6
CONTINUOUS
 62
     7
100
AcDbVertex
100
AcDb2dVertex
 10
8.451570832
 20
7.1426383618
 30
0.0
  0
VERTEX
  5
3FD
330
1EA
100
AcDbEntity
  8
0
  6
CONTINUOUS
 62
     7
100
AcDbVertex
100
AcDb2dVertex
 10
8.4403980437
 20
7.1441993143
 30
0.0
  0
VERTEX
  5
3FE
330
1EA
100
AcDbEntity
  8
0
  6
CONTINUOUS
 62
     7
100
AcDbVertex
100
AcDb2dVertex
 10
8.4297380169
 20
7.1466827472
 30
0.0
  0
VERTEX
  5
3FF
330
1EA
100
AcDbEntity
  8
0
  6
CONTINUOUS
 62
     7
100
AcDbVertex
100
AcDb2dVertex
 10
8.4198179514
 20
7.1500357305
 30
0.0
  0
VERTEX
  5
400
330
1EA
100
AcDbEntity
  8
0
  6
CONTINUOUS
 62
     7
100
AcDbVertex
100
AcDb2dVertex
 10
8.4108492763
 20
7.1541868011
 30
0.0
  0
VERTEX
  5
401
330
1EA
100
AcDbEntity
  8
0
  6
CONTINUOUS
 62
     7
100
AcDbVertex
100
AcDb2dVertex
 10
8.4030231432
 20
7.1590474863
 30
0.0
  0
VERTEX
  5
402
330
1EA
100
AcDbEntity
  8
0
  6
CONTINUOUS
 62
     7
100
AcDbVertex
100
AcDb2dVertex
 10
8.3965063527
 20
7.1645141888
 30
0.0
  0
VERTEX
  5
403
330
1EA
100
AcDbEntity
  8
0
  6
CONTINUOUS
 62
     7
100
AcDbVertex
100
AcDb2dVertex
 10
8.3914377988
 20
7.1704703955
 30
0.0
  0
VERTEX
  5
404
330
1EA
100
AcDbEntity
  8
0
  6
CONTINUOUS
 62
     7
100
AcDbVertex
100
AcDb2dVertex
 10
8.3879255089
 20
7.1767891601
 30
0.0
  0
VERTEX
  5
405
330
1EA
100
AcDbEntity
  8
0
  6
CONTINUOUS
 62
     7
100
AcDbVertex
100
AcDb2dVertex
 10
8.3860443414
 20
7.1833358091
 30
0.0
  0
VERTEX
  5
406
330
1EA
100
AcDbEntity
  8
0
  6
CONTINUOUS
 62
     7
100
AcDbVertex
100
AcDb2dVertex
 10
8.3858343901
 20
7.1899708122
 30
0.0
  0
VERTEX
  5
407
330
1EA
100
AcDbEntity
  8
0
  6
CONTINUOUS
 62
     7
100
AcDbVertex
100
AcDb2dVertex
 10
8.3873001298
 20
7.1965527556
 30
0.0
  0
VERTEX
  5
408
330
1EA
100
AcDbEntity
  8
0
  6
CONTINUOUS
 62
     7
100
AcDbVertex
100
AcDb2dVertex
 10
8.3904103207
 20
7.2029413568
 30
0.0
  0
VERTEX
  5
409
330
1EA
100
AcDbEntity
  8
0
  6
CONTINUOUS
 62
     7
100
AcDbVertex
100
AcDb2dVertex
 10
8.3950986746
 20
7.2090004537
 30
0.0
  0
VERTEX
  5
40A
330
1EA
100
AcDbEntity
  8
0
  6
CONTINUOUS
 62
     7
100
AcDbVertex
100
AcDb2dVertex
 10
8.4012652673
 20
7.2146009073
 30
0.0
  0
VERTEX
  5
40B
330
1EA
100
AcDbEntity
  8
0
  6
CONTINUOUS
 62
     7
100
AcDbVertex
100
AcDb2dVertex
 10
8.4087786686
 20
7.2196233536
 30
0.0
  0
VERTEX
  5
40C
330
1EA
100
AcDbEntity
  8
0
  6
CONTINUOUS
 62
     7
100
AcDbVertex
100
AcDb2dVertex
 10
8.4087786686
 20
7.2196233536
 30
0.0
  0
SEQEND
  5
40D
330
1EA
100
AcDbEntity
  8
0
  6
CONTINUOUS
 62
     7
  0
POLYLINE
  5
1EB
330
1F
100
AcDbEntity
  8
0
  6
CONTINUOUS
 62
     7
100
AcDb2dPolyline
 66
     1
 10
0.0
 20
0.0
 30
0.0
  0
VERTEX
  5
40E
330
1EB
100
AcDbEntity
  8
0
  6
CONTINUOUS
 62
     7
100
AcDbVertex
100
AcDb2dVertex
 10
8.4158497364
 20
7.2237067211
 30
0.0
  0
VERTEX
  5
40F
330
1EB
100
AcDbEntity
  8
0
  6
CONTINUOUS
 62
     7
100
AcDbVertex
100
AcDb2dVertex
 10
8.4088444123
 20
7.218971703
 30
0.0
  0
VERTEX
  5
410
330
1EB
100
AcDbEntity
  8
0
  6
CONTINUOUS
 62
     7
100
AcDbVertex
100
AcDb2dVertex
 10
8.4032084391
 20
7.2136623461
 30
0.0
  0
VERTEX
  5
411
330
1EB
100
AcDbEntity
  8
0
  6
CONTINUOUS
 62
     7
100
AcDbVertex
100
AcDb2dVertex
 10
8.3990805932
 20
7.2079093845
 30
0.0
  0
VERTEX
  5
412
330
1EB
100
AcDbEntity
  8
0
  6
CONTINUOUS
 62
     7
100
AcDbVertex
100
AcDb2dVertex
 10
8.3965625158
 20
7.2018544752
 30
0.0
  0
VERTEX
  5
413
330
1EB
100
AcDbEntity
  8
0
  6
CONTINUOUS
 62
     7
100
AcDbVertex
100
AcDb2dVertex
 10
8.3957162104
 20
7.19564671
 30
0.0
  0
VERTEX
  5
414
330
1EB
100
AcDbEntity
  8
0
  6
CONTINUOUS
 62
     7
100
AcDbVertex
100
AcDb2dVertex
 10
8.3965625158
 20
7.1894389449
 30
0.0
  0
VERTEX
  5
415
330
1EB
100
AcDbEntity
  8
0
  6
CONTINUOUS
 62
     7
100
AcDbVertex
100
AcDb2dVertex
 10
8.3990805932
 20
7.1833840355
 30
0.0
  0
VERTEX
  5
416
330
1EB
100
AcDbEntity
  8
0
  6
CONTINUOUS
 62
     7
100
AcDbVertex
100
AcDb2dVertex
 10
8.4032084391
 20
7.1776310739
 30
0.0
  0
VERTEX
  5
417
330
1EB
100
AcDbEntity
  8
0
  6
CONTINUOUS
 62
     7
100
AcDbVertex
100
AcDb2dVertex
 10
8.4088444123
 20
7.1723217171
 30
0.0
  0
VERTEX
  5
418
330
1EB
100
AcDbEntity
  8
0
  6
CONTINUOUS
 62
     7
100
AcDbVertex
100
AcDb2dVertex
 10
8.4158497364
 20
7.1675866989
 30
0.0
  0
VERTEX
  5
419
330
1EB
100
AcDbEntity
  8
0
  6
CONTINUOUS
 62
     7
100
AcDbVertex
100
AcDb2dVertex
 10
8.4240519171
 20
7.1635426114
 30
0.0
  0
VERTEX
  5
41A
330
1EB
100
AcDbEntity
  8
0
  6
CONTINUOUS
 62
     7
100
AcDbVertex
100
AcDb2dVertex
 10
8.4332489894
 20
7.1602890334
 30
0.0
  0
VERTEX
  5
41B
330
1EB
100
AcDbEntity
  8
0
  6
CONTINUOUS
 62
     7
100
AcDbVertex
100
AcDb2dVertex
 10
8.443214491
 20
7.1579060786
 30
0.0
  0
VERTEX
  5
41C
330
1EB
100
AcDbEntity
  8
0
  6
CONTINUOUS
 62
     7
100
AcDbVertex
100
AcDb2dVertex
 10
8.4537030381
 20
7.1564524235
 30
0.0
  0
VERTEX
  5
41D
330
1EB
100
AcDbEntity
  8
0
  6
CONTINUOUS
 62
     7
100
AcDbVertex
100
AcDb2dVertex
 10
8.4644563679
 20
7.1559638618
 30
0.0
  0
VERTEX
  5
41E
330
1EB
100
AcDbEntity
  8
0
  6
CONTINUOUS
 62
     7
100
AcDbVertex
100
AcDb2dVertex
 10
8.4752096976
 20
7.1564524235
 30
0.0
  0
VERTEX
  5
41F
330
1EB
100
AcDbEntity
  8
0
  6
CONTINUOUS
 62
     7
100
AcDbVertex
100
AcDb2dVertex
 10
8.4856982447
 20
7.1579060786
 30
0.0
  0
VERTEX
  5
420
330
1EB
100
AcDbEntity
  8
0
  6
CONTINUOUS
 62
     7
100
AcDbVertex
100
AcDb2dVertex
 10
8.4956637463
 20
7.1602890334
 30
0.0
  0
VERTEX
  5
421
330
1EB
100
AcDbEntity
  8
0
  6
CONTINUOUS
 62
     7
100
AcDbVertex
100
AcDb2dVertex
 10
8.5048608187
 20
7.1635426114
 30
0.0
  0
VERTEX
  5
422
330
1EB
100
AcDbEntity
  8
0
  6
CONTINUOUS
 62
     7
100
AcDbVertex
100
AcDb2dVertex
 10
8.5130629994
 20
7.1675866989
 30
0.0
  0
VERTEX
  5
423
330
1EB
100
AcDbEntity
  8
0
  6
CONTINUOUS
 62
     7
100
AcDbVertex
100
AcDb2dVertex
 10
8.5200683235
 20
7.1723217171
 30
0.0
  0
VERTEX
  5
424
330
1EB
100
AcDbEntity
  8
0
  6
CONTINUOUS
 62
     7
100
AcDbVertex
100
AcDb2dVertex
 10
8.5257042967
 20
7.1776310739
 30
0.0
  0
VERTEX
  5
425
330
1EB
100
AcDbEntity
  8
0
  6
CONTINUOUS
 62
     7
100
AcDbVertex
100
AcDb2dVertex
 10
8.5298321426
 20
7.1833840355
 30
0.0
  0
VERTEX
  5
426
330
1EB
100
AcDbEntity
  8
0
  6
CONTINUOUS
 62
     7
100
AcDbVertex
100
AcDb2dVertex
 10
8.5323502199
 20
7.1894389449
 30
0.0
  0
VERTEX
  5
427
330
1EB
100
AcDbEntity
  8
0
  6
CONTINUOUS
 62
     7
100
AcDbVertex
100
AcDb2dVertex
 10
8.5331965254
 20
7.19564671
 30
0.0
  0
VERTEX
  5
428
330
1EB
100
AcDbEntity
  8
0
  6
CONTINUOUS
 62
     7
100
AcDbVertex
100
AcDb2dVertex
 10
8.5323502199
 20
7.2018544752
 30
0.0
  0
VERTEX
  5
429
330
1EB
100
AcDbEntity
  8
0
  6
CONTINUOUS
 62
     7
100
AcDbVertex
100
AcDb2dVertex
 10
8.5298321426
 20
7.2079093845
 30
0.0
  0
VERTEX
  5
42A
330
1EB
100
AcDbEntity
  8
0
  6
CONTINUOUS
 62
     7
100
AcDbVertex
100
AcDb2dVertex
 10
8.5257042967
 20
7.2136623461
 30
0.0
  0
VERTEX
  5
42B
330
1EB
100
AcDbEntity
  8
0
  6
CONTINUOUS
 62
     7
100
AcDbVertex
100
AcDb2dVertex
 10
8.5200683235
 20
7.218971703
 30
0.0
  0
VERTEX
  5
42C
330
1EB
100
AcDbEntity
  8
0
  6
CONTINUOUS
 62
     7
100
AcDbVertex
100
AcDb2dVertex
 10
8.5130629994
 20
7.2237067211
 30
0.0
  0
VERTEX
  5
42D
330
1EB
100
AcDbEntity
  8
0
  6
CONTINUOUS
 62
     7
100
AcDbVertex
100
AcDb2dVertex
 10
8.5048608187
 20
7.2277508086
 30
0.0
  0
VERTEX
  5
42E
330
1EB
100
AcDbEntity
  8
0
  6
CONTINUOUS
 62
     7
100
AcDbVertex
100
AcDb2dVertex
 10
8.4956637463
 20
7.2310043867
 30
0.0
  0
VERTEX
  5
42F
330
1EB
100
AcDbEntity
  8
0
  6
CONTINUOUS
 62
     7
100
AcDbVertex
100
AcDb2dVertex
 10
8.4856982447
 20
7.2333873414
 30
0.0
  0
VERTEX
  5
430
330
1EB
100
AcDbEntity
  8
0
  6
CONTINUOUS
 62
     7
100
AcDbVertex
100
AcDb2dVertex
 10
8.4752096976
 20
7.2348409966
 30
0.0
  0
VERTEX
  5
431
330
1EB
100
AcDbEntity
  8
0
  6
CONTINUOUS
 62
     7
100
AcDbVertex
100
AcDb2dVertex
 10
8.4644563679
 20
7.2353295583
 30
0.0
  0
VERTEX
  5
432
330
1EB
100
AcDbEntity
  8
0
  6
CONTINUOUS
 62
     7
100
AcDbVertex
100
AcDb2dVertex
 10
8.4537030381
 20
7.2348409966
 30
0.0
  0
VERTEX
  5
433
330
1EB
100
AcDbEntity
  8
0
  6
CONTINUOUS
 62
     7
100
AcDbVertex
100
AcDb2dVertex
 10
8.443214491
 20
7.2333873414
 30
0.0
  0
VERTEX
  5
434
330
1EB
100
AcDbEntity
  8
0
  6
CONTINUOUS
 62
     7
100
AcDbVertex
100
AcDb2dVertex
 10
8.4332489894
 20
7.2310043867
 30
0.0
  0
VERTEX
  5
435
330
1EB
100
AcDbEntity
  8
0
  6
CONTINUOUS
 62
     7
100
AcDbVertex
100
AcDb2dVertex
 10
8.4240519171
 20
7.2277508086
 30
0.0
  0
VERTEX
  5
436
330
1EB
100
AcDbEntity
  8
0
  6
CONTINUOUS
 62
     7
100
AcDbVertex
100
AcDb2dVertex
 10
8.4158497364
 20
7.2237067211
 30
0.0
  0
SEQEND
  5
437
330
1EB
100
AcDbEntity
  8
0
  6
CONTINUOUS
 62
     7
  0
LINE
  5
1EC
330
1F
100
AcDbEntity
  8
0
  6
CONTINUOUS
 62
     7
100
AcDbLine
 10
8.4966019026
 20
7.2142039322
 30
0.0
 11
8.4526902856
 21
7.2209963469
 31
0.0
  0
LINE
  5
1ED
330
1F
100
AcDbEntity
  8
0
  6
CONTINUOUS
 62
     7
100
AcDbLine
 10
8.4526902856
 20
7.2209963469
 30
0.0
 11
8.4205447509
 21
7.2024391248
 31
0.0
  0
LINE
  5
1EE
330
1F
100
AcDbEntity
  8
0
  6
CONTINUOUS
 62
     7
100
AcDbLine
 10
8.4205447509
 20
7.2024391248
 30
0.0
 11
8.4323108332
 21
7.1770894879
 31
0.0
  0
LINE
  5
1EF
330
1F
100
AcDbEntity
  8
0
  6
CONTINUOUS
 62
     7
100
AcDbLine
 10
8.4323108332
 20
7.1770894879
 30
0.0
 11
8.4762224502
 21
7.1702970731
 31
0.0
  0
LINE
  5
1F0
330
1F
100
AcDbEntity
  8
0
  6
CONTINUOUS
 62
     7
100
AcDbLine
 10
8.4762224502
 20
7.1702970731
 30
0.0
 11
8.5083679849
 21
7.1888542953
 31
0.0
  0
LINE
  5
1F1
330
1F
100
AcDbEntity
  8
0
  6
CONTINUOUS
 62
     7
100
AcDbLine
 10
8.5083679849
 20
7.1888542953
 30
0.0
 11
8.4966019026
 21
7.2142039322
 31
0.0
  0
LINE
  5
1F2
330
1F
100
AcDbEntity
  8
0
  6
CONTINUOUS
 62
     7
100
AcDbLine
 10
8.4966019026
 20
7.1820618806
 30
0.0
 11
8.4966019026
 21
7.2142039322
 31
0.0
  0
LINE
  5
1F3
330
1F
100
AcDbEntity
  8
0
  6
CONTINUOUS
 62
     7
100
AcDbLine
 10
8.4526902856
 20
7.1739371172
 30
0.0
 11
8.4526902856
 21
7.2209963469
 31
0.0
  0
POLYLINE
  5
1F4
330
1F
100
AcDbEntity
  8
0
  6
CONTINUOUS
 62
     7
100
AcDb2dPolyline
 66
     1
 10
0.0
 20
0.0
 30
0.0
  0
VERTEX
  5
438
330
1F4
100
AcDbEntity
  8
0
  6
CONTINUOUS
 62
     7
100
AcDbVertex
100
AcDb2dVertex
 10
7.9355182245
 20
7.4928307926
 30
0.0
  0
VERTEX
  5
439
330
1F4
100
AcDbEntity
  8
0
  6
CONTINUOUS
 62
     7
100
AcDbVertex
100
AcDb2dVertex
 10
7.9430316258
 20
7.4978532388
 30
0.0
  0
VERTEX
  5
43A
330
1F4
100
AcDbEntity
  8
0
  6
CONTINUOUS
 62
     7
100
AcDbVertex
100
AcDb2dVertex
 10
7.9491982184
 20
7.5034536924
 30
0.0
  0
VERTEX
  5
43B
330
1F4
100
AcDbEntity
  8
0
  6
CONTINUOUS
 62
     7
100
AcDbVertex
100
AcDb2dVertex
 10
7.9538865723
 20
7.5095127893
 30
0.0
  0
VERTEX
  5
43C
330
1F4
100
AcDbEntity
  8
0
  6
CONTINUOUS
 62
     7
100
AcDbVertex
100
AcDb2dVertex
 10
7.9569967632
 20
7.5159013905
 30
0.0
  0
VERTEX
  5
43D
330
1F4
100
AcDbEntity
  8
0
  6
CONTINUOUS
 62
     7
100
AcDbVertex
100
AcDb2dVertex
 10
7.9584625029
 20
7.5224833339
 30
0.0
  0
VERTEX
  5
43E
330
1F4
100
AcDbEntity
  8
0
  6
CONTINUOUS
 62
     7
100
AcDbVertex
100
AcDb2dVertex
 10
7.9582525516
 20
7.529118337
 30
0.0
  0
VERTEX
  5
43F
330
1F4
100
AcDbEntity
  8
0
  6
CONTINUOUS
 62
     7
100
AcDbVertex
100
AcDb2dVertex
 10
7.9563713841
 20
7.535664986
 30
0.0
  0
VERTEX
  5
440
330
1F4
100
AcDbEntity
  8
0
  6
CONTINUOUS
 62
     7
100
AcDbVertex
100
AcDb2dVertex
 10
7.9528590943
 20
7.5419837506
 30
0.0
  0
VERTEX
  5
441
330
1F4
100
AcDbEntity
  8
0
  6
CONTINUOUS
 62
     7
100
AcDbVertex
100
AcDb2dVertex
 10
7.9477905403
 20
7.5479399573
 30
0.0
  0
VERTEX
  5
442
330
1F4
100
AcDbEntity
  8
0
  6
CONTINUOUS
 62
     7
100
AcDbVertex
100
AcDb2dVertex
 10
7.9412737498
 20
7.5534066599
 30
0.0
  0
VERTEX
  5
443
330
1F4
100
AcDbEntity
  8
0
  6
CONTINUOUS
 62
     7
100
AcDbVertex
100
AcDb2dVertex
 10
7.9355272715
 20
7.5571096723
 30
0.0
  0
SEQEND
  5
444
330
1F4
100
AcDbEntity
  8
0
  6
CONTINUOUS
 62
     7
  0
POLYLINE
  5
1F5
330
1F
100
AcDbEntity
  8
0
  6
CONTINUOUS
 62
     7
100
AcDb2dPolyline
 66
     1
 10
0.0
 20
0.0
 30
0.0
  0
VERTEX
  5
445
330
1F5
100
AcDbEntity
  8
0
  6
CONTINUOUS
 62
     7
100
AcDbVertex
100
AcDb2dVertex
 10
7.8241537789
 20
7.5571096723
 30
0.0
  0
VERTEX
  5
446
330
1F5
100
AcDbEntity
  8
0
  6
CONTINUOUS
 62
     7
100
AcDbVertex
100
AcDb2dVertex
 10
7.820247147
 20
7.5546829308
 30
0.0
  0
VERTEX
  5
447
330
1F5
100
AcDbEntity
  8
0
  6
CONTINUOUS
 62
     7
100
AcDbVertex
100
AcDb2dVertex
 10
7.813388854
 20
7.5493572735
 30
0.0
  0
VERTEX
  5
448
330
1F5
100
AcDbEntity
  8
0
  6
CONTINUOUS
 62
     7
100
AcDbVertex
100
AcDb2dVertex
 10
7.807946863
 20
7.5435119045
 30
0.0
  0
VERTEX
  5
449
330
1F5
100
AcDbEntity
  8
0
  6
CONTINUOUS
 62
     7
100
AcDbVertex
100
AcDb2dVertex
 10
7.8040371607
 20
7.5372714076
 30
0.0
  0
VERTEX
  5
44A
330
1F5
100
AcDbEntity
  8
0
  6
CONTINUOUS
 62
     7
100
AcDbVertex
100
AcDb2dVertex
 10
7.8017430754
 20
7.5307687881
 30
0.0
  0
VERTEX
  5
44B
330
1F5
100
AcDbEntity
  8
0
  6
CONTINUOUS
 62
     7
100
AcDbVertex
100
AcDb2dVertex
 10
7.8011135017
 20
7.5241426382
 30
0.0
  0
VERTEX
  5
44C
330
1F5
100
AcDbEntity
  8
0
  6
CONTINUOUS
 62
     7
100
AcDbVertex
100
AcDb2dVertex
 10
7.8021618578
 20
7.5175341827
 30
0.0
  0
VERTEX
  5
44D
330
1F5
100
AcDbEntity
  8
0
  6
CONTINUOUS
 62
     7
100
AcDbVertex
100
AcDb2dVertex
 10
7.8048657998
 20
7.5110842693
 30
0.0
  0
VERTEX
  5
44E
330
1F5
100
AcDbEntity
  8
0
  6
CONTINUOUS
 62
     7
100
AcDbVertex
100
AcDb2dVertex
 10
7.809167698
 20
7.5049303668
 30
0.0
  0
VERTEX
  5
44F
330
1F5
100
AcDbEntity
  8
0
  6
CONTINUOUS
 62
     7
100
AcDbVertex
100
AcDb2dVertex
 10
7.8149758647
 20
7.4992036349
 30
0.0
  0
VERTEX
  5
450
330
1F5
100
AcDbEntity
  8
0
  6
CONTINUOUS
 62
     7
100
AcDbVertex
100
AcDb2dVertex
 10
7.8221665091
 20
7.4940261289
 30
0.0
  0
VERTEX
  5
451
330
1F5
100
AcDbEntity
  8
0
  6
CONTINUOUS
 62
     7
100
AcDbVertex
100
AcDb2dVertex
 10
7.830586375
 20
7.4895081985
 30
0.0
  0
VERTEX
  5
452
330
1F5
100
AcDbEntity
  8
0
  6
CONTINUOUS
 62
     7
100
AcDbVertex
100
AcDb2dVertex
 10
7.8400560076
 20
7.4857461354
 30
0.0
  0
VERTEX
  5
453
330
1F5
100
AcDbEntity
  8
0
  6
CONTINUOUS
 62
     7
100
AcDbVertex
100
AcDb2dVertex
 10
7.8503735781
 20
7.4828201215
 30
0.0
  0
VERTEX
  5
454
330
1F5
100
AcDbEntity
  8
0
  6
CONTINUOUS
 62
     7
100
AcDbVertex
100
AcDb2dVertex
 10
7.8613191855
 20
7.4807925197
 30
0.0
  0
VERTEX
  5
455
330
1F5
100
AcDbEntity
  8
0
  6
CONTINUOUS
 62
     7
100
AcDbVertex
100
AcDb2dVertex
 10
7.872659543
 20
7.4797065448
 30
0.0
  0
VERTEX
  5
456
330
1F5
100
AcDbEntity
  8
0
  6
CONTINUOUS
 62
     7
100
AcDbVertex
100
AcDb2dVertex
 10
7.8841529507
 20
7.4795853425
 30
0.0
  0
VERTEX
  5
457
330
1F5
100
AcDbEntity
  8
0
  6
CONTINUOUS
 62
     7
100
AcDbVertex
100
AcDb2dVertex
 10
7.8955544465
 20
7.480431496
 30
0.0
  0
VERTEX
  5
458
330
1F5
100
AcDbEntity
  8
0
  6
CONTINUOUS
 62
     7
100
AcDbVertex
100
AcDb2dVertex
 10
7.9066210274
 20
7.4822269711
 30
0.0
  0
VERTEX
  5
459
330
1F5
100
AcDbEntity
  8
0
  6
CONTINUOUS
 62
     7
100
AcDbVertex
100
AcDb2dVertex
 10
7.9171168284
 20
7.4849335001
 30
0.0
  0
VERTEX
  5
45A
330
1F5
100
AcDbEntity
  8
0
  6
CONTINUOUS
 62
     7
100
AcDbVertex
100
AcDb2dVertex
 10
7.9268181497
 20
7.4884933983
 30
0.0
  0
VERTEX
  5
45B
330
1F5
100
AcDbEntity
  8
0
  6
CONTINUOUS
 62
     7
100
AcDbVertex
100
AcDb2dVertex
 10
7.9355182245
 20
7.4928307926
 30
0.0
  0
SEQEND
  5
45C
330
1F5
100
AcDbEntity
  8
0
  6
CONTINUOUS
 62
     7
  0
POLYLINE
  5
1F6
330
1F
100
AcDbEntity
  8
0
  6
CONTINUOUS
 62
     7
100
AcDb2dPolyline
 66
     1
 10
0.0
 20
0.0
 30
0.0
  0
VERTEX
  5
45D
330
1F6
100
AcDbEntity
  8
0
  6
CONTINUOUS
 62
     7
100
AcDbVertex
100
AcDb2dVertex
 10
7.9284471567
 20
7.5050782412
 30
0.0
  0
VERTEX
  5
45E
330
1F6
100
AcDbEntity
  8
0
  6
CONTINUOUS
 62
     7
100
AcDbVertex
100
AcDb2dVertex
 10
7.920244976
 20
7.5010341537
 30
0.0
  0
VERTEX
  5
45F
330
1F6
100
AcDbEntity
  8
0
  6
CONTINUOUS
 62
     7
100
AcDbVertex
100
AcDb2dVertex
 10
7.9110479036
 20
7.4977805756
 30
0.0
  0
VERTEX
  5
460
330
1F6
100
AcDbEntity
  8
0
  6
CONTINUOUS
 62
     7
100
AcDbVertex
100
AcDb2dVertex
 10
7.901082402
 20
7.4953976209
 30
0.0
  0
VERTEX
  5
461
330
1F6
100
AcDbEntity
  8
0
  6
CONTINUOUS
 62
     7
100
AcDbVertex
100
AcDb2dVertex
 10
7.8905938549
 20
7.4939439658
 30
0.0
  0
VERTEX
  5
462
330
1F6
100
AcDbEntity
  8
0
  6
CONTINUOUS
 62
     7
100
AcDbVertex
100
AcDb2dVertex
 10
7.8798405252
 20
7.4934554041
 30
0.0
  0
VERTEX
  5
463
330
1F6
100
AcDbEntity
  8
0
  6
CONTINUOUS
 62
     7
100
AcDbVertex
100
AcDb2dVertex
 10
7.8690871954
 20
7.4939439658
 30
0.0
  0
VERTEX
  5
464
330
1F6
100
AcDbEntity
  8
0
  6
CONTINUOUS
 62
     7
100
AcDbVertex
100
AcDb2dVertex
 10
7.8585986483
 20
7.4953976209
 30
0.0
  0
VERTEX
  5
465
330
1F6
100
AcDbEntity
  8
0
  6
CONTINUOUS
 62
     7
100
AcDbVertex
100
AcDb2dVertex
 10
7.8486331467
 20
7.4977805756
 30
0.0
  0
VERTEX
  5
466
330
1F6
100
AcDbEntity
  8
0
  6
CONTINUOUS
 62
     7
100
AcDbVertex
100
AcDb2dVertex
 10
7.8394360744
 20
7.5010341537
 30
0.0
  0
VERTEX
  5
467
330
1F6
100
AcDbEntity
  8
0
  6
CONTINUOUS
 62
     7
100
AcDbVertex
100
AcDb2dVertex
 10
7.8312338937
 20
7.5050782412
 30
0.0
  0
VERTEX
  5
468
330
1F6
100
AcDbEntity
  8
0
  6
CONTINUOUS
 62
     7
100
AcDbVertex
100
AcDb2dVertex
 10
7.8242285696
 20
7.5098132594
 30
0.0
  0
VERTEX
  5
469
330
1F6
100
AcDbEntity
  8
0
  6
CONTINUOUS
 62
     7
100
AcDbVertex
100
AcDb2dVertex
 10
7.8185925964
 20
7.5151226162
 30
0.0
  0
VERTEX
  5
46A
330
1F6
100
AcDbEntity
  8
0
  6
CONTINUOUS
 62
     7
100
AcDbVertex
100
AcDb2dVertex
 10
7.8144647505
 20
7.5208755778
 30
0.0
  0
VERTEX
  5
46B
330
1F6
100
AcDbEntity
  8
0
  6
CONTINUOUS
 62
     7
100
AcDbVertex
100
AcDb2dVertex
 10
7.8119466731
 20
7.5269304872
 30
0.0
  0
VERTEX
  5
46C
330
1F6
100
AcDbEntity
  8
0
  6
CONTINUOUS
 62
     7
100
AcDbVertex
100
AcDb2dVertex
 10
7.8111003677
 20
7.5331382523
 30
0.0
  0
VERTEX
  5
46D
330
1F6
100
AcDbEntity
  8
0
  6
CONTINUOUS
 62
     7
100
AcDbVertex
100
AcDb2dVertex
 10
7.8119466731
 20
7.5393460175
 30
0.0
  0
VERTEX
  5
46E
330
1F6
100
AcDbEntity
  8
0
  6
CONTINUOUS
 62
     7
100
AcDbVertex
100
AcDb2dVertex
 10
7.8144647505
 20
7.5454009268
 30
0.0
  0
VERTEX
  5
46F
330
1F6
100
AcDbEntity
  8
0
  6
CONTINUOUS
 62
     7
100
AcDbVertex
100
AcDb2dVertex
 10
7.8185925964
 20
7.5511538884
 30
0.0
  0
VERTEX
  5
470
330
1F6
100
AcDbEntity
  8
0
  6
CONTINUOUS
 62
     7
100
AcDbVertex
100
AcDb2dVertex
 10
7.8242285696
 20
7.5564632453
 30
0.0
  0
VERTEX
  5
471
330
1F6
100
AcDbEntity
  8
0
  6
CONTINUOUS
 62
     7
100
AcDbVertex
100
AcDb2dVertex
 10
7.8312338937
 20
7.5611982634
 30
0.0
  0
VERTEX
  5
472
330
1F6
100
AcDbEntity
  8
0
  6
CONTINUOUS
 62
     7
100
AcDbVertex
100
AcDb2dVertex
 10
7.8394360744
 20
7.5652423509
 30
0.0
  0
VERTEX
  5
473
330
1F6
100
AcDbEntity
  8
0
  6
CONTINUOUS
 62
     7
100
AcDbVertex
100
AcDb2dVertex
 10
7.8486331467
 20
7.568495929
 30
0.0
  0
VERTEX
  5
474
330
1F6
100
AcDbEntity
  8
0
  6
CONTINUOUS
 62
     7
100
AcDbVertex
100
AcDb2dVertex
 10
7.8585986483
 20
7.5708788837
 30
0.0
  0
VERTEX
  5
475
330
1F6
100
AcDbEntity
  8
0
  6
CONTINUOUS
 62
     7
100
AcDbVertex
100
AcDb2dVertex
 10
7.8690871954
 20
7.5723325389
 30
0.0
  0
VERTEX
  5
476
330
1F6
100
AcDbEntity
  8
0
  6
CONTINUOUS
 62
     7
100
AcDbVertex
100
AcDb2dVertex
 10
7.8798405252
 20
7.5728211006
 30
0.0
  0
VERTEX
  5
477
330
1F6
100
AcDbEntity
  8
0
  6
CONTINUOUS
 62
     7
100
AcDbVertex
100
AcDb2dVertex
 10
7.8905938549
 20
7.5723325389
 30
0.0
  0
VERTEX
  5
478
330
1F6
100
AcDbEntity
  8
0
  6
CONTINUOUS
 62
     7
100
AcDbVertex
100
AcDb2dVertex
 10
7.901082402
 20
7.5708788837
 30
0.0
  0
VERTEX
  5
479
330
1F6
100
AcDbEntity
  8
0
  6
CONTINUOUS
 62
     7
100
AcDbVertex
100
AcDb2dVertex
 10
7.9110479036
 20
7.568495929
 30
0.0
  0
VERTEX
  5
47A
330
1F6
100
AcDbEntity
  8
0
  6
CONTINUOUS
 62
     7
100
AcDbVertex
100
AcDb2dVertex
 10
7.920244976
 20
7.5652423509
 30
0.0
  0
VERTEX
  5
47B
330
1F6
100
AcDbEntity
  8
0
  6
CONTINUOUS
 62
     7
100
AcDbVertex
100
AcDb2dVertex
 10
7.9284471567
 20
7.5611982634
 30
0.0
  0
VERTEX
  5
47C
330
1F6
100
AcDbEntity
  8
0
  6
CONTINUOUS
 62
     7
100
AcDbVertex
100
AcDb2dVertex
 10
7.9354524808
 20
7.5564632453
 30
0.0
  0
VERTEX
  5
47D
330
1F6
100
AcDbEntity
  8
0
  6
CONTINUOUS
 62
     7
100
AcDbVertex
100
AcDb2dVertex
 10
7.9410884539
 20
7.5511538884
 30
0.0
  0
VERTEX
  5
47E
330
1F6
100
AcDbEntity
  8
0
  6
CONTINUOUS
 62
     7
100
AcDbVertex
100
AcDb2dVertex
 10
7.9452162999
 20
7.5454009268
 30
0.0
  0
VERTEX
  5
47F
330
1F6
100
AcDbEntity
  8
0
  6
CONTINUOUS
 62
     7
100
AcDbVertex
100
AcDb2dVertex
 10
7.9477343772
 20
7.5393460175
 30
0.0
  0
VERTEX
  5
480
330
1F6
100
AcDbEntity
  8
0
  6
CONTINUOUS
 62
     7
100
AcDbVertex
100
AcDb2dVertex
 10
7.9485806826
 20
7.5331382523
 30
0.0
  0
VERTEX
  5
481
330
1F6
100
AcDbEntity
  8
0
  6
CONTINUOUS
 62
     7
100
AcDbVertex
100
AcDb2dVertex
 10
7.9477343772
 20
7.5269304872
 30
0.0
  0
VERTEX
  5
482
330
1F6
100
AcDbEntity
  8
0
  6
CONTINUOUS
 62
     7
100
AcDbVertex
100
AcDb2dVertex
 10
7.9452162999
 20
7.5208755778
 30
0.0
  0
VERTEX
  5
483
330
1F6
100
AcDbEntity
  8
0
  6
CONTINUOUS
 62
     7
100
AcDbVertex
100
AcDb2dVertex
 10
7.9410884539
 20
7.5151226162
 30
0.0
  0
VERTEX
  5
484
330
1F6
100
AcDbEntity
  8
0
  6
CONTINUOUS
 62
     7
100
AcDbVertex
100
AcDb2dVertex
 10
7.9354524808
 20
7.5098132594
 30
0.0
  0
VERTEX
  5
485
330
1F6
100
AcDbEntity
  8
0
  6
CONTINUOUS
 62
     7
100
AcDbVertex
100
AcDb2dVertex
 10
7.9284471567
 20
7.5050782412
 30
0.0
  0
SEQEND
  5
486
330
1F6
100
AcDbEntity
  8
0
  6
CONTINUOUS
 62
     7
  0
LINE
  5
1F7
330
1F
100
AcDbEntity
  8
0
  6
CONTINUOUS
 62
     7
100
AcDbLine
 10
7.8359289082
 20
7.5399306671
 30
0.0
 11
7.8680744428
 21
7.5584878892
 31
0.0
  0
LINE
  5
1F8
330
1F
100
AcDbEntity
  8
0
  6
CONTINUOUS
 62
     7
100
AcDbLine
 10
7.8476949905
 20
7.5145810302
 30
0.0
 11
7.8359289082
 21
7.5399306671
 31
0.0
  0
LINE
  5
1F9
330
1F
100
AcDbEntity
  8
0
  6
CONTINUOUS
 62
     7
100
AcDbLine
 10
7.8916066075
 20
7.5077886154
 30
0.0
 11
7.8476949905
 21
7.5145810302
 31
0.0
  0
LINE
  5
1FA
330
1F
100
AcDbEntity
  8
0
  6
CONTINUOUS
 62
     7
100
AcDbLine
 10
7.9237521422
 20
7.5263458376
 30
0.0
 11
7.8916066075
 21
7.5077886154
 31
0.0
  0
LINE
  5
1FB
330
1F
100
AcDbEntity
  8
0
  6
CONTINUOUS
 62
     7
100
AcDbLine
 10
7.9119860598
 20
7.5516954745
 30
0.0
 11
7.9237521422
 21
7.5263458376
 31
0.0
  0
LINE
  5
1FC
330
1F
100
AcDbEntity
  8
0
  6
CONTINUOUS
 62
     7
100
AcDbLine
 10
7.8680744428
 20
7.5584878892
 30
0.0
 11
7.9119860598
 21
7.5516954745
 31
0.0
  0
LINE
  5
1FD
330
1F
100
AcDbEntity
  8
0
  6
CONTINUOUS
 62
     7
100
AcDbLine
 10
7.9119860598
 20
7.5195534228
 30
0.0
 11
7.9119860598
 21
7.5516954745
 31
0.0
  0
LINE
  5
1FE
330
1F
100
AcDbEntity
  8
0
  6
CONTINUOUS
 62
     7
100
AcDbLine
 10
7.8680744428
 20
7.5114286595
 30
0.0
 11
7.8680744428
 21
7.5584878892
 31
0.0
  0
ENDSEC
  0
SECTION
  2
OBJECTS
  0
DICTIONARY
  5
C
330
0
100
AcDbDictionary
  3
ACAD_GROUP
350
D
  3
ACAD_LAYOUT
350
1A
  3
ACAD_MLEADERSTYLE
350
201
  3
ACAD_MLINESTYLE
350
17
  3
ACAD_PLOTSETTINGS
350
19
  3
ACAD_SCALELIST
350
6F
  3
ACAD_VISUALSTYLE
350
2A
  3
ACDBVARIABLEDICTIONARY
350
1FF
1001
ACAD
1000
TREAT_AS_HARD
1070
     0
  0
DICTIONARY
  5
D
102
{ACAD_REACTORS
330
C
102
}
330
C
100
AcDbDictionary
1001
ACAD
1000
TREAT_AS_HARD
1070
     0
  0
DICTIONARY
  5
1A
102
{ACAD_REACTORS
330
C
102
}
330
C
100
AcDbDictionary
1001
ACAD
1000
TREAT_AS_HARD
1070
     0
  0
DICTIONARY
  5
201
102
{ACAD_REACTORS
330
C
102
}
330
C
100
AcDbDictionary
1001
ACAD
1000
TREAT_AS_HARD
1070
     0
  0
DICTIONARY
  5
17
102
{ACAD_REACTORS
330
C
102
}
330
C
100
AcDbDictionary
  3
STANDARD
350
18
1001
ACAD
1000
TREAT_AS_HARD
1070
     0
  0
DICTIONARY
  5
19
102
{ACAD_REACTORS
330
C
102
}
330
C
100
AcDbDictionary
1001
ACAD
1000
TREAT_AS_HARD
1070
     0
  0
DICTIONARY
  5
6F
102
{ACAD_REACTORS
330
C
102
}
330
C
100
AcDbDictionary
  3
A0
350
70
  3
A1
350
71
  3
A2
350
72
  3
A3
350
73
  3
A4
350
74
  3
A5
350
75
  3
A6
350
76
  3
A7
350
77
  3
A8
350
78
  3
A9
350
79
  3
B0
350
7A
  3
B1
350
7B
  3
B2
350
7C
  3
B3
350
7D
  3
B4
350
7E
  3
B5
350
7F
  3
B6
350
80
  3
B7
350
81
  3
B8
350
82
  3
B9
350
83
  3
C0
350
84
  3
C1
350
85
  3
C2
350
86
  3
C3
350
87
  3
C4
350
88
  3
C5
350
89
  3
C6
350
8A
  3
C7
350
8B
  3
C8
350
8C
  3
C9
350
8D
  3
D0
350
8E
  3
D1
350
8F
  3
D2
350
90
1001
ACAD
1000
TREAT_AS_HARD
1070
     0
  0
DICTIONARY
  5
2A
102
{ACAD_REACTORS
330
C
102
}
330
C
100
AcDbDictionary
  3
2DWIREFRAME
350
2F
  3
3D_HIDDEN
350
31
  3
3DWIREFRAME
350
30
  3
BASIC
350
32
  3
BRIGHTEN
350
36
  3
COLORCHANGE
350
3A
  3
CONCEPTUAL
350
34
  3
DIM
350
35
  3
FACEPATTERN
350
39
  3
FLAT
350
2B
  3
FLATWITHEDGES
350
2C
  3
GOURAUD
350
2D
  3
GOURAUDWITHEDGES
350
2E
  3
LINEPATTERN
350
38
  3
REALISTIC
350
33
  3
THICKEN
350
37
1001
ACAD
1000
TREAT_AS_HARD
1070
     0
  0
DICTIONARY
  5
1FF
102
{ACAD_REACTORS
330
C
102
}
330
C
100
AcDbDictionary
  3
CANNOSCALE
350
202
  3
DIMASSOC
350
203
  3
HIDETEXT
350
204
1001
ACAD
1000
TREAT_AS_HARD
1070
     0
  0
MLINESTYLE
  5
18
102
{ACAD_REACTORS
330
17
102
}
330
17
100
AcDbMlineStyle
  2
Standard
 70
     0
  3

 62
   256
 51
90.0
 52
90.0
 71
     2
 49
0.5
 62
   256
  6
BYLAYER
 49
-0.5
 62
   256
  6
BYLAYER
  0
ACAD_PROXY_OBJECT
  5
70
102
{ACAD_REACTORS
330
6F
102
}
330
6F
100
AcDbZombieObject
 90
      499
 91
      502
 93
       41
310
903313A31580
  0
ACAD_PROXY_OBJECT
  5
71
102
{ACAD_REACTORS
330
6F
102
}
330
6F
100
AcDbZombieObject
 90
      499
 91
      502
 93
      105
310
903313A324000000000000004000
  0
ACAD_PROXY_OBJECT
  5
72
102
{ACAD_REACTORS
330
6F
102
}
330
6F
100
AcDbZombieObject
 90
      499
 91
      502
 93
      105
310
903313A344000000000000104000
  0
ACAD_PROXY_OBJECT
  5
73
102
{ACAD_REACTORS
330
6F
102
}
330
6F
100
AcDbZombieObject
 90
      499
 91
      502
 93
      105
310
903313A354000000000000144000
  0
ACAD_PROXY_OBJECT
  5
74
102
{ACAD_REACTORS
330
6F
102
}
330
6F
100
AcDbZombieObject
 90
      499
 91
      502
 93
      105
310
903313A384000000000000204000
  0
ACAD_PROXY_OBJECT
  5
75
102
{ACAD_REACTORS
330
6F
102
}
330
6F
100
AcDbZombieObject
 90
      499
 91
      502
 93
      113
310
904313A31304000000000000244000
  0
ACAD_PROXY_OBJECT
  5
76
102
{ACAD_REACTORS
330
6F
102
}
330
6F
100
AcDbZombieObject
 90
      499
 91
      502
 93
      113
310
904313A31364000000000000304000
  0
ACAD_PROXY_OBJECT
  5
77
102
{ACAD_REACTORS
330
6F
102
}
330
6F
100
AcDbZombieObject
 90
      499
 91
      502
 93
      113
310
904313A32304000000000000344000
  0
ACAD_PROXY_OBJECT
  5
78
102
{ACAD_REACTORS
330
6F
102
}
330
6F
100
AcDbZombieObject
 90
      499
 91
      502
 93
      113
310
904313A333040000000000003E4000
  0
ACAD_PROXY_OBJECT
  5
79
102
{ACAD_REACTORS
330
6F
102
}
330
6F
100
AcDbZombieObject
 90
      499
 91
      502
 93
      113
310
904313A34304000000000000444000
  0
ACAD_PROXY_OBJECT
  5
7A
102
{ACAD_REACTORS
330
6F
102
}
330
6F
100
AcDbZombieObject
 90
      499
 91
      502
 93
      113
310
904313A35304000000000000494000
  0
ACAD_PROXY_OBJECT
  5
7B
102
{ACAD_REACTORS
330
6F
102
}
330
6F
100
AcDbZombieObject
 90
      499
 91
      502
 93
      121
310
905313A3130304000000000000594000
  0
ACAD_PROXY_OBJECT
  5
7C
102
{ACAD_REACTORS
330
6F
102
}
330
6F
100
AcDbZombieObject
 90
      499
 91
      502
 93
      105
310
903323A310000000000000010100
  0
ACAD_PROXY_OBJECT
  5
7D
102
{ACAD_REACTORS
330
6F
102
}
330
6F
100
AcDbZombieObject
 90
      499
 91
      502
 93
      105
310
903343A310000000000000410100
  0
ACAD_PROXY_OBJECT
  5
7E
102
{ACAD_REACTORS
330
6F
102
}
330
6F
100
AcDbZombieObject
 90
      499
 91
      502
 93
      105
310
903383A310000000000000810100
  0
ACAD_PROXY_OBJECT
  5
7F
102
{ACAD_REACTORS
330
6F
102
}
330
6F
100
AcDbZombieObject
 90
      499
 91
      502
 93
      113
310
90431303A310000000000000910100
  0
ACAD_PROXY_OBJECT
  5
80
102
{ACAD_REACTORS
330
6F
102
}
330
6F
100
AcDbZombieObject
 90
      499
 91
      502
 93
      121
310
9053130303A310000000000001650100
  0
ACAD_PROXY_OBJECT
  5
81
102
{ACAD_REACTORS
330
6F
102
}
330
6F
100
AcDbZombieObject
 90
      499
 91
      502
 93
      257
310
90E312F31323822203D2031272D3022000000000000200FC000000000000284000
  0
ACAD_PROXY_OBJECT
  5
82
102
{ACAD_REACTORS
330
6F
102
}
330
6F
100
AcDbZombieObject
 90
      499
 91
      502
 93
      249
310
90D312F363422203D2031272D3022000000000000240FC000000000000284000
  0
ACAD_PROXY_OBJECT
  5
83
102
{ACAD_REACTORS
330
6F
102
}
330
6F
100
AcDbZombieObject
 90
      499
 91
      502
 93
      249
310
90D312F333222203D2031272D3022000000000000280FC000000000000284000
  0
ACAD_PROXY_OBJECT
  5
84
102
{ACAD_REACTORS
330
6F
102
}
330
6F
100
AcDbZombieObject
 90
      499
 91
      502
 93
      249
310
90D312F313622203D2031272D30220000000000002C0FC000000000000284000
  0
ACAD_PROXY_OBJECT
  5
85
102
{ACAD_REACTORS
330
6F
102
}
330
6F
100
AcDbZombieObject
 90
      499
 91
      502
 93
      249
310
90D332F333222203D2031272D30220000000000002E0FC000000000000284000
  0
ACAD_PROXY_OBJECT
  5
86
102
{ACAD_REACTORS
330
6F
102
}
330
6F
100
AcDbZombieObject
 90
      499
 91
      502
 93
      241
310
90C312F3822203D2031272D3022000000000000300FC000000000000284000
  0
ACAD_PROXY_OBJECT
  5
87
102
{ACAD_REACTORS
330
6F
102
}
330
6F
100
AcDbZombieObject
 90
      499
 91
      502
 93
      249
310
90D332F313622203D2031272D3022000000000000320FC000000000000284000
  0
ACAD_PROXY_OBJECT
  5
88
102
{ACAD_REACTORS
330
6F
102
}
330
6F
100
AcDbZombieObject
 90
      499
 91
      502
 93
      241
310
90C312F3422203D2031272D3022000000000000340FC000000000000284000
  0
ACAD_PROXY_OBJECT
  5
89
102
{ACAD_REACTORS
330
6F
102
}
330
6F
100
AcDbZombieObject
 90
      499
 91
      502
 93
      241
310
90C332F3822203D2031272D3022000000000000360FC000000000000284000
  0
ACAD_PROXY_OBJECT
  5
8A
102
{ACAD_REACTORS
330
6F
102
}
330
6F
100
AcDbZombieObject
 90
      499
 91
      502
 93
      241
310
90C312F3222203D2031272D3022000000000000380FC000000000000284000
  0
ACAD_PROXY_OBJECT
  5
8B
102
{ACAD_REACTORS
330
6F
102
}
330
6F
100
AcDbZombieObject
 90
      499
 91
      502
 93
      241
310
90C332F3422203D2031272D30220000000000003A0FC000000000000284000
  0
ACAD_PROXY_OBJECT
  5
8C
102
{ACAD_REACTORS
330
6F
102
}
330
6F
100
AcDbZombieObject
 90
      499
 91
      502
 93
      161
310
90A3122203D2031272D30224000000000000284000
  0
ACAD_PROXY_OBJECT
  5
8D
102
{ACAD_REACTORS
330
6F
102
}
330
6F
100
AcDbZombieObject
 90
      499
 91
      502
 93
      257
310
90E312D312F3222203D2031272D30220000000000003E0FC000000000000284000
  0
ACAD_PROXY_OBJECT
  5
8E
102
{ACAD_REACTORS
330
6F
102
}
330
6F
100
AcDbZombieObject
 90
      499
 91
      502
 93
      225
310
90A3322203D2031272D302200000000000002100000000000000284000
  0
ACAD_PROXY_OBJECT
  5
8F
102
{ACAD_REACTORS
330
6F
102
}
330
6F
100
AcDbZombieObject
 90
      499
 91
      502
 93
      225
310
90A3622203D2031272D302200000000000006100000000000000284000
  0
ACAD_PROXY_OBJECT
  5
90
102
{ACAD_REACTORS
330
6F
102
}
330
6F
100
AcDbZombieObject
 90
      499
 91
      502
 93
      249
310
90D31272D3022203D2031272D30220000000000000A100000000000000284000
  0
ACAD_PROXY_OBJECT
  5
2F
102
{ACAD_REACTORS
330
2A
102
}
330
2A
100
AcDbZombieObject
 90
      499
 91
      501
 93
      436
310
42CC9915DA5C99599C985B595049028333333333333E3BF0000000000000FB0107901411070040501600405405064090741402480A0340
1001
ACAD
1000
AcDbSavedByObjectVersion
1070
     0
  0
ACAD_PROXY_OBJECT
  5
31
102
{ACAD_REACTORS
330
2A
102
}
330
2A
100
AcDbZombieObject
 90
      499
 91
      501
 93
      500
310
424CD108121A5919195B90640502408333333333333E3BF0000000000000FB01079024090700405020000000000001110200405405064090740C02480A0340
1001
ACAD
1000
AcDbSavedByObjectVersion
1070
     0
  0
ACAD_PROXY_OBJECT
  5
30
102
{ACAD_REACTORS
330
2A
102
}
330
2A
100
AcDbZombieObject
 90
      499
 91
      501
 93
      436
310
42CCD915DA5C99599C985B595059028333333333333E3BF0000000000000FB0107901411070040501600405405064090741402480A0340
1001
ACAD
1000
AcDbSavedByObjectVersion
1070
     0
  0
ACAD_PROXY_OBJECT
  5
32
102
{ACAD_REACTORS
330
2A
102
}
330
2A
100
AcDbZombieObject
 90
      499
 91
      501
 93
      388
310
4150985CDA58D07406404333333333333E3BF0000000000000FB0107A41107004050150841D405064090741402480A0350
1001
ACAD
1000
AcDbSavedByObjectVersion
1070
     0
  0
ACAD_PROXY_OBJECT
  5
36
102
{ACAD_REACTORS
330
2A
102
}
330
2A
100
AcDbZombieObject
 90
      499
 91
      501
 93
      428
310
42109C9A59DA1D195B90C409028333333333333E3BF0000000000000FB010790141107004050150841D405064090741402480A029950
1001
ACAD
1000
AcDbSavedByObjectVersion
1070
     0
  0
ACAD_PROXY_OBJECT
  5
3A
102
{ACAD_REACTORS
330
2A
102
}
330
2A
100
AcDbZombieObject
 90
      499
 91
      501
 93
      452
310
42D0DBDB1BDC90DA185B99D95104090240C333333333333E3BF0000000000000FB0108901411070040501508421405064090741402480A0350
1001
ACAD
1000
AcDbSavedByObjectVersion
1070
     0
  0
ACAD_PROXY_OBJECT
  5
34
102
{ACAD_REACTORS
330
2A
102
}
330
2A
100
AcDbZombieObject
 90
      499
 91
      501
 93
      500
310
4290DBDB98D95C1D1D585B10940D028333333333333E3BF0000000000000FB0107902409070040501000000000000111010841D405064090740C02480A0340
1001
ACAD
1000
AcDbSavedByObjectVersion
1070
     0
  0
ACAD_PROXY_OBJECT
  5
35
102
{ACAD_REACTORS
330
2A
102
}
330
2A
100
AcDbZombieObject
 90
      499
 91
      501
 93
      412
310
40D11A5B50B409028333333333333E3BF0000000000000FB010790141107004050150841D405064090741402480A02677FFFFFD0
1001
ACAD
1000
AcDbSavedByObjectVersion
1070
     0
  0
ACAD_PROXY_OBJECT
  5
39
102
{ACAD_REACTORS
330
2A
102
}
330
2A
100
AcDbZombieObject
 90
      499
 91
      501
 93
      444
310
42D19858D95C185D1D195C9B90F409028333333333333E3BF0000000000000FB010790141107004050150841D405064090741402480A0350
1001
ACAD
1000
AcDbSavedByObjectVersion
1070
     0
  0
ACAD_PROXY_OBJECT
  5
2B
102
{ACAD_REACTORS
330
2A
102
}
330
2A
100
AcDbZombieObject
 90
      499
 91
      501
 93
      388
310
41119B185D240901404333333333333E3BF0000000000000F9010740A41107004050150841D405064090741402480A1B50
1001
ACAD
1000
AcDbSavedByObjectVersion
1070
     0
  0
ACAD_PROXY_OBJECT
  5
2C
102
{ACAD_REACTORS
330
2A
102
}
330
2A
100
AcDbZombieObject
 90
      499
 91
      501
 93
      476
310
43519B185D15DA5D1A115919D95CD0140901404333333333333E3BF0000000000000F9010740901411070040501600405405064090741402480A1B50
1001
ACAD
1000
AcDbSavedByObjectVersion
1070
     0
  0
ACAD_PROXY_OBJECT
  5
2D
102
{ACAD_REACTORS
330
2A
102
}
330
2A
100
AcDbZombieObject
 90
      499
 91
      501
 93
      412
310
41D1DBDD5C985D5910240902404333333333333E3BF0000000000000F9010740A411070040501641D405064090741402480A1B50
1001
ACAD
1000
AcDbSavedByObjectVersion
1070
     0
  0
ACAD_PROXY_OBJECT
  5
2E
102
{ACAD_REACTORS
330
2A
102
}
330
2A
100
AcDbZombieObject
 90
      499
 91
      501
 93
      500
310
4411DBDD5C985D5915DA5D1A115919D95CD0340902404333333333333E3BF0000000000000F9010740901411070040501600405405064090741402480A1B50
1001
ACAD
1000
AcDbSavedByObjectVersion
1070
     0
  0
ACAD_PROXY_OBJECT
  5
38
102
{ACAD_REACTORS
330
2A
102
}
330
2A
100
AcDbZombieObject
 90
      499
 91
      501
 93
      444
310
42D31A5B995C185D1D195C9B90E409028333333333333E3BF0000000000000FB010790141107004050750841D405064090741402483A0350
1001
ACAD
1000
AcDbSavedByObjectVersion
1070
     0
  0
ACAD_PROXY_OBJECT
  5
33
102
{ACAD_REACTORS
330
2A
102
}
330
2A
100
AcDbZombieObject
 90
      499
 91
      501
 93
      420
310
425499585B1A5CDD1A58D08409028333333333333E3BF0000000000000FB01079019070040501508421405064090741402480A1B40
1001
ACAD
1000
AcDbSavedByObjectVersion
1070
     0
  0
ACAD_PROXY_OBJECT
  5
37
102
{ACAD_REACTORS
330
2A
102
}
330
2A
100
AcDbZombieObject
 90
      499
 91
      501
 93
      412
310
41D51A1A58DAD95B90D409028333333333333E3BF0000000000000FB010790141107004050150C41D405064090741402480A0350
1001
ACAD
1000
AcDbSavedByObjectVersion
1070
     0
  0
DICTIONARYVAR
  5
202
102
{ACAD_REACTORS
330
1FF
102
}
330
1FF
100
DictionaryVariables
280
     0
  1
1:1
  0
DICTIONARYVAR
  5
203
102
{ACAD_REACTORS
330
1FF
102
}
330
1FF
100
DictionaryVariables
280
     0
  1
2
  0
DICTIONARYVAR
  5
204
102
{ACAD_REACTORS
330
1FF
102
}
330
1FF
100
DictionaryVariables
280
     0
  1
1
  0
ENDSEC
  0
EOF
