  0
SECTION
  2
HEADER
  9
$ACADVER
  1
AC1012
  9
$DWGCODEPAGE
  3
ansi_1252
  9
$INSBASE
 10
0.0
 20
0.0
 30
0.0
  9
$EXTMIN
 10
0.0
 20
0.0
 30
0.0
  9
$EXTMAX
 10
11.0
 20
8.5
 30
0.0
  9
$LIMMIN
 10
0.0
 20
0.0
  9
$LIMMAX
 10
11.0
 20
8.5
  9
$ORTHOMODE
 70
     0
  9
$REGENMODE
 70
     1
  9
$FILLMODE
 70
     1
  9
$QTEXTMODE
 70
     0
  9
$MIRRTEXT
 70
     1
  9
$DRAGMODE
 70
     2
  9
$LTSCALE
 40
1.0
  9
$OSMODE
 70
    37
  9
$ATTMODE
 70
     1
  9
$TEXTSIZE
 40
0.125
  9
$TRACEWID
 40
0.05
  9
$TEXTSTYLE
  7
STANDARD
  9
$CLAYER
  8
0
  9
$CELTYPE
  6
BYLAYER
  9
$CECOLOR
 62
   256
  9
$CELTSCALE
 40
1.0
  9
$DELOBJ
 70
     1
  9
$DISPSILH
 70
     0
  9
$DIMSCALE
 40
1.0
  9
$DIMASZ
 40
0.13
  9
$DIMEXO
 40
0.05
  9
$DIMDLI
 40
0.38
  9
$DIMRND
 40
0.0
  9
$DIMDLE
 40
0.0
  9
$DIMEXE
 40
0.125
  9
$DIMTP
 40
0.0
  9
$DIMTM
 40
0.0
  9
$DIMTXT
 40
0.125
  9
$DIMCEN
 40
0.09
  9
$DIMTSZ
 40
0.0
  9
$DIMTOL
 70
     0
  9
$DIMLIM
 70
     0
  9
$DIMTIH
 70
     1
  9
$DIMTOH
 70
     1
  9
$DIMSE1
 70
     0
  9
$DIMSE2
 70
     0
  9
$DIMTAD
 70
     0
  9
$DIMZIN
 70
     0
  9
$DIMBLK
  1

  9
$DIMASO
 70
     1
  9
$DIMSHO
 70
     1
  9
$DIMPOST
  1

  9
$DIMAPOST
  1

  9
$DIMALT
 70
     0
  9
$DIMALTD
 70
     2
  9
$DIMALTF
 40
25.4
  9
$DIMLFAC
 40
1.0
  9
$DIMTOFL
 70
     0
  9
$DIMTVP
 40
0.0
  9
$DIMTIX
 70
     0
  9
$DIMSOXD
 70
     0
  9
$DIMSAH
 70
     0
  9
$DIMBLK1
  1

  9
$DIMBLK2
  1

  9
$DIMSTYLE
  2
STANDARD
  9
$DIMCLRD
 70
     0
  9
$DIMCLRE
 70
     0
  9
$DIMCLRT
 70
     0
  9
$DIMTFAC
 40
1.0
  9
$DIMGAP
 40
0.06
  9
$DIMJUST
 70
     0
  9
$DIMSD1
 70
     0
  9
$DIMSD2
 70
     0
  9
$DIMTOLJ
 70
     1
  9
$DIMTZIN
 70
     0
  9
$DIMALTZ
 70
     0
  9
$DIMALTTZ
 70
     0
  9
$DIMFIT
 70
     3
  9
$DIMUPT
 70
     0
  9
$DIMUNIT
 70
     2
  9
$DIMDEC
 70
     3
  9
$DIMTDEC
 70
     3
  9
$DIMALTU
 70
     2
  9
$DIMALTTD
 70
     2
  9
$DIMTXSTY
  7
STANDARD
  9
$DIMAUNIT
 70
     0
  9
$LUNITS
 70
     2
  9
$LUPREC
 70
     2
  9
$SKETCHINC
 40
0.1
  9
$FILLETRAD
 40
0.5
  9
$AUNITS
 70
     0
  9
$AUPREC
 70
     2
  9
$MENU
  1
.
  9
$ELEVATION
 40
0.0
  9
$PELEVATION
 40
0.0
  9
$THICKNESS
 40
0.0
  9
$LIMCHECK
 70
     0
  9
$CHAMFERA
 40
0.5
  9
$CHAMFERB
 40
0.5
  9
$CHAMFERC
 40
1.0
  9
$CHAMFERD
 40
0.0
  9
$SKPOLY
 70
     0
  9
$TDCREATE
 40
2455784.000051979
  9
$TDUPDATE
 40
2455784.000051991
  9
$TDINDWG
 40
0.0000000116
  9
$TDUSRTIMER
 40
0.0000000116
  9
$USRTIMER
 70
     1
  9
$ANGBASE
 50
0.0
  9
$ANGDIR
 70
     0
  9
$PDMODE
 70
     0
  9
$PDSIZE
 40
-1.0
  9
$PLINEWID
 40
0.0
  9
$COORDS
 70
     1
  9
$SPLFRAME
 70
     0
  9
$SPLINETYPE
 70
     6
  9
$SPLINESEGS
 70
     8
  9
$ATTDIA
 70
     0
  9
$ATTREQ
 70
     1
  9
$HANDLING
 70
     1
  9
$HANDSEED
  5
44E
  9
$SURFTAB1
 70
     6
  9
$SURFTAB2
 70
     6
  9
$SURFTYPE
 70
     6
  9
$SURFU
 70
     6
  9
$SURFV
 70
     6
  9
$UCSNAME
  2

  9
$UCSORG
 10
0.0
 20
0.0
 30
0.0
  9
$UCSXDIR
 10
1.0
 20
0.0
 30
0.0
  9
$UCSYDIR
 10
0.0
 20
1.0
 30
0.0
  9
$PUCSNAME
  2

  9
$PUCSORG
 10
0.0
 20
0.0
 30
0.0
  9
$PUCSXDIR
 10
1.0
 20
0.0
 30
0.0
  9
$PUCSYDIR
 10
0.0
 20
1.0
 30
0.0
  9
$USERI1
 70
     0
  9
$USERI2
 70
     0
  9
$USERI3
 70
     0
  9
$USERI4
 70
     0
  9
$USERI5
 70
     0
  9
$USERR1
 40
0.0
  9
$USERR2
 40
0.0
  9
$USERR3
 40
0.0
  9
$USERR4
 40
0.0
  9
$USERR5
 40
0.0
  9
$WORLDVIEW
 70
     1
  9
$SHADEDGE
 70
     3
  9
$SHADEDIF
 70
    70
  9
$TILEMODE
 70
     1
  9
$MAXACTVP
 70
    64
  9
$PINSBASE
 10
0.0
 20
0.0
 30
0.0
  9
$PLIMCHECK
 70
     0
  9
$PEXTMIN
 10
1.0000000000E+20
 20
1.0000000000E+20
 30
1.0000000000E+20
  9
$PEXTMAX
 10
-1.0000000000E+20
 20
-1.0000000000E+20
 30
-1.0000000000E+20
  9
$PLIMMIN
 10
0.0
 20
0.0
  9
$PLIMMAX
 10
12.0
 20
9.0
  9
$UNITMODE
 70
     0
  9
$VISRETAIN
 70
     1
  9
$PLINEGEN
 70
     0
  9
$PSLTSCALE
 70
     1
  9
$TREEDEPTH
 70
  3020
  9
$PICKSTYLE
 70
     1
  9
$CMLSTYLE
  2
STANDARD
  9
$CMLJUST
 70
     0
  9
$CMLSCALE
 40
1.0
  9
$SAVEIMAGES
 70
     1
  0
ENDSEC
  0
SECTION
  2
CLASSES
  0
CLASS
  1
ACDBDICTIONARYWDFLT
  2
AcDbDictionaryWithDefault
  3
ObjectDBX Classes
 90
    32768
280
     0
281
     0
  0
CLASS
  1
VISUALSTYLE
  2
AcDbVisualStyle
  3
ObjectDBX Classes
 90
     4095
280
     0
281
     0
  0
CLASS
  1
SCALE
  2
AcDbScale
  3
ObjectDBX Classes
 90
     1153
280
     0
281
     0
  0
CLASS
  1
DICTIONARYVAR
  2
AcDbDictionaryVar
  3
ObjectDBX Classes
 90
        0
280
     0
281
     0
  0
CLASS
  1
XRECORD
  2
AcDbXrecord
  3
AutoCAD 2000
 90
    32768
280
     0
281
     0
  0
CLASS
  1
LWPOLYLINE
  2
AcDbPolyline
  3
AutoCAD 2000
 90
    32768
280
     0
281
     1
  0
CLASS
  1
HATCH
  2
AcDbHatch
  3
AutoCAD 2000
 90
    32768
280
     0
281
     1
  0
CLASS
  1
ACDBPLACEHOLDER
  2
AcDbPlaceHolder
  3
ObjectDBX Classes
 90
        0
280
     0
281
     0
  0
CLASS
  1
LAYOUT
  2
AcDbLayout
  3
ObjectDBX Classes
 90
        0
280
     0
281
     0
  0
ENDSEC
  0
SECTION
  2
TABLES
  0
TABLE
  2
VPORT
  5
8
330
0
100
AcDbSymbolTable
 70
     1
  0
VPORT
  5
29
330
8
100
AcDbSymbolTableRecord
100
AcDbViewportTableRecord
  2
*ACTIVE
 70
     0
 10
0.0
 20
0.0
 11
1.0
 21
1.0
 12
5.5
 22
4.25
 13
0.0
 23
0.0
 14
0.5
 24
0.5
 15
0.5
 25
0.5
 16
0.0
 26
0.0
 36
1.0
 17
0.0
 27
0.0
 37
0.0
 40
8.5
 41
1.2941176471
 42
50.0
 43
0.0
 44
0.0
 50
0.0
 51
0.0
 71
     0
 72
  2000
 73
     1
 74
     3
 75
     0
 76
     0
 77
     0
 78
     0
  0
ENDTAB
  0
TABLE
  2
LTYPE
  5
5
330
0
100
AcDbSymbolTable
 70
     6
  0
LTYPE
  5
14
330
5
100
AcDbSymbolTableRecord
100
AcDbLinetypeTableRecord
  2
BYBLOCK
 70
     0
  3

 72
    65
 73
     0
 40
0.0
  0
LTYPE
  5
15
330
5
100
AcDbSymbolTableRecord
100
AcDbLinetypeTableRecord
  2
BYLAYER
 70
     0
  3

 72
    65
 73
     0
 40
0.0
  0
LTYPE
  5
16
330
5
100
AcDbSymbolTableRecord
100
AcDbLinetypeTableRecord
  2
CONTINUOUS
 70
     0
  3
Solid line
 72
    65
 73
     0
 40
0.0
  0
LTYPE
  5
3B
330
5
100
AcDbSymbolTableRecord
100
AcDbLinetypeTableRecord
  2
HIDDEN
 70
     0
  3
Hidden __ __ __ __ __ __ __ __ __ __ __ __ __ __
 72
    65
 73
     2
 40
0.075
 49
0.05
 74
     0
 49
-0.025
 74
     0
  0
LTYPE
  5
3C
330
5
100
AcDbSymbolTableRecord
100
AcDbLinetypeTableRecord
  2
PHANTOM
 70
     0
  3
Phantom ______  __  __  ______  __  __  ______
 72
    65
 73
     6
 40
0.5
 49
0.25
 74
     0
 49
-0.05
 74
     0
 49
0.05
 74
     0
 49
-0.05
 74
     0
 49
0.05
 74
     0
 49
-0.05
 74
     0
  0
LTYPE
  5
3D
330
5
100
AcDbSymbolTableRecord
100
AcDbLinetypeTableRecord
  2
CENTER
 70
     0
  3
Center ____ _ ____ _ ____ _ ____ _ ____ _ ____
 72
    65
 73
     4
 40
0.4
 49
0.25
 74
     0
 49
-0.05
 74
     0
 49
0.05
 74
     0
 49
-0.05
 74
     0
  0
LTYPE
  5
3E
330
5
100
AcDbSymbolTableRecord
100
AcDbLinetypeTableRecord
  2
CENTERX2
 70
     0
  3
Center (2x) ________  __  ________  __  _____
 72
    65
 73
     4
 40
0.8
 49
0.5
 74
     0
 49
-0.1
 74
     0
 49
0.1
 74
     0
 49
-0.1
 74
     0
  0
LTYPE
  5
3F
330
5
100
AcDbSymbolTableRecord
100
AcDbLinetypeTableRecord
  2
DOT2
 70
     0
  3
Dot (.5x) ........................................
 72
    65
 73
     2
 40
0.025
 49
0.0
 74
     0
 49
-0.025
 74
     0
  0
ENDTAB
  0
TABLE
  2
LAYER
  5
2
330
0
100
AcDbSymbolTable
 70
     2
  0
LAYER
  5
10
330
2
100
AcDbSymbolTableRecord
100
AcDbLayerTableRecord
  2
0
 70
     0
 62
     7
  6
CONTINUOUS
  0
LAYER
  5
40
330
2
100
AcDbSymbolTableRecord
100
AcDbLayerTableRecord
  2
FORMAT
 70
     0
 62
     7
  6
CONTINUOUS
  0
ENDTAB
  0
TABLE
  2
STYLE
  5
3
330
0
100
AcDbSymbolTable
 70
     4
  0
STYLE
  5
11
330
3
100
AcDbSymbolTableRecord
100
AcDbTextStyleTableRecord
  2
STANDARD
 70
     0
 40
0.0
 41
1.0
 50
0.0
 71
     0
 42
0.2
  3
txt
  4

  0
STYLE
  5
6E
330
3
100
AcDbSymbolTableRecord
100
AcDbTextStyleTableRecord
  2
SLDTEXTSTYLE0
 70
     0
 40
0.0
 41
0.75
 50
0.0
 71
     0
 42
0.2
  3
TXT
  4

  0
STYLE
  5
93
330
3
100
AcDbSymbolTableRecord
100
AcDbTextStyleTableRecord
  2
SLDTEXTSTYLE1
 70
     0
 40
0.0
 41
0.6875
 50
0.0
 71
     0
 42
0.2
  3
TXT
  4

  0
STYLE
  5
99
330
3
100
AcDbSymbolTableRecord
100
AcDbTextStyleTableRecord
  2
SLDTEXTSTYLE2
 70
     0
 40
0.0
 41
0.6944444444
 50
0.0
 71
     0
 42
0.2
  3
TXT
  4

  0
ENDTAB
  0
TABLE
  2
VIEW
  5
6
330
0
100
AcDbSymbolTable
 70
     0
  0
ENDTAB
  0
TABLE
  2
UCS
  5
7
330
0
100
AcDbSymbolTable
 70
     0
  0
ENDTAB
  0
TABLE
  2
APPID
  5
9
330
0
100
AcDbSymbolTable
 70
     1
  0
APPID
  5
12
330
9
100
AcDbSymbolTableRecord
100
AcDbRegAppTableRecord
  2
ACAD
 70
     0
  0
ENDTAB
  0
TABLE
  2
DIMSTYLE
  5
A
330
0
100
AcDbSymbolTable
 70
     1
  0
DIMSTYLE
105
27
330
A
100
AcDbSymbolTableRecord
100
AcDbDimStyleTableRecord
  2
STANDARD
 70
     0
  3

  4

  5

  6

  7

 40
1.0
 41
0.18
 42
0.0625
 43
0.38
 44
0.18
 45
0.0
 46
0.0
 47
0.0
 48
0.0
140
0.18
141
0.09
142
0.0
143
25.4
144
1.0
145
0.0
146
1.0
147
0.09
 71
     0
 72
     0
 73
     1
 74
     1
 75
     0
 76
     0
 77
     0
 78
     0
170
     0
171
     2
172
     0
173
     0
174
     0
175
     0
176
     0
177
     0
178
     0
270
     2
271
     4
272
     4
273
     2
274
     2
340
11
275
     0
280
     0
281
     0
282
     0
283
     1
284
     0
285
     0
286
     0
287
     3
288
     0
  0
ENDTAB
  0
TABLE
  2
BLOCK_RECORD
  5
1
330
0
100
AcDbSymbolTable
 70
     4
  0
BLOCK_RECORD
  5
1F
330
1
100
AcDbSymbolTableRecord
100
AcDbBlockTableRecord
  2
*MODEL_SPACE
  0
BLOCK_RECORD
  5
1B
330
1
100
AcDbSymbolTableRecord
100
AcDbBlockTableRecord
  2
*PAPER_SPACE
  0
BLOCK_RECORD
  5
A8
330
1
100
AcDbSymbolTableRecord
100
AcDbBlockTableRecord
  2
SW_NOTE_0
  0
BLOCK_RECORD
  5
AE
330
1
100
AcDbSymbolTableRecord
100
AcDbBlockTableRecord
  2
SW_NOTE_1
  0
BLOCK_RECORD
  5
C2
330
1
100
AcDbSymbolTableRecord
100
AcDbBlockTableRecord
  2
SW_NOTE_2
  0
ENDTAB
  0
ENDSEC
  0
SECTION
  2
BLOCKS
  0
BLOCK
  5
20
330
1F
100
AcDbEntity
  8
0
100
AcDbBlockBegin
  2
*MODEL_SPACE
 70
     0
 10
0.0
 20
0.0
 30
0.0
  3
*MODEL_SPACE
  1

  0
ENDBLK
  5
21
330
1F
100
AcDbEntity
  8
0
100
AcDbBlockEnd
  0
BLOCK
  5
1C
330
1B
100
AcDbEntity
 67
     1
  8
0
100
AcDbBlockBegin
  2
*PAPER_SPACE
 70
     0
 10
0.0
 20
0.0
 30
0.0
  3
*PAPER_SPACE
  1

  0
ENDBLK
  5
1D
330
1B
100
AcDbEntity
 67
     1
  8
0
100
AcDbBlockEnd
  0
BLOCK
  5
A9
330
A8
100
AcDbEntity
  8
0
100
AcDbBlockBegin
  2
SW_NOTE_0
 70
     0
 10
0.0
 20
0.0
 30
0.0
  3
SW_NOTE_0
  1

  0
MTEXT
  5
AB
330
A8
100
AcDbEntity
  8
0
  6
CONTINUOUS
 62
     0
100
AcDbMText
 10
0.0
 20
0.0773440644
 30
0.0
 40
0.06
 41
0.0
 71
     1
 72
     1
  1
INTERPRET GEOMETRIC
  7
SLDTEXTSTYLE0
  0
MTEXT
  5
AC
330
A8
100
AcDbEntity
  8
0
  6
CONTINUOUS
 62
     0
100
AcDbMText
 10
0.0
 20
-0.0220260102
 30
0.0
 40
0.06
 41
0.0
 71
     1
 72
     1
  1
TOLERANCING PER:
  7
SLDTEXTSTYLE0
  0
ENDBLK
  5
AA
330
A8
100
AcDbEntity
  8
0
100
AcDbBlockEnd
  0
BLOCK
  5
AF
330
AE
100
AcDbEntity
  8
0
100
AcDbBlockBegin
  2
SW_NOTE_1
 70
     0
 10
0.0
 20
0.0
 30
0.0
  3
SW_NOTE_1
  1

  0
MTEXT
  5
B1
330
AE
100
AcDbEntity
  8
0
  6
CONTINUOUS
 62
     0
100
AcDbMText
 10
0.0
 20
0.0837894031
 30
0.0
 40
0.065
 41
0.0
 71
     1
 72
     1
  1
DIMENSIONS ARE IN INCHES
  7
SLDTEXTSTYLE0
  0
MTEXT
  5
B2
330
AE
100
AcDbEntity
  8
0
  6
CONTINUOUS
 62
     0
100
AcDbMText
 10
0.0
 20
-0.0205806729
 30
0.0
 40
0.065
 41
0.0
 71
     1
 72
     1
  1
TOLERANCES:
  7
SLDTEXTSTYLE0
  0
MTEXT
  5
B3
330
AE
100
AcDbEntity
  8
0
  6
CONTINUOUS
 62
     0
100
AcDbMText
 10
0.0
 20
-0.1249507489
 30
0.0
 40
0.065
 41
0.0
 71
     1
 72
     1
  1
FRACTIONAL
  7
SLDTEXTSTYLE0
  0
MTEXT
  5
B4
330
AE
100
AcDbEntity
  8
0
  6
CONTINUOUS
 62
     0
100
AcDbMText
 10
0.5175850875
 20
-0.1249507489
 30
0.0
 40
0.065
 41
0.0
 71
     1
 72
     1
  1
%%p
  7
SLDTEXTSTYLE0
  0
MTEXT
  5
B5
330
AE
100
AcDbEntity
  8
0
  6
CONTINUOUS
 62
     0
100
AcDbMText
 10
0.0
 20
-0.2293208248
 30
0.0
 40
0.065
 41
0.0
 71
     1
 72
     1
  1
ANGULAR: MACH
  7
SLDTEXTSTYLE0
  0
MTEXT
  5
B6
330
AE
100
AcDbEntity
  8
0
  6
CONTINUOUS
 62
     0
100
AcDbMText
 10
0.7233732769
 20
-0.2293208248
 30
0.0
 40
0.065
 41
0.0
 71
     1
 72
     1
  1
%%p
  7
SLDTEXTSTYLE0
  0
MTEXT
  5
B7
330
AE
100
AcDbEntity
  8
0
  6
CONTINUOUS
 62
     0
100
AcDbMText
 10
0.7852857683
 20
-0.2293208248
 30
0.0
 40
0.065
 41
0.0
 71
     1
 72
     1
  1
     BEND 
  7
SLDTEXTSTYLE0
  0
MTEXT
  5
B8
330
AE
100
AcDbEntity
  8
0
  6
CONTINUOUS
 62
     0
100
AcDbMText
 10
1.14784136
 20
-0.2293208248
 30
0.0
 40
0.065
 41
0.0
 71
     1
 72
     1
  1
%%p
  7
SLDTEXTSTYLE0
  0
MTEXT
  5
B9
330
AE
100
AcDbEntity
  8
0
  6
CONTINUOUS
 62
     0
100
AcDbMText
 10
0.0
 20
-0.3336909008
 30
0.0
 40
0.065
 41
0.0
 71
     1
 72
     1
  1
TWO PLACE DECIMAL    
  7
SLDTEXTSTYLE0
  0
MTEXT
  5
BA
330
AE
100
AcDbEntity
  8
0
  6
CONTINUOUS
 62
     0
100
AcDbMText
 10
0.9794349188
 20
-0.3336909008
 30
0.0
 40
0.065
 41
0.0
 71
     1
 72
     1
  1
%%p
  7
SLDTEXTSTYLE0
  0
MTEXT
  5
BB
330
AE
100
AcDbEntity
  8
0
  6
CONTINUOUS
 62
     0
100
AcDbMText
 10
0.0
 20
-0.4380609768
 30
0.0
 40
0.065
 41
0.0
 71
     1
 72
     1
  1
THREE PLACE DECIMAL  
  7
SLDTEXTSTYLE0
  0
MTEXT
  5
BC
330
AE
100
AcDbEntity
  8
0
  6
CONTINUOUS
 62
     0
100
AcDbMText
 10
0.9738038639
 20
-0.4380609768
 30
0.0
 40
0.065
 41
0.0
 71
     1
 72
     1
  1
%%p
  7
SLDTEXTSTYLE0
  0
ENDBLK
  5
B0
330
AE
100
AcDbEntity
  8
0
100
AcDbBlockEnd
  0
BLOCK
  5
C3
330
C2
100
AcDbEntity
  8
0
100
AcDbBlockBegin
  2
SW_NOTE_2
 70
     0
 10
0.0
 20
0.0
 30
0.0
  3
SW_NOTE_2
  1

  0
MTEXT
  5
C5
330
C2
100
AcDbEntity
  8
0
  6
CONTINUOUS
 62
     0
100
AcDbMText
 10
0.0
 20
0.0773440644
 30
0.0
 40
0.06
 41
0.0
 71
     1
 72
     1
  1
THE INFORMATION CONTAINED IN THIS
  7
SLDTEXTSTYLE0
  0
MTEXT
  5
C6
330
C2
100
AcDbEntity
  8
0
  6
CONTINUOUS
 62
     0
100
AcDbMText
 10
0.0
 20
-0.0220260102
 30
0.0
 40
0.06
 41
0.0
 71
     1
 72
     1
  1
DRAWING IS THE SOLE PROPERTY OF
  7
SLDTEXTSTYLE0
  0
MTEXT
  5
C7
330
C2
100
AcDbEntity
  8
0
  6
CONTINUOUS
 62
     0
100
AcDbMText
 10
0.0
 20
-0.1213960848
 30
0.0
 40
0.06
 41
0.0
 71
     1
 72
     1
  1
Candy Controls.  ANY 
  7
SLDTEXTSTYLE0
  0
MTEXT
  5
C8
330
C2
100
AcDbEntity
  8
0
  6
CONTINUOUS
 62
     0
100
AcDbMText
 10
0.0
 20
-0.2207661593
 30
0.0
 40
0.06
 41
0.0
 71
     1
 72
     1
  1
REPRODUCTION IN PART OR AS A WHOLE
  7
SLDTEXTSTYLE0
  0
MTEXT
  5
C9
330
C2
100
AcDbEntity
  8
0
  6
CONTINUOUS
 62
     0
100
AcDbMText
 10
0.0
 20
-0.3201362339
 30
0.0
 40
0.06
 41
0.0
 71
     1
 72
     1
  1
WITHOUT THE WRITTEN PERMISSION OF
  7
SLDTEXTSTYLE0
  0
MTEXT
  5
CA
330
C2
100
AcDbEntity
  8
0
  6
CONTINUOUS
 62
     0
100
AcDbMText
 10
0.0
 20
-0.4195063085
 30
0.0
 40
0.06
 41
0.0
 71
     1
 72
     1
  1
Candy Controls IS 
  7
SLDTEXTSTYLE0
  0
MTEXT
  5
CB
330
C2
100
AcDbEntity
  8
0
  6
CONTINUOUS
 62
     0
100
AcDbMText
 10
0.0
 20
-0.518876383
 30
0.0
 40
0.06
 41
0.0
 71
     1
 72
     1
  1
PROHIBITED.
  7
SLDTEXTSTYLE0
  0
ENDBLK
  5
C4
330
C2
100
AcDbEntity
  8
0
100
AcDbBlockEnd
  0
ENDSEC
  0
SECTION
  2
ENTITIES
  0
LINE
  5
41
330
1F
100
AcDbEntity
  8
0
  6
CONTINUOUS
 62
     7
100
AcDbLine
 10
0.329927
 20
8.1920731707
 30
0.0
 11
10.629927
 21
8.1920731707
 31
0.0
  0
LINE
  5
42
330
1F
100
AcDbEntity
  8
0
  6
CONTINUOUS
 62
     7
100
AcDbLine
 10
0.329927
 20
8.1920731707
 30
0.0
 11
0.329927
 21
0.3920731707
 31
0.0
  0
LINE
  5
43
330
1F
100
AcDbEntity
  8
0
  6
CONTINUOUS
 62
     7
100
AcDbLine
 10
10.629927
 20
0.3920731707
 30
0.0
 11
0.329927
 21
0.3920731707
 31
0.0
  0
LINE
  5
44
330
1F
100
AcDbEntity
  8
0
  6
CONTINUOUS
 62
     7
100
AcDbLine
 10
10.629927
 20
0.3920731707
 30
0.0
 11
10.629927
 21
8.1920731707
 31
0.0
  0
LINE
  5
45
330
1F
100
AcDbEntity
  8
0
  6
CONTINUOUS
 62
     7
100
AcDbLine
 10
4.7981841288
 20
0.3920731707
 30
0.0
 11
4.7981841288
 21
2.3564211366
 31
0.0
  0
LINE
  5
46
330
1F
100
AcDbEntity
  8
0
  6
CONTINUOUS
 62
     7
100
AcDbLine
 10
2.8210345579
 20
2.3564211366
 30
0.0
 11
10.629927
 21
2.3564211366
 31
0.0
  0
LINE
  5
47
330
1F
100
AcDbEntity
  8
0
  6
CONTINUOUS
 62
     7
100
AcDbLine
 10
6.1796352514
 20
2.3564211366
 30
0.0
 11
6.1796352514
 21
0.3920731707
 31
0.0
  0
LINE
  5
48
330
1F
100
AcDbEntity
  8
0
  6
CONTINUOUS
 62
     7
100
AcDbLine
 10
7.8712070044
 20
2.3564211366
 30
0.0
 11
7.8712070044
 21
0.3920731707
 31
0.0
  0
LINE
  5
49
330
1F
100
AcDbEntity
  8
0
  6
CONTINUOUS
 62
     7
100
AcDbLine
 10
7.8712070044
 20
0.6049590101
 30
0.0
 11
10.629927
 21
0.6049590101
 31
0.0
  0
LINE
  5
4A
330
1F
100
AcDbEntity
  8
0
  6
CONTINUOUS
 62
     7
100
AcDbLine
 10
7.8712070044
 20
1.1119362457
 30
0.0
 11
10.629927
 21
1.1119362457
 31
0.0
  0
LINE
  5
4B
330
1F
100
AcDbEntity
  8
0
  6
CONTINUOUS
 62
     7
100
AcDbLine
 10
7.8712070044
 20
1.9892703708
 30
0.0
 11
10.629927
 21
1.9892703708
 31
0.0
  0
LINE
  5
4C
330
1F
100
AcDbEntity
  8
0
  6
CONTINUOUS
 62
     7
100
AcDbLine
 10
8.266751752
 20
1.1119362457
 30
0.0
 11
8.266751752
 21
0.6049590101
 31
0.0
  0
LINE
  5
4D
330
1F
100
AcDbEntity
  8
0
  6
CONTINUOUS
 62
     7
100
AcDbLine
 10
8.6943435176
 20
0.6049590101
 30
0.0
 11
8.6943435176
 21
0.3920731707
 31
0.0
  0
LINE
  5
4E
330
1F
100
AcDbEntity
  8
0
  6
CONTINUOUS
 62
     7
100
AcDbLine
 10
10.0579917045
 20
1.1119362457
 30
0.0
 11
10.0579917045
 21
0.6049590101
 31
0.0
  0
LINE
  5
4F
330
1F
100
AcDbEntity
  8
0
  6
CONTINUOUS
 62
     7
100
AcDbLine
 10
9.6662556631
 20
0.6049590101
 30
0.0
 11
9.6662556631
 21
0.3920731707
 31
0.0
  0
LINE
  5
50
330
1F
100
AcDbEntity
  8
0
  6
CONTINUOUS
 62
     7
100
AcDbLine
 10
2.8210345579
 20
0.5883479999
 30
0.0
 11
6.1796352514
 21
0.5883479999
 31
0.0
  0
LINE
  5
51
330
1F
100
AcDbEntity
  8
0
  6
CONTINUOUS
 62
     7
100
AcDbLine
 10
6.1796352514
 20
1.7939211366
 30
0.0
 11
7.8712070044
 21
1.7939211366
 31
0.0
  0
LINE
  5
52
330
1F
100
AcDbEntity
  8
0
  6
CONTINUOUS
 62
     7
100
AcDbLine
 10
6.1796352514
 20
1.9814211366
 30
0.0
 11
7.8712070044
 21
1.9814211366
 31
0.0
  0
LINE
  5
53
330
1F
100
AcDbEntity
  8
0
  6
CONTINUOUS
 62
     7
100
AcDbLine
 10
6.1796352514
 20
2.1689211366
 30
0.0
 11
7.8712070044
 21
2.1689211366
 31
0.0
  0
LINE
  5
54
330
1F
100
AcDbEntity
  8
0
  6
CONTINUOUS
 62
     7
100
AcDbLine
 10
7.8712070044
 20
1.2314211366
 30
0.0
 11
6.1796352514
 21
1.2314211366
 31
0.0
  0
LINE
  5
55
330
1F
100
AcDbEntity
  8
0
  6
CONTINUOUS
 62
     7
100
AcDbLine
 10
7.3921580388
 20
2.3564211366
 30
0.0
 11
7.3921580388
 21
1.2314211366
 31
0.0
  0
LINE
  5
56
330
1F
100
AcDbEntity
  8
0
  6
CONTINUOUS
 62
     7
100
AcDbLine
 10
6.9236308342
 20
2.3564211366
 30
0.0
 11
6.9236308342
 21
1.2314211366
 31
0.0
  0
LINE
  5
57
330
1F
100
AcDbEntity
  8
0
  6
CONTINUOUS
 62
     7
100
AcDbLine
 10
4.7981841288
 20
0.8557965305
 30
0.0
 11
6.1796352514
 21
0.8557965305
 31
0.0
  0
LINE
  5
58
330
1F
100
AcDbEntity
  8
0
  6
CONTINUOUS
 62
     7
100
AcDbLine
 10
4.7981841288
 20
1.1257965305
 30
0.0
 11
6.1796352514
 21
1.1257965305
 31
0.0
  0
LINE
  5
59
330
1F
100
AcDbEntity
  8
0
  6
CONTINUOUS
 62
     7
100
AcDbLine
 10
2.8210345579
 20
0.3920731707
 30
0.0
 11
2.8210345579
 21
2.3564211366
 31
0.0
  0
LINE
  5
5A
330
1F
100
AcDbEntity
  8
0
  6
CONTINUOUS
 62
     7
100
AcDbLine
 10
2.8210345579
 20
1.1064211366
 30
0.0
 11
4.7981841288
 21
1.1064211366
 31
0.0
  0
LINE
  5
5B
330
1F
100
AcDbEntity
  8
0
  6
CONTINUOUS
 62
     7
100
AcDbLine
 10
2.8210345579
 20
1.3564211366
 30
0.0
 11
4.7981841288
 21
1.3564211366
 31
0.0
  0
LINE
  5
5C
330
1F
100
AcDbEntity
  8
0
  6
CONTINUOUS
 62
     7
100
AcDbLine
 10
2.8210345579
 20
1.6064211366
 30
0.0
 11
4.7981841288
 21
1.6064211366
 31
0.0
  0
LINE
  5
5D
330
1F
100
AcDbEntity
  8
0
  6
CONTINUOUS
 62
     7
100
AcDbLine
 10
2.8210345579
 20
1.8564211366
 30
0.0
 11
4.7981841288
 21
1.8564211366
 31
0.0
  0
LINE
  5
5E
330
1F
100
AcDbEntity
  8
0
  6
CONTINUOUS
 62
     7
100
AcDbLine
 10
3.8190146875
 20
2.3564211366
 30
0.0
 11
3.8190146875
 21
0.5883479999
 31
0.0
  0
LINE
  5
5F
330
1F
100
AcDbEntity
  8
0
  6
CONTINUOUS
 62
     7
100
AcDbLine
 10
6.1796352514
 20
2.2020813496
 30
0.0
 11
4.7981841288
 21
2.2020813496
 31
0.0
  0
LINE
  5
60
330
1F
100
AcDbEntity
  8
0
  6
CONTINUOUS
 62
     7
100
AcDbLine
 10
7.8712070044
 20
1.6064211366
 30
0.0
 11
6.1796352514
 21
1.6064211366
 31
0.0
  0
LINE
  5
61
330
1F
100
AcDbEntity
  8
0
  6
CONTINUOUS
 62
     7
100
AcDbLine
 10
7.8712070044
 20
1.4189211366
 30
0.0
 11
6.1796352514
 21
1.4189211366
 31
0.0
  0
LINE
  5
62
330
1F
100
AcDbEntity
  8
0
  6
CONTINUOUS
 62
     7
100
AcDbLine
 10
2.8210345579
 20
2.1064211366
 30
0.0
 11
4.7981841288
 21
2.1064211366
 31
0.0
  0
LINE
  5
63
330
1F
100
AcDbEntity
  8
0
  6
CONTINUOUS
 62
     7
100
AcDbLine
 10
4.7981841288
 20
1.3957965305
 30
0.0
 11
6.1796352514
 21
1.3957965305
 31
0.0
  0
LINE
  5
64
330
1F
100
AcDbEntity
  8
0
  6
CONTINUOUS
 62
     7
100
AcDbLine
 10
2.8210345579
 20
0.8564211366
 30
0.0
 11
4.7981841288
 21
0.8564211366
 31
0.0
  0
LINE
  5
65
330
1F
100
AcDbEntity
  8
0
  6
CONTINUOUS
 62
     7
100
AcDbLine
 10
1.1838252943
 20
0.3920731707
 30
0.0
 11
1.1838252943
 21
1.3064211366
 31
0.0
  0
LINE
  5
66
330
1F
100
AcDbEntity
  8
0
  6
CONTINUOUS
 62
     7
100
AcDbLine
 10
2.8210345579
 20
1.3064211366
 30
0.0
 11
1.1838252943
 21
1.3064211366
 31
0.0
  0
LINE
  5
67
330
1F
100
AcDbEntity
  8
0
  6
CONTINUOUS
 62
     7
100
AcDbLine
 10
8.660927
 20
0.3920731707
 30
0.0
 11
8.660927
 21
0.3072739649
 31
0.0
  0
LINE
  5
68
330
1F
100
AcDbEntity
  8
0
  6
CONTINUOUS
 62
     7
100
AcDbLine
 10
6.692177
 20
0.3920731707
 30
0.0
 11
6.692177
 21
0.3072739649
 31
0.0
  0
LINE
  5
69
330
1F
100
AcDbEntity
  8
0
  6
CONTINUOUS
 62
     7
100
AcDbLine
 10
4.723427
 20
0.3920731707
 30
0.0
 11
4.723427
 21
0.3072739649
 31
0.0
  0
LINE
  5
6A
330
1F
100
AcDbEntity
  8
0
  6
CONTINUOUS
 62
     7
100
AcDbLine
 10
2.754677
 20
0.3920731707
 30
0.0
 11
2.754677
 21
0.3072739649
 31
0.0
  0
LINE
  5
6B
330
1F
100
AcDbEntity
  8
0
  6
CONTINUOUS
 62
     7
100
AcDbLine
 10
2.754677
 20
0.3920731707
 30
0.0
 11
2.7672319738
 21
0.3575
 31
0.0
  0
LINE
  5
6C
330
1F
100
AcDbEntity
  8
0
  6
CONTINUOUS
 62
     7
100
AcDbLine
 10
2.7672319738
 20
0.3575
 30
0.0
 11
2.7414258825
 21
0.3575
 31
0.0
  0
LINE
  5
6D
330
1F
100
AcDbEntity
  8
0
  6
CONTINUOUS
 62
     7
100
AcDbLine
 10
2.7414258825
 20
0.3575
 30
0.0
 11
2.754677
 21
0.3920731707
 31
0.0
  0
MTEXT
  5
91
330
1F
100
AcDbEntity
  8
0
  6
CONTINUOUS
 62
     7
100
AcDbMText
 10
4.9775846961
 20
0.5178452352
 30
0.0
 40
0.0625
 41
0.0
 71
     1
 72
     1
  1
DO NOT SCALE DRAWING
  7
SLDTEXTSTYLE0
  0
MTEXT
  5
92
330
1F
100
AcDbEntity
  8
0
  6
CONTINUOUS
 62
     7
100
AcDbMText
 10
8.5300459727
 20
0.9417064595
 30
0.0
 40
0.125
 41
0.0
 71
     1
 72
     1
  1
CL13-32_CLAMP
  7
SLDTEXTSTYLE0
  0
MTEXT
  5
94
330
1F
100
AcDbEntity
  8
0
  6
CONTINUOUS
 62
     7
100
AcDbMText
 10
9.7571278483
 20
0.5524239532
 30
0.0
 40
0.1
 41
0.0
 71
     1
 72
     1
  1
SHEET 1 OF 1
  7
SLDTEXTSTYLE1
  0
MTEXT
  5
95
330
1F
100
AcDbEntity
  8
0
  6
CONTINUOUS
 62
     7
100
AcDbMText
 10
4.8448077858
 20
2.3132954224
 30
0.0
 40
0.07
 41
0.0
 71
     1
 72
     1
  1
UNLESS OTHERWISE SPECIFIED:
  7
SLDTEXTSTYLE0
  0
MTEXT
  5
96
330
1F
100
AcDbEntity
  8
0
  6
CONTINUOUS
 62
     7
100
AcDbMText
 10
7.9586139647
 20
0.5520987879
 30
0.0
 40
0.1
 41
0.0
 71
     1
 72
     1
  1
SCALE: 1:1
  7
SLDTEXTSTYLE0
  0
MTEXT
  5
97
330
1F
100
AcDbEntity
  8
0
  6
CONTINUOUS
 62
     7
100
AcDbMText
 10
8.7023691647
 20
0.5486763345
 30
0.0
 40
0.1
 41
0.0
 71
     1
 72
     1
  1
WEIGHT: 
  7
SLDTEXTSTYLE0
  0
MTEXT
  5
98
330
1F
100
AcDbEntity
  8
0
  6
CONTINUOUS
 62
     7
100
AcDbMText
 10
10.2277580983
 20
1.081966299
 30
0.0
 40
0.1
 41
0.0
 71
     1
 72
     1
  1
REV
  7
SLDTEXTSTYLE0
  0
MTEXT
  5
9A
330
1F
100
AcDbEntity
  8
0
  6
CONTINUOUS
 62
     7
100
AcDbMText
 10
8.2984570898
 20
1.0858725293
 30
0.0
 40
0.1
 41
0.0
 71
     1
 72
     1
  1
DWG.  NO.
  7
SLDTEXTSTYLE2
  0
MTEXT
  5
9B
330
1F
100
AcDbEntity
  8
0
  6
CONTINUOUS
 62
     7
100
AcDbMText
 10
7.9598482632
 20
0.9442140768
 30
0.0
 40
0.25
 41
0.0
 71
     1
 72
     1
  1
A
  7
SLDTEXTSTYLE0
  0
MTEXT
  5
9C
330
1F
100
AcDbEntity
  8
0
  6
CONTINUOUS
 62
     7
100
AcDbMText
 10
7.9519581822
 20
1.0872713483
 30
0.0
 40
0.1
 41
0.0
 71
     1
 72
     1
  1
SIZE
  7
SLDTEXTSTYLE0
  0
MTEXT
  5
9D
330
1F
100
AcDbEntity
  8
0
  6
CONTINUOUS
 62
     7
100
AcDbMText
 10
7.9170704177
 20
1.9547881128
 30
0.0
 40
0.1
 41
0.0
 71
     1
 72
     1
  1
TITLE:
  7
SLDTEXTSTYLE0
  0
MTEXT
  5
9E
330
1F
100
AcDbEntity
  8
0
  6
CONTINUOUS
 62
     7
100
AcDbMText
 10
7.0363774929
 20
2.2906161274
 30
0.0
 40
0.065
 41
0.0
 71
     1
 72
     1
  1
NAME
  7
SLDTEXTSTYLE0
  0
MTEXT
  5
9F
330
1F
100
AcDbEntity
  8
0
  6
CONTINUOUS
 62
     7
100
AcDbMText
 10
7.5281510634
 20
2.2888799118
 30
0.0
 40
0.065
 41
0.0
 71
     1
 72
     1
  1
DATE
  7
SLDTEXTSTYLE0
  0
MTEXT
  5
A0
330
1F
100
AcDbEntity
  8
0
  6
CONTINUOUS
 62
     7
100
AcDbMText
 10
6.2277147029
 20
1.1876913145
 30
0.0
 40
0.065
 41
0.0
 71
     1
 72
     1
  1
COMMENTS:
  7
SLDTEXTSTYLE0
  0
MTEXT
  5
A1
330
1F
100
AcDbEntity
  8
0
  6
CONTINUOUS
 62
     7
100
AcDbMText
 10
6.2268411461
 20
1.3536101679
 30
0.0
 40
0.065
 41
0.0
 71
     1
 72
     1
  1
Q.A.
  7
SLDTEXTSTYLE0
  0
MTEXT
  5
A2
330
1F
100
AcDbEntity
  8
0
  6
CONTINUOUS
 62
     7
100
AcDbMText
 10
6.2284654509
 20
1.5395328424
 30
0.0
 40
0.065
 41
0.0
 71
     1
 72
     1
  1
MFG APPR.
  7
SLDTEXTSTYLE0
  0
MTEXT
  5
A3
330
1F
100
AcDbEntity
  8
0
  6
CONTINUOUS
 62
     7
100
AcDbMText
 10
6.2235171344
 20
1.7267501785
 30
0.0
 40
0.065
 41
0.0
 71
     1
 72
     1
  1
ENG APPR.
  7
SLDTEXTSTYLE0
  0
MTEXT
  5
A4
330
1F
100
AcDbEntity
  8
0
  6
CONTINUOUS
 62
     7
100
AcDbMText
 10
6.2264103951
 20
1.9092699088
 30
0.0
 40
0.065
 41
0.0
 71
     1
 72
     1
  1
CHECKED
  7
SLDTEXTSTYLE0
  0
MTEXT
  5
A5
330
1F
100
AcDbEntity
  8
0
  6
CONTINUOUS
 62
     7
100
AcDbMText
 10
6.2242794356
 20
2.1016301232
 30
0.0
 40
0.065
 41
0.0
 71
     1
 72
     1
  1
DRAWN
  7
SLDTEXTSTYLE0
  0
MTEXT
  5
A6
330
1F
100
AcDbEntity
  8
0
  6
CONTINUOUS
 62
     7
100
AcDbMText
 10
4.8208600979
 20
0.834523235
 30
0.0
 40
0.06
 41
0.0
 71
     1
 72
     1
  1
FINISH
  7
SLDTEXTSTYLE0
  0
MTEXT
  5
A7
330
1F
100
AcDbEntity
  8
0
  6
CONTINUOUS
 62
     7
100
AcDbMText
 10
4.8181240648
 20
1.1028217587
 30
0.0
 40
0.06
 41
0.0
 71
     1
 72
     1
  1
MATERIAL
  7
SLDTEXTSTYLE0
  0
INSERT
  5
AD
330
1F
100
AcDbEntity
  8
0
  6
CONTINUOUS
 62
     7
100
AcDbBlockReference
  2
SW_NOTE_0
 10
4.8231926633
 20
1.2646542947
 30
0.0
  0
INSERT
  5
BD
330
1F
100
AcDbEntity
  8
0
  6
CONTINUOUS
 62
     7
100
AcDbBlockReference
  2
SW_NOTE_1
 10
4.8353339353
 20
2.0049168724
 30
0.0
  0
MTEXT
  5
BE
330
1F
100
AcDbEntity
  8
0
  6
CONTINUOUS
 62
     7
100
AcDbMText
 10
3.5531400086
 20
0.5200091997
 30
0.0
 40
0.0625
 41
0.0
 71
     1
 72
     1
  1
APPLICATION
  7
SLDTEXTSTYLE0
  0
MTEXT
  5
BF
330
1F
100
AcDbEntity
  8
0
  6
CONTINUOUS
 62
     7
100
AcDbMText
 10
4.1005607758
 20
0.7502454275
 30
0.0
 40
0.0625
 41
0.0
 71
     1
 72
     1
  1
USED ON
  7
SLDTEXTSTYLE0
  0
MTEXT
  5
C0
330
1F
100
AcDbEntity
  8
0
  6
CONTINUOUS
 62
     7
100
AcDbMText
 10
3.1040019536
 20
0.7492094783
 30
0.0
 40
0.0625
 41
0.0
 71
     1
 72
     1
  1
NEXT ASSY
  7
SLDTEXTSTYLE0
  0
MTEXT
  5
C1
330
1F
100
AcDbEntity
  8
0
  6
CONTINUOUS
 62
     7
100
AcDbMText
 10
1.3712489489
 20
1.2496672684
 30
0.0
 40
0.06
 41
0.0
 71
     1
 72
     1
  1
PROPRIETARY AND CONFIDENTIAL
  7
SLDTEXTSTYLE0
  0
INSERT
  5
CC
330
1F
100
AcDbEntity
  8
0
  6
CONTINUOUS
 62
     7
100
AcDbBlockReference
  2
SW_NOTE_2
 10
1.2226209074
 20
1.0313492921
 30
0.0
  0
MTEXT
  5
CD
330
1F
100
AcDbEntity
  8
0
  6
CONTINUOUS
 62
     7
100
AcDbMText
 10
1.7387909509
 20
0.3105864247
 30
0.0
 40
0.09375
 41
0.0
 71
     1
 72
     1
  1
5
  7
SLDTEXTSTYLE0
  0
MTEXT
  5
CE
330
1F
100
AcDbEntity
  8
0
  6
CONTINUOUS
 62
     7
100
AcDbMText
 10
3.723800327
 20
0.3137237518
 30
0.0
 40
0.09375
 41
0.0
 71
     1
 72
     1
  1
4
  7
SLDTEXTSTYLE0
  0
MTEXT
  5
CF
330
1F
100
AcDbEntity
  8
0
  6
CONTINUOUS
 62
     7
100
AcDbMText
 10
5.6324457277
 20
0.3116191842
 30
0.0
 40
0.09375
 41
0.0
 71
     1
 72
     1
  1
3
  7
SLDTEXTSTYLE0
  0
MTEXT
  5
D0
330
1F
100
AcDbEntity
  8
0
  6
CONTINUOUS
 62
     7
100
AcDbMText
 10
7.6059721724
 20
0.3124391351
 30
0.0
 40
0.09375
 41
0.0
 71
     1
 72
     1
  1
2
  7
SLDTEXTSTYLE0
  0
MTEXT
  5
D1
330
1F
100
AcDbEntity
  8
0
  6
CONTINUOUS
 62
     7
100
AcDbMText
 10
9.6619921328
 20
0.301372012
 30
0.0
 40
0.09375
 41
0.0
 71
     1
 72
     1
  1
1
  7
SLDTEXTSTYLE0
  0
LINE
  5
D2
330
1F
100
AcDbEntity
  8
0
  6
CONTINUOUS
 62
     7
100
AcDbLine
 10
3.9368723239
 20
3.1287570265
 30
0.0
 11
3.9565573632
 21
3.1484420659
 31
0.0
  0
LINE
  5
D3
330
1F
100
AcDbEntity
  8
0
  6
CONTINUOUS
 62
     7
100
AcDbLine
 10
3.9565573632
 20
4.3689145069
 30
0.0
 11
3.9368723239
 21
4.3885995462
 31
0.0
  0
LINE
  5
D4
330
1F
100
AcDbEntity
  8
0
  6
CONTINUOUS
 62
     7
100
AcDbLine
 10
2.7163998829
 20
3.1287570265
 30
0.0
 11
3.9368723239
 21
3.1287570265
 31
0.0
  0
LINE
  5
D5
330
1F
100
AcDbEntity
  8
0
  6
CONTINUOUS
 62
     7
100
AcDbLine
 10
3.306951064
 20
4.3885995462
 30
0.0
 11
2.7163998829
 21
4.3885995462
 31
0.0
  0
LINE
  5
D6
330
1F
100
AcDbEntity
  8
0
  6
CONTINUOUS
 62
     7
100
AcDbLine
 10
3.9368723239
 20
4.3885995462
 30
0.0
 11
3.3463211428
 21
4.3885995462
 31
0.0
  0
LINE
  5
D7
330
1F
100
AcDbEntity
  8
0
  6
CONTINUOUS
 62
     7
100
AcDbLine
 10
2.7163998829
 20
4.3885995462
 30
0.0
 11
2.6967148435
 21
4.3689145069
 31
0.0
  0
LINE
  5
D8
330
1F
100
AcDbEntity
  8
0
  6
CONTINUOUS
 62
     7
100
AcDbLine
 10
2.6967148435
 20
3.1484420659
 30
0.0
 11
2.7163998829
 21
3.1287570265
 31
0.0
  0
ARC
  5
D9
330
1F
100
AcDbEntity
  8
0
  6
CONTINUOUS
 62
     7
100
AcDbCircle
 10
3.5234864971
 20
4.2212767116
 30
0.0
 40
0.0098425196850394
100
AcDbArc
 50
90.0
 51
180.0
  0
ARC
  5
DA
330
1F
100
AcDbEntity
  8
0
  6
CONTINUOUS
 62
     7
100
AcDbCircle
 10
3.7793920089
 20
4.2212767116
 30
0.0
 40
0.0098425196850394
100
AcDbArc
 50
0.0
 51
90.0
  0
LINE
  5
DB
330
1F
100
AcDbEntity
  8
0
  6
CONTINUOUS
 62
     7
100
AcDbLine
 10
3.5726990955
 20
3.7734420659
 30
0.0
 11
3.5726990955
 21
3.7439145069
 31
0.0
  0
LINE
  5
DC
330
1F
100
AcDbEntity
  8
0
  6
CONTINUOUS
 62
     7
100
AcDbLine
 10
3.7301794105
 20
3.7439145069
 30
0.0
 11
3.7301794105
 21
3.7734420659
 31
0.0
  0
ARC
  5
DD
330
1F
100
AcDbEntity
  8
0
  6
CONTINUOUS
 62
     7
100
AcDbCircle
 10
2.8738801979
 20
4.2212767116
 30
0.0
 40
0.0098425196850394
100
AcDbArc
 50
90.0
 51
180.0
  0
ARC
  5
DE
330
1F
100
AcDbEntity
  8
0
  6
CONTINUOUS
 62
     7
100
AcDbCircle
 10
3.1297857097
 20
4.2212767116
 30
0.0
 40
0.0098425196850398
100
AcDbArc
 50
0.0
 51
90.0
  0
LINE
  5
DF
330
1F
100
AcDbEntity
  8
0
  6
CONTINUOUS
 62
     7
100
AcDbLine
 10
2.9230927963
 20
3.7734420659
 30
0.0
 11
2.9230927963
 21
3.7439145069
 31
0.0
  0
LINE
  5
E0
330
1F
100
AcDbEntity
  8
0
  6
CONTINUOUS
 62
     7
100
AcDbLine
 10
3.0805731113
 20
3.7439145069
 30
0.0
 11
3.0805731113
 21
3.7734420659
 31
0.0
  0
LINE
  5
E1
330
1F
100
AcDbEntity
  8
0
  6
CONTINUOUS
 62
     7
100
AcDbLine
 10
3.9565573632
 20
3.7439145069
 30
0.0
 11
3.9565573632
 21
3.1484420659
 31
0.0
  0
LINE
  5
E2
330
1F
100
AcDbEntity
  8
0
  6
CONTINUOUS
 62
     7
100
AcDbLine
 10
3.9565573632
 20
4.3689145069
 30
0.0
 11
3.9565573632
 21
3.7734420659
 31
0.0
  0
LINE
  5
E3
330
1F
100
AcDbEntity
  8
0
  6
CONTINUOUS
 62
     7
100
AcDbLine
 10
3.9565573632
 20
3.7734420659
 30
0.0
 11
3.9368723239
 21
3.7734420659
 31
0.0
  0
LINE
  5
E4
330
1F
100
AcDbEntity
  8
0
  6
CONTINUOUS
 62
     7
100
AcDbLine
 10
3.9368723239
 20
3.7734420659
 30
0.0
 11
3.9368723239
 21
4.3885995462
 31
0.0
  0
LINE
  5
E5
330
1F
100
AcDbEntity
  8
0
  6
CONTINUOUS
 62
     7
100
AcDbLine
 10
3.9368723239
 20
3.1287570265
 30
0.0
 11
3.9368723239
 21
3.7439145069
 31
0.0
  0
LINE
  5
E6
330
1F
100
AcDbEntity
  8
0
  6
CONTINUOUS
 62
     7
100
AcDbLine
 10
3.9368723239
 20
3.7439145069
 30
0.0
 11
3.9565573632
 21
3.7439145069
 31
0.0
  0
SPLINE
  5
E7
330
1F
100
AcDbEntity
  8
0
  6
CONTINUOUS
 62
     7
100
AcDbSpline
210
0.0
220
0.0
230
1.0
 70
     8
 71
     3
 72
    60
 73
    56
 74
     0
 42
0.00000001
 43
0.00000001
 40
-0.0312499999999999
 40
-0.0312499999999999
 40
0.0
 40
0.0
 40
0.03125
 40
0.03125
 40
0.0625
 40
0.0625
 40
0.09375
 40
0.09375
 40
0.125
 40
0.125
 40
0.1875000000000001
 40
0.1875000000000001
 40
0.2187500000000001
 40
0.2187500000000001
 40
0.2500000000000002
 40
0.2500000000000002
 40
0.3125000000000002
 40
0.3125000000000002
 40
0.3750000000000001
 40
0.3750000000000001
 40
0.4062500000000001
 40
0.4062500000000001
 40
0.4375000000000001
 40
0.4375000000000001
 40
0.4687500000000001
 40
0.4687500000000001
 40
0.5000000000000001
 40
0.5000000000000001
 40
0.5312500000000001
 40
0.5312500000000001
 40
0.5625000000000001
 40
0.5625000000000001
 40
0.5937500000000001
 40
0.5937500000000001
 40
0.6250000000000001
 40
0.6250000000000001
 40
0.6562500000000001
 40
0.6562500000000001
 40
0.6875000000000001
 40
0.6875000000000001
 40
0.7187500000000001
 40
0.7187500000000001
 40
0.75
 40
0.75
 40
0.78125
 40
0.78125
 40
0.8125
 40
0.8125
 40
0.875
 40
0.875
 40
0.9375
 40
0.9375
 40
0.9687500000000001
 40
0.9687500000000001
 40
1.0
 40
1.0
 40
1.03125
 40
1.03125
 10
3.007987897907614
 20
3.365015132733488
 30
0.0
 10
2.995678009648893
 20
3.365015132733488
 30
0.0
 10
2.989752075730909
 20
3.364123855910284
 30
0.0
 10
2.978292384175432
 20
3.360834593748917
 30
0.0
 10
2.972963822215353
 20
3.358488383901686
 30
0.0
 10
2.963173292318943
 20
3.352905087407029
 30
0.0
 10
2.95873296529174
 20
3.349681120010229
 30
0.0
 10
2.950765917525174
 20
3.342819384344686
 30
0.0
 10
2.947181296937365
 20
3.339134264039842
 30
0.0
 10
2.937547375634583
 20
3.327634423429667
 30
0.0
 10
2.932754904473821
 20
3.319633361991138
 30
0.0
 10
2.927543624791645
 20
3.307375728947869
 30
0.0
 10
2.926152586373241
 20
3.303236506834981
 30
0.0
 10
2.924131700578755
 20
3.29509402967591
 30
0.0
 10
2.923488389646551
 20
3.291063099346066
 30
0.0
 10
2.922701219961519
 20
3.279095007143837
 30
0.0
 10
2.923729135592862
 20
3.271217190322242
 30
0.0
 10
2.929371420639919
 20
3.256708573919165
 30
0.0
 10
2.934082911708461
 20
3.249882339656921
 30
0.0
 10
2.94411999005527
 20
3.241179798708444
 30
0.0
 10
2.94802646097634
 20
3.238479403388505
 30
0.0
 10
2.956724153298067
 20
3.233753415455882
 30
0.0
 10
2.961499890662282
 20
3.231717383838597
 30
0.0
 10
2.972018349294554
 20
3.228326732431575
 30
0.0
 10
2.977603396675836
 20
3.227029097118574
 30
0.0
 10
2.989216552244656
 20
3.225263318777283
 30
0.0
 10
2.995365659396424
 20
3.224792279560027
 30
0.0
 10
3.007468195373817
 20
3.224752243017261
 30
0.0
 10
3.013566457051194
 20
3.225173982782772
 30
0.0
 10
3.025329144227511
 20
3.226878463014329
 30
0.0
 10
3.030914437889734
 20
3.228137172389525
 30
0.0
 10
3.041522186793475
 20
3.231468796371126
 30
0.0
 10
3.046363558220591
 20
3.233488107720841
 30
0.0
 10
3.05515478563943
 20
3.238172787404666
 30
0.0
 10
3.059100786723679
 20
3.240849670069858
 30
0.0
 10
3.065894024161427
 20
3.246634191976713
 30
0.0
 10
3.068809565140162
 20
3.249794560462951
 30
0.0
 10
3.073625649415714
 20
3.256467240308286
 30
0.0
 10
3.075523784845799
 20
3.259959506145846
 30
0.0
 10
3.078426182110569
 20
3.267251330503925
 30
0.0
 10
3.079425527528144
 20
3.271065712406232
 30
0.0
 10
3.080558167738999
 20
3.278797309749594
 30
0.0
 10
3.080703764783633
 20
3.282738386892377
 30
0.0
 10
3.080216359327485
 20
3.290771542469322
 30
0.0
 10
3.079575256630062
 20
3.294879224414781
 30
0.0
 10
3.077572093861112
 20
3.303046723617057
 30
0.0
 10
3.076211422259469
 20
3.307129068717235
 30
0.0
 10
3.071058700536641
 20
3.319356552975258
 30
0.0
 10
3.06615835474568
 20
3.327559030519752
 30
0.0
 10
3.053457462373161
 20
3.342775087723477
 30
0.0
 10
3.045499535861128
 20
3.350021506713071
 30
0.0
 10
3.030869156466634
 20
3.358406916033783
 30
0.0
 10
3.025493153327299
 20
3.360785253366459
 30
0.0
 10
3.01410650327061
 20
3.364083150916704
 30
0.0
 10
3.007987897907614
 20
3.365015132733488
 30
0.0
 10
2.995678009648893
 20
3.365015132733488
 30
0.0
  0
SPLINE
  5
E8
330
1F
100
AcDbEntity
  8
0
  6
CONTINUOUS
 62
     7
100
AcDbSpline
210
0.0
220
0.0
230
1.0
 70
     8
 71
     3
 72
    66
 73
    62
 74
     0
 42
0.00000001
 43
0.00000001
 40
0.0
 40
0.0
 40
0.0
 40
0.0
 40
0.03125
 40
0.03125
 40
0.0625
 40
0.0625
 40
0.125
 40
0.125
 40
0.15625
 40
0.15625
 40
0.1875
 40
0.1875
 40
0.21875
 40
0.21875
 40
0.25
 40
0.25
 40
0.28125
 40
0.28125
 40
0.3125
 40
0.3125
 40
0.34375
 40
0.34375
 40
0.375
 40
0.375
 40
0.40625
 40
0.40625
 40
0.4375
 40
0.4375
 40
0.46875
 40
0.46875
 40
0.5
 40
0.5
 40
0.53125
 40
0.53125
 40
0.5625
 40
0.5625
 40
0.59375
 40
0.59375
 40
0.625
 40
0.625
 40
0.65625
 40
0.65625
 40
0.6875
 40
0.6875
 40
0.71875
 40
0.71875
 40
0.75
 40
0.75
 40
0.78125
 40
0.78125
 40
0.8125
 40
0.8125
 40
0.84375
 40
0.84375
 40
0.875
 40
0.875
 40
0.9375000000000001
 40
0.9375000000000001
 40
0.9687500000000001
 40
0.9687500000000001
 40
1.0
 40
1.0
 40
1.0
 40
1.0
 10
3.689251593928396
 20
4.073638916313307
 30
0.0
 10
3.698098020122269
 20
4.0780113923385
 30
0.0
 10
3.70591786881694
 20
4.083351590646847
 30
0.0
 10
3.720345824417653
 20
4.095071388790659
 30
0.0
 10
3.726979296553599
 20
4.10152116848803
 30
0.0
 10
3.745140594212061
 20
4.121530970807991
 30
0.0
 10
3.754954991578733
 20
4.135594751223594
 30
0.0
 10
3.767244102680346
 20
4.157067418419747
 30
0.0
 10
3.77091922801481
 20
4.16432218615661
 30
0.0
 10
3.777278259141087
 20
4.178641190011549
 30
0.0
 10
3.77998417885601
 20
4.185740122979795
 30
0.0
 10
3.784426641370582
 20
4.199799884261757
 30
0.0
 10
3.786163499967091
 20
4.206760787608504
 30
0.0
 10
3.788560106401945
 20
4.220538152589036
 30
0.0
 10
3.78920853155457
 20
4.227342363282419
 30
0.0
 10
3.789258980357305
 20
4.240450230296327
 30
0.0
 10
3.788671617651203
 20
4.246798740619302
 30
0.0
 10
3.786096998401892
 20
4.259086590569466
 30
0.0
 10
3.7840809395043
 20
4.265073269213474
 30
0.0
 10
3.778526944931598
 20
4.276293044863641
 30
0.0
 10
3.774999748471321
 20
4.281550532469884
 30
0.0
 10
3.766240506413008
 20
4.291384364409318
 30
0.0
 10
3.76094769678755
 20
4.295982524467418
 30
0.0
 10
3.748928007038941
 20
4.304117548260371
 30
0.0
 10
3.742168037890321
 20
4.307713091451411
 30
0.0
 10
3.726990738063253
 20
4.314016952713046
 30
0.0
 10
3.718555485282483
 20
4.316704288174662
 30
0.0
 10
3.700890275598863
 20
4.320946244314285
 30
0.0
 10
3.691485979812469
 20
4.322560408343556
 30
0.0
 10
3.671860068169461
 20
4.324736779336614
 30
0.0
 10
3.661933432597457
 20
4.325275418564027
 30
0.0
 10
3.641856047762303
 20
4.325307655708898
 30
0.0
 10
3.631691554443847
 20
4.324781039177005
 30
0.0
 10
3.612240531339641
 20
4.322682541015267
 30
0.0
 10
3.602697754808076
 20
4.321086079683461
 30
0.0
 10
3.584818983000833
 20
4.316851931682883
 30
0.0
 10
3.576523170978843
 20
4.314241357189553
 30
0.0
 10
3.561162192640074
 20
4.307937516525749
 30
0.0
 10
3.554246727099578
 20
4.304290955187631
 30
0.0
 10
3.542117143438866
 20
4.296134661459218
 30
0.0
 10
3.536810950922996
 20
4.29155008167785
 30
0.0
 10
3.527986969462883
 20
4.281699577809965
 30
0.0
 10
3.524428373724609
 20
4.276424763023392
 30
0.0
 10
3.51882322475059
 20
4.265148129851265
 30
0.0
 10
3.516811932093827
 20
4.259188636755697
 30
0.0
 10
3.514222916071791
 20
4.246917626603506
 30
0.0
 10
3.513625112346148
 20
4.240564380700254
 30
0.0
 10
3.513663742410776
 20
4.227418355259749
 30
0.0
 10
3.514312963329965
 20
4.220588984665813
 30
0.0
 10
3.516697442594769
 20
4.206842361344945
 30
0.0
 10
3.518427547607551
 20
4.199889682636615
 30
0.0
 10
3.522861128258802
 20
4.185832519459116
 30
0.0
 10
3.525564840702426
 20
4.178727953775125
 30
0.0
 10
3.531928995249473
 20
4.164383410079333
 30
0.0
 10
3.535607495235227
 20
4.157118953129711
 30
0.0
 10
3.547877155692556
 20
4.135666771615425
 30
0.0
 10
3.557671443369946
 20
4.12162549528205
 30
0.0
 10
3.575765502138165
 20
4.101657986104389
 30
0.0
 10
3.58243452437918
 20
4.095157652636915
 30
0.0
 10
3.59692796015327
 20
4.083371661833078
 30
0.0
 10
3.604775127740953
 20
4.078014040667224
 30
0.0
 10
3.613626912053307
 20
4.073638916313307
 30
0.0
  0
SPLINE
  5
E9
330
1F
100
AcDbEntity
  8
0
  6
CONTINUOUS
 62
     7
100
AcDbSpline
210
0.0
220
0.0
230
1.0
 70
     8
 71
     3
 72
    60
 73
    56
 74
     0
 42
0.00000001
 43
0.00000001
 40
-0.0312499999999999
 40
-0.0312499999999999
 40
0.0
 40
0.0
 40
0.03125
 40
0.03125
 40
0.0625
 40
0.0625
 40
0.09375
 40
0.09375
 40
0.125
 40
0.125
 40
0.1875000000000001
 40
0.1875000000000001
 40
0.2187500000000001
 40
0.2187500000000001
 40
0.2500000000000002
 40
0.2500000000000002
 40
0.3125000000000002
 40
0.3125000000000002
 40
0.3750000000000001
 40
0.3750000000000001
 40
0.4062500000000001
 40
0.4062500000000001
 40
0.4375000000000001
 40
0.4375000000000001
 40
0.4687500000000001
 40
0.4687500000000001
 40
0.5000000000000001
 40
0.5000000000000001
 40
0.5312500000000001
 40
0.5312500000000001
 40
0.5625000000000001
 40
0.5625000000000001
 40
0.5937500000000001
 40
0.5937500000000001
 40
0.6250000000000001
 40
0.6250000000000001
 40
0.6562500000000001
 40
0.6562500000000001
 40
0.6875000000000001
 40
0.6875000000000001
 40
0.7187500000000001
 40
0.7187500000000001
 40
0.75
 40
0.75
 40
0.78125
 40
0.78125
 40
0.8125
 40
0.8125
 40
0.875
 40
0.875
 40
0.9375
 40
0.9375
 40
0.9687500000000001
 40
0.9687500000000001
 40
1.0
 40
1.0
 40
1.03125
 40
1.03125
 10
3.645284308861491
 20
3.365015132733488
 30
0.0
 10
3.657594197120212
 20
3.365015132733488
 30
0.0
 10
3.663520131038196
 20
3.364123855910284
 30
0.0
 10
3.674979822593674
 20
3.360834593748917
 30
0.0
 10
3.680308384553752
 20
3.358488383901686
 30
0.0
 10
3.690098914450162
 20
3.352905087407029
 30
0.0
 10
3.694539241477365
 20
3.349681120010229
 30
0.0
 10
3.702506289243931
 20
3.342819384344686
 30
0.0
 10
3.70609090983174
 20
3.339134264039842
 30
0.0
 10
3.715724831134522
 20
3.327634423429667
 30
0.0
 10
3.720517302295284
 20
3.319633361991138
 30
0.0
 10
3.72572858197746
 20
3.307375728947869
 30
0.0
 10
3.727119620395865
 20
3.303236506834981
 30
0.0
 10
3.72914050619035
 20
3.29509402967591
 30
0.0
 10
3.729783817122553
 20
3.291063099346066
 30
0.0
 10
3.730570986807586
 20
3.279095007143837
 30
0.0
 10
3.729543071176243
 20
3.271217190322242
 30
0.0
 10
3.723900786129186
 20
3.256708573919165
 30
0.0
 10
3.719189295060644
 20
3.249882339656921
 30
0.0
 10
3.709152216713834
 20
3.241179798708444
 30
0.0
 10
3.705245745792765
 20
3.238479403388505
 30
0.0
 10
3.696548053471039
 20
3.233753415455882
 30
0.0
 10
3.691772316106823
 20
3.231717383838597
 30
0.0
 10
3.681253857474551
 20
3.228326732431575
 30
0.0
 10
3.675668810093268
 20
3.227029097118574
 30
0.0
 10
3.664055654524449
 20
3.225263318777283
 30
0.0
 10
3.657906547372681
 20
3.224792279560027
 30
0.0
 10
3.645804011395288
 20
3.224752243017261
 30
0.0
 10
3.639705749717911
 20
3.225173982782772
 30
0.0
 10
3.627943062541595
 20
3.226878463014329
 30
0.0
 10
3.622357768879371
 20
3.228137172389525
 30
0.0
 10
3.61175001997563
 20
3.231468796371126
 30
0.0
 10
3.606908648548514
 20
3.233488107720841
 30
0.0
 10
3.598117421129675
 20
3.238172787404666
 30
0.0
 10
3.594171420045425
 20
3.240849670069858
 30
0.0
 10
3.587378182607678
 20
3.246634191976713
 30
0.0
 10
3.584462641628943
 20
3.249794560462951
 30
0.0
 10
3.57964655735339
 20
3.256467240308286
 30
0.0
 10
3.577748421923307
 20
3.259959506145846
 30
0.0
 10
3.574846024658536
 20
3.267251330503925
 30
0.0
 10
3.573846679240961
 20
3.271065712406232
 30
0.0
 10
3.572714039030106
 20
3.278797309749594
 30
0.0
 10
3.572568441985472
 20
3.282738386892377
 30
0.0
 10
3.57305584744162
 20
3.290771542469322
 30
0.0
 10
3.573696950139043
 20
3.294879224414781
 30
0.0
 10
3.575700112907993
 20
3.303046723617057
 30
0.0
 10
3.577060784509636
 20
3.307129068717235
 30
0.0
 10
3.582213506232464
 20
3.319356552975258
 30
0.0
 10
3.587113852023426
 20
3.327559030519752
 30
0.0
 10
3.599814744395944
 20
3.342775087723477
 30
0.0
 10
3.607772670907976
 20
3.350021506713071
 30
0.0
 10
3.622403050302471
 20
3.358406916033783
 30
0.0
 10
3.627779053441806
 20
3.360785253366459
 30
0.0
 10
3.639165703498494
 20
3.364083150916704
 30
0.0
 10
3.645284308861491
 20
3.365015132733488
 30
0.0
 10
3.657594197120212
 20
3.365015132733488
 30
0.0
  0
LINE
  5
EA
330
1F
100
AcDbEntity
  8
0
  6
CONTINUOUS
 62
     7
100
AcDbLine
 10
3.3463211428
 20
3.7734420659
 30
0.0
 11
3.9368723239
 21
3.7734420659
 31
0.0
  0
LINE
  5
EB
330
1F
100
AcDbEntity
  8
0
  6
CONTINUOUS
 62
     7
100
AcDbLine
 10
3.3463211428
 20
3.7734420659
 30
0.0
 11
3.3463211428
 21
4.3885995462
 31
0.0
  0
LINE
  5
EC
330
1F
100
AcDbEntity
  8
0
  6
CONTINUOUS
 62
     7
100
AcDbLine
 10
3.306951064
 20
4.3251150805
 30
0.0
 11
3.3463211428
 21
4.3251150805
 31
0.0
  0
LINE
  5
ED
330
1F
100
AcDbEntity
  8
0
  6
CONTINUOUS
 62
     7
100
AcDbLine
 10
3.306951064
 20
4.3885995462
 30
0.0
 11
3.306951064
 21
3.7734420659
 31
0.0
  0
LINE
  5
EE
330
1F
100
AcDbEntity
  8
0
  6
CONTINUOUS
 62
     7
100
AcDbLine
 10
2.7163998829
 20
3.7734420659
 30
0.0
 11
3.306951064
 21
3.7734420659
 31
0.0
  0
LINE
  5
EF
330
1F
100
AcDbEntity
  8
0
  6
CONTINUOUS
 62
     7
100
AcDbLine
 10
2.7163998829
 20
3.7439145069
 30
0.0
 11
2.7163998829
 21
3.1287570265
 31
0.0
  0
LINE
  5
F0
330
1F
100
AcDbEntity
  8
0
  6
CONTINUOUS
 62
     7
100
AcDbLine
 10
2.7163998829
 20
4.3885995462
 30
0.0
 11
2.7163998829
 21
3.7734420659
 31
0.0
  0
LINE
  5
F1
330
1F
100
AcDbEntity
  8
0
  6
CONTINUOUS
 62
     7
100
AcDbLine
 10
2.7163998829
 20
3.7439145069
 30
0.0
 11
3.9368723239
 21
3.7439145069
 31
0.0
  0
SPLINE
  5
F2
330
1F
100
AcDbEntity
  8
0
  6
CONTINUOUS
 62
     7
100
AcDbSpline
210
0.0
220
0.0
230
1.0
 70
     8
 71
     3
 72
    66
 73
    62
 74
     0
 42
0.00000001
 43
0.00000001
 40
0.0
 40
0.0
 40
0.0
 40
0.0
 40
0.03125
 40
0.03125
 40
0.0625
 40
0.0625
 40
0.125
 40
0.125
 40
0.15625
 40
0.15625
 40
0.1875
 40
0.1875
 40
0.21875
 40
0.21875
 40
0.25
 40
0.25
 40
0.28125
 40
0.28125
 40
0.3125
 40
0.3125
 40
0.34375
 40
0.34375
 40
0.375
 40
0.375
 40
0.40625
 40
0.40625
 40
0.4375
 40
0.4375
 40
0.46875
 40
0.46875
 40
0.5
 40
0.5
 40
0.53125
 40
0.53125
 40
0.5625
 40
0.5625
 40
0.59375
 40
0.59375
 40
0.625
 40
0.625
 40
0.65625
 40
0.65625
 40
0.6875
 40
0.6875
 40
0.71875
 40
0.71875
 40
0.75
 40
0.75
 40
0.78125
 40
0.78125
 40
0.8125
 40
0.8125
 40
0.84375
 40
0.84375
 40
0.875
 40
0.875
 40
0.9375000000000001
 40
0.9375000000000001
 40
0.9687500000000001
 40
0.9687500000000001
 40
1.0
 40
1.0
 40
1.0
 40
1.0
 10
2.964020612840709
 20
4.073638916313307
 30
0.0
 10
2.955174186646836
 20
4.0780113923385
 30
0.0
 10
2.947354337952166
 20
4.083351590646847
 30
0.0
 10
2.932926382351452
 20
4.095071388790659
 30
0.0
 10
2.926292910215507
 20
4.10152116848803
 30
0.0
 10
2.908131612557045
 20
4.121530970807991
 30
0.0
 10
2.898317215190372
 20
4.135594751223594
 30
0.0
 10
2.886028104088759
 20
4.157067418419747
 30
0.0
 10
2.882352978754295
 20
4.16432218615661
 30
0.0
 10
2.875993947628018
 20
4.178641190011549
 30
0.0
 10
2.873288027913095
 20
4.185740122979795
 30
0.0
 10
2.868845565398523
 20
4.199799884261757
 30
0.0
 10
2.867108706802015
 20
4.206760787608504
 30
0.0
 10
2.86471210036716
 20
4.220538152589036
 30
0.0
 10
2.864063675214534
 20
4.227342363282419
 30
0.0
 10
2.864013226411799
 20
4.240450230296327
 30
0.0
 10
2.864600589117902
 20
4.246798740619302
 30
0.0
 10
2.867175208367213
 20
4.259086590569466
 30
0.0
 10
2.869191267264805
 20
4.265073269213474
 30
0.0
 10
2.874745261837507
 20
4.276293044863641
 30
0.0
 10
2.878272458297784
 20
4.281550532469884
 30
0.0
 10
2.887031700356097
 20
4.291384364409318
 30
0.0
 10
2.892324509981556
 20
4.295982524467418
 30
0.0
 10
2.904344199730164
 20
4.304117548260371
 30
0.0
 10
2.911104168878783
 20
4.307713091451411
 30
0.0
 10
2.926281468705852
 20
4.314016952713046
 30
0.0
 10
2.934716721486622
 20
4.316704288174662
 30
0.0
 10
2.952381931170242
 20
4.320946244314285
 30
0.0
 10
2.961786226956637
 20
4.322560408343556
 30
0.0
 10
2.981412138599644
 20
4.324736779336614
 30
0.0
 10
2.991338774171648
 20
4.325275418564027
 30
0.0
 10
3.011416159006802
 20
4.325307655708898
 30
0.0
 10
3.021580652325258
 20
4.324781039177005
 30
0.0
 10
3.041031675429464
 20
4.322682541015267
 30
0.0
 10
3.050574451961029
 20
4.321086079683461
 30
0.0
 10
3.068453223768272
 20
4.316851931682883
 30
0.0
 10
3.076749035790261
 20
4.314241357189553
 30
0.0
 10
3.092110014129031
 20
4.307937516525749
 30
0.0
 10
3.099025479669527
 20
4.304290955187631
 30
0.0
 10
3.111155063330239
 20
4.296134661459218
 30
0.0
 10
3.116461255846108
 20
4.29155008167785
 30
0.0
 10
3.125285237306222
 20
4.281699577809965
 30
0.0
 10
3.128843833044496
 20
4.276424763023392
 30
0.0
 10
3.134448982018515
 20
4.265148129851265
 30
0.0
 10
3.136460274675278
 20
4.259188636755697
 30
0.0
 10
3.139049290697313
 20
4.246917626603506
 30
0.0
 10
3.139647094422957
 20
4.240564380700254
 30
0.0
 10
3.139608464358329
 20
4.227418355259749
 30
0.0
 10
3.13895924343914
 20
4.220588984665813
 30
0.0
 10
3.136574764174336
 20
4.206842361344945
 30
0.0
 10
3.134844659161554
 20
4.199889682636615
 30
0.0
 10
3.130411078510302
 20
4.185832519459116
 30
0.0
 10
3.12770736606668
 20
4.178727953775125
 30
0.0
 10
3.121343211519632
 20
4.164383410079333
 30
0.0
 10
3.117664711533878
 20
4.157118953129711
 30
0.0
 10
3.105395051076548
 20
4.135666771615425
 30
0.0
 10
3.095600763399159
 20
4.12162549528205
 30
0.0
 10
3.077506704630939
 20
4.101657986104389
 30
0.0
 10
3.070837682389925
 20
4.095157652636915
 30
0.0
 10
3.056344246615835
 20
4.083371661833078
 30
0.0
 10
3.048497079028151
 20
4.078014040667224
 30
0.0
 10
3.039645294715798
 20
4.073638916313307
 30
0.0
  0
LINE
  5
F3
330
1F
100
AcDbEntity
  8
0
  6
CONTINUOUS
 62
     7
100
AcDbLine
 10
2.6967148435
 20
3.7734420659
 30
0.0
 11
2.6967148435
 21
4.3689145069
 31
0.0
  0
LINE
  5
F4
330
1F
100
AcDbEntity
  8
0
  6
CONTINUOUS
 62
     7
100
AcDbLine
 10
2.6967148435
 20
3.1484420659
 30
0.0
 11
2.6967148435
 21
3.7439145069
 31
0.0
  0
LINE
  5
F5
330
1F
100
AcDbEntity
  8
0
  6
CONTINUOUS
 62
     7
100
AcDbLine
 10
2.6967148435
 20
3.7439145069
 30
0.0
 11
2.7163998829
 21
3.7439145069
 31
0.0
  0
LINE
  5
F6
330
1F
100
AcDbEntity
  8
0
  6
CONTINUOUS
 62
     7
100
AcDbLine
 10
2.7163998829
 20
3.7734420659
 30
0.0
 11
2.6967148435
 21
3.7734420659
 31
0.0
  0
LINE
  5
F7
330
1F
100
AcDbEntity
  8
0
  6
CONTINUOUS
 62
     7
100
AcDbLine
 10
2.6967148435
 20
3.7439145069
 30
0.0
 11
2.6967148435
 21
3.7734420659
 31
0.0
  0
LINE
  5
F8
330
1F
100
AcDbEntity
  8
0
  6
CONTINUOUS
 62
     7
100
AcDbLine
 10
3.9565573632
 20
3.7439145069
 30
0.0
 11
3.9565573632
 21
3.7734420659
 31
0.0
  0
LINE
  5
F9
330
1F
100
AcDbEntity
  8
0
  6
CONTINUOUS
 62
     7
100
AcDbLine
 10
3.651439253
 20
4.0736389163
 30
0.0
 11
3.6892515939
 21
4.0736389163
 31
0.0
  0
LINE
  5
FA
330
1F
100
AcDbEntity
  8
0
  6
CONTINUOUS
 62
     7
100
AcDbLine
 10
3.6135147166
 20
4.0736389163
 30
0.0
 11
3.651439253
 21
4.0736389163
 31
0.0
  0
LINE
  5
FB
330
1F
100
AcDbEntity
  8
0
  6
CONTINUOUS
 62
     7
100
AcDbLine
 10
3.651439253
 20
4.2311192313
 30
0.0
 11
3.7793920089
 21
4.2311192313
 31
0.0
  0
LINE
  5
FC
330
1F
100
AcDbEntity
  8
0
  6
CONTINUOUS
 62
     7
100
AcDbLine
 10
3.5234864971
 20
4.2311192313
 30
0.0
 11
3.651439253
 21
4.2311192313
 31
0.0
  0
LINE
  5
FD
330
1F
100
AcDbEntity
  8
0
  6
CONTINUOUS
 62
     7
100
AcDbLine
 10
3.0018329538
 20
4.2311192313
 30
0.0
 11
2.8738801979
 21
4.2311192313
 31
0.0
  0
LINE
  5
FE
330
1F
100
AcDbEntity
  8
0
  6
CONTINUOUS
 62
     7
100
AcDbLine
 10
3.1297857097
 20
4.2311192313
 30
0.0
 11
3.0018329538
 21
4.2311192313
 31
0.0
  0
LINE
  5
FF
330
1F
100
AcDbEntity
  8
0
  6
CONTINUOUS
 62
     7
100
AcDbLine
 10
3.0018329538
 20
4.0736389163
 30
0.0
 11
2.9638213588
 21
4.0736389163
 31
0.0
  0
LINE
  5
100
330
1F
100
AcDbEntity
  8
0
  6
CONTINUOUS
 62
     7
100
AcDbLine
 10
3.0397574902
 20
4.0736389163
 30
0.0
 11
3.0018329538
 21
4.0736389163
 31
0.0
  0
LINE
  5
101
330
1F
100
AcDbEntity
  8
0
  6
CONTINUOUS
 62
     8
100
AcDbLine
 10
3.651439253
 20
4.2212767116
 30
0.0
 11
3.5136439774
 21
4.2212767116
 31
0.0
  0
LINE
  5
102
330
1F
100
AcDbEntity
  8
0
  6
CONTINUOUS
 62
     8
100
AcDbLine
 10
3.7892345286
 20
4.2212767116
 30
0.0
 11
3.651439253
 21
4.2212767116
 31
0.0
  0
LINE
  5
103
330
1F
100
AcDbEntity
  8
0
  6
CONTINUOUS
 62
     8
100
AcDbLine
 10
3.0018329538
 20
4.2212767116
 30
0.0
 11
3.1396282294
 21
4.2212767116
 31
0.0
  0
LINE
  5
104
330
1F
100
AcDbEntity
  8
0
  6
CONTINUOUS
 62
     8
100
AcDbLine
 10
2.8640376782
 20
4.2212767116
 30
0.0
 11
3.0018329538
 21
4.2212767116
 31
0.0
  0
LINE
  5
105
330
1F
100
AcDbEntity
  8
0
  6
HIDDEN
 62
     7
100
AcDbLine
 10
3.9368723239
 20
3.7734420659
 30
0.0
 11
3.9368723239
 21
3.7439145069
 31
0.0
  0
LINE
  5
106
330
1F
100
AcDbEntity
  8
0
  6
HIDDEN
 62
     7
100
AcDbLine
 10
2.7163998829
 20
3.7439145069
 30
0.0
 11
2.7163998829
 21
3.7734420659
 31
0.0
  0
LINE
  5
107
330
1F
100
AcDbEntity
  8
0
  6
HIDDEN
 62
     7
100
AcDbLine
 10
3.6892515939
 20
4.0736389163
 30
0.0
 11
3.7892345286
 21
4.0736389163
 31
0.0
  0
LINE
  5
108
330
1F
100
AcDbEntity
  8
0
  6
HIDDEN
 62
     7
100
AcDbLine
 10
3.5136439774
 20
4.0736389163
 30
0.0
 11
3.6136269121
 21
4.0736389163
 31
0.0
  0
LINE
  5
109
330
1F
100
AcDbEntity
  8
0
  6
HIDDEN
 62
     7
100
AcDbLine
 10
2.9640206128
 20
4.0736389163
 30
0.0
 11
2.8640376782
 21
4.0736389163
 31
0.0
  0
LINE
  5
10A
330
1F
100
AcDbEntity
  8
0
  6
HIDDEN
 62
     7
100
AcDbLine
 10
3.1396282294
 20
4.0736389163
 30
0.0
 11
3.0396452947
 21
4.0736389163
 31
0.0
  0
LINE
  5
10B
330
1F
100
AcDbEntity
  8
0
  6
HIDDEN
 62
     7
100
AcDbLine
 10
3.5136439774
 20
4.0736389163
 30
0.0
 11
3.6135147166
 21
4.0736389163
 31
0.0
  0
LINE
  5
10C
330
1F
100
AcDbEntity
  8
0
  6
HIDDEN
 62
     7
100
AcDbLine
 10
3.7301314441
 20
3.4535601762
 30
0.0
 11
3.5727470619
 21
3.4535601762
 31
0.0
  0
LINE
  5
10D
330
1F
100
AcDbEntity
  8
0
  6
HIDDEN
 62
     7
100
AcDbLine
 10
3.7203368908
 20
3.4437176565
 30
0.0
 11
3.5825416152
 21
3.4437176565
 31
0.0
  0
LINE
  5
10E
330
1F
100
AcDbEntity
  8
0
  6
HIDDEN
 62
     7
100
AcDbLine
 10
3.5923841349
 20
4.1130089951
 30
0.0
 11
3.651439253
 21
4.1130089951
 31
0.0
  0
LINE
  5
10F
330
1F
100
AcDbEntity
  8
0
  6
HIDDEN
 62
     7
100
AcDbLine
 10
3.651439253
 20
4.1130089951
 30
0.0
 11
3.651439253
 21
4.2311192313
 31
0.0
  0
LINE
  5
110
330
1F
100
AcDbEntity
  8
0
  6
HIDDEN
 62
     7
100
AcDbLine
 10
3.651439253
 20
4.1130089951
 30
0.0
 11
3.7104943711
 21
4.1130089951
 31
0.0
  0
LINE
  5
111
330
1F
100
AcDbEntity
  8
0
  6
HIDDEN
 62
     7
100
AcDbLine
 10
3.5923841349
 20
4.1130089951
 30
0.0
 11
3.5923841349
 21
4.2311192313
 31
0.0
  0
LINE
  5
112
330
1F
100
AcDbEntity
  8
0
  6
HIDDEN
 62
     7
100
AcDbLine
 10
3.7104943711
 20
4.1130089951
 30
0.0
 11
3.7104943711
 21
4.2311192313
 31
0.0
  0
LINE
  5
113
330
1F
100
AcDbEntity
  8
0
  6
HIDDEN
 62
     7
100
AcDbLine
 10
2.9638213588
 20
4.0736389163
 30
0.0
 11
2.8640376782
 21
4.0736389163
 31
0.0
  0
LINE
  5
114
330
1F
100
AcDbEntity
  8
0
  6
HIDDEN
 62
     7
100
AcDbLine
 10
3.1396282294
 20
4.0736389163
 30
0.0
 11
3.0397574902
 21
4.0736389163
 31
0.0
  0
LINE
  5
115
330
1F
100
AcDbEntity
  8
0
  6
HIDDEN
 62
     7
100
AcDbLine
 10
2.9231407627
 20
3.4535601762
 30
0.0
 11
3.0805251449
 21
3.4535601762
 31
0.0
  0
LINE
  5
116
330
1F
100
AcDbEntity
  8
0
  6
HIDDEN
 62
     7
100
AcDbLine
 10
2.932935316
 20
3.4437176565
 30
0.0
 11
3.0707305916
 21
3.4437176565
 31
0.0
  0
LINE
  5
117
330
1F
100
AcDbEntity
  8
0
  6
HIDDEN
 62
     7
100
AcDbLine
 10
3.0018329538
 20
4.1130089951
 30
0.0
 11
3.0018329538
 21
4.2311192313
 31
0.0
  0
LINE
  5
118
330
1F
100
AcDbEntity
  8
0
  6
HIDDEN
 62
     7
100
AcDbLine
 10
3.0018329538
 20
4.1130089951
 30
0.0
 11
2.9427778357
 21
4.1130089951
 31
0.0
  0
LINE
  5
119
330
1F
100
AcDbEntity
  8
0
  6
HIDDEN
 62
     7
100
AcDbLine
 10
3.0608880719
 20
4.1130089951
 30
0.0
 11
3.0018329538
 21
4.1130089951
 31
0.0
  0
LINE
  5
11A
330
1F
100
AcDbEntity
  8
0
  6
HIDDEN
 62
     7
100
AcDbLine
 10
3.0608880719
 20
4.1130089951
 30
0.0
 11
3.0608880719
 21
4.2311192313
 31
0.0
  0
LINE
  5
11B
330
1F
100
AcDbEntity
  8
0
  6
HIDDEN
 62
     7
100
AcDbLine
 10
2.9427778357
 20
4.1130089951
 30
0.0
 11
2.9427778357
 21
4.2311192313
 31
0.0
  0
LINE
  5
11C
330
1F
100
AcDbEntity
  8
0
  6
HIDDEN
 62
     7
100
AcDbLine
 10
3.7892345286
 20
4.0736389163
 30
0.0
 11
3.7892345286
 21
4.2342624295
 31
0.0
  0
LINE
  5
11D
330
1F
100
AcDbEntity
  8
0
  6
HIDDEN
 62
     7
100
AcDbLine
 10
3.5136439774
 20
4.2341708225
 30
0.0
 11
3.5136439774
 21
4.0736389163
 31
0.0
  0
LINE
  5
11E
330
1F
100
AcDbEntity
  8
0
  6
HIDDEN
 62
     7
100
AcDbLine
 10
3.1396282294
 20
4.0736389163
 30
0.0
 11
3.1396282294
 21
4.2341708225
 31
0.0
  0
LINE
  5
11F
330
1F
100
AcDbEntity
  8
0
  6
HIDDEN
 62
     7
100
AcDbLine
 10
2.8640376782
 20
4.2342624295
 30
0.0
 11
2.8640376782
 21
4.0736389163
 31
0.0
  0
LINE
  5
120
330
1F
100
AcDbEntity
  8
0
  6
HIDDEN
 62
     7
100
AcDbLine
 10
3.5726990955
 20
4.0736389163
 30
0.0
 11
3.5726990955
 21
3.7734420659
 31
0.0
  0
LINE
  5
121
330
1F
100
AcDbEntity
  8
0
  6
HIDDEN
 62
     7
100
AcDbLine
 10
3.7301794105
 20
3.7734420659
 30
0.0
 11
3.7301794105
 21
4.0736389163
 31
0.0
  0
LINE
  5
122
330
1F
100
AcDbEntity
  8
0
  6
HIDDEN
 62
     7
100
AcDbLine
 10
2.9230927963
 20
4.0736389163
 30
0.0
 11
2.9230927963
 21
3.7734420659
 31
0.0
  0
LINE
  5
123
330
1F
100
AcDbEntity
  8
0
  6
HIDDEN
 62
     7
100
AcDbLine
 10
3.0805731113
 20
3.7734420659
 30
0.0
 11
3.0805731113
 21
4.0736389163
 31
0.0
  0
LINE
  5
124
330
1F
100
AcDbEntity
  8
0
  6
HIDDEN
 62
     7
100
AcDbLine
 10
2.9230927963
 20
3.7439145069
 30
0.0
 11
2.9230927963
 21
3.2831923366
 31
0.0
  0
LINE
  5
125
330
1F
100
AcDbEntity
  8
0
  6
HIDDEN
 62
     7
100
AcDbLine
 10
3.0805731113
 20
3.2831190766
 30
0.0
 11
3.0805731113
 21
3.7439145069
 31
0.0
  0
LINE
  5
126
330
1F
100
AcDbEntity
  8
0
  6
HIDDEN
 62
     7
100
AcDbLine
 10
3.5726990955
 20
3.7439145069
 30
0.0
 11
3.5726990955
 21
3.2831190766
 31
0.0
  0
LINE
  5
127
330
1F
100
AcDbEntity
  8
0
  6
HIDDEN
 62
     7
100
AcDbLine
 10
3.7301794105
 20
3.2831923366
 30
0.0
 11
3.7301794105
 21
3.7439145069
 31
0.0
  0
LINE
  5
128
330
1F
100
AcDbEntity
  8
0
  6
HIDDEN
 62
     7
100
AcDbLine
 10
2.7163998829
 20
3.9555286801
 30
0.0
 11
2.6967148435
 21
3.9752137195
 31
0.0
  0
LINE
  5
129
330
1F
100
AcDbEntity
  8
0
  6
HIDDEN
 62
     7
100
AcDbLine
 10
2.6967148435
 20
3.5421428533
 30
0.0
 11
2.7163998829
 21
3.5618278927
 31
0.0
  0
LINE
  5
12A
330
1F
100
AcDbEntity
  8
0
  6
HIDDEN
 62
     7
100
AcDbLine
 10
3.9368723239
 20
3.5618278927
 30
0.0
 11
3.9565573632
 21
3.5421428533
 31
0.0
  0
LINE
  5
12B
330
1F
100
AcDbEntity
  8
0
  6
HIDDEN
 62
     7
100
AcDbLine
 10
3.9565573632
 20
3.9752137195
 30
0.0
 11
3.9368723239
 21
3.9555286801
 31
0.0
  0
LINE
  5
12C
330
1F
100
AcDbEntity
  8
0
  6
HIDDEN
 62
     7
100
AcDbLine
 10
3.306951064
 20
3.9555286801
 30
0.0
 11
2.7163998829
 21
3.9555286801
 31
0.0
  0
LINE
  5
12D
330
1F
100
AcDbEntity
  8
0
  6
HIDDEN
 62
     7
100
AcDbLine
 10
3.9368723239
 20
3.9555286801
 30
0.0
 11
3.3463211428
 21
3.9555286801
 31
0.0
  0
LINE
  5
12E
330
1F
100
AcDbEntity
  8
0
  6
HIDDEN
 62
     7
100
AcDbLine
 10
2.7163998829
 20
3.5618278927
 30
0.0
 11
3.9368723239
 21
3.5618278927
 31
0.0
  0
LINE
  5
12F
330
1F
100
AcDbEntity
  8
0
  6
HIDDEN
 62
     7
100
AcDbLine
 10
3.7892345286
 20
4.0736389163
 30
0.0
 11
3.7892345286
 21
4.2212767116
 31
0.0
  0
LINE
  5
130
330
1F
100
AcDbEntity
  8
0
  6
HIDDEN
 62
     7
100
AcDbLine
 10
3.5136439774
 20
4.2212767116
 30
0.0
 11
3.5136439774
 21
4.0736389163
 31
0.0
  0
ARC
  5
131
330
1F
100
AcDbEntity
  8
0
  6
HIDDEN
 62
     7
100
AcDbCircle
 10
3.7203368908
 20
3.4535601762
 30
0.0
 40
0.0098425196850394
100
AcDbArc
 50
270.0
 51
0.0
  0
ARC
  5
132
330
1F
100
AcDbEntity
  8
0
  6
HIDDEN
 62
     7
100
AcDbCircle
 10
3.5825416152
 20
3.4535601762
 30
0.0
 40
0.0098425196850394
100
AcDbArc
 50
180.0
 51
270.0
  0
LINE
  5
133
330
1F
100
AcDbEntity
  8
0
  6
HIDDEN
 62
     7
100
AcDbLine
 10
3.5726990955
 20
4.0736389163
 30
0.0
 11
3.5726990955
 21
3.7734420659
 31
0.0
  0
LINE
  5
134
330
1F
100
AcDbEntity
  8
0
  6
HIDDEN
 62
     7
100
AcDbLine
 10
3.5726990955
 20
3.7439145069
 30
0.0
 11
3.5726990955
 21
3.4535601762
 31
0.0
  0
LINE
  5
135
330
1F
100
AcDbEntity
  8
0
  6
HIDDEN
 62
     7
100
AcDbLine
 10
3.7301794105
 20
3.4535601762
 30
0.0
 11
3.7301794105
 21
3.7439145069
 31
0.0
  0
LINE
  5
136
330
1F
100
AcDbEntity
  8
0
  6
HIDDEN
 62
     7
100
AcDbLine
 10
3.7301794105
 20
3.7734420659
 30
0.0
 11
3.7301794105
 21
4.0736389163
 31
0.0
  0
LINE
  5
137
330
1F
100
AcDbEntity
  8
0
  6
HIDDEN
 62
     7
100
AcDbLine
 10
3.1396282294
 20
4.0736389163
 30
0.0
 11
3.1396282294
 21
4.2212767116
 31
0.0
  0
LINE
  5
138
330
1F
100
AcDbEntity
  8
0
  6
HIDDEN
 62
     7
100
AcDbLine
 10
2.8640376782
 20
4.2212767116
 30
0.0
 11
2.8640376782
 21
4.0736389163
 31
0.0
  0
ARC
  5
139
330
1F
100
AcDbEntity
  8
0
  6
HIDDEN
 62
     7
100
AcDbCircle
 10
3.0707305916
 20
3.4535601762
 30
0.0
 40
0.0098425196850394
100
AcDbArc
 50
270.0
 51
0.0
  0
ARC
  5
13A
330
1F
100
AcDbEntity
  8
0
  6
HIDDEN
 62
     7
100
AcDbCircle
 10
2.932935316
 20
3.4535601762
 30
0.0
 40
0.0098425196850398
100
AcDbArc
 50
180.0
 51
270.0
  0
LINE
  5
13B
330
1F
100
AcDbEntity
  8
0
  6
HIDDEN
 62
     7
100
AcDbLine
 10
2.9230927963
 20
4.0736389163
 30
0.0
 11
2.9230927963
 21
3.7734420659
 31
0.0
  0
LINE
  5
13C
330
1F
100
AcDbEntity
  8
0
  6
HIDDEN
 62
     7
100
AcDbLine
 10
2.9230927963
 20
3.7439145069
 30
0.0
 11
2.9230927963
 21
3.4535601762
 31
0.0
  0
LINE
  5
13D
330
1F
100
AcDbEntity
  8
0
  6
HIDDEN
 62
     7
100
AcDbLine
 10
3.0805731113
 20
3.4535601762
 30
0.0
 11
3.0805731113
 21
3.7439145069
 31
0.0
  0
LINE
  5
13E
330
1F
100
AcDbEntity
  8
0
  6
HIDDEN
 62
     7
100
AcDbLine
 10
3.0805731113
 20
3.7734420659
 30
0.0
 11
3.0805731113
 21
4.0736389163
 31
0.0
  0
LINE
  5
13F
330
1F
100
AcDbEntity
  8
0
  6
HIDDEN
 62
     7
100
AcDbLine
 10
3.5136439774
 20
4.2212767116
 30
0.0
 11
3.7892345286
 21
4.2212767116
 31
0.0
  0
LINE
  5
140
330
1F
100
AcDbEntity
  8
0
  6
HIDDEN
 62
     7
100
AcDbLine
 10
3.1396282294
 20
4.2212767116
 30
0.0
 11
2.8640376782
 21
4.2212767116
 31
0.0
  0
LINE
  5
141
330
1F
100
AcDbEntity
  8
0
  6
CONTINUOUS
 62
     7
100
AcDbLine
 10
7.6999807152
 20
4.2212767116
 30
0.0
 11
7.6999807152
 21
4.0736389163
 31
0.0
  0
ARC
  5
142
330
1F
100
AcDbEntity
  8
0
  6
CONTINUOUS
 62
     7
100
AcDbCircle
 10
7.7098232349
 20
4.2212767116
 30
0.0
 40
0.0098425196850398
100
AcDbArc
 50
90.0
 51
180.0
  0
LINE
  5
143
330
1F
100
AcDbEntity
  8
0
  6
CONTINUOUS
 62
     7
100
AcDbLine
 10
7.7590358333
 20
3.7734420659
 30
0.0
 11
7.7590358333
 21
3.7439145069
 31
0.0
  0
LINE
  5
144
330
1F
100
AcDbEntity
  8
0
  6
CONTINUOUS
 62
     7
100
AcDbLine
 10
7.9165161483
 20
3.7439145069
 30
0.0
 11
7.9165161483
 21
3.7734420659
 31
0.0
  0
ARC
  5
145
330
1F
100
AcDbEntity
  8
0
  6
CONTINUOUS
 62
     7
100
AcDbCircle
 10
8.2507980879
 20
3.7586782864
 30
0.0
 40
0.6102362204724405
100
AcDbArc
 50
181.3863234787
 51
178.6136765213
  0
LINE
  5
146
330
1F
100
AcDbEntity
  8
0
  6
CONTINUOUS
 62
     7
100
AcDbLine
 10
7.6407404877
 20
3.7734420659
 30
0.0
 11
7.6210498649
 21
3.7734420659
 31
0.0
  0
ARC
  5
147
330
1F
100
AcDbEntity
  8
0
  6
CONTINUOUS
 62
     7
100
AcDbCircle
 10
8.2507980879
 20
3.7586782864
 30
0.0
 40
0.6299212598425198
100
AcDbArc
 50
181.3429928061
 51
178.6570071939
  0
LINE
  5
148
330
1F
100
AcDbEntity
  8
0
  6
CONTINUOUS
 62
     7
100
AcDbLine
 10
7.6210498649
 20
3.7439145069
 30
0.0
 11
7.6407404877
 21
3.7439145069
 31
0.0
  0
LINE
  5
149
330
1F
100
AcDbEntity
  8
0
  6
CONTINUOUS
 62
     7
100
AcDbLine
 10
8.5263886391
 20
3.7439145069
 30
0.0
 11
8.5263886391
 21
3.7734420659
 31
0.0
  0
LINE
  5
14A
330
1F
100
AcDbEntity
  8
0
  6
CONTINUOUS
 62
     7
100
AcDbLine
 10
8.5263886391
 20
3.7734420659
 30
0.0
 11
8.466829624
 21
3.7734420659
 31
0.0
  0
ARC
  5
14B
330
1F
100
AcDbEntity
  8
0
  6
CONTINUOUS
 62
     7
100
AcDbCircle
 10
8.2507980879
 20
3.7586782864
 30
0.0
 40
0.2165354330708666
100
AcDbArc
 50
3.9095635247
 51
176.0904364753
  0
LINE
  5
14C
330
1F
100
AcDbEntity
  8
0
  6
CONTINUOUS
 62
     7
100
AcDbLine
 10
8.0347665518
 20
3.7734420659
 30
0.0
 11
7.6407404877
 21
3.7734420659
 31
0.0
  0
LINE
  5
14D
330
1F
100
AcDbEntity
  8
0
  6
CONTINUOUS
 62
     7
100
AcDbLine
 10
7.6407404877
 20
3.7439145069
 30
0.0
 11
8.0347665518
 21
3.7439145069
 31
0.0
  0
ARC
  5
14E
330
1F
100
AcDbEntity
  8
0
  6
CONTINUOUS
 62
     7
100
AcDbCircle
 10
8.2507980879
 20
3.7586782864
 30
0.0
 40
0.2165354330708666
100
AcDbArc
 50
183.9095635247
 51
356.0904364753
  0
LINE
  5
14F
330
1F
100
AcDbEntity
  8
0
  6
CONTINUOUS
 62
     7
100
AcDbLine
 10
8.466829624
 20
3.7439145069
 30
0.0
 11
8.5263886391
 21
3.7439145069
 31
0.0
  0
ARC
  5
150
330
1F
100
AcDbEntity
  8
0
  6
CONTINUOUS
 62
     7
100
AcDbCircle
 10
8.2507980879
 20
3.7586782864
 30
0.0
 40
0.1968503937007877
100
AcDbArc
 50
4.3012223047
 51
175.6987776953
  0
LINE
  5
151
330
1F
100
AcDbEntity
  8
0
  6
CONTINUOUS
 62
     7
100
AcDbLine
 10
8.0545021167
 20
3.7734420659
 30
0.0
 11
8.0347665518
 21
3.7734420659
 31
0.0
  0
LINE
  5
152
330
1F
100
AcDbEntity
  8
0
  6
CONTINUOUS
 62
     7
100
AcDbLine
 10
8.466829624
 20
3.7734420659
 30
0.0
 11
8.4470940591
 21
3.7734420659
 31
0.0
  0
ARC
  5
153
330
1F
100
AcDbEntity
  8
0
  6
CONTINUOUS
 62
     7
100
AcDbCircle
 10
8.2507980879
 20
3.7586782864
 30
0.0
 40
0.1968503937007877
100
AcDbArc
 50
184.3012223047
 51
355.6987776953
  0
LINE
  5
154
330
1F
100
AcDbEntity
  8
0
  6
CONTINUOUS
 62
     7
100
AcDbLine
 10
8.0347665518
 20
3.7439145069
 30
0.0
 11
8.0545021167
 21
3.7439145069
 31
0.0
  0
LINE
  5
155
330
1F
100
AcDbEntity
  8
0
  6
CONTINUOUS
 62
     7
100
AcDbLine
 10
8.4470940591
 20
3.7439145069
 30
0.0
 11
8.466829624
 21
3.7439145069
 31
0.0
  0
LINE
  5
156
330
1F
100
AcDbEntity
  8
0
  6
CONTINUOUS
 62
     7
100
AcDbLine
 10
7.6999807152
 20
4.0736389163
 30
0.0
 11
7.7052702745
 21
4.0736389163
 31
0.0
  0
LINE
  5
157
330
1F
100
AcDbEntity
  8
0
  6
CONTINUOUS
 62
     7
100
AcDbLine
 10
7.7098232349
 20
4.2311192313
 30
0.0
 11
7.8341443381
 21
4.2311192313
 31
0.0
  0
LINE
  5
158
330
1F
100
AcDbEntity
  8
0
  6
CONTINUOUS
 62
     8
100
AcDbLine
 10
7.8232428393
 20
4.2212767116
 30
0.0
 11
7.6999807152
 21
4.2212767116
 31
0.0
  0
LINE
  5
159
330
1F
100
AcDbEntity
  8
0
  6
HIDDEN
 62
     7
100
AcDbLine
 10
7.7052702745
 20
4.0736389163
 30
0.0
 11
7.9755712664
 21
4.0736389163
 31
0.0
  0
LINE
  5
15A
330
1F
100
AcDbEntity
  8
0
  6
HIDDEN
 62
     7
100
AcDbLine
 10
8.5263886391
 20
3.7734420659
 30
0.0
 11
8.5263886391
 21
4.3251150805
 31
0.0
  0
LINE
  5
15B
330
1F
100
AcDbEntity
  8
0
  6
HIDDEN
 62
     7
100
AcDbLine
 10
7.8341443381
 20
4.2311192313
 30
0.0
 11
7.9657287467
 21
4.2311192313
 31
0.0
  0
LINE
  5
15C
330
1F
100
AcDbEntity
  8
0
  6
HIDDEN
 62
     7
100
AcDbLine
 10
7.9165161483
 20
3.4535601762
 30
0.0
 11
7.7592276404
 21
3.4535601762
 31
0.0
  0
LINE
  5
15D
330
1F
100
AcDbEntity
  8
0
  6
HIDDEN
 62
     7
100
AcDbLine
 10
7.9066736286
 20
3.4437176565
 30
0.0
 11
7.768878353
 21
3.4437176565
 31
0.0
  0
LINE
  5
15E
330
1F
100
AcDbEntity
  8
0
  6
HIDDEN
 62
     7
100
AcDbLine
 10
7.8718714791
 20
4.1130089951
 30
0.0
 11
7.9059669675
 21
4.1130089951
 31
0.0
  0
LINE
  5
15F
330
1F
100
AcDbEntity
  8
0
  6
HIDDEN
 62
     7
100
AcDbLine
 10
7.8036805025
 20
4.1130089951
 30
0.0
 11
7.8718714791
 21
4.1130089951
 31
0.0
  0
LINE
  5
160
330
1F
100
AcDbEntity
  8
0
  6
HIDDEN
 62
     7
100
AcDbLine
 10
7.8718714791
 20
4.1130089951
 30
0.0
 11
7.8718714791
 21
4.2311192313
 31
0.0
  0
LINE
  5
161
330
1F
100
AcDbEntity
  8
0
  6
HIDDEN
 62
     7
100
AcDbLine
 10
7.8036805025
 20
4.1130089951
 30
0.0
 11
7.8036805025
 21
4.2311192313
 31
0.0
  0
LINE
  5
162
330
1F
100
AcDbEntity
  8
0
  6
HIDDEN
 62
     7
100
AcDbLine
 10
7.7695850141
 20
4.1130089951
 30
0.0
 11
7.8036805025
 21
4.1130089951
 31
0.0
  0
LINE
  5
163
330
1F
100
AcDbEntity
  8
0
  6
HIDDEN
 62
     7
100
AcDbLine
 10
7.9059669675
 20
4.1130089951
 30
0.0
 11
7.9059669675
 21
4.2311192313
 31
0.0
  0
LINE
  5
164
330
1F
100
AcDbEntity
  8
0
  6
HIDDEN
 62
     7
100
AcDbLine
 10
7.7695850141
 20
4.1130089951
 30
0.0
 11
7.7695850141
 21
4.2311192313
 31
0.0
  0
LINE
  5
165
330
1F
100
AcDbEntity
  8
0
  6
HIDDEN
 62
     7
100
AcDbLine
 10
7.6999807152
 20
4.2212767116
 30
0.0
 11
7.9755712664
 21
4.2212767116
 31
0.0
  0
LINE
  5
166
330
1F
100
AcDbEntity
  8
0
  6
HIDDEN
 62
     7
100
AcDbLine
 10
7.9165161483
 20
3.4535601762
 30
0.0
 11
7.7592276404
 21
3.4535601762
 31
0.0
  0
LINE
  5
167
330
1F
100
AcDbEntity
  8
0
  6
HIDDEN
 62
     7
100
AcDbLine
 10
7.9755712664
 20
4.0736389163
 30
0.0
 11
7.9755712664
 21
4.3250834706
 31
0.0
  0
LINE
  5
168
330
1F
100
AcDbEntity
  8
0
  6
HIDDEN
 62
     7
100
AcDbLine
 10
7.7590358333
 20
4.0736389163
 30
0.0
 11
7.7590358333
 21
3.7734420659
 31
0.0
  0
LINE
  5
169
330
1F
100
AcDbEntity
  8
0
  6
HIDDEN
 62
     7
100
AcDbLine
 10
7.9165161483
 20
3.7734420659
 30
0.0
 11
7.9165161483
 21
4.0736389163
 31
0.0
  0
LINE
  5
16A
330
1F
100
AcDbEntity
  8
0
  6
HIDDEN
 62
     7
100
AcDbLine
 10
7.7590358333
 20
3.7439145069
 30
0.0
 11
7.7590358333
 21
3.3650151327
 31
0.0
  0
LINE
  5
16B
330
1F
100
AcDbEntity
  8
0
  6
HIDDEN
 62
     7
100
AcDbLine
 10
7.9165161483
 20
3.2248645908
 30
0.0
 11
7.9165161483
 21
3.7439145069
 31
0.0
  0
LINE
  5
16C
330
1F
100
AcDbEntity
  8
0
  6
HIDDEN
 62
     7
100
AcDbLine
 10
7.9755712664
 20
4.0736389163
 30
0.0
 11
7.9755712664
 21
4.2212767116
 31
0.0
  0
ARC
  5
16D
330
1F
100
AcDbEntity
  8
0
  6
HIDDEN
 62
     7
100
AcDbCircle
 10
7.9657287467
 20
4.2212767116
 30
0.0
 40
0.0098425196850389
100
AcDbArc
 50
0.0
 51
90.0
  0
LINE
  5
16E
330
1F
100
AcDbEntity
  8
0
  6
HIDDEN
 62
     7
100
AcDbLine
 10
7.7590358333
 20
4.0736389163
 30
0.0
 11
7.7590358333
 21
3.7734420659
 31
0.0
  0
LINE
  5
16F
330
1F
100
AcDbEntity
  8
0
  6
HIDDEN
 62
     7
100
AcDbLine
 10
7.7590358333
 20
3.7439145069
 30
0.0
 11
7.7590358333
 21
3.4535601762
 31
0.0
  0
LINE
  5
170
330
1F
100
AcDbEntity
  8
0
  6
HIDDEN
 62
     7
100
AcDbLine
 10
7.9165161483
 20
3.4535601762
 30
0.0
 11
7.9165161483
 21
3.7439145069
 31
0.0
  0
LINE
  5
171
330
1F
100
AcDbEntity
  8
0
  6
HIDDEN
 62
     7
100
AcDbLine
 10
7.9165161483
 20
3.7734420659
 30
0.0
 11
7.9165161483
 21
4.0736389163
 31
0.0
  0
ARC
  5
172
330
1F
100
AcDbEntity
  8
0
  6
HIDDEN
 62
     7
100
AcDbCircle
 10
7.9066736286
 20
3.4535601762
 30
0.0
 40
0.0098425196850398
100
AcDbArc
 50
270.0
 51
0.0
  0
ARC
  5
173
330
1F
100
AcDbEntity
  8
0
  6
HIDDEN
 62
     7
100
AcDbCircle
 10
7.768878353
 20
3.4535601762
 30
0.0
 40
0.0098425196850394
100
AcDbArc
 50
180.0
 51
270.0
  0
LINE
  5
174
330
1F
100
AcDbEntity
  8
0
  6
HIDDEN
 62
     7
100
AcDbLine
 10
7.6999807152
 20
4.2212767116
 30
0.0
 11
7.9755712664
 21
4.2212767116
 31
0.0
  0
LINE
  5
175
330
1F
100
AcDbEntity
  8
0
  6
CONTINUOUS
 62
     7
100
AcDbLine
 10
3.9565573632
 20
7.282126841
 30
0.0
 11
3.9368723239
 21
7.3018118804
 31
0.0
  0
LINE
  5
176
330
1F
100
AcDbEntity
  8
0
  6
CONTINUOUS
 62
     7
100
AcDbLine
 10
3.9368723239
 20
7.3018118804
 30
0.0
 11
2.7163998829
 21
7.3018118804
 31
0.0
  0
LINE
  5
177
330
1F
100
AcDbEntity
  8
0
  6
CONTINUOUS
 62
     7
100
AcDbLine
 10
2.7163998829
 20
7.3018118804
 30
0.0
 11
2.6967148435
 21
7.282126841
 31
0.0
  0
LINE
  5
178
330
1F
100
AcDbEntity
  8
0
  6
CONTINUOUS
 62
     7
100
AcDbLine
 10
3.9565573632
 20
7.282126841
 30
0.0
 11
3.9565573632
 21
6.0618330203
 31
0.0
  0
LINE
  5
179
330
1F
100
AcDbEntity
  8
0
  6
CONTINUOUS
 62
     7
100
AcDbLine
 10
3.9565573632
 20
6.0618330203
 30
0.0
 11
3.9368723239
 21
6.0421423975
 31
0.0
  0
LINE
  5
17A
330
1F
100
AcDbEntity
  8
0
  6
CONTINUOUS
 62
     7
100
AcDbLine
 10
3.9368723239
 20
6.0421423975
 30
0.0
 11
3.9368723239
 21
7.3018118804
 31
0.0
  0
SPLINE
  5
17B
330
1F
100
AcDbEntity
  8
0
  6
CONTINUOUS
 62
     7
100
AcDbSpline
210
0.0
220
0.0
230
1.0
 70
     8
 71
     3
 72
    66
 73
    62
 74
     0
 42
0.00000001
 43
0.00000001
 40
0.0
 40
0.0
 40
0.0
 40
0.0
 40
0.03125
 40
0.03125
 40
0.0625
 40
0.0625
 40
0.125
 40
0.125
 40
0.15625
 40
0.15625
 40
0.1875
 40
0.1875
 40
0.21875
 40
0.21875
 40
0.25
 40
0.25
 40
0.28125
 40
0.28125
 40
0.3125
 40
0.3125
 40
0.34375
 40
0.34375
 40
0.375
 40
0.375
 40
0.40625
 40
0.40625
 40
0.4375
 40
0.4375
 40
0.46875
 40
0.46875
 40
0.5
 40
0.5
 40
0.53125
 40
0.53125
 40
0.5625
 40
0.5625
 40
0.59375
 40
0.59375
 40
0.625
 40
0.625
 40
0.65625
 40
0.65625
 40
0.6875
 40
0.6875
 40
0.71875
 40
0.71875
 40
0.75
 40
0.75
 40
0.78125
 40
0.78125
 40
0.8125
 40
0.8125
 40
0.84375
 40
0.84375
 40
0.875
 40
0.875
 40
0.9375000000000001
 40
0.9375000000000001
 40
0.9687500000000001
 40
0.9687500000000001
 40
1.0
 40
1.0
 40
1.0
 40
1.0
 10
3.689251593928396
 20
6.12636280710511
 30
0.0
 10
3.698098020122269
 20
6.12888725731528
 30
0.0
 10
3.70591786881694
 20
6.132043027039384
 30
0.0
 10
3.720345824417653
 20
6.139267058009785
 30
0.0
 10
3.726979296553599
 20
6.143379667107888
 30
0.0
 10
3.745140594212061
 20
6.156724795463983
 30
0.0
 10
3.754954991578733
 20
6.166847670832626
 30
0.0
 10
3.767244102680346
 20
6.183863679346413
 30
0.0
 10
3.77091922801481
 20
6.189870225870319
 30
0.0
 10
3.777278259141087
 20
6.202293139843483
 30
0.0
 10
3.77998417885601
 20
6.208735038701354
 30
0.0
 10
3.784426641370582
 20
6.222105515017222
 30
0.0
 10
3.786163499967091
 20
6.229033902035193
 30
0.0
 10
3.788560106401945
 20
6.24342187603586
 30
0.0
 10
3.78920853155457
 20
6.250874624858263
 30
0.0
 10
3.789258980357305
 20
6.26593954017039
 30
0.0
 10
3.788671617651203
 20
6.27359747184883
 30
0.0
 10
3.786096998401892
 20
6.289149795387029
 30
0.0
 10
3.7840809395043
 20
6.297113813173739
 30
0.0
 10
3.778526944931598
 20
6.31276878080048
 30
0.0
 10
3.774999748471321
 20
6.320484102958657
 30
0.0
 10
3.766240506413008
 20
6.335578026723236
 30
0.0
 10
3.76094769678755
 20
6.343001207987771
 30
0.0
 10
3.748928007038941
 20
6.356676246574447
 30
0.0
 10
3.742168037890321
 20
6.363014470280287
 30
0.0
 10
3.726990738063253
 20
6.374497515283641
 30
0.0
 10
3.718555485282483
 20
6.379607757644564
 30
0.0
 10
3.700890275598863
 20
6.38785359108548
 30
0.0
 10
3.691485979812469
 20
6.391099238075037
 30
0.0
 10
3.671860068169461
 20
6.395512925187778
 30
0.0
 10
3.661933432597457
 20
6.396629862726447
 30
0.0
 10
3.641856047762303
 20
6.396696229599364
 30
0.0
 10
3.631691554443847
 20
6.395604351370853
 30
0.0
 10
3.612240531339641
 20
6.391345383529544
 30
0.0
 10
3.602697754808076
 20
6.388130638851248
 30
0.0
 10
3.584818983000833
 20
6.3798898759072
 30
0.0
 10
3.576523170978843
 20
6.374916743757239
 30
0.0
 10
3.561162192640074
 20
6.363413543208636
 30
0.0
 10
3.554246727099578
 20
6.356975798192798
 30
0.0
 10
3.542117143438866
 20
6.343249213251422
 30
0.0
 10
3.536810950922996
 20
6.335840079705753
 30
0.0
 10
3.527986969462883
 20
6.320705420210507
 30
0.0
 10
3.524428373724609
 20
6.312957289848548
 30
0.0
 10
3.51882322475059
 20
6.297213629502803
 30
0.0
 10
3.516811932093827
 20
6.289283510720844
 30
0.0
 10
3.514222916071791
 20
6.273743464357714
 30
0.0
 10
3.513625112346148
 20
6.266074267984957
 30
0.0
 10
3.513663742410776
 20
6.250958479064172
 30
0.0
 10
3.514312963329965
 20
6.243477155570068
 30
0.0
 10
3.516697442594769
 20
6.229116917538455
 30
0.0
 10
3.518427547607551
 20
6.222193600282242
 30
0.0
 10
3.522861128258802
 20
6.208820250748967
 30
0.0
 10
3.525564840702426
 20
6.202370379939619
 30
0.0
 10
3.531928995249473
 20
6.18992139743894
 30
0.0
 10
3.535607495235227
 20
6.183905900003186
 30
0.0
 10
3.547877155692556
 20
6.166901996236438
 30
0.0
 10
3.557671443369946
 20
6.156792362160093
 30
0.0
 10
3.575765502138165
 20
6.143468683197253
 30
0.0
 10
3.58243452437918
 20
6.139321040652939
 30
0.0
 10
3.59692796015327
 20
6.132054596107825
 30
0.0
 10
3.604775127740953
 20
6.128888786328582
 30
0.0
 10
3.613626912053307
 20
6.126362807105109
 30
0.0
  0
LINE
  5
17C
330
1F
100
AcDbEntity
  8
0
  6
CONTINUOUS
 62
     7
100
AcDbLine
 10
3.3463211428
 20
6.0421423975
 30
0.0
 11
3.9368723239
 21
6.0421423975
 31
0.0
  0
LINE
  5
17D
330
1F
100
AcDbEntity
  8
0
  6
CONTINUOUS
 62
     7
100
AcDbLine
 10
3.3463211428
 20
6.0421423975
 30
0.0
 11
3.3463211428
 21
6.9474811717
 31
0.0
  0
LINE
  5
17E
330
1F
100
AcDbEntity
  8
0
  6
CONTINUOUS
 62
     7
100
AcDbLine
 10
3.306951064
 20
6.9474811717
 30
0.0
 11
3.3463211428
 21
6.9474811717
 31
0.0
  0
LINE
  5
17F
330
1F
100
AcDbEntity
  8
0
  6
CONTINUOUS
 62
     7
100
AcDbLine
 10
3.306951064
 20
6.9474811717
 30
0.0
 11
3.306951064
 21
6.0421423975
 31
0.0
  0
LINE
  5
180
330
1F
100
AcDbEntity
  8
0
  6
CONTINUOUS
 62
     7
100
AcDbLine
 10
2.7163998829
 20
6.0421423975
 30
0.0
 11
3.306951064
 21
6.0421423975
 31
0.0
  0
LINE
  5
181
330
1F
100
AcDbEntity
  8
0
  6
CONTINUOUS
 62
     7
100
AcDbLine
 10
2.7163998829
 20
7.3018118804
 30
0.0
 11
2.7163998829
 21
6.0421423975
 31
0.0
  0
LINE
  5
182
330
1F
100
AcDbEntity
  8
0
  6
CONTINUOUS
 62
     7
100
AcDbLine
 10
3.306951064
 20
6.0421423975
 30
0.0
 11
3.3463211428
 21
6.0421423975
 31
0.0
  0
SPLINE
  5
183
330
1F
100
AcDbEntity
  8
0
  6
CONTINUOUS
 62
     7
100
AcDbSpline
210
0.0
220
0.0
230
1.0
 70
     8
 71
     3
 72
    66
 73
    62
 74
     0
 42
0.00000001
 43
0.00000001
 40
0.0
 40
0.0
 40
0.0
 40
0.0
 40
0.03125
 40
0.03125
 40
0.0625
 40
0.0625
 40
0.125
 40
0.125
 40
0.15625
 40
0.15625
 40
0.1875
 40
0.1875
 40
0.21875
 40
0.21875
 40
0.25
 40
0.25
 40
0.28125
 40
0.28125
 40
0.3125
 40
0.3125
 40
0.34375
 40
0.34375
 40
0.375
 40
0.375
 40
0.40625
 40
0.40625
 40
0.4375
 40
0.4375
 40
0.46875
 40
0.46875
 40
0.5
 40
0.5
 40
0.53125
 40
0.53125
 40
0.5625
 40
0.5625
 40
0.59375
 40
0.59375
 40
0.625
 40
0.625
 40
0.65625
 40
0.65625
 40
0.6875
 40
0.6875
 40
0.71875
 40
0.71875
 40
0.75
 40
0.75
 40
0.78125
 40
0.78125
 40
0.8125
 40
0.8125
 40
0.84375
 40
0.84375
 40
0.875
 40
0.875
 40
0.9375000000000001
 40
0.9375000000000001
 40
0.9687500000000001
 40
0.9687500000000001
 40
1.0
 40
1.0
 40
1.0
 40
1.0
 10
2.964020612840709
 20
6.12636280710511
 30
0.0
 10
2.955174186646836
 20
6.12888725731528
 30
0.0
 10
2.947354337952166
 20
6.132043027039384
 30
0.0
 10
2.932926382351452
 20
6.139267058009785
 30
0.0
 10
2.926292910215507
 20
6.143379667107888
 30
0.0
 10
2.908131612557045
 20
6.156724795463983
 30
0.0
 10
2.898317215190372
 20
6.166847670832626
 30
0.0
 10
2.886028104088759
 20
6.183863679346413
 30
0.0
 10
2.882352978754295
 20
6.189870225870319
 30
0.0
 10
2.875993947628018
 20
6.202293139843483
 30
0.0
 10
2.873288027913095
 20
6.208735038701354
 30
0.0
 10
2.868845565398523
 20
6.222105515017222
 30
0.0
 10
2.867108706802015
 20
6.229033902035193
 30
0.0
 10
2.86471210036716
 20
6.24342187603586
 30
0.0
 10
2.864063675214534
 20
6.250874624858263
 30
0.0
 10
2.864013226411799
 20
6.26593954017039
 30
0.0
 10
2.864600589117902
 20
6.27359747184883
 30
0.0
 10
2.867175208367213
 20
6.289149795387029
 30
0.0
 10
2.869191267264805
 20
6.297113813173739
 30
0.0
 10
2.874745261837507
 20
6.31276878080048
 30
0.0
 10
2.878272458297784
 20
6.320484102958657
 30
0.0
 10
2.887031700356097
 20
6.335578026723236
 30
0.0
 10
2.892324509981556
 20
6.343001207987771
 30
0.0
 10
2.904344199730164
 20
6.356676246574447
 30
0.0
 10
2.911104168878783
 20
6.363014470280287
 30
0.0
 10
2.926281468705852
 20
6.374497515283641
 30
0.0
 10
2.934716721486622
 20
6.379607757644564
 30
0.0
 10
2.952381931170242
 20
6.38785359108548
 30
0.0
 10
2.961786226956637
 20
6.391099238075037
 30
0.0
 10
2.981412138599644
 20
6.395512925187778
 30
0.0
 10
2.991338774171648
 20
6.396629862726447
 30
0.0
 10
3.011416159006802
 20
6.396696229599364
 30
0.0
 10
3.021580652325258
 20
6.395604351370853
 30
0.0
 10
3.041031675429464
 20
6.391345383529544
 30
0.0
 10
3.050574451961029
 20
6.388130638851248
 30
0.0
 10
3.068453223768272
 20
6.3798898759072
 30
0.0
 10
3.076749035790261
 20
6.374916743757239
 30
0.0
 10
3.092110014129031
 20
6.363413543208636
 30
0.0
 10
3.099025479669527
 20
6.356975798192798
 30
0.0
 10
3.111155063330239
 20
6.343249213251422
 30
0.0
 10
3.116461255846108
 20
6.335840079705753
 30
0.0
 10
3.125285237306222
 20
6.320705420210507
 30
0.0
 10
3.128843833044496
 20
6.312957289848548
 30
0.0
 10
3.134448982018515
 20
6.297213629502803
 30
0.0
 10
3.136460274675278
 20
6.289283510720844
 30
0.0
 10
3.139049290697313
 20
6.273743464357714
 30
0.0
 10
3.139647094422957
 20
6.266074267984957
 30
0.0
 10
3.139608464358329
 20
6.250958479064172
 30
0.0
 10
3.13895924343914
 20
6.243477155570068
 30
0.0
 10
3.136574764174336
 20
6.229116917538455
 30
0.0
 10
3.134844659161554
 20
6.222193600282242
 30
0.0
 10
3.130411078510302
 20
6.208820250748967
 30
0.0
 10
3.12770736606668
 20
6.202370379939619
 30
0.0
 10
3.121343211519632
 20
6.18992139743894
 30
0.0
 10
3.117664711533878
 20
6.183905900003186
 30
0.0
 10
3.105395051076548
 20
6.166901996236438
 30
0.0
 10
3.095600763399159
 20
6.156792362160093
 30
0.0
 10
3.077506704630939
 20
6.143468683197253
 30
0.0
 10
3.070837682389925
 20
6.139321040652939
 30
0.0
 10
3.056344246615835
 20
6.132054596107825
 30
0.0
 10
3.048497079028151
 20
6.128888786328582
 30
0.0
 10
3.039645294715798
 20
6.126362807105109
 30
0.0
  0
LINE
  5
184
330
1F
100
AcDbEntity
  8
0
  6
CONTINUOUS
 62
     7
100
AcDbLine
 10
2.7163998829
 20
6.0421423975
 30
0.0
 11
2.6967148435
 21
6.0618330203
 31
0.0
  0
LINE
  5
185
330
1F
100
AcDbEntity
  8
0
  6
CONTINUOUS
 62
     7
100
AcDbLine
 10
2.6967148435
 20
6.0618330203
 30
0.0
 11
2.6967148435
 21
7.282126841
 31
0.0
  0
LINE
  5
186
330
1F
100
AcDbEntity
  8
0
  6
CONTINUOUS
 62
     7
100
AcDbLine
 10
3.3463211428
 20
6.8681865917
 30
0.0
 11
3.306951064
 21
6.8681865917
 31
0.0
  0
LINE
  5
187
330
1F
100
AcDbEntity
  8
0
  6
CONTINUOUS
 62
     7
100
AcDbLine
 10
3.306951064
 20
6.4755946493
 30
0.0
 11
3.3463211428
 21
6.4755946493
 31
0.0
  0
CIRCLE
  5
188
330
1F
100
AcDbEntity
  8
0
  6
CONTINUOUS
 62
     7
100
AcDbCircle
 10
3.651439253
 20
6.2588685234
 30
0.0
 40
0.127952755905512
  0
CIRCLE
  5
189
330
1F
100
AcDbEntity
  8
0
  6
CONTINUOUS
 62
     7
100
AcDbCircle
 10
3.651439253
 20
6.2588685234
 30
0.0
 40
0.1377952755905509
  0
LINE
  5
18A
330
1F
100
AcDbEntity
  8
0
  6
CONTINUOUS
 62
     7
100
AcDbLine
 10
3.651439253
 20
6.3270595001
 30
0.0
 11
3.5923841349
 21
6.2929640117
 31
0.0
  0
LINE
  5
18B
330
1F
100
AcDbEntity
  8
0
  6
CONTINUOUS
 62
     7
100
AcDbLine
 10
3.5923841349
 20
6.2929640117
 30
0.0
 11
3.5923841349
 21
6.2247730351
 31
0.0
  0
LINE
  5
18C
330
1F
100
AcDbEntity
  8
0
  6
CONTINUOUS
 62
     7
100
AcDbLine
 10
3.5923841349
 20
6.2247730351
 30
0.0
 11
3.651439253
 21
6.1906775467
 31
0.0
  0
LINE
  5
18D
330
1F
100
AcDbEntity
  8
0
  6
CONTINUOUS
 62
     7
100
AcDbLine
 10
3.651439253
 20
6.1906775467
 30
0.0
 11
3.7104943711
 21
6.2247730351
 31
0.0
  0
LINE
  5
18E
330
1F
100
AcDbEntity
  8
0
  6
CONTINUOUS
 62
     7
100
AcDbLine
 10
3.7104943711
 20
6.2247730351
 30
0.0
 11
3.7104943711
 21
6.2929640117
 31
0.0
  0
LINE
  5
18F
330
1F
100
AcDbEntity
  8
0
  6
CONTINUOUS
 62
     7
100
AcDbLine
 10
3.7104943711
 20
6.2929640117
 30
0.0
 11
3.651439253
 21
6.3270595001
 31
0.0
  0
CIRCLE
  5
190
330
1F
100
AcDbEntity
  8
0
  6
CONTINUOUS
 62
     7
100
AcDbCircle
 10
3.0018329538
 20
6.2588685234
 30
0.0
 40
0.127952755905512
  0
ARC
  5
191
330
1F
100
AcDbEntity
  8
0
  6
CONTINUOUS
 62
     7
100
AcDbCircle
 10
3.0018329538
 20
6.2588685234
 30
0.0
 40
0.1377952755905512
100
AcDbArc
 50
270.0
 51
353.9458026652
  0
ARC
  5
192
330
1F
100
AcDbEntity
  8
0
  6
CONTINUOUS
 62
     7
100
AcDbCircle
 10
3.0018329538
 20
6.2588685234
 30
0.0
 40
0.1377952755905512
100
AcDbArc
 50
186.0541973348
 51
270.0
  0
LINE
  5
193
330
1F
100
AcDbEntity
  8
0
  6
CONTINUOUS
 62
     7
100
AcDbLine
 10
2.9427778357
 20
6.2247730351
 30
0.0
 11
2.9427778357
 21
6.2929640117
 31
0.0
  0
LINE
  5
194
330
1F
100
AcDbEntity
  8
0
  6
CONTINUOUS
 62
     7
100
AcDbLine
 10
3.0018329538
 20
6.1906775467
 30
0.0
 11
2.9427778357
 21
6.2247730351
 31
0.0
  0
LINE
  5
195
330
1F
100
AcDbEntity
  8
0
  6
CONTINUOUS
 62
     7
100
AcDbLine
 10
3.0608880719
 20
6.2247730351
 30
0.0
 11
3.0018329538
 21
6.1906775467
 31
0.0
  0
LINE
  5
196
330
1F
100
AcDbEntity
  8
0
  6
CONTINUOUS
 62
     7
100
AcDbLine
 10
3.0608880719
 20
6.2929640117
 30
0.0
 11
3.0608880719
 21
6.2247730351
 31
0.0
  0
LINE
  5
197
330
1F
100
AcDbEntity
  8
0
  6
CONTINUOUS
 62
     7
100
AcDbLine
 10
3.0018329538
 20
6.3270595001
 30
0.0
 11
3.0608880719
 21
6.2929640117
 31
0.0
  0
LINE
  5
198
330
1F
100
AcDbEntity
  8
0
  6
CONTINUOUS
 62
     7
100
AcDbLine
 10
2.9427778357
 20
6.2929640117
 30
0.0
 11
3.0018329538
 21
6.3270595001
 31
0.0
  0
LINE
  5
199
330
1F
100
AcDbEntity
  8
0
  6
HIDDEN
 62
     7
100
AcDbLine
 10
3.6136269121
 20
6.1263628071
 30
0.0
 11
3.6892515939
 21
6.1263628071
 31
0.0
  0
LINE
  5
19A
330
1F
100
AcDbEntity
  8
0
  6
HIDDEN
 62
     7
100
AcDbLine
 10
2.9640206128
 20
6.1263628071
 30
0.0
 11
3.0396452947
 21
6.1263628071
 31
0.0
  0
CIRCLE
  5
19B
330
1F
100
AcDbEntity
  8
0
  6
HIDDEN
 62
     7
100
AcDbCircle
 10
3.651439253
 20
6.2588685234
 30
0.0
 40
0.0787401574803148
  0
CIRCLE
  5
19C
330
1F
100
AcDbEntity
  8
0
  6
HIDDEN
 62
     7
100
AcDbCircle
 10
3.0018329538
 20
6.2588685234
 30
0.0
 40
0.0787401574803148
  0
LINE
  5
19D
330
1F
100
AcDbEntity
  8
0
  6
HIDDEN
 62
     7
100
AcDbLine
 10
3.3463211428
 20
6.8681865917
 30
0.0
 11
3.9368723239
 21
6.8681865917
 31
0.0
  0
LINE
  5
19E
330
1F
100
AcDbEntity
  8
0
  6
HIDDEN
 62
     7
100
AcDbLine
 10
3.9565573632
 20
6.8879221566
 30
0.0
 11
3.9368723239
 21
6.8681865917
 31
0.0
  0
LINE
  5
19F
330
1F
100
AcDbEntity
  8
0
  6
HIDDEN
 62
     7
100
AcDbLine
 10
3.3463211428
 20
6.9474811717
 30
0.0
 11
3.9565573632
 21
6.9474811717
 31
0.0
  0
LINE
  5
1A0
330
1F
100
AcDbEntity
  8
0
  6
HIDDEN
 62
     7
100
AcDbLine
 10
2.7163998829
 20
6.8681865917
 30
0.0
 11
3.306951064
 21
6.8681865917
 31
0.0
  0
LINE
  5
1A1
330
1F
100
AcDbEntity
  8
0
  6
HIDDEN
 62
     7
100
AcDbLine
 10
2.7163998829
 20
6.8681865917
 30
0.0
 11
2.6967148435
 21
6.8879221566
 31
0.0
  0
LINE
  5
1A2
330
1F
100
AcDbEntity
  8
0
  6
HIDDEN
 62
     7
100
AcDbLine
 10
2.6967148435
 20
6.9474811717
 30
0.0
 11
3.306951064
 21
6.9474811717
 31
0.0
  0
LINE
  5
1A3
330
1F
100
AcDbEntity
  8
0
  6
HIDDEN
 62
     7
100
AcDbLine
 10
3.306951064
 20
6.4755946493
 30
0.0
 11
2.7163998829
 21
6.4755946493
 31
0.0
  0
LINE
  5
1A4
330
1F
100
AcDbEntity
  8
0
  6
HIDDEN
 62
     7
100
AcDbLine
 10
2.6967148435
 20
6.4558590844
 30
0.0
 11
2.7163998829
 21
6.4755946493
 31
0.0
  0
LINE
  5
1A5
330
1F
100
AcDbEntity
  8
0
  6
HIDDEN
 62
     7
100
AcDbLine
 10
3.9368723239
 20
6.4755946493
 30
0.0
 11
3.3463211428
 21
6.4755946493
 31
0.0
  0
LINE
  5
1A6
330
1F
100
AcDbEntity
  8
0
  6
HIDDEN
 62
     7
100
AcDbLine
 10
3.9368723239
 20
6.4755946493
 30
0.0
 11
3.9565573632
 21
6.4558590844
 31
0.0
  0
CIRCLE
  5
1A7
330
1F
100
AcDbEntity
  8
0
  6
HIDDEN
 62
     7
100
AcDbCircle
 10
3.651439253
 20
6.2588685234
 30
0.0
 40
0.0688976377952759
  0
ARC
  5
1A8
330
1F
100
AcDbEntity
  8
0
  6
HIDDEN
 62
     7
100
AcDbCircle
 10
3.0018329538
 20
6.2588685234
 30
0.0
 40
0.1377952755905512
100
AcDbArc
 50
353.9458026652
 51
186.0541973348
  0
CIRCLE
  5
1A9
330
1F
100
AcDbEntity
  8
0
  6
HIDDEN
 62
     7
100
AcDbCircle
 10
3.0018329538
 20
6.2588685234
 30
0.0
 40
0.0688976377952759
  0
LINE
  5
1AA
330
1F
100
AcDbEntity
  8
0
  6
CONTINUOUS
 62
     7
100
AcDbLine
 10
8.6050537744
 20
6.0889961437
 30
0.0
 11
8.6189709369
 21
6.0970329626
 31
0.0
  0
LINE
  5
1AB
330
1F
100
AcDbEntity
  8
0
  6
CONTINUOUS
 62
     7
100
AcDbLine
 10
9.0504029753
 20
6.8443761493
 30
0.0
 11
9.0504029753
 21
6.8604471751
 31
0.0
  0
LINE
  5
1AC
330
1F
100
AcDbEntity
  8
0
  6
CONTINUOUS
 62
     7
100
AcDbLine
 10
8.1386535046
 20
6.145165399
 30
0.0
 11
8.290046347
 21
6.0577681714
 31
0.0
  0
LINE
  5
1AD
330
1F
100
AcDbEntity
  8
0
  6
CONTINUOUS
 62
     7
100
AcDbLine
 10
7.6793215501
 20
6.4103320922
 30
0.0
 11
8.0377668046
 21
6.2034060512
 31
0.0
  0
LINE
  5
1AE
330
1F
100
AcDbEntity
  8
0
  6
CONTINUOUS
 62
     7
100
AcDbLine
 10
7.4270420077
 20
6.555969972
 30
0.0
 11
7.5784348501
 21
6.4685727444
 31
0.0
  0
LINE
  5
1AF
330
1F
100
AcDbEntity
  8
0
  6
CONTINUOUS
 62
     7
100
AcDbLine
 10
8.9199164148
 20
7.1488533524
 30
0.0
 11
8.0569120755
 21
7.6470551529
 31
0.0
  0
LINE
  5
1B0
330
1F
100
AcDbEntity
  8
0
  6
CONTINUOUS
 62
     7
100
AcDbLine
 10
7.7419046481
 20
7.6158271807
 30
0.0
 11
7.7279874856
 21
7.6077903618
 31
0.0
  0
SPLINE
  5
1B1
330
1F
100
AcDbEntity
  8
0
  6
CONTINUOUS
 62
     7
100
AcDbSpline
210
0.0
220
0.0
230
1.0
 70
     8
 71
     3
 72
    36
 73
    32
 74
     0
 42
0.00000001
 43
0.00000001
 40
0.0
 40
0.0
 40
0.0
 40
0.0
 40
0.03163483117714
 40
0.0661903917159185
 40
0.1012290412731045
 40
0.1366280344797357
 40
0.1722417761956034
 40
0.2079482485155491
 40
0.2436536401962766
 40
0.2793191811919457
 40
0.3149337578761293
 40
0.3504993768406617
 40
0.3860250692978962
 40
0.4215233788545467
 40
0.4570085215706293
 40
0.4924955102951386
 40
0.5279959707347751
 40
0.5635242445252198
 40
0.5990959850043405
 40
0.6347262616035935
 40
0.6704282601050652
 40
0.706210626866216
 40
0.7420725014225856
 40
0.777995059932332
 40
0.8139093575295884
 40
0.8496995560777382
 40
0.8852077456150722
 40
0.9202614239597076
 40
0.9547434643299105
 40
0.9886642662491281
 40
1.0
 40
1.0
 40
1.0
 40
1.0
 10
8.242122501680289
 20
6.95514298579113
 30
0.0
 10
8.240736748765677
 20
6.95757176947472
 30
0.0
 10
8.237837301389902
 20
6.962653577640848
 30
0.0
 10
8.231918064018858
 20
6.969905055101686
 30
0.0
 10
8.224756671291189
 20
6.976967921551047
 30
0.0
 10
8.21642051780393
 20
6.983552386150273
 30
0.0
 10
8.207035288082604
 20
6.989595185623471
 30
0.0
 10
8.196698316062127
 20
6.99502780134025
 30
0.0
 10
8.185528956638159
 20
6.999798366219555
 30
0.0
 10
8.173646456558261
 20
7.003865664048166
 30
0.0
 10
8.161170756126104
 20
7.007198267156491
 30
0.0
 10
8.148223140838168
 20
7.009771508175482
 30
0.0
 10
8.134927182994824
 20
7.011566676004706
 30
0.0
 10
8.121408419945308
 20
7.012570803879184
 30
0.0
 10
8.107793778649947
 20
7.012776696730023
 30
0.0
 10
8.094211184501773
 20
7.012182993899095
 30
0.0
 10
8.0807881932846
 20
7.010794255789723
 30
0.0
 10
8.067650665765454
 20
7.008620813163534
 30
0.0
 10
8.054921258247916
 20
7.005678287414765
 30
0.0
 10
8.042718924580054
 20
7.001987093872367
 30
0.0
 10
8.03115859153075
 20
6.997571951628204
 30
0.0
 10
8.020351137514663
 20
6.992461503804408
 30
0.0
 10
8.010404114474516
 20
6.986688423001304
 30
0.0
 10
8.001424345789415
 20
6.980291774633425
 30
0.0
 10
7.993519412124457
 20
6.97332083660745
 30
0.0
 10
7.986791298694491
 20
6.965840474374523
 30
0.0
 10
7.981344293679359
 20
6.957935266011206
 30
0.0
 10
7.977219282409285
 20
6.949710840438555
 30
0.0
 10
7.974584794067994
 20
6.941287355667722
 30
0.0
 10
7.973340573918096
 20
6.934636822521153
 30
0.0
 10
7.973438934578176
 20
6.930842183368122
 30
0.0
 10
7.973463571688323
 20
6.929891712491761
 30
0.0
  0
LINE
  5
1B2
330
1F
100
AcDbEntity
  8
0
  6
CONTINUOUS
 62
     7
100
AcDbLine
 10
7.9733037196
 20
6.9289588976
 30
0.0
 11
7.9733037196
 21
6.846820415
 31
0.0
  0
SPLINE
  5
1B3
330
1F
100
AcDbEntity
  8
0
  6
CONTINUOUS
 62
     7
100
AcDbSpline
210
0.0
220
0.0
230
1.0
 70
     8
 71
     3
 72
    36
 73
    32
 74
     0
 42
0.00000001
 43
0.00000001
 40
0.0
 40
0.0
 40
0.0
 40
0.0
 40
0.03226143218609
 40
0.066709103516976
 40
0.1016383555680178
 40
0.1369268262052656
 40
0.1724293748649667
 40
0.2080243646056923
 40
0.2436182770811667
 40
0.2791724632932033
 40
0.3146758443142862
 40
0.3501304204712798
 40
0.3855451947793281
 40
0.420932671681557
 40
0.4563070228526644
 40
0.4916832142685997
 40
0.5270728353383372
 40
0.562490182920171
 40
0.5979508614791881
 40
0.6334698933971408
 40
0.6690604232875295
 40
0.7047310705121939
 40
0.7404809772932158
 40
0.7762913785604604
 40
0.8120935447073961
 40
0.8477719992666936
 40
0.883169325302375
 40
0.9181135592180574
 40
0.9524879399246883
 40
0.9863028344763758
 40
1.0
 40
1.0
 40
1.0
 40
1.0
 10
7.782882206275374
 20
7.220149104122783
 30
0.0
 10
7.781465415437028
 20
7.222634046128168
 30
0.0
 10
7.778535823032326
 20
7.227772325560859
 30
0.0
 10
7.772577885259312
 20
7.235077275772412
 30
0.0
 10
7.765415422934678
 20
7.242139767345841
 30
0.0
 10
7.757079560587691
 20
7.248724333984886
 30
0.0
 10
7.747694252088486
 20
7.254767105847749
 30
0.0
 10
7.737357301272307
 20
7.260199728996282
 30
0.0
 10
7.726187936163157
 20
7.264970291883025
 30
0.0
 10
7.714305437604504
 20
7.269037590244806
 30
0.0
 10
7.701829736765557
 20
7.272370193210558
 30
0.0
 10
7.688882121586399
 20
7.274943434267674
 30
0.0
 10
7.675586163713952
 20
7.276738602086701
 30
0.0
 10
7.662067400672246
 20
7.277742729963908
 30
0.0
 10
7.64845275937471
 20
7.277948622814018
 30
0.0
 10
7.634870165227432
 20
7.277354919983277
 30
0.0
 10
7.621447174008853
 20
7.275966181873885
 30
0.0
 10
7.608309646494439
 20
7.273792739247592
 30
0.0
 10
7.595580238959346
 20
7.270850213499258
 30
0.0
 10
7.583377905357121
 20
7.267159019955223
 30
0.0
 10
7.571817572062125
 20
7.262743877717185
 30
0.0
 10
7.561010118966021
 20
7.257633429870458
 30
0.0
 10
7.55106309248158
 20
7.251860349153205
 30
0.0
 10
7.542083336676505
 20
7.245463700464284
 30
0.0
 10
7.534178354992745
 20
7.238492763635205
 30
0.0
 10
7.527450419692487
 20
7.23101239696229
 30
0.0
 10
7.522002758235439
 20
7.223107204961172
 30
0.0
 10
7.517880149511959
 20
7.214882719503638
 30
0.0
 10
7.515236906844569
 20
7.206459452939526
 30
0.0
 10
7.513980899037189
 20
7.19960774715633
 30
0.0
 10
7.514094712219241
 20
7.195611256389201
 30
0.0
 10
7.514127523214825
 20
7.194459115323034
 30
0.0
  0
LINE
  5
1B4
330
1F
100
AcDbEntity
  8
0
  6
CONTINUOUS
 62
     7
100
AcDbLine
 10
7.5139627004
 20
7.1941308237
 30
0.0
 11
7.5139627004
 21
7.1133487538
 31
0.0
  0
POLYLINE
  5
1B5
330
1F
100
AcDbEntity
  8
0
  6
CONTINUOUS
 62
     7
100
AcDb2dPolyline
 66
     1
 10
0.0
 20
0.0
 30
0.0
  0
VERTEX
  5
203
330
1B5
100
AcDbEntity
  8
0
  6
CONTINUOUS
 62
     7
100
AcDbVertex
100
AcDb2dVertex
 10
8.1875249397
 20
6.3341920337
 30
0.0
  0
VERTEX
  5
204
330
1B5
100
AcDbEntity
  8
0
  6
CONTINUOUS
 62
     7
100
AcDbVertex
100
AcDb2dVertex
 10
8.1885693125
 20
6.3101706961
 30
0.0
  0
VERTEX
  5
205
330
1B5
100
AcDbEntity
  8
0
  6
CONTINUOUS
 62
     7
100
AcDbVertex
100
AcDb2dVertex
 10
8.1906671441
 20
6.2868472994
 30
0.0
  0
VERTEX
  5
206
330
1B5
100
AcDbEntity
  8
0
  6
CONTINUOUS
 62
     7
100
AcDbVertex
100
AcDb2dVertex
 10
8.193813299
 20
6.2642789395
 30
0.0
  0
VERTEX
  5
207
330
1B5
100
AcDbEntity
  8
0
  6
CONTINUOUS
 62
     7
100
AcDbVertex
100
AcDb2dVertex
 10
8.1980000754
 20
6.2425208642
 30
0.0
  0
VERTEX
  5
208
330
1B5
100
AcDbEntity
  8
0
  6
CONTINUOUS
 62
     7
100
AcDbVertex
100
AcDb2dVertex
 10
8.203217224
 20
6.2216263376
 30
0.0
  0
VERTEX
  5
209
330
1B5
100
AcDbEntity
  8
0
  6
CONTINUOUS
 62
     7
100
AcDbVertex
100
AcDb2dVertex
 10
8.209451973
 20
6.20164651
 30
0.0
  0
VERTEX
  5
20A
330
1B5
100
AcDbEntity
  8
0
  6
CONTINUOUS
 62
     7
100
AcDbVertex
100
AcDb2dVertex
 10
8.2166890598
 20
6.1826302922
 30
0.0
  0
VERTEX
  5
20B
330
1B5
100
AcDbEntity
  8
0
  6
CONTINUOUS
 62
     7
100
AcDbVertex
100
AcDb2dVertex
 10
8.2249107678
 20
6.1646242364
 30
0.0
  0
VERTEX
  5
20C
330
1B5
100
AcDbEntity
  8
0
  6
CONTINUOUS
 62
     7
100
AcDbVertex
100
AcDb2dVertex
 10
8.2340969702
 20
6.1476724215
 30
0.0
  0
VERTEX
  5
20D
330
1B5
100
AcDbEntity
  8
0
  6
CONTINUOUS
 62
     7
100
AcDbVertex
100
AcDb2dVertex
 10
8.2442251789
 20
6.131816346
 30
0.0
  0
VERTEX
  5
20E
330
1B5
100
AcDbEntity
  8
0
  6
CONTINUOUS
 62
     7
100
AcDbVertex
100
AcDb2dVertex
 10
8.2552705999
 20
6.1170948259
 30
0.0
  0
VERTEX
  5
20F
330
1B5
100
AcDbEntity
  8
0
  6
CONTINUOUS
 62
     7
100
AcDbVertex
100
AcDb2dVertex
 10
8.2672061938
 20
6.1035438995
 30
0.0
  0
VERTEX
  5
210
330
1B5
100
AcDbEntity
  8
0
  6
CONTINUOUS
 62
     7
100
AcDbVertex
100
AcDb2dVertex
 10
8.2800027422
 20
6.0911967399
 30
0.0
  0
VERTEX
  5
211
330
1B5
100
AcDbEntity
  8
0
  6
CONTINUOUS
 62
     7
100
AcDbVertex
100
AcDb2dVertex
 10
8.2936289188
 20
6.080083573
 30
0.0
  0
VERTEX
  5
212
330
1B5
100
AcDbEntity
  8
0
  6
CONTINUOUS
 62
     7
100
AcDbVertex
100
AcDb2dVertex
 10
8.3080513666
 20
6.0702316042
 30
0.0
  0
VERTEX
  5
213
330
1B5
100
AcDbEntity
  8
0
  6
CONTINUOUS
 62
     7
100
AcDbVertex
100
AcDb2dVertex
 10
8.323234779
 20
6.0616649512
 30
0.0
  0
VERTEX
  5
214
330
1B5
100
AcDbEntity
  8
0
  6
CONTINUOUS
 62
     7
100
AcDbVertex
100
AcDb2dVertex
 10
8.339141987
 20
6.0544045853
 30
0.0
  0
VERTEX
  5
215
330
1B5
100
AcDbEntity
  8
0
  6
CONTINUOUS
 62
     7
100
AcDbVertex
100
AcDb2dVertex
 10
8.3557340493
 20
6.04846828
 30
0.0
  0
VERTEX
  5
216
330
1B5
100
AcDbEntity
  8
0
  6
CONTINUOUS
 62
     7
100
AcDbVertex
100
AcDb2dVertex
 10
8.3729703483
 20
6.0438705674
 30
0.0
  0
VERTEX
  5
217
330
1B5
100
AcDbEntity
  8
0
  6
CONTINUOUS
 62
     7
100
AcDbVertex
100
AcDb2dVertex
 10
8.3908086892
 20
6.040622703
 30
0.0
  0
VERTEX
  5
218
330
1B5
100
AcDbEntity
  8
0
  6
CONTINUOUS
 62
     7
100
AcDbVertex
100
AcDb2dVertex
 10
8.4092054036
 20
6.0387326374
 30
0.0
  0
VERTEX
  5
219
330
1B5
100
AcDbEntity
  8
0
  6
CONTINUOUS
 62
     7
100
AcDbVertex
100
AcDb2dVertex
 10
8.4281154559
 20
6.0382049977
 30
0.0
  0
VERTEX
  5
21A
330
1B5
100
AcDbEntity
  8
0
  6
CONTINUOUS
 62
     7
100
AcDbVertex
100
AcDb2dVertex
 10
8.447492554
 20
6.0390410754
 30
0.0
  0
VERTEX
  5
21B
330
1B5
100
AcDbEntity
  8
0
  6
CONTINUOUS
 62
     7
100
AcDbVertex
100
AcDb2dVertex
 10
8.4672892624
 20
6.0412388239
 30
0.0
  0
VERTEX
  5
21C
330
1B5
100
AcDbEntity
  8
0
  6
CONTINUOUS
 62
     7
100
AcDbVertex
100
AcDb2dVertex
 10
8.4874571184
 20
6.044792863
 30
0.0
  0
VERTEX
  5
21D
330
1B5
100
AcDbEntity
  8
0
  6
CONTINUOUS
 62
     7
100
AcDbVertex
100
AcDb2dVertex
 10
8.5079467508
 20
6.0496944923
 30
0.0
  0
VERTEX
  5
21E
330
1B5
100
AcDbEntity
  8
0
  6
CONTINUOUS
 62
     7
100
AcDbVertex
100
AcDb2dVertex
 10
8.5287080007
 20
6.0559317127
 30
0.0
  0
VERTEX
  5
21F
330
1B5
100
AcDbEntity
  8
0
  6
CONTINUOUS
 62
     7
100
AcDbVertex
100
AcDb2dVertex
 10
8.549690044
 20
6.0634892552
 30
0.0
  0
VERTEX
  5
220
330
1B5
100
AcDbEntity
  8
0
  6
CONTINUOUS
 62
     7
100
AcDbVertex
100
AcDb2dVertex
 10
8.5708415165
 20
6.0723486189
 30
0.0
  0
VERTEX
  5
221
330
1B5
100
AcDbEntity
  8
0
  6
CONTINUOUS
 62
     7
100
AcDbVertex
100
AcDb2dVertex
 10
8.592110639
 20
6.082488116
 30
0.0
  0
VERTEX
  5
222
330
1B5
100
AcDbEntity
  8
0
  6
CONTINUOUS
 62
     7
100
AcDbVertex
100
AcDb2dVertex
 10
8.6134453442
 20
6.0938829246
 30
0.0
  0
VERTEX
  5
223
330
1B5
100
AcDbEntity
  8
0
  6
CONTINUOUS
 62
     7
100
AcDbVertex
100
AcDb2dVertex
 10
8.6347934045
 20
6.1065051503
 30
0.0
  0
VERTEX
  5
224
330
1B5
100
AcDbEntity
  8
0
  6
CONTINUOUS
 62
     7
100
AcDbVertex
100
AcDb2dVertex
 10
8.6561025595
 20
6.1203238935
 30
0.0
  0
VERTEX
  5
225
330
1B5
100
AcDbEntity
  8
0
  6
CONTINUOUS
 62
     7
100
AcDbVertex
100
AcDb2dVertex
 10
8.6773206439
 20
6.1353053257
 30
0.0
  0
VERTEX
  5
226
330
1B5
100
AcDbEntity
  8
0
  6
CONTINUOUS
 62
     7
100
AcDbVertex
100
AcDb2dVertex
 10
8.6983957156
 20
6.1514127721
 30
0.0
  0
VERTEX
  5
227
330
1B5
100
AcDbEntity
  8
0
  6
CONTINUOUS
 62
     7
100
AcDbVertex
100
AcDb2dVertex
 10
8.7192761823
 20
6.1686068014
 30
0.0
  0
VERTEX
  5
228
330
1B5
100
AcDbEntity
  8
0
  6
CONTINUOUS
 62
     7
100
AcDbVertex
100
AcDb2dVertex
 10
8.7399109285
 20
6.1868453224
 30
0.0
  0
VERTEX
  5
229
330
1B5
100
AcDbEntity
  8
0
  6
CONTINUOUS
 62
     7
100
AcDbVertex
100
AcDb2dVertex
 10
8.7602494398
 20
6.2060836868
 30
0.0
  0
VERTEX
  5
22A
330
1B5
100
AcDbEntity
  8
0
  6
CONTINUOUS
 62
     7
100
AcDbVertex
100
AcDb2dVertex
 10
8.7802419272
 20
6.2262747987
 30
0.0
  0
VERTEX
  5
22B
330
1B5
100
AcDbEntity
  8
0
  6
CONTINUOUS
 62
     7
100
AcDbVertex
100
AcDb2dVertex
 10
8.7998394488
 20
6.2473692301
 30
0.0
  0
VERTEX
  5
22C
330
1B5
100
AcDbEntity
  8
0
  6
CONTINUOUS
 62
     7
100
AcDbVertex
100
AcDb2dVertex
 10
8.8189940295
 20
6.2693153414
 30
0.0
  0
VERTEX
  5
22D
330
1B5
100
AcDbEntity
  8
0
  6
CONTINUOUS
 62
     7
100
AcDbVertex
100
AcDb2dVertex
 10
8.8376587786
 20
6.292059408
 30
0.0
  0
VERTEX
  5
22E
330
1B5
100
AcDbEntity
  8
0
  6
CONTINUOUS
 62
     7
100
AcDbVertex
100
AcDb2dVertex
 10
8.8557880045
 20
6.3155457522
 30
0.0
  0
VERTEX
  5
22F
330
1B5
100
AcDbEntity
  8
0
  6
CONTINUOUS
 62
     7
100
AcDbVertex
100
AcDb2dVertex
 10
8.8733373264
 20
6.339716879
 30
0.0
  0
VERTEX
  5
230
330
1B5
100
AcDbEntity
  8
0
  6
CONTINUOUS
 62
     7
100
AcDbVertex
100
AcDb2dVertex
 10
8.8902637834
 20
6.364513617
 30
0.0
  0
VERTEX
  5
231
330
1B5
100
AcDbEntity
  8
0
  6
CONTINUOUS
 62
     7
100
AcDbVertex
100
AcDb2dVertex
 10
8.9065259392
 20
6.3898752635
 30
0.0
  0
VERTEX
  5
232
330
1B5
100
AcDbEntity
  8
0
  6
CONTINUOUS
 62
     7
100
AcDbVertex
100
AcDb2dVertex
 10
8.9220839838
 20
6.4157397326
 30
0.0
  0
VERTEX
  5
233
330
1B5
100
AcDbEntity
  8
0
  6
CONTINUOUS
 62
     7
100
AcDbVertex
100
AcDb2dVertex
 10
8.9368998307
 20
6.4420437077
 30
0.0
  0
VERTEX
  5
234
330
1B5
100
AcDbEntity
  8
0
  6
CONTINUOUS
 62
     7
100
AcDbVertex
100
AcDb2dVertex
 10
8.9509372107
 20
6.4687227963
 30
0.0
  0
VERTEX
  5
235
330
1B5
100
AcDbEntity
  8
0
  6
CONTINUOUS
 62
     7
100
AcDbVertex
100
AcDb2dVertex
 10
8.9641617598
 20
6.4957116874
 30
0.0
  0
VERTEX
  5
236
330
1B5
100
AcDbEntity
  8
0
  6
CONTINUOUS
 62
     7
100
AcDbVertex
100
AcDb2dVertex
 10
8.9765411043
 20
6.5229443118
 30
0.0
  0
VERTEX
  5
237
330
1B5
100
AcDbEntity
  8
0
  6
CONTINUOUS
 62
     7
100
AcDbVertex
100
AcDb2dVertex
 10
8.9880449392
 20
6.5503540036
 30
0.0
  0
VERTEX
  5
238
330
1B5
100
AcDbEntity
  8
0
  6
CONTINUOUS
 62
     7
100
AcDbVertex
100
AcDb2dVertex
 10
8.998645103
 20
6.5778736633
 30
0.0
  0
VERTEX
  5
239
330
1B5
100
AcDbEntity
  8
0
  6
CONTINUOUS
 62
     7
100
AcDbVertex
100
AcDb2dVertex
 10
9.0083156462
 20
6.6054359225
 30
0.0
  0
VERTEX
  5
23A
330
1B5
100
AcDbEntity
  8
0
  6
CONTINUOUS
 62
     7
100
AcDbVertex
100
AcDb2dVertex
 10
9.0170328953
 20
6.6329733081
 30
0.0
  0
VERTEX
  5
23B
330
1B5
100
AcDbEntity
  8
0
  6
CONTINUOUS
 62
     7
100
AcDbVertex
100
AcDb2dVertex
 10
9.0247755102
 20
6.6604184082
 30
0.0
  0
VERTEX
  5
23C
330
1B5
100
AcDbEntity
  8
0
  6
CONTINUOUS
 62
     7
100
AcDbVertex
100
AcDb2dVertex
 10
9.0315245369
 20
6.6877040368
 30
0.0
  0
VERTEX
  5
23D
330
1B5
100
AcDbEntity
  8
0
  6
CONTINUOUS
 62
     7
100
AcDbVertex
100
AcDb2dVertex
 10
9.0372634537
 20
6.7147633981
 30
0.0
  0
VERTEX
  5
23E
330
1B5
100
AcDbEntity
  8
0
  6
CONTINUOUS
 62
     7
100
AcDbVertex
100
AcDb2dVertex
 10
9.0419782116
 20
6.7415302504
 30
0.0
  0
VERTEX
  5
23F
330
1B5
100
AcDbEntity
  8
0
  6
CONTINUOUS
 62
     7
100
AcDbVertex
100
AcDb2dVertex
 10
9.0456572688
 20
6.767939068
 30
0.0
  0
VERTEX
  5
240
330
1B5
100
AcDbEntity
  8
0
  6
CONTINUOUS
 62
     7
100
AcDbVertex
100
AcDb2dVertex
 10
9.0482916189
 20
6.7939252015
 30
0.0
  0
VERTEX
  5
241
330
1B5
100
AcDbEntity
  8
0
  6
CONTINUOUS
 62
     7
100
AcDbVertex
100
AcDb2dVertex
 10
9.049874813
 20
6.8194250367
 30
0.0
  0
VERTEX
  5
242
330
1B5
100
AcDbEntity
  8
0
  6
CONTINUOUS
 62
     7
100
AcDbVertex
100
AcDb2dVertex
 10
9.0504029753
 20
6.8443761493
 30
0.0
  0
VERTEX
  5
243
330
1B5
100
AcDbEntity
  8
0
  6
CONTINUOUS
 62
     7
100
AcDbVertex
100
AcDb2dVertex
 10
9.049874813
 20
6.8687174586
 30
0.0
  0
VERTEX
  5
244
330
1B5
100
AcDbEntity
  8
0
  6
CONTINUOUS
 62
     7
100
AcDbVertex
100
AcDb2dVertex
 10
9.0482916189
 20
6.8923893768
 30
0.0
  0
VERTEX
  5
245
330
1B5
100
AcDbEntity
  8
0
  6
CONTINUOUS
 62
     7
100
AcDbVertex
100
AcDb2dVertex
 10
9.0456572688
 20
6.9153339545
 30
0.0
  0
VERTEX
  5
246
330
1B5
100
AcDbEntity
  8
0
  6
CONTINUOUS
 62
     7
100
AcDbVertex
100
AcDb2dVertex
 10
9.0419782116
 20
6.937495023
 30
0.0
  0
VERTEX
  5
247
330
1B5
100
AcDbEntity
  8
0
  6
CONTINUOUS
 62
     7
100
AcDbVertex
100
AcDb2dVertex
 10
9.0372634537
 20
6.9588183317
 30
0.0
  0
VERTEX
  5
248
330
1B5
100
AcDbEntity
  8
0
  6
CONTINUOUS
 62
     7
100
AcDbVertex
100
AcDb2dVertex
 10
9.0315245369
 20
6.9792516807
 30
0.0
  0
VERTEX
  5
249
330
1B5
100
AcDbEntity
  8
0
  6
CONTINUOUS
 62
     7
100
AcDbVertex
100
AcDb2dVertex
 10
9.0247755102
 20
6.9987450489
 30
0.0
  0
VERTEX
  5
24A
330
1B5
100
AcDbEntity
  8
0
  6
CONTINUOUS
 62
     7
100
AcDbVertex
100
AcDb2dVertex
 10
9.0170328953
 20
7.0172507161
 30
0.0
  0
VERTEX
  5
24B
330
1B5
100
AcDbEntity
  8
0
  6
CONTINUOUS
 62
     7
100
AcDbVertex
100
AcDb2dVertex
 10
9.0083156462
 20
7.0347233802
 30
0.0
  0
VERTEX
  5
24C
330
1B5
100
AcDbEntity
  8
0
  6
CONTINUOUS
 62
     7
100
AcDbVertex
100
AcDb2dVertex
 10
8.998645103
 20
7.0511202678
 30
0.0
  0
VERTEX
  5
24D
330
1B5
100
AcDbEntity
  8
0
  6
CONTINUOUS
 62
     7
100
AcDbVertex
100
AcDb2dVertex
 10
8.9880449392
 20
7.0664012389
 30
0.0
  0
VERTEX
  5
24E
330
1B5
100
AcDbEntity
  8
0
  6
CONTINUOUS
 62
     7
100
AcDbVertex
100
AcDb2dVertex
 10
8.9765411043
 20
7.0805288857
 30
0.0
  0
VERTEX
  5
24F
330
1B5
100
AcDbEntity
  8
0
  6
CONTINUOUS
 62
     7
100
AcDbVertex
100
AcDb2dVertex
 10
8.9641617598
 20
7.0934686232
 30
0.0
  0
VERTEX
  5
250
330
1B5
100
AcDbEntity
  8
0
  6
CONTINUOUS
 62
     7
100
AcDbVertex
100
AcDb2dVertex
 10
8.9509372107
 20
7.1051887749
 30
0.0
  0
VERTEX
  5
251
330
1B5
100
AcDbEntity
  8
0
  6
CONTINUOUS
 62
     7
100
AcDbVertex
100
AcDb2dVertex
 10
8.9368998307
 20
7.1156606495
 30
0.0
  0
VERTEX
  5
252
330
1B5
100
AcDbEntity
  8
0
  6
CONTINUOUS
 62
     7
100
AcDbVertex
100
AcDb2dVertex
 10
8.9220839838
 20
7.1248586118
 30
0.0
  0
VERTEX
  5
253
330
1B5
100
AcDbEntity
  8
0
  6
CONTINUOUS
 62
     7
100
AcDbVertex
100
AcDb2dVertex
 10
8.9065259392
 20
7.132760145
 30
0.0
  0
VERTEX
  5
254
330
1B5
100
AcDbEntity
  8
0
  6
CONTINUOUS
 62
     7
100
AcDbVertex
100
AcDb2dVertex
 10
8.8902637834
 20
7.139345906
 30
0.0
  0
VERTEX
  5
255
330
1B5
100
AcDbEntity
  8
0
  6
CONTINUOUS
 62
     7
100
AcDbVertex
100
AcDb2dVertex
 10
8.8733373264
 20
7.1445997728
 30
0.0
  0
VERTEX
  5
256
330
1B5
100
AcDbEntity
  8
0
  6
CONTINUOUS
 62
     7
100
AcDbVertex
100
AcDb2dVertex
 10
8.8557880045
 20
7.1485088838
 30
0.0
  0
VERTEX
  5
257
330
1B5
100
AcDbEntity
  8
0
  6
CONTINUOUS
 62
     7
100
AcDbVertex
100
AcDb2dVertex
 10
8.8376587786
 20
7.1510636694
 30
0.0
  0
VERTEX
  5
258
330
1B5
100
AcDbEntity
  8
0
  6
CONTINUOUS
 62
     7
100
AcDbVertex
100
AcDb2dVertex
 10
8.8189940295
 20
7.1522578754
 30
0.0
  0
VERTEX
  5
259
330
1B5
100
AcDbEntity
  8
0
  6
CONTINUOUS
 62
     7
100
AcDbVertex
100
AcDb2dVertex
 10
8.7998394488
 20
7.1520885785
 30
0.0
  0
VERTEX
  5
25A
330
1B5
100
AcDbEntity
  8
0
  6
CONTINUOUS
 62
     7
100
AcDbVertex
100
AcDb2dVertex
 10
8.7802419272
 20
7.1505561931
 30
0.0
  0
VERTEX
  5
25B
330
1B5
100
AcDbEntity
  8
0
  6
CONTINUOUS
 62
     7
100
AcDbVertex
100
AcDb2dVertex
 10
8.7602494398
 20
7.1476644704
 30
0.0
  0
VERTEX
  5
25C
330
1B5
100
AcDbEntity
  8
0
  6
CONTINUOUS
 62
     7
100
AcDbVertex
100
AcDb2dVertex
 10
8.7399109285
 20
7.1434204895
 30
0.0
  0
VERTEX
  5
25D
330
1B5
100
AcDbEntity
  8
0
  6
CONTINUOUS
 62
     7
100
AcDbVertex
100
AcDb2dVertex
 10
8.7192761823
 20
7.1378346397
 30
0.0
  0
VERTEX
  5
25E
330
1B5
100
AcDbEntity
  8
0
  6
CONTINUOUS
 62
     7
100
AcDbVertex
100
AcDb2dVertex
 10
8.6983957156
 20
7.1309205952
 30
0.0
  0
VERTEX
  5
25F
330
1B5
100
AcDbEntity
  8
0
  6
CONTINUOUS
 62
     7
100
AcDbVertex
100
AcDb2dVertex
 10
8.6773206439
 20
7.1226952818
 30
0.0
  0
VERTEX
  5
260
330
1B5
100
AcDbEntity
  8
0
  6
CONTINUOUS
 62
     7
100
AcDbVertex
100
AcDb2dVertex
 10
8.6561025595
 20
7.1131788352
 30
0.0
  0
VERTEX
  5
261
330
1B5
100
AcDbEntity
  8
0
  6
CONTINUOUS
 62
     7
100
AcDbVertex
100
AcDb2dVertex
 10
8.6347934045
 20
7.1023945518
 30
0.0
  0
VERTEX
  5
262
330
1B5
100
AcDbEntity
  8
0
  6
CONTINUOUS
 62
     7
100
AcDbVertex
100
AcDb2dVertex
 10
8.6134453442
 20
7.0903688316
 30
0.0
  0
VERTEX
  5
263
330
1B5
100
AcDbEntity
  8
0
  6
CONTINUOUS
 62
     7
100
AcDbVertex
100
AcDb2dVertex
 10
8.592110639
 20
7.077131114
 30
0.0
  0
VERTEX
  5
264
330
1B5
100
AcDbEntity
  8
0
  6
CONTINUOUS
 62
     7
100
AcDbVertex
100
AcDb2dVertex
 10
8.5708415165
 20
7.0627138049
 30
0.0
  0
VERTEX
  5
265
330
1B5
100
AcDbEntity
  8
0
  6
CONTINUOUS
 62
     7
100
AcDbVertex
100
AcDb2dVertex
 10
8.549690044
 20
7.0471521983
 30
0.0
  0
VERTEX
  5
266
330
1B5
100
AcDbEntity
  8
0
  6
CONTINUOUS
 62
     7
100
AcDbVertex
100
AcDb2dVertex
 10
8.5287080007
 20
7.0304843892
 30
0.0
  0
VERTEX
  5
267
330
1B5
100
AcDbEntity
  8
0
  6
CONTINUOUS
 62
     7
100
AcDbVertex
100
AcDb2dVertex
 10
8.5079467508
 20
7.0127511807
 30
0.0
  0
VERTEX
  5
268
330
1B5
100
AcDbEntity
  8
0
  6
CONTINUOUS
 62
     7
100
AcDbVertex
100
AcDb2dVertex
 10
8.4874571184
 20
6.993995984
 30
0.0
  0
VERTEX
  5
269
330
1B5
100
AcDbEntity
  8
0
  6
CONTINUOUS
 62
     7
100
AcDbVertex
100
AcDb2dVertex
 10
8.4672892624
 20
6.9742647122
 30
0.0
  0
VERTEX
  5
26A
330
1B5
100
AcDbEntity
  8
0
  6
CONTINUOUS
 62
     7
100
AcDbVertex
100
AcDb2dVertex
 10
8.447492554
 20
6.9536056676
 30
0.0
  0
VERTEX
  5
26B
330
1B5
100
AcDbEntity
  8
0
  6
CONTINUOUS
 62
     7
100
AcDbVertex
100
AcDb2dVertex
 10
8.4281154559
 20
6.9320694241
 30
0.0
  0
VERTEX
  5
26C
330
1B5
100
AcDbEntity
  8
0
  6
CONTINUOUS
 62
     7
100
AcDbVertex
100
AcDb2dVertex
 10
8.4092054036
 20
6.9097087028
 30
0.0
  0
VERTEX
  5
26D
330
1B5
100
AcDbEntity
  8
0
  6
CONTINUOUS
 62
     7
100
AcDbVertex
100
AcDb2dVertex
 10
8.3908086892
 20
6.8865782429
 30
0.0
  0
VERTEX
  5
26E
330
1B5
100
AcDbEntity
  8
0
  6
CONTINUOUS
 62
     7
100
AcDbVertex
100
AcDb2dVertex
 10
8.3729703483
 20
6.8627346684
 30
0.0
  0
VERTEX
  5
26F
330
1B5
100
AcDbEntity
  8
0
  6
CONTINUOUS
 62
     7
100
AcDbVertex
100
AcDb2dVertex
 10
8.3557340493
 20
6.8382363486
 30
0.0
  0
VERTEX
  5
270
330
1B5
100
AcDbEntity
  8
0
  6
CONTINUOUS
 62
     7
100
AcDbVertex
100
AcDb2dVertex
 10
8.339141987
 20
6.8131432559
 30
0.0
  0
VERTEX
  5
271
330
1B5
100
AcDbEntity
  8
0
  6
CONTINUOUS
 62
     7
100
AcDbVertex
100
AcDb2dVertex
 10
8.323234779
 20
6.7875168187
 30
0.0
  0
VERTEX
  5
272
330
1B5
100
AcDbEntity
  8
0
  6
CONTINUOUS
 62
     7
100
AcDbVertex
100
AcDb2dVertex
 10
8.3080513666
 20
6.7614197707
 30
0.0
  0
VERTEX
  5
273
330
1B5
100
AcDbEntity
  8
0
  6
CONTINUOUS
 62
     7
100
AcDbVertex
100
AcDb2dVertex
 10
8.2936289188
 20
6.7349159982
 30
0.0
  0
VERTEX
  5
274
330
1B5
100
AcDbEntity
  8
0
  6
CONTINUOUS
 62
     7
100
AcDbVertex
100
AcDb2dVertex
 10
8.2800027422
 20
6.7080703827
 30
0.0
  0
VERTEX
  5
275
330
1B5
100
AcDbEntity
  8
0
  6
CONTINUOUS
 62
     7
100
AcDbVertex
100
AcDb2dVertex
 10
8.2672061938
 20
6.6809486428
 30
0.0
  0
VERTEX
  5
276
330
1B5
100
AcDbEntity
  8
0
  6
CONTINUOUS
 62
     7
100
AcDbVertex
100
AcDb2dVertex
 10
8.2552705999
 20
6.653617173
 30
0.0
  0
VERTEX
  5
277
330
1B5
100
AcDbEntity
  8
0
  6
CONTINUOUS
 62
     7
100
AcDbVertex
100
AcDb2dVertex
 10
8.2442251789
 20
6.6261428812
 30
0.0
  0
VERTEX
  5
278
330
1B5
100
AcDbEntity
  8
0
  6
CONTINUOUS
 62
     7
100
AcDbVertex
100
AcDb2dVertex
 10
8.2340969702
 20
6.5985930248
 30
0.0
  0
VERTEX
  5
279
330
1B5
100
AcDbEntity
  8
0
  6
CONTINUOUS
 62
     7
100
AcDbVertex
100
AcDb2dVertex
 10
8.2249107678
 20
6.5710350465
 30
0.0
  0
VERTEX
  5
27A
330
1B5
100
AcDbEntity
  8
0
  6
CONTINUOUS
 62
     7
100
AcDbVertex
100
AcDb2dVertex
 10
8.2166890598
 20
6.5435364087
 30
0.0
  0
VERTEX
  5
27B
330
1B5
100
AcDbEntity
  8
0
  6
CONTINUOUS
 62
     7
100
AcDbVertex
100
AcDb2dVertex
 10
8.209451973
 20
6.5161644283
 30
0.0
  0
VERTEX
  5
27C
330
1B5
100
AcDbEntity
  8
0
  6
CONTINUOUS
 62
     7
100
AcDbVertex
100
AcDb2dVertex
 10
8.203217224
 20
6.4889861127
 30
0.0
  0
VERTEX
  5
27D
330
1B5
100
AcDbEntity
  8
0
  6
CONTINUOUS
 62
     7
100
AcDbVertex
100
AcDb2dVertex
 10
8.1980000754
 20
6.4620679946
 30
0.0
  0
VERTEX
  5
27E
330
1B5
100
AcDbEntity
  8
0
  6
CONTINUOUS
 62
     7
100
AcDbVertex
100
AcDb2dVertex
 10
8.193813299
 20
6.4354759702
 30
0.0
  0
VERTEX
  5
27F
330
1B5
100
AcDbEntity
  8
0
  6
CONTINUOUS
 62
     7
100
AcDbVertex
100
AcDb2dVertex
 10
8.1906671441
 20
6.4092751371
 30
0.0
  0
VERTEX
  5
280
330
1B5
100
AcDbEntity
  8
0
  6
CONTINUOUS
 62
     7
100
AcDbVertex
100
AcDb2dVertex
 10
8.1885693125
 20
6.3835296355
 30
0.0
  0
VERTEX
  5
281
330
1B5
100
AcDbEntity
  8
0
  6
CONTINUOUS
 62
     7
100
AcDbVertex
100
AcDb2dVertex
 10
8.1875249397
 20
6.3583024908
 30
0.0
  0
SEQEND
  5
282
330
1B5
100
AcDbEntity
  8
0
  6
CONTINUOUS
 62
     7
  0
LINE
  5
1B6
330
1F
100
AcDbEntity
  8
0
  6
CONTINUOUS
 62
     7
100
AcDbLine
 10
8.1875249397
 20
6.3583024908
 30
0.0
 11
8.1596821419
 21
6.3583002116
 31
0.0
  0
POLYLINE
  5
1B7
330
1F
100
AcDbEntity
  8
0
  6
CONTINUOUS
 62
     7
100
AcDb2dPolyline
 66
     1
 10
0.0
 20
0.0
 30
0.0
  0
VERTEX
  5
283
330
1B7
100
AcDbEntity
  8
0
  6
CONTINUOUS
 62
     7
100
AcDbVertex
100
AcDb2dVertex
 10
8.1596821419
 20
6.3583002116
 30
0.0
  0
VERTEX
  5
284
330
1B7
100
AcDbEntity
  8
0
  6
CONTINUOUS
 62
     7
100
AcDbVertex
100
AcDb2dVertex
 10
8.1607189783
 20
6.3839276963
 30
0.0
  0
VERTEX
  5
285
330
1B7
100
AcDbEntity
  8
0
  6
CONTINUOUS
 62
     7
100
AcDbVertex
100
AcDb2dVertex
 10
8.1628101738
 20
6.4100758385
 30
0.0
  0
VERTEX
  5
286
330
1B7
100
AcDbEntity
  8
0
  6
CONTINUOUS
 62
     7
100
AcDbVertex
100
AcDb2dVertex
 10
8.1659507654
 20
6.4366825812
 30
0.0
  0
VERTEX
  5
287
330
1B7
100
AcDbEntity
  8
0
  6
CONTINUOUS
 62
     7
100
AcDbVertex
100
AcDb2dVertex
 10
8.1701332995
 20
6.4636847793
 30
0.0
  0
VERTEX
  5
288
330
1B7
100
AcDbEntity
  8
0
  6
CONTINUOUS
 62
     7
100
AcDbVertex
100
AcDb2dVertex
 10
8.17534785
 20
6.4910183489
 30
0.0
  0
VERTEX
  5
289
330
1B7
100
AcDbEntity
  8
0
  6
CONTINUOUS
 62
     7
100
AcDbVertex
100
AcDb2dVertex
 10
8.1815820411
 20
6.5186184199
 30
0.0
  0
VERTEX
  5
28A
330
1B7
100
AcDbEntity
  8
0
  6
CONTINUOUS
 62
     7
100
AcDbVertex
100
AcDb2dVertex
 10
8.1888210774
 20
6.5464194895
 30
0.0
  0
VERTEX
  5
28B
330
1B7
100
AcDbEntity
  8
0
  6
CONTINUOUS
 62
     7
100
AcDbVertex
100
AcDb2dVertex
 10
8.1970477787
 20
6.574355578
 30
0.0
  0
VERTEX
  5
28C
330
1B7
100
AcDbEntity
  8
0
  6
CONTINUOUS
 62
     7
100
AcDbVertex
100
AcDb2dVertex
 10
8.2062426206
 20
6.6023603853
 30
0.0
  0
VERTEX
  5
28D
330
1B7
100
AcDbEntity
  8
0
  6
CONTINUOUS
 62
     7
100
AcDbVertex
100
AcDb2dVertex
 10
8.2163837813
 20
6.6303674482
 30
0.0
  0
VERTEX
  5
28E
330
1B7
100
AcDbEntity
  8
0
  6
CONTINUOUS
 62
     7
100
AcDbVertex
100
AcDb2dVertex
 10
8.2274471929
 20
6.6583102979
 30
0.0
  0
VERTEX
  5
28F
330
1B7
100
AcDbEntity
  8
0
  6
CONTINUOUS
 62
     7
100
AcDbVertex
100
AcDb2dVertex
 10
8.2394065988
 20
6.6861226183
 30
0.0
  0
VERTEX
  5
290
330
1B7
100
AcDbEntity
  8
0
  6
CONTINUOUS
 62
     7
100
AcDbVertex
100
AcDb2dVertex
 10
8.2522336161
 20
6.713738403
 30
0.0
  0
VERTEX
  5
291
330
1B7
100
AcDbEntity
  8
0
  6
CONTINUOUS
 62
     7
100
AcDbVertex
100
AcDb2dVertex
 10
8.2658978026
 20
6.741092112
 30
0.0
  0
VERTEX
  5
292
330
1B7
100
AcDbEntity
  8
0
  6
CONTINUOUS
 62
     7
100
AcDbVertex
100
AcDb2dVertex
 10
8.2803667294
 20
6.7681188272
 30
0.0
  0
VERTEX
  5
293
330
1B7
100
AcDbEntity
  8
0
  6
CONTINUOUS
 62
     7
100
AcDbVertex
100
AcDb2dVertex
 10
8.2956060577
 20
6.7947544068
 30
0.0
  0
VERTEX
  5
294
330
1B7
100
AcDbEntity
  8
0
  6
CONTINUOUS
 62
     7
100
AcDbVertex
100
AcDb2dVertex
 10
8.3115796202
 20
6.8209356369
 30
0.0
  0
VERTEX
  5
295
330
1B7
100
AcDbEntity
  8
0
  6
CONTINUOUS
 62
     7
100
AcDbVertex
100
AcDb2dVertex
 10
8.3282495073
 20
6.8466003823
 30
0.0
  0
VERTEX
  5
296
330
1B7
100
AcDbEntity
  8
0
  6
CONTINUOUS
 62
     7
100
AcDbVertex
100
AcDb2dVertex
 10
8.3455761566
 20
6.8716877333
 30
0.0
  0
VERTEX
  5
297
330
1B7
100
AcDbEntity
  8
0
  6
CONTINUOUS
 62
     7
100
AcDbVertex
100
AcDb2dVertex
 10
8.3635184472
 20
6.8961381506
 30
0.0
  0
VERTEX
  5
298
330
1B7
100
AcDbEntity
  8
0
  6
CONTINUOUS
 62
     7
100
AcDbVertex
100
AcDb2dVertex
 10
8.3820337969
 20
6.9198936065
 30
0.0
  0
VERTEX
  5
299
330
1B7
100
AcDbEntity
  8
0
  6
CONTINUOUS
 62
     7
100
AcDbVertex
100
AcDb2dVertex
 10
8.4010782636
 20
6.9428977227
 30
0.0
  0
VERTEX
  5
29A
330
1B7
100
AcDbEntity
  8
0
  6
CONTINUOUS
 62
     7
100
AcDbVertex
100
AcDb2dVertex
 10
8.4206066496
 20
6.9650959039
 30
0.0
  0
VERTEX
  5
29B
330
1B7
100
AcDbEntity
  8
0
  6
CONTINUOUS
 62
     7
100
AcDbVertex
100
AcDb2dVertex
 10
8.4405726084
 20
6.9864354677
 30
0.0
  0
VERTEX
  5
29C
330
1B7
100
AcDbEntity
  8
0
  6
CONTINUOUS
 62
     7
100
AcDbVertex
100
AcDb2dVertex
 10
8.4609287553
 20
7.0068657692
 30
0.0
  0
VERTEX
  5
29D
330
1B7
100
AcDbEntity
  8
0
  6
CONTINUOUS
 62
     7
100
AcDbVertex
100
AcDb2dVertex
 10
8.4816267794
 20
7.0263383217
 30
0.0
  0
VERTEX
  5
29E
330
1B7
100
AcDbEntity
  8
0
  6
CONTINUOUS
 62
     7
100
AcDbVertex
100
AcDb2dVertex
 10
8.5026175585
 20
7.0448069113
 30
0.0
  0
VERTEX
  5
29F
330
1B7
100
AcDbEntity
  8
0
  6
CONTINUOUS
 62
     7
100
AcDbVertex
100
AcDb2dVertex
 10
8.5238512757
 20
7.062227707
 30
0.0
  0
VERTEX
  5
2A0
330
1B7
100
AcDbEntity
  8
0
  6
CONTINUOUS
 62
     7
100
AcDbVertex
100
AcDb2dVertex
 10
8.5452775373
 20
7.0785593642
 30
0.0
  0
VERTEX
  5
2A1
330
1B7
100
AcDbEntity
  8
0
  6
CONTINUOUS
 62
     7
100
AcDbVertex
100
AcDb2dVertex
 10
8.5668454928
 20
7.0937631234
 30
0.0
  0
VERTEX
  5
2A2
330
1B7
100
AcDbEntity
  8
0
  6
CONTINUOUS
 62
     7
100
AcDbVertex
100
AcDb2dVertex
 10
8.5885039555
 20
7.1078029018
 30
0.0
  0
VERTEX
  5
2A3
330
1B7
100
AcDbEntity
  8
0
  6
CONTINUOUS
 62
     7
100
AcDbVertex
100
AcDb2dVertex
 10
8.6102015237
 20
7.120645379
 30
0.0
  0
VERTEX
  5
2A4
330
1B7
100
AcDbEntity
  8
0
  6
CONTINUOUS
 62
     7
100
AcDbVertex
100
AcDb2dVertex
 10
8.631886703
 20
7.1322600764
 30
0.0
  0
VERTEX
  5
2A5
330
1B7
100
AcDbEntity
  8
0
  6
CONTINUOUS
 62
     7
100
AcDbVertex
100
AcDb2dVertex
 10
8.6535080285
 20
7.1426194289
 30
0.0
  0
VERTEX
  5
2A6
330
1B7
100
AcDbEntity
  8
0
  6
CONTINUOUS
 62
     7
100
AcDbVertex
100
AcDb2dVertex
 10
8.6750141867
 20
7.1516988509
 30
0.0
  0
VERTEX
  5
2A7
330
1B7
100
AcDbEntity
  8
0
  6
CONTINUOUS
 62
     7
100
AcDbVertex
100
AcDb2dVertex
 10
8.6963541374
 20
7.1594767944
 30
0.0
  0
VERTEX
  5
2A8
330
1B7
100
AcDbEntity
  8
0
  6
CONTINUOUS
 62
     7
100
AcDbVertex
100
AcDb2dVertex
 10
8.717477235
 20
7.1659348002
 30
0.0
  0
VERTEX
  5
2A9
330
1B7
100
AcDbEntity
  8
0
  6
CONTINUOUS
 62
     7
100
AcDbVertex
100
AcDb2dVertex
 10
8.7383333484
 20
7.1710575416
 30
0.0
  0
VERTEX
  5
2AA
330
1B7
100
AcDbEntity
  8
0
  6
CONTINUOUS
 62
     7
100
AcDbVertex
100
AcDb2dVertex
 10
8.7588729802
 20
7.1748328608
 30
0.0
  0
VERTEX
  5
2AB
330
1B7
100
AcDbEntity
  8
0
  6
CONTINUOUS
 62
     7
100
AcDbVertex
100
AcDb2dVertex
 10
8.7790473842
 20
7.1772517981
 30
0.0
  0
VERTEX
  5
2AC
330
1B7
100
AcDbEntity
  8
0
  6
CONTINUOUS
 62
     7
100
AcDbVertex
100
AcDb2dVertex
 10
8.7988086808
 20
7.1783086126
 30
0.0
  0
VERTEX
  5
2AD
330
1B7
100
AcDbEntity
  8
0
  6
CONTINUOUS
 62
     7
100
AcDbVertex
100
AcDb2dVertex
 10
8.818109971
 20
7.1780007962
 30
0.0
  0
VERTEX
  5
2AE
330
1B7
100
AcDbEntity
  8
0
  6
CONTINUOUS
 62
     7
100
AcDbVertex
100
AcDb2dVertex
 10
8.8369054473
 20
7.1763290794
 30
0.0
  0
VERTEX
  5
2AF
330
1B7
100
AcDbEntity
  8
0
  6
CONTINUOUS
 62
     7
100
AcDbVertex
100
AcDb2dVertex
 10
8.8551505029
 20
7.1732974296
 30
0.0
  0
VERTEX
  5
2B0
330
1B7
100
AcDbEntity
  8
0
  6
CONTINUOUS
 62
     7
100
AcDbVertex
100
AcDb2dVertex
 10
8.8728018371
 20
7.1689130419
 30
0.0
  0
VERTEX
  5
2B1
330
1B7
100
AcDbEntity
  8
0
  6
CONTINUOUS
 62
     7
100
AcDbVertex
100
AcDb2dVertex
 10
8.8898175583
 20
7.1631863216
 30
0.0
  0
VERTEX
  5
2B2
330
1B7
100
AcDbEntity
  8
0
  6
CONTINUOUS
 62
     7
100
AcDbVertex
100
AcDb2dVertex
 10
8.9061572836
 20
7.1561308598
 30
0.0
  0
VERTEX
  5
2B3
330
1B7
100
AcDbEntity
  8
0
  6
CONTINUOUS
 62
     7
100
AcDbVertex
100
AcDb2dVertex
 10
8.921782234
 20
7.147763401
 30
0.0
  0
VERTEX
  5
2B4
330
1B7
100
AcDbEntity
  8
0
  6
CONTINUOUS
 62
     7
100
AcDbVertex
100
AcDb2dVertex
 10
8.9366553274
 20
7.1381038037
 30
0.0
  0
VERTEX
  5
2B5
330
1B7
100
AcDbEntity
  8
0
  6
CONTINUOUS
 62
     7
100
AcDbVertex
100
AcDb2dVertex
 10
8.9507412656
 20
7.1271749928
 30
0.0
  0
VERTEX
  5
2B6
330
1B7
100
AcDbEntity
  8
0
  6
CONTINUOUS
 62
     7
100
AcDbVertex
100
AcDb2dVertex
 10
8.9640066187
 20
7.1150029053
 30
0.0
  0
VERTEX
  5
2B7
330
1B7
100
AcDbEntity
  8
0
  6
CONTINUOUS
 62
     7
100
AcDbVertex
100
AcDb2dVertex
 10
8.9764199044
 20
7.1016164291
 30
0.0
  0
VERTEX
  5
2B8
330
1B7
100
AcDbEntity
  8
0
  6
CONTINUOUS
 62
     7
100
AcDbVertex
100
AcDb2dVertex
 10
8.9879516625
 20
7.087047334
 30
0.0
  0
VERTEX
  5
2B9
330
1B7
100
AcDbEntity
  8
0
  6
CONTINUOUS
 62
     7
100
AcDbVertex
100
AcDb2dVertex
 10
8.9985745249
 20
7.0713301966
 30
0.0
  0
VERTEX
  5
2BA
330
1B7
100
AcDbEntity
  8
0
  6
CONTINUOUS
 62
     7
100
AcDbVertex
100
AcDb2dVertex
 10
9.0082632805
 20
7.0545023179
 30
0.0
  0
VERTEX
  5
2BB
330
1B7
100
AcDbEntity
  8
0
  6
CONTINUOUS
 62
     7
100
AcDbVertex
100
AcDb2dVertex
 10
9.0169949352
 20
7.0366036354
 30
0.0
  0
VERTEX
  5
2BC
330
1B7
100
AcDbEntity
  8
0
  6
CONTINUOUS
 62
     7
100
AcDbVertex
100
AcDb2dVertex
 10
9.0247487664
 20
7.0176766275
 30
0.0
  0
VERTEX
  5
2BD
330
1B7
100
AcDbEntity
  8
0
  6
CONTINUOUS
 62
     7
100
AcDbVertex
100
AcDb2dVertex
 10
9.0315063721
 20
6.9977662134
 30
0.0
  0
VERTEX
  5
2BE
330
1B7
100
AcDbEntity
  8
0
  6
CONTINUOUS
 62
     7
100
AcDbVertex
100
AcDb2dVertex
 10
9.0372517144
 20
6.9769196461
 30
0.0
  0
VERTEX
  5
2BF
330
1B7
100
AcDbEntity
  8
0
  6
CONTINUOUS
 62
     7
100
AcDbVertex
100
AcDb2dVertex
 10
9.0419711583
 20
6.9551864002
 30
0.0
  0
VERTEX
  5
2C0
330
1B7
100
AcDbEntity
  8
0
  6
CONTINUOUS
 62
     7
100
AcDbVertex
100
AcDb2dVertex
 10
9.045653503
 20
6.9326180549
 30
0.0
  0
VERTEX
  5
2C1
330
1B7
100
AcDbEntity
  8
0
  6
CONTINUOUS
 62
     7
100
AcDbVertex
100
AcDb2dVertex
 10
9.0482900094
 20
6.9092681712
 30
0.0
  0
VERTEX
  5
2C2
330
1B7
100
AcDbEntity
  8
0
  6
CONTINUOUS
 62
     7
100
AcDbVertex
100
AcDb2dVertex
 10
9.0498744202
 20
6.8851921649
 30
0.0
  0
VERTEX
  5
2C3
330
1B7
100
AcDbEntity
  8
0
  6
CONTINUOUS
 62
     7
100
AcDbVertex
100
AcDb2dVertex
 10
9.0504029753
 20
6.8604471751
 30
0.0
  0
SEQEND
  5
2C4
330
1B7
100
AcDbEntity
  8
0
  6
CONTINUOUS
 62
     7
  0
POLYLINE
  5
1B8
330
1F
100
AcDbEntity
  8
0
  6
CONTINUOUS
 62
     7
100
AcDb2dPolyline
 66
     1
 10
0.0
 20
0.0
 30
0.0
  0
VERTEX
  5
2C5
330
1B8
100
AcDbEntity
  8
0
  6
CONTINUOUS
 62
     7
100
AcDbVertex
100
AcDb2dVertex
 10
8.6050537744
 20
6.0889961437
 30
0.0
  0
VERTEX
  5
2C6
330
1B8
100
AcDbEntity
  8
0
  6
CONTINUOUS
 62
     7
100
AcDbVertex
100
AcDb2dVertex
 10
8.5885039555
 20
6.0797941916
 30
0.0
  0
VERTEX
  5
2C7
330
1B8
100
AcDbEntity
  8
0
  6
CONTINUOUS
 62
     7
100
AcDbVertex
100
AcDb2dVertex
 10
8.5668454928
 20
6.0688276413
 30
0.0
  0
VERTEX
  5
2C8
330
1B8
100
AcDbEntity
  8
0
  6
CONTINUOUS
 62
     7
100
AcDbVertex
100
AcDb2dVertex
 10
8.5452775373
 20
6.0591295691
 30
0.0
  0
VERTEX
  5
2C9
330
1B8
100
AcDbEntity
  8
0
  6
CONTINUOUS
 62
     7
100
AcDbVertex
100
AcDb2dVertex
 10
8.5238512757
 20
6.0507229912
 30
0.0
  0
VERTEX
  5
2CA
330
1B8
100
AcDbEntity
  8
0
  6
CONTINUOUS
 62
     7
100
AcDbVertex
100
AcDb2dVertex
 10
8.5026175585
 20
6.0436278589
 30
0.0
  0
VERTEX
  5
2CB
330
1B8
100
AcDbEntity
  8
0
  6
CONTINUOUS
 62
     7
100
AcDbVertex
100
AcDb2dVertex
 10
8.4816267794
 20
6.0378610108
 30
0.0
  0
VERTEX
  5
2CC
330
1B8
100
AcDbEntity
  8
0
  6
CONTINUOUS
 62
     7
100
AcDbVertex
100
AcDb2dVertex
 10
8.4609287553
 20
6.0334361334
 30
0.0
  0
VERTEX
  5
2CD
330
1B8
100
AcDbEntity
  8
0
  6
CONTINUOUS
 62
     7
100
AcDbVertex
100
AcDb2dVertex
 10
8.4405726084
 20
6.030363728
 30
0.0
  0
VERTEX
  5
2CE
330
1B8
100
AcDbEntity
  8
0
  6
CONTINUOUS
 62
     7
100
AcDbVertex
100
AcDb2dVertex
 10
8.4206066496
 20
6.0286510863
 30
0.0
  0
VERTEX
  5
2CF
330
1B8
100
AcDbEntity
  8
0
  6
CONTINUOUS
 62
     7
100
AcDbVertex
100
AcDb2dVertex
 10
8.4010782636
 20
6.028302273
 30
0.0
  0
VERTEX
  5
2D0
330
1B8
100
AcDbEntity
  8
0
  6
CONTINUOUS
 62
     7
100
AcDbVertex
100
AcDb2dVertex
 10
8.3820337969
 20
6.0293181159
 30
0.0
  0
VERTEX
  5
2D1
330
1B8
100
AcDbEntity
  8
0
  6
CONTINUOUS
 62
     7
100
AcDbVertex
100
AcDb2dVertex
 10
8.3635184472
 20
6.0316962041
 30
0.0
  0
VERTEX
  5
2D2
330
1B8
100
AcDbEntity
  8
0
  6
CONTINUOUS
 62
     7
100
AcDbVertex
100
AcDb2dVertex
 10
8.3455761566
 20
6.0354308936
 30
0.0
  0
VERTEX
  5
2D3
330
1B8
100
AcDbEntity
  8
0
  6
CONTINUOUS
 62
     7
100
AcDbVertex
100
AcDb2dVertex
 10
8.3282495073
 20
6.0405133212
 30
0.0
  0
VERTEX
  5
2D4
330
1B8
100
AcDbEntity
  8
0
  6
CONTINUOUS
 62
     7
100
AcDbVertex
100
AcDb2dVertex
 10
8.3115796202
 20
6.0469314246
 30
0.0
  0
VERTEX
  5
2D5
330
1B8
100
AcDbEntity
  8
0
  6
CONTINUOUS
 62
     7
100
AcDbVertex
100
AcDb2dVertex
 10
8.2956060577
 20
6.054669972
 30
0.0
  0
VERTEX
  5
2D6
330
1B8
100
AcDbEntity
  8
0
  6
CONTINUOUS
 62
     7
100
AcDbVertex
100
AcDb2dVertex
 10
8.2803667294
 20
6.0637105977
 30
0.0
  0
VERTEX
  5
2D7
330
1B8
100
AcDbEntity
  8
0
  6
CONTINUOUS
 62
     7
100
AcDbVertex
100
AcDb2dVertex
 10
8.2658978026
 20
6.0740318457
 30
0.0
  0
VERTEX
  5
2D8
330
1B8
100
AcDbEntity
  8
0
  6
CONTINUOUS
 62
     7
100
AcDbVertex
100
AcDb2dVertex
 10
8.2522336161
 20
6.0856092207
 30
0.0
  0
VERTEX
  5
2D9
330
1B8
100
AcDbEntity
  8
0
  6
CONTINUOUS
 62
     7
100
AcDbVertex
100
AcDb2dVertex
 10
8.2394065988
 20
6.0984152465
 30
0.0
  0
VERTEX
  5
2DA
330
1B8
100
AcDbEntity
  8
0
  6
CONTINUOUS
 62
     7
100
AcDbVertex
100
AcDb2dVertex
 10
8.2274471929
 20
6.1124195307
 30
0.0
  0
VERTEX
  5
2DB
330
1B8
100
AcDbEntity
  8
0
  6
CONTINUOUS
 62
     7
100
AcDbVertex
100
AcDb2dVertex
 10
8.2163837813
 20
6.1275888373
 30
0.0
  0
VERTEX
  5
2DC
330
1B8
100
AcDbEntity
  8
0
  6
CONTINUOUS
 62
     7
100
AcDbVertex
100
AcDb2dVertex
 10
8.2062426206
 20
6.1438871652
 30
0.0
  0
VERTEX
  5
2DD
330
1B8
100
AcDbEntity
  8
0
  6
CONTINUOUS
 62
     7
100
AcDbVertex
100
AcDb2dVertex
 10
8.1970477787
 20
6.161275834
 30
0.0
  0
VERTEX
  5
2DE
330
1B8
100
AcDbEntity
  8
0
  6
CONTINUOUS
 62
     7
100
AcDbVertex
100
AcDb2dVertex
 10
8.1888210774
 20
6.1797135754
 30
0.0
  0
VERTEX
  5
2DF
330
1B8
100
AcDbEntity
  8
0
  6
CONTINUOUS
 62
     7
100
AcDbVertex
100
AcDb2dVertex
 10
8.1815820411
 20
6.1991566316
 30
0.0
  0
VERTEX
  5
2E0
330
1B8
100
AcDbEntity
  8
0
  6
CONTINUOUS
 62
     7
100
AcDbVertex
100
AcDb2dVertex
 10
8.17534785
 20
6.2195588587
 30
0.0
  0
VERTEX
  5
2E1
330
1B8
100
AcDbEntity
  8
0
  6
CONTINUOUS
 62
     7
100
AcDbVertex
100
AcDb2dVertex
 10
8.1701332995
 20
6.2408718366
 30
0.0
  0
VERTEX
  5
2E2
330
1B8
100
AcDbEntity
  8
0
  6
CONTINUOUS
 62
     7
100
AcDbVertex
100
AcDb2dVertex
 10
8.1659507654
 20
6.2630449835
 30
0.0
  0
VERTEX
  5
2E3
330
1B8
100
AcDbEntity
  8
0
  6
CONTINUOUS
 62
     7
100
AcDbVertex
100
AcDb2dVertex
 10
8.1628101738
 20
6.2860256764
 30
0.0
  0
VERTEX
  5
2E4
330
1B8
100
AcDbEntity
  8
0
  6
CONTINUOUS
 62
     7
100
AcDbVertex
100
AcDb2dVertex
 10
8.1607189783
 20
6.3097593757
 30
0.0
  0
VERTEX
  5
2E5
330
1B8
100
AcDbEntity
  8
0
  6
CONTINUOUS
 62
     7
100
AcDbVertex
100
AcDb2dVertex
 10
8.1596821419
 20
6.3341897545
 30
0.0
  0
SEQEND
  5
2E6
330
1B8
100
AcDbEntity
  8
0
  6
CONTINUOUS
 62
     7
  0
LINE
  5
1B9
330
1F
100
AcDbEntity
  8
0
  6
CONTINUOUS
 62
     7
100
AcDbLine
 10
8.1596821419
 20
6.3341897545
 30
0.0
 11
8.1875249397
 21
6.3341920337
 31
0.0
  0
SPLINE
  5
1BA
330
1F
100
AcDbEntity
  8
0
  6
CONTINUOUS
 62
     7
100
AcDbSpline
210
0.0
220
0.0
230
1.0
 70
     8
 71
     3
 72
    18
 73
    14
 74
     0
 42
0.00000001
 43
0.00000001
 40
0.0
 40
0.0
 40
0.0
 40
0.0
 40
0.0567446418005484
 40
0.115734037878301
 40
0.1723865295730787
 40
0.2303749105304766
 40
0.3193825580752155
 40
0.4108457678284287
 40
0.5381729177802975
 40
0.6691151371122813
 40
0.7991117020148067
 40
0.932565788011945
 40
1.0
 40
1.0
 40
1.0
 40
1.0
 10
7.596080276650891
 20
6.462816247245703
 30
0.0
 10
7.593846769565186
 20
6.464081066735559
 30
0.0
 10
7.589291400362804
 20
6.466660740553269
 30
0.0
 10
7.583878430271598
 20
6.469405660867556
 30
0.0
 10
7.579571812432449
 20
6.471359483315499
 30
0.0
 10
7.575882573361483
 20
6.472750206493496
 30
0.0
 10
7.573386107505162
 20
6.473283695005089
 30
0.0
 10
7.572630678730531
 20
6.47269524111429
 30
0.0
 10
7.574700712446062
 20
6.470741255517622
 30
0.0
 10
7.580299537245389
 20
6.467415304737429
 30
0.0
 10
7.589264135535554
 20
6.463083705856367
 30
0.0
 10
7.599042883163571
 20
6.458862645130108
 30
0.0
 10
7.606726695200468
 20
6.455819226004423
 30
0.0
 10
7.609305998300594
 20
6.454797610646295
 30
0.0
  0
SPLINE
  5
1BB
330
1F
100
AcDbEntity
  8
0
  6
CONTINUOUS
 62
     7
100
AcDbSpline
210
0.0
220
0.0
230
1.0
 70
     8
 71
     3
 72
    15
 73
    11
 74
     0
 42
0.00000001
 43
0.00000001
 40
0.0
 40
0.0
 40
0.0
 40
0.0
 40
0.122776114737036
 40
0.2990183018136177
 40
0.4794411270241502
 40
0.5937123934580393
 40
0.7103915378748843
 40
0.7991023684285279
 40
0.8900991916849238
 40
1.0
 40
1.0
 40
1.0
 40
1.0
 10
7.67936509057533
 20
6.410407233895666
 30
0.0
 10
7.676376844511979
 20
6.412120485079451
 30
0.0
 10
7.669099042431514
 20
6.416293067512551
 30
0.0
 10
7.656205964903566
 20
6.424407746103277
 30
0.0
 10
7.642959555674506
 20
6.43297945387368
 30
0.0
 10
7.630937825122709
 20
6.440870058664038
 30
0.0
 10
7.621418106572781
 20
6.447094681741458
 30
0.0
 10
7.612643107850545
 20
6.452732434757769
 30
0.0
 10
7.60421611651552
 20
6.45802189329422
 30
0.0
 10
7.598957174545782
 20
6.461120925432605
 30
0.0
 10
7.596080276650891
 20
6.462816247245703
 30
0.0
  0
SPLINE
  5
1BC
330
1F
100
AcDbEntity
  8
0
  6
CONTINUOUS
 62
     7
100
AcDbSpline
210
0.0
220
0.0
230
1.0
 70
     8
 71
     3
 72
    39
 73
    35
 74
     0
 42
0.00000001
 43
0.00000001
 40
0.0
 40
0.0
 40
0.0
 40
0.0
 40
0.0238589588866733
 40
0.0478669752722886
 40
0.0718277447496661
 40
0.1084582757544544
 40
0.1452228001103344
 40
0.1819082643613888
 40
0.2204642961426561
 40
0.2591154374753409
 40
0.2976449233764877
 40
0.3289900766782207
 40
0.3604091637850803
 40
0.3917183909908348
 40
0.4295765364359632
 40
0.4673998905114813
 40
0.4928177317803485
 40
0.5183357237127508
 40
0.543728937971136
 40
0.5763782940222368
 40
0.6090167661092589
 40
0.6384953230557693
 40
0.667972473350448
 40
0.6964691603818488
 40
0.7249692106228027
 40
0.7536547730014526
 40
0.7823486567612432
 40
0.8123342880121581
 40
0.8423340807385588
 40
0.8752347697877263
 40
0.9081556534342358
 40
0.939404832219836
 40
0.9707688472383209
 40
0.9999999999999999
 40
0.9999999999999999
 40
0.9999999999999999
 40
0.9999999999999999
 10
8.044140667390822
 20
6.738882090621217
 30
0.0
 10
8.048751581058454
 20
6.739738980099419
 30
0.0
 10
8.058002214816597
 20
6.741458112424471
 30
0.0
 10
8.071576531185622
 20
6.747156464388882
 30
0.0
 10
8.087186601933379
 20
6.755634768196934
 30
0.0
 10
8.104720409474655
 20
6.767607522788323
 30
0.0
 10
8.123897726095027
 20
6.783397422256973
 30
0.0
 10
8.142798692790704
 20
6.801269301613968
 30
0.0
 10
8.161430821311848
 20
6.820928063996244
 30
0.0
 10
8.179526363438262
 20
6.842324093289939
 30
0.0
 10
8.195506469909319
 20
6.863547826033133
 30
0.0
 10
8.209327691884175
 20
6.884187328842843
 30
0.0
 10
8.220988426940059
 20
6.903960624077683
 30
0.0
 10
8.231881223617219
 20
6.925602094922863
 30
0.0
 10
8.241117523053061
 20
6.948976473692245
 30
0.0
 10
8.246839198383435
 20
6.971052461009389
 30
0.0
 10
8.249039443741871
 20
6.989966656356135
 30
0.0
 10
8.248856944693186
 20
7.005718406491197
 30
0.0
 10
8.246221764817468
 20
7.022136614065843
 30
0.0
 10
8.240039642266256
 20
7.038518555889479
 30
0.0
 10
8.229906061760422
 20
7.053509616090297
 30
0.0
 10
8.216756613337555
 20
7.065465101850687
 30
0.0
 10
8.201643191479103
 20
7.074367887978512
 30
0.0
 10
8.18454202723534
 20
7.080350848319226
 30
0.0
 10
8.166099365116338
 20
7.083471365334102
 30
0.0
 10
8.146614568755695
 20
7.083560018699613
 30
0.0
 10
8.126411826982846
 20
7.080681950175524
 30
0.0
 10
8.106089298042876
 20
7.074664973290309
 30
0.0
 10
8.08556162916457
 20
7.065421664417793
 30
0.0
 10
8.065730489767452
 20
7.052928047169215
 30
0.0
 10
8.047389221287547
 20
7.037717388161505
 30
0.0
 10
8.031348090841409
 20
7.020624200387149
 30
0.0
 10
8.017639935951026
 20
7.00272720567355
 30
0.0
 10
8.010182101716135
 20
6.989923007102062
 30
0.0
 10
8.00658443708746
 20
6.983746252450736
 30
0.0
  0
SPLINE
  5
1BD
330
1F
100
AcDbEntity
  8
0
  6
CONTINUOUS
 62
     7
100
AcDbSpline
210
0.0
220
0.0
230
1.0
 70
     8
 71
     3
 72
    11
 73
     7
 74
     0
 42
0.00000001
 43
0.00000001
 40
0.0
 40
0.0
 40
0.0
 40
0.0
 40
0.1343624800537433
 40
0.4700947068364171
 40
0.7354709867966924
 40
0.9999999999999999
 40
0.9999999999999999
 40
0.9999999999999999
 40
0.9999999999999999
 10
7.973669559849297
 20
6.852689682997251
 30
0.0
 10
7.973565692016784
 20
6.848769827380801
 30
0.0
 10
7.973202289091685
 20
6.835055408175978
 30
0.0
 10
7.97601419909862
 20
6.813936016699645
 30
0.0
 10
7.981399872721918
 20
6.789653812903221
 30
0.0
 10
7.987580546346174
 20
6.776379124317751
 30
0.0
 10
7.99066594201187
 20
6.769752392489633
 30
0.0
  0
SPLINE
  5
1BE
330
1F
100
AcDbEntity
  8
0
  6
CONTINUOUS
 62
     7
100
AcDbSpline
210
0.0
220
0.0
230
1.0
 70
     8
 71
     3
 72
    15
 73
    11
 74
     0
 42
0.00000001
 43
0.00000001
 40
0.0
 40
0.0
 40
0.0
 40
0.0
 40
0.0924283150057271
 40
0.1885129903101615
 40
0.2807912069324338
 40
0.3752453821943295
 40
0.5202251833551212
 40
0.6692047185898151
 40
0.8766011097045628
 40
1.0
 40
1.0
 40
1.0
 40
1.0
 10
8.055421295925616
 20
6.197644321161555
 30
0.0
 10
8.057824024163253
 20
6.196232696072616
 30
0.0
 10
8.062724529868145
 20
6.193353603592175
 30
0.0
 10
8.070839416457998
 20
6.188289103511608
 30
0.0
 10
8.079202451696702
 20
6.182928723679952
 30
0.0
 10
8.089075337547815
 20
6.176490946240163
 30
0.0
 10
8.100487579972873
 20
6.168990744515817
 30
0.0
 10
8.11463624997831
 20
6.159818665105441
 30
0.0
 10
8.127645692580433
 20
6.151579223694611
 30
0.0
 10
8.135695466956824
 20
6.146964306948642
 30
0.0
 10
8.138698330906212
 20
6.145242772098353
 30
0.0
  0
SPLINE
  5
1BF
330
1F
100
AcDbEntity
  8
0
  6
CONTINUOUS
 62
     7
100
AcDbSpline
210
0.0
220
0.0
230
1.0
 70
     8
 71
     3
 72
    18
 73
    14
 74
     0
 42
0.00000001
 43
0.00000001
 40
0.0
 40
0.0
 40
0.0
 40
0.0
 40
0.1009675852049769
 40
0.2080394578435669
 40
0.3339331472355241
 40
0.4628530657075686
 40
0.5707707274032491
 40
0.681248302246261
 40
0.7512195621194201
 40
0.8226652281258633
 40
0.8769851702420549
 40
0.9327048849735695
 40
1.0
 40
1.0
 40
1.0
 40
1.0
 10
8.0687462228432
 20
6.189565004360639
 30
0.0
 10
8.065032533498457
 20
6.191053278673937
 30
0.0
 10
8.057380632977
 20
6.19411980522929
 30
0.0
 10
8.047701114958215
 20
6.198338220928178
 30
0.0
 10
8.039561593723295
 20
6.202292294111093
 30
0.0
 10
8.034317001022346
 20
6.20540796470482
 30
0.0
 10
8.032031938238584
 20
6.207429029012864
 30
0.0
 10
8.032492746731723
 20
6.208109823844795
 30
0.0
 10
8.034916712391045
 20
6.207657323220464
 30
0.0
 10
8.038203139707937
 20
6.206489940344333
 30
0.0
 10
8.042576365937334
 20
6.204537214910069
 30
0.0
 10
8.04795574338718
 20
6.201856469699103
 30
0.0
 10
8.052781416977728
 20
6.199133770494662
 30
0.0
 10
8.055421295925616
 20
6.197644321161555
 30
0.0
  0
LINE
  5
1C0
330
1F
100
AcDbEntity
  8
0
  6
CONTINUOUS
 62
     7
100
AcDbLine
 10
7.7420993971
 20
6.5993655989
 30
0.0
 11
8.1596821419
 21
6.3583002116
 31
0.0
  0
POLYLINE
  5
1C1
330
1F
100
AcDbEntity
  8
0
  6
CONTINUOUS
 62
     7
100
AcDb2dPolyline
 66
     1
 10
0.0
 20
0.0
 30
0.0
  0
VERTEX
  5
2E7
330
1C1
100
AcDbEntity
  8
0
  6
CONTINUOUS
 62
     7
100
AcDbVertex
100
AcDb2dVertex
 10
7.7420993971
 20
6.5993655989
 30
0.0
  0
VERTEX
  5
2E8
330
1C1
100
AcDbEntity
  8
0
  6
CONTINUOUS
 62
     7
100
AcDbVertex
100
AcDb2dVertex
 10
7.743138276
 20
6.6250268769
 30
0.0
  0
VERTEX
  5
2E9
330
1C1
100
AcDbEntity
  8
0
  6
CONTINUOUS
 62
     7
100
AcDbVertex
100
AcDb2dVertex
 10
7.7452342619
 20
6.6512100913
 30
0.0
  0
VERTEX
  5
2EA
330
1C1
100
AcDbEntity
  8
0
  6
CONTINUOUS
 62
     7
100
AcDbVertex
100
AcDb2dVertex
 10
7.7483823675
 20
6.6778529397
 30
0.0
  0
VERTEX
  5
2EB
330
1C1
100
AcDbEntity
  8
0
  6
CONTINUOUS
 62
     7
100
AcDbVertex
100
AcDb2dVertex
 10
7.7525751019
 20
6.7048920262
 30
0.0
  0
VERTEX
  5
2EC
330
1C1
100
AcDbEntity
  8
0
  6
CONTINUOUS
 62
     7
100
AcDbVertex
100
AcDb2dVertex
 10
7.7578024886
 20
6.7322630119
 30
0.0
  0
VERTEX
  5
2ED
330
1C1
100
AcDbEntity
  8
0
  6
CONTINUOUS
 62
     7
100
AcDbVertex
100
AcDb2dVertex
 10
7.7640520892
 20
6.7599007681
 30
0.0
  0
VERTEX
  5
2EE
330
1C1
100
AcDbEntity
  8
0
  6
CONTINUOUS
 62
     7
100
AcDbVertex
100
AcDb2dVertex
 10
7.7713090329
 20
6.7877395315
 30
0.0
  0
VERTEX
  5
2EF
330
1C1
100
AcDbEntity
  8
0
  6
CONTINUOUS
 62
     7
100
AcDbVertex
100
AcDb2dVertex
 10
7.7795560519
 20
6.8157130603
 30
0.0
  0
VERTEX
  5
2F0
330
1C1
100
AcDbEntity
  8
0
  6
CONTINUOUS
 62
     7
100
AcDbVertex
100
AcDb2dVertex
 10
7.7887735227
 20
6.8437547923
 30
0.0
  0
VERTEX
  5
2F1
330
1C1
100
AcDbEntity
  8
0
  6
CONTINUOUS
 62
     7
100
AcDbVertex
100
AcDb2dVertex
 10
7.7989395126
 20
6.8717980029
 30
0.0
  0
VERTEX
  5
2F2
330
1C1
100
AcDbEntity
  8
0
  6
CONTINUOUS
 62
     7
100
AcDbVertex
100
AcDb2dVertex
 10
7.8100298318
 20
6.8997759637
 30
0.0
  0
VERTEX
  5
2F3
330
1C1
100
AcDbEntity
  8
0
  6
CONTINUOUS
 62
     7
100
AcDbVertex
100
AcDb2dVertex
 10
7.8220180911
 20
6.9276221021
 30
0.0
  0
VERTEX
  5
2F4
330
1C1
100
AcDbEntity
  8
0
  6
CONTINUOUS
 62
     7
100
AcDbVertex
100
AcDb2dVertex
 10
7.8348757647
 20
6.9552701586
 30
0.0
  0
VERTEX
  5
2F5
330
1C1
100
AcDbEntity
  8
0
  6
CONTINUOUS
 62
     7
100
AcDbVertex
100
AcDb2dVertex
 10
7.8485722582
 20
6.9826543455
 30
0.0
  0
VERTEX
  5
2F6
330
1C1
100
AcDbEntity
  8
0
  6
CONTINUOUS
 62
     7
100
AcDbVertex
100
AcDb2dVertex
 10
7.8630749811
 20
7.0097095027
 30
0.0
  0
VERTEX
  5
2F7
330
1C1
100
AcDbEntity
  8
0
  6
CONTINUOUS
 62
     7
100
AcDbVertex
100
AcDb2dVertex
 10
7.8783494244
 20
7.036371253
 30
0.0
  0
VERTEX
  5
2F8
330
1C1
100
AcDbEntity
  8
0
  6
CONTINUOUS
 62
     7
100
AcDbVertex
100
AcDb2dVertex
 10
7.894359243
 20
7.0625761556
 30
0.0
  0
VERTEX
  5
2F9
330
1C1
100
AcDbEntity
  8
0
  6
CONTINUOUS
 62
     7
100
AcDbVertex
100
AcDb2dVertex
 10
7.9110663419
 20
7.0882618564
 30
0.0
  0
VERTEX
  5
2FA
330
1C1
100
AcDbEntity
  8
0
  6
CONTINUOUS
 62
     7
100
AcDbVertex
100
AcDb2dVertex
 10
7.928430967
 20
7.1133672369
 30
0.0
  0
VERTEX
  5
2FB
330
1C1
100
AcDbEntity
  8
0
  6
CONTINUOUS
 62
     7
100
AcDbVertex
100
AcDb2dVertex
 10
7.9464117995
 20
7.1378325595
 30
0.0
  0
VERTEX
  5
2FC
330
1C1
100
AcDbEntity
  8
0
  6
CONTINUOUS
 62
     7
100
AcDbVertex
100
AcDb2dVertex
 10
7.9649660545
 20
7.1615996096
 30
0.0
  0
VERTEX
  5
2FD
330
1C1
100
AcDbEntity
  8
0
  6
CONTINUOUS
 62
     7
100
AcDbVertex
100
AcDb2dVertex
 10
7.9840495826
 20
7.1846118339
 30
0.0
  0
VERTEX
  5
2FE
330
1C1
100
AcDbEntity
  8
0
  6
CONTINUOUS
 62
     7
100
AcDbVertex
100
AcDb2dVertex
 10
8.0036169749
 20
7.2068144754
 30
0.0
  0
VERTEX
  5
2FF
330
1C1
100
AcDbEntity
  8
0
  6
CONTINUOUS
 62
     7
100
AcDbVertex
100
AcDb2dVertex
 10
8.0236216713
 20
7.2281547035
 30
0.0
  0
VERTEX
  5
300
330
1C1
100
AcDbEntity
  8
0
  6
CONTINUOUS
 62
     7
100
AcDbVertex
100
AcDb2dVertex
 10
8.0440160712
 20
7.2485817396
 30
0.0
  0
VERTEX
  5
301
330
1C1
100
AcDbEntity
  8
0
  6
CONTINUOUS
 62
     7
100
AcDbVertex
100
AcDb2dVertex
 10
8.0647516465
 20
7.2680469781
 30
0.0
  0
VERTEX
  5
302
330
1C1
100
AcDbEntity
  8
0
  6
CONTINUOUS
 62
     7
100
AcDbVertex
100
AcDb2dVertex
 10
8.0857790573
 20
7.2865041019
 30
0.0
  0
VERTEX
  5
303
330
1C1
100
AcDbEntity
  8
0
  6
CONTINUOUS
 62
     7
100
AcDbVertex
100
AcDb2dVertex
 10
8.1070482696
 20
7.3039091926
 30
0.0
  0
VERTEX
  5
304
330
1C1
100
AcDbEntity
  8
0
  6
CONTINUOUS
 62
     7
100
AcDbVertex
100
AcDb2dVertex
 10
8.1285086737
 20
7.3202208354
 30
0.0
  0
VERTEX
  5
305
330
1C1
100
AcDbEntity
  8
0
  6
CONTINUOUS
 62
     7
100
AcDbVertex
100
AcDb2dVertex
 10
8.150109205
 20
7.3354002169
 30
0.0
  0
VERTEX
  5
306
330
1C1
100
AcDbEntity
  8
0
  6
CONTINUOUS
 62
     7
100
AcDbVertex
100
AcDb2dVertex
 10
8.1717984657
 20
7.3494112183
 30
0.0
  0
VERTEX
  5
307
330
1C1
100
AcDbEntity
  8
0
  6
CONTINUOUS
 62
     7
100
AcDbVertex
100
AcDb2dVertex
 10
8.1935248466
 20
7.3622205008
 30
0.0
  0
VERTEX
  5
308
330
1C1
100
AcDbEntity
  8
0
  6
CONTINUOUS
 62
     7
100
AcDbVertex
100
AcDb2dVertex
 10
8.2152366503
 20
7.3737975848
 30
0.0
  0
VERTEX
  5
309
330
1C1
100
AcDbEntity
  8
0
  6
CONTINUOUS
 62
     7
100
AcDbVertex
100
AcDb2dVertex
 10
8.2368822141
 20
7.384114923
 30
0.0
  0
VERTEX
  5
30A
330
1C1
100
AcDbEntity
  8
0
  6
CONTINUOUS
 62
     7
100
AcDbVertex
100
AcDb2dVertex
 10
8.2584100329
 20
7.3931479656
 30
0.0
  0
VERTEX
  5
30B
330
1C1
100
AcDbEntity
  8
0
  6
CONTINUOUS
 62
     7
100
AcDbVertex
100
AcDb2dVertex
 10
8.2797688818
 20
7.4008752187
 30
0.0
  0
VERTEX
  5
30C
330
1C1
100
AcDbEntity
  8
0
  6
CONTINUOUS
 62
     7
100
AcDbVertex
100
AcDb2dVertex
 10
8.3009079379
 20
7.4072782953
 30
0.0
  0
VERTEX
  5
30D
330
1C1
100
AcDbEntity
  8
0
  6
CONTINUOUS
 62
     7
100
AcDbVertex
100
AcDb2dVertex
 10
8.3217769013
 20
7.4123419597
 30
0.0
  0
VERTEX
  5
30E
330
1C1
100
AcDbEntity
  8
0
  6
CONTINUOUS
 62
     7
100
AcDbVertex
100
AcDb2dVertex
 10
8.3423261147
 20
7.4160541628
 30
0.0
  0
VERTEX
  5
30F
330
1C1
100
AcDbEntity
  8
0
  6
CONTINUOUS
 62
     7
100
AcDbVertex
100
AcDb2dVertex
 10
8.3625066819
 20
7.4184060716
 30
0.0
  0
VERTEX
  5
310
330
1C1
100
AcDbEntity
  8
0
  6
CONTINUOUS
 62
     7
100
AcDbVertex
100
AcDb2dVertex
 10
8.3822705836
 20
7.4193920898
 30
0.0
  0
SEQEND
  5
311
330
1C1
100
AcDbEntity
  8
0
  6
CONTINUOUS
 62
     7
  0
LINE
  5
1C2
330
1F
100
AcDbEntity
  8
0
  6
CONTINUOUS
 62
     7
100
AcDbLine
 10
8.354431734
 20
7.4354631156
 30
0.0
 11
8.3822705836
 21
7.4193920898
 31
0.0
  0
POLYLINE
  5
1C3
330
1F
100
AcDbEntity
  8
0
  6
CONTINUOUS
 62
     7
100
AcDb2dPolyline
 66
     1
 10
0.0
 20
0.0
 30
0.0
  0
VERTEX
  5
312
330
1C3
100
AcDbEntity
  8
0
  6
CONTINUOUS
 62
     7
100
AcDbVertex
100
AcDb2dVertex
 10
8.354431734
 20
7.4354631156
 30
0.0
  0
VERTEX
  5
313
330
1C3
100
AcDbEntity
  8
0
  6
CONTINUOUS
 62
     7
100
AcDbVertex
100
AcDb2dVertex
 10
8.3346678323
 20
7.4344770974
 30
0.0
  0
VERTEX
  5
314
330
1C3
100
AcDbEntity
  8
0
  6
CONTINUOUS
 62
     7
100
AcDbVertex
100
AcDb2dVertex
 10
8.3144872651
 20
7.4321251886
 30
0.0
  0
VERTEX
  5
315
330
1C3
100
AcDbEntity
  8
0
  6
CONTINUOUS
 62
     7
100
AcDbVertex
100
AcDb2dVertex
 10
8.2939380516
 20
7.4284129855
 30
0.0
  0
VERTEX
  5
316
330
1C3
100
AcDbEntity
  8
0
  6
CONTINUOUS
 62
     7
100
AcDbVertex
100
AcDb2dVertex
 10
8.2730690882
 20
7.4233493212
 30
0.0
  0
VERTEX
  5
317
330
1C3
100
AcDbEntity
  8
0
  6
CONTINUOUS
 62
     7
100
AcDbVertex
100
AcDb2dVertex
 10
8.2519300322
 20
7.4169462445
 30
0.0
  0
VERTEX
  5
318
330
1C3
100
AcDbEntity
  8
0
  6
CONTINUOUS
 62
     7
100
AcDbVertex
100
AcDb2dVertex
 10
8.2305711833
 20
7.4092189915
 30
0.0
  0
VERTEX
  5
319
330
1C3
100
AcDbEntity
  8
0
  6
CONTINUOUS
 62
     7
100
AcDbVertex
100
AcDb2dVertex
 10
8.2090433645
 20
7.4001859489
 30
0.0
  0
VERTEX
  5
31A
330
1C3
100
AcDbEntity
  8
0
  6
CONTINUOUS
 62
     7
100
AcDbVertex
100
AcDb2dVertex
 10
8.1873978006
 20
7.3898686106
 30
0.0
  0
VERTEX
  5
31B
330
1C3
100
AcDbEntity
  8
0
  6
CONTINUOUS
 62
     7
100
AcDbVertex
100
AcDb2dVertex
 10
8.1656859969
 20
7.3782915266
 30
0.0
  0
VERTEX
  5
31C
330
1C3
100
AcDbEntity
  8
0
  6
CONTINUOUS
 62
     7
100
AcDbVertex
100
AcDb2dVertex
 10
8.143959616
 20
7.3654822442
 30
0.0
  0
VERTEX
  5
31D
330
1C3
100
AcDbEntity
  8
0
  6
CONTINUOUS
 62
     7
100
AcDbVertex
100
AcDb2dVertex
 10
8.1222703554
 20
7.3514712428
 30
0.0
  0
VERTEX
  5
31E
330
1C3
100
AcDbEntity
  8
0
  6
CONTINUOUS
 62
     7
100
AcDbVertex
100
AcDb2dVertex
 10
8.100669824
 20
7.3362918612
 30
0.0
  0
VERTEX
  5
31F
330
1C3
100
AcDbEntity
  8
0
  6
CONTINUOUS
 62
     7
100
AcDbVertex
100
AcDb2dVertex
 10
8.07920942
 20
7.3199802184
 30
0.0
  0
VERTEX
  5
320
330
1C3
100
AcDbEntity
  8
0
  6
CONTINUOUS
 62
     7
100
AcDbVertex
100
AcDb2dVertex
 10
8.0579402077
 20
7.3025751277
 30
0.0
  0
VERTEX
  5
321
330
1C3
100
AcDbEntity
  8
0
  6
CONTINUOUS
 62
     7
100
AcDbVertex
100
AcDb2dVertex
 10
8.0369127968
 20
7.2841180039
 30
0.0
  0
VERTEX
  5
322
330
1C3
100
AcDbEntity
  8
0
  6
CONTINUOUS
 62
     7
100
AcDbVertex
100
AcDb2dVertex
 10
8.0161772215
 20
7.2646527655
 30
0.0
  0
VERTEX
  5
323
330
1C3
100
AcDbEntity
  8
0
  6
CONTINUOUS
 62
     7
100
AcDbVertex
100
AcDb2dVertex
 10
7.9957828217
 20
7.2442257293
 30
0.0
  0
VERTEX
  5
324
330
1C3
100
AcDbEntity
  8
0
  6
CONTINUOUS
 62
     7
100
AcDbVertex
100
AcDb2dVertex
 10
7.9757781252
 20
7.2228855012
 30
0.0
  0
VERTEX
  5
325
330
1C3
100
AcDbEntity
  8
0
  6
CONTINUOUS
 62
     7
100
AcDbVertex
100
AcDb2dVertex
 10
7.9562107329
 20
7.2006828597
 30
0.0
  0
VERTEX
  5
326
330
1C3
100
AcDbEntity
  8
0
  6
CONTINUOUS
 62
     7
100
AcDbVertex
100
AcDb2dVertex
 10
7.9371272049
 20
7.1776706354
 30
0.0
  0
VERTEX
  5
327
330
1C3
100
AcDbEntity
  8
0
  6
CONTINUOUS
 62
     7
100
AcDbVertex
100
AcDb2dVertex
 10
7.9185729499
 20
7.1539035854
 30
0.0
  0
VERTEX
  5
328
330
1C3
100
AcDbEntity
  8
0
  6
CONTINUOUS
 62
     7
100
AcDbVertex
100
AcDb2dVertex
 10
7.9005921174
 20
7.1294382628
 30
0.0
  0
VERTEX
  5
329
330
1C3
100
AcDbEntity
  8
0
  6
CONTINUOUS
 62
     7
100
AcDbVertex
100
AcDb2dVertex
 10
7.8832274923
 20
7.1043328822
 30
0.0
  0
VERTEX
  5
32A
330
1C3
100
AcDbEntity
  8
0
  6
CONTINUOUS
 62
     7
100
AcDbVertex
100
AcDb2dVertex
 10
7.8665203934
 20
7.0786471814
 30
0.0
  0
VERTEX
  5
32B
330
1C3
100
AcDbEntity
  8
0
  6
CONTINUOUS
 62
     7
100
AcDbVertex
100
AcDb2dVertex
 10
7.8505105748
 20
7.0524422789
 30
0.0
  0
VERTEX
  5
32C
330
1C3
100
AcDbEntity
  8
0
  6
CONTINUOUS
 62
     7
100
AcDbVertex
100
AcDb2dVertex
 10
7.8352361314
 20
7.0257805285
 30
0.0
  0
VERTEX
  5
32D
330
1C3
100
AcDbEntity
  8
0
  6
CONTINUOUS
 62
     7
100
AcDbVertex
100
AcDb2dVertex
 10
7.8207334086
 20
6.9987253713
 30
0.0
  0
VERTEX
  5
32E
330
1C3
100
AcDbEntity
  8
0
  6
CONTINUOUS
 62
     7
100
AcDbVertex
100
AcDb2dVertex
 10
7.8070369151
 20
6.9713411844
 30
0.0
  0
VERTEX
  5
32F
330
1C3
100
AcDbEntity
  8
0
  6
CONTINUOUS
 62
     7
100
AcDbVertex
100
AcDb2dVertex
 10
7.7941792414
 20
6.9436931279
 30
0.0
  0
VERTEX
  5
330
330
1C3
100
AcDbEntity
  8
0
  6
CONTINUOUS
 62
     7
100
AcDbVertex
100
AcDb2dVertex
 10
7.7821909821
 20
6.9158469896
 30
0.0
  0
VERTEX
  5
331
330
1C3
100
AcDbEntity
  8
0
  6
CONTINUOUS
 62
     7
100
AcDbVertex
100
AcDb2dVertex
 10
7.771100663
 20
6.8878690287
 30
0.0
  0
VERTEX
  5
332
330
1C3
100
AcDbEntity
  8
0
  6
CONTINUOUS
 62
     7
100
AcDbVertex
100
AcDb2dVertex
 10
7.7609346731
 20
6.8598258182
 30
0.0
  0
VERTEX
  5
333
330
1C3
100
AcDbEntity
  8
0
  6
CONTINUOUS
 62
     7
100
AcDbVertex
100
AcDb2dVertex
 10
7.7517172023
 20
6.8317840862
 30
0.0
  0
VERTEX
  5
334
330
1C3
100
AcDbEntity
  8
0
  6
CONTINUOUS
 62
     7
100
AcDbVertex
100
AcDb2dVertex
 10
7.7434701832
 20
6.8038105573
 30
0.0
  0
VERTEX
  5
335
330
1C3
100
AcDbEntity
  8
0
  6
CONTINUOUS
 62
     7
100
AcDbVertex
100
AcDb2dVertex
 10
7.7362132395
 20
6.7759717939
 30
0.0
  0
VERTEX
  5
336
330
1C3
100
AcDbEntity
  8
0
  6
CONTINUOUS
 62
     7
100
AcDbVertex
100
AcDb2dVertex
 10
7.7299636389
 20
6.7483340377
 30
0.0
  0
VERTEX
  5
337
330
1C3
100
AcDbEntity
  8
0
  6
CONTINUOUS
 62
     7
100
AcDbVertex
100
AcDb2dVertex
 10
7.7247362522
 20
6.720963052
 30
0.0
  0
VERTEX
  5
338
330
1C3
100
AcDbEntity
  8
0
  6
CONTINUOUS
 62
     7
100
AcDbVertex
100
AcDb2dVertex
 10
7.7205435178
 20
6.6939239656
 30
0.0
  0
VERTEX
  5
339
330
1C3
100
AcDbEntity
  8
0
  6
CONTINUOUS
 62
     7
100
AcDbVertex
100
AcDb2dVertex
 10
7.7173954123
 20
6.6672811171
 30
0.0
  0
VERTEX
  5
33A
330
1C3
100
AcDbEntity
  8
0
  6
CONTINUOUS
 62
     7
100
AcDbVertex
100
AcDb2dVertex
 10
7.7152994264
 20
6.6410979027
 30
0.0
  0
VERTEX
  5
33B
330
1C3
100
AcDbEntity
  8
0
  6
CONTINUOUS
 62
     7
100
AcDbVertex
100
AcDb2dVertex
 10
7.7142605475
 20
6.6154366248
 30
0.0
  0
SEQEND
  5
33C
330
1C3
100
AcDbEntity
  8
0
  6
CONTINUOUS
 62
     7
  0
LINE
  5
1C4
330
1F
100
AcDbEntity
  8
0
  6
CONTINUOUS
 62
     7
100
AcDbLine
 10
7.2966778027
 20
6.8565020121
 30
0.0
 11
7.7142605475
 21
6.6154366248
 31
0.0
  0
ARC
  5
1C5
330
1F
100
AcDbEntity
  8
0
  6
CONTINUOUS
 62
     7
100
AcDbCircle
 10
7.605702914
 20
6.8091804667
 30
0.0
 40
0.3098955857481078
100
AcDbArc
 50
175.7045403003
 51
234.7938735402
  0
POLYLINE
  5
1C6
330
1F
100
AcDbEntity
  8
0
  6
CONTINUOUS
 62
     7
100
AcDb2dPolyline
 66
     1
 10
0.0
 20
0.0
 30
0.0
  0
VERTEX
  5
33D
330
1C6
100
AcDbEntity
  8
0
  6
CONTINUOUS
 62
     7
100
AcDbVertex
100
AcDb2dVertex
 10
8.0569120755
 20
7.6470551529
 30
0.0
  0
VERTEX
  5
33E
330
1C6
100
AcDbEntity
  8
0
  6
CONTINUOUS
 62
     7
100
AcDbVertex
100
AcDb2dVertex
 10
8.0431529443
 20
7.6543326603
 30
0.0
  0
VERTEX
  5
33F
330
1C6
100
AcDbEntity
  8
0
  6
CONTINUOUS
 62
     7
100
AcDbVertex
100
AcDb2dVertex
 10
8.0268132191
 20
7.6613881221
 30
0.0
  0
VERTEX
  5
340
330
1C6
100
AcDbEntity
  8
0
  6
CONTINUOUS
 62
     7
100
AcDbVertex
100
AcDb2dVertex
 10
8.0097974978
 20
7.6671148424
 30
0.0
  0
VERTEX
  5
341
330
1C6
100
AcDbEntity
  8
0
  6
CONTINUOUS
 62
     7
100
AcDbVertex
100
AcDb2dVertex
 10
7.9921461637
 20
7.6714992301
 30
0.0
  0
VERTEX
  5
342
330
1C6
100
AcDbEntity
  8
0
  6
CONTINUOUS
 62
     7
100
AcDbVertex
100
AcDb2dVertex
 10
7.9739011081
 20
7.6745308799
 30
0.0
  0
VERTEX
  5
343
330
1C6
100
AcDbEntity
  8
0
  6
CONTINUOUS
 62
     7
100
AcDbVertex
100
AcDb2dVertex
 10
7.9551056318
 20
7.6762025967
 30
0.0
  0
VERTEX
  5
344
330
1C6
100
AcDbEntity
  8
0
  6
CONTINUOUS
 62
     7
100
AcDbVertex
100
AcDb2dVertex
 10
7.9358043416
 20
7.6765104131
 30
0.0
  0
VERTEX
  5
345
330
1C6
100
AcDbEntity
  8
0
  6
CONTINUOUS
 62
     7
100
AcDbVertex
100
AcDb2dVertex
 10
7.916043045
 20
7.6754535987
 30
0.0
  0
VERTEX
  5
346
330
1C6
100
AcDbEntity
  8
0
  6
CONTINUOUS
 62
     7
100
AcDbVertex
100
AcDb2dVertex
 10
7.895868641
 20
7.6730346614
 30
0.0
  0
VERTEX
  5
347
330
1C6
100
AcDbEntity
  8
0
  6
CONTINUOUS
 62
     7
100
AcDbVertex
100
AcDb2dVertex
 10
7.8753290092
 20
7.6692593421
 30
0.0
  0
VERTEX
  5
348
330
1C6
100
AcDbEntity
  8
0
  6
CONTINUOUS
 62
     7
100
AcDbVertex
100
AcDb2dVertex
 10
7.8544728958
 20
7.6641366007
 30
0.0
  0
VERTEX
  5
349
330
1C6
100
AcDbEntity
  8
0
  6
CONTINUOUS
 62
     7
100
AcDbVertex
100
AcDb2dVertex
 10
7.8333497982
 20
7.6576785949
 30
0.0
  0
VERTEX
  5
34A
330
1C6
100
AcDbEntity
  8
0
  6
CONTINUOUS
 62
     7
100
AcDbVertex
100
AcDb2dVertex
 10
7.8120098475
 20
7.6499006514
 30
0.0
  0
VERTEX
  5
34B
330
1C6
100
AcDbEntity
  8
0
  6
CONTINUOUS
 62
     7
100
AcDbVertex
100
AcDb2dVertex
 10
7.7905036893
 20
7.6408212294
 30
0.0
  0
VERTEX
  5
34C
330
1C6
100
AcDbEntity
  8
0
  6
CONTINUOUS
 62
     7
100
AcDbVertex
100
AcDb2dVertex
 10
7.7688823638
 20
7.6304618769
 30
0.0
  0
VERTEX
  5
34D
330
1C6
100
AcDbEntity
  8
0
  6
CONTINUOUS
 62
     7
100
AcDbVertex
100
AcDb2dVertex
 10
7.7471971844
 20
7.6188471796
 30
0.0
  0
VERTEX
  5
34E
330
1C6
100
AcDbEntity
  8
0
  6
CONTINUOUS
 62
     7
100
AcDbVertex
100
AcDb2dVertex
 10
7.7254996162
 20
7.6060047023
 30
0.0
  0
VERTEX
  5
34F
330
1C6
100
AcDbEntity
  8
0
  6
CONTINUOUS
 62
     7
100
AcDbVertex
100
AcDb2dVertex
 10
7.7038411535
 20
7.5919649239
 30
0.0
  0
VERTEX
  5
350
330
1C6
100
AcDbEntity
  8
0
  6
CONTINUOUS
 62
     7
100
AcDbVertex
100
AcDb2dVertex
 10
7.682273198
 20
7.5767611647
 30
0.0
  0
VERTEX
  5
351
330
1C6
100
AcDbEntity
  8
0
  6
CONTINUOUS
 62
     7
100
AcDbVertex
100
AcDb2dVertex
 10
7.6608469364
 20
7.5604295075
 30
0.0
  0
VERTEX
  5
352
330
1C6
100
AcDbEntity
  8
0
  6
CONTINUOUS
 62
     7
100
AcDbVertex
100
AcDb2dVertex
 10
7.6396132193
 20
7.5430087118
 30
0.0
  0
VERTEX
  5
353
330
1C6
100
AcDbEntity
  8
0
  6
CONTINUOUS
 62
     7
100
AcDbVertex
100
AcDb2dVertex
 10
7.6186224402
 20
7.5245401222
 30
0.0
  0
VERTEX
  5
354
330
1C6
100
AcDbEntity
  8
0
  6
CONTINUOUS
 62
     7
100
AcDbVertex
100
AcDb2dVertex
 10
7.5979244161
 20
7.5050675697
 30
0.0
  0
VERTEX
  5
355
330
1C6
100
AcDbEntity
  8
0
  6
CONTINUOUS
 62
     7
100
AcDbVertex
100
AcDb2dVertex
 10
7.5775682692
 20
7.4846372682
 30
0.0
  0
VERTEX
  5
356
330
1C6
100
AcDbEntity
  8
0
  6
CONTINUOUS
 62
     7
100
AcDbVertex
100
AcDb2dVertex
 10
7.5576023103
 20
7.4632977044
 30
0.0
  0
VERTEX
  5
357
330
1C6
100
AcDbEntity
  8
0
  6
CONTINUOUS
 62
     7
100
AcDbVertex
100
AcDb2dVertex
 10
7.5380739244
 20
7.4410995232
 30
0.0
  0
VERTEX
  5
358
330
1C6
100
AcDbEntity
  8
0
  6
CONTINUOUS
 62
     7
100
AcDbVertex
100
AcDb2dVertex
 10
7.5190294576
 20
7.4180954071
 30
0.0
  0
VERTEX
  5
359
330
1C6
100
AcDbEntity
  8
0
  6
CONTINUOUS
 62
     7
100
AcDbVertex
100
AcDb2dVertex
 10
7.5005141079
 20
7.3943399512
 30
0.0
  0
VERTEX
  5
35A
330
1C6
100
AcDbEntity
  8
0
  6
CONTINUOUS
 62
     7
100
AcDbVertex
100
AcDb2dVertex
 10
7.4825718174
 20
7.3698895339
 30
0.0
  0
VERTEX
  5
35B
330
1C6
100
AcDbEntity
  8
0
  6
CONTINUOUS
 62
     7
100
AcDbVertex
100
AcDb2dVertex
 10
7.465245168
 20
7.3448021829
 30
0.0
  0
VERTEX
  5
35C
330
1C6
100
AcDbEntity
  8
0
  6
CONTINUOUS
 62
     7
100
AcDbVertex
100
AcDb2dVertex
 10
7.448575281
 20
7.3191374375
 30
0.0
  0
VERTEX
  5
35D
330
1C6
100
AcDbEntity
  8
0
  6
CONTINUOUS
 62
     7
100
AcDbVertex
100
AcDb2dVertex
 10
7.4326017184
 20
7.2929562073
 30
0.0
  0
VERTEX
  5
35E
330
1C6
100
AcDbEntity
  8
0
  6
CONTINUOUS
 62
     7
100
AcDbVertex
100
AcDb2dVertex
 10
7.4173623902
 20
7.2663206277
 30
0.0
  0
VERTEX
  5
35F
330
1C6
100
AcDbEntity
  8
0
  6
CONTINUOUS
 62
     7
100
AcDbVertex
100
AcDb2dVertex
 10
7.4028934634
 20
7.2392939125
 30
0.0
  0
VERTEX
  5
360
330
1C6
100
AcDbEntity
  8
0
  6
CONTINUOUS
 62
     7
100
AcDbVertex
100
AcDb2dVertex
 10
7.3892292769
 20
7.2119402035
 30
0.0
  0
VERTEX
  5
361
330
1C6
100
AcDbEntity
  8
0
  6
CONTINUOUS
 62
     7
100
AcDbVertex
100
AcDb2dVertex
 10
7.3764022596
 20
7.1843244188
 30
0.0
  0
VERTEX
  5
362
330
1C6
100
AcDbEntity
  8
0
  6
CONTINUOUS
 62
     7
100
AcDbVertex
100
AcDb2dVertex
 10
7.3644428536
 20
7.1565120984
 30
0.0
  0
VERTEX
  5
363
330
1C6
100
AcDbEntity
  8
0
  6
CONTINUOUS
 62
     7
100
AcDbVertex
100
AcDb2dVertex
 10
7.353379442
 20
7.1285692487
 30
0.0
  0
VERTEX
  5
364
330
1C6
100
AcDbEntity
  8
0
  6
CONTINUOUS
 62
     7
100
AcDbVertex
100
AcDb2dVertex
 10
7.3432382814
 20
7.1005621859
 30
0.0
  0
VERTEX
  5
365
330
1C6
100
AcDbEntity
  8
0
  6
CONTINUOUS
 62
     7
100
AcDbVertex
100
AcDb2dVertex
 10
7.3340434394
 20
7.0725573786
 30
0.0
  0
VERTEX
  5
366
330
1C6
100
AcDbEntity
  8
0
  6
CONTINUOUS
 62
     7
100
AcDbVertex
100
AcDb2dVertex
 10
7.3258167382
 20
7.04462129
 30
0.0
  0
VERTEX
  5
367
330
1C6
100
AcDbEntity
  8
0
  6
CONTINUOUS
 62
     7
100
AcDbVertex
100
AcDb2dVertex
 10
7.3185777018
 20
7.0168202204
 30
0.0
  0
VERTEX
  5
368
330
1C6
100
AcDbEntity
  8
0
  6
CONTINUOUS
 62
     7
100
AcDbVertex
100
AcDb2dVertex
 10
7.3123435107
 20
6.9892201494
 30
0.0
  0
VERTEX
  5
369
330
1C6
100
AcDbEntity
  8
0
  6
CONTINUOUS
 62
     7
100
AcDbVertex
100
AcDb2dVertex
 10
7.3071289603
 20
6.9618865798
 30
0.0
  0
VERTEX
  5
36A
330
1C6
100
AcDbEntity
  8
0
  6
CONTINUOUS
 62
     7
100
AcDbVertex
100
AcDb2dVertex
 10
7.3029464261
 20
6.9348843817
 30
0.0
  0
VERTEX
  5
36B
330
1C6
100
AcDbEntity
  8
0
  6
CONTINUOUS
 62
     7
100
AcDbVertex
100
AcDb2dVertex
 10
7.2998058345
 20
6.908277639
 30
0.0
  0
VERTEX
  5
36C
330
1C6
100
AcDbEntity
  8
0
  6
CONTINUOUS
 62
     7
100
AcDbVertex
100
AcDb2dVertex
 10
7.2977146391
 20
6.8821294968
 30
0.0
  0
VERTEX
  5
36D
330
1C6
100
AcDbEntity
  8
0
  6
CONTINUOUS
 62
     7
100
AcDbVertex
100
AcDb2dVertex
 10
7.2966778027
 20
6.8565020121
 30
0.0
  0
SEQEND
  5
36E
330
1C6
100
AcDbEntity
  8
0
  6
CONTINUOUS
 62
     7
  0
LINE
  5
1C7
330
1F
100
AcDbEntity
  8
0
  6
CONTINUOUS
 62
     7
100
AcDbLine
 10
7.2966778027
 20
6.8323915551
 30
0.0
 11
8.1596821419
 21
6.3341897545
 31
0.0
  0
SPLINE
  5
1C8
330
1F
100
AcDbEntity
  8
0
  6
CONTINUOUS
 62
     7
100
AcDbSpline
210
0.0
220
0.0
230
1.0
 70
     8
 71
     3
 72
    12
 73
     8
 74
     0
 42
0.00000001
 43
0.00000001
 40
0.0
 40
0.0
 40
0.0
 40
0.0
 40
0.1973481382850586
 40
0.3959291979248735
 40
0.5941194572190095
 40
0.8971069904355535
 40
1.0
 40
1.0
 40
1.0
 40
1.0
 10
7.531324922737146
 20
7.034924318573781
 30
0.0
 10
7.528960467493112
 20
7.039808835906832
 30
0.0
 10
7.52421678520437
 20
7.049608386319267
 30
0.0
 10
7.519506444925192
 20
7.065849658658172
 30
0.0
 10
7.515767163044476
 20
7.085554328006499
 30
0.0
 10
7.513827278926263
 20
7.103006285803134
 30
0.0
 10
7.514159034005352
 20
7.114843933247015
 30
0.0
 10
7.514243135791291
 20
7.117844843720127
 30
0.0
  0
POLYLINE
  5
1C9
330
1F
100
AcDbEntity
  8
0
  6
CONTINUOUS
 62
     7
100
AcDb2dPolyline
 66
     1
 10
0.0
 20
0.0
 30
0.0
  0
VERTEX
  5
36F
330
1C9
100
AcDbEntity
  8
0
  6
CONTINUOUS
 62
     7
100
AcDbVertex
100
AcDb2dVertex
 10
7.547598913
 20
7.2491715817
 30
0.0
  0
VERTEX
  5
370
330
1C9
100
AcDbEntity
  8
0
  6
CONTINUOUS
 62
     7
100
AcDbVertex
100
AcDb2dVertex
 10
7.5549223331
 20
7.2619343815
 30
0.0
  0
VERTEX
  5
371
330
1C9
100
AcDbEntity
  8
0
  6
CONTINUOUS
 62
     7
100
AcDbVertex
100
AcDb2dVertex
 10
7.5683234904
 20
7.2807028539
 30
0.0
  0
VERTEX
  5
372
330
1C9
100
AcDbEntity
  8
0
  6
CONTINUOUS
 62
     7
100
AcDbVertex
100
AcDb2dVertex
 10
7.5836061943
 20
7.297892191
 30
0.0
  0
VERTEX
  5
373
330
1C9
100
AcDbEntity
  8
0
  6
CONTINUOUS
 62
     7
100
AcDbVertex
100
AcDb2dVertex
 10
7.6045920882
 20
7.3161169426
 30
0.0
  0
VERTEX
  5
374
330
1C9
100
AcDbEntity
  8
0
  6
CONTINUOUS
 62
     7
100
AcDbVertex
100
AcDb2dVertex
 10
7.6279491564
 20
7.3309098169
 30
0.0
  0
VERTEX
  5
375
330
1C9
100
AcDbEntity
  8
0
  6
CONTINUOUS
 62
     7
100
AcDbVertex
100
AcDb2dVertex
 10
7.6447141664
 20
7.3385290663
 30
0.0
  0
VERTEX
  5
376
330
1C9
100
AcDbEntity
  8
0
  6
CONTINUOUS
 62
     7
100
AcDbVertex
100
AcDb2dVertex
 10
7.6621022082
 20
7.3441286704
 30
0.0
  0
VERTEX
  5
377
330
1C9
100
AcDbEntity
  8
0
  6
CONTINUOUS
 62
     7
100
AcDbVertex
100
AcDb2dVertex
 10
7.6796416623
 20
7.3475119274
 30
0.0
  0
VERTEX
  5
378
330
1C9
100
AcDbEntity
  8
0
  6
CONTINUOUS
 62
     7
100
AcDbVertex
100
AcDb2dVertex
 10
7.7019479533
 20
7.3484217041
 30
0.0
  0
VERTEX
  5
379
330
1C9
100
AcDbEntity
  8
0
  6
CONTINUOUS
 62
     7
100
AcDbVertex
100
AcDb2dVertex
 10
7.7231795344
 20
7.3455043727
 30
0.0
  0
VERTEX
  5
37A
330
1C9
100
AcDbEntity
  8
0
  6
CONTINUOUS
 62
     7
100
AcDbVertex
100
AcDb2dVertex
 10
7.740700395
 20
7.3396142291
 30
0.0
  0
VERTEX
  5
37B
330
1C9
100
AcDbEntity
  8
0
  6
CONTINUOUS
 62
     7
100
AcDbVertex
100
AcDb2dVertex
 10
7.7561005443
 20
7.3308715668
 30
0.0
  0
VERTEX
  5
37C
330
1C9
100
AcDbEntity
  8
0
  6
CONTINUOUS
 62
     7
100
AcDbVertex
100
AcDb2dVertex
 10
7.768490449
 20
7.3199217931
 30
0.0
  0
VERTEX
  5
37D
330
1C9
100
AcDbEntity
  8
0
  6
CONTINUOUS
 62
     7
100
AcDbVertex
100
AcDb2dVertex
 10
7.7781552733
 20
7.3068449341
 30
0.0
  0
VERTEX
  5
37E
330
1C9
100
AcDbEntity
  8
0
  6
CONTINUOUS
 62
     7
100
AcDbVertex
100
AcDb2dVertex
 10
7.7849017689
 20
7.291850132
 30
0.0
  0
VERTEX
  5
37F
330
1C9
100
AcDbEntity
  8
0
  6
CONTINUOUS
 62
     7
100
AcDbVertex
100
AcDb2dVertex
 10
7.7886627139
 20
7.2754023789
 30
0.0
  0
VERTEX
  5
380
330
1C9
100
AcDbEntity
  8
0
  6
CONTINUOUS
 62
     7
100
AcDbVertex
100
AcDb2dVertex
 10
7.7894568675
 20
7.2570519395
 30
0.0
  0
VERTEX
  5
381
330
1C9
100
AcDbEntity
  8
0
  6
CONTINUOUS
 62
     7
100
AcDbVertex
100
AcDb2dVertex
 10
7.7873222595
 20
7.2379245938
 30
0.0
  0
VERTEX
  5
382
330
1C9
100
AcDbEntity
  8
0
  6
CONTINUOUS
 62
     7
100
AcDbVertex
100
AcDb2dVertex
 10
7.7819668751
 20
7.21648463
 30
0.0
  0
VERTEX
  5
383
330
1C9
100
AcDbEntity
  8
0
  6
CONTINUOUS
 62
     7
100
AcDbVertex
100
AcDb2dVertex
 10
7.773961195
 20
7.1949494694
 30
0.0
  0
VERTEX
  5
384
330
1C9
100
AcDbEntity
  8
0
  6
CONTINUOUS
 62
     7
100
AcDbVertex
100
AcDb2dVertex
 10
7.7643403157
 20
7.1747155546
 30
0.0
  0
VERTEX
  5
385
330
1C9
100
AcDbEntity
  8
0
  6
CONTINUOUS
 62
     7
100
AcDbVertex
100
AcDb2dVertex
 10
7.7531024015
 20
7.1548204483
 30
0.0
  0
VERTEX
  5
386
330
1C9
100
AcDbEntity
  8
0
  6
CONTINUOUS
 62
     7
100
AcDbVertex
100
AcDb2dVertex
 10
7.7406372334
 20
7.1355340674
 30
0.0
  0
VERTEX
  5
387
330
1C9
100
AcDbEntity
  8
0
  6
CONTINUOUS
 62
     7
100
AcDbVertex
100
AcDb2dVertex
 10
7.7232905518
 20
7.1118538372
 30
0.0
  0
VERTEX
  5
388
330
1C9
100
AcDbEntity
  8
0
  6
CONTINUOUS
 62
     7
100
AcDbVertex
100
AcDb2dVertex
 10
7.7046623258
 20
7.0893936969
 30
0.0
  0
VERTEX
  5
389
330
1C9
100
AcDbEntity
  8
0
  6
CONTINUOUS
 62
     7
100
AcDbVertex
100
AcDb2dVertex
 10
7.6851502053
 20
7.0684842318
 30
0.0
  0
VERTEX
  5
38A
330
1C9
100
AcDbEntity
  8
0
  6
CONTINUOUS
 62
     7
100
AcDbVertex
100
AcDb2dVertex
 10
7.6646000915
 20
7.0489685101
 30
0.0
  0
VERTEX
  5
38B
330
1C9
100
AcDbEntity
  8
0
  6
CONTINUOUS
 62
     7
100
AcDbVertex
100
AcDb2dVertex
 10
7.6432477457
 20
7.0316181834
 30
0.0
  0
VERTEX
  5
38C
330
1C9
100
AcDbEntity
  8
0
  6
CONTINUOUS
 62
     7
100
AcDbVertex
100
AcDb2dVertex
 10
7.6212081168
 20
7.0172803609
 30
0.0
  0
VERTEX
  5
38D
330
1C9
100
AcDbEntity
  8
0
  6
CONTINUOUS
 62
     7
100
AcDbVertex
100
AcDb2dVertex
 10
7.6032271285
 20
7.0087638197
 30
0.0
  0
VERTEX
  5
38E
330
1C9
100
AcDbEntity
  8
0
  6
CONTINUOUS
 62
     7
100
AcDbVertex
100
AcDb2dVertex
 10
7.5847996481
 20
7.0040540167
 30
0.0
  0
VERTEX
  5
38F
330
1C9
100
AcDbEntity
  8
0
  6
CONTINUOUS
 62
     7
100
AcDbVertex
100
AcDb2dVertex
 10
7.5847996481
 20
7.0040540167
 30
0.0
  0
SEQEND
  5
390
330
1C9
100
AcDbEntity
  8
0
  6
CONTINUOUS
 62
     7
  0
LINE
  5
1CA
330
1F
100
AcDbEntity
  8
0
  6
CONTINUOUS
 62
     7
100
AcDbLine
 10
8.8137727533
 20
6.6957172012
 30
0.0
 11
8.8137727533
 21
6.7198276583
 31
0.0
  0
LINE
  5
1CB
330
1F
100
AcDbEntity
  8
0
  6
CONTINUOUS
 62
     7
100
AcDbLine
 10
8.8137727533
 20
6.7198276583
 30
0.0
 11
8.7716581698
 21
6.6955154268
 31
0.0
  0
POLYLINE
  5
1CC
330
1F
100
AcDbEntity
  8
0
  6
CONTINUOUS
 62
     7
100
AcDb2dPolyline
 66
     1
 10
0.0
 20
0.0
 30
0.0
  0
VERTEX
  5
391
330
1CC
100
AcDbEntity
  8
0
  6
CONTINUOUS
 62
     7
100
AcDbVertex
100
AcDb2dVertex
 10
8.4661434416
 20
6.5191455283
 30
0.0
  0
VERTEX
  5
392
330
1CC
100
AcDbEntity
  8
0
  6
CONTINUOUS
 62
     7
100
AcDbVertex
100
AcDb2dVertex
 10
8.4675457912
 20
6.5346209989
 30
0.0
  0
VERTEX
  5
393
330
1CC
100
AcDbEntity
  8
0
  6
CONTINUOUS
 62
     7
100
AcDbVertex
100
AcDb2dVertex
 10
8.470002198
 20
6.5505188741
 30
0.0
  0
VERTEX
  5
394
330
1CC
100
AcDbEntity
  8
0
  6
CONTINUOUS
 62
     7
100
AcDbVertex
100
AcDb2dVertex
 10
8.4734955552
 20
6.5667284389
 30
0.0
  0
VERTEX
  5
395
330
1CC
100
AcDbEntity
  8
0
  6
CONTINUOUS
 62
     7
100
AcDbVertex
100
AcDb2dVertex
 10
8.4780015345
 20
6.5831368075
 30
0.0
  0
VERTEX
  5
396
330
1CC
100
AcDbEntity
  8
0
  6
CONTINUOUS
 62
     7
100
AcDbVertex
100
AcDb2dVertex
 10
8.4834887558
 20
6.59962971
 30
0.0
  0
VERTEX
  5
397
330
1CC
100
AcDbEntity
  8
0
  6
CONTINUOUS
 62
     7
100
AcDbVertex
100
AcDb2dVertex
 10
8.4899190052
 20
6.6160922873
 30
0.0
  0
VERTEX
  5
398
330
1CC
100
AcDbEntity
  8
0
  6
CONTINUOUS
 62
     7
100
AcDbVertex
100
AcDb2dVertex
 10
8.4972475016
 20
6.632409892
 30
0.0
  0
VERTEX
  5
399
330
1CC
100
AcDbEntity
  8
0
  6
CONTINUOUS
 62
     7
100
AcDbVertex
100
AcDb2dVertex
 10
8.5054232083
 20
6.6484688859
 30
0.0
  0
VERTEX
  5
39A
330
1CC
100
AcDbEntity
  8
0
  6
CONTINUOUS
 62
     7
100
AcDbVertex
100
AcDb2dVertex
 10
8.5143891887
 20
6.664157432
 30
0.0
  0
VERTEX
  5
39B
330
1CC
100
AcDbEntity
  8
0
  6
CONTINUOUS
 62
     7
100
AcDbVertex
100
AcDb2dVertex
 10
8.5240830023
 20
6.6793662731
 30
0.0
  0
VERTEX
  5
39C
330
1CC
100
AcDbEntity
  8
0
  6
CONTINUOUS
 62
     7
100
AcDbVertex
100
AcDb2dVertex
 10
8.5344371402
 20
6.6939894927
 30
0.0
  0
VERTEX
  5
39D
330
1CC
100
AcDbEntity
  8
0
  6
CONTINUOUS
 62
     7
100
AcDbVertex
100
AcDb2dVertex
 10
8.5453794946
 20
6.7079252527
 30
0.0
  0
VERTEX
  5
39E
330
1CC
100
AcDbEntity
  8
0
  6
CONTINUOUS
 62
     7
100
AcDbVertex
100
AcDb2dVertex
 10
8.5568338616
 20
6.7210765027
 30
0.0
  0
VERTEX
  5
39F
330
1CC
100
AcDbEntity
  8
0
  6
CONTINUOUS
 62
     7
100
AcDbVertex
100
AcDb2dVertex
 10
8.5687204713
 20
6.7333516553
 30
0.0
  0
VERTEX
  5
3A0
330
1CC
100
AcDbEntity
  8
0
  6
CONTINUOUS
 62
     7
100
AcDbVertex
100
AcDb2dVertex
 10
8.5809565438
 20
6.7446652249
 30
0.0
  0
VERTEX
  5
3A1
330
1CC
100
AcDbEntity
  8
0
  6
CONTINUOUS
 62
     7
100
AcDbVertex
100
AcDb2dVertex
 10
8.5934568653
 20
6.7549384222
 30
0.0
  0
VERTEX
  5
3A2
330
1CC
100
AcDbEntity
  8
0
  6
CONTINUOUS
 62
     7
100
AcDbVertex
100
AcDb2dVertex
 10
8.6061343819
 20
6.7640997031
 30
0.0
  0
VERTEX
  5
3A3
330
1CC
100
AcDbEntity
  8
0
  6
CONTINUOUS
 62
     7
100
AcDbVertex
100
AcDb2dVertex
 10
8.6189008057
 20
6.7720852673
 30
0.0
  0
VERTEX
  5
3A4
330
1CC
100
AcDbEntity
  8
0
  6
CONTINUOUS
 62
     7
100
AcDbVertex
100
AcDb2dVertex
 10
8.6316672295
 20
6.7788395022
 30
0.0
  0
VERTEX
  5
3A5
330
1CC
100
AcDbEntity
  8
0
  6
CONTINUOUS
 62
     7
100
AcDbVertex
100
AcDb2dVertex
 10
8.6443447461
 20
6.7843153704
 30
0.0
  0
VERTEX
  5
3A6
330
1CC
100
AcDbEntity
  8
0
  6
CONTINUOUS
 62
     7
100
AcDbVertex
100
AcDb2dVertex
 10
8.6568450676
 20
6.7884747372
 30
0.0
  0
VERTEX
  5
3A7
330
1CC
100
AcDbEntity
  8
0
  6
CONTINUOUS
 62
     7
100
AcDbVertex
100
AcDb2dVertex
 10
8.6690811401
 20
6.7912886362
 30
0.0
  0
VERTEX
  5
3A8
330
1CC
100
AcDbEntity
  8
0
  6
CONTINUOUS
 62
     7
100
AcDbVertex
100
AcDb2dVertex
 10
8.6809677498
 20
6.792737471
 30
0.0
  0
VERTEX
  5
3A9
330
1CC
100
AcDbEntity
  8
0
  6
CONTINUOUS
 62
     7
100
AcDbVertex
100
AcDb2dVertex
 10
8.6924221168
 20
6.7928111517
 30
0.0
  0
VERTEX
  5
3AA
330
1CC
100
AcDbEntity
  8
0
  6
CONTINUOUS
 62
     7
100
AcDbVertex
100
AcDb2dVertex
 10
8.7033644712
 20
6.7915091651
 30
0.0
  0
VERTEX
  5
3AB
330
1CC
100
AcDbEntity
  8
0
  6
CONTINUOUS
 62
     7
100
AcDbVertex
100
AcDb2dVertex
 10
8.7137186091
 20
6.7888405786
 30
0.0
  0
VERTEX
  5
3AC
330
1CC
100
AcDbEntity
  8
0
  6
CONTINUOUS
 62
     7
100
AcDbVertex
100
AcDb2dVertex
 10
8.7234124227
 20
6.7848239765
 30
0.0
  0
VERTEX
  5
3AD
330
1CC
100
AcDbEntity
  8
0
  6
CONTINUOUS
 62
     7
100
AcDbVertex
100
AcDb2dVertex
 10
8.7323784031
 20
6.779487331
 30
0.0
  0
VERTEX
  5
3AE
330
1CC
100
AcDbEntity
  8
0
  6
CONTINUOUS
 62
     7
100
AcDbVertex
100
AcDb2dVertex
 10
8.7405541098
 20
6.7728678072
 30
0.0
  0
VERTEX
  5
3AF
330
1CC
100
AcDbEntity
  8
0
  6
CONTINUOUS
 62
     7
100
AcDbVertex
100
AcDb2dVertex
 10
8.7478826062
 20
6.7650115044
 30
0.0
  0
VERTEX
  5
3B0
330
1CC
100
AcDbEntity
  8
0
  6
CONTINUOUS
 62
     7
100
AcDbVertex
100
AcDb2dVertex
 10
8.7543128556
 20
6.755973135
 30
0.0
  0
VERTEX
  5
3B1
330
1CC
100
AcDbEntity
  8
0
  6
CONTINUOUS
 62
     7
100
AcDbVertex
100
AcDb2dVertex
 10
8.7598000769
 20
6.7458156433
 30
0.0
  0
VERTEX
  5
3B2
330
1CC
100
AcDbEntity
  8
0
  6
CONTINUOUS
 62
     7
100
AcDbVertex
100
AcDb2dVertex
 10
8.7643060562
 20
6.7346097677
 30
0.0
  0
VERTEX
  5
3B3
330
1CC
100
AcDbEntity
  8
0
  6
CONTINUOUS
 62
     7
100
AcDbVertex
100
AcDb2dVertex
 10
8.7677994134
 20
6.7224335473
 30
0.0
  0
VERTEX
  5
3B4
330
1CC
100
AcDbEntity
  8
0
  6
CONTINUOUS
 62
     7
100
AcDbVertex
100
AcDb2dVertex
 10
8.7702558202
 20
6.709371779
 30
0.0
  0
VERTEX
  5
3B5
330
1CC
100
AcDbEntity
  8
0
  6
CONTINUOUS
 62
     7
100
AcDbVertex
100
AcDb2dVertex
 10
8.7716581698
 20
6.6955154268
 30
0.0
  0
SEQEND
  5
3B6
330
1CC
100
AcDbEntity
  8
0
  6
CONTINUOUS
 62
     7
  0
LINE
  5
1CD
330
1F
100
AcDbEntity
  8
0
  6
CONTINUOUS
 62
     7
100
AcDbLine
 10
8.4661434416
 20
6.5191455283
 30
0.0
 11
8.1875249397
 21
6.3583024908
 31
0.0
  0
LINE
  5
1CE
330
1F
100
AcDbEntity
  8
0
  6
CONTINUOUS
 62
     7
100
AcDbLine
 10
8.1875249397
 20
6.3341920337
 30
0.0
 11
8.4661434416
 21
6.4950350712
 31
0.0
  0
POLYLINE
  5
1CF
330
1F
100
AcDbEntity
  8
0
  6
CONTINUOUS
 62
     7
100
AcDb2dPolyline
 66
     1
 10
0.0
 20
0.0
 30
0.0
  0
VERTEX
  5
3B7
330
1CF
100
AcDbEntity
  8
0
  6
CONTINUOUS
 62
     7
100
AcDbVertex
100
AcDb2dVertex
 10
8.7716581698
 20
6.6714049697
 30
0.0
  0
VERTEX
  5
3B8
330
1CF
100
AcDbEntity
  8
0
  6
CONTINUOUS
 62
     7
100
AcDbVertex
100
AcDb2dVertex
 10
8.7702558202
 20
6.6559294991
 30
0.0
  0
VERTEX
  5
3B9
330
1CF
100
AcDbEntity
  8
0
  6
CONTINUOUS
 62
     7
100
AcDbVertex
100
AcDb2dVertex
 10
8.7677994134
 20
6.6400316239
 30
0.0
  0
VERTEX
  5
3BA
330
1CF
100
AcDbEntity
  8
0
  6
CONTINUOUS
 62
     7
100
AcDbVertex
100
AcDb2dVertex
 10
8.7643060562
 20
6.6238220591
 30
0.0
  0
VERTEX
  5
3BB
330
1CF
100
AcDbEntity
  8
0
  6
CONTINUOUS
 62
     7
100
AcDbVertex
100
AcDb2dVertex
 10
8.7598000769
 20
6.6074136905
 30
0.0
  0
VERTEX
  5
3BC
330
1CF
100
AcDbEntity
  8
0
  6
CONTINUOUS
 62
     7
100
AcDbVertex
100
AcDb2dVertex
 10
8.7543128556
 20
6.590920788
 30
0.0
  0
VERTEX
  5
3BD
330
1CF
100
AcDbEntity
  8
0
  6
CONTINUOUS
 62
     7
100
AcDbVertex
100
AcDb2dVertex
 10
8.7478826062
 20
6.5744582107
 30
0.0
  0
VERTEX
  5
3BE
330
1CF
100
AcDbEntity
  8
0
  6
CONTINUOUS
 62
     7
100
AcDbVertex
100
AcDb2dVertex
 10
8.7405541098
 20
6.558140606
 30
0.0
  0
VERTEX
  5
3BF
330
1CF
100
AcDbEntity
  8
0
  6
CONTINUOUS
 62
     7
100
AcDbVertex
100
AcDb2dVertex
 10
8.7323784031
 20
6.5420816121
 30
0.0
  0
VERTEX
  5
3C0
330
1CF
100
AcDbEntity
  8
0
  6
CONTINUOUS
 62
     7
100
AcDbVertex
100
AcDb2dVertex
 10
8.7234124227
 20
6.526393066
 30
0.0
  0
VERTEX
  5
3C1
330
1CF
100
AcDbEntity
  8
0
  6
CONTINUOUS
 62
     7
100
AcDbVertex
100
AcDb2dVertex
 10
8.7137186091
 20
6.5111842249
 30
0.0
  0
VERTEX
  5
3C2
330
1CF
100
AcDbEntity
  8
0
  6
CONTINUOUS
 62
     7
100
AcDbVertex
100
AcDb2dVertex
 10
8.7033644712
 20
6.4965610053
 30
0.0
  0
VERTEX
  5
3C3
330
1CF
100
AcDbEntity
  8
0
  6
CONTINUOUS
 62
     7
100
AcDbVertex
100
AcDb2dVertex
 10
8.6924221168
 20
6.4826252453
 30
0.0
  0
VERTEX
  5
3C4
330
1CF
100
AcDbEntity
  8
0
  6
CONTINUOUS
 62
     7
100
AcDbVertex
100
AcDb2dVertex
 10
8.6809677498
 20
6.4694739954
 30
0.0
  0
VERTEX
  5
3C5
330
1CF
100
AcDbEntity
  8
0
  6
CONTINUOUS
 62
     7
100
AcDbVertex
100
AcDb2dVertex
 10
8.6690811401
 20
6.4571988427
 30
0.0
  0
VERTEX
  5
3C6
330
1CF
100
AcDbEntity
  8
0
  6
CONTINUOUS
 62
     7
100
AcDbVertex
100
AcDb2dVertex
 10
8.6568450676
 20
6.4458852731
 30
0.0
  0
VERTEX
  5
3C7
330
1CF
100
AcDbEntity
  8
0
  6
CONTINUOUS
 62
     7
100
AcDbVertex
100
AcDb2dVertex
 10
8.6443447461
 20
6.4356120758
 30
0.0
  0
VERTEX
  5
3C8
330
1CF
100
AcDbEntity
  8
0
  6
CONTINUOUS
 62
     7
100
AcDbVertex
100
AcDb2dVertex
 10
8.6316672295
 20
6.4264507949
 30
0.0
  0
VERTEX
  5
3C9
330
1CF
100
AcDbEntity
  8
0
  6
CONTINUOUS
 62
     7
100
AcDbVertex
100
AcDb2dVertex
 10
8.6189008057
 20
6.4184652307
 30
0.0
  0
VERTEX
  5
3CA
330
1CF
100
AcDbEntity
  8
0
  6
CONTINUOUS
 62
     7
100
AcDbVertex
100
AcDb2dVertex
 10
8.6061343819
 20
6.4117109958
 30
0.0
  0
VERTEX
  5
3CB
330
1CF
100
AcDbEntity
  8
0
  6
CONTINUOUS
 62
     7
100
AcDbVertex
100
AcDb2dVertex
 10
8.5934568653
 20
6.4062351276
 30
0.0
  0
VERTEX
  5
3CC
330
1CF
100
AcDbEntity
  8
0
  6
CONTINUOUS
 62
     7
100
AcDbVertex
100
AcDb2dVertex
 10
8.5809565438
 20
6.4020757608
 30
0.0
  0
VERTEX
  5
3CD
330
1CF
100
AcDbEntity
  8
0
  6
CONTINUOUS
 62
     7
100
AcDbVertex
100
AcDb2dVertex
 10
8.5687204713
 20
6.3992618618
 30
0.0
  0
VERTEX
  5
3CE
330
1CF
100
AcDbEntity
  8
0
  6
CONTINUOUS
 62
     7
100
AcDbVertex
100
AcDb2dVertex
 10
8.5568338616
 20
6.397813027
 30
0.0
  0
VERTEX
  5
3CF
330
1CF
100
AcDbEntity
  8
0
  6
CONTINUOUS
 62
     7
100
AcDbVertex
100
AcDb2dVertex
 10
8.5453794946
 20
6.3977393463
 30
0.0
  0
VERTEX
  5
3D0
330
1CF
100
AcDbEntity
  8
0
  6
CONTINUOUS
 62
     7
100
AcDbVertex
100
AcDb2dVertex
 10
8.5344371402
 20
6.3990413329
 30
0.0
  0
VERTEX
  5
3D1
330
1CF
100
AcDbEntity
  8
0
  6
CONTINUOUS
 62
     7
100
AcDbVertex
100
AcDb2dVertex
 10
8.5240830023
 20
6.4017099194
 30
0.0
  0
VERTEX
  5
3D2
330
1CF
100
AcDbEntity
  8
0
  6
CONTINUOUS
 62
     7
100
AcDbVertex
100
AcDb2dVertex
 10
8.5143891887
 20
6.4057265215
 30
0.0
  0
VERTEX
  5
3D3
330
1CF
100
AcDbEntity
  8
0
  6
CONTINUOUS
 62
     7
100
AcDbVertex
100
AcDb2dVertex
 10
8.5054232083
 20
6.411063167
 30
0.0
  0
VERTEX
  5
3D4
330
1CF
100
AcDbEntity
  8
0
  6
CONTINUOUS
 62
     7
100
AcDbVertex
100
AcDb2dVertex
 10
8.4972475016
 20
6.4176826908
 30
0.0
  0
VERTEX
  5
3D5
330
1CF
100
AcDbEntity
  8
0
  6
CONTINUOUS
 62
     7
100
AcDbVertex
100
AcDb2dVertex
 10
8.4899190052
 20
6.4255389936
 30
0.0
  0
VERTEX
  5
3D6
330
1CF
100
AcDbEntity
  8
0
  6
CONTINUOUS
 62
     7
100
AcDbVertex
100
AcDb2dVertex
 10
8.4834887558
 20
6.434577363
 30
0.0
  0
VERTEX
  5
3D7
330
1CF
100
AcDbEntity
  8
0
  6
CONTINUOUS
 62
     7
100
AcDbVertex
100
AcDb2dVertex
 10
8.4780015345
 20
6.4447348547
 30
0.0
  0
VERTEX
  5
3D8
330
1CF
100
AcDbEntity
  8
0
  6
CONTINUOUS
 62
     7
100
AcDbVertex
100
AcDb2dVertex
 10
8.4734955552
 20
6.4559407303
 30
0.0
  0
VERTEX
  5
3D9
330
1CF
100
AcDbEntity
  8
0
  6
CONTINUOUS
 62
     7
100
AcDbVertex
100
AcDb2dVertex
 10
8.470002198
 20
6.4681169507
 30
0.0
  0
VERTEX
  5
3DA
330
1CF
100
AcDbEntity
  8
0
  6
CONTINUOUS
 62
     7
100
AcDbVertex
100
AcDb2dVertex
 10
8.4675457912
 20
6.481178719
 30
0.0
  0
VERTEX
  5
3DB
330
1CF
100
AcDbEntity
  8
0
  6
CONTINUOUS
 62
     7
100
AcDbVertex
100
AcDb2dVertex
 10
8.4661434416
 20
6.4950350712
 30
0.0
  0
SEQEND
  5
3DC
330
1CF
100
AcDbEntity
  8
0
  6
CONTINUOUS
 62
     7
  0
LINE
  5
1D0
330
1F
100
AcDbEntity
  8
0
  6
CONTINUOUS
 62
     7
100
AcDbLine
 10
8.7716581698
 20
6.6714049697
 30
0.0
 11
8.8137727533
 21
6.6957172012
 31
0.0
  0
LINE
  5
1D1
330
1F
100
AcDbEntity
  8
0
  6
CONTINUOUS
 62
     7
100
AcDbLine
 10
8.4661434416
 20
6.4950350712
 30
0.0
 11
8.4661791685
 21
6.5111267218
 31
0.0
  0
LINE
  5
1D2
330
1F
100
AcDbEntity
  8
0
  6
CONTINUOUS
 62
     7
100
AcDbLine
 10
7.2966817508
 20
6.8484648601
 30
0.0
 11
7.2966778027
 21
6.8323915551
 31
0.0
  0
LINE
  5
1D3
330
1F
100
AcDbEntity
  8
0
  6
CONTINUOUS
 62
     7
100
AcDbLine
 10
7.2966817508
 20
6.8484648601
 30
0.0
 11
7.3036409088
 21
6.8524822965
 31
0.0
  0
LINE
  5
1D4
330
1F
100
AcDbEntity
  8
0
  6
CONTINUOUS
 62
     7
100
AcDbLine
 10
8.4592160624
 20
6.5151464374
 30
0.0
 11
8.4661791685
 21
6.5111267218
 31
0.0
  0
LINE
  5
1D5
330
1F
100
AcDbEntity
  8
0
  6
CONTINUOUS
 62
     7
100
AcDbLine
 10
7.7142605475
 20
6.6154366248
 30
0.0
 11
7.7436244752
 21
6.6323880594
 31
0.0
  0
LINE
  5
1D6
330
1F
100
AcDbEntity
  8
0
  6
CONTINUOUS
 62
     7
100
AcDbLine
 10
8.354431734
 20
7.4354631156
 30
0.0
 11
8.354431734
 21
7.4176234643
 31
0.0
  0
ARC
  5
1D7
330
1F
100
AcDbEntity
  8
0
  6
CONTINUOUS
 62
     7
100
AcDbCircle
 10
8.6603455949
 20
6.6998015364
 30
0.0
 40
0.0835490725543226
100
AcDbArc
 50
357.0452441656
 51
125.564806743
  0
LINE
  5
1D8
330
1F
100
AcDbEntity
  8
0
  6
CONTINUOUS
 62
     7
100
AcDbLine
 10
8.7716581698
 20
6.6955154268
 30
0.0
 11
8.7437835932
 21
6.695494802
 31
0.0
  0
LINE
  5
1D9
330
1F
100
AcDbEntity
  8
0
  6
CONTINUOUS
 62
     7
100
AcDbLine
 10
8.6153983901
 20
6.7696100022
 30
0.0
 11
8.7437835932
 21
6.695494802
 31
0.0
  0
LINE
  5
1DA
330
1F
100
AcDbEntity
  8
0
  6
CONTINUOUS
 62
     7
100
AcDbLine
 10
8.7928902223
 20
6.7077724298
 30
0.0
 11
8.8137727533
 21
6.6957172012
 31
0.0
  0
POLYLINE
  5
1DB
330
1F
100
AcDbEntity
  8
0
  6
CONTINUOUS
 62
     7
100
AcDb2dPolyline
 66
     1
 10
0.0
 20
0.0
 30
0.0
  0
VERTEX
  5
3DD
330
1DB
100
AcDbEntity
  8
0
  6
CONTINUOUS
 62
     7
100
AcDbVertex
100
AcDb2dVertex
 10
8.4661791685
 20
6.5111267218
 30
0.0
  0
VERTEX
  5
3DE
330
1DB
100
AcDbEntity
  8
0
  6
CONTINUOUS
 62
     7
100
AcDbVertex
100
AcDb2dVertex
 10
8.4676333963
 20
6.4979286699
 30
0.0
  0
VERTEX
  5
3DF
330
1DB
100
AcDbEntity
  8
0
  6
CONTINUOUS
 62
     7
100
AcDbVertex
100
AcDb2dVertex
 10
8.4701501713
 20
6.4855458716
 30
0.0
  0
VERTEX
  5
3E0
330
1DB
100
AcDbEntity
  8
0
  6
CONTINUOUS
 62
     7
100
AcDbVertex
100
AcDb2dVertex
 10
8.4737100235
 20
6.4740741225
 30
0.0
  0
VERTEX
  5
3E1
330
1DB
100
AcDbEntity
  8
0
  6
CONTINUOUS
 62
     7
100
AcDbVertex
100
AcDb2dVertex
 10
8.478285413
 20
6.46360217
 30
0.0
  0
VERTEX
  5
3E2
330
1DB
100
AcDbEntity
  8
0
  6
CONTINUOUS
 62
     7
100
AcDbVertex
100
AcDb2dVertex
 10
8.4838409441
 20
6.4542110267
 30
0.0
  0
VERTEX
  5
3E3
330
1DB
100
AcDbEntity
  8
0
  6
CONTINUOUS
 62
     7
100
AcDbVertex
100
AcDb2dVertex
 10
8.490333638
 20
6.4459733443
 30
0.0
  0
VERTEX
  5
3E4
330
1DB
100
AcDbEntity
  8
0
  6
CONTINUOUS
 62
     7
100
AcDbVertex
100
AcDb2dVertex
 10
8.4977132664
 20
6.4389528508
 30
0.0
  0
VERTEX
  5
3E5
330
1DB
100
AcDbEntity
  8
0
  6
CONTINUOUS
 62
     7
100
AcDbVertex
100
AcDb2dVertex
 10
8.505922739
 20
6.4332038579
 30
0.0
  0
VERTEX
  5
3E6
330
1DB
100
AcDbEntity
  8
0
  6
CONTINUOUS
 62
     7
100
AcDbVertex
100
AcDb2dVertex
 10
8.514898546
 20
6.4287708408
 30
0.0
  0
VERTEX
  5
3E7
330
1DB
100
AcDbEntity
  8
0
  6
CONTINUOUS
 62
     7
100
AcDbVertex
100
AcDb2dVertex
 10
8.5245712491
 20
6.4256880941
 30
0.0
  0
VERTEX
  5
3E8
330
1DB
100
AcDbEntity
  8
0
  6
CONTINUOUS
 62
     7
100
AcDbVertex
100
AcDb2dVertex
 10
8.5348660187
 20
6.4239794665
 30
0.0
  0
VERTEX
  5
3E9
330
1DB
100
AcDbEntity
  8
0
  6
CONTINUOUS
 62
     7
100
AcDbVertex
100
AcDb2dVertex
 10
8.5457032125
 20
6.4236581761
 30
0.0
  0
VERTEX
  5
3EA
330
1DB
100
AcDbEntity
  8
0
  6
CONTINUOUS
 62
     7
100
AcDbVertex
100
AcDb2dVertex
 10
8.5569989923
 20
6.4247267085
 30
0.0
  0
VERTEX
  5
3EB
330
1DB
100
AcDbEntity
  8
0
  6
CONTINUOUS
 62
     7
100
AcDbVertex
100
AcDb2dVertex
 10
8.5686659719
 20
6.4271767974
 30
0.0
  0
VERTEX
  5
3EC
330
1DB
100
AcDbEntity
  8
0
  6
CONTINUOUS
 62
     7
100
AcDbVertex
100
AcDb2dVertex
 10
8.5806138937
 20
6.4309894885
 30
0.0
  0
VERTEX
  5
3ED
330
1DB
100
AcDbEntity
  8
0
  6
CONTINUOUS
 62
     7
100
AcDbVertex
100
AcDb2dVertex
 10
8.5927503265
 20
6.4361352862
 30
0.0
  0
VERTEX
  5
3EE
330
1DB
100
AcDbEntity
  8
0
  6
CONTINUOUS
 62
     7
100
AcDbVertex
100
AcDb2dVertex
 10
8.6049813809
 20
6.4425743816
 30
0.0
  0
VERTEX
  5
3EF
330
1DB
100
AcDbEntity
  8
0
  6
CONTINUOUS
 62
     7
100
AcDbVertex
100
AcDb2dVertex
 10
8.6172124352
 20
6.4502569609
 30
0.0
  0
VERTEX
  5
3F0
330
1DB
100
AcDbEntity
  8
0
  6
CONTINUOUS
 62
     7
100
AcDbVertex
100
AcDb2dVertex
 10
8.629348868
 20
6.4591235903
 30
0.0
  0
VERTEX
  5
3F1
330
1DB
100
AcDbEntity
  8
0
  6
CONTINUOUS
 62
     7
100
AcDbVertex
100
AcDb2dVertex
 10
8.6412967898
 20
6.4691056761
 30
0.0
  0
VERTEX
  5
3F2
330
1DB
100
AcDbEntity
  8
0
  6
CONTINUOUS
 62
     7
100
AcDbVertex
100
AcDb2dVertex
 10
8.6529637695
 20
6.4801259952
 30
0.0
  0
VERTEX
  5
3F3
330
1DB
100
AcDbEntity
  8
0
  6
CONTINUOUS
 62
     7
100
AcDbVertex
100
AcDb2dVertex
 10
8.6642595493
 20
6.4920992925
 30
0.0
  0
VERTEX
  5
3F4
330
1DB
100
AcDbEntity
  8
0
  6
CONTINUOUS
 62
     7
100
AcDbVertex
100
AcDb2dVertex
 10
8.6750967431
 20
6.5049329405
 30
0.0
  0
VERTEX
  5
3F5
330
1DB
100
AcDbEntity
  8
0
  6
CONTINUOUS
 62
     7
100
AcDbVertex
100
AcDb2dVertex
 10
8.6853915126
 20
6.5185276561
 30
0.0
  0
VERTEX
  5
3F6
330
1DB
100
AcDbEntity
  8
0
  6
CONTINUOUS
 62
     7
100
AcDbVertex
100
AcDb2dVertex
 10
8.6950642157
 20
6.5327782681
 30
0.0
  0
VERTEX
  5
3F7
330
1DB
100
AcDbEntity
  8
0
  6
CONTINUOUS
 62
     7
100
AcDbVertex
100
AcDb2dVertex
 10
8.7040400228
 20
6.5475745314
 30
0.0
  0
VERTEX
  5
3F8
330
1DB
100
AcDbEntity
  8
0
  6
CONTINUOUS
 62
     7
100
AcDbVertex
100
AcDb2dVertex
 10
8.7122494954
 20
6.5628019796
 30
0.0
  0
VERTEX
  5
3F9
330
1DB
100
AcDbEntity
  8
0
  6
CONTINUOUS
 62
     7
100
AcDbVertex
100
AcDb2dVertex
 10
8.7196291237
 20
6.5783428106
 30
0.0
  0
VERTEX
  5
3FA
330
1DB
100
AcDbEntity
  8
0
  6
CONTINUOUS
 62
     7
100
AcDbVertex
100
AcDb2dVertex
 10
8.7261218177
 20
6.5940767979
 30
0.0
  0
VERTEX
  5
3FB
330
1DB
100
AcDbEntity
  8
0
  6
CONTINUOUS
 62
     7
100
AcDbVertex
100
AcDb2dVertex
 10
8.7316773487
 20
6.6098822208
 30
0.0
  0
VERTEX
  5
3FC
330
1DB
100
AcDbEntity
  8
0
  6
CONTINUOUS
 62
     7
100
AcDbVertex
100
AcDb2dVertex
 10
8.7362527383
 20
6.6256368057
 30
0.0
  0
VERTEX
  5
3FD
330
1DB
100
AcDbEntity
  8
0
  6
CONTINUOUS
 62
     7
100
AcDbVertex
100
AcDb2dVertex
 10
8.7398125904
 20
6.6412186726
 30
0.0
  0
VERTEX
  5
3FE
330
1DB
100
AcDbEntity
  8
0
  6
CONTINUOUS
 62
     7
100
AcDbVertex
100
AcDb2dVertex
 10
8.7423293655
 20
6.6565072774
 30
0.0
  0
VERTEX
  5
3FF
330
1DB
100
AcDbEntity
  8
0
  6
CONTINUOUS
 62
     7
100
AcDbVertex
100
AcDb2dVertex
 10
8.7437835932
 20
6.671384345
 30
0.0
  0
SEQEND
  5
400
330
1DB
100
AcDbEntity
  8
0
  6
CONTINUOUS
 62
     7
  0
LINE
  5
1DC
330
1F
100
AcDbEntity
  8
0
  6
CONTINUOUS
 62
     7
100
AcDbLine
 10
8.7437835932
 20
6.671384345
 30
0.0
 11
8.7716581698
 21
6.6714049697
 31
0.0
  0
LINE
  5
1DD
330
1F
100
AcDbEntity
  8
0
  6
CONTINUOUS
 62
     7
100
AcDbLine
 10
8.7437835932
 20
6.671384345
 30
0.0
 11
8.595866086
 21
6.7567753043
 31
0.0
  0
LINE
  5
1DE
330
1F
100
AcDbEntity
  8
0
  6
CONTINUOUS
 62
     7
100
AcDbLine
 10
7.2966778027
 20
6.8565020121
 30
0.0
 11
7.2966817508
 21
6.8725753171
 31
0.0
  0
ARC
  5
1DF
330
1F
100
AcDbEntity
  8
0
  6
CONTINUOUS
 62
     7
100
AcDbCircle
 10
8.2351802019
 20
6.8161335114
 30
0.0
 40
0.9401941396069233
100
AcDbArc
 50
122.6465667906
 51
176.5583461166
  0
LINE
  5
1E0
330
1F
100
AcDbEntity
  8
0
  6
CONTINUOUS
 62
     7
100
AcDbLine
 10
7.9733037196
 20
6.9289588976
 30
0.0
 11
7.973310983
 21
6.9297756469
 31
0.0
  0
ARC
  5
1E1
330
1F
100
AcDbEntity
  8
0
  6
CONTINUOUS
 62
     7
100
AcDbCircle
 10
8.0918771924
 20
6.8900611409
 30
0.0
 40
0.158539353940762
100
AcDbArc
 50
240.439500373
 51
252.6701537196
  0
ARC
  5
1E2
330
1F
100
AcDbEntity
  8
0
  6
CONTINUOUS
 62
     7
100
AcDbCircle
 10
8.0636898068
 20
6.8413021617
 30
0.0
 40
0.1022220959283589
100
AcDbArc
 50
223.7388001427
 51
240.6993023393
  0
LINE
  5
1E3
330
1F
100
AcDbEntity
  8
0
  6
CONTINUOUS
 62
     7
100
AcDbLine
 10
8.1593172973
 20
6.9648315499
 30
0.0
 11
8.0934498718
 21
6.975020172
 31
0.0
  0
LINE
  5
1E4
330
1F
100
AcDbEntity
  8
0
  6
CONTINUOUS
 62
     7
100
AcDbLine
 10
8.0934498718
 20
6.975020172
 30
0.0
 11
8.0452315697
 21
6.9471843387
 31
0.0
  0
LINE
  5
1E5
330
1F
100
AcDbEntity
  8
0
  6
CONTINUOUS
 62
     7
100
AcDbLine
 10
8.0452315697
 20
6.9471843387
 30
0.0
 11
8.0628806932
 21
6.9091598834
 31
0.0
  0
LINE
  5
1E6
330
1F
100
AcDbEntity
  8
0
  6
CONTINUOUS
 62
     7
100
AcDbLine
 10
8.0628806932
 20
6.9091598834
 30
0.0
 11
8.1287481187
 21
6.8989712612
 31
0.0
  0
LINE
  5
1E7
330
1F
100
AcDbEntity
  8
0
  6
CONTINUOUS
 62
     7
100
AcDbLine
 10
8.1287481187
 20
6.8989712612
 30
0.0
 11
8.1769664207
 21
6.9268070945
 31
0.0
  0
LINE
  5
1E8
330
1F
100
AcDbEntity
  8
0
  6
CONTINUOUS
 62
     7
100
AcDbLine
 10
8.1769664207
 20
6.9268070945
 30
0.0
 11
8.1593172973
 21
6.9648315499
 31
0.0
  0
LINE
  5
1E9
330
1F
100
AcDbEntity
  8
0
  6
CONTINUOUS
 62
     7
100
AcDbLine
 10
8.1593172973
 20
6.9166184724
 30
0.0
 11
8.1593172973
 21
6.9648315499
 31
0.0
  0
LINE
  5
1EA
330
1F
100
AcDbEntity
  8
0
  6
CONTINUOUS
 62
     7
100
AcDbLine
 10
8.0934498718
 20
6.9044313274
 30
0.0
 11
8.0934498718
 21
6.975020172
 31
0.0
  0
ARC
  5
1EB
330
1F
100
AcDbEntity
  8
0
  6
CONTINUOUS
 62
     7
100
AcDbCircle
 10
7.6040555266
 20
7.1060399803
 30
0.0
 40
0.1017000161144091
100
AcDbArc
 50
223.1903714844
 51
240.723692738
  0
ARC
  5
1EC
330
1F
100
AcDbEntity
  8
0
  6
CONTINUOUS
 62
     7
100
AcDbCircle
 10
7.6324764027
 20
7.1551119043
 30
0.0
 40
0.1584044752643757
100
AcDbArc
 50
240.436684787
 51
252.5796716961
  0
LINE
  5
1ED
330
1F
100
AcDbEntity
  8
0
  6
CONTINUOUS
 62
     7
100
AcDbLine
 10
7.5858905505
 20
7.2123562648
 30
0.0
 11
7.6341088525
 21
7.2401920981
 31
0.0
  0
LINE
  5
1EE
330
1F
100
AcDbEntity
  8
0
  6
CONTINUOUS
 62
     7
100
AcDbLine
 10
7.6035396739
 20
7.1743318094
 30
0.0
 11
7.5858905505
 21
7.2123562648
 31
0.0
  0
LINE
  5
1EF
330
1F
100
AcDbEntity
  8
0
  6
CONTINUOUS
 62
     7
100
AcDbLine
 10
7.6694070994
 20
7.1641431873
 30
0.0
 11
7.6035396739
 21
7.1743318094
 31
0.0
  0
LINE
  5
1F0
330
1F
100
AcDbEntity
  8
0
  6
CONTINUOUS
 62
     7
100
AcDbLine
 10
7.7176254014
 20
7.1919790206
 30
0.0
 11
7.6694070994
 21
7.1641431873
 31
0.0
  0
LINE
  5
1F1
330
1F
100
AcDbEntity
  8
0
  6
CONTINUOUS
 62
     7
100
AcDbLine
 10
7.699976278
 20
7.2300034759
 30
0.0
 11
7.7176254014
 21
7.1919790206
 31
0.0
  0
LINE
  5
1F2
330
1F
100
AcDbEntity
  8
0
  6
CONTINUOUS
 62
     7
100
AcDbLine
 10
7.6341088525
 20
7.2401920981
 30
0.0
 11
7.699976278
 21
7.2300034759
 31
0.0
  0
LINE
  5
1F3
330
1F
100
AcDbEntity
  8
0
  6
CONTINUOUS
 62
     7
100
AcDbLine
 10
7.699976278
 20
7.1817903985
 30
0.0
 11
7.699976278
 21
7.2300034759
 31
0.0
  0
LINE
  5
1F4
330
1F
100
AcDbEntity
  8
0
  6
CONTINUOUS
 62
     7
100
AcDbLine
 10
7.6341088525
 20
7.1696032535
 30
0.0
 11
7.6341088525
 21
7.2401920981
 31
0.0
  0
ARC
  5
1F5
330
1F
100
AcDbEntity
  8
0
  6
CONTINUOUS
 62
     8
100
AcDbCircle
 10
8.110174544
 20
7.0530916078
 30
0.0
 40
0.1906657103288868
100
AcDbArc
 50
241.9864939992
 51
303.2040798302
  0
POLYLINE
  5
1F6
330
1F
100
AcDbEntity
  8
0
  6
CONTINUOUS
 62
     8
100
AcDb2dPolyline
 66
     1
 10
0.0
 20
0.0
 30
0.0
  0
VERTEX
  5
401
330
1F6
100
AcDbEntity
  8
0
  6
CONTINUOUS
 62
     8
100
AcDbVertex
100
AcDb2dVertex
 10
8.2386693094
 20
6.9427024817
 30
0.0
  0
VERTEX
  5
402
330
1F6
100
AcDbEntity
  8
0
  6
CONTINUOUS
 62
     8
100
AcDbVertex
100
AcDb2dVertex
 10
8.23788042
 20
6.9469675674
 30
0.0
  0
VERTEX
  5
403
330
1F6
100
AcDbEntity
  8
0
  6
CONTINUOUS
 62
     8
100
AcDbVertex
100
AcDb2dVertex
 10
8.2352696146
 20
6.9548222736
 30
0.0
  0
VERTEX
  5
404
330
1F6
100
AcDbEntity
  8
0
  6
CONTINUOUS
 62
     8
100
AcDbVertex
100
AcDb2dVertex
 10
8.2312030222
 20
6.9624679797
 30
0.0
  0
VERTEX
  5
405
330
1F6
100
AcDbEntity
  8
0
  6
CONTINUOUS
 62
     8
100
AcDbVertex
100
AcDb2dVertex
 10
8.2257283199
 20
6.9698150468
 30
0.0
  0
VERTEX
  5
406
330
1F6
100
AcDbEntity
  8
0
  6
CONTINUOUS
 62
     8
100
AcDbVertex
100
AcDb2dVertex
 10
8.2189096936
 20
6.9767773373
 30
0.0
  0
VERTEX
  5
407
330
1F6
100
AcDbEntity
  8
0
  6
CONTINUOUS
 62
     8
100
AcDbVertex
100
AcDb2dVertex
 10
8.2108270855
 20
6.9832732247
 30
0.0
  0
VERTEX
  5
408
330
1F6
100
AcDbEntity
  8
0
  6
CONTINUOUS
 62
     8
100
AcDbVertex
100
AcDb2dVertex
 10
8.2015752566
 20
6.9892265505
 30
0.0
  0
VERTEX
  5
409
330
1F6
100
AcDbEntity
  8
0
  6
CONTINUOUS
 62
     8
100
AcDbVertex
100
AcDb2dVertex
 10
8.1912626763
 20
6.9945675176
 30
0.0
  0
VERTEX
  5
40A
330
1F6
100
AcDbEntity
  8
0
  6
CONTINUOUS
 62
     8
100
AcDbVertex
100
AcDb2dVertex
 10
8.1800102502
 20
6.999233508
 30
0.0
  0
VERTEX
  5
40B
330
1F6
100
AcDbEntity
  8
0
  6
CONTINUOUS
 62
     8
100
AcDbVertex
100
AcDb2dVertex
 10
8.1679499025
 20
7.0031698172
 30
0.0
  0
VERTEX
  5
40C
330
1F6
100
AcDbEntity
  8
0
  6
CONTINUOUS
 62
     8
100
AcDbVertex
100
AcDb2dVertex
 10
8.15522303
 20
7.0063302956
 30
0.0
  0
VERTEX
  5
40D
330
1F6
100
AcDbEntity
  8
0
  6
CONTINUOUS
 62
     8
100
AcDbVertex
100
AcDb2dVertex
 10
8.1419788435
 20
7.0086778894
 30
0.0
  0
VERTEX
  5
40E
330
1F6
100
AcDbEntity
  8
0
  6
CONTINUOUS
 62
     8
100
AcDbVertex
100
AcDb2dVertex
 10
8.1283726191
 20
7.0101850752
 30
0.0
  0
VERTEX
  5
40F
330
1F6
100
AcDbEntity
  8
0
  6
CONTINUOUS
 62
     8
100
AcDbVertex
100
AcDb2dVertex
 10
8.1145638771
 20
7.0108341828
 30
0.0
  0
VERTEX
  5
410
330
1F6
100
AcDbEntity
  8
0
  6
CONTINUOUS
 62
     8
100
AcDbVertex
100
AcDb2dVertex
 10
8.1007145126
 20
7.0106176019
 30
0.0
  0
VERTEX
  5
411
330
1F6
100
AcDbEntity
  8
0
  6
CONTINUOUS
 62
     8
100
AcDbVertex
100
AcDb2dVertex
 10
8.0869868967
 20
7.0095378716
 30
0.0
  0
VERTEX
  5
412
330
1F6
100
AcDbEntity
  8
0
  6
CONTINUOUS
 62
     8
100
AcDbVertex
100
AcDb2dVertex
 10
8.0735419731
 20
7.0076076509
 30
0.0
  0
VERTEX
  5
413
330
1F6
100
AcDbEntity
  8
0
  6
CONTINUOUS
 62
     8
100
AcDbVertex
100
AcDb2dVertex
 10
8.0605373712
 20
7.0048495699
 30
0.0
  0
VERTEX
  5
414
330
1F6
100
AcDbEntity
  8
0
  6
CONTINUOUS
 62
     8
100
AcDbVertex
100
AcDb2dVertex
 10
8.0481255581
 20
7.0012959645
 30
0.0
  0
VERTEX
  5
415
330
1F6
100
AcDbEntity
  8
0
  6
CONTINUOUS
 62
     8
100
AcDbVertex
100
AcDb2dVertex
 10
8.0364520511
 20
6.9969884974
 30
0.0
  0
VERTEX
  5
416
330
1F6
100
AcDbEntity
  8
0
  6
CONTINUOUS
 62
     8
100
AcDbVertex
100
AcDb2dVertex
 10
8.0256537111
 20
6.9919776699
 30
0.0
  0
VERTEX
  5
417
330
1F6
100
AcDbEntity
  8
0
  6
CONTINUOUS
 62
     8
100
AcDbVertex
100
AcDb2dVertex
 10
8.015857139
 20
6.9863222292
 30
0.0
  0
VERTEX
  5
418
330
1F6
100
AcDbEntity
  8
0
  6
CONTINUOUS
 62
     8
100
AcDbVertex
100
AcDb2dVertex
 10
8.0071771906
 20
6.9800884802
 30
0.0
  0
VERTEX
  5
419
330
1F6
100
AcDbEntity
  8
0
  6
CONTINUOUS
 62
     8
100
AcDbVertex
100
AcDb2dVertex
 10
7.9997156304
 20
6.973349508
 30
0.0
  0
VERTEX
  5
41A
330
1F6
100
AcDbEntity
  8
0
  6
CONTINUOUS
 62
     8
100
AcDbVertex
100
AcDb2dVertex
 10
7.9935599382
 20
6.9661843209
 30
0.0
  0
VERTEX
  5
41B
330
1F6
100
AcDbEntity
  8
0
  6
CONTINUOUS
 62
     8
100
AcDbVertex
100
AcDb2dVertex
 10
7.9887822841
 20
6.958676924
 30
0.0
  0
VERTEX
  5
41C
330
1F6
100
AcDbEntity
  8
0
  6
CONTINUOUS
 62
     8
100
AcDbVertex
100
AcDb2dVertex
 10
7.9854386815
 20
6.9509153348
 30
0.0
  0
VERTEX
  5
41D
330
1F6
100
AcDbEntity
  8
0
  6
CONTINUOUS
 62
     8
100
AcDbVertex
100
AcDb2dVertex
 10
7.9835683312
 20
6.9429905508
 30
0.0
  0
VERTEX
  5
41E
330
1F6
100
AcDbEntity
  8
0
  6
CONTINUOUS
 62
     8
100
AcDbVertex
100
AcDb2dVertex
 10
7.9831931614
 20
6.9349954829
 30
0.0
  0
VERTEX
  5
41F
330
1F6
100
AcDbEntity
  8
0
  6
CONTINUOUS
 62
     8
100
AcDbVertex
100
AcDb2dVertex
 10
7.9843175705
 20
6.9270238658
 30
0.0
  0
VERTEX
  5
420
330
1F6
100
AcDbEntity
  8
0
  6
CONTINUOUS
 62
     8
100
AcDbVertex
100
AcDb2dVertex
 10
7.9869283759
 20
6.9191691596
 30
0.0
  0
VERTEX
  5
421
330
1F6
100
AcDbEntity
  8
0
  6
CONTINUOUS
 62
     8
100
AcDbVertex
100
AcDb2dVertex
 10
7.9909949682
 20
6.9115234535
 30
0.0
  0
VERTEX
  5
422
330
1F6
100
AcDbEntity
  8
0
  6
CONTINUOUS
 62
     8
100
AcDbVertex
100
AcDb2dVertex
 10
7.9964696705
 20
6.9041763864
 30
0.0
  0
VERTEX
  5
423
330
1F6
100
AcDbEntity
  8
0
  6
CONTINUOUS
 62
     8
100
AcDbVertex
100
AcDb2dVertex
 10
8.0032882968
 20
6.8972140959
 30
0.0
  0
VERTEX
  5
424
330
1F6
100
AcDbEntity
  8
0
  6
CONTINUOUS
 62
     8
100
AcDbVertex
100
AcDb2dVertex
 10
8.011370905
 20
6.8907182086
 30
0.0
  0
VERTEX
  5
425
330
1F6
100
AcDbEntity
  8
0
  6
CONTINUOUS
 62
     8
100
AcDbVertex
100
AcDb2dVertex
 10
8.0206227339
 20
6.8847648827
 30
0.0
  0
VERTEX
  5
426
330
1F6
100
AcDbEntity
  8
0
  6
CONTINUOUS
 62
     8
100
AcDbVertex
100
AcDb2dVertex
 10
8.0206227339
 20
6.8847648827
 30
0.0
  0
SEQEND
  5
427
330
1F6
100
AcDbEntity
  8
0
  6
CONTINUOUS
 62
     8
  0
ARC
  5
1F7
330
1F
100
AcDbEntity
  8
0
  6
CONTINUOUS
 62
     8
100
AcDbCircle
 10
8.0415531267
 20
6.9353254543
 30
0.0
 40
0.0685457118612436
100
AcDbArc
 50
185.3293391936
 51
245.990801764
  0
ARC
  5
1F8
330
1F
100
AcDbEntity
  8
0
  6
CONTINUOUS
 62
     8
100
AcDbCircle
 10
8.111556074
 20
7.0624351639
 30
0.0
 40
0.2134913838473055
100
AcDbArc
 50
242.7074521189
 51
293.9149634581
  0
POLYLINE
  5
1F9
330
1F
100
AcDbEntity
  8
0
  6
CONTINUOUS
 62
     8
100
AcDb2dPolyline
 66
     1
 10
0.0
 20
0.0
 30
0.0
  0
VERTEX
  5
428
330
1F9
100
AcDbEntity
  8
0
  6
CONTINUOUS
 62
     8
100
AcDbVertex
100
AcDb2dVertex
 10
7.5612817146
 20
7.1499368088
 30
0.0
  0
VERTEX
  5
429
330
1F9
100
AcDbEntity
  8
0
  6
CONTINUOUS
 62
     8
100
AcDbVertex
100
AcDb2dVertex
 10
7.5520298857
 20
7.1558901346
 30
0.0
  0
VERTEX
  5
42A
330
1F9
100
AcDbEntity
  8
0
  6
CONTINUOUS
 62
     8
100
AcDbVertex
100
AcDb2dVertex
 10
7.5439472776
 20
7.162386022
 30
0.0
  0
VERTEX
  5
42B
330
1F9
100
AcDbEntity
  8
0
  6
CONTINUOUS
 62
     8
100
AcDbVertex
100
AcDb2dVertex
 10
7.5371286513
 20
7.1693483125
 30
0.0
  0
VERTEX
  5
42C
330
1F9
100
AcDbEntity
  8
0
  6
CONTINUOUS
 62
     8
100
AcDbVertex
100
AcDb2dVertex
 10
7.531653949
 20
7.1766953796
 30
0.0
  0
VERTEX
  5
42D
330
1F9
100
AcDbEntity
  8
0
  6
CONTINUOUS
 62
     8
100
AcDbVertex
100
AcDb2dVertex
 10
7.5275873566
 20
7.1843410857
 30
0.0
  0
VERTEX
  5
42E
330
1F9
100
AcDbEntity
  8
0
  6
CONTINUOUS
 62
     8
100
AcDbVertex
100
AcDb2dVertex
 10
7.5249765512
 20
7.1921957919
 30
0.0
  0
VERTEX
  5
42F
330
1F9
100
AcDbEntity
  8
0
  6
CONTINUOUS
 62
     8
100
AcDbVertex
100
AcDb2dVertex
 10
7.5238521421
 20
7.2001674089
 30
0.0
  0
VERTEX
  5
430
330
1F9
100
AcDbEntity
  8
0
  6
CONTINUOUS
 62
     8
100
AcDbVertex
100
AcDb2dVertex
 10
7.5242273119
 20
7.2081624769
 30
0.0
  0
VERTEX
  5
431
330
1F9
100
AcDbEntity
  8
0
  6
CONTINUOUS
 62
     8
100
AcDbVertex
100
AcDb2dVertex
 10
7.5260976622
 20
7.2160872609
 30
0.0
  0
VERTEX
  5
432
330
1F9
100
AcDbEntity
  8
0
  6
CONTINUOUS
 62
     8
100
AcDbVertex
100
AcDb2dVertex
 10
7.5294412648
 20
7.2238488501
 30
0.0
  0
VERTEX
  5
433
330
1F9
100
AcDbEntity
  8
0
  6
CONTINUOUS
 62
     8
100
AcDbVertex
100
AcDb2dVertex
 10
7.534218919
 20
7.2313562469
 30
0.0
  0
VERTEX
  5
434
330
1F9
100
AcDbEntity
  8
0
  6
CONTINUOUS
 62
     8
100
AcDbVertex
100
AcDb2dVertex
 10
7.5403746111
 20
7.2385214341
 30
0.0
  0
VERTEX
  5
435
330
1F9
100
AcDbEntity
  8
0
  6
CONTINUOUS
 62
     8
100
AcDbVertex
100
AcDb2dVertex
 10
7.5478361714
 20
7.2452604063
 30
0.0
  0
VERTEX
  5
436
330
1F9
100
AcDbEntity
  8
0
  6
CONTINUOUS
 62
     8
100
AcDbVertex
100
AcDb2dVertex
 10
7.5565161198
 20
7.2514941553
 30
0.0
  0
VERTEX
  5
437
330
1F9
100
AcDbEntity
  8
0
  6
CONTINUOUS
 62
     8
100
AcDbVertex
100
AcDb2dVertex
 10
7.5663126919
 20
7.2571495959
 30
0.0
  0
VERTEX
  5
438
330
1F9
100
AcDbEntity
  8
0
  6
CONTINUOUS
 62
     8
100
AcDbVertex
100
AcDb2dVertex
 10
7.5771110318
 20
7.2621604235
 30
0.0
  0
VERTEX
  5
439
330
1F9
100
AcDbEntity
  8
0
  6
CONTINUOUS
 62
     8
100
AcDbVertex
100
AcDb2dVertex
 10
7.5887845389
 20
7.2664678906
 30
0.0
  0
VERTEX
  5
43A
330
1F9
100
AcDbEntity
  8
0
  6
CONTINUOUS
 62
     8
100
AcDbVertex
100
AcDb2dVertex
 10
7.6011963519
 20
7.270021496
 30
0.0
  0
VERTEX
  5
43B
330
1F9
100
AcDbEntity
  8
0
  6
CONTINUOUS
 62
     8
100
AcDbVertex
100
AcDb2dVertex
 10
7.6142009538
 20
7.272779577
 30
0.0
  0
VERTEX
  5
43C
330
1F9
100
AcDbEntity
  8
0
  6
CONTINUOUS
 62
     8
100
AcDbVertex
100
AcDb2dVertex
 10
7.6276458774
 20
7.2747097977
 30
0.0
  0
VERTEX
  5
43D
330
1F9
100
AcDbEntity
  8
0
  6
CONTINUOUS
 62
     8
100
AcDbVertex
100
AcDb2dVertex
 10
7.6413734934
 20
7.2757895279
 30
0.0
  0
VERTEX
  5
43E
330
1F9
100
AcDbEntity
  8
0
  6
CONTINUOUS
 62
     8
100
AcDbVertex
100
AcDb2dVertex
 10
7.6552228579
 20
7.2760061089
 30
0.0
  0
VERTEX
  5
43F
330
1F9
100
AcDbEntity
  8
0
  6
CONTINUOUS
 62
     8
100
AcDbVertex
100
AcDb2dVertex
 10
7.6690315998
 20
7.2753570013
 30
0.0
  0
VERTEX
  5
440
330
1F9
100
AcDbEntity
  8
0
  6
CONTINUOUS
 62
     8
100
AcDbVertex
100
AcDb2dVertex
 10
7.6826378243
 20
7.2738498155
 30
0.0
  0
VERTEX
  5
441
330
1F9
100
AcDbEntity
  8
0
  6
CONTINUOUS
 62
     8
100
AcDbVertex
100
AcDb2dVertex
 10
7.6958820107
 20
7.2715022216
 30
0.0
  0
VERTEX
  5
442
330
1F9
100
AcDbEntity
  8
0
  6
CONTINUOUS
 62
     8
100
AcDbVertex
100
AcDb2dVertex
 10
7.7086088833
 20
7.2683417433
 30
0.0
  0
VERTEX
  5
443
330
1F9
100
AcDbEntity
  8
0
  6
CONTINUOUS
 62
     8
100
AcDbVertex
100
AcDb2dVertex
 10
7.7206692309
 20
7.2644054341
 30
0.0
  0
VERTEX
  5
444
330
1F9
100
AcDbEntity
  8
0
  6
CONTINUOUS
 62
     8
100
AcDbVertex
100
AcDb2dVertex
 10
7.731921657
 20
7.2597394437
 30
0.0
  0
VERTEX
  5
445
330
1F9
100
AcDbEntity
  8
0
  6
CONTINUOUS
 62
     8
100
AcDbVertex
100
AcDb2dVertex
 10
7.7422342373
 20
7.2543984766
 30
0.0
  0
VERTEX
  5
446
330
1F9
100
AcDbEntity
  8
0
  6
CONTINUOUS
 62
     8
100
AcDbVertex
100
AcDb2dVertex
 10
7.7514860662
 20
7.2484451507
 30
0.0
  0
VERTEX
  5
447
330
1F9
100
AcDbEntity
  8
0
  6
CONTINUOUS
 62
     8
100
AcDbVertex
100
AcDb2dVertex
 10
7.7595686744
 20
7.2419492634
 30
0.0
  0
VERTEX
  5
448
330
1F9
100
AcDbEntity
  8
0
  6
CONTINUOUS
 62
     8
100
AcDbVertex
100
AcDb2dVertex
 10
7.7663873007
 20
7.2349869729
 30
0.0
  0
VERTEX
  5
449
330
1F9
100
AcDbEntity
  8
0
  6
CONTINUOUS
 62
     8
100
AcDbVertex
100
AcDb2dVertex
 10
7.7718620029
 20
7.2276399058
 30
0.0
  0
VERTEX
  5
44A
330
1F9
100
AcDbEntity
  8
0
  6
CONTINUOUS
 62
     8
100
AcDbVertex
100
AcDb2dVertex
 10
7.7759285953
 20
7.2199941997
 30
0.0
  0
VERTEX
  5
44B
330
1F9
100
AcDbEntity
  8
0
  6
CONTINUOUS
 62
     8
100
AcDbVertex
100
AcDb2dVertex
 10
7.7785394007
 20
7.2121394935
 30
0.0
  0
VERTEX
  5
44C
330
1F9
100
AcDbEntity
  8
0
  6
CONTINUOUS
 62
     8
100
AcDbVertex
100
AcDb2dVertex
 10
7.7792926523
 20
7.2081339626
 30
0.0
  0
SEQEND
  5
44D
330
1F9
100
AcDbEntity
  8
0
  6
CONTINUOUS
 62
     8
  0
ARC
  5
1FA
330
1F
100
AcDbEntity
  8
0
  6
CONTINUOUS
 62
     8
100
AcDbCircle
 10
7.6508649001
 20
7.3164090737
 30
0.0
 40
0.1890453970222058
100
AcDbArc
 50
241.7141149602
 51
303.689538606
  0
ARC
  5
1FB
330
1F
100
AcDbEntity
  8
0
  6
CONTINUOUS
 62
     8
100
AcDbCircle
 10
7.6522284695
 20
7.3276799033
 30
0.0
 40
0.2135622435554771
100
AcDbArc
 50
242.713211141
 51
293.7837088668
  0
ARC
  5
1FC
330
1F
100
AcDbEntity
  8
0
  6
CONTINUOUS
 62
     8
100
AcDbCircle
 10
7.5821373855
 20
7.2004112204
 30
0.0
 40
0.0684366114007953
100
AcDbArc
 50
185.0230890089
 51
246.0185971255
  0
ENDSEC
  0
SECTION
  2
OBJECTS
  0
DICTIONARY
  5
C
330
0
100
AcDbDictionary
  3
ACAD_GROUP
350
D
  3
ACAD_LAYOUT
350
1A
  3
ACAD_MLEADERSTYLE
350
1FF
  3
ACAD_MLINESTYLE
350
17
  3
ACAD_PLOTSETTINGS
350
19
  3
ACAD_SCALELIST
350
6F
  3
ACAD_VISUALSTYLE
350
2A
  3
ACDBVARIABLEDICTIONARY
350
1FD
1001
ACAD
1000
TREAT_AS_HARD
1070
     0
  0
DICTIONARY
  5
D
102
{ACAD_REACTORS
330
C
102
}
330
C
100
AcDbDictionary
1001
ACAD
1000
TREAT_AS_HARD
1070
     0
  0
DICTIONARY
  5
1A
102
{ACAD_REACTORS
330
C
102
}
330
C
100
AcDbDictionary
1001
ACAD
1000
TREAT_AS_HARD
1070
     0
  0
DICTIONARY
  5
1FF
102
{ACAD_REACTORS
330
C
102
}
330
C
100
AcDbDictionary
1001
ACAD
1000
TREAT_AS_HARD
1070
     0
  0
DICTIONARY
  5
17
102
{ACAD_REACTORS
330
C
102
}
330
C
100
AcDbDictionary
  3
STANDARD
350
18
1001
ACAD
1000
TREAT_AS_HARD
1070
     0
  0
DICTIONARY
  5
19
102
{ACAD_REACTORS
330
C
102
}
330
C
100
AcDbDictionary
1001
ACAD
1000
TREAT_AS_HARD
1070
     0
  0
DICTIONARY
  5
6F
102
{ACAD_REACTORS
330
C
102
}
330
C
100
AcDbDictionary
  3
A0
350
70
  3
A1
350
71
  3
A2
350
72
  3
A3
350
73
  3
A4
350
74
  3
A5
350
75
  3
A6
350
76
  3
A7
350
77
  3
A8
350
78
  3
A9
350
79
  3
B0
350
7A
  3
B1
350
7B
  3
B2
350
7C
  3
B3
350
7D
  3
B4
350
7E
  3
B5
350
7F
  3
B6
350
80
  3
B7
350
81
  3
B8
350
82
  3
B9
350
83
  3
C0
350
84
  3
C1
350
85
  3
C2
350
86
  3
C3
350
87
  3
C4
350
88
  3
C5
350
89
  3
C6
350
8A
  3
C7
350
8B
  3
C8
350
8C
  3
C9
350
8D
  3
D0
350
8E
  3
D1
350
8F
  3
D2
350
90
1001
ACAD
1000
TREAT_AS_HARD
1070
     0
  0
DICTIONARY
  5
2A
102
{ACAD_REACTORS
330
C
102
}
330
C
100
AcDbDictionary
  3
2DWIREFRAME
350
2F
  3
3D_HIDDEN
350
31
  3
3DWIREFRAME
350
30
  3
BASIC
350
32
  3
BRIGHTEN
350
36
  3
COLORCHANGE
350
3A
  3
CONCEPTUAL
350
34
  3
DIM
350
35
  3
FACEPATTERN
350
39
  3
FLAT
350
2B
  3
FLATWITHEDGES
350
2C
  3
GOURAUD
350
2D
  3
GOURAUDWITHEDGES
350
2E
  3
LINEPATTERN
350
38
  3
REALISTIC
350
33
  3
THICKEN
350
37
1001
ACAD
1000
TREAT_AS_HARD
1070
     0
  0
DICTIONARY
  5
1FD
102
{ACAD_REACTORS
330
C
102
}
330
C
100
AcDbDictionary
  3
CANNOSCALE
350
200
  3
DIMASSOC
350
201
  3
HIDETEXT
350
202
1001
ACAD
1000
TREAT_AS_HARD
1070
     0
  0
MLINESTYLE
  5
18
102
{ACAD_REACTORS
330
17
102
}
330
17
100
AcDbMlineStyle
  2
Standard
 70
     0
  3

 62
   256
 51
90.0
 52
90.0
 71
     2
 49
0.5
 62
   256
  6
BYLAYER
 49
-0.5
 62
   256
  6
BYLAYER
  0
ACAD_PROXY_OBJECT
  5
70
102
{ACAD_REACTORS
330
6F
102
}
330
6F
100
AcDbZombieObject
 90
      499
 91
      502
 93
       41
310
903313A31580
  0
ACAD_PROXY_OBJECT
  5
71
102
{ACAD_REACTORS
330
6F
102
}
330
6F
100
AcDbZombieObject
 90
      499
 91
      502
 93
      105
310
903313A324000000000000004000
  0
ACAD_PROXY_OBJECT
  5
72
102
{ACAD_REACTORS
330
6F
102
}
330
6F
100
AcDbZombieObject
 90
      499
 91
      502
 93
      105
310
903313A344000000000000104000
  0
ACAD_PROXY_OBJECT
  5
73
102
{ACAD_REACTORS
330
6F
102
}
330
6F
100
AcDbZombieObject
 90
      499
 91
      502
 93
      105
310
903313A354000000000000144000
  0
ACAD_PROXY_OBJECT
  5
74
102
{ACAD_REACTORS
330
6F
102
}
330
6F
100
AcDbZombieObject
 90
      499
 91
      502
 93
      105
310
903313A384000000000000204000
  0
ACAD_PROXY_OBJECT
  5
75
102
{ACAD_REACTORS
330
6F
102
}
330
6F
100
AcDbZombieObject
 90
      499
 91
      502
 93
      113
310
904313A31304000000000000244000
  0
ACAD_PROXY_OBJECT
  5
76
102
{ACAD_REACTORS
330
6F
102
}
330
6F
100
AcDbZombieObject
 90
      499
 91
      502
 93
      113
310
904313A31364000000000000304000
  0
ACAD_PROXY_OBJECT
  5
77
102
{ACAD_REACTORS
330
6F
102
}
330
6F
100
AcDbZombieObject
 90
      499
 91
      502
 93
      113
310
904313A32304000000000000344000
  0
ACAD_PROXY_OBJECT
  5
78
102
{ACAD_REACTORS
330
6F
102
}
330
6F
100
AcDbZombieObject
 90
      499
 91
      502
 93
      113
310
904313A333040000000000003E4000
  0
ACAD_PROXY_OBJECT
  5
79
102
{ACAD_REACTORS
330
6F
102
}
330
6F
100
AcDbZombieObject
 90
      499
 91
      502
 93
      113
310
904313A34304000000000000444000
  0
ACAD_PROXY_OBJECT
  5
7A
102
{ACAD_REACTORS
330
6F
102
}
330
6F
100
AcDbZombieObject
 90
      499
 91
      502
 93
      113
310
904313A35304000000000000494000
  0
ACAD_PROXY_OBJECT
  5
7B
102
{ACAD_REACTORS
330
6F
102
}
330
6F
100
AcDbZombieObject
 90
      499
 91
      502
 93
      121
310
905313A3130304000000000000594000
  0
ACAD_PROXY_OBJECT
  5
7C
102
{ACAD_REACTORS
330
6F
102
}
330
6F
100
AcDbZombieObject
 90
      499
 91
      502
 93
      105
310
903323A310000000000000010100
  0
ACAD_PROXY_OBJECT
  5
7D
102
{ACAD_REACTORS
330
6F
102
}
330
6F
100
AcDbZombieObject
 90
      499
 91
      502
 93
      105
310
903343A310000000000000410100
  0
ACAD_PROXY_OBJECT
  5
7E
102
{ACAD_REACTORS
330
6F
102
}
330
6F
100
AcDbZombieObject
 90
      499
 91
      502
 93
      105
310
903383A310000000000000810100
  0
ACAD_PROXY_OBJECT
  5
7F
102
{ACAD_REACTORS
330
6F
102
}
330
6F
100
AcDbZombieObject
 90
      499
 91
      502
 93
      113
310
90431303A310000000000000910100
  0
ACAD_PROXY_OBJECT
  5
80
102
{ACAD_REACTORS
330
6F
102
}
330
6F
100
AcDbZombieObject
 90
      499
 91
      502
 93
      121
310
9053130303A310000000000001650100
  0
ACAD_PROXY_OBJECT
  5
81
102
{ACAD_REACTORS
330
6F
102
}
330
6F
100
AcDbZombieObject
 90
      499
 91
      502
 93
      257
310
90E312F31323822203D2031272D3022000000000000200FC000000000000284000
  0
ACAD_PROXY_OBJECT
  5
82
102
{ACAD_REACTORS
330
6F
102
}
330
6F
100
AcDbZombieObject
 90
      499
 91
      502
 93
      249
310
90D312F363422203D2031272D3022000000000000240FC000000000000284000
  0
ACAD_PROXY_OBJECT
  5
83
102
{ACAD_REACTORS
330
6F
102
}
330
6F
100
AcDbZombieObject
 90
      499
 91
      502
 93
      249
310
90D312F333222203D2031272D3022000000000000280FC000000000000284000
  0
ACAD_PROXY_OBJECT
  5
84
102
{ACAD_REACTORS
330
6F
102
}
330
6F
100
AcDbZombieObject
 90
      499
 91
      502
 93
      249
310
90D312F313622203D2031272D30220000000000002C0FC000000000000284000
  0
ACAD_PROXY_OBJECT
  5
85
102
{ACAD_REACTORS
330
6F
102
}
330
6F
100
AcDbZombieObject
 90
      499
 91
      502
 93
      249
310
90D332F333222203D2031272D30220000000000002E0FC000000000000284000
  0
ACAD_PROXY_OBJECT
  5
86
102
{ACAD_REACTORS
330
6F
102
}
330
6F
100
AcDbZombieObject
 90
      499
 91
      502
 93
      241
310
90C312F3822203D2031272D3022000000000000300FC000000000000284000
  0
ACAD_PROXY_OBJECT
  5
87
102
{ACAD_REACTORS
330
6F
102
}
330
6F
100
AcDbZombieObject
 90
      499
 91
      502
 93
      249
310
90D332F313622203D2031272D3022000000000000320FC000000000000284000
  0
ACAD_PROXY_OBJECT
  5
88
102
{ACAD_REACTORS
330
6F
102
}
330
6F
100
AcDbZombieObject
 90
      499
 91
      502
 93
      241
310
90C312F3422203D2031272D3022000000000000340FC000000000000284000
  0
ACAD_PROXY_OBJECT
  5
89
102
{ACAD_REACTORS
330
6F
102
}
330
6F
100
AcDbZombieObject
 90
      499
 91
      502
 93
      241
310
90C332F3822203D2031272D3022000000000000360FC000000000000284000
  0
ACAD_PROXY_OBJECT
  5
8A
102
{ACAD_REACTORS
330
6F
102
}
330
6F
100
AcDbZombieObject
 90
      499
 91
      502
 93
      241
310
90C312F3222203D2031272D3022000000000000380FC000000000000284000
  0
ACAD_PROXY_OBJECT
  5
8B
102
{ACAD_REACTORS
330
6F
102
}
330
6F
100
AcDbZombieObject
 90
      499
 91
      502
 93
      241
310
90C332F3422203D2031272D30220000000000003A0FC000000000000284000
  0
ACAD_PROXY_OBJECT
  5
8C
102
{ACAD_REACTORS
330
6F
102
}
330
6F
100
AcDbZombieObject
 90
      499
 91
      502
 93
      161
310
90A3122203D2031272D30224000000000000284000
  0
ACAD_PROXY_OBJECT
  5
8D
102
{ACAD_REACTORS
330
6F
102
}
330
6F
100
AcDbZombieObject
 90
      499
 91
      502
 93
      257
310
90E312D312F3222203D2031272D30220000000000003E0FC000000000000284000
  0
ACAD_PROXY_OBJECT
  5
8E
102
{ACAD_REACTORS
330
6F
102
}
330
6F
100
AcDbZombieObject
 90
      499
 91
      502
 93
      225
310
90A3322203D2031272D302200000000000002100000000000000284000
  0
ACAD_PROXY_OBJECT
  5
8F
102
{ACAD_REACTORS
330
6F
102
}
330
6F
100
AcDbZombieObject
 90
      499
 91
      502
 93
      225
310
90A3622203D2031272D302200000000000006100000000000000284000
  0
ACAD_PROXY_OBJECT
  5
90
102
{ACAD_REACTORS
330
6F
102
}
330
6F
100
AcDbZombieObject
 90
      499
 91
      502
 93
      249
310
90D31272D3022203D2031272D30220000000000000A100000000000000284000
  0
ACAD_PROXY_OBJECT
  5
2F
102
{ACAD_REACTORS
330
2A
102
}
330
2A
100
AcDbZombieObject
 90
      499
 91
      501
 93
      436
310
42CC9915DA5C99599C985B595049028333333333333E3BF0000000000000FB0107901411070040501600405405064090741402480A0340
1001
ACAD
1000
AcDbSavedByObjectVersion
1070
     0
  0
ACAD_PROXY_OBJECT
  5
31
102
{ACAD_REACTORS
330
2A
102
}
330
2A
100
AcDbZombieObject
 90
      499
 91
      501
 93
      500
310
424CD108121A5919195B90640502408333333333333E3BF0000000000000FB01079024090700405020000000000001110200405405064090740C02480A0340
1001
ACAD
1000
AcDbSavedByObjectVersion
1070
     0
  0
ACAD_PROXY_OBJECT
  5
30
102
{ACAD_REACTORS
330
2A
102
}
330
2A
100
AcDbZombieObject
 90
      499
 91
      501
 93
      436
310
42CCD915DA5C99599C985B595059028333333333333E3BF0000000000000FB0107901411070040501600405405064090741402480A0340
1001
ACAD
1000
AcDbSavedByObjectVersion
1070
     0
  0
ACAD_PROXY_OBJECT
  5
32
102
{ACAD_REACTORS
330
2A
102
}
330
2A
100
AcDbZombieObject
 90
      499
 91
      501
 93
      388
310
4150985CDA58D07406404333333333333E3BF0000000000000FB0107A41107004050150841D405064090741402480A0350
1001
ACAD
1000
AcDbSavedByObjectVersion
1070
     0
  0
ACAD_PROXY_OBJECT
  5
36
102
{ACAD_REACTORS
330
2A
102
}
330
2A
100
AcDbZombieObject
 90
      499
 91
      501
 93
      428
310
42109C9A59DA1D195B90C409028333333333333E3BF0000000000000FB010790141107004050150841D405064090741402480A029950
1001
ACAD
1000
AcDbSavedByObjectVersion
1070
     0
  0
ACAD_PROXY_OBJECT
  5
3A
102
{ACAD_REACTORS
330
2A
102
}
330
2A
100
AcDbZombieObject
 90
      499
 91
      501
 93
      452
310
42D0DBDB1BDC90DA185B99D95104090240C333333333333E3BF0000000000000FB0108901411070040501508421405064090741402480A0350
1001
ACAD
1000
AcDbSavedByObjectVersion
1070
     0
  0
ACAD_PROXY_OBJECT
  5
34
102
{ACAD_REACTORS
330
2A
102
}
330
2A
100
AcDbZombieObject
 90
      499
 91
      501
 93
      500
310
4290DBDB98D95C1D1D585B10940D028333333333333E3BF0000000000000FB0107902409070040501000000000000111010841D405064090740C02480A0340
1001
ACAD
1000
AcDbSavedByObjectVersion
1070
     0
  0
ACAD_PROXY_OBJECT
  5
35
102
{ACAD_REACTORS
330
2A
102
}
330
2A
100
AcDbZombieObject
 90
      499
 91
      501
 93
      412
310
40D11A5B50B409028333333333333E3BF0000000000000FB010790141107004050150841D405064090741402480A02677FFFFFD0
1001
ACAD
1000
AcDbSavedByObjectVersion
1070
     0
  0
ACAD_PROXY_OBJECT
  5
39
102
{ACAD_REACTORS
330
2A
102
}
330
2A
100
AcDbZombieObject
 90
      499
 91
      501
 93
      444
310
42D19858D95C185D1D195C9B90F409028333333333333E3BF0000000000000FB010790141107004050150841D405064090741402480A0350
1001
ACAD
1000
AcDbSavedByObjectVersion
1070
     0
  0
ACAD_PROXY_OBJECT
  5
2B
102
{ACAD_REACTORS
330
2A
102
}
330
2A
100
AcDbZombieObject
 90
      499
 91
      501
 93
      388
310
41119B185D240901404333333333333E3BF0000000000000F9010740A41107004050150841D405064090741402480A1B50
1001
ACAD
1000
AcDbSavedByObjectVersion
1070
     0
  0
ACAD_PROXY_OBJECT
  5
2C
102
{ACAD_REACTORS
330
2A
102
}
330
2A
100
AcDbZombieObject
 90
      499
 91
      501
 93
      476
310
43519B185D15DA5D1A115919D95CD0140901404333333333333E3BF0000000000000F9010740901411070040501600405405064090741402480A1B50
1001
ACAD
1000
AcDbSavedByObjectVersion
1070
     0
  0
ACAD_PROXY_OBJECT
  5
2D
102
{ACAD_REACTORS
330
2A
102
}
330
2A
100
AcDbZombieObject
 90
      499
 91
      501
 93
      412
310
41D1DBDD5C985D5910240902404333333333333E3BF0000000000000F9010740A411070040501641D405064090741402480A1B50
1001
ACAD
1000
AcDbSavedByObjectVersion
1070
     0
  0
ACAD_PROXY_OBJECT
  5
2E
102
{ACAD_REACTORS
330
2A
102
}
330
2A
100
AcDbZombieObject
 90
      499
 91
      501
 93
      500
310
4411DBDD5C985D5915DA5D1A115919D95CD0340902404333333333333E3BF0000000000000F9010740901411070040501600405405064090741402480A1B50
1001
ACAD
1000
AcDbSavedByObjectVersion
1070
     0
  0
ACAD_PROXY_OBJECT
  5
38
102
{ACAD_REACTORS
330
2A
102
}
330
2A
100
AcDbZombieObject
 90
      499
 91
      501
 93
      444
310
42D31A5B995C185D1D195C9B90E409028333333333333E3BF0000000000000FB010790141107004050750841D405064090741402483A0350
1001
ACAD
1000
AcDbSavedByObjectVersion
1070
     0
  0
ACAD_PROXY_OBJECT
  5
33
102
{ACAD_REACTORS
330
2A
102
}
330
2A
100
AcDbZombieObject
 90
      499
 91
      501
 93
      420
310
425499585B1A5CDD1A58D08409028333333333333E3BF0000000000000FB01079019070040501508421405064090741402480A1B40
1001
ACAD
1000
AcDbSavedByObjectVersion
1070
     0
  0
ACAD_PROXY_OBJECT
  5
37
102
{ACAD_REACTORS
330
2A
102
}
330
2A
100
AcDbZombieObject
 90
      499
 91
      501
 93
      412
310
41D51A1A58DAD95B90D409028333333333333E3BF0000000000000FB010790141107004050150C41D405064090741402480A0350
1001
ACAD
1000
AcDbSavedByObjectVersion
1070
     0
  0
DICTIONARYVAR
  5
200
102
{ACAD_REACTORS
330
1FD
102
}
330
1FD
100
DictionaryVariables
280
     0
  1
1:1
  0
DICTIONARYVAR
  5
201
102
{ACAD_REACTORS
330
1FD
102
}
330
1FD
100
DictionaryVariables
280
     0
  1
2
  0
DICTIONARYVAR
  5
202
102
{ACAD_REACTORS
330
1FD
102
}
330
1FD
100
DictionaryVariables
280
     0
  1
1
  0
ENDSEC
  0
EOF
