  0
SECTION
  2
HEADER
  9
$ACADVER
  1
AC1012
  9
$DWGCODEPAGE
  3
ansi_1252
  9
$INSBASE
 10
0.0
 20
0.0
 30
0.0
  9
$EXTMIN
 10
0.0
 20
0.0
 30
0.0
  9
$EXTMAX
 10
11.0
 20
8.5
 30
0.0
  9
$LIMMIN
 10
0.0
 20
0.0
  9
$LIMMAX
 10
11.0
 20
8.5
  9
$ORTHOMODE
 70
     0
  9
$REGENMODE
 70
     1
  9
$FILLMODE
 70
     1
  9
$QTEXTMODE
 70
     0
  9
$MIRRTEXT
 70
     1
  9
$DRAGMODE
 70
     2
  9
$LTSCALE
 40
1.0
  9
$OSMODE
 70
    37
  9
$ATTMODE
 70
     1
  9
$TEXTSIZE
 40
0.125
  9
$TRACEWID
 40
0.05
  9
$TEXTSTYLE
  7
STANDARD
  9
$CLAYER
  8
0
  9
$CELTYPE
  6
BYLAYER
  9
$CECOLOR
 62
   256
  9
$CELTSCALE
 40
1.0
  9
$DELOBJ
 70
     1
  9
$DISPSILH
 70
     0
  9
$DIMSCALE
 40
1.0
  9
$DIMASZ
 40
0.13
  9
$DIMEXO
 40
0.05
  9
$DIMDLI
 40
0.38
  9
$DIMRND
 40
0.0
  9
$DIMDLE
 40
0.0
  9
$DIMEXE
 40
0.125
  9
$DIMTP
 40
0.0
  9
$DIMTM
 40
0.0
  9
$DIMTXT
 40
0.125
  9
$DIMCEN
 40
0.09
  9
$DIMTSZ
 40
0.0
  9
$DIMTOL
 70
     0
  9
$DIMLIM
 70
     0
  9
$DIMTIH
 70
     1
  9
$DIMTOH
 70
     1
  9
$DIMSE1
 70
     0
  9
$DIMSE2
 70
     0
  9
$DIMTAD
 70
     0
  9
$DIMZIN
 70
     0
  9
$DIMBLK
  1

  9
$DIMASO
 70
     1
  9
$DIMSHO
 70
     1
  9
$DIMPOST
  1

  9
$DIMAPOST
  1

  9
$DIMALT
 70
     0
  9
$DIMALTD
 70
     2
  9
$DIMALTF
 40
25.4
  9
$DIMLFAC
 40
0.5
  9
$DIMTOFL
 70
     0
  9
$DIMTVP
 40
0.0
  9
$DIMTIX
 70
     0
  9
$DIMSOXD
 70
     0
  9
$DIMSAH
 70
     0
  9
$DIMBLK1
  1

  9
$DIMBLK2
  1

  9
$DIMSTYLE
  2
STANDARD
  9
$DIMCLRD
 70
     0
  9
$DIMCLRE
 70
     0
  9
$DIMCLRT
 70
     0
  9
$DIMTFAC
 40
1.0
  9
$DIMGAP
 40
0.06
  9
$DIMJUST
 70
     0
  9
$DIMSD1
 70
     0
  9
$DIMSD2
 70
     0
  9
$DIMTOLJ
 70
     1
  9
$DIMTZIN
 70
     0
  9
$DIMALTZ
 70
     0
  9
$DIMALTTZ
 70
     0
  9
$DIMFIT
 70
     3
  9
$DIMUPT
 70
     0
  9
$DIMUNIT
 70
     2
  9
$DIMDEC
 70
     3
  9
$DIMTDEC
 70
     3
  9
$DIMALTU
 70
     2
  9
$DIMALTTD
 70
     2
  9
$DIMTXSTY
  7
STANDARD
  9
$DIMAUNIT
 70
     0
  9
$LUNITS
 70
     2
  9
$LUPREC
 70
     2
  9
$SKETCHINC
 40
0.1
  9
$FILLETRAD
 40
0.5
  9
$AUNITS
 70
     0
  9
$AUPREC
 70
     2
  9
$MENU
  1
.
  9
$ELEVATION
 40
0.0
  9
$PELEVATION
 40
0.0
  9
$THICKNESS
 40
0.0
  9
$LIMCHECK
 70
     0
  9
$CHAMFERA
 40
0.5
  9
$CHAMFERB
 40
0.5
  9
$CHAMFERC
 40
1.0
  9
$CHAMFERD
 40
0.0
  9
$SKPOLY
 70
     0
  9
$TDCREATE
 40
2455783.999771574
  9
$TDUPDATE
 40
2455783.999771586
  9
$TDINDWG
 40
0.0000000116
  9
$TDUSRTIMER
 40
0.0000000116
  9
$USRTIMER
 70
     1
  9
$ANGBASE
 50
0.0
  9
$ANGDIR
 70
     0
  9
$PDMODE
 70
     0
  9
$PDSIZE
 40
-1.0
  9
$PLINEWID
 40
0.0
  9
$COORDS
 70
     1
  9
$SPLFRAME
 70
     0
  9
$SPLINETYPE
 70
     6
  9
$SPLINESEGS
 70
     8
  9
$ATTDIA
 70
     0
  9
$ATTREQ
 70
     1
  9
$HANDLING
 70
     1
  9
$HANDSEED
  5
42F
  9
$SURFTAB1
 70
     6
  9
$SURFTAB2
 70
     6
  9
$SURFTYPE
 70
     6
  9
$SURFU
 70
     6
  9
$SURFV
 70
     6
  9
$UCSNAME
  2

  9
$UCSORG
 10
0.0
 20
0.0
 30
0.0
  9
$UCSXDIR
 10
1.0
 20
0.0
 30
0.0
  9
$UCSYDIR
 10
0.0
 20
1.0
 30
0.0
  9
$PUCSNAME
  2

  9
$PUCSORG
 10
0.0
 20
0.0
 30
0.0
  9
$PUCSXDIR
 10
1.0
 20
0.0
 30
0.0
  9
$PUCSYDIR
 10
0.0
 20
1.0
 30
0.0
  9
$USERI1
 70
     0
  9
$USERI2
 70
     0
  9
$USERI3
 70
     0
  9
$USERI4
 70
     0
  9
$USERI5
 70
     0
  9
$USERR1
 40
0.0
  9
$USERR2
 40
0.0
  9
$USERR3
 40
0.0
  9
$USERR4
 40
0.0
  9
$USERR5
 40
0.0
  9
$WORLDVIEW
 70
     1
  9
$SHADEDGE
 70
     3
  9
$SHADEDIF
 70
    70
  9
$TILEMODE
 70
     1
  9
$MAXACTVP
 70
    64
  9
$PINSBASE
 10
0.0
 20
0.0
 30
0.0
  9
$PLIMCHECK
 70
     0
  9
$PEXTMIN
 10
1.0000000000E+20
 20
1.0000000000E+20
 30
1.0000000000E+20
  9
$PEXTMAX
 10
-1.0000000000E+20
 20
-1.0000000000E+20
 30
-1.0000000000E+20
  9
$PLIMMIN
 10
0.0
 20
0.0
  9
$PLIMMAX
 10
12.0
 20
9.0
  9
$UNITMODE
 70
     0
  9
$VISRETAIN
 70
     1
  9
$PLINEGEN
 70
     0
  9
$PSLTSCALE
 70
     1
  9
$TREEDEPTH
 70
  3020
  9
$PICKSTYLE
 70
     1
  9
$CMLSTYLE
  2
STANDARD
  9
$CMLJUST
 70
     0
  9
$CMLSCALE
 40
1.0
  9
$SAVEIMAGES
 70
     1
  0
ENDSEC
  0
SECTION
  2
CLASSES
  0
CLASS
  1
ACDBDICTIONARYWDFLT
  2
AcDbDictionaryWithDefault
  3
ObjectDBX Classes
 90
    32768
280
     0
281
     0
  0
CLASS
  1
VISUALSTYLE
  2
AcDbVisualStyle
  3
ObjectDBX Classes
 90
     4095
280
     0
281
     0
  0
CLASS
  1
SCALE
  2
AcDbScale
  3
ObjectDBX Classes
 90
     1153
280
     0
281
     0
  0
CLASS
  1
DICTIONARYVAR
  2
AcDbDictionaryVar
  3
ObjectDBX Classes
 90
        0
280
     0
281
     0
  0
CLASS
  1
XRECORD
  2
AcDbXrecord
  3
AutoCAD 2000
 90
    32768
280
     0
281
     0
  0
CLASS
  1
LWPOLYLINE
  2
AcDbPolyline
  3
AutoCAD 2000
 90
    32768
280
     0
281
     1
  0
CLASS
  1
HATCH
  2
AcDbHatch
  3
AutoCAD 2000
 90
    32768
280
     0
281
     1
  0
CLASS
  1
ACDBPLACEHOLDER
  2
AcDbPlaceHolder
  3
ObjectDBX Classes
 90
        0
280
     0
281
     0
  0
CLASS
  1
LAYOUT
  2
AcDbLayout
  3
ObjectDBX Classes
 90
        0
280
     0
281
     0
  0
ENDSEC
  0
SECTION
  2
TABLES
  0
TABLE
  2
VPORT
  5
8
330
0
100
AcDbSymbolTable
 70
     1
  0
VPORT
  5
29
330
8
100
AcDbSymbolTableRecord
100
AcDbViewportTableRecord
  2
*ACTIVE
 70
     0
 10
0.0
 20
0.0
 11
1.0
 21
1.0
 12
5.5
 22
4.25
 13
0.0
 23
0.0
 14
0.5
 24
0.5
 15
0.5
 25
0.5
 16
0.0
 26
0.0
 36
1.0
 17
0.0
 27
0.0
 37
0.0
 40
8.5
 41
1.2941176471
 42
50.0
 43
0.0
 44
0.0
 50
0.0
 51
0.0
 71
     0
 72
  2000
 73
     1
 74
     3
 75
     0
 76
     0
 77
     0
 78
     0
  0
ENDTAB
  0
TABLE
  2
LTYPE
  5
5
330
0
100
AcDbSymbolTable
 70
     6
  0
LTYPE
  5
14
330
5
100
AcDbSymbolTableRecord
100
AcDbLinetypeTableRecord
  2
BYBLOCK
 70
     0
  3

 72
    65
 73
     0
 40
0.0
  0
LTYPE
  5
15
330
5
100
AcDbSymbolTableRecord
100
AcDbLinetypeTableRecord
  2
BYLAYER
 70
     0
  3

 72
    65
 73
     0
 40
0.0
  0
LTYPE
  5
16
330
5
100
AcDbSymbolTableRecord
100
AcDbLinetypeTableRecord
  2
CONTINUOUS
 70
     0
  3
Solid line
 72
    65
 73
     0
 40
0.0
  0
LTYPE
  5
3B
330
5
100
AcDbSymbolTableRecord
100
AcDbLinetypeTableRecord
  2
HIDDEN
 70
     0
  3
Hidden __ __ __ __ __ __ __ __ __ __ __ __ __ __
 72
    65
 73
     2
 40
0.075
 49
0.05
 74
     0
 49
-0.025
 74
     0
  0
LTYPE
  5
3C
330
5
100
AcDbSymbolTableRecord
100
AcDbLinetypeTableRecord
  2
PHANTOM
 70
     0
  3
Phantom ______  __  __  ______  __  __  ______
 72
    65
 73
     6
 40
0.5
 49
0.25
 74
     0
 49
-0.05
 74
     0
 49
0.05
 74
     0
 49
-0.05
 74
     0
 49
0.05
 74
     0
 49
-0.05
 74
     0
  0
LTYPE
  5
3D
330
5
100
AcDbSymbolTableRecord
100
AcDbLinetypeTableRecord
  2
CENTER
 70
     0
  3
Center ____ _ ____ _ ____ _ ____ _ ____ _ ____
 72
    65
 73
     4
 40
0.4
 49
0.25
 74
     0
 49
-0.05
 74
     0
 49
0.05
 74
     0
 49
-0.05
 74
     0
  0
LTYPE
  5
3E
330
5
100
AcDbSymbolTableRecord
100
AcDbLinetypeTableRecord
  2
CENTERX2
 70
     0
  3
Center (2x) ________  __  ________  __  _____
 72
    65
 73
     4
 40
0.8
 49
0.5
 74
     0
 49
-0.1
 74
     0
 49
0.1
 74
     0
 49
-0.1
 74
     0
  0
LTYPE
  5
3F
330
5
100
AcDbSymbolTableRecord
100
AcDbLinetypeTableRecord
  2
DOT2
 70
     0
  3
Dot (.5x) ........................................
 72
    65
 73
     2
 40
0.025
 49
0.0
 74
     0
 49
-0.025
 74
     0
  0
ENDTAB
  0
TABLE
  2
LAYER
  5
2
330
0
100
AcDbSymbolTable
 70
     2
  0
LAYER
  5
10
330
2
100
AcDbSymbolTableRecord
100
AcDbLayerTableRecord
  2
0
 70
     0
 62
     7
  6
CONTINUOUS
  0
LAYER
  5
40
330
2
100
AcDbSymbolTableRecord
100
AcDbLayerTableRecord
  2
FORMAT
 70
     0
 62
     7
  6
CONTINUOUS
  0
ENDTAB
  0
TABLE
  2
STYLE
  5
3
330
0
100
AcDbSymbolTable
 70
     4
  0
STYLE
  5
11
330
3
100
AcDbSymbolTableRecord
100
AcDbTextStyleTableRecord
  2
STANDARD
 70
     0
 40
0.0
 41
1.0
 50
0.0
 71
     0
 42
0.2
  3
txt
  4

  0
STYLE
  5
6E
330
3
100
AcDbSymbolTableRecord
100
AcDbTextStyleTableRecord
  2
SLDTEXTSTYLE0
 70
     0
 40
0.0
 41
0.75
 50
0.0
 71
     0
 42
0.2
  3
TXT
  4

  0
STYLE
  5
93
330
3
100
AcDbSymbolTableRecord
100
AcDbTextStyleTableRecord
  2
SLDTEXTSTYLE1
 70
     0
 40
0.0
 41
0.6875
 50
0.0
 71
     0
 42
0.2
  3
TXT
  4

  0
STYLE
  5
99
330
3
100
AcDbSymbolTableRecord
100
AcDbTextStyleTableRecord
  2
SLDTEXTSTYLE2
 70
     0
 40
0.0
 41
0.6944444444
 50
0.0
 71
     0
 42
0.2
  3
TXT
  4

  0
ENDTAB
  0
TABLE
  2
VIEW
  5
6
330
0
100
AcDbSymbolTable
 70
     0
  0
ENDTAB
  0
TABLE
  2
UCS
  5
7
330
0
100
AcDbSymbolTable
 70
     0
  0
ENDTAB
  0
TABLE
  2
APPID
  5
9
330
0
100
AcDbSymbolTable
 70
     1
  0
APPID
  5
12
330
9
100
AcDbSymbolTableRecord
100
AcDbRegAppTableRecord
  2
ACAD
 70
     0
  0
ENDTAB
  0
TABLE
  2
DIMSTYLE
  5
A
330
0
100
AcDbSymbolTable
 70
     1
  0
DIMSTYLE
105
27
330
A
100
AcDbSymbolTableRecord
100
AcDbDimStyleTableRecord
  2
STANDARD
 70
     0
  3

  4

  5

  6

  7

 40
1.0
 41
0.18
 42
0.0625
 43
0.38
 44
0.18
 45
0.0
 46
0.0
 47
0.0
 48
0.0
140
0.18
141
0.09
142
0.0
143
25.4
144
1.0
145
0.0
146
1.0
147
0.09
 71
     0
 72
     0
 73
     1
 74
     1
 75
     0
 76
     0
 77
     0
 78
     0
170
     0
171
     2
172
     0
173
     0
174
     0
175
     0
176
     0
177
     0
178
     0
270
     2
271
     4
272
     4
273
     2
274
     2
340
11
275
     0
280
     0
281
     0
282
     0
283
     1
284
     0
285
     0
286
     0
287
     3
288
     0
  0
ENDTAB
  0
TABLE
  2
BLOCK_RECORD
  5
1
330
0
100
AcDbSymbolTable
 70
     4
  0
BLOCK_RECORD
  5
1F
330
1
100
AcDbSymbolTableRecord
100
AcDbBlockTableRecord
  2
*MODEL_SPACE
  0
BLOCK_RECORD
  5
1B
330
1
100
AcDbSymbolTableRecord
100
AcDbBlockTableRecord
  2
*PAPER_SPACE
  0
BLOCK_RECORD
  5
A8
330
1
100
AcDbSymbolTableRecord
100
AcDbBlockTableRecord
  2
SW_NOTE_0
  0
BLOCK_RECORD
  5
AE
330
1
100
AcDbSymbolTableRecord
100
AcDbBlockTableRecord
  2
SW_NOTE_1
  0
BLOCK_RECORD
  5
C2
330
1
100
AcDbSymbolTableRecord
100
AcDbBlockTableRecord
  2
SW_NOTE_2
  0
ENDTAB
  0
ENDSEC
  0
SECTION
  2
BLOCKS
  0
BLOCK
  5
20
330
1F
100
AcDbEntity
  8
0
100
AcDbBlockBegin
  2
*MODEL_SPACE
 70
     0
 10
0.0
 20
0.0
 30
0.0
  3
*MODEL_SPACE
  1

  0
ENDBLK
  5
21
330
1F
100
AcDbEntity
  8
0
100
AcDbBlockEnd
  0
BLOCK
  5
1C
330
1B
100
AcDbEntity
 67
     1
  8
0
100
AcDbBlockBegin
  2
*PAPER_SPACE
 70
     0
 10
0.0
 20
0.0
 30
0.0
  3
*PAPER_SPACE
  1

  0
ENDBLK
  5
1D
330
1B
100
AcDbEntity
 67
     1
  8
0
100
AcDbBlockEnd
  0
BLOCK
  5
A9
330
A8
100
AcDbEntity
  8
0
100
AcDbBlockBegin
  2
SW_NOTE_0
 70
     0
 10
0.0
 20
0.0
 30
0.0
  3
SW_NOTE_0
  1

  0
MTEXT
  5
AB
330
A8
100
AcDbEntity
  8
0
  6
CONTINUOUS
 62
     0
100
AcDbMText
 10
0.0
 20
0.0773440644
 30
0.0
 40
0.06
 41
0.0
 71
     1
 72
     1
  1
INTERPRET GEOMETRIC
  7
SLDTEXTSTYLE0
  0
MTEXT
  5
AC
330
A8
100
AcDbEntity
  8
0
  6
CONTINUOUS
 62
     0
100
AcDbMText
 10
0.0
 20
-0.0220260102
 30
0.0
 40
0.06
 41
0.0
 71
     1
 72
     1
  1
TOLERANCING PER:
  7
SLDTEXTSTYLE0
  0
ENDBLK
  5
AA
330
A8
100
AcDbEntity
  8
0
100
AcDbBlockEnd
  0
BLOCK
  5
AF
330
AE
100
AcDbEntity
  8
0
100
AcDbBlockBegin
  2
SW_NOTE_1
 70
     0
 10
0.0
 20
0.0
 30
0.0
  3
SW_NOTE_1
  1

  0
MTEXT
  5
B1
330
AE
100
AcDbEntity
  8
0
  6
CONTINUOUS
 62
     0
100
AcDbMText
 10
0.0
 20
0.0837894031
 30
0.0
 40
0.065
 41
0.0
 71
     1
 72
     1
  1
DIMENSIONS ARE IN INCHES
  7
SLDTEXTSTYLE0
  0
MTEXT
  5
B2
330
AE
100
AcDbEntity
  8
0
  6
CONTINUOUS
 62
     0
100
AcDbMText
 10
0.0
 20
-0.0205806729
 30
0.0
 40
0.065
 41
0.0
 71
     1
 72
     1
  1
TOLERANCES:
  7
SLDTEXTSTYLE0
  0
MTEXT
  5
B3
330
AE
100
AcDbEntity
  8
0
  6
CONTINUOUS
 62
     0
100
AcDbMText
 10
0.0
 20
-0.1249507489
 30
0.0
 40
0.065
 41
0.0
 71
     1
 72
     1
  1
FRACTIONAL
  7
SLDTEXTSTYLE0
  0
MTEXT
  5
B4
330
AE
100
AcDbEntity
  8
0
  6
CONTINUOUS
 62
     0
100
AcDbMText
 10
0.5175850875
 20
-0.1249507489
 30
0.0
 40
0.065
 41
0.0
 71
     1
 72
     1
  1
%%p
  7
SLDTEXTSTYLE0
  0
MTEXT
  5
B5
330
AE
100
AcDbEntity
  8
0
  6
CONTINUOUS
 62
     0
100
AcDbMText
 10
0.0
 20
-0.2293208248
 30
0.0
 40
0.065
 41
0.0
 71
     1
 72
     1
  1
ANGULAR: MACH
  7
SLDTEXTSTYLE0
  0
MTEXT
  5
B6
330
AE
100
AcDbEntity
  8
0
  6
CONTINUOUS
 62
     0
100
AcDbMText
 10
0.7233732769
 20
-0.2293208248
 30
0.0
 40
0.065
 41
0.0
 71
     1
 72
     1
  1
%%p
  7
SLDTEXTSTYLE0
  0
MTEXT
  5
B7
330
AE
100
AcDbEntity
  8
0
  6
CONTINUOUS
 62
     0
100
AcDbMText
 10
0.7852857683
 20
-0.2293208248
 30
0.0
 40
0.065
 41
0.0
 71
     1
 72
     1
  1
     BEND 
  7
SLDTEXTSTYLE0
  0
MTEXT
  5
B8
330
AE
100
AcDbEntity
  8
0
  6
CONTINUOUS
 62
     0
100
AcDbMText
 10
1.14784136
 20
-0.2293208248
 30
0.0
 40
0.065
 41
0.0
 71
     1
 72
     1
  1
%%p
  7
SLDTEXTSTYLE0
  0
MTEXT
  5
B9
330
AE
100
AcDbEntity
  8
0
  6
CONTINUOUS
 62
     0
100
AcDbMText
 10
0.0
 20
-0.3336909008
 30
0.0
 40
0.065
 41
0.0
 71
     1
 72
     1
  1
TWO PLACE DECIMAL    
  7
SLDTEXTSTYLE0
  0
MTEXT
  5
BA
330
AE
100
AcDbEntity
  8
0
  6
CONTINUOUS
 62
     0
100
AcDbMText
 10
0.9794349188
 20
-0.3336909008
 30
0.0
 40
0.065
 41
0.0
 71
     1
 72
     1
  1
%%p
  7
SLDTEXTSTYLE0
  0
MTEXT
  5
BB
330
AE
100
AcDbEntity
  8
0
  6
CONTINUOUS
 62
     0
100
AcDbMText
 10
0.0
 20
-0.4380609768
 30
0.0
 40
0.065
 41
0.0
 71
     1
 72
     1
  1
THREE PLACE DECIMAL  
  7
SLDTEXTSTYLE0
  0
MTEXT
  5
BC
330
AE
100
AcDbEntity
  8
0
  6
CONTINUOUS
 62
     0
100
AcDbMText
 10
0.9738038639
 20
-0.4380609768
 30
0.0
 40
0.065
 41
0.0
 71
     1
 72
     1
  1
%%p
  7
SLDTEXTSTYLE0
  0
ENDBLK
  5
B0
330
AE
100
AcDbEntity
  8
0
100
AcDbBlockEnd
  0
BLOCK
  5
C3
330
C2
100
AcDbEntity
  8
0
100
AcDbBlockBegin
  2
SW_NOTE_2
 70
     0
 10
0.0
 20
0.0
 30
0.0
  3
SW_NOTE_2
  1

  0
MTEXT
  5
C5
330
C2
100
AcDbEntity
  8
0
  6
CONTINUOUS
 62
     0
100
AcDbMText
 10
0.0
 20
0.0773440644
 30
0.0
 40
0.06
 41
0.0
 71
     1
 72
     1
  1
THE INFORMATION CONTAINED IN THIS
  7
SLDTEXTSTYLE0
  0
MTEXT
  5
C6
330
C2
100
AcDbEntity
  8
0
  6
CONTINUOUS
 62
     0
100
AcDbMText
 10
0.0
 20
-0.0220260102
 30
0.0
 40
0.06
 41
0.0
 71
     1
 72
     1
  1
DRAWING IS THE SOLE PROPERTY OF
  7
SLDTEXTSTYLE0
  0
MTEXT
  5
C7
330
C2
100
AcDbEntity
  8
0
  6
CONTINUOUS
 62
     0
100
AcDbMText
 10
0.0
 20
-0.1213960848
 30
0.0
 40
0.06
 41
0.0
 71
     1
 72
     1
  1
Candy Controls.  ANY 
  7
SLDTEXTSTYLE0
  0
MTEXT
  5
C8
330
C2
100
AcDbEntity
  8
0
  6
CONTINUOUS
 62
     0
100
AcDbMText
 10
0.0
 20
-0.2207661593
 30
0.0
 40
0.06
 41
0.0
 71
     1
 72
     1
  1
REPRODUCTION IN PART OR AS A WHOLE
  7
SLDTEXTSTYLE0
  0
MTEXT
  5
C9
330
C2
100
AcDbEntity
  8
0
  6
CONTINUOUS
 62
     0
100
AcDbMText
 10
0.0
 20
-0.3201362339
 30
0.0
 40
0.06
 41
0.0
 71
     1
 72
     1
  1
WITHOUT THE WRITTEN PERMISSION OF
  7
SLDTEXTSTYLE0
  0
MTEXT
  5
CA
330
C2
100
AcDbEntity
  8
0
  6
CONTINUOUS
 62
     0
100
AcDbMText
 10
0.0
 20
-0.4195063085
 30
0.0
 40
0.06
 41
0.0
 71
     1
 72
     1
  1
Candy Controls IS 
  7
SLDTEXTSTYLE0
  0
MTEXT
  5
CB
330
C2
100
AcDbEntity
  8
0
  6
CONTINUOUS
 62
     0
100
AcDbMText
 10
0.0
 20
-0.518876383
 30
0.0
 40
0.06
 41
0.0
 71
     1
 72
     1
  1
PROHIBITED.
  7
SLDTEXTSTYLE0
  0
ENDBLK
  5
C4
330
C2
100
AcDbEntity
  8
0
100
AcDbBlockEnd
  0
ENDSEC
  0
SECTION
  2
ENTITIES
  0
LINE
  5
41
330
1F
100
AcDbEntity
  8
0
  6
CONTINUOUS
 62
     7
100
AcDbLine
 10
0.329927
 20
8.1920731707
 30
0.0
 11
10.629927
 21
8.1920731707
 31
0.0
  0
LINE
  5
42
330
1F
100
AcDbEntity
  8
0
  6
CONTINUOUS
 62
     7
100
AcDbLine
 10
0.329927
 20
8.1920731707
 30
0.0
 11
0.329927
 21
0.3920731707
 31
0.0
  0
LINE
  5
43
330
1F
100
AcDbEntity
  8
0
  6
CONTINUOUS
 62
     7
100
AcDbLine
 10
10.629927
 20
0.3920731707
 30
0.0
 11
0.329927
 21
0.3920731707
 31
0.0
  0
LINE
  5
44
330
1F
100
AcDbEntity
  8
0
  6
CONTINUOUS
 62
     7
100
AcDbLine
 10
10.629927
 20
0.3920731707
 30
0.0
 11
10.629927
 21
8.1920731707
 31
0.0
  0
LINE
  5
45
330
1F
100
AcDbEntity
  8
0
  6
CONTINUOUS
 62
     7
100
AcDbLine
 10
4.7981841288
 20
0.3920731707
 30
0.0
 11
4.7981841288
 21
2.3564211366
 31
0.0
  0
LINE
  5
46
330
1F
100
AcDbEntity
  8
0
  6
CONTINUOUS
 62
     7
100
AcDbLine
 10
2.8210345579
 20
2.3564211366
 30
0.0
 11
10.629927
 21
2.3564211366
 31
0.0
  0
LINE
  5
47
330
1F
100
AcDbEntity
  8
0
  6
CONTINUOUS
 62
     7
100
AcDbLine
 10
6.1796352514
 20
2.3564211366
 30
0.0
 11
6.1796352514
 21
0.3920731707
 31
0.0
  0
LINE
  5
48
330
1F
100
AcDbEntity
  8
0
  6
CONTINUOUS
 62
     7
100
AcDbLine
 10
7.8712070044
 20
2.3564211366
 30
0.0
 11
7.8712070044
 21
0.3920731707
 31
0.0
  0
LINE
  5
49
330
1F
100
AcDbEntity
  8
0
  6
CONTINUOUS
 62
     7
100
AcDbLine
 10
7.8712070044
 20
0.6049590101
 30
0.0
 11
10.629927
 21
0.6049590101
 31
0.0
  0
LINE
  5
4A
330
1F
100
AcDbEntity
  8
0
  6
CONTINUOUS
 62
     7
100
AcDbLine
 10
7.8712070044
 20
1.1119362457
 30
0.0
 11
10.629927
 21
1.1119362457
 31
0.0
  0
LINE
  5
4B
330
1F
100
AcDbEntity
  8
0
  6
CONTINUOUS
 62
     7
100
AcDbLine
 10
7.8712070044
 20
1.9892703708
 30
0.0
 11
10.629927
 21
1.9892703708
 31
0.0
  0
LINE
  5
4C
330
1F
100
AcDbEntity
  8
0
  6
CONTINUOUS
 62
     7
100
AcDbLine
 10
8.266751752
 20
1.1119362457
 30
0.0
 11
8.266751752
 21
0.6049590101
 31
0.0
  0
LINE
  5
4D
330
1F
100
AcDbEntity
  8
0
  6
CONTINUOUS
 62
     7
100
AcDbLine
 10
8.6943435176
 20
0.6049590101
 30
0.0
 11
8.6943435176
 21
0.3920731707
 31
0.0
  0
LINE
  5
4E
330
1F
100
AcDbEntity
  8
0
  6
CONTINUOUS
 62
     7
100
AcDbLine
 10
10.0579917045
 20
1.1119362457
 30
0.0
 11
10.0579917045
 21
0.6049590101
 31
0.0
  0
LINE
  5
4F
330
1F
100
AcDbEntity
  8
0
  6
CONTINUOUS
 62
     7
100
AcDbLine
 10
9.6662556631
 20
0.6049590101
 30
0.0
 11
9.6662556631
 21
0.3920731707
 31
0.0
  0
LINE
  5
50
330
1F
100
AcDbEntity
  8
0
  6
CONTINUOUS
 62
     7
100
AcDbLine
 10
2.8210345579
 20
0.5883479999
 30
0.0
 11
6.1796352514
 21
0.5883479999
 31
0.0
  0
LINE
  5
51
330
1F
100
AcDbEntity
  8
0
  6
CONTINUOUS
 62
     7
100
AcDbLine
 10
6.1796352514
 20
1.7939211366
 30
0.0
 11
7.8712070044
 21
1.7939211366
 31
0.0
  0
LINE
  5
52
330
1F
100
AcDbEntity
  8
0
  6
CONTINUOUS
 62
     7
100
AcDbLine
 10
6.1796352514
 20
1.9814211366
 30
0.0
 11
7.8712070044
 21
1.9814211366
 31
0.0
  0
LINE
  5
53
330
1F
100
AcDbEntity
  8
0
  6
CONTINUOUS
 62
     7
100
AcDbLine
 10
6.1796352514
 20
2.1689211366
 30
0.0
 11
7.8712070044
 21
2.1689211366
 31
0.0
  0
LINE
  5
54
330
1F
100
AcDbEntity
  8
0
  6
CONTINUOUS
 62
     7
100
AcDbLine
 10
7.8712070044
 20
1.2314211366
 30
0.0
 11
6.1796352514
 21
1.2314211366
 31
0.0
  0
LINE
  5
55
330
1F
100
AcDbEntity
  8
0
  6
CONTINUOUS
 62
     7
100
AcDbLine
 10
7.3921580388
 20
2.3564211366
 30
0.0
 11
7.3921580388
 21
1.2314211366
 31
0.0
  0
LINE
  5
56
330
1F
100
AcDbEntity
  8
0
  6
CONTINUOUS
 62
     7
100
AcDbLine
 10
6.9236308342
 20
2.3564211366
 30
0.0
 11
6.9236308342
 21
1.2314211366
 31
0.0
  0
LINE
  5
57
330
1F
100
AcDbEntity
  8
0
  6
CONTINUOUS
 62
     7
100
AcDbLine
 10
4.7981841288
 20
0.8557965305
 30
0.0
 11
6.1796352514
 21
0.8557965305
 31
0.0
  0
LINE
  5
58
330
1F
100
AcDbEntity
  8
0
  6
CONTINUOUS
 62
     7
100
AcDbLine
 10
4.7981841288
 20
1.1257965305
 30
0.0
 11
6.1796352514
 21
1.1257965305
 31
0.0
  0
LINE
  5
59
330
1F
100
AcDbEntity
  8
0
  6
CONTINUOUS
 62
     7
100
AcDbLine
 10
2.8210345579
 20
0.3920731707
 30
0.0
 11
2.8210345579
 21
2.3564211366
 31
0.0
  0
LINE
  5
5A
330
1F
100
AcDbEntity
  8
0
  6
CONTINUOUS
 62
     7
100
AcDbLine
 10
2.8210345579
 20
1.1064211366
 30
0.0
 11
4.7981841288
 21
1.1064211366
 31
0.0
  0
LINE
  5
5B
330
1F
100
AcDbEntity
  8
0
  6
CONTINUOUS
 62
     7
100
AcDbLine
 10
2.8210345579
 20
1.3564211366
 30
0.0
 11
4.7981841288
 21
1.3564211366
 31
0.0
  0
LINE
  5
5C
330
1F
100
AcDbEntity
  8
0
  6
CONTINUOUS
 62
     7
100
AcDbLine
 10
2.8210345579
 20
1.6064211366
 30
0.0
 11
4.7981841288
 21
1.6064211366
 31
0.0
  0
LINE
  5
5D
330
1F
100
AcDbEntity
  8
0
  6
CONTINUOUS
 62
     7
100
AcDbLine
 10
2.8210345579
 20
1.8564211366
 30
0.0
 11
4.7981841288
 21
1.8564211366
 31
0.0
  0
LINE
  5
5E
330
1F
100
AcDbEntity
  8
0
  6
CONTINUOUS
 62
     7
100
AcDbLine
 10
3.8190146875
 20
2.3564211366
 30
0.0
 11
3.8190146875
 21
0.5883479999
 31
0.0
  0
LINE
  5
5F
330
1F
100
AcDbEntity
  8
0
  6
CONTINUOUS
 62
     7
100
AcDbLine
 10
6.1796352514
 20
2.2020813496
 30
0.0
 11
4.7981841288
 21
2.2020813496
 31
0.0
  0
LINE
  5
60
330
1F
100
AcDbEntity
  8
0
  6
CONTINUOUS
 62
     7
100
AcDbLine
 10
7.8712070044
 20
1.6064211366
 30
0.0
 11
6.1796352514
 21
1.6064211366
 31
0.0
  0
LINE
  5
61
330
1F
100
AcDbEntity
  8
0
  6
CONTINUOUS
 62
     7
100
AcDbLine
 10
7.8712070044
 20
1.4189211366
 30
0.0
 11
6.1796352514
 21
1.4189211366
 31
0.0
  0
LINE
  5
62
330
1F
100
AcDbEntity
  8
0
  6
CONTINUOUS
 62
     7
100
AcDbLine
 10
2.8210345579
 20
2.1064211366
 30
0.0
 11
4.7981841288
 21
2.1064211366
 31
0.0
  0
LINE
  5
63
330
1F
100
AcDbEntity
  8
0
  6
CONTINUOUS
 62
     7
100
AcDbLine
 10
4.7981841288
 20
1.3957965305
 30
0.0
 11
6.1796352514
 21
1.3957965305
 31
0.0
  0
LINE
  5
64
330
1F
100
AcDbEntity
  8
0
  6
CONTINUOUS
 62
     7
100
AcDbLine
 10
2.8210345579
 20
0.8564211366
 30
0.0
 11
4.7981841288
 21
0.8564211366
 31
0.0
  0
LINE
  5
65
330
1F
100
AcDbEntity
  8
0
  6
CONTINUOUS
 62
     7
100
AcDbLine
 10
1.1838252943
 20
0.3920731707
 30
0.0
 11
1.1838252943
 21
1.3064211366
 31
0.0
  0
LINE
  5
66
330
1F
100
AcDbEntity
  8
0
  6
CONTINUOUS
 62
     7
100
AcDbLine
 10
2.8210345579
 20
1.3064211366
 30
0.0
 11
1.1838252943
 21
1.3064211366
 31
0.0
  0
LINE
  5
67
330
1F
100
AcDbEntity
  8
0
  6
CONTINUOUS
 62
     7
100
AcDbLine
 10
8.660927
 20
0.3920731707
 30
0.0
 11
8.660927
 21
0.3072739649
 31
0.0
  0
LINE
  5
68
330
1F
100
AcDbEntity
  8
0
  6
CONTINUOUS
 62
     7
100
AcDbLine
 10
6.692177
 20
0.3920731707
 30
0.0
 11
6.692177
 21
0.3072739649
 31
0.0
  0
LINE
  5
69
330
1F
100
AcDbEntity
  8
0
  6
CONTINUOUS
 62
     7
100
AcDbLine
 10
4.723427
 20
0.3920731707
 30
0.0
 11
4.723427
 21
0.3072739649
 31
0.0
  0
LINE
  5
6A
330
1F
100
AcDbEntity
  8
0
  6
CONTINUOUS
 62
     7
100
AcDbLine
 10
2.754677
 20
0.3920731707
 30
0.0
 11
2.754677
 21
0.3072739649
 31
0.0
  0
LINE
  5
6B
330
1F
100
AcDbEntity
  8
0
  6
CONTINUOUS
 62
     7
100
AcDbLine
 10
2.754677
 20
0.3920731707
 30
0.0
 11
2.7672319738
 21
0.3575
 31
0.0
  0
LINE
  5
6C
330
1F
100
AcDbEntity
  8
0
  6
CONTINUOUS
 62
     7
100
AcDbLine
 10
2.7672319738
 20
0.3575
 30
0.0
 11
2.7414258825
 21
0.3575
 31
0.0
  0
LINE
  5
6D
330
1F
100
AcDbEntity
  8
0
  6
CONTINUOUS
 62
     7
100
AcDbLine
 10
2.7414258825
 20
0.3575
 30
0.0
 11
2.754677
 21
0.3920731707
 31
0.0
  0
MTEXT
  5
91
330
1F
100
AcDbEntity
  8
0
  6
CONTINUOUS
 62
     7
100
AcDbMText
 10
4.9775846961
 20
0.5178452352
 30
0.0
 40
0.0625
 41
0.0
 71
     1
 72
     1
  1
DO NOT SCALE DRAWING
  7
SLDTEXTSTYLE0
  0
MTEXT
  5
92
330
1F
100
AcDbEntity
  8
0
  6
CONTINUOUS
 62
     7
100
AcDbMText
 10
8.5301616913
 20
0.9417064595
 30
0.0
 40
0.125
 41
0.0
 71
     1
 72
     1
  1
CL13-25_CLAMP
  7
SLDTEXTSTYLE0
  0
MTEXT
  5
94
330
1F
100
AcDbEntity
  8
0
  6
CONTINUOUS
 62
     7
100
AcDbMText
 10
9.7571278483
 20
0.5524239532
 30
0.0
 40
0.1
 41
0.0
 71
     1
 72
     1
  1
SHEET 1 OF 1
  7
SLDTEXTSTYLE1
  0
MTEXT
  5
95
330
1F
100
AcDbEntity
  8
0
  6
CONTINUOUS
 62
     7
100
AcDbMText
 10
4.8448077858
 20
2.3132954224
 30
0.0
 40
0.07
 41
0.0
 71
     1
 72
     1
  1
UNLESS OTHERWISE SPECIFIED:
  7
SLDTEXTSTYLE0
  0
MTEXT
  5
96
330
1F
100
AcDbEntity
  8
0
  6
CONTINUOUS
 62
     7
100
AcDbMText
 10
7.9586139647
 20
0.5520987879
 30
0.0
 40
0.1
 41
0.0
 71
     1
 72
     1
  1
SCALE: 2:1
  7
SLDTEXTSTYLE0
  0
MTEXT
  5
97
330
1F
100
AcDbEntity
  8
0
  6
CONTINUOUS
 62
     7
100
AcDbMText
 10
8.7023691647
 20
0.5486763345
 30
0.0
 40
0.1
 41
0.0
 71
     1
 72
     1
  1
WEIGHT: 
  7
SLDTEXTSTYLE0
  0
MTEXT
  5
98
330
1F
100
AcDbEntity
  8
0
  6
CONTINUOUS
 62
     7
100
AcDbMText
 10
10.2277580983
 20
1.081966299
 30
0.0
 40
0.1
 41
0.0
 71
     1
 72
     1
  1
REV
  7
SLDTEXTSTYLE0
  0
MTEXT
  5
9A
330
1F
100
AcDbEntity
  8
0
  6
CONTINUOUS
 62
     7
100
AcDbMText
 10
8.2984570898
 20
1.0858725293
 30
0.0
 40
0.1
 41
0.0
 71
     1
 72
     1
  1
DWG.  NO.
  7
SLDTEXTSTYLE2
  0
MTEXT
  5
9B
330
1F
100
AcDbEntity
  8
0
  6
CONTINUOUS
 62
     7
100
AcDbMText
 10
7.9598482632
 20
0.9442140768
 30
0.0
 40
0.25
 41
0.0
 71
     1
 72
     1
  1
A
  7
SLDTEXTSTYLE0
  0
MTEXT
  5
9C
330
1F
100
AcDbEntity
  8
0
  6
CONTINUOUS
 62
     7
100
AcDbMText
 10
7.9519581822
 20
1.0872713483
 30
0.0
 40
0.1
 41
0.0
 71
     1
 72
     1
  1
SIZE
  7
SLDTEXTSTYLE0
  0
MTEXT
  5
9D
330
1F
100
AcDbEntity
  8
0
  6
CONTINUOUS
 62
     7
100
AcDbMText
 10
7.9170704177
 20
1.9547881128
 30
0.0
 40
0.1
 41
0.0
 71
     1
 72
     1
  1
TITLE:
  7
SLDTEXTSTYLE0
  0
MTEXT
  5
9E
330
1F
100
AcDbEntity
  8
0
  6
CONTINUOUS
 62
     7
100
AcDbMText
 10
7.0363774929
 20
2.2906161274
 30
0.0
 40
0.065
 41
0.0
 71
     1
 72
     1
  1
NAME
  7
SLDTEXTSTYLE0
  0
MTEXT
  5
9F
330
1F
100
AcDbEntity
  8
0
  6
CONTINUOUS
 62
     7
100
AcDbMText
 10
7.5281510634
 20
2.2888799118
 30
0.0
 40
0.065
 41
0.0
 71
     1
 72
     1
  1
DATE
  7
SLDTEXTSTYLE0
  0
MTEXT
  5
A0
330
1F
100
AcDbEntity
  8
0
  6
CONTINUOUS
 62
     7
100
AcDbMText
 10
6.2277147029
 20
1.1876913145
 30
0.0
 40
0.065
 41
0.0
 71
     1
 72
     1
  1
COMMENTS:
  7
SLDTEXTSTYLE0
  0
MTEXT
  5
A1
330
1F
100
AcDbEntity
  8
0
  6
CONTINUOUS
 62
     7
100
AcDbMText
 10
6.2268411461
 20
1.3536101679
 30
0.0
 40
0.065
 41
0.0
 71
     1
 72
     1
  1
Q.A.
  7
SLDTEXTSTYLE0
  0
MTEXT
  5
A2
330
1F
100
AcDbEntity
  8
0
  6
CONTINUOUS
 62
     7
100
AcDbMText
 10
6.2284654509
 20
1.5395328424
 30
0.0
 40
0.065
 41
0.0
 71
     1
 72
     1
  1
MFG APPR.
  7
SLDTEXTSTYLE0
  0
MTEXT
  5
A3
330
1F
100
AcDbEntity
  8
0
  6
CONTINUOUS
 62
     7
100
AcDbMText
 10
6.2235171344
 20
1.7267501785
 30
0.0
 40
0.065
 41
0.0
 71
     1
 72
     1
  1
ENG APPR.
  7
SLDTEXTSTYLE0
  0
MTEXT
  5
A4
330
1F
100
AcDbEntity
  8
0
  6
CONTINUOUS
 62
     7
100
AcDbMText
 10
6.2264103951
 20
1.9092699088
 30
0.0
 40
0.065
 41
0.0
 71
     1
 72
     1
  1
CHECKED
  7
SLDTEXTSTYLE0
  0
MTEXT
  5
A5
330
1F
100
AcDbEntity
  8
0
  6
CONTINUOUS
 62
     7
100
AcDbMText
 10
6.2242794356
 20
2.1016301232
 30
0.0
 40
0.065
 41
0.0
 71
     1
 72
     1
  1
DRAWN
  7
SLDTEXTSTYLE0
  0
MTEXT
  5
A6
330
1F
100
AcDbEntity
  8
0
  6
CONTINUOUS
 62
     7
100
AcDbMText
 10
4.8208600979
 20
0.834523235
 30
0.0
 40
0.06
 41
0.0
 71
     1
 72
     1
  1
FINISH
  7
SLDTEXTSTYLE0
  0
MTEXT
  5
A7
330
1F
100
AcDbEntity
  8
0
  6
CONTINUOUS
 62
     7
100
AcDbMText
 10
4.8181240648
 20
1.1028217587
 30
0.0
 40
0.06
 41
0.0
 71
     1
 72
     1
  1
MATERIAL
  7
SLDTEXTSTYLE0
  0
INSERT
  5
AD
330
1F
100
AcDbEntity
  8
0
  6
CONTINUOUS
 62
     7
100
AcDbBlockReference
  2
SW_NOTE_0
 10
4.8231926633
 20
1.2646542947
 30
0.0
  0
INSERT
  5
BD
330
1F
100
AcDbEntity
  8
0
  6
CONTINUOUS
 62
     7
100
AcDbBlockReference
  2
SW_NOTE_1
 10
4.8353339353
 20
2.0049168724
 30
0.0
  0
MTEXT
  5
BE
330
1F
100
AcDbEntity
  8
0
  6
CONTINUOUS
 62
     7
100
AcDbMText
 10
3.5531400086
 20
0.5200091997
 30
0.0
 40
0.0625
 41
0.0
 71
     1
 72
     1
  1
APPLICATION
  7
SLDTEXTSTYLE0
  0
MTEXT
  5
BF
330
1F
100
AcDbEntity
  8
0
  6
CONTINUOUS
 62
     7
100
AcDbMText
 10
4.1005607758
 20
0.7502454275
 30
0.0
 40
0.0625
 41
0.0
 71
     1
 72
     1
  1
USED ON
  7
SLDTEXTSTYLE0
  0
MTEXT
  5
C0
330
1F
100
AcDbEntity
  8
0
  6
CONTINUOUS
 62
     7
100
AcDbMText
 10
3.1040019536
 20
0.7492094783
 30
0.0
 40
0.0625
 41
0.0
 71
     1
 72
     1
  1
NEXT ASSY
  7
SLDTEXTSTYLE0
  0
MTEXT
  5
C1
330
1F
100
AcDbEntity
  8
0
  6
CONTINUOUS
 62
     7
100
AcDbMText
 10
1.3712489489
 20
1.2496672684
 30
0.0
 40
0.06
 41
0.0
 71
     1
 72
     1
  1
PROPRIETARY AND CONFIDENTIAL
  7
SLDTEXTSTYLE0
  0
INSERT
  5
CC
330
1F
100
AcDbEntity
  8
0
  6
CONTINUOUS
 62
     7
100
AcDbBlockReference
  2
SW_NOTE_2
 10
1.2226209074
 20
1.0313492921
 30
0.0
  0
MTEXT
  5
CD
330
1F
100
AcDbEntity
  8
0
  6
CONTINUOUS
 62
     7
100
AcDbMText
 10
1.7387909509
 20
0.3105864247
 30
0.0
 40
0.09375
 41
0.0
 71
     1
 72
     1
  1
5
  7
SLDTEXTSTYLE0
  0
MTEXT
  5
CE
330
1F
100
AcDbEntity
  8
0
  6
CONTINUOUS
 62
     7
100
AcDbMText
 10
3.723800327
 20
0.3137237518
 30
0.0
 40
0.09375
 41
0.0
 71
     1
 72
     1
  1
4
  7
SLDTEXTSTYLE0
  0
MTEXT
  5
CF
330
1F
100
AcDbEntity
  8
0
  6
CONTINUOUS
 62
     7
100
AcDbMText
 10
5.6324457277
 20
0.3116191842
 30
0.0
 40
0.09375
 41
0.0
 71
     1
 72
     1
  1
3
  7
SLDTEXTSTYLE0
  0
MTEXT
  5
D0
330
1F
100
AcDbEntity
  8
0
  6
CONTINUOUS
 62
     7
100
AcDbMText
 10
7.6059721724
 20
0.3124391351
 30
0.0
 40
0.09375
 41
0.0
 71
     1
 72
     1
  1
2
  7
SLDTEXTSTYLE0
  0
MTEXT
  5
D1
330
1F
100
AcDbEntity
  8
0
  6
CONTINUOUS
 62
     7
100
AcDbMText
 10
9.6619921328
 20
0.301372012
 30
0.0
 40
0.09375
 41
0.0
 71
     1
 72
     1
  1
1
  7
SLDTEXTSTYLE0
  0
LINE
  5
D2
330
1F
100
AcDbEntity
  8
0
  6
CONTINUOUS
 62
     7
100
AcDbLine
 10
4.2715179931
 20
2.7744263179
 30
0.0
 11
4.3108880719
 21
2.8137963966
 31
0.0
  0
LINE
  5
D3
330
1F
100
AcDbEntity
  8
0
  6
CONTINUOUS
 62
     7
100
AcDbLine
 10
4.3108880719
 20
4.7035601762
 30
0.0
 11
4.2715179931
 21
4.7429302549
 31
0.0
  0
LINE
  5
D4
330
1F
100
AcDbEntity
  8
0
  6
CONTINUOUS
 62
     7
100
AcDbLine
 10
2.3817542136
 20
2.7744263179
 30
0.0
 11
4.2715179931
 21
2.7744263179
 31
0.0
  0
LINE
  5
D5
330
1F
100
AcDbEntity
  8
0
  6
CONTINUOUS
 62
     7
100
AcDbLine
 10
3.2872660246
 20
4.7429302549
 30
0.0
 11
2.3817542136
 21
4.7429302549
 31
0.0
  0
LINE
  5
D6
330
1F
100
AcDbEntity
  8
0
  6
CONTINUOUS
 62
     7
100
AcDbLine
 10
4.2715179931
 20
4.7429302549
 30
0.0
 11
3.3660061821
 21
4.7429302549
 31
0.0
  0
LINE
  5
D7
330
1F
100
AcDbEntity
  8
0
  6
CONTINUOUS
 62
     7
100
AcDbLine
 10
2.3817542136
 20
4.7429302549
 30
0.0
 11
2.3423841349
 21
4.7035601762
 31
0.0
  0
LINE
  5
D8
330
1F
100
AcDbEntity
  8
0
  6
CONTINUOUS
 62
     7
100
AcDbLine
 10
2.3423841349
 20
2.8137963966
 30
0.0
 11
2.3817542136
 21
2.7744263179
 31
0.0
  0
ARC
  5
D9
330
1F
100
AcDbEntity
  8
0
  6
CONTINUOUS
 62
     7
100
AcDbCircle
 10
3.6415967333
 20
4.4673397037
 30
0.0
 40
0.0196850393700788
100
AcDbArc
 50
90.0
 51
155.2813866035
  0
ARC
  5
DA
330
1F
100
AcDbEntity
  8
0
  6
CONTINUOUS
 62
     7
100
AcDbCircle
 10
4.0352975207
 20
4.4673397037
 30
0.0
 40
0.019685039370079
100
AcDbArc
 50
26.6170729164
 51
90.0
  0
LINE
  5
DB
330
1F
100
AcDbEntity
  8
0
  6
CONTINUOUS
 62
     7
100
AcDbLine
 10
3.7203368908
 20
3.7882058454
 30
0.0
 11
3.7203368908
 21
3.7291507273
 31
0.0
  0
LINE
  5
DC
330
1F
100
AcDbEntity
  8
0
  6
CONTINUOUS
 62
     7
100
AcDbLine
 10
3.9565573632
 20
3.7291507273
 30
0.0
 11
3.9565573632
 21
3.7882058454
 31
0.0
  0
ARC
  5
DD
330
1F
100
AcDbEntity
  8
0
  6
CONTINUOUS
 62
     7
100
AcDbCircle
 10
2.6179746861
 20
4.4673397037
 30
0.0
 40
0.019685039370079
100
AcDbArc
 50
90.0
 51
154.0300246759
  0
ARC
  5
DE
330
1F
100
AcDbEntity
  8
0
  6
CONTINUOUS
 62
     7
100
AcDbCircle
 10
3.0116754735
 20
4.4673397037
 30
0.0
 40
0.0196850393700787
100
AcDbArc
 50
25.4023312768
 51
90.0
  0
LINE
  5
DF
330
1F
100
AcDbEntity
  8
0
  6
CONTINUOUS
 62
     7
100
AcDbLine
 10
2.6967148435
 20
3.7882058454
 30
0.0
 11
2.6967148435
 21
3.7291507273
 31
0.0
  0
LINE
  5
E0
330
1F
100
AcDbEntity
  8
0
  6
CONTINUOUS
 62
     7
100
AcDbLine
 10
2.932935316
 20
3.7291507273
 30
0.0
 11
2.932935316
 21
3.7882058454
 31
0.0
  0
LINE
  5
E1
330
1F
100
AcDbEntity
  8
0
  6
CONTINUOUS
 62
     7
100
AcDbLine
 10
4.3108880719
 20
3.7291507273
 30
0.0
 11
4.3108880719
 21
2.8137963966
 31
0.0
  0
LINE
  5
E2
330
1F
100
AcDbEntity
  8
0
  6
CONTINUOUS
 62
     7
100
AcDbLine
 10
4.3108880719
 20
4.7035601762
 30
0.0
 11
4.3108880719
 21
3.7882058454
 31
0.0
  0
LINE
  5
E3
330
1F
100
AcDbEntity
  8
0
  6
CONTINUOUS
 62
     7
100
AcDbLine
 10
4.3108880719
 20
3.7882058454
 30
0.0
 11
4.2715179931
 21
3.7882058454
 31
0.0
  0
LINE
  5
E4
330
1F
100
AcDbEntity
  8
0
  6
CONTINUOUS
 62
     7
100
AcDbLine
 10
4.2715179931
 20
3.7882058454
 30
0.0
 11
4.2715179931
 21
4.7429302549
 31
0.0
  0
LINE
  5
E5
330
1F
100
AcDbEntity
  8
0
  6
CONTINUOUS
 62
     7
100
AcDbLine
 10
4.2715179931
 20
2.7744263179
 30
0.0
 11
4.2715179931
 21
3.7291507273
 31
0.0
  0
LINE
  5
E6
330
1F
100
AcDbEntity
  8
0
  6
CONTINUOUS
 62
     7
100
AcDbLine
 10
4.2715179931
 20
3.7291507273
 30
0.0
 11
4.3108880719
 21
3.7291507273
 31
0.0
  0
SPLINE
  5
E7
330
1F
100
AcDbEntity
  8
0
  6
CONTINUOUS
 62
     7
100
AcDbSpline
210
0.0
220
0.0
230
1.0
 70
     8
 71
     3
 72
    46
 73
    42
 74
     0
 42
0.00000001
 43
0.00000001
 40
-0.0312500000000002
 40
-0.0312500000000002
 40
0.0
 40
0.0
 40
0.0624999999999998
 40
0.0624999999999998
 40
0.1249999999999996
 40
0.1249999999999996
 40
0.1874999999999994
 40
0.1874999999999994
 40
0.2499999999999993
 40
0.2499999999999993
 40
0.3124999999999992
 40
0.3124999999999992
 40
0.3749999999999991
 40
0.3749999999999991
 40
0.4062499999999991
 40
0.4062499999999991
 40
0.4374999999999991
 40
0.4374999999999991
 40
0.4687499999999991
 40
0.4687499999999991
 40
0.4999999999999991
 40
0.4999999999999991
 40
0.5312499999999991
 40
0.5312499999999991
 40
0.5624999999999991
 40
0.5624999999999991
 40
0.6249999999999993
 40
0.6249999999999993
 40
0.6874999999999996
 40
0.6874999999999996
 40
0.7499999999999996
 40
0.7499999999999996
 40
0.8124999999999996
 40
0.8124999999999996
 40
0.8749999999999996
 40
0.8749999999999996
 40
0.9374999999999996
 40
0.9374999999999996
 40
0.9687499999999998
 40
0.9687499999999998
 40
1.0
 40
1.0
 40
1.0625
 40
1.0625
 10
2.824074575912702
 20
3.141614695885946
 30
0.0
 10
2.796326087462111
 20
3.141614695885946
 30
0.0
 10
2.778792777623326
 20
3.136021646181119
 30
0.0
 10
2.749366814997709
 20
3.119262854909121
 30
0.0
 10
2.737524040622607
 20
3.10852427827295
 30
0.0
 10
2.718267740514143
 20
3.085470371496225
 30
0.0
 10
2.71109662930005
 20
3.073428784311444
 30
0.0
 10
2.700720398649821
 20
3.048804512877473
 30
0.0
 10
2.69766759246019
 20
3.036390140815608
 30
0.0
 10
2.696139563264949
 20
3.01229644512564
 30
0.0
 10
2.697698432055056
 20
3.000391799949962
 30
0.0
 10
2.706162519647846
 20
2.978420095712045
 30
0.0
 10
2.713213231346781
 20
2.968056472858487
 30
0.0
 10
2.728233187400139
 20
2.954805608645922
 30
0.0
 10
2.734078651034483
 20
2.950686875315719
 30
0.0
 10
2.747105905707025
 20
2.943464754198413
 30
0.0
 10
2.754262056672724
 20
2.94034730258386
 30
0.0
 10
2.77003514256132
 20
2.935148759214026
 30
0.0
 10
2.77841912478809
 20
2.93315442120459
 30
0.0
 10
2.795857804719046
 20
2.93043946828618
 30
0.0
 10
2.80509867569911
 20
2.929713705397258
 30
0.0
 10
2.823286169451393
 20
2.929651351909686
 30
0.0
 10
2.832453256699837
 20
2.930300707180308
 30
0.0
 10
2.850118339333676
 20
2.93292053516927
 30
0.0
 10
2.858503472859261
 20
2.934854331247502
 30
0.0
 10
2.882384824028662
 20
2.942522705221781
 30
0.0
 10
2.895663051077594
 20
2.949894510346244
 30
0.0
 10
2.915998386134156
 20
2.967513875968121
 30
0.0
 10
2.923153782534492
 20
2.977817168402844
 30
0.0
 10
2.931863934130647
 20
2.999912759184566
 30
0.0
 10
2.933483827547619
 20
3.011734700877807
 30
0.0
 10
2.932067821987689
 20
3.035991512403225
 30
0.0
 10
2.929032661609054
 20
3.04844898540203
 30
0.0
 10
2.918776774941306
 20
3.073006851816611
 30
0.0
 10
2.911445366061593
 20
3.085352582387042
 30
0.0
 10
2.892400586976631
 20
3.108237365027673
 30
0.0
 10
2.88045245800643
 20
3.119123887529855
 30
0.0
 10
2.858464975535895
 20
3.131709781310999
 30
0.0
 10
2.850385845097504
 20
3.135275672692454
 30
0.0
 10
2.83327027556628
 20
3.14021920560546
 30
0.0
 10
2.824074575912702
 20
3.141614695885946
 30
0.0
 10
2.796326087462111
 20
3.141614695885946
 30
0.0
  0
SPLINE
  5
E8
330
1F
100
AcDbEntity
  8
0
  6
CONTINUOUS
 62
     7
100
AcDbSpline
210
0.0
220
0.0
230
1.0
 70
     8
 71
     3
 72
    64
 73
    60
 74
     0
 42
0.00000001
 43
0.00000001
 40
0.0
 40
0.0
 40
0.0
 40
0.0
 40
0.03125
 40
0.03125
 40
0.0624999999999999
 40
0.0624999999999999
 40
0.0937499999999999
 40
0.0937499999999999
 40
0.1249999999999998
 40
0.1249999999999998
 40
0.1562499999999998
 40
0.1562499999999998
 40
0.1874999999999998
 40
0.1874999999999998
 40
0.2499999999999995
 40
0.2499999999999995
 40
0.3124999999999993
 40
0.3124999999999993
 40
0.3437499999999993
 40
0.3437499999999993
 40
0.3749999999999992
 40
0.3749999999999992
 40
0.4062499999999992
 40
0.4062499999999992
 40
0.4374999999999992
 40
0.4374999999999992
 40
0.4687499999999992
 40
0.4687499999999992
 40
0.4999999999999993
 40
0.4999999999999993
 40
0.5312499999999993
 40
0.5312499999999993
 40
0.5624999999999993
 40
0.5624999999999993
 40
0.5937499999999994
 40
0.5937499999999994
 40
0.6249999999999994
 40
0.6249999999999994
 40
0.6562499999999996
 40
0.6562499999999996
 40
0.6874999999999997
 40
0.6874999999999997
 40
0.7187499999999997
 40
0.7187499999999997
 40
0.7499999999999999
 40
0.7499999999999999
 40
0.8125
 40
0.8125
 40
0.8437500000000001
 40
0.8437500000000001
 40
0.8750000000000001
 40
0.8750000000000001
 40
0.9062500000000001
 40
0.9062500000000001
 40
0.9375000000000001
 40
0.9375000000000001
 40
0.96875
 40
0.96875
 40
1.0
 40
1.0
 40
1.0
 40
1.0
 10
3.911901434431459
 20
4.250804270644015
 30
0.0
 10
3.924634040138719
 20
4.258756935768487
 30
0.0
 10
3.93587953111307
 20
4.267776304470052
 30
0.0
 10
3.956585568123769
 20
4.286941694716686
 30
0.0
 10
3.966019585782864
 20
4.29710898079686
 30
0.0
 10
3.983504900933646
 20
4.318191235175457
 30
0.0
 10
3.991560023404156
 20
4.329143881800858
 30
0.0
 10
4.006102883905054
 20
4.351043464038594
 30
0.0
 10
4.012649533900102
 20
4.362061881229542
 30
0.0
 10
4.024430123410071
 20
4.384145795283481
 30
0.0
 10
4.029662409436858
 20
4.395212127142479
 30
0.0
 10
4.038800918015606
 20
4.41735015053567
 30
0.0
 10
4.042722294099168
 20
4.428489495624912
 30
0.0
 10
4.052113721619571
 20
4.461187245897182
 30
0.0
 10
4.055353147818013
 20
4.482131572169703
 30
0.0
 10
4.05454617778472
 20
4.522281402970074
 30
0.0
 10
4.050317850039415
 20
4.541613889700939
 30
0.0
 10
4.036944914717138
 20
4.567376137710112
 30
0.0
 10
4.031250208012015
 20
4.575575612166809
 30
0.0
 10
4.01734960293505
 20
4.590735492595311
 30
0.0
 10
4.00925102458835
 20
4.597615373285133
 30
0.0
 10
3.990584704828825
 20
4.610083815382642
 30
0.0
 10
3.979882561651881
 20
4.61572818406818
 30
0.0
 10
3.956223510132429
 20
4.625474582272489
 30
0.0
 10
3.943495464489512
 20
4.629514275665576
 30
0.0
 10
3.916192280367636
 20
4.636093273652135
 30
0.0
 10
3.90141680182747
 20
4.638640747572311
 30
0.0
 10
3.871450254479073
 20
4.642020471677154
 30
0.0
 10
3.85613619794163
 20
4.642905827788526
 30
0.0
 10
3.824813686396698
 20
4.643049187012554
 30
0.0
 10
3.809418049717481
 20
4.64230230195701
 30
0.0
 10
3.779257128459474
 20
4.639195402918355
 30
0.0
 10
3.764387063405736
 20
4.636792279227932
 30
0.0
 10
3.736713286934501
 20
4.63045925174285
 30
0.0
 10
3.723616032944455
 20
4.626479027601668
 30
0.0
 10
3.699560363120191
 20
4.616943888255206
 30
0.0
 10
3.688781274788617
 20
4.611479079406361
 30
0.0
 10
3.669501010095538
 20
4.599059988475296
 30
0.0
 10
3.661047489376521
 20
4.592096425118874
 30
0.0
 10
3.646863932857232
 20
4.577134878874753
 30
0.0
 10
3.641011112454016
 20
4.569038649649634
 30
0.0
 10
3.631685721877667
 20
4.551774316475466
 30
0.0
 10
3.628271034264531
 20
4.542740630152445
 30
0.0
 10
3.623571573876766
 20
4.523865089340335
 30
0.0
 10
3.622290837304486
 20
4.513953020943258
 30
0.0
 10
3.62137346130972
 20
4.483544604781438
 30
0.0
 10
3.624522664571352
 20
4.462470390389272
 30
0.0
 10
3.633777549962542
 20
4.429685773876916
 30
0.0
 10
3.637657877821173
 20
4.418520414348337
 30
0.0
 10
3.646749211615185
 20
4.396276973013611
 30
0.0
 10
3.651968864367136
 20
4.385149138066534
 30
0.0
 10
3.663747718014388
 20
4.36292468564652
 30
0.0
 10
3.67030516663464
 20
4.351827222650551
 30
0.0
 10
3.684898527088596
 20
4.329751546207922
 30
0.0
 10
3.692932742006389
 20
4.318786831841461
 30
0.0
 10
3.710403413667108
 20
4.297634452261232
 30
0.0
 10
3.719867103486513
 20
4.287382804450909
 30
0.0
 10
3.740789158266229
 20
4.267953718463766
 30
0.0
 10
3.752299810332743
 20
4.258732204195082
 30
0.0
 10
3.764992819581741
 20
4.250804270644015
 30
0.0
  0
SPLINE
  5
E9
330
1F
100
AcDbEntity
  8
0
  6
CONTINUOUS
 62
     7
100
AcDbSpline
210
0.0
220
0.0
230
1.0
 70
     8
 71
     3
 72
    46
 73
    42
 74
     0
 42
0.00000001
 43
0.00000001
 40
-0.0312500000000002
 40
-0.0312500000000002
 40
0.0
 40
0.0
 40
0.0624999999999998
 40
0.0624999999999998
 40
0.1249999999999996
 40
0.1249999999999996
 40
0.1874999999999994
 40
0.1874999999999994
 40
0.2499999999999993
 40
0.2499999999999993
 40
0.3124999999999992
 40
0.3124999999999992
 40
0.3749999999999991
 40
0.3749999999999991
 40
0.4062499999999991
 40
0.4062499999999991
 40
0.4374999999999991
 40
0.4374999999999991
 40
0.4687499999999991
 40
0.4687499999999991
 40
0.4999999999999991
 40
0.4999999999999991
 40
0.5312499999999991
 40
0.5312499999999991
 40
0.5624999999999991
 40
0.5624999999999991
 40
0.6249999999999993
 40
0.6249999999999993
 40
0.6874999999999996
 40
0.6874999999999996
 40
0.7499999999999996
 40
0.7499999999999996
 40
0.8124999999999996
 40
0.8124999999999996
 40
0.8749999999999996
 40
0.8749999999999996
 40
0.9374999999999996
 40
0.9374999999999996
 40
0.9687499999999998
 40
0.9687499999999998
 40
1.0
 40
1.0
 40
1.0625
 40
1.0625
 10
3.829197630856403
 20
3.141614695885946
 30
0.0
 10
3.856946119306994
 20
3.141614695885946
 30
0.0
 10
3.874479429145779
 20
3.136021646181119
 30
0.0
 10
3.903905391771396
 20
3.119262854909121
 30
0.0
 10
3.915748166146498
 20
3.10852427827295
 30
0.0
 10
3.935004466254961
 20
3.085470371496225
 30
0.0
 10
3.942175577469055
 20
3.073428784311444
 30
0.0
 10
3.952551808119284
 20
3.048804512877473
 30
0.0
 10
3.955604614308915
 20
3.036390140815608
 30
0.0
 10
3.957132643504155
 20
3.01229644512564
 30
0.0
 10
3.955573774714049
 20
3.000391799949962
 30
0.0
 10
3.947109687121259
 20
2.978420095712045
 30
0.0
 10
3.940058975422324
 20
2.968056472858487
 30
0.0
 10
3.925039019368965
 20
2.954805608645922
 30
0.0
 10
3.919193555734622
 20
2.950686875315719
 30
0.0
 10
3.90616630106208
 20
2.943464754198413
 30
0.0
 10
3.899010150096381
 20
2.94034730258386
 30
0.0
 10
3.883237064207785
 20
2.935148759214026
 30
0.0
 10
3.874853081981015
 20
2.93315442120459
 30
0.0
 10
3.857414402050059
 20
2.93043946828618
 30
0.0
 10
3.848173531069995
 20
2.929713705397258
 30
0.0
 10
3.829986037317711
 20
2.929651351909686
 30
0.0
 10
3.820818950069269
 20
2.930300707180308
 30
0.0
 10
3.803153867435429
 20
2.93292053516927
 30
0.0
 10
3.794768733909844
 20
2.934854331247502
 30
0.0
 10
3.770887382740443
 20
2.942522705221781
 30
0.0
 10
3.75760915569151
 20
2.949894510346244
 30
0.0
 10
3.737273820634949
 20
2.967513875968121
 30
0.0
 10
3.730118424234612
 20
2.977817168402844
 30
0.0
 10
3.721408272638458
 20
2.999912759184566
 30
0.0
 10
3.719788379221486
 20
3.011734700877807
 30
0.0
 10
3.721204384781415
 20
3.035991512403225
 30
0.0
 10
3.724239545160051
 20
3.04844898540203
 30
0.0
 10
3.734495431827799
 20
3.073006851816611
 30
0.0
 10
3.741826840707513
 20
3.085352582387042
 30
0.0
 10
3.760871619792474
 20
3.108237365027673
 30
0.0
 10
3.772819748762675
 20
3.119123887529855
 30
0.0
 10
3.79480723123321
 20
3.131709781310999
 30
0.0
 10
3.802886361671602
 20
3.135275672692454
 30
0.0
 10
3.820001931202825
 20
3.14021920560546
 30
0.0
 10
3.829197630856403
 20
3.141614695885946
 30
0.0
 10
3.856946119306994
 20
3.141614695885946
 30
0.0
  0
LINE
  5
EA
330
1F
100
AcDbEntity
  8
0
  6
CONTINUOUS
 62
     7
100
AcDbLine
 10
3.3660061821
 20
3.7882058454
 30
0.0
 11
4.2715179931
 21
3.7882058454
 31
0.0
  0
LINE
  5
EB
330
1F
100
AcDbEntity
  8
0
  6
CONTINUOUS
 62
     7
100
AcDbLine
 10
3.3660061821
 20
3.7882058454
 30
0.0
 11
3.3660061821
 21
4.7429302549
 31
0.0
  0
LINE
  5
EC
330
1F
100
AcDbEntity
  8
0
  6
CONTINUOUS
 62
     7
100
AcDbLine
 10
3.2872660246
 20
4.6221315226
 30
0.0
 11
3.3660061821
 21
4.6221315226
 31
0.0
  0
LINE
  5
ED
330
1F
100
AcDbEntity
  8
0
  6
CONTINUOUS
 62
     7
100
AcDbLine
 10
3.2872660246
 20
4.7429302549
 30
0.0
 11
3.2872660246
 21
3.7882058454
 31
0.0
  0
LINE
  5
EE
330
1F
100
AcDbEntity
  8
0
  6
CONTINUOUS
 62
     7
100
AcDbLine
 10
2.3817542136
 20
3.7882058454
 30
0.0
 11
3.2872660246
 21
3.7882058454
 31
0.0
  0
LINE
  5
EF
330
1F
100
AcDbEntity
  8
0
  6
CONTINUOUS
 62
     7
100
AcDbLine
 10
2.3817542136
 20
3.7291507273
 30
0.0
 11
2.3817542136
 21
2.7744263179
 31
0.0
  0
LINE
  5
F0
330
1F
100
AcDbEntity
  8
0
  6
CONTINUOUS
 62
     7
100
AcDbLine
 10
2.3817542136
 20
4.7429302549
 30
0.0
 11
2.3817542136
 21
3.7882058454
 31
0.0
  0
LINE
  5
F1
330
1F
100
AcDbEntity
  8
0
  6
CONTINUOUS
 62
     7
100
AcDbLine
 10
2.3817542136
 20
3.7291507273
 30
0.0
 11
4.2715179931
 21
3.7291507273
 31
0.0
  0
SPLINE
  5
F2
330
1F
100
AcDbEntity
  8
0
  6
CONTINUOUS
 62
     7
100
AcDbSpline
210
0.0
220
0.0
230
1.0
 70
     8
 71
     3
 72
    64
 73
    60
 74
     0
 42
0.00000001
 43
0.00000001
 40
0.0
 40
0.0
 40
0.0
 40
0.0
 40
0.03125
 40
0.03125
 40
0.0624999999999999
 40
0.0624999999999999
 40
0.0937499999999999
 40
0.0937499999999999
 40
0.1249999999999998
 40
0.1249999999999998
 40
0.1562499999999998
 40
0.1562499999999998
 40
0.1874999999999998
 40
0.1874999999999998
 40
0.2499999999999995
 40
0.2499999999999995
 40
0.3124999999999993
 40
0.3124999999999993
 40
0.3437499999999993
 40
0.3437499999999993
 40
0.3749999999999992
 40
0.3749999999999992
 40
0.4062499999999992
 40
0.4062499999999992
 40
0.4374999999999992
 40
0.4374999999999992
 40
0.4687499999999992
 40
0.4687499999999992
 40
0.4999999999999993
 40
0.4999999999999993
 40
0.5312499999999993
 40
0.5312499999999993
 40
0.5624999999999993
 40
0.5624999999999993
 40
0.5937499999999994
 40
0.5937499999999994
 40
0.6249999999999994
 40
0.6249999999999994
 40
0.6562499999999996
 40
0.6562499999999996
 40
0.6874999999999997
 40
0.6874999999999997
 40
0.7187499999999997
 40
0.7187499999999997
 40
0.7499999999999999
 40
0.7499999999999999
 40
0.8125
 40
0.8125
 40
0.8437500000000001
 40
0.8437500000000001
 40
0.8750000000000001
 40
0.8750000000000001
 40
0.9062500000000001
 40
0.9062500000000001
 40
0.9375000000000001
 40
0.9375000000000001
 40
0.96875
 40
0.96875
 40
1.0
 40
1.0
 40
1.0
 40
1.0
 10
2.741370772337646
 20
4.250804270644015
 30
0.0
 10
2.728638166630386
 20
4.258756935768487
 30
0.0
 10
2.717392675656035
 20
4.267776304470052
 30
0.0
 10
2.696686638645336
 20
4.286941694716686
 30
0.0
 10
2.687252620986241
 20
4.29710898079686
 30
0.0
 10
2.669767305835459
 20
4.318191235175457
 30
0.0
 10
2.661712183364949
 20
4.329143881800858
 30
0.0
 10
2.64716932286405
 20
4.351043464038594
 30
0.0
 10
2.640622672869002
 20
4.362061881229542
 30
0.0
 10
2.628842083359034
 20
4.384145795283481
 30
0.0
 10
2.623609797332247
 20
4.395212127142479
 30
0.0
 10
2.614471288753499
 20
4.41735015053567
 30
0.0
 10
2.610549912669938
 20
4.428489495624912
 30
0.0
 10
2.601158485149535
 20
4.461187245897182
 30
0.0
 10
2.597919058951092
 20
4.482131572169703
 30
0.0
 10
2.598726028984385
 20
4.522281402970074
 30
0.0
 10
2.60295435672969
 20
4.541613889700939
 30
0.0
 10
2.616327292051967
 20
4.567376137710112
 30
0.0
 10
2.622021998757091
 20
4.575575612166809
 30
0.0
 10
2.635922603834055
 20
4.590735492595311
 30
0.0
 10
2.644021182180755
 20
4.597615373285133
 30
0.0
 10
2.66268750194028
 20
4.610083815382642
 30
0.0
 10
2.673389645117224
 20
4.61572818406818
 30
0.0
 10
2.697048696636676
 20
4.625474582272489
 30
0.0
 10
2.709776742279594
 20
4.629514275665576
 30
0.0
 10
2.737079926401469
 20
4.636093273652135
 30
0.0
 10
2.751855404941634
 20
4.638640747572311
 30
0.0
 10
2.781821952290032
 20
4.642020471677154
 30
0.0
 10
2.797136008827475
 20
4.642905827788526
 30
0.0
 10
2.828458520372407
 20
4.643049187012554
 30
0.0
 10
2.843854157051624
 20
4.64230230195701
 30
0.0
 10
2.874015078309631
 20
4.639195402918355
 30
0.0
 10
2.888885143363369
 20
4.636792279227932
 30
0.0
 10
2.916558919834603
 20
4.63045925174285
 30
0.0
 10
2.92965617382465
 20
4.626479027601668
 30
0.0
 10
2.953711843648914
 20
4.616943888255206
 30
0.0
 10
2.964490931980488
 20
4.611479079406361
 30
0.0
 10
2.983771196673567
 20
4.599059988475296
 30
0.0
 10
2.992224717392584
 20
4.592096425118874
 30
0.0
 10
3.006408273911873
 20
4.577134878874753
 30
0.0
 10
3.012261094315089
 20
4.569038649649634
 30
0.0
 10
3.021586484891438
 20
4.551774316475466
 30
0.0
 10
3.025001172504574
 20
4.542740630152445
 30
0.0
 10
3.029700632892339
 20
4.523865089340335
 30
0.0
 10
3.030981369464619
 20
4.513953020943258
 30
0.0
 10
3.031898745459385
 20
4.483544604781438
 30
0.0
 10
3.028749542197753
 20
4.462470390389272
 30
0.0
 10
3.019494656806564
 20
4.429685773876916
 30
0.0
 10
3.015614328947932
 20
4.418520414348337
 30
0.0
 10
3.00652299515392
 20
4.396276973013611
 30
0.0
 10
3.001303342401969
 20
4.385149138066534
 30
0.0
 10
2.989524488754717
 20
4.36292468564652
 30
0.0
 10
2.982967040134465
 20
4.351827222650551
 30
0.0
 10
2.968373679680509
 20
4.329751546207922
 30
0.0
 10
2.960339464762716
 20
4.318786831841461
 30
0.0
 10
2.942868793101998
 20
4.297634452261232
 30
0.0
 10
2.933405103282592
 20
4.287382804450909
 30
0.0
 10
2.912483048502875
 20
4.267953718463766
 30
0.0
 10
2.900972396436362
 20
4.258732204195082
 30
0.0
 10
2.888279387187364
 20
4.250804270644015
 30
0.0
  0
LINE
  5
F3
330
1F
100
AcDbEntity
  8
0
  6
CONTINUOUS
 62
     7
100
AcDbLine
 10
2.3423841349
 20
3.7882058454
 30
0.0
 11
2.3423841349
 21
4.7035601762
 31
0.0
  0
LINE
  5
F4
330
1F
100
AcDbEntity
  8
0
  6
CONTINUOUS
 62
     7
100
AcDbLine
 10
2.3423841349
 20
2.8137963966
 30
0.0
 11
2.3423841349
 21
3.7291507273
 31
0.0
  0
LINE
  5
F5
330
1F
100
AcDbEntity
  8
0
  6
CONTINUOUS
 62
     7
100
AcDbLine
 10
2.3423841349
 20
3.7291507273
 30
0.0
 11
2.3817542136
 21
3.7291507273
 31
0.0
  0
LINE
  5
F6
330
1F
100
AcDbEntity
  8
0
  6
CONTINUOUS
 62
     7
100
AcDbLine
 10
2.3817542136
 20
3.7882058454
 30
0.0
 11
2.3423841349
 21
3.7882058454
 31
0.0
  0
LINE
  5
F7
330
1F
100
AcDbEntity
  8
0
  6
CONTINUOUS
 62
     7
100
AcDbLine
 10
2.3423841349
 20
3.7291507273
 30
0.0
 11
2.3423841349
 21
3.7882058454
 31
0.0
  0
LINE
  5
F8
330
1F
100
AcDbEntity
  8
0
  6
CONTINUOUS
 62
     7
100
AcDbLine
 10
4.3108880719
 20
3.7291507273
 30
0.0
 11
4.3108880719
 21
3.7882058454
 31
0.0
  0
LINE
  5
F9
330
1F
100
AcDbEntity
  8
0
  6
CONTINUOUS
 62
     7
100
AcDbLine
 10
3.838447127
 20
4.2508042706
 30
0.0
 11
3.9119014344
 21
4.2508042706
 31
0.0
  0
LINE
  5
FA
330
1F
100
AcDbEntity
  8
0
  6
CONTINUOUS
 62
     7
100
AcDbLine
 10
3.7646005534
 20
4.2508042706
 30
0.0
 11
3.838447127
 21
4.2508042706
 31
0.0
  0
LINE
  5
FB
330
1F
100
AcDbEntity
  8
0
  6
CONTINUOUS
 62
     7
100
AcDbLine
 10
3.838447127
 20
4.4870247431
 30
0.0
 11
4.0352975207
 21
4.4870247431
 31
0.0
  0
LINE
  5
FC
330
1F
100
AcDbEntity
  8
0
  6
CONTINUOUS
 62
     7
100
AcDbLine
 10
3.6415967333
 20
4.4870247431
 30
0.0
 11
3.838447127
 21
4.4870247431
 31
0.0
  0
LINE
  5
FD
330
1F
100
AcDbEntity
  8
0
  6
CONTINUOUS
 62
     7
100
AcDbLine
 10
2.8148250798
 20
4.4870247431
 30
0.0
 11
2.6179746861
 21
4.4870247431
 31
0.0
  0
LINE
  5
FE
330
1F
100
AcDbEntity
  8
0
  6
CONTINUOUS
 62
     7
100
AcDbLine
 10
3.0116754735
 20
4.4870247431
 30
0.0
 11
2.8148250798
 21
4.4870247431
 31
0.0
  0
LINE
  5
FF
330
1F
100
AcDbEntity
  8
0
  6
CONTINUOUS
 62
     7
100
AcDbLine
 10
2.8148250798
 20
4.2508042706
 30
0.0
 11
2.7410470825
 21
4.2508042706
 31
0.0
  0
LINE
  5
100
330
1F
100
AcDbEntity
  8
0
  6
CONTINUOUS
 62
     7
100
AcDbLine
 10
2.8886716534
 20
4.2508042706
 30
0.0
 11
2.8148250798
 21
4.2508042706
 31
0.0
  0
LINE
  5
101
330
1F
100
AcDbEntity
  8
0
  6
CONTINUOUS
 62
     8
100
AcDbLine
 10
3.838447127
 20
4.4673397037
 30
0.0
 11
3.6219116939
 21
4.4673397037
 31
0.0
  0
LINE
  5
102
330
1F
100
AcDbEntity
  8
0
  6
CONTINUOUS
 62
     8
100
AcDbLine
 10
4.0522399892
 20
4.4673397037
 30
0.0
 11
3.838447127
 21
4.4673397037
 31
0.0
  0
LINE
  5
103
330
1F
100
AcDbEntity
  8
0
  6
CONTINUOUS
 62
     8
100
AcDbLine
 10
2.8148250798
 20
4.4673397037
 30
0.0
 11
3.0313605128
 21
4.4673397037
 31
0.0
  0
LINE
  5
104
330
1F
100
AcDbEntity
  8
0
  6
CONTINUOUS
 62
     8
100
AcDbLine
 10
2.6010322176
 20
4.4673397037
 30
0.0
 11
2.8148250798
 21
4.4673397037
 31
0.0
  0
LINE
  5
105
330
1F
100
AcDbEntity
  8
0
  6
HIDDEN
 62
     7
100
AcDbLine
 10
4.2715179931
 20
3.7882058454
 30
0.0
 11
4.2715179931
 21
3.7291507273
 31
0.0
  0
LINE
  5
106
330
1F
100
AcDbEntity
  8
0
  6
HIDDEN
 62
     7
100
AcDbLine
 10
2.3817542136
 20
3.7291507273
 30
0.0
 11
2.3817542136
 21
3.7882058454
 31
0.0
  0
LINE
  5
107
330
1F
100
AcDbEntity
  8
0
  6
HIDDEN
 62
     7
100
AcDbLine
 10
3.9119014344
 20
4.2508042706
 30
0.0
 11
4.0549825601
 21
4.2508042706
 31
0.0
  0
LINE
  5
108
330
1F
100
AcDbEntity
  8
0
  6
HIDDEN
 62
     7
100
AcDbLine
 10
3.6219116939
 20
4.2508042706
 30
0.0
 11
3.7649928196
 21
4.2508042706
 31
0.0
  0
LINE
  5
109
330
1F
100
AcDbEntity
  8
0
  6
HIDDEN
 62
     7
100
AcDbLine
 10
2.7413707723
 20
4.2508042706
 30
0.0
 11
2.5982896467
 21
4.2508042706
 31
0.0
  0
LINE
  5
10A
330
1F
100
AcDbEntity
  8
0
  6
HIDDEN
 62
     7
100
AcDbLine
 10
3.0313605128
 20
4.2508042706
 30
0.0
 11
2.8882793872
 21
4.2508042706
 31
0.0
  0
LINE
  5
10B
330
1F
100
AcDbEntity
  8
0
  6
HIDDEN
 62
     7
100
AcDbLine
 10
3.6219116939
 20
4.2508042706
 30
0.0
 11
3.7646005534
 21
4.2508042706
 31
0.0
  0
LINE
  5
10C
330
1F
100
AcDbEntity
  8
0
  6
HIDDEN
 62
     7
100
AcDbLine
 10
3.9565573632
 20
3.2862373415
 30
0.0
 11
3.7203368908
 21
3.2862373415
 31
0.0
  0
LINE
  5
10D
330
1F
100
AcDbEntity
  8
0
  6
HIDDEN
 62
     7
100
AcDbLine
 10
3.9368723239
 20
3.2665523021
 30
0.0
 11
3.7400219302
 21
3.2665523021
 31
0.0
  0
LINE
  5
10E
330
1F
100
AcDbEntity
  8
0
  6
HIDDEN
 62
     7
100
AcDbLine
 10
3.7400219302
 20
4.2901743494
 30
0.0
 11
3.838447127
 21
4.2901743494
 31
0.0
  0
LINE
  5
10F
330
1F
100
AcDbEntity
  8
0
  6
HIDDEN
 62
     7
100
AcDbLine
 10
3.838447127
 20
4.2901743494
 30
0.0
 11
3.9368723239
 21
4.2901743494
 31
0.0
  0
LINE
  5
110
330
1F
100
AcDbEntity
  8
0
  6
HIDDEN
 62
     7
100
AcDbLine
 10
3.838447127
 20
4.2901743494
 30
0.0
 11
3.838447127
 21
4.4870247431
 31
0.0
  0
LINE
  5
111
330
1F
100
AcDbEntity
  8
0
  6
HIDDEN
 62
     7
100
AcDbLine
 10
3.9368723239
 20
4.2901743494
 30
0.0
 11
3.9368723239
 21
4.4870247431
 31
0.0
  0
LINE
  5
112
330
1F
100
AcDbEntity
  8
0
  6
HIDDEN
 62
     7
100
AcDbLine
 10
3.7400219302
 20
4.2901743494
 30
0.0
 11
3.7400219302
 21
4.4870247431
 31
0.0
  0
LINE
  5
113
330
1F
100
AcDbEntity
  8
0
  6
HIDDEN
 62
     7
100
AcDbLine
 10
2.7410470825
 20
4.2508042706
 30
0.0
 11
2.5982896467
 21
4.2508042706
 31
0.0
  0
LINE
  5
114
330
1F
100
AcDbEntity
  8
0
  6
HIDDEN
 62
     7
100
AcDbLine
 10
3.0313605128
 20
4.2508042706
 30
0.0
 11
2.8886716534
 21
4.2508042706
 31
0.0
  0
LINE
  5
115
330
1F
100
AcDbEntity
  8
0
  6
HIDDEN
 62
     7
100
AcDbLine
 10
2.6967148435
 20
3.2862373415
 30
0.0
 11
2.932935316
 21
3.2862373415
 31
0.0
  0
LINE
  5
116
330
1F
100
AcDbEntity
  8
0
  6
HIDDEN
 62
     7
100
AcDbLine
 10
2.7163998829
 20
3.2665523021
 30
0.0
 11
2.9132502766
 21
3.2665523021
 31
0.0
  0
LINE
  5
117
330
1F
100
AcDbEntity
  8
0
  6
HIDDEN
 62
     7
100
AcDbLine
 10
2.9132502766
 20
4.2901743494
 30
0.0
 11
2.8148250798
 21
4.2901743494
 31
0.0
  0
LINE
  5
118
330
1F
100
AcDbEntity
  8
0
  6
HIDDEN
 62
     7
100
AcDbLine
 10
2.8148250798
 20
4.2901743494
 30
0.0
 11
2.7163998829
 21
4.2901743494
 31
0.0
  0
LINE
  5
119
330
1F
100
AcDbEntity
  8
0
  6
HIDDEN
 62
     7
100
AcDbLine
 10
2.8148250798
 20
4.2901743494
 30
0.0
 11
2.8148250798
 21
4.4870247431
 31
0.0
  0
LINE
  5
11A
330
1F
100
AcDbEntity
  8
0
  6
HIDDEN
 62
     7
100
AcDbLine
 10
2.7163998829
 20
4.2901743494
 30
0.0
 11
2.7163998829
 21
4.4870247431
 31
0.0
  0
LINE
  5
11B
330
1F
100
AcDbEntity
  8
0
  6
HIDDEN
 62
     7
100
AcDbLine
 10
2.9132502766
 20
4.2901743494
 30
0.0
 11
2.9132502766
 21
4.4870247431
 31
0.0
  0
LINE
  5
11C
330
1F
100
AcDbEntity
  8
0
  6
HIDDEN
 62
     7
100
AcDbLine
 10
4.0549825601
 20
4.2508042706
 30
0.0
 11
4.0549825601
 21
4.4986756664
 31
0.0
  0
LINE
  5
11D
330
1F
100
AcDbEntity
  8
0
  6
HIDDEN
 62
     7
100
AcDbLine
 10
3.6219116939
 20
4.4985979215
 30
0.0
 11
3.6219116939
 21
4.2508042706
 31
0.0
  0
LINE
  5
11E
330
1F
100
AcDbEntity
  8
0
  6
HIDDEN
 62
     7
100
AcDbLine
 10
3.0313605128
 20
4.2508042706
 30
0.0
 11
3.0313605128
 21
4.4985979215
 31
0.0
  0
LINE
  5
11F
330
1F
100
AcDbEntity
  8
0
  6
HIDDEN
 62
     7
100
AcDbLine
 10
2.5982896467
 20
4.4986756664
 30
0.0
 11
2.5982896467
 21
4.2508042706
 31
0.0
  0
LINE
  5
120
330
1F
100
AcDbEntity
  8
0
  6
HIDDEN
 62
     7
100
AcDbLine
 10
3.7203368908
 20
4.2508042706
 30
0.0
 11
3.7203368908
 21
3.7882058454
 31
0.0
  0
LINE
  5
121
330
1F
100
AcDbEntity
  8
0
  6
HIDDEN
 62
     7
100
AcDbLine
 10
3.9565573632
 20
3.7882058454
 30
0.0
 11
3.9565573632
 21
4.2508042706
 31
0.0
  0
LINE
  5
122
330
1F
100
AcDbEntity
  8
0
  6
HIDDEN
 62
     7
100
AcDbLine
 10
2.6967148435
 20
4.2508042706
 30
0.0
 11
2.6967148435
 21
3.7882058454
 31
0.0
  0
LINE
  5
123
330
1F
100
AcDbEntity
  8
0
  6
HIDDEN
 62
     7
100
AcDbLine
 10
2.932935316
 20
3.7882058454
 30
0.0
 11
2.932935316
 21
4.2508042706
 31
0.0
  0
LINE
  5
124
330
1F
100
AcDbEntity
  8
0
  6
HIDDEN
 62
     7
100
AcDbLine
 10
2.6967148435
 20
3.7291507273
 30
0.0
 11
2.6967148435
 21
3.0186310467
 31
0.0
  0
LINE
  5
125
330
1F
100
AcDbEntity
  8
0
  6
HIDDEN
 62
     7
100
AcDbLine
 10
2.932935316
 20
3.0185348823
 30
0.0
 11
2.932935316
 21
3.7291507273
 31
0.0
  0
LINE
  5
126
330
1F
100
AcDbEntity
  8
0
  6
HIDDEN
 62
     7
100
AcDbLine
 10
3.7203368908
 20
3.7291507273
 30
0.0
 11
3.7203368908
 21
3.0185348823
 31
0.0
  0
LINE
  5
127
330
1F
100
AcDbEntity
  8
0
  6
HIDDEN
 62
     7
100
AcDbLine
 10
3.9565573632
 20
3.0186310467
 30
0.0
 11
3.9565573632
 21
3.7291507273
 31
0.0
  0
LINE
  5
128
330
1F
100
AcDbEntity
  8
0
  6
HIDDEN
 62
     7
100
AcDbLine
 10
2.3423841349
 20
3.4043475777
 30
0.0
 11
2.3817542136
 21
3.4437176565
 31
0.0
  0
LINE
  5
129
330
1F
100
AcDbEntity
  8
0
  6
HIDDEN
 62
     7
100
AcDbLine
 10
2.3817542136
 20
4.0736389163
 30
0.0
 11
2.3423841349
 21
4.1130089951
 31
0.0
  0
LINE
  5
12A
330
1F
100
AcDbEntity
  8
0
  6
HIDDEN
 62
     7
100
AcDbLine
 10
4.2715179931
 20
3.4437176565
 30
0.0
 11
4.3108880719
 21
3.4043475777
 31
0.0
  0
LINE
  5
12B
330
1F
100
AcDbEntity
  8
0
  6
HIDDEN
 62
     7
100
AcDbLine
 10
4.3108880719
 20
4.1130089951
 30
0.0
 11
4.2715179931
 21
4.0736389163
 31
0.0
  0
LINE
  5
12C
330
1F
100
AcDbEntity
  8
0
  6
HIDDEN
 62
     7
100
AcDbLine
 10
3.2872660246
 20
4.0736389163
 30
0.0
 11
2.3817542136
 21
4.0736389163
 31
0.0
  0
LINE
  5
12D
330
1F
100
AcDbEntity
  8
0
  6
HIDDEN
 62
     7
100
AcDbLine
 10
4.2715179931
 20
4.0736389163
 30
0.0
 11
3.3660061821
 21
4.0736389163
 31
0.0
  0
LINE
  5
12E
330
1F
100
AcDbEntity
  8
0
  6
HIDDEN
 62
     7
100
AcDbLine
 10
2.3817542136
 20
3.4437176565
 30
0.0
 11
4.2715179931
 21
3.4437176565
 31
0.0
  0
LINE
  5
12F
330
1F
100
AcDbEntity
  8
0
  6
HIDDEN
 62
     7
100
AcDbLine
 10
4.0549825601
 20
4.2508042706
 30
0.0
 11
4.0549825601
 21
4.4673397037
 31
0.0
  0
LINE
  5
130
330
1F
100
AcDbEntity
  8
0
  6
HIDDEN
 62
     7
100
AcDbLine
 10
3.6219116939
 20
4.4673397037
 30
0.0
 11
3.6219116939
 21
4.2508042706
 31
0.0
  0
ARC
  5
131
330
1F
100
AcDbEntity
  8
0
  6
HIDDEN
 62
     7
100
AcDbCircle
 10
3.6415967333
 20
4.4673397037
 30
0.0
 40
0.0196850393700791
100
AcDbArc
 50
155.2813866035
 51
180.0
  0
ARC
  5
132
330
1F
100
AcDbEntity
  8
0
  6
HIDDEN
 62
     7
100
AcDbCircle
 10
4.0352975207
 20
4.4673397037
 30
0.0
 40
0.019685039370079
100
AcDbArc
 50
0.0
 51
26.6170729164
  0
ARC
  5
133
330
1F
100
AcDbEntity
  8
0
  6
HIDDEN
 62
     7
100
AcDbCircle
 10
3.9368723239
 20
3.2862373415
 30
0.0
 40
0.0196850393700787
100
AcDbArc
 50
270.0
 51
0.0
  0
ARC
  5
134
330
1F
100
AcDbEntity
  8
0
  6
HIDDEN
 62
     7
100
AcDbCircle
 10
3.7400219302
 20
3.2862373415
 30
0.0
 40
0.0196850393700787
100
AcDbArc
 50
180.0
 51
270.0
  0
LINE
  5
135
330
1F
100
AcDbEntity
  8
0
  6
HIDDEN
 62
     7
100
AcDbLine
 10
3.7203368908
 20
4.2508042706
 30
0.0
 11
3.7203368908
 21
3.7882058454
 31
0.0
  0
LINE
  5
136
330
1F
100
AcDbEntity
  8
0
  6
HIDDEN
 62
     7
100
AcDbLine
 10
3.7203368908
 20
3.7291507273
 30
0.0
 11
3.7203368908
 21
3.2862373415
 31
0.0
  0
LINE
  5
137
330
1F
100
AcDbEntity
  8
0
  6
HIDDEN
 62
     7
100
AcDbLine
 10
3.9565573632
 20
3.2862373415
 30
0.0
 11
3.9565573632
 21
3.7291507273
 31
0.0
  0
LINE
  5
138
330
1F
100
AcDbEntity
  8
0
  6
HIDDEN
 62
     7
100
AcDbLine
 10
3.9565573632
 20
3.7882058454
 30
0.0
 11
3.9565573632
 21
4.2508042706
 31
0.0
  0
ARC
  5
139
330
1F
100
AcDbEntity
  8
0
  6
HIDDEN
 62
     7
100
AcDbCircle
 10
2.6179746861
 20
4.4673397037
 30
0.0
 40
0.019685039370079
100
AcDbArc
 50
154.0300246759
 51
180.0
  0
ARC
  5
13A
330
1F
100
AcDbEntity
  8
0
  6
HIDDEN
 62
     7
100
AcDbCircle
 10
3.0116754735
 20
4.4673397037
 30
0.0
 40
0.0196850393700787
100
AcDbArc
 50
0.0
 51
25.4023312768
  0
LINE
  5
13B
330
1F
100
AcDbEntity
  8
0
  6
HIDDEN
 62
     7
100
AcDbLine
 10
3.0313605128
 20
4.2508042706
 30
0.0
 11
3.0313605128
 21
4.4673397037
 31
0.0
  0
LINE
  5
13C
330
1F
100
AcDbEntity
  8
0
  6
HIDDEN
 62
     7
100
AcDbLine
 10
2.5982896467
 20
4.4673397037
 30
0.0
 11
2.5982896467
 21
4.2508042706
 31
0.0
  0
ARC
  5
13D
330
1F
100
AcDbEntity
  8
0
  6
HIDDEN
 62
     7
100
AcDbCircle
 10
2.9132502766
 20
3.2862373415
 30
0.0
 40
0.0196850393700787
100
AcDbArc
 50
270.0
 51
0.0
  0
ARC
  5
13E
330
1F
100
AcDbEntity
  8
0
  6
HIDDEN
 62
     7
100
AcDbCircle
 10
2.7163998829
 20
3.2862373415
 30
0.0
 40
0.0196850393700787
100
AcDbArc
 50
180.0
 51
270.0
  0
LINE
  5
13F
330
1F
100
AcDbEntity
  8
0
  6
HIDDEN
 62
     7
100
AcDbLine
 10
2.6967148435
 20
4.2508042706
 30
0.0
 11
2.6967148435
 21
3.7882058454
 31
0.0
  0
LINE
  5
140
330
1F
100
AcDbEntity
  8
0
  6
HIDDEN
 62
     7
100
AcDbLine
 10
2.6967148435
 20
3.7291507273
 30
0.0
 11
2.6967148435
 21
3.2862373415
 31
0.0
  0
LINE
  5
141
330
1F
100
AcDbEntity
  8
0
  6
HIDDEN
 62
     7
100
AcDbLine
 10
2.932935316
 20
3.2862373415
 30
0.0
 11
2.932935316
 21
3.7291507273
 31
0.0
  0
LINE
  5
142
330
1F
100
AcDbEntity
  8
0
  6
HIDDEN
 62
     7
100
AcDbLine
 10
2.932935316
 20
3.7882058454
 30
0.0
 11
2.932935316
 21
4.2508042706
 31
0.0
  0
LINE
  5
143
330
1F
100
AcDbEntity
  8
0
  6
HIDDEN
 62
     7
100
AcDbLine
 10
3.6219116939
 20
4.4673397037
 30
0.0
 11
4.0549825601
 21
4.4673397037
 31
0.0
  0
LINE
  5
144
330
1F
100
AcDbEntity
  8
0
  6
HIDDEN
 62
     7
100
AcDbLine
 10
3.0313605128
 20
4.4673397037
 30
0.0
 11
2.5982896467
 21
4.4673397037
 31
0.0
  0
LINE
  5
145
330
1F
100
AcDbEntity
  8
0
  6
CONTINUOUS
 62
     7
100
AcDbLine
 10
7.3854364535
 20
4.4673397037
 30
0.0
 11
7.3854364535
 21
4.2508042706
 31
0.0
  0
ARC
  5
146
330
1F
100
AcDbEntity
  8
0
  6
CONTINUOUS
 62
     7
100
AcDbCircle
 10
7.4051214929
 20
4.4673397037
 30
0.0
 40
0.0196850393700787
100
AcDbArc
 50
90.0
 51
180.0
  0
LINE
  5
147
330
1F
100
AcDbEntity
  8
0
  6
CONTINUOUS
 62
     7
100
AcDbLine
 10
7.4838616504
 20
3.7882058454
 30
0.0
 11
7.4838616504
 21
3.7291507273
 31
0.0
  0
LINE
  5
148
330
1F
100
AcDbEntity
  8
0
  6
CONTINUOUS
 62
     7
100
AcDbLine
 10
7.7200821228
 20
3.7291507273
 30
0.0
 11
7.7200821228
 21
3.7882058454
 31
0.0
  0
ARC
  5
149
330
1F
100
AcDbEntity
  8
0
  6
CONTINUOUS
 62
     7
100
AcDbCircle
 10
8.2506630998
 20
3.7586782864
 30
0.0
 40
0.9448818897637798
100
AcDbArc
 50
181.7907846593
 51
178.2092153407
  0
LINE
  5
14A
330
1F
100
AcDbEntity
  8
0
  6
CONTINUOUS
 62
     7
100
AcDbLine
 10
7.3062426908
 20
3.7882058454
 30
0.0
 11
7.2668541444
 21
3.7882058454
 31
0.0
  0
ARC
  5
14B
330
1F
100
AcDbEntity
  8
0
  6
CONTINUOUS
 62
     7
100
AcDbCircle
 10
8.2506630998
 20
3.7586782864
 30
0.0
 40
0.9842519685039366
100
AcDbArc
 50
181.7191313209
 51
178.2808686791
  0
LINE
  5
14C
330
1F
100
AcDbEntity
  8
0
  6
CONTINUOUS
 62
     7
100
AcDbLine
 10
7.2668541444
 20
3.7291507273
 30
0.0
 11
7.3062426908
 21
3.7291507273
 31
0.0
  0
LINE
  5
14D
330
1F
100
AcDbEntity
  8
0
  6
CONTINUOUS
 62
     7
100
AcDbLine
 10
8.7231040447
 20
3.7291507273
 30
0.0
 11
8.7231040447
 21
3.7882058454
 31
0.0
  0
LINE
  5
14E
330
1F
100
AcDbEntity
  8
0
  6
CONTINUOUS
 62
     7
100
AcDbLine
 10
8.7231040447
 20
3.7882058454
 30
0.0
 11
8.6037613501
 21
3.7882058454
 31
0.0
  0
ARC
  5
14F
330
1F
100
AcDbEntity
  8
0
  6
CONTINUOUS
 62
     7
100
AcDbCircle
 10
8.2506630998
 20
3.7586782864
 30
0.0
 40
0.3543307086614176
100
AcDbArc
 50
4.7801918472
 51
175.2198081528
  0
LINE
  5
150
330
1F
100
AcDbEntity
  8
0
  6
CONTINUOUS
 62
     7
100
AcDbLine
 10
7.8975648495
 20
3.7882058454
 30
0.0
 11
7.3062426908
 21
3.7882058454
 31
0.0
  0
LINE
  5
151
330
1F
100
AcDbEntity
  8
0
  6
CONTINUOUS
 62
     7
100
AcDbLine
 10
7.3062426908
 20
3.7291507273
 30
0.0
 11
7.8975648495
 21
3.7291507273
 31
0.0
  0
ARC
  5
152
330
1F
100
AcDbEntity
  8
0
  6
CONTINUOUS
 62
     7
100
AcDbCircle
 10
8.2506630998
 20
3.7586782864
 30
0.0
 40
0.3543307086614176
100
AcDbArc
 50
184.7801918472
 51
355.2198081528
  0
LINE
  5
153
330
1F
100
AcDbEntity
  8
0
  6
CONTINUOUS
 62
     7
100
AcDbLine
 10
8.6037613501
 20
3.7291507273
 30
0.0
 11
8.7231040447
 21
3.7291507273
 31
0.0
  0
ARC
  5
154
330
1F
100
AcDbEntity
  8
0
  6
CONTINUOUS
 62
     7
100
AcDbCircle
 10
8.2506630998
 20
3.7586782864
 30
0.0
 40
0.3149606299212599
100
AcDbArc
 50
5.3793789911
 51
174.6206210089
  0
SPLINE
  5
155
330
1F
100
AcDbEntity
  8
0
  6
CONTINUOUS
 62
     7
100
AcDbSpline
210
0.0
220
0.0
230
1.0
 70
    24
 71
     3
 72
     8
 73
     4
 74
     0
 42
0.00000001
 43
0.00000001
 40
0.0
 40
0.0
 40
0.0
 40
0.0
 40
0.00070849739462
 40
0.00070849739462
 40
0.00070849739462
 40
0.00070849739462
 10
7.937089628873917
 20
3.788205845447165
 30
0.0
 10
7.923911472783617
 20
3.788205845447165
 30
0.0
 10
7.910736905830107
 20
3.788205845447165
 30
0.0
 10
7.897564849492459
 20
3.788205845447165
 30
0.0
  0
SPLINE
  5
156
330
1F
100
AcDbEntity
  8
0
  6
CONTINUOUS
 62
     7
100
AcDbSpline
210
0.0
220
0.0
230
1.0
 70
    24
 71
     3
 72
     8
 73
     4
 74
     0
 42
0.00000001
 43
0.00000001
 40
0.0
 40
0.0
 40
0.0
 40
0.0
 40
0.00070849739462
 40
0.00070849739462
 40
0.00070849739462
 40
0.00070849739462
 10
8.603761350069314
 20
3.788205845447165
 30
0.0
 10
8.590589293731664
 20
3.788205845447165
 30
0.0
 10
8.577414726778155
 20
3.788205845447165
 30
0.0
 10
8.564236570687854
 20
3.788205845447165
 30
0.0
  0
ARC
  5
157
330
1F
100
AcDbEntity
  8
0
  6
CONTINUOUS
 62
     7
100
AcDbCircle
 10
8.2506630998
 20
3.7586782864
 30
0.0
 40
0.3149606299212599
100
AcDbArc
 50
185.3793789911
 51
354.6206210089
  0
SPLINE
  5
158
330
1F
100
AcDbEntity
  8
0
  6
CONTINUOUS
 62
     7
100
AcDbSpline
210
0.0
220
0.0
230
1.0
 70
    24
 71
     3
 72
     8
 73
     4
 74
     0
 42
0.00000001
 43
0.00000001
 40
0.0
 40
0.0
 40
0.0
 40
0.0
 40
0.00070849739462
 40
0.00070849739462
 40
0.00070849739462
 40
0.00070849739462
 10
7.897564849492459
 20
3.729150727336929
 30
0.0
 10
7.910736905830107
 20
3.729150727336929
 30
0.0
 10
7.923911472783617
 20
3.729150727336929
 30
0.0
 10
7.937089628873917
 20
3.729150727336929
 30
0.0
  0
SPLINE
  5
159
330
1F
100
AcDbEntity
  8
0
  6
CONTINUOUS
 62
     7
100
AcDbSpline
210
0.0
220
0.0
230
1.0
 70
    24
 71
     3
 72
     8
 73
     4
 74
     0
 42
0.00000001
 43
0.00000001
 40
0.0
 40
0.0
 40
0.0
 40
0.0
 40
0.00070849739462
 40
0.00070849739462
 40
0.00070849739462
 40
0.00070849739462
 10
8.564236570687854
 20
3.729150727336929
 30
0.0
 10
8.577414726778155
 20
3.729150727336929
 30
0.0
 10
8.590589293731664
 20
3.729150727336929
 30
0.0
 10
8.603761350069313
 20
3.729150727336929
 30
0.0
  0
LINE
  5
15A
330
1F
100
AcDbEntity
  8
0
  6
CONTINUOUS
 62
     7
100
AcDbLine
 10
7.3854364535
 20
4.2508042706
 30
0.0
 11
7.3982758913
 21
4.2508042706
 31
0.0
  0
LINE
  5
15B
330
1F
100
AcDbEntity
  8
0
  6
CONTINUOUS
 62
     7
100
AcDbLine
 10
7.4051214929
 20
4.4870247431
 30
0.0
 11
7.5886484651
 21
4.4870247431
 31
0.0
  0
LINE
  5
15C
330
1F
100
AcDbEntity
  8
0
  6
CONTINUOUS
 62
     8
100
AcDbLine
 10
7.5676177623
 20
4.4673397037
 30
0.0
 11
7.3854364535
 21
4.4673397037
 31
0.0
  0
LINE
  5
15D
330
1F
100
AcDbEntity
  8
0
  6
HIDDEN
 62
     7
100
AcDbLine
 10
7.3982758913
 20
4.2508042706
 30
0.0
 11
7.8185073197
 21
4.2508042706
 31
0.0
  0
LINE
  5
15E
330
1F
100
AcDbEntity
  8
0
  6
HIDDEN
 62
     7
100
AcDbLine
 10
8.7231040447
 20
3.7882058454
 30
0.0
 11
8.7231040447
 21
4.6221315226
 31
0.0
  0
LINE
  5
15F
330
1F
100
AcDbEntity
  8
0
  6
HIDDEN
 62
     7
100
AcDbLine
 10
7.5886484651
 20
4.4870247431
 30
0.0
 11
7.7988222803
 21
4.4870247431
 31
0.0
  0
LINE
  5
160
330
1F
100
AcDbEntity
  8
0
  6
HIDDEN
 62
     7
100
AcDbLine
 10
7.7200821228
 20
3.2862373415
 30
0.0
 11
7.4838616504
 21
3.2862373415
 31
0.0
  0
LINE
  5
161
330
1F
100
AcDbEntity
  8
0
  6
HIDDEN
 62
     7
100
AcDbLine
 10
7.7003970835
 20
3.2665523021
 30
0.0
 11
7.5035466925
 21
3.2665523021
 31
0.0
  0
LINE
  5
162
330
1F
100
AcDbEntity
  8
0
  6
HIDDEN
 62
     7
100
AcDbLine
 10
7.6587977005
 20
4.2901743494
 30
0.0
 11
7.7156235144
 21
4.2901743494
 31
0.0
  0
LINE
  5
163
330
1F
100
AcDbEntity
  8
0
  6
HIDDEN
 62
     7
100
AcDbLine
 10
7.5451460727
 20
4.2901743494
 30
0.0
 11
7.6587977005
 21
4.2901743494
 31
0.0
  0
LINE
  5
164
330
1F
100
AcDbEntity
  8
0
  6
HIDDEN
 62
     7
100
AcDbLine
 10
7.6587977005
 20
4.2901743494
 30
0.0
 11
7.6587977005
 21
4.4870247431
 31
0.0
  0
LINE
  5
165
330
1F
100
AcDbEntity
  8
0
  6
HIDDEN
 62
     7
100
AcDbLine
 10
7.5451460727
 20
4.2901743494
 30
0.0
 11
7.5451460727
 21
4.4870247431
 31
0.0
  0
LINE
  5
166
330
1F
100
AcDbEntity
  8
0
  6
HIDDEN
 62
     7
100
AcDbLine
 10
7.4883202588
 20
4.2901743494
 30
0.0
 11
7.5451460727
 21
4.2901743494
 31
0.0
  0
LINE
  5
167
330
1F
100
AcDbEntity
  8
0
  6
HIDDEN
 62
     7
100
AcDbLine
 10
7.7156235144
 20
4.2901743494
 30
0.0
 11
7.7156235144
 21
4.4870247431
 31
0.0
  0
LINE
  5
168
330
1F
100
AcDbEntity
  8
0
  6
HIDDEN
 62
     7
100
AcDbLine
 10
7.4883202588
 20
4.2901743494
 30
0.0
 11
7.4883202588
 21
4.4870247431
 31
0.0
  0
LINE
  5
169
330
1F
100
AcDbEntity
  8
0
  6
HIDDEN
 62
     7
100
AcDbLine
 10
7.3854364535
 20
4.4673397037
 30
0.0
 11
7.8185073197
 21
4.4673397037
 31
0.0
  0
LINE
  5
16A
330
1F
100
AcDbEntity
  8
0
  6
HIDDEN
 62
     7
100
AcDbLine
 10
7.7200821228
 20
3.2862373415
 30
0.0
 11
7.4838616504
 21
3.2862373415
 31
0.0
  0
LINE
  5
16B
330
1F
100
AcDbEntity
  8
0
  6
HIDDEN
 62
     7
100
AcDbLine
 10
7.8185073197
 20
4.2508042706
 30
0.0
 11
7.8185073197
 21
4.6429365642
 31
0.0
  0
LINE
  5
16C
330
1F
100
AcDbEntity
  8
0
  6
HIDDEN
 62
     7
100
AcDbLine
 10
7.4838616504
 20
4.2508042706
 30
0.0
 11
7.4838616504
 21
3.7882058454
 31
0.0
  0
LINE
  5
16D
330
1F
100
AcDbEntity
  8
0
  6
HIDDEN
 62
     7
100
AcDbLine
 10
7.7200821228
 20
3.7882058454
 30
0.0
 11
7.7200821228
 21
4.2508042706
 31
0.0
  0
LINE
  5
16E
330
1F
100
AcDbEntity
  8
0
  6
HIDDEN
 62
     7
100
AcDbLine
 10
7.4838616504
 20
3.7291507273
 30
0.0
 11
7.4838616504
 21
3.1416146959
 31
0.0
  0
LINE
  5
16F
330
1F
100
AcDbEntity
  8
0
  6
HIDDEN
 62
     7
100
AcDbLine
 10
7.7200821228
 20
2.929821925
 30
0.0
 11
7.7200821228
 21
3.7291507273
 31
0.0
  0
LINE
  5
170
330
1F
100
AcDbEntity
  8
0
  6
HIDDEN
 62
     7
100
AcDbLine
 10
7.8185073197
 20
4.2508042706
 30
0.0
 11
7.8185073197
 21
4.4673397037
 31
0.0
  0
ARC
  5
171
330
1F
100
AcDbEntity
  8
0
  6
HIDDEN
 62
     7
100
AcDbCircle
 10
7.7988222803
 20
4.4673397037
 30
0.0
 40
0.0196850393700787
100
AcDbArc
 50
0.0
 51
90.0
  0
LINE
  5
172
330
1F
100
AcDbEntity
  8
0
  6
HIDDEN
 62
     7
100
AcDbLine
 10
7.4838616504
 20
4.2508042706
 30
0.0
 11
7.4838616504
 21
3.7882058454
 31
0.0
  0
LINE
  5
173
330
1F
100
AcDbEntity
  8
0
  6
HIDDEN
 62
     7
100
AcDbLine
 10
7.4838616504
 20
3.7291507273
 30
0.0
 11
7.4838616504
 21
3.2862373415
 31
0.0
  0
LINE
  5
174
330
1F
100
AcDbEntity
  8
0
  6
HIDDEN
 62
     7
100
AcDbLine
 10
7.7200821228
 20
3.2862373415
 30
0.0
 11
7.7200821228
 21
3.7291507273
 31
0.0
  0
LINE
  5
175
330
1F
100
AcDbEntity
  8
0
  6
HIDDEN
 62
     7
100
AcDbLine
 10
7.7200821228
 20
3.7882058454
 30
0.0
 11
7.7200821228
 21
4.2508042706
 31
0.0
  0
ARC
  5
176
330
1F
100
AcDbEntity
  8
0
  6
HIDDEN
 62
     7
100
AcDbCircle
 10
7.7003970835
 20
3.2862373415
 30
0.0
 40
0.0196850393700787
100
AcDbArc
 50
270.0
 51
0.0
  0
ARC
  5
177
330
1F
100
AcDbEntity
  8
0
  6
HIDDEN
 62
     7
100
AcDbCircle
 10
7.5035466898
 20
3.2862373415
 30
0.0
 40
0.0196850393700796
100
AcDbArc
 50
180.0
 51
270.0
  0
LINE
  5
178
330
1F
100
AcDbEntity
  8
0
  6
HIDDEN
 62
     7
100
AcDbLine
 10
7.3854364535
 20
4.4673397037
 30
0.0
 11
7.8185073197
 21
4.4673397037
 31
0.0
  0
LINE
  5
179
330
1F
100
AcDbEntity
  8
0
  6
CONTINUOUS
 62
     7
100
AcDbLine
 10
4.3108880719
 20
7.6166375221
 30
0.0
 11
4.2715179931
 21
7.6560076009
 31
0.0
  0
LINE
  5
17A
330
1F
100
AcDbEntity
  8
0
  6
CONTINUOUS
 62
     7
100
AcDbLine
 10
4.2715179931
 20
7.6560076009
 30
0.0
 11
2.3817542136
 21
7.6560076009
 31
0.0
  0
LINE
  5
17B
330
1F
100
AcDbEntity
  8
0
  6
CONTINUOUS
 62
     7
100
AcDbLine
 10
2.3817542136
 20
7.6560076009
 30
0.0
 11
2.3423841349
 21
7.6166375221
 31
0.0
  0
LINE
  5
17C
330
1F
100
AcDbEntity
  8
0
  6
CONTINUOUS
 62
     7
100
AcDbLine
 10
4.3108880719
 20
7.6166375221
 30
0.0
 11
4.3108880719
 21
5.7273352234
 31
0.0
  0
LINE
  5
17D
330
1F
100
AcDbEntity
  8
0
  6
CONTINUOUS
 62
     7
100
AcDbLine
 10
4.3108880719
 20
5.7273352234
 30
0.0
 11
4.2715179931
 21
5.687946677
 31
0.0
  0
LINE
  5
17E
330
1F
100
AcDbEntity
  8
0
  6
CONTINUOUS
 62
     7
100
AcDbLine
 10
4.2715179931
 20
5.687946677
 30
0.0
 11
4.2715179931
 21
7.6560076009
 31
0.0
  0
SPLINE
  5
17F
330
1F
100
AcDbEntity
  8
0
  6
CONTINUOUS
 62
     7
100
AcDbSpline
210
0.0
220
0.0
230
1.0
 70
     8
 71
     3
 72
    64
 73
    60
 74
     0
 42
0.00000001
 43
0.00000001
 40
0.0
 40
0.0
 40
0.0
 40
0.0
 40
0.03125
 40
0.03125
 40
0.0624999999999999
 40
0.0624999999999999
 40
0.0937499999999999
 40
0.0937499999999999
 40
0.1249999999999998
 40
0.1249999999999998
 40
0.1562499999999998
 40
0.1562499999999998
 40
0.1874999999999998
 40
0.1874999999999998
 40
0.2499999999999995
 40
0.2499999999999995
 40
0.3124999999999993
 40
0.3124999999999993
 40
0.3437499999999993
 40
0.3437499999999993
 40
0.3749999999999992
 40
0.3749999999999992
 40
0.4062499999999992
 40
0.4062499999999992
 40
0.4374999999999992
 40
0.4374999999999992
 40
0.4687499999999992
 40
0.4687499999999992
 40
0.4999999999999993
 40
0.4999999999999993
 40
0.5312499999999993
 40
0.5312499999999993
 40
0.5624999999999993
 40
0.5624999999999993
 40
0.5937499999999994
 40
0.5937499999999994
 40
0.6249999999999994
 40
0.6249999999999994
 40
0.6562499999999996
 40
0.6562499999999996
 40
0.6874999999999997
 40
0.6874999999999997
 40
0.7187499999999997
 40
0.7187499999999997
 40
0.7499999999999999
 40
0.7499999999999999
 40
0.8125
 40
0.8125
 40
0.8437500000000001
 40
0.8437500000000001
 40
0.8750000000000001
 40
0.8750000000000001
 40
0.9062500000000001
 40
0.9062500000000001
 40
0.9375000000000001
 40
0.9375000000000001
 40
0.96875
 40
0.96875
 40
1.0
 40
1.0
 40
1.0
 40
1.0
 10
3.911901434431459
 20
5.819368423924072
 30
0.0
 10
3.924634040138719
 20
5.823959897274459
 30
0.0
 10
3.93587953111307
 20
5.829319712170824
 30
0.0
 10
3.956585568123769
 20
5.841203500906779
 30
0.0
 10
3.966019585782864
 20
5.847737661316665
 30
0.0
 10
3.983504900933646
 20
5.861904726684334
 30
0.0
 10
3.991560023404156
 20
5.869567934766851
 30
0.0
 10
4.006102883905054
 20
5.885600689599268
 30
0.0
 10
4.012649533900102
 20
5.894015346563906
 30
0.0
 10
4.024430123410071
 20
5.911662144694948
 30
0.0
 10
4.029662409436858
 20
5.920894349881669
 30
0.0
 10
4.038800918015606
 20
5.940237094432505
 30
0.0
 10
4.042722294099168
 20
5.950414803004966
 30
0.0
 10
4.052113721619571
 20
5.981723791213318
 30
0.0
 10
4.055353147818013
 20
6.003694295356468
 30
0.0
 10
4.05454617778472
 20
6.049983256763438
 30
0.0
 10
4.050317850039415
 20
6.074567667709591
 30
0.0
 10
4.036944914717138
 20
6.11052738609698
 30
0.0
 10
4.031250208012015
 20
6.122553211189993
 30
0.0
 10
4.01734960293505
 20
6.14580378486558
 30
0.0
 10
4.00925102458835
 20
6.156892078256738
 30
0.0
 10
3.990584704828825
 20
6.177783426347048
 30
0.0
 10
3.979882561651881
 20
6.187690266235882
 30
0.0
 10
3.956223510132429
 20
6.205367395763103
 30
0.0
 10
3.943495464489512
 20
6.213009691686809
 30
0.0
 10
3.916192280367636
 20
6.225721891001953
 30
0.0
 10
3.90141680182747
 20
6.23081067569797
 30
0.0
 10
3.871450254479073
 20
6.237620893381396
 30
0.0
 10
3.85613619794163
 20
6.239443685753477
 30
0.0
 10
3.824813686396698
 20
6.239737028271632
 30
0.0
 10
3.809418049717481
 20
6.238197337064885
 30
0.0
 10
3.779257128459474
 20
6.231921795773514
 30
0.0
 10
3.764387063405736
 20
6.227103463516235
 30
0.0
 10
3.736713286934501
 20
6.214811780094384
 30
0.0
 10
3.723616032944455
 20
6.207242828621673
 30
0.0
 10
3.699560363120191
 20
6.189852708589232
 30
0.0
 10
3.688781274788617
 20
6.180195918074677
 30
0.0
 10
3.669501010095538
 20
6.159253203022135
 30
0.0
 10
3.661047489376521
 20
6.147966249925909
 30
0.0
 10
3.646863932857232
 20
6.124882779376275
 30
0.0
 10
3.641011112454016
 20
6.112926983142526
 30
0.0
 10
3.631685721877667
 20
6.088684397783582
 30
0.0
 10
3.628271034264531
 20
6.076581534566479
 30
0.0
 10
3.623571573876766
 20
6.052501950755669
 30
0.0
 10
3.622290837304486
 20
6.040445324888439
 30
0.0
 10
3.62137346130972
 20
6.005209667037684
 30
0.0
 10
3.624522664571352
 20
5.983026850206612
 30
0.0
 10
3.633777549962542
 20
5.951526106370972
 30
0.0
 10
3.637657877821173
 20
5.941290710944538
 30
0.0
 10
3.646749211615185
 20
5.921796600104026
 30
0.0
 10
3.651968864367136
 20
5.912486950728251
 30
0.0
 10
3.663747718014388
 20
5.894683597158566
 30
0.0
 10
3.67030516663464
 20
5.886189816414704
 30
0.0
 10
3.684898527088596
 20
5.869998409948358
 30
0.0
 10
3.692932742006389
 20
5.86231578201817
 30
0.0
 10
3.710403413667108
 20
5.848080511163499
 30
0.0
 10
3.719867103486513
 20
5.84148207099333
 30
0.0
 10
3.740789158266229
 20
5.829424825367767
 30
0.0
 10
3.752299810332743
 20
5.823945618493897
 30
0.0
 10
3.764992819581741
 20
5.819368423924072
 30
0.0
  0
LINE
  5
180
330
1F
100
AcDbEntity
  8
0
  6
CONTINUOUS
 62
     7
100
AcDbLine
 10
3.3660061821
 20
5.687946677
 30
0.0
 11
4.2715179931
 21
5.687946677
 31
0.0
  0
LINE
  5
181
330
1F
100
AcDbEntity
  8
0
  6
CONTINUOUS
 62
     7
100
AcDbLine
 10
3.3660061821
 20
5.687946677
 30
0.0
 11
3.3660061821
 21
7.1441965773
 31
0.0
  0
LINE
  5
182
330
1F
100
AcDbEntity
  8
0
  6
CONTINUOUS
 62
     7
100
AcDbLine
 10
3.2872660246
 20
7.1441965773
 30
0.0
 11
3.3660061821
 21
7.1441965773
 31
0.0
  0
LINE
  5
183
330
1F
100
AcDbEntity
  8
0
  6
CONTINUOUS
 62
     7
100
AcDbLine
 10
3.2872660246
 20
7.1441965773
 30
0.0
 11
3.2872660246
 21
5.687946677
 31
0.0
  0
LINE
  5
184
330
1F
100
AcDbEntity
  8
0
  6
CONTINUOUS
 62
     7
100
AcDbLine
 10
2.3817542136
 20
5.687946677
 30
0.0
 11
3.2872660246
 21
5.687946677
 31
0.0
  0
LINE
  5
185
330
1F
100
AcDbEntity
  8
0
  6
CONTINUOUS
 62
     7
100
AcDbLine
 10
2.3817542136
 20
7.6560076009
 30
0.0
 11
2.3817542136
 21
5.687946677
 31
0.0
  0
LINE
  5
186
330
1F
100
AcDbEntity
  8
0
  6
CONTINUOUS
 62
     7
100
AcDbLine
 10
3.2872660246
 20
5.687946677
 30
0.0
 11
3.3660061821
 21
5.687946677
 31
0.0
  0
SPLINE
  5
187
330
1F
100
AcDbEntity
  8
0
  6
CONTINUOUS
 62
     7
100
AcDbSpline
210
0.0
220
0.0
230
1.0
 70
     8
 71
     3
 72
    64
 73
    60
 74
     0
 42
0.00000001
 43
0.00000001
 40
0.0
 40
0.0
 40
0.0
 40
0.0
 40
0.03125
 40
0.03125
 40
0.0624999999999999
 40
0.0624999999999999
 40
0.0937499999999999
 40
0.0937499999999999
 40
0.1249999999999998
 40
0.1249999999999998
 40
0.1562499999999998
 40
0.1562499999999998
 40
0.1874999999999998
 40
0.1874999999999998
 40
0.2499999999999995
 40
0.2499999999999995
 40
0.3124999999999993
 40
0.3124999999999993
 40
0.3437499999999993
 40
0.3437499999999993
 40
0.3749999999999992
 40
0.3749999999999992
 40
0.4062499999999992
 40
0.4062499999999992
 40
0.4374999999999992
 40
0.4374999999999992
 40
0.4687499999999992
 40
0.4687499999999992
 40
0.4999999999999993
 40
0.4999999999999993
 40
0.5312499999999993
 40
0.5312499999999993
 40
0.5624999999999993
 40
0.5624999999999993
 40
0.5937499999999994
 40
0.5937499999999994
 40
0.6249999999999994
 40
0.6249999999999994
 40
0.6562499999999996
 40
0.6562499999999996
 40
0.6874999999999997
 40
0.6874999999999997
 40
0.7187499999999997
 40
0.7187499999999997
 40
0.7499999999999999
 40
0.7499999999999999
 40
0.8125
 40
0.8125
 40
0.8437500000000001
 40
0.8437500000000001
 40
0.8750000000000001
 40
0.8750000000000001
 40
0.9062500000000001
 40
0.9062500000000001
 40
0.9375000000000001
 40
0.9375000000000001
 40
0.96875
 40
0.96875
 40
1.0
 40
1.0
 40
1.0
 40
1.0
 10
2.741370772337646
 20
5.819368423924072
 30
0.0
 10
2.728638166630386
 20
5.823959897274459
 30
0.0
 10
2.717392675656035
 20
5.829319712170824
 30
0.0
 10
2.696686638645336
 20
5.841203500906779
 30
0.0
 10
2.687252620986241
 20
5.847737661316665
 30
0.0
 10
2.669767305835459
 20
5.861904726684334
 30
0.0
 10
2.661712183364949
 20
5.869567934766851
 30
0.0
 10
2.64716932286405
 20
5.885600689599268
 30
0.0
 10
2.640622672869002
 20
5.894015346563906
 30
0.0
 10
2.628842083359034
 20
5.911662144694948
 30
0.0
 10
2.623609797332247
 20
5.920894349881669
 30
0.0
 10
2.614471288753499
 20
5.940237094432505
 30
0.0
 10
2.610549912669938
 20
5.950414803004966
 30
0.0
 10
2.601158485149535
 20
5.981723791213318
 30
0.0
 10
2.597919058951092
 20
6.003694295356468
 30
0.0
 10
2.598726028984385
 20
6.049983256763438
 30
0.0
 10
2.60295435672969
 20
6.074567667709591
 30
0.0
 10
2.616327292051967
 20
6.11052738609698
 30
0.0
 10
2.622021998757091
 20
6.122553211189993
 30
0.0
 10
2.635922603834055
 20
6.14580378486558
 30
0.0
 10
2.644021182180755
 20
6.156892078256738
 30
0.0
 10
2.66268750194028
 20
6.177783426347048
 30
0.0
 10
2.673389645117224
 20
6.187690266235882
 30
0.0
 10
2.697048696636676
 20
6.205367395763103
 30
0.0
 10
2.709776742279594
 20
6.213009691686809
 30
0.0
 10
2.737079926401469
 20
6.225721891001953
 30
0.0
 10
2.751855404941634
 20
6.23081067569797
 30
0.0
 10
2.781821952290032
 20
6.237620893381396
 30
0.0
 10
2.797136008827475
 20
6.239443685753477
 30
0.0
 10
2.828458520372407
 20
6.239737028271632
 30
0.0
 10
2.843854157051624
 20
6.238197337064885
 30
0.0
 10
2.874015078309631
 20
6.231921795773514
 30
0.0
 10
2.888885143363369
 20
6.227103463516235
 30
0.0
 10
2.916558919834603
 20
6.214811780094384
 30
0.0
 10
2.92965617382465
 20
6.207242828621673
 30
0.0
 10
2.953711843648914
 20
6.189852708589232
 30
0.0
 10
2.964490931980488
 20
6.180195918074677
 30
0.0
 10
2.983771196673567
 20
6.159253203022135
 30
0.0
 10
2.992224717392584
 20
6.147966249925909
 30
0.0
 10
3.006408273911873
 20
6.124882779376275
 30
0.0
 10
3.012261094315089
 20
6.112926983142526
 30
0.0
 10
3.021586484891438
 20
6.088684397783582
 30
0.0
 10
3.025001172504574
 20
6.076581534566479
 30
0.0
 10
3.029700632892339
 20
6.052501950755669
 30
0.0
 10
3.030981369464619
 20
6.040445324888439
 30
0.0
 10
3.031898745459385
 20
6.005209667037684
 30
0.0
 10
3.028749542197753
 20
5.983026850206612
 30
0.0
 10
3.019494656806564
 20
5.951526106370972
 30
0.0
 10
3.015614328947932
 20
5.941290710944538
 30
0.0
 10
3.00652299515392
 20
5.921796600104026
 30
0.0
 10
3.001303342401969
 20
5.912486950728251
 30
0.0
 10
2.989524488754717
 20
5.894683597158566
 30
0.0
 10
2.982967040134465
 20
5.886189816414704
 30
0.0
 10
2.968373679680509
 20
5.869998409948358
 30
0.0
 10
2.960339464762716
 20
5.86231578201817
 30
0.0
 10
2.942868793101998
 20
5.848080511163499
 30
0.0
 10
2.933405103282592
 20
5.84148207099333
 30
0.0
 10
2.912483048502875
 20
5.829424825367767
 30
0.0
 10
2.900972396436362
 20
5.823945618493897
 30
0.0
 10
2.888279387187364
 20
5.819368423924072
 30
0.0
  0
LINE
  5
188
330
1F
100
AcDbEntity
  8
0
  6
CONTINUOUS
 62
     7
100
AcDbLine
 10
2.3817542136
 20
5.687946677
 30
0.0
 11
2.3423841349
 21
5.7273352234
 31
0.0
  0
LINE
  5
189
330
1F
100
AcDbEntity
  8
0
  6
CONTINUOUS
 62
     7
100
AcDbLine
 10
2.3423841349
 20
5.7273352234
 30
0.0
 11
2.3423841349
 21
7.6166375221
 31
0.0
  0
LINE
  5
18A
330
1F
100
AcDbEntity
  8
0
  6
CONTINUOUS
 62
     7
100
AcDbLine
 10
3.3660061821
 20
6.9853291033
 30
0.0
 11
3.2872660246
 21
6.9853291033
 31
0.0
  0
LINE
  5
18B
330
1F
100
AcDbEntity
  8
0
  6
CONTINUOUS
 62
     7
100
AcDbLine
 10
3.2872660246
 20
6.3581821615
 30
0.0
 11
3.3660061821
 21
6.3581821615
 31
0.0
  0
CIRCLE
  5
18C
330
1F
100
AcDbEntity
  8
0
  6
CONTINUOUS
 62
     7
100
AcDbCircle
 10
3.838447127
 20
6.0230644192
 30
0.0
 40
0.1968503937007871
  0
CIRCLE
  5
18D
330
1F
100
AcDbEntity
  8
0
  6
CONTINUOUS
 62
     7
100
AcDbCircle
 10
3.838447127
 20
6.0230644192
 30
0.0
 40
0.2165354330708658
  0
LINE
  5
18E
330
1F
100
AcDbEntity
  8
0
  6
CONTINUOUS
 62
     7
100
AcDbLine
 10
3.838447127
 20
6.136716047
 30
0.0
 11
3.7400219302
 21
6.0798902331
 31
0.0
  0
LINE
  5
18F
330
1F
100
AcDbEntity
  8
0
  6
CONTINUOUS
 62
     7
100
AcDbLine
 10
3.7400219302
 20
6.0798902331
 30
0.0
 11
3.7400219302
 21
5.9662386053
 31
0.0
  0
LINE
  5
190
330
1F
100
AcDbEntity
  8
0
  6
CONTINUOUS
 62
     7
100
AcDbLine
 10
3.7400219302
 20
5.9662386053
 30
0.0
 11
3.838447127
 21
5.9094127914
 31
0.0
  0
LINE
  5
191
330
1F
100
AcDbEntity
  8
0
  6
CONTINUOUS
 62
     7
100
AcDbLine
 10
3.838447127
 20
5.9094127914
 30
0.0
 11
3.9368723239
 21
5.9662386053
 31
0.0
  0
LINE
  5
192
330
1F
100
AcDbEntity
  8
0
  6
CONTINUOUS
 62
     7
100
AcDbLine
 10
3.9368723239
 20
5.9662386053
 30
0.0
 11
3.9368723239
 21
6.0798902331
 31
0.0
  0
LINE
  5
193
330
1F
100
AcDbEntity
  8
0
  6
CONTINUOUS
 62
     7
100
AcDbLine
 10
3.9368723239
 20
6.0798902331
 30
0.0
 11
3.838447127
 21
6.136716047
 31
0.0
  0
CIRCLE
  5
194
330
1F
100
AcDbEntity
  8
0
  6
CONTINUOUS
 62
     7
100
AcDbCircle
 10
2.8148250798
 20
6.0230644192
 30
0.0
 40
0.1968503937007871
  0
ARC
  5
195
330
1F
100
AcDbEntity
  8
0
  6
CONTINUOUS
 62
     7
100
AcDbCircle
 10
2.8148250798
 20
6.0230644192
 30
0.0
 40
0.2165354330708658
100
AcDbArc
 50
270.0
 51
350.8712454439
  0
ARC
  5
196
330
1F
100
AcDbEntity
  8
0
  6
CONTINUOUS
 62
     7
100
AcDbCircle
 10
2.8148250798
 20
6.0230644192
 30
0.0
 40
0.2165354330708665
100
AcDbArc
 50
189.1287545561
 51
270.0
  0
LINE
  5
197
330
1F
100
AcDbEntity
  8
0
  6
CONTINUOUS
 62
     7
100
AcDbLine
 10
2.7163998829
 20
5.9662386053
 30
0.0
 11
2.7163998829
 21
6.0798902331
 31
0.0
  0
LINE
  5
198
330
1F
100
AcDbEntity
  8
0
  6
CONTINUOUS
 62
     7
100
AcDbLine
 10
2.8148250798
 20
5.9094127914
 30
0.0
 11
2.7163998829
 21
5.9662386053
 31
0.0
  0
LINE
  5
199
330
1F
100
AcDbEntity
  8
0
  6
CONTINUOUS
 62
     7
100
AcDbLine
 10
2.9132502766
 20
5.9662386053
 30
0.0
 11
2.8148250798
 21
5.9094127914
 31
0.0
  0
LINE
  5
19A
330
1F
100
AcDbEntity
  8
0
  6
CONTINUOUS
 62
     7
100
AcDbLine
 10
2.9132502766
 20
6.0798902331
 30
0.0
 11
2.9132502766
 21
5.9662386053
 31
0.0
  0
LINE
  5
19B
330
1F
100
AcDbEntity
  8
0
  6
CONTINUOUS
 62
     7
100
AcDbLine
 10
2.8148250798
 20
6.136716047
 30
0.0
 11
2.9132502766
 21
6.0798902331
 31
0.0
  0
LINE
  5
19C
330
1F
100
AcDbEntity
  8
0
  6
CONTINUOUS
 62
     7
100
AcDbLine
 10
2.7163998829
 20
6.0798902331
 30
0.0
 11
2.8148250798
 21
6.136716047
 31
0.0
  0
LINE
  5
19D
330
1F
100
AcDbEntity
  8
0
  6
HIDDEN
 62
     7
100
AcDbLine
 10
3.7649928196
 20
5.8193684239
 30
0.0
 11
3.9119014344
 21
5.8193684239
 31
0.0
  0
LINE
  5
19E
330
1F
100
AcDbEntity
  8
0
  6
HIDDEN
 62
     7
100
AcDbLine
 10
2.7413707723
 20
5.8193684239
 30
0.0
 11
2.8882793872
 21
5.8193684239
 31
0.0
  0
CIRCLE
  5
19F
330
1F
100
AcDbEntity
  8
0
  6
HIDDEN
 62
     7
100
AcDbCircle
 10
3.838447127
 20
6.0230644192
 30
0.0
 40
0.1181102362204722
  0
CIRCLE
  5
1A0
330
1F
100
AcDbEntity
  8
0
  6
HIDDEN
 62
     7
100
AcDbCircle
 10
2.8148250798
 20
6.0230644192
 30
0.0
 40
0.1181102362204722
  0
LINE
  5
1A1
330
1F
100
AcDbEntity
  8
0
  6
HIDDEN
 62
     7
100
AcDbLine
 10
3.3660061821
 20
6.9853291033
 30
0.0
 11
4.2715179931
 21
6.9853291033
 31
0.0
  0
SPLINE
  5
1A2
330
1F
100
AcDbEntity
  8
0
  6
HIDDEN
 62
     7
100
AcDbSpline
210
0.0
220
0.0
230
1.0
 70
     8
 71
     3
 72
     8
 73
     4
 74
     0
 42
0.00000001
 43
0.00000001
 40
0.0
 40
0.0
 40
0.0
 40
0.0
 40
0.00070849739462
 40
0.00070849739462
 40
0.00070849739462
 40
0.00070849739462
 10
4.31088807188849
 20
7.02485388266175
 30
0.0
 10
4.297761831537787
 20
7.011681826324101
 30
0.0
 10
4.284638109609944
 20
6.998507259370591
 30
0.0
 10
4.271517993148331
 20
6.98532910328029
 30
0.0
  0
LINE
  5
1A3
330
1F
100
AcDbEntity
  8
0
  6
HIDDEN
 62
     7
100
AcDbLine
 10
3.3660061821
 20
7.1441965773
 30
0.0
 11
4.3108880719
 21
7.1441965773
 31
0.0
  0
LINE
  5
1A4
330
1F
100
AcDbEntity
  8
0
  6
HIDDEN
 62
     7
100
AcDbLine
 10
2.3817542136
 20
6.9853291033
 30
0.0
 11
3.2872660246
 21
6.9853291033
 31
0.0
  0
SPLINE
  5
1A5
330
1F
100
AcDbEntity
  8
0
  6
HIDDEN
 62
     7
100
AcDbSpline
210
0.0
220
0.0
230
1.0
 70
     8
 71
     3
 72
     8
 73
     4
 74
     0
 42
0.00000001
 43
0.00000001
 40
0.0
 40
0.0
 40
0.0
 40
0.0
 40
0.00070849739462
 40
0.00070849739462
 40
0.00070849739462
 40
0.00070849739462
 10
2.381754213620773
 20
6.98532910328029
 30
0.0
 10
2.368634097159162
 20
6.998507259370591
 30
0.0
 10
2.355510375231317
 20
7.011681826324101
 30
0.0
 10
2.342384134880616
 20
7.02485388266175
 30
0.0
  0
LINE
  5
1A6
330
1F
100
AcDbEntity
  8
0
  6
HIDDEN
 62
     7
100
AcDbLine
 10
2.3423841349
 20
7.1441965773
 30
0.0
 11
3.2872660246
 21
7.1441965773
 31
0.0
  0
LINE
  5
1A7
330
1F
100
AcDbEntity
  8
0
  6
HIDDEN
 62
     7
100
AcDbLine
 10
3.2872660246
 20
6.3581821615
 30
0.0
 11
2.3817542136
 21
6.3581821615
 31
0.0
  0
SPLINE
  5
1A8
330
1F
100
AcDbEntity
  8
0
  6
HIDDEN
 62
     7
100
AcDbSpline
210
0.0
220
0.0
230
1.0
 70
     8
 71
     3
 72
     8
 73
     4
 74
     0
 42
0.00000001
 43
0.00000001
 40
0.0
 40
0.0
 40
0.0
 40
0.0
 40
0.00070849739462
 40
0.00070849739462
 40
0.00070849739462
 40
0.00070849739462
 10
2.342384134880616
 20
6.318657382084893
 30
0.0
 10
2.355510375231317
 20
6.331829438422544
 30
0.0
 10
2.368634097159162
 20
6.345004005376053
 30
0.0
 10
2.381754213620773
 20
6.358182161466353
 30
0.0
  0
LINE
  5
1A9
330
1F
100
AcDbEntity
  8
0
  6
HIDDEN
 62
     7
100
AcDbLine
 10
4.2715179931
 20
6.3581821615
 30
0.0
 11
3.3660061821
 21
6.3581821615
 31
0.0
  0
SPLINE
  5
1AA
330
1F
100
AcDbEntity
  8
0
  6
HIDDEN
 62
     7
100
AcDbSpline
210
0.0
220
0.0
230
1.0
 70
     8
 71
     3
 72
     8
 73
     4
 74
     0
 42
0.00000001
 43
0.00000001
 40
0.0
 40
0.0
 40
0.0
 40
0.0
 40
0.00070849739462
 40
0.00070849739462
 40
0.00070849739462
 40
0.00070849739462
 10
4.271517993148331
 20
6.358182161466353
 30
0.0
 10
4.284638109609944
 20
6.345004005376053
 30
0.0
 10
4.297761831537787
 20
6.331829438422544
 30
0.0
 10
4.31088807188849
 20
6.318657382084894
 30
0.0
  0
CIRCLE
  5
1AB
330
1F
100
AcDbEntity
  8
0
  6
HIDDEN
 62
     7
100
AcDbCircle
 10
3.838447127
 20
6.0230644192
 30
0.0
 40
0.0984251968503944
  0
ARC
  5
1AC
330
1F
100
AcDbEntity
  8
0
  6
HIDDEN
 62
     7
100
AcDbCircle
 10
2.8148250798
 20
6.0230644192
 30
0.0
 40
0.2165354330708665
100
AcDbArc
 50
350.8712454439
 51
189.1287545561
  0
CIRCLE
  5
1AD
330
1F
100
AcDbEntity
  8
0
  6
HIDDEN
 62
     7
100
AcDbCircle
 10
2.8148250798
 20
6.0230644192
 30
0.0
 40
0.0984251968503944
  0
LINE
  5
1AE
330
1F
100
AcDbEntity
  8
0
  6
CONTINUOUS
 62
     7
100
AcDbLine
 10
8.8416292668
 20
5.6630353487
 30
0.0
 11
8.8694635919
 21
5.6791089865
 31
0.0
  0
LINE
  5
1AF
330
1F
100
AcDbEntity
  8
0
  6
CONTINUOUS
 62
     7
100
AcDbLine
 10
9.5374873932
 20
6.8362855336
 30
0.0
 11
9.5374873932
 21
6.8684275853
 31
0.0
  0
LINE
  5
1B0
330
1F
100
AcDbEntity
  8
0
  6
CONTINUOUS
 62
     7
100
AcDbLine
 10
8.1193041649
 20
5.7470905521
 30
0.0
 11
8.3494301614
 21
5.6142416421
 31
0.0
  0
LINE
  5
1B1
330
1F
100
AcDbEntity
  8
0
  6
CONTINUOUS
 62
     7
100
AcDbLine
 10
7.3954932084
 20
6.1649377232
 30
0.0
 11
7.9671023311
 21
5.8349548005
 31
0.0
  0
LINE
  5
1B2
330
1F
100
AcDbEntity
  8
0
  6
CONTINUOUS
 62
     7
100
AcDbLine
 10
7.0131653781
 20
6.3856508816
 30
0.0
 11
7.2432913747
 21
6.2528019716
 31
0.0
  0
LINE
  5
1B3
330
1F
100
AcDbEntity
  8
0
  6
CONTINUOUS
 62
     7
100
AcDbLine
 10
9.3336021424
 20
7.3190622373
 30
0.0
 11
7.997337359
 21
8.0904714768
 31
0.0
  0
LINE
  5
1B4
330
1F
100
AcDbEntity
  8
0
  6
CONTINUOUS
 62
     7
100
AcDbLine
 10
7.5051382536
 20
8.0416777702
 30
0.0
 11
7.4773039286
 21
8.0256041324
 31
0.0
  0
SPLINE
  5
1B5
330
1F
100
AcDbEntity
  8
0
  6
CONTINUOUS
 62
     7
100
AcDbSpline
210
0.0
220
0.0
230
1.0
 70
     8
 71
     3
 72
    36
 73
    32
 74
     0
 42
0.00000001
 43
0.00000001
 40
0.0
 40
0.0
 40
0.0
 40
0.0
 40
0.0243040567959974
 40
0.0588327049053851
 40
0.0939537371332796
 40
0.129536772567327
 40
0.1654089500863425
 40
0.2014150559922901
 40
0.2374325601508723
 40
0.2734037281869748
 40
0.3093116316034981
 40
0.3451574650269661
 40
0.3809522406585003
 40
0.4167119190106418
 40
0.4524548347381412
 40
0.4882004604328503
 40
0.5239638942233883
 40
0.5597638271082055
 40
0.5956206208462933
 40
0.6315537994506158
 40
0.6675802294685405
 40
0.7037104147620298
 40
0.7399416035531436
 40
0.7762462163346419
 40
0.8125247382742454
 40
0.8486258740785129
 40
0.884349082827427
 40
0.9194920001732838
 40
0.9539377493026875
 40
0.9877252694967477
 40
1.0
 40
1.0
 40
1.0
 40
1.0
 10
8.280681318152702
 20
7.002161537088481
 30
0.0
 10
8.278983314400513
 20
7.005127809849865
 30
0.0
 10
8.274872965477318
 20
7.012308251020823
 30
0.0
 10
8.266161275708802
 20
7.022956914112794
 30
0.0
 10
8.254919474250974
 20
7.034159829929972
 30
0.0
 10
8.241807633767419
 20
7.044594266435743
 30
0.0
 10
8.227051727207334
 20
7.054170297428429
 30
0.0
 10
8.210799972947683
 20
7.062772601235766
 30
0.0
 10
8.193248267219703
 20
7.070318602513104
 30
0.0
 10
8.174588322698236
 20
7.076744027613997
 30
0.0
 10
8.15501086299519
 20
7.08200218384245
 30
0.0
 10
8.134705533152644
 20
7.086057512162819
 30
0.0
 10
8.113864100047575
 20
7.088883428594618
 30
0.0
 10
8.092680439101109
 20
7.090461637723367
 30
0.0
 10
8.071350053107983
 20
7.090782048706427
 30
0.0
 10
8.050069941844912
 20
7.089842825858263
 30
0.0
 10
8.029036472232002
 20
7.087650541640409
 30
0.0
 10
8.008443337633453
 20
7.084219889444327
 30
0.0
 10
7.988479133523233
 20
7.079572768936359
 30
0.0
 10
7.969326993984882
 20
7.073737387226155
 30
0.0
 10
7.951164575836265
 20
7.066747434959805
 30
0.0
 10
7.934164691804172
 20
7.058641586427046
 30
0.0
 10
7.91849739560358
 20
7.049464146984912
 30
0.0
 10
7.904336598320046
 20
7.039271001118174
 30
0.0
 10
7.891861187009977
 20
7.028137526905518
 30
0.0
 10
7.881243807155005
 20
7.016169831196737
 30
0.0
 10
7.872657608123571
 20
7.003511152279813
 30
0.0
 10
7.866172679811836
 20
6.990342515047704
 30
0.0
 10
7.86204025243301
 20
6.976868085357321
 30
0.0
 10
7.860093551724558
 20
6.966103051038112
 30
0.0
 10
7.860265543742908
 20
6.959910459646903
 30
0.0
 10
7.860311376407225
 20
6.958260249566128
 30
0.0
  0
LINE
  5
1B6
330
1F
100
AcDbEntity
  8
0
  6
CONTINUOUS
 62
     7
100
AcDbLine
 10
7.8600594169
 20
6.9572858086
 30
0.0
 11
7.8600594169
 21
6.8298499394
 31
0.0
  0
SPLINE
  5
1B7
330
1F
100
AcDbEntity
  8
0
  6
CONTINUOUS
 62
     7
100
AcDbSpline
210
0.0
220
0.0
230
1.0
 70
     8
 71
     3
 72
    36
 73
    32
 74
     0
 42
0.00000001
 43
0.00000001
 40
0.0
 40
0.0
 40
0.0
 40
0.0
 40
0.0245319084074479
 40
0.0589422305365768
 40
0.0939429067472566
 40
0.1294040029285728
 40
0.1651532503358837
 40
0.2010359671718849
 40
0.2369300431999302
 40
0.2727779418944267
 40
0.3085627927704204
 40
0.3442857863605807
 40
0.3799578971283934
 40
0.4155950308914315
 40
0.4512154594735485
 40
0.4868385887361066
 40
0.5224794650680585
 40
0.5581567154157983
 40
0.5938906317607535
 40
0.6297006712091826
 40
0.6656036425086046
 40
0.7016100135253758
 40
0.7377170419115937
 40
0.773897242672041
 40
0.8100514420011149
 40
0.8460288630781504
 40
0.8816296522153859
 40
0.916652138546075
 40
0.9509798457811491
 40
0.9846515797609637
 40
1.0
 40
1.0
 40
1.0
 40
1.0
 10
7.556939612762569
 20
7.419895017885104
 30
0.0
 10
7.555220342764868
 20
7.422899603384628
 30
0.0
 10
7.551089493795596
 20
7.430118649218257
 30
0.0
 10
7.542351908253636
 20
7.440803861182856
 30
0.0
 10
7.531109185208312
 20
7.452006425872139
 30
0.0
 10
7.517997596629103
 20
7.462440958354303
 30
0.0
 10
7.503241621693212
 20
7.472016963295578
 30
0.0
 10
7.486989885871866
 20
7.480619274127971
 30
0.0
 10
7.469438175196958
 20
7.488165273520513
 30
0.0
 10
7.45077823199904
 20
7.494590699125683
 30
0.0
 10
7.431200771942231
 20
7.499848855219351
 30
0.0
 10
7.410895442194235
 20
7.503904183575743
 30
0.0
 10
7.390054009063874
 20
7.50673009999791
 30
0.0
 10
7.368870348124219
 20
7.508308309129235
 30
0.0
 10
7.347539962129106
 20
7.508628720111608
 30
0.0
 10
7.326259850867178
 20
7.507689497263613
 30
0.0
 10
7.305226381251683
 20
7.505497213045774
 30
0.0
 10
7.284633246662342
 20
7.502066560849466
 30
0.0
 10
7.264669042517795
 20
7.497419440342386
 30
0.0
 10
7.245516903107937
 20
7.491584058628842
 30
0.0
 10
7.22735448447792
 20
7.484594106375008
 30
0.0
 10
7.210354602250062
 20
7.47648825779534
 30
0.0
 10
7.194687299289301
 20
7.46731081852897
 30
0.0
 10
7.180526527292494
 20
7.457117672004776
 30
0.0
 10
7.168051021793065
 20
7.445984200241059
 30
0.0
 10
7.157433990517498
 20
7.434016495469154
 30
0.0
 10
7.148846511991758
 20
7.421357849819296
 30
0.0
 10
7.142366242821839
 20
7.408189091448725
 30
0.0
 10
7.138216925419952
 20
7.394715100901747
 30
0.0
 10
7.136245138965719
 20
7.383530701177203
 30
0.0
 10
7.136449168257712
 20
7.37691725917267
 30
0.0
 10
7.136513050702893
 20
7.374846562155706
 30
0.0
  0
LINE
  5
1B8
330
1F
100
AcDbEntity
  8
0
  6
CONTINUOUS
 62
     7
100
AcDbLine
 10
7.1362493259
 20
7.37513248
 30
0.0
 11
7.1362493259
 21
7.256754051
 31
0.0
  0
POLYLINE
  5
1B9
330
1F
100
AcDbEntity
  8
0
  6
CONTINUOUS
 62
     7
100
AcDb2dPolyline
 66
     1
 10
0.0
 20
0.0
 30
0.0
  0
VERTEX
  5
207
330
1B9
100
AcDbEntity
  8
0
  6
CONTINUOUS
 62
     7
100
AcDbVertex
100
AcDb2dVertex
 10
8.2015489261
 20
6.0409542154
 30
0.0
  0
VERTEX
  5
208
330
1B9
100
AcDbEntity
  8
0
  6
CONTINUOUS
 62
     7
100
AcDbVertex
100
AcDb2dVertex
 10
8.2034143279
 20
6.0036997999
 30
0.0
  0
VERTEX
  5
209
330
1B9
100
AcDbEntity
  8
0
  6
CONTINUOUS
 62
     7
100
AcDbVertex
100
AcDb2dVertex
 10
8.2069286547
 20
5.9675518996
 30
0.0
  0
VERTEX
  5
20A
330
1B9
100
AcDbEntity
  8
0
  6
CONTINUOUS
 62
     7
100
AcDbVertex
100
AcDb2dVertex
 10
8.2120832049
 20
5.9326000197
 30
0.0
  0
VERTEX
  5
20B
330
1B9
100
AcDbEntity
  8
0
  6
CONTINUOUS
 62
     7
100
AcDbVertex
100
AcDb2dVertex
 10
8.2188652153
 20
5.8989307041
 30
0.0
  0
VERTEX
  5
20C
330
1B9
100
AcDbEntity
  8
0
  6
CONTINUOUS
 62
     7
100
AcDbVertex
100
AcDb2dVertex
 10
8.2272578931
 20
5.8666273207
 30
0.0
  0
VERTEX
  5
20D
330
1B9
100
AcDbEntity
  8
0
  6
CONTINUOUS
 62
     7
100
AcDbVertex
100
AcDb2dVertex
 10
8.2372404573
 20
5.8357698555
 30
0.0
  0
VERTEX
  5
20E
330
1B9
100
AcDbEntity
  8
0
  6
CONTINUOUS
 62
     7
100
AcDbVertex
100
AcDb2dVertex
 10
8.2487881903
 20
5.8064347142
 30
0.0
  0
VERTEX
  5
20F
330
1B9
100
AcDbEntity
  8
0
  6
CONTINUOUS
 62
     7
100
AcDbVertex
100
AcDb2dVertex
 10
8.2618724988
 20
5.778694533
 30
0.0
  0
VERTEX
  5
210
330
1B9
100
AcDbEntity
  8
0
  6
CONTINUOUS
 62
     7
100
AcDbVertex
100
AcDb2dVertex
 10
8.2764609851
 20
5.752617999
 30
0.0
  0
VERTEX
  5
211
330
1B9
100
AcDbEntity
  8
0
  6
CONTINUOUS
 62
     7
100
AcDbVertex
100
AcDb2dVertex
 10
8.2925175268
 20
5.7282696798
 30
0.0
  0
VERTEX
  5
212
330
1B9
100
AcDbEntity
  8
0
  6
CONTINUOUS
 62
     7
100
AcDbVertex
100
AcDb2dVertex
 10
8.3100023666
 20
5.705709864
 30
0.0
  0
VERTEX
  5
213
330
1B9
100
AcDbEntity
  8
0
  6
CONTINUOUS
 62
     7
100
AcDbVertex
100
AcDb2dVertex
 10
8.3288722105
 20
5.6849944115
 30
0.0
  0
VERTEX
  5
214
330
1B9
100
AcDbEntity
  8
0
  6
CONTINUOUS
 62
     7
100
AcDbVertex
100
AcDb2dVertex
 10
8.3490803352
 20
5.6661746155
 30
0.0
  0
VERTEX
  5
215
330
1B9
100
AcDbEntity
  8
0
  6
CONTINUOUS
 62
     7
100
AcDbVertex
100
AcDb2dVertex
 10
8.3705767038
 20
5.6492970754
 30
0.0
  0
VERTEX
  5
216
330
1B9
100
AcDbEntity
  8
0
  6
CONTINUOUS
 62
     7
100
AcDbVertex
100
AcDb2dVertex
 10
8.3933080893
 20
5.6344035815
 30
0.0
  0
VERTEX
  5
217
330
1B9
100
AcDbEntity
  8
0
  6
CONTINUOUS
 62
     7
100
AcDbVertex
100
AcDb2dVertex
 10
8.417218207
 20
5.6215310113
 30
0.0
  0
VERTEX
  5
218
330
1B9
100
AcDbEntity
  8
0
  6
CONTINUOUS
 62
     7
100
AcDbVertex
100
AcDb2dVertex
 10
8.4422478534
 20
5.6107112383
 30
0.0
  0
VERTEX
  5
219
330
1B9
100
AcDbEntity
  8
0
  6
CONTINUOUS
 62
     7
100
AcDbVertex
100
AcDb2dVertex
 10
8.468335053
 20
5.6019710532
 30
0.0
  0
VERTEX
  5
21A
330
1B9
100
AcDbEntity
  8
0
  6
CONTINUOUS
 62
     7
100
AcDbVertex
100
AcDb2dVertex
 10
8.4954152118
 20
5.5953320974
 30
0.0
  0
VERTEX
  5
21B
330
1B9
100
AcDbEntity
  8
0
  6
CONTINUOUS
 62
     7
100
AcDbVertex
100
AcDb2dVertex
 10
8.5234212768
 20
5.5908108097
 30
0.0
  0
VERTEX
  5
21C
330
1B9
100
AcDbEntity
  8
0
  6
CONTINUOUS
 62
     7
100
AcDbVertex
100
AcDb2dVertex
 10
8.5522839029
 20
5.5884183849
 30
0.0
  0
VERTEX
  5
21D
330
1B9
100
AcDbEntity
  8
0
  6
CONTINUOUS
 62
     7
100
AcDbVertex
100
AcDb2dVertex
 10
8.5819316236
 20
5.5881607471
 30
0.0
  0
VERTEX
  5
21E
330
1B9
100
AcDbEntity
  8
0
  6
CONTINUOUS
 62
     7
100
AcDbVertex
100
AcDb2dVertex
 10
8.6122910288
 20
5.5900385341
 30
0.0
  0
VERTEX
  5
21F
330
1B9
100
AcDbEntity
  8
0
  6
CONTINUOUS
 62
     7
100
AcDbVertex
100
AcDb2dVertex
 10
8.643286946
 20
5.5940470963
 30
0.0
  0
VERTEX
  5
220
330
1B9
100
AcDbEntity
  8
0
  6
CONTINUOUS
 62
     7
100
AcDbVertex
100
AcDb2dVertex
 10
8.6748426266
 20
5.6001765083
 30
0.0
  0
VERTEX
  5
221
330
1B9
100
AcDbEntity
  8
0
  6
CONTINUOUS
 62
     7
100
AcDbVertex
100
AcDb2dVertex
 10
8.7068799363
 20
5.6084115931
 30
0.0
  0
VERTEX
  5
222
330
1B9
100
AcDbEntity
  8
0
  6
CONTINUOUS
 62
     7
100
AcDbVertex
100
AcDb2dVertex
 10
8.7393195479
 20
5.6187319599
 30
0.0
  0
VERTEX
  5
223
330
1B9
100
AcDbEntity
  8
0
  6
CONTINUOUS
 62
     7
100
AcDbVertex
100
AcDb2dVertex
 10
8.7720811382
 20
5.6311120546
 30
0.0
  0
VERTEX
  5
224
330
1B9
100
AcDbEntity
  8
0
  6
CONTINUOUS
 62
     7
100
AcDbVertex
100
AcDb2dVertex
 10
8.8050835868
 20
5.6455212231
 30
0.0
  0
VERTEX
  5
225
330
1B9
100
AcDbEntity
  8
0
  6
CONTINUOUS
 62
     7
100
AcDbVertex
100
AcDb2dVertex
 10
8.8382451768
 20
5.6619237871
 30
0.0
  0
VERTEX
  5
226
330
1B9
100
AcDbEntity
  8
0
  6
CONTINUOUS
 62
     7
100
AcDbVertex
100
AcDb2dVertex
 10
8.8714837974
 20
5.6802791324
 30
0.0
  0
VERTEX
  5
227
330
1B9
100
AcDbEntity
  8
0
  6
CONTINUOUS
 62
     7
100
AcDbVertex
100
AcDb2dVertex
 10
8.9047171468
 20
5.7005418097
 30
0.0
  0
VERTEX
  5
228
330
1B9
100
AcDbEntity
  8
0
  6
CONTINUOUS
 62
     7
100
AcDbVertex
100
AcDb2dVertex
 10
8.9378629366
 20
5.7226616468
 30
0.0
  0
VERTEX
  5
229
330
1B9
100
AcDbEntity
  8
0
  6
CONTINUOUS
 62
     7
100
AcDbVertex
100
AcDb2dVertex
 10
8.9708390951
 20
5.7465838732
 30
0.0
  0
VERTEX
  5
22A
330
1B9
100
AcDbEntity
  8
0
  6
CONTINUOUS
 62
     7
100
AcDbVertex
100
AcDb2dVertex
 10
9.0035639703
 20
5.7722492555
 30
0.0
  0
VERTEX
  5
22B
330
1B9
100
AcDbEntity
  8
0
  6
CONTINUOUS
 62
     7
100
AcDbVertex
100
AcDb2dVertex
 10
9.0359565329
 20
5.799594244
 30
0.0
  0
VERTEX
  5
22C
330
1B9
100
AcDbEntity
  8
0
  6
CONTINUOUS
 62
     7
100
AcDbVertex
100
AcDb2dVertex
 10
9.0679365761
 20
5.8285511302
 30
0.0
  0
VERTEX
  5
22D
330
1B9
100
AcDbEntity
  8
0
  6
CONTINUOUS
 62
     7
100
AcDbVertex
100
AcDb2dVertex
 10
9.0994249146
 20
5.8590482144
 30
0.0
  0
VERTEX
  5
22E
330
1B9
100
AcDbEntity
  8
0
  6
CONTINUOUS
 62
     7
100
AcDbVertex
100
AcDb2dVertex
 10
9.1303435807
 20
5.8910099833
 30
0.0
  0
VERTEX
  5
22F
330
1B9
100
AcDbEntity
  8
0
  6
CONTINUOUS
 62
     7
100
AcDbVertex
100
AcDb2dVertex
 10
9.1606160171
 20
5.9243572969
 30
0.0
  0
VERTEX
  5
230
330
1B9
100
AcDbEntity
  8
0
  6
CONTINUOUS
 62
     7
100
AcDbVertex
100
AcDb2dVertex
 10
9.1901672667
 20
5.9590075843
 30
0.0
  0
VERTEX
  5
231
330
1B9
100
AcDbEntity
  8
0
  6
CONTINUOUS
 62
     7
100
AcDbVertex
100
AcDb2dVertex
 10
9.2189241583
 20
5.9948750487
 30
0.0
  0
VERTEX
  5
232
330
1B9
100
AcDbEntity
  8
0
  6
CONTINUOUS
 62
     7
100
AcDbVertex
100
AcDb2dVertex
 10
9.2468154872
 20
6.0318708791
 30
0.0
  0
VERTEX
  5
233
330
1B9
100
AcDbEntity
  8
0
  6
CONTINUOUS
 62
     7
100
AcDbVertex
100
AcDb2dVertex
 10
9.2737721922
 20
6.0699034707
 30
0.0
  0
VERTEX
  5
234
330
1B9
100
AcDbEntity
  8
0
  6
CONTINUOUS
 62
     7
100
AcDbVertex
100
AcDb2dVertex
 10
9.2997275262
 20
6.1088786517
 30
0.0
  0
VERTEX
  5
235
330
1B9
100
AcDbEntity
  8
0
  6
CONTINUOUS
 62
     7
100
AcDbVertex
100
AcDb2dVertex
 10
9.3246172217
 20
6.1486999162
 30
0.0
  0
VERTEX
  5
236
330
1B9
100
AcDbEntity
  8
0
  6
CONTINUOUS
 62
     7
100
AcDbVertex
100
AcDb2dVertex
 10
9.3483796497
 20
6.1892686634
 30
0.0
  0
VERTEX
  5
237
330
1B9
100
AcDbEntity
  8
0
  6
CONTINUOUS
 62
     7
100
AcDbVertex
100
AcDb2dVertex
 10
9.3709559724
 20
6.2304844417
 30
0.0
  0
VERTEX
  5
238
330
1B9
100
AcDbEntity
  8
0
  6
CONTINUOUS
 62
     7
100
AcDbVertex
100
AcDb2dVertex
 10
9.3922902889
 20
6.2722451974
 30
0.0
  0
VERTEX
  5
239
330
1B9
100
AcDbEntity
  8
0
  6
CONTINUOUS
 62
     7
100
AcDbVertex
100
AcDb2dVertex
 10
9.4123297737
 20
6.3144475273
 30
0.0
  0
VERTEX
  5
23A
330
1B9
100
AcDbEntity
  8
0
  6
CONTINUOUS
 62
     7
100
AcDbVertex
100
AcDb2dVertex
 10
9.4310248074
 20
6.3569869349
 30
0.0
  0
VERTEX
  5
23B
330
1B9
100
AcDbEntity
  8
0
  6
CONTINUOUS
 62
     7
100
AcDbVertex
100
AcDb2dVertex
 10
9.4483290993
 20
6.3997580891
 30
0.0
  0
VERTEX
  5
23C
330
1B9
100
AcDbEntity
  8
0
  6
CONTINUOUS
 62
     7
100
AcDbVertex
100
AcDb2dVertex
 10
9.4641998028
 20
6.4426550849
 30
0.0
  0
VERTEX
  5
23D
330
1B9
100
AcDbEntity
  8
0
  6
CONTINUOUS
 62
     7
100
AcDbVertex
100
AcDb2dVertex
 10
9.4785976205
 20
6.4855717057
 30
0.0
  0
VERTEX
  5
23E
330
1B9
100
AcDbEntity
  8
0
  6
CONTINUOUS
 62
     7
100
AcDbVertex
100
AcDb2dVertex
 10
9.4914869022
 20
6.5284016863
 30
0.0
  0
VERTEX
  5
23F
330
1B9
100
AcDbEntity
  8
0
  6
CONTINUOUS
 62
     7
100
AcDbVertex
100
AcDb2dVertex
 10
9.5028357331
 20
6.5710389762
 30
0.0
  0
VERTEX
  5
240
330
1B9
100
AcDbEntity
  8
0
  6
CONTINUOUS
 62
     7
100
AcDbVertex
100
AcDb2dVertex
 10
9.5126160125
 20
6.6133780018
 30
0.0
  0
VERTEX
  5
241
330
1B9
100
AcDbEntity
  8
0
  6
CONTINUOUS
 62
     7
100
AcDbVertex
100
AcDb2dVertex
 10
9.5208035235
 20
6.6553139281
 30
0.0
  0
VERTEX
  5
242
330
1B9
100
AcDbEntity
  8
0
  6
CONTINUOUS
 62
     7
100
AcDbVertex
100
AcDb2dVertex
 10
9.5273779932
 20
6.6967429182
 30
0.0
  0
VERTEX
  5
243
330
1B9
100
AcDbEntity
  8
0
  6
CONTINUOUS
 62
     7
100
AcDbVertex
100
AcDb2dVertex
 10
9.5323231427
 20
6.7375623906
 30
0.0
  0
VERTEX
  5
244
330
1B9
100
AcDbEntity
  8
0
  6
CONTINUOUS
 62
     7
100
AcDbVertex
100
AcDb2dVertex
 10
9.5356267274
 20
6.7776712726
 30
0.0
  0
VERTEX
  5
245
330
1B9
100
AcDbEntity
  8
0
  6
CONTINUOUS
 62
     7
100
AcDbVertex
100
AcDb2dVertex
 10
9.5372805672
 20
6.8169702515
 30
0.0
  0
VERTEX
  5
246
330
1B9
100
AcDbEntity
  8
0
  6
CONTINUOUS
 62
     7
100
AcDbVertex
100
AcDb2dVertex
 10
9.5372805672
 20
6.8553620196
 30
0.0
  0
VERTEX
  5
247
330
1B9
100
AcDbEntity
  8
0
  6
CONTINUOUS
 62
     7
100
AcDbVertex
100
AcDb2dVertex
 10
9.5356267274
 20
6.8927515156
 30
0.0
  0
VERTEX
  5
248
330
1B9
100
AcDbEntity
  8
0
  6
CONTINUOUS
 62
     7
100
AcDbVertex
100
AcDb2dVertex
 10
9.5323231427
 20
6.92904616
 30
0.0
  0
VERTEX
  5
249
330
1B9
100
AcDbEntity
  8
0
  6
CONTINUOUS
 62
     7
100
AcDbVertex
100
AcDb2dVertex
 10
9.5273779932
 20
6.9641560843
 30
0.0
  0
VERTEX
  5
24A
330
1B9
100
AcDbEntity
  8
0
  6
CONTINUOUS
 62
     7
100
AcDbVertex
100
AcDb2dVertex
 10
9.5208035235
 20
6.9979943533
 30
0.0
  0
VERTEX
  5
24B
330
1B9
100
AcDbEntity
  8
0
  6
CONTINUOUS
 62
     7
100
AcDbVertex
100
AcDb2dVertex
 10
9.5126160125
 20
7.0304771806
 30
0.0
  0
VERTEX
  5
24C
330
1B9
100
AcDbEntity
  8
0
  6
CONTINUOUS
 62
     7
100
AcDbVertex
100
AcDb2dVertex
 10
9.5028357331
 20
7.061524136
 30
0.0
  0
VERTEX
  5
24D
330
1B9
100
AcDbEntity
  8
0
  6
CONTINUOUS
 62
     7
100
AcDbVertex
100
AcDb2dVertex
 10
9.4914869022
 20
7.0910583446
 30
0.0
  0
VERTEX
  5
24E
330
1B9
100
AcDbEntity
  8
0
  6
CONTINUOUS
 62
     7
100
AcDbVertex
100
AcDb2dVertex
 10
9.4785976205
 20
7.1190066773
 30
0.0
  0
VERTEX
  5
24F
330
1B9
100
AcDbEntity
  8
0
  6
CONTINUOUS
 62
     7
100
AcDbVertex
100
AcDb2dVertex
 10
9.4641998028
 20
7.1452999316
 30
0.0
  0
VERTEX
  5
250
330
1B9
100
AcDbEntity
  8
0
  6
CONTINUOUS
 62
     7
100
AcDbVertex
100
AcDb2dVertex
 10
9.4483290993
 20
7.1698730032
 30
0.0
  0
VERTEX
  5
251
330
1B9
100
AcDbEntity
  8
0
  6
CONTINUOUS
 62
     7
100
AcDbVertex
100
AcDb2dVertex
 10
9.4310248074
 20
7.1926650471
 30
0.0
  0
VERTEX
  5
252
330
1B9
100
AcDbEntity
  8
0
  6
CONTINUOUS
 62
     7
100
AcDbVertex
100
AcDb2dVertex
 10
9.4123297737
 20
7.2136196284
 30
0.0
  0
VERTEX
  5
253
330
1B9
100
AcDbEntity
  8
0
  6
CONTINUOUS
 62
     7
100
AcDbVertex
100
AcDb2dVertex
 10
9.3922902889
 20
7.2326848616
 30
0.0
  0
VERTEX
  5
254
330
1B9
100
AcDbEntity
  8
0
  6
CONTINUOUS
 62
     7
100
AcDbVertex
100
AcDb2dVertex
 10
9.3709559724
 20
7.2498135397
 30
0.0
  0
VERTEX
  5
255
330
1B9
100
AcDbEntity
  8
0
  6
CONTINUOUS
 62
     7
100
AcDbVertex
100
AcDb2dVertex
 10
9.3483796497
 20
7.2649632507
 30
0.0
  0
VERTEX
  5
256
330
1B9
100
AcDbEntity
  8
0
  6
CONTINUOUS
 62
     7
100
AcDbVertex
100
AcDb2dVertex
 10
9.3246172217
 20
7.2780964826
 30
0.0
  0
VERTEX
  5
257
330
1B9
100
AcDbEntity
  8
0
  6
CONTINUOUS
 62
     7
100
AcDbVertex
100
AcDb2dVertex
 10
9.2997275262
 20
7.2891807163
 30
0.0
  0
VERTEX
  5
258
330
1B9
100
AcDbEntity
  8
0
  6
CONTINUOUS
 62
     7
100
AcDbVertex
100
AcDb2dVertex
 10
9.2737721922
 20
7.2981885065
 30
0.0
  0
VERTEX
  5
259
330
1B9
100
AcDbEntity
  8
0
  6
CONTINUOUS
 62
     7
100
AcDbVertex
100
AcDb2dVertex
 10
9.2468154872
 20
7.305097549
 30
0.0
  0
VERTEX
  5
25A
330
1B9
100
AcDbEntity
  8
0
  6
CONTINUOUS
 62
     7
100
AcDbVertex
100
AcDb2dVertex
 10
9.2189241583
 20
7.3098907365
 30
0.0
  0
VERTEX
  5
25B
330
1B9
100
AcDbEntity
  8
0
  6
CONTINUOUS
 62
     7
100
AcDbVertex
100
AcDb2dVertex
 10
9.1901672667
 20
7.3125562006
 30
0.0
  0
VERTEX
  5
25C
330
1B9
100
AcDbEntity
  8
0
  6
CONTINUOUS
 62
     7
100
AcDbVertex
100
AcDb2dVertex
 10
9.1606160171
 20
7.3130873415
 30
0.0
  0
VERTEX
  5
25D
330
1B9
100
AcDbEntity
  8
0
  6
CONTINUOUS
 62
     7
100
AcDbVertex
100
AcDb2dVertex
 10
9.1303435807
 20
7.3114828439
 30
0.0
  0
VERTEX
  5
25E
330
1B9
100
AcDbEntity
  8
0
  6
CONTINUOUS
 62
     7
100
AcDbVertex
100
AcDb2dVertex
 10
9.0994249146
 20
7.3077466808
 30
0.0
  0
VERTEX
  5
25F
330
1B9
100
AcDbEntity
  8
0
  6
CONTINUOUS
 62
     7
100
AcDbVertex
100
AcDb2dVertex
 10
9.0679365761
 20
7.3018881033
 30
0.0
  0
VERTEX
  5
260
330
1B9
100
AcDbEntity
  8
0
  6
CONTINUOUS
 62
     7
100
AcDbVertex
100
AcDb2dVertex
 10
9.0359565329
 20
7.2939216175
 30
0.0
  0
VERTEX
  5
261
330
1B9
100
AcDbEntity
  8
0
  6
CONTINUOUS
 62
     7
100
AcDbVertex
100
AcDb2dVertex
 10
9.0035639703
 20
7.2838669493
 30
0.0
  0
VERTEX
  5
262
330
1B9
100
AcDbEntity
  8
0
  6
CONTINUOUS
 62
     7
100
AcDbVertex
100
AcDb2dVertex
 10
8.9708390951
 20
7.2717489949
 30
0.0
  0
VERTEX
  5
263
330
1B9
100
AcDbEntity
  8
0
  6
CONTINUOUS
 62
     7
100
AcDbVertex
100
AcDb2dVertex
 10
8.9378629366
 20
7.2575977592
 30
0.0
  0
VERTEX
  5
264
330
1B9
100
AcDbEntity
  8
0
  6
CONTINUOUS
 62
     7
100
AcDbVertex
100
AcDb2dVertex
 10
8.9047171468
 20
7.241448282
 30
0.0
  0
VERTEX
  5
265
330
1B9
100
AcDbEntity
  8
0
  6
CONTINUOUS
 62
     7
100
AcDbVertex
100
AcDb2dVertex
 10
8.8714837974
 20
7.2233405507
 30
0.0
  0
VERTEX
  5
266
330
1B9
100
AcDbEntity
  8
0
  6
CONTINUOUS
 62
     7
100
AcDbVertex
100
AcDb2dVertex
 10
8.8382451768
 20
7.2033194016
 30
0.0
  0
VERTEX
  5
267
330
1B9
100
AcDbEntity
  8
0
  6
CONTINUOUS
 62
     7
100
AcDbVertex
100
AcDb2dVertex
 10
8.8050835868
 20
7.1814344087
 30
0.0
  0
VERTEX
  5
268
330
1B9
100
AcDbEntity
  8
0
  6
CONTINUOUS
 62
     7
100
AcDbVertex
100
AcDb2dVertex
 10
8.7720811382
 20
7.1577397612
 30
0.0
  0
VERTEX
  5
269
330
1B9
100
AcDbEntity
  8
0
  6
CONTINUOUS
 62
     7
100
AcDbVertex
100
AcDb2dVertex
 10
8.7393195479
 20
7.1322941289
 30
0.0
  0
VERTEX
  5
26A
330
1B9
100
AcDbEntity
  8
0
  6
CONTINUOUS
 62
     7
100
AcDbVertex
100
AcDb2dVertex
 10
8.7068799363
 20
7.1051605174
 30
0.0
  0
VERTEX
  5
26B
330
1B9
100
AcDbEntity
  8
0
  6
CONTINUOUS
 62
     7
100
AcDbVertex
100
AcDb2dVertex
 10
8.6748426266
 20
7.0764061117
 30
0.0
  0
VERTEX
  5
26C
330
1B9
100
AcDbEntity
  8
0
  6
CONTINUOUS
 62
     7
100
AcDbVertex
100
AcDb2dVertex
 10
8.643286946
 20
7.0461021103
 30
0.0
  0
VERTEX
  5
26D
330
1B9
100
AcDbEntity
  8
0
  6
CONTINUOUS
 62
     7
100
AcDbVertex
100
AcDb2dVertex
 10
8.6122910288
 20
7.0143235483
 30
0.0
  0
VERTEX
  5
26E
330
1B9
100
AcDbEntity
  8
0
  6
CONTINUOUS
 62
     7
100
AcDbVertex
100
AcDb2dVertex
 10
8.5819316236
 20
6.9811491122
 30
0.0
  0
VERTEX
  5
26F
330
1B9
100
AcDbEntity
  8
0
  6
CONTINUOUS
 62
     7
100
AcDbVertex
100
AcDb2dVertex
 10
8.5522839029
 20
6.9466609446
 30
0.0
  0
VERTEX
  5
270
330
1B9
100
AcDbEntity
  8
0
  6
CONTINUOUS
 62
     7
100
AcDbVertex
100
AcDb2dVertex
 10
8.5234212768
 20
6.9109444412
 30
0.0
  0
VERTEX
  5
271
330
1B9
100
AcDbEntity
  8
0
  6
CONTINUOUS
 62
     7
100
AcDbVertex
100
AcDb2dVertex
 10
8.4954152118
 20
6.8740880389
 30
0.0
  0
VERTEX
  5
272
330
1B9
100
AcDbEntity
  8
0
  6
CONTINUOUS
 62
     7
100
AcDbVertex
100
AcDb2dVertex
 10
8.468335053
 20
6.8361829975
 30
0.0
  0
VERTEX
  5
273
330
1B9
100
AcDbEntity
  8
0
  6
CONTINUOUS
 62
     7
100
AcDbVertex
100
AcDb2dVertex
 10
8.4422478534
 20
6.7973231728
 30
0.0
  0
VERTEX
  5
274
330
1B9
100
AcDbEntity
  8
0
  6
CONTINUOUS
 62
     7
100
AcDbVertex
100
AcDb2dVertex
 10
8.417218207
 20
6.7576047852
 30
0.0
  0
VERTEX
  5
275
330
1B9
100
AcDbEntity
  8
0
  6
CONTINUOUS
 62
     7
100
AcDbVertex
100
AcDb2dVertex
 10
8.3933080893
 20
6.7171261807
 30
0.0
  0
VERTEX
  5
276
330
1B9
100
AcDbEntity
  8
0
  6
CONTINUOUS
 62
     7
100
AcDbVertex
100
AcDb2dVertex
 10
8.3705767038
 20
6.6759875877
 30
0.0
  0
VERTEX
  5
277
330
1B9
100
AcDbEntity
  8
0
  6
CONTINUOUS
 62
     7
100
AcDbVertex
100
AcDb2dVertex
 10
8.3490803352
 20
6.6342908688
 30
0.0
  0
VERTEX
  5
278
330
1B9
100
AcDbEntity
  8
0
  6
CONTINUOUS
 62
     7
100
AcDbVertex
100
AcDb2dVertex
 10
8.3288722105
 20
6.5921392686
 30
0.0
  0
VERTEX
  5
279
330
1B9
100
AcDbEntity
  8
0
  6
CONTINUOUS
 62
     7
100
AcDbVertex
100
AcDb2dVertex
 10
8.3100023666
 20
6.549637158
 30
0.0
  0
VERTEX
  5
27A
330
1B9
100
AcDbEntity
  8
0
  6
CONTINUOUS
 62
     7
100
AcDbVertex
100
AcDb2dVertex
 10
8.2925175268
 20
6.5068897759
 30
0.0
  0
VERTEX
  5
27B
330
1B9
100
AcDbEntity
  8
0
  6
CONTINUOUS
 62
     7
100
AcDbVertex
100
AcDb2dVertex
 10
8.2764609851
 20
6.4640029683
 30
0.0
  0
VERTEX
  5
27C
330
1B9
100
AcDbEntity
  8
0
  6
CONTINUOUS
 62
     7
100
AcDbVertex
100
AcDb2dVertex
 10
8.2618724988
 20
6.4210829265
 30
0.0
  0
VERTEX
  5
27D
330
1B9
100
AcDbEntity
  8
0
  6
CONTINUOUS
 62
     7
100
AcDbVertex
100
AcDb2dVertex
 10
8.2487881903
 20
6.3782359242
 30
0.0
  0
VERTEX
  5
27E
330
1B9
100
AcDbEntity
  8
0
  6
CONTINUOUS
 62
     7
100
AcDbVertex
100
AcDb2dVertex
 10
8.2372404573
 20
6.3355680543
 30
0.0
  0
VERTEX
  5
27F
330
1B9
100
AcDbEntity
  8
0
  6
CONTINUOUS
 62
     7
100
AcDbVertex
100
AcDb2dVertex
 10
8.2272578931
 20
6.2931849658
 30
0.0
  0
VERTEX
  5
280
330
1B9
100
AcDbEntity
  8
0
  6
CONTINUOUS
 62
     7
100
AcDbVertex
100
AcDb2dVertex
 10
8.2188652153
 20
6.2511916029
 30
0.0
  0
VERTEX
  5
281
330
1B9
100
AcDbEntity
  8
0
  6
CONTINUOUS
 62
     7
100
AcDbVertex
100
AcDb2dVertex
 10
8.2120832049
 20
6.2096919447
 30
0.0
  0
VERTEX
  5
282
330
1B9
100
AcDbEntity
  8
0
  6
CONTINUOUS
 62
     7
100
AcDbVertex
100
AcDb2dVertex
 10
8.2069286547
 20
6.1687887479
 30
0.0
  0
VERTEX
  5
283
330
1B9
100
AcDbEntity
  8
0
  6
CONTINUOUS
 62
     7
100
AcDbVertex
100
AcDb2dVertex
 10
8.2034143279
 20
6.1285832921
 30
0.0
  0
VERTEX
  5
284
330
1B9
100
AcDbEntity
  8
0
  6
CONTINUOUS
 62
     7
100
AcDbVertex
100
AcDb2dVertex
 10
8.2015489261
 20
6.0891751295
 30
0.0
  0
SEQEND
  5
285
330
1B9
100
AcDbEntity
  8
0
  6
CONTINUOUS
 62
     7
  0
LINE
  5
1BA
330
1F
100
AcDbEntity
  8
0
  6
CONTINUOUS
 62
     7
100
AcDbLine
 10
8.2015489261
 20
6.0891751295
 30
0.0
 11
8.1458581681
 21
6.0891675909
 31
0.0
  0
POLYLINE
  5
1BB
330
1F
100
AcDbEntity
  8
0
  6
CONTINUOUS
 62
     7
100
AcDb2dPolyline
 66
     1
 10
0.0
 20
0.0
 30
0.0
  0
VERTEX
  5
286
330
1BB
100
AcDbEntity
  8
0
  6
CONTINUOUS
 62
     7
100
AcDbVertex
100
AcDb2dVertex
 10
8.1458581681
 20
6.0891675909
 30
0.0
  0
VERTEX
  5
287
330
1BB
100
AcDbEntity
  8
0
  6
CONTINUOUS
 62
     7
100
AcDbVertex
100
AcDb2dVertex
 10
8.1477158831
 20
6.1295591386
 30
0.0
  0
VERTEX
  5
288
330
1BB
100
AcDbEntity
  8
0
  6
CONTINUOUS
 62
     7
100
AcDbVertex
100
AcDb2dVertex
 10
8.1512391735
 20
6.17075993
 30
0.0
  0
VERTEX
  5
289
330
1BB
100
AcDbEntity
  8
0
  6
CONTINUOUS
 62
     7
100
AcDbVertex
100
AcDb2dVertex
 10
8.1564195813
 20
6.2126710562
 30
0.0
  0
VERTEX
  5
28A
330
1BB
100
AcDbEntity
  8
0
  6
CONTINUOUS
 62
     7
100
AcDbVertex
100
AcDb2dVertex
 10
8.1632446701
 20
6.255191903
 30
0.0
  0
VERTEX
  5
28B
330
1BB
100
AcDbEntity
  8
0
  6
CONTINUOUS
 62
     7
100
AcDbVertex
100
AcDb2dVertex
 10
8.171698055
 20
6.2982203926
 30
0.0
  0
VERTEX
  5
28C
330
1BB
100
AcDbEntity
  8
0
  6
CONTINUOUS
 62
     7
100
AcDbVertex
100
AcDb2dVertex
 10
8.1817594426
 20
6.3416532283
 30
0.0
  0
VERTEX
  5
28D
330
1BB
100
AcDbEntity
  8
0
  6
CONTINUOUS
 62
     7
100
AcDbVertex
100
AcDb2dVertex
 10
8.1934046788
 20
6.3853861429
 30
0.0
  0
VERTEX
  5
28E
330
1BB
100
AcDbEntity
  8
0
  6
CONTINUOUS
 62
     7
100
AcDbVertex
100
AcDb2dVertex
 10
8.2066058075
 20
6.4293141486
 30
0.0
  0
VERTEX
  5
28F
330
1BB
100
AcDbEntity
  8
0
  6
CONTINUOUS
 62
     7
100
AcDbVertex
100
AcDb2dVertex
 10
8.2213311373
 20
6.4733317896
 30
0.0
  0
VERTEX
  5
290
330
1BB
100
AcDbEntity
  8
0
  6
CONTINUOUS
 62
     7
100
AcDbVertex
100
AcDb2dVertex
 10
8.2375453177
 20
6.5173333945
 30
0.0
  0
VERTEX
  5
291
330
1BB
100
AcDbEntity
  8
0
  6
CONTINUOUS
 62
     7
100
AcDbVertex
100
AcDb2dVertex
 10
8.2552094241
 20
6.5612133307
 30
0.0
  0
VERTEX
  5
292
330
1BB
100
AcDbEntity
  8
0
  6
CONTINUOUS
 62
     7
100
AcDbVertex
100
AcDb2dVertex
 10
8.2742810511
 20
6.6048662576
 30
0.0
  0
VERTEX
  5
293
330
1BB
100
AcDbEntity
  8
0
  6
CONTINUOUS
 62
     7
100
AcDbVertex
100
AcDb2dVertex
 10
8.2947144142
 20
6.6481873795
 30
0.0
  0
VERTEX
  5
294
330
1BB
100
AcDbEntity
  8
0
  6
CONTINUOUS
 62
     7
100
AcDbVertex
100
AcDb2dVertex
 10
8.3164604599
 20
6.6910726973
 30
0.0
  0
VERTEX
  5
295
330
1BB
100
AcDbEntity
  8
0
  6
CONTINUOUS
 62
     7
100
AcDbVertex
100
AcDb2dVertex
 10
8.3394669836
 20
6.7334192582
 30
0.0
  0
VERTEX
  5
296
330
1BB
100
AcDbEntity
  8
0
  6
CONTINUOUS
 62
     7
100
AcDbVertex
100
AcDb2dVertex
 10
8.3636787544
 20
6.7751254026
 30
0.0
  0
VERTEX
  5
297
330
1BB
100
AcDbEntity
  8
0
  6
CONTINUOUS
 62
     7
100
AcDbVertex
100
AcDb2dVertex
 10
8.3890376483
 20
6.8160910084
 30
0.0
  0
VERTEX
  5
298
330
1BB
100
AcDbEntity
  8
0
  6
CONTINUOUS
 62
     7
100
AcDbVertex
100
AcDb2dVertex
 10
8.4154827872
 20
6.8562177314
 30
0.0
  0
VERTEX
  5
299
330
1BB
100
AcDbEntity
  8
0
  6
CONTINUOUS
 62
     7
100
AcDbVertex
100
AcDb2dVertex
 10
8.4429506856
 20
6.895409241
 30
0.0
  0
VERTEX
  5
29A
330
1BB
100
AcDbEntity
  8
0
  6
CONTINUOUS
 62
     7
100
AcDbVertex
100
AcDb2dVertex
 10
8.4713754023
 20
6.9335714521
 30
0.0
  0
VERTEX
  5
29B
330
1BB
100
AcDbEntity
  8
0
  6
CONTINUOUS
 62
     7
100
AcDbVertex
100
AcDb2dVertex
 10
8.5006886996
 20
6.9706127501
 30
0.0
  0
VERTEX
  5
29C
330
1BB
100
AcDbEntity
  8
0
  6
CONTINUOUS
 62
     7
100
AcDbVertex
100
AcDb2dVertex
 10
8.5308202062
 20
7.0064442119
 30
0.0
  0
VERTEX
  5
29D
330
1BB
100
AcDbEntity
  8
0
  6
CONTINUOUS
 62
     7
100
AcDbVertex
100
AcDb2dVertex
 10
8.5616975867
 20
7.0409798182
 30
0.0
  0
VERTEX
  5
29E
330
1BB
100
AcDbEntity
  8
0
  6
CONTINUOUS
 62
     7
100
AcDbVertex
100
AcDb2dVertex
 10
8.5932467153
 20
7.0741366611
 30
0.0
  0
VERTEX
  5
29F
330
1BB
100
AcDbEntity
  8
0
  6
CONTINUOUS
 62
     7
100
AcDbVertex
100
AcDb2dVertex
 10
8.6253918533
 20
7.1058351424
 30
0.0
  0
VERTEX
  5
2A0
330
1BB
100
AcDbEntity
  8
0
  6
CONTINUOUS
 62
     7
100
AcDbVertex
100
AcDb2dVertex
 10
8.6580558313
 20
7.1359991649
 30
0.0
  0
VERTEX
  5
2A1
330
1BB
100
AcDbEntity
  8
0
  6
CONTINUOUS
 62
     7
100
AcDbVertex
100
AcDb2dVertex
 10
8.6911602343
 20
7.1645563153
 30
0.0
  0
VERTEX
  5
2A2
330
1BB
100
AcDbEntity
  8
0
  6
CONTINUOUS
 62
     7
100
AcDbVertex
100
AcDb2dVertex
 10
8.7246255902
 20
7.1914380376
 30
0.0
  0
VERTEX
  5
2A3
330
1BB
100
AcDbEntity
  8
0
  6
CONTINUOUS
 62
     7
100
AcDbVertex
100
AcDb2dVertex
 10
8.75837156
 20
7.216579798
 30
0.0
  0
VERTEX
  5
2A4
330
1BB
100
AcDbEntity
  8
0
  6
CONTINUOUS
 62
     7
100
AcDbVertex
100
AcDb2dVertex
 10
8.7923171313
 20
7.2399212399
 30
0.0
  0
VERTEX
  5
2A5
330
1BB
100
AcDbEntity
  8
0
  6
CONTINUOUS
 62
     7
100
AcDbVertex
100
AcDb2dVertex
 10
8.8263808126
 20
7.2614063285
 30
0.0
  0
VERTEX
  5
2A6
330
1BB
100
AcDbEntity
  8
0
  6
CONTINUOUS
 62
     7
100
AcDbVertex
100
AcDb2dVertex
 10
8.8604808286
 20
7.2809834856
 30
0.0
  0
VERTEX
  5
2A7
330
1BB
100
AcDbEntity
  8
0
  6
CONTINUOUS
 62
     7
100
AcDbVertex
100
AcDb2dVertex
 10
8.8945353169
 20
7.298605713
 30
0.0
  0
VERTEX
  5
2A8
330
1BB
100
AcDbEntity
  8
0
  6
CONTINUOUS
 62
     7
100
AcDbVertex
100
AcDb2dVertex
 10
8.9284625245
 20
7.3142307058
 30
0.0
  0
VERTEX
  5
2A9
330
1BB
100
AcDbEntity
  8
0
  6
CONTINUOUS
 62
     7
100
AcDbVertex
100
AcDb2dVertex
 10
8.9621810038
 20
7.327820954
 30
0.0
  0
VERTEX
  5
2AA
330
1BB
100
AcDbEntity
  8
0
  6
CONTINUOUS
 62
     7
100
AcDbVertex
100
AcDb2dVertex
 10
8.9956098083
 20
7.3393438319
 30
0.0
  0
VERTEX
  5
2AB
330
1BB
100
AcDbEntity
  8
0
  6
CONTINUOUS
 62
     7
100
AcDbVertex
100
AcDb2dVertex
 10
9.0286686871
 20
7.3487716771
 30
0.0
  0
VERTEX
  5
2AC
330
1BB
100
AcDbEntity
  8
0
  6
CONTINUOUS
 62
     7
100
AcDbVertex
100
AcDb2dVertex
 10
9.061278277
 20
7.3560818566
 30
0.0
  0
VERTEX
  5
2AD
330
1BB
100
AcDbEntity
  8
0
  6
CONTINUOUS
 62
     7
100
AcDbVertex
100
AcDb2dVertex
 10
9.0933602937
 20
7.3612568212
 30
0.0
  0
VERTEX
  5
2AE
330
1BB
100
AcDbEntity
  8
0
  6
CONTINUOUS
 62
     7
100
AcDbVertex
100
AcDb2dVertex
 10
9.1248377194
 20
7.3642841475
 30
0.0
  0
VERTEX
  5
2AF
330
1BB
100
AcDbEntity
  8
0
  6
CONTINUOUS
 62
     7
100
AcDbVertex
100
AcDb2dVertex
 10
9.1556349876
 20
7.365156568
 30
0.0
  0
VERTEX
  5
2B0
330
1BB
100
AcDbEntity
  8
0
  6
CONTINUOUS
 62
     7
100
AcDbVertex
100
AcDb2dVertex
 10
9.1856781646
 20
7.3638719883
 30
0.0
  0
VERTEX
  5
2B1
330
1BB
100
AcDbEntity
  8
0
  6
CONTINUOUS
 62
     7
100
AcDbVertex
100
AcDb2dVertex
 10
9.2148951272
 20
7.3604334922
 30
0.0
  0
VERTEX
  5
2B2
330
1BB
100
AcDbEntity
  8
0
  6
CONTINUOUS
 62
     7
100
AcDbVertex
100
AcDb2dVertex
 10
9.2432157354
 20
7.3548493344
 30
0.0
  0
VERTEX
  5
2B3
330
1BB
100
AcDbEntity
  8
0
  6
CONTINUOUS
 62
     7
100
AcDbVertex
100
AcDb2dVertex
 10
9.2705720012
 20
7.3471329206
 30
0.0
  0
VERTEX
  5
2B4
330
1BB
100
AcDbEntity
  8
0
  6
CONTINUOUS
 62
     7
100
AcDbVertex
100
AcDb2dVertex
 10
9.2968982518
 20
7.3373027751
 30
0.0
  0
VERTEX
  5
2B5
330
1BB
100
AcDbEntity
  8
0
  6
CONTINUOUS
 62
     7
100
AcDbVertex
100
AcDb2dVertex
 10
9.3221312867
 20
7.3253824968
 30
0.0
  0
VERTEX
  5
2B6
330
1BB
100
AcDbEntity
  8
0
  6
CONTINUOUS
 62
     7
100
AcDbVertex
100
AcDb2dVertex
 10
9.3462105301
 20
7.3114007021
 30
0.0
  0
VERTEX
  5
2B7
330
1BB
100
AcDbEntity
  8
0
  6
CONTINUOUS
 62
     7
100
AcDbVertex
100
AcDb2dVertex
 10
9.3690781762
 20
7.2953909566
 30
0.0
  0
VERTEX
  5
2B8
330
1BB
100
AcDbEntity
  8
0
  6
CONTINUOUS
 62
     7
100
AcDbVertex
100
AcDb2dVertex
 10
9.3906793275
 20
7.277391694
 30
0.0
  0
VERTEX
  5
2B9
330
1BB
100
AcDbEntity
  8
0
  6
CONTINUOUS
 62
     7
100
AcDbVertex
100
AcDb2dVertex
 10
9.4109621272
 20
7.2574461246
 30
0.0
  0
VERTEX
  5
2BA
330
1BB
100
AcDbEntity
  8
0
  6
CONTINUOUS
 62
     7
100
AcDbVertex
100
AcDb2dVertex
 10
9.4298778832
 20
7.2356021306
 30
0.0
  0
VERTEX
  5
2BB
330
1BB
100
AcDbEntity
  8
0
  6
CONTINUOUS
 62
     7
100
AcDbVertex
100
AcDb2dVertex
 10
9.4473811852
 20
7.211912152
 30
0.0
  0
VERTEX
  5
2BC
330
1BB
100
AcDbEntity
  8
0
  6
CONTINUOUS
 62
     7
100
AcDbVertex
100
AcDb2dVertex
 10
9.463430014
 20
7.1864330602
 30
0.0
  0
VERTEX
  5
2BD
330
1BB
100
AcDbEntity
  8
0
  6
CONTINUOUS
 62
     7
100
AcDbVertex
100
AcDb2dVertex
 10
9.4779858417
 20
7.1592260219
 30
0.0
  0
VERTEX
  5
2BE
330
1BB
100
AcDbEntity
  8
0
  6
CONTINUOUS
 62
     7
100
AcDbVertex
100
AcDb2dVertex
 10
9.4910137249
 20
7.1303563517
 30
0.0
  0
VERTEX
  5
2BF
330
1BB
100
AcDbEntity
  8
0
  6
CONTINUOUS
 62
     7
100
AcDbVertex
100
AcDb2dVertex
 10
9.5024823881
 20
7.0998933558
 30
0.0
  0
VERTEX
  5
2C0
330
1BB
100
AcDbEntity
  8
0
  6
CONTINUOUS
 62
     7
100
AcDbVertex
100
AcDb2dVertex
 10
9.512364299
 20
7.0679101653
 30
0.0
  0
VERTEX
  5
2C1
330
1BB
100
AcDbEntity
  8
0
  6
CONTINUOUS
 62
     7
100
AcDbVertex
100
AcDb2dVertex
 10
9.5206357345
 20
7.0344835609
 30
0.0
  0
VERTEX
  5
2C2
330
1BB
100
AcDbEntity
  8
0
  6
CONTINUOUS
 62
     7
100
AcDbVertex
100
AcDb2dVertex
 10
9.5272768378
 20
6.9996937882
 30
0.0
  0
VERTEX
  5
2C3
330
1BB
100
AcDbEntity
  8
0
  6
CONTINUOUS
 62
     7
100
AcDbVertex
100
AcDb2dVertex
 10
9.5322716658
 20
6.9636243657
 30
0.0
  0
VERTEX
  5
2C4
330
1BB
100
AcDbEntity
  8
0
  6
CONTINUOUS
 62
     7
100
AcDbVertex
100
AcDb2dVertex
 10
9.5356082276
 20
6.9263618835
 30
0.0
  0
VERTEX
  5
2C5
330
1BB
100
AcDbEntity
  8
0
  6
CONTINUOUS
 62
     7
100
AcDbVertex
100
AcDb2dVertex
 10
9.5372785135
 20
6.8879957961
 30
0.0
  0
VERTEX
  5
2C6
330
1BB
100
AcDbEntity
  8
0
  6
CONTINUOUS
 62
     7
100
AcDbVertex
100
AcDb2dVertex
 10
9.5374873932
 20
6.8684275853
 30
0.0
  0
SEQEND
  5
2C7
330
1BB
100
AcDbEntity
  8
0
  6
CONTINUOUS
 62
     7
  0
POLYLINE
  5
1BC
330
1F
100
AcDbEntity
  8
0
  6
CONTINUOUS
 62
     7
100
AcDb2dPolyline
 66
     1
 10
0.0
 20
0.0
 30
0.0
  0
VERTEX
  5
2C8
330
1BC
100
AcDbEntity
  8
0
  6
CONTINUOUS
 62
     7
100
AcDbVertex
100
AcDb2dVertex
 10
8.8416292668
 20
5.6630353487
 30
0.0
  0
VERTEX
  5
2C9
330
1BC
100
AcDbEntity
  8
0
  6
CONTINUOUS
 62
     7
100
AcDbVertex
100
AcDb2dVertex
 10
8.8263808126
 20
5.6544226601
 30
0.0
  0
VERTEX
  5
2CA
330
1BC
100
AcDbEntity
  8
0
  6
CONTINUOUS
 62
     7
100
AcDbVertex
100
AcDb2dVertex
 10
8.7923171313
 20
5.6365786595
 30
0.0
  0
VERTEX
  5
2CB
330
1BC
100
AcDbEntity
  8
0
  6
CONTINUOUS
 62
     7
100
AcDbVertex
100
AcDb2dVertex
 10
8.75837156
 20
5.6207273789
 30
0.0
  0
VERTEX
  5
2CC
330
1BC
100
AcDbEntity
  8
0
  6
CONTINUOUS
 62
     7
100
AcDbVertex
100
AcDb2dVertex
 10
8.7246255902
 20
5.606906872
 30
0.0
  0
VERTEX
  5
2CD
330
1BC
100
AcDbEntity
  8
0
  6
CONTINUOUS
 62
     7
100
AcDbVertex
100
AcDb2dVertex
 10
8.6911602343
 20
5.5951503168
 30
0.0
  0
VERTEX
  5
2CE
330
1BC
100
AcDbEntity
  8
0
  6
CONTINUOUS
 62
     7
100
AcDbVertex
100
AcDb2dVertex
 10
8.6580558313
 20
5.585485937
 30
0.0
  0
VERTEX
  5
2CF
330
1BC
100
AcDbEntity
  8
0
  6
CONTINUOUS
 62
     7
100
AcDbVertex
100
AcDb2dVertex
 10
8.6253918533
 20
5.5779369333
 30
0.0
  0
VERTEX
  5
2D0
330
1BC
100
AcDbEntity
  8
0
  6
CONTINUOUS
 62
     7
100
AcDbVertex
100
AcDb2dVertex
 10
8.5932467153
 20
5.5725214282
 30
0.0
  0
VERTEX
  5
2D1
330
1BC
100
AcDbEntity
  8
0
  6
CONTINUOUS
 62
     7
100
AcDbVertex
100
AcDb2dVertex
 10
8.5616975867
 20
5.5692524226
 30
0.0
  0
VERTEX
  5
2D2
330
1BC
100
AcDbEntity
  8
0
  6
CONTINUOUS
 62
     7
100
AcDbVertex
100
AcDb2dVertex
 10
8.5308202062
 20
5.5681377642
 30
0.0
  0
VERTEX
  5
2D3
330
1BC
100
AcDbEntity
  8
0
  6
CONTINUOUS
 62
     7
100
AcDbVertex
100
AcDb2dVertex
 10
8.5006886996
 20
5.569180129
 30
0.0
  0
VERTEX
  5
2D4
330
1BC
100
AcDbEntity
  8
0
  6
CONTINUOUS
 62
     7
100
AcDbVertex
100
AcDb2dVertex
 10
8.4713754023
 20
5.5723770144
 30
0.0
  0
VERTEX
  5
2D5
330
1BC
100
AcDbEntity
  8
0
  6
CONTINUOUS
 62
     7
100
AcDbVertex
100
AcDb2dVertex
 10
8.4429506856
 20
5.5777207461
 30
0.0
  0
VERTEX
  5
2D6
330
1BC
100
AcDbEntity
  8
0
  6
CONTINUOUS
 62
     7
100
AcDbVertex
100
AcDb2dVertex
 10
8.4154827872
 20
5.5851984953
 30
0.0
  0
VERTEX
  5
2D7
330
1BC
100
AcDbEntity
  8
0
  6
CONTINUOUS
 62
     7
100
AcDbVertex
100
AcDb2dVertex
 10
8.3890376483
 20
5.5947923108
 30
0.0
  0
VERTEX
  5
2D8
330
1BC
100
AcDbEntity
  8
0
  6
CONTINUOUS
 62
     7
100
AcDbVertex
100
AcDb2dVertex
 10
8.3636787544
 20
5.606479161
 30
0.0
  0
VERTEX
  5
2D9
330
1BC
100
AcDbEntity
  8
0
  6
CONTINUOUS
 62
     7
100
AcDbVertex
100
AcDb2dVertex
 10
8.3394669836
 20
5.6202309898
 30
0.0
  0
VERTEX
  5
2DA
330
1BC
100
AcDbEntity
  8
0
  6
CONTINUOUS
 62
     7
100
AcDbVertex
100
AcDb2dVertex
 10
8.3164604599
 20
5.6360147839
 30
0.0
  0
VERTEX
  5
2DB
330
1BC
100
AcDbEntity
  8
0
  6
CONTINUOUS
 62
     7
100
AcDbVertex
100
AcDb2dVertex
 10
8.2947144142
 20
5.6537926517
 30
0.0
  0
VERTEX
  5
2DC
330
1BC
100
AcDbEntity
  8
0
  6
CONTINUOUS
 62
     7
100
AcDbVertex
100
AcDb2dVertex
 10
8.2742810511
 20
5.6735219147
 30
0.0
  0
VERTEX
  5
2DD
330
1BC
100
AcDbEntity
  8
0
  6
CONTINUOUS
 62
     7
100
AcDbVertex
100
AcDb2dVertex
 10
8.2552094241
 20
5.6951552098
 30
0.0
  0
VERTEX
  5
2DE
330
1BC
100
AcDbEntity
  8
0
  6
CONTINUOUS
 62
     7
100
AcDbVertex
100
AcDb2dVertex
 10
8.2375453177
 20
5.7186406028
 30
0.0
  0
VERTEX
  5
2DF
330
1BC
100
AcDbEntity
  8
0
  6
CONTINUOUS
 62
     7
100
AcDbVertex
100
AcDb2dVertex
 10
8.2213311373
 20
5.7439217135
 30
0.0
  0
VERTEX
  5
2E0
330
1BC
100
AcDbEntity
  8
0
  6
CONTINUOUS
 62
     7
100
AcDbVertex
100
AcDb2dVertex
 10
8.2066058075
 20
5.7709378506
 30
0.0
  0
VERTEX
  5
2E1
330
1BC
100
AcDbEntity
  8
0
  6
CONTINUOUS
 62
     7
100
AcDbVertex
100
AcDb2dVertex
 10
8.1934046788
 20
5.7996241576
 30
0.0
  0
VERTEX
  5
2E2
330
1BC
100
AcDbEntity
  8
0
  6
CONTINUOUS
 62
     7
100
AcDbVertex
100
AcDb2dVertex
 10
8.1817594426
 20
5.8299117686
 30
0.0
  0
VERTEX
  5
2E3
330
1BC
100
AcDbEntity
  8
0
  6
CONTINUOUS
 62
     7
100
AcDbVertex
100
AcDb2dVertex
 10
8.171698055
 20
5.8617279735
 30
0.0
  0
VERTEX
  5
2E4
330
1BC
100
AcDbEntity
  8
0
  6
CONTINUOUS
 62
     7
100
AcDbVertex
100
AcDb2dVertex
 10
8.1632446701
 20
5.8949963926
 30
0.0
  0
VERTEX
  5
2E5
330
1BC
100
AcDbEntity
  8
0
  6
CONTINUOUS
 62
     7
100
AcDbVertex
100
AcDb2dVertex
 10
8.1564195813
 20
5.9296371597
 30
0.0
  0
VERTEX
  5
2E6
330
1BC
100
AcDbEntity
  8
0
  6
CONTINUOUS
 62
     7
100
AcDbVertex
100
AcDb2dVertex
 10
8.1512391735
 20
5.9655671144
 30
0.0
  0
VERTEX
  5
2E7
330
1BC
100
AcDbEntity
  8
0
  6
CONTINUOUS
 62
     7
100
AcDbVertex
100
AcDb2dVertex
 10
8.1477158831
 20
6.0027000012
 30
0.0
  0
VERTEX
  5
2E8
330
1BC
100
AcDbEntity
  8
0
  6
CONTINUOUS
 62
     7
100
AcDbVertex
100
AcDb2dVertex
 10
8.1458581681
 20
6.0409466768
 30
0.0
  0
SEQEND
  5
2E9
330
1BC
100
AcDbEntity
  8
0
  6
CONTINUOUS
 62
     7
  0
LINE
  5
1BD
330
1F
100
AcDbEntity
  8
0
  6
CONTINUOUS
 62
     7
100
AcDbLine
 10
8.1458581681
 20
6.0409466768
 30
0.0
 11
8.2015489261
 21
6.0409542154
 31
0.0
  0
SPLINE
  5
1BE
330
1F
100
AcDbEntity
  8
0
  6
CONTINUOUS
 62
     7
100
AcDbSpline
210
0.0
220
0.0
230
1.0
 70
     8
 71
     3
 72
    18
 73
    14
 74
     0
 42
0.00000001
 43
0.00000001
 40
0.0
 40
0.0
 40
0.0
 40
0.0
 40
0.0561156431033099
 40
0.1144427821030504
 40
0.1704685882477907
 40
0.227818147079481
 40
0.3155615606295401
 40
0.4057275896034602
 40
0.53143491149712
 40
0.6607077263141607
 40
0.7891821038899745
 40
0.9210220447479658
 40
1.0
 40
1.0
 40
1.0
 40
1.0
 10
7.269268210050183
 20
6.244410828277885
 30
0.0
 10
7.265914946042774
 20
6.246310699001308
 30
0.0
 10
7.259076267184059
 20
6.250185313622127
 30
0.0
 10
7.25095001730395
 20
6.254320169656092
 30
0.0
 10
7.244485311732991
 20
6.257271165095255
 30
0.0
 10
7.238958006681163
 20
6.259376750784855
 30
0.0
 10
7.235223806882411
 20
6.260196032310086
 30
0.0
 10
7.234096092541325
 20
6.25932653697986
 30
0.0
 10
7.237194440206896
 20
6.256384700605251
 30
0.0
 10
7.245573389058286
 20
6.251341255516579
 30
0.0
 10
7.258936994283555
 20
6.244757516107271
 30
0.0
 10
7.274145464134846
 20
6.2380584350498
 30
0.0
 10
7.286349597138359
 20
6.23311623352503
 30
0.0
 10
7.290921587884999
 20
6.231264754224306
 30
0.0
  0
SPLINE
  5
1BF
330
1F
100
AcDbEntity
  8
0
  6
CONTINUOUS
 62
     7
100
AcDbSpline
210
0.0
220
0.0
230
1.0
 70
     8
 71
     3
 72
    15
 73
    11
 74
     0
 42
0.00000001
 43
0.00000001
 40
0.0
 40
0.0
 40
0.0
 40
0.0
 40
0.1318744811244943
 40
0.3056646178186317
 40
0.483561429327344
 40
0.5967925338233564
 40
0.7124215880661833
 40
0.8002995846465569
 40
0.8904434771794485
 40
1.0
 40
1.0
 40
1.0
 40
1.0
 10
7.395554490334192
 20
6.165043284126553
 30
0.0
 10
7.390698558951827
 20
6.167837897672849
 30
0.0
 10
7.379443262267525
 20
6.174315378943636
 30
0.0
 10
7.359734864474873
 20
6.186716731347771
 30
0.0
 10
7.339881486045457
 20
6.199551459040012
 30
0.0
 10
7.321827644739057
 20
6.211376371457922
 30
0.0
 10
7.307495043217742
 20
6.220726488770195
 30
0.0
 10
7.294283129073967
 20
6.229197103202371
 30
0.0
 10
7.281565695416969
 20
6.237166721241279
 30
0.0
 10
7.273624683810082
 20
6.241844550597725
 30
0.0
 10
7.269268210050183
 20
6.244410828277885
 30
0.0
  0
SPLINE
  5
1C0
330
1F
100
AcDbEntity
  8
0
  6
CONTINUOUS
 62
     7
100
AcDbSpline
210
0.0
220
0.0
230
1.0
 70
     8
 71
     3
 72
    37
 73
    33
 74
     0
 42
0.00000001
 43
0.00000001
 40
0.0
 40
0.0
 40
0.0
 40
0.0
 40
0.0321183190094187
 40
0.0644743168701401
 40
0.0967630483288085
 40
0.1390509145586545
 40
0.1814794189854178
 40
0.2237828010430237
 40
0.2666707077011922
 40
0.3097035126128239
 40
0.3525046425530358
 40
0.3923957969537982
 40
0.4322479566201852
 40
0.4590586278049221
 40
0.4859741796674201
 40
0.5127524667288368
 40
0.5469108172201814
 40
0.5810530014027138
 40
0.6110675061377637
 40
0.6410789489825959
 40
0.6696667632198948
 40
0.6982567997697186
 40
0.7267676513659865
 40
0.7552854960423393
 40
0.7847860226763136
 40
0.8142992300222356
 40
0.846250066592357
 40
0.8782196743153908
 40
0.9148182070803617
 40
0.9514413471582582
 40
0.9883357546436636
 40
1.0
 40
1.0
 40
1.0
 40
1.0
 10
7.984500069307146
 20
6.667341912586568
 30
0.0
 10
7.994099659768383
 20
6.670496879522213
 30
0.0
 10
8.013369878643783
 20
6.676830160472063
 30
0.0
 10
8.041142150085097
 20
6.693180258734746
 30
0.0
 10
8.070916444347327
 20
6.714535024489266
 30
0.0
 10
8.10267030949674
 20
6.741462393451794
 30
0.0
 10
8.135893871127399
 20
6.774184615348312
 30
0.0
 10
8.167922539174585
 20
6.809957661922127
 30
0.0
 10
8.198525503445355
 20
6.848334269991316
 30
0.0
 10
8.226899534086304
 20
6.889086638446856
 30
0.0
 10
8.251482883601245
 20
6.930703785658494
 30
0.0
 10
8.271341251315178
 20
6.972429260478349
 30
0.0
 10
8.284145505047155
 20
7.009179832544738
 30
0.0
 10
8.291030550287465
 20
7.041098707449533
 30
0.0
 10
8.293633797027287
 20
7.067994618284411
 30
0.0
 10
8.292475120324458
 20
7.096283577919828
 30
0.0
 10
8.285635409459198
 20
7.124882057043543
 30
0.0
 10
8.272261231390372
 20
7.151298372583237
 30
0.0
 10
8.253621849441528
 20
7.172726659298085
 30
0.0
 10
8.231633011585451
 20
7.189076407309726
 30
0.0
 10
8.206146611380477
 20
7.200834951531482
 30
0.0
 10
8.178315548550616
 20
7.20808125908099
 30
0.0
 10
8.14846872330858
 20
7.210614422733949
 30
0.0
 10
8.117251555885659
 20
7.208548105176481
 30
0.0
 10
8.085487052879095
 20
7.201586722267241
 30
0.0
 10
8.053215254134342
 20
7.189691180681473
 30
0.0
 10
8.021711045864212
 20
7.172747183674598
 30
0.0
 10
7.990349880749701
 20
7.15009490222396
 30
0.0
 10
7.960885770786651
 20
7.122102009267014
 30
0.0
 10
7.934404091026573
 20
7.08896411541109
 30
0.0
 10
7.916359758538275
 20
7.061449459107711
 30
0.0
 10
7.90846658103827
 20
7.044574063516774
 30
0.0
 10
7.906570565526858
 20
7.040520434695985
 30
0.0
  0
SPLINE
  5
1C1
330
1F
100
AcDbEntity
  8
0
  6
CONTINUOUS
 62
     7
100
AcDbSpline
210
0.0
220
0.0
230
1.0
 70
     8
 71
     3
 72
    11
 73
     7
 74
     0
 42
0.00000001
 43
0.00000001
 40
0.0
 40
0.0
 40
0.0
 40
0.0
 40
0.2454891714539924
 40
0.511218889792791
 40
0.7759665988535436
 40
1.0
 40
1.0
 40
1.0
 40
1.0
 10
7.860146448049843
 20
6.84478725538633
 30
0.0
 10
7.860304750479986
 20
6.834812414337627
 30
0.0
 10
7.860634407352872
 20
6.814040308030144
 30
0.0
 10
7.864516185544639
 20
6.78296591855435
 30
0.0
 10
7.87078627231046
 20
6.753373325291405
 30
0.0
 10
7.877529311519263
 20
6.735501964442178
 30
0.0
 10
7.880619991532187
 20
6.727310605016543
 30
0.0
  0
SPLINE
  5
1C2
330
1F
100
AcDbEntity
  8
0
  6
CONTINUOUS
 62
     7
100
AcDbSpline
210
0.0
220
0.0
230
1.0
 70
     8
 71
     3
 72
    15
 73
    11
 74
     0
 42
0.00000001
 43
0.00000001
 40
0.0
 40
0.0
 40
0.0
 40
0.0
 40
0.0913866336195404
 40
0.1863747792963542
 40
0.277615109732606
 40
0.3710112258841258
 40
0.5139049849713151
 40
0.6607440729525145
 40
0.8654636187668598
 40
1.0
 40
1.0
 40
1.0
 40
1.0
 10
7.993078301028537
 20
5.826564156872561
 30
0.0
 10
7.996685846440424
 20
5.824445634105413
 30
0.0
 10
8.004043109240378
 20
5.820125098404259
 30
0.0
 10
8.016230187813727
 20
5.812533377784036
 30
0.0
 10
8.028793766946698
 20
5.804499361934813
 30
0.0
 10
8.043608056548708
 20
5.794862960621471
 30
0.0
 10
8.060712690972434
 20
5.783646620455741
 30
0.0
 10
8.081914022139706
 20
5.769913020090242
 30
0.0
 10
8.101900016214707
 20
5.757258820717003
 30
0.0
 10
8.11440589076154
 20
5.750053218475914
 30
0.0
 10
8.11936525910723
 20
5.747195742532728
 30
0.0
  0
SPLINE
  5
1C3
330
1F
100
AcDbEntity
  8
0
  6
CONTINUOUS
 62
     7
100
AcDbSpline
210
0.0
220
0.0
230
1.0
 70
     8
 71
     3
 72
    19
 73
    15
 74
     0
 42
0.00000001
 43
0.00000001
 40
0.0
 40
0.0
 40
0.0
 40
0.0
 40
0.003579849807227
 40
0.1079992544381222
 40
0.2145336320144985
 40
0.3398767178754413
 40
0.4682501958531983
 40
0.5747012437033491
 40
0.6836677383188172
 40
0.7530247798179224
 40
0.8238506288575248
 40
0.8776782222808305
 40
0.9328937368085972
 40
1.0
 40
1.0
 40
1.0
 40
1.0
 10
8.01490080372725
 20
5.813321468913571
 30
0.0
 10
8.014678075850897
 20
5.813410264887628
 30
0.0
 10
8.007958675349766
 20
5.816089120010477
 30
0.0
 10
7.996906700592346
 20
5.820708997933665
 30
0.0
 10
7.981677956851679
 20
5.827414394775233
 30
0.0
 10
7.969467871573625
 20
5.833462414645127
 30
0.0
 10
7.961484890703117
 20
5.838241949847763
 30
0.0
 10
7.958015152015409
 20
5.841312082718173
 30
0.0
 10
7.95865309670856
 20
5.842346271223503
 30
0.0
 10
7.962245060168599
 20
5.841670362029423
 30
0.0
 10
7.967157595480141
 20
5.839911583127268
 30
0.0
 10
7.97371226657539
 20
5.836970967595373
 30
0.0
 10
7.981802583170004
 20
5.832928584114116
 30
0.0
 10
7.989083795850479
 20
5.828818801578177
 30
0.0
 10
7.993078301028537
 20
5.826564156872561
 30
0.0
  0
LINE
  5
1C4
330
1F
100
AcDbEntity
  8
0
  6
CONTINUOUS
 62
     7
100
AcDbLine
 10
7.5055646261
 20
6.4588011848
 30
0.0
 11
8.1458581681
 21
6.0891675909
 31
0.0
  0
POLYLINE
  5
1C5
330
1F
100
AcDbEntity
  8
0
  6
CONTINUOUS
 62
     7
100
AcDb2dPolyline
 66
     1
 10
0.0
 20
0.0
 30
0.0
  0
VERTEX
  5
2EA
330
1C5
100
AcDbEntity
  8
0
  6
CONTINUOUS
 62
     7
100
AcDbVertex
100
AcDb2dVertex
 10
7.5055646261
 20
6.4588011848
 30
0.0
  0
VERTEX
  5
2EB
330
1C5
100
AcDbEntity
  8
0
  6
CONTINUOUS
 62
     7
100
AcDbVertex
100
AcDb2dVertex
 10
7.5074659507
 20
6.4998508087
 30
0.0
  0
VERTEX
  5
2EC
330
1C5
100
AcDbEntity
  8
0
  6
CONTINUOUS
 62
     7
100
AcDbVertex
100
AcDb2dVertex
 10
7.5110868685
 20
6.541734343
 30
0.0
  0
VERTEX
  5
2ED
330
1C5
100
AcDbEntity
  8
0
  6
CONTINUOUS
 62
     7
100
AcDbVertex
100
AcDb2dVertex
 10
7.5164184047
 20
6.5843479723
 30
0.0
  0
VERTEX
  5
2EE
330
1C5
100
AcDbEntity
  8
0
  6
CONTINUOUS
 62
     7
100
AcDbVertex
100
AcDb2dVertex
 10
7.5234473439
 20
6.6275860715
 30
0.0
  0
VERTEX
  5
2EF
330
1C5
100
AcDbEntity
  8
0
  6
CONTINUOUS
 62
     7
100
AcDbVertex
100
AcDb2dVertex
 10
7.5321562639
 20
6.6713414676
 30
0.0
  0
VERTEX
  5
2F0
330
1C5
100
AcDbEntity
  8
0
  6
CONTINUOUS
 62
     7
100
AcDbVertex
100
AcDb2dVertex
 10
7.5425235781
 20
6.7155057055
 30
0.0
  0
VERTEX
  5
2F1
330
1C5
100
AcDbEntity
  8
0
  6
CONTINUOUS
 62
     7
100
AcDbVertex
100
AcDb2dVertex
 10
7.5545235893
 20
6.7599693166
 30
0.0
  0
VERTEX
  5
2F2
330
1C5
100
AcDbEntity
  8
0
  6
CONTINUOUS
 62
     7
100
AcDbVertex
100
AcDb2dVertex
 10
7.5681265535
 20
6.8046220904
 30
0.0
  0
VERTEX
  5
2F3
330
1C5
100
AcDbEntity
  8
0
  6
CONTINUOUS
 62
     7
100
AcDbVertex
100
AcDb2dVertex
 10
7.5832987534
 20
6.8493533474
 30
0.0
  0
VERTEX
  5
2F4
330
1C5
100
AcDbEntity
  8
0
  6
CONTINUOUS
 62
     7
100
AcDbVertex
100
AcDb2dVertex
 10
7.6000025822
 20
6.8940522136
 30
0.0
  0
VERTEX
  5
2F5
330
1C5
100
AcDbEntity
  8
0
  6
CONTINUOUS
 62
     7
100
AcDbVertex
100
AcDb2dVertex
 10
7.6181966366
 20
6.9386078954
 30
0.0
  0
VERTEX
  5
2F6
330
1C5
100
AcDbEntity
  8
0
  6
CONTINUOUS
 62
     7
100
AcDbVertex
100
AcDb2dVertex
 10
7.6378358196
 20
6.9829099538
 30
0.0
  0
VERTEX
  5
2F7
330
1C5
100
AcDbEntity
  8
0
  6
CONTINUOUS
 62
     7
100
AcDbVertex
100
AcDb2dVertex
 10
7.6588714521
 20
7.0268485788
 30
0.0
  0
VERTEX
  5
2F8
330
1C5
100
AcDbEntity
  8
0
  6
CONTINUOUS
 62
     7
100
AcDbVertex
100
AcDb2dVertex
 10
7.6812513937
 20
7.070314861
 30
0.0
  0
VERTEX
  5
2F9
330
1C5
100
AcDbEntity
  8
0
  6
CONTINUOUS
 62
     7
100
AcDbVertex
100
AcDb2dVertex
 10
7.7049201721
 20
7.1132010619
 30
0.0
  0
VERTEX
  5
2FA
330
1C5
100
AcDbEntity
  8
0
  6
CONTINUOUS
 62
     7
100
AcDbVertex
100
AcDb2dVertex
 10
7.72981912
 20
7.1554008809
 30
0.0
  0
VERTEX
  5
2FB
330
1C5
100
AcDbEntity
  8
0
  6
CONTINUOUS
 62
     7
100
AcDbVertex
100
AcDb2dVertex
 10
7.7558865212
 20
7.1968097184
 30
0.0
  0
VERTEX
  5
2FC
330
1C5
100
AcDbEntity
  8
0
  6
CONTINUOUS
 62
     7
100
AcDbVertex
100
AcDb2dVertex
 10
7.7830577634
 20
7.2373249357
 30
0.0
  0
VERTEX
  5
2FD
330
1C5
100
AcDbEntity
  8
0
  6
CONTINUOUS
 62
     7
100
AcDbVertex
100
AcDb2dVertex
 10
7.8112654979
 20
7.2768461089
 30
0.0
  0
VERTEX
  5
2FE
330
1C5
100
AcDbEntity
  8
0
  6
CONTINUOUS
 62
     7
100
AcDbVertex
100
AcDb2dVertex
 10
7.8404398071
 20
7.3152752782
 30
0.0
  0
VERTEX
  5
2FF
330
1C5
100
AcDbEntity
  8
0
  6
CONTINUOUS
 62
     7
100
AcDbVertex
100
AcDb2dVertex
 10
7.8705083775
 20
7.3525171904
 30
0.0
  0
VERTEX
  5
300
330
1C5
100
AcDbEntity
  8
0
  6
CONTINUOUS
 62
     7
100
AcDbVertex
100
AcDb2dVertex
 10
7.9013966791
 20
7.3884795349
 30
0.0
  0
VERTEX
  5
301
330
1C5
100
AcDbEntity
  8
0
  6
CONTINUOUS
 62
     7
100
AcDbVertex
100
AcDb2dVertex
 10
7.9330281501
 20
7.4230731732
 30
0.0
  0
VERTEX
  5
302
330
1C5
100
AcDbEntity
  8
0
  6
CONTINUOUS
 62
     7
100
AcDbVertex
100
AcDb2dVertex
 10
7.9653243864
 20
7.4562123591
 30
0.0
  0
VERTEX
  5
303
330
1C5
100
AcDbEntity
  8
0
  6
CONTINUOUS
 62
     7
100
AcDbVertex
100
AcDb2dVertex
 10
7.9982053364
 20
7.4878149513
 30
0.0
  0
VERTEX
  5
304
330
1C5
100
AcDbEntity
  8
0
  6
CONTINUOUS
 62
     7
100
AcDbVertex
100
AcDb2dVertex
 10
8.0315894991
 20
7.5178026176
 30
0.0
  0
VERTEX
  5
305
330
1C5
100
AcDbEntity
  8
0
  6
CONTINUOUS
 62
     7
100
AcDbVertex
100
AcDb2dVertex
 10
8.0653941262
 20
7.5461010284
 30
0.0
  0
VERTEX
  5
306
330
1C5
100
AcDbEntity
  8
0
  6
CONTINUOUS
 62
     7
100
AcDbVertex
100
AcDb2dVertex
 10
8.0995354271
 20
7.5726400414
 30
0.0
  0
VERTEX
  5
307
330
1C5
100
AcDbEntity
  8
0
  6
CONTINUOUS
 62
     7
100
AcDbVertex
100
AcDb2dVertex
 10
8.133928777
 20
7.5973538751
 30
0.0
  0
VERTEX
  5
308
330
1C5
100
AcDbEntity
  8
0
  6
CONTINUOUS
 62
     7
100
AcDbVertex
100
AcDb2dVertex
 10
8.168488926
 20
7.6201812721
 30
0.0
  0
VERTEX
  5
309
330
1C5
100
AcDbEntity
  8
0
  6
CONTINUOUS
 62
     7
100
AcDbVertex
100
AcDb2dVertex
 10
8.2031302109
 20
7.6410656509
 30
0.0
  0
VERTEX
  5
30A
330
1C5
100
AcDbEntity
  8
0
  6
CONTINUOUS
 62
     7
100
AcDbVertex
100
AcDb2dVertex
 10
8.2377667676
 20
7.6599552458
 30
0.0
  0
VERTEX
  5
30B
330
1C5
100
AcDbEntity
  8
0
  6
CONTINUOUS
 62
     7
100
AcDbVertex
100
AcDb2dVertex
 10
8.2723127434
 20
7.676803236
 30
0.0
  0
VERTEX
  5
30C
330
1C5
100
AcDbEntity
  8
0
  6
CONTINUOUS
 62
     7
100
AcDbVertex
100
AcDb2dVertex
 10
8.3066825102
 20
7.6915678608
 30
0.0
  0
VERTEX
  5
30D
330
1C5
100
AcDbEntity
  8
0
  6
CONTINUOUS
 62
     7
100
AcDbVertex
100
AcDb2dVertex
 10
8.3407908769
 20
7.7042125236
 30
0.0
  0
VERTEX
  5
30E
330
1C5
100
AcDbEntity
  8
0
  6
CONTINUOUS
 62
     7
100
AcDbVertex
100
AcDb2dVertex
 10
8.3745532999
 20
7.7147058824
 30
0.0
  0
VERTEX
  5
30F
330
1C5
100
AcDbEntity
  8
0
  6
CONTINUOUS
 62
     7
100
AcDbVertex
100
AcDb2dVertex
 10
8.4078860935
 20
7.7230219277
 30
0.0
  0
VERTEX
  5
310
330
1C5
100
AcDbEntity
  8
0
  6
CONTINUOUS
 62
     7
100
AcDbVertex
100
AcDb2dVertex
 10
8.4407066367
 20
7.7291400467
 30
0.0
  0
VERTEX
  5
311
330
1C5
100
AcDbEntity
  8
0
  6
CONTINUOUS
 62
     7
100
AcDbVertex
100
AcDb2dVertex
 10
8.4729335782
 20
7.7330450747
 30
0.0
  0
VERTEX
  5
312
330
1C5
100
AcDbEntity
  8
0
  6
CONTINUOUS
 62
     7
100
AcDbVertex
100
AcDb2dVertex
 10
8.5044870381
 20
7.7347273324
 30
0.0
  0
VERTEX
  5
313
330
1C5
100
AcDbEntity
  8
0
  6
CONTINUOUS
 62
     7
100
AcDbVertex
100
AcDb2dVertex
 10
8.5352888057
 20
7.73418265
 30
0.0
  0
SEQEND
  5
314
330
1C5
100
AcDbEntity
  8
0
  6
CONTINUOUS
 62
     7
  0
LINE
  5
1C6
330
1F
100
AcDbEntity
  8
0
  6
CONTINUOUS
 62
     7
100
AcDbLine
 10
8.4796111064
 20
7.7663247017
 30
0.0
 11
8.5352888057
 21
7.73418265
 31
0.0
  0
POLYLINE
  5
1C7
330
1F
100
AcDbEntity
  8
0
  6
CONTINUOUS
 62
     7
100
AcDb2dPolyline
 66
     1
 10
0.0
 20
0.0
 30
0.0
  0
VERTEX
  5
315
330
1C7
100
AcDbEntity
  8
0
  6
CONTINUOUS
 62
     7
100
AcDbVertex
100
AcDb2dVertex
 10
8.4796111064
 20
7.7663247017
 30
0.0
  0
VERTEX
  5
316
330
1C7
100
AcDbEntity
  8
0
  6
CONTINUOUS
 62
     7
100
AcDbVertex
100
AcDb2dVertex
 10
8.4488093388
 20
7.7668693841
 30
0.0
  0
VERTEX
  5
317
330
1C7
100
AcDbEntity
  8
0
  6
CONTINUOUS
 62
     7
100
AcDbVertex
100
AcDb2dVertex
 10
8.4172558789
 20
7.7651871264
 30
0.0
  0
VERTEX
  5
318
330
1C7
100
AcDbEntity
  8
0
  6
CONTINUOUS
 62
     7
100
AcDbVertex
100
AcDb2dVertex
 10
8.3850289374
 20
7.7612820984
 30
0.0
  0
VERTEX
  5
319
330
1C7
100
AcDbEntity
  8
0
  6
CONTINUOUS
 62
     7
100
AcDbVertex
100
AcDb2dVertex
 10
8.3522083942
 20
7.7551639793
 30
0.0
  0
VERTEX
  5
31A
330
1C7
100
AcDbEntity
  8
0
  6
CONTINUOUS
 62
     7
100
AcDbVertex
100
AcDb2dVertex
 10
8.3188756006
 20
7.746847934
 30
0.0
  0
VERTEX
  5
31B
330
1C7
100
AcDbEntity
  8
0
  6
CONTINUOUS
 62
     7
100
AcDbVertex
100
AcDb2dVertex
 10
8.2851131776
 20
7.7363545752
 30
0.0
  0
VERTEX
  5
31C
330
1C7
100
AcDbEntity
  8
0
  6
CONTINUOUS
 62
     7
100
AcDbVertex
100
AcDb2dVertex
 10
8.2510048109
 20
7.7237099125
 30
0.0
  0
VERTEX
  5
31D
330
1C7
100
AcDbEntity
  8
0
  6
CONTINUOUS
 62
     7
100
AcDbVertex
100
AcDb2dVertex
 10
8.2166350441
 20
7.7089452877
 30
0.0
  0
VERTEX
  5
31E
330
1C7
100
AcDbEntity
  8
0
  6
CONTINUOUS
 62
     7
100
AcDbVertex
100
AcDb2dVertex
 10
8.1820890683
 20
7.6920972975
 30
0.0
  0
VERTEX
  5
31F
330
1C7
100
AcDbEntity
  8
0
  6
CONTINUOUS
 62
     7
100
AcDbVertex
100
AcDb2dVertex
 10
8.1474525116
 20
7.6732077025
 30
0.0
  0
VERTEX
  5
320
330
1C7
100
AcDbEntity
  8
0
  6
CONTINUOUS
 62
     7
100
AcDbVertex
100
AcDb2dVertex
 10
8.1128112267
 20
7.6523233238
 30
0.0
  0
VERTEX
  5
321
330
1C7
100
AcDbEntity
  8
0
  6
CONTINUOUS
 62
     7
100
AcDbVertex
100
AcDb2dVertex
 10
8.0782510777
 20
7.6294959268
 30
0.0
  0
VERTEX
  5
322
330
1C7
100
AcDbEntity
  8
0
  6
CONTINUOUS
 62
     7
100
AcDbVertex
100
AcDb2dVertex
 10
8.0438577278
 20
7.6047820931
 30
0.0
  0
VERTEX
  5
323
330
1C7
100
AcDbEntity
  8
0
  6
CONTINUOUS
 62
     7
100
AcDbVertex
100
AcDb2dVertex
 10
8.0097164269
 20
7.5782430801
 30
0.0
  0
VERTEX
  5
324
330
1C7
100
AcDbEntity
  8
0
  6
CONTINUOUS
 62
     7
100
AcDbVertex
100
AcDb2dVertex
 10
7.9759117998
 20
7.5499446692
 30
0.0
  0
VERTEX
  5
325
330
1C7
100
AcDbEntity
  8
0
  6
CONTINUOUS
 62
     7
100
AcDbVertex
100
AcDb2dVertex
 10
7.9425276371
 20
7.5199570029
 30
0.0
  0
VERTEX
  5
326
330
1C7
100
AcDbEntity
  8
0
  6
CONTINUOUS
 62
     7
100
AcDbVertex
100
AcDb2dVertex
 10
7.9096466871
 20
7.4883544107
 30
0.0
  0
VERTEX
  5
327
330
1C7
100
AcDbEntity
  8
0
  6
CONTINUOUS
 62
     7
100
AcDbVertex
100
AcDb2dVertex
 10
7.8773504508
 20
7.4552152249
 30
0.0
  0
VERTEX
  5
328
330
1C7
100
AcDbEntity
  8
0
  6
CONTINUOUS
 62
     7
100
AcDbVertex
100
AcDb2dVertex
 10
7.8457189798
 20
7.4206215866
 30
0.0
  0
VERTEX
  5
329
330
1C7
100
AcDbEntity
  8
0
  6
CONTINUOUS
 62
     7
100
AcDbVertex
100
AcDb2dVertex
 10
7.8148306782
 20
7.384659242
 30
0.0
  0
VERTEX
  5
32A
330
1C7
100
AcDbEntity
  8
0
  6
CONTINUOUS
 62
     7
100
AcDbVertex
100
AcDb2dVertex
 10
7.7847621077
 20
7.3474173299
 30
0.0
  0
VERTEX
  5
32B
330
1C7
100
AcDbEntity
  8
0
  6
CONTINUOUS
 62
     7
100
AcDbVertex
100
AcDb2dVertex
 10
7.7555877985
 20
7.3089881606
 30
0.0
  0
VERTEX
  5
32C
330
1C7
100
AcDbEntity
  8
0
  6
CONTINUOUS
 62
     7
100
AcDbVertex
100
AcDb2dVertex
 10
7.7273800641
 20
7.2694669873
 30
0.0
  0
VERTEX
  5
32D
330
1C7
100
AcDbEntity
  8
0
  6
CONTINUOUS
 62
     7
100
AcDbVertex
100
AcDb2dVertex
 10
7.7002088219
 20
7.22895177
 30
0.0
  0
VERTEX
  5
32E
330
1C7
100
AcDbEntity
  8
0
  6
CONTINUOUS
 62
     7
100
AcDbVertex
100
AcDb2dVertex
 10
7.6741414207
 20
7.1875429325
 30
0.0
  0
VERTEX
  5
32F
330
1C7
100
AcDbEntity
  8
0
  6
CONTINUOUS
 62
     7
100
AcDbVertex
100
AcDb2dVertex
 10
7.6492424728
 20
7.1453431136
 30
0.0
  0
VERTEX
  5
330
330
1C7
100
AcDbEntity
  8
0
  6
CONTINUOUS
 62
     7
100
AcDbVertex
100
AcDb2dVertex
 10
7.6255736944
 20
7.1024569127
 30
0.0
  0
VERTEX
  5
331
330
1C7
100
AcDbEntity
  8
0
  6
CONTINUOUS
 62
     7
100
AcDbVertex
100
AcDb2dVertex
 10
7.6031937528
 20
7.0589906304
 30
0.0
  0
VERTEX
  5
332
330
1C7
100
AcDbEntity
  8
0
  6
CONTINUOUS
 62
     7
100
AcDbVertex
100
AcDb2dVertex
 10
7.5821581203
 20
7.0150520054
 30
0.0
  0
VERTEX
  5
333
330
1C7
100
AcDbEntity
  8
0
  6
CONTINUOUS
 62
     7
100
AcDbVertex
100
AcDb2dVertex
 10
7.5625189373
 20
6.970749947
 30
0.0
  0
VERTEX
  5
334
330
1C7
100
AcDbEntity
  8
0
  6
CONTINUOUS
 62
     7
100
AcDbVertex
100
AcDb2dVertex
 10
7.5443248829
 20
6.9261942653
 30
0.0
  0
VERTEX
  5
335
330
1C7
100
AcDbEntity
  8
0
  6
CONTINUOUS
 62
     7
100
AcDbVertex
100
AcDb2dVertex
 10
7.5276210541
 20
6.8814953991
 30
0.0
  0
VERTEX
  5
336
330
1C7
100
AcDbEntity
  8
0
  6
CONTINUOUS
 62
     7
100
AcDbVertex
100
AcDb2dVertex
 10
7.5124488542
 20
6.8367641421
 30
0.0
  0
VERTEX
  5
337
330
1C7
100
AcDbEntity
  8
0
  6
CONTINUOUS
 62
     7
100
AcDbVertex
100
AcDb2dVertex
 10
7.49884589
 20
6.7921113683
 30
0.0
  0
VERTEX
  5
338
330
1C7
100
AcDbEntity
  8
0
  6
CONTINUOUS
 62
     7
100
AcDbVertex
100
AcDb2dVertex
 10
7.4868458788
 20
6.7476477571
 30
0.0
  0
VERTEX
  5
339
330
1C7
100
AcDbEntity
  8
0
  6
CONTINUOUS
 62
     7
100
AcDbVertex
100
AcDb2dVertex
 10
7.4764785646
 20
6.7034835192
 30
0.0
  0
VERTEX
  5
33A
330
1C7
100
AcDbEntity
  8
0
  6
CONTINUOUS
 62
     7
100
AcDbVertex
100
AcDb2dVertex
 10
7.4677696446
 20
6.6597281231
 30
0.0
  0
VERTEX
  5
33B
330
1C7
100
AcDbEntity
  8
0
  6
CONTINUOUS
 62
     7
100
AcDbVertex
100
AcDb2dVertex
 10
7.4607407054
 20
6.6164900239
 30
0.0
  0
VERTEX
  5
33C
330
1C7
100
AcDbEntity
  8
0
  6
CONTINUOUS
 62
     7
100
AcDbVertex
100
AcDb2dVertex
 10
7.4554091692
 20
6.5738763947
 30
0.0
  0
VERTEX
  5
33D
330
1C7
100
AcDbEntity
  8
0
  6
CONTINUOUS
 62
     7
100
AcDbVertex
100
AcDb2dVertex
 10
7.4517882514
 20
6.5319928604
 30
0.0
  0
VERTEX
  5
33E
330
1C7
100
AcDbEntity
  8
0
  6
CONTINUOUS
 62
     7
100
AcDbVertex
100
AcDb2dVertex
 10
7.4498869268
 20
6.4909432365
 30
0.0
  0
SEQEND
  5
33F
330
1C7
100
AcDbEntity
  8
0
  6
CONTINUOUS
 62
     7
  0
LINE
  5
1C8
330
1F
100
AcDbEntity
  8
0
  6
CONTINUOUS
 62
     7
100
AcDbLine
 10
6.8095933848
 20
6.8605768304
 30
0.0
 11
7.4498869268
 21
6.4909432365
 31
0.0
  0
ARC
  5
1C9
330
1F
100
AcDbEntity
  8
0
  6
CONTINUOUS
 62
     7
100
AcDbCircle
 10
7.2890441377
 20
6.7791793073
 30
0.0
 40
0.4805972449771155
100
AcDbArc
 50
176.0416072081
 51
234.9680474749
  0
POLYLINE
  5
1CA
330
1F
100
AcDbEntity
  8
0
  6
CONTINUOUS
 62
     7
100
AcDb2dPolyline
 66
     1
 10
0.0
 20
0.0
 30
0.0
  0
VERTEX
  5
340
330
1CA
100
AcDbEntity
  8
0
  6
CONTINUOUS
 62
     7
100
AcDbVertex
100
AcDb2dVertex
 10
7.997337359
 20
8.0904714768
 30
0.0
  0
VERTEX
  5
341
330
1CA
100
AcDbEntity
  8
0
  6
CONTINUOUS
 62
     7
100
AcDbVertex
100
AcDb2dVertex
 10
7.9858665033
 20
8.0967917363
 30
0.0
  0
VERTEX
  5
342
330
1CA
100
AcDbEntity
  8
0
  6
CONTINUOUS
 62
     7
100
AcDbVertex
100
AcDb2dVertex
 10
7.9606334684
 20
8.1087120146
 30
0.0
  0
VERTEX
  5
343
330
1CA
100
AcDbEntity
  8
0
  6
CONTINUOUS
 62
     7
100
AcDbVertex
100
AcDb2dVertex
 10
7.9343072179
 20
8.1185421601
 30
0.0
  0
VERTEX
  5
344
330
1CA
100
AcDbEntity
  8
0
  6
CONTINUOUS
 62
     7
100
AcDbVertex
100
AcDb2dVertex
 10
7.9069509521
 20
8.1262585739
 30
0.0
  0
VERTEX
  5
345
330
1CA
100
AcDbEntity
  8
0
  6
CONTINUOUS
 62
     7
100
AcDbVertex
100
AcDb2dVertex
 10
7.8786303438
 20
8.1318427317
 30
0.0
  0
VERTEX
  5
346
330
1CA
100
AcDbEntity
  8
0
  6
CONTINUOUS
 62
     7
100
AcDbVertex
100
AcDb2dVertex
 10
7.8494133813
 20
8.1352812278
 30
0.0
  0
VERTEX
  5
347
330
1CA
100
AcDbEntity
  8
0
  6
CONTINUOUS
 62
     7
100
AcDbVertex
100
AcDb2dVertex
 10
7.8193702043
 20
8.1365658075
 30
0.0
  0
VERTEX
  5
348
330
1CA
100
AcDbEntity
  8
0
  6
CONTINUOUS
 62
     7
100
AcDbVertex
100
AcDb2dVertex
 10
7.7885729361
 20
8.135693387
 30
0.0
  0
VERTEX
  5
349
330
1CA
100
AcDbEntity
  8
0
  6
CONTINUOUS
 62
     7
100
AcDbVertex
100
AcDb2dVertex
 10
7.7570955104
 20
8.1326660607
 30
0.0
  0
VERTEX
  5
34A
330
1CA
100
AcDbEntity
  8
0
  6
CONTINUOUS
 62
     7
100
AcDbVertex
100
AcDb2dVertex
 10
7.7250134936
 20
8.1274910961
 30
0.0
  0
VERTEX
  5
34B
330
1CA
100
AcDbEntity
  8
0
  6
CONTINUOUS
 62
     7
100
AcDbVertex
100
AcDb2dVertex
 10
7.6924039037
 20
8.1201809166
 30
0.0
  0
VERTEX
  5
34C
330
1CA
100
AcDbEntity
  8
0
  6
CONTINUOUS
 62
     7
100
AcDbVertex
100
AcDb2dVertex
 10
7.659345025
 20
8.1107530714
 30
0.0
  0
VERTEX
  5
34D
330
1CA
100
AcDbEntity
  8
0
  6
CONTINUOUS
 62
     7
100
AcDbVertex
100
AcDb2dVertex
 10
7.6259162205
 20
8.0992301935
 30
0.0
  0
VERTEX
  5
34E
330
1CA
100
AcDbEntity
  8
0
  6
CONTINUOUS
 62
     7
100
AcDbVertex
100
AcDb2dVertex
 10
7.5921977412
 20
8.0856399454
 30
0.0
  0
VERTEX
  5
34F
330
1CA
100
AcDbEntity
  8
0
  6
CONTINUOUS
 62
     7
100
AcDbVertex
100
AcDb2dVertex
 10
7.5582705336
 20
8.0700149525
 30
0.0
  0
VERTEX
  5
350
330
1CA
100
AcDbEntity
  8
0
  6
CONTINUOUS
 62
     7
100
AcDbVertex
100
AcDb2dVertex
 10
7.5242160453
 20
8.0523927251
 30
0.0
  0
VERTEX
  5
351
330
1CA
100
AcDbEntity
  8
0
  6
CONTINUOUS
 62
     7
100
AcDbVertex
100
AcDb2dVertex
 10
7.4901160293
 20
8.0328155681
 30
0.0
  0
VERTEX
  5
352
330
1CA
100
AcDbEntity
  8
0
  6
CONTINUOUS
 62
     7
100
AcDbVertex
100
AcDb2dVertex
 10
7.456052348
 20
8.0113304794
 30
0.0
  0
VERTEX
  5
353
330
1CA
100
AcDbEntity
  8
0
  6
CONTINUOUS
 62
     7
100
AcDbVertex
100
AcDb2dVertex
 10
7.4221067766
 20
7.9879890375
 30
0.0
  0
VERTEX
  5
354
330
1CA
100
AcDbEntity
  8
0
  6
CONTINUOUS
 62
     7
100
AcDbVertex
100
AcDb2dVertex
 10
7.3883608068
 20
7.9628472771
 30
0.0
  0
VERTEX
  5
355
330
1CA
100
AcDbEntity
  8
0
  6
CONTINUOUS
 62
     7
100
AcDbVertex
100
AcDb2dVertex
 10
7.354895451
 20
7.9359655548
 30
0.0
  0
VERTEX
  5
356
330
1CA
100
AcDbEntity
  8
0
  6
CONTINUOUS
 62
     7
100
AcDbVertex
100
AcDb2dVertex
 10
7.3217910479
 20
7.9074084045
 30
0.0
  0
VERTEX
  5
357
330
1CA
100
AcDbEntity
  8
0
  6
CONTINUOUS
 62
     7
100
AcDbVertex
100
AcDb2dVertex
 10
7.2891270699
 20
7.8772443819
 30
0.0
  0
VERTEX
  5
358
330
1CA
100
AcDbEntity
  8
0
  6
CONTINUOUS
 62
     7
100
AcDbVertex
100
AcDb2dVertex
 10
7.2569819319
 20
7.8455459006
 30
0.0
  0
VERTEX
  5
359
330
1CA
100
AcDbEntity
  8
0
  6
CONTINUOUS
 62
     7
100
AcDbVertex
100
AcDb2dVertex
 10
7.2254328034
 20
7.8123890577
 30
0.0
  0
VERTEX
  5
35A
330
1CA
100
AcDbEntity
  8
0
  6
CONTINUOUS
 62
     7
100
AcDbVertex
100
AcDb2dVertex
 10
7.1945554228
 20
7.7778534514
 30
0.0
  0
VERTEX
  5
35B
330
1CA
100
AcDbEntity
  8
0
  6
CONTINUOUS
 62
     7
100
AcDbVertex
100
AcDb2dVertex
 10
7.1644239162
 20
7.7420219897
 30
0.0
  0
VERTEX
  5
35C
330
1CA
100
AcDbEntity
  8
0
  6
CONTINUOUS
 62
     7
100
AcDbVertex
100
AcDb2dVertex
 10
7.135110619
 20
7.7049806916
 30
0.0
  0
VERTEX
  5
35D
330
1CA
100
AcDbEntity
  8
0
  6
CONTINUOUS
 62
     7
100
AcDbVertex
100
AcDb2dVertex
 10
7.1066859022
 20
7.6668184806
 30
0.0
  0
VERTEX
  5
35E
330
1CA
100
AcDbEntity
  8
0
  6
CONTINUOUS
 62
     7
100
AcDbVertex
100
AcDb2dVertex
 10
7.0792180039
 20
7.6276269709
 30
0.0
  0
VERTEX
  5
35F
330
1CA
100
AcDbEntity
  8
0
  6
CONTINUOUS
 62
     7
100
AcDbVertex
100
AcDb2dVertex
 10
7.052772865
 20
7.5875002479
 30
0.0
  0
VERTEX
  5
360
330
1CA
100
AcDbEntity
  8
0
  6
CONTINUOUS
 62
     7
100
AcDbVertex
100
AcDb2dVertex
 10
7.0274139711
 20
7.5465346421
 30
0.0
  0
VERTEX
  5
361
330
1CA
100
AcDbEntity
  8
0
  6
CONTINUOUS
 62
     7
100
AcDbVertex
100
AcDb2dVertex
 10
7.0032022003
 20
7.5048284977
 30
0.0
  0
VERTEX
  5
362
330
1CA
100
AcDbEntity
  8
0
  6
CONTINUOUS
 62
     7
100
AcDbVertex
100
AcDb2dVertex
 10
6.9801956766
 20
7.4624819368
 30
0.0
  0
VERTEX
  5
363
330
1CA
100
AcDbEntity
  8
0
  6
CONTINUOUS
 62
     7
100
AcDbVertex
100
AcDb2dVertex
 10
6.9584496308
 20
7.419596619
 30
0.0
  0
VERTEX
  5
364
330
1CA
100
AcDbEntity
  8
0
  6
CONTINUOUS
 62
     7
100
AcDbVertex
100
AcDb2dVertex
 10
6.9380162677
 20
7.3762754971
 30
0.0
  0
VERTEX
  5
365
330
1CA
100
AcDbEntity
  8
0
  6
CONTINUOUS
 62
     7
100
AcDbVertex
100
AcDb2dVertex
 10
6.9189446408
 20
7.3326225702
 30
0.0
  0
VERTEX
  5
366
330
1CA
100
AcDbEntity
  8
0
  6
CONTINUOUS
 62
     7
100
AcDbVertex
100
AcDb2dVertex
 10
6.9012805344
 20
7.288742634
 30
0.0
  0
VERTEX
  5
367
330
1CA
100
AcDbEntity
  8
0
  6
CONTINUOUS
 62
     7
100
AcDbVertex
100
AcDb2dVertex
 10
6.8850663539
 20
7.2447410291
 30
0.0
  0
VERTEX
  5
368
330
1CA
100
AcDbEntity
  8
0
  6
CONTINUOUS
 62
     7
100
AcDbVertex
100
AcDb2dVertex
 10
6.8703410242
 20
7.2007233882
 30
0.0
  0
VERTEX
  5
369
330
1CA
100
AcDbEntity
  8
0
  6
CONTINUOUS
 62
     7
100
AcDbVertex
100
AcDb2dVertex
 10
6.8571398955
 20
7.1567953824
 30
0.0
  0
VERTEX
  5
36A
330
1CA
100
AcDbEntity
  8
0
  6
CONTINUOUS
 62
     7
100
AcDbVertex
100
AcDb2dVertex
 10
6.8454946593
 20
7.1130624678
 30
0.0
  0
VERTEX
  5
36B
330
1CA
100
AcDbEntity
  8
0
  6
CONTINUOUS
 62
     7
100
AcDbVertex
100
AcDb2dVertex
 10
6.8354332717
 20
7.0696296321
 30
0.0
  0
VERTEX
  5
36C
330
1CA
100
AcDbEntity
  8
0
  6
CONTINUOUS
 62
     7
100
AcDbVertex
100
AcDb2dVertex
 10
6.8269798867
 20
7.0266011425
 30
0.0
  0
VERTEX
  5
36D
330
1CA
100
AcDbEntity
  8
0
  6
CONTINUOUS
 62
     7
100
AcDbVertex
100
AcDb2dVertex
 10
6.820154798
 20
6.9840802957
 30
0.0
  0
VERTEX
  5
36E
330
1CA
100
AcDbEntity
  8
0
  6
CONTINUOUS
 62
     7
100
AcDbVertex
100
AcDb2dVertex
 10
6.8149743902
 20
6.9421691695
 30
0.0
  0
VERTEX
  5
36F
330
1CA
100
AcDbEntity
  8
0
  6
CONTINUOUS
 62
     7
100
AcDbVertex
100
AcDb2dVertex
 10
6.8114510997
 20
6.9009683781
 30
0.0
  0
VERTEX
  5
370
330
1CA
100
AcDbEntity
  8
0
  6
CONTINUOUS
 62
     7
100
AcDbVertex
100
AcDb2dVertex
 10
6.8095933848
 20
6.8605768304
 30
0.0
  0
SEQEND
  5
371
330
1CA
100
AcDbEntity
  8
0
  6
CONTINUOUS
 62
     7
  0
LINE
  5
1CB
330
1F
100
AcDbEntity
  8
0
  6
CONTINUOUS
 62
     7
100
AcDbLine
 10
6.8095933848
 20
6.8123559163
 30
0.0
 11
8.1458581681
 21
6.0409466768
 31
0.0
  0
SPLINE
  5
1CC
330
1F
100
AcDbEntity
  8
0
  6
CONTINUOUS
 62
     7
100
AcDbSpline
210
0.0
220
0.0
230
1.0
 70
     8
 71
     3
 72
    11
 73
     7
 74
     0
 42
0.00000001
 43
0.00000001
 40
0.0
 40
0.0
 40
0.0
 40
0.0
 40
0.2994277020726747
 40
0.6010711998180929
 40
0.9020875967433368
 40
0.9999999999999999
 40
0.9999999999999999
 40
0.9999999999999999
 40
0.9999999999999999
 10
7.156809900553832
 20
7.145157276421867
 30
0.0
 10
7.152765599227746
 20
7.156178731134882
 30
0.0
 10
7.144647068331409
 20
7.178303200454973
 30
0.0
 10
7.138787715820195
 20
7.21421917074713
 30
0.0
 10
7.135957807454644
 20
7.242495300894543
 30
0.0
 10
7.136596681992703
 20
7.258738405028285
 30
0.0
 10
7.136753486267984
 20
7.262725084760001
 30
0.0
  0
SPLINE
  5
1CD
330
1F
100
AcDbEntity
  8
0
  6
CONTINUOUS
 62
     7
100
AcDbSpline
210
0.0
220
0.0
230
1.0
 70
     8
 71
     3
 72
    38
 73
    34
 74
     0
 42
0.00000001
 43
0.00000001
 40
0.0
 40
0.0
 40
0.0
 40
0.0
 40
0.0248010047374933
 40
0.0676218514271288
 40
0.1075313820692809
 40
0.1474019000137608
 40
0.1742249217903248
 40
0.201152872558936
 40
0.2279434952941239
 40
0.2621175811559669
 40
0.2962754932618332
 40
0.3263038244652442
 40
0.3563290923679483
 40
0.3849300758550001
 40
0.413533282678306
 40
0.4420572680707509
 40
0.4705882497647096
 40
0.5001023660981222
 40
0.5296291689849735
 40
0.5615947240132152
 40
0.5935790588414802
 40
0.630194451070227
 40
0.6668344619474933
 40
0.7037458651941915
 40
0.740792004992334
 40
0.7777466322500646
 40
0.815342427716095
 40
0.853026727439005
 40
0.8906170504456972
 40
0.9190742746350263
 40
0.9475753502909421
 40
0.9759710996743454
 40
1.0
 40
1.0
 40
1.0
 40
1.0
 10
7.18327480753273
 20
7.458737644145491
 30
0.0
 10
7.187498468136753
 20
7.46726847598272
 30
0.0
 10
7.199014604392805
 20
7.490528446663456
 30
0.0
 10
7.223408342485004
 20
7.52421115804969
 30
0.0
 10
7.255653039102548
 20
7.558770277940802
 30
0.0
 10
7.287999178247705
 20
7.584243436124384
 30
0.0
 10
7.318988082975777
 20
7.602246752329358
 30
0.0
 10
7.347032847409534
 20
7.61445574839846
 30
0.0
 10
7.378611824122117
 20
7.623845617544944
 30
0.0
 10
7.41320031988057
 20
7.628528117342675
 30
0.0
 10
7.448001130395213
 20
7.627133599637178
 30
0.0
 10
7.478990476775859
 20
7.619911832346874
 30
0.0
 10
7.505249390527976
 20
7.608408745927249
 30
0.0
 10
7.52728331544705
 20
7.592734390568843
 30
0.0
 10
7.54489472555614
 20
7.573747316414902
 30
0.0
 10
7.557850617608302
 20
7.551570999016683
 30
0.0
 10
7.566295681195835
 20
7.526608156514309
 30
0.0
 10
7.569886551445143
 20
7.499236575555332
 30
0.0
 10
7.568869612621535
 20
7.469297892796653
 30
0.0
 10
7.563048662290388
 20
7.43752764805402
 30
0.0
 10
7.552336619021673
 20
7.402953365056885
 30
0.0
 10
7.536864986137719
 20
7.366889251599454
 30
0.0
 10
7.51702036897203
 20
7.329895014649027
 30
0.0
 10
7.494270083151116
 20
7.293895507617681
 30
0.0
 10
7.469304615366004
 20
7.259255542409509
 30
0.0
 10
7.442532927823708
 20
7.226103457892539
 30
0.0
 10
7.414393302966523
 20
7.194646556783719
 30
0.0
 10
7.385025416529887
 20
7.165245947986363
 30
0.0
 10
7.35713632281817
 20
7.140684414724883
 30
0.0
 10
7.331122595641678
 20
7.120541211628577
 30
0.0
 10
7.307008745860537
 20
7.10478584430115
 30
0.0
 10
7.283527960091589
 20
7.092394905764743
 30
0.0
 10
7.26786782143965
 20
7.087453488466777
 30
0.0
 10
7.260689978328791
 20
7.085188583991893
 30
0.0
  0
LINE
  5
1CE
330
1F
100
AcDbEntity
  8
0
  6
CONTINUOUS
 62
     7
100
AcDbLine
 10
9.2034211974
 20
6.6193227667
 30
0.0
 11
9.2034211974
 21
6.6675436808
 31
0.0
  0
LINE
  5
1CF
330
1F
100
AcDbEntity
  8
0
  6
CONTINUOUS
 62
     7
100
AcDbLine
 10
9.2034211974
 20
6.6675436808
 30
0.0
 11
9.1190331688
 21
6.6188275088
 31
0.0
  0
POLYLINE
  5
1D0
330
1F
100
AcDbEntity
  8
0
  6
CONTINUOUS
 62
     7
100
AcDb2dPolyline
 66
     1
 10
0.0
 20
0.0
 30
0.0
  0
VERTEX
  5
372
330
1D0
100
AcDbEntity
  8
0
  6
CONTINUOUS
 62
     7
100
AcDbVertex
100
AcDb2dVertex
 10
8.6196768343
 20
6.330555233
 30
0.0
  0
VERTEX
  5
373
330
1D0
100
AcDbEntity
  8
0
  6
CONTINUOUS
 62
     7
100
AcDbVertex
100
AcDb2dVertex
 10
8.6222520563
 20
6.3557567389
 30
0.0
  0
VERTEX
  5
374
330
1D0
100
AcDbEntity
  8
0
  6
CONTINUOUS
 62
     7
100
AcDbVertex
100
AcDb2dVertex
 10
8.626513527
 20
6.3816053319
 30
0.0
  0
VERTEX
  5
375
330
1D0
100
AcDbEntity
  8
0
  6
CONTINUOUS
 62
     7
100
AcDbVertex
100
AcDb2dVertex
 10
8.6324321657
 20
6.4079246194
 30
0.0
  0
VERTEX
  5
376
330
1D0
100
AcDbEntity
  8
0
  6
CONTINUOUS
 62
     7
100
AcDbVertex
100
AcDb2dVertex
 10
8.6399675833
 20
6.4345349965
 30
0.0
  0
VERTEX
  5
377
330
1D0
100
AcDbEntity
  8
0
  6
CONTINUOUS
 62
     7
100
AcDbVertex
100
AcDb2dVertex
 10
8.6490683576
 20
6.4612548722
 30
0.0
  0
VERTEX
  5
378
330
1D0
100
AcDbEntity
  8
0
  6
CONTINUOUS
 62
     7
100
AcDbVertex
100
AcDb2dVertex
 10
8.6596723841
 20
6.487901908
 30
0.0
  0
VERTEX
  5
379
330
1D0
100
AcDbEntity
  8
0
  6
CONTINUOUS
 62
     7
100
AcDbVertex
100
AcDb2dVertex
 10
8.6717073003
 20
6.5142942626
 30
0.0
  0
VERTEX
  5
37A
330
1D0
100
AcDbEntity
  8
0
  6
CONTINUOUS
 62
     7
100
AcDbVertex
100
AcDb2dVertex
 10
8.6850909789
 20
6.5402518326
 30
0.0
  0
VERTEX
  5
37B
330
1D0
100
AcDbEntity
  8
0
  6
CONTINUOUS
 62
     7
100
AcDbVertex
100
AcDb2dVertex
 10
8.6997320888
 20
6.5655974816
 30
0.0
  0
VERTEX
  5
37C
330
1D0
100
AcDbEntity
  8
0
  6
CONTINUOUS
 62
     7
100
AcDbVertex
100
AcDb2dVertex
 10
8.7155307179
 20
6.5901582492
 30
0.0
  0
VERTEX
  5
37D
330
1D0
100
AcDbEntity
  8
0
  6
CONTINUOUS
 62
     7
100
AcDbVertex
100
AcDb2dVertex
 10
8.7323790552
 20
6.6137665307
 30
0.0
  0
VERTEX
  5
37E
330
1D0
100
AcDbEntity
  8
0
  6
CONTINUOUS
 62
     7
100
AcDbVertex
100
AcDb2dVertex
 10
8.7501621265
 20
6.6362612215
 30
0.0
  0
VERTEX
  5
37F
330
1D0
100
AcDbEntity
  8
0
  6
CONTINUOUS
 62
     7
100
AcDbVertex
100
AcDb2dVertex
 10
8.7687585787
 20
6.6574888163
 30
0.0
  0
VERTEX
  5
380
330
1D0
100
AcDbEntity
  8
0
  6
CONTINUOUS
 62
     7
100
AcDbVertex
100
AcDb2dVertex
 10
8.7880415084
 20
6.6773044563
 30
0.0
  0
VERTEX
  5
381
330
1D0
100
AcDbEntity
  8
0
  6
CONTINUOUS
 62
     7
100
AcDbVertex
100
AcDb2dVertex
 10
8.8078793273
 20
6.6955729182
 30
0.0
  0
VERTEX
  5
382
330
1D0
100
AcDbEntity
  8
0
  6
CONTINUOUS
 62
     7
100
AcDbVertex
100
AcDb2dVertex
 10
8.8281366607
 20
6.7121695366
 30
0.0
  0
VERTEX
  5
383
330
1D0
100
AcDbEntity
  8
0
  6
CONTINUOUS
 62
     7
100
AcDbVertex
100
AcDb2dVertex
 10
8.8486752711
 20
6.7269810549
 30
0.0
  0
VERTEX
  5
384
330
1D0
100
AcDbEntity
  8
0
  6
CONTINUOUS
 62
     7
100
AcDbVertex
100
AcDb2dVertex
 10
8.8693550015
 20
6.7399063984
 30
0.0
  0
VERTEX
  5
385
330
1D0
100
AcDbEntity
  8
0
  6
CONTINUOUS
 62
     7
100
AcDbVertex
100
AcDb2dVertex
 10
8.890034732
 20
6.7508573635
 30
0.0
  0
VERTEX
  5
386
330
1D0
100
AcDbEntity
  8
0
  6
CONTINUOUS
 62
     7
100
AcDbVertex
100
AcDb2dVertex
 10
8.9105733424
 20
6.7597592199
 30
0.0
  0
VERTEX
  5
387
330
1D0
100
AcDbEntity
  8
0
  6
CONTINUOUS
 62
     7
100
AcDbVertex
100
AcDb2dVertex
 10
8.9308306758
 20
6.7665512209
 30
0.0
  0
VERTEX
  5
388
330
1D0
100
AcDbEntity
  8
0
  6
CONTINUOUS
 62
     7
100
AcDbVertex
100
AcDb2dVertex
 10
8.9506684947
 20
6.7711870172
 30
0.0
  0
VERTEX
  5
389
330
1D0
100
AcDbEntity
  8
0
  6
CONTINUOUS
 62
     7
100
AcDbVertex
100
AcDb2dVertex
 10
8.9699514244
 20
6.7736349738
 30
0.0
  0
VERTEX
  5
38A
330
1D0
100
AcDbEntity
  8
0
  6
CONTINUOUS
 62
     7
100
AcDbVertex
100
AcDb2dVertex
 10
8.9885478766
 20
6.7738783858
 30
0.0
  0
VERTEX
  5
38B
330
1D0
100
AcDbEntity
  8
0
  6
CONTINUOUS
 62
     7
100
AcDbVertex
100
AcDb2dVertex
 10
9.0063309479
 20
6.771915592
 30
0.0
  0
VERTEX
  5
38C
330
1D0
100
AcDbEntity
  8
0
  6
CONTINUOUS
 62
     7
100
AcDbVertex
100
AcDb2dVertex
 10
9.0231792852
 20
6.7677599867
 30
0.0
  0
VERTEX
  5
38D
330
1D0
100
AcDbEntity
  8
0
  6
CONTINUOUS
 62
     7
100
AcDbVertex
100
AcDb2dVertex
 10
9.0389779143
 20
6.7614399281
 30
0.0
  0
VERTEX
  5
38E
330
1D0
100
AcDbEntity
  8
0
  6
CONTINUOUS
 62
     7
100
AcDbVertex
100
AcDb2dVertex
 10
9.0536190242
 20
6.7529985447
 30
0.0
  0
VERTEX
  5
38F
330
1D0
100
AcDbEntity
  8
0
  6
CONTINUOUS
 62
     7
100
AcDbVertex
100
AcDb2dVertex
 10
9.0670027028
 20
6.7424934411
 30
0.0
  0
VERTEX
  5
390
330
1D0
100
AcDbEntity
  8
0
  6
CONTINUOUS
 62
     7
100
AcDbVertex
100
AcDb2dVertex
 10
9.079037619
 20
6.7299963049
 30
0.0
  0
VERTEX
  5
391
330
1D0
100
AcDbEntity
  8
0
  6
CONTINUOUS
 62
     7
100
AcDbVertex
100
AcDb2dVertex
 10
9.0896416455
 20
6.7155924176
 30
0.0
  0
VERTEX
  5
392
330
1D0
100
AcDbEntity
  8
0
  6
CONTINUOUS
 62
     7
100
AcDbVertex
100
AcDb2dVertex
 10
9.0987424198
 20
6.6993800722
 30
0.0
  0
VERTEX
  5
393
330
1D0
100
AcDbEntity
  8
0
  6
CONTINUOUS
 62
     7
100
AcDbVertex
100
AcDb2dVertex
 10
9.1062778374
 20
6.681469903
 30
0.0
  0
VERTEX
  5
394
330
1D0
100
AcDbEntity
  8
0
  6
CONTINUOUS
 62
     7
100
AcDbVertex
100
AcDb2dVertex
 10
9.1121964761
 20
6.6619841304
 30
0.0
  0
VERTEX
  5
395
330
1D0
100
AcDbEntity
  8
0
  6
CONTINUOUS
 62
     7
100
AcDbVertex
100
AcDb2dVertex
 10
9.1164579468
 20
6.6410557267
 30
0.0
  0
VERTEX
  5
396
330
1D0
100
AcDbEntity
  8
0
  6
CONTINUOUS
 62
     7
100
AcDbVertex
100
AcDb2dVertex
 10
9.1190331688
 20
6.6188275088
 30
0.0
  0
SEQEND
  5
397
330
1D0
100
AcDbEntity
  8
0
  6
CONTINUOUS
 62
     7
  0
LINE
  5
1D1
330
1F
100
AcDbEntity
  8
0
  6
CONTINUOUS
 62
     7
100
AcDbLine
 10
8.6196768343
 20
6.330555233
 30
0.0
 11
8.2015489261
 21
6.0891751295
 31
0.0
  0
LINE
  5
1D2
330
1F
100
AcDbEntity
  8
0
  6
CONTINUOUS
 62
     7
100
AcDbLine
 10
8.2015489261
 20
6.0409542154
 30
0.0
 11
8.6196768343
 21
6.2823343189
 31
0.0
  0
POLYLINE
  5
1D3
330
1F
100
AcDbEntity
  8
0
  6
CONTINUOUS
 62
     7
100
AcDb2dPolyline
 66
     1
 10
0.0
 20
0.0
 30
0.0
  0
VERTEX
  5
398
330
1D3
100
AcDbEntity
  8
0
  6
CONTINUOUS
 62
     7
100
AcDbVertex
100
AcDb2dVertex
 10
9.1190331688
 20
6.5706065947
 30
0.0
  0
VERTEX
  5
399
330
1D3
100
AcDbEntity
  8
0
  6
CONTINUOUS
 62
     7
100
AcDbVertex
100
AcDb2dVertex
 10
9.1164579468
 20
6.5454050889
 30
0.0
  0
VERTEX
  5
39A
330
1D3
100
AcDbEntity
  8
0
  6
CONTINUOUS
 62
     7
100
AcDbVertex
100
AcDb2dVertex
 10
9.1121964761
 20
6.5195564959
 30
0.0
  0
VERTEX
  5
39B
330
1D3
100
AcDbEntity
  8
0
  6
CONTINUOUS
 62
     7
100
AcDbVertex
100
AcDb2dVertex
 10
9.1062778374
 20
6.4932372084
 30
0.0
  0
VERTEX
  5
39C
330
1D3
100
AcDbEntity
  8
0
  6
CONTINUOUS
 62
     7
100
AcDbVertex
100
AcDb2dVertex
 10
9.0987424198
 20
6.4666268313
 30
0.0
  0
VERTEX
  5
39D
330
1D3
100
AcDbEntity
  8
0
  6
CONTINUOUS
 62
     7
100
AcDbVertex
100
AcDb2dVertex
 10
9.0896416455
 20
6.4399069556
 30
0.0
  0
VERTEX
  5
39E
330
1D3
100
AcDbEntity
  8
0
  6
CONTINUOUS
 62
     7
100
AcDbVertex
100
AcDb2dVertex
 10
9.079037619
 20
6.4132599198
 30
0.0
  0
VERTEX
  5
39F
330
1D3
100
AcDbEntity
  8
0
  6
CONTINUOUS
 62
     7
100
AcDbVertex
100
AcDb2dVertex
 10
9.0670027028
 20
6.3868675652
 30
0.0
  0
VERTEX
  5
3A0
330
1D3
100
AcDbEntity
  8
0
  6
CONTINUOUS
 62
     7
100
AcDbVertex
100
AcDb2dVertex
 10
9.0536190242
 20
6.3609099952
 30
0.0
  0
VERTEX
  5
3A1
330
1D3
100
AcDbEntity
  8
0
  6
CONTINUOUS
 62
     7
100
AcDbVertex
100
AcDb2dVertex
 10
9.0389779143
 20
6.3355643461
 30
0.0
  0
VERTEX
  5
3A2
330
1D3
100
AcDbEntity
  8
0
  6
CONTINUOUS
 62
     7
100
AcDbVertex
100
AcDb2dVertex
 10
9.0231792852
 20
6.3110035786
 30
0.0
  0
VERTEX
  5
3A3
330
1D3
100
AcDbEntity
  8
0
  6
CONTINUOUS
 62
     7
100
AcDbVertex
100
AcDb2dVertex
 10
9.0063309479
 20
6.2873952971
 30
0.0
  0
VERTEX
  5
3A4
330
1D3
100
AcDbEntity
  8
0
  6
CONTINUOUS
 62
     7
100
AcDbVertex
100
AcDb2dVertex
 10
8.9885478766
 20
6.2649006062
 30
0.0
  0
VERTEX
  5
3A5
330
1D3
100
AcDbEntity
  8
0
  6
CONTINUOUS
 62
     7
100
AcDbVertex
100
AcDb2dVertex
 10
8.9699514244
 20
6.2436730115
 30
0.0
  0
VERTEX
  5
3A6
330
1D3
100
AcDbEntity
  8
0
  6
CONTINUOUS
 62
     7
100
AcDbVertex
100
AcDb2dVertex
 10
8.9506684947
 20
6.2238573715
 30
0.0
  0
VERTEX
  5
3A7
330
1D3
100
AcDbEntity
  8
0
  6
CONTINUOUS
 62
     7
100
AcDbVertex
100
AcDb2dVertex
 10
8.9308306758
 20
6.2055889096
 30
0.0
  0
VERTEX
  5
3A8
330
1D3
100
AcDbEntity
  8
0
  6
CONTINUOUS
 62
     7
100
AcDbVertex
100
AcDb2dVertex
 10
8.9105733424
 20
6.1889922912
 30
0.0
  0
VERTEX
  5
3A9
330
1D3
100
AcDbEntity
  8
0
  6
CONTINUOUS
 62
     7
100
AcDbVertex
100
AcDb2dVertex
 10
8.890034732
 20
6.1741807728
 30
0.0
  0
VERTEX
  5
3AA
330
1D3
100
AcDbEntity
  8
0
  6
CONTINUOUS
 62
     7
100
AcDbVertex
100
AcDb2dVertex
 10
8.8693550015
 20
6.1612554294
 30
0.0
  0
VERTEX
  5
3AB
330
1D3
100
AcDbEntity
  8
0
  6
CONTINUOUS
 62
     7
100
AcDbVertex
100
AcDb2dVertex
 10
8.8486752711
 20
6.1503044643
 30
0.0
  0
VERTEX
  5
3AC
330
1D3
100
AcDbEntity
  8
0
  6
CONTINUOUS
 62
     7
100
AcDbVertex
100
AcDb2dVertex
 10
8.8281366607
 20
6.1414026078
 30
0.0
  0
VERTEX
  5
3AD
330
1D3
100
AcDbEntity
  8
0
  6
CONTINUOUS
 62
     7
100
AcDbVertex
100
AcDb2dVertex
 10
8.8078793273
 20
6.1346106069
 30
0.0
  0
VERTEX
  5
3AE
330
1D3
100
AcDbEntity
  8
0
  6
CONTINUOUS
 62
     7
100
AcDbVertex
100
AcDb2dVertex
 10
8.7880415084
 20
6.1299748106
 30
0.0
  0
VERTEX
  5
3AF
330
1D3
100
AcDbEntity
  8
0
  6
CONTINUOUS
 62
     7
100
AcDbVertex
100
AcDb2dVertex
 10
8.7687585787
 20
6.1275268539
 30
0.0
  0
VERTEX
  5
3B0
330
1D3
100
AcDbEntity
  8
0
  6
CONTINUOUS
 62
     7
100
AcDbVertex
100
AcDb2dVertex
 10
8.7501621265
 20
6.127283442
 30
0.0
  0
VERTEX
  5
3B1
330
1D3
100
AcDbEntity
  8
0
  6
CONTINUOUS
 62
     7
100
AcDbVertex
100
AcDb2dVertex
 10
8.7323790552
 20
6.1292462358
 30
0.0
  0
VERTEX
  5
3B2
330
1D3
100
AcDbEntity
  8
0
  6
CONTINUOUS
 62
     7
100
AcDbVertex
100
AcDb2dVertex
 10
8.7155307179
 20
6.133401841
 30
0.0
  0
VERTEX
  5
3B3
330
1D3
100
AcDbEntity
  8
0
  6
CONTINUOUS
 62
     7
100
AcDbVertex
100
AcDb2dVertex
 10
8.6997320888
 20
6.1397218997
 30
0.0
  0
VERTEX
  5
3B4
330
1D3
100
AcDbEntity
  8
0
  6
CONTINUOUS
 62
     7
100
AcDbVertex
100
AcDb2dVertex
 10
8.6850909789
 20
6.1481632831
 30
0.0
  0
VERTEX
  5
3B5
330
1D3
100
AcDbEntity
  8
0
  6
CONTINUOUS
 62
     7
100
AcDbVertex
100
AcDb2dVertex
 10
8.6717073003
 20
6.1586683867
 30
0.0
  0
VERTEX
  5
3B6
330
1D3
100
AcDbEntity
  8
0
  6
CONTINUOUS
 62
     7
100
AcDbVertex
100
AcDb2dVertex
 10
8.6596723841
 20
6.1711655228
 30
0.0
  0
VERTEX
  5
3B7
330
1D3
100
AcDbEntity
  8
0
  6
CONTINUOUS
 62
     7
100
AcDbVertex
100
AcDb2dVertex
 10
8.6490683576
 20
6.1855694102
 30
0.0
  0
VERTEX
  5
3B8
330
1D3
100
AcDbEntity
  8
0
  6
CONTINUOUS
 62
     7
100
AcDbVertex
100
AcDb2dVertex
 10
8.6399675833
 20
6.2017817556
 30
0.0
  0
VERTEX
  5
3B9
330
1D3
100
AcDbEntity
  8
0
  6
CONTINUOUS
 62
     7
100
AcDbVertex
100
AcDb2dVertex
 10
8.6324321657
 20
6.2196919247
 30
0.0
  0
VERTEX
  5
3BA
330
1D3
100
AcDbEntity
  8
0
  6
CONTINUOUS
 62
     7
100
AcDbVertex
100
AcDb2dVertex
 10
8.626513527
 20
6.2391776974
 30
0.0
  0
VERTEX
  5
3BB
330
1D3
100
AcDbEntity
  8
0
  6
CONTINUOUS
 62
     7
100
AcDbVertex
100
AcDb2dVertex
 10
8.6222520563
 20
6.2601061011
 30
0.0
  0
VERTEX
  5
3BC
330
1D3
100
AcDbEntity
  8
0
  6
CONTINUOUS
 62
     7
100
AcDbVertex
100
AcDb2dVertex
 10
8.6196768343
 20
6.2823343189
 30
0.0
  0
SEQEND
  5
3BD
330
1D3
100
AcDbEntity
  8
0
  6
CONTINUOUS
 62
     7
  0
LINE
  5
1D4
330
1F
100
AcDbEntity
  8
0
  6
CONTINUOUS
 62
     7
100
AcDbLine
 10
9.1190331688
 20
6.5706065947
 30
0.0
 11
9.2034211974
 21
6.6193227667
 31
0.0
  0
SPLINE
  5
1D5
330
1F
100
AcDbEntity
  8
0
  6
CONTINUOUS
 62
     7
100
AcDbSpline
210
0.0
220
0.0
230
1.0
 70
     8
 71
     3
 72
     8
 73
     4
 74
     0
 42
0.00000001
 43
0.00000001
 40
0.0
 40
0.0
 40
0.0
 40
0.0
 40
0.00070849739462
 40
0.00070849739462
 40
0.00070849739462
 40
0.00070849739462
 10
8.619676834342915
 20
6.282334318940131
 30
0.0
 10
8.619709231137973
 20
6.293069390311875
 30
0.0
 10
8.61974518400041
 20
6.303804458496773
 30
0.0
 10
8.619786224215433
 20
6.314539520015926
 30
0.0
  0
LINE
  5
1D6
330
1F
100
AcDbEntity
  8
0
  6
CONTINUOUS
 62
     7
100
AcDbLine
 10
6.8096064434
 20
6.8445055066
 30
0.0
 11
6.8095933848
 21
6.8123559163
 31
0.0
  0
LINE
  5
1D7
330
1F
100
AcDbEntity
  8
0
  6
CONTINUOUS
 62
     7
100
AcDbLine
 10
6.8096064434
 20
6.8445055066
 30
0.0
 11
6.8235195971
 21
6.8525373992
 31
0.0
  0
LINE
  5
1D8
330
1F
100
AcDbEntity
  8
0
  6
CONTINUOUS
 62
     7
100
AcDbLine
 10
8.6058600119
 20
6.3225789512
 30
0.0
 11
8.6197862242
 21
6.31453952
 31
0.0
  0
LINE
  5
1D9
330
1F
100
AcDbEntity
  8
0
  6
CONTINUOUS
 62
     7
100
AcDbLine
 10
7.4498869268
 20
6.4909432365
 30
0.0
 11
7.509473808
 21
6.5253420108
 31
0.0
  0
LINE
  5
1DA
330
1F
100
AcDbEntity
  8
0
  6
CONTINUOUS
 62
     7
100
AcDbLine
 10
8.4796111064
 20
7.7663247017
 30
0.0
 11
8.4796111064
 21
7.7335824215
 31
0.0
  0
ARC
  5
1DB
330
1F
100
AcDbEntity
  8
0
  6
CONTINUOUS
 62
     7
100
AcDbCircle
 10
8.9305615824
 20
6.6220288979
 30
0.0
 40
0.132724651089264
100
AcDbArc
 50
358.5905923107
 51
124.7089324699
  0
SPLINE
  5
1DC
330
1F
100
AcDbEntity
  8
0
  6
CONTINUOUS
 62
     7
100
AcDbSpline
210
0.0
220
0.0
230
1.0
 70
     8
 71
     3
 72
     8
 73
     4
 74
     0
 42
0.00000001
 43
0.00000001
 40
0.0
 40
0.0
 40
0.0
 40
0.0
 40
0.00070849739462
 40
0.00070849739462
 40
0.00070849739462
 40
0.00070849739462
 10
9.11903316875102
 20
6.618827508833749
 30
0.0
 10
9.100437464829032
 20
6.618808806562052
 30
0.0
 10
9.081841766427424
 20
6.618788051416352
 30
0.0
 10
9.063246079572474
 20
6.618764359404517
 30
0.0
  0
LINE
  5
1DD
330
1F
100
AcDbEntity
  8
0
  6
CONTINUOUS
 62
     7
100
AcDbLine
 10
8.8623592515
 20
6.7347338568
 30
0.0
 11
9.0632460796
 21
6.6187643594
 31
0.0
  0
LINE
  5
1DE
330
1F
100
AcDbEntity
  8
0
  6
CONTINUOUS
 62
     7
100
AcDbLine
 10
9.1616561355
 20
6.6434332238
 30
0.0
 11
9.2034211974
 21
6.6193227667
 31
0.0
  0
POLYLINE
  5
1DF
330
1F
100
AcDbEntity
  8
0
  6
CONTINUOUS
 62
     7
100
AcDb2dPolyline
 66
     1
 10
0.0
 20
0.0
 30
0.0
  0
VERTEX
  5
3BE
330
1DF
100
AcDbEntity
  8
0
  6
CONTINUOUS
 62
     7
100
AcDbVertex
100
AcDb2dVertex
 10
8.6197862242
 20
6.31453952
 30
0.0
  0
VERTEX
  5
3BF
330
1DF
100
AcDbEntity
  8
0
  6
CONTINUOUS
 62
     7
100
AcDbVertex
100
AcDb2dVertex
 10
8.6224340985
 20
6.2939425479
 30
0.0
  0
VERTEX
  5
3C0
330
1DF
100
AcDbEntity
  8
0
  6
CONTINUOUS
 62
     7
100
AcDbVertex
100
AcDb2dVertex
 10
8.6267344784
 20
6.2746482988
 30
0.0
  0
VERTEX
  5
3C1
330
1DF
100
AcDbEntity
  8
0
  6
CONTINUOUS
 62
     7
100
AcDbVertex
100
AcDb2dVertex
 10
8.6326549266
 20
6.2568023066
 30
0.0
  0
VERTEX
  5
3C2
330
1DF
100
AcDbEntity
  8
0
  6
CONTINUOUS
 62
     7
100
AcDbVertex
100
AcDb2dVertex
 10
8.6401507862
 20
6.2405391812
 30
0.0
  0
VERTEX
  5
3C3
330
1DF
100
AcDbEntity
  8
0
  6
CONTINUOUS
 62
     7
100
AcDbVertex
100
AcDb2dVertex
 10
8.6491655169
 20
6.2259815929
 30
0.0
  0
VERTEX
  5
3C4
330
1DF
100
AcDbEntity
  8
0
  6
CONTINUOUS
 62
     7
100
AcDbVertex
100
AcDb2dVertex
 10
8.6596311217
 20
6.2132393478
 30
0.0
  0
VERTEX
  5
3C5
330
1DF
100
AcDbEntity
  8
0
  6
CONTINUOUS
 62
     7
100
AcDbVertex
100
AcDb2dVertex
 10
8.6714686602
 20
6.2024085587
 30
0.0
  0
VERTEX
  5
3C6
330
1DF
100
AcDbEntity
  8
0
  6
CONTINUOUS
 62
     7
100
AcDbVertex
100
AcDb2dVertex
 10
8.6845888433
 20
6.1935709209
 30
0.0
  0
VERTEX
  5
3C7
330
1DF
100
AcDbEntity
  8
0
  6
CONTINUOUS
 62
     7
100
AcDbVertex
100
AcDb2dVertex
 10
8.6988927074
 20
6.1867930953
 30
0.0
  0
VERTEX
  5
3C8
330
1DF
100
AcDbEntity
  8
0
  6
CONTINUOUS
 62
     7
100
AcDbVertex
100
AcDb2dVertex
 10
8.7142723604
 20
6.1821262063
 30
0.0
  0
VERTEX
  5
3C9
330
1DF
100
AcDbEntity
  8
0
  6
CONTINUOUS
 62
     7
100
AcDbVertex
100
AcDb2dVertex
 10
8.7306117957
 20
6.1796054555
 30
0.0
  0
VERTEX
  5
3CA
330
1DF
100
AcDbEntity
  8
0
  6
CONTINUOUS
 62
     7
100
AcDbVertex
100
AcDb2dVertex
 10
8.7477877672
 20
6.1792498566
 30
0.0
  0
VERTEX
  5
3CB
330
1DF
100
AcDbEntity
  8
0
  6
CONTINUOUS
 62
     7
100
AcDbVertex
100
AcDb2dVertex
 10
8.7656707189
 20
6.1810620918
 30
0.0
  0
VERTEX
  5
3CC
330
1DF
100
AcDbEntity
  8
0
  6
CONTINUOUS
 62
     7
100
AcDbVertex
100
AcDb2dVertex
 10
8.7841257622
 20
6.1850284916
 30
0.0
  0
VERTEX
  5
3CD
330
1DF
100
AcDbEntity
  8
0
  6
CONTINUOUS
 62
     7
100
AcDbVertex
100
AcDb2dVertex
 10
8.8030136933
 20
6.1911191382
 30
0.0
  0
VERTEX
  5
3CE
330
1DF
100
AcDbEntity
  8
0
  6
CONTINUOUS
 62
     7
100
AcDbVertex
100
AcDb2dVertex
 10
8.822192043
 20
6.1992880905
 30
0.0
  0
VERTEX
  5
3CF
330
1DF
100
AcDbEntity
  8
0
  6
CONTINUOUS
 62
     7
100
AcDbVertex
100
AcDb2dVertex
 10
8.8415161519
 20
6.2094737312
 30
0.0
  0
VERTEX
  5
3D0
330
1DF
100
AcDbEntity
  8
0
  6
CONTINUOUS
 62
     7
100
AcDbVertex
100
AcDb2dVertex
 10
8.8608402608
 20
6.2215992316
 30
0.0
  0
VERTEX
  5
3D1
330
1DF
100
AcDbEntity
  8
0
  6
CONTINUOUS
 62
     7
100
AcDbVertex
100
AcDb2dVertex
 10
8.8800186105
 20
6.2355731307
 30
0.0
  0
VERTEX
  5
3D2
330
1DF
100
AcDbEntity
  8
0
  6
CONTINUOUS
 62
     7
100
AcDbVertex
100
AcDb2dVertex
 10
8.8989065416
 20
6.2512900252
 30
0.0
  0
VERTEX
  5
3D3
330
1DF
100
AcDbEntity
  8
0
  6
CONTINUOUS
 62
     7
100
AcDbVertex
100
AcDb2dVertex
 10
8.9173615849
 20
6.2686313648
 30
0.0
  0
VERTEX
  5
3D4
330
1DF
100
AcDbEntity
  8
0
  6
CONTINUOUS
 62
     7
100
AcDbVertex
100
AcDb2dVertex
 10
8.9352445366
 20
6.2874663461
 30
0.0
  0
VERTEX
  5
3D5
330
1DF
100
AcDbEntity
  8
0
  6
CONTINUOUS
 62
     7
100
AcDbVertex
100
AcDb2dVertex
 10
8.9524205081
 20
6.3076528996
 30
0.0
  0
VERTEX
  5
3D6
330
1DF
100
AcDbEntity
  8
0
  6
CONTINUOUS
 62
     7
100
AcDbVertex
100
AcDb2dVertex
 10
8.9687599434
 20
6.3290387609
 30
0.0
  0
VERTEX
  5
3D7
330
1DF
100
AcDbEntity
  8
0
  6
CONTINUOUS
 62
     7
100
AcDbVertex
100
AcDb2dVertex
 10
8.9841395964
 20
6.3514626192
 30
0.0
  0
VERTEX
  5
3D8
330
1DF
100
AcDbEntity
  8
0
  6
CONTINUOUS
 62
     7
100
AcDbVertex
100
AcDb2dVertex
 10
8.9984434605
 20
6.3747553347
 30
0.0
  0
VERTEX
  5
3D9
330
1DF
100
AcDbEntity
  8
0
  6
CONTINUOUS
 62
     7
100
AcDbVertex
100
AcDb2dVertex
 10
9.0115636436
 20
6.3987412136
 30
0.0
  0
VERTEX
  5
3DA
330
1DF
100
AcDbEntity
  8
0
  6
CONTINUOUS
 62
     7
100
AcDbVertex
100
AcDb2dVertex
 10
9.023401182
 20
6.4232393336
 30
0.0
  0
VERTEX
  5
3DB
330
1DF
100
AcDbEntity
  8
0
  6
CONTINUOUS
 62
     7
100
AcDbVertex
100
AcDb2dVertex
 10
9.0338667869
 20
6.4480649089
 30
0.0
  0
VERTEX
  5
3DC
330
1DF
100
AcDbEntity
  8
0
  6
CONTINUOUS
 62
     7
100
AcDbVertex
100
AcDb2dVertex
 10
9.0428815176
 20
6.4730306836
 30
0.0
  0
VERTEX
  5
3DD
330
1DF
100
AcDbEntity
  8
0
  6
CONTINUOUS
 62
     7
100
AcDbVertex
100
AcDb2dVertex
 10
9.0503773771
 20
6.4979483444
 30
0.0
  0
VERTEX
  5
3DE
330
1DF
100
AcDbEntity
  8
0
  6
CONTINUOUS
 62
     7
100
AcDbVertex
100
AcDb2dVertex
 10
9.0562978254
 20
6.5226299407
 30
0.0
  0
VERTEX
  5
3DF
330
1DF
100
AcDbEntity
  8
0
  6
CONTINUOUS
 62
     7
100
AcDbVertex
100
AcDb2dVertex
 10
9.0605982053
 20
6.5468893027
 30
0.0
  0
VERTEX
  5
3E0
330
1DF
100
AcDbEntity
  8
0
  6
CONTINUOUS
 62
     7
100
AcDbVertex
100
AcDb2dVertex
 10
9.0632460796
 20
6.5705434453
 30
0.0
  0
SEQEND
  5
3E1
330
1DF
100
AcDbEntity
  8
0
  6
CONTINUOUS
 62
     7
  0
SPLINE
  5
1E0
330
1F
100
AcDbEntity
  8
0
  6
CONTINUOUS
 62
     7
100
AcDbSpline
210
0.0
220
0.0
230
1.0
 70
     8
 71
     3
 72
     8
 73
     4
 74
     0
 42
0.00000001
 43
0.00000001
 40
0.0
 40
0.0
 40
0.0
 40
0.0
 40
0.00070849739462
 40
0.00070849739462
 40
0.00070849739462
 40
0.00070849739462
 10
9.063246079572474
 20
6.570543445316777
 30
0.0
 10
9.081841766427424
 20
6.570567137328611
 30
0.0
 10
9.100437464829032
 20
6.57058789247431
 30
0.0
 10
9.11903316875102
 20
6.570606594746008
 30
0.0
  0
LINE
  5
1E1
330
1F
100
AcDbEntity
  8
0
  6
CONTINUOUS
 62
     7
100
AcDbLine
 10
9.0632460796
 20
6.5705434453
 30
0.0
 11
8.8237906508
 21
6.7087781219
 31
0.0
  0
LINE
  5
1E2
330
1F
100
AcDbEntity
  8
0
  6
CONTINUOUS
 62
     7
100
AcDbLine
 10
6.8095933848
 20
6.8605768304
 30
0.0
 11
6.8096064434
 21
6.8927264207
 31
0.0
  0
ARC
  5
1E3
330
1F
100
AcDbEntity
  8
0
  6
CONTINUOUS
 62
     7
100
AcDbCircle
 10
8.2630235893
 20
6.7993120553
 30
0.0
 40
1.456416026916308
100
AcDbArc
 50
122.6488238798
 51
176.322530525
  0
LINE
  5
1E4
330
1F
100
AcDbEntity
  8
0
  6
CONTINUOUS
 62
     7
100
AcDbLine
 10
7.8600594169
 20
6.9572858086
 30
0.0
 11
7.860064129
 21
6.9581104725
 31
0.0
  0
ARC
  5
1E5
330
1F
100
AcDbEntity
  8
0
  6
CONTINUOUS
 62
     7
100
AcDbCircle
 10
8.0512672093
 20
6.9195675776
 30
0.0
 40
0.2609167026773103
100
AcDbArc
 50
240.6753256774
 51
255.2992291683
  0
ARC
  5
1E6
330
1F
100
AcDbEntity
  8
0
  6
CONTINUOUS
 62
     7
100
AcDbCircle
 10
7.9952790009
 20
6.8229160151
 30
0.0
 40
0.1492368696907387
100
AcDbArc
 50
218.5313473607
 51
241.2427454565
  0
LINE
  5
1E7
330
1F
100
AcDbEntity
  8
0
  6
CONTINUOUS
 62
     7
100
AcDbLine
 10
8.1569586867
 20
7.019752502
 30
0.0
 11
8.0471796442
 21
7.0367335389
 31
0.0
  0
LINE
  5
1E8
330
1F
100
AcDbEntity
  8
0
  6
CONTINUOUS
 62
     7
100
AcDbLine
 10
8.0471796442
 20
7.0367335389
 30
0.0
 11
7.9668158075
 21
6.9903404834
 31
0.0
  0
LINE
  5
1E9
330
1F
100
AcDbEntity
  8
0
  6
CONTINUOUS
 62
     7
100
AcDbLine
 10
7.9668158075
 20
6.9903404834
 30
0.0
 11
7.9962310133
 21
6.9269663912
 31
0.0
  0
LINE
  5
1EA
330
1F
100
AcDbEntity
  8
0
  6
CONTINUOUS
 62
     7
100
AcDbLine
 10
7.9962310133
 20
6.9269663912
 30
0.0
 11
8.1060100558
 21
6.9099853543
 31
0.0
  0
LINE
  5
1EB
330
1F
100
AcDbEntity
  8
0
  6
CONTINUOUS
 62
     7
100
AcDbLine
 10
8.1060100558
 20
6.9099853543
 30
0.0
 11
8.1863738925
 21
6.9563784098
 31
0.0
  0
LINE
  5
1EC
330
1F
100
AcDbEntity
  8
0
  6
CONTINUOUS
 62
     7
100
AcDbLine
 10
8.1863738925
 20
6.9563784098
 30
0.0
 11
8.1569586867
 21
7.019752502
 31
0.0
  0
LINE
  5
1ED
330
1F
100
AcDbEntity
  8
0
  6
CONTINUOUS
 62
     7
100
AcDbLine
 10
8.1569586867
 20
6.9393973729
 30
0.0
 11
8.1569586867
 21
7.019752502
 31
0.0
  0
LINE
  5
1EE
330
1F
100
AcDbEntity
  8
0
  6
CONTINUOUS
 62
     7
100
AcDbLine
 10
8.0471796442
 20
6.9190854645
 30
0.0
 11
8.0471796442
 21
7.0367335389
 31
0.0
  0
ARC
  5
1EF
330
1F
100
AcDbEntity
  8
0
  6
CONTINUOUS
 62
     7
100
AcDbCircle
 10
7.2718131281
 20
7.2412464542
 30
0.0
 40
0.1498265914112948
100
AcDbArc
 50
218.9748071731
 51
241.2163497995
  0
ARC
  5
1F0
330
1F
100
AcDbEntity
  8
0
  6
CONTINUOUS
 62
     7
100
AcDbCircle
 10
7.3274858976
 20
7.3374756996
 30
0.0
 40
0.260984373899406
100
AcDbArc
 50
240.6764243402
 51
255.3280170449
  0
LINE
  5
1F1
330
1F
100
AcDbEntity
  8
0
  6
CONTINUOUS
 62
     7
100
AcDbLine
 10
7.2430057165
 20
7.4081871549
 30
0.0
 11
7.3233695532
 21
7.4545802103
 31
0.0
  0
LINE
  5
1F2
330
1F
100
AcDbEntity
  8
0
  6
CONTINUOUS
 62
     7
100
AcDbLine
 10
7.2724209223
 20
7.3448130626
 30
0.0
 11
7.2430057165
 21
7.4081871549
 31
0.0
  0
LINE
  5
1F3
330
1F
100
AcDbEntity
  8
0
  6
CONTINUOUS
 62
     7
100
AcDbLine
 10
7.3821999648
 20
7.3278320257
 30
0.0
 11
7.2724209223
 21
7.3448130626
 31
0.0
  0
LINE
  5
1F4
330
1F
100
AcDbEntity
  8
0
  6
CONTINUOUS
 62
     7
100
AcDbLine
 10
7.4625638015
 20
7.3742250812
 30
0.0
 11
7.3821999648
 21
7.3278320257
 31
0.0
  0
LINE
  5
1F5
330
1F
100
AcDbEntity
  8
0
  6
CONTINUOUS
 62
     7
100
AcDbLine
 10
7.4331485957
 20
7.4375991734
 30
0.0
 11
7.4625638015
 21
7.3742250812
 31
0.0
  0
LINE
  5
1F6
330
1F
100
AcDbEntity
  8
0
  6
CONTINUOUS
 62
     7
100
AcDbLine
 10
7.3233695532
 20
7.4545802103
 30
0.0
 11
7.4331485957
 21
7.4375991734
 31
0.0
  0
LINE
  5
1F7
330
1F
100
AcDbEntity
  8
0
  6
CONTINUOUS
 62
     7
100
AcDbLine
 10
7.4331485957
 20
7.3572440443
 30
0.0
 11
7.4331485957
 21
7.4375991734
 31
0.0
  0
LINE
  5
1F8
330
1F
100
AcDbEntity
  8
0
  6
CONTINUOUS
 62
     7
100
AcDbLine
 10
7.3233695532
 20
7.336932136
 30
0.0
 11
7.3233695532
 21
7.4545802103
 31
0.0
  0
ARC
  5
1F9
330
1F
100
AcDbEntity
  8
0
  6
CONTINUOUS
 62
     8
100
AcDbCircle
 10
8.0750805782
 20
7.150807857
 30
0.0
 40
0.292264333974022
100
AcDbArc
 50
241.8955545747
 51
303.6575318116
  0
POLYLINE
  5
1FA
330
1F
100
AcDbEntity
  8
0
  6
CONTINUOUS
 62
     8
100
AcDb2dPolyline
 66
     1
 10
0.0
 20
0.0
 30
0.0
  0
VERTEX
  5
3E2
330
1FA
100
AcDbEntity
  8
0
  6
CONTINUOUS
 62
     8
100
AcDbVertex
100
AcDb2dVertex
 10
8.2731694251
 20
6.9793730531
 30
0.0
  0
VERTEX
  5
3E3
330
1FA
100
AcDbEntity
  8
0
  6
CONTINUOUS
 62
     8
100
AcDbVertex
100
AcDb2dVertex
 10
8.2729782569
 20
6.9811823869
 30
0.0
  0
VERTEX
  5
3E4
330
1FA
100
AcDbEntity
  8
0
  6
CONTINUOUS
 62
     8
100
AcDbVertex
100
AcDb2dVertex
 10
8.2702955994
 20
6.993606509
 30
0.0
  0
VERTEX
  5
3E5
330
1FA
100
AcDbEntity
  8
0
  6
CONTINUOUS
 62
     8
100
AcDbVertex
100
AcDb2dVertex
 10
8.2652616772
 20
7.0057848592
 30
0.0
  0
VERTEX
  5
3E6
330
1FA
100
AcDbEntity
  8
0
  6
CONTINUOUS
 62
     8
100
AcDbVertex
100
AcDb2dVertex
 10
8.2579375953
 20
7.0175696088
 30
0.0
  0
VERTEX
  5
3E7
330
1FA
100
AcDbEntity
  8
0
  6
CONTINUOUS
 62
     8
100
AcDbVertex
100
AcDb2dVertex
 10
8.2484122582
 20
7.028817707
 30
0.0
  0
VERTEX
  5
3E8
330
1FA
100
AcDbEntity
  8
0
  6
CONTINUOUS
 62
     8
100
AcDbVertex
100
AcDb2dVertex
 10
8.2368012904
 20
7.0393926169
 30
0.0
  0
VERTEX
  5
3E9
330
1FA
100
AcDbEntity
  8
0
  6
CONTINUOUS
 62
     8
100
AcDbVertex
100
AcDb2dVertex
 10
8.2232456335
 20
7.0491659737
 30
0.0
  0
VERTEX
  5
3EA
330
1FA
100
AcDbEntity
  8
0
  6
CONTINUOUS
 62
     8
100
AcDbVertex
100
AcDb2dVertex
 10
8.2079098347
 20
7.0580191419
 30
0.0
  0
VERTEX
  5
3EB
330
1FA
100
AcDbEntity
  8
0
  6
CONTINUOUS
 62
     8
100
AcDbVertex
100
AcDb2dVertex
 10
8.1909800499
 20
7.065844656
 30
0.0
  0
VERTEX
  5
3EC
330
1FA
100
AcDbEntity
  8
0
  6
CONTINUOUS
 62
     8
100
AcDbVertex
100
AcDb2dVertex
 10
8.1726617837
 20
7.0725475251
 30
0.0
  0
VERTEX
  5
3ED
330
1FA
100
AcDbEntity
  8
0
  6
CONTINUOUS
 62
     8
100
AcDbVertex
100
AcDb2dVertex
 10
8.1531773951
 20
7.0780463852
 30
0.0
  0
VERTEX
  5
3EE
330
1FA
100
AcDbEntity
  8
0
  6
CONTINUOUS
 62
     8
100
AcDbVertex
100
AcDb2dVertex
 10
8.1327633981
 20
7.0822744877
 30
0.0
  0
VERTEX
  5
3EF
330
1FA
100
AcDbEntity
  8
0
  6
CONTINUOUS
 62
     8
100
AcDbVertex
100
AcDb2dVertex
 10
8.111667591
 20
7.0851805091
 30
0.0
  0
VERTEX
  5
3F0
330
1FA
100
AcDbEntity
  8
0
  6
CONTINUOUS
 62
     8
100
AcDbVertex
100
AcDb2dVertex
 10
8.0901460484
 20
7.0867291743
 30
0.0
  0
VERTEX
  5
3F1
330
1FA
100
AcDbEntity
  8
0
  6
CONTINUOUS
 62
     8
100
AcDbVertex
100
AcDb2dVertex
 10
8.0684600125
 20
7.0869016846
 30
0.0
  0
VERTEX
  5
3F2
330
1FA
100
AcDbEntity
  8
0
  6
CONTINUOUS
 62
     8
100
AcDbVertex
100
AcDb2dVertex
 10
8.0468727226
 20
7.0856959459
 30
0.0
  0
VERTEX
  5
3F3
330
1FA
100
AcDbEntity
  8
0
  6
CONTINUOUS
 62
     8
100
AcDbVertex
100
AcDb2dVertex
 10
8.0256462191
 20
7.0831265943
 30
0.0
  0
VERTEX
  5
3F4
330
1FA
100
AcDbEntity
  8
0
  6
CONTINUOUS
 62
     8
100
AcDbVertex
100
AcDb2dVertex
 10
8.0050381629
 20
7.0792248182
 30
0.0
  0
VERTEX
  5
3F5
330
1FA
100
AcDbEntity
  8
0
  6
CONTINUOUS
 62
     8
100
AcDbVertex
100
AcDb2dVertex
 10
7.9852987079
 20
7.0740379799
 30
0.0
  0
VERTEX
  5
3F6
330
1FA
100
AcDbEntity
  8
0
  6
CONTINUOUS
 62
     8
100
AcDbVertex
100
AcDb2dVertex
 10
7.9666674645
 20
7.0676290406
 30
0.0
  0
VERTEX
  5
3F7
330
1FA
100
AcDbEntity
  8
0
  6
CONTINUOUS
 62
     8
100
AcDbVertex
100
AcDb2dVertex
 10
7.9493705906
 20
7.0600757962
 30
0.0
  0
VERTEX
  5
3F8
330
1FA
100
AcDbEntity
  8
0
  6
CONTINUOUS
 62
     8
100
AcDbVertex
100
AcDb2dVertex
 10
7.9336180468
 20
7.0514699327
 30
0.0
  0
VERTEX
  5
3F9
330
1FA
100
AcDbEntity
  8
0
  6
CONTINUOUS
 62
     8
100
AcDbVertex
100
AcDb2dVertex
 10
7.9196010478
 20
7.0419159137
 30
0.0
  0
VERTEX
  5
3FA
330
1FA
100
AcDbEntity
  8
0
  6
CONTINUOUS
 62
     8
100
AcDbVertex
100
AcDb2dVertex
 10
7.9074897409
 20
7.0315297121
 30
0.0
  0
VERTEX
  5
3FB
330
1FA
100
AcDbEntity
  8
0
  6
CONTINUOUS
 62
     8
100
AcDbVertex
100
AcDb2dVertex
 10
7.8974311409
 20
7.0204374023
 30
0.0
  0
VERTEX
  5
3FC
330
1FA
100
AcDbEntity
  8
0
  6
CONTINUOUS
 62
     8
100
AcDbVertex
100
AcDb2dVertex
 10
7.8895473456
 20
7.0087736298
 30
0.0
  0
VERTEX
  5
3FD
330
1FA
100
AcDbEntity
  8
0
  6
CONTINUOUS
 62
     8
100
AcDbVertex
100
AcDb2dVertex
 10
7.8839340537
 20
6.9966799772
 30
0.0
  0
VERTEX
  5
3FE
330
1FA
100
AcDbEntity
  8
0
  6
CONTINUOUS
 62
     8
100
AcDbVertex
100
AcDb2dVertex
 10
7.8806594028
 20
6.9843032449
 30
0.0
  0
VERTEX
  5
3FF
330
1FA
100
AcDbEntity
  8
0
  6
CONTINUOUS
 62
     8
100
AcDbVertex
100
AcDb2dVertex
 10
7.8797631429
 20
6.9717936697
 30
0.0
  0
VERTEX
  5
400
330
1FA
100
AcDbEntity
  8
0
  6
CONTINUOUS
 62
     8
100
AcDbVertex
100
AcDb2dVertex
 10
7.8812561532
 20
6.9593031009
 30
0.0
  0
VERTEX
  5
401
330
1FA
100
AcDbEntity
  8
0
  6
CONTINUOUS
 62
     8
100
AcDbVertex
100
AcDb2dVertex
 10
7.8851203107
 20
6.9469831571
 30
0.0
  0
VERTEX
  5
402
330
1FA
100
AcDbEntity
  8
0
  6
CONTINUOUS
 62
     8
100
AcDbVertex
100
AcDb2dVertex
 10
7.8913087097
 20
6.9349833858
 30
0.0
  0
VERTEX
  5
403
330
1FA
100
AcDbEntity
  8
0
  6
CONTINUOUS
 62
     8
100
AcDbVertex
100
AcDb2dVertex
 10
7.8997462315
 20
6.9234494478
 30
0.0
  0
VERTEX
  5
404
330
1FA
100
AcDbEntity
  8
0
  6
CONTINUOUS
 62
     8
100
AcDbVertex
100
AcDb2dVertex
 10
7.9103304559
 20
6.9125213496
 30
0.0
  0
VERTEX
  5
405
330
1FA
100
AcDbEntity
  8
0
  6
CONTINUOUS
 62
     8
100
AcDbVertex
100
AcDb2dVertex
 10
7.9229329049
 20
6.9023317435
 30
0.0
  0
VERTEX
  5
406
330
1FA
100
AcDbEntity
  8
0
  6
CONTINUOUS
 62
     8
100
AcDbVertex
100
AcDb2dVertex
 10
7.9374006017
 20
6.8930043175
 30
0.0
  0
VERTEX
  5
407
330
1FA
100
AcDbEntity
  8
0
  6
CONTINUOUS
 62
     8
100
AcDbVertex
100
AcDb2dVertex
 10
7.9374006017
 20
6.8930043175
 30
0.0
  0
SEQEND
  5
408
330
1FA
100
AcDbEntity
  8
0
  6
CONTINUOUS
 62
     8
  0
ARC
  5
1FB
330
1F
100
AcDbEntity
  8
0
  6
CONTINUOUS
 62
     8
100
AcDbCircle
 10
7.9673084852
 20
6.9672903976
 30
0.0
 40
0.1077146900676651
100
AcDbArc
 50
185.3293391936
 51
245.990801764
  0
ARC
  5
1FC
330
1F
100
AcDbEntity
  8
0
  6
CONTINUOUS
 62
     8
100
AcDbCircle
 10
8.0775637128
 20
7.1684493644
 30
0.0
 40
0.3368592367081189
100
AcDbArc
 50
242.7799419454
 51
292.1463617324
  0
POLYLINE
  5
1FD
330
1F
100
AcDbEntity
  8
0
  6
CONTINUOUS
 62
     8
100
AcDb2dPolyline
 66
     1
 10
0.0
 20
0.0
 30
0.0
  0
VERTEX
  5
409
330
1FD
100
AcDbEntity
  8
0
  6
CONTINUOUS
 62
     8
100
AcDbVertex
100
AcDb2dVertex
 10
7.2135905107
 20
7.3108509889
 30
0.0
  0
VERTEX
  5
40A
330
1FD
100
AcDbEntity
  8
0
  6
CONTINUOUS
 62
     8
100
AcDbVertex
100
AcDb2dVertex
 10
7.1991228139
 20
7.3201784149
 30
0.0
  0
VERTEX
  5
40B
330
1FD
100
AcDbEntity
  8
0
  6
CONTINUOUS
 62
     8
100
AcDbVertex
100
AcDb2dVertex
 10
7.186520365
 20
7.330368021
 30
0.0
  0
VERTEX
  5
40C
330
1FD
100
AcDbEntity
  8
0
  6
CONTINUOUS
 62
     8
100
AcDbVertex
100
AcDb2dVertex
 10
7.1759361405
 20
7.3412961192
 30
0.0
  0
VERTEX
  5
40D
330
1FD
100
AcDbEntity
  8
0
  6
CONTINUOUS
 62
     8
100
AcDbVertex
100
AcDb2dVertex
 10
7.1674986187
 20
7.3528300572
 30
0.0
  0
VERTEX
  5
40E
330
1FD
100
AcDbEntity
  8
0
  6
CONTINUOUS
 62
     8
100
AcDbVertex
100
AcDb2dVertex
 10
7.1613102197
 20
7.3648298285
 30
0.0
  0
VERTEX
  5
40F
330
1FD
100
AcDbEntity
  8
0
  6
CONTINUOUS
 62
     8
100
AcDbVertex
100
AcDb2dVertex
 10
7.1574460622
 20
7.3771497723
 30
0.0
  0
VERTEX
  5
410
330
1FD
100
AcDbEntity
  8
0
  6
CONTINUOUS
 62
     8
100
AcDbVertex
100
AcDb2dVertex
 10
7.1559530519
 20
7.3896403411
 30
0.0
  0
VERTEX
  5
411
330
1FD
100
AcDbEntity
  8
0
  6
CONTINUOUS
 62
     8
100
AcDbVertex
100
AcDb2dVertex
 10
7.1568493118
 20
7.4021499163
 30
0.0
  0
VERTEX
  5
412
330
1FD
100
AcDbEntity
  8
0
  6
CONTINUOUS
 62
     8
100
AcDbVertex
100
AcDb2dVertex
 10
7.1601239627
 20
7.4145266486
 30
0.0
  0
VERTEX
  5
413
330
1FD
100
AcDbEntity
  8
0
  6
CONTINUOUS
 62
     8
100
AcDbVertex
100
AcDb2dVertex
 10
7.1657372546
 20
7.4266203012
 30
0.0
  0
VERTEX
  5
414
330
1FD
100
AcDbEntity
  8
0
  6
CONTINUOUS
 62
     8
100
AcDbVertex
100
AcDb2dVertex
 10
7.1736210499
 20
7.4382840737
 30
0.0
  0
VERTEX
  5
415
330
1FD
100
AcDbEntity
  8
0
  6
CONTINUOUS
 62
     8
100
AcDbVertex
100
AcDb2dVertex
 10
7.1836796499
 20
7.4493763835
 30
0.0
  0
VERTEX
  5
416
330
1FD
100
AcDbEntity
  8
0
  6
CONTINUOUS
 62
     8
100
AcDbVertex
100
AcDb2dVertex
 10
7.1957909568
 20
7.4597625851
 30
0.0
  0
VERTEX
  5
417
330
1FD
100
AcDbEntity
  8
0
  6
CONTINUOUS
 62
     8
100
AcDbVertex
100
AcDb2dVertex
 10
7.2098079559
 20
7.4693166041
 30
0.0
  0
VERTEX
  5
418
330
1FD
100
AcDbEntity
  8
0
  6
CONTINUOUS
 62
     8
100
AcDbVertex
100
AcDb2dVertex
 10
7.2255604996
 20
7.4779224676
 30
0.0
  0
VERTEX
  5
419
330
1FD
100
AcDbEntity
  8
0
  6
CONTINUOUS
 62
     8
100
AcDbVertex
100
AcDb2dVertex
 10
7.2428573735
 20
7.485475712
 30
0.0
  0
VERTEX
  5
41A
330
1FD
100
AcDbEntity
  8
0
  6
CONTINUOUS
 62
     8
100
AcDbVertex
100
AcDb2dVertex
 10
7.2614886169
 20
7.4918846513
 30
0.0
  0
VERTEX
  5
41B
330
1FD
100
AcDbEntity
  8
0
  6
CONTINUOUS
 62
     8
100
AcDbVertex
100
AcDb2dVertex
 10
7.2812280719
 20
7.4970714896
 30
0.0
  0
VERTEX
  5
41C
330
1FD
100
AcDbEntity
  8
0
  6
CONTINUOUS
 62
     8
100
AcDbVertex
100
AcDb2dVertex
 10
7.3018361281
 20
7.5009732657
 30
0.0
  0
VERTEX
  5
41D
330
1FD
100
AcDbEntity
  8
0
  6
CONTINUOUS
 62
     8
100
AcDbVertex
100
AcDb2dVertex
 10
7.3230626316
 20
7.5035426173
 30
0.0
  0
VERTEX
  5
41E
330
1FD
100
AcDbEntity
  8
0
  6
CONTINUOUS
 62
     8
100
AcDbVertex
100
AcDb2dVertex
 10
7.3446499216
 20
7.504748356
 30
0.0
  0
VERTEX
  5
41F
330
1FD
100
AcDbEntity
  8
0
  6
CONTINUOUS
 62
     8
100
AcDbVertex
100
AcDb2dVertex
 10
7.3663359574
 20
7.5045758457
 30
0.0
  0
VERTEX
  5
420
330
1FD
100
AcDbEntity
  8
0
  6
CONTINUOUS
 62
     8
100
AcDbVertex
100
AcDb2dVertex
 10
7.3878575
 20
7.5030271805
 30
0.0
  0
VERTEX
  5
421
330
1FD
100
AcDbEntity
  8
0
  6
CONTINUOUS
 62
     8
100
AcDbVertex
100
AcDb2dVertex
 10
7.4089533071
 20
7.5001211591
 30
0.0
  0
VERTEX
  5
422
330
1FD
100
AcDbEntity
  8
0
  6
CONTINUOUS
 62
     8
100
AcDbVertex
100
AcDb2dVertex
 10
7.4293673041
 20
7.4958930566
 30
0.0
  0
VERTEX
  5
423
330
1FD
100
AcDbEntity
  8
0
  6
CONTINUOUS
 62
     8
100
AcDbVertex
100
AcDb2dVertex
 10
7.4488516927
 20
7.4903941965
 30
0.0
  0
VERTEX
  5
424
330
1FD
100
AcDbEntity
  8
0
  6
CONTINUOUS
 62
     8
100
AcDbVertex
100
AcDb2dVertex
 10
7.4671699589
 20
7.4836913275
 30
0.0
  0
VERTEX
  5
425
330
1FD
100
AcDbEntity
  8
0
  6
CONTINUOUS
 62
     8
100
AcDbVertex
100
AcDb2dVertex
 10
7.4840997437
 20
7.4758658133
 30
0.0
  0
VERTEX
  5
426
330
1FD
100
AcDbEntity
  8
0
  6
CONTINUOUS
 62
     8
100
AcDbVertex
100
AcDb2dVertex
 10
7.4994355425
 20
7.4670126451
 30
0.0
  0
VERTEX
  5
427
330
1FD
100
AcDbEntity
  8
0
  6
CONTINUOUS
 62
     8
100
AcDbVertex
100
AcDb2dVertex
 10
7.5129911994
 20
7.4572392883
 30
0.0
  0
VERTEX
  5
428
330
1FD
100
AcDbEntity
  8
0
  6
CONTINUOUS
 62
     8
100
AcDbVertex
100
AcDb2dVertex
 10
7.5246021672
 20
7.4466643784
 30
0.0
  0
VERTEX
  5
429
330
1FD
100
AcDbEntity
  8
0
  6
CONTINUOUS
 62
     8
100
AcDbVertex
100
AcDb2dVertex
 10
7.5341275044
 20
7.4354162802
 30
0.0
  0
VERTEX
  5
42A
330
1FD
100
AcDbEntity
  8
0
  6
CONTINUOUS
 62
     8
100
AcDbVertex
100
AcDb2dVertex
 10
7.5414515863
 20
7.4236315306
 30
0.0
  0
VERTEX
  5
42B
330
1FD
100
AcDbEntity
  8
0
  6
CONTINUOUS
 62
     8
100
AcDbVertex
100
AcDb2dVertex
 10
7.5464855085
 20
7.4114531804
 30
0.0
  0
VERTEX
  5
42C
330
1FD
100
AcDbEntity
  8
0
  6
CONTINUOUS
 62
     8
100
AcDbVertex
100
AcDb2dVertex
 10
7.549168166
 20
7.3990290583
 30
0.0
  0
VERTEX
  5
42D
330
1FD
100
AcDbEntity
  8
0
  6
CONTINUOUS
 62
     8
100
AcDbVertex
100
AcDb2dVertex
 10
7.5494206574
 20
7.3965096596
 30
0.0
  0
SEQEND
  5
42E
330
1FD
100
AcDbEntity
  8
0
  6
CONTINUOUS
 62
     8
  0
ARC
  5
1FE
330
1F
100
AcDbEntity
  8
0
  6
CONTINUOUS
 62
     8
100
AcDbCircle
 10
7.3510420371
 20
7.5673674429
 30
0.0
 40
0.2910216715000732
100
AcDbArc
 50
241.8158569358
 51
304.4376186175
  0
ARC
  5
1FF
330
1F
100
AcDbEntity
  8
0
  6
CONTINUOUS
 62
     8
100
AcDbCircle
 10
7.3537697257
 20
7.5863925142
 30
0.0
 40
0.3369523980712625
100
AcDbArc
 50
242.7850108133
 51
292.0116237263
  0
ARC
  5
200
330
1F
100
AcDbEntity
  8
0
  6
CONTINUOUS
 62
     8
100
AcDbCircle
 10
7.2435616267
 20
7.3852099698
 30
0.0
 40
0.1078070153030976
100
AcDbArc
 50
185.4933489497
 51
245.9758678483
  0
ENDSEC
  0
SECTION
  2
OBJECTS
  0
DICTIONARY
  5
C
330
0
100
AcDbDictionary
  3
ACAD_GROUP
350
D
  3
ACAD_LAYOUT
350
1A
  3
ACAD_MLEADERSTYLE
350
203
  3
ACAD_MLINESTYLE
350
17
  3
ACAD_PLOTSETTINGS
350
19
  3
ACAD_SCALELIST
350
6F
  3
ACAD_VISUALSTYLE
350
2A
  3
ACDBVARIABLEDICTIONARY
350
201
1001
ACAD
1000
TREAT_AS_HARD
1070
     0
  0
DICTIONARY
  5
D
102
{ACAD_REACTORS
330
C
102
}
330
C
100
AcDbDictionary
1001
ACAD
1000
TREAT_AS_HARD
1070
     0
  0
DICTIONARY
  5
1A
102
{ACAD_REACTORS
330
C
102
}
330
C
100
AcDbDictionary
1001
ACAD
1000
TREAT_AS_HARD
1070
     0
  0
DICTIONARY
  5
203
102
{ACAD_REACTORS
330
C
102
}
330
C
100
AcDbDictionary
1001
ACAD
1000
TREAT_AS_HARD
1070
     0
  0
DICTIONARY
  5
17
102
{ACAD_REACTORS
330
C
102
}
330
C
100
AcDbDictionary
  3
STANDARD
350
18
1001
ACAD
1000
TREAT_AS_HARD
1070
     0
  0
DICTIONARY
  5
19
102
{ACAD_REACTORS
330
C
102
}
330
C
100
AcDbDictionary
1001
ACAD
1000
TREAT_AS_HARD
1070
     0
  0
DICTIONARY
  5
6F
102
{ACAD_REACTORS
330
C
102
}
330
C
100
AcDbDictionary
  3
A0
350
70
  3
A1
350
71
  3
A2
350
72
  3
A3
350
73
  3
A4
350
74
  3
A5
350
75
  3
A6
350
76
  3
A7
350
77
  3
A8
350
78
  3
A9
350
79
  3
B0
350
7A
  3
B1
350
7B
  3
B2
350
7C
  3
B3
350
7D
  3
B4
350
7E
  3
B5
350
7F
  3
B6
350
80
  3
B7
350
81
  3
B8
350
82
  3
B9
350
83
  3
C0
350
84
  3
C1
350
85
  3
C2
350
86
  3
C3
350
87
  3
C4
350
88
  3
C5
350
89
  3
C6
350
8A
  3
C7
350
8B
  3
C8
350
8C
  3
C9
350
8D
  3
D0
350
8E
  3
D1
350
8F
  3
D2
350
90
1001
ACAD
1000
TREAT_AS_HARD
1070
     0
  0
DICTIONARY
  5
2A
102
{ACAD_REACTORS
330
C
102
}
330
C
100
AcDbDictionary
  3
2DWIREFRAME
350
2F
  3
3D_HIDDEN
350
31
  3
3DWIREFRAME
350
30
  3
BASIC
350
32
  3
BRIGHTEN
350
36
  3
COLORCHANGE
350
3A
  3
CONCEPTUAL
350
34
  3
DIM
350
35
  3
FACEPATTERN
350
39
  3
FLAT
350
2B
  3
FLATWITHEDGES
350
2C
  3
GOURAUD
350
2D
  3
GOURAUDWITHEDGES
350
2E
  3
LINEPATTERN
350
38
  3
REALISTIC
350
33
  3
THICKEN
350
37
1001
ACAD
1000
TREAT_AS_HARD
1070
     0
  0
DICTIONARY
  5
201
102
{ACAD_REACTORS
330
C
102
}
330
C
100
AcDbDictionary
  3
CANNOSCALE
350
204
  3
DIMASSOC
350
205
  3
HIDETEXT
350
206
1001
ACAD
1000
TREAT_AS_HARD
1070
     0
  0
MLINESTYLE
  5
18
102
{ACAD_REACTORS
330
17
102
}
330
17
100
AcDbMlineStyle
  2
Standard
 70
     0
  3

 62
   256
 51
90.0
 52
90.0
 71
     2
 49
0.5
 62
   256
  6
BYLAYER
 49
-0.5
 62
   256
  6
BYLAYER
  0
ACAD_PROXY_OBJECT
  5
70
102
{ACAD_REACTORS
330
6F
102
}
330
6F
100
AcDbZombieObject
 90
      499
 91
      502
 93
       41
310
903313A31580
  0
ACAD_PROXY_OBJECT
  5
71
102
{ACAD_REACTORS
330
6F
102
}
330
6F
100
AcDbZombieObject
 90
      499
 91
      502
 93
      105
310
903313A324000000000000004000
  0
ACAD_PROXY_OBJECT
  5
72
102
{ACAD_REACTORS
330
6F
102
}
330
6F
100
AcDbZombieObject
 90
      499
 91
      502
 93
      105
310
903313A344000000000000104000
  0
ACAD_PROXY_OBJECT
  5
73
102
{ACAD_REACTORS
330
6F
102
}
330
6F
100
AcDbZombieObject
 90
      499
 91
      502
 93
      105
310
903313A354000000000000144000
  0
ACAD_PROXY_OBJECT
  5
74
102
{ACAD_REACTORS
330
6F
102
}
330
6F
100
AcDbZombieObject
 90
      499
 91
      502
 93
      105
310
903313A384000000000000204000
  0
ACAD_PROXY_OBJECT
  5
75
102
{ACAD_REACTORS
330
6F
102
}
330
6F
100
AcDbZombieObject
 90
      499
 91
      502
 93
      113
310
904313A31304000000000000244000
  0
ACAD_PROXY_OBJECT
  5
76
102
{ACAD_REACTORS
330
6F
102
}
330
6F
100
AcDbZombieObject
 90
      499
 91
      502
 93
      113
310
904313A31364000000000000304000
  0
ACAD_PROXY_OBJECT
  5
77
102
{ACAD_REACTORS
330
6F
102
}
330
6F
100
AcDbZombieObject
 90
      499
 91
      502
 93
      113
310
904313A32304000000000000344000
  0
ACAD_PROXY_OBJECT
  5
78
102
{ACAD_REACTORS
330
6F
102
}
330
6F
100
AcDbZombieObject
 90
      499
 91
      502
 93
      113
310
904313A333040000000000003E4000
  0
ACAD_PROXY_OBJECT
  5
79
102
{ACAD_REACTORS
330
6F
102
}
330
6F
100
AcDbZombieObject
 90
      499
 91
      502
 93
      113
310
904313A34304000000000000444000
  0
ACAD_PROXY_OBJECT
  5
7A
102
{ACAD_REACTORS
330
6F
102
}
330
6F
100
AcDbZombieObject
 90
      499
 91
      502
 93
      113
310
904313A35304000000000000494000
  0
ACAD_PROXY_OBJECT
  5
7B
102
{ACAD_REACTORS
330
6F
102
}
330
6F
100
AcDbZombieObject
 90
      499
 91
      502
 93
      121
310
905313A3130304000000000000594000
  0
ACAD_PROXY_OBJECT
  5
7C
102
{ACAD_REACTORS
330
6F
102
}
330
6F
100
AcDbZombieObject
 90
      499
 91
      502
 93
      105
310
903323A310000000000000010100
  0
ACAD_PROXY_OBJECT
  5
7D
102
{ACAD_REACTORS
330
6F
102
}
330
6F
100
AcDbZombieObject
 90
      499
 91
      502
 93
      105
310
903343A310000000000000410100
  0
ACAD_PROXY_OBJECT
  5
7E
102
{ACAD_REACTORS
330
6F
102
}
330
6F
100
AcDbZombieObject
 90
      499
 91
      502
 93
      105
310
903383A310000000000000810100
  0
ACAD_PROXY_OBJECT
  5
7F
102
{ACAD_REACTORS
330
6F
102
}
330
6F
100
AcDbZombieObject
 90
      499
 91
      502
 93
      113
310
90431303A310000000000000910100
  0
ACAD_PROXY_OBJECT
  5
80
102
{ACAD_REACTORS
330
6F
102
}
330
6F
100
AcDbZombieObject
 90
      499
 91
      502
 93
      121
310
9053130303A310000000000001650100
  0
ACAD_PROXY_OBJECT
  5
81
102
{ACAD_REACTORS
330
6F
102
}
330
6F
100
AcDbZombieObject
 90
      499
 91
      502
 93
      257
310
90E312F31323822203D2031272D3022000000000000200FC000000000000284000
  0
ACAD_PROXY_OBJECT
  5
82
102
{ACAD_REACTORS
330
6F
102
}
330
6F
100
AcDbZombieObject
 90
      499
 91
      502
 93
      249
310
90D312F363422203D2031272D3022000000000000240FC000000000000284000
  0
ACAD_PROXY_OBJECT
  5
83
102
{ACAD_REACTORS
330
6F
102
}
330
6F
100
AcDbZombieObject
 90
      499
 91
      502
 93
      249
310
90D312F333222203D2031272D3022000000000000280FC000000000000284000
  0
ACAD_PROXY_OBJECT
  5
84
102
{ACAD_REACTORS
330
6F
102
}
330
6F
100
AcDbZombieObject
 90
      499
 91
      502
 93
      249
310
90D312F313622203D2031272D30220000000000002C0FC000000000000284000
  0
ACAD_PROXY_OBJECT
  5
85
102
{ACAD_REACTORS
330
6F
102
}
330
6F
100
AcDbZombieObject
 90
      499
 91
      502
 93
      249
310
90D332F333222203D2031272D30220000000000002E0FC000000000000284000
  0
ACAD_PROXY_OBJECT
  5
86
102
{ACAD_REACTORS
330
6F
102
}
330
6F
100
AcDbZombieObject
 90
      499
 91
      502
 93
      241
310
90C312F3822203D2031272D3022000000000000300FC000000000000284000
  0
ACAD_PROXY_OBJECT
  5
87
102
{ACAD_REACTORS
330
6F
102
}
330
6F
100
AcDbZombieObject
 90
      499
 91
      502
 93
      249
310
90D332F313622203D2031272D3022000000000000320FC000000000000284000
  0
ACAD_PROXY_OBJECT
  5
88
102
{ACAD_REACTORS
330
6F
102
}
330
6F
100
AcDbZombieObject
 90
      499
 91
      502
 93
      241
310
90C312F3422203D2031272D3022000000000000340FC000000000000284000
  0
ACAD_PROXY_OBJECT
  5
89
102
{ACAD_REACTORS
330
6F
102
}
330
6F
100
AcDbZombieObject
 90
      499
 91
      502
 93
      241
310
90C332F3822203D2031272D3022000000000000360FC000000000000284000
  0
ACAD_PROXY_OBJECT
  5
8A
102
{ACAD_REACTORS
330
6F
102
}
330
6F
100
AcDbZombieObject
 90
      499
 91
      502
 93
      241
310
90C312F3222203D2031272D3022000000000000380FC000000000000284000
  0
ACAD_PROXY_OBJECT
  5
8B
102
{ACAD_REACTORS
330
6F
102
}
330
6F
100
AcDbZombieObject
 90
      499
 91
      502
 93
      241
310
90C332F3422203D2031272D30220000000000003A0FC000000000000284000
  0
ACAD_PROXY_OBJECT
  5
8C
102
{ACAD_REACTORS
330
6F
102
}
330
6F
100
AcDbZombieObject
 90
      499
 91
      502
 93
      161
310
90A3122203D2031272D30224000000000000284000
  0
ACAD_PROXY_OBJECT
  5
8D
102
{ACAD_REACTORS
330
6F
102
}
330
6F
100
AcDbZombieObject
 90
      499
 91
      502
 93
      257
310
90E312D312F3222203D2031272D30220000000000003E0FC000000000000284000
  0
ACAD_PROXY_OBJECT
  5
8E
102
{ACAD_REACTORS
330
6F
102
}
330
6F
100
AcDbZombieObject
 90
      499
 91
      502
 93
      225
310
90A3322203D2031272D302200000000000002100000000000000284000
  0
ACAD_PROXY_OBJECT
  5
8F
102
{ACAD_REACTORS
330
6F
102
}
330
6F
100
AcDbZombieObject
 90
      499
 91
      502
 93
      225
310
90A3622203D2031272D302200000000000006100000000000000284000
  0
ACAD_PROXY_OBJECT
  5
90
102
{ACAD_REACTORS
330
6F
102
}
330
6F
100
AcDbZombieObject
 90
      499
 91
      502
 93
      249
310
90D31272D3022203D2031272D30220000000000000A100000000000000284000
  0
ACAD_PROXY_OBJECT
  5
2F
102
{ACAD_REACTORS
330
2A
102
}
330
2A
100
AcDbZombieObject
 90
      499
 91
      501
 93
      436
310
42CC9915DA5C99599C985B595049028333333333333E3BF0000000000000FB0107901411070040501600405405064090741402480A0340
1001
ACAD
1000
AcDbSavedByObjectVersion
1070
     0
  0
ACAD_PROXY_OBJECT
  5
31
102
{ACAD_REACTORS
330
2A
102
}
330
2A
100
AcDbZombieObject
 90
      499
 91
      501
 93
      500
310
424CD108121A5919195B90640502408333333333333E3BF0000000000000FB01079024090700405020000000000001110200405405064090740C02480A0340
1001
ACAD
1000
AcDbSavedByObjectVersion
1070
     0
  0
ACAD_PROXY_OBJECT
  5
30
102
{ACAD_REACTORS
330
2A
102
}
330
2A
100
AcDbZombieObject
 90
      499
 91
      501
 93
      436
310
42CCD915DA5C99599C985B595059028333333333333E3BF0000000000000FB0107901411070040501600405405064090741402480A0340
1001
ACAD
1000
AcDbSavedByObjectVersion
1070
     0
  0
ACAD_PROXY_OBJECT
  5
32
102
{ACAD_REACTORS
330
2A
102
}
330
2A
100
AcDbZombieObject
 90
      499
 91
      501
 93
      388
310
4150985CDA58D07406404333333333333E3BF0000000000000FB0107A41107004050150841D405064090741402480A0350
1001
ACAD
1000
AcDbSavedByObjectVersion
1070
     0
  0
ACAD_PROXY_OBJECT
  5
36
102
{ACAD_REACTORS
330
2A
102
}
330
2A
100
AcDbZombieObject
 90
      499
 91
      501
 93
      428
310
42109C9A59DA1D195B90C409028333333333333E3BF0000000000000FB010790141107004050150841D405064090741402480A029950
1001
ACAD
1000
AcDbSavedByObjectVersion
1070
     0
  0
ACAD_PROXY_OBJECT
  5
3A
102
{ACAD_REACTORS
330
2A
102
}
330
2A
100
AcDbZombieObject
 90
      499
 91
      501
 93
      452
310
42D0DBDB1BDC90DA185B99D95104090240C333333333333E3BF0000000000000FB0108901411070040501508421405064090741402480A0350
1001
ACAD
1000
AcDbSavedByObjectVersion
1070
     0
  0
ACAD_PROXY_OBJECT
  5
34
102
{ACAD_REACTORS
330
2A
102
}
330
2A
100
AcDbZombieObject
 90
      499
 91
      501
 93
      500
310
4290DBDB98D95C1D1D585B10940D028333333333333E3BF0000000000000FB0107902409070040501000000000000111010841D405064090740C02480A0340
1001
ACAD
1000
AcDbSavedByObjectVersion
1070
     0
  0
ACAD_PROXY_OBJECT
  5
35
102
{ACAD_REACTORS
330
2A
102
}
330
2A
100
AcDbZombieObject
 90
      499
 91
      501
 93
      412
310
40D11A5B50B409028333333333333E3BF0000000000000FB010790141107004050150841D405064090741402480A02677FFFFFD0
1001
ACAD
1000
AcDbSavedByObjectVersion
1070
     0
  0
ACAD_PROXY_OBJECT
  5
39
102
{ACAD_REACTORS
330
2A
102
}
330
2A
100
AcDbZombieObject
 90
      499
 91
      501
 93
      444
310
42D19858D95C185D1D195C9B90F409028333333333333E3BF0000000000000FB010790141107004050150841D405064090741402480A0350
1001
ACAD
1000
AcDbSavedByObjectVersion
1070
     0
  0
ACAD_PROXY_OBJECT
  5
2B
102
{ACAD_REACTORS
330
2A
102
}
330
2A
100
AcDbZombieObject
 90
      499
 91
      501
 93
      388
310
41119B185D240901404333333333333E3BF0000000000000F9010740A41107004050150841D405064090741402480A1B50
1001
ACAD
1000
AcDbSavedByObjectVersion
1070
     0
  0
ACAD_PROXY_OBJECT
  5
2C
102
{ACAD_REACTORS
330
2A
102
}
330
2A
100
AcDbZombieObject
 90
      499
 91
      501
 93
      476
310
43519B185D15DA5D1A115919D95CD0140901404333333333333E3BF0000000000000F9010740901411070040501600405405064090741402480A1B50
1001
ACAD
1000
AcDbSavedByObjectVersion
1070
     0
  0
ACAD_PROXY_OBJECT
  5
2D
102
{ACAD_REACTORS
330
2A
102
}
330
2A
100
AcDbZombieObject
 90
      499
 91
      501
 93
      412
310
41D1DBDD5C985D5910240902404333333333333E3BF0000000000000F9010740A411070040501641D405064090741402480A1B50
1001
ACAD
1000
AcDbSavedByObjectVersion
1070
     0
  0
ACAD_PROXY_OBJECT
  5
2E
102
{ACAD_REACTORS
330
2A
102
}
330
2A
100
AcDbZombieObject
 90
      499
 91
      501
 93
      500
310
4411DBDD5C985D5915DA5D1A115919D95CD0340902404333333333333E3BF0000000000000F9010740901411070040501600405405064090741402480A1B50
1001
ACAD
1000
AcDbSavedByObjectVersion
1070
     0
  0
ACAD_PROXY_OBJECT
  5
38
102
{ACAD_REACTORS
330
2A
102
}
330
2A
100
AcDbZombieObject
 90
      499
 91
      501
 93
      444
310
42D31A5B995C185D1D195C9B90E409028333333333333E3BF0000000000000FB010790141107004050750841D405064090741402483A0350
1001
ACAD
1000
AcDbSavedByObjectVersion
1070
     0
  0
ACAD_PROXY_OBJECT
  5
33
102
{ACAD_REACTORS
330
2A
102
}
330
2A
100
AcDbZombieObject
 90
      499
 91
      501
 93
      420
310
425499585B1A5CDD1A58D08409028333333333333E3BF0000000000000FB01079019070040501508421405064090741402480A1B40
1001
ACAD
1000
AcDbSavedByObjectVersion
1070
     0
  0
ACAD_PROXY_OBJECT
  5
37
102
{ACAD_REACTORS
330
2A
102
}
330
2A
100
AcDbZombieObject
 90
      499
 91
      501
 93
      412
310
41D51A1A58DAD95B90D409028333333333333E3BF0000000000000FB010790141107004050150C41D405064090741402480A0350
1001
ACAD
1000
AcDbSavedByObjectVersion
1070
     0
  0
DICTIONARYVAR
  5
204
102
{ACAD_REACTORS
330
201
102
}
330
201
100
DictionaryVariables
280
     0
  1
1:1
  0
DICTIONARYVAR
  5
205
102
{ACAD_REACTORS
330
201
102
}
330
201
100
DictionaryVariables
280
     0
  1
2
  0
DICTIONARYVAR
  5
206
102
{ACAD_REACTORS
330
201
102
}
330
201
100
DictionaryVariables
280
     0
  1
1
  0
ENDSEC
  0
EOF
