  0
SECTION
  2
HEADER
  9
$ACADVER
  1
AC1012
  9
$DWGCODEPAGE
  3
ansi_1252
  9
$INSBASE
 10
0.0
 20
0.0
 30
0.0
  9
$EXTMIN
 10
0.0
 20
0.0
 30
0.0
  9
$EXTMAX
 10
11.0
 20
8.5
 30
0.0
  9
$LIMMIN
 10
0.0
 20
0.0
  9
$LIMMAX
 10
11.0
 20
8.5
  9
$ORTHOMODE
 70
     0
  9
$REGENMODE
 70
     1
  9
$FILLMODE
 70
     1
  9
$QTEXTMODE
 70
     0
  9
$MIRRTEXT
 70
     1
  9
$DRAGMODE
 70
     2
  9
$LTSCALE
 40
1.0
  9
$OSMODE
 70
    37
  9
$ATTMODE
 70
     1
  9
$TEXTSIZE
 40
0.125
  9
$TRACEWID
 40
0.05
  9
$TEXTSTYLE
  7
STANDARD
  9
$CLAYER
  8
0
  9
$CELTYPE
  6
BYLAYER
  9
$CECOLOR
 62
   256
  9
$CELTSCALE
 40
1.0
  9
$DELOBJ
 70
     1
  9
$DISPSILH
 70
     0
  9
$DIMSCALE
 40
1.0
  9
$DIMASZ
 40
0.13
  9
$DIMEXO
 40
0.05
  9
$DIMDLI
 40
0.38
  9
$DIMRND
 40
0.0
  9
$DIMDLE
 40
0.0
  9
$DIMEXE
 40
0.125
  9
$DIMTP
 40
0.0
  9
$DIMTM
 40
0.0
  9
$DIMTXT
 40
0.125
  9
$DIMCEN
 40
0.09
  9
$DIMTSZ
 40
0.0
  9
$DIMTOL
 70
     0
  9
$DIMLIM
 70
     0
  9
$DIMTIH
 70
     1
  9
$DIMTOH
 70
     1
  9
$DIMSE1
 70
     0
  9
$DIMSE2
 70
     0
  9
$DIMTAD
 70
     0
  9
$DIMZIN
 70
     0
  9
$DIMBLK
  1

  9
$DIMASO
 70
     1
  9
$DIMSHO
 70
     1
  9
$DIMPOST
  1

  9
$DIMAPOST
  1

  9
$DIMALT
 70
     0
  9
$DIMALTD
 70
     2
  9
$DIMALTF
 40
25.4
  9
$DIMLFAC
 40
0.5
  9
$DIMTOFL
 70
     0
  9
$DIMTVP
 40
0.0
  9
$DIMTIX
 70
     0
  9
$DIMSOXD
 70
     0
  9
$DIMSAH
 70
     0
  9
$DIMBLK1
  1

  9
$DIMBLK2
  1

  9
$DIMSTYLE
  2
STANDARD
  9
$DIMCLRD
 70
     0
  9
$DIMCLRE
 70
     0
  9
$DIMCLRT
 70
     0
  9
$DIMTFAC
 40
1.0
  9
$DIMGAP
 40
0.06
  9
$DIMJUST
 70
     0
  9
$DIMSD1
 70
     0
  9
$DIMSD2
 70
     0
  9
$DIMTOLJ
 70
     1
  9
$DIMTZIN
 70
     0
  9
$DIMALTZ
 70
     0
  9
$DIMALTTZ
 70
     0
  9
$DIMFIT
 70
     3
  9
$DIMUPT
 70
     0
  9
$DIMUNIT
 70
     2
  9
$DIMDEC
 70
     3
  9
$DIMTDEC
 70
     3
  9
$DIMALTU
 70
     2
  9
$DIMALTTD
 70
     2
  9
$DIMTXSTY
  7
STANDARD
  9
$DIMAUNIT
 70
     0
  9
$LUNITS
 70
     2
  9
$LUPREC
 70
     2
  9
$SKETCHINC
 40
0.1
  9
$FILLETRAD
 40
0.5
  9
$AUNITS
 70
     0
  9
$AUPREC
 70
     2
  9
$MENU
  1
.
  9
$ELEVATION
 40
0.0
  9
$PELEVATION
 40
0.0
  9
$THICKNESS
 40
0.0
  9
$LIMCHECK
 70
     0
  9
$CHAMFERA
 40
0.5
  9
$CHAMFERB
 40
0.5
  9
$CHAMFERC
 40
1.0
  9
$CHAMFERD
 40
0.0
  9
$SKPOLY
 70
     0
  9
$TDCREATE
 40
2455783.999208414
  9
$TDUPDATE
 40
2455783.999208426
  9
$TDINDWG
 40
0.0000000116
  9
$TDUSRTIMER
 40
0.0000000116
  9
$USRTIMER
 70
     1
  9
$ANGBASE
 50
0.0
  9
$ANGDIR
 70
     0
  9
$PDMODE
 70
     0
  9
$PDSIZE
 40
-1.0
  9
$PLINEWID
 40
0.0
  9
$COORDS
 70
     1
  9
$SPLFRAME
 70
     0
  9
$SPLINETYPE
 70
     6
  9
$SPLINESEGS
 70
     8
  9
$ATTDIA
 70
     0
  9
$ATTREQ
 70
     1
  9
$HANDLING
 70
     1
  9
$HANDSEED
  5
468
  9
$SURFTAB1
 70
     6
  9
$SURFTAB2
 70
     6
  9
$SURFTYPE
 70
     6
  9
$SURFU
 70
     6
  9
$SURFV
 70
     6
  9
$UCSNAME
  2

  9
$UCSORG
 10
0.0
 20
0.0
 30
0.0
  9
$UCSXDIR
 10
1.0
 20
0.0
 30
0.0
  9
$UCSYDIR
 10
0.0
 20
1.0
 30
0.0
  9
$PUCSNAME
  2

  9
$PUCSORG
 10
0.0
 20
0.0
 30
0.0
  9
$PUCSXDIR
 10
1.0
 20
0.0
 30
0.0
  9
$PUCSYDIR
 10
0.0
 20
1.0
 30
0.0
  9
$USERI1
 70
     0
  9
$USERI2
 70
     0
  9
$USERI3
 70
     0
  9
$USERI4
 70
     0
  9
$USERI5
 70
     0
  9
$USERR1
 40
0.0
  9
$USERR2
 40
0.0
  9
$USERR3
 40
0.0
  9
$USERR4
 40
0.0
  9
$USERR5
 40
0.0
  9
$WORLDVIEW
 70
     1
  9
$SHADEDGE
 70
     3
  9
$SHADEDIF
 70
    70
  9
$TILEMODE
 70
     1
  9
$MAXACTVP
 70
    64
  9
$PINSBASE
 10
0.0
 20
0.0
 30
0.0
  9
$PLIMCHECK
 70
     0
  9
$PEXTMIN
 10
1.0000000000E+20
 20
1.0000000000E+20
 30
1.0000000000E+20
  9
$PEXTMAX
 10
-1.0000000000E+20
 20
-1.0000000000E+20
 30
-1.0000000000E+20
  9
$PLIMMIN
 10
0.0
 20
0.0
  9
$PLIMMAX
 10
12.0
 20
9.0
  9
$UNITMODE
 70
     0
  9
$VISRETAIN
 70
     1
  9
$PLINEGEN
 70
     0
  9
$PSLTSCALE
 70
     1
  9
$TREEDEPTH
 70
  3020
  9
$PICKSTYLE
 70
     1
  9
$CMLSTYLE
  2
STANDARD
  9
$CMLJUST
 70
     0
  9
$CMLSCALE
 40
1.0
  9
$SAVEIMAGES
 70
     1
  0
ENDSEC
  0
SECTION
  2
CLASSES
  0
CLASS
  1
ACDBDICTIONARYWDFLT
  2
AcDbDictionaryWithDefault
  3
ObjectDBX Classes
 90
    32768
280
     0
281
     0
  0
CLASS
  1
VISUALSTYLE
  2
AcDbVisualStyle
  3
ObjectDBX Classes
 90
     4095
280
     0
281
     0
  0
CLASS
  1
SCALE
  2
AcDbScale
  3
ObjectDBX Classes
 90
     1153
280
     0
281
     0
  0
CLASS
  1
DICTIONARYVAR
  2
AcDbDictionaryVar
  3
ObjectDBX Classes
 90
        0
280
     0
281
     0
  0
CLASS
  1
XRECORD
  2
AcDbXrecord
  3
AutoCAD 2000
 90
    32768
280
     0
281
     0
  0
CLASS
  1
LWPOLYLINE
  2
AcDbPolyline
  3
AutoCAD 2000
 90
    32768
280
     0
281
     1
  0
CLASS
  1
HATCH
  2
AcDbHatch
  3
AutoCAD 2000
 90
    32768
280
     0
281
     1
  0
CLASS
  1
ACDBPLACEHOLDER
  2
AcDbPlaceHolder
  3
ObjectDBX Classes
 90
        0
280
     0
281
     0
  0
CLASS
  1
LAYOUT
  2
AcDbLayout
  3
ObjectDBX Classes
 90
        0
280
     0
281
     0
  0
ENDSEC
  0
SECTION
  2
TABLES
  0
TABLE
  2
VPORT
  5
8
330
0
100
AcDbSymbolTable
 70
     1
  0
VPORT
  5
29
330
8
100
AcDbSymbolTableRecord
100
AcDbViewportTableRecord
  2
*ACTIVE
 70
     0
 10
0.0
 20
0.0
 11
1.0
 21
1.0
 12
5.5
 22
4.25
 13
0.0
 23
0.0
 14
0.5
 24
0.5
 15
0.5
 25
0.5
 16
0.0
 26
0.0
 36
1.0
 17
0.0
 27
0.0
 37
0.0
 40
8.5
 41
1.2941176471
 42
50.0
 43
0.0
 44
0.0
 50
0.0
 51
0.0
 71
     0
 72
  2000
 73
     1
 74
     3
 75
     0
 76
     0
 77
     0
 78
     0
  0
ENDTAB
  0
TABLE
  2
LTYPE
  5
5
330
0
100
AcDbSymbolTable
 70
     6
  0
LTYPE
  5
14
330
5
100
AcDbSymbolTableRecord
100
AcDbLinetypeTableRecord
  2
BYBLOCK
 70
     0
  3

 72
    65
 73
     0
 40
0.0
  0
LTYPE
  5
15
330
5
100
AcDbSymbolTableRecord
100
AcDbLinetypeTableRecord
  2
BYLAYER
 70
     0
  3

 72
    65
 73
     0
 40
0.0
  0
LTYPE
  5
16
330
5
100
AcDbSymbolTableRecord
100
AcDbLinetypeTableRecord
  2
CONTINUOUS
 70
     0
  3
Solid line
 72
    65
 73
     0
 40
0.0
  0
LTYPE
  5
3B
330
5
100
AcDbSymbolTableRecord
100
AcDbLinetypeTableRecord
  2
HIDDEN
 70
     0
  3
Hidden __ __ __ __ __ __ __ __ __ __ __ __ __ __
 72
    65
 73
     2
 40
0.075
 49
0.05
 74
     0
 49
-0.025
 74
     0
  0
LTYPE
  5
3C
330
5
100
AcDbSymbolTableRecord
100
AcDbLinetypeTableRecord
  2
PHANTOM
 70
     0
  3
Phantom ______  __  __  ______  __  __  ______
 72
    65
 73
     6
 40
0.5
 49
0.25
 74
     0
 49
-0.05
 74
     0
 49
0.05
 74
     0
 49
-0.05
 74
     0
 49
0.05
 74
     0
 49
-0.05
 74
     0
  0
LTYPE
  5
3D
330
5
100
AcDbSymbolTableRecord
100
AcDbLinetypeTableRecord
  2
CENTER
 70
     0
  3
Center ____ _ ____ _ ____ _ ____ _ ____ _ ____
 72
    65
 73
     4
 40
0.4
 49
0.25
 74
     0
 49
-0.05
 74
     0
 49
0.05
 74
     0
 49
-0.05
 74
     0
  0
LTYPE
  5
3E
330
5
100
AcDbSymbolTableRecord
100
AcDbLinetypeTableRecord
  2
CENTERX2
 70
     0
  3
Center (2x) ________  __  ________  __  _____
 72
    65
 73
     4
 40
0.8
 49
0.5
 74
     0
 49
-0.1
 74
     0
 49
0.1
 74
     0
 49
-0.1
 74
     0
  0
LTYPE
  5
3F
330
5
100
AcDbSymbolTableRecord
100
AcDbLinetypeTableRecord
  2
DOT2
 70
     0
  3
Dot (.5x) ........................................
 72
    65
 73
     2
 40
0.025
 49
0.0
 74
     0
 49
-0.025
 74
     0
  0
ENDTAB
  0
TABLE
  2
LAYER
  5
2
330
0
100
AcDbSymbolTable
 70
     2
  0
LAYER
  5
10
330
2
100
AcDbSymbolTableRecord
100
AcDbLayerTableRecord
  2
0
 70
     0
 62
     7
  6
CONTINUOUS
  0
LAYER
  5
40
330
2
100
AcDbSymbolTableRecord
100
AcDbLayerTableRecord
  2
FORMAT
 70
     0
 62
     7
  6
CONTINUOUS
  0
ENDTAB
  0
TABLE
  2
STYLE
  5
3
330
0
100
AcDbSymbolTable
 70
     4
  0
STYLE
  5
11
330
3
100
AcDbSymbolTableRecord
100
AcDbTextStyleTableRecord
  2
STANDARD
 70
     0
 40
0.0
 41
1.0
 50
0.0
 71
     0
 42
0.2
  3
txt
  4

  0
STYLE
  5
6E
330
3
100
AcDbSymbolTableRecord
100
AcDbTextStyleTableRecord
  2
SLDTEXTSTYLE0
 70
     0
 40
0.0
 41
0.75
 50
0.0
 71
     0
 42
0.2
  3
TXT
  4

  0
STYLE
  5
93
330
3
100
AcDbSymbolTableRecord
100
AcDbTextStyleTableRecord
  2
SLDTEXTSTYLE1
 70
     0
 40
0.0
 41
0.6875
 50
0.0
 71
     0
 42
0.2
  3
TXT
  4

  0
STYLE
  5
99
330
3
100
AcDbSymbolTableRecord
100
AcDbTextStyleTableRecord
  2
SLDTEXTSTYLE2
 70
     0
 40
0.0
 41
0.6944444444
 50
0.0
 71
     0
 42
0.2
  3
TXT
  4

  0
ENDTAB
  0
TABLE
  2
VIEW
  5
6
330
0
100
AcDbSymbolTable
 70
     0
  0
ENDTAB
  0
TABLE
  2
UCS
  5
7
330
0
100
AcDbSymbolTable
 70
     0
  0
ENDTAB
  0
TABLE
  2
APPID
  5
9
330
0
100
AcDbSymbolTable
 70
     1
  0
APPID
  5
12
330
9
100
AcDbSymbolTableRecord
100
AcDbRegAppTableRecord
  2
ACAD
 70
     0
  0
ENDTAB
  0
TABLE
  2
DIMSTYLE
  5
A
330
0
100
AcDbSymbolTable
 70
     1
  0
DIMSTYLE
105
27
330
A
100
AcDbSymbolTableRecord
100
AcDbDimStyleTableRecord
  2
STANDARD
 70
     0
  3

  4

  5

  6

  7

 40
1.0
 41
0.18
 42
0.0625
 43
0.38
 44
0.18
 45
0.0
 46
0.0
 47
0.0
 48
0.0
140
0.18
141
0.09
142
0.0
143
25.4
144
1.0
145
0.0
146
1.0
147
0.09
 71
     0
 72
     0
 73
     1
 74
     1
 75
     0
 76
     0
 77
     0
 78
     0
170
     0
171
     2
172
     0
173
     0
174
     0
175
     0
176
     0
177
     0
178
     0
270
     2
271
     4
272
     4
273
     2
274
     2
340
11
275
     0
280
     0
281
     0
282
     0
283
     1
284
     0
285
     0
286
     0
287
     3
288
     0
  0
ENDTAB
  0
TABLE
  2
BLOCK_RECORD
  5
1
330
0
100
AcDbSymbolTable
 70
     4
  0
BLOCK_RECORD
  5
1F
330
1
100
AcDbSymbolTableRecord
100
AcDbBlockTableRecord
  2
*MODEL_SPACE
  0
BLOCK_RECORD
  5
1B
330
1
100
AcDbSymbolTableRecord
100
AcDbBlockTableRecord
  2
*PAPER_SPACE
  0
BLOCK_RECORD
  5
A8
330
1
100
AcDbSymbolTableRecord
100
AcDbBlockTableRecord
  2
SW_NOTE_0
  0
BLOCK_RECORD
  5
AE
330
1
100
AcDbSymbolTableRecord
100
AcDbBlockTableRecord
  2
SW_NOTE_1
  0
BLOCK_RECORD
  5
C2
330
1
100
AcDbSymbolTableRecord
100
AcDbBlockTableRecord
  2
SW_NOTE_2
  0
ENDTAB
  0
ENDSEC
  0
SECTION
  2
BLOCKS
  0
BLOCK
  5
20
330
1F
100
AcDbEntity
  8
0
100
AcDbBlockBegin
  2
*MODEL_SPACE
 70
     0
 10
0.0
 20
0.0
 30
0.0
  3
*MODEL_SPACE
  1

  0
ENDBLK
  5
21
330
1F
100
AcDbEntity
  8
0
100
AcDbBlockEnd
  0
BLOCK
  5
1C
330
1B
100
AcDbEntity
 67
     1
  8
0
100
AcDbBlockBegin
  2
*PAPER_SPACE
 70
     0
 10
0.0
 20
0.0
 30
0.0
  3
*PAPER_SPACE
  1

  0
ENDBLK
  5
1D
330
1B
100
AcDbEntity
 67
     1
  8
0
100
AcDbBlockEnd
  0
BLOCK
  5
A9
330
A8
100
AcDbEntity
  8
0
100
AcDbBlockBegin
  2
SW_NOTE_0
 70
     0
 10
0.0
 20
0.0
 30
0.0
  3
SW_NOTE_0
  1

  0
MTEXT
  5
AB
330
A8
100
AcDbEntity
  8
0
  6
CONTINUOUS
 62
     0
100
AcDbMText
 10
0.0
 20
0.0773440644
 30
0.0
 40
0.06
 41
0.0
 71
     1
 72
     1
  1
INTERPRET GEOMETRIC
  7
SLDTEXTSTYLE0
  0
MTEXT
  5
AC
330
A8
100
AcDbEntity
  8
0
  6
CONTINUOUS
 62
     0
100
AcDbMText
 10
0.0
 20
-0.0220260102
 30
0.0
 40
0.06
 41
0.0
 71
     1
 72
     1
  1
TOLERANCING PER:
  7
SLDTEXTSTYLE0
  0
ENDBLK
  5
AA
330
A8
100
AcDbEntity
  8
0
100
AcDbBlockEnd
  0
BLOCK
  5
AF
330
AE
100
AcDbEntity
  8
0
100
AcDbBlockBegin
  2
SW_NOTE_1
 70
     0
 10
0.0
 20
0.0
 30
0.0
  3
SW_NOTE_1
  1

  0
MTEXT
  5
B1
330
AE
100
AcDbEntity
  8
0
  6
CONTINUOUS
 62
     0
100
AcDbMText
 10
0.0
 20
0.0837894031
 30
0.0
 40
0.065
 41
0.0
 71
     1
 72
     1
  1
DIMENSIONS ARE IN INCHES
  7
SLDTEXTSTYLE0
  0
MTEXT
  5
B2
330
AE
100
AcDbEntity
  8
0
  6
CONTINUOUS
 62
     0
100
AcDbMText
 10
0.0
 20
-0.0205806729
 30
0.0
 40
0.065
 41
0.0
 71
     1
 72
     1
  1
TOLERANCES:
  7
SLDTEXTSTYLE0
  0
MTEXT
  5
B3
330
AE
100
AcDbEntity
  8
0
  6
CONTINUOUS
 62
     0
100
AcDbMText
 10
0.0
 20
-0.1249507489
 30
0.0
 40
0.065
 41
0.0
 71
     1
 72
     1
  1
FRACTIONAL
  7
SLDTEXTSTYLE0
  0
MTEXT
  5
B4
330
AE
100
AcDbEntity
  8
0
  6
CONTINUOUS
 62
     0
100
AcDbMText
 10
0.5175850875
 20
-0.1249507489
 30
0.0
 40
0.065
 41
0.0
 71
     1
 72
     1
  1
%%p
  7
SLDTEXTSTYLE0
  0
MTEXT
  5
B5
330
AE
100
AcDbEntity
  8
0
  6
CONTINUOUS
 62
     0
100
AcDbMText
 10
0.0
 20
-0.2293208248
 30
0.0
 40
0.065
 41
0.0
 71
     1
 72
     1
  1
ANGULAR: MACH
  7
SLDTEXTSTYLE0
  0
MTEXT
  5
B6
330
AE
100
AcDbEntity
  8
0
  6
CONTINUOUS
 62
     0
100
AcDbMText
 10
0.7233732769
 20
-0.2293208248
 30
0.0
 40
0.065
 41
0.0
 71
     1
 72
     1
  1
%%p
  7
SLDTEXTSTYLE0
  0
MTEXT
  5
B7
330
AE
100
AcDbEntity
  8
0
  6
CONTINUOUS
 62
     0
100
AcDbMText
 10
0.7852857683
 20
-0.2293208248
 30
0.0
 40
0.065
 41
0.0
 71
     1
 72
     1
  1
     BEND 
  7
SLDTEXTSTYLE0
  0
MTEXT
  5
B8
330
AE
100
AcDbEntity
  8
0
  6
CONTINUOUS
 62
     0
100
AcDbMText
 10
1.14784136
 20
-0.2293208248
 30
0.0
 40
0.065
 41
0.0
 71
     1
 72
     1
  1
%%p
  7
SLDTEXTSTYLE0
  0
MTEXT
  5
B9
330
AE
100
AcDbEntity
  8
0
  6
CONTINUOUS
 62
     0
100
AcDbMText
 10
0.0
 20
-0.3336909008
 30
0.0
 40
0.065
 41
0.0
 71
     1
 72
     1
  1
TWO PLACE DECIMAL    
  7
SLDTEXTSTYLE0
  0
MTEXT
  5
BA
330
AE
100
AcDbEntity
  8
0
  6
CONTINUOUS
 62
     0
100
AcDbMText
 10
0.9794349188
 20
-0.3336909008
 30
0.0
 40
0.065
 41
0.0
 71
     1
 72
     1
  1
%%p
  7
SLDTEXTSTYLE0
  0
MTEXT
  5
BB
330
AE
100
AcDbEntity
  8
0
  6
CONTINUOUS
 62
     0
100
AcDbMText
 10
0.0
 20
-0.4380609768
 30
0.0
 40
0.065
 41
0.0
 71
     1
 72
     1
  1
THREE PLACE DECIMAL  
  7
SLDTEXTSTYLE0
  0
MTEXT
  5
BC
330
AE
100
AcDbEntity
  8
0
  6
CONTINUOUS
 62
     0
100
AcDbMText
 10
0.9738038639
 20
-0.4380609768
 30
0.0
 40
0.065
 41
0.0
 71
     1
 72
     1
  1
%%p
  7
SLDTEXTSTYLE0
  0
ENDBLK
  5
B0
330
AE
100
AcDbEntity
  8
0
100
AcDbBlockEnd
  0
BLOCK
  5
C3
330
C2
100
AcDbEntity
  8
0
100
AcDbBlockBegin
  2
SW_NOTE_2
 70
     0
 10
0.0
 20
0.0
 30
0.0
  3
SW_NOTE_2
  1

  0
MTEXT
  5
C5
330
C2
100
AcDbEntity
  8
0
  6
CONTINUOUS
 62
     0
100
AcDbMText
 10
0.0
 20
0.0773440644
 30
0.0
 40
0.06
 41
0.0
 71
     1
 72
     1
  1
THE INFORMATION CONTAINED IN THIS
  7
SLDTEXTSTYLE0
  0
MTEXT
  5
C6
330
C2
100
AcDbEntity
  8
0
  6
CONTINUOUS
 62
     0
100
AcDbMText
 10
0.0
 20
-0.0220260102
 30
0.0
 40
0.06
 41
0.0
 71
     1
 72
     1
  1
DRAWING IS THE SOLE PROPERTY OF
  7
SLDTEXTSTYLE0
  0
MTEXT
  5
C7
330
C2
100
AcDbEntity
  8
0
  6
CONTINUOUS
 62
     0
100
AcDbMText
 10
0.0
 20
-0.1213960848
 30
0.0
 40
0.06
 41
0.0
 71
     1
 72
     1
  1
Candy Controls.  ANY 
  7
SLDTEXTSTYLE0
  0
MTEXT
  5
C8
330
C2
100
AcDbEntity
  8
0
  6
CONTINUOUS
 62
     0
100
AcDbMText
 10
0.0
 20
-0.2207661593
 30
0.0
 40
0.06
 41
0.0
 71
     1
 72
     1
  1
REPRODUCTION IN PART OR AS A WHOLE
  7
SLDTEXTSTYLE0
  0
MTEXT
  5
C9
330
C2
100
AcDbEntity
  8
0
  6
CONTINUOUS
 62
     0
100
AcDbMText
 10
0.0
 20
-0.3201362339
 30
0.0
 40
0.06
 41
0.0
 71
     1
 72
     1
  1
WITHOUT THE WRITTEN PERMISSION OF
  7
SLDTEXTSTYLE0
  0
MTEXT
  5
CA
330
C2
100
AcDbEntity
  8
0
  6
CONTINUOUS
 62
     0
100
AcDbMText
 10
0.0
 20
-0.4195063085
 30
0.0
 40
0.06
 41
0.0
 71
     1
 72
     1
  1
Candy Controls IS 
  7
SLDTEXTSTYLE0
  0
MTEXT
  5
CB
330
C2
100
AcDbEntity
  8
0
  6
CONTINUOUS
 62
     0
100
AcDbMText
 10
0.0
 20
-0.518876383
 30
0.0
 40
0.06
 41
0.0
 71
     1
 72
     1
  1
PROHIBITED.
  7
SLDTEXTSTYLE0
  0
ENDBLK
  5
C4
330
C2
100
AcDbEntity
  8
0
100
AcDbBlockEnd
  0
ENDSEC
  0
SECTION
  2
ENTITIES
  0
LINE
  5
41
330
1F
100
AcDbEntity
  8
0
  6
CONTINUOUS
 62
     7
100
AcDbLine
 10
0.329927
 20
8.1920731707
 30
0.0
 11
10.629927
 21
8.1920731707
 31
0.0
  0
LINE
  5
42
330
1F
100
AcDbEntity
  8
0
  6
CONTINUOUS
 62
     7
100
AcDbLine
 10
0.329927
 20
8.1920731707
 30
0.0
 11
0.329927
 21
0.3920731707
 31
0.0
  0
LINE
  5
43
330
1F
100
AcDbEntity
  8
0
  6
CONTINUOUS
 62
     7
100
AcDbLine
 10
10.629927
 20
0.3920731707
 30
0.0
 11
0.329927
 21
0.3920731707
 31
0.0
  0
LINE
  5
44
330
1F
100
AcDbEntity
  8
0
  6
CONTINUOUS
 62
     7
100
AcDbLine
 10
10.629927
 20
0.3920731707
 30
0.0
 11
10.629927
 21
8.1920731707
 31
0.0
  0
LINE
  5
45
330
1F
100
AcDbEntity
  8
0
  6
CONTINUOUS
 62
     7
100
AcDbLine
 10
4.7981841288
 20
0.3920731707
 30
0.0
 11
4.7981841288
 21
2.3564211366
 31
0.0
  0
LINE
  5
46
330
1F
100
AcDbEntity
  8
0
  6
CONTINUOUS
 62
     7
100
AcDbLine
 10
2.8210345579
 20
2.3564211366
 30
0.0
 11
10.629927
 21
2.3564211366
 31
0.0
  0
LINE
  5
47
330
1F
100
AcDbEntity
  8
0
  6
CONTINUOUS
 62
     7
100
AcDbLine
 10
6.1796352514
 20
2.3564211366
 30
0.0
 11
6.1796352514
 21
0.3920731707
 31
0.0
  0
LINE
  5
48
330
1F
100
AcDbEntity
  8
0
  6
CONTINUOUS
 62
     7
100
AcDbLine
 10
7.8712070044
 20
2.3564211366
 30
0.0
 11
7.8712070044
 21
0.3920731707
 31
0.0
  0
LINE
  5
49
330
1F
100
AcDbEntity
  8
0
  6
CONTINUOUS
 62
     7
100
AcDbLine
 10
7.8712070044
 20
0.6049590101
 30
0.0
 11
10.629927
 21
0.6049590101
 31
0.0
  0
LINE
  5
4A
330
1F
100
AcDbEntity
  8
0
  6
CONTINUOUS
 62
     7
100
AcDbLine
 10
7.8712070044
 20
1.1119362457
 30
0.0
 11
10.629927
 21
1.1119362457
 31
0.0
  0
LINE
  5
4B
330
1F
100
AcDbEntity
  8
0
  6
CONTINUOUS
 62
     7
100
AcDbLine
 10
7.8712070044
 20
1.9892703708
 30
0.0
 11
10.629927
 21
1.9892703708
 31
0.0
  0
LINE
  5
4C
330
1F
100
AcDbEntity
  8
0
  6
CONTINUOUS
 62
     7
100
AcDbLine
 10
8.266751752
 20
1.1119362457
 30
0.0
 11
8.266751752
 21
0.6049590101
 31
0.0
  0
LINE
  5
4D
330
1F
100
AcDbEntity
  8
0
  6
CONTINUOUS
 62
     7
100
AcDbLine
 10
8.6943435176
 20
0.6049590101
 30
0.0
 11
8.6943435176
 21
0.3920731707
 31
0.0
  0
LINE
  5
4E
330
1F
100
AcDbEntity
  8
0
  6
CONTINUOUS
 62
     7
100
AcDbLine
 10
10.0579917045
 20
1.1119362457
 30
0.0
 11
10.0579917045
 21
0.6049590101
 31
0.0
  0
LINE
  5
4F
330
1F
100
AcDbEntity
  8
0
  6
CONTINUOUS
 62
     7
100
AcDbLine
 10
9.6662556631
 20
0.6049590101
 30
0.0
 11
9.6662556631
 21
0.3920731707
 31
0.0
  0
LINE
  5
50
330
1F
100
AcDbEntity
  8
0
  6
CONTINUOUS
 62
     7
100
AcDbLine
 10
2.8210345579
 20
0.5883479999
 30
0.0
 11
6.1796352514
 21
0.5883479999
 31
0.0
  0
LINE
  5
51
330
1F
100
AcDbEntity
  8
0
  6
CONTINUOUS
 62
     7
100
AcDbLine
 10
6.1796352514
 20
1.7939211366
 30
0.0
 11
7.8712070044
 21
1.7939211366
 31
0.0
  0
LINE
  5
52
330
1F
100
AcDbEntity
  8
0
  6
CONTINUOUS
 62
     7
100
AcDbLine
 10
6.1796352514
 20
1.9814211366
 30
0.0
 11
7.8712070044
 21
1.9814211366
 31
0.0
  0
LINE
  5
53
330
1F
100
AcDbEntity
  8
0
  6
CONTINUOUS
 62
     7
100
AcDbLine
 10
6.1796352514
 20
2.1689211366
 30
0.0
 11
7.8712070044
 21
2.1689211366
 31
0.0
  0
LINE
  5
54
330
1F
100
AcDbEntity
  8
0
  6
CONTINUOUS
 62
     7
100
AcDbLine
 10
7.8712070044
 20
1.2314211366
 30
0.0
 11
6.1796352514
 21
1.2314211366
 31
0.0
  0
LINE
  5
55
330
1F
100
AcDbEntity
  8
0
  6
CONTINUOUS
 62
     7
100
AcDbLine
 10
7.3921580388
 20
2.3564211366
 30
0.0
 11
7.3921580388
 21
1.2314211366
 31
0.0
  0
LINE
  5
56
330
1F
100
AcDbEntity
  8
0
  6
CONTINUOUS
 62
     7
100
AcDbLine
 10
6.9236308342
 20
2.3564211366
 30
0.0
 11
6.9236308342
 21
1.2314211366
 31
0.0
  0
LINE
  5
57
330
1F
100
AcDbEntity
  8
0
  6
CONTINUOUS
 62
     7
100
AcDbLine
 10
4.7981841288
 20
0.8557965305
 30
0.0
 11
6.1796352514
 21
0.8557965305
 31
0.0
  0
LINE
  5
58
330
1F
100
AcDbEntity
  8
0
  6
CONTINUOUS
 62
     7
100
AcDbLine
 10
4.7981841288
 20
1.1257965305
 30
0.0
 11
6.1796352514
 21
1.1257965305
 31
0.0
  0
LINE
  5
59
330
1F
100
AcDbEntity
  8
0
  6
CONTINUOUS
 62
     7
100
AcDbLine
 10
2.8210345579
 20
0.3920731707
 30
0.0
 11
2.8210345579
 21
2.3564211366
 31
0.0
  0
LINE
  5
5A
330
1F
100
AcDbEntity
  8
0
  6
CONTINUOUS
 62
     7
100
AcDbLine
 10
2.8210345579
 20
1.1064211366
 30
0.0
 11
4.7981841288
 21
1.1064211366
 31
0.0
  0
LINE
  5
5B
330
1F
100
AcDbEntity
  8
0
  6
CONTINUOUS
 62
     7
100
AcDbLine
 10
2.8210345579
 20
1.3564211366
 30
0.0
 11
4.7981841288
 21
1.3564211366
 31
0.0
  0
LINE
  5
5C
330
1F
100
AcDbEntity
  8
0
  6
CONTINUOUS
 62
     7
100
AcDbLine
 10
2.8210345579
 20
1.6064211366
 30
0.0
 11
4.7981841288
 21
1.6064211366
 31
0.0
  0
LINE
  5
5D
330
1F
100
AcDbEntity
  8
0
  6
CONTINUOUS
 62
     7
100
AcDbLine
 10
2.8210345579
 20
1.8564211366
 30
0.0
 11
4.7981841288
 21
1.8564211366
 31
0.0
  0
LINE
  5
5E
330
1F
100
AcDbEntity
  8
0
  6
CONTINUOUS
 62
     7
100
AcDbLine
 10
3.8190146875
 20
2.3564211366
 30
0.0
 11
3.8190146875
 21
0.5883479999
 31
0.0
  0
LINE
  5
5F
330
1F
100
AcDbEntity
  8
0
  6
CONTINUOUS
 62
     7
100
AcDbLine
 10
6.1796352514
 20
2.2020813496
 30
0.0
 11
4.7981841288
 21
2.2020813496
 31
0.0
  0
LINE
  5
60
330
1F
100
AcDbEntity
  8
0
  6
CONTINUOUS
 62
     7
100
AcDbLine
 10
7.8712070044
 20
1.6064211366
 30
0.0
 11
6.1796352514
 21
1.6064211366
 31
0.0
  0
LINE
  5
61
330
1F
100
AcDbEntity
  8
0
  6
CONTINUOUS
 62
     7
100
AcDbLine
 10
7.8712070044
 20
1.4189211366
 30
0.0
 11
6.1796352514
 21
1.4189211366
 31
0.0
  0
LINE
  5
62
330
1F
100
AcDbEntity
  8
0
  6
CONTINUOUS
 62
     7
100
AcDbLine
 10
2.8210345579
 20
2.1064211366
 30
0.0
 11
4.7981841288
 21
2.1064211366
 31
0.0
  0
LINE
  5
63
330
1F
100
AcDbEntity
  8
0
  6
CONTINUOUS
 62
     7
100
AcDbLine
 10
4.7981841288
 20
1.3957965305
 30
0.0
 11
6.1796352514
 21
1.3957965305
 31
0.0
  0
LINE
  5
64
330
1F
100
AcDbEntity
  8
0
  6
CONTINUOUS
 62
     7
100
AcDbLine
 10
2.8210345579
 20
0.8564211366
 30
0.0
 11
4.7981841288
 21
0.8564211366
 31
0.0
  0
LINE
  5
65
330
1F
100
AcDbEntity
  8
0
  6
CONTINUOUS
 62
     7
100
AcDbLine
 10
1.1838252943
 20
0.3920731707
 30
0.0
 11
1.1838252943
 21
1.3064211366
 31
0.0
  0
LINE
  5
66
330
1F
100
AcDbEntity
  8
0
  6
CONTINUOUS
 62
     7
100
AcDbLine
 10
2.8210345579
 20
1.3064211366
 30
0.0
 11
1.1838252943
 21
1.3064211366
 31
0.0
  0
LINE
  5
67
330
1F
100
AcDbEntity
  8
0
  6
CONTINUOUS
 62
     7
100
AcDbLine
 10
8.660927
 20
0.3920731707
 30
0.0
 11
8.660927
 21
0.3072739649
 31
0.0
  0
LINE
  5
68
330
1F
100
AcDbEntity
  8
0
  6
CONTINUOUS
 62
     7
100
AcDbLine
 10
6.692177
 20
0.3920731707
 30
0.0
 11
6.692177
 21
0.3072739649
 31
0.0
  0
LINE
  5
69
330
1F
100
AcDbEntity
  8
0
  6
CONTINUOUS
 62
     7
100
AcDbLine
 10
4.723427
 20
0.3920731707
 30
0.0
 11
4.723427
 21
0.3072739649
 31
0.0
  0
LINE
  5
6A
330
1F
100
AcDbEntity
  8
0
  6
CONTINUOUS
 62
     7
100
AcDbLine
 10
2.754677
 20
0.3920731707
 30
0.0
 11
2.754677
 21
0.3072739649
 31
0.0
  0
LINE
  5
6B
330
1F
100
AcDbEntity
  8
0
  6
CONTINUOUS
 62
     7
100
AcDbLine
 10
2.754677
 20
0.3920731707
 30
0.0
 11
2.7672319738
 21
0.3575
 31
0.0
  0
LINE
  5
6C
330
1F
100
AcDbEntity
  8
0
  6
CONTINUOUS
 62
     7
100
AcDbLine
 10
2.7672319738
 20
0.3575
 30
0.0
 11
2.7414258825
 21
0.3575
 31
0.0
  0
LINE
  5
6D
330
1F
100
AcDbEntity
  8
0
  6
CONTINUOUS
 62
     7
100
AcDbLine
 10
2.7414258825
 20
0.3575
 30
0.0
 11
2.754677
 21
0.3920731707
 31
0.0
  0
MTEXT
  5
91
330
1F
100
AcDbEntity
  8
0
  6
CONTINUOUS
 62
     7
100
AcDbMText
 10
4.9775846961
 20
0.5178452352
 30
0.0
 40
0.0625
 41
0.0
 71
     1
 72
     1
  1
DO NOT SCALE DRAWING
  7
SLDTEXTSTYLE0
  0
MTEXT
  5
92
330
1F
100
AcDbEntity
  8
0
  6
CONTINUOUS
 62
     7
100
AcDbMText
 10
8.5335905717
 20
0.9417064595
 30
0.0
 40
0.125
 41
0.0
 71
     1
 72
     1
  1
CL13-16_CLAMP
  7
SLDTEXTSTYLE0
  0
MTEXT
  5
94
330
1F
100
AcDbEntity
  8
0
  6
CONTINUOUS
 62
     7
100
AcDbMText
 10
9.7571278483
 20
0.5524239532
 30
0.0
 40
0.1
 41
0.0
 71
     1
 72
     1
  1
SHEET 1 OF 1
  7
SLDTEXTSTYLE1
  0
MTEXT
  5
95
330
1F
100
AcDbEntity
  8
0
  6
CONTINUOUS
 62
     7
100
AcDbMText
 10
4.8448077858
 20
2.3132954224
 30
0.0
 40
0.07
 41
0.0
 71
     1
 72
     1
  1
UNLESS OTHERWISE SPECIFIED:
  7
SLDTEXTSTYLE0
  0
MTEXT
  5
96
330
1F
100
AcDbEntity
  8
0
  6
CONTINUOUS
 62
     7
100
AcDbMText
 10
7.9586139647
 20
0.5520987879
 30
0.0
 40
0.1
 41
0.0
 71
     1
 72
     1
  1
SCALE: 2:1
  7
SLDTEXTSTYLE0
  0
MTEXT
  5
97
330
1F
100
AcDbEntity
  8
0
  6
CONTINUOUS
 62
     7
100
AcDbMText
 10
8.7023691647
 20
0.5486763345
 30
0.0
 40
0.1
 41
0.0
 71
     1
 72
     1
  1
WEIGHT: 
  7
SLDTEXTSTYLE0
  0
MTEXT
  5
98
330
1F
100
AcDbEntity
  8
0
  6
CONTINUOUS
 62
     7
100
AcDbMText
 10
10.2277580983
 20
1.081966299
 30
0.0
 40
0.1
 41
0.0
 71
     1
 72
     1
  1
REV
  7
SLDTEXTSTYLE0
  0
MTEXT
  5
9A
330
1F
100
AcDbEntity
  8
0
  6
CONTINUOUS
 62
     7
100
AcDbMText
 10
8.2984570898
 20
1.0858725293
 30
0.0
 40
0.1
 41
0.0
 71
     1
 72
     1
  1
DWG.  NO.
  7
SLDTEXTSTYLE2
  0
MTEXT
  5
9B
330
1F
100
AcDbEntity
  8
0
  6
CONTINUOUS
 62
     7
100
AcDbMText
 10
7.9598482632
 20
0.9442140768
 30
0.0
 40
0.25
 41
0.0
 71
     1
 72
     1
  1
A
  7
SLDTEXTSTYLE0
  0
MTEXT
  5
9C
330
1F
100
AcDbEntity
  8
0
  6
CONTINUOUS
 62
     7
100
AcDbMText
 10
7.9519581822
 20
1.0872713483
 30
0.0
 40
0.1
 41
0.0
 71
     1
 72
     1
  1
SIZE
  7
SLDTEXTSTYLE0
  0
MTEXT
  5
9D
330
1F
100
AcDbEntity
  8
0
  6
CONTINUOUS
 62
     7
100
AcDbMText
 10
7.9170704177
 20
1.9547881128
 30
0.0
 40
0.1
 41
0.0
 71
     1
 72
     1
  1
TITLE:
  7
SLDTEXTSTYLE0
  0
MTEXT
  5
9E
330
1F
100
AcDbEntity
  8
0
  6
CONTINUOUS
 62
     7
100
AcDbMText
 10
7.0363774929
 20
2.2906161274
 30
0.0
 40
0.065
 41
0.0
 71
     1
 72
     1
  1
NAME
  7
SLDTEXTSTYLE0
  0
MTEXT
  5
9F
330
1F
100
AcDbEntity
  8
0
  6
CONTINUOUS
 62
     7
100
AcDbMText
 10
7.5281510634
 20
2.2888799118
 30
0.0
 40
0.065
 41
0.0
 71
     1
 72
     1
  1
DATE
  7
SLDTEXTSTYLE0
  0
MTEXT
  5
A0
330
1F
100
AcDbEntity
  8
0
  6
CONTINUOUS
 62
     7
100
AcDbMText
 10
6.2277147029
 20
1.1876913145
 30
0.0
 40
0.065
 41
0.0
 71
     1
 72
     1
  1
COMMENTS:
  7
SLDTEXTSTYLE0
  0
MTEXT
  5
A1
330
1F
100
AcDbEntity
  8
0
  6
CONTINUOUS
 62
     7
100
AcDbMText
 10
6.2268411461
 20
1.3536101679
 30
0.0
 40
0.065
 41
0.0
 71
     1
 72
     1
  1
Q.A.
  7
SLDTEXTSTYLE0
  0
MTEXT
  5
A2
330
1F
100
AcDbEntity
  8
0
  6
CONTINUOUS
 62
     7
100
AcDbMText
 10
6.2284654509
 20
1.5395328424
 30
0.0
 40
0.065
 41
0.0
 71
     1
 72
     1
  1
MFG APPR.
  7
SLDTEXTSTYLE0
  0
MTEXT
  5
A3
330
1F
100
AcDbEntity
  8
0
  6
CONTINUOUS
 62
     7
100
AcDbMText
 10
6.2235171344
 20
1.7267501785
 30
0.0
 40
0.065
 41
0.0
 71
     1
 72
     1
  1
ENG APPR.
  7
SLDTEXTSTYLE0
  0
MTEXT
  5
A4
330
1F
100
AcDbEntity
  8
0
  6
CONTINUOUS
 62
     7
100
AcDbMText
 10
6.2264103951
 20
1.9092699088
 30
0.0
 40
0.065
 41
0.0
 71
     1
 72
     1
  1
CHECKED
  7
SLDTEXTSTYLE0
  0
MTEXT
  5
A5
330
1F
100
AcDbEntity
  8
0
  6
CONTINUOUS
 62
     7
100
AcDbMText
 10
6.2242794356
 20
2.1016301232
 30
0.0
 40
0.065
 41
0.0
 71
     1
 72
     1
  1
DRAWN
  7
SLDTEXTSTYLE0
  0
MTEXT
  5
A6
330
1F
100
AcDbEntity
  8
0
  6
CONTINUOUS
 62
     7
100
AcDbMText
 10
4.8208600979
 20
0.834523235
 30
0.0
 40
0.06
 41
0.0
 71
     1
 72
     1
  1
FINISH
  7
SLDTEXTSTYLE0
  0
MTEXT
  5
A7
330
1F
100
AcDbEntity
  8
0
  6
CONTINUOUS
 62
     7
100
AcDbMText
 10
4.8181240648
 20
1.1028217587
 30
0.0
 40
0.06
 41
0.0
 71
     1
 72
     1
  1
MATERIAL
  7
SLDTEXTSTYLE0
  0
INSERT
  5
AD
330
1F
100
AcDbEntity
  8
0
  6
CONTINUOUS
 62
     7
100
AcDbBlockReference
  2
SW_NOTE_0
 10
4.8231926633
 20
1.2646542947
 30
0.0
  0
INSERT
  5
BD
330
1F
100
AcDbEntity
  8
0
  6
CONTINUOUS
 62
     7
100
AcDbBlockReference
  2
SW_NOTE_1
 10
4.8353339353
 20
2.0049168724
 30
0.0
  0
MTEXT
  5
BE
330
1F
100
AcDbEntity
  8
0
  6
CONTINUOUS
 62
     7
100
AcDbMText
 10
3.5531400086
 20
0.5200091997
 30
0.0
 40
0.0625
 41
0.0
 71
     1
 72
     1
  1
APPLICATION
  7
SLDTEXTSTYLE0
  0
MTEXT
  5
BF
330
1F
100
AcDbEntity
  8
0
  6
CONTINUOUS
 62
     7
100
AcDbMText
 10
4.1005607758
 20
0.7502454275
 30
0.0
 40
0.0625
 41
0.0
 71
     1
 72
     1
  1
USED ON
  7
SLDTEXTSTYLE0
  0
MTEXT
  5
C0
330
1F
100
AcDbEntity
  8
0
  6
CONTINUOUS
 62
     7
100
AcDbMText
 10
3.1040019536
 20
0.7492094783
 30
0.0
 40
0.0625
 41
0.0
 71
     1
 72
     1
  1
NEXT ASSY
  7
SLDTEXTSTYLE0
  0
MTEXT
  5
C1
330
1F
100
AcDbEntity
  8
0
  6
CONTINUOUS
 62
     7
100
AcDbMText
 10
1.3712489489
 20
1.2496672684
 30
0.0
 40
0.06
 41
0.0
 71
     1
 72
     1
  1
PROPRIETARY AND CONFIDENTIAL
  7
SLDTEXTSTYLE0
  0
INSERT
  5
CC
330
1F
100
AcDbEntity
  8
0
  6
CONTINUOUS
 62
     7
100
AcDbBlockReference
  2
SW_NOTE_2
 10
1.2226209074
 20
1.0313492921
 30
0.0
  0
MTEXT
  5
CD
330
1F
100
AcDbEntity
  8
0
  6
CONTINUOUS
 62
     7
100
AcDbMText
 10
1.7387909509
 20
0.3105864247
 30
0.0
 40
0.09375
 41
0.0
 71
     1
 72
     1
  1
5
  7
SLDTEXTSTYLE0
  0
MTEXT
  5
CE
330
1F
100
AcDbEntity
  8
0
  6
CONTINUOUS
 62
     7
100
AcDbMText
 10
3.723800327
 20
0.3137237518
 30
0.0
 40
0.09375
 41
0.0
 71
     1
 72
     1
  1
4
  7
SLDTEXTSTYLE0
  0
MTEXT
  5
CF
330
1F
100
AcDbEntity
  8
0
  6
CONTINUOUS
 62
     7
100
AcDbMText
 10
5.6324457277
 20
0.3116191842
 30
0.0
 40
0.09375
 41
0.0
 71
     1
 72
     1
  1
3
  7
SLDTEXTSTYLE0
  0
MTEXT
  5
D0
330
1F
100
AcDbEntity
  8
0
  6
CONTINUOUS
 62
     7
100
AcDbMText
 10
7.6059721724
 20
0.3124391351
 30
0.0
 40
0.09375
 41
0.0
 71
     1
 72
     1
  1
2
  7
SLDTEXTSTYLE0
  0
MTEXT
  5
D1
330
1F
100
AcDbEntity
  8
0
  6
CONTINUOUS
 62
     7
100
AcDbMText
 10
9.6619921328
 20
0.301372012
 30
0.0
 40
0.09375
 41
0.0
 71
     1
 72
     1
  1
1
  7
SLDTEXTSTYLE0
  0
LINE
  5
D2
330
1F
100
AcDbEntity
  8
0
  6
CONTINUOUS
 62
     7
100
AcDbLine
 10
3.9171872845
 20
3.1287570265
 30
0.0
 11
3.9565573632
 21
3.1681271053
 31
0.0
  0
LINE
  5
D3
330
1F
100
AcDbEntity
  8
0
  6
CONTINUOUS
 62
     7
100
AcDbLine
 10
3.9565573632
 20
4.3492294675
 30
0.0
 11
3.9171872845
 21
4.3885995462
 31
0.0
  0
LINE
  5
D4
330
1F
100
AcDbEntity
  8
0
  6
CONTINUOUS
 62
     7
100
AcDbLine
 10
2.7360849223
 20
3.1287570265
 30
0.0
 11
3.9171872845
 21
3.1287570265
 31
0.0
  0
LINE
  5
D5
330
1F
100
AcDbEntity
  8
0
  6
CONTINUOUS
 62
     7
100
AcDbLine
 10
3.2872660246
 20
4.3885995462
 30
0.0
 11
2.7360849223
 21
4.3885995462
 31
0.0
  0
LINE
  5
D6
330
1F
100
AcDbEntity
  8
0
  6
CONTINUOUS
 62
     7
100
AcDbLine
 10
3.9171872845
 20
4.3885995462
 30
0.0
 11
3.3660061821
 21
4.3885995462
 31
0.0
  0
LINE
  5
D7
330
1F
100
AcDbEntity
  8
0
  6
CONTINUOUS
 62
     7
100
AcDbLine
 10
2.7360849223
 20
4.3885995462
 30
0.0
 11
2.6967148435
 21
4.3492294675
 31
0.0
  0
LINE
  5
D8
330
1F
100
AcDbEntity
  8
0
  6
CONTINUOUS
 62
     7
100
AcDbLine
 10
2.6967148435
 20
3.1681271053
 30
0.0
 11
2.7360849223
 21
3.1287570265
 31
0.0
  0
LINE
  5
D9
330
1F
100
AcDbEntity
  8
0
  6
CONTINUOUS
 62
     7
100
AcDbLine
 10
3.838447127
 20
4.2290430327
 30
0.0
 11
3.838447127
 21
4.2508042706
 31
0.0
  0
LINE
  5
DA
330
1F
100
AcDbEntity
  8
0
  6
CONTINUOUS
 62
     7
100
AcDbLine
 10
3.4841164183
 20
4.2508042706
 30
0.0
 11
3.4841164183
 21
4.2306462147
 31
0.0
  0
ARC
  5
DB
330
1F
100
AcDbEntity
  8
0
  6
CONTINUOUS
 62
     7
100
AcDbCircle
 10
3.5038014577
 20
4.2508042706
 30
0.0
 40
0.0196850393700787
100
AcDbArc
 50
90.0
 51
180.0
  0
ARC
  5
DC
330
1F
100
AcDbEntity
  8
0
  6
CONTINUOUS
 62
     7
100
AcDbCircle
 10
3.8187620876
 20
4.2508042706
 30
0.0
 40
0.0196850393700791
100
AcDbArc
 50
0.0
 51
90.0
  0
LINE
  5
DD
330
1F
100
AcDbEntity
  8
0
  6
CONTINUOUS
 62
     7
100
AcDbLine
 10
3.5628565758
 20
3.7882058454
 30
0.0
 11
3.5628565758
 21
3.7291507273
 31
0.0
  0
LINE
  5
DE
330
1F
100
AcDbEntity
  8
0
  6
CONTINUOUS
 62
     7
100
AcDbLine
 10
3.7597069695
 20
3.7291507273
 30
0.0
 11
3.7597069695
 21
3.7882058454
 31
0.0
  0
ARC
  5
DF
330
1F
100
AcDbEntity
  8
0
  6
CONTINUOUS
 62
     7
100
AcDbCircle
 10
2.8345101191
 20
4.2508042706
 30
0.0
 40
0.0196850393700787
100
AcDbArc
 50
90.0
 51
180.0
  0
ARC
  5
E0
330
1F
100
AcDbEntity
  8
0
  6
CONTINUOUS
 62
     7
100
AcDbCircle
 10
3.1494707491
 20
4.2508042706
 30
0.0
 40
0.0196850393700787
100
AcDbArc
 50
0.0
 51
90.0
  0
LINE
  5
E1
330
1F
100
AcDbEntity
  8
0
  6
CONTINUOUS
 62
     7
100
AcDbLine
 10
3.1691557884
 20
4.2306462147
 30
0.0
 11
3.1691557884
 21
4.2508042706
 31
0.0
  0
LINE
  5
E2
330
1F
100
AcDbEntity
  8
0
  6
CONTINUOUS
 62
     7
100
AcDbLine
 10
2.8148250798
 20
4.2508042706
 30
0.0
 11
2.8148250798
 21
4.2290430327
 31
0.0
  0
LINE
  5
E3
330
1F
100
AcDbEntity
  8
0
  6
CONTINUOUS
 62
     7
100
AcDbLine
 10
2.8935652372
 20
3.7882058454
 30
0.0
 11
2.8935652372
 21
3.7291507273
 31
0.0
  0
LINE
  5
E4
330
1F
100
AcDbEntity
  8
0
  6
CONTINUOUS
 62
     7
100
AcDbLine
 10
3.0904156309
 20
3.7291507273
 30
0.0
 11
3.0904156309
 21
3.7882058454
 31
0.0
  0
LINE
  5
E5
330
1F
100
AcDbEntity
  8
0
  6
CONTINUOUS
 62
     7
100
AcDbLine
 10
3.9565573632
 20
3.7291507273
 30
0.0
 11
3.9565573632
 21
3.1681271053
 31
0.0
  0
LINE
  5
E6
330
1F
100
AcDbEntity
  8
0
  6
CONTINUOUS
 62
     7
100
AcDbLine
 10
3.9565573632
 20
4.3492294675
 30
0.0
 11
3.9565573632
 21
3.7882058454
 31
0.0
  0
LINE
  5
E7
330
1F
100
AcDbEntity
  8
0
  6
CONTINUOUS
 62
     7
100
AcDbLine
 10
3.9565573632
 20
3.7882058454
 30
0.0
 11
3.9171872845
 21
3.7882058454
 31
0.0
  0
LINE
  5
E8
330
1F
100
AcDbEntity
  8
0
  6
CONTINUOUS
 62
     7
100
AcDbLine
 10
3.9171872845
 20
3.7882058454
 30
0.0
 11
3.9171872845
 21
4.3885995462
 31
0.0
  0
LINE
  5
E9
330
1F
100
AcDbEntity
  8
0
  6
CONTINUOUS
 62
     7
100
AcDbLine
 10
3.9171872845
 20
3.1287570265
 30
0.0
 11
3.9171872845
 21
3.7291507273
 31
0.0
  0
LINE
  5
EA
330
1F
100
AcDbEntity
  8
0
  6
CONTINUOUS
 62
     7
100
AcDbLine
 10
3.9171872845
 20
3.7291507273
 30
0.0
 11
3.9565573632
 21
3.7291507273
 31
0.0
  0
SPLINE
  5
EB
330
1F
100
AcDbEntity
  8
0
  6
CONTINUOUS
 62
     7
100
AcDbSpline
210
0.0
220
0.0
230
1.0
 70
     8
 71
     3
 72
    42
 73
    38
 74
     0
 42
0.00000001
 43
0.00000001
 40
-0.03125
 40
-0.03125
 40
0.0
 40
0.0
 40
0.0624999999999999
 40
0.0624999999999999
 40
0.1249999999999999
 40
0.1249999999999999
 40
0.1874999999999998
 40
0.1874999999999998
 40
0.2499999999999998
 40
0.2499999999999998
 40
0.3124999999999997
 40
0.3124999999999997
 40
0.3749999999999997
 40
0.3749999999999997
 40
0.4062499999999997
 40
0.4062499999999997
 40
0.4374999999999996
 40
0.4374999999999996
 40
0.4999999999999997
 40
0.4999999999999997
 40
0.5624999999999997
 40
0.5624999999999997
 40
0.6249999999999998
 40
0.6249999999999998
 40
0.6874999999999998
 40
0.6874999999999998
 40
0.7499999999999999
 40
0.7499999999999999
 40
0.8124999999999999
 40
0.8124999999999999
 40
0.875
 40
0.875
 40
0.9375
 40
0.9375
 40
0.96875
 40
0.96875
 40
1.0
 40
1.0
 40
1.0625
 40
1.0625
 10
2.999717455691346
 20
3.389432539617342
 30
0.0
 10
2.976536390896948
 20
3.389432539617342
 30
0.0
 10
2.962041200138785
 20
3.384227310658348
 30
0.0
 10
2.937870282947061
 20
3.36925456675717
 30
0.0
 10
2.928214970924152
 20
3.359887446699592
 30
0.0
 10
2.912316079970449
 20
3.340045754848809
 30
0.0
 10
2.90629330301338
 20
3.329780285961726
 30
0.0
 10
2.897413186934502
 20
3.308972555487563
 30
0.0
 10
2.894668563884649
 20
3.298523950969253
 30
0.0
 10
2.893001003885912
 20
3.278475847080793
 30
0.0
 10
2.894094284288133
 20
3.268617314679503
 30
0.0
 10
2.900907426925116
 20
3.250622708634704
 30
0.0
 10
2.90674530939715
 20
3.242253713737718
 30
0.0
 10
2.919334594050733
 20
3.231720183548698
 30
0.0
 10
2.92425329043261
 20
3.228476577723236
 30
0.0
 10
2.935194426585088
 20
3.222847649269008
 30
0.0
 10
2.941183038978128
 20
3.220455261396745
 30
0.0
 10
2.960840539252735
 20
3.214520113480452
 30
0.0
 10
2.976031727876299
 20
3.212372687391537
 30
0.0
 10
3.006577644116626
 20
3.212250569349415
 30
0.0
 10
3.021771619570042
 20
3.214257719885141
 30
0.0
 10
3.048322002028115
 20
3.221985390768289
 30
0.0
 10
3.059665134165864
 20
3.227723083890413
 30
0.0
 10
3.076802295424148
 20
3.241732337434909
 30
0.0
 10
3.082744919682231
 20
3.250049946106434
 30
0.0
 10
3.089786190718392
 20
3.268074900318019
 30
0.0
 10
3.090961687916549
 20
3.277904969005341
 30
0.0
 10
3.089411595234309
 20
3.298080979141114
 30
0.0
 10
3.086680587433523
 20
3.308606689539948
 30
0.0
 10
3.077901296949693
 20
3.329377096317166
 30
0.0
 10
3.07175756091167
 20
3.339891501920839
 30
0.0
 10
3.055988703946762
 20
3.359647097495643
 30
0.0
 10
3.0462206269261
 20
3.369147301834911
 30
0.0
 10
3.028222081398409
 20
3.380354725245081
 30
0.0
 10
3.021552664779821
 20
3.38360062372853
 30
0.0
 10
3.007383865249881
 20
3.388127201007884
 30
0.0
 10
2.999717455691346
 20
3.389432539617342
 30
0.0
 10
2.976536390896948
 20
3.389432539617342
 30
0.0
  0
SPLINE
  5
EC
330
1F
100
AcDbEntity
  8
0
  6
CONTINUOUS
 62
     7
100
AcDbSpline
210
0.0
220
0.0
230
1.0
 70
     8
 71
     3
 72
    13
 73
     9
 74
     0
 42
0.00000001
 43
0.00000001
 40
0.0
 40
0.0
 40
0.0
 40
0.0
 40
0.2080917718513311
 40
0.4168197665021775
 40
0.6247719145967517
 40
0.7714707782932319
 40
0.9184885885693574
 40
1.0
 40
1.0
 40
1.0
 40
1.0
 10
3.777635223633783
 20
4.073638916313307
 30
0.0
 10
3.784916677139308
 20
4.085230578007964
 30
0.0
 10
3.79950184657185
 20
4.108449341911765
 30
0.0
 10
3.816338432924602
 20
4.14337233276193
 30
0.0
 10
3.828021884872512
 20
4.174267969220676
 30
0.0
 10
3.834920340680669
 20
4.200769352221715
 30
0.0
 10
3.838244017365144
 20
4.220073357843932
 30
0.0
 10
3.838085153290951
 20
4.231052688355554
 30
0.0
 10
3.83802848992503
 20
4.234968777159787
 30
0.0
  0
SPLINE
  5
ED
330
1F
100
AcDbEntity
  8
0
  6
CONTINUOUS
 62
     7
100
AcDbSpline
210
0.0
220
0.0
230
1.0
 70
     8
 71
     3
 72
    27
 73
    23
 74
     0
 42
0.00000001
 43
0.00000001
 40
0.0
 40
0.0
 40
0.0
 40
0.0
 40
0.0470300397040764
 40
0.0948232203406241
 40
0.1551953865046535
 40
0.2155272624562638
 40
0.2559362165589578
 40
0.2964945291699709
 40
0.3368869318512422
 40
0.3919356692856318
 40
0.446979310471778
 40
0.4997535253576242
 40
0.5525277131178956
 40
0.6048369110248404
 40
0.6571500059058836
 40
0.709798299300987
 40
0.7624587137644582
 40
0.8167567508622591
 40
0.8710794472464523
 40
0.9298989012734882
 40
0.9887559071011468
 40
1.0
 40
1.0
 40
1.0
 40
1.0
 10
3.835673634578139
 20
4.260365391038651
 30
0.0
 10
3.834290622031737
 20
4.265248182274362
 30
0.0
 10
3.831502155250794
 20
4.275092996187645
 30
0.0
 10
3.823438469963258
 20
4.289696411366802
 30
0.0
 10
3.811109504009939
 20
4.303847427813014
 30
0.0
 10
3.795282336618655
 20
4.315333616116935
 30
0.0
 10
3.778484195010962
 20
4.323710845749334
 30
0.0
 10
3.762251551087593
 20
4.32977915521471
 30
0.0
 10
3.742259486453785
 20
4.335310457739356
 30
0.0
 10
3.718045400632525
 20
4.33974680320794
 30
0.0
 10
3.690141893008598
 20
4.342589202251298
 30
0.0
 10
3.661757673740189
 20
4.343508769453609
 30
0.0
 10
3.633843077197445
 20
4.342664422462962
 30
0.0
 10
3.606815150099028
 20
4.34002728104975
 30
0.0
 10
3.581313404480658
 20
4.33559779395582
 30
0.0
 10
3.558041430293014
 20
4.32922984286833
 30
0.0
 10
3.537260384127102
 20
4.320856609692379
 30
0.0
 10
3.519701332336173
 20
4.310328068201598
 30
0.0
 10
3.505088051703511
 20
4.297449491919012
 30
0.0
 10
3.494494704854725
 20
4.282041033077815
 30
0.0
 10
3.488665924693093
 20
4.269512678300772
 30
0.0
 10
3.487415136462986
 20
4.261896054839651
 30
0.0
 10
3.487214512231531
 20
4.260674361837284
 30
0.0
  0
SPLINE
  5
EE
330
1F
100
AcDbEntity
  8
0
  6
CONTINUOUS
 62
     7
100
AcDbSpline
210
0.0
220
0.0
230
1.0
 70
     8
 71
     3
 72
    14
 73
    10
 74
     0
 42
0.00000001
 43
0.00000001
 40
0.0
 40
0.0
 40
0.0
 40
0.0
 40
0.0601961710554025
 40
0.1959974801164048
 40
0.3786986792202121
 40
0.5620658699345177
 40
0.7449912900383084
 40
0.8724975798077029
 40
1.0
 40
1.0
 40
1.0
 40
1.0
 10
3.484488728947153
 20
4.234989047644523
 30
0.0
 10
3.484408338324322
 20
4.23211265858827
 30
0.0
 10
3.484146588129522
 20
4.222747195686305
 30
0.0
 10
3.487050530928325
 20
4.203435319479286
 30
0.0
 10
3.493629275994834
 20
4.176939980891032
 30
0.0
 10
3.504830831989455
 20
4.146926222428513
 30
0.0
 10
3.517859013801722
 20
4.119456661461917
 30
0.0
 10
3.531308291846206
 20
4.094918554310234
 30
0.0
 10
3.540388357688597
 20
4.080732057222257
 30
0.0
 10
3.544928321717999
 20
4.073638916313307
 30
0.0
  0
SPLINE
  5
EF
330
1F
100
AcDbEntity
  8
0
  6
CONTINUOUS
 62
     7
100
AcDbSpline
210
0.0
220
0.0
230
1.0
 70
     8
 71
     3
 72
    42
 73
    38
 74
     0
 42
0.00000001
 43
0.00000001
 40
-0.03125
 40
-0.03125
 40
0.0
 40
0.0
 40
0.0624999999999999
 40
0.0624999999999999
 40
0.1249999999999999
 40
0.1249999999999999
 40
0.1874999999999998
 40
0.1874999999999998
 40
0.2499999999999998
 40
0.2499999999999998
 40
0.3124999999999997
 40
0.3124999999999997
 40
0.3749999999999997
 40
0.3749999999999997
 40
0.4062499999999997
 40
0.4062499999999997
 40
0.4374999999999996
 40
0.4374999999999996
 40
0.4999999999999997
 40
0.4999999999999997
 40
0.5624999999999997
 40
0.5624999999999997
 40
0.6249999999999998
 40
0.6249999999999998
 40
0.6874999999999998
 40
0.6874999999999998
 40
0.7499999999999999
 40
0.7499999999999999
 40
0.8124999999999999
 40
0.8124999999999999
 40
0.875
 40
0.875
 40
0.9375
 40
0.9375
 40
0.96875
 40
0.96875
 40
1.0
 40
1.0
 40
1.0625
 40
1.0625
 10
3.653554751077758
 20
3.389432539617342
 30
0.0
 10
3.676735815872156
 20
3.389432539617342
 30
0.0
 10
3.69123100663032
 20
3.384227310658348
 30
0.0
 10
3.715401923822044
 20
3.36925456675717
 30
0.0
 10
3.725057235844953
 20
3.359887446699592
 30
0.0
 10
3.740956126798656
 20
3.340045754848809
 30
0.0
 10
3.746978903755726
 20
3.329780285961726
 30
0.0
 10
3.755859019834603
 20
3.308972555487563
 30
0.0
 10
3.758603642884456
 20
3.298523950969253
 30
0.0
 10
3.760271202883192
 20
3.278475847080793
 30
0.0
 10
3.759177922480972
 20
3.268617314679503
 30
0.0
 10
3.752364779843989
 20
3.250622708634704
 30
0.0
 10
3.746526897371956
 20
3.242253713737718
 30
0.0
 10
3.733937612718372
 20
3.231720183548698
 30
0.0
 10
3.729018916336495
 20
3.228476577723236
 30
0.0
 10
3.718077780184017
 20
3.222847649269008
 30
0.0
 10
3.712089167790976
 20
3.220455261396745
 30
0.0
 10
3.69243166751637
 20
3.214520113480452
 30
0.0
 10
3.677240478892806
 20
3.212372687391537
 30
0.0
 10
3.646694562652479
 20
3.212250569349415
 30
0.0
 10
3.631500587199063
 20
3.214257719885141
 30
0.0
 10
3.60495020474099
 20
3.221985390768289
 30
0.0
 10
3.593607072603241
 20
3.227723083890413
 30
0.0
 10
3.576469911344958
 20
3.241732337434909
 30
0.0
 10
3.570527287086875
 20
3.250049946106434
 30
0.0
 10
3.563486016050712
 20
3.268074900318019
 30
0.0
 10
3.562310518852556
 20
3.277904969005341
 30
0.0
 10
3.563860611534796
 20
3.298080979141114
 30
0.0
 10
3.566591619335582
 20
3.308606689539948
 30
0.0
 10
3.575370909819412
 20
3.329377096317166
 30
0.0
 10
3.581514645857435
 20
3.339891501920839
 30
0.0
 10
3.597283502822343
 20
3.359647097495643
 30
0.0
 10
3.607051579843005
 20
3.369147301834911
 30
0.0
 10
3.625050125370695
 20
3.380354725245081
 30
0.0
 10
3.631719541989284
 20
3.38360062372853
 30
0.0
 10
3.645888341519224
 20
3.388127201007884
 30
0.0
 10
3.653554751077758
 20
3.389432539617342
 30
0.0
 10
3.676735815872156
 20
3.389432539617342
 30
0.0
  0
LINE
  5
F0
330
1F
100
AcDbEntity
  8
0
  6
CONTINUOUS
 62
     7
100
AcDbLine
 10
3.3660061821
 20
3.7882058454
 30
0.0
 11
3.9171872845
 21
3.7882058454
 31
0.0
  0
LINE
  5
F1
330
1F
100
AcDbEntity
  8
0
  6
CONTINUOUS
 62
     7
100
AcDbLine
 10
3.3660061821
 20
3.7882058454
 30
0.0
 11
3.3660061821
 21
4.3885995462
 31
0.0
  0
LINE
  5
F2
330
1F
100
AcDbEntity
  8
0
  6
CONTINUOUS
 62
     7
100
AcDbLine
 10
3.2872660246
 20
4.2794954736
 30
0.0
 11
3.3660061821
 21
4.2794954736
 31
0.0
  0
LINE
  5
F3
330
1F
100
AcDbEntity
  8
0
  6
CONTINUOUS
 62
     7
100
AcDbLine
 10
3.2872660246
 20
4.3885995462
 30
0.0
 11
3.2872660246
 21
3.7882058454
 31
0.0
  0
LINE
  5
F4
330
1F
100
AcDbEntity
  8
0
  6
CONTINUOUS
 62
     7
100
AcDbLine
 10
2.7360849223
 20
3.7882058454
 30
0.0
 11
3.2872660246
 21
3.7882058454
 31
0.0
  0
LINE
  5
F5
330
1F
100
AcDbEntity
  8
0
  6
CONTINUOUS
 62
     7
100
AcDbLine
 10
2.7360849223
 20
3.7291507273
 30
0.0
 11
2.7360849223
 21
3.1287570265
 31
0.0
  0
LINE
  5
F6
330
1F
100
AcDbEntity
  8
0
  6
CONTINUOUS
 62
     7
100
AcDbLine
 10
2.7360849223
 20
4.3885995462
 30
0.0
 11
2.7360849223
 21
3.7882058454
 31
0.0
  0
LINE
  5
F7
330
1F
100
AcDbEntity
  8
0
  6
CONTINUOUS
 62
     7
100
AcDbLine
 10
2.7360849223
 20
3.7291507273
 30
0.0
 11
3.9171872845
 21
3.7291507273
 31
0.0
  0
SPLINE
  5
F8
330
1F
100
AcDbEntity
  8
0
  6
CONTINUOUS
 62
     7
100
AcDbSpline
210
0.0
220
0.0
230
1.0
 70
     8
 71
     3
 72
    13
 73
     9
 74
     0
 42
0.00000001
 43
0.00000001
 40
0.0
 40
0.0
 40
0.0
 40
0.0
 40
0.2080917718513311
 40
0.4168197665021775
 40
0.6247719145967517
 40
0.7714707782932319
 40
0.9184885885693574
 40
1.0
 40
1.0
 40
1.0
 40
1.0
 10
2.875636983135322
 20
4.073638916313307
 30
0.0
 10
2.868355529629797
 20
4.085230578007964
 30
0.0
 10
2.853770360197255
 20
4.108449341911765
 30
0.0
 10
2.836933773844503
 20
4.14337233276193
 30
0.0
 10
2.825250321896593
 20
4.174267969220676
 30
0.0
 10
2.818351866088436
 20
4.200769352221715
 30
0.0
 10
2.815028189403961
 20
4.220073357843932
 30
0.0
 10
2.815187053478154
 20
4.231052688355554
 30
0.0
 10
2.815243716844075
 20
4.234968777159787
 30
0.0
  0
SPLINE
  5
F9
330
1F
100
AcDbEntity
  8
0
  6
CONTINUOUS
 62
     7
100
AcDbSpline
210
0.0
220
0.0
230
1.0
 70
     8
 71
     3
 72
    28
 73
    24
 74
     0
 42
0.00000001
 43
0.00000001
 40
0.0
 40
0.0
 40
0.0
 40
0.0
 40
0.0002286615601393
 40
0.0481618530405162
 40
0.0959255722332037
 40
0.1562605228120708
 40
0.2165552080148618
 40
0.2569392525778078
 40
0.2974725635790904
 40
0.3378400669235082
 40
0.3928548703266009
 40
0.4478645806229618
 40
0.5006062635754147
 40
0.5533479194190138
 40
0.6056248720458375
 40
0.6579057192445239
 40
0.7105215583287918
 40
0.7631495110095629
 40
0.8174140768348859
 40
0.8717032867457257
 40
0.9304864823354778
 40
0.9893072065775655
 40
1.0
 40
1.0
 40
1.0
 40
1.0
 10
2.817494625979183
 20
4.260004474219225
 30
0.0
 10
2.817498360684717
 20
4.260029445495019
 30
0.0
 10
2.818284983232733
 20
4.265289021762605
 30
0.0
 10
2.822011714631712
 20
4.274887229640832
 30
0.0
 10
2.829732994483015
 20
4.289737385555963
 30
0.0
 10
2.842192678788412
 20
4.303835235881584
 30
0.0
 10
2.857984730671959
 20
4.315335706459462
 30
0.0
 10
2.874789155503395
 20
4.323710380562235
 30
0.0
 10
2.891020353272541
 20
4.329779278211098
 30
0.0
 10
2.911012834449415
 20
4.335310411319304
 30
0.0
 10
2.935226771625337
 20
4.339746817239838
 30
0.0
 10
2.963130322602967
 20
4.342589198671591
 30
0.0
 10
2.991514530634477
 20
4.343508770367972
 30
0.0
 10
3.019429130456097
 20
4.342664422324808
 30
0.0
 10
3.046457055514113
 20
4.34002728070101
 30
0.0
 10
3.071958806044613
 20
4.335597795493722
 30
0.0
 10
3.095230762511123
 20
4.329229837024163
 30
0.0
 10
3.11601187540565
 20
4.320856631807764
 30
0.0
 10
3.133570670664255
 20
4.310327982784083
 30
0.0
 10
3.148184941744415
 20
4.297449821688475
 30
0.0
 10
3.158774293592105
 20
4.282039688173983
 30
0.0
 10
3.164589469976153
 20
4.269568888077594
 30
0.0
 10
3.165834614296399
 20
4.262013156012207
 30
0.0
 10
3.166026146410509
 20
4.260850908943654
 30
0.0
  0
SPLINE
  5
FA
330
1F
100
AcDbEntity
  8
0
  6
CONTINUOUS
 62
     7
100
AcDbSpline
210
0.0
220
0.0
230
1.0
 70
     8
 71
     3
 72
    14
 73
    10
 74
     0
 42
0.00000001
 43
0.00000001
 40
0.0
 40
0.0
 40
0.0
 40
0.0
 40
0.0601961710554025
 40
0.1959974801164048
 40
0.3786986792202121
 40
0.5620658699345177
 40
0.7449912900383084
 40
0.8724975798077029
 40
1.0
 40
1.0
 40
1.0
 40
1.0
 10
3.168783477821952
 20
4.234989047644523
 30
0.0
 10
3.168863868444783
 20
4.23211265858827
 30
0.0
 10
3.169125618639583
 20
4.222747195686305
 30
0.0
 10
3.16622167584078
 20
4.203435319479286
 30
0.0
 10
3.159642930774272
 20
4.176939980891032
 30
0.0
 10
3.14844137477965
 20
4.146926222428513
 30
0.0
 10
3.135413192967383
 20
4.119456661461917
 30
0.0
 10
3.121963914922899
 20
4.094918554310234
 30
0.0
 10
3.112883849080508
 20
4.080732057222257
 30
0.0
 10
3.108343885051106
 20
4.073638916313307
 30
0.0
  0
LINE
  5
FB
330
1F
100
AcDbEntity
  8
0
  6
CONTINUOUS
 62
     7
100
AcDbLine
 10
2.6967148435
 20
3.7882058454
 30
0.0
 11
2.6967148435
 21
4.3492294675
 31
0.0
  0
LINE
  5
FC
330
1F
100
AcDbEntity
  8
0
  6
CONTINUOUS
 62
     7
100
AcDbLine
 10
2.6967148435
 20
3.1681271053
 30
0.0
 11
2.6967148435
 21
3.7291507273
 31
0.0
  0
LINE
  5
FD
330
1F
100
AcDbEntity
  8
0
  6
CONTINUOUS
 62
     7
100
AcDbLine
 10
2.6967148435
 20
3.7291507273
 30
0.0
 11
2.7360849223
 21
3.7291507273
 31
0.0
  0
LINE
  5
FE
330
1F
100
AcDbEntity
  8
0
  6
CONTINUOUS
 62
     7
100
AcDbLine
 10
2.7360849223
 20
3.7882058454
 30
0.0
 11
2.6967148435
 21
3.7882058454
 31
0.0
  0
LINE
  5
FF
330
1F
100
AcDbEntity
  8
0
  6
CONTINUOUS
 62
     7
100
AcDbLine
 10
2.6967148435
 20
3.7291507273
 30
0.0
 11
2.6967148435
 21
3.7882058454
 31
0.0
  0
LINE
  5
100
330
1F
100
AcDbEntity
  8
0
  6
CONTINUOUS
 62
     7
100
AcDbLine
 10
3.9565573632
 20
3.7291507273
 30
0.0
 11
3.9565573632
 21
3.7882058454
 31
0.0
  0
LINE
  5
101
330
1F
100
AcDbEntity
  8
0
  6
CONTINUOUS
 62
     7
100
AcDbLine
 10
3.6612817727
 20
4.0736389163
 30
0.0
 11
3.7777824953
 21
4.0736389163
 31
0.0
  0
LINE
  5
102
330
1F
100
AcDbEntity
  8
0
  6
CONTINUOUS
 62
     7
100
AcDbLine
 10
3.5445030896
 20
4.0736389163
 30
0.0
 11
3.6612817727
 21
4.0736389163
 31
0.0
  0
LINE
  5
103
330
1F
100
AcDbEntity
  8
0
  6
CONTINUOUS
 62
     7
100
AcDbLine
 10
3.6612817727
 20
4.27048931
 30
0.0
 11
3.8187620876
 21
4.27048931
 31
0.0
  0
LINE
  5
104
330
1F
100
AcDbEntity
  8
0
  6
CONTINUOUS
 62
     7
100
AcDbLine
 10
3.5038014577
 20
4.27048931
 30
0.0
 11
3.6612817727
 21
4.27048931
 31
0.0
  0
LINE
  5
105
330
1F
100
AcDbEntity
  8
0
  6
CONTINUOUS
 62
     7
100
AcDbLine
 10
2.9919904341
 20
4.27048931
 30
0.0
 11
2.8345101191
 21
4.27048931
 31
0.0
  0
LINE
  5
106
330
1F
100
AcDbEntity
  8
0
  6
CONTINUOUS
 62
     7
100
AcDbLine
 10
3.1494707491
 20
4.27048931
 30
0.0
 11
2.9919904341
 21
4.27048931
 31
0.0
  0
LINE
  5
107
330
1F
100
AcDbEntity
  8
0
  6
CONTINUOUS
 62
     7
100
AcDbLine
 10
2.9919904341
 20
4.0736389163
 30
0.0
 11
2.8756369831
 21
4.0736389163
 31
0.0
  0
LINE
  5
108
330
1F
100
AcDbEntity
  8
0
  6
CONTINUOUS
 62
     7
100
AcDbLine
 10
3.1087691172
 20
4.0736389163
 30
0.0
 11
2.9919904341
 21
4.0736389163
 31
0.0
  0
LINE
  5
109
330
1F
100
AcDbEntity
  8
0
  6
CONTINUOUS
 62
     8
100
AcDbLine
 10
3.6612817727
 20
4.2508042706
 30
0.0
 11
3.4841164183
 21
4.2508042706
 31
0.0
  0
LINE
  5
10A
330
1F
100
AcDbEntity
  8
0
  6
CONTINUOUS
 62
     8
100
AcDbLine
 10
3.838447127
 20
4.2508042706
 30
0.0
 11
3.6612817727
 21
4.2508042706
 31
0.0
  0
LINE
  5
10B
330
1F
100
AcDbEntity
  8
0
  6
CONTINUOUS
 62
     8
100
AcDbLine
 10
2.9919904341
 20
4.2508042706
 30
0.0
 11
3.1691557884
 21
4.2508042706
 31
0.0
  0
LINE
  5
10C
330
1F
100
AcDbEntity
  8
0
  6
CONTINUOUS
 62
     8
100
AcDbLine
 10
2.8148250798
 20
4.2508042706
 30
0.0
 11
2.9919904341
 21
4.2508042706
 31
0.0
  0
LINE
  5
10D
330
1F
100
AcDbEntity
  8
0
  6
HIDDEN
 62
     7
100
AcDbLine
 10
3.9171872845
 20
3.7882058454
 30
0.0
 11
3.9171872845
 21
3.7291507273
 31
0.0
  0
SPLINE
  5
10E
330
1F
100
AcDbEntity
  8
0
  6
HIDDEN
 62
     7
100
AcDbSpline
210
0.0
220
0.0
230
1.0
 70
     8
 71
     3
 72
    10
 73
     6
 74
     0
 42
0.00000001
 43
0.00000001
 40
0.0
 40
0.0
 40
0.0
 40
0.0
 40
0.3576724484084517
 40
0.9877177774409599
 40
1.0
 40
1.0
 40
1.0
 40
1.0
 10
3.83802848992503
 20
4.234968777159787
 30
0.0
 10
3.838110674793251
 20
4.238137769500075
 30
0.0
 10
3.838337629527229
 20
4.246888988904884
 30
0.0
 10
3.837327159106165
 20
4.255286817398902
 30
0.0
 10
3.835704659101546
 20
4.26027010347316
 30
0.0
 10
3.835673634578139
 20
4.260365391038651
 30
0.0
  0
SPLINE
  5
10F
330
1F
100
AcDbEntity
  8
0
  6
HIDDEN
 62
     7
100
AcDbSpline
210
0.0
220
0.0
230
1.0
 70
     8
 71
     3
 72
     9
 73
     5
 74
     0
 42
0.00000001
 43
0.00000001
 40
0.0
 40
0.0
 40
0.0
 40
0.0
 40
0.5887883061933583
 40
1.0
 40
1.0
 40
1.0
 40
1.0
 10
3.487214512231531
 20
4.260674361837284
 30
0.0
 10
3.486092332766732
 20
4.255860222560503
 30
0.0
 10
3.484186419464795
 20
4.247683872544475
 30
0.0
 10
3.484400639261644
 20
4.238688181142776
 30
0.0
 10
3.484488728947153
 20
4.234989047644523
 30
0.0
  0
LINE
  5
110
330
1F
100
AcDbEntity
  8
0
  6
HIDDEN
 62
     7
100
AcDbLine
 10
2.7360849223
 20
3.7291507273
 30
0.0
 11
2.7360849223
 21
3.7882058454
 31
0.0
  0
SPLINE
  5
111
330
1F
100
AcDbEntity
  8
0
  6
HIDDEN
 62
     7
100
AcDbSpline
210
0.0
220
0.0
230
1.0
 70
     8
 71
     3
 72
     9
 73
     5
 74
     0
 42
0.00000001
 43
0.00000001
 40
0.0
 40
0.0
 40
0.0
 40
0.0
 40
0.3632280737770181
 40
1.0
 40
1.0
 40
1.0
 40
1.0
 10
2.815243716844075
 20
4.234968777159787
 30
0.0
 10
2.815129180832784
 20
4.238151416111351
 30
0.0
 10
2.814813852752275
 20
4.246913511283322
 30
0.0
 10
2.816451694398969
 20
4.254911548594551
 30
0.0
 10
2.817494625979183
 20
4.260004474219225
 30
0.0
  0
SPLINE
  5
112
330
1F
100
AcDbEntity
  8
0
  6
HIDDEN
 62
     7
100
AcDbSpline
210
0.0
220
0.0
230
1.0
 70
     8
 71
     3
 72
     9
 73
     5
 74
     0
 42
0.00000001
 43
0.00000001
 40
0.0
 40
0.0
 40
0.0
 40
0.0
 40
0.5916705592171072
 40
1.0
 40
1.0
 40
1.0
 40
1.0
 10
3.166026146410509
 20
4.260850908943654
 30
0.0
 10
3.167162992735427
 20
4.255979524746167
 30
0.0
 10
3.169084410502811
 20
4.247746253508314
 30
0.0
 10
3.168870729902133
 20
4.238687857443897
 30
0.0
 10
3.168783477821952
 20
4.234989047644523
 30
0.0
  0
LINE
  5
113
330
1F
100
AcDbEntity
  8
0
  6
HIDDEN
 62
     7
100
AcDbLine
 10
3.7776352236
 20
4.0736389163
 30
0.0
 11
3.838447127
 21
4.0736389163
 31
0.0
  0
LINE
  5
114
330
1F
100
AcDbEntity
  8
0
  6
HIDDEN
 62
     7
100
AcDbLine
 10
3.4841164183
 20
4.0736389163
 30
0.0
 11
3.5449283217
 21
4.0736389163
 31
0.0
  0
LINE
  5
115
330
1F
100
AcDbEntity
  8
0
  6
HIDDEN
 62
     7
100
AcDbLine
 10
2.8756369831
 20
4.0736389163
 30
0.0
 11
2.8148250798
 21
4.0736389163
 31
0.0
  0
LINE
  5
116
330
1F
100
AcDbEntity
  8
0
  6
HIDDEN
 62
     7
100
AcDbLine
 10
3.1691557884
 20
4.0736389163
 30
0.0
 11
3.1083438851
 21
4.0736389163
 31
0.0
  0
LINE
  5
117
330
1F
100
AcDbEntity
  8
0
  6
HIDDEN
 62
     7
100
AcDbLine
 10
3.7777824953
 20
4.0736389163
 30
0.0
 11
3.838447127
 21
4.0736389163
 31
0.0
  0
LINE
  5
118
330
1F
100
AcDbEntity
  8
0
  6
HIDDEN
 62
     7
100
AcDbLine
 10
3.4841164183
 20
4.0736389163
 30
0.0
 11
3.5445030896
 21
4.0736389163
 31
0.0
  0
LINE
  5
119
330
1F
100
AcDbEntity
  8
0
  6
HIDDEN
 62
     7
100
AcDbLine
 10
3.7596602884
 20
3.4634026958
 30
0.0
 11
3.562903257
 21
3.4634026958
 31
0.0
  0
LINE
  5
11A
330
1F
100
AcDbEntity
  8
0
  6
HIDDEN
 62
     7
100
AcDbLine
 10
3.7400219302
 20
3.4437176565
 30
0.0
 11
3.5825416152
 21
3.4437176565
 31
0.0
  0
LINE
  5
11B
330
1F
100
AcDbEntity
  8
0
  6
HIDDEN
 62
     7
100
AcDbLine
 10
3.5825416152
 20
4.1130089951
 30
0.0
 11
3.6612817727
 21
4.1130089951
 31
0.0
  0
LINE
  5
11C
330
1F
100
AcDbEntity
  8
0
  6
HIDDEN
 62
     7
100
AcDbLine
 10
3.6612817727
 20
4.1130089951
 30
0.0
 11
3.7400219302
 21
4.1130089951
 31
0.0
  0
LINE
  5
11D
330
1F
100
AcDbEntity
  8
0
  6
HIDDEN
 62
     7
100
AcDbLine
 10
3.6612817727
 20
4.1130089951
 30
0.0
 11
3.6612817727
 21
4.27048931
 31
0.0
  0
LINE
  5
11E
330
1F
100
AcDbEntity
  8
0
  6
HIDDEN
 62
     7
100
AcDbLine
 10
3.7400219302
 20
4.1130089951
 30
0.0
 11
3.7400219302
 21
4.27048931
 31
0.0
  0
LINE
  5
11F
330
1F
100
AcDbEntity
  8
0
  6
HIDDEN
 62
     7
100
AcDbLine
 10
3.5825416152
 20
4.1130089951
 30
0.0
 11
3.5825416152
 21
4.27048931
 31
0.0
  0
LINE
  5
120
330
1F
100
AcDbEntity
  8
0
  6
HIDDEN
 62
     7
100
AcDbLine
 10
3.1691557884
 20
4.0736389163
 30
0.0
 11
3.1087691172
 21
4.0736389163
 31
0.0
  0
LINE
  5
121
330
1F
100
AcDbEntity
  8
0
  6
HIDDEN
 62
     7
100
AcDbLine
 10
2.8936119184
 20
3.4634026958
 30
0.0
 11
3.0903689498
 21
3.4634026958
 31
0.0
  0
LINE
  5
122
330
1F
100
AcDbEntity
  8
0
  6
HIDDEN
 62
     7
100
AcDbLine
 10
2.9132502766
 20
3.4437176565
 30
0.0
 11
3.0707305916
 21
3.4437176565
 31
0.0
  0
LINE
  5
123
330
1F
100
AcDbEntity
  8
0
  6
HIDDEN
 62
     7
100
AcDbLine
 10
3.0707305916
 20
4.1130089951
 30
0.0
 11
2.9919904341
 21
4.1130089951
 31
0.0
  0
LINE
  5
124
330
1F
100
AcDbEntity
  8
0
  6
HIDDEN
 62
     7
100
AcDbLine
 10
2.9919904341
 20
4.1130089951
 30
0.0
 11
2.9132502766
 21
4.1130089951
 31
0.0
  0
LINE
  5
125
330
1F
100
AcDbEntity
  8
0
  6
HIDDEN
 62
     7
100
AcDbLine
 10
2.9919904341
 20
4.1130089951
 30
0.0
 11
2.9919904341
 21
4.27048931
 31
0.0
  0
LINE
  5
126
330
1F
100
AcDbEntity
  8
0
  6
HIDDEN
 62
     7
100
AcDbLine
 10
2.9132502766
 20
4.1130089951
 30
0.0
 11
2.9132502766
 21
4.27048931
 31
0.0
  0
LINE
  5
127
330
1F
100
AcDbEntity
  8
0
  6
HIDDEN
 62
     7
100
AcDbLine
 10
3.0707305916
 20
4.1130089951
 30
0.0
 11
3.0707305916
 21
4.27048931
 31
0.0
  0
LINE
  5
128
330
1F
100
AcDbEntity
  8
0
  6
HIDDEN
 62
     7
100
AcDbLine
 10
3.838447127
 20
4.0736389163
 30
0.0
 11
3.838447127
 21
4.2349687772
 31
0.0
  0
LINE
  5
129
330
1F
100
AcDbEntity
  8
0
  6
HIDDEN
 62
     7
100
AcDbLine
 10
3.4841164183
 20
4.2349890476
 30
0.0
 11
3.4841164183
 21
4.0736389163
 31
0.0
  0
LINE
  5
12A
330
1F
100
AcDbEntity
  8
0
  6
HIDDEN
 62
     7
100
AcDbLine
 10
3.1691557884
 20
4.0736389163
 30
0.0
 11
3.1691557884
 21
4.2349890476
 31
0.0
  0
LINE
  5
12B
330
1F
100
AcDbEntity
  8
0
  6
HIDDEN
 62
     7
100
AcDbLine
 10
2.8148250798
 20
4.2349687772
 30
0.0
 11
2.8148250798
 21
4.0736389163
 31
0.0
  0
LINE
  5
12C
330
1F
100
AcDbEntity
  8
0
  6
HIDDEN
 62
     7
100
AcDbLine
 10
3.5628565758
 20
4.0736389163
 30
0.0
 11
3.5628565758
 21
3.7882058454
 31
0.0
  0
LINE
  5
12D
330
1F
100
AcDbEntity
  8
0
  6
HIDDEN
 62
     7
100
AcDbLine
 10
3.7597069695
 20
3.7882058454
 30
0.0
 11
3.7597069695
 21
4.0736389163
 31
0.0
  0
LINE
  5
12E
330
1F
100
AcDbEntity
  8
0
  6
HIDDEN
 62
     7
100
AcDbLine
 10
2.8935652372
 20
4.0736389163
 30
0.0
 11
2.8935652372
 21
3.7882058454
 31
0.0
  0
LINE
  5
12F
330
1F
100
AcDbEntity
  8
0
  6
HIDDEN
 62
     7
100
AcDbLine
 10
3.0904156309
 20
3.7882058454
 30
0.0
 11
3.0904156309
 21
4.0736389163
 31
0.0
  0
LINE
  5
130
330
1F
100
AcDbEntity
  8
0
  6
HIDDEN
 62
     7
100
AcDbLine
 10
2.8935652372
 20
3.7291507273
 30
0.0
 11
2.8935652372
 21
3.2823469975
 31
0.0
  0
LINE
  5
131
330
1F
100
AcDbEntity
  8
0
  6
HIDDEN
 62
     7
100
AcDbLine
 10
3.0904156309
 20
3.2822051712
 30
0.0
 11
3.0904156309
 21
3.7291507273
 31
0.0
  0
LINE
  5
132
330
1F
100
AcDbEntity
  8
0
  6
HIDDEN
 62
     7
100
AcDbLine
 10
3.5628565758
 20
3.7291507273
 30
0.0
 11
3.5628565758
 21
3.2822051712
 31
0.0
  0
LINE
  5
133
330
1F
100
AcDbEntity
  8
0
  6
HIDDEN
 62
     7
100
AcDbLine
 10
3.7597069695
 20
3.2823469975
 30
0.0
 11
3.7597069695
 21
3.7291507273
 31
0.0
  0
LINE
  5
134
330
1F
100
AcDbEntity
  8
0
  6
HIDDEN
 62
     7
100
AcDbLine
 10
2.6967148435
 20
3.522457814
 30
0.0
 11
2.7360849223
 21
3.5618278927
 31
0.0
  0
LINE
  5
135
330
1F
100
AcDbEntity
  8
0
  6
HIDDEN
 62
     7
100
AcDbLine
 10
3.9171872845
 20
3.5618278927
 30
0.0
 11
3.9565573632
 21
3.522457814
 31
0.0
  0
LINE
  5
136
330
1F
100
AcDbEntity
  8
0
  6
HIDDEN
 62
     7
100
AcDbLine
 10
2.7360849223
 20
3.9555286801
 30
0.0
 11
2.6967148435
 21
3.9948987588
 31
0.0
  0
LINE
  5
137
330
1F
100
AcDbEntity
  8
0
  6
HIDDEN
 62
     7
100
AcDbLine
 10
3.9565573632
 20
3.9948987588
 30
0.0
 11
3.9171872845
 21
3.9555286801
 31
0.0
  0
LINE
  5
138
330
1F
100
AcDbEntity
  8
0
  6
HIDDEN
 62
     7
100
AcDbLine
 10
3.2872660246
 20
3.9555286801
 30
0.0
 11
2.7360849223
 21
3.9555286801
 31
0.0
  0
LINE
  5
139
330
1F
100
AcDbEntity
  8
0
  6
HIDDEN
 62
     7
100
AcDbLine
 10
3.9171872845
 20
3.9555286801
 30
0.0
 11
3.3660061821
 21
3.9555286801
 31
0.0
  0
LINE
  5
13A
330
1F
100
AcDbEntity
  8
0
  6
HIDDEN
 62
     7
100
AcDbLine
 10
2.7360849223
 20
3.5618278927
 30
0.0
 11
3.9171872845
 21
3.5618278927
 31
0.0
  0
LINE
  5
13B
330
1F
100
AcDbEntity
  8
0
  6
HIDDEN
 62
     7
100
AcDbLine
 10
3.838447127
 20
4.0736389163
 30
0.0
 11
3.838447127
 21
4.2290430327
 31
0.0
  0
LINE
  5
13C
330
1F
100
AcDbEntity
  8
0
  6
HIDDEN
 62
     7
100
AcDbLine
 10
3.4841164183
 20
4.2306462147
 30
0.0
 11
3.4841164183
 21
4.0736389163
 31
0.0
  0
ARC
  5
13D
330
1F
100
AcDbEntity
  8
0
  6
HIDDEN
 62
     7
100
AcDbCircle
 10
3.7400219302
 20
3.4634026958
 30
0.0
 40
0.0196850393700787
100
AcDbArc
 50
270.0
 51
0.0
  0
ARC
  5
13E
330
1F
100
AcDbEntity
  8
0
  6
HIDDEN
 62
     7
100
AcDbCircle
 10
3.5825416152
 20
3.4634026958
 30
0.0
 40
0.0196850393700787
100
AcDbArc
 50
180.0
 51
270.0
  0
LINE
  5
13F
330
1F
100
AcDbEntity
  8
0
  6
HIDDEN
 62
     7
100
AcDbLine
 10
3.5628565758
 20
4.0736389163
 30
0.0
 11
3.5628565758
 21
3.7882058454
 31
0.0
  0
LINE
  5
140
330
1F
100
AcDbEntity
  8
0
  6
HIDDEN
 62
     7
100
AcDbLine
 10
3.5628565758
 20
3.7291507273
 30
0.0
 11
3.5628565758
 21
3.4634026958
 31
0.0
  0
LINE
  5
141
330
1F
100
AcDbEntity
  8
0
  6
HIDDEN
 62
     7
100
AcDbLine
 10
3.7597069695
 20
3.4634026958
 30
0.0
 11
3.7597069695
 21
3.7291507273
 31
0.0
  0
LINE
  5
142
330
1F
100
AcDbEntity
  8
0
  6
HIDDEN
 62
     7
100
AcDbLine
 10
3.7597069695
 20
3.7882058454
 30
0.0
 11
3.7597069695
 21
4.0736389163
 31
0.0
  0
LINE
  5
143
330
1F
100
AcDbEntity
  8
0
  6
HIDDEN
 62
     7
100
AcDbLine
 10
3.1691557884
 20
4.0736389163
 30
0.0
 11
3.1691557884
 21
4.2306462147
 31
0.0
  0
LINE
  5
144
330
1F
100
AcDbEntity
  8
0
  6
HIDDEN
 62
     7
100
AcDbLine
 10
2.8148250798
 20
4.2290430327
 30
0.0
 11
2.8148250798
 21
4.0736389163
 31
0.0
  0
ARC
  5
145
330
1F
100
AcDbEntity
  8
0
  6
HIDDEN
 62
     7
100
AcDbCircle
 10
3.0707305916
 20
3.4634026958
 30
0.0
 40
0.0196850393700787
100
AcDbArc
 50
270.0
 51
0.0
  0
ARC
  5
146
330
1F
100
AcDbEntity
  8
0
  6
HIDDEN
 62
     7
100
AcDbCircle
 10
2.9132502766
 20
3.4634026958
 30
0.0
 40
0.0196850393700787
100
AcDbArc
 50
180.0
 51
270.0
  0
LINE
  5
147
330
1F
100
AcDbEntity
  8
0
  6
HIDDEN
 62
     7
100
AcDbLine
 10
2.8935652372
 20
4.0736389163
 30
0.0
 11
2.8935652372
 21
3.7882058454
 31
0.0
  0
LINE
  5
148
330
1F
100
AcDbEntity
  8
0
  6
HIDDEN
 62
     7
100
AcDbLine
 10
2.8935652372
 20
3.7291507273
 30
0.0
 11
2.8935652372
 21
3.4634026958
 31
0.0
  0
LINE
  5
149
330
1F
100
AcDbEntity
  8
0
  6
HIDDEN
 62
     7
100
AcDbLine
 10
3.0904156309
 20
3.4634026958
 30
0.0
 11
3.0904156309
 21
3.7291507273
 31
0.0
  0
LINE
  5
14A
330
1F
100
AcDbEntity
  8
0
  6
HIDDEN
 62
     7
100
AcDbLine
 10
3.0904156309
 20
3.7882058454
 30
0.0
 11
3.0904156309
 21
4.0736389163
 31
0.0
  0
LINE
  5
14B
330
1F
100
AcDbEntity
  8
0
  6
HIDDEN
 62
     7
100
AcDbLine
 10
3.4841164183
 20
4.2508042706
 30
0.0
 11
3.838447127
 21
4.2508042706
 31
0.0
  0
LINE
  5
14C
330
1F
100
AcDbEntity
  8
0
  6
HIDDEN
 62
     7
100
AcDbLine
 10
3.1691557884
 20
4.2508042706
 30
0.0
 11
2.8148250798
 21
4.2508042706
 31
0.0
  0
LINE
  5
14D
330
1F
100
AcDbEntity
  8
0
  6
CONTINUOUS
 62
     7
100
AcDbLine
 10
7.6614470082
 20
4.2508042706
 30
0.0
 11
7.6614470082
 21
4.0736389163
 31
0.0
  0
ARC
  5
14E
330
1F
100
AcDbEntity
  8
0
  6
CONTINUOUS
 62
     7
100
AcDbCircle
 10
7.6811320476
 20
4.2508042706
 30
0.0
 40
0.0196850393700787
100
AcDbArc
 50
90.0
 51
180.0
  0
LINE
  5
14F
330
1F
100
AcDbEntity
  8
0
  6
CONTINUOUS
 62
     7
100
AcDbLine
 10
7.7401871657
 20
3.7882058454
 30
0.0
 11
7.7401871657
 21
3.7291507273
 31
0.0
  0
LINE
  5
150
330
1F
100
AcDbEntity
  8
0
  6
CONTINUOUS
 62
     7
100
AcDbLine
 10
7.9370375594
 20
3.7291507273
 30
0.0
 11
7.9370375594
 21
3.7882058454
 31
0.0
  0
ARC
  5
151
330
1F
100
AcDbEntity
  8
0
  6
CONTINUOUS
 62
     7
100
AcDbCircle
 10
8.25053839
 20
3.7586782864
 30
0.0
 40
0.5905511811023618
100
AcDbArc
 50
182.8659839826
 51
177.1340160174
  0
LINE
  5
152
330
1F
100
AcDbEntity
  8
0
  6
CONTINUOUS
 62
     7
100
AcDbLine
 10
7.6607258598
 20
3.7882058454
 30
0.0
 11
7.6213095629
 21
3.7882058454
 31
0.0
  0
ARC
  5
153
330
1F
100
AcDbEntity
  8
0
  6
CONTINUOUS
 62
     7
100
AcDbCircle
 10
8.25053839
 20
3.7586782864
 30
0.0
 40
0.6299212598425188
100
AcDbArc
 50
182.6867241857
 51
177.3132758143
  0
LINE
  5
154
330
1F
100
AcDbEntity
  8
0
  6
CONTINUOUS
 62
     7
100
AcDbLine
 10
7.6213095629
 20
3.7291507273
 30
0.0
 11
7.6607258598
 21
3.7291507273
 31
0.0
  0
LINE
  5
155
330
1F
100
AcDbEntity
  8
0
  6
CONTINUOUS
 62
     7
100
AcDbLine
 10
8.6048690986
 20
3.7291507273
 30
0.0
 11
8.6048690986
 21
3.7882058454
 31
0.0
  0
LINE
  5
156
330
1F
100
AcDbEntity
  8
0
  6
CONTINUOUS
 62
     7
100
AcDbLine
 10
8.6048690986
 20
3.7882058454
 30
0.0
 11
8.4849061242
 21
3.7882058454
 31
0.0
  0
ARC
  5
157
330
1F
100
AcDbEntity
  8
0
  6
CONTINUOUS
 62
     7
100
AcDbCircle
 10
8.25053839
 20
3.7586782864
 30
0.0
 40
0.2362204724409462
100
AcDbArc
 50
7.1807557815
 51
172.8192442185
  0
LINE
  5
158
330
1F
100
AcDbEntity
  8
0
  6
CONTINUOUS
 62
     7
100
AcDbLine
 10
8.0161706557
 20
3.7882058454
 30
0.0
 11
7.6607258598
 21
3.7882058454
 31
0.0
  0
LINE
  5
159
330
1F
100
AcDbEntity
  8
0
  6
CONTINUOUS
 62
     7
100
AcDbLine
 10
7.6607258598
 20
3.7291507273
 30
0.0
 11
8.0161706557
 21
3.7291507273
 31
0.0
  0
ARC
  5
15A
330
1F
100
AcDbEntity
  8
0
  6
CONTINUOUS
 62
     7
100
AcDbCircle
 10
8.25053839
 20
3.7586782864
 30
0.0
 40
0.2362204724409462
100
AcDbArc
 50
187.1807557815
 51
352.8192442185
  0
LINE
  5
15B
330
1F
100
AcDbEntity
  8
0
  6
CONTINUOUS
 62
     7
100
AcDbLine
 10
8.4849061242
 20
3.7291507273
 30
0.0
 11
8.6048690986
 21
3.7291507273
 31
0.0
  0
ARC
  5
15C
330
1F
100
AcDbEntity
  8
0
  6
CONTINUOUS
 62
     7
100
AcDbCircle
 10
8.25053839
 20
3.7586782864
 30
0.0
 40
0.196850393700788
100
AcDbArc
 50
8.6269265587
 51
171.3730734413
  0
SPLINE
  5
15D
330
1F
100
AcDbEntity
  8
0
  6
CONTINUOUS
 62
     7
100
AcDbSpline
210
0.0
220
0.0
230
1.0
 70
    24
 71
     3
 72
     8
 73
     4
 74
     0
 42
0.00000001
 43
0.00000001
 40
0.0
 40
0.0
 40
0.0
 40
0.0
 40
0.0007104771956443
 40
0.0007104771956443
 40
0.0007104771956443
 40
0.0007104771956443
 10
8.055915162264581
 20
3.788205845447165
 30
0.0
 10
8.042654447881482
 20
3.788205845447165
 30
0.0
 10
8.029408378842437
 20
3.788205845447165
 30
0.0
 10
8.016170655706548
 20
3.788205845447165
 30
0.0
  0
SPLINE
  5
15E
330
1F
100
AcDbEntity
  8
0
  6
CONTINUOUS
 62
     7
100
AcDbSpline
210
0.0
220
0.0
230
1.0
 70
    24
 71
     3
 72
     8
 73
     4
 74
     0
 42
0.00000001
 43
0.00000001
 40
0.0
 40
0.0
 40
0.0
 40
0.0
 40
0.0007104771956443
 40
0.0007104771956443
 40
0.0007104771956443
 40
0.0007104771956443
 10
8.484906124202244
 20
3.788205845447165
 30
0.0
 10
8.471668401066355
 20
3.788205845447165
 30
0.0
 10
8.45842233202731
 20
3.788205845447165
 30
0.0
 10
8.44516161764421
 20
3.788205845447165
 30
0.0
  0
ARC
  5
15F
330
1F
100
AcDbEntity
  8
0
  6
CONTINUOUS
 62
     7
100
AcDbCircle
 10
8.25053839
 20
3.7586782864
 30
0.0
 40
0.196850393700788
100
AcDbArc
 50
188.6269265587
 51
351.3730734413
  0
SPLINE
  5
160
330
1F
100
AcDbEntity
  8
0
  6
CONTINUOUS
 62
     7
100
AcDbSpline
210
0.0
220
0.0
230
1.0
 70
    24
 71
     3
 72
     8
 73
     4
 74
     0
 42
0.00000001
 43
0.00000001
 40
0.0
 40
0.0
 40
0.0
 40
0.0
 40
0.0007104771956443
 40
0.0007104771956443
 40
0.0007104771956443
 40
0.0007104771956443
 10
8.016170655706548
 20
3.729150727336929
 30
0.0
 10
8.029408378842437
 20
3.729150727336929
 30
0.0
 10
8.042654447881482
 20
3.729150727336929
 30
0.0
 10
8.055915162264581
 20
3.729150727336929
 30
0.0
  0
SPLINE
  5
161
330
1F
100
AcDbEntity
  8
0
  6
CONTINUOUS
 62
     7
100
AcDbSpline
210
0.0
220
0.0
230
1.0
 70
    24
 71
     3
 72
     8
 73
     4
 74
     0
 42
0.00000001
 43
0.00000001
 40
0.0
 40
0.0
 40
0.0
 40
0.0
 40
0.0007104771956443
 40
0.0007104771956443
 40
0.0007104771956443
 40
0.0007104771956443
 10
8.44516161764421
 20
3.729150727336929
 30
0.0
 10
8.45842233202731
 20
3.729150727336929
 30
0.0
 10
8.471668401066355
 20
3.729150727336929
 30
0.0
 10
8.484906124202244
 20
3.729150727336929
 30
0.0
  0
LINE
  5
162
330
1F
100
AcDbEntity
  8
0
  6
CONTINUOUS
 62
     7
100
AcDbLine
 10
7.6614470082
 20
4.0736389163
 30
0.0
 11
7.7050105765
 21
4.0736389163
 31
0.0
  0
LINE
  5
163
330
1F
100
AcDbEntity
  8
0
  6
CONTINUOUS
 62
     7
100
AcDbLine
 10
7.6811320476
 20
4.27048931
 30
0.0
 11
7.8833187422
 21
4.27048931
 31
0.0
  0
LINE
  5
164
330
1F
100
AcDbEntity
  8
0
  6
CONTINUOUS
 62
     8
100
AcDbLine
 10
7.8573300365
 20
4.2508042706
 30
0.0
 11
7.6614470082
 21
4.2508042706
 31
0.0
  0
LINE
  5
165
330
1F
100
AcDbEntity
  8
0
  6
HIDDEN
 62
     7
100
AcDbLine
 10
7.7050105765
 20
4.0736389163
 30
0.0
 11
8.0157777169
 21
4.0736389163
 31
0.0
  0
LINE
  5
166
330
1F
100
AcDbEntity
  8
0
  6
HIDDEN
 62
     7
100
AcDbLine
 10
8.6048690986
 20
3.7882058454
 30
0.0
 11
8.6048690986
 21
4.2794954736
 31
0.0
  0
LINE
  5
167
330
1F
100
AcDbEntity
  8
0
  6
HIDDEN
 62
     7
100
AcDbLine
 10
7.8833187422
 20
4.27048931
 30
0.0
 11
7.9960926773
 21
4.27048931
 31
0.0
  0
LINE
  5
168
330
1F
100
AcDbEntity
  8
0
  6
HIDDEN
 62
     7
100
AcDbLine
 10
7.9370375594
 20
3.4634026958
 30
0.0
 11
7.7403738459
 21
3.4634026958
 31
0.0
  0
LINE
  5
169
330
1F
100
AcDbEntity
  8
0
  6
HIDDEN
 62
     7
100
AcDbLine
 10
7.91735252
 20
3.4437176565
 30
0.0
 11
7.7598722053
 21
3.4437176565
 31
0.0
  0
LINE
  5
16A
330
1F
100
AcDbEntity
  8
0
  6
HIDDEN
 62
     7
100
AcDbLine
 10
7.8840730137
 20
4.1130089951
 30
0.0
 11
7.9295336648
 21
4.1130089951
 31
0.0
  0
LINE
  5
16B
330
1F
100
AcDbEntity
  8
0
  6
HIDDEN
 62
     7
100
AcDbLine
 10
7.7931517114
 20
4.1130089951
 30
0.0
 11
7.8840730137
 21
4.1130089951
 31
0.0
  0
LINE
  5
16C
330
1F
100
AcDbEntity
  8
0
  6
HIDDEN
 62
     7
100
AcDbLine
 10
7.8840730137
 20
4.1130089951
 30
0.0
 11
7.8840730137
 21
4.27048931
 31
0.0
  0
LINE
  5
16D
330
1F
100
AcDbEntity
  8
0
  6
HIDDEN
 62
     7
100
AcDbLine
 10
7.7931517114
 20
4.1130089951
 30
0.0
 11
7.7931517114
 21
4.27048931
 31
0.0
  0
LINE
  5
16E
330
1F
100
AcDbEntity
  8
0
  6
HIDDEN
 62
     7
100
AcDbLine
 10
7.7476910603
 20
4.1130089951
 30
0.0
 11
7.7931517114
 21
4.1130089951
 31
0.0
  0
LINE
  5
16F
330
1F
100
AcDbEntity
  8
0
  6
HIDDEN
 62
     7
100
AcDbLine
 10
7.9295336648
 20
4.1130089951
 30
0.0
 11
7.9295336648
 21
4.27048931
 31
0.0
  0
LINE
  5
170
330
1F
100
AcDbEntity
  8
0
  6
HIDDEN
 62
     7
100
AcDbLine
 10
7.7476910603
 20
4.1130089951
 30
0.0
 11
7.7476910603
 21
4.27048931
 31
0.0
  0
LINE
  5
171
330
1F
100
AcDbEntity
  8
0
  6
HIDDEN
 62
     7
100
AcDbLine
 10
7.6614470082
 20
4.2508042706
 30
0.0
 11
8.0157777169
 21
4.2508042706
 31
0.0
  0
LINE
  5
172
330
1F
100
AcDbEntity
  8
0
  6
HIDDEN
 62
     7
100
AcDbLine
 10
7.9370375594
 20
3.4634026958
 30
0.0
 11
7.7403738459
 21
3.4634026958
 31
0.0
  0
LINE
  5
173
330
1F
100
AcDbEntity
  8
0
  6
HIDDEN
 62
     7
100
AcDbLine
 10
8.0157777169
 20
4.0736389163
 30
0.0
 11
8.0157777169
 21
4.3432020942
 31
0.0
  0
LINE
  5
174
330
1F
100
AcDbEntity
  8
0
  6
HIDDEN
 62
     7
100
AcDbLine
 10
7.7401871657
 20
4.0736389163
 30
0.0
 11
7.7401871657
 21
3.7882058454
 31
0.0
  0
LINE
  5
175
330
1F
100
AcDbEntity
  8
0
  6
HIDDEN
 62
     7
100
AcDbLine
 10
7.9370375594
 20
3.7882058454
 30
0.0
 11
7.9370375594
 21
4.0736389163
 31
0.0
  0
LINE
  5
176
330
1F
100
AcDbEntity
  8
0
  6
HIDDEN
 62
     7
100
AcDbLine
 10
7.7401871657
 20
3.7291507273
 30
0.0
 11
7.7401871657
 21
3.3894325396
 31
0.0
  0
LINE
  5
177
330
1F
100
AcDbEntity
  8
0
  6
HIDDEN
 62
     7
100
AcDbLine
 10
7.9370375594
 20
3.212466199
 30
0.0
 11
7.9370375594
 21
3.7291507273
 31
0.0
  0
LINE
  5
178
330
1F
100
AcDbEntity
  8
0
  6
HIDDEN
 62
     7
100
AcDbLine
 10
8.0157777169
 20
4.0736389163
 30
0.0
 11
8.0157777169
 21
4.2508042706
 31
0.0
  0
ARC
  5
179
330
1F
100
AcDbEntity
  8
0
  6
HIDDEN
 62
     7
100
AcDbCircle
 10
7.9960926775
 20
4.2508042706
 30
0.0
 40
0.0196850393700787
100
AcDbArc
 50
0.0
 51
90.0
  0
LINE
  5
17A
330
1F
100
AcDbEntity
  8
0
  6
HIDDEN
 62
     7
100
AcDbLine
 10
7.7401871657
 20
4.0736389163
 30
0.0
 11
7.7401871657
 21
3.7882058454
 31
0.0
  0
LINE
  5
17B
330
1F
100
AcDbEntity
  8
0
  6
HIDDEN
 62
     7
100
AcDbLine
 10
7.7401871657
 20
3.7291507273
 30
0.0
 11
7.7401871657
 21
3.4634026958
 31
0.0
  0
LINE
  5
17C
330
1F
100
AcDbEntity
  8
0
  6
HIDDEN
 62
     7
100
AcDbLine
 10
7.9370375594
 20
3.4634026958
 30
0.0
 11
7.9370375594
 21
3.7291507273
 31
0.0
  0
LINE
  5
17D
330
1F
100
AcDbEntity
  8
0
  6
HIDDEN
 62
     7
100
AcDbLine
 10
7.9370375594
 20
3.7882058454
 30
0.0
 11
7.9370375594
 21
4.0736389163
 31
0.0
  0
ARC
  5
17E
330
1F
100
AcDbEntity
  8
0
  6
HIDDEN
 62
     7
100
AcDbCircle
 10
7.91735252
 20
3.4634026958
 30
0.0
 40
0.0196850393700787
100
AcDbArc
 50
270.0
 51
0.0
  0
ARC
  5
17F
330
1F
100
AcDbEntity
  8
0
  6
HIDDEN
 62
     7
100
AcDbCircle
 10
7.7598722051
 20
3.4634026958
 30
0.0
 40
0.0196850393700787
100
AcDbArc
 50
180.0
 51
270.0
  0
LINE
  5
180
330
1F
100
AcDbEntity
  8
0
  6
HIDDEN
 62
     7
100
AcDbLine
 10
7.6614470082
 20
4.2508042706
 30
0.0
 11
8.0157777169
 21
4.2508042706
 31
0.0
  0
LINE
  5
181
330
1F
100
AcDbEntity
  8
0
  6
CONTINUOUS
 62
     7
100
AcDbLine
 10
3.9565573632
 20
7.2621821036
 30
0.0
 11
3.9171872845
 21
7.3015521824
 31
0.0
  0
LINE
  5
182
330
1F
100
AcDbEntity
  8
0
  6
CONTINUOUS
 62
     7
100
AcDbLine
 10
3.9171872845
 20
7.3015521824
 30
0.0
 11
2.7360849223
 21
7.3015521824
 31
0.0
  0
LINE
  5
183
330
1F
100
AcDbEntity
  8
0
  6
CONTINUOUS
 62
     7
100
AcDbLine
 10
2.7360849223
 20
7.3015521824
 30
0.0
 11
2.6967148435
 21
7.2621821036
 31
0.0
  0
LINE
  5
184
330
1F
100
AcDbEntity
  8
0
  6
CONTINUOUS
 62
     7
100
AcDbLine
 10
3.9565573632
 20
7.2621821036
 30
0.0
 11
3.9565573632
 21
6.0818183924
 31
0.0
  0
LINE
  5
185
330
1F
100
AcDbEntity
  8
0
  6
CONTINUOUS
 62
     7
100
AcDbLine
 10
3.9565573632
 20
6.0818183924
 30
0.0
 11
3.9171872845
 21
6.0424020954
 31
0.0
  0
LINE
  5
186
330
1F
100
AcDbEntity
  8
0
  6
CONTINUOUS
 62
     7
100
AcDbLine
 10
3.9171872845
 20
6.0424020954
 30
0.0
 11
3.9171872845
 21
7.3015521824
 31
0.0
  0
SPLINE
  5
187
330
1F
100
AcDbEntity
  8
0
  6
CONTINUOUS
 62
     7
100
AcDbSpline
210
0.0
220
0.0
230
1.0
 70
     8
 71
     3
 72
    50
 73
    46
 74
     0
 42
0.00000001
 43
0.00000001
 40
0.0
 40
0.0
 40
0.0
 40
0.0
 40
0.0625000000000001
 40
0.0625000000000001
 40
0.1250000000000003
 40
0.1250000000000003
 40
0.1875000000000004
 40
0.1875000000000004
 40
0.2500000000000006
 40
0.2500000000000006
 40
0.2812500000000006
 40
0.2812500000000006
 40
0.3125000000000006
 40
0.3125000000000006
 40
0.3437500000000006
 40
0.3437500000000006
 40
0.3750000000000006
 40
0.3750000000000006
 40
0.4062500000000006
 40
0.4062500000000006
 40
0.4375000000000006
 40
0.4375000000000006
 40
0.4687500000000006
 40
0.4687500000000006
 40
0.5000000000000006
 40
0.5000000000000006
 40
0.5625000000000006
 40
0.5625000000000006
 40
0.5937500000000006
 40
0.5937500000000006
 40
0.6250000000000004
 40
0.6250000000000004
 40
0.6562500000000004
 40
0.6562500000000004
 40
0.6875000000000004
 40
0.6875000000000004
 40
0.7500000000000003
 40
0.7500000000000003
 40
0.8125000000000002
 40
0.8125000000000002
 40
0.8750000000000001
 40
0.8750000000000001
 40
0.9375000000000001
 40
0.9375000000000001
 40
1.0
 40
1.0
 40
1.0
 40
1.0
 10
3.777635223633783
 20
6.126103109139312
 30
0.0
 10
3.788616708853022
 20
6.135666856302069
 30
0.0
 10
3.798090085325935
 20
6.146241894406503
 30
0.0
 10
3.814457216989099
 20
6.169551413756687
 30
0.0
 10
3.821339409740768
 20
6.182283331737114
 30
0.0
 10
3.832077439470967
 20
6.21029451296035
 30
0.0
 10
3.835817894290293
 20
6.225347133284185
 30
0.0
 10
3.839149208727783
 20
6.257157594428094
 30
0.0
 10
3.838721204912811
 20
6.274243787942281
 30
0.0
 10
3.833988819322946
 20
6.300164516982903
 30
0.0
 10
3.831740494179015
 20
6.308865706672541
 30
0.0
 10
3.825700814077325
 20
6.326333267114782
 30
0.0
 10
3.821868132620157
 20
6.335158399027791
 30
0.0
 10
3.812694383452932
 20
6.3522004709646
 30
0.0
 10
3.807344353833385
 20
6.360477103605414
 30
0.0
 10
3.794962146062116
 20
6.376404823953314
 30
0.0
 10
3.787867809045697
 20
6.384089530601374
 30
0.0
 10
3.772457250495596
 20
6.398036291701025
 30
0.0
 10
3.764089243778849
 20
6.404384999112088
 30
0.0
 10
3.745957648431606
 20
6.415691127433733
 30
0.0
 10
3.73614043403312
 20
6.420643076577441
 30
0.0
 10
3.715974454396819
 20
6.42856468310304
 30
0.0
 10
3.705522915868182
 20
6.43161178627193
 30
0.0
 10
3.68385561099158
 20
6.435772154428571
 30
0.0
 10
3.672806736153258
 20
6.436834404042115
 30
0.0
 10
3.639926447767055
 20
6.436939238849109
 30
0.0
 10
3.617773165400728
 20
6.432812444944775
 30
0.0
 10
3.587380121060225
 20
6.421086503908946
 30
0.0
 10
3.577527246941312
 20
6.416188634720744
 30
0.0
 10
3.559308343491781
 20
6.404974992112507
 30
0.0
 10
3.550857041776271
 20
6.398643572489748
 30
0.0
 10
3.535234619351932
 20
6.384643649722354
 30
0.0
 10
3.528143586372216
 20
6.377022491124967
 30
0.0
 10
3.515694593830199
 20
6.361162119305414
 30
0.0
 10
3.51025695914829
 20
6.352843318157531
 30
0.0
 10
3.496252617409159
 20
6.327052724750664
 30
0.0
 10
3.490305675263444
 20
6.309399588966547
 30
0.0
 10
3.483846366846717
 20
6.274505747764947
 30
0.0
 10
3.483398540144828
 20
6.257779557635747
 30
0.0
 10
3.486652252881592
 20
6.225783188874519
 30
0.0
 10
3.490411177747191
 20
6.210593133320252
 30
0.0
 10
3.500989647409803
 20
6.18279481818361
 30
0.0
 10
3.507829330431235
 20
6.169997050686291
 30
0.0
 10
3.524340766970007
 20
6.146380977350519
 30
0.0
 10
3.533941206596456
 20
6.13567175936947
 30
0.0
 10
3.544928321717999
 20
6.126103109139311
 30
0.0
  0
LINE
  5
188
330
1F
100
AcDbEntity
  8
0
  6
CONTINUOUS
 62
     7
100
AcDbLine
 10
3.3660061821
 20
6.0424020954
 30
0.0
 11
3.9171872845
 21
6.0424020954
 31
0.0
  0
LINE
  5
189
330
1F
100
AcDbEntity
  8
0
  6
CONTINUOUS
 62
     7
100
AcDbLine
 10
3.3660061821
 20
6.0424020954
 30
0.0
 11
3.3660061821
 21
7.0259616312
 31
0.0
  0
LINE
  5
18A
330
1F
100
AcDbEntity
  8
0
  6
CONTINUOUS
 62
     7
100
AcDbLine
 10
3.2872660246
 20
7.0259616312
 30
0.0
 11
3.3660061821
 21
7.0259616312
 31
0.0
  0
LINE
  5
18B
330
1F
100
AcDbEntity
  8
0
  6
CONTINUOUS
 62
     7
100
AcDbLine
 10
3.2872660246
 20
7.0259616312
 30
0.0
 11
3.2872660246
 21
6.0424020954
 31
0.0
  0
LINE
  5
18C
330
1F
100
AcDbEntity
  8
0
  6
CONTINUOUS
 62
     7
100
AcDbLine
 10
2.7360849223
 20
6.0424020954
 30
0.0
 11
3.2872660246
 21
6.0424020954
 31
0.0
  0
LINE
  5
18D
330
1F
100
AcDbEntity
  8
0
  6
CONTINUOUS
 62
     7
100
AcDbLine
 10
2.7360849223
 20
7.3015521824
 30
0.0
 11
2.7360849223
 21
6.0424020954
 31
0.0
  0
LINE
  5
18E
330
1F
100
AcDbEntity
  8
0
  6
CONTINUOUS
 62
     7
100
AcDbLine
 10
3.2872660246
 20
6.0424020954
 30
0.0
 11
3.3660061821
 21
6.0424020954
 31
0.0
  0
SPLINE
  5
18F
330
1F
100
AcDbEntity
  8
0
  6
CONTINUOUS
 62
     7
100
AcDbSpline
210
0.0
220
0.0
230
1.0
 70
     8
 71
     3
 72
    50
 73
    46
 74
     0
 42
0.00000001
 43
0.00000001
 40
0.0
 40
0.0
 40
0.0
 40
0.0
 40
0.0625000000000001
 40
0.0625000000000001
 40
0.1250000000000003
 40
0.1250000000000003
 40
0.1875000000000004
 40
0.1875000000000004
 40
0.2500000000000006
 40
0.2500000000000006
 40
0.2812500000000006
 40
0.2812500000000006
 40
0.3125000000000006
 40
0.3125000000000006
 40
0.3437500000000006
 40
0.3437500000000006
 40
0.3750000000000006
 40
0.3750000000000006
 40
0.4062500000000006
 40
0.4062500000000006
 40
0.4375000000000006
 40
0.4375000000000006
 40
0.4687500000000006
 40
0.4687500000000006
 40
0.5000000000000006
 40
0.5000000000000006
 40
0.5625000000000006
 40
0.5625000000000006
 40
0.5937500000000006
 40
0.5937500000000006
 40
0.6250000000000004
 40
0.6250000000000004
 40
0.6562500000000004
 40
0.6562500000000004
 40
0.6875000000000004
 40
0.6875000000000004
 40
0.7500000000000003
 40
0.7500000000000003
 40
0.8125000000000002
 40
0.8125000000000002
 40
0.8750000000000001
 40
0.8750000000000001
 40
0.9375000000000001
 40
0.9375000000000001
 40
1.0
 40
1.0
 40
1.0
 40
1.0
 10
2.875636983135322
 20
6.126103109139312
 30
0.0
 10
2.864655497916083
 20
6.135666856302069
 30
0.0
 10
2.85518212144317
 20
6.146241894406503
 30
0.0
 10
2.838814989780007
 20
6.169551413756687
 30
0.0
 10
2.831932797028337
 20
6.182283331737114
 30
0.0
 10
2.821194767298138
 20
6.21029451296035
 30
0.0
 10
2.817454312478813
 20
6.225347133284185
 30
0.0
 10
2.814122998041322
 20
6.257157594428094
 30
0.0
 10
2.814551001856294
 20
6.274243787942281
 30
0.0
 10
2.819283387446159
 20
6.300164516982903
 30
0.0
 10
2.821531712590089
 20
6.308865706672541
 30
0.0
 10
2.827571392691781
 20
6.326333267114782
 30
0.0
 10
2.831404074148948
 20
6.335158399027791
 30
0.0
 10
2.840577823316173
 20
6.3522004709646
 30
0.0
 10
2.84592785293572
 20
6.360477103605414
 30
0.0
 10
2.858310060706989
 20
6.376404823953314
 30
0.0
 10
2.865404397723407
 20
6.384089530601374
 30
0.0
 10
2.880814956273509
 20
6.398036291701025
 30
0.0
 10
2.889182962990256
 20
6.404384999112088
 30
0.0
 10
2.9073145583375
 20
6.415691127433733
 30
0.0
 10
2.917131772735984
 20
6.420643076577441
 30
0.0
 10
2.937297752372286
 20
6.42856468310304
 30
0.0
 10
2.947749290900923
 20
6.43161178627193
 30
0.0
 10
2.969416595777525
 20
6.435772154428571
 30
0.0
 10
2.980465470615847
 20
6.436834404042115
 30
0.0
 10
3.01334575900205
 20
6.436939238849109
 30
0.0
 10
3.035499041368376
 20
6.432812444944775
 30
0.0
 10
3.06589208570888
 20
6.421086503908946
 30
0.0
 10
3.075744959827793
 20
6.416188634720744
 30
0.0
 10
3.093963863277323
 20
6.404974992112507
 30
0.0
 10
3.102415164992833
 20
6.398643572489748
 30
0.0
 10
3.118037587417174
 20
6.384643649722354
 30
0.0
 10
3.125128620396889
 20
6.377022491124967
 30
0.0
 10
3.137577612938906
 20
6.361162119305414
 30
0.0
 10
3.143015247620815
 20
6.352843318157531
 30
0.0
 10
3.157019589359946
 20
6.327052724750664
 30
0.0
 10
3.162966531505662
 20
6.309399588966547
 30
0.0
 10
3.169425839922388
 20
6.274505747764947
 30
0.0
 10
3.169873666624277
 20
6.257779557635747
 30
0.0
 10
3.166619953887513
 20
6.225783188874519
 30
0.0
 10
3.162861029021914
 20
6.210593133320252
 30
0.0
 10
3.152282559359302
 20
6.18279481818361
 30
0.0
 10
3.14544287633787
 20
6.169997050686291
 30
0.0
 10
3.128931439799098
 20
6.146380977350519
 30
0.0
 10
3.119331000172649
 20
6.13567175936947
 30
0.0
 10
3.108343885051106
 20
6.126103109139311
 30
0.0
  0
LINE
  5
190
330
1F
100
AcDbEntity
  8
0
  6
CONTINUOUS
 62
     7
100
AcDbLine
 10
2.7360849223
 20
6.0424020954
 30
0.0
 11
2.6967148435
 21
6.0818183924
 31
0.0
  0
LINE
  5
191
330
1F
100
AcDbEntity
  8
0
  6
CONTINUOUS
 62
     7
100
AcDbLine
 10
2.6967148435
 20
6.0818183924
 30
0.0
 11
2.6967148435
 21
7.2621821036
 31
0.0
  0
LINE
  5
192
330
1F
100
AcDbEntity
  8
0
  6
CONTINUOUS
 62
     7
100
AcDbLine
 10
3.3660061821
 20
6.8662541502
 30
0.0
 11
3.2872660246
 21
6.8662541502
 31
0.0
  0
LINE
  5
193
330
1F
100
AcDbEntity
  8
0
  6
CONTINUOUS
 62
     7
100
AcDbLine
 10
3.2872660246
 20
6.4770076949
 30
0.0
 11
3.3660061821
 21
6.4770076949
 31
0.0
  0
CIRCLE
  5
194
330
1F
100
AcDbEntity
  8
0
  6
CONTINUOUS
 62
     7
100
AcDbCircle
 10
3.6612817727
 20
6.2597048952
 30
0.0
 40
0.1574803149606288
  0
CIRCLE
  5
195
330
1F
100
AcDbEntity
  8
0
  6
CONTINUOUS
 62
     7
100
AcDbCircle
 10
3.6612817727
 20
6.2597048952
 30
0.0
 40
0.1771653543307075
  0
LINE
  5
196
330
1F
100
AcDbEntity
  8
0
  6
CONTINUOUS
 62
     7
100
AcDbLine
 10
3.6612817727
 20
6.3506261974
 30
0.0
 11
3.5825416152
 21
6.3051655463
 31
0.0
  0
LINE
  5
197
330
1F
100
AcDbEntity
  8
0
  6
CONTINUOUS
 62
     7
100
AcDbLine
 10
3.5825416152
 20
6.3051655463
 30
0.0
 11
3.5825416152
 21
6.214244244
 31
0.0
  0
LINE
  5
198
330
1F
100
AcDbEntity
  8
0
  6
CONTINUOUS
 62
     7
100
AcDbLine
 10
3.5825416152
 20
6.214244244
 30
0.0
 11
3.6612817727
 21
6.1687835929
 31
0.0
  0
LINE
  5
199
330
1F
100
AcDbEntity
  8
0
  6
CONTINUOUS
 62
     7
100
AcDbLine
 10
3.6612817727
 20
6.1687835929
 30
0.0
 11
3.7400219302
 21
6.214244244
 31
0.0
  0
LINE
  5
19A
330
1F
100
AcDbEntity
  8
0
  6
CONTINUOUS
 62
     7
100
AcDbLine
 10
3.7400219302
 20
6.214244244
 30
0.0
 11
3.7400219302
 21
6.3051655463
 31
0.0
  0
LINE
  5
19B
330
1F
100
AcDbEntity
  8
0
  6
CONTINUOUS
 62
     7
100
AcDbLine
 10
3.7400219302
 20
6.3051655463
 30
0.0
 11
3.6612817727
 21
6.3506261974
 31
0.0
  0
CIRCLE
  5
19C
330
1F
100
AcDbEntity
  8
0
  6
CONTINUOUS
 62
     7
100
AcDbCircle
 10
2.9919904341
 20
6.2597048952
 30
0.0
 40
0.1574803149606288
  0
ARC
  5
19D
330
1F
100
AcDbEntity
  8
0
  6
CONTINUOUS
 62
     7
100
AcDbCircle
 10
2.9919904341
 20
6.2597048952
 30
0.0
 40
0.1771653543307088
100
AcDbArc
 50
270.0
 51
6.0646672913
  0
ARC
  5
19E
330
1F
100
AcDbEntity
  8
0
  6
CONTINUOUS
 62
     7
100
AcDbCircle
 10
2.9919904341
 20
6.2597048952
 30
0.0
 40
0.1771653543307088
100
AcDbArc
 50
173.9353327087
 51
270.0
  0
LINE
  5
19F
330
1F
100
AcDbEntity
  8
0
  6
CONTINUOUS
 62
     7
100
AcDbLine
 10
2.9132502766
 20
6.214244244
 30
0.0
 11
2.9132502766
 21
6.3051655463
 31
0.0
  0
LINE
  5
1A0
330
1F
100
AcDbEntity
  8
0
  6
CONTINUOUS
 62
     7
100
AcDbLine
 10
2.9919904341
 20
6.1687835929
 30
0.0
 11
2.9132502766
 21
6.214244244
 31
0.0
  0
LINE
  5
1A1
330
1F
100
AcDbEntity
  8
0
  6
CONTINUOUS
 62
     7
100
AcDbLine
 10
3.0707305916
 20
6.214244244
 30
0.0
 11
2.9919904341
 21
6.1687835929
 31
0.0
  0
LINE
  5
1A2
330
1F
100
AcDbEntity
  8
0
  6
CONTINUOUS
 62
     7
100
AcDbLine
 10
3.0707305916
 20
6.3051655463
 30
0.0
 11
3.0707305916
 21
6.214244244
 31
0.0
  0
LINE
  5
1A3
330
1F
100
AcDbEntity
  8
0
  6
CONTINUOUS
 62
     7
100
AcDbLine
 10
2.9919904341
 20
6.3506261974
 30
0.0
 11
3.0707305916
 21
6.3051655463
 31
0.0
  0
LINE
  5
1A4
330
1F
100
AcDbEntity
  8
0
  6
CONTINUOUS
 62
     7
100
AcDbLine
 10
2.9132502766
 20
6.3051655463
 30
0.0
 11
2.9919904341
 21
6.3506261974
 31
0.0
  0
LINE
  5
1A5
330
1F
100
AcDbEntity
  8
0
  6
HIDDEN
 62
     7
100
AcDbLine
 10
3.5449283217
 20
6.1261031091
 30
0.0
 11
3.7776352236
 21
6.1261031091
 31
0.0
  0
LINE
  5
1A6
330
1F
100
AcDbEntity
  8
0
  6
HIDDEN
 62
     7
100
AcDbLine
 10
2.8756369831
 20
6.1261031091
 30
0.0
 11
3.1083438851
 21
6.1261031091
 31
0.0
  0
CIRCLE
  5
1A7
330
1F
100
AcDbEntity
  8
0
  6
HIDDEN
 62
     7
100
AcDbCircle
 10
3.6612817727
 20
6.2597048952
 30
0.0
 40
0.0984251968503926
  0
CIRCLE
  5
1A8
330
1F
100
AcDbEntity
  8
0
  6
HIDDEN
 62
     7
100
AcDbCircle
 10
2.9919904341
 20
6.2597048952
 30
0.0
 40
0.0984251968503926
  0
LINE
  5
1A9
330
1F
100
AcDbEntity
  8
0
  6
HIDDEN
 62
     7
100
AcDbLine
 10
3.3660061821
 20
6.8662541502
 30
0.0
 11
3.9171872845
 21
6.8662541502
 31
0.0
  0
SPLINE
  5
1AA
330
1F
100
AcDbEntity
  8
0
  6
HIDDEN
 62
     7
100
AcDbSpline
210
0.0
220
0.0
230
1.0
 70
     8
 71
     3
 72
     8
 73
     4
 74
     0
 42
0.00000001
 43
0.00000001
 40
0.0
 40
0.0
 40
0.0
 40
0.0
 40
0.0007104771956443
 40
0.0007104771956443
 40
0.0007104771956443
 40
0.0007104771956443
 10
3.956557363227072
 20
6.905998656794679
 30
0.0
 10
3.943423466973714
 20
6.89276093365879
 30
0.0
 10
3.93029796710325
 20
6.879514864619746
 30
0.0
 10
3.917187284486915
 20
6.866254150236647
 30
0.0
  0
LINE
  5
1AB
330
1F
100
AcDbEntity
  8
0
  6
HIDDEN
 62
     7
100
AcDbLine
 10
3.3660061821
 20
7.0259616312
 30
0.0
 11
3.9565573632
 21
7.0259616312
 31
0.0
  0
LINE
  5
1AC
330
1F
100
AcDbEntity
  8
0
  6
HIDDEN
 62
     7
100
AcDbLine
 10
2.7360849223
 20
6.8662541502
 30
0.0
 11
3.2872660246
 21
6.8662541502
 31
0.0
  0
SPLINE
  5
1AD
330
1F
100
AcDbEntity
  8
0
  6
HIDDEN
 62
     7
100
AcDbSpline
210
0.0
220
0.0
230
1.0
 70
     8
 71
     3
 72
     8
 73
     4
 74
     0
 42
0.00000001
 43
0.00000001
 40
0.0
 40
0.0
 40
0.0
 40
0.0
 40
0.0007104771956443
 40
0.0007104771956443
 40
0.0007104771956443
 40
0.0007104771956443
 10
2.73608492228219
 20
6.866254150236647
 30
0.0
 10
2.722974239665855
 20
6.879514864619746
 30
0.0
 10
2.70984873979539
 20
6.89276093365879
 30
0.0
 10
2.696714843542033
 20
6.905998656794679
 30
0.0
  0
LINE
  5
1AE
330
1F
100
AcDbEntity
  8
0
  6
HIDDEN
 62
     7
100
AcDbLine
 10
2.6967148435
 20
7.0259616312
 30
0.0
 11
3.2872660246
 21
7.0259616312
 31
0.0
  0
LINE
  5
1AF
330
1F
100
AcDbEntity
  8
0
  6
HIDDEN
 62
     7
100
AcDbLine
 10
3.2872660246
 20
6.4770076949
 30
0.0
 11
2.7360849223
 21
6.4770076949
 31
0.0
  0
SPLINE
  5
1B0
330
1F
100
AcDbEntity
  8
0
  6
HIDDEN
 62
     7
100
AcDbSpline
210
0.0
220
0.0
230
1.0
 70
     8
 71
     3
 72
     8
 73
     4
 74
     0
 42
0.00000001
 43
0.00000001
 40
0.0
 40
0.0
 40
0.0
 40
0.0
 40
0.0007104771956443
 40
0.0007104771956443
 40
0.0007104771956443
 40
0.0007104771956443
 10
2.696714843542033
 20
6.437263188298984
 30
0.0
 10
2.70984873979539
 20
6.450500911434872
 30
0.0
 10
2.722974239665855
 20
6.463746980473918
 30
0.0
 10
2.73608492228219
 20
6.477007694857018
 30
0.0
  0
LINE
  5
1B1
330
1F
100
AcDbEntity
  8
0
  6
HIDDEN
 62
     7
100
AcDbLine
 10
3.9171872845
 20
6.4770076949
 30
0.0
 11
3.3660061821
 21
6.4770076949
 31
0.0
  0
SPLINE
  5
1B2
330
1F
100
AcDbEntity
  8
0
  6
HIDDEN
 62
     7
100
AcDbSpline
210
0.0
220
0.0
230
1.0
 70
     8
 71
     3
 72
     8
 73
     4
 74
     0
 42
0.00000001
 43
0.00000001
 40
0.0
 40
0.0
 40
0.0
 40
0.0
 40
0.0007104771956443
 40
0.0007104771956443
 40
0.0007104771956443
 40
0.0007104771956443
 10
3.917187284486915
 20
6.477007694857018
 30
0.0
 10
3.93029796710325
 20
6.463746980473918
 30
0.0
 10
3.943423466973714
 20
6.450500911434872
 30
0.0
 10
3.956557363227072
 20
6.437263188298984
 30
0.0
  0
CIRCLE
  5
1B3
330
1F
100
AcDbEntity
  8
0
  6
HIDDEN
 62
     7
100
AcDbCircle
 10
3.6612817727
 20
6.2597048952
 30
0.0
 40
0.0787401574803157
  0
ARC
  5
1B4
330
1F
100
AcDbEntity
  8
0
  6
HIDDEN
 62
     7
100
AcDbCircle
 10
2.9919904341
 20
6.2597048952
 30
0.0
 40
0.1771653543307088
100
AcDbArc
 50
6.0646672913
 51
173.9353327087
  0
CIRCLE
  5
1B5
330
1F
100
AcDbEntity
  8
0
  6
HIDDEN
 62
     7
100
AcDbCircle
 10
2.9919904341
 20
6.2597048952
 30
0.0
 40
0.0787401574803157
  0
LINE
  5
1B6
330
1F
100
AcDbEntity
  8
0
  6
CONTINUOUS
 62
     7
100
AcDbLine
 10
8.5909507154
 20
6.0969256468
 30
0.0
 11
8.6187850404
 21
6.1129992846
 31
0.0
  0
LINE
  5
1B7
330
1F
100
AcDbEntity
  8
0
  6
CONTINUOUS
 62
     7
100
AcDbLine
 10
9.0362999163
 20
6.8362346266
 30
0.0
 11
9.0362999163
 21
6.8683766782
 31
0.0
  0
LINE
  5
1B8
330
1F
100
AcDbEntity
  8
0
  6
CONTINUOUS
 62
     7
100
AcDbLine
 10
8.1603778819
 20
6.1324121634
 30
0.0
 11
8.275943288
 21
6.0656976746
 31
0.0
  0
LINE
  5
1B9
330
1F
100
AcDbEntity
  8
0
  6
CONTINUOUS
 62
     7
100
AcDbLine
 10
7.6868655394
 20
6.4057650203
 30
0.0
 11
8.0298555469
 21
6.2077611036
 31
0.0
  0
LINE
  5
1BA
330
1F
100
AcDbEntity
  8
0
  6
CONTINUOUS
 62
     7
100
AcDbLine
 10
7.4407777984
 20
6.5478284493
 30
0.0
 11
7.5563432044
 21
6.4811139604
 31
0.0
  0
LINE
  5
1BB
330
1F
100
AcDbEntity
  8
0
  6
CONTINUOUS
 62
     7
100
AcDbLine
 10
8.9058133558
 20
7.1567828555
 30
0.0
 11
8.0706478662
 21
7.6389136302
 31
0.0
  0
LINE
  5
1BC
330
1F
100
AcDbEntity
  8
0
  6
CONTINUOUS
 62
     7
100
AcDbLine
 10
7.7556404387
 20
7.607685658
 30
0.0
 11
7.7278061137
 21
7.5916120202
 31
0.0
  0
SPLINE
  5
1BD
330
1F
100
AcDbEntity
  8
0
  6
CONTINUOUS
 62
     7
100
AcDbSpline
210
0.0
220
0.0
230
1.0
 70
     8
 71
     3
 72
    41
 73
    37
 74
     0
 42
0.00000001
 43
0.00000001
 40
0.0
 40
0.0
 40
0.0
 40
0.0
 40
0.0238745412456172
 40
0.0521172347352025
 40
0.0808549448818407
 40
0.1101249594450607
 40
0.1398794286546206
 40
0.1700085630474052
 40
0.2003791902610949
 40
0.2308704104148569
 40
0.2613832829989035
 40
0.2918609002267452
 40
0.3222830181835861
 40
0.3526455471447732
 40
0.3829540769032622
 40
0.413219613150034
 40
0.4434560373302338
 40
0.4736787080799254
 40
0.5039037469069545
 40
0.534143617843812
 40
0.5644136598563729
 40
0.5947306283224356
 40
0.6251107921802942
 40
0.6555689413390817
 40
0.6861164686896274
 40
0.7167579233544504
 40
0.7474852732768066
 40
0.7782692655811732
 40
0.8090198084823186
 40
0.8396194319536628
 40
0.8699151770560323
 40
0.8997492946176177
 40
0.9290099586997173
 40
0.9576763923924622
 40
0.9858325758209925
 40
1.0
 40
1.0
 40
1.0
 40
1.0
 10
8.291995048968674
 20
6.97246452317334
 30
0.0
 10
8.291041888953762
 20
6.975173084134744
 30
0.0
 10
8.288961176125548
 20
6.981085771878894
 30
0.0
 10
8.284226879184285
 20
6.989814053016123
 30
0.0
 10
8.278129844268575
 20
6.998694827591537
 30
0.0
 10
8.270757201236675
 20
7.007201369187552
 30
0.0
 10
8.262189518738763
 20
7.015277707202794
 30
0.0
 10
8.252474704352705
 20
7.02284753629164
 30
0.0
 10
8.2417007380075
 20
7.029840823013618
 30
0.0
 10
8.229969540627632
 20
7.036195267722888
 30
0.0
 10
8.217393118527408
 20
7.041861522331584
 30
0.0
 10
8.204084367916407
 20
7.046802712389996
 30
0.0
 10
8.190153085179826
 20
7.050992001756359
 30
0.0
 10
8.175706649516945
 20
7.054409197723709
 30
0.0
 10
8.160852417726652
 20
7.057038652191882
 30
0.0
 10
8.145698270766792
 20
7.058868607272778
 30
0.0
 10
8.130352801569876
 20
7.059890971526785
 30
0.0
 10
8.114925147438864
 20
7.060101287081515
 30
0.0
 10
8.099525256006347
 20
7.059498758756693
 30
0.0
 10
8.08426282961299
 20
7.058086359337671
 30
0.0
 10
8.069246365134397
 20
7.055870702422054
 30
0.0
 10
8.054581871706322
 20
7.052861569253801
 30
0.0
 10
8.040372923267064
 20
7.049071478743576
 30
0.0
 10
8.026720778287386
 20
7.044515299821581
 30
0.0
 10
8.013724698345328
 20
7.039209953363317
 30
0.0
 10
8.00148285906002
 20
7.033174500907064
 30
0.0
 10
7.990093880818367
 20
7.026431085654096
 30
0.0
 10
7.979662042674197
 20
7.019009671384075
 30
0.0
 10
7.970295150627615
 20
7.010952428615379
 30
0.0
 10
7.962102440056307
 20
7.00232011994999
 30
0.0
 10
7.955181785122342
 20
6.993194260058496
 30
0.0
 10
7.949621453391315
 20
6.983678280301542
 30
0.0
 10
7.945447079057146
 20
6.973890204220889
 30
0.0
 10
7.942769565559952
 20
6.963950805104674
 30
0.0
 10
7.941483683605585
 20
6.955577689025236
 30
0.0
 10
7.94161262710941
 20
6.95056227671359
 30
0.0
 10
7.941655789718107
 20
6.948883415253798
 30
0.0
  0
LINE
  5
1BE
330
1F
100
AcDbEntity
  8
0
  6
CONTINUOUS
 62
     7
100
AcDbLine
 10
7.9414847575
 20
6.9493930085
 30
0.0
 11
7.9414847575
 21
6.8047302663
 31
0.0
  0
SPLINE
  5
1BF
330
1F
100
AcDbEntity
  8
0
  6
CONTINUOUS
 62
     7
100
AcDbSpline
210
0.0
220
0.0
230
1.0
 70
     8
 71
     3
 72
    41
 73
    37
 74
     0
 42
0.00000001
 43
0.00000001
 40
0.0
 40
0.0
 40
0.0
 40
0.0
 40
0.0225746379176457
 40
0.0509112019531616
 40
0.0797444279379503
 40
0.1091117275652699
 40
0.1389650920260806
 40
0.1691943669488386
 40
0.1996659373448018
 40
0.2302585014968987
 40
0.2608727900456962
 40
0.2914517060596798
 40
0.3219749383391352
 40
0.3524383835663473
 40
0.3828476501131279
 40
0.41321378025019
 40
0.44355070156059
 40
0.4738738237280566
 40
0.5041993218436643
 40
0.5345397013667463
 40
0.5649103522454587
 40
0.5953280855476362
 40
0.6258092242848157
 40
0.6563686075235163
 40
0.6870176660212342
 40
0.7177609640204619
 40
0.7485904427682192
 40
0.7794767521608859
 40
0.8103295009741863
 40
0.8410308287451468
 40
0.8714272681433041
 40
0.9013605456842317
 40
0.9307184637521339
 40
0.9594801763807097
 40
0.9877299428207456
 40
1.0
 40
1.0
 40
1.0
 40
1.0
 10
7.818558225686602
 20
7.246136372206808
 30
0.0
 10
7.817658027457854
 20
7.248688408265756
 30
0.0
 10
7.815627865379997
 20
7.254443859301685
 30
0.0
 10
7.810964157988041
 20
7.263020819749249
 30
0.0
 10
7.804870027107269
 20
7.271902451677673
 30
0.0
 10
7.797496584800833
 20
7.280408757305304
 30
0.0
 10
7.788929121773352
 20
7.288485160114406
 30
0.0
 10
7.77921424744315
 20
7.296054971506051
 30
0.0
 10
7.76844029736497
 20
7.303048263030514
 30
0.0
 10
7.756709095597318
 20
7.309402706444385
 30
0.0
 10
7.744132674674892
 20
7.315068961400803
 30
0.0
 10
7.730823923748694
 20
7.320010151366158
 30
0.0
 10
7.716892641096357
 20
7.324199440757392
 30
0.0
 10
7.702446205410967
 20
7.327616636718097
 30
0.0
 10
7.687591973626689
 20
7.330246091188045
 30
0.0
 10
7.672437826665221
 20
7.332076046268467
 30
0.0
 10
7.657092357468734
 20
7.333098410522601
 30
0.0
 10
7.641664703337613
 20
7.333308726077297
 30
0.0
 10
7.626264811905104
 20
7.332706197752485
 30
0.0
 10
7.611002385511819
 20
7.331293798333458
 30
0.0
 10
7.595985921032936
 20
7.329078141417849
 30
0.0
 10
7.581321427605951
 20
7.326069008249567
 30
0.0
 10
7.567112479162612
 20
7.32227891773945
 30
0.0
 10
7.553460334198232
 20
7.317722738817054
 30
0.0
 10
7.540464254198823
 20
7.312417392360291
 30
0.0
 10
7.528222415128516
 20
7.306381939898412
 30
0.0
 10
7.516833436081305
 20
7.299638524666524
 30
0.0
 10
7.506401600949452
 20
7.29221711031767
 30
0.0
 10
7.497034697686918
 20
7.284159867842503
 30
0.0
 10
7.488842028627592
 20
7.275527558090719
 30
0.0
 10
7.481921221188907
 20
7.266401702190373
 30
0.0
 10
7.476361445513287
 20
7.256885707881088
 30
0.0
 10
7.472185054556764
 20
7.247097684576746
 30
0.0
 10
7.469514846994441
 20
7.237158094259492
 30
0.0
 10
7.468242385091137
 20
7.229014130076769
 30
0.0
 10
7.468356733288968
 20
7.224228602841851
 30
0.0
 10
7.468391359770538
 20
7.222779467886156
 30
0.0
  0
LINE
  5
1C0
330
1F
100
AcDbEntity
  8
0
  6
CONTINUOUS
 62
     7
100
AcDbLine
 10
7.4682243134
 20
7.2226004475
 30
0.0
 11
7.4682243134
 21
7.0779377053
 31
0.0
  0
POLYLINE
  5
1C1
330
1F
100
AcDbEntity
  8
0
  6
CONTINUOUS
 62
     7
100
AcDb2dPolyline
 66
     1
 10
0.0
 20
0.0
 30
0.0
  0
VERTEX
  5
20C
330
1C1
100
AcDbEntity
  8
0
  6
CONTINUOUS
 62
     7
100
AcDbVertex
100
AcDb2dVertex
 10
8.2016567318
 20
6.3302949151
 30
0.0
  0
VERTEX
  5
20D
330
1C1
100
AcDbEntity
  8
0
  6
CONTINUOUS
 62
     7
100
AcDbVertex
100
AcDb2dVertex
 10
8.2032327215
 20
6.3070352936
 30
0.0
  0
VERTEX
  5
20E
330
1C1
100
AcDbEntity
  8
0
  6
CONTINUOUS
 62
     7
100
AcDbVertex
100
AcDb2dVertex
 10
8.2058584271
 20
6.2845036385
 30
0.0
  0
VERTEX
  5
20F
330
1C1
100
AcDbEntity
  8
0
  6
CONTINUOUS
 62
     7
100
AcDbVertex
100
AcDb2dVertex
 10
8.2095272148
 20
6.2627568759
 30
0.0
  0
VERTEX
  5
210
330
1C1
100
AcDbEntity
  8
0
  6
CONTINUOUS
 62
     7
100
AcDbVertex
100
AcDb2dVertex
 10
8.2142298154
 20
6.2418499487
 30
0.0
  0
VERTEX
  5
211
330
1C1
100
AcDbEntity
  8
0
  6
CONTINUOUS
 62
     7
100
AcDbVertex
100
AcDb2dVertex
 10
8.2199543478
 20
6.2218356779
 30
0.0
  0
VERTEX
  5
212
330
1C1
100
AcDbEntity
  8
0
  6
CONTINUOUS
 62
     7
100
AcDbVertex
100
AcDb2dVertex
 10
8.2266863491
 20
6.2027646293
 30
0.0
  0
VERTEX
  5
213
330
1C1
100
AcDbEntity
  8
0
  6
CONTINUOUS
 62
     7
100
AcDbVertex
100
AcDb2dVertex
 10
8.234408811
 20
6.1846849856
 30
0.0
  0
VERTEX
  5
214
330
1C1
100
AcDbEntity
  8
0
  6
CONTINUOUS
 62
     7
100
AcDbVertex
100
AcDb2dVertex
 10
8.2431022228
 20
6.1676424249
 30
0.0
  0
VERTEX
  5
215
330
1C1
100
AcDbEntity
  8
0
  6
CONTINUOUS
 62
     7
100
AcDbVertex
100
AcDb2dVertex
 10
8.2527446206
 20
6.1516800049
 30
0.0
  0
VERTEX
  5
216
330
1C1
100
AcDbEntity
  8
0
  6
CONTINUOUS
 62
     7
100
AcDbVertex
100
AcDb2dVertex
 10
8.2633116432
 20
6.1368380545
 30
0.0
  0
VERTEX
  5
217
330
1C1
100
AcDbEntity
  8
0
  6
CONTINUOUS
 62
     7
100
AcDbVertex
100
AcDb2dVertex
 10
8.2747765931
 20
6.1231540716
 30
0.0
  0
VERTEX
  5
218
330
1C1
100
AcDbEntity
  8
0
  6
CONTINUOUS
 62
     7
100
AcDbVertex
100
AcDb2dVertex
 10
8.2871105042
 20
6.1106626287
 30
0.0
  0
VERTEX
  5
219
330
1C1
100
AcDbEntity
  8
0
  6
CONTINUOUS
 62
     7
100
AcDbVertex
100
AcDb2dVertex
 10
8.3002822151
 20
6.0993952852
 30
0.0
  0
VERTEX
  5
21A
330
1C1
100
AcDbEntity
  8
0
  6
CONTINUOUS
 62
     7
100
AcDbVertex
100
AcDb2dVertex
 10
8.3142584476
 20
6.0893805079
 30
0.0
  0
VERTEX
  5
21B
330
1C1
100
AcDbEntity
  8
0
  6
CONTINUOUS
 62
     7
100
AcDbVertex
100
AcDb2dVertex
 10
8.329003891
 20
6.080643599
 30
0.0
  0
VERTEX
  5
21C
330
1C1
100
AcDbEntity
  8
0
  6
CONTINUOUS
 62
     7
100
AcDbVertex
100
AcDb2dVertex
 10
8.344481291
 20
6.0732066323
 30
0.0
  0
VERTEX
  5
21D
330
1C1
100
AcDbEntity
  8
0
  6
CONTINUOUS
 62
     7
100
AcDbVertex
100
AcDb2dVertex
 10
8.3606515443
 20
6.067088397
 30
0.0
  0
VERTEX
  5
21E
330
1C1
100
AcDbEntity
  8
0
  6
CONTINUOUS
 62
     7
100
AcDbVertex
100
AcDb2dVertex
 10
8.377473797
 20
6.0623043508
 30
0.0
  0
VERTEX
  5
21F
330
1C1
100
AcDbEntity
  8
0
  6
CONTINUOUS
 62
     7
100
AcDbVertex
100
AcDb2dVertex
 10
8.3949055477
 20
6.0588665806
 30
0.0
  0
VERTEX
  5
220
330
1C1
100
AcDbEntity
  8
0
  6
CONTINUOUS
 62
     7
100
AcDbVertex
100
AcDb2dVertex
 10
8.4129027555
 20
6.0567837718
 30
0.0
  0
VERTEX
  5
221
330
1C1
100
AcDbEntity
  8
0
  6
CONTINUOUS
 62
     7
100
AcDbVertex
100
AcDb2dVertex
 10
8.4314199507
 20
6.0560611866
 30
0.0
  0
VERTEX
  5
222
330
1C1
100
AcDbEntity
  8
0
  6
CONTINUOUS
 62
     7
100
AcDbVertex
100
AcDb2dVertex
 10
8.4504103498
 20
6.0567006507
 30
0.0
  0
VERTEX
  5
223
330
1C1
100
AcDbEntity
  8
0
  6
CONTINUOUS
 62
     7
100
AcDbVertex
100
AcDb2dVertex
 10
8.4698259738
 20
6.0587005483
 30
0.0
  0
VERTEX
  5
224
330
1C1
100
AcDbEntity
  8
0
  6
CONTINUOUS
 62
     7
100
AcDbVertex
100
AcDb2dVertex
 10
8.4896177693
 20
6.0620558269
 30
0.0
  0
VERTEX
  5
225
330
1C1
100
AcDbEntity
  8
0
  6
CONTINUOUS
 62
     7
100
AcDbVertex
100
AcDb2dVertex
 10
8.5097357328
 20
6.0667580094
 30
0.0
  0
VERTEX
  5
226
330
1C1
100
AcDbEntity
  8
0
  6
CONTINUOUS
 62
     7
100
AcDbVertex
100
AcDb2dVertex
 10
8.5301290364
 20
6.0727952157
 30
0.0
  0
VERTEX
  5
227
330
1C1
100
AcDbEntity
  8
0
  6
CONTINUOUS
 62
     7
100
AcDbVertex
100
AcDb2dVertex
 10
8.5507461568
 20
6.0801521929
 30
0.0
  0
VERTEX
  5
228
330
1C1
100
AcDbEntity
  8
0
  6
CONTINUOUS
 62
     7
100
AcDbVertex
100
AcDb2dVertex
 10
8.571535005
 20
6.0888103537
 30
0.0
  0
VERTEX
  5
229
330
1C1
100
AcDbEntity
  8
0
  6
CONTINUOUS
 62
     7
100
AcDbVertex
100
AcDb2dVertex
 10
8.5924430583
 20
6.0987478234
 30
0.0
  0
VERTEX
  5
22A
330
1C1
100
AcDbEntity
  8
0
  6
CONTINUOUS
 62
     7
100
AcDbVertex
100
AcDb2dVertex
 10
8.6134174928
 20
6.1099394952
 30
0.0
  0
VERTEX
  5
22B
330
1C1
100
AcDbEntity
  8
0
  6
CONTINUOUS
 62
     7
100
AcDbVertex
100
AcDb2dVertex
 10
8.6344053168
 20
6.1223570933
 30
0.0
  0
VERTEX
  5
22C
330
1C1
100
AcDbEntity
  8
0
  6
CONTINUOUS
 62
     7
100
AcDbVertex
100
AcDb2dVertex
 10
8.655353505
 20
6.135969245
 30
0.0
  0
VERTEX
  5
22D
330
1C1
100
AcDbEntity
  8
0
  6
CONTINUOUS
 62
     7
100
AcDbVertex
100
AcDb2dVertex
 10
8.676209132
 20
6.1507415592
 30
0.0
  0
VERTEX
  5
22E
330
1C1
100
AcDbEntity
  8
0
  6
CONTINUOUS
 62
     7
100
AcDbVertex
100
AcDb2dVertex
 10
8.6969195063
 20
6.166636714
 30
0.0
  0
VERTEX
  5
22F
330
1C1
100
AcDbEntity
  8
0
  6
CONTINUOUS
 62
     7
100
AcDbVertex
100
AcDb2dVertex
 10
8.7174323035
 20
6.1836145504
 30
0.0
  0
VERTEX
  5
230
330
1C1
100
AcDbEntity
  8
0
  6
CONTINUOUS
 62
     7
100
AcDbVertex
100
AcDb2dVertex
 10
8.7376956982
 20
6.2016321742
 30
0.0
  0
VERTEX
  5
231
330
1C1
100
AcDbEntity
  8
0
  6
CONTINUOUS
 62
     7
100
AcDbVertex
100
AcDb2dVertex
 10
8.7576584953
 20
6.2206440641
 30
0.0
  0
VERTEX
  5
232
330
1C1
100
AcDbEntity
  8
0
  6
CONTINUOUS
 62
     7
100
AcDbVertex
100
AcDb2dVertex
 10
8.777270259
 20
6.2406021868
 30
0.0
  0
VERTEX
  5
233
330
1C1
100
AcDbEntity
  8
0
  6
CONTINUOUS
 62
     7
100
AcDbVertex
100
AcDb2dVertex
 10
8.7964814404
 20
6.2614561184
 30
0.0
  0
VERTEX
  5
234
330
1C1
100
AcDbEntity
  8
0
  6
CONTINUOUS
 62
     7
100
AcDbVertex
100
AcDb2dVertex
 10
8.8152435028
 20
6.2831531716
 30
0.0
  0
VERTEX
  5
235
330
1C1
100
AcDbEntity
  8
0
  6
CONTINUOUS
 62
     7
100
AcDbVertex
100
AcDb2dVertex
 10
8.8335090441
 20
6.3056385293
 30
0.0
  0
VERTEX
  5
236
330
1C1
100
AcDbEntity
  8
0
  6
CONTINUOUS
 62
     7
100
AcDbVertex
100
AcDb2dVertex
 10
8.8512319167
 20
6.3288553824
 30
0.0
  0
VERTEX
  5
237
330
1C1
100
AcDbEntity
  8
0
  6
CONTINUOUS
 62
     7
100
AcDbVertex
100
AcDb2dVertex
 10
8.8683673438
 20
6.3527450738
 30
0.0
  0
VERTEX
  5
238
330
1C1
100
AcDbEntity
  8
0
  6
CONTINUOUS
 62
     7
100
AcDbVertex
100
AcDb2dVertex
 10
8.8848720332
 20
6.3772472467
 30
0.0
  0
VERTEX
  5
239
330
1C1
100
AcDbEntity
  8
0
  6
CONTINUOUS
 62
     7
100
AcDbVertex
100
AcDb2dVertex
 10
8.9007042859
 20
6.4022999965
 30
0.0
  0
VERTEX
  5
23A
330
1C1
100
AcDbEntity
  8
0
  6
CONTINUOUS
 62
     7
100
AcDbVertex
100
AcDb2dVertex
 10
8.915824102
 20
6.4278400278
 30
0.0
  0
VERTEX
  5
23B
330
1C1
100
AcDbEntity
  8
0
  6
CONTINUOUS
 62
     7
100
AcDbVertex
100
AcDb2dVertex
 10
8.9301932814
 20
6.4538028142
 30
0.0
  0
VERTEX
  5
23C
330
1C1
100
AcDbEntity
  8
0
  6
CONTINUOUS
 62
     7
100
AcDbVertex
100
AcDb2dVertex
 10
8.9437755206
 20
6.4801227609
 30
0.0
  0
VERTEX
  5
23D
330
1C1
100
AcDbEntity
  8
0
  6
CONTINUOUS
 62
     7
100
AcDbVertex
100
AcDb2dVertex
 10
8.9565365043
 20
6.506733371
 30
0.0
  0
VERTEX
  5
23E
330
1C1
100
AcDbEntity
  8
0
  6
CONTINUOUS
 62
     7
100
AcDbVertex
100
AcDb2dVertex
 10
8.968443992
 20
6.5335674131
 30
0.0
  0
VERTEX
  5
23F
330
1C1
100
AcDbEntity
  8
0
  6
CONTINUOUS
 62
     7
100
AcDbVertex
100
AcDb2dVertex
 10
8.9794678996
 20
6.5605570914
 30
0.0
  0
VERTEX
  5
240
330
1C1
100
AcDbEntity
  8
0
  6
CONTINUOUS
 62
     7
100
AcDbVertex
100
AcDb2dVertex
 10
8.9895803754
 20
6.5876342168
 30
0.0
  0
VERTEX
  5
241
330
1C1
100
AcDbEntity
  8
0
  6
CONTINUOUS
 62
     7
100
AcDbVertex
100
AcDb2dVertex
 10
8.9987558702
 20
6.6147303794
 30
0.0
  0
VERTEX
  5
242
330
1C1
100
AcDbEntity
  8
0
  6
CONTINUOUS
 62
     7
100
AcDbVertex
100
AcDb2dVertex
 10
9.0069712024
 20
6.641777121
 30
0.0
  0
VERTEX
  5
243
330
1C1
100
AcDbEntity
  8
0
  6
CONTINUOUS
 62
     7
100
AcDbVertex
100
AcDb2dVertex
 10
9.0142056161
 20
6.6687061084
 30
0.0
  0
VERTEX
  5
244
330
1C1
100
AcDbEntity
  8
0
  6
CONTINUOUS
 62
     7
100
AcDbVertex
100
AcDb2dVertex
 10
9.0204408335
 20
6.6954493059
 30
0.0
  0
VERTEX
  5
245
330
1C1
100
AcDbEntity
  8
0
  6
CONTINUOUS
 62
     7
100
AcDbVertex
100
AcDb2dVertex
 10
9.0256611015
 20
6.7219391472
 30
0.0
  0
VERTEX
  5
246
330
1C1
100
AcDbEntity
  8
0
  6
CONTINUOUS
 62
     7
100
AcDbVertex
100
AcDb2dVertex
 10
9.0298532312
 20
6.748108706
 30
0.0
  0
VERTEX
  5
247
330
1C1
100
AcDbEntity
  8
0
  6
CONTINUOUS
 62
     7
100
AcDbVertex
100
AcDb2dVertex
 10
9.0330066312
 20
6.7738918653
 30
0.0
  0
VERTEX
  5
248
330
1C1
100
AcDbEntity
  8
0
  6
CONTINUOUS
 62
     7
100
AcDbVertex
100
AcDb2dVertex
 10
9.0351133344
 20
6.7992234843
 30
0.0
  0
VERTEX
  5
249
330
1C1
100
AcDbEntity
  8
0
  6
CONTINUOUS
 62
     7
100
AcDbVertex
100
AcDb2dVertex
 10
9.0361680183
 20
6.824039563
 30
0.0
  0
VERTEX
  5
24A
330
1C1
100
AcDbEntity
  8
0
  6
CONTINUOUS
 62
     7
100
AcDbVertex
100
AcDb2dVertex
 10
9.0361680183
 20
6.848277404
 30
0.0
  0
VERTEX
  5
24B
330
1C1
100
AcDbEntity
  8
0
  6
CONTINUOUS
 62
     7
100
AcDbVertex
100
AcDb2dVertex
 10
9.0351133344
 20
6.8718757705
 30
0.0
  0
VERTEX
  5
24C
330
1C1
100
AcDbEntity
  8
0
  6
CONTINUOUS
 62
     7
100
AcDbVertex
100
AcDb2dVertex
 10
9.0330066312
 20
6.8947750418
 30
0.0
  0
VERTEX
  5
24D
330
1C1
100
AcDbEntity
  8
0
  6
CONTINUOUS
 62
     7
100
AcDbVertex
100
AcDb2dVertex
 10
9.0298532312
 20
6.916917363
 30
0.0
  0
VERTEX
  5
24E
330
1C1
100
AcDbEntity
  8
0
  6
CONTINUOUS
 62
     7
100
AcDbVertex
100
AcDb2dVertex
 10
9.0256611015
 20
6.9382467919
 30
0.0
  0
VERTEX
  5
24F
330
1C1
100
AcDbEntity
  8
0
  6
CONTINUOUS
 62
     7
100
AcDbVertex
100
AcDb2dVertex
 10
9.0204408335
 20
6.95870944
 30
0.0
  0
VERTEX
  5
250
330
1C1
100
AcDbEntity
  8
0
  6
CONTINUOUS
 62
     7
100
AcDbVertex
100
AcDb2dVertex
 10
9.0142056161
 20
6.9782536087
 30
0.0
  0
VERTEX
  5
251
330
1C1
100
AcDbEntity
  8
0
  6
CONTINUOUS
 62
     7
100
AcDbVertex
100
AcDb2dVertex
 10
9.0069712024
 20
6.9968299199
 30
0.0
  0
VERTEX
  5
252
330
1C1
100
AcDbEntity
  8
0
  6
CONTINUOUS
 62
     7
100
AcDbVertex
100
AcDb2dVertex
 10
8.9987558702
 20
7.0143914408
 30
0.0
  0
VERTEX
  5
253
330
1C1
100
AcDbEntity
  8
0
  6
CONTINUOUS
 62
     7
100
AcDbVertex
100
AcDb2dVertex
 10
8.9895803754
 20
7.0308938025
 30
0.0
  0
VERTEX
  5
254
330
1C1
100
AcDbEntity
  8
0
  6
CONTINUOUS
 62
     7
100
AcDbVertex
100
AcDb2dVertex
 10
8.9794678996
 20
7.046295312
 30
0.0
  0
VERTEX
  5
255
330
1C1
100
AcDbEntity
  8
0
  6
CONTINUOUS
 62
     7
100
AcDbVertex
100
AcDb2dVertex
 10
8.968443992
 20
7.0605570575
 30
0.0
  0
VERTEX
  5
256
330
1C1
100
AcDbEntity
  8
0
  6
CONTINUOUS
 62
     7
100
AcDbVertex
100
AcDb2dVertex
 10
8.9565365043
 20
7.0736430069
 30
0.0
  0
VERTEX
  5
257
330
1C1
100
AcDbEntity
  8
0
  6
CONTINUOUS
 62
     7
100
AcDbVertex
100
AcDb2dVertex
 10
8.9437755206
 20
7.0855200989
 30
0.0
  0
VERTEX
  5
258
330
1C1
100
AcDbEntity
  8
0
  6
CONTINUOUS
 62
     7
100
AcDbVertex
100
AcDb2dVertex
 10
8.9301932814
 20
7.096158326
 30
0.0
  0
VERTEX
  5
259
330
1C1
100
AcDbEntity
  8
0
  6
CONTINUOUS
 62
     7
100
AcDbVertex
100
AcDb2dVertex
 10
8.915824102
 20
7.1055308109
 30
0.0
  0
VERTEX
  5
25A
330
1C1
100
AcDbEntity
  8
0
  6
CONTINUOUS
 62
     7
100
AcDbVertex
100
AcDb2dVertex
 10
8.9007042859
 20
7.1136138742
 30
0.0
  0
VERTEX
  5
25B
330
1C1
100
AcDbEntity
  8
0
  6
CONTINUOUS
 62
     7
100
AcDbVertex
100
AcDb2dVertex
 10
8.8848720332
 20
7.1203870942
 30
0.0
  0
VERTEX
  5
25C
330
1C1
100
AcDbEntity
  8
0
  6
CONTINUOUS
 62
     7
100
AcDbVertex
100
AcDb2dVertex
 10
8.8683673438
 20
7.1258333583
 30
0.0
  0
VERTEX
  5
25D
330
1C1
100
AcDbEntity
  8
0
  6
CONTINUOUS
 62
     7
100
AcDbVertex
100
AcDb2dVertex
 10
8.8512319167
 20
7.1299389066
 30
0.0
  0
VERTEX
  5
25E
330
1C1
100
AcDbEntity
  8
0
  6
CONTINUOUS
 62
     7
100
AcDbVertex
100
AcDb2dVertex
 10
8.8335090441
 20
7.1326933666
 30
0.0
  0
VERTEX
  5
25F
330
1C1
100
AcDbEntity
  8
0
  6
CONTINUOUS
 62
     7
100
AcDbVertex
100
AcDb2dVertex
 10
8.8152435028
 20
7.1340897792
 30
0.0
  0
VERTEX
  5
260
330
1C1
100
AcDbEntity
  8
0
  6
CONTINUOUS
 62
     7
100
AcDbVertex
100
AcDb2dVertex
 10
8.7964814404
 20
7.1341246163
 30
0.0
  0
VERTEX
  5
261
330
1C1
100
AcDbEntity
  8
0
  6
CONTINUOUS
 62
     7
100
AcDbVertex
100
AcDb2dVertex
 10
8.777270259
 20
7.1327977899
 30
0.0
  0
VERTEX
  5
262
330
1C1
100
AcDbEntity
  8
0
  6
CONTINUOUS
 62
     7
100
AcDbVertex
100
AcDb2dVertex
 10
8.7576584953
 20
7.1301126522
 30
0.0
  0
VERTEX
  5
263
330
1C1
100
AcDbEntity
  8
0
  6
CONTINUOUS
 62
     7
100
AcDbVertex
100
AcDb2dVertex
 10
8.7376956982
 20
7.1260759872
 30
0.0
  0
VERTEX
  5
264
330
1C1
100
AcDbEntity
  8
0
  6
CONTINUOUS
 62
     7
100
AcDbVertex
100
AcDb2dVertex
 10
8.7174323035
 20
7.1206979934
 30
0.0
  0
VERTEX
  5
265
330
1C1
100
AcDbEntity
  8
0
  6
CONTINUOUS
 62
     7
100
AcDbVertex
100
AcDb2dVertex
 10
8.6969195063
 20
7.1139922583
 30
0.0
  0
VERTEX
  5
266
330
1C1
100
AcDbEntity
  8
0
  6
CONTINUOUS
 62
     7
100
AcDbVertex
100
AcDb2dVertex
 10
8.676209132
 20
7.1059757239
 30
0.0
  0
VERTEX
  5
267
330
1C1
100
AcDbEntity
  8
0
  6
CONTINUOUS
 62
     7
100
AcDbVertex
100
AcDb2dVertex
 10
8.655353505
 20
7.0966686438
 30
0.0
  0
VERTEX
  5
268
330
1C1
100
AcDbEntity
  8
0
  6
CONTINUOUS
 62
     7
100
AcDbVertex
100
AcDb2dVertex
 10
8.6344053168
 20
7.0860945322
 30
0.0
  0
VERTEX
  5
269
330
1C1
100
AcDbEntity
  8
0
  6
CONTINUOUS
 62
     7
100
AcDbVertex
100
AcDb2dVertex
 10
8.6134174928
 20
7.0742801045
 30
0.0
  0
VERTEX
  5
26A
330
1C1
100
AcDbEntity
  8
0
  6
CONTINUOUS
 62
     7
100
AcDbVertex
100
AcDb2dVertex
 10
8.5924430583
 20
7.0612552096
 30
0.0
  0
VERTEX
  5
26B
330
1C1
100
AcDbEntity
  8
0
  6
CONTINUOUS
 62
     7
100
AcDbVertex
100
AcDb2dVertex
 10
8.571535005
 20
7.0470527548
 30
0.0
  0
VERTEX
  5
26C
330
1C1
100
AcDbEntity
  8
0
  6
CONTINUOUS
 62
     7
100
AcDbVertex
100
AcDb2dVertex
 10
8.5507461568
 20
7.0317086224
 30
0.0
  0
VERTEX
  5
26D
330
1C1
100
AcDbEntity
  8
0
  6
CONTINUOUS
 62
     7
100
AcDbVertex
100
AcDb2dVertex
 10
8.5301290364
 20
7.0152615792
 30
0.0
  0
VERTEX
  5
26E
330
1C1
100
AcDbEntity
  8
0
  6
CONTINUOUS
 62
     7
100
AcDbVertex
100
AcDb2dVertex
 10
8.5097357328
 20
6.9977531783
 30
0.0
  0
VERTEX
  5
26F
330
1C1
100
AcDbEntity
  8
0
  6
CONTINUOUS
 62
     7
100
AcDbVertex
100
AcDb2dVertex
 10
8.4896177693
 20
6.9792276545
 30
0.0
  0
VERTEX
  5
270
330
1C1
100
AcDbEntity
  8
0
  6
CONTINUOUS
 62
     7
100
AcDbVertex
100
AcDb2dVertex
 10
8.4698259738
 20
6.9597318123
 30
0.0
  0
VERTEX
  5
271
330
1C1
100
AcDbEntity
  8
0
  6
CONTINUOUS
 62
     7
100
AcDbVertex
100
AcDb2dVertex
 10
8.4504103498
 20
6.9393149077
 30
0.0
  0
VERTEX
  5
272
330
1C1
100
AcDbEntity
  8
0
  6
CONTINUOUS
 62
     7
100
AcDbVertex
100
AcDb2dVertex
 10
8.4314199507
 20
6.9180285237
 30
0.0
  0
VERTEX
  5
273
330
1C1
100
AcDbEntity
  8
0
  6
CONTINUOUS
 62
     7
100
AcDbVertex
100
AcDb2dVertex
 10
8.4129027555
 20
6.8959264401
 30
0.0
  0
VERTEX
  5
274
330
1C1
100
AcDbEntity
  8
0
  6
CONTINUOUS
 62
     7
100
AcDbVertex
100
AcDb2dVertex
 10
8.3949055477
 20
6.8730644975
 30
0.0
  0
VERTEX
  5
275
330
1C1
100
AcDbEntity
  8
0
  6
CONTINUOUS
 62
     7
100
AcDbVertex
100
AcDb2dVertex
 10
8.377473797
 20
6.8495004562
 30
0.0
  0
VERTEX
  5
276
330
1C1
100
AcDbEntity
  8
0
  6
CONTINUOUS
 62
     7
100
AcDbVertex
100
AcDb2dVertex
 10
8.3606515443
 20
6.8252938506
 30
0.0
  0
VERTEX
  5
277
330
1C1
100
AcDbEntity
  8
0
  6
CONTINUOUS
 62
     7
100
AcDbVertex
100
AcDb2dVertex
 10
8.344481291
 20
6.8005058382
 30
0.0
  0
VERTEX
  5
278
330
1C1
100
AcDbEntity
  8
0
  6
CONTINUOUS
 62
     7
100
AcDbVertex
100
AcDb2dVertex
 10
8.329003891
 20
6.7751990457
 30
0.0
  0
VERTEX
  5
279
330
1C1
100
AcDbEntity
  8
0
  6
CONTINUOUS
 62
     7
100
AcDbVertex
100
AcDb2dVertex
 10
8.3142584476
 20
6.7494374103
 30
0.0
  0
VERTEX
  5
27A
330
1C1
100
AcDbEntity
  8
0
  6
CONTINUOUS
 62
     7
100
AcDbVertex
100
AcDb2dVertex
 10
8.3002822151
 20
6.7232860184
 30
0.0
  0
VERTEX
  5
27B
330
1C1
100
AcDbEntity
  8
0
  6
CONTINUOUS
 62
     7
100
AcDbVertex
100
AcDb2dVertex
 10
8.2871105042
 20
6.6968109412
 30
0.0
  0
VERTEX
  5
27C
330
1C1
100
AcDbEntity
  8
0
  6
CONTINUOUS
 62
     7
100
AcDbVertex
100
AcDb2dVertex
 10
8.2747765931
 20
6.6700790677
 30
0.0
  0
VERTEX
  5
27D
330
1C1
100
AcDbEntity
  8
0
  6
CONTINUOUS
 62
     7
100
AcDbVertex
100
AcDb2dVertex
 10
8.2633116432
 20
6.6431579354
 30
0.0
  0
VERTEX
  5
27E
330
1C1
100
AcDbEntity
  8
0
  6
CONTINUOUS
 62
     7
100
AcDbVertex
100
AcDb2dVertex
 10
8.2527446206
 20
6.6161155604
 30
0.0
  0
VERTEX
  5
27F
330
1C1
100
AcDbEntity
  8
0
  6
CONTINUOUS
 62
     7
100
AcDbVertex
100
AcDb2dVertex
 10
8.2431022228
 20
6.5890202648
 30
0.0
  0
VERTEX
  5
280
330
1C1
100
AcDbEntity
  8
0
  6
CONTINUOUS
 62
     7
100
AcDbVertex
100
AcDb2dVertex
 10
8.234408811
 20
6.5619405045
 30
0.0
  0
VERTEX
  5
281
330
1C1
100
AcDbEntity
  8
0
  6
CONTINUOUS
 62
     7
100
AcDbVertex
100
AcDb2dVertex
 10
8.2266863491
 20
6.5349446961
 30
0.0
  0
VERTEX
  5
282
330
1C1
100
AcDbEntity
  8
0
  6
CONTINUOUS
 62
     7
100
AcDbVertex
100
AcDb2dVertex
 10
8.2199543478
 20
6.5081010442
 30
0.0
  0
VERTEX
  5
283
330
1C1
100
AcDbEntity
  8
0
  6
CONTINUOUS
 62
     7
100
AcDbVertex
100
AcDb2dVertex
 10
8.2142298154
 20
6.481477369
 30
0.0
  0
VERTEX
  5
284
330
1C1
100
AcDbEntity
  8
0
  6
CONTINUOUS
 62
     7
100
AcDbVertex
100
AcDb2dVertex
 10
8.2095272148
 20
6.4551409347
 30
0.0
  0
VERTEX
  5
285
330
1C1
100
AcDbEntity
  8
0
  6
CONTINUOUS
 62
     7
100
AcDbVertex
100
AcDb2dVertex
 10
8.2058584271
 20
6.42915828
 30
0.0
  0
VERTEX
  5
286
330
1C1
100
AcDbEntity
  8
0
  6
CONTINUOUS
 62
     7
100
AcDbVertex
100
AcDb2dVertex
 10
8.2032327215
 20
6.4035950498
 30
0.0
  0
VERTEX
  5
287
330
1C1
100
AcDbEntity
  8
0
  6
CONTINUOUS
 62
     7
100
AcDbVertex
100
AcDb2dVertex
 10
8.2016567318
 20
6.3785158292
 30
0.0
  0
SEQEND
  5
288
330
1C1
100
AcDbEntity
  8
0
  6
CONTINUOUS
 62
     7
  0
LINE
  5
1C2
330
1F
100
AcDbEntity
  8
0
  6
CONTINUOUS
 62
     7
100
AcDbLine
 10
8.2016567318
 20
6.3785158292
 30
0.0
 11
8.1459463513
 21
6.3784969628
 31
0.0
  0
POLYLINE
  5
1C3
330
1F
100
AcDbEntity
  8
0
  6
CONTINUOUS
 62
     7
100
AcDb2dPolyline
 66
     1
 10
0.0
 20
0.0
 30
0.0
  0
VERTEX
  5
289
330
1C3
100
AcDbEntity
  8
0
  6
CONTINUOUS
 62
     7
100
AcDbVertex
100
AcDb2dVertex
 10
8.1459463513
 20
6.3784969628
 30
0.0
  0
VERTEX
  5
28A
330
1C3
100
AcDbEntity
  8
0
  6
CONTINUOUS
 62
     7
100
AcDbVertex
100
AcDb2dVertex
 10
8.1474917865
 20
6.4043904168
 30
0.0
  0
VERTEX
  5
28B
330
1C3
100
AcDbEntity
  8
0
  6
CONTINUOUS
 62
     7
100
AcDbVertex
100
AcDb2dVertex
 10
8.1500901197
 20
6.4307750716
 30
0.0
  0
VERTEX
  5
28C
330
1C3
100
AcDbEntity
  8
0
  6
CONTINUOUS
 62
     7
100
AcDbVertex
100
AcDb2dVertex
 10
8.1537351809
 20
6.4575882723
 30
0.0
  0
VERTEX
  5
28D
330
1C3
100
AcDbEntity
  8
0
  6
CONTINUOUS
 62
     7
100
AcDbVertex
100
AcDb2dVertex
 10
8.158418314
 20
6.4847663462
 30
0.0
  0
VERTEX
  5
28E
330
1C3
100
AcDbEntity
  8
0
  6
CONTINUOUS
 62
     7
100
AcDbVertex
100
AcDb2dVertex
 10
8.1641283984
 20
6.5122447543
 30
0.0
  0
VERTEX
  5
28F
330
1C3
100
AcDbEntity
  8
0
  6
CONTINUOUS
 62
     7
100
AcDbVertex
100
AcDb2dVertex
 10
8.1708518743
 20
6.5399582444
 30
0.0
  0
VERTEX
  5
290
330
1C3
100
AcDbEntity
  8
0
  6
CONTINUOUS
 62
     7
100
AcDbVertex
100
AcDb2dVertex
 10
8.1785727756
 20
6.5678410059
 30
0.0
  0
VERTEX
  5
291
330
1C3
100
AcDbEntity
  8
0
  6
CONTINUOUS
 62
     7
100
AcDbVertex
100
AcDb2dVertex
 10
8.1872727679
 20
6.5958268266
 30
0.0
  0
VERTEX
  5
292
330
1C3
100
AcDbEntity
  8
0
  6
CONTINUOUS
 62
     7
100
AcDbVertex
100
AcDb2dVertex
 10
8.1969311914
 20
6.6238492491
 30
0.0
  0
VERTEX
  5
293
330
1C3
100
AcDbEntity
  8
0
  6
CONTINUOUS
 62
     7
100
AcDbVertex
100
AcDb2dVertex
 10
8.2075251106
 20
6.6518417294
 30
0.0
  0
VERTEX
  5
294
330
1C3
100
AcDbEntity
  8
0
  6
CONTINUOUS
 62
     7
100
AcDbVertex
100
AcDb2dVertex
 10
8.2190293683
 20
6.6797377945
 30
0.0
  0
VERTEX
  5
295
330
1C3
100
AcDbEntity
  8
0
  6
CONTINUOUS
 62
     7
100
AcDbVertex
100
AcDb2dVertex
 10
8.2314166457
 20
6.7074712003
 30
0.0
  0
VERTEX
  5
296
330
1C3
100
AcDbEntity
  8
0
  6
CONTINUOUS
 62
     7
100
AcDbVertex
100
AcDb2dVertex
 10
8.2446575271
 20
6.7349760891
 30
0.0
  0
VERTEX
  5
297
330
1C3
100
AcDbEntity
  8
0
  6
CONTINUOUS
 62
     7
100
AcDbVertex
100
AcDb2dVertex
 10
8.2587205697
 20
6.7621871458
 30
0.0
  0
VERTEX
  5
298
330
1C3
100
AcDbEntity
  8
0
  6
CONTINUOUS
 62
     7
100
AcDbVertex
100
AcDb2dVertex
 10
8.2735723784
 20
6.7890397531
 30
0.0
  0
VERTEX
  5
299
330
1C3
100
AcDbEntity
  8
0
  6
CONTINUOUS
 62
     7
100
AcDbVertex
100
AcDb2dVertex
 10
8.2891776849
 20
6.8154701446
 30
0.0
  0
VERTEX
  5
29A
330
1C3
100
AcDbEntity
  8
0
  6
CONTINUOUS
 62
     7
100
AcDbVertex
100
AcDb2dVertex
 10
8.3054994319
 20
6.841415557
 30
0.0
  0
VERTEX
  5
29B
330
1C3
100
AcDbEntity
  8
0
  6
CONTINUOUS
 62
     7
100
AcDbVertex
100
AcDb2dVertex
 10
8.3224988604
 20
6.8668143782
 30
0.0
  0
VERTEX
  5
29C
330
1C3
100
AcDbEntity
  8
0
  6
CONTINUOUS
 62
     7
100
AcDbVertex
100
AcDb2dVertex
 10
8.3401356024
 20
6.8916062945
 30
0.0
  0
VERTEX
  5
29D
330
1C3
100
AcDbEntity
  8
0
  6
CONTINUOUS
 62
     7
100
AcDbVertex
100
AcDb2dVertex
 10
8.3583677764
 20
6.9157324332
 30
0.0
  0
VERTEX
  5
29E
330
1C3
100
AcDbEntity
  8
0
  6
CONTINUOUS
 62
     7
100
AcDbVertex
100
AcDb2dVertex
 10
8.3771520869
 20
6.9391355025
 30
0.0
  0
VERTEX
  5
29F
330
1C3
100
AcDbEntity
  8
0
  6
CONTINUOUS
 62
     7
100
AcDbVertex
100
AcDb2dVertex
 10
8.3964439273
 20
6.9617599278
 30
0.0
  0
VERTEX
  5
2A0
330
1C3
100
AcDbEntity
  8
0
  6
CONTINUOUS
 62
     7
100
AcDbVertex
100
AcDb2dVertex
 10
8.4161974859
 20
6.9835519835
 30
0.0
  0
VERTEX
  5
2A1
330
1C3
100
AcDbEntity
  8
0
  6
CONTINUOUS
 62
     7
100
AcDbVertex
100
AcDb2dVertex
 10
8.4363658544
 20
7.0044599205
 30
0.0
  0
VERTEX
  5
2A2
330
1C3
100
AcDbEntity
  8
0
  6
CONTINUOUS
 62
     7
100
AcDbVertex
100
AcDb2dVertex
 10
8.4569011394
 20
7.0244340895
 30
0.0
  0
VERTEX
  5
2A3
330
1C3
100
AcDbEntity
  8
0
  6
CONTINUOUS
 62
     7
100
AcDbVertex
100
AcDb2dVertex
 10
8.4777545765
 20
7.0434270582
 30
0.0
  0
VERTEX
  5
2A4
330
1C3
100
AcDbEntity
  8
0
  6
CONTINUOUS
 62
     7
100
AcDbVertex
100
AcDb2dVertex
 10
8.4988766454
 20
7.0613937245
 30
0.0
  0
VERTEX
  5
2A5
330
1C3
100
AcDbEntity
  8
0
  6
CONTINUOUS
 62
     7
100
AcDbVertex
100
AcDb2dVertex
 10
8.5202171883
 20
7.0782914235
 30
0.0
  0
VERTEX
  5
2A6
330
1C3
100
AcDbEntity
  8
0
  6
CONTINUOUS
 62
     7
100
AcDbVertex
100
AcDb2dVertex
 10
8.5417255283
 20
7.0940800287
 30
0.0
  0
VERTEX
  5
2A7
330
1C3
100
AcDbEntity
  8
0
  6
CONTINUOUS
 62
     7
100
AcDbVertex
100
AcDb2dVertex
 10
8.5633505901
 20
7.1087220473
 30
0.0
  0
VERTEX
  5
2A8
330
1C3
100
AcDbEntity
  8
0
  6
CONTINUOUS
 62
     7
100
AcDbVertex
100
AcDb2dVertex
 10
8.5850410212
 20
7.1221827094
 30
0.0
  0
VERTEX
  5
2A9
330
1C3
100
AcDbEntity
  8
0
  6
CONTINUOUS
 62
     7
100
AcDbVertex
100
AcDb2dVertex
 10
8.6067453141
 20
7.1344300501
 30
0.0
  0
VERTEX
  5
2AA
330
1C3
100
AcDbEntity
  8
0
  6
CONTINUOUS
 62
     7
100
AcDbVertex
100
AcDb2dVertex
 10
8.628411928
 20
7.1454349862
 30
0.0
  0
VERTEX
  5
2AB
330
1C3
100
AcDbEntity
  8
0
  6
CONTINUOUS
 62
     7
100
AcDbVertex
100
AcDb2dVertex
 10
8.6499894119
 20
7.1551713844
 30
0.0
  0
VERTEX
  5
2AC
330
1C3
100
AcDbEntity
  8
0
  6
CONTINUOUS
 62
     7
100
AcDbVertex
100
AcDb2dVertex
 10
8.6714265262
 20
7.163616124
 30
0.0
  0
VERTEX
  5
2AD
330
1C3
100
AcDbEntity
  8
0
  6
CONTINUOUS
 62
     7
100
AcDbVertex
100
AcDb2dVertex
 10
8.6926723649
 20
7.1707491516
 30
0.0
  0
VERTEX
  5
2AE
330
1C3
100
AcDbEntity
  8
0
  6
CONTINUOUS
 62
     7
100
AcDbVertex
100
AcDb2dVertex
 10
8.713676476
 20
7.1765535284
 30
0.0
  0
VERTEX
  5
2AF
330
1C3
100
AcDbEntity
  8
0
  6
CONTINUOUS
 62
     7
100
AcDbVertex
100
AcDb2dVertex
 10
8.7343889817
 20
7.1810154711
 30
0.0
  0
VERTEX
  5
2B0
330
1C3
100
AcDbEntity
  8
0
  6
CONTINUOUS
 62
     7
100
AcDbVertex
100
AcDb2dVertex
 10
8.7547606965
 20
7.1841243839
 30
0.0
  0
VERTEX
  5
2B1
330
1C3
100
AcDbEntity
  8
0
  6
CONTINUOUS
 62
     7
100
AcDbVertex
100
AcDb2dVertex
 10
8.7747432441
 20
7.1858728842
 30
0.0
  0
VERTEX
  5
2B2
330
1C3
100
AcDbEntity
  8
0
  6
CONTINUOUS
 62
     7
100
AcDbVertex
100
AcDb2dVertex
 10
8.7942891727
 20
7.1862568199
 30
0.0
  0
VERTEX
  5
2B3
330
1C3
100
AcDbEntity
  8
0
  6
CONTINUOUS
 62
     7
100
AcDbVertex
100
AcDb2dVertex
 10
8.8133520671
 20
7.1852752792
 30
0.0
  0
VERTEX
  5
2B4
330
1C3
100
AcDbEntity
  8
0
  6
CONTINUOUS
 62
     7
100
AcDbVertex
100
AcDb2dVertex
 10
8.831886659
 20
7.1829305931
 30
0.0
  0
VERTEX
  5
2B5
330
1C3
100
AcDbEntity
  8
0
  6
CONTINUOUS
 62
     7
100
AcDbVertex
100
AcDb2dVertex
 10
8.8498489349
 20
7.1792283293
 30
0.0
  0
VERTEX
  5
2B6
330
1C3
100
AcDbEntity
  8
0
  6
CONTINUOUS
 62
     7
100
AcDbVertex
100
AcDb2dVertex
 10
8.8671962403
 20
7.1741772796
 30
0.0
  0
VERTEX
  5
2B7
330
1C3
100
AcDbEntity
  8
0
  6
CONTINUOUS
 62
     7
100
AcDbVertex
100
AcDb2dVertex
 10
8.8838873809
 20
7.1677894384
 30
0.0
  0
VERTEX
  5
2B8
330
1C3
100
AcDbEntity
  8
0
  6
CONTINUOUS
 62
     7
100
AcDbVertex
100
AcDb2dVertex
 10
8.8998827208
 20
7.160079975
 30
0.0
  0
VERTEX
  5
2B9
330
1C3
100
AcDbEntity
  8
0
  6
CONTINUOUS
 62
     7
100
AcDbVertex
100
AcDb2dVertex
 10
8.9151442763
 20
7.1510671966
 30
0.0
  0
VERTEX
  5
2BA
330
1C3
100
AcDbEntity
  8
0
  6
CONTINUOUS
 62
     7
100
AcDbVertex
100
AcDb2dVertex
 10
8.9296358061
 20
7.1407725058
 30
0.0
  0
VERTEX
  5
2BB
330
1C3
100
AcDbEntity
  8
0
  6
CONTINUOUS
 62
     7
100
AcDbVertex
100
AcDb2dVertex
 10
8.9433228977
 20
7.1292203489
 30
0.0
  0
VERTEX
  5
2BC
330
1C3
100
AcDbEntity
  8
0
  6
CONTINUOUS
 62
     7
100
AcDbVertex
100
AcDb2dVertex
 10
8.9561730486
 20
7.1164381588
 30
0.0
  0
VERTEX
  5
2BD
330
1C3
100
AcDbEntity
  8
0
  6
CONTINUOUS
 62
     7
100
AcDbVertex
100
AcDb2dVertex
 10
8.968155744
 20
7.1024562888
 30
0.0
  0
VERTEX
  5
2BE
330
1C3
100
AcDbEntity
  8
0
  6
CONTINUOUS
 62
     7
100
AcDbVertex
100
AcDb2dVertex
 10
8.9792425288
 20
7.0873079413
 30
0.0
  0
VERTEX
  5
2BF
330
1C3
100
AcDbEntity
  8
0
  6
CONTINUOUS
 62
     7
100
AcDbVertex
100
AcDb2dVertex
 10
8.9894070756
 20
7.0710290887
 30
0.0
  0
VERTEX
  5
2C0
330
1C3
100
AcDbEntity
  8
0
  6
CONTINUOUS
 62
     7
100
AcDbVertex
100
AcDb2dVertex
 10
8.9986252469
 20
7.053658388
 30
0.0
  0
VERTEX
  5
2C1
330
1C3
100
AcDbEntity
  8
0
  6
CONTINUOUS
 62
     7
100
AcDbVertex
100
AcDb2dVertex
 10
9.0068751525
 20
7.0352370888
 30
0.0
  0
VERTEX
  5
2C2
330
1C3
100
AcDbEntity
  8
0
  6
CONTINUOUS
 62
     7
100
AcDbVertex
100
AcDb2dVertex
 10
9.0141372016
 20
7.0158089358
 30
0.0
  0
VERTEX
  5
2C3
330
1C3
100
AcDbEntity
  8
0
  6
CONTINUOUS
 62
     7
100
AcDbVertex
100
AcDb2dVertex
 10
9.0203941493
 20
6.9954200645
 30
0.0
  0
VERTEX
  5
2C4
330
1C3
100
AcDbEntity
  8
0
  6
CONTINUOUS
 62
     7
100
AcDbVertex
100
AcDb2dVertex
 10
9.0256311373
 20
6.9741188918
 30
0.0
  0
VERTEX
  5
2C5
330
1C3
100
AcDbEntity
  8
0
  6
CONTINUOUS
 62
     7
100
AcDbVertex
100
AcDb2dVertex
 10
9.0298357295
 20
6.9519560009
 30
0.0
  0
VERTEX
  5
2C6
330
1C3
100
AcDbEntity
  8
0
  6
CONTINUOUS
 62
     7
100
AcDbVertex
100
AcDb2dVertex
 10
9.0329979414
 20
6.9289840216
 30
0.0
  0
VERTEX
  5
2C7
330
1C3
100
AcDbEntity
  8
0
  6
CONTINUOUS
 62
     7
100
AcDbVertex
100
AcDb2dVertex
 10
9.0351102637
 20
6.9052575047
 30
0.0
  0
VERTEX
  5
2C8
330
1C3
100
AcDbEntity
  8
0
  6
CONTINUOUS
 62
     7
100
AcDbVertex
100
AcDb2dVertex
 10
9.0361676803
 20
6.880832793
 30
0.0
  0
VERTEX
  5
2C9
330
1C3
100
AcDbEntity
  8
0
  6
CONTINUOUS
 62
     7
100
AcDbVertex
100
AcDb2dVertex
 10
9.0362999163
 20
6.8683766782
 30
0.0
  0
SEQEND
  5
2CA
330
1C3
100
AcDbEntity
  8
0
  6
CONTINUOUS
 62
     7
  0
ARC
  5
1C4
330
1F
100
AcDbEntity
  8
0
  6
CONTINUOUS
 62
     7
100
AcDbCircle
 10
8.4171311365
 20
6.3064396459
 30
0.0
 40
0.272230347004261
100
AcDbArc
 50
174.976767136
 51
309.6801963683
  0
LINE
  5
1C5
330
1F
100
AcDbEntity
  8
0
  6
CONTINUOUS
 62
     7
100
AcDbLine
 10
8.1459463513
 20
6.3302760487
 30
0.0
 11
8.2016567318
 21
6.3302949151
 31
0.0
  0
SPLINE
  5
1C6
330
1F
100
AcDbEntity
  8
0
  6
CONTINUOUS
 62
     7
100
AcDbSpline
210
0.0
220
0.0
230
1.0
 70
     8
 71
     3
 72
    19
 73
    15
 74
     0
 42
0.00000001
 43
0.00000001
 40
0.0
 40
0.0
 40
0.0
 40
0.0
 40
0.0506471708177296
 40
0.1034335342778511
 40
0.1539802904530745
 40
0.2056977229167646
 40
0.28902530638869
 40
0.3746116274005052
 40
0.4967163541207153
 40
0.6222910550294337
 40
0.746552915216384
 40
0.8744395193624176
 40
0.9692848491299311
 40
0.9999999999999999
 40
0.9999999999999999
 40
0.9999999999999999
 40
0.9999999999999999
 10
7.575792543555131
 20
6.479077710376177
 30
0.0
 10
7.573071213718967
 20
6.480604025826534
 30
0.0
 10
7.567513612803738
 20
6.483721123956686
 30
0.0
 10
7.560897187886522
 20
6.486850548301243
 30
0.0
 10
7.555612725804969
 20
6.488936526817366
 30
0.0
 10
7.550930329446033
 20
6.490267760212305
 30
0.0
 10
7.54763042155788
 20
6.490431159185936
 30
0.0
 10
7.546415684458937
 20
6.489042596153794
 30
0.0
 10
7.548802105575346
 20
6.485911074435494
 30
0.0
 10
7.555911440887285
 20
6.481114933781105
 30
0.0
 10
7.567381162479561
 20
6.475298454510774
 30
0.0
 10
7.582118579925218
 20
6.469112946976653
 30
0.0
 10
7.594867926571957
 20
6.46422252615877
 30
0.0
 10
7.602491677432225
 20
6.461452183922173
 30
0.0
 10
7.60435663252542
 20
6.460774490755288
 30
0.0
  0
SPLINE
  5
1C7
330
1F
100
AcDbEntity
  8
0
  6
CONTINUOUS
 62
     7
100
AcDbSpline
210
0.0
220
0.0
230
1.0
 70
     8
 71
     3
 72
    16
 73
    12
 74
     0
 42
0.00000001
 43
0.00000001
 40
0.0
 40
0.0
 40
0.0
 40
0.0
 40
0.0602123435858605
 40
0.2555155232968637
 40
0.4103739569493989
 40
0.5686335954959947
 40
0.6660793911645441
 40
0.7654814923834714
 40
0.8408535069601278
 40
0.9181613587100947
 40
1.0
 40
1.0
 40
1.0
 40
1.0
 10
7.686927906101185
 20
6.405874205364886
 30
0.0
 10
7.685051150510394
 20
6.406917027354077
 30
0.0
 10
7.677086999668174
 20
6.411342319418878
 30
0.0
 10
7.662722668649218
 20
6.420618794902274
 30
0.0
 10
7.644272259746089
 20
6.433012187521252
 30
0.0
 10
7.628540275413126
 20
6.443995103695842
 30
0.0
 10
7.614533117048126
 20
6.453789650937508
 30
0.0
 10
7.60360454977629
 20
6.46133634870607
 30
0.0
 10
7.593551218289221
 20
6.468070346079065
 30
0.0
 10
7.584367851400664
 20
6.473997388337604
 30
0.0
 10
7.57870472129038
 20
6.47735243112147
 30
0.0
 10
7.575792543555131
 20
6.479077710376177
 30
0.0
  0
SPLINE
  5
1C8
330
1F
100
AcDbEntity
  8
0
  6
CONTINUOUS
 62
     7
100
AcDbSpline
210
0.0
220
0.0
230
1.0
 70
     8
 71
     3
 72
    34
 73
    30
 74
     0
 42
0.00000001
 43
0.00000001
 40
0.0
 40
0.0
 40
0.0
 40
0.0
 40
0.0581183805828043
 40
0.1164144531448192
 40
0.1744938379203342
 40
0.2154656664339009
 40
0.2565265741961879
 40
0.2974455748295229
 40
0.3294232526968935
 40
0.3614790062089348
 40
0.3934214236022343
 40
0.4337709652076402
 40
0.4740935789801458
 40
0.5011007724998815
 40
0.5282077892946206
 40
0.5552039207254875
 40
0.591995565991272
 40
0.6287838051960587
 40
0.6640552806876541
 40
0.6993267380499593
 40
0.7342874209507037
 40
0.7692507083814576
 40
0.8044380246527935
 40
0.8396334420008917
 40
0.8759233591295399
 40
0.9122297572123337
 40
0.951541548692912
 40
0.9908784377977409
 40
1.0
 40
1.0
 40
1.0
 40
1.0
 10
8.106453697108705
 20
6.702697524736359
 30
0.0
 10
8.116542801124906
 20
6.712042778221949
 30
0.0
 10
8.13675185573017
 20
6.730761857506594
 30
0.0
 10
8.166475330606247
 20
6.762683697275088
 30
0.0
 10
8.192676844401467
 20
6.793524832146124
 30
0.0
 10
8.21525373704892
 20
6.822494654846037
 30
0.0
 10
8.234135111095267
 20
6.848947584028349
 30
0.0
 10
8.250401995880523
 20
6.874316125091949
 30
0.0
 10
8.26394590184392
 20
6.898211782990095
 30
0.0
 10
8.274863828688272
 20
6.92037959562695
 30
0.0
 10
8.284762394236859
 20
6.944639771650716
 30
0.0
 10
8.292435010307864
 20
6.970713814395217
 30
0.0
 10
8.296010829864462
 20
6.995071909660439
 30
0.0
 10
8.29581152305314
 20
7.015512513379035
 30
0.0
 10
8.293308098364312
 20
7.032274531802707
 30
0.0
 10
8.287810293338225
 20
7.049939012210539
 30
0.0
 10
8.278017266808517
 20
7.06767662385024
 30
0.0
 10
8.26322344595926
 20
7.084237925610994
 30
0.0
 10
8.24475827529021
 20
7.097502178862042
 30
0.0
 10
8.2235462048216
 20
7.107356969398509
 30
0.0
 10
8.19984947560407
 20
7.113589630145065
 30
0.0
 10
8.174461489385683
 20
7.116136409753694
 30
0.0
 10
8.148021449867013
 20
7.114672722581703
 30
0.0
 10
8.121098235445961
 20
7.109258684209247
 30
0.0
 10
8.094571888850977
 20
7.099684970651112
 30
0.0
 10
8.068390681131884
 20
7.085980565407214
 30
0.0
 10
8.043919201002835
 20
7.067939835354244
 30
0.0
 10
8.026582207773004
 20
7.052303104542887
 30
0.0
 10
8.018602171315539
 20
7.042299217279904
 30
0.0
 10
8.017100051520961
 20
7.040416138529504
 30
0.0
  0
LINE
  5
1C9
330
1F
100
AcDbEntity
  8
0
  6
CONTINUOUS
 62
     7
100
AcDbLine
 10
7.9417008543
 20
6.8161982597
 30
0.0
 11
7.9419050687
 21
6.7976894259
 31
0.0
  0
SPLINE
  5
1CA
330
1F
100
AcDbEntity
  8
0
  6
CONTINUOUS
 62
     7
100
AcDbSpline
210
0.0
220
0.0
230
1.0
 70
     8
 71
     3
 72
    15
 73
    11
 74
     0
 42
0.00000001
 43
0.00000001
 40
0.0
 40
0.0
 40
0.0
 40
0.0
 40
0.0820621708071165
 40
0.1675904146282824
 40
0.249489886445271
 40
0.3332861717662108
 40
0.4682994859832346
 40
0.6069725684126615
 40
0.8048153852707057
 40
1.0
 40
1.0
 40
1.0
 40
1.0
 10
8.049052987656363
 20
6.205870271380388
 30
0.0
 10
8.051975209679318
 20
6.204138631620569
 30
0.0
 10
8.057943080083499
 20
6.200602212555842
 30
0.0
 10
8.067756313644644
 20
6.194247029201651
 30
0.0
 10
8.077803062444504
 20
6.187482368581031
 30
0.0
 10
8.089851957551483
 20
6.179155378023289
 30
0.0
 10
8.103939152234332
 20
6.169278068840129
 30
0.0
 10
8.12180542328711
 20
6.15689011873338
 30
0.0
 10
8.141076035661397
 20
6.143954344168735
 30
0.0
 10
8.153981360993214
 20
6.136256250208233
 30
0.0
 10
8.160390381713913
 20
6.132433235876227
 30
0.0
  0
SPLINE
  5
1CB
330
1F
100
AcDbEntity
  8
0
  6
CONTINUOUS
 62
     7
100
AcDbSpline
210
0.0
220
0.0
230
1.0
 70
     8
 71
     3
 72
    20
 73
    16
 74
     0
 42
0.00000001
 43
0.00000001
 40
0.0
 40
0.0
 40
0.0
 40
0.0
 40
0.0238854643860077
 40
0.1064377221583397
 40
0.2038585495720152
 40
0.3032338237164113
 40
0.4208072524559081
 40
0.5411729377134991
 40
0.6366124564765132
 40
0.7341481436602405
 40
0.7942041549779885
 40
0.8554658407680767
 40
0.9019177428681288
 40
0.9495627047445625
 40
1.0
 40
1.0
 40
1.0
 40
1.0
 10
8.077677032290016
 20
6.1875383218717
 30
0.0
 10
8.076231086897387
 20
6.188064084861799
 30
0.0
 10
8.069787706460255
 20
6.190406974836927
 30
0.0
 10
8.059245243446702
 20
6.194412016624109
 30
0.0
 10
8.046521860616819
 20
6.199563427837778
 30
0.0
 10
8.035173196054021
 20
6.204761571937961
 30
0.0
 10
8.026271180898014
 20
6.209679951786998
 30
0.0
 10
8.021160444933217
 20
6.213648869946248
 30
0.0
 10
8.019714271442217
 20
6.216286228128064
 30
0.0
 10
8.021267950961153
 20
6.217276333622517
 30
0.0
 10
8.024916210570405
 20
6.21688095126325
 30
0.0
 10
8.029272575688802
 20
6.215603345141271
 30
0.0
 10
8.034774904304506
 20
6.213357353844914
 30
0.0
 10
8.041061739428265
 20
6.210353613199857
 30
0.0
 10
8.046339156784528
 20
6.207392815930548
 30
0.0
 10
8.049052987656363
 20
6.205870271380388
 30
0.0
  0
LINE
  5
1CC
330
1F
100
AcDbEntity
  8
0
  6
CONTINUOUS
 62
     7
100
AcDbLine
 10
7.7562024561
 20
6.6034913243
 30
0.0
 11
8.1459463513
 21
6.3784969628
 31
0.0
  0
POLYLINE
  5
1CD
330
1F
100
AcDbEntity
  8
0
  6
CONTINUOUS
 62
     7
100
AcDb2dPolyline
 66
     1
 10
0.0
 20
0.0
 30
0.0
  0
VERTEX
  5
2CB
330
1CD
100
AcDbEntity
  8
0
  6
CONTINUOUS
 62
     7
100
AcDbVertex
100
AcDb2dVertex
 10
7.7562024561
 20
6.6034913243
 30
0.0
  0
VERTEX
  5
2CC
330
1CD
100
AcDbEntity
  8
0
  6
CONTINUOUS
 62
     7
100
AcDbVertex
100
AcDb2dVertex
 10
7.7577733761
 20
6.6297053354
 30
0.0
  0
VERTEX
  5
2CD
330
1CD
100
AcDbEntity
  8
0
  6
CONTINUOUS
 62
     7
100
AcDbVertex
100
AcDb2dVertex
 10
7.7604230964
 20
6.6564218802
 30
0.0
  0
VERTEX
  5
2CE
330
1CD
100
AcDbEntity
  8
0
  6
CONTINUOUS
 62
     7
100
AcDbVertex
100
AcDb2dVertex
 10
7.7641451696
 20
6.6835759512
 30
0.0
  0
VERTEX
  5
2CF
330
1CD
100
AcDbEntity
  8
0
  6
CONTINUOUS
 62
     7
100
AcDbVertex
100
AcDb2dVertex
 10
7.768930539
 20
6.7111014761
 30
0.0
  0
VERTEX
  5
2D0
330
1CD
100
AcDbEntity
  8
0
  6
CONTINUOUS
 62
     7
100
AcDbVertex
100
AcDb2dVertex
 10
7.7747675607
 20
6.738931479
 30
0.0
  0
VERTEX
  5
2D1
330
1CD
100
AcDbEntity
  8
0
  6
CONTINUOUS
 62
     7
100
AcDbVertex
100
AcDb2dVertex
 10
7.7816420319
 20
6.766998243
 30
0.0
  0
VERTEX
  5
2D2
330
1CD
100
AcDbEntity
  8
0
  6
CONTINUOUS
 62
     7
100
AcDbVertex
100
AcDb2dVertex
 10
7.7895372254
 20
6.7952334752
 30
0.0
  0
VERTEX
  5
2D3
330
1CD
100
AcDbEntity
  8
0
  6
CONTINUOUS
 62
     7
100
AcDbVertex
100
AcDb2dVertex
 10
7.7984339304
 20
6.8235684727
 30
0.0
  0
VERTEX
  5
2D4
330
1CD
100
AcDbEntity
  8
0
  6
CONTINUOUS
 62
     7
100
AcDbVertex
100
AcDb2dVertex
 10
7.8083104992
 20
6.8519342899
 30
0.0
  0
VERTEX
  5
2D5
330
1CD
100
AcDbEntity
  8
0
  6
CONTINUOUS
 62
     7
100
AcDbVertex
100
AcDb2dVertex
 10
7.8191428996
 20
6.8802619061
 30
0.0
  0
VERTEX
  5
2D6
330
1CD
100
AcDbEntity
  8
0
  6
CONTINUOUS
 62
     7
100
AcDbVertex
100
AcDb2dVertex
 10
7.8309047741
 20
6.9084823938
 30
0.0
  0
VERTEX
  5
2D7
330
1CD
100
AcDbEntity
  8
0
  6
CONTINUOUS
 62
     7
100
AcDbVertex
100
AcDb2dVertex
 10
7.8435675032
 20
6.936527086
 30
0.0
  0
VERTEX
  5
2D8
330
1CD
100
AcDbEntity
  8
0
  6
CONTINUOUS
 62
     7
100
AcDbVertex
100
AcDb2dVertex
 10
7.8571002756
 20
6.9643277432
 30
0.0
  0
VERTEX
  5
2D9
330
1CD
100
AcDbEntity
  8
0
  6
CONTINUOUS
 62
     7
100
AcDbVertex
100
AcDb2dVertex
 10
7.8714701628
 20
6.9918167203
 30
0.0
  0
VERTEX
  5
2DA
330
1CD
100
AcDbEntity
  8
0
  6
CONTINUOUS
 62
     7
100
AcDbVertex
100
AcDb2dVertex
 10
7.8866421997
 20
7.01892713
 30
0.0
  0
VERTEX
  5
2DB
330
1CD
100
AcDbEntity
  8
0
  6
CONTINUOUS
 62
     7
100
AcDbVertex
100
AcDb2dVertex
 10
7.9025794692
 20
7.0455930064
 30
0.0
  0
VERTEX
  5
2DC
330
1CD
100
AcDbEntity
  8
0
  6
CONTINUOUS
 62
     7
100
AcDbVertex
100
AcDb2dVertex
 10
7.9192431921
 20
7.0717494654
 30
0.0
  0
VERTEX
  5
2DD
330
1CD
100
AcDbEntity
  8
0
  6
CONTINUOUS
 62
     7
100
AcDbVertex
100
AcDb2dVertex
 10
7.9365928218
 20
7.0973328621
 30
0.0
  0
VERTEX
  5
2DE
330
1CD
100
AcDbEntity
  8
0
  6
CONTINUOUS
 62
     7
100
AcDbVertex
100
AcDb2dVertex
 10
7.9545861425
 20
7.1222809462
 30
0.0
  0
VERTEX
  5
2DF
330
1CD
100
AcDbEntity
  8
0
  6
CONTINUOUS
 62
     7
100
AcDbVertex
100
AcDb2dVertex
 10
7.9731793725
 20
7.1465330133
 30
0.0
  0
VERTEX
  5
2E0
330
1CD
100
AcDbEntity
  8
0
  6
CONTINUOUS
 62
     7
100
AcDbVertex
100
AcDb2dVertex
 10
7.9923272699
 20
7.1700300525
 30
0.0
  0
VERTEX
  5
2E1
330
1CD
100
AcDbEntity
  8
0
  6
CONTINUOUS
 62
     7
100
AcDbVertex
100
AcDb2dVertex
 10
8.0119832437
 20
7.1927148899
 30
0.0
  0
VERTEX
  5
2E2
330
1CD
100
AcDbEntity
  8
0
  6
CONTINUOUS
 62
     7
100
AcDbVertex
100
AcDb2dVertex
 10
8.0320994661
 20
7.2145323281
 30
0.0
  0
VERTEX
  5
2E3
330
1CD
100
AcDbEntity
  8
0
  6
CONTINUOUS
 62
     7
100
AcDbVertex
100
AcDb2dVertex
 10
8.0526269898
 20
7.2354292803
 30
0.0
  0
VERTEX
  5
2E4
330
1CD
100
AcDbEntity
  8
0
  6
CONTINUOUS
 62
     7
100
AcDbVertex
100
AcDb2dVertex
 10
8.0735158665
 20
7.2553548993
 30
0.0
  0
VERTEX
  5
2E5
330
1CD
100
AcDbEntity
  8
0
  6
CONTINUOUS
 62
     7
100
AcDbVertex
100
AcDb2dVertex
 10
8.0947152688
 20
7.2742607015
 30
0.0
  0
VERTEX
  5
2E6
330
1CD
100
AcDbEntity
  8
0
  6
CONTINUOUS
 62
     7
100
AcDbVertex
100
AcDb2dVertex
 10
8.1161736136
 20
7.2921006845
 30
0.0
  0
VERTEX
  5
2E7
330
1CD
100
AcDbEntity
  8
0
  6
CONTINUOUS
 62
     7
100
AcDbVertex
100
AcDb2dVertex
 10
8.1378386878
 20
7.3088314398
 30
0.0
  0
VERTEX
  5
2E8
330
1CD
100
AcDbEntity
  8
0
  6
CONTINUOUS
 62
     7
100
AcDbVertex
100
AcDb2dVertex
 10
8.1596577752
 20
7.3244122573
 30
0.0
  0
VERTEX
  5
2E9
330
1CD
100
AcDbEntity
  8
0
  6
CONTINUOUS
 62
     7
100
AcDbVertex
100
AcDb2dVertex
 10
8.1815777849
 20
7.3388052254
 30
0.0
  0
VERTEX
  5
2EA
330
1CD
100
AcDbEntity
  8
0
  6
CONTINUOUS
 62
     7
100
AcDbVertex
100
AcDb2dVertex
 10
8.2035453804
 20
7.3519753227
 30
0.0
  0
VERTEX
  5
2EB
330
1CD
100
AcDbEntity
  8
0
  6
CONTINUOUS
 62
     7
100
AcDbVertex
100
AcDb2dVertex
 10
8.2255071096
 20
7.3638905032
 30
0.0
  0
VERTEX
  5
2EC
330
1CD
100
AcDbEntity
  8
0
  6
CONTINUOUS
 62
     7
100
AcDbVertex
100
AcDb2dVertex
 10
8.2474095343
 20
7.3745217745
 30
0.0
  0
VERTEX
  5
2ED
330
1CD
100
AcDbEntity
  8
0
  6
CONTINUOUS
 62
     7
100
AcDbVertex
100
AcDb2dVertex
 10
8.269199361
 20
7.3838432684
 30
0.0
  0
VERTEX
  5
2EE
330
1CD
100
AcDbEntity
  8
0
  6
CONTINUOUS
 62
     7
100
AcDbVertex
100
AcDb2dVertex
 10
8.2908235699
 20
7.3918323034
 30
0.0
  0
VERTEX
  5
2EF
330
1CD
100
AcDbEntity
  8
0
  6
CONTINUOUS
 62
     7
100
AcDbVertex
100
AcDb2dVertex
 10
8.3122295443
 20
7.3984694403
 30
0.0
  0
VERTEX
  5
2F0
330
1CD
100
AcDbEntity
  8
0
  6
CONTINUOUS
 62
     7
100
AcDbVertex
100
AcDb2dVertex
 10
8.3333651985
 20
7.4037385296
 30
0.0
  0
VERTEX
  5
2F1
330
1CD
100
AcDbEntity
  8
0
  6
CONTINUOUS
 62
     7
100
AcDbVertex
100
AcDb2dVertex
 10
8.3541791046
 20
7.4076267501
 30
0.0
  0
VERTEX
  5
2F2
330
1CD
100
AcDbEntity
  8
0
  6
CONTINUOUS
 62
     7
100
AcDbVertex
100
AcDb2dVertex
 10
8.3746206175
 20
7.4101246411
 30
0.0
  0
VERTEX
  5
2F3
330
1CD
100
AcDbEntity
  8
0
  6
CONTINUOUS
 62
     7
100
AcDbVertex
100
AcDb2dVertex
 10
8.3946399982
 20
7.4112261246
 30
0.0
  0
VERTEX
  5
2F4
330
1CD
100
AcDbEntity
  8
0
  6
CONTINUOUS
 62
     7
100
AcDbVertex
100
AcDb2dVertex
 10
8.414188535
 20
7.4109285204
 30
0.0
  0
VERTEX
  5
2F5
330
1CD
100
AcDbEntity
  8
0
  6
CONTINUOUS
 62
     7
100
AcDbVertex
100
AcDb2dVertex
 10
8.4332186617
 20
7.4092325526
 30
0.0
  0
VERTEX
  5
2F6
330
1CD
100
AcDbEntity
  8
0
  6
CONTINUOUS
 62
     7
100
AcDbVertex
100
AcDb2dVertex
 10
8.4516840736
 20
7.4061423479
 30
0.0
  0
SEQEND
  5
2F7
330
1CD
100
AcDbEntity
  8
0
  6
CONTINUOUS
 62
     7
  0
LINE
  5
1CE
330
1F
100
AcDbEntity
  8
0
  6
CONTINUOUS
 62
     7
100
AcDbLine
 10
8.3960063743
 20
7.4382843995
 30
0.0
 11
8.4516840736
 21
7.4061423479
 31
0.0
  0
POLYLINE
  5
1CF
330
1F
100
AcDbEntity
  8
0
  6
CONTINUOUS
 62
     7
100
AcDb2dPolyline
 66
     1
 10
0.0
 20
0.0
 30
0.0
  0
VERTEX
  5
2F8
330
1CF
100
AcDbEntity
  8
0
  6
CONTINUOUS
 62
     7
100
AcDbVertex
100
AcDb2dVertex
 10
8.3960063743
 20
7.4382843995
 30
0.0
  0
VERTEX
  5
2F9
330
1CF
100
AcDbEntity
  8
0
  6
CONTINUOUS
 62
     7
100
AcDbVertex
100
AcDb2dVertex
 10
8.3775409624
 20
7.4413746042
 30
0.0
  0
VERTEX
  5
2FA
330
1CF
100
AcDbEntity
  8
0
  6
CONTINUOUS
 62
     7
100
AcDbVertex
100
AcDb2dVertex
 10
8.3585108356
 20
7.443070572
 30
0.0
  0
VERTEX
  5
2FB
330
1CF
100
AcDbEntity
  8
0
  6
CONTINUOUS
 62
     7
100
AcDbVertex
100
AcDb2dVertex
 10
8.3389622989
 20
7.4433681763
 30
0.0
  0
VERTEX
  5
2FC
330
1CF
100
AcDbEntity
  8
0
  6
CONTINUOUS
 62
     7
100
AcDbVertex
100
AcDb2dVertex
 10
8.3189429181
 20
7.4422666928
 30
0.0
  0
VERTEX
  5
2FD
330
1CF
100
AcDbEntity
  8
0
  6
CONTINUOUS
 62
     7
100
AcDbVertex
100
AcDb2dVertex
 10
8.2985014053
 20
7.4397688018
 30
0.0
  0
VERTEX
  5
2FE
330
1CF
100
AcDbEntity
  8
0
  6
CONTINUOUS
 62
     7
100
AcDbVertex
100
AcDb2dVertex
 10
8.2776874992
 20
7.4358805812
 30
0.0
  0
VERTEX
  5
2FF
330
1CF
100
AcDbEntity
  8
0
  6
CONTINUOUS
 62
     7
100
AcDbVertex
100
AcDb2dVertex
 10
8.256551845
 20
7.430611492
 30
0.0
  0
VERTEX
  5
300
330
1CF
100
AcDbEntity
  8
0
  6
CONTINUOUS
 62
     7
100
AcDbVertex
100
AcDb2dVertex
 10
8.2351458706
 20
7.423974355
 30
0.0
  0
VERTEX
  5
301
330
1CF
100
AcDbEntity
  8
0
  6
CONTINUOUS
 62
     7
100
AcDbVertex
100
AcDb2dVertex
 10
8.2135216617
 20
7.41598532
 30
0.0
  0
VERTEX
  5
302
330
1CF
100
AcDbEntity
  8
0
  6
CONTINUOUS
 62
     7
100
AcDbVertex
100
AcDb2dVertex
 10
8.191731835
 20
7.4066638262
 30
0.0
  0
VERTEX
  5
303
330
1CF
100
AcDbEntity
  8
0
  6
CONTINUOUS
 62
     7
100
AcDbVertex
100
AcDb2dVertex
 10
8.1698294103
 20
7.3960325548
 30
0.0
  0
VERTEX
  5
304
330
1CF
100
AcDbEntity
  8
0
  6
CONTINUOUS
 62
     7
100
AcDbVertex
100
AcDb2dVertex
 10
8.1478676811
 20
7.3841173743
 30
0.0
  0
VERTEX
  5
305
330
1CF
100
AcDbEntity
  8
0
  6
CONTINUOUS
 62
     7
100
AcDbVertex
100
AcDb2dVertex
 10
8.1259000856
 20
7.3709472771
 30
0.0
  0
VERTEX
  5
306
330
1CF
100
AcDbEntity
  8
0
  6
CONTINUOUS
 62
     7
100
AcDbVertex
100
AcDb2dVertex
 10
8.1039800759
 20
7.3565543089
 30
0.0
  0
VERTEX
  5
307
330
1CF
100
AcDbEntity
  8
0
  6
CONTINUOUS
 62
     7
100
AcDbVertex
100
AcDb2dVertex
 10
8.0821609885
 20
7.3409734914
 30
0.0
  0
VERTEX
  5
308
330
1CF
100
AcDbEntity
  8
0
  6
CONTINUOUS
 62
     7
100
AcDbVertex
100
AcDb2dVertex
 10
8.0604959143
 20
7.3242427362
 30
0.0
  0
VERTEX
  5
309
330
1CF
100
AcDbEntity
  8
0
  6
CONTINUOUS
 62
     7
100
AcDbVertex
100
AcDb2dVertex
 10
8.0390375695
 20
7.3064027531
 30
0.0
  0
VERTEX
  5
30A
330
1CF
100
AcDbEntity
  8
0
  6
CONTINUOUS
 62
     7
100
AcDbVertex
100
AcDb2dVertex
 10
8.0178381672
 20
7.287496951
 30
0.0
  0
VERTEX
  5
30B
330
1CF
100
AcDbEntity
  8
0
  6
CONTINUOUS
 62
     7
100
AcDbVertex
100
AcDb2dVertex
 10
7.9969492905
 20
7.267571332
 30
0.0
  0
VERTEX
  5
30C
330
1CF
100
AcDbEntity
  8
0
  6
CONTINUOUS
 62
     7
100
AcDbVertex
100
AcDb2dVertex
 10
7.9764217668
 20
7.2466743798
 30
0.0
  0
VERTEX
  5
30D
330
1CF
100
AcDbEntity
  8
0
  6
CONTINUOUS
 62
     7
100
AcDbVertex
100
AcDb2dVertex
 10
7.9563055443
 20
7.2248569415
 30
0.0
  0
VERTEX
  5
30E
330
1CF
100
AcDbEntity
  8
0
  6
CONTINUOUS
 62
     7
100
AcDbVertex
100
AcDb2dVertex
 10
7.9366495706
 20
7.2021721041
 30
0.0
  0
VERTEX
  5
30F
330
1CF
100
AcDbEntity
  8
0
  6
CONTINUOUS
 62
     7
100
AcDbVertex
100
AcDb2dVertex
 10
7.9175016732
 20
7.178675065
 30
0.0
  0
VERTEX
  5
310
330
1CF
100
AcDbEntity
  8
0
  6
CONTINUOUS
 62
     7
100
AcDbVertex
100
AcDb2dVertex
 10
7.8989084432
 20
7.1544229979
 30
0.0
  0
VERTEX
  5
311
330
1CF
100
AcDbEntity
  8
0
  6
CONTINUOUS
 62
     7
100
AcDbVertex
100
AcDb2dVertex
 10
7.8809151224
 20
7.1294749138
 30
0.0
  0
VERTEX
  5
312
330
1CF
100
AcDbEntity
  8
0
  6
CONTINUOUS
 62
     7
100
AcDbVertex
100
AcDb2dVertex
 10
7.8635654928
 20
7.103891517
 30
0.0
  0
VERTEX
  5
313
330
1CF
100
AcDbEntity
  8
0
  6
CONTINUOUS
 62
     7
100
AcDbVertex
100
AcDb2dVertex
 10
7.8469017699
 20
7.0777350581
 30
0.0
  0
VERTEX
  5
314
330
1CF
100
AcDbEntity
  8
0
  6
CONTINUOUS
 62
     7
100
AcDbVertex
100
AcDb2dVertex
 10
7.8309645004
 20
7.0510691816
 30
0.0
  0
VERTEX
  5
315
330
1CF
100
AcDbEntity
  8
0
  6
CONTINUOUS
 62
     7
100
AcDbVertex
100
AcDb2dVertex
 10
7.8157924635
 20
7.0239587719
 30
0.0
  0
VERTEX
  5
316
330
1CF
100
AcDbEntity
  8
0
  6
CONTINUOUS
 62
     7
100
AcDbVertex
100
AcDb2dVertex
 10
7.8014225763
 20
6.9964697949
 30
0.0
  0
VERTEX
  5
317
330
1CF
100
AcDbEntity
  8
0
  6
CONTINUOUS
 62
     7
100
AcDbVertex
100
AcDb2dVertex
 10
7.7878898039
 20
6.9686691376
 30
0.0
  0
VERTEX
  5
318
330
1CF
100
AcDbEntity
  8
0
  6
CONTINUOUS
 62
     7
100
AcDbVertex
100
AcDb2dVertex
 10
7.7752270748
 20
6.9406244455
 30
0.0
  0
VERTEX
  5
319
330
1CF
100
AcDbEntity
  8
0
  6
CONTINUOUS
 62
     7
100
AcDbVertex
100
AcDb2dVertex
 10
7.7634652003
 20
6.9124039578
 30
0.0
  0
VERTEX
  5
31A
330
1CF
100
AcDbEntity
  8
0
  6
CONTINUOUS
 62
     7
100
AcDbVertex
100
AcDb2dVertex
 10
7.7526327999
 20
6.8840763415
 30
0.0
  0
VERTEX
  5
31B
330
1CF
100
AcDbEntity
  8
0
  6
CONTINUOUS
 62
     7
100
AcDbVertex
100
AcDb2dVertex
 10
7.7427562311
 20
6.8557105243
 30
0.0
  0
VERTEX
  5
31C
330
1CF
100
AcDbEntity
  8
0
  6
CONTINUOUS
 62
     7
100
AcDbVertex
100
AcDb2dVertex
 10
7.7338595261
 20
6.8273755268
 30
0.0
  0
VERTEX
  5
31D
330
1CF
100
AcDbEntity
  8
0
  6
CONTINUOUS
 62
     7
100
AcDbVertex
100
AcDb2dVertex
 10
7.7259643326
 20
6.7991402946
 30
0.0
  0
VERTEX
  5
31E
330
1CF
100
AcDbEntity
  8
0
  6
CONTINUOUS
 62
     7
100
AcDbVertex
100
AcDb2dVertex
 10
7.7190898614
 20
6.7710735306
 30
0.0
  0
VERTEX
  5
31F
330
1CF
100
AcDbEntity
  8
0
  6
CONTINUOUS
 62
     7
100
AcDbVertex
100
AcDb2dVertex
 10
7.7132528397
 20
6.7432435277
 30
0.0
  0
VERTEX
  5
320
330
1CF
100
AcDbEntity
  8
0
  6
CONTINUOUS
 62
     7
100
AcDbVertex
100
AcDb2dVertex
 10
7.7084674703
 20
6.7157180028
 30
0.0
  0
VERTEX
  5
321
330
1CF
100
AcDbEntity
  8
0
  6
CONTINUOUS
 62
     7
100
AcDbVertex
100
AcDb2dVertex
 10
7.7047453971
 20
6.6885639319
 30
0.0
  0
VERTEX
  5
322
330
1CF
100
AcDbEntity
  8
0
  6
CONTINUOUS
 62
     7
100
AcDbVertex
100
AcDb2dVertex
 10
7.7020956768
 20
6.6618473871
 30
0.0
  0
VERTEX
  5
323
330
1CF
100
AcDbEntity
  8
0
  6
CONTINUOUS
 62
     7
100
AcDbVertex
100
AcDb2dVertex
 10
7.7005247568
 20
6.635633376
 30
0.0
  0
SEQEND
  5
324
330
1CF
100
AcDbEntity
  8
0
  6
CONTINUOUS
 62
     7
  0
LINE
  5
1D0
330
1F
100
AcDbEntity
  8
0
  6
CONTINUOUS
 62
     7
100
AcDbLine
 10
7.3107808617
 20
6.8606277375
 30
0.0
 11
7.7005247568
 21
6.635633376
 31
0.0
  0
ARC
  5
1D1
330
1F
100
AcDbEntity
  8
0
  6
CONTINUOUS
 62
     7
100
AcDbCircle
 10
7.6131018432
 20
6.7967227815
 30
0.0
 40
0.3027275425321002
100
AcDbArc
 50
177.0302275709
 51
235.3028882321
  0
POLYLINE
  5
1D2
330
1F
100
AcDbEntity
  8
0
  6
CONTINUOUS
 62
     7
100
AcDb2dPolyline
 66
     1
 10
0.0
 20
0.0
 30
0.0
  0
VERTEX
  5
325
330
1D2
100
AcDbEntity
  8
0
  6
CONTINUOUS
 62
     7
100
AcDbVertex
100
AcDb2dVertex
 10
8.0706478662
 20
7.6389136302
 30
0.0
  0
VERTEX
  5
326
330
1D2
100
AcDbEntity
  8
0
  6
CONTINUOUS
 62
     7
100
AcDbVertex
100
AcDb2dVertex
 10
8.0647172312
 20
7.6422107497
 30
0.0
  0
VERTEX
  5
327
330
1D2
100
AcDbEntity
  8
0
  6
CONTINUOUS
 62
     7
100
AcDbVertex
100
AcDb2dVertex
 10
8.0487218913
 20
7.6499202131
 30
0.0
  0
VERTEX
  5
328
330
1D2
100
AcDbEntity
  8
0
  6
CONTINUOUS
 62
     7
100
AcDbVertex
100
AcDb2dVertex
 10
8.0320307507
 20
7.6563080543
 30
0.0
  0
VERTEX
  5
329
330
1D2
100
AcDbEntity
  8
0
  6
CONTINUOUS
 62
     7
100
AcDbVertex
100
AcDb2dVertex
 10
8.0146834453
 20
7.661359104
 30
0.0
  0
VERTEX
  5
32A
330
1D2
100
AcDbEntity
  8
0
  6
CONTINUOUS
 62
     7
100
AcDbVertex
100
AcDb2dVertex
 10
7.9967211694
 20
7.6650613678
 30
0.0
  0
VERTEX
  5
32B
330
1D2
100
AcDbEntity
  8
0
  6
CONTINUOUS
 62
     7
100
AcDbVertex
100
AcDb2dVertex
 10
7.9781865775
 20
7.6674060539
 30
0.0
  0
VERTEX
  5
32C
330
1D2
100
AcDbEntity
  8
0
  6
CONTINUOUS
 62
     7
100
AcDbVertex
100
AcDb2dVertex
 10
7.9591236832
 20
7.6683875946
 30
0.0
  0
VERTEX
  5
32D
330
1D2
100
AcDbEntity
  8
0
  6
CONTINUOUS
 62
     7
100
AcDbVertex
100
AcDb2dVertex
 10
7.9395777546
 20
7.6680036589
 30
0.0
  0
VERTEX
  5
32E
330
1D2
100
AcDbEntity
  8
0
  6
CONTINUOUS
 62
     7
100
AcDbVertex
100
AcDb2dVertex
 10
7.9195952069
 20
7.6662551586
 30
0.0
  0
VERTEX
  5
32F
330
1D2
100
AcDbEntity
  8
0
  6
CONTINUOUS
 62
     7
100
AcDbVertex
100
AcDb2dVertex
 10
7.8992234921
 20
7.6631462458
 30
0.0
  0
VERTEX
  5
330
330
1D2
100
AcDbEntity
  8
0
  6
CONTINUOUS
 62
     7
100
AcDbVertex
100
AcDb2dVertex
 10
7.8785109865
 20
7.6586843031
 30
0.0
  0
VERTEX
  5
331
330
1D2
100
AcDbEntity
  8
0
  6
CONTINUOUS
 62
     7
100
AcDbVertex
100
AcDb2dVertex
 10
7.8575068753
 20
7.6528799263
 30
0.0
  0
VERTEX
  5
332
330
1D2
100
AcDbEntity
  8
0
  6
CONTINUOUS
 62
     7
100
AcDbVertex
100
AcDb2dVertex
 10
7.8362610366
 20
7.6457468987
 30
0.0
  0
VERTEX
  5
333
330
1D2
100
AcDbEntity
  8
0
  6
CONTINUOUS
 62
     7
100
AcDbVertex
100
AcDb2dVertex
 10
7.8148239223
 20
7.6373021591
 30
0.0
  0
VERTEX
  5
334
330
1D2
100
AcDbEntity
  8
0
  6
CONTINUOUS
 62
     7
100
AcDbVertex
100
AcDb2dVertex
 10
7.7932464384
 20
7.6275657609
 30
0.0
  0
VERTEX
  5
335
330
1D2
100
AcDbEntity
  8
0
  6
CONTINUOUS
 62
     7
100
AcDbVertex
100
AcDb2dVertex
 10
7.7715798245
 20
7.6165608248
 30
0.0
  0
VERTEX
  5
336
330
1D2
100
AcDbEntity
  8
0
  6
CONTINUOUS
 62
     7
100
AcDbVertex
100
AcDb2dVertex
 10
7.7498755316
 20
7.6043134841
 30
0.0
  0
VERTEX
  5
337
330
1D2
100
AcDbEntity
  8
0
  6
CONTINUOUS
 62
     7
100
AcDbVertex
100
AcDb2dVertex
 10
7.7281851005
 20
7.590852822
 30
0.0
  0
VERTEX
  5
338
330
1D2
100
AcDbEntity
  8
0
  6
CONTINUOUS
 62
     7
100
AcDbVertex
100
AcDb2dVertex
 10
7.7065600387
 20
7.5762108034
 30
0.0
  0
VERTEX
  5
339
330
1D2
100
AcDbEntity
  8
0
  6
CONTINUOUS
 62
     7
100
AcDbVertex
100
AcDb2dVertex
 10
7.6850516987
 20
7.5604221982
 30
0.0
  0
VERTEX
  5
33A
330
1D2
100
AcDbEntity
  8
0
  6
CONTINUOUS
 62
     7
100
AcDbVertex
100
AcDb2dVertex
 10
7.6637111559
 20
7.5435244992
 30
0.0
  0
VERTEX
  5
33B
330
1D2
100
AcDbEntity
  8
0
  6
CONTINUOUS
 62
     7
100
AcDbVertex
100
AcDb2dVertex
 10
7.6425890869
 20
7.5255578329
 30
0.0
  0
VERTEX
  5
33C
330
1D2
100
AcDbEntity
  8
0
  6
CONTINUOUS
 62
     7
100
AcDbVertex
100
AcDb2dVertex
 10
7.6217356498
 20
7.5065648642
 30
0.0
  0
VERTEX
  5
33D
330
1D2
100
AcDbEntity
  8
0
  6
CONTINUOUS
 62
     7
100
AcDbVertex
100
AcDb2dVertex
 10
7.6012003648
 20
7.4865906952
 30
0.0
  0
VERTEX
  5
33E
330
1D2
100
AcDbEntity
  8
0
  6
CONTINUOUS
 62
     7
100
AcDbVertex
100
AcDb2dVertex
 10
7.5810319963
 20
7.4656827582
 30
0.0
  0
VERTEX
  5
33F
330
1D2
100
AcDbEntity
  8
0
  6
CONTINUOUS
 62
     7
100
AcDbVertex
100
AcDb2dVertex
 10
7.5612784377
 20
7.4438907025
 30
0.0
  0
VERTEX
  5
340
330
1D2
100
AcDbEntity
  8
0
  6
CONTINUOUS
 62
     7
100
AcDbVertex
100
AcDb2dVertex
 10
7.5419865973
 20
7.4212662772
 30
0.0
  0
VERTEX
  5
341
330
1D2
100
AcDbEntity
  8
0
  6
CONTINUOUS
 62
     7
100
AcDbVertex
100
AcDb2dVertex
 10
7.5232022868
 20
7.3978632079
 30
0.0
  0
VERTEX
  5
342
330
1D2
100
AcDbEntity
  8
0
  6
CONTINUOUS
 62
     7
100
AcDbVertex
100
AcDb2dVertex
 10
7.5049701128
 20
7.3737370692
 30
0.0
  0
VERTEX
  5
343
330
1D2
100
AcDbEntity
  8
0
  6
CONTINUOUS
 62
     7
100
AcDbVertex
100
AcDb2dVertex
 10
7.4873333708
 20
7.3489451529
 30
0.0
  0
VERTEX
  5
344
330
1D2
100
AcDbEntity
  8
0
  6
CONTINUOUS
 62
     7
100
AcDbVertex
100
AcDb2dVertex
 10
7.4703339423
 20
7.3235463317
 30
0.0
  0
VERTEX
  5
345
330
1D2
100
AcDbEntity
  8
0
  6
CONTINUOUS
 62
     7
100
AcDbVertex
100
AcDb2dVertex
 10
7.4540121954
 20
7.2976009193
 30
0.0
  0
VERTEX
  5
346
330
1D2
100
AcDbEntity
  8
0
  6
CONTINUOUS
 62
     7
100
AcDbVertex
100
AcDb2dVertex
 10
7.4384068888
 20
7.2711705277
 30
0.0
  0
VERTEX
  5
347
330
1D2
100
AcDbEntity
  8
0
  6
CONTINUOUS
 62
     7
100
AcDbVertex
100
AcDb2dVertex
 10
7.4235550801
 20
7.2443179205
 30
0.0
  0
VERTEX
  5
348
330
1D2
100
AcDbEntity
  8
0
  6
CONTINUOUS
 62
     7
100
AcDbVertex
100
AcDb2dVertex
 10
7.4094920375
 20
7.2171068638
 30
0.0
  0
VERTEX
  5
349
330
1D2
100
AcDbEntity
  8
0
  6
CONTINUOUS
 62
     7
100
AcDbVertex
100
AcDb2dVertex
 10
7.3962511562
 20
7.189601975
 30
0.0
  0
VERTEX
  5
34A
330
1D2
100
AcDbEntity
  8
0
  6
CONTINUOUS
 62
     7
100
AcDbVertex
100
AcDb2dVertex
 10
7.3838638787
 20
7.1618685691
 30
0.0
  0
VERTEX
  5
34B
330
1D2
100
AcDbEntity
  8
0
  6
CONTINUOUS
 62
     7
100
AcDbVertex
100
AcDb2dVertex
 10
7.372359621
 20
7.1339725041
 30
0.0
  0
VERTEX
  5
34C
330
1D2
100
AcDbEntity
  8
0
  6
CONTINUOUS
 62
     7
100
AcDbVertex
100
AcDb2dVertex
 10
7.3617657018
 20
7.1059800238
 30
0.0
  0
VERTEX
  5
34D
330
1D2
100
AcDbEntity
  8
0
  6
CONTINUOUS
 62
     7
100
AcDbVertex
100
AcDb2dVertex
 10
7.3521072783
 20
7.0779576013
 30
0.0
  0
VERTEX
  5
34E
330
1D2
100
AcDbEntity
  8
0
  6
CONTINUOUS
 62
     7
100
AcDbVertex
100
AcDb2dVertex
 10
7.3434072861
 20
7.0499717806
 30
0.0
  0
VERTEX
  5
34F
330
1D2
100
AcDbEntity
  8
0
  6
CONTINUOUS
 62
     7
100
AcDbVertex
100
AcDb2dVertex
 10
7.3356863847
 20
7.0220890191
 30
0.0
  0
VERTEX
  5
350
330
1D2
100
AcDbEntity
  8
0
  6
CONTINUOUS
 62
     7
100
AcDbVertex
100
AcDb2dVertex
 10
7.3289629088
 20
6.994375529
 30
0.0
  0
VERTEX
  5
351
330
1D2
100
AcDbEntity
  8
0
  6
CONTINUOUS
 62
     7
100
AcDbVertex
100
AcDb2dVertex
 10
7.3232528245
 20
6.9668971209
 30
0.0
  0
VERTEX
  5
352
330
1D2
100
AcDbEntity
  8
0
  6
CONTINUOUS
 62
     7
100
AcDbVertex
100
AcDb2dVertex
 10
7.3185696913
 20
6.939719047
 30
0.0
  0
VERTEX
  5
353
330
1D2
100
AcDbEntity
  8
0
  6
CONTINUOUS
 62
     7
100
AcDbVertex
100
AcDb2dVertex
 10
7.3149246301
 20
6.9129058463
 30
0.0
  0
VERTEX
  5
354
330
1D2
100
AcDbEntity
  8
0
  6
CONTINUOUS
 62
     7
100
AcDbVertex
100
AcDb2dVertex
 10
7.3123262969
 20
6.8865211915
 30
0.0
  0
VERTEX
  5
355
330
1D2
100
AcDbEntity
  8
0
  6
CONTINUOUS
 62
     7
100
AcDbVertex
100
AcDb2dVertex
 10
7.3107808617
 20
6.8606277375
 30
0.0
  0
SEQEND
  5
356
330
1D2
100
AcDbEntity
  8
0
  6
CONTINUOUS
 62
     7
  0
LINE
  5
1D3
330
1F
100
AcDbEntity
  8
0
  6
CONTINUOUS
 62
     7
100
AcDbLine
 10
7.3107808617
 20
6.8124068234
 30
0.0
 11
8.1459463513
 21
6.3302760487
 31
0.0
  0
LINE
  5
1D4
330
1F
100
AcDbEntity
  8
0
  6
CONTINUOUS
 62
     7
100
AcDbLine
 10
7.4686446246
 20
7.0708968649
 30
0.0
 11
7.4688312228
 21
7.0894080384
 31
0.0
  0
POLYLINE
  5
1D5
330
1F
100
AcDbEntity
  8
0
  6
CONTINUOUS
 62
     7
100
AcDb2dPolyline
 66
     1
 10
0.0
 20
0.0
 30
0.0
  0
VERTEX
  5
357
330
1D5
100
AcDbEntity
  8
0
  6
CONTINUOUS
 62
     7
100
AcDbVertex
100
AcDb2dVertex
 10
7.5432684264
 20
7.3133903183
 30
0.0
  0
VERTEX
  5
358
330
1D5
100
AcDbEntity
  8
0
  6
CONTINUOUS
 62
     7
100
AcDbVertex
100
AcDb2dVertex
 10
7.5436727359
 20
7.3139046426
 30
0.0
  0
VERTEX
  5
359
330
1D5
100
AcDbEntity
  8
0
  6
CONTINUOUS
 62
     7
100
AcDbVertex
100
AcDb2dVertex
 10
7.5612970856
 20
7.3321958012
 30
0.0
  0
VERTEX
  5
35A
330
1D5
100
AcDbEntity
  8
0
  6
CONTINUOUS
 62
     7
100
AcDbVertex
100
AcDb2dVertex
 10
7.5807121608
 20
7.3484329857
 30
0.0
  0
VERTEX
  5
35B
330
1D5
100
AcDbEntity
  8
0
  6
CONTINUOUS
 62
     7
100
AcDbVertex
100
AcDb2dVertex
 10
7.6076577759
 20
7.3655202673
 30
0.0
  0
VERTEX
  5
35C
330
1D5
100
AcDbEntity
  8
0
  6
CONTINUOUS
 62
     7
100
AcDbVertex
100
AcDb2dVertex
 10
7.6366571223
 20
7.3782479391
 30
0.0
  0
VERTEX
  5
35D
330
1D5
100
AcDbEntity
  8
0
  6
CONTINUOUS
 62
     7
100
AcDbVertex
100
AcDb2dVertex
 10
7.6568135455
 20
7.3840210104
 30
0.0
  0
VERTEX
  5
35E
330
1D5
100
AcDbEntity
  8
0
  6
CONTINUOUS
 62
     7
100
AcDbVertex
100
AcDb2dVertex
 10
7.6772611153
 20
7.3875323049
 30
0.0
  0
VERTEX
  5
35F
330
1D5
100
AcDbEntity
  8
0
  6
CONTINUOUS
 62
     7
100
AcDbVertex
100
AcDb2dVertex
 10
7.697490416
 20
7.3887131037
 30
0.0
  0
VERTEX
  5
360
330
1D5
100
AcDbEntity
  8
0
  6
CONTINUOUS
 62
     7
100
AcDbVertex
100
AcDb2dVertex
 10
7.7241783954
 20
7.3865466552
 30
0.0
  0
VERTEX
  5
361
330
1D5
100
AcDbEntity
  8
0
  6
CONTINUOUS
 62
     7
100
AcDbVertex
100
AcDb2dVertex
 10
7.7490291673
 20
7.3802595339
 30
0.0
  0
VERTEX
  5
362
330
1D5
100
AcDbEntity
  8
0
  6
CONTINUOUS
 62
     7
100
AcDbVertex
100
AcDb2dVertex
 10
7.770316322
 20
7.3705641136
 30
0.0
  0
VERTEX
  5
363
330
1D5
100
AcDbEntity
  8
0
  6
CONTINUOUS
 62
     7
100
AcDbVertex
100
AcDb2dVertex
 10
7.7885231832
 20
7.3576307379
 30
0.0
  0
VERTEX
  5
364
330
1D5
100
AcDbEntity
  8
0
  6
CONTINUOUS
 62
     7
100
AcDbVertex
100
AcDb2dVertex
 10
7.8029778629
 20
7.3419226156
 30
0.0
  0
VERTEX
  5
365
330
1D5
100
AcDbEntity
  8
0
  6
CONTINUOUS
 62
     7
100
AcDbVertex
100
AcDb2dVertex
 10
7.8135710551
 20
7.3237404513
 30
0.0
  0
VERTEX
  5
366
330
1D5
100
AcDbEntity
  8
0
  6
CONTINUOUS
 62
     7
100
AcDbVertex
100
AcDb2dVertex
 10
7.820090342
 20
7.3033218854
 30
0.0
  0
VERTEX
  5
367
330
1D5
100
AcDbEntity
  8
0
  6
CONTINUOUS
 62
     7
100
AcDbVertex
100
AcDb2dVertex
 10
7.8225323606
 20
7.2812355922
 30
0.0
  0
VERTEX
  5
368
330
1D5
100
AcDbEntity
  8
0
  6
CONTINUOUS
 62
     7
100
AcDbVertex
100
AcDb2dVertex
 10
7.8209277983
 20
7.2571769034
 30
0.0
  0
VERTEX
  5
369
330
1D5
100
AcDbEntity
  8
0
  6
CONTINUOUS
 62
     7
100
AcDbVertex
100
AcDb2dVertex
 10
7.8155895786
 20
7.232304578
 30
0.0
  0
VERTEX
  5
36A
330
1D5
100
AcDbEntity
  8
0
  6
CONTINUOUS
 62
     7
100
AcDbVertex
100
AcDb2dVertex
 10
7.8061540729
 20
7.2049629596
 30
0.0
  0
VERTEX
  5
36B
330
1D5
100
AcDbEntity
  8
0
  6
CONTINUOUS
 62
     7
100
AcDbVertex
100
AcDb2dVertex
 10
7.7936496642
 20
7.1776459944
 30
0.0
  0
VERTEX
  5
36C
330
1D5
100
AcDbEntity
  8
0
  6
CONTINUOUS
 62
     7
100
AcDbVertex
100
AcDb2dVertex
 10
7.7793430811
 20
7.1517063427
 30
0.0
  0
VERTEX
  5
36D
330
1D5
100
AcDbEntity
  8
0
  6
CONTINUOUS
 62
     7
100
AcDbVertex
100
AcDb2dVertex
 10
7.7633083368
 20
7.1262688477
 30
0.0
  0
VERTEX
  5
36E
330
1D5
100
AcDbEntity
  8
0
  6
CONTINUOUS
 62
     7
100
AcDbVertex
100
AcDb2dVertex
 10
7.7460882204
 20
7.1016414608
 30
0.0
  0
VERTEX
  5
36F
330
1D5
100
AcDbEntity
  8
0
  6
CONTINUOUS
 62
     7
100
AcDbVertex
100
AcDb2dVertex
 10
7.7216224483
 20
7.0698475321
 30
0.0
  0
VERTEX
  5
370
330
1D5
100
AcDbEntity
  8
0
  6
CONTINUOUS
 62
     7
100
AcDbVertex
100
AcDb2dVertex
 10
7.6960943754
 20
7.0396870939
 30
0.0
  0
VERTEX
  5
371
330
1D5
100
AcDbEntity
  8
0
  6
CONTINUOUS
 62
     7
100
AcDbVertex
100
AcDb2dVertex
 10
7.6700522975
 20
7.011517457
 30
0.0
  0
VERTEX
  5
372
330
1D5
100
AcDbEntity
  8
0
  6
CONTINUOUS
 62
     7
100
AcDbVertex
100
AcDb2dVertex
 10
7.6517034304
 20
6.9931224407
 30
0.0
  0
VERTEX
  5
373
330
1D5
100
AcDbEntity
  8
0
  6
CONTINUOUS
 62
     7
100
AcDbVertex
100
AcDb2dVertex
 10
7.633193253
 20
6.9759049637
 30
0.0
  0
VERTEX
  5
374
330
1D5
100
AcDbEntity
  8
0
  6
CONTINUOUS
 62
     7
100
AcDbVertex
100
AcDb2dVertex
 10
7.633193253
 20
6.9759049637
 30
0.0
  0
SEQEND
  5
375
330
1D5
100
AcDbEntity
  8
0
  6
CONTINUOUS
 62
     7
  0
LINE
  5
1D6
330
1F
100
AcDbEntity
  8
0
  6
CONTINUOUS
 62
     7
100
AcDbLine
 10
8.8692668184
 20
6.7156980146
 30
0.0
 11
8.8692668184
 21
6.7639189287
 31
0.0
  0
LINE
  5
1D7
330
1F
100
AcDbEntity
  8
0
  6
CONTINUOUS
 62
     7
100
AcDbLine
 10
8.8692668184
 20
6.7639189287
 30
0.0
 11
8.7844401857
 21
6.714949556
 31
0.0
  0
POLYLINE
  5
1D8
330
1F
100
AcDbEntity
  8
0
  6
CONTINUOUS
 62
     7
100
AcDb2dPolyline
 66
     1
 10
0.0
 20
0.0
 30
0.0
  0
VERTEX
  5
376
330
1D8
100
AcDbEntity
  8
0
  6
CONTINUOUS
 62
     7
100
AcDbVertex
100
AcDb2dVertex
 10
8.4529941573
 20
6.5236098366
 30
0.0
  0
VERTEX
  5
377
330
1D8
100
AcDbEntity
  8
0
  6
CONTINUOUS
 62
     7
100
AcDbVertex
100
AcDb2dVertex
 10
8.455203092
 20
6.540158622
 30
0.0
  0
VERTEX
  5
378
330
1D8
100
AcDbEntity
  8
0
  6
CONTINUOUS
 62
     7
100
AcDbVertex
100
AcDb2dVertex
 10
8.4584659136
 20
6.5570619638
 30
0.0
  0
VERTEX
  5
379
330
1D8
100
AcDbEntity
  8
0
  6
CONTINUOUS
 62
     7
100
AcDbVertex
100
AcDb2dVertex
 10
8.4627615925
 20
6.574210916
 30
0.0
  0
VERTEX
  5
37A
330
1D8
100
AcDbEntity
  8
0
  6
CONTINUOUS
 62
     7
100
AcDbVertex
100
AcDb2dVertex
 10
8.4680624419
 20
6.5914949496
 30
0.0
  0
VERTEX
  5
37B
330
1D8
100
AcDbEntity
  8
0
  6
CONTINUOUS
 62
     7
100
AcDbVertex
100
AcDb2dVertex
 10
8.4743342966
 20
6.6088026648
 30
0.0
  0
VERTEX
  5
37C
330
1D8
100
AcDbEntity
  8
0
  6
CONTINUOUS
 62
     7
100
AcDbVertex
100
AcDb2dVertex
 10
8.4815367332
 20
6.6260225094
 30
0.0
  0
VERTEX
  5
37D
330
1D8
100
AcDbEntity
  8
0
  6
CONTINUOUS
 62
     7
100
AcDbVertex
100
AcDb2dVertex
 10
8.48962333
 20
6.6430434974
 30
0.0
  0
VERTEX
  5
37E
330
1D8
100
AcDbEntity
  8
0
  6
CONTINUOUS
 62
     7
100
AcDbVertex
100
AcDb2dVertex
 10
8.4985419672
 20
6.6597559244
 30
0.0
  0
VERTEX
  5
37F
330
1D8
100
AcDbEntity
  8
0
  6
CONTINUOUS
 62
     7
100
AcDbVertex
100
AcDb2dVertex
 10
8.5082351621
 20
6.676052075
 30
0.0
  0
VERTEX
  5
380
330
1D8
100
AcDbEntity
  8
0
  6
CONTINUOUS
 62
     7
100
AcDbVertex
100
AcDb2dVertex
 10
8.5186404395
 20
6.6918269166
 30
0.0
  0
VERTEX
  5
381
330
1D8
100
AcDbEntity
  8
0
  6
CONTINUOUS
 62
     7
100
AcDbVertex
100
AcDb2dVertex
 10
8.5296907352
 20
6.7069787767
 30
0.0
  0
VERTEX
  5
382
330
1D8
100
AcDbEntity
  8
0
  6
CONTINUOUS
 62
     7
100
AcDbVertex
100
AcDb2dVertex
 10
8.5413148273
 20
6.7214099978
 30
0.0
  0
VERTEX
  5
383
330
1D8
100
AcDbEntity
  8
0
  6
CONTINUOUS
 62
     7
100
AcDbVertex
100
AcDb2dVertex
 10
8.5534377958
 20
6.7350275674
 30
0.0
  0
VERTEX
  5
384
330
1D8
100
AcDbEntity
  8
0
  6
CONTINUOUS
 62
     7
100
AcDbVertex
100
AcDb2dVertex
 10
8.5659815054
 20
6.7477437169
 30
0.0
  0
VERTEX
  5
385
330
1D8
100
AcDbEntity
  8
0
  6
CONTINUOUS
 62
     7
100
AcDbVertex
100
AcDb2dVertex
 10
8.5788651087
 20
6.759476488
 30
0.0
  0
VERTEX
  5
386
330
1D8
100
AcDbEntity
  8
0
  6
CONTINUOUS
 62
     7
100
AcDbVertex
100
AcDb2dVertex
 10
8.5920055681
 20
6.7701502599
 30
0.0
  0
VERTEX
  5
387
330
1D8
100
AcDbEntity
  8
0
  6
CONTINUOUS
 62
     7
100
AcDbVertex
100
AcDb2dVertex
 10
8.60531819
 20
6.7796962378
 30
0.0
  0
VERTEX
  5
388
330
1D8
100
AcDbEntity
  8
0
  6
CONTINUOUS
 62
     7
100
AcDbVertex
100
AcDb2dVertex
 10
8.6187171715
 20
6.7880528956
 30
0.0
  0
VERTEX
  5
389
330
1D8
100
AcDbEntity
  8
0
  6
CONTINUOUS
 62
     7
100
AcDbVertex
100
AcDb2dVertex
 10
8.632116153
 20
6.7951663726
 30
0.0
  0
VERTEX
  5
38A
330
1D8
100
AcDbEntity
  8
0
  6
CONTINUOUS
 62
     7
100
AcDbVertex
100
AcDb2dVertex
 10
8.645428775
 20
6.8009908208
 30
0.0
  0
VERTEX
  5
38B
330
1D8
100
AcDbEntity
  8
0
  6
CONTINUOUS
 62
     7
100
AcDbVertex
100
AcDb2dVertex
 10
8.6585692343
 20
6.8054887003
 30
0.0
  0
VERTEX
  5
38C
330
1D8
100
AcDbEntity
  8
0
  6
CONTINUOUS
 62
     7
100
AcDbVertex
100
AcDb2dVertex
 10
8.6714528376
 20
6.8086310211
 30
0.0
  0
VERTEX
  5
38D
330
1D8
100
AcDbEntity
  8
0
  6
CONTINUOUS
 62
     7
100
AcDbVertex
100
AcDb2dVertex
 10
8.6839965472
 20
6.8103975302
 30
0.0
  0
VERTEX
  5
38E
330
1D8
100
AcDbEntity
  8
0
  6
CONTINUOUS
 62
     7
100
AcDbVertex
100
AcDb2dVertex
 10
8.6961195157
 20
6.8107768421
 30
0.0
  0
VERTEX
  5
38F
330
1D8
100
AcDbEntity
  8
0
  6
CONTINUOUS
 62
     7
100
AcDbVertex
100
AcDb2dVertex
 10
8.7077436078
 20
6.8097665121
 30
0.0
  0
VERTEX
  5
390
330
1D8
100
AcDbEntity
  8
0
  6
CONTINUOUS
 62
     7
100
AcDbVertex
100
AcDb2dVertex
 10
8.7187939035
 20
6.8073730519
 30
0.0
  0
VERTEX
  5
391
330
1D8
100
AcDbEntity
  8
0
  6
CONTINUOUS
 62
     7
100
AcDbVertex
100
AcDb2dVertex
 10
8.729199181
 20
6.803611888
 30
0.0
  0
VERTEX
  5
392
330
1D8
100
AcDbEntity
  8
0
  6
CONTINUOUS
 62
     7
100
AcDbVertex
100
AcDb2dVertex
 10
8.7388923758
 20
6.7985072619
 30
0.0
  0
VERTEX
  5
393
330
1D8
100
AcDbEntity
  8
0
  6
CONTINUOUS
 62
     7
100
AcDbVertex
100
AcDb2dVertex
 10
8.747811013
 20
6.7920920742
 30
0.0
  0
VERTEX
  5
394
330
1D8
100
AcDbEntity
  8
0
  6
CONTINUOUS
 62
     7
100
AcDbVertex
100
AcDb2dVertex
 10
8.7558976099
 20
6.7844076722
 30
0.0
  0
VERTEX
  5
395
330
1D8
100
AcDbEntity
  8
0
  6
CONTINUOUS
 62
     7
100
AcDbVertex
100
AcDb2dVertex
 10
8.7631000464
 20
6.7755035838
 30
0.0
  0
VERTEX
  5
396
330
1D8
100
AcDbEntity
  8
0
  6
CONTINUOUS
 62
     7
100
AcDbVertex
100
AcDb2dVertex
 10
8.7693719011
 20
6.765437198
 30
0.0
  0
VERTEX
  5
397
330
1D8
100
AcDbEntity
  8
0
  6
CONTINUOUS
 62
     7
100
AcDbVertex
100
AcDb2dVertex
 10
8.7746727506
 20
6.7542733949
 30
0.0
  0
VERTEX
  5
398
330
1D8
100
AcDbEntity
  8
0
  6
CONTINUOUS
 62
     7
100
AcDbVertex
100
AcDb2dVertex
 10
8.7789684294
 20
6.7420841279
 30
0.0
  0
VERTEX
  5
399
330
1D8
100
AcDbEntity
  8
0
  6
CONTINUOUS
 62
     7
100
AcDbVertex
100
AcDb2dVertex
 10
8.782231251
 20
6.7289479597
 30
0.0
  0
VERTEX
  5
39A
330
1D8
100
AcDbEntity
  8
0
  6
CONTINUOUS
 62
     7
100
AcDbVertex
100
AcDb2dVertex
 10
8.7844401857
 20
6.714949556
 30
0.0
  0
SEQEND
  5
39B
330
1D8
100
AcDbEntity
  8
0
  6
CONTINUOUS
 62
     7
  0
LINE
  5
1D9
330
1F
100
AcDbEntity
  8
0
  6
CONTINUOUS
 62
     7
100
AcDbLine
 10
8.4529941573
 20
6.5236098366
 30
0.0
 11
8.2016567318
 21
6.3785158292
 31
0.0
  0
LINE
  5
1DA
330
1F
100
AcDbEntity
  8
0
  6
CONTINUOUS
 62
     7
100
AcDbLine
 10
8.2016567318
 20
6.3302949151
 30
0.0
 11
8.4529941573
 21
6.4753889225
 31
0.0
  0
POLYLINE
  5
1DB
330
1F
100
AcDbEntity
  8
0
  6
CONTINUOUS
 62
     7
100
AcDb2dPolyline
 66
     1
 10
0.0
 20
0.0
 30
0.0
  0
VERTEX
  5
39C
330
1DB
100
AcDbEntity
  8
0
  6
CONTINUOUS
 62
     7
100
AcDbVertex
100
AcDb2dVertex
 10
8.7844401857
 20
6.6667286419
 30
0.0
  0
VERTEX
  5
39D
330
1DB
100
AcDbEntity
  8
0
  6
CONTINUOUS
 62
     7
100
AcDbVertex
100
AcDb2dVertex
 10
8.782231251
 20
6.6501798565
 30
0.0
  0
VERTEX
  5
39E
330
1DB
100
AcDbEntity
  8
0
  6
CONTINUOUS
 62
     7
100
AcDbVertex
100
AcDb2dVertex
 10
8.7789684294
 20
6.6332765147
 30
0.0
  0
VERTEX
  5
39F
330
1DB
100
AcDbEntity
  8
0
  6
CONTINUOUS
 62
     7
100
AcDbVertex
100
AcDb2dVertex
 10
8.7746727506
 20
6.6161275625
 30
0.0
  0
VERTEX
  5
3A0
330
1DB
100
AcDbEntity
  8
0
  6
CONTINUOUS
 62
     7
100
AcDbVertex
100
AcDb2dVertex
 10
8.7693719011
 20
6.5988435289
 30
0.0
  0
VERTEX
  5
3A1
330
1DB
100
AcDbEntity
  8
0
  6
CONTINUOUS
 62
     7
100
AcDbVertex
100
AcDb2dVertex
 10
8.7631000464
 20
6.5815358136
 30
0.0
  0
VERTEX
  5
3A2
330
1DB
100
AcDbEntity
  8
0
  6
CONTINUOUS
 62
     7
100
AcDbVertex
100
AcDb2dVertex
 10
8.7558976099
 20
6.5643159691
 30
0.0
  0
VERTEX
  5
3A3
330
1DB
100
AcDbEntity
  8
0
  6
CONTINUOUS
 62
     7
100
AcDbVertex
100
AcDb2dVertex
 10
8.747811013
 20
6.5472949811
 30
0.0
  0
VERTEX
  5
3A4
330
1DB
100
AcDbEntity
  8
0
  6
CONTINUOUS
 62
     7
100
AcDbVertex
100
AcDb2dVertex
 10
8.7388923758
 20
6.530582554
 30
0.0
  0
VERTEX
  5
3A5
330
1DB
100
AcDbEntity
  8
0
  6
CONTINUOUS
 62
     7
100
AcDbVertex
100
AcDb2dVertex
 10
8.729199181
 20
6.5142864034
 30
0.0
  0
VERTEX
  5
3A6
330
1DB
100
AcDbEntity
  8
0
  6
CONTINUOUS
 62
     7
100
AcDbVertex
100
AcDb2dVertex
 10
8.7187939035
 20
6.4985115618
 30
0.0
  0
VERTEX
  5
3A7
330
1DB
100
AcDbEntity
  8
0
  6
CONTINUOUS
 62
     7
100
AcDbVertex
100
AcDb2dVertex
 10
8.7077436078
 20
6.4833597018
 30
0.0
  0
VERTEX
  5
3A8
330
1DB
100
AcDbEntity
  8
0
  6
CONTINUOUS
 62
     7
100
AcDbVertex
100
AcDb2dVertex
 10
8.6961195157
 20
6.4689284807
 30
0.0
  0
VERTEX
  5
3A9
330
1DB
100
AcDbEntity
  8
0
  6
CONTINUOUS
 62
     7
100
AcDbVertex
100
AcDb2dVertex
 10
8.6839965472
 20
6.4553109111
 30
0.0
  0
VERTEX
  5
3AA
330
1DB
100
AcDbEntity
  8
0
  6
CONTINUOUS
 62
     7
100
AcDbVertex
100
AcDb2dVertex
 10
8.6714528376
 20
6.4425947615
 30
0.0
  0
VERTEX
  5
3AB
330
1DB
100
AcDbEntity
  8
0
  6
CONTINUOUS
 62
     7
100
AcDbVertex
100
AcDb2dVertex
 10
8.6585692343
 20
6.4308619905
 30
0.0
  0
VERTEX
  5
3AC
330
1DB
100
AcDbEntity
  8
0
  6
CONTINUOUS
 62
     7
100
AcDbVertex
100
AcDb2dVertex
 10
8.645428775
 20
6.4201882186
 30
0.0
  0
VERTEX
  5
3AD
330
1DB
100
AcDbEntity
  8
0
  6
CONTINUOUS
 62
     7
100
AcDbVertex
100
AcDb2dVertex
 10
8.632116153
 20
6.4106422407
 30
0.0
  0
VERTEX
  5
3AE
330
1DB
100
AcDbEntity
  8
0
  6
CONTINUOUS
 62
     7
100
AcDbVertex
100
AcDb2dVertex
 10
8.6187171715
 20
6.4022855829
 30
0.0
  0
VERTEX
  5
3AF
330
1DB
100
AcDbEntity
  8
0
  6
CONTINUOUS
 62
     7
100
AcDbVertex
100
AcDb2dVertex
 10
8.60531819
 20
6.3951721059
 30
0.0
  0
VERTEX
  5
3B0
330
1DB
100
AcDbEntity
  8
0
  6
CONTINUOUS
 62
     7
100
AcDbVertex
100
AcDb2dVertex
 10
8.5920055681
 20
6.3893476577
 30
0.0
  0
VERTEX
  5
3B1
330
1DB
100
AcDbEntity
  8
0
  6
CONTINUOUS
 62
     7
100
AcDbVertex
100
AcDb2dVertex
 10
8.5788651087
 20
6.3848497782
 30
0.0
  0
VERTEX
  5
3B2
330
1DB
100
AcDbEntity
  8
0
  6
CONTINUOUS
 62
     7
100
AcDbVertex
100
AcDb2dVertex
 10
8.5659815054
 20
6.3817074574
 30
0.0
  0
VERTEX
  5
3B3
330
1DB
100
AcDbEntity
  8
0
  6
CONTINUOUS
 62
     7
100
AcDbVertex
100
AcDb2dVertex
 10
8.5534377958
 20
6.3799409483
 30
0.0
  0
VERTEX
  5
3B4
330
1DB
100
AcDbEntity
  8
0
  6
CONTINUOUS
 62
     7
100
AcDbVertex
100
AcDb2dVertex
 10
8.5413148273
 20
6.3795616363
 30
0.0
  0
VERTEX
  5
3B5
330
1DB
100
AcDbEntity
  8
0
  6
CONTINUOUS
 62
     7
100
AcDbVertex
100
AcDb2dVertex
 10
8.5296907352
 20
6.3805719664
 30
0.0
  0
VERTEX
  5
3B6
330
1DB
100
AcDbEntity
  8
0
  6
CONTINUOUS
 62
     7
100
AcDbVertex
100
AcDb2dVertex
 10
8.5186404395
 20
6.3829654266
 30
0.0
  0
VERTEX
  5
3B7
330
1DB
100
AcDbEntity
  8
0
  6
CONTINUOUS
 62
     7
100
AcDbVertex
100
AcDb2dVertex
 10
8.5082351621
 20
6.3867265905
 30
0.0
  0
VERTEX
  5
3B8
330
1DB
100
AcDbEntity
  8
0
  6
CONTINUOUS
 62
     7
100
AcDbVertex
100
AcDb2dVertex
 10
8.4985419672
 20
6.3918312166
 30
0.0
  0
VERTEX
  5
3B9
330
1DB
100
AcDbEntity
  8
0
  6
CONTINUOUS
 62
     7
100
AcDbVertex
100
AcDb2dVertex
 10
8.48962333
 20
6.3982464043
 30
0.0
  0
VERTEX
  5
3BA
330
1DB
100
AcDbEntity
  8
0
  6
CONTINUOUS
 62
     7
100
AcDbVertex
100
AcDb2dVertex
 10
8.4815367332
 20
6.4059308063
 30
0.0
  0
VERTEX
  5
3BB
330
1DB
100
AcDbEntity
  8
0
  6
CONTINUOUS
 62
     7
100
AcDbVertex
100
AcDb2dVertex
 10
8.4743342966
 20
6.4148348946
 30
0.0
  0
VERTEX
  5
3BC
330
1DB
100
AcDbEntity
  8
0
  6
CONTINUOUS
 62
     7
100
AcDbVertex
100
AcDb2dVertex
 10
8.4680624419
 20
6.4249012805
 30
0.0
  0
VERTEX
  5
3BD
330
1DB
100
AcDbEntity
  8
0
  6
CONTINUOUS
 62
     7
100
AcDbVertex
100
AcDb2dVertex
 10
8.4627615925
 20
6.4360650836
 30
0.0
  0
VERTEX
  5
3BE
330
1DB
100
AcDbEntity
  8
0
  6
CONTINUOUS
 62
     7
100
AcDbVertex
100
AcDb2dVertex
 10
8.4584659136
 20
6.4482543506
 30
0.0
  0
VERTEX
  5
3BF
330
1DB
100
AcDbEntity
  8
0
  6
CONTINUOUS
 62
     7
100
AcDbVertex
100
AcDb2dVertex
 10
8.455203092
 20
6.4613905188
 30
0.0
  0
VERTEX
  5
3C0
330
1DB
100
AcDbEntity
  8
0
  6
CONTINUOUS
 62
     7
100
AcDbVertex
100
AcDb2dVertex
 10
8.4529941573
 20
6.4753889225
 30
0.0
  0
SEQEND
  5
3C1
330
1DB
100
AcDbEntity
  8
0
  6
CONTINUOUS
 62
     7
  0
LINE
  5
1DC
330
1F
100
AcDbEntity
  8
0
  6
CONTINUOUS
 62
     7
100
AcDbLine
 10
8.7844401857
 20
6.6667286419
 30
0.0
 11
8.8692668184
 21
6.7156980146
 31
0.0
  0
SPLINE
  5
1DD
330
1F
100
AcDbEntity
  8
0
  6
CONTINUOUS
 62
     7
100
AcDbSpline
210
0.0
220
0.0
230
1.0
 70
     8
 71
     3
 72
     8
 73
     4
 74
     0
 42
0.00000001
 43
0.00000001
 40
0.0
 40
0.0
 40
0.0
 40
0.0
 40
0.0007104771956443
 40
0.0007104771956443
 40
0.0007104771956443
 40
0.0007104771956443
 10
8.452994157327872
 20
6.475388922500893
 30
0.0
 10
8.453067574020581
 20
6.486153924496535
 30
0.0
 10
8.453152829297284
 20
6.496918905886142
 30
0.0
 10
8.453258917776958
 20
6.50768381710136
 30
0.0
  0
LINE
  5
1DE
330
1F
100
AcDbEntity
  8
0
  6
CONTINUOUS
 62
     7
100
AcDbLine
 10
7.3108135429
 20
6.8445677415
 30
0.0
 11
7.3107808617
 21
6.8124068234
 31
0.0
  0
LINE
  5
1DF
330
1F
100
AcDbEntity
  8
0
  6
CONTINUOUS
 62
     7
100
AcDbLine
 10
7.3108135429
 20
6.8445677415
 30
0.0
 11
7.324707074
 21
6.8525883063
 31
0.0
  0
LINE
  5
1E0
330
1F
100
AcDbEntity
  8
0
  6
CONTINUOUS
 62
     7
100
AcDbLine
 10
8.4393327055
 20
6.5157232483
 30
0.0
 11
8.4532589178
 21
6.5076838171
 31
0.0
  0
LINE
  5
1E1
330
1F
100
AcDbEntity
  8
0
  6
CONTINUOUS
 62
     7
100
AcDbLine
 10
7.7005247568
 20
6.635633376
 30
0.0
 11
7.7623396764
 21
6.6713183694
 31
0.0
  0
LINE
  5
1E2
330
1F
100
AcDbEntity
  8
0
  6
CONTINUOUS
 62
     7
100
AcDbLine
 10
8.3960063743
 20
7.4382843995
 30
0.0
 11
8.3960063743
 21
7.4112505671
 31
0.0
  0
ARC
  5
1E3
330
1F
100
AcDbEntity
  8
0
  6
CONTINUOUS
 62
     7
100
AcDbCircle
 10
8.6475510636
 20
6.7104413572
 30
0.0
 40
0.0810637481264312
100
AcDbArc
 50
3.0798443048
 51
122.3809194931
  0
SPLINE
  5
1E4
330
1F
100
AcDbEntity
  8
0
  6
CONTINUOUS
 62
     7
100
AcDbSpline
210
0.0
220
0.0
230
1.0
 70
     8
 71
     3
 72
     8
 73
     4
 74
     0
 42
0.00000001
 43
0.00000001
 40
0.0
 40
0.0
 40
0.0
 40
0.0
 40
0.0007104771956443
 40
0.0007104771956443
 40
0.0007104771956443
 40
0.0007104771956443
 10
8.784440185683833
 20
6.714949555978087
 30
0.0
 10
8.765792634782825
 20
6.714907173423524
 30
0.0
 10
8.747145119576384
 20
6.714857956599892
 30
0.0
 10
8.728497725928722
 20
6.714796713024183
 30
0.0
  0
LINE
  5
1E5
330
1F
100
AcDbEntity
  8
0
  6
CONTINUOUS
 62
     7
100
AcDbLine
 10
8.6117350918
 20
6.7822023469
 30
0.0
 11
8.7284977259
 21
6.714796713
 31
0.0
  0
POLYLINE
  5
1E6
330
1F
100
AcDbEntity
  8
0
  6
CONTINUOUS
 62
     7
100
AcDb2dPolyline
 66
     1
 10
0.0
 20
0.0
 30
0.0
  0
VERTEX
  5
3C2
330
1E6
100
AcDbEntity
  8
0
  6
CONTINUOUS
 62
     7
100
AcDbVertex
100
AcDb2dVertex
 10
8.4532589178
 20
6.5076838171
 30
0.0
  0
VERTEX
  5
3C3
330
1E6
100
AcDbEntity
  8
0
  6
CONTINUOUS
 62
     7
100
AcDbVertex
100
AcDb2dVertex
 10
8.4556516082
 20
6.4950723059
 30
0.0
  0
VERTEX
  5
3C4
330
1E6
100
AcDbEntity
  8
0
  6
CONTINUOUS
 62
     7
100
AcDbVertex
100
AcDb2dVertex
 10
8.4591090629
 20
6.483375492
 30
0.0
  0
VERTEX
  5
3C5
330
1E6
100
AcDbEntity
  8
0
  6
CONTINUOUS
 62
     7
100
AcDbVertex
100
AcDb2dVertex
 10
8.4636040584
 20
6.4726854752
 30
0.0
  0
VERTEX
  5
3C6
330
1E6
100
AcDbEntity
  8
0
  6
CONTINUOUS
 62
     7
100
AcDbVertex
100
AcDb2dVertex
 10
8.4691012014
 20
6.4630864278
 30
0.0
  0
VERTEX
  5
3C7
330
1E6
100
AcDbEntity
  8
0
  6
CONTINUOUS
 62
     7
100
AcDbVertex
100
AcDb2dVertex
 10
8.4755572077
 20
6.454653932
 30
0.0
  0
VERTEX
  5
3C8
330
1E6
100
AcDbEntity
  8
0
  6
CONTINUOUS
 62
     7
100
AcDbVertex
100
AcDb2dVertex
 10
8.4829212434
 20
6.4474543845
 30
0.0
  0
VERTEX
  5
3C9
330
1E6
100
AcDbEntity
  8
0
  6
CONTINUOUS
 62
     7
100
AcDbVertex
100
AcDb2dVertex
 10
8.4911353245
 20
6.4415444741
 30
0.0
  0
VERTEX
  5
3CA
330
1E6
100
AcDbEntity
  8
0
  6
CONTINUOUS
 62
     7
100
AcDbVertex
100
AcDb2dVertex
 10
8.500134774
 20
6.4369707349
 30
0.0
  0
VERTEX
  5
3CB
330
1E6
100
AcDbEntity
  8
0
  6
CONTINUOUS
 62
     7
100
AcDbVertex
100
AcDb2dVertex
 10
8.5098487311
 20
6.4337691801
 30
0.0
  0
VERTEX
  5
3CC
330
1E6
100
AcDbEntity
  8
0
  6
CONTINUOUS
 62
     7
100
AcDbVertex
100
AcDb2dVertex
 10
8.5202007087
 20
6.4319650186
 30
0.0
  0
VERTEX
  5
3CD
330
1E6
100
AcDbEntity
  8
0
  6
CONTINUOUS
 62
     7
100
AcDbVertex
100
AcDb2dVertex
 10
8.5311091963
 20
6.4315724561
 30
0.0
  0
VERTEX
  5
3CE
330
1E6
100
AcDbEntity
  8
0
  6
CONTINUOUS
 62
     7
100
AcDbVertex
100
AcDb2dVertex
 10
8.5424883012
 20
6.4325945838
 30
0.0
  0
VERTEX
  5
3CF
330
1E6
100
AcDbEntity
  8
0
  6
CONTINUOUS
 62
     7
100
AcDbVertex
100
AcDb2dVertex
 10
8.5542484253
 20
6.4350233533
 30
0.0
  0
VERTEX
  5
3D0
330
1E6
100
AcDbEntity
  8
0
  6
CONTINUOUS
 62
     7
100
AcDbVertex
100
AcDb2dVertex
 10
8.5662969703
 20
6.4388396409
 30
0.0
  0
VERTEX
  5
3D1
330
1E6
100
AcDbEntity
  8
0
  6
CONTINUOUS
 62
     7
100
AcDbVertex
100
AcDb2dVertex
 10
8.5785390669
 20
6.4440133973
 30
0.0
  0
VERTEX
  5
3D2
330
1E6
100
AcDbEntity
  8
0
  6
CONTINUOUS
 62
     7
100
AcDbVertex
100
AcDb2dVertex
 10
8.5908783219
 20
6.4505038848
 30
0.0
  0
VERTEX
  5
3D3
330
1E6
100
AcDbEntity
  8
0
  6
CONTINUOUS
 62
     7
100
AcDbVertex
100
AcDb2dVertex
 10
8.6032175768
 20
6.4582599978
 30
0.0
  0
VERTEX
  5
3D4
330
1E6
100
AcDbEntity
  8
0
  6
CONTINUOUS
 62
     7
100
AcDbVertex
100
AcDb2dVertex
 10
8.6154596734
 20
6.4672206653
 30
0.0
  0
VERTEX
  5
3D5
330
1E6
100
AcDbEntity
  8
0
  6
CONTINUOUS
 62
     7
100
AcDbVertex
100
AcDb2dVertex
 10
8.6275082184
 20
6.4773153317
 30
0.0
  0
VERTEX
  5
3D6
330
1E6
100
AcDbEntity
  8
0
  6
CONTINUOUS
 62
     7
100
AcDbVertex
100
AcDb2dVertex
 10
8.6392683425
 20
6.4884645124
 30
0.0
  0
VERTEX
  5
3D7
330
1E6
100
AcDbEntity
  8
0
  6
CONTINUOUS
 62
     7
100
AcDbVertex
100
AcDb2dVertex
 10
8.6506474474
 20
6.5005804196
 30
0.0
  0
VERTEX
  5
3D8
330
1E6
100
AcDbEntity
  8
0
  6
CONTINUOUS
 62
     7
100
AcDbVertex
100
AcDb2dVertex
 10
8.661555935
 20
6.5135676537
 30
0.0
  0
VERTEX
  5
3D9
330
1E6
100
AcDbEntity
  8
0
  6
CONTINUOUS
 62
     7
100
AcDbVertex
100
AcDb2dVertex
 10
8.6719079126
 20
6.5273239542
 30
0.0
  0
VERTEX
  5
3DA
330
1E6
100
AcDbEntity
  8
0
  6
CONTINUOUS
 62
     7
100
AcDbVertex
100
AcDb2dVertex
 10
8.6816218697
 20
6.5417410051
 30
0.0
  0
VERTEX
  5
3DB
330
1E6
100
AcDbEntity
  8
0
  6
CONTINUOUS
 62
     7
100
AcDbVertex
100
AcDb2dVertex
 10
8.6906213192
 20
6.5567052876
 30
0.0
  0
VERTEX
  5
3DC
330
1E6
100
AcDbEntity
  8
0
  6
CONTINUOUS
 62
     7
100
AcDbVertex
100
AcDb2dVertex
 10
8.6988354003
 20
6.5720989742
 30
0.0
  0
VERTEX
  5
3DD
330
1E6
100
AcDbEntity
  8
0
  6
CONTINUOUS
 62
     7
100
AcDbVertex
100
AcDb2dVertex
 10
8.706199436
 20
6.5878008562
 30
0.0
  0
VERTEX
  5
3DE
330
1E6
100
AcDbEntity
  8
0
  6
CONTINUOUS
 62
     7
100
AcDbVertex
100
AcDb2dVertex
 10
8.7126554423
 20
6.6036872983
 30
0.0
  0
VERTEX
  5
3DF
330
1E6
100
AcDbEntity
  8
0
  6
CONTINUOUS
 62
     7
100
AcDbVertex
100
AcDb2dVertex
 10
8.7181525853
 20
6.6196332118
 30
0.0
  0
VERTEX
  5
3E0
330
1E6
100
AcDbEntity
  8
0
  6
CONTINUOUS
 62
     7
100
AcDbVertex
100
AcDb2dVertex
 10
8.7226475808
 20
6.63551304
 30
0.0
  0
VERTEX
  5
3E1
330
1E6
100
AcDbEntity
  8
0
  6
CONTINUOUS
 62
     7
100
AcDbVertex
100
AcDb2dVertex
 10
8.7261050356
 20
6.6512017462
 30
0.0
  0
VERTEX
  5
3E2
330
1E6
100
AcDbEntity
  8
0
  6
CONTINUOUS
 62
     7
100
AcDbVertex
100
AcDb2dVertex
 10
8.7284977259
 20
6.6665757989
 30
0.0
  0
SEQEND
  5
3E3
330
1E6
100
AcDbEntity
  8
0
  6
CONTINUOUS
 62
     7
  0
SPLINE
  5
1E7
330
1F
100
AcDbEntity
  8
0
  6
CONTINUOUS
 62
     7
100
AcDbSpline
210
0.0
220
0.0
230
1.0
 70
     8
 71
     3
 72
     8
 73
     4
 74
     0
 42
0.00000001
 43
0.00000001
 40
0.0
 40
0.0
 40
0.0
 40
0.0
 40
0.0007104771956443
 40
0.0007104771956443
 40
0.0007104771956443
 40
0.0007104771956443
 10
8.728497725928722
 20
6.666575798936442
 30
0.0
 10
8.747145119576384
 20
6.666637042512151
 30
0.0
 10
8.765792634782825
 20
6.666686259335783
 30
0.0
 10
8.784440185683833
 20
6.666728641890344
 30
0.0
  0
LINE
  5
1E8
330
1F
100
AcDbEntity
  8
0
  6
CONTINUOUS
 62
     7
100
AcDbLine
 10
8.8275017565
 20
6.7398084716
 30
0.0
 11
8.8692668184
 21
6.7156980146
 31
0.0
  0
LINE
  5
1E9
330
1F
100
AcDbEntity
  8
0
  6
CONTINUOUS
 62
     7
100
AcDbLine
 10
8.7284977259
 20
6.6665757989
 30
0.0
 11
8.5743852219
 21
6.7555430538
 31
0.0
  0
LINE
  5
1EA
330
1F
100
AcDbEntity
  8
0
  6
CONTINUOUS
 62
     7
100
AcDbLine
 10
7.3107808617
 20
6.8606277375
 30
0.0
 11
7.3108135429
 21
6.8927886556
 31
0.0
  0
ARC
  5
1EB
330
1F
100
AcDbEntity
  8
0
  6
CONTINUOUS
 62
     7
100
AcDbCircle
 10
8.2194433676
 20
6.8244259771
 30
0.0
 40
0.9111979006206112
100
AcDbArc
 50
122.6530425109
 51
175.6973377247
  0
POLYLINE
  5
1EC
330
1F
100
AcDbEntity
  8
0
  6
CONTINUOUS
 62
     7
100
AcDb2dPolyline
 66
     1
 10
0.0
 20
0.0
 30
0.0
  0
VERTEX
  5
3E4
330
1EC
100
AcDbEntity
  8
0
  6
CONTINUOUS
 62
     7
100
AcDbVertex
100
AcDb2dVertex
 10
8.0072947132
 20
6.9011825433
 30
0.0
  0
VERTEX
  5
3E5
330
1EC
100
AcDbEntity
  8
0
  6
CONTINUOUS
 62
     7
100
AcDbVertex
100
AcDb2dVertex
 10
8.0187456576
 20
6.8951911448
 30
0.0
  0
VERTEX
  5
3E6
330
1EC
100
AcDbEntity
  8
0
  6
CONTINUOUS
 62
     7
100
AcDbVertex
100
AcDb2dVertex
 10
8.0311587365
 20
6.8898765379
 30
0.0
  0
VERTEX
  5
3E7
330
1EC
100
AcDbEntity
  8
0
  6
CONTINUOUS
 62
     7
100
AcDbVertex
100
AcDb2dVertex
 10
8.0444144052
 20
6.885289905
 30
0.0
  0
VERTEX
  5
3E8
330
1EC
100
AcDbEntity
  8
0
  6
CONTINUOUS
 62
     7
100
AcDbVertex
100
AcDb2dVertex
 10
8.0583850043
 20
6.881475418
 30
0.0
  0
VERTEX
  5
3E9
330
1EC
100
AcDbEntity
  8
0
  6
CONTINUOUS
 62
     7
100
AcDbVertex
100
AcDb2dVertex
 10
8.0729359894
 20
6.8784698124
 30
0.0
  0
VERTEX
  5
3EA
330
1EC
100
AcDbEntity
  8
0
  6
CONTINUOUS
 62
     7
100
AcDbVertex
100
AcDb2dVertex
 10
8.0879272264
 20
6.8763020339
 30
0.0
  0
VERTEX
  5
3EB
330
1EC
100
AcDbEntity
  8
0
  6
CONTINUOUS
 62
     7
100
AcDbVertex
100
AcDb2dVertex
 10
8.1032143417
 20
6.8749929593
 30
0.0
  0
VERTEX
  5
3EC
330
1EC
100
AcDbEntity
  8
0
  6
CONTINUOUS
 62
     7
100
AcDbVertex
100
AcDb2dVertex
 10
8.1186501118
 20
6.8745551958
 30
0.0
  0
VERTEX
  5
3ED
330
1EC
100
AcDbEntity
  8
0
  6
CONTINUOUS
 62
     7
100
AcDbVertex
100
AcDb2dVertex
 10
8.1340858819
 20
6.8749929593
 30
0.0
  0
VERTEX
  5
3EE
330
1EC
100
AcDbEntity
  8
0
  6
CONTINUOUS
 62
     7
100
AcDbVertex
100
AcDb2dVertex
 10
8.1493729971
 20
6.8763020339
 30
0.0
  0
VERTEX
  5
3EF
330
1EC
100
AcDbEntity
  8
0
  6
CONTINUOUS
 62
     7
100
AcDbVertex
100
AcDb2dVertex
 10
8.1643642342
 20
6.8784698124
 30
0.0
  0
VERTEX
  5
3F0
330
1EC
100
AcDbEntity
  8
0
  6
CONTINUOUS
 62
     7
100
AcDbVertex
100
AcDb2dVertex
 10
8.1789152192
 20
6.881475418
 30
0.0
  0
VERTEX
  5
3F1
330
1EC
100
AcDbEntity
  8
0
  6
CONTINUOUS
 62
     7
100
AcDbVertex
100
AcDb2dVertex
 10
8.1928858184
 20
6.885289905
 30
0.0
  0
VERTEX
  5
3F2
330
1EC
100
AcDbEntity
  8
0
  6
CONTINUOUS
 62
     7
100
AcDbVertex
100
AcDb2dVertex
 10
8.2061414871
 20
6.8898765379
 30
0.0
  0
VERTEX
  5
3F3
330
1EC
100
AcDbEntity
  8
0
  6
CONTINUOUS
 62
     7
100
AcDbVertex
100
AcDb2dVertex
 10
8.218554566
 20
6.8951911448
 30
0.0
  0
VERTEX
  5
3F4
330
1EC
100
AcDbEntity
  8
0
  6
CONTINUOUS
 62
     7
100
AcDbVertex
100
AcDb2dVertex
 10
8.2300055104
 20
6.9011825433
 30
0.0
  0
VERTEX
  5
3F5
330
1EC
100
AcDbEntity
  8
0
  6
CONTINUOUS
 62
     7
100
AcDbVertex
100
AcDb2dVertex
 10
8.2403840415
 20
6.9077930328
 30
0.0
  0
VERTEX
  5
3F6
330
1EC
100
AcDbEntity
  8
0
  6
CONTINUOUS
 62
     7
100
AcDbVertex
100
AcDb2dVertex
 10
8.2495902082
 20
6.9149589507
 30
0.0
  0
VERTEX
  5
3F7
330
1EC
100
AcDbEntity
  8
0
  6
CONTINUOUS
 62
     7
100
AcDbVertex
100
AcDb2dVertex
 10
8.2575353503
 20
6.9226112853
 30
0.0
  0
VERTEX
  5
3F8
330
1EC
100
AcDbEntity
  8
0
  6
CONTINUOUS
 62
     7
100
AcDbVertex
100
AcDb2dVertex
 10
8.2641429516
 20
6.9306763406
 30
0.0
  0
VERTEX
  5
3F9
330
1EC
100
AcDbEntity
  8
0
  6
CONTINUOUS
 62
     7
100
AcDbVertex
100
AcDb2dVertex
 10
8.2693493773
 20
6.9390764454
 30
0.0
  0
VERTEX
  5
3FA
330
1EC
100
AcDbEntity
  8
0
  6
CONTINUOUS
 62
     7
100
AcDbVertex
100
AcDb2dVertex
 10
8.2731044867
 20
6.9477307024
 30
0.0
  0
VERTEX
  5
3FB
330
1EC
100
AcDbEntity
  8
0
  6
CONTINUOUS
 62
     7
100
AcDbVertex
100
AcDb2dVertex
 10
8.275372116
 20
6.9565557661
 30
0.0
  0
VERTEX
  5
3FC
330
1EC
100
AcDbEntity
  8
0
  6
CONTINUOUS
 62
     7
100
AcDbVertex
100
AcDb2dVertex
 10
8.2761304267
 20
6.9654666466
 30
0.0
  0
VERTEX
  5
3FD
330
1EC
100
AcDbEntity
  8
0
  6
CONTINUOUS
 62
     7
100
AcDbVertex
100
AcDb2dVertex
 10
8.275372116
 20
6.974377527
 30
0.0
  0
VERTEX
  5
3FE
330
1EC
100
AcDbEntity
  8
0
  6
CONTINUOUS
 62
     7
100
AcDbVertex
100
AcDb2dVertex
 10
8.2731044867
 20
6.9832025908
 30
0.0
  0
VERTEX
  5
3FF
330
1EC
100
AcDbEntity
  8
0
  6
CONTINUOUS
 62
     7
100
AcDbVertex
100
AcDb2dVertex
 10
8.2693493773
 20
6.9918568477
 30
0.0
  0
VERTEX
  5
400
330
1EC
100
AcDbEntity
  8
0
  6
CONTINUOUS
 62
     7
100
AcDbVertex
100
AcDb2dVertex
 10
8.2641429516
 20
7.0002569526
 30
0.0
  0
VERTEX
  5
401
330
1EC
100
AcDbEntity
  8
0
  6
CONTINUOUS
 62
     7
100
AcDbVertex
100
AcDb2dVertex
 10
8.2575353503
 20
7.0083220078
 30
0.0
  0
VERTEX
  5
402
330
1EC
100
AcDbEntity
  8
0
  6
CONTINUOUS
 62
     7
100
AcDbVertex
100
AcDb2dVertex
 10
8.2495902082
 20
7.0159743424
 30
0.0
  0
VERTEX
  5
403
330
1EC
100
AcDbEntity
  8
0
  6
CONTINUOUS
 62
     7
100
AcDbVertex
100
AcDb2dVertex
 10
8.2403840415
 20
7.0231402603
 30
0.0
  0
VERTEX
  5
404
330
1EC
100
AcDbEntity
  8
0
  6
CONTINUOUS
 62
     7
100
AcDbVertex
100
AcDb2dVertex
 10
8.2300055104
 20
7.0297507498
 30
0.0
  0
VERTEX
  5
405
330
1EC
100
AcDbEntity
  8
0
  6
CONTINUOUS
 62
     7
100
AcDbVertex
100
AcDb2dVertex
 10
8.218554566
 20
7.0357421483
 30
0.0
  0
VERTEX
  5
406
330
1EC
100
AcDbEntity
  8
0
  6
CONTINUOUS
 62
     7
100
AcDbVertex
100
AcDb2dVertex
 10
8.2061414871
 20
7.0410567552
 30
0.0
  0
VERTEX
  5
407
330
1EC
100
AcDbEntity
  8
0
  6
CONTINUOUS
 62
     7
100
AcDbVertex
100
AcDb2dVertex
 10
8.1928858184
 20
7.0456433881
 30
0.0
  0
VERTEX
  5
408
330
1EC
100
AcDbEntity
  8
0
  6
CONTINUOUS
 62
     7
100
AcDbVertex
100
AcDb2dVertex
 10
8.1789152192
 20
7.0494578751
 30
0.0
  0
VERTEX
  5
409
330
1EC
100
AcDbEntity
  8
0
  6
CONTINUOUS
 62
     7
100
AcDbVertex
100
AcDb2dVertex
 10
8.1643642342
 20
7.0524634807
 30
0.0
  0
VERTEX
  5
40A
330
1EC
100
AcDbEntity
  8
0
  6
CONTINUOUS
 62
     7
100
AcDbVertex
100
AcDb2dVertex
 10
8.1493729971
 20
7.0546312592
 30
0.0
  0
VERTEX
  5
40B
330
1EC
100
AcDbEntity
  8
0
  6
CONTINUOUS
 62
     7
100
AcDbVertex
100
AcDb2dVertex
 10
8.1340858819
 20
7.0559403338
 30
0.0
  0
VERTEX
  5
40C
330
1EC
100
AcDbEntity
  8
0
  6
CONTINUOUS
 62
     7
100
AcDbVertex
100
AcDb2dVertex
 10
8.1186501118
 20
7.0563780973
 30
0.0
  0
VERTEX
  5
40D
330
1EC
100
AcDbEntity
  8
0
  6
CONTINUOUS
 62
     7
100
AcDbVertex
100
AcDb2dVertex
 10
8.1032143417
 20
7.0559403338
 30
0.0
  0
VERTEX
  5
40E
330
1EC
100
AcDbEntity
  8
0
  6
CONTINUOUS
 62
     7
100
AcDbVertex
100
AcDb2dVertex
 10
8.0879272264
 20
7.0546312592
 30
0.0
  0
VERTEX
  5
40F
330
1EC
100
AcDbEntity
  8
0
  6
CONTINUOUS
 62
     7
100
AcDbVertex
100
AcDb2dVertex
 10
8.0729359894
 20
7.0524634807
 30
0.0
  0
VERTEX
  5
410
330
1EC
100
AcDbEntity
  8
0
  6
CONTINUOUS
 62
     7
100
AcDbVertex
100
AcDb2dVertex
 10
8.0583850043
 20
7.0494578751
 30
0.0
  0
VERTEX
  5
411
330
1EC
100
AcDbEntity
  8
0
  6
CONTINUOUS
 62
     7
100
AcDbVertex
100
AcDb2dVertex
 10
8.0444144052
 20
7.0456433881
 30
0.0
  0
VERTEX
  5
412
330
1EC
100
AcDbEntity
  8
0
  6
CONTINUOUS
 62
     7
100
AcDbVertex
100
AcDb2dVertex
 10
8.0311587365
 20
7.0410567552
 30
0.0
  0
VERTEX
  5
413
330
1EC
100
AcDbEntity
  8
0
  6
CONTINUOUS
 62
     7
100
AcDbVertex
100
AcDb2dVertex
 10
8.0187456576
 20
7.0357421483
 30
0.0
  0
VERTEX
  5
414
330
1EC
100
AcDbEntity
  8
0
  6
CONTINUOUS
 62
     7
100
AcDbVertex
100
AcDb2dVertex
 10
8.0072947132
 20
7.0297507498
 30
0.0
  0
VERTEX
  5
415
330
1EC
100
AcDbEntity
  8
0
  6
CONTINUOUS
 62
     7
100
AcDbVertex
100
AcDb2dVertex
 10
7.9969161821
 20
7.0231402603
 30
0.0
  0
VERTEX
  5
416
330
1EC
100
AcDbEntity
  8
0
  6
CONTINUOUS
 62
     7
100
AcDbVertex
100
AcDb2dVertex
 10
7.9877100154
 20
7.0159743424
 30
0.0
  0
VERTEX
  5
417
330
1EC
100
AcDbEntity
  8
0
  6
CONTINUOUS
 62
     7
100
AcDbVertex
100
AcDb2dVertex
 10
7.9797648733
 20
7.0083220078
 30
0.0
  0
VERTEX
  5
418
330
1EC
100
AcDbEntity
  8
0
  6
CONTINUOUS
 62
     7
100
AcDbVertex
100
AcDb2dVertex
 10
7.973157272
 20
7.0002569526
 30
0.0
  0
VERTEX
  5
419
330
1EC
100
AcDbEntity
  8
0
  6
CONTINUOUS
 62
     7
100
AcDbVertex
100
AcDb2dVertex
 10
7.9679508463
 20
6.9918568477
 30
0.0
  0
VERTEX
  5
41A
330
1EC
100
AcDbEntity
  8
0
  6
CONTINUOUS
 62
     7
100
AcDbVertex
100
AcDb2dVertex
 10
7.9641957369
 20
6.9832025908
 30
0.0
  0
VERTEX
  5
41B
330
1EC
100
AcDbEntity
  8
0
  6
CONTINUOUS
 62
     7
100
AcDbVertex
100
AcDb2dVertex
 10
7.9619281076
 20
6.974377527
 30
0.0
  0
VERTEX
  5
41C
330
1EC
100
AcDbEntity
  8
0
  6
CONTINUOUS
 62
     7
100
AcDbVertex
100
AcDb2dVertex
 10
7.9611697968
 20
6.9654666466
 30
0.0
  0
VERTEX
  5
41D
330
1EC
100
AcDbEntity
  8
0
  6
CONTINUOUS
 62
     7
100
AcDbVertex
100
AcDb2dVertex
 10
7.9619281076
 20
6.9565557661
 30
0.0
  0
VERTEX
  5
41E
330
1EC
100
AcDbEntity
  8
0
  6
CONTINUOUS
 62
     7
100
AcDbVertex
100
AcDb2dVertex
 10
7.9641957369
 20
6.9477307024
 30
0.0
  0
VERTEX
  5
41F
330
1EC
100
AcDbEntity
  8
0
  6
CONTINUOUS
 62
     7
100
AcDbVertex
100
AcDb2dVertex
 10
7.9679508463
 20
6.9390764454
 30
0.0
  0
VERTEX
  5
420
330
1EC
100
AcDbEntity
  8
0
  6
CONTINUOUS
 62
     7
100
AcDbVertex
100
AcDb2dVertex
 10
7.973157272
 20
6.9306763406
 30
0.0
  0
VERTEX
  5
421
330
1EC
100
AcDbEntity
  8
0
  6
CONTINUOUS
 62
     7
100
AcDbVertex
100
AcDb2dVertex
 10
7.9797648733
 20
6.9226112853
 30
0.0
  0
VERTEX
  5
422
330
1EC
100
AcDbEntity
  8
0
  6
CONTINUOUS
 62
     7
100
AcDbVertex
100
AcDb2dVertex
 10
7.9877100154
 20
6.9149589507
 30
0.0
  0
VERTEX
  5
423
330
1EC
100
AcDbEntity
  8
0
  6
CONTINUOUS
 62
     7
100
AcDbVertex
100
AcDb2dVertex
 10
7.9969161821
 20
6.9077930328
 30
0.0
  0
VERTEX
  5
424
330
1EC
100
AcDbEntity
  8
0
  6
CONTINUOUS
 62
     7
100
AcDbVertex
100
AcDb2dVertex
 10
8.0072947132
 20
6.9011825433
 30
0.0
  0
SEQEND
  5
425
330
1EC
100
AcDbEntity
  8
0
  6
CONTINUOUS
 62
     7
  0
ARC
  5
1ED
330
1F
100
AcDbEntity
  8
0
  6
CONTINUOUS
 62
     7
100
AcDbCircle
 10
8.1118419441
 20
6.9532120503
 30
0.0
 40
0.2505745535642649
100
AcDbArc
 50
241.7850910484
 51
268.7938398362
  0
ARC
  5
1EE
330
1F
100
AcDbEntity
  8
0
  6
CONTINUOUS
 62
     7
100
AcDbCircle
 10
8.0300662244
 20
6.8135129775
 30
0.0
 40
0.0890157980177342
100
AcDbArc
 50
185.6622794007
 51
245.6578615569
  0
LINE
  5
1EF
330
1F
100
AcDbEntity
  8
0
  6
CONTINUOUS
 62
     7
100
AcDbLine
 10
8.1829411812
 20
7.0025810909
 30
0.0
 11
8.0951179472
 21
7.0161659204
 31
0.0
  0
LINE
  5
1F0
330
1F
100
AcDbEntity
  8
0
  6
CONTINUOUS
 62
     7
100
AcDbLine
 10
8.0951179472
 20
7.0161659204
 30
0.0
 11
8.0308268778
 21
6.979051476
 31
0.0
  0
LINE
  5
1F1
330
1F
100
AcDbEntity
  8
0
  6
CONTINUOUS
 62
     7
100
AcDbLine
 10
8.0308268778
 20
6.979051476
 30
0.0
 11
8.0543590424
 21
6.9283522022
 31
0.0
  0
LINE
  5
1F2
330
1F
100
AcDbEntity
  8
0
  6
CONTINUOUS
 62
     7
100
AcDbLine
 10
8.0543590424
 20
6.9283522022
 30
0.0
 11
8.1421822764
 21
6.9147673727
 31
0.0
  0
LINE
  5
1F3
330
1F
100
AcDbEntity
  8
0
  6
CONTINUOUS
 62
     7
100
AcDbLine
 10
8.1421822764
 20
6.9147673727
 30
0.0
 11
8.2064733458
 21
6.9518818171
 31
0.0
  0
LINE
  5
1F4
330
1F
100
AcDbEntity
  8
0
  6
CONTINUOUS
 62
     7
100
AcDbLine
 10
8.2064733458
 20
6.9518818171
 30
0.0
 11
8.1829411812
 21
7.0025810909
 31
0.0
  0
LINE
  5
1F5
330
1F
100
AcDbEntity
  8
0
  6
CONTINUOUS
 62
     7
100
AcDbLine
 10
8.1829411812
 20
6.9382969876
 30
0.0
 11
8.1829411812
 21
7.0025810909
 31
0.0
  0
LINE
  5
1F6
330
1F
100
AcDbEntity
  8
0
  6
CONTINUOUS
 62
     7
100
AcDbLine
 10
8.0951179472
 20
6.9220474609
 30
0.0
 11
8.0951179472
 21
7.0161659204
 31
0.0
  0
POLYLINE
  5
1F7
330
1F
100
AcDbEntity
  8
0
  6
CONTINUOUS
 62
     7
100
AcDb2dPolyline
 66
     1
 10
0.0
 20
0.0
 30
0.0
  0
VERTEX
  5
426
330
1F7
100
AcDbEntity
  8
0
  6
CONTINUOUS
 62
     7
100
AcDbVertex
100
AcDb2dVertex
 10
7.5340342691
 20
7.1743899823
 30
0.0
  0
VERTEX
  5
427
330
1F7
100
AcDbEntity
  8
0
  6
CONTINUOUS
 62
     7
100
AcDbVertex
100
AcDb2dVertex
 10
7.523655738
 20
7.1810004718
 30
0.0
  0
VERTEX
  5
428
330
1F7
100
AcDbEntity
  8
0
  6
CONTINUOUS
 62
     7
100
AcDbVertex
100
AcDb2dVertex
 10
7.5144495713
 20
7.1881663897
 30
0.0
  0
VERTEX
  5
429
330
1F7
100
AcDbEntity
  8
0
  6
CONTINUOUS
 62
     7
100
AcDbVertex
100
AcDb2dVertex
 10
7.5065044292
 20
7.1958187243
 30
0.0
  0
VERTEX
  5
42A
330
1F7
100
AcDbEntity
  8
0
  6
CONTINUOUS
 62
     7
100
AcDbVertex
100
AcDb2dVertex
 10
7.4998968279
 20
7.2038837795
 30
0.0
  0
VERTEX
  5
42B
330
1F7
100
AcDbEntity
  8
0
  6
CONTINUOUS
 62
     7
100
AcDbVertex
100
AcDb2dVertex
 10
7.4946904022
 20
7.2122838844
 30
0.0
  0
VERTEX
  5
42C
330
1F7
100
AcDbEntity
  8
0
  6
CONTINUOUS
 62
     7
100
AcDbVertex
100
AcDb2dVertex
 10
7.4909352928
 20
7.2209381414
 30
0.0
  0
VERTEX
  5
42D
330
1F7
100
AcDbEntity
  8
0
  6
CONTINUOUS
 62
     7
100
AcDbVertex
100
AcDb2dVertex
 10
7.4886676635
 20
7.2297632051
 30
0.0
  0
VERTEX
  5
42E
330
1F7
100
AcDbEntity
  8
0
  6
CONTINUOUS
 62
     7
100
AcDbVertex
100
AcDb2dVertex
 10
7.4879093527
 20
7.2386740856
 30
0.0
  0
VERTEX
  5
42F
330
1F7
100
AcDbEntity
  8
0
  6
CONTINUOUS
 62
     7
100
AcDbVertex
100
AcDb2dVertex
 10
7.4886676635
 20
7.247584966
 30
0.0
  0
VERTEX
  5
430
330
1F7
100
AcDbEntity
  8
0
  6
CONTINUOUS
 62
     7
100
AcDbVertex
100
AcDb2dVertex
 10
7.4909352928
 20
7.2564100297
 30
0.0
  0
VERTEX
  5
431
330
1F7
100
AcDbEntity
  8
0
  6
CONTINUOUS
 62
     7
100
AcDbVertex
100
AcDb2dVertex
 10
7.4946904022
 20
7.2650642867
 30
0.0
  0
VERTEX
  5
432
330
1F7
100
AcDbEntity
  8
0
  6
CONTINUOUS
 62
     7
100
AcDbVertex
100
AcDb2dVertex
 10
7.4998968279
 20
7.2734643916
 30
0.0
  0
VERTEX
  5
433
330
1F7
100
AcDbEntity
  8
0
  6
CONTINUOUS
 62
     7
100
AcDbVertex
100
AcDb2dVertex
 10
7.5065044292
 20
7.2815294468
 30
0.0
  0
VERTEX
  5
434
330
1F7
100
AcDbEntity
  8
0
  6
CONTINUOUS
 62
     7
100
AcDbVertex
100
AcDb2dVertex
 10
7.5144495713
 20
7.2891817814
 30
0.0
  0
VERTEX
  5
435
330
1F7
100
AcDbEntity
  8
0
  6
CONTINUOUS
 62
     7
100
AcDbVertex
100
AcDb2dVertex
 10
7.523655738
 20
7.2963476993
 30
0.0
  0
VERTEX
  5
436
330
1F7
100
AcDbEntity
  8
0
  6
CONTINUOUS
 62
     7
100
AcDbVertex
100
AcDb2dVertex
 10
7.5340342691
 20
7.3029581888
 30
0.0
  0
VERTEX
  5
437
330
1F7
100
AcDbEntity
  8
0
  6
CONTINUOUS
 62
     7
100
AcDbVertex
100
AcDb2dVertex
 10
7.5454852135
 20
7.3089495873
 30
0.0
  0
VERTEX
  5
438
330
1F7
100
AcDbEntity
  8
0
  6
CONTINUOUS
 62
     7
100
AcDbVertex
100
AcDb2dVertex
 10
7.5578982924
 20
7.3142641942
 30
0.0
  0
VERTEX
  5
439
330
1F7
100
AcDbEntity
  8
0
  6
CONTINUOUS
 62
     7
100
AcDbVertex
100
AcDb2dVertex
 10
7.5711539611
 20
7.3188508271
 30
0.0
  0
VERTEX
  5
43A
330
1F7
100
AcDbEntity
  8
0
  6
CONTINUOUS
 62
     7
100
AcDbVertex
100
AcDb2dVertex
 10
7.5851245602
 20
7.3226653141
 30
0.0
  0
VERTEX
  5
43B
330
1F7
100
AcDbEntity
  8
0
  6
CONTINUOUS
 62
     7
100
AcDbVertex
100
AcDb2dVertex
 10
7.5996755453
 20
7.3256709197
 30
0.0
  0
VERTEX
  5
43C
330
1F7
100
AcDbEntity
  8
0
  6
CONTINUOUS
 62
     7
100
AcDbVertex
100
AcDb2dVertex
 10
7.6146667823
 20
7.3278386982
 30
0.0
  0
VERTEX
  5
43D
330
1F7
100
AcDbEntity
  8
0
  6
CONTINUOUS
 62
     7
100
AcDbVertex
100
AcDb2dVertex
 10
7.6299538976
 20
7.3291477728
 30
0.0
  0
VERTEX
  5
43E
330
1F7
100
AcDbEntity
  8
0
  6
CONTINUOUS
 62
     7
100
AcDbVertex
100
AcDb2dVertex
 10
7.6453896677
 20
7.3295855363
 30
0.0
  0
VERTEX
  5
43F
330
1F7
100
AcDbEntity
  8
0
  6
CONTINUOUS
 62
     7
100
AcDbVertex
100
AcDb2dVertex
 10
7.6608254378
 20
7.3291477728
 30
0.0
  0
VERTEX
  5
440
330
1F7
100
AcDbEntity
  8
0
  6
CONTINUOUS
 62
     7
100
AcDbVertex
100
AcDb2dVertex
 10
7.676112553
 20
7.3278386982
 30
0.0
  0
VERTEX
  5
441
330
1F7
100
AcDbEntity
  8
0
  6
CONTINUOUS
 62
     7
100
AcDbVertex
100
AcDb2dVertex
 10
7.6911037901
 20
7.3256709197
 30
0.0
  0
VERTEX
  5
442
330
1F7
100
AcDbEntity
  8
0
  6
CONTINUOUS
 62
     7
100
AcDbVertex
100
AcDb2dVertex
 10
7.7056547751
 20
7.3226653141
 30
0.0
  0
VERTEX
  5
443
330
1F7
100
AcDbEntity
  8
0
  6
CONTINUOUS
 62
     7
100
AcDbVertex
100
AcDb2dVertex
 10
7.7196253743
 20
7.3188508271
 30
0.0
  0
VERTEX
  5
444
330
1F7
100
AcDbEntity
  8
0
  6
CONTINUOUS
 62
     7
100
AcDbVertex
100
AcDb2dVertex
 10
7.732881043
 20
7.3142641942
 30
0.0
  0
VERTEX
  5
445
330
1F7
100
AcDbEntity
  8
0
  6
CONTINUOUS
 62
     7
100
AcDbVertex
100
AcDb2dVertex
 10
7.7452941219
 20
7.3089495873
 30
0.0
  0
VERTEX
  5
446
330
1F7
100
AcDbEntity
  8
0
  6
CONTINUOUS
 62
     7
100
AcDbVertex
100
AcDb2dVertex
 10
7.7567450663
 20
7.3029581888
 30
0.0
  0
VERTEX
  5
447
330
1F7
100
AcDbEntity
  8
0
  6
CONTINUOUS
 62
     7
100
AcDbVertex
100
AcDb2dVertex
 10
7.7671235974
 20
7.2963476993
 30
0.0
  0
VERTEX
  5
448
330
1F7
100
AcDbEntity
  8
0
  6
CONTINUOUS
 62
     7
100
AcDbVertex
100
AcDb2dVertex
 10
7.7763297641
 20
7.2891817814
 30
0.0
  0
VERTEX
  5
449
330
1F7
100
AcDbEntity
  8
0
  6
CONTINUOUS
 62
     7
100
AcDbVertex
100
AcDb2dVertex
 10
7.7842749062
 20
7.2815294468
 30
0.0
  0
VERTEX
  5
44A
330
1F7
100
AcDbEntity
  8
0
  6
CONTINUOUS
 62
     7
100
AcDbVertex
100
AcDb2dVertex
 10
7.7908825075
 20
7.2734643916
 30
0.0
  0
VERTEX
  5
44B
330
1F7
100
AcDbEntity
  8
0
  6
CONTINUOUS
 62
     7
100
AcDbVertex
100
AcDb2dVertex
 10
7.7960889332
 20
7.2650642867
 30
0.0
  0
VERTEX
  5
44C
330
1F7
100
AcDbEntity
  8
0
  6
CONTINUOUS
 62
     7
100
AcDbVertex
100
AcDb2dVertex
 10
7.7998440426
 20
7.2564100297
 30
0.0
  0
VERTEX
  5
44D
330
1F7
100
AcDbEntity
  8
0
  6
CONTINUOUS
 62
     7
100
AcDbVertex
100
AcDb2dVertex
 10
7.8021116719
 20
7.247584966
 30
0.0
  0
VERTEX
  5
44E
330
1F7
100
AcDbEntity
  8
0
  6
CONTINUOUS
 62
     7
100
AcDbVertex
100
AcDb2dVertex
 10
7.8028699826
 20
7.2386740856
 30
0.0
  0
VERTEX
  5
44F
330
1F7
100
AcDbEntity
  8
0
  6
CONTINUOUS
 62
     7
100
AcDbVertex
100
AcDb2dVertex
 10
7.8021116719
 20
7.2297632051
 30
0.0
  0
VERTEX
  5
450
330
1F7
100
AcDbEntity
  8
0
  6
CONTINUOUS
 62
     7
100
AcDbVertex
100
AcDb2dVertex
 10
7.7998440426
 20
7.2209381414
 30
0.0
  0
VERTEX
  5
451
330
1F7
100
AcDbEntity
  8
0
  6
CONTINUOUS
 62
     7
100
AcDbVertex
100
AcDb2dVertex
 10
7.7960889332
 20
7.2122838844
 30
0.0
  0
VERTEX
  5
452
330
1F7
100
AcDbEntity
  8
0
  6
CONTINUOUS
 62
     7
100
AcDbVertex
100
AcDb2dVertex
 10
7.7908825075
 20
7.2038837795
 30
0.0
  0
VERTEX
  5
453
330
1F7
100
AcDbEntity
  8
0
  6
CONTINUOUS
 62
     7
100
AcDbVertex
100
AcDb2dVertex
 10
7.7842749062
 20
7.1958187243
 30
0.0
  0
VERTEX
  5
454
330
1F7
100
AcDbEntity
  8
0
  6
CONTINUOUS
 62
     7
100
AcDbVertex
100
AcDb2dVertex
 10
7.7763297641
 20
7.1881663897
 30
0.0
  0
VERTEX
  5
455
330
1F7
100
AcDbEntity
  8
0
  6
CONTINUOUS
 62
     7
100
AcDbVertex
100
AcDb2dVertex
 10
7.7671235974
 20
7.1810004718
 30
0.0
  0
VERTEX
  5
456
330
1F7
100
AcDbEntity
  8
0
  6
CONTINUOUS
 62
     7
100
AcDbVertex
100
AcDb2dVertex
 10
7.7567450663
 20
7.1743899823
 30
0.0
  0
VERTEX
  5
457
330
1F7
100
AcDbEntity
  8
0
  6
CONTINUOUS
 62
     7
100
AcDbVertex
100
AcDb2dVertex
 10
7.7452941219
 20
7.1683985838
 30
0.0
  0
VERTEX
  5
458
330
1F7
100
AcDbEntity
  8
0
  6
CONTINUOUS
 62
     7
100
AcDbVertex
100
AcDb2dVertex
 10
7.732881043
 20
7.1630839769
 30
0.0
  0
VERTEX
  5
459
330
1F7
100
AcDbEntity
  8
0
  6
CONTINUOUS
 62
     7
100
AcDbVertex
100
AcDb2dVertex
 10
7.7196253743
 20
7.158497344
 30
0.0
  0
VERTEX
  5
45A
330
1F7
100
AcDbEntity
  8
0
  6
CONTINUOUS
 62
     7
100
AcDbVertex
100
AcDb2dVertex
 10
7.7056547751
 20
7.154682857
 30
0.0
  0
VERTEX
  5
45B
330
1F7
100
AcDbEntity
  8
0
  6
CONTINUOUS
 62
     7
100
AcDbVertex
100
AcDb2dVertex
 10
7.6911037901
 20
7.1516772514
 30
0.0
  0
VERTEX
  5
45C
330
1F7
100
AcDbEntity
  8
0
  6
CONTINUOUS
 62
     7
100
AcDbVertex
100
AcDb2dVertex
 10
7.676112553
 20
7.1495094729
 30
0.0
  0
VERTEX
  5
45D
330
1F7
100
AcDbEntity
  8
0
  6
CONTINUOUS
 62
     7
100
AcDbVertex
100
AcDb2dVertex
 10
7.6608254378
 20
7.1482003983
 30
0.0
  0
VERTEX
  5
45E
330
1F7
100
AcDbEntity
  8
0
  6
CONTINUOUS
 62
     7
100
AcDbVertex
100
AcDb2dVertex
 10
7.6453896677
 20
7.1477626348
 30
0.0
  0
VERTEX
  5
45F
330
1F7
100
AcDbEntity
  8
0
  6
CONTINUOUS
 62
     7
100
AcDbVertex
100
AcDb2dVertex
 10
7.6299538976
 20
7.1482003983
 30
0.0
  0
VERTEX
  5
460
330
1F7
100
AcDbEntity
  8
0
  6
CONTINUOUS
 62
     7
100
AcDbVertex
100
AcDb2dVertex
 10
7.6146667823
 20
7.1495094729
 30
0.0
  0
VERTEX
  5
461
330
1F7
100
AcDbEntity
  8
0
  6
CONTINUOUS
 62
     7
100
AcDbVertex
100
AcDb2dVertex
 10
7.5996755453
 20
7.1516772514
 30
0.0
  0
VERTEX
  5
462
330
1F7
100
AcDbEntity
  8
0
  6
CONTINUOUS
 62
     7
100
AcDbVertex
100
AcDb2dVertex
 10
7.5851245602
 20
7.154682857
 30
0.0
  0
VERTEX
  5
463
330
1F7
100
AcDbEntity
  8
0
  6
CONTINUOUS
 62
     7
100
AcDbVertex
100
AcDb2dVertex
 10
7.5711539611
 20
7.158497344
 30
0.0
  0
VERTEX
  5
464
330
1F7
100
AcDbEntity
  8
0
  6
CONTINUOUS
 62
     7
100
AcDbVertex
100
AcDb2dVertex
 10
7.5578982924
 20
7.1630839769
 30
0.0
  0
VERTEX
  5
465
330
1F7
100
AcDbEntity
  8
0
  6
CONTINUOUS
 62
     7
100
AcDbVertex
100
AcDb2dVertex
 10
7.5454852135
 20
7.1683985838
 30
0.0
  0
VERTEX
  5
466
330
1F7
100
AcDbEntity
  8
0
  6
CONTINUOUS
 62
     7
100
AcDbVertex
100
AcDb2dVertex
 10
7.5340342691
 20
7.1743899823
 30
0.0
  0
SEQEND
  5
467
330
1F7
100
AcDbEntity
  8
0
  6
CONTINUOUS
 62
     7
  0
ARC
  5
1F8
330
1F
100
AcDbEntity
  8
0
  6
CONTINUOUS
 62
     7
100
AcDbCircle
 10
7.5556455811
 20
7.0858879542
 30
0.0
 40
0.0877820283808834
100
AcDbArc
 50
185.1962885946
 51
246.123852363
  0
ARC
  5
1F9
330
1F
100
AcDbEntity
  8
0
  6
CONTINUOUS
 62
     7
100
AcDbCircle
 10
7.6386081714
 20
7.2264858998
 30
0.0
 40
0.2506456829868953
100
AcDbArc
 50
241.7868958274
 51
268.8399569924
  0
LINE
  5
1FA
330
1F
100
AcDbEntity
  8
0
  6
CONTINUOUS
 62
     7
100
AcDbLine
 10
7.5575664337
 20
7.252258915
 30
0.0
 11
7.6218575031
 21
7.2893733594
 31
0.0
  0
LINE
  5
1FB
330
1F
100
AcDbEntity
  8
0
  6
CONTINUOUS
 62
     7
100
AcDbLine
 10
7.5810985983
 20
7.2015596412
 30
0.0
 11
7.5575664337
 21
7.252258915
 31
0.0
  0
LINE
  5
1FC
330
1F
100
AcDbEntity
  8
0
  6
CONTINUOUS
 62
     7
100
AcDbLine
 10
7.6689218323
 20
7.1879748117
 30
0.0
 11
7.5810985983
 21
7.2015596412
 31
0.0
  0
LINE
  5
1FD
330
1F
100
AcDbEntity
  8
0
  6
CONTINUOUS
 62
     7
100
AcDbLine
 10
7.7332129017
 20
7.2250892561
 30
0.0
 11
7.6689218323
 21
7.1879748117
 31
0.0
  0
LINE
  5
1FE
330
1F
100
AcDbEntity
  8
0
  6
CONTINUOUS
 62
     7
100
AcDbLine
 10
7.7096807371
 20
7.2757885299
 30
0.0
 11
7.7332129017
 21
7.2250892561
 31
0.0
  0
LINE
  5
1FF
330
1F
100
AcDbEntity
  8
0
  6
CONTINUOUS
 62
     7
100
AcDbLine
 10
7.6218575031
 20
7.2893733594
 30
0.0
 11
7.7096807371
 21
7.2757885299
 31
0.0
  0
LINE
  5
200
330
1F
100
AcDbEntity
  8
0
  6
CONTINUOUS
 62
     7
100
AcDbLine
 10
7.7096807371
 20
7.2115044266
 30
0.0
 11
7.7096807371
 21
7.2757885299
 31
0.0
  0
LINE
  5
201
330
1F
100
AcDbEntity
  8
0
  6
CONTINUOUS
 62
     7
100
AcDbLine
 10
7.6218575031
 20
7.1952548999
 30
0.0
 11
7.6218575031
 21
7.2893733594
 31
0.0
  0
ARC
  5
202
330
1F
100
AcDbEntity
  8
0
  6
CONTINUOUS
 62
     8
100
AcDbCircle
 10
8.0290140728
 20
6.9574668818
 30
0.0
 40
0.0879388202755448
100
AcDbArc
 50
185.5415326059
 51
246.0920813448
  0
ARC
  5
203
330
1F
100
AcDbEntity
  8
0
  6
CONTINUOUS
 62
     8
100
AcDbCircle
 10
8.1178357562
 20
7.1122053807
 30
0.0
 40
0.2660403353097289
100
AcDbArc
 50
242.1067589944
 51
301.4424212469
  0
ARC
  5
204
330
1F
100
AcDbEntity
  8
0
  6
CONTINUOUS
 62
     8
100
AcDbCircle
 10
7.6446037333
 20
7.3840652157
 30
0.0
 40
0.2648634023289798
100
AcDbArc
 50
241.9649461724
 51
301.6296837846
  0
ARC
  5
205
330
1F
100
AcDbEntity
  8
0
  6
CONTINUOUS
 62
     8
100
AcDbCircle
 10
7.5567658412
 20
7.2313359273
 30
0.0
 40
0.0889563048023028
100
AcDbArc
 50
185.5364252227
 51
245.6687598143
  0
ENDSEC
  0
SECTION
  2
OBJECTS
  0
DICTIONARY
  5
C
330
0
100
AcDbDictionary
  3
ACAD_GROUP
350
D
  3
ACAD_LAYOUT
350
1A
  3
ACAD_MLEADERSTYLE
350
208
  3
ACAD_MLINESTYLE
350
17
  3
ACAD_PLOTSETTINGS
350
19
  3
ACAD_SCALELIST
350
6F
  3
ACAD_VISUALSTYLE
350
2A
  3
ACDBVARIABLEDICTIONARY
350
206
1001
ACAD
1000
TREAT_AS_HARD
1070
     0
  0
DICTIONARY
  5
D
102
{ACAD_REACTORS
330
C
102
}
330
C
100
AcDbDictionary
1001
ACAD
1000
TREAT_AS_HARD
1070
     0
  0
DICTIONARY
  5
1A
102
{ACAD_REACTORS
330
C
102
}
330
C
100
AcDbDictionary
1001
ACAD
1000
TREAT_AS_HARD
1070
     0
  0
DICTIONARY
  5
208
102
{ACAD_REACTORS
330
C
102
}
330
C
100
AcDbDictionary
1001
ACAD
1000
TREAT_AS_HARD
1070
     0
  0
DICTIONARY
  5
17
102
{ACAD_REACTORS
330
C
102
}
330
C
100
AcDbDictionary
  3
STANDARD
350
18
1001
ACAD
1000
TREAT_AS_HARD
1070
     0
  0
DICTIONARY
  5
19
102
{ACAD_REACTORS
330
C
102
}
330
C
100
AcDbDictionary
1001
ACAD
1000
TREAT_AS_HARD
1070
     0
  0
DICTIONARY
  5
6F
102
{ACAD_REACTORS
330
C
102
}
330
C
100
AcDbDictionary
  3
A0
350
70
  3
A1
350
71
  3
A2
350
72
  3
A3
350
73
  3
A4
350
74
  3
A5
350
75
  3
A6
350
76
  3
A7
350
77
  3
A8
350
78
  3
A9
350
79
  3
B0
350
7A
  3
B1
350
7B
  3
B2
350
7C
  3
B3
350
7D
  3
B4
350
7E
  3
B5
350
7F
  3
B6
350
80
  3
B7
350
81
  3
B8
350
82
  3
B9
350
83
  3
C0
350
84
  3
C1
350
85
  3
C2
350
86
  3
C3
350
87
  3
C4
350
88
  3
C5
350
89
  3
C6
350
8A
  3
C7
350
8B
  3
C8
350
8C
  3
C9
350
8D
  3
D0
350
8E
  3
D1
350
8F
  3
D2
350
90
1001
ACAD
1000
TREAT_AS_HARD
1070
     0
  0
DICTIONARY
  5
2A
102
{ACAD_REACTORS
330
C
102
}
330
C
100
AcDbDictionary
  3
2DWIREFRAME
350
2F
  3
3D_HIDDEN
350
31
  3
3DWIREFRAME
350
30
  3
BASIC
350
32
  3
BRIGHTEN
350
36
  3
COLORCHANGE
350
3A
  3
CONCEPTUAL
350
34
  3
DIM
350
35
  3
FACEPATTERN
350
39
  3
FLAT
350
2B
  3
FLATWITHEDGES
350
2C
  3
GOURAUD
350
2D
  3
GOURAUDWITHEDGES
350
2E
  3
LINEPATTERN
350
38
  3
REALISTIC
350
33
  3
THICKEN
350
37
1001
ACAD
1000
TREAT_AS_HARD
1070
     0
  0
DICTIONARY
  5
206
102
{ACAD_REACTORS
330
C
102
}
330
C
100
AcDbDictionary
  3
CANNOSCALE
350
209
  3
DIMASSOC
350
20A
  3
HIDETEXT
350
20B
1001
ACAD
1000
TREAT_AS_HARD
1070
     0
  0
MLINESTYLE
  5
18
102
{ACAD_REACTORS
330
17
102
}
330
17
100
AcDbMlineStyle
  2
Standard
 70
     0
  3

 62
   256
 51
90.0
 52
90.0
 71
     2
 49
0.5
 62
   256
  6
BYLAYER
 49
-0.5
 62
   256
  6
BYLAYER
  0
ACAD_PROXY_OBJECT
  5
70
102
{ACAD_REACTORS
330
6F
102
}
330
6F
100
AcDbZombieObject
 90
      499
 91
      502
 93
       41
310
903313A31580
  0
ACAD_PROXY_OBJECT
  5
71
102
{ACAD_REACTORS
330
6F
102
}
330
6F
100
AcDbZombieObject
 90
      499
 91
      502
 93
      105
310
903313A324000000000000004000
  0
ACAD_PROXY_OBJECT
  5
72
102
{ACAD_REACTORS
330
6F
102
}
330
6F
100
AcDbZombieObject
 90
      499
 91
      502
 93
      105
310
903313A344000000000000104000
  0
ACAD_PROXY_OBJECT
  5
73
102
{ACAD_REACTORS
330
6F
102
}
330
6F
100
AcDbZombieObject
 90
      499
 91
      502
 93
      105
310
903313A354000000000000144000
  0
ACAD_PROXY_OBJECT
  5
74
102
{ACAD_REACTORS
330
6F
102
}
330
6F
100
AcDbZombieObject
 90
      499
 91
      502
 93
      105
310
903313A384000000000000204000
  0
ACAD_PROXY_OBJECT
  5
75
102
{ACAD_REACTORS
330
6F
102
}
330
6F
100
AcDbZombieObject
 90
      499
 91
      502
 93
      113
310
904313A31304000000000000244000
  0
ACAD_PROXY_OBJECT
  5
76
102
{ACAD_REACTORS
330
6F
102
}
330
6F
100
AcDbZombieObject
 90
      499
 91
      502
 93
      113
310
904313A31364000000000000304000
  0
ACAD_PROXY_OBJECT
  5
77
102
{ACAD_REACTORS
330
6F
102
}
330
6F
100
AcDbZombieObject
 90
      499
 91
      502
 93
      113
310
904313A32304000000000000344000
  0
ACAD_PROXY_OBJECT
  5
78
102
{ACAD_REACTORS
330
6F
102
}
330
6F
100
AcDbZombieObject
 90
      499
 91
      502
 93
      113
310
904313A333040000000000003E4000
  0
ACAD_PROXY_OBJECT
  5
79
102
{ACAD_REACTORS
330
6F
102
}
330
6F
100
AcDbZombieObject
 90
      499
 91
      502
 93
      113
310
904313A34304000000000000444000
  0
ACAD_PROXY_OBJECT
  5
7A
102
{ACAD_REACTORS
330
6F
102
}
330
6F
100
AcDbZombieObject
 90
      499
 91
      502
 93
      113
310
904313A35304000000000000494000
  0
ACAD_PROXY_OBJECT
  5
7B
102
{ACAD_REACTORS
330
6F
102
}
330
6F
100
AcDbZombieObject
 90
      499
 91
      502
 93
      121
310
905313A3130304000000000000594000
  0
ACAD_PROXY_OBJECT
  5
7C
102
{ACAD_REACTORS
330
6F
102
}
330
6F
100
AcDbZombieObject
 90
      499
 91
      502
 93
      105
310
903323A310000000000000010100
  0
ACAD_PROXY_OBJECT
  5
7D
102
{ACAD_REACTORS
330
6F
102
}
330
6F
100
AcDbZombieObject
 90
      499
 91
      502
 93
      105
310
903343A310000000000000410100
  0
ACAD_PROXY_OBJECT
  5
7E
102
{ACAD_REACTORS
330
6F
102
}
330
6F
100
AcDbZombieObject
 90
      499
 91
      502
 93
      105
310
903383A310000000000000810100
  0
ACAD_PROXY_OBJECT
  5
7F
102
{ACAD_REACTORS
330
6F
102
}
330
6F
100
AcDbZombieObject
 90
      499
 91
      502
 93
      113
310
90431303A310000000000000910100
  0
ACAD_PROXY_OBJECT
  5
80
102
{ACAD_REACTORS
330
6F
102
}
330
6F
100
AcDbZombieObject
 90
      499
 91
      502
 93
      121
310
9053130303A310000000000001650100
  0
ACAD_PROXY_OBJECT
  5
81
102
{ACAD_REACTORS
330
6F
102
}
330
6F
100
AcDbZombieObject
 90
      499
 91
      502
 93
      257
310
90E312F31323822203D2031272D3022000000000000200FC000000000000284000
  0
ACAD_PROXY_OBJECT
  5
82
102
{ACAD_REACTORS
330
6F
102
}
330
6F
100
AcDbZombieObject
 90
      499
 91
      502
 93
      249
310
90D312F363422203D2031272D3022000000000000240FC000000000000284000
  0
ACAD_PROXY_OBJECT
  5
83
102
{ACAD_REACTORS
330
6F
102
}
330
6F
100
AcDbZombieObject
 90
      499
 91
      502
 93
      249
310
90D312F333222203D2031272D3022000000000000280FC000000000000284000
  0
ACAD_PROXY_OBJECT
  5
84
102
{ACAD_REACTORS
330
6F
102
}
330
6F
100
AcDbZombieObject
 90
      499
 91
      502
 93
      249
310
90D312F313622203D2031272D30220000000000002C0FC000000000000284000
  0
ACAD_PROXY_OBJECT
  5
85
102
{ACAD_REACTORS
330
6F
102
}
330
6F
100
AcDbZombieObject
 90
      499
 91
      502
 93
      249
310
90D332F333222203D2031272D30220000000000002E0FC000000000000284000
  0
ACAD_PROXY_OBJECT
  5
86
102
{ACAD_REACTORS
330
6F
102
}
330
6F
100
AcDbZombieObject
 90
      499
 91
      502
 93
      241
310
90C312F3822203D2031272D3022000000000000300FC000000000000284000
  0
ACAD_PROXY_OBJECT
  5
87
102
{ACAD_REACTORS
330
6F
102
}
330
6F
100
AcDbZombieObject
 90
      499
 91
      502
 93
      249
310
90D332F313622203D2031272D3022000000000000320FC000000000000284000
  0
ACAD_PROXY_OBJECT
  5
88
102
{ACAD_REACTORS
330
6F
102
}
330
6F
100
AcDbZombieObject
 90
      499
 91
      502
 93
      241
310
90C312F3422203D2031272D3022000000000000340FC000000000000284000
  0
ACAD_PROXY_OBJECT
  5
89
102
{ACAD_REACTORS
330
6F
102
}
330
6F
100
AcDbZombieObject
 90
      499
 91
      502
 93
      241
310
90C332F3822203D2031272D3022000000000000360FC000000000000284000
  0
ACAD_PROXY_OBJECT
  5
8A
102
{ACAD_REACTORS
330
6F
102
}
330
6F
100
AcDbZombieObject
 90
      499
 91
      502
 93
      241
310
90C312F3222203D2031272D3022000000000000380FC000000000000284000
  0
ACAD_PROXY_OBJECT
  5
8B
102
{ACAD_REACTORS
330
6F
102
}
330
6F
100
AcDbZombieObject
 90
      499
 91
      502
 93
      241
310
90C332F3422203D2031272D30220000000000003A0FC000000000000284000
  0
ACAD_PROXY_OBJECT
  5
8C
102
{ACAD_REACTORS
330
6F
102
}
330
6F
100
AcDbZombieObject
 90
      499
 91
      502
 93
      161
310
90A3122203D2031272D30224000000000000284000
  0
ACAD_PROXY_OBJECT
  5
8D
102
{ACAD_REACTORS
330
6F
102
}
330
6F
100
AcDbZombieObject
 90
      499
 91
      502
 93
      257
310
90E312D312F3222203D2031272D30220000000000003E0FC000000000000284000
  0
ACAD_PROXY_OBJECT
  5
8E
102
{ACAD_REACTORS
330
6F
102
}
330
6F
100
AcDbZombieObject
 90
      499
 91
      502
 93
      225
310
90A3322203D2031272D302200000000000002100000000000000284000
  0
ACAD_PROXY_OBJECT
  5
8F
102
{ACAD_REACTORS
330
6F
102
}
330
6F
100
AcDbZombieObject
 90
      499
 91
      502
 93
      225
310
90A3622203D2031272D302200000000000006100000000000000284000
  0
ACAD_PROXY_OBJECT
  5
90
102
{ACAD_REACTORS
330
6F
102
}
330
6F
100
AcDbZombieObject
 90
      499
 91
      502
 93
      249
310
90D31272D3022203D2031272D30220000000000000A100000000000000284000
  0
ACAD_PROXY_OBJECT
  5
2F
102
{ACAD_REACTORS
330
2A
102
}
330
2A
100
AcDbZombieObject
 90
      499
 91
      501
 93
      436
310
42CC9915DA5C99599C985B595049028333333333333E3BF0000000000000FB0107901411070040501600405405064090741402480A0340
1001
ACAD
1000
AcDbSavedByObjectVersion
1070
     0
  0
ACAD_PROXY_OBJECT
  5
31
102
{ACAD_REACTORS
330
2A
102
}
330
2A
100
AcDbZombieObject
 90
      499
 91
      501
 93
      500
310
424CD108121A5919195B90640502408333333333333E3BF0000000000000FB01079024090700405020000000000001110200405405064090740C02480A0340
1001
ACAD
1000
AcDbSavedByObjectVersion
1070
     0
  0
ACAD_PROXY_OBJECT
  5
30
102
{ACAD_REACTORS
330
2A
102
}
330
2A
100
AcDbZombieObject
 90
      499
 91
      501
 93
      436
310
42CCD915DA5C99599C985B595059028333333333333E3BF0000000000000FB0107901411070040501600405405064090741402480A0340
1001
ACAD
1000
AcDbSavedByObjectVersion
1070
     0
  0
ACAD_PROXY_OBJECT
  5
32
102
{ACAD_REACTORS
330
2A
102
}
330
2A
100
AcDbZombieObject
 90
      499
 91
      501
 93
      388
310
4150985CDA58D07406404333333333333E3BF0000000000000FB0107A41107004050150841D405064090741402480A0350
1001
ACAD
1000
AcDbSavedByObjectVersion
1070
     0
  0
ACAD_PROXY_OBJECT
  5
36
102
{ACAD_REACTORS
330
2A
102
}
330
2A
100
AcDbZombieObject
 90
      499
 91
      501
 93
      428
310
42109C9A59DA1D195B90C409028333333333333E3BF0000000000000FB010790141107004050150841D405064090741402480A029950
1001
ACAD
1000
AcDbSavedByObjectVersion
1070
     0
  0
ACAD_PROXY_OBJECT
  5
3A
102
{ACAD_REACTORS
330
2A
102
}
330
2A
100
AcDbZombieObject
 90
      499
 91
      501
 93
      452
310
42D0DBDB1BDC90DA185B99D95104090240C333333333333E3BF0000000000000FB0108901411070040501508421405064090741402480A0350
1001
ACAD
1000
AcDbSavedByObjectVersion
1070
     0
  0
ACAD_PROXY_OBJECT
  5
34
102
{ACAD_REACTORS
330
2A
102
}
330
2A
100
AcDbZombieObject
 90
      499
 91
      501
 93
      500
310
4290DBDB98D95C1D1D585B10940D028333333333333E3BF0000000000000FB0107902409070040501000000000000111010841D405064090740C02480A0340
1001
ACAD
1000
AcDbSavedByObjectVersion
1070
     0
  0
ACAD_PROXY_OBJECT
  5
35
102
{ACAD_REACTORS
330
2A
102
}
330
2A
100
AcDbZombieObject
 90
      499
 91
      501
 93
      412
310
40D11A5B50B409028333333333333E3BF0000000000000FB010790141107004050150841D405064090741402480A02677FFFFFD0
1001
ACAD
1000
AcDbSavedByObjectVersion
1070
     0
  0
ACAD_PROXY_OBJECT
  5
39
102
{ACAD_REACTORS
330
2A
102
}
330
2A
100
AcDbZombieObject
 90
      499
 91
      501
 93
      444
310
42D19858D95C185D1D195C9B90F409028333333333333E3BF0000000000000FB010790141107004050150841D405064090741402480A0350
1001
ACAD
1000
AcDbSavedByObjectVersion
1070
     0
  0
ACAD_PROXY_OBJECT
  5
2B
102
{ACAD_REACTORS
330
2A
102
}
330
2A
100
AcDbZombieObject
 90
      499
 91
      501
 93
      388
310
41119B185D240901404333333333333E3BF0000000000000F9010740A41107004050150841D405064090741402480A1B50
1001
ACAD
1000
AcDbSavedByObjectVersion
1070
     0
  0
ACAD_PROXY_OBJECT
  5
2C
102
{ACAD_REACTORS
330
2A
102
}
330
2A
100
AcDbZombieObject
 90
      499
 91
      501
 93
      476
310
43519B185D15DA5D1A115919D95CD0140901404333333333333E3BF0000000000000F9010740901411070040501600405405064090741402480A1B50
1001
ACAD
1000
AcDbSavedByObjectVersion
1070
     0
  0
ACAD_PROXY_OBJECT
  5
2D
102
{ACAD_REACTORS
330
2A
102
}
330
2A
100
AcDbZombieObject
 90
      499
 91
      501
 93
      412
310
41D1DBDD5C985D5910240902404333333333333E3BF0000000000000F9010740A411070040501641D405064090741402480A1B50
1001
ACAD
1000
AcDbSavedByObjectVersion
1070
     0
  0
ACAD_PROXY_OBJECT
  5
2E
102
{ACAD_REACTORS
330
2A
102
}
330
2A
100
AcDbZombieObject
 90
      499
 91
      501
 93
      500
310
4411DBDD5C985D5915DA5D1A115919D95CD0340902404333333333333E3BF0000000000000F9010740901411070040501600405405064090741402480A1B50
1001
ACAD
1000
AcDbSavedByObjectVersion
1070
     0
  0
ACAD_PROXY_OBJECT
  5
38
102
{ACAD_REACTORS
330
2A
102
}
330
2A
100
AcDbZombieObject
 90
      499
 91
      501
 93
      444
310
42D31A5B995C185D1D195C9B90E409028333333333333E3BF0000000000000FB010790141107004050750841D405064090741402483A0350
1001
ACAD
1000
AcDbSavedByObjectVersion
1070
     0
  0
ACAD_PROXY_OBJECT
  5
33
102
{ACAD_REACTORS
330
2A
102
}
330
2A
100
AcDbZombieObject
 90
      499
 91
      501
 93
      420
310
425499585B1A5CDD1A58D08409028333333333333E3BF0000000000000FB01079019070040501508421405064090741402480A1B40
1001
ACAD
1000
AcDbSavedByObjectVersion
1070
     0
  0
ACAD_PROXY_OBJECT
  5
37
102
{ACAD_REACTORS
330
2A
102
}
330
2A
100
AcDbZombieObject
 90
      499
 91
      501
 93
      412
310
41D51A1A58DAD95B90D409028333333333333E3BF0000000000000FB010790141107004050150C41D405064090741402480A0350
1001
ACAD
1000
AcDbSavedByObjectVersion
1070
     0
  0
DICTIONARYVAR
  5
209
102
{ACAD_REACTORS
330
206
102
}
330
206
100
DictionaryVariables
280
     0
  1
1:1
  0
DICTIONARYVAR
  5
20A
102
{ACAD_REACTORS
330
206
102
}
330
206
100
DictionaryVariables
280
     0
  1
2
  0
DICTIONARYVAR
  5
20B
102
{ACAD_REACTORS
330
206
102
}
330
206
100
DictionaryVariables
280
     0
  1
1
  0
ENDSEC
  0
EOF
