  0
SECTION
  2
HEADER
  9
$ACADVER
  1
AC1012
  9
$DWGCODEPAGE
  3
ansi_1252
  9
$INSBASE
 10
0.0
 20
0.0
 30
0.0
  9
$EXTMIN
 10
0.0
 20
0.0
 30
0.0
  9
$EXTMAX
 10
11.0
 20
8.5
 30
0.0
  9
$LIMMIN
 10
0.0
 20
0.0
  9
$LIMMAX
 10
11.0
 20
8.5
  9
$ORTHOMODE
 70
     0
  9
$REGENMODE
 70
     1
  9
$FILLMODE
 70
     1
  9
$QTEXTMODE
 70
     0
  9
$MIRRTEXT
 70
     1
  9
$DRAGMODE
 70
     2
  9
$LTSCALE
 40
1.0
  9
$OSMODE
 70
    37
  9
$ATTMODE
 70
     1
  9
$TEXTSIZE
 40
0.125
  9
$TRACEWID
 40
0.05
  9
$TEXTSTYLE
  7
STANDARD
  9
$CLAYER
  8
0
  9
$CELTYPE
  6
BYLAYER
  9
$CECOLOR
 62
   256
  9
$CELTSCALE
 40
1.0
  9
$DELOBJ
 70
     1
  9
$DISPSILH
 70
     0
  9
$DIMSCALE
 40
1.0
  9
$DIMASZ
 40
0.13
  9
$DIMEXO
 40
0.05
  9
$DIMDLI
 40
0.38
  9
$DIMRND
 40
0.0
  9
$DIMDLE
 40
0.0
  9
$DIMEXE
 40
0.125
  9
$DIMTP
 40
0.0
  9
$DIMTM
 40
0.0
  9
$DIMTXT
 40
0.125
  9
$DIMCEN
 40
0.09
  9
$DIMTSZ
 40
0.0
  9
$DIMTOL
 70
     0
  9
$DIMLIM
 70
     0
  9
$DIMTIH
 70
     1
  9
$DIMTOH
 70
     1
  9
$DIMSE1
 70
     0
  9
$DIMSE2
 70
     0
  9
$DIMTAD
 70
     0
  9
$DIMZIN
 70
     0
  9
$DIMBLK
  1

  9
$DIMASO
 70
     1
  9
$DIMSHO
 70
     1
  9
$DIMPOST
  1

  9
$DIMAPOST
  1

  9
$DIMALT
 70
     0
  9
$DIMALTD
 70
     2
  9
$DIMALTF
 40
25.4
  9
$DIMLFAC
 40
0.5
  9
$DIMTOFL
 70
     0
  9
$DIMTVP
 40
0.0
  9
$DIMTIX
 70
     0
  9
$DIMSOXD
 70
     0
  9
$DIMSAH
 70
     0
  9
$DIMBLK1
  1

  9
$DIMBLK2
  1

  9
$DIMSTYLE
  2
STANDARD
  9
$DIMCLRD
 70
     0
  9
$DIMCLRE
 70
     0
  9
$DIMCLRT
 70
     0
  9
$DIMTFAC
 40
1.0
  9
$DIMGAP
 40
0.06
  9
$DIMJUST
 70
     0
  9
$DIMSD1
 70
     0
  9
$DIMSD2
 70
     0
  9
$DIMTOLJ
 70
     1
  9
$DIMTZIN
 70
     0
  9
$DIMALTZ
 70
     0
  9
$DIMALTTZ
 70
     0
  9
$DIMFIT
 70
     3
  9
$DIMUPT
 70
     0
  9
$DIMUNIT
 70
     2
  9
$DIMDEC
 70
     3
  9
$DIMTDEC
 70
     3
  9
$DIMALTU
 70
     2
  9
$DIMALTTD
 70
     2
  9
$DIMTXSTY
  7
STANDARD
  9
$DIMAUNIT
 70
     0
  9
$LUNITS
 70
     2
  9
$LUPREC
 70
     2
  9
$SKETCHINC
 40
0.1
  9
$FILLETRAD
 40
0.5
  9
$AUNITS
 70
     0
  9
$AUPREC
 70
     2
  9
$MENU
  1
.
  9
$ELEVATION
 40
0.0
  9
$PELEVATION
 40
0.0
  9
$THICKNESS
 40
0.0
  9
$LIMCHECK
 70
     0
  9
$CHAMFERA
 40
0.5
  9
$CHAMFERB
 40
0.5
  9
$CHAMFERC
 40
1.0
  9
$CHAMFERD
 40
0.0
  9
$SKPOLY
 70
     0
  9
$TDCREATE
 40
2455783.998624317
  9
$TDUPDATE
 40
2455783.998624329
  9
$TDINDWG
 40
0.0000000116
  9
$TDUSRTIMER
 40
0.0000000116
  9
$USRTIMER
 70
     1
  9
$ANGBASE
 50
0.0
  9
$ANGDIR
 70
     0
  9
$PDMODE
 70
     0
  9
$PDSIZE
 40
-1.0
  9
$PLINEWID
 40
0.0
  9
$COORDS
 70
     1
  9
$SPLFRAME
 70
     0
  9
$SPLINETYPE
 70
     6
  9
$SPLINESEGS
 70
     8
  9
$ATTDIA
 70
     0
  9
$ATTREQ
 70
     1
  9
$HANDLING
 70
     1
  9
$HANDSEED
  5
71F
  9
$SURFTAB1
 70
     6
  9
$SURFTAB2
 70
     6
  9
$SURFTYPE
 70
     6
  9
$SURFU
 70
     6
  9
$SURFV
 70
     6
  9
$UCSNAME
  2

  9
$UCSORG
 10
0.0
 20
0.0
 30
0.0
  9
$UCSXDIR
 10
1.0
 20
0.0
 30
0.0
  9
$UCSYDIR
 10
0.0
 20
1.0
 30
0.0
  9
$PUCSNAME
  2

  9
$PUCSORG
 10
0.0
 20
0.0
 30
0.0
  9
$PUCSXDIR
 10
1.0
 20
0.0
 30
0.0
  9
$PUCSYDIR
 10
0.0
 20
1.0
 30
0.0
  9
$USERI1
 70
     0
  9
$USERI2
 70
     0
  9
$USERI3
 70
     0
  9
$USERI4
 70
     0
  9
$USERI5
 70
     0
  9
$USERR1
 40
0.0
  9
$USERR2
 40
0.0
  9
$USERR3
 40
0.0
  9
$USERR4
 40
0.0
  9
$USERR5
 40
0.0
  9
$WORLDVIEW
 70
     1
  9
$SHADEDGE
 70
     3
  9
$SHADEDIF
 70
    70
  9
$TILEMODE
 70
     1
  9
$MAXACTVP
 70
    64
  9
$PINSBASE
 10
0.0
 20
0.0
 30
0.0
  9
$PLIMCHECK
 70
     0
  9
$PEXTMIN
 10
1.0000000000E+20
 20
1.0000000000E+20
 30
1.0000000000E+20
  9
$PEXTMAX
 10
-1.0000000000E+20
 20
-1.0000000000E+20
 30
-1.0000000000E+20
  9
$PLIMMIN
 10
0.0
 20
0.0
  9
$PLIMMAX
 10
12.0
 20
9.0
  9
$UNITMODE
 70
     0
  9
$VISRETAIN
 70
     1
  9
$PLINEGEN
 70
     0
  9
$PSLTSCALE
 70
     1
  9
$TREEDEPTH
 70
  3020
  9
$PICKSTYLE
 70
     1
  9
$CMLSTYLE
  2
STANDARD
  9
$CMLJUST
 70
     0
  9
$CMLSCALE
 40
1.0
  9
$SAVEIMAGES
 70
     1
  0
ENDSEC
  0
SECTION
  2
CLASSES
  0
CLASS
  1
ACDBDICTIONARYWDFLT
  2
AcDbDictionaryWithDefault
  3
ObjectDBX Classes
 90
    32768
280
     0
281
     0
  0
CLASS
  1
VISUALSTYLE
  2
AcDbVisualStyle
  3
ObjectDBX Classes
 90
     4095
280
     0
281
     0
  0
CLASS
  1
SCALE
  2
AcDbScale
  3
ObjectDBX Classes
 90
     1153
280
     0
281
     0
  0
CLASS
  1
DICTIONARYVAR
  2
AcDbDictionaryVar
  3
ObjectDBX Classes
 90
        0
280
     0
281
     0
  0
CLASS
  1
XRECORD
  2
AcDbXrecord
  3
AutoCAD 2000
 90
    32768
280
     0
281
     0
  0
CLASS
  1
LWPOLYLINE
  2
AcDbPolyline
  3
AutoCAD 2000
 90
    32768
280
     0
281
     1
  0
CLASS
  1
HATCH
  2
AcDbHatch
  3
AutoCAD 2000
 90
    32768
280
     0
281
     1
  0
CLASS
  1
ACDBPLACEHOLDER
  2
AcDbPlaceHolder
  3
ObjectDBX Classes
 90
        0
280
     0
281
     0
  0
CLASS
  1
LAYOUT
  2
AcDbLayout
  3
ObjectDBX Classes
 90
        0
280
     0
281
     0
  0
ENDSEC
  0
SECTION
  2
TABLES
  0
TABLE
  2
VPORT
  5
8
330
0
100
AcDbSymbolTable
 70
     1
  0
VPORT
  5
29
330
8
100
AcDbSymbolTableRecord
100
AcDbViewportTableRecord
  2
*ACTIVE
 70
     0
 10
0.0
 20
0.0
 11
1.0
 21
1.0
 12
5.5
 22
4.25
 13
0.0
 23
0.0
 14
0.5
 24
0.5
 15
0.5
 25
0.5
 16
0.0
 26
0.0
 36
1.0
 17
0.0
 27
0.0
 37
0.0
 40
8.5
 41
1.2941176471
 42
50.0
 43
0.0
 44
0.0
 50
0.0
 51
0.0
 71
     0
 72
  2000
 73
     1
 74
     3
 75
     0
 76
     0
 77
     0
 78
     0
  0
ENDTAB
  0
TABLE
  2
LTYPE
  5
5
330
0
100
AcDbSymbolTable
 70
     6
  0
LTYPE
  5
14
330
5
100
AcDbSymbolTableRecord
100
AcDbLinetypeTableRecord
  2
BYBLOCK
 70
     0
  3

 72
    65
 73
     0
 40
0.0
  0
LTYPE
  5
15
330
5
100
AcDbSymbolTableRecord
100
AcDbLinetypeTableRecord
  2
BYLAYER
 70
     0
  3

 72
    65
 73
     0
 40
0.0
  0
LTYPE
  5
16
330
5
100
AcDbSymbolTableRecord
100
AcDbLinetypeTableRecord
  2
CONTINUOUS
 70
     0
  3
Solid line
 72
    65
 73
     0
 40
0.0
  0
LTYPE
  5
3B
330
5
100
AcDbSymbolTableRecord
100
AcDbLinetypeTableRecord
  2
HIDDEN
 70
     0
  3
Hidden __ __ __ __ __ __ __ __ __ __ __ __ __ __
 72
    65
 73
     2
 40
0.075
 49
0.05
 74
     0
 49
-0.025
 74
     0
  0
LTYPE
  5
3C
330
5
100
AcDbSymbolTableRecord
100
AcDbLinetypeTableRecord
  2
PHANTOM
 70
     0
  3
Phantom ______  __  __  ______  __  __  ______
 72
    65
 73
     6
 40
0.5
 49
0.25
 74
     0
 49
-0.05
 74
     0
 49
0.05
 74
     0
 49
-0.05
 74
     0
 49
0.05
 74
     0
 49
-0.05
 74
     0
  0
LTYPE
  5
3D
330
5
100
AcDbSymbolTableRecord
100
AcDbLinetypeTableRecord
  2
CENTER
 70
     0
  3
Center ____ _ ____ _ ____ _ ____ _ ____ _ ____
 72
    65
 73
     4
 40
0.4
 49
0.25
 74
     0
 49
-0.05
 74
     0
 49
0.05
 74
     0
 49
-0.05
 74
     0
  0
LTYPE
  5
3E
330
5
100
AcDbSymbolTableRecord
100
AcDbLinetypeTableRecord
  2
CENTERX2
 70
     0
  3
Center (2x) ________  __  ________  __  _____
 72
    65
 73
     4
 40
0.8
 49
0.5
 74
     0
 49
-0.1
 74
     0
 49
0.1
 74
     0
 49
-0.1
 74
     0
  0
LTYPE
  5
3F
330
5
100
AcDbSymbolTableRecord
100
AcDbLinetypeTableRecord
  2
DOT2
 70
     0
  3
Dot (.5x) ........................................
 72
    65
 73
     2
 40
0.025
 49
0.0
 74
     0
 49
-0.025
 74
     0
  0
ENDTAB
  0
TABLE
  2
LAYER
  5
2
330
0
100
AcDbSymbolTable
 70
     2
  0
LAYER
  5
10
330
2
100
AcDbSymbolTableRecord
100
AcDbLayerTableRecord
  2
0
 70
     0
 62
     7
  6
CONTINUOUS
  0
LAYER
  5
40
330
2
100
AcDbSymbolTableRecord
100
AcDbLayerTableRecord
  2
FORMAT
 70
     0
 62
     7
  6
CONTINUOUS
  0
ENDTAB
  0
TABLE
  2
STYLE
  5
3
330
0
100
AcDbSymbolTable
 70
     4
  0
STYLE
  5
11
330
3
100
AcDbSymbolTableRecord
100
AcDbTextStyleTableRecord
  2
STANDARD
 70
     0
 40
0.0
 41
1.0
 50
0.0
 71
     0
 42
0.2
  3
txt
  4

  0
STYLE
  5
6E
330
3
100
AcDbSymbolTableRecord
100
AcDbTextStyleTableRecord
  2
SLDTEXTSTYLE0
 70
     0
 40
0.0
 41
0.75
 50
0.0
 71
     0
 42
0.2
  3
TXT
  4

  0
STYLE
  5
93
330
3
100
AcDbSymbolTableRecord
100
AcDbTextStyleTableRecord
  2
SLDTEXTSTYLE1
 70
     0
 40
0.0
 41
0.6875
 50
0.0
 71
     0
 42
0.2
  3
TXT
  4

  0
STYLE
  5
99
330
3
100
AcDbSymbolTableRecord
100
AcDbTextStyleTableRecord
  2
SLDTEXTSTYLE2
 70
     0
 40
0.0
 41
0.6944444444
 50
0.0
 71
     0
 42
0.2
  3
TXT
  4

  0
ENDTAB
  0
TABLE
  2
VIEW
  5
6
330
0
100
AcDbSymbolTable
 70
     0
  0
ENDTAB
  0
TABLE
  2
UCS
  5
7
330
0
100
AcDbSymbolTable
 70
     0
  0
ENDTAB
  0
TABLE
  2
APPID
  5
9
330
0
100
AcDbSymbolTable
 70
     1
  0
APPID
  5
12
330
9
100
AcDbSymbolTableRecord
100
AcDbRegAppTableRecord
  2
ACAD
 70
     0
  0
ENDTAB
  0
TABLE
  2
DIMSTYLE
  5
A
330
0
100
AcDbSymbolTable
 70
     1
  0
DIMSTYLE
105
27
330
A
100
AcDbSymbolTableRecord
100
AcDbDimStyleTableRecord
  2
STANDARD
 70
     0
  3

  4

  5

  6

  7

 40
1.0
 41
0.18
 42
0.0625
 43
0.38
 44
0.18
 45
0.0
 46
0.0
 47
0.0
 48
0.0
140
0.18
141
0.09
142
0.0
143
25.4
144
1.0
145
0.0
146
1.0
147
0.09
 71
     0
 72
     0
 73
     1
 74
     1
 75
     0
 76
     0
 77
     0
 78
     0
170
     0
171
     2
172
     0
173
     0
174
     0
175
     0
176
     0
177
     0
178
     0
270
     2
271
     4
272
     4
273
     2
274
     2
340
11
275
     0
280
     0
281
     0
282
     0
283
     1
284
     0
285
     0
286
     0
287
     3
288
     0
  0
ENDTAB
  0
TABLE
  2
BLOCK_RECORD
  5
1
330
0
100
AcDbSymbolTable
 70
     4
  0
BLOCK_RECORD
  5
1F
330
1
100
AcDbSymbolTableRecord
100
AcDbBlockTableRecord
  2
*MODEL_SPACE
  0
BLOCK_RECORD
  5
1B
330
1
100
AcDbSymbolTableRecord
100
AcDbBlockTableRecord
  2
*PAPER_SPACE
  0
BLOCK_RECORD
  5
A8
330
1
100
AcDbSymbolTableRecord
100
AcDbBlockTableRecord
  2
SW_NOTE_0
  0
BLOCK_RECORD
  5
AE
330
1
100
AcDbSymbolTableRecord
100
AcDbBlockTableRecord
  2
SW_NOTE_1
  0
BLOCK_RECORD
  5
C2
330
1
100
AcDbSymbolTableRecord
100
AcDbBlockTableRecord
  2
SW_NOTE_2
  0
ENDTAB
  0
ENDSEC
  0
SECTION
  2
BLOCKS
  0
BLOCK
  5
20
330
1F
100
AcDbEntity
  8
0
100
AcDbBlockBegin
  2
*MODEL_SPACE
 70
     0
 10
0.0
 20
0.0
 30
0.0
  3
*MODEL_SPACE
  1

  0
ENDBLK
  5
21
330
1F
100
AcDbEntity
  8
0
100
AcDbBlockEnd
  0
BLOCK
  5
1C
330
1B
100
AcDbEntity
 67
     1
  8
0
100
AcDbBlockBegin
  2
*PAPER_SPACE
 70
     0
 10
0.0
 20
0.0
 30
0.0
  3
*PAPER_SPACE
  1

  0
ENDBLK
  5
1D
330
1B
100
AcDbEntity
 67
     1
  8
0
100
AcDbBlockEnd
  0
BLOCK
  5
A9
330
A8
100
AcDbEntity
  8
0
100
AcDbBlockBegin
  2
SW_NOTE_0
 70
     0
 10
0.0
 20
0.0
 30
0.0
  3
SW_NOTE_0
  1

  0
MTEXT
  5
AB
330
A8
100
AcDbEntity
  8
0
  6
CONTINUOUS
 62
     0
100
AcDbMText
 10
0.0
 20
0.0773440644
 30
0.0
 40
0.06
 41
0.0
 71
     1
 72
     1
  1
INTERPRET GEOMETRIC
  7
SLDTEXTSTYLE0
  0
MTEXT
  5
AC
330
A8
100
AcDbEntity
  8
0
  6
CONTINUOUS
 62
     0
100
AcDbMText
 10
0.0
 20
-0.0220260102
 30
0.0
 40
0.06
 41
0.0
 71
     1
 72
     1
  1
TOLERANCING PER:
  7
SLDTEXTSTYLE0
  0
ENDBLK
  5
AA
330
A8
100
AcDbEntity
  8
0
100
AcDbBlockEnd
  0
BLOCK
  5
AF
330
AE
100
AcDbEntity
  8
0
100
AcDbBlockBegin
  2
SW_NOTE_1
 70
     0
 10
0.0
 20
0.0
 30
0.0
  3
SW_NOTE_1
  1

  0
MTEXT
  5
B1
330
AE
100
AcDbEntity
  8
0
  6
CONTINUOUS
 62
     0
100
AcDbMText
 10
0.0
 20
0.0837894031
 30
0.0
 40
0.065
 41
0.0
 71
     1
 72
     1
  1
DIMENSIONS ARE IN INCHES
  7
SLDTEXTSTYLE0
  0
MTEXT
  5
B2
330
AE
100
AcDbEntity
  8
0
  6
CONTINUOUS
 62
     0
100
AcDbMText
 10
0.0
 20
-0.0205806729
 30
0.0
 40
0.065
 41
0.0
 71
     1
 72
     1
  1
TOLERANCES:
  7
SLDTEXTSTYLE0
  0
MTEXT
  5
B3
330
AE
100
AcDbEntity
  8
0
  6
CONTINUOUS
 62
     0
100
AcDbMText
 10
0.0
 20
-0.1249507489
 30
0.0
 40
0.065
 41
0.0
 71
     1
 72
     1
  1
FRACTIONAL
  7
SLDTEXTSTYLE0
  0
MTEXT
  5
B4
330
AE
100
AcDbEntity
  8
0
  6
CONTINUOUS
 62
     0
100
AcDbMText
 10
0.5175850875
 20
-0.1249507489
 30
0.0
 40
0.065
 41
0.0
 71
     1
 72
     1
  1
%%p
  7
SLDTEXTSTYLE0
  0
MTEXT
  5
B5
330
AE
100
AcDbEntity
  8
0
  6
CONTINUOUS
 62
     0
100
AcDbMText
 10
0.0
 20
-0.2293208248
 30
0.0
 40
0.065
 41
0.0
 71
     1
 72
     1
  1
ANGULAR: MACH
  7
SLDTEXTSTYLE0
  0
MTEXT
  5
B6
330
AE
100
AcDbEntity
  8
0
  6
CONTINUOUS
 62
     0
100
AcDbMText
 10
0.7233732769
 20
-0.2293208248
 30
0.0
 40
0.065
 41
0.0
 71
     1
 72
     1
  1
%%p
  7
SLDTEXTSTYLE0
  0
MTEXT
  5
B7
330
AE
100
AcDbEntity
  8
0
  6
CONTINUOUS
 62
     0
100
AcDbMText
 10
0.7852857683
 20
-0.2293208248
 30
0.0
 40
0.065
 41
0.0
 71
     1
 72
     1
  1
     BEND 
  7
SLDTEXTSTYLE0
  0
MTEXT
  5
B8
330
AE
100
AcDbEntity
  8
0
  6
CONTINUOUS
 62
     0
100
AcDbMText
 10
1.14784136
 20
-0.2293208248
 30
0.0
 40
0.065
 41
0.0
 71
     1
 72
     1
  1
%%p
  7
SLDTEXTSTYLE0
  0
MTEXT
  5
B9
330
AE
100
AcDbEntity
  8
0
  6
CONTINUOUS
 62
     0
100
AcDbMText
 10
0.0
 20
-0.3336909008
 30
0.0
 40
0.065
 41
0.0
 71
     1
 72
     1
  1
TWO PLACE DECIMAL    
  7
SLDTEXTSTYLE0
  0
MTEXT
  5
BA
330
AE
100
AcDbEntity
  8
0
  6
CONTINUOUS
 62
     0
100
AcDbMText
 10
0.9794349188
 20
-0.3336909008
 30
0.0
 40
0.065
 41
0.0
 71
     1
 72
     1
  1
%%p
  7
SLDTEXTSTYLE0
  0
MTEXT
  5
BB
330
AE
100
AcDbEntity
  8
0
  6
CONTINUOUS
 62
     0
100
AcDbMText
 10
0.0
 20
-0.4380609768
 30
0.0
 40
0.065
 41
0.0
 71
     1
 72
     1
  1
THREE PLACE DECIMAL  
  7
SLDTEXTSTYLE0
  0
MTEXT
  5
BC
330
AE
100
AcDbEntity
  8
0
  6
CONTINUOUS
 62
     0
100
AcDbMText
 10
0.9738038639
 20
-0.4380609768
 30
0.0
 40
0.065
 41
0.0
 71
     1
 72
     1
  1
%%p
  7
SLDTEXTSTYLE0
  0
ENDBLK
  5
B0
330
AE
100
AcDbEntity
  8
0
100
AcDbBlockEnd
  0
BLOCK
  5
C3
330
C2
100
AcDbEntity
  8
0
100
AcDbBlockBegin
  2
SW_NOTE_2
 70
     0
 10
0.0
 20
0.0
 30
0.0
  3
SW_NOTE_2
  1

  0
MTEXT
  5
C5
330
C2
100
AcDbEntity
  8
0
  6
CONTINUOUS
 62
     0
100
AcDbMText
 10
0.0
 20
0.0773440644
 30
0.0
 40
0.06
 41
0.0
 71
     1
 72
     1
  1
THE INFORMATION CONTAINED IN THIS
  7
SLDTEXTSTYLE0
  0
MTEXT
  5
C6
330
C2
100
AcDbEntity
  8
0
  6
CONTINUOUS
 62
     0
100
AcDbMText
 10
0.0
 20
-0.0220260102
 30
0.0
 40
0.06
 41
0.0
 71
     1
 72
     1
  1
DRAWING IS THE SOLE PROPERTY OF
  7
SLDTEXTSTYLE0
  0
MTEXT
  5
C7
330
C2
100
AcDbEntity
  8
0
  6
CONTINUOUS
 62
     0
100
AcDbMText
 10
0.0
 20
-0.1213960848
 30
0.0
 40
0.06
 41
0.0
 71
     1
 72
     1
  1
Candy Controls.  ANY 
  7
SLDTEXTSTYLE0
  0
MTEXT
  5
C8
330
C2
100
AcDbEntity
  8
0
  6
CONTINUOUS
 62
     0
100
AcDbMText
 10
0.0
 20
-0.2207661593
 30
0.0
 40
0.06
 41
0.0
 71
     1
 72
     1
  1
REPRODUCTION IN PART OR AS A WHOLE
  7
SLDTEXTSTYLE0
  0
MTEXT
  5
C9
330
C2
100
AcDbEntity
  8
0
  6
CONTINUOUS
 62
     0
100
AcDbMText
 10
0.0
 20
-0.3201362339
 30
0.0
 40
0.06
 41
0.0
 71
     1
 72
     1
  1
WITHOUT THE WRITTEN PERMISSION OF
  7
SLDTEXTSTYLE0
  0
MTEXT
  5
CA
330
C2
100
AcDbEntity
  8
0
  6
CONTINUOUS
 62
     0
100
AcDbMText
 10
0.0
 20
-0.4195063085
 30
0.0
 40
0.06
 41
0.0
 71
     1
 72
     1
  1
Candy Controls IS 
  7
SLDTEXTSTYLE0
  0
MTEXT
  5
CB
330
C2
100
AcDbEntity
  8
0
  6
CONTINUOUS
 62
     0
100
AcDbMText
 10
0.0
 20
-0.518876383
 30
0.0
 40
0.06
 41
0.0
 71
     1
 72
     1
  1
PROHIBITED.
  7
SLDTEXTSTYLE0
  0
ENDBLK
  5
C4
330
C2
100
AcDbEntity
  8
0
100
AcDbBlockEnd
  0
ENDSEC
  0
SECTION
  2
ENTITIES
  0
LINE
  5
41
330
1F
100
AcDbEntity
  8
0
  6
CONTINUOUS
 62
     7
100
AcDbLine
 10
0.329927
 20
8.1920731707
 30
0.0
 11
10.629927
 21
8.1920731707
 31
0.0
  0
LINE
  5
42
330
1F
100
AcDbEntity
  8
0
  6
CONTINUOUS
 62
     7
100
AcDbLine
 10
0.329927
 20
8.1920731707
 30
0.0
 11
0.329927
 21
0.3920731707
 31
0.0
  0
LINE
  5
43
330
1F
100
AcDbEntity
  8
0
  6
CONTINUOUS
 62
     7
100
AcDbLine
 10
10.629927
 20
0.3920731707
 30
0.0
 11
0.329927
 21
0.3920731707
 31
0.0
  0
LINE
  5
44
330
1F
100
AcDbEntity
  8
0
  6
CONTINUOUS
 62
     7
100
AcDbLine
 10
10.629927
 20
0.3920731707
 30
0.0
 11
10.629927
 21
8.1920731707
 31
0.0
  0
LINE
  5
45
330
1F
100
AcDbEntity
  8
0
  6
CONTINUOUS
 62
     7
100
AcDbLine
 10
4.7981841288
 20
0.3920731707
 30
0.0
 11
4.7981841288
 21
2.3564211366
 31
0.0
  0
LINE
  5
46
330
1F
100
AcDbEntity
  8
0
  6
CONTINUOUS
 62
     7
100
AcDbLine
 10
2.8210345579
 20
2.3564211366
 30
0.0
 11
10.629927
 21
2.3564211366
 31
0.0
  0
LINE
  5
47
330
1F
100
AcDbEntity
  8
0
  6
CONTINUOUS
 62
     7
100
AcDbLine
 10
6.1796352514
 20
2.3564211366
 30
0.0
 11
6.1796352514
 21
0.3920731707
 31
0.0
  0
LINE
  5
48
330
1F
100
AcDbEntity
  8
0
  6
CONTINUOUS
 62
     7
100
AcDbLine
 10
7.8712070044
 20
2.3564211366
 30
0.0
 11
7.8712070044
 21
0.3920731707
 31
0.0
  0
LINE
  5
49
330
1F
100
AcDbEntity
  8
0
  6
CONTINUOUS
 62
     7
100
AcDbLine
 10
7.8712070044
 20
0.6049590101
 30
0.0
 11
10.629927
 21
0.6049590101
 31
0.0
  0
LINE
  5
4A
330
1F
100
AcDbEntity
  8
0
  6
CONTINUOUS
 62
     7
100
AcDbLine
 10
7.8712070044
 20
1.1119362457
 30
0.0
 11
10.629927
 21
1.1119362457
 31
0.0
  0
LINE
  5
4B
330
1F
100
AcDbEntity
  8
0
  6
CONTINUOUS
 62
     7
100
AcDbLine
 10
7.8712070044
 20
1.9892703708
 30
0.0
 11
10.629927
 21
1.9892703708
 31
0.0
  0
LINE
  5
4C
330
1F
100
AcDbEntity
  8
0
  6
CONTINUOUS
 62
     7
100
AcDbLine
 10
8.266751752
 20
1.1119362457
 30
0.0
 11
8.266751752
 21
0.6049590101
 31
0.0
  0
LINE
  5
4D
330
1F
100
AcDbEntity
  8
0
  6
CONTINUOUS
 62
     7
100
AcDbLine
 10
8.6943435176
 20
0.6049590101
 30
0.0
 11
8.6943435176
 21
0.3920731707
 31
0.0
  0
LINE
  5
4E
330
1F
100
AcDbEntity
  8
0
  6
CONTINUOUS
 62
     7
100
AcDbLine
 10
10.0579917045
 20
1.1119362457
 30
0.0
 11
10.0579917045
 21
0.6049590101
 31
0.0
  0
LINE
  5
4F
330
1F
100
AcDbEntity
  8
0
  6
CONTINUOUS
 62
     7
100
AcDbLine
 10
9.6662556631
 20
0.6049590101
 30
0.0
 11
9.6662556631
 21
0.3920731707
 31
0.0
  0
LINE
  5
50
330
1F
100
AcDbEntity
  8
0
  6
CONTINUOUS
 62
     7
100
AcDbLine
 10
2.8210345579
 20
0.5883479999
 30
0.0
 11
6.1796352514
 21
0.5883479999
 31
0.0
  0
LINE
  5
51
330
1F
100
AcDbEntity
  8
0
  6
CONTINUOUS
 62
     7
100
AcDbLine
 10
6.1796352514
 20
1.7939211366
 30
0.0
 11
7.8712070044
 21
1.7939211366
 31
0.0
  0
LINE
  5
52
330
1F
100
AcDbEntity
  8
0
  6
CONTINUOUS
 62
     7
100
AcDbLine
 10
6.1796352514
 20
1.9814211366
 30
0.0
 11
7.8712070044
 21
1.9814211366
 31
0.0
  0
LINE
  5
53
330
1F
100
AcDbEntity
  8
0
  6
CONTINUOUS
 62
     7
100
AcDbLine
 10
6.1796352514
 20
2.1689211366
 30
0.0
 11
7.8712070044
 21
2.1689211366
 31
0.0
  0
LINE
  5
54
330
1F
100
AcDbEntity
  8
0
  6
CONTINUOUS
 62
     7
100
AcDbLine
 10
7.8712070044
 20
1.2314211366
 30
0.0
 11
6.1796352514
 21
1.2314211366
 31
0.0
  0
LINE
  5
55
330
1F
100
AcDbEntity
  8
0
  6
CONTINUOUS
 62
     7
100
AcDbLine
 10
7.3921580388
 20
2.3564211366
 30
0.0
 11
7.3921580388
 21
1.2314211366
 31
0.0
  0
LINE
  5
56
330
1F
100
AcDbEntity
  8
0
  6
CONTINUOUS
 62
     7
100
AcDbLine
 10
6.9236308342
 20
2.3564211366
 30
0.0
 11
6.9236308342
 21
1.2314211366
 31
0.0
  0
LINE
  5
57
330
1F
100
AcDbEntity
  8
0
  6
CONTINUOUS
 62
     7
100
AcDbLine
 10
4.7981841288
 20
0.8557965305
 30
0.0
 11
6.1796352514
 21
0.8557965305
 31
0.0
  0
LINE
  5
58
330
1F
100
AcDbEntity
  8
0
  6
CONTINUOUS
 62
     7
100
AcDbLine
 10
4.7981841288
 20
1.1257965305
 30
0.0
 11
6.1796352514
 21
1.1257965305
 31
0.0
  0
LINE
  5
59
330
1F
100
AcDbEntity
  8
0
  6
CONTINUOUS
 62
     7
100
AcDbLine
 10
2.8210345579
 20
0.3920731707
 30
0.0
 11
2.8210345579
 21
2.3564211366
 31
0.0
  0
LINE
  5
5A
330
1F
100
AcDbEntity
  8
0
  6
CONTINUOUS
 62
     7
100
AcDbLine
 10
2.8210345579
 20
1.1064211366
 30
0.0
 11
4.7981841288
 21
1.1064211366
 31
0.0
  0
LINE
  5
5B
330
1F
100
AcDbEntity
  8
0
  6
CONTINUOUS
 62
     7
100
AcDbLine
 10
2.8210345579
 20
1.3564211366
 30
0.0
 11
4.7981841288
 21
1.3564211366
 31
0.0
  0
LINE
  5
5C
330
1F
100
AcDbEntity
  8
0
  6
CONTINUOUS
 62
     7
100
AcDbLine
 10
2.8210345579
 20
1.6064211366
 30
0.0
 11
4.7981841288
 21
1.6064211366
 31
0.0
  0
LINE
  5
5D
330
1F
100
AcDbEntity
  8
0
  6
CONTINUOUS
 62
     7
100
AcDbLine
 10
2.8210345579
 20
1.8564211366
 30
0.0
 11
4.7981841288
 21
1.8564211366
 31
0.0
  0
LINE
  5
5E
330
1F
100
AcDbEntity
  8
0
  6
CONTINUOUS
 62
     7
100
AcDbLine
 10
3.8190146875
 20
2.3564211366
 30
0.0
 11
3.8190146875
 21
0.5883479999
 31
0.0
  0
LINE
  5
5F
330
1F
100
AcDbEntity
  8
0
  6
CONTINUOUS
 62
     7
100
AcDbLine
 10
6.1796352514
 20
2.2020813496
 30
0.0
 11
4.7981841288
 21
2.2020813496
 31
0.0
  0
LINE
  5
60
330
1F
100
AcDbEntity
  8
0
  6
CONTINUOUS
 62
     7
100
AcDbLine
 10
7.8712070044
 20
1.6064211366
 30
0.0
 11
6.1796352514
 21
1.6064211366
 31
0.0
  0
LINE
  5
61
330
1F
100
AcDbEntity
  8
0
  6
CONTINUOUS
 62
     7
100
AcDbLine
 10
7.8712070044
 20
1.4189211366
 30
0.0
 11
6.1796352514
 21
1.4189211366
 31
0.0
  0
LINE
  5
62
330
1F
100
AcDbEntity
  8
0
  6
CONTINUOUS
 62
     7
100
AcDbLine
 10
2.8210345579
 20
2.1064211366
 30
0.0
 11
4.7981841288
 21
2.1064211366
 31
0.0
  0
LINE
  5
63
330
1F
100
AcDbEntity
  8
0
  6
CONTINUOUS
 62
     7
100
AcDbLine
 10
4.7981841288
 20
1.3957965305
 30
0.0
 11
6.1796352514
 21
1.3957965305
 31
0.0
  0
LINE
  5
64
330
1F
100
AcDbEntity
  8
0
  6
CONTINUOUS
 62
     7
100
AcDbLine
 10
2.8210345579
 20
0.8564211366
 30
0.0
 11
4.7981841288
 21
0.8564211366
 31
0.0
  0
LINE
  5
65
330
1F
100
AcDbEntity
  8
0
  6
CONTINUOUS
 62
     7
100
AcDbLine
 10
1.1838252943
 20
0.3920731707
 30
0.0
 11
1.1838252943
 21
1.3064211366
 31
0.0
  0
LINE
  5
66
330
1F
100
AcDbEntity
  8
0
  6
CONTINUOUS
 62
     7
100
AcDbLine
 10
2.8210345579
 20
1.3064211366
 30
0.0
 11
1.1838252943
 21
1.3064211366
 31
0.0
  0
LINE
  5
67
330
1F
100
AcDbEntity
  8
0
  6
CONTINUOUS
 62
     7
100
AcDbLine
 10
8.660927
 20
0.3920731707
 30
0.0
 11
8.660927
 21
0.3072739649
 31
0.0
  0
LINE
  5
68
330
1F
100
AcDbEntity
  8
0
  6
CONTINUOUS
 62
     7
100
AcDbLine
 10
6.692177
 20
0.3920731707
 30
0.0
 11
6.692177
 21
0.3072739649
 31
0.0
  0
LINE
  5
69
330
1F
100
AcDbEntity
  8
0
  6
CONTINUOUS
 62
     7
100
AcDbLine
 10
4.723427
 20
0.3920731707
 30
0.0
 11
4.723427
 21
0.3072739649
 31
0.0
  0
LINE
  5
6A
330
1F
100
AcDbEntity
  8
0
  6
CONTINUOUS
 62
     7
100
AcDbLine
 10
2.754677
 20
0.3920731707
 30
0.0
 11
2.754677
 21
0.3072739649
 31
0.0
  0
LINE
  5
6B
330
1F
100
AcDbEntity
  8
0
  6
CONTINUOUS
 62
     7
100
AcDbLine
 10
2.754677
 20
0.3920731707
 30
0.0
 11
2.7672319738
 21
0.3575
 31
0.0
  0
LINE
  5
6C
330
1F
100
AcDbEntity
  8
0
  6
CONTINUOUS
 62
     7
100
AcDbLine
 10
2.7672319738
 20
0.3575
 30
0.0
 11
2.7414258825
 21
0.3575
 31
0.0
  0
LINE
  5
6D
330
1F
100
AcDbEntity
  8
0
  6
CONTINUOUS
 62
     7
100
AcDbLine
 10
2.7414258825
 20
0.3575
 30
0.0
 11
2.754677
 21
0.3920731707
 31
0.0
  0
MTEXT
  5
91
330
1F
100
AcDbEntity
  8
0
  6
CONTINUOUS
 62
     7
100
AcDbMText
 10
4.9775846961
 20
0.5178452352
 30
0.0
 40
0.0625
 41
0.0
 71
     1
 72
     1
  1
DO NOT SCALE DRAWING
  7
SLDTEXTSTYLE0
  0
MTEXT
  5
92
330
1F
100
AcDbEntity
  8
0
  6
CONTINUOUS
 62
     7
100
AcDbMText
 10
8.8633648555
 20
0.9417064595
 30
0.0
 40
0.125
 41
0.0
 71
     1
 72
     1
  1
CL12-15
  7
SLDTEXTSTYLE0
  0
MTEXT
  5
94
330
1F
100
AcDbEntity
  8
0
  6
CONTINUOUS
 62
     7
100
AcDbMText
 10
9.7571278483
 20
0.5524239532
 30
0.0
 40
0.1
 41
0.0
 71
     1
 72
     1
  1
SHEET 1 OF 1
  7
SLDTEXTSTYLE1
  0
MTEXT
  5
95
330
1F
100
AcDbEntity
  8
0
  6
CONTINUOUS
 62
     7
100
AcDbMText
 10
4.8448077858
 20
2.3132954224
 30
0.0
 40
0.07
 41
0.0
 71
     1
 72
     1
  1
UNLESS OTHERWISE SPECIFIED:
  7
SLDTEXTSTYLE0
  0
MTEXT
  5
96
330
1F
100
AcDbEntity
  8
0
  6
CONTINUOUS
 62
     7
100
AcDbMText
 10
7.9586139647
 20
0.5520987879
 30
0.0
 40
0.1
 41
0.0
 71
     1
 72
     1
  1
SCALE: 2:1
  7
SLDTEXTSTYLE0
  0
MTEXT
  5
97
330
1F
100
AcDbEntity
  8
0
  6
CONTINUOUS
 62
     7
100
AcDbMText
 10
8.7023691647
 20
0.5486763345
 30
0.0
 40
0.1
 41
0.0
 71
     1
 72
     1
  1
WEIGHT: 
  7
SLDTEXTSTYLE0
  0
MTEXT
  5
98
330
1F
100
AcDbEntity
  8
0
  6
CONTINUOUS
 62
     7
100
AcDbMText
 10
10.2277580983
 20
1.081966299
 30
0.0
 40
0.1
 41
0.0
 71
     1
 72
     1
  1
REV
  7
SLDTEXTSTYLE0
  0
MTEXT
  5
9A
330
1F
100
AcDbEntity
  8
0
  6
CONTINUOUS
 62
     7
100
AcDbMText
 10
8.2984570898
 20
1.0858725293
 30
0.0
 40
0.1
 41
0.0
 71
     1
 72
     1
  1
DWG.  NO.
  7
SLDTEXTSTYLE2
  0
MTEXT
  5
9B
330
1F
100
AcDbEntity
  8
0
  6
CONTINUOUS
 62
     7
100
AcDbMText
 10
7.9598482632
 20
0.9442140768
 30
0.0
 40
0.25
 41
0.0
 71
     1
 72
     1
  1
A
  7
SLDTEXTSTYLE0
  0
MTEXT
  5
9C
330
1F
100
AcDbEntity
  8
0
  6
CONTINUOUS
 62
     7
100
AcDbMText
 10
7.9519581822
 20
1.0872713483
 30
0.0
 40
0.1
 41
0.0
 71
     1
 72
     1
  1
SIZE
  7
SLDTEXTSTYLE0
  0
MTEXT
  5
9D
330
1F
100
AcDbEntity
  8
0
  6
CONTINUOUS
 62
     7
100
AcDbMText
 10
7.9170704177
 20
1.9547881128
 30
0.0
 40
0.1
 41
0.0
 71
     1
 72
     1
  1
TITLE:
  7
SLDTEXTSTYLE0
  0
MTEXT
  5
9E
330
1F
100
AcDbEntity
  8
0
  6
CONTINUOUS
 62
     7
100
AcDbMText
 10
7.0363774929
 20
2.2906161274
 30
0.0
 40
0.065
 41
0.0
 71
     1
 72
     1
  1
NAME
  7
SLDTEXTSTYLE0
  0
MTEXT
  5
9F
330
1F
100
AcDbEntity
  8
0
  6
CONTINUOUS
 62
     7
100
AcDbMText
 10
7.5281510634
 20
2.2888799118
 30
0.0
 40
0.065
 41
0.0
 71
     1
 72
     1
  1
DATE
  7
SLDTEXTSTYLE0
  0
MTEXT
  5
A0
330
1F
100
AcDbEntity
  8
0
  6
CONTINUOUS
 62
     7
100
AcDbMText
 10
6.2277147029
 20
1.1876913145
 30
0.0
 40
0.065
 41
0.0
 71
     1
 72
     1
  1
COMMENTS:
  7
SLDTEXTSTYLE0
  0
MTEXT
  5
A1
330
1F
100
AcDbEntity
  8
0
  6
CONTINUOUS
 62
     7
100
AcDbMText
 10
6.2268411461
 20
1.3536101679
 30
0.0
 40
0.065
 41
0.0
 71
     1
 72
     1
  1
Q.A.
  7
SLDTEXTSTYLE0
  0
MTEXT
  5
A2
330
1F
100
AcDbEntity
  8
0
  6
CONTINUOUS
 62
     7
100
AcDbMText
 10
6.2284654509
 20
1.5395328424
 30
0.0
 40
0.065
 41
0.0
 71
     1
 72
     1
  1
MFG APPR.
  7
SLDTEXTSTYLE0
  0
MTEXT
  5
A3
330
1F
100
AcDbEntity
  8
0
  6
CONTINUOUS
 62
     7
100
AcDbMText
 10
6.2235171344
 20
1.7267501785
 30
0.0
 40
0.065
 41
0.0
 71
     1
 72
     1
  1
ENG APPR.
  7
SLDTEXTSTYLE0
  0
MTEXT
  5
A4
330
1F
100
AcDbEntity
  8
0
  6
CONTINUOUS
 62
     7
100
AcDbMText
 10
6.2264103951
 20
1.9092699088
 30
0.0
 40
0.065
 41
0.0
 71
     1
 72
     1
  1
CHECKED
  7
SLDTEXTSTYLE0
  0
MTEXT
  5
A5
330
1F
100
AcDbEntity
  8
0
  6
CONTINUOUS
 62
     7
100
AcDbMText
 10
6.2242794356
 20
2.1016301232
 30
0.0
 40
0.065
 41
0.0
 71
     1
 72
     1
  1
DRAWN
  7
SLDTEXTSTYLE0
  0
MTEXT
  5
A6
330
1F
100
AcDbEntity
  8
0
  6
CONTINUOUS
 62
     7
100
AcDbMText
 10
4.8208600979
 20
0.834523235
 30
0.0
 40
0.06
 41
0.0
 71
     1
 72
     1
  1
FINISH
  7
SLDTEXTSTYLE0
  0
MTEXT
  5
A7
330
1F
100
AcDbEntity
  8
0
  6
CONTINUOUS
 62
     7
100
AcDbMText
 10
4.8181240648
 20
1.1028217587
 30
0.0
 40
0.06
 41
0.0
 71
     1
 72
     1
  1
MATERIAL
  7
SLDTEXTSTYLE0
  0
INSERT
  5
AD
330
1F
100
AcDbEntity
  8
0
  6
CONTINUOUS
 62
     7
100
AcDbBlockReference
  2
SW_NOTE_0
 10
4.8231926633
 20
1.2646542947
 30
0.0
  0
INSERT
  5
BD
330
1F
100
AcDbEntity
  8
0
  6
CONTINUOUS
 62
     7
100
AcDbBlockReference
  2
SW_NOTE_1
 10
4.8353339353
 20
2.0049168724
 30
0.0
  0
MTEXT
  5
BE
330
1F
100
AcDbEntity
  8
0
  6
CONTINUOUS
 62
     7
100
AcDbMText
 10
3.5531400086
 20
0.5200091997
 30
0.0
 40
0.0625
 41
0.0
 71
     1
 72
     1
  1
APPLICATION
  7
SLDTEXTSTYLE0
  0
MTEXT
  5
BF
330
1F
100
AcDbEntity
  8
0
  6
CONTINUOUS
 62
     7
100
AcDbMText
 10
4.1005607758
 20
0.7502454275
 30
0.0
 40
0.0625
 41
0.0
 71
     1
 72
     1
  1
USED ON
  7
SLDTEXTSTYLE0
  0
MTEXT
  5
C0
330
1F
100
AcDbEntity
  8
0
  6
CONTINUOUS
 62
     7
100
AcDbMText
 10
3.1040019536
 20
0.7492094783
 30
0.0
 40
0.0625
 41
0.0
 71
     1
 72
     1
  1
NEXT ASSY
  7
SLDTEXTSTYLE0
  0
MTEXT
  5
C1
330
1F
100
AcDbEntity
  8
0
  6
CONTINUOUS
 62
     7
100
AcDbMText
 10
1.3712489489
 20
1.2496672684
 30
0.0
 40
0.06
 41
0.0
 71
     1
 72
     1
  1
PROPRIETARY AND CONFIDENTIAL
  7
SLDTEXTSTYLE0
  0
INSERT
  5
CC
330
1F
100
AcDbEntity
  8
0
  6
CONTINUOUS
 62
     7
100
AcDbBlockReference
  2
SW_NOTE_2
 10
1.2226209074
 20
1.0313492921
 30
0.0
  0
MTEXT
  5
CD
330
1F
100
AcDbEntity
  8
0
  6
CONTINUOUS
 62
     7
100
AcDbMText
 10
1.7387909509
 20
0.3105864247
 30
0.0
 40
0.09375
 41
0.0
 71
     1
 72
     1
  1
5
  7
SLDTEXTSTYLE0
  0
MTEXT
  5
CE
330
1F
100
AcDbEntity
  8
0
  6
CONTINUOUS
 62
     7
100
AcDbMText
 10
3.723800327
 20
0.3137237518
 30
0.0
 40
0.09375
 41
0.0
 71
     1
 72
     1
  1
4
  7
SLDTEXTSTYLE0
  0
MTEXT
  5
CF
330
1F
100
AcDbEntity
  8
0
  6
CONTINUOUS
 62
     7
100
AcDbMText
 10
5.6324457277
 20
0.3116191842
 30
0.0
 40
0.09375
 41
0.0
 71
     1
 72
     1
  1
3
  7
SLDTEXTSTYLE0
  0
MTEXT
  5
D0
330
1F
100
AcDbEntity
  8
0
  6
CONTINUOUS
 62
     7
100
AcDbMText
 10
7.6059721724
 20
0.3124391351
 30
0.0
 40
0.09375
 41
0.0
 71
     1
 72
     1
  1
2
  7
SLDTEXTSTYLE0
  0
MTEXT
  5
D1
330
1F
100
AcDbEntity
  8
0
  6
CONTINUOUS
 62
     7
100
AcDbMText
 10
9.6619921328
 20
0.301372012
 30
0.0
 40
0.09375
 41
0.0
 71
     1
 72
     1
  1
1
  7
SLDTEXTSTYLE0
  0
LINE
  5
D2
330
1F
100
AcDbEntity
  8
0
  6
CONTINUOUS
 62
     7
100
AcDbLine
 10
4.1627778357
 20
3.1641900974
 30
0.0
 11
4.1927778357
 21
3.1941900974
 31
0.0
  0
LINE
  5
D3
330
1F
100
AcDbEntity
  8
0
  6
CONTINUOUS
 62
     7
100
AcDbLine
 10
4.1927778357
 20
4.3152924596
 30
0.0
 11
4.1627778357
 21
4.3452924596
 31
0.0
  0
LINE
  5
D4
330
1F
100
AcDbEntity
  8
0
  6
CONTINUOUS
 62
     7
100
AcDbLine
 10
2.4904943711
 20
4.3452924596
 30
0.0
 11
2.4604943711
 21
4.3152924596
 31
0.0
  0
LINE
  5
D5
330
1F
100
AcDbEntity
  8
0
  6
CONTINUOUS
 62
     7
100
AcDbLine
 10
2.4604943711
 20
3.1941900974
 30
0.0
 11
2.4904943711
 21
3.1641900974
 31
0.0
  0
LINE
  5
D6
330
1F
100
AcDbEntity
  8
0
  6
CONTINUOUS
 62
     7
100
AcDbLine
 10
3.5809843261
 20
3.1641900974
 30
0.0
 11
4.1627778357
 21
3.1641900974
 31
0.0
  0
LINE
  5
D7
330
1F
100
AcDbEntity
  8
0
  6
CONTINUOUS
 62
     7
100
AcDbLine
 10
3.1449588015
 20
3.1641900974
 30
0.0
 11
3.5083134053
 21
3.1641900974
 31
0.0
  0
LINE
  5
D8
330
1F
100
AcDbEntity
  8
0
  6
CONTINUOUS
 62
     7
100
AcDbLine
 10
2.4904943711
 20
3.1641900974
 30
0.0
 11
3.0722878807
 21
3.1641900974
 31
0.0
  0
LINE
  5
D9
330
1F
100
AcDbEntity
  8
0
  6
CONTINUOUS
 62
     7
100
AcDbLine
 10
2.5706506318
 20
4.3452924596
 30
0.0
 11
2.4904943711
 21
4.3452924596
 31
0.0
  0
LINE
  5
DA
330
1F
100
AcDbEntity
  8
0
  6
CONTINUOUS
 62
     7
100
AcDbLine
 10
3.0722878807
 20
4.3452924596
 30
0.0
 11
2.8542746272
 21
4.3452924596
 31
0.0
  0
LINE
  5
DB
330
1F
100
AcDbEntity
  8
0
  6
CONTINUOUS
 62
     7
100
AcDbLine
 10
3.5083134053
 20
4.3452924596
 30
0.0
 11
3.1449588015
 21
4.3452924596
 31
0.0
  0
LINE
  5
DC
330
1F
100
AcDbEntity
  8
0
  6
CONTINUOUS
 62
     7
100
AcDbLine
 10
3.7989970885
 20
4.3452924596
 30
0.0
 11
3.5809843261
 21
4.3452924596
 31
0.0
  0
LINE
  5
DD
330
1F
100
AcDbEntity
  8
0
  6
CONTINUOUS
 62
     7
100
AcDbLine
 10
4.1627778357
 20
4.3452924596
 30
0.0
 11
4.0826210839
 21
4.3452924596
 31
0.0
  0
LINE
  5
DE
330
1F
100
AcDbEntity
  8
0
  6
CONTINUOUS
 62
     7
100
AcDbLine
 10
3.5083134053
 20
3.3610404911
 30
0.0
 11
3.5809843261
 21
3.3610404911
 31
0.0
  0
LINE
  5
DF
330
1F
100
AcDbEntity
  8
0
  6
CONTINUOUS
 62
     7
100
AcDbLine
 10
3.0722878807
 20
3.3610404911
 30
0.0
 11
3.1449588015
 21
3.3610404911
 31
0.0
  0
LINE
  5
E0
330
1F
100
AcDbEntity
  8
0
  6
CONTINUOUS
 62
     7
100
AcDbLine
 10
3.5809843261
 20
4.1484420659
 30
0.0
 11
3.5083134053
 21
4.1484420659
 31
0.0
  0
LINE
  5
E1
330
1F
100
AcDbEntity
  8
0
  6
CONTINUOUS
 62
     7
100
AcDbLine
 10
3.1449588015
 20
4.1484420659
 30
0.0
 11
3.0722878807
 21
4.1484420659
 31
0.0
  0
LINE
  5
E2
330
1F
100
AcDbEntity
  8
0
  6
CONTINUOUS
 62
     7
100
AcDbLine
 10
4.0469405635
 20
4.337271464
 30
0.0
 11
4.038919568
 21
4.3452924596
 31
0.0
  0
LINE
  5
E3
330
1F
100
AcDbEntity
  8
0
  6
CONTINUOUS
 62
     7
100
AcDbLine
 10
3.8426990955
 20
4.3452924596
 30
0.0
 11
3.8346783706
 21
4.3372717347
 31
0.0
  0
LINE
  5
E4
330
1F
100
AcDbEntity
  8
0
  6
CONTINUOUS
 62
     7
100
AcDbLine
 10
2.8185941068
 20
4.337271464
 30
0.0
 11
2.8105731113
 21
4.3452924596
 31
0.0
  0
LINE
  5
E5
330
1F
100
AcDbEntity
  8
0
  6
CONTINUOUS
 62
     7
100
AcDbLine
 10
2.6143526388
 20
4.3452924596
 30
0.0
 11
2.6063319139
 21
4.3372717347
 31
0.0
  0
LINE
  5
E6
330
1F
100
AcDbEntity
  8
0
  6
CONTINUOUS
 62
     7
100
AcDbLine
 10
4.1927778357
 20
4.3152924596
 30
0.0
 11
4.1927778357
 21
3.1941900974
 31
0.0
  0
LINE
  5
E7
330
1F
100
AcDbEntity
  8
0
  6
CONTINUOUS
 62
     7
100
AcDbLine
 10
4.1627778357
 20
3.1641900974
 30
0.0
 11
4.1627778357
 21
4.3452924596
 31
0.0
  0
LINE
  5
E8
330
1F
100
AcDbEntity
  8
0
  6
CONTINUOUS
 62
     7
100
AcDbLine
 10
2.4904943711
 20
4.3452924596
 30
0.0
 11
2.4904943711
 21
3.1641900974
 31
0.0
  0
LINE
  5
E9
330
1F
100
AcDbEntity
  8
0
  6
CONTINUOUS
 62
     7
100
AcDbLine
 10
2.4604943711
 20
3.1941900974
 30
0.0
 11
2.4604943711
 21
4.3152924596
 31
0.0
  0
LINE
  5
EA
330
1F
100
AcDbEntity
  8
0
  6
CONTINUOUS
 62
     7
100
AcDbLine
 10
3.4356424845
 20
3.1694629814
 30
0.0
 11
3.4356424845
 21
4.3400195757
 31
0.0
  0
LINE
  5
EB
330
1F
100
AcDbEntity
  8
0
  6
CONTINUOUS
 62
     7
100
AcDbLine
 10
3.3629715638
 20
4.3400195757
 30
0.0
 11
3.4356424845
 21
4.3400195757
 31
0.0
  0
LINE
  5
EC
330
1F
100
AcDbEntity
  8
0
  6
CONTINUOUS
 62
     7
100
AcDbLine
 10
3.3629715638
 20
4.3400195757
 30
0.0
 11
3.3629715638
 21
3.1694629814
 31
0.0
  0
LINE
  5
ED
330
1F
100
AcDbEntity
  8
0
  6
CONTINUOUS
 62
     7
100
AcDbLine
 10
3.4356424845
 20
3.1694629814
 30
0.0
 11
3.3629715638
 21
3.1694629814
 31
0.0
  0
LINE
  5
EE
330
1F
100
AcDbEntity
  8
0
  6
CONTINUOUS
 62
     7
100
AcDbLine
 10
2.9269460392
 20
4.3400195757
 30
0.0
 11
2.9269460392
 21
3.1694629814
 31
0.0
  0
LINE
  5
EF
330
1F
100
AcDbEntity
  8
0
  6
CONTINUOUS
 62
     7
100
AcDbLine
 10
2.9269460392
 20
3.1694629814
 30
0.0
 11
2.9996169599
 21
3.1694629814
 31
0.0
  0
LINE
  5
F0
330
1F
100
AcDbEntity
  8
0
  6
CONTINUOUS
 62
     7
100
AcDbLine
 10
2.9996169599
 20
3.1694629814
 30
0.0
 11
2.9996169599
 21
4.3400195757
 31
0.0
  0
LINE
  5
F1
330
1F
100
AcDbEntity
  8
0
  6
CONTINUOUS
 62
     7
100
AcDbLine
 10
2.9996169599
 20
4.3400195757
 30
0.0
 11
2.9269460392
 21
4.3400195757
 31
0.0
  0
ARC
  5
F2
330
1F
100
AcDbEntity
  8
0
  6
CONTINUOUS
 62
     7
100
AcDbCircle
 10
3.9408093462
 20
4.8843237039
 30
0.0
 40
0.5573736617265099
100
AcDbArc
 50
255.2602217332
 51
284.7397229975
  0
ARC
  5
F3
330
1F
100
AcDbEntity
  8
0
  6
CONTINUOUS
 62
     7
100
AcDbCircle
 10
2.7124628895
 20
4.8843237039
 30
0.0
 40
0.5573736617264096
100
AcDbArc
 50
255.2602217332
 51
284.7397229975
  0
LINE
  5
F4
330
1F
100
AcDbEntity
  8
0
  6
CONTINUOUS
 62
     7
100
AcDbLine
 10
3.290300643
 20
3.1694629814
 30
0.0
 11
3.290300643
 21
4.3400195757
 31
0.0
  0
LINE
  5
F5
330
1F
100
AcDbEntity
  8
0
  6
CONTINUOUS
 62
     7
100
AcDbLine
 10
3.2176297222
 20
4.3400195757
 30
0.0
 11
3.290300643
 21
4.3400195757
 31
0.0
  0
LINE
  5
F6
330
1F
100
AcDbEntity
  8
0
  6
CONTINUOUS
 62
     7
100
AcDbLine
 10
3.2176297222
 20
4.3400195757
 30
0.0
 11
3.2176297222
 21
3.1694629814
 31
0.0
  0
LINE
  5
F7
330
1F
100
AcDbEntity
  8
0
  6
CONTINUOUS
 62
     7
100
AcDbLine
 10
3.290300643
 20
3.1694629814
 30
0.0
 11
3.2176297222
 21
3.1694629814
 31
0.0
  0
LINE
  5
F8
330
1F
100
AcDbEntity
  8
0
  6
CONTINUOUS
 62
     7
100
AcDbLine
 10
3.6536552468
 20
4.3400195757
 30
0.0
 11
3.6536552468
 21
3.1694629814
 31
0.0
  0
LINE
  5
F9
330
1F
100
AcDbEntity
  8
0
  6
CONTINUOUS
 62
     7
100
AcDbLine
 10
3.6536552468
 20
3.1694629814
 30
0.0
 11
3.7263261676
 21
3.1694629814
 31
0.0
  0
LINE
  5
FA
330
1F
100
AcDbEntity
  8
0
  6
CONTINUOUS
 62
     7
100
AcDbLine
 10
3.7263261676
 20
3.1694629814
 30
0.0
 11
3.7263261676
 21
4.3400195757
 31
0.0
  0
LINE
  5
FB
330
1F
100
AcDbEntity
  8
0
  6
CONTINUOUS
 62
     7
100
AcDbLine
 10
3.7263261676
 20
4.3400195757
 30
0.0
 11
3.6536552468
 21
4.3400195757
 31
0.0
  0
LINE
  5
FC
330
1F
100
AcDbEntity
  8
0
  6
CONTINUOUS
 62
     7
100
AcDbLine
 10
3.0722878807
 20
3.676001121
 30
0.0
 11
3.1449588015
 21
3.676001121
 31
0.0
  0
LINE
  5
FD
330
1F
100
AcDbEntity
  8
0
  6
CONTINUOUS
 62
     7
100
AcDbLine
 10
3.0722878807
 20
3.1641900974
 30
0.0
 11
3.0722878807
 21
3.676001121
 31
0.0
  0
LINE
  5
FE
330
1F
100
AcDbEntity
  8
0
  6
CONTINUOUS
 62
     7
100
AcDbLine
 10
3.1449588015
 20
3.676001121
 30
0.0
 11
3.1449588015
 21
3.1641900974
 31
0.0
  0
LINE
  5
FF
330
1F
100
AcDbEntity
  8
0
  6
CONTINUOUS
 62
     7
100
AcDbLine
 10
3.5083134053
 20
3.676001121
 30
0.0
 11
3.5809843261
 21
3.676001121
 31
0.0
  0
LINE
  5
100
330
1F
100
AcDbEntity
  8
0
  6
CONTINUOUS
 62
     7
100
AcDbLine
 10
3.5083134053
 20
3.1641900974
 30
0.0
 11
3.5083134053
 21
3.676001121
 31
0.0
  0
LINE
  5
101
330
1F
100
AcDbEntity
  8
0
  6
CONTINUOUS
 62
     7
100
AcDbLine
 10
3.5809843261
 20
3.676001121
 30
0.0
 11
3.5809843261
 21
3.1641900974
 31
0.0
  0
LINE
  5
102
330
1F
100
AcDbEntity
  8
0
  6
CONTINUOUS
 62
     7
100
AcDbLine
 10
3.0722878807
 20
4.3452924596
 30
0.0
 11
3.0722878807
 21
3.833481436
 31
0.0
  0
LINE
  5
103
330
1F
100
AcDbEntity
  8
0
  6
CONTINUOUS
 62
     7
100
AcDbLine
 10
3.1449588015
 20
3.833481436
 30
0.0
 11
3.0722878807
 21
3.833481436
 31
0.0
  0
LINE
  5
104
330
1F
100
AcDbEntity
  8
0
  6
CONTINUOUS
 62
     7
100
AcDbLine
 10
3.1449588015
 20
3.833481436
 30
0.0
 11
3.1449588015
 21
4.3452924596
 31
0.0
  0
LINE
  5
105
330
1F
100
AcDbEntity
  8
0
  6
CONTINUOUS
 62
     7
100
AcDbLine
 10
3.5083134053
 20
4.3452924596
 30
0.0
 11
3.5083134053
 21
3.833481436
 31
0.0
  0
LINE
  5
106
330
1F
100
AcDbEntity
  8
0
  6
CONTINUOUS
 62
     7
100
AcDbLine
 10
3.5809843261
 20
3.833481436
 30
0.0
 11
3.5083134053
 21
3.833481436
 31
0.0
  0
LINE
  5
107
330
1F
100
AcDbEntity
  8
0
  6
CONTINUOUS
 62
     7
100
AcDbLine
 10
3.5809843261
 20
3.833481436
 30
0.0
 11
3.5809843261
 21
4.3452924596
 31
0.0
  0
LINE
  5
108
330
1F
100
AcDbEntity
  8
0
  6
CONTINUOUS
 62
     7
100
AcDbLine
 10
2.9996169599
 20
3.3689948623
 30
0.0
 11
2.9269460392
 21
3.3689948623
 31
0.0
  0
LINE
  5
109
330
1F
100
AcDbEntity
  8
0
  6
CONTINUOUS
 62
     7
100
AcDbLine
 10
2.9269460392
 20
4.1404876947
 30
0.0
 11
2.9996169599
 21
4.1404876947
 31
0.0
  0
LINE
  5
10A
330
1F
100
AcDbEntity
  8
0
  6
CONTINUOUS
 62
     7
100
AcDbLine
 10
3.7263261676
 20
3.3689948623
 30
0.0
 11
3.6536552468
 21
3.3689948623
 31
0.0
  0
LINE
  5
10B
330
1F
100
AcDbEntity
  8
0
  6
CONTINUOUS
 62
     7
100
AcDbLine
 10
3.6536552468
 20
4.1404876947
 30
0.0
 11
3.7263261676
 21
4.1404876947
 31
0.0
  0
LINE
  5
10C
330
1F
100
AcDbEntity
  8
0
  6
CONTINUOUS
 62
     7
100
AcDbLine
 10
3.4356424845
 20
4.1404876947
 30
0.0
 11
3.3629715638
 21
4.1404876947
 31
0.0
  0
LINE
  5
10D
330
1F
100
AcDbEntity
  8
0
  6
CONTINUOUS
 62
     7
100
AcDbLine
 10
3.3629715638
 20
3.3689948623
 30
0.0
 11
3.4356424845
 21
3.3689948623
 31
0.0
  0
LINE
  5
10E
330
1F
100
AcDbEntity
  8
0
  6
CONTINUOUS
 62
     7
100
AcDbLine
 10
3.290300643
 20
4.1404876947
 30
0.0
 11
3.2176297222
 21
4.1404876947
 31
0.0
  0
LINE
  5
10F
330
1F
100
AcDbEntity
  8
0
  6
CONTINUOUS
 62
     7
100
AcDbLine
 10
3.2176297222
 20
3.3689948623
 30
0.0
 11
3.290300643
 21
3.3689948623
 31
0.0
  0
LINE
  5
110
330
1F
100
AcDbEntity
  8
0
  6
CONTINUOUS
 62
     7
100
AcDbLine
 10
3.8426990955
 20
4.3452924596
 30
0.0
 11
4.038919568
 21
4.3452924596
 31
0.0
  0
LINE
  5
111
330
1F
100
AcDbEntity
  8
0
  6
CONTINUOUS
 62
     7
100
AcDbLine
 10
2.8105731113
 20
4.3452924596
 30
0.0
 11
2.6143526388
 21
4.3452924596
 31
0.0
  0
SPLINE
  5
112
330
1F
100
AcDbEntity
  8
0
  6
HIDDEN
 62
     7
100
AcDbSpline
210
0.0
220
0.0
230
1.0
 70
     8
 71
     3
 72
    31
 73
    27
 74
     0
 42
0.00000001
 43
0.00000001
 40
-0.1263276065912119
 40
-0.0837925932608847
 40
-0.0426397999037245
 40
0.0
 40
0.0426500526040945
 40
0.083806461692215
 40
0.1263365874035132
 40
0.1686159920087408
 40
0.2087343349922064
 40
0.2499044526050747
 40
0.2911184183034714
 40
0.3313043148548885
 40
0.3736789387538482
 40
0.4161628666140238
 40
0.4573089502800081
 40
0.4999923657300731
 40
0.5426684042556271
 40
0.5838376183450038
 40
0.6263748842664454
 40
0.668642583280462
 40
0.708795503292014
 40
0.7500387440780938
 40
0.7911902147693225
 40
0.831325882880915
 40
0.8736723934087881
 40
0.9162074067391153
 40
0.9573602000962755
 40
1.0
 40
1.042650052604094
 40
1.083806461692215
 40
1.126336587403513
 10
3.801828696778601
 20
3.793184480252389
 30
0.0
 10
3.79755397078717
 20
3.754737956044022
 30
0.0
 10
3.801837086964336
 20
3.716291548452596
 30
0.0
 10
3.816185845456376
 20
3.680426965998961
 30
0.0
 10
3.839447208023511
 20
3.650065488053671
 30
0.0
 10
3.868706599708569
 20
3.625945532395
 30
0.0
 10
3.903467228808188
 20
3.611040286055638
 30
0.0
 10
3.940733858209324
 20
3.606606930648724
 30
0.0
 10
3.978025511221249
 20
3.611019318446317
 30
0.0
 10
4.012849448895317
 20
3.625935599428405
 30
0.0
 10
4.042159493584035
 20
3.650049654605007
 30
0.0
 10
4.065451966975827
 20
3.680405070482758
 30
0.0
 10
4.079789215025259
 20
3.71626877710088
 30
0.0
 10
4.084063683685461
 20
3.754733290063115
 30
0.0
 10
4.079788358671859
 20
3.793206119673854
 30
0.0
 10
4.065430939791834
 20
3.829083689225726
 30
0.0
 10
4.042154684848663
 20
3.859438393895737
 30
0.0
 10
4.012866516796754
 20
3.883540413956367
 30
0.0
 10
3.97806824068954
 20
3.898427276773606
 30
0.0
 10
3.940792248512764
 20
3.902874576376489
 30
0.0
 10
3.903508482306175
 20
3.89848328761162
 30
0.0
 10
3.868728999848389
 20
3.883563886599819
 30
0.0
 10
3.839453337173879
 20
3.859422713804672
 30
0.0
 10
3.816176236860743
 20
3.829047535132605
 30
0.0
 10
3.801828696778601
 20
3.793184480252389
 30
0.0
 10
3.79755397078717
 20
3.754737956044022
 30
0.0
 10
3.801837086964336
 20
3.716291548452596
 30
0.0
  0
SPLINE
  5
113
330
1F
100
AcDbEntity
  8
0
  6
HIDDEN
 62
     7
100
AcDbSpline
210
0.0
220
0.0
230
1.0
 70
     8
 71
     3
 72
    31
 73
    27
 74
     0
 42
0.00000001
 43
0.00000001
 40
-0.1263276065912181
 40
-0.0837925932609141
 40
-0.0426397999037536
 40
0.0
 40
0.042650052603978
 40
0.0838064616920982
 40
0.1263365874034904
 40
0.1686159920086317
 40
0.2087343349920969
 40
0.2499044526050762
 40
0.2911184183034726
 40
0.3313043148548896
 40
0.3736789387538497
 40
0.4161628666141039
 40
0.4573089502800877
 40
0.4999923657300887
 40
0.5426684042557064
 40
0.5838376183450834
 40
0.6263748842664458
 40
0.6686425832804623
 40
0.7087955032920146
 40
0.7500387440780947
 40
0.7911902147692952
 40
0.831325882880887
 40
0.8736723934087819
 40
0.9162074067390859
 40
0.9573602000962464
 40
1.0
 40
1.042650052603978
 40
1.083806461692098
 40
1.126336587403491
 10
2.573482240085686
 20
3.793184480252406
 30
0.0
 10
2.569207514094256
 20
3.754737956044067
 30
0.0
 10
2.573490630271432
 20
3.716291548452667
 30
0.0
 10
2.58783938876349
 20
3.680426965999051
 30
0.0
 10
2.611100751330557
 20
3.650065488053715
 30
0.0
 10
2.640360143015569
 20
3.625945532394976
 30
0.0
 10
2.675120772115207
 20
3.611040286055629
 30
0.0
 10
2.712387401516376
 20
3.606606930648726
 30
0.0
 10
2.749679054528336
 20
3.611019318446317
 30
0.0
 10
2.784502992202403
 20
3.625935599428406
 30
0.0
 10
2.813813036891136
 20
3.650049654605026
 30
0.0
 10
2.83710551028295
 20
3.680405070482789
 30
0.0
 10
2.851442758332401
 20
3.716268777100912
 30
0.0
 10
2.855717226992546
 20
3.754733290063156
 30
0.0
 10
2.85144190197889
 20
3.793206119673886
 30
0.0
 10
2.837084483098883
 20
3.829083689225755
 30
0.0
 10
2.813808228155733
 20
3.859438393895755
 30
0.0
 10
2.784520060103839
 20
3.883540413956366
 30
0.0
 10
2.749721783996627
 20
3.898427276773606
 30
0.0
 10
2.712445791819859
 20
3.902874576376489
 30
0.0
 10
2.675162025613278
 20
3.898483287611617
 30
0.0
 10
2.640382543155498
 20
3.883563886599813
 30
0.0
 10
2.611106880480976
 20
3.859422713804683
 30
0.0
 10
2.587829780167824
 20
3.829047535132627
 30
0.0
 10
2.573482240085686
 20
3.793184480252406
 30
0.0
 10
2.569207514094256
 20
3.754737956044067
 30
0.0
 10
2.573490630271432
 20
3.716291548452667
 30
0.0
  0
SPLINE
  5
114
330
1F
100
AcDbEntity
  8
0
  6
HIDDEN
 62
     7
100
AcDbSpline
210
0.0
220
0.0
230
1.0
 70
     8
 71
     3
 72
    54
 73
    50
 74
     0
 42
0.00000001
 43
0.00000001
 40
-0.0312500000000002
 40
-0.0312500000000002
 40
0.0
 40
0.0
 40
0.0312499999999998
 40
0.0312499999999998
 40
0.0624999999999996
 40
0.0624999999999996
 40
0.1249999999999992
 40
0.1249999999999992
 40
0.1874999999999987
 40
0.1874999999999987
 40
0.2187499999999985
 40
0.2187499999999985
 40
0.2499999999999983
 40
0.2499999999999983
 40
0.2812499999999981
 40
0.2812499999999981
 40
0.3124999999999978
 40
0.3124999999999978
 40
0.3749999999999978
 40
0.3749999999999978
 40
0.4374999999999978
 40
0.4374999999999978
 40
0.4999999999999979
 40
0.4999999999999979
 40
0.5312499999999979
 40
0.5312499999999979
 40
0.5624999999999979
 40
0.5624999999999979
 40
0.624999999999998
 40
0.624999999999998
 40
0.6562499999999981
 40
0.6562499999999981
 40
0.6874999999999981
 40
0.6874999999999981
 40
0.7499999999999982
 40
0.7499999999999982
 40
0.7812499999999983
 40
0.7812499999999983
 40
0.8124999999999986
 40
0.8124999999999986
 40
0.8749999999999989
 40
0.8749999999999989
 40
0.9062499999999992
 40
0.9062499999999992
 40
0.9374999999999994
 40
0.9374999999999994
 40
0.9687499999999998
 40
0.9687499999999998
 40
1.0
 40
1.0
 40
1.03125
 40
1.03125
 10
3.822699095510536
 20
3.762682902280302
 30
0.0
 10
3.822699095510536
 20
3.74679965475576
 30
0.0
 10
3.823491719673496
 20
3.739014878381464
 30
0.0
 10
3.826574479950058
 20
3.723739014105304
 30
0.0
 10
3.828907022044177
 20
3.716171376207723
 30
0.0
 10
3.837878005269298
 20
3.694790336552432
 30
0.0
 10
3.846625283240911
 20
3.681882324703999
 30
0.0
 10
3.868037737744112
 20
3.660489714873354
 30
0.0
 10
3.880912823732671
 20
3.651798045505125
 30
0.0
 10
3.902105033827329
 20
3.642889933098267
 30
0.0
 10
3.909650386496395
 20
3.640548651704217
 30
0.0
 10
3.92493400177369
 20
3.637443325485939
 30
0.0
 10
3.932678864131938
 20
3.636649874426327
 30
0.0
 10
3.948383128682627
 20
3.636612866087044
 30
0.0
 10
3.956342447814672
 20
3.637397972135068
 30
0.0
 10
3.971621815613519
 20
3.640455146003432
 30
0.0
 10
3.979115821455666
 20
3.642747220448303
 30
0.0
 10
4.000568750515664
 20
3.651692974513766
 30
0.0
 10
4.01341933849797
 20
3.660363581282826
 30
0.0
 10
4.034880894492442
 20
3.681735087700129
 30
0.0
 10
4.043660069615225
 20
3.694677327632516
 30
0.0
 10
4.055601493400506
 20
3.722981050267132
 30
0.0
 10
4.058875638844108
 20
3.738746079071028
 30
0.0
 10
4.058940850455322
 20
3.762247278058236
 30
0.0
 10
4.05816116198581
 20
3.770223477499258
 30
0.0
 10
4.055096591921069
 20
3.785556416156785
 30
0.0
 10
4.052827522555534
 20
3.792989202561876
 30
0.0
 10
4.043814025141098
 20
3.814606665114786
 30
0.0
 10
4.035116286375487
 20
3.827454031399742
 30
0.0
 10
4.019008522746048
 20
3.843581832214659
 30
0.0
 10
4.013174213239044
 20
3.848398123098871
 30
0.0
 10
4.000518386638422
 20
3.856932811310993
 30
0.0
 10
3.993688290725467
 20
3.860630648678318
 30
0.0
 10
3.972500576699875
 20
3.869547869623574
 30
0.0
 10
3.956737073346436
 20
3.87281257953597
 30
0.0
 10
3.933282536471801
 20
3.872870443195628
 30
0.0
 10
3.925353628543514
 20
3.872098639333111
 30
0.0
 10
3.909960898938889
 20
3.86902164906683
 30
0.0
 10
3.90254912337626
 20
3.866751066226467
 30
0.0
 10
3.881095998758834
 20
3.857815904437981
 30
0.0
 10
3.868231393172965
 20
3.849161903858912
 30
0.0
 10
3.852022911528257
 20
3.833004906254047
 30
0.0
 10
3.847194585477133
 20
3.827160229052991
 30
0.0
 10
3.838656253748719
 20
3.814515635658086
 30
0.0
 10
3.834921498737778
 20
3.807631774466354
 30
0.0
 10
3.8289372172233
 20
3.793397037897924
 30
0.0
 10
3.826644815581438
 20
3.786011256327854
 30
0.0
 10
3.823515827999794
 20
3.770665544351909
 30
0.0
 10
3.822699095510536
 20
3.762682902280302
 30
0.0
 10
3.822699095510536
 20
3.74679965475576
 30
0.0
  0
SPLINE
  5
115
330
1F
100
AcDbEntity
  8
0
  6
HIDDEN
 62
     7
100
AcDbSpline
210
0.0
220
0.0
230
1.0
 70
     8
 71
     3
 72
    28
 73
    24
 74
     0
 42
0.00000001
 43
0.00000001
 40
0.0
 40
0.0
 40
0.0
 40
0.0
 40
0.0184898602065776
 40
0.0655770639520402
 40
0.1140011750849506
 40
0.1618454724580042
 40
0.2108549361628267
 40
0.2632189466429516
 40
0.3169234888333617
 40
0.3723802877283491
 40
0.4297114260333156
 40
0.4806581176169148
 40
0.5334705992581465
 40
0.5790565028497995
 40
0.6258620805411912
 40
0.6736684126664078
 40
0.7225731862006868
 40
0.7763123147261352
 40
0.8315213521678334
 40
0.8864587683783142
 40
0.943314185664324
 40
0.9932196332439273
 40
1.0
 40
1.0
 40
1.0
 40
1.0
 10
4.058532339754992
 20
3.990768473225253
 30
0.0
 10
4.058639322648052
 20
3.990821848518785
 30
0.0
 10
4.059018753532955
 20
3.9910111520072
 30
0.0
 10
4.056621929571908
 20
3.989813762866046
 30
0.0
 10
4.051711575356756
 20
3.98742025349887
 30
0.0
 10
4.044031181027091
 20
3.983836064775429
 30
0.0
 10
4.03386808318069
 20
3.979406036862842
 30
0.0
 10
4.021024976005087
 20
3.974345948010084
 30
0.0
 10
4.005471810876186
 20
3.969092592442117
 30
0.0
 10
3.98742590877716
 20
3.964278576326605
 30
0.0
 10
3.968009987067161
 20
3.96079894230285
 30
0.0
 10
3.947921706749254
 20
3.959122540752978
 30
0.0
 10
3.929026867563753
 20
3.959373998241109
 30
0.0
 10
3.911082149727612
 20
3.9612399870157
 30
0.0
 10
3.894565022320193
 20
3.964277935130714
 30
0.0
 10
3.878861798186192
 20
3.968323897517638
 30
0.0
 10
3.863965429425424
 20
3.973132388993787
 30
0.0
 10
3.850317112574361
 20
3.978331818407577
 30
0.0
 10
3.838665923876865
 20
3.983334372778946
 30
0.0
 10
3.829621252561711
 20
3.987549775152676
 30
0.0
 10
3.824445873104536
 20
3.99008670242379
 30
0.0
 10
3.822328321405573
 20
3.991146475373936
 30
0.0
 10
3.822822814273158
 20
3.990900094618884
 30
0.0
 10
3.822881962104759
 20
3.990870624249613
 30
0.0
  0
SPLINE
  5
116
330
1F
100
AcDbEntity
  8
0
  6
HIDDEN
 62
     7
100
AcDbSpline
210
0.0
220
0.0
230
1.0
 70
     8
 71
     3
 72
    54
 73
    50
 74
     0
 42
0.00000001
 43
0.00000001
 40
-0.0312500000000002
 40
-0.0312500000000002
 40
0.0
 40
0.0
 40
0.0312499999999999
 40
0.0312499999999999
 40
0.0624999999999998
 40
0.0624999999999998
 40
0.1249999999999996
 40
0.1249999999999996
 40
0.1874999999999994
 40
0.1874999999999994
 40
0.2187499999999995
 40
0.2187499999999995
 40
0.2499999999999996
 40
0.2499999999999996
 40
0.2812499999999998
 40
0.2812499999999998
 40
0.3124999999999998
 40
0.3124999999999998
 40
0.3749999999999998
 40
0.3749999999999998
 40
0.4374999999999998
 40
0.4374999999999998
 40
0.4999999999999998
 40
0.4999999999999998
 40
0.5312499999999998
 40
0.5312499999999998
 40
0.5624999999999998
 40
0.5624999999999998
 40
0.6249999999999996
 40
0.6249999999999996
 40
0.6562499999999996
 40
0.6562499999999996
 40
0.6874999999999996
 40
0.6874999999999996
 40
0.7499999999999992
 40
0.7499999999999992
 40
0.7812499999999992
 40
0.7812499999999992
 40
0.8124999999999992
 40
0.8124999999999992
 40
0.8749999999999991
 40
0.8749999999999991
 40
0.9062499999999993
 40
0.9062499999999993
 40
0.9374999999999996
 40
0.9374999999999996
 40
0.9687499999999998
 40
0.9687499999999998
 40
1.0
 40
1.0
 40
1.03125
 40
1.03125
 10
2.594352638817623
 20
3.762682902280302
 30
0.0
 10
2.594352638817623
 20
3.74679965475576
 30
0.0
 10
2.595145262980582
 20
3.739014878381464
 30
0.0
 10
2.598228023257145
 20
3.723739014105304
 30
0.0
 10
2.600560565351264
 20
3.716171376207723
 30
0.0
 10
2.609531548576384
 20
3.694790336552432
 30
0.0
 10
2.618278826547998
 20
3.681882324703999
 30
0.0
 10
2.6396912810512
 20
3.660489714873354
 30
0.0
 10
2.652566367039757
 20
3.651798045505125
 30
0.0
 10
2.673758577134415
 20
3.642889933098267
 30
0.0
 10
2.681303929803482
 20
3.640548651704217
 30
0.0
 10
2.696587545080776
 20
3.63744332548594
 30
0.0
 10
2.704332407439024
 20
3.636649874426327
 30
0.0
 10
2.720036671989714
 20
3.636612866087044
 30
0.0
 10
2.727995991121758
 20
3.637397972135068
 30
0.0
 10
2.743275358920606
 20
3.640455146003432
 30
0.0
 10
2.750769364762753
 20
3.642747220448303
 30
0.0
 10
2.772222293822751
 20
3.651692974513767
 30
0.0
 10
2.785072881805057
 20
3.660363581282826
 30
0.0
 10
2.806534437799529
 20
3.68173508770013
 30
0.0
 10
2.815313612922312
 20
3.694677327632517
 30
0.0
 10
2.827255036707593
 20
3.722981050267132
 30
0.0
 10
2.830529182151194
 20
3.738746079071028
 30
0.0
 10
2.830594393762409
 20
3.762247278058237
 30
0.0
 10
2.829814705292896
 20
3.770223477499258
 30
0.0
 10
2.826750135228155
 20
3.785556416156786
 30
0.0
 10
2.82448106586262
 20
3.792989202561876
 30
0.0
 10
2.815467568448184
 20
3.814606665114786
 30
0.0
 10
2.806769829682574
 20
3.827454031399743
 30
0.0
 10
2.790662066053135
 20
3.843581832214659
 30
0.0
 10
2.784827756546131
 20
3.848398123098871
 30
0.0
 10
2.772171929945509
 20
3.856932811310993
 30
0.0
 10
2.765341834032554
 20
3.860630648678318
 30
0.0
 10
2.744154120006962
 20
3.869547869623574
 30
0.0
 10
2.728390616653523
 20
3.87281257953597
 30
0.0
 10
2.704936079778887
 20
3.872870443195628
 30
0.0
 10
2.697007171850599
 20
3.872098639333111
 30
0.0
 10
2.681614442245975
 20
3.86902164906683
 30
0.0
 10
2.674202666683346
 20
3.866751066226467
 30
0.0
 10
2.65274954206592
 20
3.857815904437981
 30
0.0
 10
2.639884936480052
 20
3.849161903858912
 30
0.0
 10
2.623676454835344
 20
3.833004906254047
 30
0.0
 10
2.618848128784219
 20
3.827160229052991
 30
0.0
 10
2.610309797055806
 20
3.814515635658086
 30
0.0
 10
2.606575042044864
 20
3.807631774466354
 30
0.0
 10
2.600590760530387
 20
3.793397037897924
 30
0.0
 10
2.598298358888524
 20
3.786011256327854
 30
0.0
 10
2.595169371306881
 20
3.770665544351909
 30
0.0
 10
2.594352638817623
 20
3.762682902280302
 30
0.0
 10
2.594352638817623
 20
3.74679965475576
 30
0.0
  0
SPLINE
  5
117
330
1F
100
AcDbEntity
  8
0
  6
HIDDEN
 62
     7
100
AcDbSpline
210
0.0
220
0.0
230
1.0
 70
     8
 71
     3
 72
    28
 73
    24
 74
     0
 42
0.00000001
 43
0.00000001
 40
0.0
 40
0.0
 40
0.0
 40
0.0
 40
0.0184898602065783
 40
0.0655770639520408
 40
0.1140011750849512
 40
0.1618454724580048
 40
0.2108549361628272
 40
0.263218946642952
 40
0.3169234888333619
 40
0.372380287728349
 40
0.429711426033316
 40
0.480658117616915
 40
0.5334705992581463
 40
0.5790565028497996
 40
0.6258620805411909
 40
0.6736684126664075
 40
0.7225731862006871
 40
0.7763123147261353
 40
0.8315213521678334
 40
0.886458768378314
 40
0.943314185664324
 40
0.9932196332439271
 40
1.0
 40
1.0
 40
1.0
 40
1.0
 10
2.830185883062078
 20
3.990768473225253
 30
0.0
 10
2.830292865955138
 20
3.990821848518785
 30
0.0
 10
2.830672296840041
 20
3.991011152007199
 30
0.0
 10
2.828275472878995
 20
3.989813762866046
 30
0.0
 10
2.823365118663843
 20
3.98742025349887
 30
0.0
 10
2.815684724334178
 20
3.983836064775429
 30
0.0
 10
2.805521626487776
 20
3.979406036862842
 30
0.0
 10
2.792678519312173
 20
3.974345948010084
 30
0.0
 10
2.777125354183272
 20
3.969092592442117
 30
0.0
 10
2.759079452084247
 20
3.964278576326605
 30
0.0
 10
2.739663530374247
 20
3.96079894230285
 30
0.0
 10
2.719575250056341
 20
3.959122540752978
 30
0.0
 10
2.700680410870839
 20
3.959373998241108
 30
0.0
 10
2.682735693034698
 20
3.9612399870157
 30
0.0
 10
2.66621856562728
 20
3.964277935130714
 30
0.0
 10
2.650515341493278
 20
3.968323897517638
 30
0.0
 10
2.63561897273251
 20
3.973132388993787
 30
0.0
 10
2.621970655881447
 20
3.978331818407577
 30
0.0
 10
2.610319467183951
 20
3.983334372778946
 30
0.0
 10
2.601274795868797
 20
3.987549775152676
 30
0.0
 10
2.596099416411622
 20
3.99008670242379
 30
0.0
 10
2.59398186471266
 20
3.991146475373936
 30
0.0
 10
2.594476357580245
 20
3.990900094618884
 30
0.0
 10
2.594535505411845
 20
3.990870624249613
 30
0.0
  0
SPLINE
  5
118
330
1F
100
AcDbEntity
  8
0
  6
HIDDEN
 62
     7
100
AcDbSpline
210
0.0
220
0.0
230
1.0
 70
     8
 71
     3
 72
    24
 73
    20
 74
     0
 42
0.00000001
 43
0.00000001
 40
0.0
 40
0.0
 40
0.0
 40
0.0
 40
0.0510856703407502
 40
0.109725867870788
 40
0.1760122856872507
 40
0.2500047818497174
 40
0.3249694873122135
 40
0.391559176086141
 40
0.4498297318355743
 40
0.499871461239532
 40
0.5499415447962732
 40
0.608240819961823
 40
0.6748594633691058
 40
0.7498532813109245
 40
0.8239788524641416
 40
0.8903273098189516
 40
0.9489581350424243
 40
0.9999629226276049
 40
1.0
 40
1.0
 40
1.0
 40
1.0
 10
2.594352638817623
 20
4.325820559268202
 30
0.0
 10
2.594652291219514
 20
4.325696908269646
 30
0.0
 10
2.595295908492965
 20
4.325431320815491
 30
0.0
 10
2.601008956840293
 20
4.323616062757805
 30
0.0
 10
2.611700098513819
 20
4.320853811300363
 30
0.0
 10
2.628286803185352
 20
4.316928932342252
 30
0.0
 10
2.649252665126742
 20
4.312994865145202
 30
0.0
 10
2.671650728060941
 20
4.310157065344883
 30
0.0
 10
2.692743606893517
 20
4.308398430771277
 30
0.0
 10
2.712426958751956
 20
4.307717726928886
 30
0.0
 10
2.732114741573518
 20
4.308398034585745
 30
0.0
 10
2.753221931964515
 20
4.310155724708686
 30
0.0
 10
2.775631178767783
 20
4.312990614931969
 30
0.0
 10
2.796637578173296
 20
4.316930171064321
 30
0.0
 10
2.813186996841281
 20
4.320834832862949
 30
0.0
 10
2.824067164359414
 20
4.323669754360671
 30
0.0
 10
2.829202447617792
 20
4.325268905671771
 30
0.0
 10
2.831081423911251
 20
4.326005092449935
 30
0.0
 10
2.830572372343355
 20
4.325820291037921
 30
0.0
 10
2.830572002562694
 20
4.325820156796143
 30
0.0
  0
SPLINE
  5
119
330
1F
100
AcDbEntity
  8
0
  6
HIDDEN
 62
     7
100
AcDbSpline
210
0.0
220
0.0
230
1.0
 70
     8
 71
     3
 72
    24
 73
    20
 74
     0
 42
0.00000001
 43
0.00000001
 40
0.0
 40
0.0
 40
0.0
 40
0.0
 40
0.0510856703407508
 40
0.1097258678707886
 40
0.1760122856872504
 40
0.2500047818497159
 40
0.3249694873122116
 40
0.3915591760861382
 40
0.449829731835571
 40
0.4998714612395275
 40
0.5499415447966269
 40
0.6082408199622947
 40
0.6748594633694583
 40
0.7498532813109225
 40
0.8239788524637901
 40
0.8903273098184823
 40
0.9489581350420718
 40
0.9999629226276053
 40
1.0
 40
1.0
 40
1.0
 40
1.0
 10
3.822699095510536
 20
4.325820559268202
 30
0.0
 10
3.822998747912428
 20
4.325696908269646
 30
0.0
 10
3.823642365185878
 20
4.325431320815491
 30
0.0
 10
3.829355413533206
 20
4.323616062757805
 30
0.0
 10
3.840046555206732
 20
4.320853811300363
 30
0.0
 10
3.856633259878266
 20
4.316928932342252
 30
0.0
 10
3.877599121819656
 20
4.312994865145202
 30
0.0
 10
3.899997184753856
 20
4.310157065344883
 30
0.0
 10
3.921090063586431
 20
4.308398430771275
 30
0.0
 10
3.940773415444915
 20
4.307717726928886
 30
0.0
 10
3.960461198266536
 20
4.308398034585743
 30
0.0
 10
3.981568388657571
 20
4.310155724708681
 30
0.0
 10
4.003977635460783
 20
4.312990614931965
 30
0.0
 10
4.024984034866201
 20
4.31693017106432
 30
0.0
 10
4.041533453534135
 20
4.320834832862959
 30
0.0
 10
4.052413621052271
 20
4.32366975436066
 30
0.0
 10
4.057548904310709
 20
4.32526890567182
 30
0.0
 10
4.059427880604138
 20
4.32600509244985
 30
0.0
 10
4.058918829036268
 20
4.325820291037921
 30
0.0
 10
4.058918459255608
 20
4.325820156796143
 30
0.0
  0
CIRCLE
  5
11A
330
1F
100
AcDbEntity
  8
0
  6
HIDDEN
 62
     7
100
AcDbCircle
 10
3.9408093317
 20
3.7547412785
 30
0.0
 40
0.0981102362204731
  0
LINE
  5
11B
330
1F
100
AcDbEntity
  8
0
  6
HIDDEN
 62
     7
100
AcDbLine
 10
4.058919568
 20
3.7547412785
 30
0.0
 11
4.0588845777
 21
3.7518665269
 31
0.0
  0
POLYLINE
  5
11C
330
1F
100
AcDbEntity
  8
0
  6
HIDDEN
 62
     7
100
AcDb2dPolyline
 66
     1
 10
0.0
 20
0.0
 30
0.0
  0
VERTEX
  5
2A6
330
11C
100
AcDbEntity
  8
0
  6
HIDDEN
 62
     7
100
AcDbVertex
100
AcDb2dVertex
 10
3.8228169541
 20
3.7494661742
 30
0.0
  0
VERTEX
  5
2A7
330
11C
100
AcDbEntity
  8
0
  6
HIDDEN
 62
     7
100
AcDbVertex
100
AcDb2dVertex
 10
3.8229065288
 20
3.7617382031
 30
0.0
  0
VERTEX
  5
2A8
330
11C
100
AcDbEntity
  8
0
  6
HIDDEN
 62
     7
100
AcDbVertex
100
AcDb2dVertex
 10
3.8240966423
 20
3.7728569076
 30
0.0
  0
SEQEND
  5
2A9
330
11C
100
AcDbEntity
  8
0
  6
HIDDEN
 62
     7
  0
LINE
  5
11D
330
1F
100
AcDbEntity
  8
0
  6
HIDDEN
 62
     7
100
AcDbLine
 10
4.0580956502
 20
3.7686677782
 30
0.0
 11
4.058919568
 21
3.7547412785
 31
0.0
  0
LINE
  5
11E
330
1F
100
AcDbEntity
  8
0
  6
HIDDEN
 62
     7
100
AcDbLine
 10
3.9408093317
 20
3.6865503018
 30
0.0
 11
3.8817542136
 21
3.7206457902
 31
0.0
  0
LINE
  5
11F
330
1F
100
AcDbEntity
  8
0
  6
HIDDEN
 62
     7
100
AcDbLine
 10
3.9998644498
 20
3.7206457902
 30
0.0
 11
3.9408093317
 21
3.6865503018
 31
0.0
  0
LINE
  5
120
330
1F
100
AcDbEntity
  8
0
  6
HIDDEN
 62
     7
100
AcDbLine
 10
3.9998644498
 20
3.7888367669
 30
0.0
 11
3.9998644498
 21
3.7206457902
 31
0.0
  0
LINE
  5
121
330
1F
100
AcDbEntity
  8
0
  6
HIDDEN
 62
     7
100
AcDbLine
 10
3.8817542136
 20
3.7888367669
 30
0.0
 11
3.9408093317
 21
3.8229322552
 31
0.0
  0
LINE
  5
122
330
1F
100
AcDbEntity
  8
0
  6
HIDDEN
 62
     7
100
AcDbLine
 10
3.8817542136
 20
3.7206457902
 30
0.0
 11
3.8817542136
 21
3.7888367669
 31
0.0
  0
LINE
  5
123
330
1F
100
AcDbEntity
  8
0
  6
HIDDEN
 62
     7
100
AcDbLine
 10
3.9408093317
 20
3.8229322552
 30
0.0
 11
3.9998644498
 21
3.7888367669
 31
0.0
  0
CIRCLE
  5
124
330
1F
100
AcDbEntity
  8
0
  6
HIDDEN
 62
     7
100
AcDbCircle
 10
2.712462875
 20
3.7547412785
 30
0.0
 40
0.0981102362204727
  0
LINE
  5
125
330
1F
100
AcDbEntity
  8
0
  6
HIDDEN
 62
     7
100
AcDbLine
 10
2.6534077569
 20
3.7206457902
 30
0.0
 11
2.712462875
 21
3.6865503018
 31
0.0
  0
LINE
  5
126
330
1F
100
AcDbEntity
  8
0
  6
HIDDEN
 62
     7
100
AcDbLine
 10
2.6534077569
 20
3.7888367669
 30
0.0
 11
2.6534077569
 21
3.7206457902
 31
0.0
  0
LINE
  5
127
330
1F
100
AcDbEntity
  8
0
  6
HIDDEN
 62
     7
100
AcDbLine
 10
2.712462875
 20
3.6865503018
 30
0.0
 11
2.7715179931
 21
3.7206457902
 31
0.0
  0
LINE
  5
128
330
1F
100
AcDbEntity
  8
0
  6
HIDDEN
 62
     7
100
AcDbLine
 10
2.7715179931
 20
3.7206457902
 30
0.0
 11
2.7715179931
 21
3.7888367669
 31
0.0
  0
LINE
  5
129
330
1F
100
AcDbEntity
  8
0
  6
HIDDEN
 62
     7
100
AcDbLine
 10
2.712462875
 20
3.8229322552
 30
0.0
 11
2.6534077569
 21
3.7888367669
 31
0.0
  0
LINE
  5
12A
330
1F
100
AcDbEntity
  8
0
  6
HIDDEN
 62
     7
100
AcDbLine
 10
2.7715179931
 20
3.7888367669
 30
0.0
 11
2.712462875
 21
3.8229322552
 31
0.0
  0
LINE
  5
12B
330
1F
100
AcDbEntity
  8
0
  6
HIDDEN
 62
     7
100
AcDbLine
 10
4.058919568
 20
4.3252924596
 30
0.0
 11
3.8226990955
 21
4.3252924596
 31
0.0
  0
LINE
  5
12C
330
1F
100
AcDbEntity
  8
0
  6
HIDDEN
 62
     7
100
AcDbLine
 10
3.8226990955
 20
4.010961751
 30
0.0
 11
4.058919568
 21
4.010961751
 31
0.0
  0
LINE
  5
12D
330
1F
100
AcDbEntity
  8
0
  6
HIDDEN
 62
     7
100
AcDbLine
 10
4.038919568
 20
3.990961751
 30
0.0
 11
3.8426990955
 21
3.990961751
 31
0.0
  0
LINE
  5
12E
330
1F
100
AcDbEntity
  8
0
  6
HIDDEN
 62
     7
100
AcDbLine
 10
3.9408093317
 20
4.2452924596
 30
0.0
 11
3.9408093317
 21
4.3452924596
 31
0.0
  0
LINE
  5
12F
330
1F
100
AcDbEntity
  8
0
  6
HIDDEN
 62
     7
100
AcDbLine
 10
3.9408093317
 20
4.2452924596
 30
0.0
 11
3.9998644498
 21
4.2452924596
 31
0.0
  0
LINE
  5
130
330
1F
100
AcDbEntity
  8
0
  6
HIDDEN
 62
     7
100
AcDbLine
 10
3.8817542136
 20
4.2452924596
 30
0.0
 11
3.9408093317
 21
4.2452924596
 31
0.0
  0
LINE
  5
131
330
1F
100
AcDbEntity
  8
0
  6
HIDDEN
 62
     7
100
AcDbLine
 10
3.8817542136
 20
4.2452924596
 30
0.0
 11
3.8817542136
 21
4.3452924596
 31
0.0
  0
LINE
  5
132
330
1F
100
AcDbEntity
  8
0
  6
HIDDEN
 62
     7
100
AcDbLine
 10
3.9998644498
 20
4.2452924596
 30
0.0
 11
3.9998644498
 21
4.3452924596
 31
0.0
  0
LINE
  5
133
330
1F
100
AcDbEntity
  8
0
  6
HIDDEN
 62
     7
100
AcDbLine
 10
2.5943526388
 20
4.3252924596
 30
0.0
 11
2.8305731113
 21
4.3252924596
 31
0.0
  0
LINE
  5
134
330
1F
100
AcDbEntity
  8
0
  6
HIDDEN
 62
     7
100
AcDbLine
 10
2.8305731113
 20
4.010961751
 30
0.0
 11
2.5943526388
 21
4.010961751
 31
0.0
  0
LINE
  5
135
330
1F
100
AcDbEntity
  8
0
  6
HIDDEN
 62
     7
100
AcDbLine
 10
2.6143526388
 20
3.990961751
 30
0.0
 11
2.8105731113
 21
3.990961751
 31
0.0
  0
LINE
  5
136
330
1F
100
AcDbEntity
  8
0
  6
HIDDEN
 62
     7
100
AcDbLine
 10
2.712462875
 20
4.2452924596
 30
0.0
 11
2.712462875
 21
4.3452924596
 31
0.0
  0
LINE
  5
137
330
1F
100
AcDbEntity
  8
0
  6
HIDDEN
 62
     7
100
AcDbLine
 10
2.7715179931
 20
4.2452924596
 30
0.0
 11
2.712462875
 21
4.2452924596
 31
0.0
  0
LINE
  5
138
330
1F
100
AcDbEntity
  8
0
  6
HIDDEN
 62
     7
100
AcDbLine
 10
2.712462875
 20
4.2452924596
 30
0.0
 11
2.6534077569
 21
4.2452924596
 31
0.0
  0
LINE
  5
139
330
1F
100
AcDbEntity
  8
0
  6
HIDDEN
 62
     7
100
AcDbLine
 10
2.7715179931
 20
4.2452924596
 30
0.0
 11
2.7715179931
 21
4.3452924596
 31
0.0
  0
LINE
  5
13A
330
1F
100
AcDbEntity
  8
0
  6
HIDDEN
 62
     7
100
AcDbLine
 10
2.6534077569
 20
4.2452924596
 30
0.0
 11
2.6534077569
 21
4.3452924596
 31
0.0
  0
LINE
  5
13B
330
1F
100
AcDbEntity
  8
0
  6
HIDDEN
 62
     7
100
AcDbLine
 10
2.4604943711
 20
3.4885208061
 30
0.0
 11
2.4904943711
 21
3.5185208061
 31
0.0
  0
LINE
  5
13C
330
1F
100
AcDbEntity
  8
0
  6
HIDDEN
 62
     7
100
AcDbLine
 10
2.4904943711
 20
3.990961751
 30
0.0
 11
2.4604943711
 21
4.020961751
 31
0.0
  0
LINE
  5
13D
330
1F
100
AcDbEntity
  8
0
  6
HIDDEN
 62
     7
100
AcDbLine
 10
4.1927778357
 20
4.020961751
 30
0.0
 11
4.1627778357
 21
3.990961751
 31
0.0
  0
LINE
  5
13E
330
1F
100
AcDbEntity
  8
0
  6
HIDDEN
 62
     7
100
AcDbLine
 10
4.1627778357
 20
3.5185208061
 30
0.0
 11
4.1927778357
 21
3.4885208061
 31
0.0
  0
LINE
  5
13F
330
1F
100
AcDbEntity
  8
0
  6
HIDDEN
 62
     7
100
AcDbLine
 10
2.5945355054
 20
3.990961751
 30
0.0
 11
2.4904943711
 21
3.990961751
 31
0.0
  0
LINE
  5
140
330
1F
100
AcDbEntity
  8
0
  6
HIDDEN
 62
     7
100
AcDbLine
 10
3.8228819621
 20
3.990961751
 30
0.0
 11
2.8301858831
 21
3.990961751
 31
0.0
  0
LINE
  5
141
330
1F
100
AcDbEntity
  8
0
  6
HIDDEN
 62
     7
100
AcDbLine
 10
4.1627778357
 20
3.990961751
 30
0.0
 11
4.0585323398
 21
3.990961751
 31
0.0
  0
LINE
  5
142
330
1F
100
AcDbEntity
  8
0
  6
HIDDEN
 62
     7
100
AcDbLine
 10
2.4904943711
 20
3.5185208061
 30
0.0
 11
4.1627778357
 21
3.5185208061
 31
0.0
  0
LINE
  5
143
330
1F
100
AcDbEntity
  8
0
  6
HIDDEN
 62
     7
100
AcDbLine
 10
2.8305731133
 20
4.3258205591
 30
0.0
 11
2.8542751207
 21
4.3452924595
 31
0.0
  0
LINE
  5
144
330
1F
100
AcDbEntity
  8
0
  6
HIDDEN
 62
     7
100
AcDbLine
 10
2.5706506216
 20
4.345292461
 30
0.0
 11
2.5943526303
 21
4.3258205606
 31
0.0
  0
LINE
  5
145
330
1F
100
AcDbEntity
  8
0
  6
HIDDEN
 62
     7
100
AcDbLine
 10
4.0589195699
 20
4.3258205591
 30
0.0
 11
4.0826215774
 21
4.3452924595
 31
0.0
  0
LINE
  5
146
330
1F
100
AcDbEntity
  8
0
  6
HIDDEN
 62
     7
100
AcDbLine
 10
3.7989970783
 20
4.345292461
 30
0.0
 11
3.822699087
 21
4.3258205606
 31
0.0
  0
LINE
  5
147
330
1F
100
AcDbEntity
  8
0
  6
HIDDEN
 62
     7
100
AcDbLine
 10
2.8305731113
 20
3.9907685711
 30
0.0
 11
2.8305731113
 21
4.3258204291
 31
0.0
  0
LINE
  5
148
330
1F
100
AcDbEntity
  8
0
  6
HIDDEN
 62
     7
100
AcDbLine
 10
2.5943526388
 20
4.3258205593
 30
0.0
 11
2.5943526388
 21
3.9908708768
 31
0.0
  0
LINE
  5
149
330
1F
100
AcDbEntity
  8
0
  6
HIDDEN
 62
     7
100
AcDbLine
 10
4.058919568
 20
3.9907685711
 30
0.0
 11
4.058919568
 21
4.3258204291
 31
0.0
  0
LINE
  5
14A
330
1F
100
AcDbEntity
  8
0
  6
HIDDEN
 62
     7
100
AcDbLine
 10
3.8226990955
 20
4.3258205593
 30
0.0
 11
3.8226990955
 21
3.9908708768
 31
0.0
  0
LINE
  5
14B
330
1F
100
AcDbEntity
  8
0
  6
HIDDEN
 62
     7
100
AcDbLine
 10
4.058919568
 20
4.3252924596
 30
0.0
 11
4.0469405635
 21
4.337271464
 31
0.0
  0
LINE
  5
14C
330
1F
100
AcDbEntity
  8
0
  6
HIDDEN
 62
     7
100
AcDbLine
 10
3.8346783706
 20
4.3372717347
 30
0.0
 11
3.8226990955
 21
4.3252924596
 31
0.0
  0
LINE
  5
14D
330
1F
100
AcDbEntity
  8
0
  6
HIDDEN
 62
     7
100
AcDbLine
 10
4.058919568
 20
4.010961751
 30
0.0
 11
4.058919568
 21
4.3252924596
 31
0.0
  0
LINE
  5
14E
330
1F
100
AcDbEntity
  8
0
  6
HIDDEN
 62
     7
100
AcDbLine
 10
3.8226990955
 20
4.3252924596
 30
0.0
 11
3.8226990955
 21
4.010961751
 31
0.0
  0
LINE
  5
14F
330
1F
100
AcDbEntity
  8
0
  6
HIDDEN
 62
     7
100
AcDbLine
 10
3.8226990955
 20
4.010961751
 30
0.0
 11
3.8426990955
 21
3.990961751
 31
0.0
  0
LINE
  5
150
330
1F
100
AcDbEntity
  8
0
  6
HIDDEN
 62
     7
100
AcDbLine
 10
4.038919568
 20
3.990961751
 30
0.0
 11
4.058919568
 21
4.010961751
 31
0.0
  0
LINE
  5
151
330
1F
100
AcDbEntity
  8
0
  6
HIDDEN
 62
     7
100
AcDbLine
 10
2.8305731113
 20
4.010961751
 30
0.0
 11
2.8305731113
 21
4.3252924596
 31
0.0
  0
LINE
  5
152
330
1F
100
AcDbEntity
  8
0
  6
HIDDEN
 62
     7
100
AcDbLine
 10
2.5943526388
 20
4.3252924596
 30
0.0
 11
2.5943526388
 21
4.010961751
 31
0.0
  0
LINE
  5
153
330
1F
100
AcDbEntity
  8
0
  6
HIDDEN
 62
     7
100
AcDbLine
 10
2.8305731113
 20
4.3252924596
 30
0.0
 11
2.8185941068
 21
4.337271464
 31
0.0
  0
LINE
  5
154
330
1F
100
AcDbEntity
  8
0
  6
HIDDEN
 62
     7
100
AcDbLine
 10
2.6063319139
 20
4.3372717347
 30
0.0
 11
2.5943526388
 21
4.3252924596
 31
0.0
  0
LINE
  5
155
330
1F
100
AcDbEntity
  8
0
  6
HIDDEN
 62
     7
100
AcDbLine
 10
2.5943526388
 20
4.010961751
 30
0.0
 11
2.6143526388
 21
3.990961751
 31
0.0
  0
LINE
  5
156
330
1F
100
AcDbEntity
  8
0
  6
HIDDEN
 62
     7
100
AcDbLine
 10
2.8105731113
 20
3.990961751
 30
0.0
 11
2.8305731113
 21
4.010961751
 31
0.0
  0
LINE
  5
157
330
1F
100
AcDbEntity
  8
0
  6
CONTINUOUS
 62
     7
100
AcDbLine
 10
8.8275233321
 20
3.6466555948
 30
0.0
 11
8.8374987796
 21
3.6566310423
 31
0.0
  0
LINE
  5
158
330
1F
100
AcDbEntity
  8
0
  6
CONTINUOUS
 62
     7
100
AcDbLine
 10
8.8374987796
 20
3.8528515147
 30
0.0
 11
8.8275233321
 21
3.8628269622
 31
0.0
  0
LINE
  5
159
330
1F
100
AcDbEntity
  8
0
  6
CONTINUOUS
 62
     7
100
AcDbLine
 10
8.3550332821
 20
4.3353170122
 30
0.0
 11
8.3450578347
 21
4.3452924596
 31
0.0
  0
LINE
  5
15A
330
1F
100
AcDbEntity
  8
0
  6
CONTINUOUS
 62
     7
100
AcDbLine
 10
8.1488373622
 20
4.3452924596
 30
0.0
 11
8.1388619148
 21
4.3353170122
 31
0.0
  0
CIRCLE
  5
15B
330
1F
100
AcDbEntity
  8
0
  6
CONTINUOUS
 62
     7
100
AcDbCircle
 10
8.2469475984
 20
3.7547412785
 30
0.0
 40
0.5605511811023618
  0
CIRCLE
  5
15C
330
1F
100
AcDbEntity
  8
0
  6
CONTINUOUS
 62
     7
100
AcDbCircle
 10
8.2469475984
 20
3.7547412785
 30
0.0
 40
0.5905511811023612
  0
CIRCLE
  5
15D
330
1F
100
AcDbEntity
  8
0
  6
CONTINUOUS
 62
     7
100
AcDbCircle
 10
8.2469475984
 20
3.7547412785
 30
0.0
 40
0.2662204724409456
  0
CIRCLE
  5
15E
330
1F
100
AcDbEntity
  8
0
  6
CONTINUOUS
 62
     7
100
AcDbCircle
 10
8.2469475984
 20
3.7547412785
 30
0.0
 40
0.2362204724409445
  0
LINE
  5
15F
330
1F
100
AcDbEntity
  8
0
  6
CONTINUOUS
 62
     7
100
AcDbLine
 10
8.8374987796
 20
3.8528515147
 30
0.0
 11
8.8374987796
 21
3.6566310423
 31
0.0
  0
LINE
  5
160
330
1F
100
AcDbEntity
  8
0
  6
CONTINUOUS
 62
     7
100
AcDbLine
 10
8.1488373622
 20
4.3452924596
 30
0.0
 11
8.3450578347
 21
4.3452924596
 31
0.0
  0
LINE
  5
161
330
1F
100
AcDbEntity
  8
0
  6
HIDDEN
 62
     7
100
AcDbLine
 10
8.8180268792
 20
3.7547412785
 30
0.0
 11
8.8179536609
 21
3.7572258719
 31
0.0
  0
SPLINE
  5
162
330
1F
100
AcDbEntity
  8
0
  6
HIDDEN
 62
     7
100
AcDbSpline
210
0.0
220
0.0
230
1.0
 70
     8
 71
     3
 72
    25
 73
    21
 74
     0
 42
0.00000001
 43
0.00000001
 40
0.0
 40
0.0
 40
0.0
 40
0.0
 40
0.0000700192814731
 40
0.0501259431663826
 40
0.1084087314690749
 40
0.1750085353207893
 40
0.2499811452324733
 40
0.3240857538929675
 40
0.3904154480999547
 40
0.4490296926992641
 40
0.5000200562812875
 40
0.5509340204286802
 40
0.6095004876213177
 40
0.6758112833595727
 40
0.7499270649603365
 40
0.8249320863801404
 40
0.8915582558188335
 40
0.9498612317475921
 40
0.9999308816097201
 40
1.0
 40
1.0
 40
1.0
 40
1.0
 10
8.800139886192506
 20
3.8728494429366
 30
0.0
 10
8.800139622999739
 20
3.872850132224922
 30
0.0
 10
8.799951206531885
 20
3.87334358526403
 30
0.0
 10
8.800705711322236
 20
3.871525955824017
 30
0.0
 10
8.802328548109458
 20
3.86649546337021
 30
0.0
 10
8.805208385359192
 20
3.855661457760165
 30
0.0
 10
8.809130585005127
 20
3.83913312057163
 30
0.0
 10
8.81305205215833
 20
3.818192508043849
 30
0.0
 10
8.815843934326772
 20
3.795913361297814
 30
0.0
 10
8.81757396078191
 20
3.77470224698047
 30
0.0
 10
8.818236510090356
 20
3.754746312941743
 30
0.0
 10
8.817578416473967
 20
3.734796385816132
 30
0.0
 10
8.815849935179335
 20
3.713601322862897
 30
0.0
 10
8.813058771084371
 20
3.691324785224001
 30
0.0
 10
8.809135931715524
 20
3.670375862090253
 30
0.0
 10
8.805213541895144
 20
3.653835844992246
 30
0.0
 10
8.802332111498336
 20
3.642993122087812
 30
0.0
 10
8.800707913424548
 20
3.637958283430003
 30
0.0
 10
8.799951638493145
 20
3.636139164273153
 30
0.0
 10
8.800139622402671
 20
3.636632404408338
 30
0.0
 10
8.800139881546356
 20
3.636633084360506
 30
0.0
  0
LINE
  5
163
330
1F
100
AcDbEntity
  8
0
  6
HIDDEN
 62
     7
100
AcDbLine
 10
8.2469475984
 20
4.3258205593
 30
0.0
 11
8.244463005
 21
4.325747341
 31
0.0
  0
SPLINE
  5
164
330
1F
100
AcDbEntity
  8
0
  6
HIDDEN
 62
     7
100
AcDbSpline
210
0.0
220
0.0
230
1.0
 70
     8
 71
     3
 72
    25
 73
    21
 74
     0
 42
0.00000001
 43
0.00000001
 40
0.0
 40
0.0
 40
0.0
 40
0.0
 40
0.000070019281473
 40
0.050125943166825
 40
0.1084087314696636
 40
0.1750085353212306
 40
0.2499811452324761
 40
0.3240857538927523
 40
0.3904154480996656
 40
0.4490296926990486
 40
0.5000200562812962
 40
0.5509340204289135
 40
0.6095004876216255
 40
0.6758112833598043
 40
0.7499270649603409
 40
0.8249320863797122
 40
0.8915582558182606
 40
0.9498612317471633
 40
0.9999308816097182
 40
1.0
 40
1.0
 40
1.0
 40
1.0
 10
8.128839434031404
 20
4.307933566260563
 30
0.0
 10
8.128838744743081
 20
4.307933303067795
 30
0.0
 10
8.128345291703958
 20
4.307744886599917
 30
0.0
 10
8.130162921144008
 20
4.308499391390302
 30
0.0
 10
8.135193413597857
 20
4.310122228177505
 30
0.0
 10
8.146027419207917
 20
4.313002065427244
 30
0.0
 10
8.162555756396399
 20
4.316924265073186
 30
0.0
 10
8.1834963689241
 20
4.320845732226405
 30
0.0
 10
8.2057755156701
 20
4.323637614394849
 30
0.0
 10
8.226986629987469
 20
4.325367640849984
 30
0.0
 10
8.246942564026261
 20
4.326030190158413
 30
0.0
 10
8.266892491151937
 20
4.325372096542012
 30
0.0
 10
8.288087554105195
 20
4.323643615247377
 30
0.0
 10
8.310364091744058
 20
4.320852451152419
 30
0.0
 10
8.331313014877725
 20
4.316929611783584
 30
0.0
 10
8.347853031975685
 20
4.313007221963225
 30
0.0
 10
8.358695754880127
 20
4.310125791566414
 30
0.0
 10
8.363730593537994
 20
4.308501593492657
 30
0.0
 10
8.365549712694838
 20
4.307745318561158
 30
0.0
 10
8.365056472559665
 20
4.307933302470729
 30
0.0
 10
8.365055792607498
 20
4.307933561614414
 30
0.0
  0
ARC
  5
165
330
1F
100
AcDbEntity
  8
0
  6
HIDDEN
 62
     7
100
AcDbCircle
 10
8.2469475984
 20
3.7547412785
 30
0.0
 40
0.3937007874015748
100
AcDbArc
 50
281.5369590328
 51
78.4630409672
  0
LINE
  5
166
330
1F
100
AcDbEntity
  8
0
  6
HIDDEN
 62
     7
100
AcDbLine
 10
8.3256877559
 20
4.1404876947
 30
0.0
 11
8.3256877559
 21
4.3400195757
 31
0.0
  0
LINE
  5
167
330
1F
100
AcDbEntity
  8
0
  6
HIDDEN
 62
     7
100
AcDbLine
 10
8.3256877559
 20
3.1694629814
 30
0.0
 11
8.3256877559
 21
3.3689948623
 31
0.0
  0
LINE
  5
168
330
1F
100
AcDbEntity
  8
0
  6
HIDDEN
 62
     7
100
AcDbLine
 10
8.168207441
 20
4.1404876947
 30
0.0
 11
8.168207441
 21
4.3400195757
 31
0.0
  0
ARC
  5
169
330
1F
100
AcDbEntity
  8
0
  6
HIDDEN
 62
     7
100
AcDbCircle
 10
8.2469475984
 20
3.7547412785
 30
0.0
 40
0.3937007874015748
100
AcDbArc
 50
101.5369590328
 51
258.4630409672
  0
LINE
  5
16A
330
1F
100
AcDbEntity
  8
0
  6
HIDDEN
 62
     7
100
AcDbLine
 10
8.168207441
 20
3.1694629814
 30
0.0
 11
8.168207441
 21
3.3689948623
 31
0.0
  0
LINE
  5
16B
330
1F
100
AcDbEntity
  8
0
  6
HIDDEN
 62
     7
100
AcDbLine
 10
8.6326940146
 20
3.833481436
 30
0.0
 11
8.8322258956
 21
3.833481436
 31
0.0
  0
LINE
  5
16C
330
1F
100
AcDbEntity
  8
0
  6
HIDDEN
 62
     7
100
AcDbLine
 10
8.6326940146
 20
3.676001121
 30
0.0
 11
8.8322258956
 21
3.676001121
 31
0.0
  0
ARC
  5
16D
330
1F
100
AcDbEntity
  8
0
  6
HIDDEN
 62
     7
100
AcDbCircle
 10
8.2469475984
 20
3.7547412785
 30
0.0
 40
0.3937007874015747
100
AcDbArc
 50
78.4630409672
 51
101.5369590328
  0
ARC
  5
16E
330
1F
100
AcDbEntity
  8
0
  6
HIDDEN
 62
     7
100
AcDbCircle
 10
8.2469475984
 20
3.7547412785
 30
0.0
 40
0.3937007874015752
100
AcDbArc
 50
258.4630409672
 51
281.5369590328
  0
LINE
  5
16F
330
1F
100
AcDbEntity
  8
0
  6
HIDDEN
 62
     7
100
AcDbLine
 10
7.6616693013
 20
3.676001121
 30
0.0
 11
7.8612011823
 21
3.676001121
 31
0.0
  0
LINE
  5
170
330
1F
100
AcDbEntity
  8
0
  6
HIDDEN
 62
     7
100
AcDbLine
 10
7.6616693013
 20
3.833481436
 30
0.0
 11
7.8612011823
 21
3.833481436
 31
0.0
  0
LINE
  5
171
330
1F
100
AcDbEntity
  8
0
  6
HIDDEN
 62
     7
100
AcDbLine
 10
8.8174987796
 20
3.6366310423
 30
0.0
 11
8.8174987796
 21
3.8728515147
 31
0.0
  0
LINE
  5
172
330
1F
100
AcDbEntity
  8
0
  6
HIDDEN
 62
     7
100
AcDbLine
 10
8.5031680709
 20
3.7547412785
 30
0.0
 11
8.5031680709
 21
3.6366310423
 31
0.0
  0
LINE
  5
173
330
1F
100
AcDbEntity
  8
0
  6
HIDDEN
 62
     7
100
AcDbLine
 10
8.5031680709
 20
3.8728515147
 30
0.0
 11
8.5031680709
 21
3.7547412785
 31
0.0
  0
LINE
  5
174
330
1F
100
AcDbEntity
  8
0
  6
HIDDEN
 62
     7
100
AcDbLine
 10
8.4831680709
 20
3.7547412785
 30
0.0
 11
8.4831680709
 21
3.8528515147
 31
0.0
  0
LINE
  5
175
330
1F
100
AcDbEntity
  8
0
  6
HIDDEN
 62
     7
100
AcDbLine
 10
8.4831680709
 20
3.6566310423
 30
0.0
 11
8.4831680709
 21
3.7547412785
 31
0.0
  0
LINE
  5
176
330
1F
100
AcDbEntity
  8
0
  6
HIDDEN
 62
     7
100
AcDbLine
 10
8.7374987796
 20
3.7206457902
 30
0.0
 11
8.8374987796
 21
3.7206457902
 31
0.0
  0
LINE
  5
177
330
1F
100
AcDbEntity
  8
0
  6
HIDDEN
 62
     7
100
AcDbLine
 10
8.7374987796
 20
3.7888367669
 30
0.0
 11
8.8374987796
 21
3.7888367669
 31
0.0
  0
LINE
  5
178
330
1F
100
AcDbEntity
  8
0
  6
HIDDEN
 62
     7
100
AcDbLine
 10
8.7374987796
 20
3.8229322552
 30
0.0
 11
8.7374987796
 21
3.7888367669
 31
0.0
  0
LINE
  5
179
330
1F
100
AcDbEntity
  8
0
  6
HIDDEN
 62
     7
100
AcDbLine
 10
8.7374987796
 20
3.7206457902
 30
0.0
 11
8.7374987796
 21
3.6865503018
 31
0.0
  0
LINE
  5
17A
330
1F
100
AcDbEntity
  8
0
  6
HIDDEN
 62
     7
100
AcDbLine
 10
8.7374987796
 20
3.7888367669
 30
0.0
 11
8.7374987796
 21
3.7206457902
 31
0.0
  0
LINE
  5
17B
330
1F
100
AcDbEntity
  8
0
  6
HIDDEN
 62
     7
100
AcDbLine
 10
8.7374987796
 20
3.6865503018
 30
0.0
 11
8.8374987796
 21
3.6865503018
 31
0.0
  0
LINE
  5
17C
330
1F
100
AcDbEntity
  8
0
  6
HIDDEN
 62
     7
100
AcDbLine
 10
8.7374987796
 20
3.8229322552
 30
0.0
 11
8.8374987796
 21
3.8229322552
 31
0.0
  0
LINE
  5
17D
330
1F
100
AcDbEntity
  8
0
  6
HIDDEN
 62
     7
100
AcDbLine
 10
8.2469475984
 20
3.990961751
 30
0.0
 11
8.1488373622
 21
3.990961751
 31
0.0
  0
LINE
  5
17E
330
1F
100
AcDbEntity
  8
0
  6
HIDDEN
 62
     7
100
AcDbLine
 10
8.3450578347
 20
3.990961751
 30
0.0
 11
8.2469475984
 21
3.990961751
 31
0.0
  0
LINE
  5
17F
330
1F
100
AcDbEntity
  8
0
  6
HIDDEN
 62
     7
100
AcDbLine
 10
8.2469475984
 20
4.010961751
 30
0.0
 11
8.3650578347
 21
4.010961751
 31
0.0
  0
LINE
  5
180
330
1F
100
AcDbEntity
  8
0
  6
HIDDEN
 62
     7
100
AcDbLine
 10
8.1288373622
 20
4.010961751
 30
0.0
 11
8.2469475984
 21
4.010961751
 31
0.0
  0
LINE
  5
181
330
1F
100
AcDbEntity
  8
0
  6
HIDDEN
 62
     7
100
AcDbLine
 10
8.3650578347
 20
4.3252924596
 30
0.0
 11
8.1288373622
 21
4.3252924596
 31
0.0
  0
LINE
  5
182
330
1F
100
AcDbEntity
  8
0
  6
HIDDEN
 62
     7
100
AcDbLine
 10
8.2810430868
 20
4.2452924596
 30
0.0
 11
8.3151385751
 21
4.2452924596
 31
0.0
  0
LINE
  5
183
330
1F
100
AcDbEntity
  8
0
  6
HIDDEN
 62
     7
100
AcDbLine
 10
8.2810430868
 20
4.2452924596
 30
0.0
 11
8.2810430868
 21
4.3452924596
 31
0.0
  0
LINE
  5
184
330
1F
100
AcDbEntity
  8
0
  6
HIDDEN
 62
     7
100
AcDbLine
 10
8.2128521101
 20
4.2452924596
 30
0.0
 11
8.2810430868
 21
4.2452924596
 31
0.0
  0
LINE
  5
185
330
1F
100
AcDbEntity
  8
0
  6
HIDDEN
 62
     7
100
AcDbLine
 10
8.2128521101
 20
4.2452924596
 30
0.0
 11
8.2128521101
 21
4.3452924596
 31
0.0
  0
LINE
  5
186
330
1F
100
AcDbEntity
  8
0
  6
HIDDEN
 62
     7
100
AcDbLine
 10
8.1787566218
 20
4.2452924596
 30
0.0
 11
8.2128521101
 21
4.2452924596
 31
0.0
  0
LINE
  5
187
330
1F
100
AcDbEntity
  8
0
  6
HIDDEN
 62
     7
100
AcDbLine
 10
8.3151385751
 20
4.2452924596
 30
0.0
 11
8.3151385751
 21
4.3452924596
 31
0.0
  0
LINE
  5
188
330
1F
100
AcDbEntity
  8
0
  6
HIDDEN
 62
     7
100
AcDbLine
 10
8.1787566218
 20
4.2452924596
 30
0.0
 11
8.1787566218
 21
4.3452924596
 31
0.0
  0
LINE
  5
189
330
1F
100
AcDbEntity
  8
0
  6
HIDDEN
 62
     7
100
AcDbLine
 10
8.8001391029
 20
3.6366310639
 30
0.0
 11
8.8190010898
 21
3.6080937372
 31
0.0
  0
LINE
  5
18A
330
1F
100
AcDbEntity
  8
0
  6
HIDDEN
 62
     7
100
AcDbLine
 10
8.8190010829
 20
3.9013888533
 30
0.0
 11
8.8001390963
 21
3.8728515201
 31
0.0
  0
LINE
  5
18B
330
1F
100
AcDbEntity
  8
0
  6
HIDDEN
 62
     7
100
AcDbLine
 10
8.365057813
 20
4.307932783
 30
0.0
 11
8.3935951397
 21
4.3267947698
 31
0.0
  0
LINE
  5
18C
330
1F
100
AcDbEntity
  8
0
  6
HIDDEN
 62
     7
100
AcDbLine
 10
8.1003000237
 20
4.326794763
 30
0.0
 11
8.1288373569
 21
4.3079327764
 31
0.0
  0
LINE
  5
18D
330
1F
100
AcDbEntity
  8
0
  6
HIDDEN
 62
     7
100
AcDbLine
 10
8.4517573272
 20
3.6366310423
 30
0.0
 11
8.8001401157
 21
3.6366310423
 31
0.0
  0
LINE
  5
18E
330
1F
100
AcDbEntity
  8
0
  6
HIDDEN
 62
     7
100
AcDbLine
 10
8.8001402809
 20
3.8728515147
 30
0.0
 11
8.451609862
 21
3.8728515147
 31
0.0
  0
LINE
  5
18F
330
1F
100
AcDbEntity
  8
0
  6
HIDDEN
 62
     7
100
AcDbLine
 10
8.3650578347
 20
3.9593142085
 30
0.0
 11
8.3650578347
 21
4.3079337958
 31
0.0
  0
LINE
  5
190
330
1F
100
AcDbEntity
  8
0
  6
HIDDEN
 62
     7
100
AcDbLine
 10
8.1288373622
 20
4.307933961
 30
0.0
 11
8.1288373622
 21
3.9595389725
 31
0.0
  0
LINE
  5
191
330
1F
100
AcDbEntity
  8
0
  6
HIDDEN
 62
     7
100
AcDbLine
 10
8.5031680709
 20
3.6366310423
 30
0.0
 11
8.8174987796
 21
3.6366310423
 31
0.0
  0
LINE
  5
192
330
1F
100
AcDbEntity
  8
0
  6
HIDDEN
 62
     7
100
AcDbLine
 10
8.8174987796
 20
3.8728515147
 30
0.0
 11
8.5031680709
 21
3.8728515147
 31
0.0
  0
LINE
  5
193
330
1F
100
AcDbEntity
  8
0
  6
HIDDEN
 62
     7
100
AcDbLine
 10
8.8174987796
 20
3.6366310423
 30
0.0
 11
8.8275233321
 21
3.6466555948
 31
0.0
  0
LINE
  5
194
330
1F
100
AcDbEntity
  8
0
  6
HIDDEN
 62
     7
100
AcDbLine
 10
8.8275233321
 20
3.8628269622
 30
0.0
 11
8.8174987796
 21
3.8728515147
 31
0.0
  0
LINE
  5
195
330
1F
100
AcDbEntity
  8
0
  6
HIDDEN
 62
     7
100
AcDbLine
 10
8.5031680709
 20
3.8728515147
 30
0.0
 11
8.4831680709
 21
3.8528515147
 31
0.0
  0
LINE
  5
196
330
1F
100
AcDbEntity
  8
0
  6
HIDDEN
 62
     7
100
AcDbLine
 10
8.4831680709
 20
3.6566310423
 30
0.0
 11
8.5031680709
 21
3.6366310423
 31
0.0
  0
LINE
  5
197
330
1F
100
AcDbEntity
  8
0
  6
HIDDEN
 62
     7
100
AcDbLine
 10
8.1288373622
 20
4.010961751
 30
0.0
 11
8.1488373622
 21
3.990961751
 31
0.0
  0
LINE
  5
198
330
1F
100
AcDbEntity
  8
0
  6
HIDDEN
 62
     7
100
AcDbLine
 10
8.3450578347
 20
3.990961751
 30
0.0
 11
8.3650578347
 21
4.010961751
 31
0.0
  0
LINE
  5
199
330
1F
100
AcDbEntity
  8
0
  6
HIDDEN
 62
     7
100
AcDbLine
 10
8.3650578347
 20
4.010961751
 30
0.0
 11
8.3650578347
 21
4.3252924596
 31
0.0
  0
LINE
  5
19A
330
1F
100
AcDbEntity
  8
0
  6
HIDDEN
 62
     7
100
AcDbLine
 10
8.1288373622
 20
4.3252924596
 30
0.0
 11
8.1288373622
 21
4.010961751
 31
0.0
  0
LINE
  5
19B
330
1F
100
AcDbEntity
  8
0
  6
HIDDEN
 62
     7
100
AcDbLine
 10
8.3650578347
 20
4.3252924596
 30
0.0
 11
8.3550332821
 21
4.3353170122
 31
0.0
  0
LINE
  5
19C
330
1F
100
AcDbEntity
  8
0
  6
HIDDEN
 62
     7
100
AcDbLine
 10
8.1388619148
 20
4.3353170122
 30
0.0
 11
8.1288373622
 21
4.3252924596
 31
0.0
  0
LINE
  5
19D
330
1F
100
AcDbEntity
  8
0
  6
CONTINUOUS
 62
     7
100
AcDbLine
 10
3.7263261676
 20
6.0774889499
 30
0.0
 11
4.1627778357
 21
6.0774889499
 31
0.0
  0
LINE
  5
19E
330
1F
100
AcDbEntity
  8
0
  6
CONTINUOUS
 62
     7
100
AcDbLine
 10
3.4356424845
 20
6.0774889499
 30
0.0
 11
3.6536552468
 21
6.0774889499
 31
0.0
  0
LINE
  5
19F
330
1F
100
AcDbEntity
  8
0
  6
CONTINUOUS
 62
     7
100
AcDbLine
 10
3.290300643
 20
6.0774889499
 30
0.0
 11
3.3629715638
 21
6.0774889499
 31
0.0
  0
LINE
  5
1A0
330
1F
100
AcDbEntity
  8
0
  6
CONTINUOUS
 62
     7
100
AcDbLine
 10
2.9996169599
 20
6.0774889499
 30
0.0
 11
3.2176297222
 21
6.0774889499
 31
0.0
  0
LINE
  5
1A1
330
1F
100
AcDbEntity
  8
0
  6
CONTINUOUS
 62
     7
100
AcDbLine
 10
2.4904943711
 20
6.0774889499
 30
0.0
 11
2.9269460392
 21
6.0774889499
 31
0.0
  0
LINE
  5
1A2
330
1F
100
AcDbEntity
  8
0
  6
CONTINUOUS
 62
     7
100
AcDbLine
 10
2.5706506318
 20
7.2585913121
 30
0.0
 11
2.4904943711
 21
7.2585913121
 31
0.0
  0
LINE
  5
1A3
330
1F
100
AcDbEntity
  8
0
  6
CONTINUOUS
 62
     7
100
AcDbLine
 10
2.9269460392
 20
7.2585913121
 30
0.0
 11
2.8542746272
 21
7.2585913121
 31
0.0
  0
LINE
  5
1A4
330
1F
100
AcDbEntity
  8
0
  6
CONTINUOUS
 62
     7
100
AcDbLine
 10
3.2176297222
 20
7.2585913121
 30
0.0
 11
2.9996169599
 21
7.2585913121
 31
0.0
  0
LINE
  5
1A5
330
1F
100
AcDbEntity
  8
0
  6
CONTINUOUS
 62
     7
100
AcDbLine
 10
3.3629715638
 20
7.2585913121
 30
0.0
 11
3.290300643
 21
7.2585913121
 31
0.0
  0
LINE
  5
1A6
330
1F
100
AcDbEntity
  8
0
  6
CONTINUOUS
 62
     7
100
AcDbLine
 10
3.6536552468
 20
7.2585913121
 30
0.0
 11
3.4356424845
 21
7.2585913121
 31
0.0
  0
LINE
  5
1A7
330
1F
100
AcDbEntity
  8
0
  6
CONTINUOUS
 62
     7
100
AcDbLine
 10
3.7989970885
 20
7.2585913121
 30
0.0
 11
3.7263261676
 21
7.2585913121
 31
0.0
  0
LINE
  5
1A8
330
1F
100
AcDbEntity
  8
0
  6
CONTINUOUS
 62
     7
100
AcDbLine
 10
4.1627778357
 20
7.2585913121
 30
0.0
 11
4.0826210839
 21
7.2585913121
 31
0.0
  0
LINE
  5
1A9
330
1F
100
AcDbEntity
  8
0
  6
CONTINUOUS
 62
     7
100
AcDbLine
 10
2.4904943711
 20
7.2585913121
 30
0.0
 11
2.4604943711
 21
7.2285913121
 31
0.0
  0
LINE
  5
1AA
330
1F
100
AcDbEntity
  8
0
  6
CONTINUOUS
 62
     7
100
AcDbLine
 10
2.4604943711
 20
6.1074889499
 30
0.0
 11
2.4904943711
 21
6.0774889499
 31
0.0
  0
LINE
  5
1AB
330
1F
100
AcDbEntity
  8
0
  6
CONTINUOUS
 62
     7
100
AcDbLine
 10
4.1627778357
 20
6.0774889499
 30
0.0
 11
4.1927778357
 21
6.1074889499
 31
0.0
  0
LINE
  5
1AC
330
1F
100
AcDbEntity
  8
0
  6
CONTINUOUS
 62
     7
100
AcDbLine
 10
4.1927778357
 20
7.2285913121
 30
0.0
 11
4.1627778357
 21
7.2585913121
 31
0.0
  0
LINE
  5
1AD
330
1F
100
AcDbEntity
  8
0
  6
CONTINUOUS
 62
     7
100
AcDbLine
 10
2.9996169599
 20
7.0617409184
 30
0.0
 11
2.9269460392
 21
7.0617409184
 31
0.0
  0
LINE
  5
1AE
330
1F
100
AcDbEntity
  8
0
  6
CONTINUOUS
 62
     7
100
AcDbLine
 10
3.290300643
 20
7.0617409184
 30
0.0
 11
3.2176297222
 21
7.0617409184
 31
0.0
  0
LINE
  5
1AF
330
1F
100
AcDbEntity
  8
0
  6
CONTINUOUS
 62
     7
100
AcDbLine
 10
3.4356424845
 20
7.0617409184
 30
0.0
 11
3.3629715638
 21
7.0617409184
 31
0.0
  0
LINE
  5
1B0
330
1F
100
AcDbEntity
  8
0
  6
CONTINUOUS
 62
     7
100
AcDbLine
 10
3.7263261676
 20
7.0617409184
 30
0.0
 11
3.6536552468
 21
7.0617409184
 31
0.0
  0
LINE
  5
1B1
330
1F
100
AcDbEntity
  8
0
  6
CONTINUOUS
 62
     7
100
AcDbLine
 10
2.9269460392
 20
6.2743393436
 30
0.0
 11
2.9996169599
 21
6.2743393436
 31
0.0
  0
LINE
  5
1B2
330
1F
100
AcDbEntity
  8
0
  6
CONTINUOUS
 62
     7
100
AcDbLine
 10
3.3629715638
 20
6.2743393436
 30
0.0
 11
3.4356424845
 21
6.2743393436
 31
0.0
  0
LINE
  5
1B3
330
1F
100
AcDbEntity
  8
0
  6
CONTINUOUS
 62
     7
100
AcDbLine
 10
3.2176297222
 20
6.2743393436
 30
0.0
 11
3.290300643
 21
6.2743393436
 31
0.0
  0
LINE
  5
1B4
330
1F
100
AcDbEntity
  8
0
  6
CONTINUOUS
 62
     7
100
AcDbLine
 10
3.6536552468
 20
6.2743393436
 30
0.0
 11
3.7263261676
 21
6.2743393436
 31
0.0
  0
LINE
  5
1B5
330
1F
100
AcDbEntity
  8
0
  6
CONTINUOUS
 62
     7
100
AcDbLine
 10
4.0469405635
 20
7.2505703166
 30
0.0
 11
4.038919568
 21
7.2585913121
 31
0.0
  0
LINE
  5
1B6
330
1F
100
AcDbEntity
  8
0
  6
CONTINUOUS
 62
     7
100
AcDbLine
 10
3.8426990955
 20
7.2585913121
 30
0.0
 11
3.8346783706
 21
7.2505705872
 31
0.0
  0
LINE
  5
1B7
330
1F
100
AcDbEntity
  8
0
  6
CONTINUOUS
 62
     7
100
AcDbLine
 10
2.8185941068
 20
7.2505703166
 30
0.0
 11
2.8105731113
 21
7.2585913121
 31
0.0
  0
LINE
  5
1B8
330
1F
100
AcDbEntity
  8
0
  6
CONTINUOUS
 62
     7
100
AcDbLine
 10
2.6143526388
 20
7.2585913121
 30
0.0
 11
2.6063319139
 21
7.2505705872
 31
0.0
  0
LINE
  5
1B9
330
1F
100
AcDbEntity
  8
0
  6
CONTINUOUS
 62
     7
100
AcDbLine
 10
3.4356424845
 20
6.0774889499
 30
0.0
 11
3.4356424845
 21
6.5892999736
 31
0.0
  0
LINE
  5
1BA
330
1F
100
AcDbEntity
  8
0
  6
CONTINUOUS
 62
     7
100
AcDbLine
 10
3.3629715638
 20
6.5892999736
 30
0.0
 11
3.4356424845
 21
6.5892999736
 31
0.0
  0
LINE
  5
1BB
330
1F
100
AcDbEntity
  8
0
  6
CONTINUOUS
 62
     7
100
AcDbLine
 10
3.3629715638
 20
6.5892999736
 30
0.0
 11
3.3629715638
 21
6.0774889499
 31
0.0
  0
LINE
  5
1BC
330
1F
100
AcDbEntity
  8
0
  6
CONTINUOUS
 62
     7
100
AcDbLine
 10
2.9269460392
 20
6.5892999736
 30
0.0
 11
2.9269460392
 21
6.0774889499
 31
0.0
  0
LINE
  5
1BD
330
1F
100
AcDbEntity
  8
0
  6
CONTINUOUS
 62
     7
100
AcDbLine
 10
2.9996169599
 20
6.0774889499
 30
0.0
 11
2.9996169599
 21
6.5892999736
 31
0.0
  0
LINE
  5
1BE
330
1F
100
AcDbEntity
  8
0
  6
CONTINUOUS
 62
     7
100
AcDbLine
 10
2.9996169599
 20
6.5892999736
 30
0.0
 11
2.9269460392
 21
6.5892999736
 31
0.0
  0
LINE
  5
1BF
330
1F
100
AcDbEntity
  8
0
  6
CONTINUOUS
 62
     7
100
AcDbLine
 10
3.6536552468
 20
6.7467802885
 30
0.0
 11
3.6536552468
 21
7.2585913121
 31
0.0
  0
LINE
  5
1C0
330
1F
100
AcDbEntity
  8
0
  6
CONTINUOUS
 62
     7
100
AcDbLine
 10
3.6536552468
 20
6.7467802885
 30
0.0
 11
3.7263261676
 21
6.7467802885
 31
0.0
  0
LINE
  5
1C1
330
1F
100
AcDbEntity
  8
0
  6
CONTINUOUS
 62
     7
100
AcDbLine
 10
3.7263261676
 20
7.2585913121
 30
0.0
 11
3.7263261676
 21
6.7467802885
 31
0.0
  0
LINE
  5
1C2
330
1F
100
AcDbEntity
  8
0
  6
CONTINUOUS
 62
     7
100
AcDbLine
 10
3.2176297222
 20
6.7467802885
 30
0.0
 11
3.2176297222
 21
7.2585913121
 31
0.0
  0
LINE
  5
1C3
330
1F
100
AcDbEntity
  8
0
  6
CONTINUOUS
 62
     7
100
AcDbLine
 10
3.290300643
 20
6.7467802885
 30
0.0
 11
3.2176297222
 21
6.7467802885
 31
0.0
  0
LINE
  5
1C4
330
1F
100
AcDbEntity
  8
0
  6
CONTINUOUS
 62
     7
100
AcDbLine
 10
3.290300643
 20
7.2585913121
 30
0.0
 11
3.290300643
 21
6.7467802885
 31
0.0
  0
LINE
  5
1C5
330
1F
100
AcDbEntity
  8
0
  6
CONTINUOUS
 62
     7
100
AcDbLine
 10
4.1627778357
 20
6.0774889499
 30
0.0
 11
4.1627778357
 21
7.2585913121
 31
0.0
  0
LINE
  5
1C6
330
1F
100
AcDbEntity
  8
0
  6
CONTINUOUS
 62
     7
100
AcDbLine
 10
2.4904943711
 20
7.2585913121
 30
0.0
 11
2.4904943711
 21
6.0774889499
 31
0.0
  0
SPLINE
  5
1C7
330
1F
100
AcDbEntity
  8
0
  6
CONTINUOUS
 62
     7
100
AcDbSpline
210
0.0
220
0.0
230
1.0
 70
     8
 71
     3
 72
    31
 73
    27
 74
     0
 42
0.00000001
 43
0.00000001
 40
-0.126327606591212
 40
-0.083792593260885
 40
-0.0426397999037247
 40
0.0
 40
0.042650052604041
 40
0.0838064616921615
 40
0.1263365874035026
 40
0.1686159920086548
 40
0.2087343349921205
 40
0.2499044526050676
 40
0.2911184183033347
 40
0.3313043148547517
 40
0.3736789387538264
 40
0.4161628666139168
 40
0.457308950279901
 40
0.4999923657300712
 40
0.5426684042556256
 40
0.5838376183450027
 40
0.6263748842664444
 40
0.668642583280425
 40
0.7087955032919769
 40
0.7500387440780849
 40
0.7911902147692859
 40
0.8313258828808784
 40
0.873672393408788
 40
0.916207406739115
 40
0.9573602000962753
 40
1.0
 40
1.042650052604041
 40
1.083806461692161
 40
1.126336587403503
 10
3.801828696778603
 20
6.629596929308052
 30
0.0
 10
3.79755397078717
 20
6.668043453516401
 30
0.0
 10
3.801837086964341
 20
6.706489861107811
 30
0.0
 10
3.816185845456389
 20
6.742354443561437
 30
0.0
 10
3.839447208023485
 20
6.772715921506742
 30
0.0
 10
3.868706599708518
 20
6.796835877165432
 30
0.0
 10
3.903467228808144
 20
6.811741123504778
 30
0.0
 10
3.940733858209258
 20
6.816174478911717
 30
0.0
 10
3.978025511221174
 20
6.811762091114137
 30
0.0
 10
4.012849448895222
 20
6.796845810132028
 30
0.0
 10
4.042159493583988
 20
6.772731754955479
 30
0.0
 10
4.06545196697585
 20
6.742376339077762
 30
0.0
 10
4.079789215025268
 20
6.706512632459623
 30
0.0
 10
4.084063683685457
 20
6.668048119497358
 30
0.0
 10
4.07978835867186
 20
6.629575289886587
 30
0.0
 10
4.065430939791833
 20
6.593697720334716
 30
0.0
 10
4.04215468484867
 20
6.563343015664711
 30
0.0
 10
4.012866516796766
 20
6.539240995604091
 30
0.0
 10
3.978068240689554
 20
6.524354132786859
 30
0.0
 10
3.940792248512783
 20
6.519906833183953
 30
0.0
 10
3.903508482306189
 20
6.524298121948795
 30
0.0
 10
3.868728999848402
 20
6.539217522960604
 30
0.0
 10
3.839453337173887
 20
6.563358695755761
 30
0.0
 10
3.816176236860743
 20
6.593733874427835
 30
0.0
 10
3.801828696778603
 20
6.629596929308052
 30
0.0
 10
3.79755397078717
 20
6.668043453516401
 30
0.0
 10
3.801837086964341
 20
6.706489861107811
 30
0.0
  0
SPLINE
  5
1C8
330
1F
100
AcDbEntity
  8
0
  6
CONTINUOUS
 62
     7
100
AcDbSpline
210
0.0
220
0.0
230
1.0
 70
     8
 71
     3
 72
    31
 73
    27
 74
     0
 42
0.00000001
 43
0.00000001
 40
-0.1263276065912177
 40
-0.0837925932609143
 40
-0.0426397999037538
 40
0.0
 40
0.0426500526039249
 40
0.0838064616920455
 40
0.1263365874034804
 40
0.1686159920085462
 40
0.2087343349920118
 40
0.2499044526050701
 40
0.2911184183032262
 40
0.3313043148546431
 40
0.3736789387538045
 40
0.4161628666137225
 40
0.4573089502797065
 40
0.4999923657300563
 40
0.5426684042555471
 40
0.5838376183449242
 40
0.6263748842664448
 40
0.6686425832804255
 40
0.7087955032919774
 40
0.7500387440780854
 40
0.7911902147692585
 40
0.8313258828808511
 40
0.8736723934087823
 40
0.9162074067390857
 40
0.9573602000962462
 40
1.0
 40
1.042650052603925
 40
1.083806461692046
 40
1.12633658740348
 10
2.573482240085688
 20
6.629596929308034
 30
0.0
 10
2.569207514094256
 20
6.668043453516357
 30
0.0
 10
2.573490630271438
 20
6.70648986110774
 30
0.0
 10
2.587839388763502
 20
6.742354443561347
 30
0.0
 10
2.61110075133053
 20
6.772715921506698
 30
0.0
 10
2.640360143015516
 20
6.796835877165459
 30
0.0
 10
2.675120772115163
 20
6.811741123504787
 30
0.0
 10
2.712387401516278
 20
6.816174478911717
 30
0.0
 10
2.749679054528194
 20
6.811762091114128
 30
0.0
 10
2.784502992202219
 20
6.796845810132001
 30
0.0
 10
2.813813036891018
 20
6.772731754955539
 30
0.0
 10
2.837105510282925
 20
6.742376339077881
 30
0.0
 10
2.851442758332309
 20
6.706512632459726
 30
0.0
 10
2.855717226992541
 20
6.668048119497435
 30
0.0
 10
2.851441901979003
 20
6.629575289886619
 30
0.0
 10
2.837084483098957
 20
6.593697720334744
 30
0.0
 10
2.813808228155772
 20
6.56334301566473
 30
0.0
 10
2.784520060103854
 20
6.53924099560409
 30
0.0
 10
2.74972178399664
 20
6.524354132786861
 30
0.0
 10
2.712445791819879
 20
6.519906833183952
 30
0.0
 10
2.675162025613292
 20
6.524298121948797
 30
0.0
 10
2.640382543155511
 20
6.53921752296061
 30
0.0
 10
2.611106880480984
 20
6.563358695755751
 30
0.0
 10
2.587829780167823
 20
6.593733874427812
 30
0.0
 10
2.573482240085688
 20
6.629596929308034
 30
0.0
 10
2.569207514094256
 20
6.668043453516357
 30
0.0
 10
2.573490630271438
 20
6.70648986110774
 30
0.0
  0
ARC
  5
1C9
330
1F
100
AcDbEntity
  8
0
  6
CONTINUOUS
 62
     7
100
AcDbCircle
 10
3.9408093462
 20
7.7976225565
 30
0.0
 40
0.5573736617265608
100
AcDbArc
 50
255.2602217332
 51
284.7397229975
  0
ARC
  5
1CA
330
1F
100
AcDbEntity
  8
0
  6
CONTINUOUS
 62
     7
100
AcDbCircle
 10
2.7124628895
 20
7.7976225565
 30
0.0
 40
0.5573736617264585
100
AcDbArc
 50
255.2602217332
 51
284.7397229975
  0
LINE
  5
1CB
330
1F
100
AcDbEntity
  8
0
  6
CONTINUOUS
 62
     7
100
AcDbLine
 10
2.9269460392
 20
6.7467802885
 30
0.0
 11
2.9269460392
 21
7.2585913121
 31
0.0
  0
LINE
  5
1CC
330
1F
100
AcDbEntity
  8
0
  6
CONTINUOUS
 62
     7
100
AcDbLine
 10
2.9269460392
 20
6.7467802885
 30
0.0
 11
2.9996169599
 21
6.7467802885
 31
0.0
  0
LINE
  5
1CD
330
1F
100
AcDbEntity
  8
0
  6
CONTINUOUS
 62
     7
100
AcDbLine
 10
2.9996169599
 20
7.2585913121
 30
0.0
 11
2.9996169599
 21
6.7467802885
 31
0.0
  0
LINE
  5
1CE
330
1F
100
AcDbEntity
  8
0
  6
CONTINUOUS
 62
     7
100
AcDbLine
 10
3.3629715638
 20
6.7467802885
 30
0.0
 11
3.3629715638
 21
7.2585913121
 31
0.0
  0
LINE
  5
1CF
330
1F
100
AcDbEntity
  8
0
  6
CONTINUOUS
 62
     7
100
AcDbLine
 10
3.4356424845
 20
6.7467802885
 30
0.0
 11
3.3629715638
 21
6.7467802885
 31
0.0
  0
LINE
  5
1D0
330
1F
100
AcDbEntity
  8
0
  6
CONTINUOUS
 62
     7
100
AcDbLine
 10
3.4356424845
 20
7.2585913121
 30
0.0
 11
3.4356424845
 21
6.7467802885
 31
0.0
  0
LINE
  5
1D1
330
1F
100
AcDbEntity
  8
0
  6
CONTINUOUS
 62
     7
100
AcDbLine
 10
3.290300643
 20
6.0774889499
 30
0.0
 11
3.290300643
 21
6.5892999736
 31
0.0
  0
LINE
  5
1D2
330
1F
100
AcDbEntity
  8
0
  6
CONTINUOUS
 62
     7
100
AcDbLine
 10
3.2176297222
 20
6.5892999736
 30
0.0
 11
3.290300643
 21
6.5892999736
 31
0.0
  0
LINE
  5
1D3
330
1F
100
AcDbEntity
  8
0
  6
CONTINUOUS
 62
     7
100
AcDbLine
 10
3.2176297222
 20
6.5892999736
 30
0.0
 11
3.2176297222
 21
6.0774889499
 31
0.0
  0
LINE
  5
1D4
330
1F
100
AcDbEntity
  8
0
  6
CONTINUOUS
 62
     7
100
AcDbLine
 10
3.6536552468
 20
6.5892999736
 30
0.0
 11
3.6536552468
 21
6.0774889499
 31
0.0
  0
LINE
  5
1D5
330
1F
100
AcDbEntity
  8
0
  6
CONTINUOUS
 62
     7
100
AcDbLine
 10
3.7263261676
 20
6.0774889499
 30
0.0
 11
3.7263261676
 21
6.5892999736
 31
0.0
  0
LINE
  5
1D6
330
1F
100
AcDbEntity
  8
0
  6
CONTINUOUS
 62
     7
100
AcDbLine
 10
3.7263261676
 20
6.5892999736
 30
0.0
 11
3.6536552468
 21
6.5892999736
 31
0.0
  0
LINE
  5
1D7
330
1F
100
AcDbEntity
  8
0
  6
CONTINUOUS
 62
     7
100
AcDbLine
 10
3.0722878807
 20
7.2533184282
 30
0.0
 11
3.1449588015
 21
7.2533184282
 31
0.0
  0
LINE
  5
1D8
330
1F
100
AcDbEntity
  8
0
  6
CONTINUOUS
 62
     7
100
AcDbLine
 10
3.0722878807
 20
7.2533184282
 30
0.0
 11
3.0722878807
 21
6.0827618339
 31
0.0
  0
LINE
  5
1D9
330
1F
100
AcDbEntity
  8
0
  6
CONTINUOUS
 62
     7
100
AcDbLine
 10
3.1449588015
 20
6.0827618339
 30
0.0
 11
3.0722878807
 21
6.0827618339
 31
0.0
  0
LINE
  5
1DA
330
1F
100
AcDbEntity
  8
0
  6
CONTINUOUS
 62
     7
100
AcDbLine
 10
3.1449588015
 20
6.0827618339
 30
0.0
 11
3.1449588015
 21
7.2533184282
 31
0.0
  0
LINE
  5
1DB
330
1F
100
AcDbEntity
  8
0
  6
CONTINUOUS
 62
     7
100
AcDbLine
 10
3.5083134053
 20
7.2533184282
 30
0.0
 11
3.5809843261
 21
7.2533184282
 31
0.0
  0
LINE
  5
1DC
330
1F
100
AcDbEntity
  8
0
  6
CONTINUOUS
 62
     7
100
AcDbLine
 10
3.5083134053
 20
7.2533184282
 30
0.0
 11
3.5083134053
 21
6.0827618339
 31
0.0
  0
LINE
  5
1DD
330
1F
100
AcDbEntity
  8
0
  6
CONTINUOUS
 62
     7
100
AcDbLine
 10
3.5809843261
 20
6.0827618339
 30
0.0
 11
3.5083134053
 21
6.0827618339
 31
0.0
  0
LINE
  5
1DE
330
1F
100
AcDbEntity
  8
0
  6
CONTINUOUS
 62
     7
100
AcDbLine
 10
3.5809843261
 20
6.0827618339
 30
0.0
 11
3.5809843261
 21
7.2533184282
 31
0.0
  0
LINE
  5
1DF
330
1F
100
AcDbEntity
  8
0
  6
CONTINUOUS
 62
     7
100
AcDbLine
 10
3.8226990955
 20
6.668040131
 30
0.0
 11
3.8240951924
 21
6.6507574198
 31
0.0
  0
ARC
  5
1E0
330
1F
100
AcDbEntity
  8
0
  6
CONTINUOUS
 62
     7
100
AcDbCircle
 10
3.9407917844
 20
6.6680659951
 30
0.0
 40
0.1180926917505358
100
AcDbArc
 50
351.0094921887
 51
180.0125486336
  0
SPLINE
  5
1E1
330
1F
100
AcDbEntity
  8
0
  6
CONTINUOUS
 62
     7
100
AcDbSpline
210
0.0
220
0.0
230
1.0
 70
     8
 71
     3
 72
     9
 73
     5
 74
     0
 42
0.00000001
 43
0.00000001
 40
0.0
 40
0.0
 40
0.0
 40
0.0
 40
0.9785285419191373
 40
1.0
 40
1.0
 40
1.0
 40
1.0
 10
2.594352638817623
 20
6.668040131042411
 30
0.0
 10
2.594336757096599
 20
6.661624198333937
 30
0.0
 10
2.594320526889359
 20
6.655067483395516
 30
0.0
 10
2.595953441319037
 20
6.648813243041888
 30
0.0
 10
2.595988502372763
 20
6.648678955382307
 30
0.0
  0
SPLINE
  5
1E2
330
1F
100
AcDbEntity
  8
0
  6
CONTINUOUS
 62
     7
100
AcDbSpline
210
0.0
220
0.0
230
1.0
 70
     8
 71
     3
 72
    10
 73
     6
 74
     0
 42
0.00000001
 43
0.00000001
 40
0.0
 40
0.0
 40
0.0
 40
0.0
 40
0.4161951407684104
 40
0.8715881752874791
 40
1.0
 40
1.0
 40
1.0
 40
1.0
 10
2.829180654915336
 20
6.65077132750342
 30
0.0
 10
2.829790083039479
 20
6.656510495300043
 30
0.0
 10
2.831066336158893
 20
6.668529354478196
 30
0.0
 10
2.83033765139184
 20
6.682599497174325
 30
0.0
 10
2.828188188785421
 20
6.69039406061894
 30
0.0
 10
2.827715399956968
 20
6.69210852753187
 30
0.0
  0
LINE
  5
1E3
330
1F
100
AcDbEntity
  8
0
  6
CONTINUOUS
 62
     7
100
AcDbLine
 10
2.5958443105
 20
6.6865569587
 30
0.0
 11
2.5943526388
 21
6.668040131
 31
0.0
  0
LINE
  5
1E4
330
1F
100
AcDbEntity
  8
0
  6
CONTINUOUS
 62
     7
100
AcDbLine
 10
2.4604943711
 20
6.1074889499
 30
0.0
 11
2.4604943711
 21
7.2285913121
 31
0.0
  0
LINE
  5
1E5
330
1F
100
AcDbEntity
  8
0
  6
CONTINUOUS
 62
     7
100
AcDbLine
 10
4.1927778357
 20
7.2285913121
 30
0.0
 11
4.1927778357
 21
6.1074889499
 31
0.0
  0
LINE
  5
1E6
330
1F
100
AcDbEntity
  8
0
  6
CONTINUOUS
 62
     7
100
AcDbLine
 10
3.1449588015
 20
7.0537865472
 30
0.0
 11
3.0722878807
 21
7.0537865472
 31
0.0
  0
LINE
  5
1E7
330
1F
100
AcDbEntity
  8
0
  6
CONTINUOUS
 62
     7
100
AcDbLine
 10
3.0722878807
 20
6.2822937149
 30
0.0
 11
3.1449588015
 21
6.2822937149
 31
0.0
  0
LINE
  5
1E8
330
1F
100
AcDbEntity
  8
0
  6
CONTINUOUS
 62
     7
100
AcDbLine
 10
3.5809843261
 20
7.0537865472
 30
0.0
 11
3.5083134053
 21
7.0537865472
 31
0.0
  0
LINE
  5
1E9
330
1F
100
AcDbEntity
  8
0
  6
CONTINUOUS
 62
     7
100
AcDbLine
 10
3.5083134053
 20
6.2822937149
 30
0.0
 11
3.5809843261
 21
6.2822937149
 31
0.0
  0
LINE
  5
1EA
330
1F
100
AcDbEntity
  8
0
  6
CONTINUOUS
 62
     7
100
AcDbLine
 10
3.8426990955
 20
7.2585913121
 30
0.0
 11
4.038919568
 21
7.2585913121
 31
0.0
  0
LINE
  5
1EB
330
1F
100
AcDbEntity
  8
0
  6
CONTINUOUS
 62
     7
100
AcDbLine
 10
2.8105731113
 20
7.2585913121
 30
0.0
 11
2.6143526388
 21
7.2585913121
 31
0.0
  0
CIRCLE
  5
1EC
330
1F
100
AcDbEntity
  8
0
  6
CONTINUOUS
 62
     7
100
AcDbCircle
 10
3.9408093317
 20
6.668040131
 30
0.0
 40
0.0981102362204727
  0
LINE
  5
1ED
330
1F
100
AcDbEntity
  8
0
  6
CONTINUOUS
 62
     7
100
AcDbLine
 10
3.9408093317
 20
6.7362311077
 30
0.0
 11
3.8817542136
 21
6.7021356194
 31
0.0
  0
LINE
  5
1EE
330
1F
100
AcDbEntity
  8
0
  6
CONTINUOUS
 62
     7
100
AcDbLine
 10
3.8817542136
 20
6.7021356194
 30
0.0
 11
3.8817542136
 21
6.6339446427
 31
0.0
  0
LINE
  5
1EF
330
1F
100
AcDbEntity
  8
0
  6
CONTINUOUS
 62
     7
100
AcDbLine
 10
3.8817542136
 20
6.6339446427
 30
0.0
 11
3.9408093317
 21
6.5998491544
 31
0.0
  0
LINE
  5
1F0
330
1F
100
AcDbEntity
  8
0
  6
CONTINUOUS
 62
     7
100
AcDbLine
 10
3.9408093317
 20
6.5998491544
 30
0.0
 11
3.9998644498
 21
6.6339446427
 31
0.0
  0
LINE
  5
1F1
330
1F
100
AcDbEntity
  8
0
  6
CONTINUOUS
 62
     7
100
AcDbLine
 10
3.9998644498
 20
6.6339446427
 30
0.0
 11
3.9998644498
 21
6.7021356194
 31
0.0
  0
LINE
  5
1F2
330
1F
100
AcDbEntity
  8
0
  6
CONTINUOUS
 62
     7
100
AcDbLine
 10
3.9998644498
 20
6.7021356194
 30
0.0
 11
3.9408093317
 21
6.7362311077
 31
0.0
  0
CIRCLE
  5
1F3
330
1F
100
AcDbEntity
  8
0
  6
CONTINUOUS
 62
     7
100
AcDbCircle
 10
3.9408093317
 20
6.668040131
 30
0.0
 40
0.1181102362204731
  0
CIRCLE
  5
1F4
330
1F
100
AcDbEntity
  8
0
  6
CONTINUOUS
 62
     7
100
AcDbCircle
 10
2.712462875
 20
6.668040131
 30
0.0
 40
0.0981102362204727
  0
LINE
  5
1F5
330
1F
100
AcDbEntity
  8
0
  6
CONTINUOUS
 62
     7
100
AcDbLine
 10
2.6534077569
 20
6.6339446427
 30
0.0
 11
2.6534077569
 21
6.7021356194
 31
0.0
  0
LINE
  5
1F6
330
1F
100
AcDbEntity
  8
0
  6
CONTINUOUS
 62
     7
100
AcDbLine
 10
2.712462875
 20
6.5998491544
 30
0.0
 11
2.6534077569
 21
6.6339446427
 31
0.0
  0
LINE
  5
1F7
330
1F
100
AcDbEntity
  8
0
  6
CONTINUOUS
 62
     7
100
AcDbLine
 10
2.7715179931
 20
6.6339446427
 30
0.0
 11
2.712462875
 21
6.5998491544
 31
0.0
  0
LINE
  5
1F8
330
1F
100
AcDbEntity
  8
0
  6
CONTINUOUS
 62
     7
100
AcDbLine
 10
2.7715179931
 20
6.7021356194
 30
0.0
 11
2.7715179931
 21
6.6339446427
 31
0.0
  0
LINE
  5
1F9
330
1F
100
AcDbEntity
  8
0
  6
CONTINUOUS
 62
     7
100
AcDbLine
 10
2.712462875
 20
6.7362311077
 30
0.0
 11
2.7715179931
 21
6.7021356194
 31
0.0
  0
LINE
  5
1FA
330
1F
100
AcDbEntity
  8
0
  6
CONTINUOUS
 62
     7
100
AcDbLine
 10
2.6534077569
 20
6.7021356194
 30
0.0
 11
2.712462875
 21
6.7362311077
 31
0.0
  0
CIRCLE
  5
1FB
330
1F
100
AcDbEntity
  8
0
  6
CONTINUOUS
 62
     7
100
AcDbCircle
 10
2.712462875
 20
6.668040131
 30
0.0
 40
0.1181102362204731
  0
SPLINE
  5
1FC
330
1F
100
AcDbEntity
  8
0
  6
HIDDEN
 62
     7
100
AcDbSpline
210
0.0
220
0.0
230
1.0
 70
     8
 71
     3
 72
    23
 73
    19
 74
     0
 42
0.00000001
 43
0.00000001
 40
0.0
 40
0.0
 40
0.0
 40
0.0
 40
0.0049957679682261
 40
0.0698831845382557
 40
0.1432314095947721
 40
0.2251066781610293
 40
0.3080577301062904
 40
0.3817415350172322
 40
0.4462199301103557
 40
0.5015928428645453
 40
0.5569971304746182
 40
0.6215073045999309
 40
0.6952231488188495
 40
0.778206414733875
 40
0.8602289354019493
 40
0.9336458093636628
 40
0.9985228551508787
 40
1.0
 40
1.0
 40
1.0
 40
1.0
 10
3.824095192424088
 20
6.650757419842376
 30
0.0
 10
3.82413728545362
 20
6.650198504118382
 30
0.0
 10
3.824726102822493
 20
6.642380124455927
 30
0.0
 10
3.829568391760241
 20
6.626871118092891
 30
0.0
 10
3.839978798015422
 20
6.604573379850264
 30
0.0
 10
3.856652609947853
 20
6.583676266199113
 30
0.0
 10
3.877594531544146
 20
6.567116543940188
 30
0.0
 10
3.899998186944828
 20
6.556393538314577
 30
0.0
 10
3.921089878287935
 20
6.551002859122132
 30
0.0
 10
3.940773373259848
 20
6.549436926278334
 30
0.0
 10
3.960461566539156
 20
6.550990922275838
 30
0.0
 10
3.981566585970143
 20
6.556373150902564
 30
0.0
 10
4.003985839407647
 20
6.567091125636895
 30
0.0
 10
4.024949448111641
 20
6.583659220501718
 30
0.0
 10
4.041654708305848
 20
6.604576174854831
 30
0.0
 10
4.052033028978615
 20
6.626902589048811
 30
0.0
 10
4.056835169580804
 20
6.642026612663337
 30
0.0
 10
4.057420585873641
 20
6.649446376652028
 30
0.0
 10
4.057433618127568
 20
6.649611551843715
 30
0.0
  0
SPLINE
  5
1FD
330
1F
100
AcDbEntity
  8
0
  6
HIDDEN
 62
     7
100
AcDbSpline
210
0.0
220
0.0
230
1.0
 70
     8
 71
     3
 72
    22
 73
    18
 74
     0
 42
0.00000001
 43
0.00000001
 40
0.0
 40
0.0
 40
0.0
 40
0.0
 40
0.0638243517212974
 40
0.1373769101539159
 40
0.2194802667213827
 40
0.3026624035835872
 40
0.3765514767284896
 40
0.4412094956386153
 40
0.4967366661706719
 40
0.5522952989622397
 40
0.6169851854344037
 40
0.6909063871424707
 40
0.7741208277164615
 40
0.8563718466008178
 40
0.9299932451807806
 40
0.9950510253453785
 40
1.0
 40
1.0
 40
1.0
 40
1.0
 10
2.595988502372763
 20
6.648678955382307
 30
0.0
 10
2.597516911346946
 20
6.641699404398045
 30
0.0
 10
2.600806691762447
 20
6.626676468439894
 30
0.0
 10
2.611784239870477
 20
6.604595495010803
 30
0.0
 10
2.628262772320419
 20
6.583669950279636
 30
0.0
 10
2.649258372316703
 20
6.56711804323255
 30
0.0
 10
2.671649461899086
 20
6.556393207851794
 30
0.0
 10
2.692743902751334
 20
6.551002929811355
 30
0.0
 10
2.712426803050922
 20
6.54943690773584
 30
0.0
 10
2.73211511976717
 20
6.550990931813031
 30
0.0
 10
2.753220249012069
 20
6.556373130351023
 30
0.0
 10
2.775638786517345
 20
6.567091211201684
 30
0.0
 10
2.796605520320041
 20
6.583658862164811
 30
0.0
 10
2.813299382185054
 20
6.604577430563982
 30
0.0
 10
2.823714412223635
 20
6.626898647771195
 30
0.0
 10
2.828551690404001
 20
6.642408700826803
 30
0.0
 10
2.8291391273437
 20
6.650219182553872
 30
0.0
 10
2.829180654915336
 20
6.65077132750342
 30
0.0
  0
SPLINE
  5
1FE
330
1F
100
AcDbEntity
  8
0
  6
HIDDEN
 62
     7
100
AcDbSpline
210
0.0
220
0.0
230
1.0
 70
     8
 71
     3
 72
    22
 73
    18
 74
     0
 42
0.00000001
 43
0.00000001
 40
0.0
 40
0.0
 40
0.0
 40
0.0
 40
0.0499824133928693
 40
0.1249517266760079
 40
0.2087451601309223
 40
0.2935439456981107
 40
0.3688698125330661
 40
0.4347856866995789
 40
0.4913931700625601
 40
0.5479499968983662
 40
0.6138110748471379
 40
0.6890786928066354
 40
0.7738149141617329
 40
0.8576090881227428
 40
0.9325858201881336
 40
0.9988127279624
 40
1.0
 40
1.0
 40
1.0
 40
1.0
 10
2.827715399956968
 20
6.69210852753187
 30
0.0
 10
2.826517179510528
 20
6.697466491291644
 30
0.0
 10
2.823521731640804
 20
6.710860939014466
 30
0.0
 10
2.813128468036435
 20
6.731432433224485
 30
0.0
 10
2.79668788058098
 20
6.752405148349826
 30
0.0
 10
2.775650827843414
 20
6.768971905020623
 30
0.0
 10
2.753241397534877
 20
6.779701597388249
 30
0.0
 10
2.732126126998245
 20
6.785087628329069
 30
0.0
 10
2.71243501056234
 20
6.786643474930515
 30
0.0
 10
2.692749699271248
 20
6.785078449000065
 30
0.0
 10
2.671657718742626
 20
6.779688898459539
 30
0.0
 10
2.64925152995452
 20
6.768966527771286
 30
0.0
 10
2.628297541019431
 20
6.752395333273022
 30
0.0
 10
2.61159920836654
 20
6.731476360086595
 30
0.0
 10
2.601232302197526
 20
6.709150799301806
 30
0.0
 10
2.596439101090989
 20
6.694066741855592
 30
0.0
 10
2.595854604402618
 20
6.686686929082029
 30
0.0
 10
2.59584431047668
 20
6.686556958720108
 30
0.0
  0
ARC
  5
1FF
330
1F
100
AcDbEntity
  8
0
  6
HIDDEN
 62
     7
100
AcDbCircle
 10
3.9407939727
 20
7.1220233429
 30
0.0
 40
0.2477236579551149
100
AcDbArc
 50
241.5285872751
 51
298.3753071798
  0
ARC
  5
200
330
1F
100
AcDbEntity
  8
0
  6
HIDDEN
 62
     7
100
AcDbCircle
 10
2.712447516
 20
7.1220233429
 30
0.0
 40
0.2477236579551118
100
AcDbArc
 50
241.5285872751
 51
298.3753071798
  0
SPLINE
  5
201
330
1F
100
AcDbEntity
  8
0
  6
HIDDEN
 62
     7
100
AcDbSpline
210
0.0
220
0.0
230
1.0
 70
     8
 71
     3
 72
    24
 73
    20
 74
     0
 42
0.00000001
 43
0.00000001
 40
0.0
 40
0.0
 40
0.0
 40
0.0
 40
0.051085670340708
 40
0.1097258678707321
 40
0.1760122856872093
 40
0.2500047818497193
 40
0.3249694873122573
 40
0.3915591760861984
 40
0.4498297318356173
 40
0.499871461239532
 40
0.5499415447961888
 40
0.6082408199617106
 40
0.6748594633690219
 40
0.7498532813109252
 40
0.823978852464011
 40
0.8903273098187775
 40
0.9489581350422935
 40
0.999962922627603
 40
1.0
 40
1.0
 40
1.0
 40
1.0
 10
3.822699095510536
 20
7.23911941179258
 30
0.0
 10
3.822998747912427
 20
7.238995760794024
 30
0.0
 10
3.823642365185876
 20
7.238730173339869
 30
0.0
 10
3.8293554135332
 20
7.236914915282182
 30
0.0
 10
3.840046555206725
 20
7.234152663824742
 30
0.0
 10
3.856633259878265
 20
7.230227784866631
 30
0.0
 10
3.877599121819665
 20
7.226293717669583
 30
0.0
 10
3.899997184753872
 20
7.223455917869263
 30
0.0
 10
3.921090063586443
 20
7.221697283295656
 30
0.0
 10
3.940773415444864
 20
7.221016579453265
 30
0.0
 10
3.960461198266406
 20
7.221696887110125
 30
0.0
 10
3.981568388657395
 20
7.223454577233066
 30
0.0
 10
4.003977635460675
 20
7.22628946745635
 30
0.0
 10
4.02498403486619
 20
7.230229023588696
 30
0.0
 10
4.041533453534175
 20
7.234133685387317
 30
0.0
 10
4.052413621052299
 20
7.236968606885029
 30
0.0
 10
4.057548904310731
 20
7.238567758196151
 30
0.0
 10
4.059427880604108
 20
7.23930394497428
 30
0.0
 10
4.058918829036268
 20
7.2391191435623
 30
0.0
 10
4.058918459255607
 20
7.239119009320521
 30
0.0
  0
SPLINE
  5
202
330
1F
100
AcDbEntity
  8
0
  6
HIDDEN
 62
     7
100
AcDbSpline
210
0.0
220
0.0
230
1.0
 70
     8
 71
     3
 72
    24
 73
    20
 74
     0
 42
0.00000001
 43
0.00000001
 40
0.0
 40
0.0
 40
0.0
 40
0.0
 40
0.0510856703407913
 40
0.1097258678708421
 40
0.1760122856872909
 40
0.2500047818497168
 40
0.3249694873121692
 40
0.391559176086081
 40
0.4498297318355268
 40
0.4998714612395257
 40
0.5499415447966257
 40
0.6082408199622941
 40
0.6748594633694576
 40
0.7498532813109217
 40
0.8239788524637893
 40
0.8903273098184817
 40
0.9489581350420707
 40
0.9999629226276034
 40
1.0
 40
1.0
 40
1.0
 40
1.0
 10
2.594352638817623
 20
7.23911941179258
 30
0.0
 10
2.594652291219515
 20
7.238995760794024
 30
0.0
 10
2.595295908492966
 20
7.238730173339871
 30
0.0
 10
2.601008956840299
 20
7.236914915282185
 30
0.0
 10
2.611700098513826
 20
7.234152663824744
 30
0.0
 10
2.628286803185353
 20
7.230227784866631
 30
0.0
 10
2.649252665126732
 20
7.226293717669582
 30
0.0
 10
2.671650728060925
 20
7.223455917869261
 30
0.0
 10
2.692743606893505
 20
7.221697283295655
 30
0.0
 10
2.712426958751996
 20
7.221016579453265
 30
0.0
 10
2.732114741573622
 20
7.221696887110122
 30
0.0
 10
2.753221931964657
 20
7.22345457723306
 30
0.0
 10
2.775631178767869
 20
7.226289467456343
 30
0.0
 10
2.79663757817329
 20
7.2302290235887
 30
0.0
 10
2.813186996841214
 20
7.234133685387334
 30
0.0
 10
2.824067164359377
 20
7.23696860688505
 30
0.0
 10
2.829202447617734
 20
7.238567758196162
 30
0.0
 10
2.83108142391134
 20
7.239303944974297
 30
0.0
 10
2.830572372343355
 20
7.2391191435623
 30
0.0
 10
2.830572002562694
 20
7.239119009320522
 30
0.0
  0
LINE
  5
203
330
1F
100
AcDbEntity
  8
0
  6
HIDDEN
 62
     7
100
AcDbLine
 10
4.058919568
 20
7.2385913121
 30
0.0
 11
3.8226990955
 21
7.2385913121
 31
0.0
  0
LINE
  5
204
330
1F
100
AcDbEntity
  8
0
  6
HIDDEN
 62
     7
100
AcDbLine
 10
3.8226990955
 20
6.9242606035
 30
0.0
 11
4.058919568
 21
6.9242606035
 31
0.0
  0
LINE
  5
205
330
1F
100
AcDbEntity
  8
0
  6
HIDDEN
 62
     7
100
AcDbLine
 10
4.038919568
 20
6.9042606035
 30
0.0
 11
3.8426990955
 21
6.9042606035
 31
0.0
  0
LINE
  5
206
330
1F
100
AcDbEntity
  8
0
  6
HIDDEN
 62
     7
100
AcDbLine
 10
3.9408093317
 20
7.1585913121
 30
0.0
 11
3.9408093317
 21
7.2585913121
 31
0.0
  0
LINE
  5
207
330
1F
100
AcDbEntity
  8
0
  6
HIDDEN
 62
     7
100
AcDbLine
 10
3.9408093317
 20
7.1585913121
 30
0.0
 11
3.9998644498
 21
7.1585913121
 31
0.0
  0
LINE
  5
208
330
1F
100
AcDbEntity
  8
0
  6
HIDDEN
 62
     7
100
AcDbLine
 10
3.8817542136
 20
7.1585913121
 30
0.0
 11
3.9408093317
 21
7.1585913121
 31
0.0
  0
LINE
  5
209
330
1F
100
AcDbEntity
  8
0
  6
HIDDEN
 62
     7
100
AcDbLine
 10
3.8817542136
 20
7.1585913121
 30
0.0
 11
3.8817542136
 21
7.2585913121
 31
0.0
  0
LINE
  5
20A
330
1F
100
AcDbEntity
  8
0
  6
HIDDEN
 62
     7
100
AcDbLine
 10
3.9998644498
 20
7.1585913121
 30
0.0
 11
3.9998644498
 21
7.2585913121
 31
0.0
  0
LINE
  5
20B
330
1F
100
AcDbEntity
  8
0
  6
HIDDEN
 62
     7
100
AcDbLine
 10
2.5943526388
 20
7.2385913121
 30
0.0
 11
2.8305731113
 21
7.2385913121
 31
0.0
  0
LINE
  5
20C
330
1F
100
AcDbEntity
  8
0
  6
HIDDEN
 62
     7
100
AcDbLine
 10
2.8305731113
 20
6.9242606035
 30
0.0
 11
2.5943526388
 21
6.9242606035
 31
0.0
  0
LINE
  5
20D
330
1F
100
AcDbEntity
  8
0
  6
HIDDEN
 62
     7
100
AcDbLine
 10
2.6143526388
 20
6.9042606035
 30
0.0
 11
2.8105731113
 21
6.9042606035
 31
0.0
  0
LINE
  5
20E
330
1F
100
AcDbEntity
  8
0
  6
HIDDEN
 62
     7
100
AcDbLine
 10
2.712462875
 20
7.1585913121
 30
0.0
 11
2.712462875
 21
7.2585913121
 31
0.0
  0
LINE
  5
20F
330
1F
100
AcDbEntity
  8
0
  6
HIDDEN
 62
     7
100
AcDbLine
 10
2.7715179931
 20
7.1585913121
 30
0.0
 11
2.712462875
 21
7.1585913121
 31
0.0
  0
LINE
  5
210
330
1F
100
AcDbEntity
  8
0
  6
HIDDEN
 62
     7
100
AcDbLine
 10
2.712462875
 20
7.1585913121
 30
0.0
 11
2.6534077569
 21
7.1585913121
 31
0.0
  0
LINE
  5
211
330
1F
100
AcDbEntity
  8
0
  6
HIDDEN
 62
     7
100
AcDbLine
 10
2.7715179931
 20
7.1585913121
 30
0.0
 11
2.7715179931
 21
7.2585913121
 31
0.0
  0
LINE
  5
212
330
1F
100
AcDbEntity
  8
0
  6
HIDDEN
 62
     7
100
AcDbLine
 10
2.6534077569
 20
7.1585913121
 30
0.0
 11
2.6534077569
 21
7.2585913121
 31
0.0
  0
LINE
  5
213
330
1F
100
AcDbEntity
  8
0
  6
HIDDEN
 62
     7
100
AcDbLine
 10
2.4604943711
 20
6.4018196586
 30
0.0
 11
2.4904943711
 21
6.4318196586
 31
0.0
  0
LINE
  5
214
330
1F
100
AcDbEntity
  8
0
  6
HIDDEN
 62
     7
100
AcDbLine
 10
2.4904943711
 20
6.9042606035
 30
0.0
 11
2.4604943711
 21
6.9342606035
 31
0.0
  0
LINE
  5
215
330
1F
100
AcDbEntity
  8
0
  6
HIDDEN
 62
     7
100
AcDbLine
 10
4.1927778357
 20
6.9342606035
 30
0.0
 11
4.1627778357
 21
6.9042606035
 31
0.0
  0
LINE
  5
216
330
1F
100
AcDbEntity
  8
0
  6
HIDDEN
 62
     7
100
AcDbLine
 10
4.1627778357
 20
6.4318196586
 30
0.0
 11
4.1927778357
 21
6.4018196586
 31
0.0
  0
LINE
  5
217
330
1F
100
AcDbEntity
  8
0
  6
HIDDEN
 62
     7
100
AcDbLine
 10
2.5943526388
 20
6.9042606035
 30
0.0
 11
2.4904943711
 21
6.9042606035
 31
0.0
  0
LINE
  5
218
330
1F
100
AcDbEntity
  8
0
  6
HIDDEN
 62
     7
100
AcDbLine
 10
3.8226990955
 20
6.9042606035
 30
0.0
 11
2.8301769612
 21
6.9042606035
 31
0.0
  0
LINE
  5
219
330
1F
100
AcDbEntity
  8
0
  6
HIDDEN
 62
     7
100
AcDbLine
 10
4.1627778357
 20
6.9042606035
 30
0.0
 11
4.0585234179
 21
6.9042606035
 31
0.0
  0
LINE
  5
21A
330
1F
100
AcDbEntity
  8
0
  6
HIDDEN
 62
     7
100
AcDbLine
 10
2.4904943711
 20
6.4318196586
 30
0.0
 11
4.1627778357
 21
6.4318196586
 31
0.0
  0
LINE
  5
21B
330
1F
100
AcDbEntity
  8
0
  6
HIDDEN
 62
     7
100
AcDbLine
 10
4.0589195699
 20
7.2391194116
 30
0.0
 11
4.0826215774
 21
7.258591312
 31
0.0
  0
LINE
  5
21C
330
1F
100
AcDbEntity
  8
0
  6
HIDDEN
 62
     7
100
AcDbLine
 10
3.7989970783
 20
7.2585913135
 30
0.0
 11
3.822699087
 21
7.2391194131
 31
0.0
  0
LINE
  5
21D
330
1F
100
AcDbEntity
  8
0
  6
HIDDEN
 62
     7
100
AcDbLine
 10
2.8305731133
 20
7.2391194116
 30
0.0
 11
2.8542751207
 21
7.258591312
 31
0.0
  0
LINE
  5
21E
330
1F
100
AcDbEntity
  8
0
  6
HIDDEN
 62
     7
100
AcDbLine
 10
2.5706506216
 20
7.2585913135
 30
0.0
 11
2.5943526303
 21
7.2391194131
 31
0.0
  0
LINE
  5
21F
330
1F
100
AcDbEntity
  8
0
  6
HIDDEN
 62
     7
100
AcDbLine
 10
2.8305731113
 20
6.9040628671
 30
0.0
 11
2.8305731113
 21
7.2391192816
 31
0.0
  0
LINE
  5
220
330
1F
100
AcDbEntity
  8
0
  6
HIDDEN
 62
     7
100
AcDbLine
 10
2.5943526388
 20
7.2391194118
 30
0.0
 11
2.5943526388
 21
6.9042606035
 31
0.0
  0
LINE
  5
221
330
1F
100
AcDbEntity
  8
0
  6
HIDDEN
 62
     7
100
AcDbLine
 10
4.058919568
 20
6.9040628671
 30
0.0
 11
4.058919568
 21
7.2391192816
 31
0.0
  0
LINE
  5
222
330
1F
100
AcDbEntity
  8
0
  6
HIDDEN
 62
     7
100
AcDbLine
 10
3.8226990955
 20
7.2391194118
 30
0.0
 11
3.8226990955
 21
6.9042606035
 31
0.0
  0
LINE
  5
223
330
1F
100
AcDbEntity
  8
0
  6
HIDDEN
 62
     7
100
AcDbLine
 10
4.058919568
 20
7.2385913121
 30
0.0
 11
4.0469405635
 21
7.2505703166
 31
0.0
  0
LINE
  5
224
330
1F
100
AcDbEntity
  8
0
  6
HIDDEN
 62
     7
100
AcDbLine
 10
3.8346783706
 20
7.2505705872
 30
0.0
 11
3.8226990955
 21
7.2385913121
 31
0.0
  0
LINE
  5
225
330
1F
100
AcDbEntity
  8
0
  6
HIDDEN
 62
     7
100
AcDbLine
 10
4.058919568
 20
6.9242606035
 30
0.0
 11
4.058919568
 21
7.2385913121
 31
0.0
  0
LINE
  5
226
330
1F
100
AcDbEntity
  8
0
  6
HIDDEN
 62
     7
100
AcDbLine
 10
3.8226990955
 20
7.2385913121
 30
0.0
 11
3.8226990955
 21
6.9242606035
 31
0.0
  0
LINE
  5
227
330
1F
100
AcDbEntity
  8
0
  6
HIDDEN
 62
     7
100
AcDbLine
 10
3.8226990955
 20
6.9242606035
 30
0.0
 11
3.8426990955
 21
6.9042606035
 31
0.0
  0
LINE
  5
228
330
1F
100
AcDbEntity
  8
0
  6
HIDDEN
 62
     7
100
AcDbLine
 10
4.038919568
 20
6.9042606035
 30
0.0
 11
4.058919568
 21
6.9242606035
 31
0.0
  0
LINE
  5
229
330
1F
100
AcDbEntity
  8
0
  6
HIDDEN
 62
     7
100
AcDbLine
 10
2.8305731113
 20
7.2385913121
 30
0.0
 11
2.8185941068
 21
7.2505703166
 31
0.0
  0
LINE
  5
22A
330
1F
100
AcDbEntity
  8
0
  6
HIDDEN
 62
     7
100
AcDbLine
 10
2.6063319139
 20
7.2505705872
 30
0.0
 11
2.5943526388
 21
7.2385913121
 31
0.0
  0
LINE
  5
22B
330
1F
100
AcDbEntity
  8
0
  6
HIDDEN
 62
     7
100
AcDbLine
 10
2.8305731113
 20
6.9242606035
 30
0.0
 11
2.8305731113
 21
7.2385913121
 31
0.0
  0
LINE
  5
22C
330
1F
100
AcDbEntity
  8
0
  6
HIDDEN
 62
     7
100
AcDbLine
 10
2.5943526388
 20
7.2385913121
 30
0.0
 11
2.5943526388
 21
6.9242606035
 31
0.0
  0
LINE
  5
22D
330
1F
100
AcDbEntity
  8
0
  6
HIDDEN
 62
     7
100
AcDbLine
 10
2.5943526388
 20
6.9242606035
 30
0.0
 11
2.6143526388
 21
6.9042606035
 31
0.0
  0
LINE
  5
22E
330
1F
100
AcDbEntity
  8
0
  6
HIDDEN
 62
     7
100
AcDbLine
 10
2.8105731113
 20
6.9042606035
 30
0.0
 11
2.8305731113
 21
6.9242606035
 31
0.0
  0
LINE
  5
22F
330
1F
100
AcDbEntity
  8
0
  6
CONTINUOUS
 62
     7
100
AcDbLine
 10
8.7620658619
 20
6.0241387481
 30
0.0
 11
8.7832756176
 21
6.0363868601
 31
0.0
  0
LINE
  5
230
330
1F
100
AcDbEntity
  8
0
  6
CONTINUOUS
 62
     7
100
AcDbLine
 10
9.1795807378
 20
6.7228818467
 30
0.0
 11
9.1795807378
 21
6.7473740901
 31
0.0
  0
LINE
  5
231
330
1F
100
AcDbEntity
  8
0
  6
CONTINUOUS
 62
     7
100
AcDbLine
 10
8.1581284645
 20
6.1730238653
 30
0.0
 11
8.4667463987
 21
5.9948625241
 31
0.0
  0
LINE
  5
232
330
1F
100
AcDbEntity
  8
0
  6
CONTINUOUS
 62
     7
100
AcDbLine
 10
8.0553562628
 20
6.2323529945
 30
0.0
 11
8.1067423637
 21
6.2026884299
 31
0.0
  0
LINE
  5
233
330
1F
100
AcDbEntity
  8
0
  6
CONTINUOUS
 62
     7
100
AcDbLine
 10
7.9525840611
 20
6.2916821237
 30
0.0
 11
8.0039701619
 21
6.2620175591
 31
0.0
  0
LINE
  5
234
330
1F
100
AcDbEntity
  8
0
  6
CONTINUOUS
 62
     7
100
AcDbLine
 10
7.8498118593
 20
6.3510112529
 30
0.0
 11
7.9011979602
 21
6.3213466883
 31
0.0
  0
LINE
  5
235
330
1F
100
AcDbEntity
  8
0
  6
CONTINUOUS
 62
     7
100
AcDbLine
 10
7.7470396576
 20
6.4103403821
 30
0.0
 11
7.7984257585
 21
6.3806758175
 31
0.0
  0
LINE
  5
236
330
1F
100
AcDbEntity
  8
0
  6
CONTINUOUS
 62
     7
100
AcDbLine
 10
7.6442674558
 20
6.4696695113
 30
0.0
 11
7.6956535567
 21
6.4400049467
 31
0.0
  0
LINE
  5
237
330
1F
100
AcDbEntity
  8
0
  6
CONTINUOUS
 62
     7
100
AcDbLine
 10
7.2842634208
 20
6.677495417
 30
0.0
 11
7.592881355
 21
6.4993340759
 31
0.0
  0
LINE
  5
238
330
1F
100
AcDbEntity
  8
0
  6
CONTINUOUS
 62
     7
100
AcDbLine
 10
8.1833845435
 20
7.522226433
 30
0.0
 11
7.8747666094
 21
7.7003877742
 31
0.0
  0
LINE
  5
239
330
1F
100
AcDbEntity
  8
0
  6
CONTINUOUS
 62
     7
100
AcDbLine
 10
8.2861567453
 20
7.4628973038
 30
0.0
 11
8.2347706444
 21
7.4925618684
 31
0.0
  0
LINE
  5
23A
330
1F
100
AcDbEntity
  8
0
  6
CONTINUOUS
 62
     7
100
AcDbLine
 10
8.388928947
 20
7.4035681746
 30
0.0
 11
8.3375428461
 21
7.4332327392
 31
0.0
  0
LINE
  5
23B
330
1F
100
AcDbEntity
  8
0
  6
CONTINUOUS
 62
     7
100
AcDbLine
 10
8.4917011488
 20
7.3442390454
 30
0.0
 11
8.4403150479
 21
7.37390361
 31
0.0
  0
LINE
  5
23C
330
1F
100
AcDbEntity
  8
0
  6
CONTINUOUS
 62
     7
100
AcDbLine
 10
8.5944733505
 20
7.2849099162
 30
0.0
 11
8.5430872496
 21
7.3145744808
 31
0.0
  0
LINE
  5
23D
330
1F
100
AcDbEntity
  8
0
  6
CONTINUOUS
 62
     7
100
AcDbLine
 10
8.6972455522
 20
7.225580787
 30
0.0
 11
8.6458594514
 21
7.2552453516
 31
0.0
  0
LINE
  5
23E
330
1F
100
AcDbEntity
  8
0
  6
CONTINUOUS
 62
     7
100
AcDbLine
 10
9.0572495872
 20
7.0177548813
 30
0.0
 11
8.7486316531
 21
7.1959162224
 31
0.0
  0
LINE
  5
23F
330
1F
100
AcDbEntity
  8
0
  6
CONTINUOUS
 62
     7
100
AcDbLine
 10
7.5794471462
 20
7.6711115502
 30
0.0
 11
7.5582373905
 21
7.6588634382
 31
0.0
  0
LINE
  5
240
330
1F
100
AcDbEntity
  8
0
  6
CONTINUOUS
 62
     7
100
AcDbLine
 10
7.1619322703
 20
6.9723684516
 30
0.0
 11
7.1619322703
 21
6.9478762082
 31
0.0
  0
LINE
  5
241
330
1F
100
AcDbEntity
  8
0
  6
CONTINUOUS
 62
     7
100
AcDbLine
 10
8.7720643812
 20
6.6132387995
 30
0.0
 11
8.7862042184
 21
6.6050733914
 31
0.0
  0
LINE
  5
242
330
1F
100
AcDbEntity
  8
0
  6
CONTINUOUS
 62
     7
100
AcDbLine
 10
8.6885726781
 20
7.1110007131
 30
0.0
 11
8.6744282445
 21
7.119168775
 31
0.0
  0
LINE
  5
243
330
1F
100
AcDbEntity
  8
0
  6
CONTINUOUS
 62
     7
100
AcDbLine
 10
8.5356568727
 20
7.119168775
 30
0.0
 11
8.5215124392
 21
7.1110007131
 31
0.0
  0
LINE
  5
244
330
1F
100
AcDbEntity
  8
0
  6
CONTINUOUS
 62
     7
100
AcDbLine
 10
8.7231527948
 20
7.0527701407
 30
0.0
 11
8.7231527948
 21
7.0627954709
 31
0.0
  0
LINE
  5
245
330
1F
100
AcDbEntity
  8
0
  6
CONTINUOUS
 62
     7
100
AcDbLine
 10
8.4869323224
 20
7.0627954709
 30
0.0
 11
8.4869323224
 21
7.0559775747
 31
0.0
  0
LINE
  5
246
330
1F
100
AcDbEntity
  8
0
  6
CONTINUOUS
 62
     7
100
AcDbLine
 10
7.8200005689
 20
7.6124167188
 30
0.0
 11
7.8058561353
 21
7.6205847807
 31
0.0
  0
LINE
  5
247
330
1F
100
AcDbEntity
  8
0
  6
CONTINUOUS
 62
     7
100
AcDbLine
 10
7.6670847636
 20
7.6205847807
 30
0.0
 11
7.65294033
 21
7.6124167188
 31
0.0
  0
LINE
  5
248
330
1F
100
AcDbEntity
  8
0
  6
CONTINUOUS
 62
     7
100
AcDbLine
 10
7.8545806857
 20
7.5541861464
 30
0.0
 11
7.8545806857
 21
7.5642114766
 31
0.0
  0
LINE
  5
249
330
1F
100
AcDbEntity
  8
0
  6
CONTINUOUS
 62
     7
100
AcDbLine
 10
7.6183602132
 20
7.5642114766
 30
0.0
 11
7.6183602132
 21
7.5573935803
 31
0.0
  0
POLYLINE
  5
24A
330
1F
100
AcDbEntity
  8
0
  6
CONTINUOUS
 62
     7
100
AcDb2dPolyline
 66
     1
 10
0.0
 20
0.0
 30
0.0
  0
VERTEX
  5
2AA
330
24A
100
AcDbEntity
  8
0
  6
CONTINUOUS
 62
     7
100
AcDbVertex
100
AcDb2dVertex
 10
9.1795807378
 20
6.7228818467
 30
0.0
  0
VERTEX
  5
2AB
330
24A
100
AcDbEntity
  8
0
  6
CONTINUOUS
 62
     7
100
AcDbVertex
100
AcDb2dVertex
 10
9.1789892765
 20
6.7475357466
 30
0.0
  0
VERTEX
  5
2AC
330
24A
100
AcDbEntity
  8
0
  6
CONTINUOUS
 62
     7
100
AcDbVertex
100
AcDb2dVertex
 10
9.1772166579
 20
6.7714331828
 30
0.0
  0
VERTEX
  5
2AD
330
24A
100
AcDbEntity
  8
0
  6
CONTINUOUS
 62
     7
100
AcDbVertex
100
AcDb2dVertex
 10
9.1742681722
 20
6.7945028362
 30
0.0
  0
VERTEX
  5
2AE
330
24A
100
AcDbEntity
  8
0
  6
CONTINUOUS
 62
     7
100
AcDbVertex
100
AcDb2dVertex
 10
9.1701526187
 20
6.8166758578
 30
0.0
  0
VERTEX
  5
2AF
330
24A
100
AcDbEntity
  8
0
  6
CONTINUOUS
 62
     7
100
AcDbVertex
100
AcDb2dVertex
 10
9.16488228
 20
6.8378860746
 30
0.0
  0
VERTEX
  5
2B0
330
24A
100
AcDbEntity
  8
0
  6
CONTINUOUS
 62
     7
100
AcDbVertex
100
AcDb2dVertex
 10
9.1584728847
 20
6.858070187
 30
0.0
  0
VERTEX
  5
2B1
330
24A
100
AcDbEntity
  8
0
  6
CONTINUOUS
 62
     7
100
AcDbVertex
100
AcDb2dVertex
 10
9.150943561
 20
6.8771679575
 30
0.0
  0
VERTEX
  5
2B2
330
24A
100
AcDbEntity
  8
0
  6
CONTINUOUS
 62
     7
100
AcDbVertex
100
AcDb2dVertex
 10
9.1423167795
 20
6.8951223911
 30
0.0
  0
VERTEX
  5
2B3
330
24A
100
AcDbEntity
  8
0
  6
CONTINUOUS
 62
     7
100
AcDbVertex
100
AcDb2dVertex
 10
9.1326182857
 20
6.9118799046
 30
0.0
  0
VERTEX
  5
2B4
330
24A
100
AcDbEntity
  8
0
  6
CONTINUOUS
 62
     7
100
AcDbVertex
100
AcDb2dVertex
 10
9.1218770239
 20
6.9273904869
 30
0.0
  0
VERTEX
  5
2B5
330
24A
100
AcDbEntity
  8
0
  6
CONTINUOUS
 62
     7
100
AcDbVertex
100
AcDb2dVertex
 10
9.1101250501
 20
6.9416078485
 30
0.0
  0
VERTEX
  5
2B6
330
24A
100
AcDbEntity
  8
0
  6
CONTINUOUS
 62
     7
100
AcDbVertex
100
AcDb2dVertex
 10
9.0973974369
 20
6.9544895591
 30
0.0
  0
VERTEX
  5
2B7
330
24A
100
AcDbEntity
  8
0
  6
CONTINUOUS
 62
     7
100
AcDbVertex
100
AcDb2dVertex
 10
9.0837321685
 20
6.9659971746
 30
0.0
  0
VERTEX
  5
2B8
330
24A
100
AcDbEntity
  8
0
  6
CONTINUOUS
 62
     7
100
AcDbVertex
100
AcDb2dVertex
 10
9.0691700274
 20
6.9760963518
 30
0.0
  0
VERTEX
  5
2B9
330
24A
100
AcDbEntity
  8
0
  6
CONTINUOUS
 62
     7
100
AcDbVertex
100
AcDb2dVertex
 10
9.0537544727
 20
6.9847569508
 30
0.0
  0
VERTEX
  5
2BA
330
24A
100
AcDbEntity
  8
0
  6
CONTINUOUS
 62
     7
100
AcDbVertex
100
AcDb2dVertex
 10
9.0375315106
 20
6.9919531249
 30
0.0
  0
VERTEX
  5
2BB
330
24A
100
AcDbEntity
  8
0
  6
CONTINUOUS
 62
     7
100
AcDbVertex
100
AcDb2dVertex
 10
9.0205495567
 20
6.9976633979
 30
0.0
  0
VERTEX
  5
2BC
330
24A
100
AcDbEntity
  8
0
  6
CONTINUOUS
 62
     7
100
AcDbVertex
100
AcDb2dVertex
 10
9.0028592918
 20
7.0018707282
 30
0.0
  0
VERTEX
  5
2BD
330
24A
100
AcDbEntity
  8
0
  6
CONTINUOUS
 62
     7
100
AcDbVertex
100
AcDb2dVertex
 10
8.9845135107
 20
7.0045625594
 30
0.0
  0
VERTEX
  5
2BE
330
24A
100
AcDbEntity
  8
0
  6
CONTINUOUS
 62
     7
100
AcDbVertex
100
AcDb2dVertex
 10
8.9655669644
 20
7.005730858
 30
0.0
  0
VERTEX
  5
2BF
330
24A
100
AcDbEntity
  8
0
  6
CONTINUOUS
 62
     7
100
AcDbVertex
100
AcDb2dVertex
 10
8.9460761968
 20
7.0053721373
 30
0.0
  0
VERTEX
  5
2C0
330
24A
100
AcDbEntity
  8
0
  6
CONTINUOUS
 62
     7
100
AcDbVertex
100
AcDb2dVertex
 10
8.926099376
 20
7.003487468
 30
0.0
  0
VERTEX
  5
2C1
330
24A
100
AcDbEntity
  8
0
  6
CONTINUOUS
 62
     7
100
AcDbVertex
100
AcDb2dVertex
 10
8.9056961207
 20
7.0000824746
 30
0.0
  0
VERTEX
  5
2C2
330
24A
100
AcDbEntity
  8
0
  6
CONTINUOUS
 62
     7
100
AcDbVertex
100
AcDb2dVertex
 10
8.8849273223
 20
6.995167319
 30
0.0
  0
VERTEX
  5
2C3
330
24A
100
AcDbEntity
  8
0
  6
CONTINUOUS
 62
     7
100
AcDbVertex
100
AcDb2dVertex
 10
8.863854963
 20
6.9887566698
 30
0.0
  0
VERTEX
  5
2C4
330
24A
100
AcDbEntity
  8
0
  6
CONTINUOUS
 62
     7
100
AcDbVertex
100
AcDb2dVertex
 10
8.842541931
 20
6.9808696591
 30
0.0
  0
VERTEX
  5
2C5
330
24A
100
AcDbEntity
  8
0
  6
CONTINUOUS
 62
     7
100
AcDbVertex
100
AcDb2dVertex
 10
8.8210518327
 20
6.9715298247
 30
0.0
  0
VERTEX
  5
2C6
330
24A
100
AcDbEntity
  8
0
  6
CONTINUOUS
 62
     7
100
AcDbVertex
100
AcDb2dVertex
 10
8.7994488031
 20
6.9607650404
 30
0.0
  0
VERTEX
  5
2C7
330
24A
100
AcDbEntity
  8
0
  6
CONTINUOUS
 62
     7
100
AcDbVertex
100
AcDb2dVertex
 10
8.7777973141
 20
6.9486074325
 30
0.0
  0
VERTEX
  5
2C8
330
24A
100
AcDbEntity
  8
0
  6
CONTINUOUS
 62
     7
100
AcDbVertex
100
AcDb2dVertex
 10
8.7561619823
 20
6.9350932842
 30
0.0
  0
VERTEX
  5
2C9
330
24A
100
AcDbEntity
  8
0
  6
CONTINUOUS
 62
     7
100
AcDbVertex
100
AcDb2dVertex
 10
8.734607376
 20
6.9202629269
 30
0.0
  0
VERTEX
  5
2CA
330
24A
100
AcDbEntity
  8
0
  6
CONTINUOUS
 62
     7
100
AcDbVertex
100
AcDb2dVertex
 10
8.7131978225
 20
6.9041606202
 30
0.0
  0
VERTEX
  5
2CB
330
24A
100
AcDbEntity
  8
0
  6
CONTINUOUS
 62
     7
100
AcDbVertex
100
AcDb2dVertex
 10
8.6919972165
 20
6.8868344198
 30
0.0
  0
VERTEX
  5
2CC
330
24A
100
AcDbEntity
  8
0
  6
CONTINUOUS
 62
     7
100
AcDbVertex
100
AcDb2dVertex
 10
8.6710688289
 20
6.8683360339
 30
0.0
  0
VERTEX
  5
2CD
330
24A
100
AcDbEntity
  8
0
  6
CONTINUOUS
 62
     7
100
AcDbVertex
100
AcDb2dVertex
 10
8.6504751181
 20
6.8487206689
 30
0.0
  0
VERTEX
  5
2CE
330
24A
100
AcDbEntity
  8
0
  6
CONTINUOUS
 62
     7
100
AcDbVertex
100
AcDb2dVertex
 10
8.630277544
 20
6.8280468647
 30
0.0
  0
VERTEX
  5
2CF
330
24A
100
AcDbEntity
  8
0
  6
CONTINUOUS
 62
     7
100
AcDbVertex
100
AcDb2dVertex
 10
8.610536384
 20
6.8063763202
 30
0.0
  0
VERTEX
  5
2D0
330
24A
100
AcDbEntity
  8
0
  6
CONTINUOUS
 62
     7
100
AcDbVertex
100
AcDb2dVertex
 10
8.5913105535
 20
6.7837737088
 30
0.0
  0
VERTEX
  5
2D1
330
24A
100
AcDbEntity
  8
0
  6
CONTINUOUS
 62
     7
100
AcDbVertex
100
AcDb2dVertex
 10
8.57265743
 20
6.7603064854
 30
0.0
  0
VERTEX
  5
2D2
330
24A
100
AcDbEntity
  8
0
  6
CONTINUOUS
 62
     7
100
AcDbVertex
100
AcDb2dVertex
 10
8.5546326816
 20
6.7360446856
 30
0.0
  0
VERTEX
  5
2D3
330
24A
100
AcDbEntity
  8
0
  6
CONTINUOUS
 62
     7
100
AcDbVertex
100
AcDb2dVertex
 10
8.5372901014
 20
6.7110607162
 30
0.0
  0
VERTEX
  5
2D4
330
24A
100
AcDbEntity
  8
0
  6
CONTINUOUS
 62
     7
100
AcDbVertex
100
AcDb2dVertex
 10
8.5206814464
 20
6.6854291389
 30
0.0
  0
VERTEX
  5
2D5
330
24A
100
AcDbEntity
  8
0
  6
CONTINUOUS
 62
     7
100
AcDbVertex
100
AcDb2dVertex
 10
8.5048562833
 20
6.6592264487
 30
0.0
  0
VERTEX
  5
2D6
330
24A
100
AcDbEntity
  8
0
  6
CONTINUOUS
 62
     7
100
AcDbVertex
100
AcDb2dVertex
 10
8.4898618407
 20
6.6325308446
 30
0.0
  0
VERTEX
  5
2D7
330
24A
100
AcDbEntity
  8
0
  6
CONTINUOUS
 62
     7
100
AcDbVertex
100
AcDb2dVertex
 10
8.4757428679
 20
6.6054219967
 30
0.0
  0
VERTEX
  5
2D8
330
24A
100
AcDbEntity
  8
0
  6
CONTINUOUS
 62
     7
100
AcDbVertex
100
AcDb2dVertex
 10
8.4625415014
 20
6.5779808086
 30
0.0
  0
VERTEX
  5
2D9
330
24A
100
AcDbEntity
  8
0
  6
CONTINUOUS
 62
     7
100
AcDbVertex
100
AcDb2dVertex
 10
8.4502971393
 20
6.5502891755
 30
0.0
  0
VERTEX
  5
2DA
330
24A
100
AcDbEntity
  8
0
  6
CONTINUOUS
 62
     7
100
AcDbVertex
100
AcDb2dVertex
 10
8.4390463236
 20
6.5224297401
 30
0.0
  0
VERTEX
  5
2DB
330
24A
100
AcDbEntity
  8
0
  6
CONTINUOUS
 62
     7
100
AcDbVertex
100
AcDb2dVertex
 10
8.4288226312
 20
6.494485646
 30
0.0
  0
VERTEX
  5
2DC
330
24A
100
AcDbEntity
  8
0
  6
CONTINUOUS
 62
     7
100
AcDbVertex
100
AcDb2dVertex
 10
8.4196565735
 20
6.4665402893
 30
0.0
  0
VERTEX
  5
2DD
330
24A
100
AcDbEntity
  8
0
  6
CONTINUOUS
 62
     7
100
AcDbVertex
100
AcDb2dVertex
 10
8.4115755057
 20
6.43867707
 30
0.0
  0
VERTEX
  5
2DE
330
24A
100
AcDbEntity
  8
0
  6
CONTINUOUS
 62
     7
100
AcDbVertex
100
AcDb2dVertex
 10
8.4046035449
 20
6.4109791428
 30
0.0
  0
VERTEX
  5
2DF
330
24A
100
AcDbEntity
  8
0
  6
CONTINUOUS
 62
     7
100
AcDbVertex
100
AcDb2dVertex
 10
8.3987614981
 20
6.3835291692
 30
0.0
  0
VERTEX
  5
2E0
330
24A
100
AcDbEntity
  8
0
  6
CONTINUOUS
 62
     7
100
AcDbVertex
100
AcDb2dVertex
 10
8.3940668003
 20
6.3564090707
 30
0.0
  0
VERTEX
  5
2E1
330
24A
100
AcDbEntity
  8
0
  6
CONTINUOUS
 62
     7
100
AcDbVertex
100
AcDb2dVertex
 10
8.3905334623
 20
6.3296997844
 30
0.0
  0
VERTEX
  5
2E2
330
24A
100
AcDbEntity
  8
0
  6
CONTINUOUS
 62
     7
100
AcDbVertex
100
AcDb2dVertex
 10
8.3881720291
 20
6.3034810214
 30
0.0
  0
VERTEX
  5
2E3
330
24A
100
AcDbEntity
  8
0
  6
CONTINUOUS
 62
     7
100
AcDbVertex
100
AcDb2dVertex
 10
8.3869895479
 20
6.2778310286
 30
0.0
  0
VERTEX
  5
2E4
330
24A
100
AcDbEntity
  8
0
  6
CONTINUOUS
 62
     7
100
AcDbVertex
100
AcDb2dVertex
 10
8.3869895479
 20
6.2528263557
 30
0.0
  0
VERTEX
  5
2E5
330
24A
100
AcDbEntity
  8
0
  6
CONTINUOUS
 62
     7
100
AcDbVertex
100
AcDb2dVertex
 10
8.3881720291
 20
6.2285416265
 30
0.0
  0
VERTEX
  5
2E6
330
24A
100
AcDbEntity
  8
0
  6
CONTINUOUS
 62
     7
100
AcDbVertex
100
AcDb2dVertex
 10
8.3905334623
 20
6.2050493163
 30
0.0
  0
VERTEX
  5
2E7
330
24A
100
AcDbEntity
  8
0
  6
CONTINUOUS
 62
     7
100
AcDbVertex
100
AcDb2dVertex
 10
8.3940668003
 20
6.1824195352
 30
0.0
  0
VERTEX
  5
2E8
330
24A
100
AcDbEntity
  8
0
  6
CONTINUOUS
 62
     7
100
AcDbVertex
100
AcDb2dVertex
 10
8.3987614981
 20
6.1607198194
 30
0.0
  0
VERTEX
  5
2E9
330
24A
100
AcDbEntity
  8
0
  6
CONTINUOUS
 62
     7
100
AcDbVertex
100
AcDb2dVertex
 10
8.4046035449
 20
6.1400149295
 30
0.0
  0
VERTEX
  5
2EA
330
24A
100
AcDbEntity
  8
0
  6
CONTINUOUS
 62
     7
100
AcDbVertex
100
AcDb2dVertex
 10
8.4115755057
 20
6.1203666569
 30
0.0
  0
VERTEX
  5
2EB
330
24A
100
AcDbEntity
  8
0
  6
CONTINUOUS
 62
     7
100
AcDbVertex
100
AcDb2dVertex
 10
8.4196565735
 20
6.1018336398
 30
0.0
  0
VERTEX
  5
2EC
330
24A
100
AcDbEntity
  8
0
  6
CONTINUOUS
 62
     7
100
AcDbVertex
100
AcDb2dVertex
 10
8.4288226312
 20
6.084471188
 30
0.0
  0
VERTEX
  5
2ED
330
24A
100
AcDbEntity
  8
0
  6
CONTINUOUS
 62
     7
100
AcDbVertex
100
AcDb2dVertex
 10
8.4390463236
 20
6.068331118
 30
0.0
  0
VERTEX
  5
2EE
330
24A
100
AcDbEntity
  8
0
  6
CONTINUOUS
 62
     7
100
AcDbVertex
100
AcDb2dVertex
 10
8.4502971393
 20
6.0534615979
 30
0.0
  0
VERTEX
  5
2EF
330
24A
100
AcDbEntity
  8
0
  6
CONTINUOUS
 62
     7
100
AcDbVertex
100
AcDb2dVertex
 10
8.4625415014
 20
6.0399070044
 30
0.0
  0
VERTEX
  5
2F0
330
24A
100
AcDbEntity
  8
0
  6
CONTINUOUS
 62
     7
100
AcDbVertex
100
AcDb2dVertex
 10
8.4757428679
 20
6.0277077895
 30
0.0
  0
VERTEX
  5
2F1
330
24A
100
AcDbEntity
  8
0
  6
CONTINUOUS
 62
     7
100
AcDbVertex
100
AcDb2dVertex
 10
8.4898618407
 20
6.0169003607
 30
0.0
  0
VERTEX
  5
2F2
330
24A
100
AcDbEntity
  8
0
  6
CONTINUOUS
 62
     7
100
AcDbVertex
100
AcDb2dVertex
 10
8.5048562833
 20
6.0075169715
 30
0.0
  0
VERTEX
  5
2F3
330
24A
100
AcDbEntity
  8
0
  6
CONTINUOUS
 62
     7
100
AcDbVertex
100
AcDb2dVertex
 10
8.5206814464
 20
5.9995856256
 30
0.0
  0
VERTEX
  5
2F4
330
24A
100
AcDbEntity
  8
0
  6
CONTINUOUS
 62
     7
100
AcDbVertex
100
AcDb2dVertex
 10
8.5372901014
 20
5.9931299933
 30
0.0
  0
VERTEX
  5
2F5
330
24A
100
AcDbEntity
  8
0
  6
CONTINUOUS
 62
     7
100
AcDbVertex
100
AcDb2dVertex
 10
8.5546326816
 20
5.9881693408
 30
0.0
  0
VERTEX
  5
2F6
330
24A
100
AcDbEntity
  8
0
  6
CONTINUOUS
 62
     7
100
AcDbVertex
100
AcDb2dVertex
 10
8.57265743
 20
5.9847184725
 30
0.0
  0
VERTEX
  5
2F7
330
24A
100
AcDbEntity
  8
0
  6
CONTINUOUS
 62
     7
100
AcDbVertex
100
AcDb2dVertex
 10
8.5913105535
 20
5.9827876871
 30
0.0
  0
VERTEX
  5
2F8
330
24A
100
AcDbEntity
  8
0
  6
CONTINUOUS
 62
     7
100
AcDbVertex
100
AcDb2dVertex
 10
8.610536384
 20
5.9823827471
 30
0.0
  0
VERTEX
  5
2F9
330
24A
100
AcDbEntity
  8
0
  6
CONTINUOUS
 62
     7
100
AcDbVertex
100
AcDb2dVertex
 10
8.630277544
 20
5.9835048607
 30
0.0
  0
VERTEX
  5
2FA
330
24A
100
AcDbEntity
  8
0
  6
CONTINUOUS
 62
     7
100
AcDbVertex
100
AcDb2dVertex
 10
8.6504751181
 20
5.9861506793
 30
0.0
  0
VERTEX
  5
2FB
330
24A
100
AcDbEntity
  8
0
  6
CONTINUOUS
 62
     7
100
AcDbVertex
100
AcDb2dVertex
 10
8.6710688289
 20
5.9903123066
 30
0.0
  0
VERTEX
  5
2FC
330
24A
100
AcDbEntity
  8
0
  6
CONTINUOUS
 62
     7
100
AcDbVertex
100
AcDb2dVertex
 10
8.6919972165
 20
5.9959773227
 30
0.0
  0
VERTEX
  5
2FD
330
24A
100
AcDbEntity
  8
0
  6
CONTINUOUS
 62
     7
100
AcDbVertex
100
AcDb2dVertex
 10
8.7131978225
 20
6.003128821
 30
0.0
  0
VERTEX
  5
2FE
330
24A
100
AcDbEntity
  8
0
  6
CONTINUOUS
 62
     7
100
AcDbVertex
100
AcDb2dVertex
 10
8.734607376
 20
6.0117454586
 30
0.0
  0
VERTEX
  5
2FF
330
24A
100
AcDbEntity
  8
0
  6
CONTINUOUS
 62
     7
100
AcDbVertex
100
AcDb2dVertex
 10
8.7561619823
 20
6.0218015201
 30
0.0
  0
VERTEX
  5
300
330
24A
100
AcDbEntity
  8
0
  6
CONTINUOUS
 62
     7
100
AcDbVertex
100
AcDb2dVertex
 10
8.7777973141
 20
6.0332669941
 30
0.0
  0
VERTEX
  5
301
330
24A
100
AcDbEntity
  8
0
  6
CONTINUOUS
 62
     7
100
AcDbVertex
100
AcDb2dVertex
 10
8.7994488031
 20
6.0461076633
 30
0.0
  0
VERTEX
  5
302
330
24A
100
AcDbEntity
  8
0
  6
CONTINUOUS
 62
     7
100
AcDbVertex
100
AcDb2dVertex
 10
8.8210518327
 20
6.0602852061
 30
0.0
  0
VERTEX
  5
303
330
24A
100
AcDbEntity
  8
0
  6
CONTINUOUS
 62
     7
100
AcDbVertex
100
AcDb2dVertex
 10
8.842541931
 20
6.075757311
 30
0.0
  0
VERTEX
  5
304
330
24A
100
AcDbEntity
  8
0
  6
CONTINUOUS
 62
     7
100
AcDbVertex
100
AcDb2dVertex
 10
8.863854963
 20
6.0924778032
 30
0.0
  0
VERTEX
  5
305
330
24A
100
AcDbEntity
  8
0
  6
CONTINUOUS
 62
     7
100
AcDbVertex
100
AcDb2dVertex
 10
8.8849273223
 20
6.1103967823
 30
0.0
  0
VERTEX
  5
306
330
24A
100
AcDbEntity
  8
0
  6
CONTINUOUS
 62
     7
100
AcDbVertex
100
AcDb2dVertex
 10
8.9056961207
 20
6.1294607709
 30
0.0
  0
VERTEX
  5
307
330
24A
100
AcDbEntity
  8
0
  6
CONTINUOUS
 62
     7
100
AcDbVertex
100
AcDb2dVertex
 10
8.926099376
 20
6.1496128746
 30
0.0
  0
VERTEX
  5
308
330
24A
100
AcDbEntity
  8
0
  6
CONTINUOUS
 62
     7
100
AcDbVertex
100
AcDb2dVertex
 10
8.9460761968
 20
6.1707929516
 30
0.0
  0
VERTEX
  5
309
330
24A
100
AcDbEntity
  8
0
  6
CONTINUOUS
 62
     7
100
AcDbVertex
100
AcDb2dVertex
 10
8.9655669644
 20
6.1929377923
 30
0.0
  0
VERTEX
  5
30A
330
24A
100
AcDbEntity
  8
0
  6
CONTINUOUS
 62
     7
100
AcDbVertex
100
AcDb2dVertex
 10
8.9845135107
 20
6.2159813076
 30
0.0
  0
VERTEX
  5
30B
330
24A
100
AcDbEntity
  8
0
  6
CONTINUOUS
 62
     7
100
AcDbVertex
100
AcDb2dVertex
 10
9.0028592918
 20
6.2398547268
 30
0.0
  0
VERTEX
  5
30C
330
24A
100
AcDbEntity
  8
0
  6
CONTINUOUS
 62
     7
100
AcDbVertex
100
AcDb2dVertex
 10
9.0205495567
 20
6.2644868022
 30
0.0
  0
VERTEX
  5
30D
330
24A
100
AcDbEntity
  8
0
  6
CONTINUOUS
 62
     7
100
AcDbVertex
100
AcDb2dVertex
 10
9.0375315106
 20
6.2898040218
 30
0.0
  0
VERTEX
  5
30E
330
24A
100
AcDbEntity
  8
0
  6
CONTINUOUS
 62
     7
100
AcDbVertex
100
AcDb2dVertex
 10
9.0537544727
 20
6.3157308293
 30
0.0
  0
VERTEX
  5
30F
330
24A
100
AcDbEntity
  8
0
  6
CONTINUOUS
 62
     7
100
AcDbVertex
100
AcDb2dVertex
 10
9.0691700274
 20
6.3421898489
 30
0.0
  0
VERTEX
  5
310
330
24A
100
AcDbEntity
  8
0
  6
CONTINUOUS
 62
     7
100
AcDbVertex
100
AcDb2dVertex
 10
9.0837321685
 20
6.3691021164
 30
0.0
  0
VERTEX
  5
311
330
24A
100
AcDbEntity
  8
0
  6
CONTINUOUS
 62
     7
100
AcDbVertex
100
AcDb2dVertex
 10
9.0973974369
 20
6.396387315
 30
0.0
  0
VERTEX
  5
312
330
24A
100
AcDbEntity
  8
0
  6
CONTINUOUS
 62
     7
100
AcDbVertex
100
AcDb2dVertex
 10
9.1101250501
 20
6.423964015
 30
0.0
  0
VERTEX
  5
313
330
24A
100
AcDbEntity
  8
0
  6
CONTINUOUS
 62
     7
100
AcDbVertex
100
AcDb2dVertex
 10
9.1218770239
 20
6.4517499166
 30
0.0
  0
VERTEX
  5
314
330
24A
100
AcDbEntity
  8
0
  6
CONTINUOUS
 62
     7
100
AcDbVertex
100
AcDb2dVertex
 10
9.1326182857
 20
6.4796620959
 30
0.0
  0
VERTEX
  5
315
330
24A
100
AcDbEntity
  8
0
  6
CONTINUOUS
 62
     7
100
AcDbVertex
100
AcDb2dVertex
 10
9.1423167795
 20
6.5076172519
 30
0.0
  0
VERTEX
  5
316
330
24A
100
AcDbEntity
  8
0
  6
CONTINUOUS
 62
     7
100
AcDbVertex
100
AcDb2dVertex
 10
9.150943561
 20
6.5355319554
 30
0.0
  0
VERTEX
  5
317
330
24A
100
AcDbEntity
  8
0
  6
CONTINUOUS
 62
     7
100
AcDbVertex
100
AcDb2dVertex
 10
9.1584728847
 20
6.563322898
 30
0.0
  0
VERTEX
  5
318
330
24A
100
AcDbEntity
  8
0
  6
CONTINUOUS
 62
     7
100
AcDbVertex
100
AcDb2dVertex
 10
9.16488228
 20
6.5909071406
 30
0.0
  0
VERTEX
  5
319
330
24A
100
AcDbEntity
  8
0
  6
CONTINUOUS
 62
     7
100
AcDbVertex
100
AcDb2dVertex
 10
9.1701526187
 20
6.618202361
 30
0.0
  0
VERTEX
  5
31A
330
24A
100
AcDbEntity
  8
0
  6
CONTINUOUS
 62
     7
100
AcDbVertex
100
AcDb2dVertex
 10
9.1742681722
 20
6.6451270995
 30
0.0
  0
VERTEX
  5
31B
330
24A
100
AcDbEntity
  8
0
  6
CONTINUOUS
 62
     7
100
AcDbVertex
100
AcDb2dVertex
 10
9.1772166579
 20
6.6716010021
 30
0.0
  0
VERTEX
  5
31C
330
24A
100
AcDbEntity
  8
0
  6
CONTINUOUS
 62
     7
100
AcDbVertex
100
AcDb2dVertex
 10
9.1789892765
 20
6.6975450602
 30
0.0
  0
VERTEX
  5
31D
330
24A
100
AcDbEntity
  8
0
  6
CONTINUOUS
 62
     7
100
AcDbVertex
100
AcDb2dVertex
 10
9.1795807378
 20
6.7228818467
 30
0.0
  0
SEQEND
  5
31E
330
24A
100
AcDbEntity
  8
0
  6
CONTINUOUS
 62
     7
  0
POLYLINE
  5
24B
330
1F
100
AcDbEntity
  8
0
  6
CONTINUOUS
 62
     7
100
AcDb2dPolyline
 66
     1
 10
0.0
 20
0.0
 30
0.0
  0
VERTEX
  5
31F
330
24B
100
AcDbEntity
  8
0
  6
CONTINUOUS
 62
     7
100
AcDbVertex
100
AcDb2dVertex
 10
8.7620658619
 20
6.0241387481
 30
0.0
  0
VERTEX
  5
320
330
24B
100
AcDbEntity
  8
0
  6
CONTINUOUS
 62
     7
100
AcDbVertex
100
AcDb2dVertex
 10
8.7508817226
 20
6.0178531651
 30
0.0
  0
VERTEX
  5
321
330
24B
100
AcDbEntity
  8
0
  6
CONTINUOUS
 62
     7
100
AcDbVertex
100
AcDb2dVertex
 10
8.728680692
 20
6.0064031727
 30
0.0
  0
VERTEX
  5
322
330
24B
100
AcDbEntity
  8
0
  6
CONTINUOUS
 62
     7
100
AcDbVertex
100
AcDb2dVertex
 10
8.706574103
 20
5.996370217
 30
0.0
  0
VERTEX
  5
323
330
24B
100
AcDbEntity
  8
0
  6
CONTINUOUS
 62
     7
100
AcDbVertex
100
AcDb2dVertex
 10
8.684624619
 20
5.9877827372
 30
0.0
  0
VERTEX
  5
324
330
24B
100
AcDbEntity
  8
0
  6
CONTINUOUS
 62
     7
100
AcDbVertex
100
AcDb2dVertex
 10
8.6628944582
 20
5.9806650756
 30
0.0
  0
VERTEX
  5
325
330
24B
100
AcDbEntity
  8
0
  6
CONTINUOUS
 62
     7
100
AcDbVertex
100
AcDb2dVertex
 10
8.6414452172
 20
5.975037408
 30
0.0
  0
VERTEX
  5
326
330
24B
100
AcDbEntity
  8
0
  6
CONTINUOUS
 62
     7
100
AcDbVertex
100
AcDb2dVertex
 10
8.6203376961
 20
5.9709156866
 30
0.0
  0
VERTEX
  5
327
330
24B
100
AcDbEntity
  8
0
  6
CONTINUOUS
 62
     7
100
AcDbVertex
100
AcDb2dVertex
 10
8.5996317265
 20
5.9683115949
 30
0.0
  0
VERTEX
  5
328
330
24B
100
AcDbEntity
  8
0
  6
CONTINUOUS
 62
     7
100
AcDbVertex
100
AcDb2dVertex
 10
8.5793860018
 20
5.9672325144
 30
0.0
  0
VERTEX
  5
329
330
24B
100
AcDbEntity
  8
0
  6
CONTINUOUS
 62
     7
100
AcDbVertex
100
AcDb2dVertex
 10
8.5596579105
 20
5.967681504
 30
0.0
  0
VERTEX
  5
32A
330
24B
100
AcDbEntity
  8
0
  6
CONTINUOUS
 62
     7
100
AcDbVertex
100
AcDb2dVertex
 10
8.5405033743
 20
5.9696572909
 30
0.0
  0
VERTEX
  5
32B
330
24B
100
AcDbEntity
  8
0
  6
CONTINUOUS
 62
     7
100
AcDbVertex
100
AcDb2dVertex
 10
8.5219766885
 20
5.9731542745
 30
0.0
  0
VERTEX
  5
32C
330
24B
100
AcDbEntity
  8
0
  6
CONTINUOUS
 62
     7
100
AcDbVertex
100
AcDb2dVertex
 10
8.5041303693
 20
5.9781625422
 30
0.0
  0
VERTEX
  5
32D
330
24B
100
AcDbEntity
  8
0
  6
CONTINUOUS
 62
     7
100
AcDbVertex
100
AcDb2dVertex
 10
8.4870150038
 20
5.9846678977
 30
0.0
  0
VERTEX
  5
32E
330
24B
100
AcDbEntity
  8
0
  6
CONTINUOUS
 62
     7
100
AcDbVertex
100
AcDb2dVertex
 10
8.4706791075
 20
5.9926519006
 30
0.0
  0
VERTEX
  5
32F
330
24B
100
AcDbEntity
  8
0
  6
CONTINUOUS
 62
     7
100
AcDbVertex
100
AcDb2dVertex
 10
8.4551689862
 20
6.0020919196
 30
0.0
  0
VERTEX
  5
330
330
24B
100
AcDbEntity
  8
0
  6
CONTINUOUS
 62
     7
100
AcDbVertex
100
AcDb2dVertex
 10
8.4405286051
 20
6.0129611958
 30
0.0
  0
VERTEX
  5
331
330
24B
100
AcDbEntity
  8
0
  6
CONTINUOUS
 62
     7
100
AcDbVertex
100
AcDb2dVertex
 10
8.4267994639
 20
6.0252289192
 30
0.0
  0
VERTEX
  5
332
330
24B
100
AcDbEntity
  8
0
  6
CONTINUOUS
 62
     7
100
AcDbVertex
100
AcDb2dVertex
 10
8.4140204794
 20
6.0388603154
 30
0.0
  0
VERTEX
  5
333
330
24B
100
AcDbEntity
  8
0
  6
CONTINUOUS
 62
     7
100
AcDbVertex
100
AcDb2dVertex
 10
8.4022278749
 20
6.0538167449
 30
0.0
  0
VERTEX
  5
334
330
24B
100
AcDbEntity
  8
0
  6
CONTINUOUS
 62
     7
100
AcDbVertex
100
AcDb2dVertex
 10
8.3914550779
 20
6.070055812
 30
0.0
  0
VERTEX
  5
335
330
24B
100
AcDbEntity
  8
0
  6
CONTINUOUS
 62
     7
100
AcDbVertex
100
AcDb2dVertex
 10
8.381732625
 20
6.0875314854
 30
0.0
  0
VERTEX
  5
336
330
24B
100
AcDbEntity
  8
0
  6
CONTINUOUS
 62
     7
100
AcDbVertex
100
AcDb2dVertex
 10
8.3730880757
 20
6.1061942282
 30
0.0
  0
VERTEX
  5
337
330
24B
100
AcDbEntity
  8
0
  6
CONTINUOUS
 62
     7
100
AcDbVertex
100
AcDb2dVertex
 10
8.3655459337
 20
6.125991139
 30
0.0
  0
VERTEX
  5
338
330
24B
100
AcDbEntity
  8
0
  6
CONTINUOUS
 62
     7
100
AcDbVertex
100
AcDb2dVertex
 10
8.3591275782
 20
6.1468661013
 30
0.0
  0
VERTEX
  5
339
330
24B
100
AcDbEntity
  8
0
  6
CONTINUOUS
 62
     7
100
AcDbVertex
100
AcDb2dVertex
 10
8.3538512027
 20
6.1687599426
 30
0.0
  0
VERTEX
  5
33A
330
24B
100
AcDbEntity
  8
0
  6
CONTINUOUS
 62
     7
100
AcDbVertex
100
AcDb2dVertex
 10
8.3497317636
 20
6.1916106026
 30
0.0
  0
VERTEX
  5
33B
330
24B
100
AcDbEntity
  8
0
  6
CONTINUOUS
 62
     7
100
AcDbVertex
100
AcDb2dVertex
 10
8.3467809378
 20
6.2153533086
 30
0.0
  0
VERTEX
  5
33C
330
24B
100
AcDbEntity
  8
0
  6
CONTINUOUS
 62
     7
100
AcDbVertex
100
AcDb2dVertex
 10
8.34500709
 20
6.2399207592
 30
0.0
  0
VERTEX
  5
33D
330
24B
100
AcDbEntity
  8
0
  6
CONTINUOUS
 62
     7
100
AcDbVertex
100
AcDb2dVertex
 10
8.3444152482
 20
6.2652433154
 30
0.0
  0
VERTEX
  5
33E
330
24B
100
AcDbEntity
  8
0
  6
CONTINUOUS
 62
     7
100
AcDbVertex
100
AcDb2dVertex
 10
8.34500709
 20
6.2912491976
 30
0.0
  0
VERTEX
  5
33F
330
24B
100
AcDbEntity
  8
0
  6
CONTINUOUS
 62
     7
100
AcDbVertex
100
AcDb2dVertex
 10
8.3467809378
 20
6.3178646893
 30
0.0
  0
VERTEX
  5
340
330
24B
100
AcDbEntity
  8
0
  6
CONTINUOUS
 62
     7
100
AcDbVertex
100
AcDb2dVertex
 10
8.3497317636
 20
6.3450143461
 30
0.0
  0
VERTEX
  5
341
330
24B
100
AcDbEntity
  8
0
  6
CONTINUOUS
 62
     7
100
AcDbVertex
100
AcDb2dVertex
 10
8.3538512027
 20
6.3726212093
 30
0.0
  0
VERTEX
  5
342
330
24B
100
AcDbEntity
  8
0
  6
CONTINUOUS
 62
     7
100
AcDbVertex
100
AcDb2dVertex
 10
8.3591275782
 20
6.4006070242
 30
0.0
  0
VERTEX
  5
343
330
24B
100
AcDbEntity
  8
0
  6
CONTINUOUS
 62
     7
100
AcDbVertex
100
AcDb2dVertex
 10
8.3655459337
 20
6.428892462
 30
0.0
  0
VERTEX
  5
344
330
24B
100
AcDbEntity
  8
0
  6
CONTINUOUS
 62
     7
100
AcDbVertex
100
AcDb2dVertex
 10
8.3730880757
 20
6.4573973445
 30
0.0
  0
VERTEX
  5
345
330
24B
100
AcDbEntity
  8
0
  6
CONTINUOUS
 62
     7
100
AcDbVertex
100
AcDb2dVertex
 10
8.381732625
 20
6.4860408716
 30
0.0
  0
VERTEX
  5
346
330
24B
100
AcDbEntity
  8
0
  6
CONTINUOUS
 62
     7
100
AcDbVertex
100
AcDb2dVertex
 10
8.3914550779
 20
6.51474185
 30
0.0
  0
VERTEX
  5
347
330
24B
100
AcDbEntity
  8
0
  6
CONTINUOUS
 62
     7
100
AcDbVertex
100
AcDb2dVertex
 10
8.4022278749
 20
6.5434189238
 30
0.0
  0
VERTEX
  5
348
330
24B
100
AcDbEntity
  8
0
  6
CONTINUOUS
 62
     7
100
AcDbVertex
100
AcDb2dVertex
 10
8.4140204794
 20
6.5719908046
 30
0.0
  0
VERTEX
  5
349
330
24B
100
AcDbEntity
  8
0
  6
CONTINUOUS
 62
     7
100
AcDbVertex
100
AcDb2dVertex
 10
8.4267994639
 20
6.6003765024
 30
0.0
  0
VERTEX
  5
34A
330
24B
100
AcDbEntity
  8
0
  6
CONTINUOUS
 62
     7
100
AcDbVertex
100
AcDb2dVertex
 10
8.4405286051
 20
6.6284955548
 30
0.0
  0
VERTEX
  5
34B
330
24B
100
AcDbEntity
  8
0
  6
CONTINUOUS
 62
     7
100
AcDbVertex
100
AcDb2dVertex
 10
8.4551689862
 20
6.6562682552
 30
0.0
  0
VERTEX
  5
34C
330
24B
100
AcDbEntity
  8
0
  6
CONTINUOUS
 62
     7
100
AcDbVertex
100
AcDb2dVertex
 10
8.4706791075
 20
6.6836158791
 30
0.0
  0
VERTEX
  5
34D
330
24B
100
AcDbEntity
  8
0
  6
CONTINUOUS
 62
     7
100
AcDbVertex
100
AcDb2dVertex
 10
8.4870150038
 20
6.7104609064
 30
0.0
  0
VERTEX
  5
34E
330
24B
100
AcDbEntity
  8
0
  6
CONTINUOUS
 62
     7
100
AcDbVertex
100
AcDb2dVertex
 10
8.5041303693
 20
6.7367272422
 30
0.0
  0
VERTEX
  5
34F
330
24B
100
AcDbEntity
  8
0
  6
CONTINUOUS
 62
     7
100
AcDbVertex
100
AcDb2dVertex
 10
8.5219766885
 20
6.7623404316
 30
0.0
  0
VERTEX
  5
350
330
24B
100
AcDbEntity
  8
0
  6
CONTINUOUS
 62
     7
100
AcDbVertex
100
AcDb2dVertex
 10
8.5405033743
 20
6.7872278712
 30
0.0
  0
VERTEX
  5
351
330
24B
100
AcDbEntity
  8
0
  6
CONTINUOUS
 62
     7
100
AcDbVertex
100
AcDb2dVertex
 10
8.5596579105
 20
6.8113190149
 30
0.0
  0
VERTEX
  5
352
330
24B
100
AcDbEntity
  8
0
  6
CONTINUOUS
 62
     7
100
AcDbVertex
100
AcDb2dVertex
 10
8.5793860018
 20
6.8345455738
 30
0.0
  0
VERTEX
  5
353
330
24B
100
AcDbEntity
  8
0
  6
CONTINUOUS
 62
     7
100
AcDbVertex
100
AcDb2dVertex
 10
8.5996317265
 20
6.8568417096
 30
0.0
  0
VERTEX
  5
354
330
24B
100
AcDbEntity
  8
0
  6
CONTINUOUS
 62
     7
100
AcDbVertex
100
AcDb2dVertex
 10
8.6203376961
 20
6.8781442215
 30
0.0
  0
VERTEX
  5
355
330
24B
100
AcDbEntity
  8
0
  6
CONTINUOUS
 62
     7
100
AcDbVertex
100
AcDb2dVertex
 10
8.6414452172
 20
6.8983927252
 30
0.0
  0
VERTEX
  5
356
330
24B
100
AcDbEntity
  8
0
  6
CONTINUOUS
 62
     7
100
AcDbVertex
100
AcDb2dVertex
 10
8.6628944582
 20
6.9175298241
 30
0.0
  0
VERTEX
  5
357
330
24B
100
AcDbEntity
  8
0
  6
CONTINUOUS
 62
     7
100
AcDbVertex
100
AcDb2dVertex
 10
8.684624619
 20
6.9355012721
 30
0.0
  0
VERTEX
  5
358
330
24B
100
AcDbEntity
  8
0
  6
CONTINUOUS
 62
     7
100
AcDbVertex
100
AcDb2dVertex
 10
8.706574103
 20
6.9522561272
 30
0.0
  0
VERTEX
  5
359
330
24B
100
AcDbEntity
  8
0
  6
CONTINUOUS
 62
     7
100
AcDbVertex
100
AcDb2dVertex
 10
8.728680692
 20
6.9677468958
 30
0.0
  0
VERTEX
  5
35A
330
24B
100
AcDbEntity
  8
0
  6
CONTINUOUS
 62
     7
100
AcDbVertex
100
AcDb2dVertex
 10
8.7508817226
 20
6.9819296677
 30
0.0
  0
VERTEX
  5
35B
330
24B
100
AcDbEntity
  8
0
  6
CONTINUOUS
 62
     7
100
AcDbVertex
100
AcDb2dVertex
 10
8.7731142634
 20
6.9947642403
 30
0.0
  0
VERTEX
  5
35C
330
24B
100
AcDbEntity
  8
0
  6
CONTINUOUS
 62
     7
100
AcDbVertex
100
AcDb2dVertex
 10
8.7953152939
 20
7.0062142327
 30
0.0
  0
VERTEX
  5
35D
330
24B
100
AcDbEntity
  8
0
  6
CONTINUOUS
 62
     7
100
AcDbVertex
100
AcDb2dVertex
 10
8.817421883
 20
7.0162471885
 30
0.0
  0
VERTEX
  5
35E
330
24B
100
AcDbEntity
  8
0
  6
CONTINUOUS
 62
     7
100
AcDbVertex
100
AcDb2dVertex
 10
8.8393713669
 20
7.0248346682
 30
0.0
  0
VERTEX
  5
35F
330
24B
100
AcDbEntity
  8
0
  6
CONTINUOUS
 62
     7
100
AcDbVertex
100
AcDb2dVertex
 10
8.8611015277
 20
7.0319523298
 30
0.0
  0
VERTEX
  5
360
330
24B
100
AcDbEntity
  8
0
  6
CONTINUOUS
 62
     7
100
AcDbVertex
100
AcDb2dVertex
 10
8.8825507687
 20
7.0375799974
 30
0.0
  0
VERTEX
  5
361
330
24B
100
AcDbEntity
  8
0
  6
CONTINUOUS
 62
     7
100
AcDbVertex
100
AcDb2dVertex
 10
8.9036582898
 20
7.0417017188
 30
0.0
  0
VERTEX
  5
362
330
24B
100
AcDbEntity
  8
0
  6
CONTINUOUS
 62
     7
100
AcDbVertex
100
AcDb2dVertex
 10
8.9243642594
 20
7.0443058105
 30
0.0
  0
VERTEX
  5
363
330
24B
100
AcDbEntity
  8
0
  6
CONTINUOUS
 62
     7
100
AcDbVertex
100
AcDb2dVertex
 10
8.9446099842
 20
7.045384891
 30
0.0
  0
VERTEX
  5
364
330
24B
100
AcDbEntity
  8
0
  6
CONTINUOUS
 62
     7
100
AcDbVertex
100
AcDb2dVertex
 10
8.9643380754
 20
7.0449359014
 30
0.0
  0
VERTEX
  5
365
330
24B
100
AcDbEntity
  8
0
  6
CONTINUOUS
 62
     7
100
AcDbVertex
100
AcDb2dVertex
 10
8.9834926117
 20
7.0429601146
 30
0.0
  0
VERTEX
  5
366
330
24B
100
AcDbEntity
  8
0
  6
CONTINUOUS
 62
     7
100
AcDbVertex
100
AcDb2dVertex
 10
9.0020192974
 20
7.039463131
 30
0.0
  0
VERTEX
  5
367
330
24B
100
AcDbEntity
  8
0
  6
CONTINUOUS
 62
     7
100
AcDbVertex
100
AcDb2dVertex
 10
9.0198656167
 20
7.0344548632
 30
0.0
  0
VERTEX
  5
368
330
24B
100
AcDbEntity
  8
0
  6
CONTINUOUS
 62
     7
100
AcDbVertex
100
AcDb2dVertex
 10
9.0369809821
 20
7.0279495078
 30
0.0
  0
VERTEX
  5
369
330
24B
100
AcDbEntity
  8
0
  6
CONTINUOUS
 62
     7
100
AcDbVertex
100
AcDb2dVertex
 10
9.0533168784
 20
7.0199655048
 30
0.0
  0
VERTEX
  5
36A
330
24B
100
AcDbEntity
  8
0
  6
CONTINUOUS
 62
     7
100
AcDbVertex
100
AcDb2dVertex
 10
9.0688269997
 20
7.0105254858
 30
0.0
  0
VERTEX
  5
36B
330
24B
100
AcDbEntity
  8
0
  6
CONTINUOUS
 62
     7
100
AcDbVertex
100
AcDb2dVertex
 10
9.0834673808
 20
6.9996562096
 30
0.0
  0
VERTEX
  5
36C
330
24B
100
AcDbEntity
  8
0
  6
CONTINUOUS
 62
     7
100
AcDbVertex
100
AcDb2dVertex
 10
9.097196522
 20
6.9873884863
 30
0.0
  0
VERTEX
  5
36D
330
24B
100
AcDbEntity
  8
0
  6
CONTINUOUS
 62
     7
100
AcDbVertex
100
AcDb2dVertex
 10
9.1099755066
 20
6.97375709
 30
0.0
  0
VERTEX
  5
36E
330
24B
100
AcDbEntity
  8
0
  6
CONTINUOUS
 62
     7
100
AcDbVertex
100
AcDb2dVertex
 10
9.1217681111
 20
6.9588006605
 30
0.0
  0
VERTEX
  5
36F
330
24B
100
AcDbEntity
  8
0
  6
CONTINUOUS
 62
     7
100
AcDbVertex
100
AcDb2dVertex
 10
9.1325409081
 20
6.9425615934
 30
0.0
  0
VERTEX
  5
370
330
24B
100
AcDbEntity
  8
0
  6
CONTINUOUS
 62
     7
100
AcDbVertex
100
AcDb2dVertex
 10
9.1422633609
 20
6.9250859201
 30
0.0
  0
VERTEX
  5
371
330
24B
100
AcDbEntity
  8
0
  6
CONTINUOUS
 62
     7
100
AcDbVertex
100
AcDb2dVertex
 10
9.1509079103
 20
6.9064231772
 30
0.0
  0
VERTEX
  5
372
330
24B
100
AcDbEntity
  8
0
  6
CONTINUOUS
 62
     7
100
AcDbVertex
100
AcDb2dVertex
 10
9.1584500522
 20
6.8866262664
 30
0.0
  0
VERTEX
  5
373
330
24B
100
AcDbEntity
  8
0
  6
CONTINUOUS
 62
     7
100
AcDbVertex
100
AcDb2dVertex
 10
9.1648684077
 20
6.8657513042
 30
0.0
  0
VERTEX
  5
374
330
24B
100
AcDbEntity
  8
0
  6
CONTINUOUS
 62
     7
100
AcDbVertex
100
AcDb2dVertex
 10
9.1701447833
 20
6.8438574628
 30
0.0
  0
VERTEX
  5
375
330
24B
100
AcDbEntity
  8
0
  6
CONTINUOUS
 62
     7
100
AcDbVertex
100
AcDb2dVertex
 10
9.1742642224
 20
6.8210068028
 30
0.0
  0
VERTEX
  5
376
330
24B
100
AcDbEntity
  8
0
  6
CONTINUOUS
 62
     7
100
AcDbVertex
100
AcDb2dVertex
 10
9.1772150481
 20
6.7972640969
 30
0.0
  0
VERTEX
  5
377
330
24B
100
AcDbEntity
  8
0
  6
CONTINUOUS
 62
     7
100
AcDbVertex
100
AcDb2dVertex
 10
9.1789888959
 20
6.7726966463
 30
0.0
  0
VERTEX
  5
378
330
24B
100
AcDbEntity
  8
0
  6
CONTINUOUS
 62
     7
100
AcDbVertex
100
AcDb2dVertex
 10
9.1795807378
 20
6.7473740901
 30
0.0
  0
VERTEX
  5
379
330
24B
100
AcDbEntity
  8
0
  6
CONTINUOUS
 62
     7
100
AcDbVertex
100
AcDb2dVertex
 10
9.1795807378
 20
6.7473740901
 30
0.0
  0
SEQEND
  5
37A
330
24B
100
AcDbEntity
  8
0
  6
CONTINUOUS
 62
     7
  0
POLYLINE
  5
24C
330
1F
100
AcDbEntity
  8
0
  6
CONTINUOUS
 62
     7
100
AcDb2dPolyline
 66
     1
 10
0.0
 20
0.0
 30
0.0
  0
VERTEX
  5
37B
330
24C
100
AcDbEntity
  8
0
  6
CONTINUOUS
 62
     7
100
AcDbVertex
100
AcDb2dVertex
 10
7.9525840611
 20
6.2916821237
 30
0.0
  0
VERTEX
  5
37C
330
24C
100
AcDbEntity
  8
0
  6
CONTINUOUS
 62
     7
100
AcDbVertex
100
AcDb2dVertex
 10
7.9409165945
 20
6.2989722153
 30
0.0
  0
VERTEX
  5
37D
330
24C
100
AcDbEntity
  8
0
  6
CONTINUOUS
 62
     7
100
AcDbVertex
100
AcDb2dVertex
 10
7.9262875858
 20
6.3098449978
 30
0.0
  0
VERTEX
  5
37E
330
24C
100
AcDbEntity
  8
0
  6
CONTINUOUS
 62
     7
100
AcDbVertex
100
AcDb2dVertex
 10
7.9125692628
 20
6.3221148532
 30
0.0
  0
VERTEX
  5
37F
330
24C
100
AcDbEntity
  8
0
  6
CONTINUOUS
 62
     7
100
AcDbVertex
100
AcDb2dVertex
 10
7.8998004784
 20
6.3357470307
 30
0.0
  0
VERTEX
  5
380
330
24C
100
AcDbEntity
  8
0
  6
CONTINUOUS
 62
     7
100
AcDbVertex
100
AcDb2dVertex
 10
7.8880173962
 20
6.3507029214
 30
0.0
  0
VERTEX
  5
381
330
24C
100
AcDbEntity
  8
0
  6
CONTINUOUS
 62
     7
100
AcDbVertex
100
AcDb2dVertex
 10
7.8772533883
 20
6.3669401675
 30
0.0
  0
VERTEX
  5
382
330
24C
100
AcDbEntity
  8
0
  6
CONTINUOUS
 62
     7
100
AcDbVertex
100
AcDb2dVertex
 10
7.8675389403
 20
6.3844127818
 30
0.0
  0
VERTEX
  5
383
330
24C
100
AcDbEntity
  8
0
  6
CONTINUOUS
 62
     7
100
AcDbVertex
100
AcDb2dVertex
 10
7.8589015654
 20
6.4030712787
 30
0.0
  0
VERTEX
  5
384
330
24C
100
AcDbEntity
  8
0
  6
CONTINUOUS
 62
     7
100
AcDbVertex
100
AcDb2dVertex
 10
7.8513657263
 20
6.4228628137
 30
0.0
  0
VERTEX
  5
385
330
24C
100
AcDbEntity
  8
0
  6
CONTINUOUS
 62
     7
100
AcDbVertex
100
AcDb2dVertex
 10
7.844952766
 20
6.4437313334
 30
0.0
  0
VERTEX
  5
386
330
24C
100
AcDbEntity
  8
0
  6
CONTINUOUS
 62
     7
100
AcDbVertex
100
AcDb2dVertex
 10
7.8396808472
 20
6.4656177341
 30
0.0
  0
VERTEX
  5
387
330
24C
100
AcDbEntity
  8
0
  6
CONTINUOUS
 62
     7
100
AcDbVertex
100
AcDb2dVertex
 10
7.8355649009
 20
6.4884600293
 30
0.0
  0
VERTEX
  5
388
330
24C
100
AcDbEntity
  8
0
  6
CONTINUOUS
 62
     7
100
AcDbVertex
100
AcDb2dVertex
 10
7.8326165843
 20
6.5121935253
 30
0.0
  0
VERTEX
  5
389
330
24C
100
AcDbEntity
  8
0
  6
CONTINUOUS
 62
     7
100
AcDbVertex
100
AcDb2dVertex
 10
7.8308442477
 20
6.5367510044
 30
0.0
  0
VERTEX
  5
38A
330
24C
100
AcDbEntity
  8
0
  6
CONTINUOUS
 62
     7
100
AcDbVertex
100
AcDb2dVertex
 10
7.8302529105
 20
6.5620629149
 30
0.0
  0
VERTEX
  5
38B
330
24C
100
AcDbEntity
  8
0
  6
CONTINUOUS
 62
     7
100
AcDbVertex
100
AcDb2dVertex
 10
7.8308442477
 20
6.5880575688
 30
0.0
  0
VERTEX
  5
38C
330
24C
100
AcDbEntity
  8
0
  6
CONTINUOUS
 62
     7
100
AcDbVertex
100
AcDb2dVertex
 10
7.8326165843
 20
6.6146613441
 30
0.0
  0
VERTEX
  5
38D
330
24C
100
AcDbEntity
  8
0
  6
CONTINUOUS
 62
     7
100
AcDbVertex
100
AcDb2dVertex
 10
7.8355649009
 20
6.641798894
 30
0.0
  0
VERTEX
  5
38E
330
24C
100
AcDbEntity
  8
0
  6
CONTINUOUS
 62
     7
100
AcDbVertex
100
AcDb2dVertex
 10
7.8396808472
 20
6.6693933597
 30
0.0
  0
VERTEX
  5
38F
330
24C
100
AcDbEntity
  8
0
  6
CONTINUOUS
 62
     7
100
AcDbVertex
100
AcDb2dVertex
 10
7.844952766
 20
6.6973665883
 30
0.0
  0
VERTEX
  5
390
330
24C
100
AcDbEntity
  8
0
  6
CONTINUOUS
 62
     7
100
AcDbVertex
100
AcDb2dVertex
 10
7.8513657263
 20
6.7256393543
 30
0.0
  0
VERTEX
  5
391
330
24C
100
AcDbEntity
  8
0
  6
CONTINUOUS
 62
     7
100
AcDbVertex
100
AcDb2dVertex
 10
7.8589015654
 20
6.7541315839
 30
0.0
  0
VERTEX
  5
392
330
24C
100
AcDbEntity
  8
0
  6
CONTINUOUS
 62
     7
100
AcDbVertex
100
AcDb2dVertex
 10
7.8675389403
 20
6.7827625816
 30
0.0
  0
VERTEX
  5
393
330
24C
100
AcDbEntity
  8
0
  6
CONTINUOUS
 62
     7
100
AcDbVertex
100
AcDb2dVertex
 10
7.8772533883
 20
6.8114512589
 30
0.0
  0
VERTEX
  5
394
330
24C
100
AcDbEntity
  8
0
  6
CONTINUOUS
 62
     7
100
AcDbVertex
100
AcDb2dVertex
 10
7.8880173962
 20
6.8401163639
 30
0.0
  0
VERTEX
  5
395
330
24C
100
AcDbEntity
  8
0
  6
CONTINUOUS
 62
     7
100
AcDbVertex
100
AcDb2dVertex
 10
7.8998004784
 20
6.8686767117
 30
0.0
  0
VERTEX
  5
396
330
24C
100
AcDbEntity
  8
0
  6
CONTINUOUS
 62
     7
100
AcDbVertex
100
AcDb2dVertex
 10
7.9125692628
 20
6.8970514139
 30
0.0
  0
VERTEX
  5
397
330
24C
100
AcDbEntity
  8
0
  6
CONTINUOUS
 62
     7
100
AcDbVertex
100
AcDb2dVertex
 10
7.9262875858
 20
6.9251601078
 30
0.0
  0
VERTEX
  5
398
330
24C
100
AcDbEntity
  8
0
  6
CONTINUOUS
 62
     7
100
AcDbVertex
100
AcDb2dVertex
 10
7.9409165945
 20
6.9529231843
 30
0.0
  0
VERTEX
  5
399
330
24C
100
AcDbEntity
  8
0
  6
CONTINUOUS
 62
     7
100
AcDbVertex
100
AcDb2dVertex
 10
7.9564148567
 20
6.980262013
 30
0.0
  0
VERTEX
  5
39A
330
24C
100
AcDbEntity
  8
0
  6
CONTINUOUS
 62
     7
100
AcDbVertex
100
AcDb2dVertex
 10
7.9727384785
 20
7.0070991651
 30
0.0
  0
VERTEX
  5
39B
330
24C
100
AcDbEntity
  8
0
  6
CONTINUOUS
 62
     7
100
AcDbVertex
100
AcDb2dVertex
 10
7.9898412281
 20
7.0333586327
 30
0.0
  0
VERTEX
  5
39C
330
24C
100
AcDbEntity
  8
0
  6
CONTINUOUS
 62
     7
100
AcDbVertex
100
AcDb2dVertex
 10
8.0076746674
 20
7.0589660439
 30
0.0
  0
VERTEX
  5
39D
330
24C
100
AcDbEntity
  8
0
  6
CONTINUOUS
 62
     7
100
AcDbVertex
100
AcDb2dVertex
 10
8.0261882885
 20
7.0838488736
 30
0.0
  0
VERTEX
  5
39E
330
24C
100
AcDbEntity
  8
0
  6
CONTINUOUS
 62
     7
100
AcDbVertex
100
AcDb2dVertex
 10
8.0453296575
 20
7.107936649
 30
0.0
  0
VERTEX
  5
39F
330
24C
100
AcDbEntity
  8
0
  6
CONTINUOUS
 62
     7
100
AcDbVertex
100
AcDb2dVertex
 10
8.0650445622
 20
7.1311611487
 30
0.0
  0
VERTEX
  5
3A0
330
24C
100
AcDbEntity
  8
0
  6
CONTINUOUS
 62
     7
100
AcDbVertex
100
AcDb2dVertex
 10
8.0852771662
 20
7.1534565966
 30
0.0
  0
VERTEX
  5
3A1
330
24C
100
AcDbEntity
  8
0
  6
CONTINUOUS
 62
     7
100
AcDbVertex
100
AcDb2dVertex
 10
8.1059701671
 20
7.1747598477
 30
0.0
  0
VERTEX
  5
3A2
330
24C
100
AcDbEntity
  8
0
  6
CONTINUOUS
 62
     7
100
AcDbVertex
100
AcDb2dVertex
 10
8.1270649581
 20
7.1950105671
 30
0.0
  0
VERTEX
  5
3A3
330
24C
100
AcDbEntity
  8
0
  6
CONTINUOUS
 62
     7
100
AcDbVertex
100
AcDb2dVertex
 10
8.1485017949
 20
7.2141514009
 30
0.0
  0
VERTEX
  5
3A4
330
24C
100
AcDbEntity
  8
0
  6
CONTINUOUS
 62
     7
100
AcDbVertex
100
AcDb2dVertex
 10
8.1702199642
 20
7.2321281385
 30
0.0
  0
VERTEX
  5
3A5
330
24C
100
AcDbEntity
  8
0
  6
CONTINUOUS
 62
     7
100
AcDbVertex
100
AcDb2dVertex
 10
8.192157956
 20
7.2488898665
 30
0.0
  0
SEQEND
  5
3A6
330
24C
100
AcDbEntity
  8
0
  6
CONTINUOUS
 62
     7
  0
LINE
  5
24D
330
1F
100
AcDbEntity
  8
0
  6
CONTINUOUS
 62
     7
100
AcDbLine
 10
8.1407718552
 20
7.2785544311
 30
0.0
 11
8.192157956
 21
7.2488898665
 31
0.0
  0
POLYLINE
  5
24E
330
1F
100
AcDbEntity
  8
0
  6
CONTINUOUS
 62
     7
100
AcDb2dPolyline
 66
     1
 10
0.0
 20
0.0
 30
0.0
  0
VERTEX
  5
3A7
330
24E
100
AcDbEntity
  8
0
  6
CONTINUOUS
 62
     7
100
AcDbVertex
100
AcDb2dVertex
 10
8.1407718552
 20
7.2785544311
 30
0.0
  0
VERTEX
  5
3A8
330
24E
100
AcDbEntity
  8
0
  6
CONTINUOUS
 62
     7
100
AcDbVertex
100
AcDb2dVertex
 10
8.1188338634
 20
7.2617927031
 30
0.0
  0
VERTEX
  5
3A9
330
24E
100
AcDbEntity
  8
0
  6
CONTINUOUS
 62
     7
100
AcDbVertex
100
AcDb2dVertex
 10
8.097115694
 20
7.2438159655
 30
0.0
  0
VERTEX
  5
3AA
330
24E
100
AcDbEntity
  8
0
  6
CONTINUOUS
 62
     7
100
AcDbVertex
100
AcDb2dVertex
 10
8.0756788572
 20
7.2246751317
 30
0.0
  0
VERTEX
  5
3AB
330
24E
100
AcDbEntity
  8
0
  6
CONTINUOUS
 62
     7
100
AcDbVertex
100
AcDb2dVertex
 10
8.0545840662
 20
7.2044244123
 30
0.0
  0
VERTEX
  5
3AC
330
24E
100
AcDbEntity
  8
0
  6
CONTINUOUS
 62
     7
100
AcDbVertex
100
AcDb2dVertex
 10
8.0338910654
 20
7.1831211612
 30
0.0
  0
VERTEX
  5
3AD
330
24E
100
AcDbEntity
  8
0
  6
CONTINUOUS
 62
     7
100
AcDbVertex
100
AcDb2dVertex
 10
8.0136584613
 20
7.1608257133
 30
0.0
  0
VERTEX
  5
3AE
330
24E
100
AcDbEntity
  8
0
  6
CONTINUOUS
 62
     7
100
AcDbVertex
100
AcDb2dVertex
 10
7.9939435566
 20
7.1376012136
 30
0.0
  0
VERTEX
  5
3AF
330
24E
100
AcDbEntity
  8
0
  6
CONTINUOUS
 62
     7
100
AcDbVertex
100
AcDb2dVertex
 10
7.9748021877
 20
7.1135134382
 30
0.0
  0
VERTEX
  5
3B0
330
24E
100
AcDbEntity
  8
0
  6
CONTINUOUS
 62
     7
100
AcDbVertex
100
AcDb2dVertex
 10
7.9562885665
 20
7.0886306085
 30
0.0
  0
VERTEX
  5
3B1
330
24E
100
AcDbEntity
  8
0
  6
CONTINUOUS
 62
     7
100
AcDbVertex
100
AcDb2dVertex
 10
7.9384551273
 20
7.0630231973
 30
0.0
  0
VERTEX
  5
3B2
330
24E
100
AcDbEntity
  8
0
  6
CONTINUOUS
 62
     7
100
AcDbVertex
100
AcDb2dVertex
 10
7.9213523776
 20
7.0367637297
 30
0.0
  0
VERTEX
  5
3B3
330
24E
100
AcDbEntity
  8
0
  6
CONTINUOUS
 62
     7
100
AcDbVertex
100
AcDb2dVertex
 10
7.9050287559
 20
7.0099265776
 30
0.0
  0
VERTEX
  5
3B4
330
24E
100
AcDbEntity
  8
0
  6
CONTINUOUS
 62
     7
100
AcDbVertex
100
AcDb2dVertex
 10
7.8895304936
 20
6.9825877489
 30
0.0
  0
VERTEX
  5
3B5
330
24E
100
AcDbEntity
  8
0
  6
CONTINUOUS
 62
     7
100
AcDbVertex
100
AcDb2dVertex
 10
7.8749014849
 20
6.9548246724
 30
0.0
  0
VERTEX
  5
3B6
330
24E
100
AcDbEntity
  8
0
  6
CONTINUOUS
 62
     7
100
AcDbVertex
100
AcDb2dVertex
 10
7.8611831619
 20
6.9267159785
 30
0.0
  0
VERTEX
  5
3B7
330
24E
100
AcDbEntity
  8
0
  6
CONTINUOUS
 62
     7
100
AcDbVertex
100
AcDb2dVertex
 10
7.8484143775
 20
6.8983412764
 30
0.0
  0
VERTEX
  5
3B8
330
24E
100
AcDbEntity
  8
0
  6
CONTINUOUS
 62
     7
100
AcDbVertex
100
AcDb2dVertex
 10
7.8366312954
 20
6.8697809285
 30
0.0
  0
VERTEX
  5
3B9
330
24E
100
AcDbEntity
  8
0
  6
CONTINUOUS
 62
     7
100
AcDbVertex
100
AcDb2dVertex
 10
7.8258672874
 20
6.8411158235
 30
0.0
  0
VERTEX
  5
3BA
330
24E
100
AcDbEntity
  8
0
  6
CONTINUOUS
 62
     7
100
AcDbVertex
100
AcDb2dVertex
 10
7.8161528394
 20
6.8124271462
 30
0.0
  0
VERTEX
  5
3BB
330
24E
100
AcDbEntity
  8
0
  6
CONTINUOUS
 62
     7
100
AcDbVertex
100
AcDb2dVertex
 10
7.8075154645
 20
6.7837961485
 30
0.0
  0
VERTEX
  5
3BC
330
24E
100
AcDbEntity
  8
0
  6
CONTINUOUS
 62
     7
100
AcDbVertex
100
AcDb2dVertex
 10
7.7999796255
 20
6.7553039189
 30
0.0
  0
VERTEX
  5
3BD
330
24E
100
AcDbEntity
  8
0
  6
CONTINUOUS
 62
     7
100
AcDbVertex
100
AcDb2dVertex
 10
7.7935666651
 20
6.7270311529
 30
0.0
  0
VERTEX
  5
3BE
330
24E
100
AcDbEntity
  8
0
  6
CONTINUOUS
 62
     7
100
AcDbVertex
100
AcDb2dVertex
 10
7.7882947463
 20
6.6990579243
 30
0.0
  0
VERTEX
  5
3BF
330
24E
100
AcDbEntity
  8
0
  6
CONTINUOUS
 62
     7
100
AcDbVertex
100
AcDb2dVertex
 10
7.7841788
 20
6.6714634586
 30
0.0
  0
VERTEX
  5
3C0
330
24E
100
AcDbEntity
  8
0
  6
CONTINUOUS
 62
     7
100
AcDbVertex
100
AcDb2dVertex
 10
7.7812304835
 20
6.6443259087
 30
0.0
  0
VERTEX
  5
3C1
330
24E
100
AcDbEntity
  8
0
  6
CONTINUOUS
 62
     7
100
AcDbVertex
100
AcDb2dVertex
 10
7.7794581468
 20
6.6177221334
 30
0.0
  0
VERTEX
  5
3C2
330
24E
100
AcDbEntity
  8
0
  6
CONTINUOUS
 62
     7
100
AcDbVertex
100
AcDb2dVertex
 10
7.7788668097
 20
6.5917274795
 30
0.0
  0
VERTEX
  5
3C3
330
24E
100
AcDbEntity
  8
0
  6
CONTINUOUS
 62
     7
100
AcDbVertex
100
AcDb2dVertex
 10
7.7794581468
 20
6.566415569
 30
0.0
  0
VERTEX
  5
3C4
330
24E
100
AcDbEntity
  8
0
  6
CONTINUOUS
 62
     7
100
AcDbVertex
100
AcDb2dVertex
 10
7.7812304835
 20
6.5418580899
 30
0.0
  0
VERTEX
  5
3C5
330
24E
100
AcDbEntity
  8
0
  6
CONTINUOUS
 62
     7
100
AcDbVertex
100
AcDb2dVertex
 10
7.7841788
 20
6.5181245939
 30
0.0
  0
VERTEX
  5
3C6
330
24E
100
AcDbEntity
  8
0
  6
CONTINUOUS
 62
     7
100
AcDbVertex
100
AcDb2dVertex
 10
7.7882947463
 20
6.4952822987
 30
0.0
  0
VERTEX
  5
3C7
330
24E
100
AcDbEntity
  8
0
  6
CONTINUOUS
 62
     7
100
AcDbVertex
100
AcDb2dVertex
 10
7.7935666651
 20
6.473395898
 30
0.0
  0
VERTEX
  5
3C8
330
24E
100
AcDbEntity
  8
0
  6
CONTINUOUS
 62
     7
100
AcDbVertex
100
AcDb2dVertex
 10
7.7999796255
 20
6.4525273783
 30
0.0
  0
VERTEX
  5
3C9
330
24E
100
AcDbEntity
  8
0
  6
CONTINUOUS
 62
     7
100
AcDbVertex
100
AcDb2dVertex
 10
7.8075154645
 20
6.4327358433
 30
0.0
  0
VERTEX
  5
3CA
330
24E
100
AcDbEntity
  8
0
  6
CONTINUOUS
 62
     7
100
AcDbVertex
100
AcDb2dVertex
 10
7.8161528394
 20
6.4140773464
 30
0.0
  0
VERTEX
  5
3CB
330
24E
100
AcDbEntity
  8
0
  6
CONTINUOUS
 62
     7
100
AcDbVertex
100
AcDb2dVertex
 10
7.8258672874
 20
6.3966047321
 30
0.0
  0
VERTEX
  5
3CC
330
24E
100
AcDbEntity
  8
0
  6
CONTINUOUS
 62
     7
100
AcDbVertex
100
AcDb2dVertex
 10
7.8366312954
 20
6.380367486
 30
0.0
  0
VERTEX
  5
3CD
330
24E
100
AcDbEntity
  8
0
  6
CONTINUOUS
 62
     7
100
AcDbVertex
100
AcDb2dVertex
 10
7.8484143775
 20
6.3654115953
 30
0.0
  0
VERTEX
  5
3CE
330
24E
100
AcDbEntity
  8
0
  6
CONTINUOUS
 62
     7
100
AcDbVertex
100
AcDb2dVertex
 10
7.8611831619
 20
6.3517794178
 30
0.0
  0
VERTEX
  5
3CF
330
24E
100
AcDbEntity
  8
0
  6
CONTINUOUS
 62
     7
100
AcDbVertex
100
AcDb2dVertex
 10
7.8749014849
 20
6.3395095624
 30
0.0
  0
VERTEX
  5
3D0
330
24E
100
AcDbEntity
  8
0
  6
CONTINUOUS
 62
     7
100
AcDbVertex
100
AcDb2dVertex
 10
7.8895304936
 20
6.3286367799
 30
0.0
  0
VERTEX
  5
3D1
330
24E
100
AcDbEntity
  8
0
  6
CONTINUOUS
 62
     7
100
AcDbVertex
100
AcDb2dVertex
 10
7.9050287559
 20
6.3191918639
 30
0.0
  0
VERTEX
  5
3D2
330
24E
100
AcDbEntity
  8
0
  6
CONTINUOUS
 62
     7
100
AcDbVertex
100
AcDb2dVertex
 10
7.9213523776
 20
6.3112015643
 30
0.0
  0
VERTEX
  5
3D3
330
24E
100
AcDbEntity
  8
0
  6
CONTINUOUS
 62
     7
100
AcDbVertex
100
AcDb2dVertex
 10
7.9280106861
 20
6.308453951
 30
0.0
  0
SEQEND
  5
3D4
330
24E
100
AcDbEntity
  8
0
  6
CONTINUOUS
 62
     7
  0
POLYLINE
  5
24F
330
1F
100
AcDbEntity
  8
0
  6
CONTINUOUS
 62
     7
100
AcDb2dPolyline
 66
     1
 10
0.0
 20
0.0
 30
0.0
  0
VERTEX
  5
3D5
330
24F
100
AcDbEntity
  8
0
  6
CONTINUOUS
 62
     7
100
AcDbVertex
100
AcDb2dVertex
 10
7.83245525
 20
7.4565418187
 30
0.0
  0
VERTEX
  5
3D6
330
24F
100
AcDbEntity
  8
0
  6
CONTINUOUS
 62
     7
100
AcDbVertex
100
AcDb2dVertex
 10
7.8105172582
 20
7.4397800907
 30
0.0
  0
VERTEX
  5
3D7
330
24F
100
AcDbEntity
  8
0
  6
CONTINUOUS
 62
     7
100
AcDbVertex
100
AcDb2dVertex
 10
7.7887990888
 20
7.4218033531
 30
0.0
  0
VERTEX
  5
3D8
330
24F
100
AcDbEntity
  8
0
  6
CONTINUOUS
 62
     7
100
AcDbVertex
100
AcDb2dVertex
 10
7.767362252
 20
7.4026625193
 30
0.0
  0
VERTEX
  5
3D9
330
24F
100
AcDbEntity
  8
0
  6
CONTINUOUS
 62
     7
100
AcDbVertex
100
AcDb2dVertex
 10
7.746267461
 20
7.3824117999
 30
0.0
  0
VERTEX
  5
3DA
330
24F
100
AcDbEntity
  8
0
  6
CONTINUOUS
 62
     7
100
AcDbVertex
100
AcDb2dVertex
 10
7.7255744602
 20
7.3611085488
 30
0.0
  0
VERTEX
  5
3DB
330
24F
100
AcDbEntity
  8
0
  6
CONTINUOUS
 62
     7
100
AcDbVertex
100
AcDb2dVertex
 10
7.7053418561
 20
7.3388131009
 30
0.0
  0
VERTEX
  5
3DC
330
24F
100
AcDbEntity
  8
0
  6
CONTINUOUS
 62
     7
100
AcDbVertex
100
AcDb2dVertex
 10
7.6856269514
 20
7.3155886012
 30
0.0
  0
VERTEX
  5
3DD
330
24F
100
AcDbEntity
  8
0
  6
CONTINUOUS
 62
     7
100
AcDbVertex
100
AcDb2dVertex
 10
7.6664855825
 20
7.2915008259
 30
0.0
  0
VERTEX
  5
3DE
330
24F
100
AcDbEntity
  8
0
  6
CONTINUOUS
 62
     7
100
AcDbVertex
100
AcDb2dVertex
 10
7.6479719613
 20
7.2666179961
 30
0.0
  0
VERTEX
  5
3DF
330
24F
100
AcDbEntity
  8
0
  6
CONTINUOUS
 62
     7
100
AcDbVertex
100
AcDb2dVertex
 10
7.6301385221
 20
7.2410105849
 30
0.0
  0
VERTEX
  5
3E0
330
24F
100
AcDbEntity
  8
0
  6
CONTINUOUS
 62
     7
100
AcDbVertex
100
AcDb2dVertex
 10
7.6130357724
 20
7.2147511174
 30
0.0
  0
VERTEX
  5
3E1
330
24F
100
AcDbEntity
  8
0
  6
CONTINUOUS
 62
     7
100
AcDbVertex
100
AcDb2dVertex
 10
7.5967121507
 20
7.1879139652
 30
0.0
  0
VERTEX
  5
3E2
330
24F
100
AcDbEntity
  8
0
  6
CONTINUOUS
 62
     7
100
AcDbVertex
100
AcDb2dVertex
 10
7.5812138884
 20
7.1605751365
 30
0.0
  0
VERTEX
  5
3E3
330
24F
100
AcDbEntity
  8
0
  6
CONTINUOUS
 62
     7
100
AcDbVertex
100
AcDb2dVertex
 10
7.5665848797
 20
7.1328120601
 30
0.0
  0
VERTEX
  5
3E4
330
24F
100
AcDbEntity
  8
0
  6
CONTINUOUS
 62
     7
100
AcDbVertex
100
AcDb2dVertex
 10
7.5528665567
 20
7.1047033661
 30
0.0
  0
VERTEX
  5
3E5
330
24F
100
AcDbEntity
  8
0
  6
CONTINUOUS
 62
     7
100
AcDbVertex
100
AcDb2dVertex
 10
7.5400977723
 20
7.076328664
 30
0.0
  0
VERTEX
  5
3E6
330
24F
100
AcDbEntity
  8
0
  6
CONTINUOUS
 62
     7
100
AcDbVertex
100
AcDb2dVertex
 10
7.5283146902
 20
7.0477683162
 30
0.0
  0
VERTEX
  5
3E7
330
24F
100
AcDbEntity
  8
0
  6
CONTINUOUS
 62
     7
100
AcDbVertex
100
AcDb2dVertex
 10
7.5175506822
 20
7.0191032111
 30
0.0
  0
VERTEX
  5
3E8
330
24F
100
AcDbEntity
  8
0
  6
CONTINUOUS
 62
     7
100
AcDbVertex
100
AcDb2dVertex
 10
7.5078362342
 20
6.9904145338
 30
0.0
  0
VERTEX
  5
3E9
330
24F
100
AcDbEntity
  8
0
  6
CONTINUOUS
 62
     7
100
AcDbVertex
100
AcDb2dVertex
 10
7.4991988593
 20
6.9617835361
 30
0.0
  0
VERTEX
  5
3EA
330
24F
100
AcDbEntity
  8
0
  6
CONTINUOUS
 62
     7
100
AcDbVertex
100
AcDb2dVertex
 10
7.4916630203
 20
6.9332913066
 30
0.0
  0
VERTEX
  5
3EB
330
24F
100
AcDbEntity
  8
0
  6
CONTINUOUS
 62
     7
100
AcDbVertex
100
AcDb2dVertex
 10
7.4852500599
 20
6.9050185405
 30
0.0
  0
VERTEX
  5
3EC
330
24F
100
AcDbEntity
  8
0
  6
CONTINUOUS
 62
     7
100
AcDbVertex
100
AcDb2dVertex
 10
7.4799781411
 20
6.8770453119
 30
0.0
  0
VERTEX
  5
3ED
330
24F
100
AcDbEntity
  8
0
  6
CONTINUOUS
 62
     7
100
AcDbVertex
100
AcDb2dVertex
 10
7.4758621948
 20
6.8494508462
 30
0.0
  0
VERTEX
  5
3EE
330
24F
100
AcDbEntity
  8
0
  6
CONTINUOUS
 62
     7
100
AcDbVertex
100
AcDb2dVertex
 10
7.4729138783
 20
6.8223132964
 30
0.0
  0
VERTEX
  5
3EF
330
24F
100
AcDbEntity
  8
0
  6
CONTINUOUS
 62
     7
100
AcDbVertex
100
AcDb2dVertex
 10
7.4711415416
 20
6.795709521
 30
0.0
  0
VERTEX
  5
3F0
330
24F
100
AcDbEntity
  8
0
  6
CONTINUOUS
 62
     7
100
AcDbVertex
100
AcDb2dVertex
 10
7.4705502045
 20
6.7697148671
 30
0.0
  0
VERTEX
  5
3F1
330
24F
100
AcDbEntity
  8
0
  6
CONTINUOUS
 62
     7
100
AcDbVertex
100
AcDb2dVertex
 10
7.4711415416
 20
6.7444029566
 30
0.0
  0
VERTEX
  5
3F2
330
24F
100
AcDbEntity
  8
0
  6
CONTINUOUS
 62
     7
100
AcDbVertex
100
AcDb2dVertex
 10
7.4729138783
 20
6.7198454775
 30
0.0
  0
VERTEX
  5
3F3
330
24F
100
AcDbEntity
  8
0
  6
CONTINUOUS
 62
     7
100
AcDbVertex
100
AcDb2dVertex
 10
7.4758621948
 20
6.6961119815
 30
0.0
  0
VERTEX
  5
3F4
330
24F
100
AcDbEntity
  8
0
  6
CONTINUOUS
 62
     7
100
AcDbVertex
100
AcDb2dVertex
 10
7.4799781411
 20
6.6732696863
 30
0.0
  0
VERTEX
  5
3F5
330
24F
100
AcDbEntity
  8
0
  6
CONTINUOUS
 62
     7
100
AcDbVertex
100
AcDb2dVertex
 10
7.4852500599
 20
6.6513832856
 30
0.0
  0
VERTEX
  5
3F6
330
24F
100
AcDbEntity
  8
0
  6
CONTINUOUS
 62
     7
100
AcDbVertex
100
AcDb2dVertex
 10
7.4916630203
 20
6.6305147659
 30
0.0
  0
VERTEX
  5
3F7
330
24F
100
AcDbEntity
  8
0
  6
CONTINUOUS
 62
     7
100
AcDbVertex
100
AcDb2dVertex
 10
7.4991988593
 20
6.610723231
 30
0.0
  0
VERTEX
  5
3F8
330
24F
100
AcDbEntity
  8
0
  6
CONTINUOUS
 62
     7
100
AcDbVertex
100
AcDb2dVertex
 10
7.5078362342
 20
6.5920647341
 30
0.0
  0
VERTEX
  5
3F9
330
24F
100
AcDbEntity
  8
0
  6
CONTINUOUS
 62
     7
100
AcDbVertex
100
AcDb2dVertex
 10
7.5175506822
 20
6.5745921197
 30
0.0
  0
VERTEX
  5
3FA
330
24F
100
AcDbEntity
  8
0
  6
CONTINUOUS
 62
     7
100
AcDbVertex
100
AcDb2dVertex
 10
7.5283146902
 20
6.5583548736
 30
0.0
  0
VERTEX
  5
3FB
330
24F
100
AcDbEntity
  8
0
  6
CONTINUOUS
 62
     7
100
AcDbVertex
100
AcDb2dVertex
 10
7.5400977723
 20
6.5433989829
 30
0.0
  0
VERTEX
  5
3FC
330
24F
100
AcDbEntity
  8
0
  6
CONTINUOUS
 62
     7
100
AcDbVertex
100
AcDb2dVertex
 10
7.5528665567
 20
6.5297668054
 30
0.0
  0
VERTEX
  5
3FD
330
24F
100
AcDbEntity
  8
0
  6
CONTINUOUS
 62
     7
100
AcDbVertex
100
AcDb2dVertex
 10
7.5665848797
 20
6.5174969501
 30
0.0
  0
VERTEX
  5
3FE
330
24F
100
AcDbEntity
  8
0
  6
CONTINUOUS
 62
     7
100
AcDbVertex
100
AcDb2dVertex
 10
7.5812138884
 20
6.5066241675
 30
0.0
  0
VERTEX
  5
3FF
330
24F
100
AcDbEntity
  8
0
  6
CONTINUOUS
 62
     7
100
AcDbVertex
100
AcDb2dVertex
 10
7.5967121507
 20
6.4971792515
 30
0.0
  0
VERTEX
  5
400
330
24F
100
AcDbEntity
  8
0
  6
CONTINUOUS
 62
     7
100
AcDbVertex
100
AcDb2dVertex
 10
7.6130357724
 20
6.4891889519
 30
0.0
  0
VERTEX
  5
401
330
24F
100
AcDbEntity
  8
0
  6
CONTINUOUS
 62
     7
100
AcDbVertex
100
AcDb2dVertex
 10
7.6196940809
 20
6.4864413386
 30
0.0
  0
SEQEND
  5
402
330
24F
100
AcDbEntity
  8
0
  6
CONTINUOUS
 62
     7
  0
POLYLINE
  5
250
330
1F
100
AcDbEntity
  8
0
  6
CONTINUOUS
 62
     7
100
AcDb2dPolyline
 66
     1
 10
0.0
 20
0.0
 30
0.0
  0
VERTEX
  5
403
330
250
100
AcDbEntity
  8
0
  6
CONTINUOUS
 62
     7
100
AcDbVertex
100
AcDb2dVertex
 10
7.6442674558
 20
6.4696695113
 30
0.0
  0
VERTEX
  5
404
330
250
100
AcDbEntity
  8
0
  6
CONTINUOUS
 62
     7
100
AcDbVertex
100
AcDb2dVertex
 10
7.6325999893
 20
6.4769596029
 30
0.0
  0
VERTEX
  5
405
330
250
100
AcDbEntity
  8
0
  6
CONTINUOUS
 62
     7
100
AcDbVertex
100
AcDb2dVertex
 10
7.6179709806
 20
6.4878323855
 30
0.0
  0
VERTEX
  5
406
330
250
100
AcDbEntity
  8
0
  6
CONTINUOUS
 62
     7
100
AcDbVertex
100
AcDb2dVertex
 10
7.6042526576
 20
6.5001022408
 30
0.0
  0
VERTEX
  5
407
330
250
100
AcDbEntity
  8
0
  6
CONTINUOUS
 62
     7
100
AcDbVertex
100
AcDb2dVertex
 10
7.5914838732
 20
6.5137344183
 30
0.0
  0
VERTEX
  5
408
330
250
100
AcDbEntity
  8
0
  6
CONTINUOUS
 62
     7
100
AcDbVertex
100
AcDb2dVertex
 10
7.579700791
 20
6.528690309
 30
0.0
  0
VERTEX
  5
409
330
250
100
AcDbEntity
  8
0
  6
CONTINUOUS
 62
     7
100
AcDbVertex
100
AcDb2dVertex
 10
7.5689367831
 20
6.5449275551
 30
0.0
  0
VERTEX
  5
40A
330
250
100
AcDbEntity
  8
0
  6
CONTINUOUS
 62
     7
100
AcDbVertex
100
AcDb2dVertex
 10
7.5592223351
 20
6.5624001695
 30
0.0
  0
VERTEX
  5
40B
330
250
100
AcDbEntity
  8
0
  6
CONTINUOUS
 62
     7
100
AcDbVertex
100
AcDb2dVertex
 10
7.5505849602
 20
6.5810586663
 30
0.0
  0
VERTEX
  5
40C
330
250
100
AcDbEntity
  8
0
  6
CONTINUOUS
 62
     7
100
AcDbVertex
100
AcDb2dVertex
 10
7.5430491211
 20
6.6008502013
 30
0.0
  0
VERTEX
  5
40D
330
250
100
AcDbEntity
  8
0
  6
CONTINUOUS
 62
     7
100
AcDbVertex
100
AcDb2dVertex
 10
7.5366361608
 20
6.621718721
 30
0.0
  0
VERTEX
  5
40E
330
250
100
AcDbEntity
  8
0
  6
CONTINUOUS
 62
     7
100
AcDbVertex
100
AcDb2dVertex
 10
7.531364242
 20
6.6436051217
 30
0.0
  0
VERTEX
  5
40F
330
250
100
AcDbEntity
  8
0
  6
CONTINUOUS
 62
     7
100
AcDbVertex
100
AcDb2dVertex
 10
7.5272482957
 20
6.6664474169
 30
0.0
  0
VERTEX
  5
410
330
250
100
AcDbEntity
  8
0
  6
CONTINUOUS
 62
     7
100
AcDbVertex
100
AcDb2dVertex
 10
7.5242999791
 20
6.6901809129
 30
0.0
  0
VERTEX
  5
411
330
250
100
AcDbEntity
  8
0
  6
CONTINUOUS
 62
     7
100
AcDbVertex
100
AcDb2dVertex
 10
7.5225276425
 20
6.714738392
 30
0.0
  0
VERTEX
  5
412
330
250
100
AcDbEntity
  8
0
  6
CONTINUOUS
 62
     7
100
AcDbVertex
100
AcDb2dVertex
 10
7.5219363053
 20
6.7400503025
 30
0.0
  0
VERTEX
  5
413
330
250
100
AcDbEntity
  8
0
  6
CONTINUOUS
 62
     7
100
AcDbVertex
100
AcDb2dVertex
 10
7.5225276425
 20
6.7660449564
 30
0.0
  0
VERTEX
  5
414
330
250
100
AcDbEntity
  8
0
  6
CONTINUOUS
 62
     7
100
AcDbVertex
100
AcDb2dVertex
 10
7.5242999791
 20
6.7926487318
 30
0.0
  0
VERTEX
  5
415
330
250
100
AcDbEntity
  8
0
  6
CONTINUOUS
 62
     7
100
AcDbVertex
100
AcDb2dVertex
 10
7.5272482957
 20
6.8197862816
 30
0.0
  0
VERTEX
  5
416
330
250
100
AcDbEntity
  8
0
  6
CONTINUOUS
 62
     7
100
AcDbVertex
100
AcDb2dVertex
 10
7.531364242
 20
6.8473807473
 30
0.0
  0
VERTEX
  5
417
330
250
100
AcDbEntity
  8
0
  6
CONTINUOUS
 62
     7
100
AcDbVertex
100
AcDb2dVertex
 10
7.5366361608
 20
6.8753539759
 30
0.0
  0
VERTEX
  5
418
330
250
100
AcDbEntity
  8
0
  6
CONTINUOUS
 62
     7
100
AcDbVertex
100
AcDb2dVertex
 10
7.5430491211
 20
6.9036267419
 30
0.0
  0
VERTEX
  5
419
330
250
100
AcDbEntity
  8
0
  6
CONTINUOUS
 62
     7
100
AcDbVertex
100
AcDb2dVertex
 10
7.5505849602
 20
6.9321189715
 30
0.0
  0
VERTEX
  5
41A
330
250
100
AcDbEntity
  8
0
  6
CONTINUOUS
 62
     7
100
AcDbVertex
100
AcDb2dVertex
 10
7.5592223351
 20
6.9607499692
 30
0.0
  0
VERTEX
  5
41B
330
250
100
AcDbEntity
  8
0
  6
CONTINUOUS
 62
     7
100
AcDbVertex
100
AcDb2dVertex
 10
7.5689367831
 20
6.9894386465
 30
0.0
  0
VERTEX
  5
41C
330
250
100
AcDbEntity
  8
0
  6
CONTINUOUS
 62
     7
100
AcDbVertex
100
AcDb2dVertex
 10
7.579700791
 20
7.0181037516
 30
0.0
  0
VERTEX
  5
41D
330
250
100
AcDbEntity
  8
0
  6
CONTINUOUS
 62
     7
100
AcDbVertex
100
AcDb2dVertex
 10
7.5914838732
 20
7.0466640994
 30
0.0
  0
VERTEX
  5
41E
330
250
100
AcDbEntity
  8
0
  6
CONTINUOUS
 62
     7
100
AcDbVertex
100
AcDb2dVertex
 10
7.6042526576
 20
7.0750388015
 30
0.0
  0
VERTEX
  5
41F
330
250
100
AcDbEntity
  8
0
  6
CONTINUOUS
 62
     7
100
AcDbVertex
100
AcDb2dVertex
 10
7.6179709806
 20
7.1031474955
 30
0.0
  0
VERTEX
  5
420
330
250
100
AcDbEntity
  8
0
  6
CONTINUOUS
 62
     7
100
AcDbVertex
100
AcDb2dVertex
 10
7.6325999893
 20
7.1309105719
 30
0.0
  0
VERTEX
  5
421
330
250
100
AcDbEntity
  8
0
  6
CONTINUOUS
 62
     7
100
AcDbVertex
100
AcDb2dVertex
 10
7.6480982515
 20
7.1582494006
 30
0.0
  0
VERTEX
  5
422
330
250
100
AcDbEntity
  8
0
  6
CONTINUOUS
 62
     7
100
AcDbVertex
100
AcDb2dVertex
 10
7.6644218733
 20
7.1850865528
 30
0.0
  0
VERTEX
  5
423
330
250
100
AcDbEntity
  8
0
  6
CONTINUOUS
 62
     7
100
AcDbVertex
100
AcDb2dVertex
 10
7.6815246229
 20
7.2113460203
 30
0.0
  0
VERTEX
  5
424
330
250
100
AcDbEntity
  8
0
  6
CONTINUOUS
 62
     7
100
AcDbVertex
100
AcDb2dVertex
 10
7.6993580622
 20
7.2369534315
 30
0.0
  0
VERTEX
  5
425
330
250
100
AcDbEntity
  8
0
  6
CONTINUOUS
 62
     7
100
AcDbVertex
100
AcDb2dVertex
 10
7.7178716833
 20
7.2618362613
 30
0.0
  0
VERTEX
  5
426
330
250
100
AcDbEntity
  8
0
  6
CONTINUOUS
 62
     7
100
AcDbVertex
100
AcDb2dVertex
 10
7.7370130523
 20
7.2859240366
 30
0.0
  0
VERTEX
  5
427
330
250
100
AcDbEntity
  8
0
  6
CONTINUOUS
 62
     7
100
AcDbVertex
100
AcDb2dVertex
 10
7.756727957
 20
7.3091485363
 30
0.0
  0
VERTEX
  5
428
330
250
100
AcDbEntity
  8
0
  6
CONTINUOUS
 62
     7
100
AcDbVertex
100
AcDb2dVertex
 10
7.776960561
 20
7.3314439842
 30
0.0
  0
VERTEX
  5
429
330
250
100
AcDbEntity
  8
0
  6
CONTINUOUS
 62
     7
100
AcDbVertex
100
AcDb2dVertex
 10
7.7976535619
 20
7.3527472353
 30
0.0
  0
VERTEX
  5
42A
330
250
100
AcDbEntity
  8
0
  6
CONTINUOUS
 62
     7
100
AcDbVertex
100
AcDb2dVertex
 10
7.8187483529
 20
7.3729979547
 30
0.0
  0
VERTEX
  5
42B
330
250
100
AcDbEntity
  8
0
  6
CONTINUOUS
 62
     7
100
AcDbVertex
100
AcDb2dVertex
 10
7.8401851897
 20
7.3921387885
 30
0.0
  0
VERTEX
  5
42C
330
250
100
AcDbEntity
  8
0
  6
CONTINUOUS
 62
     7
100
AcDbVertex
100
AcDb2dVertex
 10
7.861903359
 20
7.4101155261
 30
0.0
  0
VERTEX
  5
42D
330
250
100
AcDbEntity
  8
0
  6
CONTINUOUS
 62
     7
100
AcDbVertex
100
AcDb2dVertex
 10
7.8838413508
 20
7.4268772541
 30
0.0
  0
SEQEND
  5
42E
330
250
100
AcDbEntity
  8
0
  6
CONTINUOUS
 62
     7
  0
LINE
  5
251
330
1F
100
AcDbEntity
  8
0
  6
CONTINUOUS
 62
     7
100
AcDbLine
 10
7.8838413508
 20
7.4268772541
 30
0.0
 11
7.83245525
 21
7.4565418187
 31
0.0
  0
ARC
  5
252
330
1F
100
AcDbEntity
  8
0
  6
CONTINUOUS
 62
     7
100
AcDbCircle
 10
8.5770690159
 20
6.998660068
 30
0.0
 40
0.2551765927144963
100
AcDbArc
 50
55.4410486881
 51
117.8981257803
  0
LINE
  5
253
330
1F
100
AcDbEntity
  8
0
  6
CONTINUOUS
 62
     7
100
AcDbLine
 10
8.4576716572
 20
7.224180276
 30
0.0
 11
8.5090577581
 21
7.1945157114
 31
0.0
  0
ARC
  5
254
330
1F
100
AcDbEntity
  8
0
  6
CONTINUOUS
 62
     7
100
AcDbCircle
 10
8.6302370808
 20
6.9570337992
 30
0.0
 40
0.266612240680165
100
AcDbArc
 50
63.6361291343
 51
117.0337473179
  0
ARC
  5
255
330
1F
100
AcDbEntity
  8
0
  6
CONTINUOUS
 62
     7
100
AcDbCircle
 10
8.2687524107
 20
7.1766474556
 30
0.0
 40
0.2551765927144923
100
AcDbArc
 50
55.4410486881
 51
117.8981257803
  0
LINE
  5
256
330
1F
100
AcDbEntity
  8
0
  6
CONTINUOUS
 62
     7
100
AcDbLine
 10
8.2007411529
 20
7.372503099
 30
0.0
 11
8.149355052
 21
7.4021676636
 31
0.0
  0
ARC
  5
257
330
1F
100
AcDbEntity
  8
0
  6
CONTINUOUS
 62
     7
100
AcDbCircle
 10
8.3219204756
 20
7.1350211868
 30
0.0
 40
0.2666122406801691
100
AcDbArc
 50
63.6361291343
 51
117.0337473179
  0
POLYLINE
  5
258
330
1F
100
AcDbEntity
  8
0
  6
CONTINUOUS
 62
     7
100
AcDb2dPolyline
 66
     1
 10
0.0
 20
0.0
 30
0.0
  0
VERTEX
  5
42F
330
258
100
AcDbEntity
  8
0
  6
CONTINUOUS
 62
     7
100
AcDbVertex
100
AcDb2dVertex
 10
7.8747666094
 20
7.7003877742
 30
0.0
  0
VERTEX
  5
430
330
258
100
AcDbEntity
  8
0
  6
CONTINUOUS
 62
     7
100
AcDbVertex
100
AcDb2dVertex
 10
7.8708339006
 20
7.7025983977
 30
0.0
  0
VERTEX
  5
431
330
258
100
AcDbEntity
  8
0
  6
CONTINUOUS
 62
     7
100
AcDbVertex
100
AcDb2dVertex
 10
7.8544980043
 20
7.7105824006
 30
0.0
  0
VERTEX
  5
432
330
258
100
AcDbEntity
  8
0
  6
CONTINUOUS
 62
     7
100
AcDbVertex
100
AcDb2dVertex
 10
7.8373826388
 20
7.7170877561
 30
0.0
  0
VERTEX
  5
433
330
258
100
AcDbEntity
  8
0
  6
CONTINUOUS
 62
     7
100
AcDbVertex
100
AcDb2dVertex
 10
7.8195363195
 20
7.7220960238
 30
0.0
  0
VERTEX
  5
434
330
258
100
AcDbEntity
  8
0
  6
CONTINUOUS
 62
     7
100
AcDbVertex
100
AcDb2dVertex
 10
7.8010096338
 20
7.7255930074
 30
0.0
  0
VERTEX
  5
435
330
258
100
AcDbEntity
  8
0
  6
CONTINUOUS
 62
     7
100
AcDbVertex
100
AcDb2dVertex
 10
7.7818550975
 20
7.7275687943
 30
0.0
  0
VERTEX
  5
436
330
258
100
AcDbEntity
  8
0
  6
CONTINUOUS
 62
     7
100
AcDbVertex
100
AcDb2dVertex
 10
7.7621270063
 20
7.7280177839
 30
0.0
  0
VERTEX
  5
437
330
258
100
AcDbEntity
  8
0
  6
CONTINUOUS
 62
     7
100
AcDbVertex
100
AcDb2dVertex
 10
7.7418812815
 20
7.7269387034
 30
0.0
  0
VERTEX
  5
438
330
258
100
AcDbEntity
  8
0
  6
CONTINUOUS
 62
     7
100
AcDbVertex
100
AcDb2dVertex
 10
7.721175312
 20
7.7243346117
 30
0.0
  0
VERTEX
  5
439
330
258
100
AcDbEntity
  8
0
  6
CONTINUOUS
 62
     7
100
AcDbVertex
100
AcDb2dVertex
 10
7.7000677909
 20
7.7202128903
 30
0.0
  0
VERTEX
  5
43A
330
258
100
AcDbEntity
  8
0
  6
CONTINUOUS
 62
     7
100
AcDbVertex
100
AcDb2dVertex
 10
7.6786185498
 20
7.7145852227
 30
0.0
  0
VERTEX
  5
43B
330
258
100
AcDbEntity
  8
0
  6
CONTINUOUS
 62
     7
100
AcDbVertex
100
AcDb2dVertex
 10
7.6568883891
 20
7.7074675611
 30
0.0
  0
VERTEX
  5
43C
330
258
100
AcDbEntity
  8
0
  6
CONTINUOUS
 62
     7
100
AcDbVertex
100
AcDb2dVertex
 10
7.6349389051
 20
7.6988800813
 30
0.0
  0
VERTEX
  5
43D
330
258
100
AcDbEntity
  8
0
  6
CONTINUOUS
 62
     7
100
AcDbVertex
100
AcDb2dVertex
 10
7.6128323161
 20
7.6888471256
 30
0.0
  0
VERTEX
  5
43E
330
258
100
AcDbEntity
  8
0
  6
CONTINUOUS
 62
     7
100
AcDbVertex
100
AcDb2dVertex
 10
7.5906312855
 20
7.6773971332
 30
0.0
  0
VERTEX
  5
43F
330
258
100
AcDbEntity
  8
0
  6
CONTINUOUS
 62
     7
100
AcDbVertex
100
AcDb2dVertex
 10
7.5683987447
 20
7.6645625606
 30
0.0
  0
VERTEX
  5
440
330
258
100
AcDbEntity
  8
0
  6
CONTINUOUS
 62
     7
100
AcDbVertex
100
AcDb2dVertex
 10
7.5461977142
 20
7.6503797887
 30
0.0
  0
VERTEX
  5
441
330
258
100
AcDbEntity
  8
0
  6
CONTINUOUS
 62
     7
100
AcDbVertex
100
AcDb2dVertex
 10
7.5240911251
 20
7.6348890201
 30
0.0
  0
VERTEX
  5
442
330
258
100
AcDbEntity
  8
0
  6
CONTINUOUS
 62
     7
100
AcDbVertex
100
AcDb2dVertex
 10
7.5021416411
 20
7.618134165
 30
0.0
  0
VERTEX
  5
443
330
258
100
AcDbEntity
  8
0
  6
CONTINUOUS
 62
     7
100
AcDbVertex
100
AcDb2dVertex
 10
7.4804114804
 20
7.600162717
 30
0.0
  0
VERTEX
  5
444
330
258
100
AcDbEntity
  8
0
  6
CONTINUOUS
 62
     7
100
AcDbVertex
100
AcDb2dVertex
 10
7.4589622393
 20
7.5810256181
 30
0.0
  0
VERTEX
  5
445
330
258
100
AcDbEntity
  8
0
  6
CONTINUOUS
 62
     7
100
AcDbVertex
100
AcDb2dVertex
 10
7.4378547182
 20
7.5607771143
 30
0.0
  0
VERTEX
  5
446
330
258
100
AcDbEntity
  8
0
  6
CONTINUOUS
 62
     7
100
AcDbVertex
100
AcDb2dVertex
 10
7.4171487487
 20
7.5394746024
 30
0.0
  0
VERTEX
  5
447
330
258
100
AcDbEntity
  8
0
  6
CONTINUOUS
 62
     7
100
AcDbVertex
100
AcDb2dVertex
 10
7.3969030239
 20
7.5171784667
 30
0.0
  0
VERTEX
  5
448
330
258
100
AcDbEntity
  8
0
  6
CONTINUOUS
 62
     7
100
AcDbVertex
100
AcDb2dVertex
 10
7.3771749327
 20
7.4939519078
 30
0.0
  0
VERTEX
  5
449
330
258
100
AcDbEntity
  8
0
  6
CONTINUOUS
 62
     7
100
AcDbVertex
100
AcDb2dVertex
 10
7.3580203964
 20
7.4698607641
 30
0.0
  0
VERTEX
  5
44A
330
258
100
AcDbEntity
  8
0
  6
CONTINUOUS
 62
     7
100
AcDbVertex
100
AcDb2dVertex
 10
7.3394937107
 20
7.4449733244
 30
0.0
  0
VERTEX
  5
44B
330
258
100
AcDbEntity
  8
0
  6
CONTINUOUS
 62
     7
100
AcDbVertex
100
AcDb2dVertex
 10
7.3216473914
 20
7.4193601351
 30
0.0
  0
VERTEX
  5
44C
330
258
100
AcDbEntity
  8
0
  6
CONTINUOUS
 62
     7
100
AcDbVertex
100
AcDb2dVertex
 10
7.304532026
 20
7.3930937993
 30
0.0
  0
VERTEX
  5
44D
330
258
100
AcDbEntity
  8
0
  6
CONTINUOUS
 62
     7
100
AcDbVertex
100
AcDb2dVertex
 10
7.2881961297
 20
7.3662487719
 30
0.0
  0
VERTEX
  5
44E
330
258
100
AcDbEntity
  8
0
  6
CONTINUOUS
 62
     7
100
AcDbVertex
100
AcDb2dVertex
 10
7.2726860084
 20
7.3389011481
 30
0.0
  0
VERTEX
  5
44F
330
258
100
AcDbEntity
  8
0
  6
CONTINUOUS
 62
     7
100
AcDbVertex
100
AcDb2dVertex
 10
7.2580456273
 20
7.3111284476
 30
0.0
  0
VERTEX
  5
450
330
258
100
AcDbEntity
  8
0
  6
CONTINUOUS
 62
     7
100
AcDbVertex
100
AcDb2dVertex
 10
7.2443164861
 20
7.2830093953
 30
0.0
  0
VERTEX
  5
451
330
258
100
AcDbEntity
  8
0
  6
CONTINUOUS
 62
     7
100
AcDbVertex
100
AcDb2dVertex
 10
7.2315375015
 20
7.2546236975
 30
0.0
  0
VERTEX
  5
452
330
258
100
AcDbEntity
  8
0
  6
CONTINUOUS
 62
     7
100
AcDbVertex
100
AcDb2dVertex
 10
7.219744897
 20
7.2260518167
 30
0.0
  0
VERTEX
  5
453
330
258
100
AcDbEntity
  8
0
  6
CONTINUOUS
 62
     7
100
AcDbVertex
100
AcDb2dVertex
 10
7.2089721
 20
7.1973747429
 30
0.0
  0
VERTEX
  5
454
330
258
100
AcDbEntity
  8
0
  6
CONTINUOUS
 62
     7
100
AcDbVertex
100
AcDb2dVertex
 10
7.1992496471
 20
7.1686737644
 30
0.0
  0
VERTEX
  5
455
330
258
100
AcDbEntity
  8
0
  6
CONTINUOUS
 62
     7
100
AcDbVertex
100
AcDb2dVertex
 10
7.1906050978
 20
7.1400302373
 30
0.0
  0
VERTEX
  5
456
330
258
100
AcDbEntity
  8
0
  6
CONTINUOUS
 62
     7
100
AcDbVertex
100
AcDb2dVertex
 10
7.1830629559
 20
7.1115253548
 30
0.0
  0
VERTEX
  5
457
330
258
100
AcDbEntity
  8
0
  6
CONTINUOUS
 62
     7
100
AcDbVertex
100
AcDb2dVertex
 10
7.1766446004
 20
7.083239917
 30
0.0
  0
VERTEX
  5
458
330
258
100
AcDbEntity
  8
0
  6
CONTINUOUS
 62
     7
100
AcDbVertex
100
AcDb2dVertex
 10
7.1713682248
 20
7.0552541022
 30
0.0
  0
VERTEX
  5
459
330
258
100
AcDbEntity
  8
0
  6
CONTINUOUS
 62
     7
100
AcDbVertex
100
AcDb2dVertex
 10
7.1672487857
 20
7.027647239
 30
0.0
  0
VERTEX
  5
45A
330
258
100
AcDbEntity
  8
0
  6
CONTINUOUS
 62
     7
100
AcDbVertex
100
AcDb2dVertex
 10
7.16429796
 20
7.0004975822
 30
0.0
  0
VERTEX
  5
45B
330
258
100
AcDbEntity
  8
0
  6
CONTINUOUS
 62
     7
100
AcDbVertex
100
AcDb2dVertex
 10
7.1625241121
 20
6.9738820905
 30
0.0
  0
VERTEX
  5
45C
330
258
100
AcDbEntity
  8
0
  6
CONTINUOUS
 62
     7
100
AcDbVertex
100
AcDb2dVertex
 10
7.1619322703
 20
6.9478762082
 30
0.0
  0
VERTEX
  5
45D
330
258
100
AcDbEntity
  8
0
  6
CONTINUOUS
 62
     7
100
AcDbVertex
100
AcDb2dVertex
 10
7.1625241121
 20
6.922553652
 30
0.0
  0
VERTEX
  5
45E
330
258
100
AcDbEntity
  8
0
  6
CONTINUOUS
 62
     7
100
AcDbVertex
100
AcDb2dVertex
 10
7.16429796
 20
6.8979862014
 30
0.0
  0
VERTEX
  5
45F
330
258
100
AcDbEntity
  8
0
  6
CONTINUOUS
 62
     7
100
AcDbVertex
100
AcDb2dVertex
 10
7.1672487857
 20
6.8742434955
 30
0.0
  0
VERTEX
  5
460
330
258
100
AcDbEntity
  8
0
  6
CONTINUOUS
 62
     7
100
AcDbVertex
100
AcDb2dVertex
 10
7.1713682248
 20
6.8513928355
 30
0.0
  0
VERTEX
  5
461
330
258
100
AcDbEntity
  8
0
  6
CONTINUOUS
 62
     7
100
AcDbVertex
100
AcDb2dVertex
 10
7.1766446004
 20
6.8294989941
 30
0.0
  0
VERTEX
  5
462
330
258
100
AcDbEntity
  8
0
  6
CONTINUOUS
 62
     7
100
AcDbVertex
100
AcDb2dVertex
 10
7.1830629559
 20
6.8086240319
 30
0.0
  0
VERTEX
  5
463
330
258
100
AcDbEntity
  8
0
  6
CONTINUOUS
 62
     7
100
AcDbVertex
100
AcDb2dVertex
 10
7.1906050978
 20
6.7888271211
 30
0.0
  0
VERTEX
  5
464
330
258
100
AcDbEntity
  8
0
  6
CONTINUOUS
 62
     7
100
AcDbVertex
100
AcDb2dVertex
 10
7.1992496471
 20
6.7701643782
 30
0.0
  0
VERTEX
  5
465
330
258
100
AcDbEntity
  8
0
  6
CONTINUOUS
 62
     7
100
AcDbVertex
100
AcDb2dVertex
 10
7.2089721
 20
6.7526887049
 30
0.0
  0
VERTEX
  5
466
330
258
100
AcDbEntity
  8
0
  6
CONTINUOUS
 62
     7
100
AcDbVertex
100
AcDb2dVertex
 10
7.219744897
 20
6.7364496378
 30
0.0
  0
VERTEX
  5
467
330
258
100
AcDbEntity
  8
0
  6
CONTINUOUS
 62
     7
100
AcDbVertex
100
AcDb2dVertex
 10
7.2315375015
 20
6.7214932083
 30
0.0
  0
VERTEX
  5
468
330
258
100
AcDbEntity
  8
0
  6
CONTINUOUS
 62
     7
100
AcDbVertex
100
AcDb2dVertex
 10
7.2443164861
 20
6.707861812
 30
0.0
  0
VERTEX
  5
469
330
258
100
AcDbEntity
  8
0
  6
CONTINUOUS
 62
     7
100
AcDbVertex
100
AcDb2dVertex
 10
7.2580456273
 20
6.6955940887
 30
0.0
  0
VERTEX
  5
46A
330
258
100
AcDbEntity
  8
0
  6
CONTINUOUS
 62
     7
100
AcDbVertex
100
AcDb2dVertex
 10
7.2726860084
 20
6.6847248125
 30
0.0
  0
VERTEX
  5
46B
330
258
100
AcDbEntity
  8
0
  6
CONTINUOUS
 62
     7
100
AcDbVertex
100
AcDb2dVertex
 10
7.2842634208
 20
6.677495417
 30
0.0
  0
SEQEND
  5
46C
330
258
100
AcDbEntity
  8
0
  6
CONTINUOUS
 62
     7
  0
SPLINE
  5
259
330
1F
100
AcDbEntity
  8
0
  6
CONTINUOUS
 62
     7
100
AcDbSpline
210
0.0
220
0.0
230
1.0
 70
     8
 71
     3
 72
    31
 73
    27
 74
     0
 42
0.00000001
 43
0.00000001
 40
-0.126327606591212
 40
-0.083792593260885
 40
-0.0426397999037247
 40
0.0
 40
0.042650052604041
 40
0.0838064616921615
 40
0.1263365874035026
 40
0.1686159920086548
 40
0.2087343349921205
 40
0.2499044526050676
 40
0.2911184183033347
 40
0.3313043148547517
 40
0.3736789387538264
 40
0.4161628666139168
 40
0.457308950279901
 40
0.4999923657300712
 40
0.5426684042556256
 40
0.5838376183450027
 40
0.6263748842664444
 40
0.668642583280425
 40
0.7087955032919769
 40
0.7500387440780849
 40
0.7911902147692859
 40
0.8313258828808784
 40
0.873672393408788
 40
0.916207406739115
 40
0.9573602000962753
 40
1.0
 40
1.042650052604041
 40
1.083806461692161
 40
1.126336587403503
 10
8.479584960556698
 20
7.119467657702984
 30
0.0
 10
8.503748070801219
 20
7.137960552494347
 30
0.0
 10
8.533962406814855
 20
7.150851962410659
 30
0.0
 10
8.569468600703573
 20
7.156760455990411
 30
0.0
 10
8.607385674856374
 20
7.155782582627405
 30
0.0
 10
8.645130573338434
 20
7.149619824106547
 30
0.0
 10
8.680249650654897
 20
7.138554518383699
 30
0.0
 10
8.709735992688048
 20
7.124204171671242
 30
0.0
 10
8.732985144081535
 20
7.108123767396451
 30
0.0
 10
8.74706198312594
 20
7.090782509707687
 30
0.0
 10
8.750736102545002
 20
7.073038667004496
 30
0.0
 10
8.745741848018124
 20
7.055015276740449
 30
0.0
 10
8.73052034318925
 20
7.037399119685553
 30
0.0
 10
8.706344331014183
 20
7.021008592928974
 30
0.0
 10
8.67611682099608
 20
7.00599381329285
 30
0.0
 10
8.640595320023058
 20
6.994332486936652
 30
0.0
 10
8.602672504799047
 20
6.987566308899607
 30
0.0
 10
8.564919940735853
 20
6.985621036365862
 30
0.0
 10
8.529787242078186
 20
6.990792634960501
 30
0.0
 10
8.50028441952735
 20
7.00324291135523
 30
0.0
 10
8.47702592567826
 20
7.021193774366741
 30
0.0
 10
8.462982727412893
 20
7.044445181613991
 30
0.0
 10
8.459352094801266
 20
7.070319124489558
 30
0.0
 10
8.46437119414226
 20
7.096097675700208
 30
0.0
 10
8.479584960556698
 20
7.119467657702984
 30
0.0
 10
8.503748070801219
 20
7.137960552494347
 30
0.0
 10
8.533962406814855
 20
7.150851962410659
 30
0.0
  0
SPLINE
  5
25A
330
1F
100
AcDbEntity
  8
0
  6
CONTINUOUS
 62
     7
100
AcDbSpline
210
0.0
220
0.0
230
1.0
 70
     8
 71
     3
 72
    31
 73
    27
 74
     0
 42
0.00000001
 43
0.00000001
 40
-0.1263276065912177
 40
-0.0837925932609143
 40
-0.0426397999037538
 40
0.0
 40
0.0426500526039249
 40
0.0838064616920455
 40
0.1263365874034804
 40
0.1686159920085462
 40
0.2087343349920118
 40
0.2499044526050701
 40
0.2911184183032262
 40
0.3313043148546431
 40
0.3736789387538045
 40
0.4161628666137225
 40
0.4573089502797065
 40
0.4999923657300563
 40
0.5426684042555471
 40
0.5838376183449242
 40
0.6263748842664448
 40
0.6686425832804255
 40
0.7087955032919774
 40
0.7500387440780854
 40
0.7911902147692585
 40
0.8313258828808511
 40
0.8736723934087823
 40
0.9162074067390857
 40
0.9573602000962462
 40
1.0
 40
1.042650052603925
 40
1.083806461692046
 40
1.12633658740348
 10
7.611012851382658
 20
7.620883663389366
 30
0.0
 10
7.63517596162716
 20
7.639376558180717
 30
0.0
 10
7.665390297640786
 20
7.652267968097018
 30
0.0
 10
7.700896491529502
 20
7.658176461676764
 30
0.0
 10
7.738813565682289
 20
7.657198588313801
 30
0.0
 10
7.776558464164364
 20
7.651035829792978
 30
0.0
 10
7.81167754148083
 20
7.639970524070117
 30
0.0
 10
7.841163883513974
 20
7.62562017735766
 30
0.0
 10
7.864413034907456
 20
7.609539773082866
 30
0.0
 10
7.878489873951831
 20
7.592198515394106
 30
0.0
 10
7.88216399337098
 20
7.574454672690923
 30
0.0
 10
7.877169738844174
 20
7.556431282426877
 30
0.0
 10
7.861948234015265
 20
7.538815125371998
 30
0.0
 10
7.837772221840211
 20
7.522424598615395
 30
0.0
 10
7.807544711822118
 20
7.507409818979229
 30
0.0
 10
7.772023210849079
 20
7.49574849262304
 30
0.0
 10
7.734100395625044
 20
7.488982314585999
 30
0.0
 10
7.696347831561829
 20
7.487037042052251
 30
0.0
 10
7.661215132904159
 20
7.492208640646891
 30
0.0
 10
7.63171231035333
 20
7.504658917041614
 30
0.0
 10
7.608453816504249
 20
7.522609780053124
 30
0.0
 10
7.594410618238888
 20
7.545861187300376
 30
0.0
 10
7.590779985627241
 20
7.571735130175937
 30
0.0
 10
7.595799084968212
 20
7.597513681386589
 30
0.0
 10
7.611012851382658
 20
7.620883663389366
 30
0.0
 10
7.63517596162716
 20
7.639376558180717
 30
0.0
 10
7.665390297640786
 20
7.652267968097018
 30
0.0
  0
ARC
  5
25B
330
1F
100
AcDbEntity
  8
0
  6
CONTINUOUS
 62
     7
100
AcDbCircle
 10
8.0632080072
 20
7.295305714
 30
0.0
 40
0.2551765927144917
100
AcDbArc
 50
55.4410486881
 51
117.8981257803
  0
LINE
  5
25C
330
1F
100
AcDbEntity
  8
0
  6
CONTINUOUS
 62
     7
100
AcDbLine
 10
7.9438106486
 20
7.520825922
 30
0.0
 11
7.9951967494
 21
7.4911613574
 31
0.0
  0
ARC
  5
25D
330
1F
100
AcDbEntity
  8
0
  6
CONTINUOUS
 62
     7
100
AcDbCircle
 10
8.1163760721
 20
7.2536794452
 30
0.0
 40
0.2666122406801615
100
AcDbArc
 50
63.6361291343
 51
117.0337473179
  0
ARC
  5
25E
330
1F
100
AcDbEntity
  8
0
  6
CONTINUOUS
 62
     7
100
AcDbCircle
 10
8.3715246124
 20
7.1173183264
 30
0.0
 40
0.255176592714501
100
AcDbArc
 50
55.4410486881
 51
117.8981257803
  0
LINE
  5
25F
330
1F
100
AcDbEntity
  8
0
  6
CONTINUOUS
 62
     7
100
AcDbLine
 10
8.3035133546
 20
7.3131739698
 30
0.0
 11
8.2521272538
 21
7.3428385344
 31
0.0
  0
ARC
  5
260
330
1F
100
AcDbEntity
  8
0
  6
CONTINUOUS
 62
     7
100
AcDbCircle
 10
8.4246926773
 20
7.0756920576
 30
0.0
 40
0.2666122406801666
100
AcDbArc
 50
63.6361291343
 51
117.0337473179
  0
POLYLINE
  5
261
330
1F
100
AcDbEntity
  8
0
  6
CONTINUOUS
 62
     7
100
AcDb2dPolyline
 66
     1
 10
0.0
 20
0.0
 30
0.0
  0
VERTEX
  5
46D
330
261
100
AcDbEntity
  8
0
  6
CONTINUOUS
 62
     7
100
AcDbVertex
100
AcDb2dVertex
 10
7.8498118593
 20
6.3510112529
 30
0.0
  0
VERTEX
  5
46E
330
261
100
AcDbEntity
  8
0
  6
CONTINUOUS
 62
     7
100
AcDbVertex
100
AcDb2dVertex
 10
7.8381443927
 20
6.3583013445
 30
0.0
  0
VERTEX
  5
46F
330
261
100
AcDbEntity
  8
0
  6
CONTINUOUS
 62
     7
100
AcDbVertex
100
AcDb2dVertex
 10
7.823515384
 20
6.369174127
 30
0.0
  0
VERTEX
  5
470
330
261
100
AcDbEntity
  8
0
  6
CONTINUOUS
 62
     7
100
AcDbVertex
100
AcDb2dVertex
 10
7.809797061
 20
6.3814439824
 30
0.0
  0
VERTEX
  5
471
330
261
100
AcDbEntity
  8
0
  6
CONTINUOUS
 62
     7
100
AcDbVertex
100
AcDb2dVertex
 10
7.7970282766
 20
6.3950761599
 30
0.0
  0
VERTEX
  5
472
330
261
100
AcDbEntity
  8
0
  6
CONTINUOUS
 62
     7
100
AcDbVertex
100
AcDb2dVertex
 10
7.7852451945
 20
6.4100320506
 30
0.0
  0
VERTEX
  5
473
330
261
100
AcDbEntity
  8
0
  6
CONTINUOUS
 62
     7
100
AcDbVertex
100
AcDb2dVertex
 10
7.7744811866
 20
6.4262692967
 30
0.0
  0
VERTEX
  5
474
330
261
100
AcDbEntity
  8
0
  6
CONTINUOUS
 62
     7
100
AcDbVertex
100
AcDb2dVertex
 10
7.7647667386
 20
6.443741911
 30
0.0
  0
VERTEX
  5
475
330
261
100
AcDbEntity
  8
0
  6
CONTINUOUS
 62
     7
100
AcDbVertex
100
AcDb2dVertex
 10
7.7561293637
 20
6.4624004079
 30
0.0
  0
VERTEX
  5
476
330
261
100
AcDbEntity
  8
0
  6
CONTINUOUS
 62
     7
100
AcDbVertex
100
AcDb2dVertex
 10
7.7485935246
 20
6.4821919429
 30
0.0
  0
VERTEX
  5
477
330
261
100
AcDbEntity
  8
0
  6
CONTINUOUS
 62
     7
100
AcDbVertex
100
AcDb2dVertex
 10
7.7421805643
 20
6.5030604626
 30
0.0
  0
VERTEX
  5
478
330
261
100
AcDbEntity
  8
0
  6
CONTINUOUS
 62
     7
100
AcDbVertex
100
AcDb2dVertex
 10
7.7369086454
 20
6.5249468633
 30
0.0
  0
VERTEX
  5
479
330
261
100
AcDbEntity
  8
0
  6
CONTINUOUS
 62
     7
100
AcDbVertex
100
AcDb2dVertex
 10
7.7327926992
 20
6.5477891585
 30
0.0
  0
VERTEX
  5
47A
330
261
100
AcDbEntity
  8
0
  6
CONTINUOUS
 62
     7
100
AcDbVertex
100
AcDb2dVertex
 10
7.7298443826
 20
6.5715226545
 30
0.0
  0
VERTEX
  5
47B
330
261
100
AcDbEntity
  8
0
  6
CONTINUOUS
 62
     7
100
AcDbVertex
100
AcDb2dVertex
 10
7.7280720459
 20
6.5960801336
 30
0.0
  0
VERTEX
  5
47C
330
261
100
AcDbEntity
  8
0
  6
CONTINUOUS
 62
     7
100
AcDbVertex
100
AcDb2dVertex
 10
7.7274807088
 20
6.6213920441
 30
0.0
  0
VERTEX
  5
47D
330
261
100
AcDbEntity
  8
0
  6
CONTINUOUS
 62
     7
100
AcDbVertex
100
AcDb2dVertex
 10
7.7280720459
 20
6.647386698
 30
0.0
  0
VERTEX
  5
47E
330
261
100
AcDbEntity
  8
0
  6
CONTINUOUS
 62
     7
100
AcDbVertex
100
AcDb2dVertex
 10
7.7298443826
 20
6.6739904733
 30
0.0
  0
VERTEX
  5
47F
330
261
100
AcDbEntity
  8
0
  6
CONTINUOUS
 62
     7
100
AcDbVertex
100
AcDb2dVertex
 10
7.7327926992
 20
6.7011280232
 30
0.0
  0
VERTEX
  5
480
330
261
100
AcDbEntity
  8
0
  6
CONTINUOUS
 62
     7
100
AcDbVertex
100
AcDb2dVertex
 10
7.7369086454
 20
6.7287224889
 30
0.0
  0
VERTEX
  5
481
330
261
100
AcDbEntity
  8
0
  6
CONTINUOUS
 62
     7
100
AcDbVertex
100
AcDb2dVertex
 10
7.7421805643
 20
6.7566957175
 30
0.0
  0
VERTEX
  5
482
330
261
100
AcDbEntity
  8
0
  6
CONTINUOUS
 62
     7
100
AcDbVertex
100
AcDb2dVertex
 10
7.7485935246
 20
6.7849684835
 30
0.0
  0
VERTEX
  5
483
330
261
100
AcDbEntity
  8
0
  6
CONTINUOUS
 62
     7
100
AcDbVertex
100
AcDb2dVertex
 10
7.7561293637
 20
6.8134607131
 30
0.0
  0
VERTEX
  5
484
330
261
100
AcDbEntity
  8
0
  6
CONTINUOUS
 62
     7
100
AcDbVertex
100
AcDb2dVertex
 10
7.7647667386
 20
6.8420917108
 30
0.0
  0
VERTEX
  5
485
330
261
100
AcDbEntity
  8
0
  6
CONTINUOUS
 62
     7
100
AcDbVertex
100
AcDb2dVertex
 10
7.7744811866
 20
6.8707803881
 30
0.0
  0
VERTEX
  5
486
330
261
100
AcDbEntity
  8
0
  6
CONTINUOUS
 62
     7
100
AcDbVertex
100
AcDb2dVertex
 10
7.7852451945
 20
6.8994454931
 30
0.0
  0
VERTEX
  5
487
330
261
100
AcDbEntity
  8
0
  6
CONTINUOUS
 62
     7
100
AcDbVertex
100
AcDb2dVertex
 10
7.7970282766
 20
6.928005841
 30
0.0
  0
VERTEX
  5
488
330
261
100
AcDbEntity
  8
0
  6
CONTINUOUS
 62
     7
100
AcDbVertex
100
AcDb2dVertex
 10
7.809797061
 20
6.9563805431
 30
0.0
  0
VERTEX
  5
489
330
261
100
AcDbEntity
  8
0
  6
CONTINUOUS
 62
     7
100
AcDbVertex
100
AcDb2dVertex
 10
7.823515384
 20
6.984489237
 30
0.0
  0
VERTEX
  5
48A
330
261
100
AcDbEntity
  8
0
  6
CONTINUOUS
 62
     7
100
AcDbVertex
100
AcDb2dVertex
 10
7.8381443927
 20
7.0122523135
 30
0.0
  0
VERTEX
  5
48B
330
261
100
AcDbEntity
  8
0
  6
CONTINUOUS
 62
     7
100
AcDbVertex
100
AcDb2dVertex
 10
7.853642655
 20
7.0395911422
 30
0.0
  0
VERTEX
  5
48C
330
261
100
AcDbEntity
  8
0
  6
CONTINUOUS
 62
     7
100
AcDbVertex
100
AcDb2dVertex
 10
7.8699662768
 20
7.0664282943
 30
0.0
  0
VERTEX
  5
48D
330
261
100
AcDbEntity
  8
0
  6
CONTINUOUS
 62
     7
100
AcDbVertex
100
AcDb2dVertex
 10
7.8870690264
 20
7.0926877619
 30
0.0
  0
VERTEX
  5
48E
330
261
100
AcDbEntity
  8
0
  6
CONTINUOUS
 62
     7
100
AcDbVertex
100
AcDb2dVertex
 10
7.9049024656
 20
7.1182951731
 30
0.0
  0
VERTEX
  5
48F
330
261
100
AcDbEntity
  8
0
  6
CONTINUOUS
 62
     7
100
AcDbVertex
100
AcDb2dVertex
 10
7.9234160868
 20
7.1431780028
 30
0.0
  0
VERTEX
  5
490
330
261
100
AcDbEntity
  8
0
  6
CONTINUOUS
 62
     7
100
AcDbVertex
100
AcDb2dVertex
 10
7.9425574557
 20
7.1672657782
 30
0.0
  0
VERTEX
  5
491
330
261
100
AcDbEntity
  8
0
  6
CONTINUOUS
 62
     7
100
AcDbVertex
100
AcDb2dVertex
 10
7.9622723604
 20
7.1904902779
 30
0.0
  0
VERTEX
  5
492
330
261
100
AcDbEntity
  8
0
  6
CONTINUOUS
 62
     7
100
AcDbVertex
100
AcDb2dVertex
 10
7.9825049645
 20
7.2127857258
 30
0.0
  0
VERTEX
  5
493
330
261
100
AcDbEntity
  8
0
  6
CONTINUOUS
 62
     7
100
AcDbVertex
100
AcDb2dVertex
 10
8.0031979653
 20
7.2340889769
 30
0.0
  0
VERTEX
  5
494
330
261
100
AcDbEntity
  8
0
  6
CONTINUOUS
 62
     7
100
AcDbVertex
100
AcDb2dVertex
 10
8.0242927564
 20
7.2543396963
 30
0.0
  0
VERTEX
  5
495
330
261
100
AcDbEntity
  8
0
  6
CONTINUOUS
 62
     7
100
AcDbVertex
100
AcDb2dVertex
 10
8.0457295932
 20
7.2734805301
 30
0.0
  0
VERTEX
  5
496
330
261
100
AcDbEntity
  8
0
  6
CONTINUOUS
 62
     7
100
AcDbVertex
100
AcDb2dVertex
 10
8.0674477625
 20
7.2914572677
 30
0.0
  0
VERTEX
  5
497
330
261
100
AcDbEntity
  8
0
  6
CONTINUOUS
 62
     7
100
AcDbVertex
100
AcDb2dVertex
 10
8.0893857543
 20
7.3082189957
 30
0.0
  0
SEQEND
  5
498
330
261
100
AcDbEntity
  8
0
  6
CONTINUOUS
 62
     7
  0
LINE
  5
262
330
1F
100
AcDbEntity
  8
0
  6
CONTINUOUS
 62
     7
100
AcDbLine
 10
8.0379996534
 20
7.3378835603
 30
0.0
 11
8.0893857543
 21
7.3082189957
 31
0.0
  0
POLYLINE
  5
263
330
1F
100
AcDbEntity
  8
0
  6
CONTINUOUS
 62
     7
100
AcDb2dPolyline
 66
     1
 10
0.0
 20
0.0
 30
0.0
  0
VERTEX
  5
499
330
263
100
AcDbEntity
  8
0
  6
CONTINUOUS
 62
     7
100
AcDbVertex
100
AcDb2dVertex
 10
8.0379996534
 20
7.3378835603
 30
0.0
  0
VERTEX
  5
49A
330
263
100
AcDbEntity
  8
0
  6
CONTINUOUS
 62
     7
100
AcDbVertex
100
AcDb2dVertex
 10
8.0160616616
 20
7.3211218323
 30
0.0
  0
VERTEX
  5
49B
330
263
100
AcDbEntity
  8
0
  6
CONTINUOUS
 62
     7
100
AcDbVertex
100
AcDb2dVertex
 10
7.9943434923
 20
7.3031450947
 30
0.0
  0
VERTEX
  5
49C
330
263
100
AcDbEntity
  8
0
  6
CONTINUOUS
 62
     7
100
AcDbVertex
100
AcDb2dVertex
 10
7.9729066555
 20
7.2840042609
 30
0.0
  0
VERTEX
  5
49D
330
263
100
AcDbEntity
  8
0
  6
CONTINUOUS
 62
     7
100
AcDbVertex
100
AcDb2dVertex
 10
7.9518118645
 20
7.2637535415
 30
0.0
  0
VERTEX
  5
49E
330
263
100
AcDbEntity
  8
0
  6
CONTINUOUS
 62
     7
100
AcDbVertex
100
AcDb2dVertex
 10
7.9311188636
 20
7.2424502904
 30
0.0
  0
VERTEX
  5
49F
330
263
100
AcDbEntity
  8
0
  6
CONTINUOUS
 62
     7
100
AcDbVertex
100
AcDb2dVertex
 10
7.9108862596
 20
7.2201548425
 30
0.0
  0
VERTEX
  5
4A0
330
263
100
AcDbEntity
  8
0
  6
CONTINUOUS
 62
     7
100
AcDbVertex
100
AcDb2dVertex
 10
7.8911713549
 20
7.1969303428
 30
0.0
  0
VERTEX
  5
4A1
330
263
100
AcDbEntity
  8
0
  6
CONTINUOUS
 62
     7
100
AcDbVertex
100
AcDb2dVertex
 10
7.8720299859
 20
7.1728425675
 30
0.0
  0
VERTEX
  5
4A2
330
263
100
AcDbEntity
  8
0
  6
CONTINUOUS
 62
     7
100
AcDbVertex
100
AcDb2dVertex
 10
7.8535163648
 20
7.1479597377
 30
0.0
  0
VERTEX
  5
4A3
330
263
100
AcDbEntity
  8
0
  6
CONTINUOUS
 62
     7
100
AcDbVertex
100
AcDb2dVertex
 10
7.8356829255
 20
7.1223523265
 30
0.0
  0
VERTEX
  5
4A4
330
263
100
AcDbEntity
  8
0
  6
CONTINUOUS
 62
     7
100
AcDbVertex
100
AcDb2dVertex
 10
7.8185801759
 20
7.0960928589
 30
0.0
  0
VERTEX
  5
4A5
330
263
100
AcDbEntity
  8
0
  6
CONTINUOUS
 62
     7
100
AcDbVertex
100
AcDb2dVertex
 10
7.8022565541
 20
7.0692557068
 30
0.0
  0
VERTEX
  5
4A6
330
263
100
AcDbEntity
  8
0
  6
CONTINUOUS
 62
     7
100
AcDbVertex
100
AcDb2dVertex
 10
7.7867582919
 20
7.0419168781
 30
0.0
  0
VERTEX
  5
4A7
330
263
100
AcDbEntity
  8
0
  6
CONTINUOUS
 62
     7
100
AcDbVertex
100
AcDb2dVertex
 10
7.7721292832
 20
7.0141538016
 30
0.0
  0
VERTEX
  5
4A8
330
263
100
AcDbEntity
  8
0
  6
CONTINUOUS
 62
     7
100
AcDbVertex
100
AcDb2dVertex
 10
7.7584109602
 20
6.9860451077
 30
0.0
  0
VERTEX
  5
4A9
330
263
100
AcDbEntity
  8
0
  6
CONTINUOUS
 62
     7
100
AcDbVertex
100
AcDb2dVertex
 10
7.7456421758
 20
6.9576704056
 30
0.0
  0
VERTEX
  5
4AA
330
263
100
AcDbEntity
  8
0
  6
CONTINUOUS
 62
     7
100
AcDbVertex
100
AcDb2dVertex
 10
7.7338590936
 20
6.9291100578
 30
0.0
  0
VERTEX
  5
4AB
330
263
100
AcDbEntity
  8
0
  6
CONTINUOUS
 62
     7
100
AcDbVertex
100
AcDb2dVertex
 10
7.7230950857
 20
6.9004449527
 30
0.0
  0
VERTEX
  5
4AC
330
263
100
AcDbEntity
  8
0
  6
CONTINUOUS
 62
     7
100
AcDbVertex
100
AcDb2dVertex
 10
7.7133806377
 20
6.8717562754
 30
0.0
  0
VERTEX
  5
4AD
330
263
100
AcDbEntity
  8
0
  6
CONTINUOUS
 62
     7
100
AcDbVertex
100
AcDb2dVertex
 10
7.7047432628
 20
6.8431252777
 30
0.0
  0
VERTEX
  5
4AE
330
263
100
AcDbEntity
  8
0
  6
CONTINUOUS
 62
     7
100
AcDbVertex
100
AcDb2dVertex
 10
7.6972074237
 20
6.8146330481
 30
0.0
  0
VERTEX
  5
4AF
330
263
100
AcDbEntity
  8
0
  6
CONTINUOUS
 62
     7
100
AcDbVertex
100
AcDb2dVertex
 10
7.6907944634
 20
6.7863602821
 30
0.0
  0
VERTEX
  5
4B0
330
263
100
AcDbEntity
  8
0
  6
CONTINUOUS
 62
     7
100
AcDbVertex
100
AcDb2dVertex
 10
7.6855225446
 20
6.7583870535
 30
0.0
  0
VERTEX
  5
4B1
330
263
100
AcDbEntity
  8
0
  6
CONTINUOUS
 62
     7
100
AcDbVertex
100
AcDb2dVertex
 10
7.6814065983
 20
6.7307925878
 30
0.0
  0
VERTEX
  5
4B2
330
263
100
AcDbEntity
  8
0
  6
CONTINUOUS
 62
     7
100
AcDbVertex
100
AcDb2dVertex
 10
7.6784582817
 20
6.7036550379
 30
0.0
  0
VERTEX
  5
4B3
330
263
100
AcDbEntity
  8
0
  6
CONTINUOUS
 62
     7
100
AcDbVertex
100
AcDb2dVertex
 10
7.6766859451
 20
6.6770512626
 30
0.0
  0
VERTEX
  5
4B4
330
263
100
AcDbEntity
  8
0
  6
CONTINUOUS
 62
     7
100
AcDbVertex
100
AcDb2dVertex
 10
7.6760946079
 20
6.6510566087
 30
0.0
  0
VERTEX
  5
4B5
330
263
100
AcDbEntity
  8
0
  6
CONTINUOUS
 62
     7
100
AcDbVertex
100
AcDb2dVertex
 10
7.6766859451
 20
6.6257446982
 30
0.0
  0
VERTEX
  5
4B6
330
263
100
AcDbEntity
  8
0
  6
CONTINUOUS
 62
     7
100
AcDbVertex
100
AcDb2dVertex
 10
7.6784582817
 20
6.6011872191
 30
0.0
  0
VERTEX
  5
4B7
330
263
100
AcDbEntity
  8
0
  6
CONTINUOUS
 62
     7
100
AcDbVertex
100
AcDb2dVertex
 10
7.6814065983
 20
6.5774537231
 30
0.0
  0
VERTEX
  5
4B8
330
263
100
AcDbEntity
  8
0
  6
CONTINUOUS
 62
     7
100
AcDbVertex
100
AcDb2dVertex
 10
7.6855225446
 20
6.5546114279
 30
0.0
  0
VERTEX
  5
4B9
330
263
100
AcDbEntity
  8
0
  6
CONTINUOUS
 62
     7
100
AcDbVertex
100
AcDb2dVertex
 10
7.6907944634
 20
6.5327250272
 30
0.0
  0
VERTEX
  5
4BA
330
263
100
AcDbEntity
  8
0
  6
CONTINUOUS
 62
     7
100
AcDbVertex
100
AcDb2dVertex
 10
7.6972074237
 20
6.5118565075
 30
0.0
  0
VERTEX
  5
4BB
330
263
100
AcDbEntity
  8
0
  6
CONTINUOUS
 62
     7
100
AcDbVertex
100
AcDb2dVertex
 10
7.7047432628
 20
6.4920649725
 30
0.0
  0
VERTEX
  5
4BC
330
263
100
AcDbEntity
  8
0
  6
CONTINUOUS
 62
     7
100
AcDbVertex
100
AcDb2dVertex
 10
7.7133806377
 20
6.4734064756
 30
0.0
  0
VERTEX
  5
4BD
330
263
100
AcDbEntity
  8
0
  6
CONTINUOUS
 62
     7
100
AcDbVertex
100
AcDb2dVertex
 10
7.7230950857
 20
6.4559338613
 30
0.0
  0
VERTEX
  5
4BE
330
263
100
AcDbEntity
  8
0
  6
CONTINUOUS
 62
     7
100
AcDbVertex
100
AcDb2dVertex
 10
7.7338590936
 20
6.4396966152
 30
0.0
  0
VERTEX
  5
4BF
330
263
100
AcDbEntity
  8
0
  6
CONTINUOUS
 62
     7
100
AcDbVertex
100
AcDb2dVertex
 10
7.7456421758
 20
6.4247407245
 30
0.0
  0
VERTEX
  5
4C0
330
263
100
AcDbEntity
  8
0
  6
CONTINUOUS
 62
     7
100
AcDbVertex
100
AcDb2dVertex
 10
7.7584109602
 20
6.411108547
 30
0.0
  0
VERTEX
  5
4C1
330
263
100
AcDbEntity
  8
0
  6
CONTINUOUS
 62
     7
100
AcDbVertex
100
AcDb2dVertex
 10
7.7721292832
 20
6.3988386917
 30
0.0
  0
VERTEX
  5
4C2
330
263
100
AcDbEntity
  8
0
  6
CONTINUOUS
 62
     7
100
AcDbVertex
100
AcDb2dVertex
 10
7.7867582919
 20
6.3879659091
 30
0.0
  0
VERTEX
  5
4C3
330
263
100
AcDbEntity
  8
0
  6
CONTINUOUS
 62
     7
100
AcDbVertex
100
AcDb2dVertex
 10
7.8022565541
 20
6.3785209931
 30
0.0
  0
VERTEX
  5
4C4
330
263
100
AcDbEntity
  8
0
  6
CONTINUOUS
 62
     7
100
AcDbVertex
100
AcDb2dVertex
 10
7.8185801759
 20
6.3705306935
 30
0.0
  0
VERTEX
  5
4C5
330
263
100
AcDbEntity
  8
0
  6
CONTINUOUS
 62
     7
100
AcDbVertex
100
AcDb2dVertex
 10
7.8252384844
 20
6.3677830802
 30
0.0
  0
SEQEND
  5
4C6
330
263
100
AcDbEntity
  8
0
  6
CONTINUOUS
 62
     7
  0
POLYLINE
  5
264
330
1F
100
AcDbEntity
  8
0
  6
CONTINUOUS
 62
     7
100
AcDb2dPolyline
 66
     1
 10
0.0
 20
0.0
 30
0.0
  0
VERTEX
  5
4C7
330
264
100
AcDbEntity
  8
0
  6
CONTINUOUS
 62
     7
100
AcDbVertex
100
AcDb2dVertex
 10
8.3463162586
 20
7.1598961727
 30
0.0
  0
VERTEX
  5
4C8
330
264
100
AcDbEntity
  8
0
  6
CONTINUOUS
 62
     7
100
AcDbVertex
100
AcDb2dVertex
 10
8.3243782668
 20
7.1431344447
 30
0.0
  0
VERTEX
  5
4C9
330
264
100
AcDbEntity
  8
0
  6
CONTINUOUS
 62
     7
100
AcDbVertex
100
AcDb2dVertex
 10
8.3026600975
 20
7.125157707
 30
0.0
  0
VERTEX
  5
4CA
330
264
100
AcDbEntity
  8
0
  6
CONTINUOUS
 62
     7
100
AcDbVertex
100
AcDb2dVertex
 10
8.2812232607
 20
7.1060168733
 30
0.0
  0
VERTEX
  5
4CB
330
264
100
AcDbEntity
  8
0
  6
CONTINUOUS
 62
     7
100
AcDbVertex
100
AcDb2dVertex
 10
8.2601284697
 20
7.0857661539
 30
0.0
  0
VERTEX
  5
4CC
330
264
100
AcDbEntity
  8
0
  6
CONTINUOUS
 62
     7
100
AcDbVertex
100
AcDb2dVertex
 10
8.2394354688
 20
7.0644629028
 30
0.0
  0
VERTEX
  5
4CD
330
264
100
AcDbEntity
  8
0
  6
CONTINUOUS
 62
     7
100
AcDbVertex
100
AcDb2dVertex
 10
8.2192028648
 20
7.0421674549
 30
0.0
  0
VERTEX
  5
4CE
330
264
100
AcDbEntity
  8
0
  6
CONTINUOUS
 62
     7
100
AcDbVertex
100
AcDb2dVertex
 10
8.1994879601
 20
7.0189429552
 30
0.0
  0
VERTEX
  5
4CF
330
264
100
AcDbEntity
  8
0
  6
CONTINUOUS
 62
     7
100
AcDbVertex
100
AcDb2dVertex
 10
8.1803465911
 20
6.9948551798
 30
0.0
  0
VERTEX
  5
4D0
330
264
100
AcDbEntity
  8
0
  6
CONTINUOUS
 62
     7
100
AcDbVertex
100
AcDb2dVertex
 10
8.16183297
 20
6.9699723501
 30
0.0
  0
VERTEX
  5
4D1
330
264
100
AcDbEntity
  8
0
  6
CONTINUOUS
 62
     7
100
AcDbVertex
100
AcDb2dVertex
 10
8.1439995307
 20
6.9443649389
 30
0.0
  0
VERTEX
  5
4D2
330
264
100
AcDbEntity
  8
0
  6
CONTINUOUS
 62
     7
100
AcDbVertex
100
AcDb2dVertex
 10
8.1268967811
 20
6.9181054713
 30
0.0
  0
VERTEX
  5
4D3
330
264
100
AcDbEntity
  8
0
  6
CONTINUOUS
 62
     7
100
AcDbVertex
100
AcDb2dVertex
 10
8.1105731593
 20
6.8912683192
 30
0.0
  0
VERTEX
  5
4D4
330
264
100
AcDbEntity
  8
0
  6
CONTINUOUS
 62
     7
100
AcDbVertex
100
AcDb2dVertex
 10
8.0950748971
 20
6.8639294905
 30
0.0
  0
VERTEX
  5
4D5
330
264
100
AcDbEntity
  8
0
  6
CONTINUOUS
 62
     7
100
AcDbVertex
100
AcDb2dVertex
 10
8.0804458884
 20
6.836166414
 30
0.0
  0
VERTEX
  5
4D6
330
264
100
AcDbEntity
  8
0
  6
CONTINUOUS
 62
     7
100
AcDbVertex
100
AcDb2dVertex
 10
8.0667275654
 20
6.8080577201
 30
0.0
  0
VERTEX
  5
4D7
330
264
100
AcDbEntity
  8
0
  6
CONTINUOUS
 62
     7
100
AcDbVertex
100
AcDb2dVertex
 10
8.053958781
 20
6.7796830179
 30
0.0
  0
VERTEX
  5
4D8
330
264
100
AcDbEntity
  8
0
  6
CONTINUOUS
 62
     7
100
AcDbVertex
100
AcDb2dVertex
 10
8.0421756988
 20
6.7511226701
 30
0.0
  0
VERTEX
  5
4D9
330
264
100
AcDbEntity
  8
0
  6
CONTINUOUS
 62
     7
100
AcDbVertex
100
AcDb2dVertex
 10
8.0314116909
 20
6.7224575651
 30
0.0
  0
VERTEX
  5
4DA
330
264
100
AcDbEntity
  8
0
  6
CONTINUOUS
 62
     7
100
AcDbVertex
100
AcDb2dVertex
 10
8.0216972429
 20
6.6937688878
 30
0.0
  0
VERTEX
  5
4DB
330
264
100
AcDbEntity
  8
0
  6
CONTINUOUS
 62
     7
100
AcDbVertex
100
AcDb2dVertex
 10
8.013059868
 20
6.6651378901
 30
0.0
  0
VERTEX
  5
4DC
330
264
100
AcDbEntity
  8
0
  6
CONTINUOUS
 62
     7
100
AcDbVertex
100
AcDb2dVertex
 10
8.0055240289
 20
6.6366456605
 30
0.0
  0
VERTEX
  5
4DD
330
264
100
AcDbEntity
  8
0
  6
CONTINUOUS
 62
     7
100
AcDbVertex
100
AcDb2dVertex
 10
7.9991110686
 20
6.6083728945
 30
0.0
  0
VERTEX
  5
4DE
330
264
100
AcDbEntity
  8
0
  6
CONTINUOUS
 62
     7
100
AcDbVertex
100
AcDb2dVertex
 10
7.9938391498
 20
6.5803996659
 30
0.0
  0
VERTEX
  5
4DF
330
264
100
AcDbEntity
  8
0
  6
CONTINUOUS
 62
     7
100
AcDbVertex
100
AcDb2dVertex
 10
7.9897232035
 20
6.5528052002
 30
0.0
  0
VERTEX
  5
4E0
330
264
100
AcDbEntity
  8
0
  6
CONTINUOUS
 62
     7
100
AcDbVertex
100
AcDb2dVertex
 10
7.9867748869
 20
6.5256676503
 30
0.0
  0
VERTEX
  5
4E1
330
264
100
AcDbEntity
  8
0
  6
CONTINUOUS
 62
     7
100
AcDbVertex
100
AcDb2dVertex
 10
7.9850025503
 20
6.499063875
 30
0.0
  0
VERTEX
  5
4E2
330
264
100
AcDbEntity
  8
0
  6
CONTINUOUS
 62
     7
100
AcDbVertex
100
AcDb2dVertex
 10
7.9844112131
 20
6.4730692211
 30
0.0
  0
VERTEX
  5
4E3
330
264
100
AcDbEntity
  8
0
  6
CONTINUOUS
 62
     7
100
AcDbVertex
100
AcDb2dVertex
 10
7.9850025503
 20
6.4477573105
 30
0.0
  0
VERTEX
  5
4E4
330
264
100
AcDbEntity
  8
0
  6
CONTINUOUS
 62
     7
100
AcDbVertex
100
AcDb2dVertex
 10
7.9867748869
 20
6.4231998315
 30
0.0
  0
VERTEX
  5
4E5
330
264
100
AcDbEntity
  8
0
  6
CONTINUOUS
 62
     7
100
AcDbVertex
100
AcDb2dVertex
 10
7.9897232035
 20
6.3994663355
 30
0.0
  0
VERTEX
  5
4E6
330
264
100
AcDbEntity
  8
0
  6
CONTINUOUS
 62
     7
100
AcDbVertex
100
AcDb2dVertex
 10
7.9938391498
 20
6.3766240402
 30
0.0
  0
VERTEX
  5
4E7
330
264
100
AcDbEntity
  8
0
  6
CONTINUOUS
 62
     7
100
AcDbVertex
100
AcDb2dVertex
 10
7.9991110686
 20
6.3547376396
 30
0.0
  0
VERTEX
  5
4E8
330
264
100
AcDbEntity
  8
0
  6
CONTINUOUS
 62
     7
100
AcDbVertex
100
AcDb2dVertex
 10
8.0055240289
 20
6.3338691199
 30
0.0
  0
VERTEX
  5
4E9
330
264
100
AcDbEntity
  8
0
  6
CONTINUOUS
 62
     7
100
AcDbVertex
100
AcDb2dVertex
 10
8.013059868
 20
6.3140775849
 30
0.0
  0
VERTEX
  5
4EA
330
264
100
AcDbEntity
  8
0
  6
CONTINUOUS
 62
     7
100
AcDbVertex
100
AcDb2dVertex
 10
8.0216972429
 20
6.295419088
 30
0.0
  0
VERTEX
  5
4EB
330
264
100
AcDbEntity
  8
0
  6
CONTINUOUS
 62
     7
100
AcDbVertex
100
AcDb2dVertex
 10
8.0314116909
 20
6.2779464737
 30
0.0
  0
VERTEX
  5
4EC
330
264
100
AcDbEntity
  8
0
  6
CONTINUOUS
 62
     7
100
AcDbVertex
100
AcDb2dVertex
 10
8.0421756988
 20
6.2617092276
 30
0.0
  0
VERTEX
  5
4ED
330
264
100
AcDbEntity
  8
0
  6
CONTINUOUS
 62
     7
100
AcDbVertex
100
AcDb2dVertex
 10
8.053958781
 20
6.2467533369
 30
0.0
  0
VERTEX
  5
4EE
330
264
100
AcDbEntity
  8
0
  6
CONTINUOUS
 62
     7
100
AcDbVertex
100
AcDb2dVertex
 10
8.0667275654
 20
6.2331211594
 30
0.0
  0
VERTEX
  5
4EF
330
264
100
AcDbEntity
  8
0
  6
CONTINUOUS
 62
     7
100
AcDbVertex
100
AcDb2dVertex
 10
8.0804458884
 20
6.220851304
 30
0.0
  0
VERTEX
  5
4F0
330
264
100
AcDbEntity
  8
0
  6
CONTINUOUS
 62
     7
100
AcDbVertex
100
AcDb2dVertex
 10
8.0950748971
 20
6.2099785215
 30
0.0
  0
VERTEX
  5
4F1
330
264
100
AcDbEntity
  8
0
  6
CONTINUOUS
 62
     7
100
AcDbVertex
100
AcDb2dVertex
 10
8.1105731593
 20
6.2005336055
 30
0.0
  0
VERTEX
  5
4F2
330
264
100
AcDbEntity
  8
0
  6
CONTINUOUS
 62
     7
100
AcDbVertex
100
AcDb2dVertex
 10
8.1268967811
 20
6.1925433059
 30
0.0
  0
VERTEX
  5
4F3
330
264
100
AcDbEntity
  8
0
  6
CONTINUOUS
 62
     7
100
AcDbVertex
100
AcDb2dVertex
 10
8.1335550896
 20
6.1897956926
 30
0.0
  0
SEQEND
  5
4F4
330
264
100
AcDbEntity
  8
0
  6
CONTINUOUS
 62
     7
  0
POLYLINE
  5
265
330
1F
100
AcDbEntity
  8
0
  6
CONTINUOUS
 62
     7
100
AcDb2dPolyline
 66
     1
 10
0.0
 20
0.0
 30
0.0
  0
VERTEX
  5
4F5
330
265
100
AcDbEntity
  8
0
  6
CONTINUOUS
 62
     7
100
AcDbVertex
100
AcDb2dVertex
 10
8.1581284645
 20
6.1730238653
 30
0.0
  0
VERTEX
  5
4F6
330
265
100
AcDbEntity
  8
0
  6
CONTINUOUS
 62
     7
100
AcDbVertex
100
AcDb2dVertex
 10
8.1464609979
 20
6.1803139569
 30
0.0
  0
VERTEX
  5
4F7
330
265
100
AcDbEntity
  8
0
  6
CONTINUOUS
 62
     7
100
AcDbVertex
100
AcDb2dVertex
 10
8.1318319892
 20
6.1911867394
 30
0.0
  0
VERTEX
  5
4F8
330
265
100
AcDbEntity
  8
0
  6
CONTINUOUS
 62
     7
100
AcDbVertex
100
AcDb2dVertex
 10
8.1181136662
 20
6.2034565947
 30
0.0
  0
VERTEX
  5
4F9
330
265
100
AcDbEntity
  8
0
  6
CONTINUOUS
 62
     7
100
AcDbVertex
100
AcDb2dVertex
 10
8.1053448818
 20
6.2170887722
 30
0.0
  0
VERTEX
  5
4FA
330
265
100
AcDbEntity
  8
0
  6
CONTINUOUS
 62
     7
100
AcDbVertex
100
AcDb2dVertex
 10
8.0935617997
 20
6.232044663
 30
0.0
  0
VERTEX
  5
4FB
330
265
100
AcDbEntity
  8
0
  6
CONTINUOUS
 62
     7
100
AcDbVertex
100
AcDb2dVertex
 10
8.0827977918
 20
6.2482819091
 30
0.0
  0
VERTEX
  5
4FC
330
265
100
AcDbEntity
  8
0
  6
CONTINUOUS
 62
     7
100
AcDbVertex
100
AcDb2dVertex
 10
8.0730833438
 20
6.2657545234
 30
0.0
  0
VERTEX
  5
4FD
330
265
100
AcDbEntity
  8
0
  6
CONTINUOUS
 62
     7
100
AcDbVertex
100
AcDb2dVertex
 10
8.0644459689
 20
6.2844130203
 30
0.0
  0
VERTEX
  5
4FE
330
265
100
AcDbEntity
  8
0
  6
CONTINUOUS
 62
     7
100
AcDbVertex
100
AcDb2dVertex
 10
8.0569101298
 20
6.3042045553
 30
0.0
  0
VERTEX
  5
4FF
330
265
100
AcDbEntity
  8
0
  6
CONTINUOUS
 62
     7
100
AcDbVertex
100
AcDb2dVertex
 10
8.0504971695
 20
6.325073075
 30
0.0
  0
VERTEX
  5
500
330
265
100
AcDbEntity
  8
0
  6
CONTINUOUS
 62
     7
100
AcDbVertex
100
AcDb2dVertex
 10
8.0452252506
 20
6.3469594756
 30
0.0
  0
VERTEX
  5
501
330
265
100
AcDbEntity
  8
0
  6
CONTINUOUS
 62
     7
100
AcDbVertex
100
AcDb2dVertex
 10
8.0411093044
 20
6.3698017709
 30
0.0
  0
VERTEX
  5
502
330
265
100
AcDbEntity
  8
0
  6
CONTINUOUS
 62
     7
100
AcDbVertex
100
AcDb2dVertex
 10
8.0381609878
 20
6.3935352669
 30
0.0
  0
VERTEX
  5
503
330
265
100
AcDbEntity
  8
0
  6
CONTINUOUS
 62
     7
100
AcDbVertex
100
AcDb2dVertex
 10
8.0363886512
 20
6.4180927459
 30
0.0
  0
VERTEX
  5
504
330
265
100
AcDbEntity
  8
0
  6
CONTINUOUS
 62
     7
100
AcDbVertex
100
AcDb2dVertex
 10
8.035797314
 20
6.4434046565
 30
0.0
  0
VERTEX
  5
505
330
265
100
AcDbEntity
  8
0
  6
CONTINUOUS
 62
     7
100
AcDbVertex
100
AcDb2dVertex
 10
8.0363886512
 20
6.4693993104
 30
0.0
  0
VERTEX
  5
506
330
265
100
AcDbEntity
  8
0
  6
CONTINUOUS
 62
     7
100
AcDbVertex
100
AcDb2dVertex
 10
8.0381609878
 20
6.4960030857
 30
0.0
  0
VERTEX
  5
507
330
265
100
AcDbEntity
  8
0
  6
CONTINUOUS
 62
     7
100
AcDbVertex
100
AcDb2dVertex
 10
8.0411093044
 20
6.5231406356
 30
0.0
  0
VERTEX
  5
508
330
265
100
AcDbEntity
  8
0
  6
CONTINUOUS
 62
     7
100
AcDbVertex
100
AcDb2dVertex
 10
8.0452252506
 20
6.5507351013
 30
0.0
  0
VERTEX
  5
509
330
265
100
AcDbEntity
  8
0
  6
CONTINUOUS
 62
     7
100
AcDbVertex
100
AcDb2dVertex
 10
8.0504971695
 20
6.5787083299
 30
0.0
  0
VERTEX
  5
50A
330
265
100
AcDbEntity
  8
0
  6
CONTINUOUS
 62
     7
100
AcDbVertex
100
AcDb2dVertex
 10
8.0569101298
 20
6.6069810959
 30
0.0
  0
VERTEX
  5
50B
330
265
100
AcDbEntity
  8
0
  6
CONTINUOUS
 62
     7
100
AcDbVertex
100
AcDb2dVertex
 10
8.0644459689
 20
6.6354733255
 30
0.0
  0
VERTEX
  5
50C
330
265
100
AcDbEntity
  8
0
  6
CONTINUOUS
 62
     7
100
AcDbVertex
100
AcDb2dVertex
 10
8.0730833438
 20
6.6641043232
 30
0.0
  0
VERTEX
  5
50D
330
265
100
AcDbEntity
  8
0
  6
CONTINUOUS
 62
     7
100
AcDbVertex
100
AcDb2dVertex
 10
8.0827977918
 20
6.6927930005
 30
0.0
  0
VERTEX
  5
50E
330
265
100
AcDbEntity
  8
0
  6
CONTINUOUS
 62
     7
100
AcDbVertex
100
AcDb2dVertex
 10
8.0935617997
 20
6.7214581055
 30
0.0
  0
VERTEX
  5
50F
330
265
100
AcDbEntity
  8
0
  6
CONTINUOUS
 62
     7
100
AcDbVertex
100
AcDb2dVertex
 10
8.1053448818
 20
6.7500184533
 30
0.0
  0
VERTEX
  5
510
330
265
100
AcDbEntity
  8
0
  6
CONTINUOUS
 62
     7
100
AcDbVertex
100
AcDb2dVertex
 10
8.1181136662
 20
6.7783931555
 30
0.0
  0
VERTEX
  5
511
330
265
100
AcDbEntity
  8
0
  6
CONTINUOUS
 62
     7
100
AcDbVertex
100
AcDb2dVertex
 10
8.1318319892
 20
6.8065018494
 30
0.0
  0
VERTEX
  5
512
330
265
100
AcDbEntity
  8
0
  6
CONTINUOUS
 62
     7
100
AcDbVertex
100
AcDb2dVertex
 10
8.1464609979
 20
6.8342649259
 30
0.0
  0
VERTEX
  5
513
330
265
100
AcDbEntity
  8
0
  6
CONTINUOUS
 62
     7
100
AcDbVertex
100
AcDb2dVertex
 10
8.1619592602
 20
6.8616037546
 30
0.0
  0
VERTEX
  5
514
330
265
100
AcDbEntity
  8
0
  6
CONTINUOUS
 62
     7
100
AcDbVertex
100
AcDb2dVertex
 10
8.178282882
 20
6.8884409067
 30
0.0
  0
VERTEX
  5
515
330
265
100
AcDbEntity
  8
0
  6
CONTINUOUS
 62
     7
100
AcDbVertex
100
AcDb2dVertex
 10
8.1953856316
 20
6.9147003743
 30
0.0
  0
VERTEX
  5
516
330
265
100
AcDbEntity
  8
0
  6
CONTINUOUS
 62
     7
100
AcDbVertex
100
AcDb2dVertex
 10
8.2132190708
 20
6.9403077855
 30
0.0
  0
VERTEX
  5
517
330
265
100
AcDbEntity
  8
0
  6
CONTINUOUS
 62
     7
100
AcDbVertex
100
AcDb2dVertex
 10
8.231732692
 20
6.9651906152
 30
0.0
  0
VERTEX
  5
518
330
265
100
AcDbEntity
  8
0
  6
CONTINUOUS
 62
     7
100
AcDbVertex
100
AcDb2dVertex
 10
8.2508740609
 20
6.9892783906
 30
0.0
  0
VERTEX
  5
519
330
265
100
AcDbEntity
  8
0
  6
CONTINUOUS
 62
     7
100
AcDbVertex
100
AcDb2dVertex
 10
8.2705889656
 20
7.0125028903
 30
0.0
  0
VERTEX
  5
51A
330
265
100
AcDbEntity
  8
0
  6
CONTINUOUS
 62
     7
100
AcDbVertex
100
AcDb2dVertex
 10
8.2908215697
 20
7.0347983382
 30
0.0
  0
VERTEX
  5
51B
330
265
100
AcDbEntity
  8
0
  6
CONTINUOUS
 62
     7
100
AcDbVertex
100
AcDb2dVertex
 10
8.3115145705
 20
7.0561015893
 30
0.0
  0
VERTEX
  5
51C
330
265
100
AcDbEntity
  8
0
  6
CONTINUOUS
 62
     7
100
AcDbVertex
100
AcDb2dVertex
 10
8.3326093616
 20
7.0763523087
 30
0.0
  0
VERTEX
  5
51D
330
265
100
AcDbEntity
  8
0
  6
CONTINUOUS
 62
     7
100
AcDbVertex
100
AcDb2dVertex
 10
8.3540461984
 20
7.0954931424
 30
0.0
  0
VERTEX
  5
51E
330
265
100
AcDbEntity
  8
0
  6
CONTINUOUS
 62
     7
100
AcDbVertex
100
AcDb2dVertex
 10
8.3757643677
 20
7.1134698801
 30
0.0
  0
VERTEX
  5
51F
330
265
100
AcDbEntity
  8
0
  6
CONTINUOUS
 62
     7
100
AcDbVertex
100
AcDb2dVertex
 10
8.3977023595
 20
7.1302316081
 30
0.0
  0
SEQEND
  5
520
330
265
100
AcDbEntity
  8
0
  6
CONTINUOUS
 62
     7
  0
LINE
  5
266
330
1F
100
AcDbEntity
  8
0
  6
CONTINUOUS
 62
     7
100
AcDbLine
 10
8.3977023595
 20
7.1302316081
 30
0.0
 11
8.3463162586
 21
7.1598961727
 31
0.0
  0
LINE
  5
267
330
1F
100
AcDbEntity
  8
0
  6
CONTINUOUS
 62
     7
100
AcDbLine
 10
7.5770508982
 20
6.6482435984
 30
0.0
 11
7.6284369991
 21
6.6185790338
 31
0.0
  0
ARC
  5
268
330
1F
100
AcDbEntity
  8
0
  6
CONTINUOUS
 62
     7
100
AcDbCircle
 10
7.8320931473
 20
6.6575805998
 30
0.0
 40
0.25521310392575
100
AcDbArc
 50
182.0966407233
 51
244.5609757433
  0
ARC
  5
269
330
1F
100
AcDbEntity
  8
0
  6
CONTINUOUS
 62
     7
100
AcDbCircle
 10
7.892768065
 20
6.6312347237
 30
0.0
 40
0.2646338581595618
100
AcDbArc
 50
182.7411243151
 51
236.586366634
  0
LINE
  5
26A
330
1F
100
AcDbEntity
  8
0
  6
CONTINUOUS
 62
     7
100
AcDbLine
 10
7.8853675034
 20
6.4702562108
 30
0.0
 11
7.9367536043
 21
6.4405916462
 31
0.0
  0
ARC
  5
26B
330
1F
100
AcDbEntity
  8
0
  6
CONTINUOUS
 62
     7
100
AcDbCircle
 10
8.1404097525
 20
6.4795932122
 30
0.0
 40
0.255213103925747
100
AcDbArc
 50
182.0966407233
 51
244.5609757433
  0
ARC
  5
26C
330
1F
100
AcDbEntity
  8
0
  6
CONTINUOUS
 62
     7
100
AcDbCircle
 10
8.2010846702
 20
6.4532473361
 30
0.0
 40
0.2646338581595564
100
AcDbArc
 50
182.7411243151
 51
236.586366634
  0
POLYLINE
  5
26D
330
1F
100
AcDbEntity
  8
0
  6
CONTINUOUS
 62
     7
100
AcDb2dPolyline
 66
     1
 10
0.0
 20
0.0
 30
0.0
  0
VERTEX
  5
521
330
26D
100
AcDbEntity
  8
0
  6
CONTINUOUS
 62
     7
100
AcDbVertex
100
AcDb2dVertex
 10
8.3107301202
 20
7.4461254765
 30
0.0
  0
VERTEX
  5
522
330
26D
100
AcDbEntity
  8
0
  6
CONTINUOUS
 62
     7
100
AcDbVertex
100
AcDb2dVertex
 10
8.305065766
 20
7.450484254
 30
0.0
  0
VERTEX
  5
523
330
26D
100
AcDbEntity
  8
0
  6
CONTINUOUS
 62
     7
100
AcDbVertex
100
AcDb2dVertex
 10
8.289985854
 20
7.460628722
 30
0.0
  0
VERTEX
  5
524
330
26D
100
AcDbEntity
  8
0
  6
CONTINUOUS
 62
     7
100
AcDbVertex
100
AcDb2dVertex
 10
8.2740588881
 20
7.4693311015
 30
0.0
  0
VERTEX
  5
525
330
26D
100
AcDbEntity
  8
0
  6
CONTINUOUS
 62
     7
100
AcDbVertex
100
AcDb2dVertex
 10
8.2573299766
 20
7.4765667458
 30
0.0
  0
VERTEX
  5
526
330
26D
100
AcDbEntity
  8
0
  6
CONTINUOUS
 62
     7
100
AcDbVertex
100
AcDb2dVertex
 10
8.239846499
 20
7.4823151621
 30
0.0
  0
VERTEX
  5
527
330
26D
100
AcDbEntity
  8
0
  6
CONTINUOUS
 62
     7
100
AcDbVertex
100
AcDb2dVertex
 10
8.2216579719
 20
7.4865600698
 30
0.0
  0
VERTEX
  5
528
330
26D
100
AcDbEntity
  8
0
  6
CONTINUOUS
 62
     7
100
AcDbVertex
100
AcDb2dVertex
 10
8.2028159085
 20
7.4892894465
 30
0.0
  0
VERTEX
  5
529
330
26D
100
AcDbEntity
  8
0
  6
CONTINUOUS
 62
     7
100
AcDbVertex
100
AcDb2dVertex
 10
8.1833736734
 20
7.4904955621
 30
0.0
  0
VERTEX
  5
52A
330
26D
100
AcDbEntity
  8
0
  6
CONTINUOUS
 62
     7
100
AcDbVertex
100
AcDb2dVertex
 10
8.1633863305
 20
7.4901750007
 30
0.0
  0
VERTEX
  5
52B
330
26D
100
AcDbEntity
  8
0
  6
CONTINUOUS
 62
     7
100
AcDbVertex
100
AcDb2dVertex
 10
8.1429104879
 20
7.4883286701
 30
0.0
  0
VERTEX
  5
52C
330
26D
100
AcDbEntity
  8
0
  6
CONTINUOUS
 62
     7
100
AcDbVertex
100
AcDb2dVertex
 10
8.1220041371
 20
7.4849617994
 30
0.0
  0
VERTEX
  5
52D
330
26D
100
AcDbEntity
  8
0
  6
CONTINUOUS
 62
     7
100
AcDbVertex
100
AcDb2dVertex
 10
8.1007264888
 20
7.4800839245
 30
0.0
  0
VERTEX
  5
52E
330
26D
100
AcDbEntity
  8
0
  6
CONTINUOUS
 62
     7
100
AcDbVertex
100
AcDb2dVertex
 10
8.0791378055
 20
7.4737088602
 30
0.0
  0
VERTEX
  5
52F
330
26D
100
AcDbEntity
  8
0
  6
CONTINUOUS
 62
     7
100
AcDbVertex
100
AcDb2dVertex
 10
8.0572992304
 20
7.465854662
 30
0.0
  0
VERTEX
  5
530
330
26D
100
AcDbEntity
  8
0
  6
CONTINUOUS
 62
     7
100
AcDbVertex
100
AcDb2dVertex
 10
8.0352726146
 20
7.4565435744
 30
0.0
  0
VERTEX
  5
531
330
26D
100
AcDbEntity
  8
0
  6
CONTINUOUS
 62
     7
100
AcDbVertex
100
AcDb2dVertex
 10
8.0131203416
 20
7.4458019684
 30
0.0
  0
VERTEX
  5
532
330
26D
100
AcDbEntity
  8
0
  6
CONTINUOUS
 62
     7
100
AcDbVertex
100
AcDb2dVertex
 10
7.990905151
 20
7.4336602661
 30
0.0
  0
VERTEX
  5
533
330
26D
100
AcDbEntity
  8
0
  6
CONTINUOUS
 62
     7
100
AcDbVertex
100
AcDb2dVertex
 10
7.9686899604
 20
7.4201528552
 30
0.0
  0
VERTEX
  5
534
330
26D
100
AcDbEntity
  8
0
  6
CONTINUOUS
 62
     7
100
AcDbVertex
100
AcDb2dVertex
 10
7.9465376874
 20
7.4053179913
 30
0.0
  0
VERTEX
  5
535
330
26D
100
AcDbEntity
  8
0
  6
CONTINUOUS
 62
     7
100
AcDbVertex
100
AcDb2dVertex
 10
7.9245110716
 20
7.3891976895
 30
0.0
  0
VERTEX
  5
536
330
26D
100
AcDbEntity
  8
0
  6
CONTINUOUS
 62
     7
100
AcDbVertex
100
AcDb2dVertex
 10
7.9026724965
 20
7.3718376056
 30
0.0
  0
VERTEX
  5
537
330
26D
100
AcDbEntity
  8
0
  6
CONTINUOUS
 62
     7
100
AcDbVertex
100
AcDb2dVertex
 10
7.8810838132
 20
7.3532869068
 30
0.0
  0
VERTEX
  5
538
330
26D
100
AcDbEntity
  8
0
  6
CONTINUOUS
 62
     7
100
AcDbVertex
100
AcDb2dVertex
 10
7.8598061649
 20
7.333598132
 30
0.0
  0
VERTEX
  5
539
330
26D
100
AcDbEntity
  8
0
  6
CONTINUOUS
 62
     7
100
AcDbVertex
100
AcDb2dVertex
 10
7.8388998141
 20
7.3128270437
 30
0.0
  0
VERTEX
  5
53A
330
26D
100
AcDbEntity
  8
0
  6
CONTINUOUS
 62
     7
100
AcDbVertex
100
AcDb2dVertex
 10
7.8184239715
 20
7.2910324697
 30
0.0
  0
VERTEX
  5
53B
330
26D
100
AcDbEntity
  8
0
  6
CONTINUOUS
 62
     7
100
AcDbVertex
100
AcDb2dVertex
 10
7.7984366286
 20
7.2682761363
 30
0.0
  0
VERTEX
  5
53C
330
26D
100
AcDbEntity
  8
0
  6
CONTINUOUS
 62
     7
100
AcDbVertex
100
AcDb2dVertex
 10
7.7789943935
 20
7.2446224937
 30
0.0
  0
VERTEX
  5
53D
330
26D
100
AcDbEntity
  8
0
  6
CONTINUOUS
 62
     7
100
AcDbVertex
100
AcDb2dVertex
 10
7.7601523301
 20
7.2201385338
 30
0.0
  0
VERTEX
  5
53E
330
26D
100
AcDbEntity
  8
0
  6
CONTINUOUS
 62
     7
100
AcDbVertex
100
AcDb2dVertex
 10
7.741963803
 20
7.1948935996
 30
0.0
  0
VERTEX
  5
53F
330
26D
100
AcDbEntity
  8
0
  6
CONTINUOUS
 62
     7
100
AcDbVertex
100
AcDb2dVertex
 10
7.7244803254
 20
7.1689591898
 30
0.0
  0
VERTEX
  5
540
330
26D
100
AcDbEntity
  8
0
  6
CONTINUOUS
 62
     7
100
AcDbVertex
100
AcDb2dVertex
 10
7.7077514139
 20
7.1424087554
 30
0.0
  0
VERTEX
  5
541
330
26D
100
AcDbEntity
  8
0
  6
CONTINUOUS
 62
     7
100
AcDbVertex
100
AcDb2dVertex
 10
7.691824448
 20
7.1153174925
 30
0.0
  0
VERTEX
  5
542
330
26D
100
AcDbEntity
  8
0
  6
CONTINUOUS
 62
     7
100
AcDbVertex
100
AcDb2dVertex
 10
7.676744536
 20
7.0877621287
 30
0.0
  0
VERTEX
  5
543
330
26D
100
AcDbEntity
  8
0
  6
CONTINUOUS
 62
     7
100
AcDbVertex
100
AcDb2dVertex
 10
7.6625543869
 20
7.059820706
 30
0.0
  0
VERTEX
  5
544
330
26D
100
AcDbEntity
  8
0
  6
CONTINUOUS
 62
     7
100
AcDbVertex
100
AcDb2dVertex
 10
7.6492941901
 20
7.0315723599
 30
0.0
  0
VERTEX
  5
545
330
26D
100
AcDbEntity
  8
0
  6
CONTINUOUS
 62
     7
100
AcDbVertex
100
AcDb2dVertex
 10
7.6370015009
 20
7.0030970951
 30
0.0
  0
VERTEX
  5
546
330
26D
100
AcDbEntity
  8
0
  6
CONTINUOUS
 62
     7
100
AcDbVertex
100
AcDb2dVertex
 10
7.6257111347
 20
6.974475559
 30
0.0
  0
VERTEX
  5
547
330
26D
100
AcDbEntity
  8
0
  6
CONTINUOUS
 62
     7
100
AcDbVertex
100
AcDb2dVertex
 10
7.6154550678
 20
6.9457888134
 30
0.0
  0
VERTEX
  5
548
330
26D
100
AcDbEntity
  8
0
  6
CONTINUOUS
 62
     7
100
AcDbVertex
100
AcDb2dVertex
 10
7.6062623474
 20
6.9171181045
 30
0.0
  0
VERTEX
  5
549
330
26D
100
AcDbEntity
  8
0
  6
CONTINUOUS
 62
     7
100
AcDbVertex
100
AcDb2dVertex
 10
7.5981590091
 20
6.8885446332
 30
0.0
  0
VERTEX
  5
54A
330
26D
100
AcDbEntity
  8
0
  6
CONTINUOUS
 62
     7
100
AcDbVertex
100
AcDb2dVertex
 10
7.5911680031
 20
6.8601493252
 30
0.0
  0
VERTEX
  5
54B
330
26D
100
AcDbEntity
  8
0
  6
CONTINUOUS
 62
     7
100
AcDbVertex
100
AcDb2dVertex
 10
7.5853091292
 20
6.8320126014
 30
0.0
  0
VERTEX
  5
54C
330
26D
100
AcDbEntity
  8
0
  6
CONTINUOUS
 62
     7
100
AcDbVertex
100
AcDb2dVertex
 10
7.5805989809
 20
6.8042141504
 30
0.0
  0
VERTEX
  5
54D
330
26D
100
AcDbEntity
  8
0
  6
CONTINUOUS
 62
     7
100
AcDbVertex
100
AcDb2dVertex
 10
7.5770508982
 20
6.7768327026
 30
0.0
  0
SEQEND
  5
54E
330
26D
100
AcDbEntity
  8
0
  6
CONTINUOUS
 62
     7
  0
LINE
  5
26E
330
1F
100
AcDbEntity
  8
0
  6
CONTINUOUS
 62
     7
100
AcDbLine
 10
7.6284369991
 20
6.747168138
 30
0.0
 11
7.5770508982
 21
6.7768327026
 31
0.0
  0
POLYLINE
  5
26F
330
1F
100
AcDbEntity
  8
0
  6
CONTINUOUS
 62
     7
100
AcDb2dPolyline
 66
     1
 10
0.0
 20
0.0
 30
0.0
  0
VERTEX
  5
54F
330
26F
100
AcDbEntity
  8
0
  6
CONTINUOUS
 62
     7
100
AcDbVertex
100
AcDb2dVertex
 10
7.6284369991
 20
6.747168138
 30
0.0
  0
VERTEX
  5
550
330
26F
100
AcDbEntity
  8
0
  6
CONTINUOUS
 62
     7
100
AcDbVertex
100
AcDb2dVertex
 10
7.6319850817
 20
6.7745495858
 30
0.0
  0
VERTEX
  5
551
330
26F
100
AcDbEntity
  8
0
  6
CONTINUOUS
 62
     7
100
AcDbVertex
100
AcDb2dVertex
 10
7.63669523
 20
6.8023480368
 30
0.0
  0
VERTEX
  5
552
330
26F
100
AcDbEntity
  8
0
  6
CONTINUOUS
 62
     7
100
AcDbVertex
100
AcDb2dVertex
 10
7.6425541039
 20
6.8304847606
 30
0.0
  0
VERTEX
  5
553
330
26F
100
AcDbEntity
  8
0
  6
CONTINUOUS
 62
     7
100
AcDbVertex
100
AcDb2dVertex
 10
7.64954511
 20
6.8588800686
 30
0.0
  0
VERTEX
  5
554
330
26F
100
AcDbEntity
  8
0
  6
CONTINUOUS
 62
     7
100
AcDbVertex
100
AcDb2dVertex
 10
7.6576484483
 20
6.8874535398
 30
0.0
  0
VERTEX
  5
555
330
26F
100
AcDbEntity
  8
0
  6
CONTINUOUS
 62
     7
100
AcDbVertex
100
AcDb2dVertex
 10
7.6668411686
 20
6.9161242488
 30
0.0
  0
VERTEX
  5
556
330
26F
100
AcDbEntity
  8
0
  6
CONTINUOUS
 62
     7
100
AcDbVertex
100
AcDb2dVertex
 10
7.6770972355
 20
6.9448109944
 30
0.0
  0
VERTEX
  5
557
330
26F
100
AcDbEntity
  8
0
  6
CONTINUOUS
 62
     7
100
AcDbVertex
100
AcDb2dVertex
 10
7.6883876018
 20
6.9734325305
 30
0.0
  0
VERTEX
  5
558
330
26F
100
AcDbEntity
  8
0
  6
CONTINUOUS
 62
     7
100
AcDbVertex
100
AcDb2dVertex
 10
7.700680291
 20
7.0019077953
 30
0.0
  0
VERTEX
  5
559
330
26F
100
AcDbEntity
  8
0
  6
CONTINUOUS
 62
     7
100
AcDbVertex
100
AcDb2dVertex
 10
7.7139404878
 20
7.0301561414
 30
0.0
  0
VERTEX
  5
55A
330
26F
100
AcDbEntity
  8
0
  6
CONTINUOUS
 62
     7
100
AcDbVertex
100
AcDb2dVertex
 10
7.7281306368
 20
7.0580975641
 30
0.0
  0
VERTEX
  5
55B
330
26F
100
AcDbEntity
  8
0
  6
CONTINUOUS
 62
     7
100
AcDbVertex
100
AcDb2dVertex
 10
7.7432105489
 20
7.0856529279
 30
0.0
  0
VERTEX
  5
55C
330
26F
100
AcDbEntity
  8
0
  6
CONTINUOUS
 62
     7
100
AcDbVertex
100
AcDb2dVertex
 10
7.7591375148
 20
7.1127441908
 30
0.0
  0
VERTEX
  5
55D
330
26F
100
AcDbEntity
  8
0
  6
CONTINUOUS
 62
     7
100
AcDbVertex
100
AcDb2dVertex
 10
7.7758664262
 20
7.1392946252
 30
0.0
  0
VERTEX
  5
55E
330
26F
100
AcDbEntity
  8
0
  6
CONTINUOUS
 62
     7
100
AcDbVertex
100
AcDb2dVertex
 10
7.7933499038
 20
7.165229035
 30
0.0
  0
VERTEX
  5
55F
330
26F
100
AcDbEntity
  8
0
  6
CONTINUOUS
 62
     7
100
AcDbVertex
100
AcDb2dVertex
 10
7.811538431
 20
7.1904739692
 30
0.0
  0
VERTEX
  5
560
330
26F
100
AcDbEntity
  8
0
  6
CONTINUOUS
 62
     7
100
AcDbVertex
100
AcDb2dVertex
 10
7.8303804943
 20
7.2149579291
 30
0.0
  0
VERTEX
  5
561
330
26F
100
AcDbEntity
  8
0
  6
CONTINUOUS
 62
     7
100
AcDbVertex
100
AcDb2dVertex
 10
7.8498227295
 20
7.2386115717
 30
0.0
  0
VERTEX
  5
562
330
26F
100
AcDbEntity
  8
0
  6
CONTINUOUS
 62
     7
100
AcDbVertex
100
AcDb2dVertex
 10
7.8698100724
 20
7.2613679051
 30
0.0
  0
VERTEX
  5
563
330
26F
100
AcDbEntity
  8
0
  6
CONTINUOUS
 62
     7
100
AcDbVertex
100
AcDb2dVertex
 10
7.890285915
 20
7.2831624791
 30
0.0
  0
VERTEX
  5
564
330
26F
100
AcDbEntity
  8
0
  6
CONTINUOUS
 62
     7
100
AcDbVertex
100
AcDb2dVertex
 10
7.9111922658
 20
7.3039335674
 30
0.0
  0
VERTEX
  5
565
330
26F
100
AcDbEntity
  8
0
  6
CONTINUOUS
 62
     7
100
AcDbVertex
100
AcDb2dVertex
 10
7.932469914
 20
7.3236223421
 30
0.0
  0
VERTEX
  5
566
330
26F
100
AcDbEntity
  8
0
  6
CONTINUOUS
 62
     7
100
AcDbVertex
100
AcDb2dVertex
 10
7.9540585973
 20
7.342173041
 30
0.0
  0
VERTEX
  5
567
330
26F
100
AcDbEntity
  8
0
  6
CONTINUOUS
 62
     7
100
AcDbVertex
100
AcDb2dVertex
 10
7.9758971724
 20
7.3595331249
 30
0.0
  0
VERTEX
  5
568
330
26F
100
AcDbEntity
  8
0
  6
CONTINUOUS
 62
     7
100
AcDbVertex
100
AcDb2dVertex
 10
7.9979237882
 20
7.3756534267
 30
0.0
  0
VERTEX
  5
569
330
26F
100
AcDbEntity
  8
0
  6
CONTINUOUS
 62
     7
100
AcDbVertex
100
AcDb2dVertex
 10
8.0200760612
 20
7.3904882906
 30
0.0
  0
VERTEX
  5
56A
330
26F
100
AcDbEntity
  8
0
  6
CONTINUOUS
 62
     7
100
AcDbVertex
100
AcDb2dVertex
 10
8.0422912519
 20
7.4039957015
 30
0.0
  0
VERTEX
  5
56B
330
26F
100
AcDbEntity
  8
0
  6
CONTINUOUS
 62
     7
100
AcDbVertex
100
AcDb2dVertex
 10
8.0645064425
 20
7.4161374038
 30
0.0
  0
VERTEX
  5
56C
330
26F
100
AcDbEntity
  8
0
  6
CONTINUOUS
 62
     7
100
AcDbVertex
100
AcDb2dVertex
 10
8.0866587155
 20
7.4268790098
 30
0.0
  0
VERTEX
  5
56D
330
26F
100
AcDbEntity
  8
0
  6
CONTINUOUS
 62
     7
100
AcDbVertex
100
AcDb2dVertex
 10
8.1086853313
 20
7.4361900974
 30
0.0
  0
VERTEX
  5
56E
330
26F
100
AcDbEntity
  8
0
  6
CONTINUOUS
 62
     7
100
AcDbVertex
100
AcDb2dVertex
 10
8.1305239064
 20
7.4440442956
 30
0.0
  0
VERTEX
  5
56F
330
26F
100
AcDbEntity
  8
0
  6
CONTINUOUS
 62
     7
100
AcDbVertex
100
AcDb2dVertex
 10
8.1521125897
 20
7.4504193599
 30
0.0
  0
VERTEX
  5
570
330
26F
100
AcDbEntity
  8
0
  6
CONTINUOUS
 62
     7
100
AcDbVertex
100
AcDb2dVertex
 10
8.1733902379
 20
7.4552972348
 30
0.0
  0
VERTEX
  5
571
330
26F
100
AcDbEntity
  8
0
  6
CONTINUOUS
 62
     7
100
AcDbVertex
100
AcDb2dVertex
 10
8.1942965888
 20
7.4586641055
 30
0.0
  0
VERTEX
  5
572
330
26F
100
AcDbEntity
  8
0
  6
CONTINUOUS
 62
     7
100
AcDbVertex
100
AcDb2dVertex
 10
8.2147724314
 20
7.4605104361
 30
0.0
  0
VERTEX
  5
573
330
26F
100
AcDbEntity
  8
0
  6
CONTINUOUS
 62
     7
100
AcDbVertex
100
AcDb2dVertex
 10
8.2347597742
 20
7.4608309975
 30
0.0
  0
VERTEX
  5
574
330
26F
100
AcDbEntity
  8
0
  6
CONTINUOUS
 62
     7
100
AcDbVertex
100
AcDb2dVertex
 10
8.2542020094
 20
7.4596248819
 30
0.0
  0
VERTEX
  5
575
330
26F
100
AcDbEntity
  8
0
  6
CONTINUOUS
 62
     7
100
AcDbVertex
100
AcDb2dVertex
 10
8.2730440727
 20
7.4568955052
 30
0.0
  0
VERTEX
  5
576
330
26F
100
AcDbEntity
  8
0
  6
CONTINUOUS
 62
     7
100
AcDbVertex
100
AcDb2dVertex
 10
8.2912325999
 20
7.4526505975
 30
0.0
  0
VERTEX
  5
577
330
26F
100
AcDbEntity
  8
0
  6
CONTINUOUS
 62
     7
100
AcDbVertex
100
AcDb2dVertex
 10
8.3087160775
 20
7.4469021812
 30
0.0
  0
VERTEX
  5
578
330
26F
100
AcDbEntity
  8
0
  6
CONTINUOUS
 62
     7
100
AcDbVertex
100
AcDb2dVertex
 10
8.325444989
 20
7.4396665369
 30
0.0
  0
VERTEX
  5
579
330
26F
100
AcDbEntity
  8
0
  6
CONTINUOUS
 62
     7
100
AcDbVertex
100
AcDb2dVertex
 10
8.3375428461
 20
7.4332327392
 30
0.0
  0
SEQEND
  5
57A
330
26F
100
AcDbEntity
  8
0
  6
CONTINUOUS
 62
     7
  0
POLYLINE
  5
270
330
1F
100
AcDbEntity
  8
0
  6
CONTINUOUS
 62
     7
100
AcDb2dPolyline
 66
     1
 10
0.0
 20
0.0
 30
0.0
  0
VERTEX
  5
57B
330
270
100
AcDbEntity
  8
0
  6
CONTINUOUS
 62
     7
100
AcDbVertex
100
AcDb2dVertex
 10
8.6190467254
 20
7.2681380889
 30
0.0
  0
VERTEX
  5
57C
330
270
100
AcDbEntity
  8
0
  6
CONTINUOUS
 62
     7
100
AcDbVertex
100
AcDb2dVertex
 10
8.6133823712
 20
7.2724968664
 30
0.0
  0
VERTEX
  5
57D
330
270
100
AcDbEntity
  8
0
  6
CONTINUOUS
 62
     7
100
AcDbVertex
100
AcDb2dVertex
 10
8.5983024592
 20
7.2826413344
 30
0.0
  0
VERTEX
  5
57E
330
270
100
AcDbEntity
  8
0
  6
CONTINUOUS
 62
     7
100
AcDbVertex
100
AcDb2dVertex
 10
8.5823754933
 20
7.2913437139
 30
0.0
  0
VERTEX
  5
57F
330
270
100
AcDbEntity
  8
0
  6
CONTINUOUS
 62
     7
100
AcDbVertex
100
AcDb2dVertex
 10
8.5656465818
 20
7.2985793582
 30
0.0
  0
VERTEX
  5
580
330
270
100
AcDbEntity
  8
0
  6
CONTINUOUS
 62
     7
100
AcDbVertex
100
AcDb2dVertex
 10
8.5481631042
 20
7.3043277745
 30
0.0
  0
VERTEX
  5
581
330
270
100
AcDbEntity
  8
0
  6
CONTINUOUS
 62
     7
100
AcDbVertex
100
AcDb2dVertex
 10
8.5299745771
 20
7.3085726822
 30
0.0
  0
VERTEX
  5
582
330
270
100
AcDbEntity
  8
0
  6
CONTINUOUS
 62
     7
100
AcDbVertex
100
AcDb2dVertex
 10
8.5111325137
 20
7.3113020589
 30
0.0
  0
VERTEX
  5
583
330
270
100
AcDbEntity
  8
0
  6
CONTINUOUS
 62
     7
100
AcDbVertex
100
AcDb2dVertex
 10
8.4916902786
 20
7.3125081745
 30
0.0
  0
VERTEX
  5
584
330
270
100
AcDbEntity
  8
0
  6
CONTINUOUS
 62
     7
100
AcDbVertex
100
AcDb2dVertex
 10
8.4717029357
 20
7.3121876131
 30
0.0
  0
VERTEX
  5
585
330
270
100
AcDbEntity
  8
0
  6
CONTINUOUS
 62
     7
100
AcDbVertex
100
AcDb2dVertex
 10
8.4512270931
 20
7.3103412824
 30
0.0
  0
VERTEX
  5
586
330
270
100
AcDbEntity
  8
0
  6
CONTINUOUS
 62
     7
100
AcDbVertex
100
AcDb2dVertex
 10
8.4303207423
 20
7.3069744118
 30
0.0
  0
VERTEX
  5
587
330
270
100
AcDbEntity
  8
0
  6
CONTINUOUS
 62
     7
100
AcDbVertex
100
AcDb2dVertex
 10
8.409043094
 20
7.3020965368
 30
0.0
  0
VERTEX
  5
588
330
270
100
AcDbEntity
  8
0
  6
CONTINUOUS
 62
     7
100
AcDbVertex
100
AcDb2dVertex
 10
8.3874544107
 20
7.2957214725
 30
0.0
  0
VERTEX
  5
589
330
270
100
AcDbEntity
  8
0
  6
CONTINUOUS
 62
     7
100
AcDbVertex
100
AcDb2dVertex
 10
8.3656158356
 20
7.2878672743
 30
0.0
  0
VERTEX
  5
58A
330
270
100
AcDbEntity
  8
0
  6
CONTINUOUS
 62
     7
100
AcDbVertex
100
AcDb2dVertex
 10
8.3435892198
 20
7.2785561868
 30
0.0
  0
VERTEX
  5
58B
330
270
100
AcDbEntity
  8
0
  6
CONTINUOUS
 62
     7
100
AcDbVertex
100
AcDb2dVertex
 10
8.3214369469
 20
7.2678145808
 30
0.0
  0
VERTEX
  5
58C
330
270
100
AcDbEntity
  8
0
  6
CONTINUOUS
 62
     7
100
AcDbVertex
100
AcDb2dVertex
 10
8.2992217562
 20
7.2556728785
 30
0.0
  0
VERTEX
  5
58D
330
270
100
AcDbEntity
  8
0
  6
CONTINUOUS
 62
     7
100
AcDbVertex
100
AcDb2dVertex
 10
8.2770065656
 20
7.2421654676
 30
0.0
  0
VERTEX
  5
58E
330
270
100
AcDbEntity
  8
0
  6
CONTINUOUS
 62
     7
100
AcDbVertex
100
AcDb2dVertex
 10
8.2548542926
 20
7.2273306037
 30
0.0
  0
VERTEX
  5
58F
330
270
100
AcDbEntity
  8
0
  6
CONTINUOUS
 62
     7
100
AcDbVertex
100
AcDb2dVertex
 10
8.2328276768
 20
7.2112103019
 30
0.0
  0
VERTEX
  5
590
330
270
100
AcDbEntity
  8
0
  6
CONTINUOUS
 62
     7
100
AcDbVertex
100
AcDb2dVertex
 10
8.2109891017
 20
7.193850218
 30
0.0
  0
VERTEX
  5
591
330
270
100
AcDbEntity
  8
0
  6
CONTINUOUS
 62
     7
100
AcDbVertex
100
AcDb2dVertex
 10
8.1894004184
 20
7.1752995191
 30
0.0
  0
VERTEX
  5
592
330
270
100
AcDbEntity
  8
0
  6
CONTINUOUS
 62
     7
100
AcDbVertex
100
AcDb2dVertex
 10
8.1681227701
 20
7.1556107444
 30
0.0
  0
VERTEX
  5
593
330
270
100
AcDbEntity
  8
0
  6
CONTINUOUS
 62
     7
100
AcDbVertex
100
AcDb2dVertex
 10
8.1472164193
 20
7.1348396561
 30
0.0
  0
VERTEX
  5
594
330
270
100
AcDbEntity
  8
0
  6
CONTINUOUS
 62
     7
100
AcDbVertex
100
AcDb2dVertex
 10
8.1267405767
 20
7.1130450821
 30
0.0
  0
VERTEX
  5
595
330
270
100
AcDbEntity
  8
0
  6
CONTINUOUS
 62
     7
100
AcDbVertex
100
AcDb2dVertex
 10
8.1067532338
 20
7.0902887487
 30
0.0
  0
VERTEX
  5
596
330
270
100
AcDbEntity
  8
0
  6
CONTINUOUS
 62
     7
100
AcDbVertex
100
AcDb2dVertex
 10
8.0873109987
 20
7.0666351061
 30
0.0
  0
VERTEX
  5
597
330
270
100
AcDbEntity
  8
0
  6
CONTINUOUS
 62
     7
100
AcDbVertex
100
AcDb2dVertex
 10
8.0684689353
 20
7.0421511462
 30
0.0
  0
VERTEX
  5
598
330
270
100
AcDbEntity
  8
0
  6
CONTINUOUS
 62
     7
100
AcDbVertex
100
AcDb2dVertex
 10
8.0502804082
 20
7.016906212
 30
0.0
  0
VERTEX
  5
599
330
270
100
AcDbEntity
  8
0
  6
CONTINUOUS
 62
     7
100
AcDbVertex
100
AcDb2dVertex
 10
8.0327969306
 20
6.9909718021
 30
0.0
  0
VERTEX
  5
59A
330
270
100
AcDbEntity
  8
0
  6
CONTINUOUS
 62
     7
100
AcDbVertex
100
AcDb2dVertex
 10
8.0160680191
 20
6.9644213678
 30
0.0
  0
VERTEX
  5
59B
330
270
100
AcDbEntity
  8
0
  6
CONTINUOUS
 62
     7
100
AcDbVertex
100
AcDb2dVertex
 10
8.0001410532
 20
6.9373301049
 30
0.0
  0
VERTEX
  5
59C
330
270
100
AcDbEntity
  8
0
  6
CONTINUOUS
 62
     7
100
AcDbVertex
100
AcDb2dVertex
 10
7.9850611412
 20
6.909774741
 30
0.0
  0
VERTEX
  5
59D
330
270
100
AcDbEntity
  8
0
  6
CONTINUOUS
 62
     7
100
AcDbVertex
100
AcDb2dVertex
 10
7.9708709921
 20
6.8818333183
 30
0.0
  0
VERTEX
  5
59E
330
270
100
AcDbEntity
  8
0
  6
CONTINUOUS
 62
     7
100
AcDbVertex
100
AcDb2dVertex
 10
7.9576107953
 20
6.8535849722
 30
0.0
  0
VERTEX
  5
59F
330
270
100
AcDbEntity
  8
0
  6
CONTINUOUS
 62
     7
100
AcDbVertex
100
AcDb2dVertex
 10
7.9453181061
 20
6.8251097075
 30
0.0
  0
VERTEX
  5
5A0
330
270
100
AcDbEntity
  8
0
  6
CONTINUOUS
 62
     7
100
AcDbVertex
100
AcDb2dVertex
 10
7.9340277399
 20
6.7964881714
 30
0.0
  0
VERTEX
  5
5A1
330
270
100
AcDbEntity
  8
0
  6
CONTINUOUS
 62
     7
100
AcDbVertex
100
AcDb2dVertex
 10
7.923771673
 20
6.7678014257
 30
0.0
  0
VERTEX
  5
5A2
330
270
100
AcDbEntity
  8
0
  6
CONTINUOUS
 62
     7
100
AcDbVertex
100
AcDb2dVertex
 10
7.9145789526
 20
6.7391307168
 30
0.0
  0
VERTEX
  5
5A3
330
270
100
AcDbEntity
  8
0
  6
CONTINUOUS
 62
     7
100
AcDbVertex
100
AcDb2dVertex
 10
7.9064756143
 20
6.7105572456
 30
0.0
  0
VERTEX
  5
5A4
330
270
100
AcDbEntity
  8
0
  6
CONTINUOUS
 62
     7
100
AcDbVertex
100
AcDb2dVertex
 10
7.8994846083
 20
6.6821619376
 30
0.0
  0
VERTEX
  5
5A5
330
270
100
AcDbEntity
  8
0
  6
CONTINUOUS
 62
     7
100
AcDbVertex
100
AcDb2dVertex
 10
7.8936257344
 20
6.6540252138
 30
0.0
  0
VERTEX
  5
5A6
330
270
100
AcDbEntity
  8
0
  6
CONTINUOUS
 62
     7
100
AcDbVertex
100
AcDb2dVertex
 10
7.8889155861
 20
6.6262267628
 30
0.0
  0
VERTEX
  5
5A7
330
270
100
AcDbEntity
  8
0
  6
CONTINUOUS
 62
     7
100
AcDbVertex
100
AcDb2dVertex
 10
7.8853675034
 20
6.598845315
 30
0.0
  0
SEQEND
  5
5A8
330
270
100
AcDbEntity
  8
0
  6
CONTINUOUS
 62
     7
  0
LINE
  5
271
330
1F
100
AcDbEntity
  8
0
  6
CONTINUOUS
 62
     7
100
AcDbLine
 10
7.9367536043
 20
6.5691807504
 30
0.0
 11
7.8853675034
 21
6.598845315
 31
0.0
  0
POLYLINE
  5
272
330
1F
100
AcDbEntity
  8
0
  6
CONTINUOUS
 62
     7
100
AcDb2dPolyline
 66
     1
 10
0.0
 20
0.0
 30
0.0
  0
VERTEX
  5
5A9
330
272
100
AcDbEntity
  8
0
  6
CONTINUOUS
 62
     7
100
AcDbVertex
100
AcDb2dVertex
 10
7.9367536043
 20
6.5691807504
 30
0.0
  0
VERTEX
  5
5AA
330
272
100
AcDbEntity
  8
0
  6
CONTINUOUS
 62
     7
100
AcDbVertex
100
AcDb2dVertex
 10
7.9403016869
 20
6.5965621982
 30
0.0
  0
VERTEX
  5
5AB
330
272
100
AcDbEntity
  8
0
  6
CONTINUOUS
 62
     7
100
AcDbVertex
100
AcDb2dVertex
 10
7.9450118352
 20
6.6243606492
 30
0.0
  0
VERTEX
  5
5AC
330
272
100
AcDbEntity
  8
0
  6
CONTINUOUS
 62
     7
100
AcDbVertex
100
AcDb2dVertex
 10
7.9508707091
 20
6.652497373
 30
0.0
  0
VERTEX
  5
5AD
330
272
100
AcDbEntity
  8
0
  6
CONTINUOUS
 62
     7
100
AcDbVertex
100
AcDb2dVertex
 10
7.9578617152
 20
6.680892681
 30
0.0
  0
VERTEX
  5
5AE
330
272
100
AcDbEntity
  8
0
  6
CONTINUOUS
 62
     7
100
AcDbVertex
100
AcDb2dVertex
 10
7.9659650535
 20
6.7094661522
 30
0.0
  0
VERTEX
  5
5AF
330
272
100
AcDbEntity
  8
0
  6
CONTINUOUS
 62
     7
100
AcDbVertex
100
AcDb2dVertex
 10
7.9751577738
 20
6.7381368611
 30
0.0
  0
VERTEX
  5
5B0
330
272
100
AcDbEntity
  8
0
  6
CONTINUOUS
 62
     7
100
AcDbVertex
100
AcDb2dVertex
 10
7.9854138407
 20
6.7668236068
 30
0.0
  0
VERTEX
  5
5B1
330
272
100
AcDbEntity
  8
0
  6
CONTINUOUS
 62
     7
100
AcDbVertex
100
AcDb2dVertex
 10
7.996704207
 20
6.7954451429
 30
0.0
  0
VERTEX
  5
5B2
330
272
100
AcDbEntity
  8
0
  6
CONTINUOUS
 62
     7
100
AcDbVertex
100
AcDb2dVertex
 10
8.0089968962
 20
6.8239204076
 30
0.0
  0
VERTEX
  5
5B3
330
272
100
AcDbEntity
  8
0
  6
CONTINUOUS
 62
     7
100
AcDbVertex
100
AcDb2dVertex
 10
8.022257093
 20
6.8521687537
 30
0.0
  0
VERTEX
  5
5B4
330
272
100
AcDbEntity
  8
0
  6
CONTINUOUS
 62
     7
100
AcDbVertex
100
AcDb2dVertex
 10
8.036447242
 20
6.8801101764
 30
0.0
  0
VERTEX
  5
5B5
330
272
100
AcDbEntity
  8
0
  6
CONTINUOUS
 62
     7
100
AcDbVertex
100
AcDb2dVertex
 10
8.0515271541
 20
6.9076655403
 30
0.0
  0
VERTEX
  5
5B6
330
272
100
AcDbEntity
  8
0
  6
CONTINUOUS
 62
     7
100
AcDbVertex
100
AcDb2dVertex
 10
8.06745412
 20
6.9347568032
 30
0.0
  0
VERTEX
  5
5B7
330
272
100
AcDbEntity
  8
0
  6
CONTINUOUS
 62
     7
100
AcDbVertex
100
AcDb2dVertex
 10
8.0841830314
 20
6.9613072375
 30
0.0
  0
VERTEX
  5
5B8
330
272
100
AcDbEntity
  8
0
  6
CONTINUOUS
 62
     7
100
AcDbVertex
100
AcDb2dVertex
 10
8.101666509
 20
6.9872416474
 30
0.0
  0
VERTEX
  5
5B9
330
272
100
AcDbEntity
  8
0
  6
CONTINUOUS
 62
     7
100
AcDbVertex
100
AcDb2dVertex
 10
8.1198550362
 20
7.0124865816
 30
0.0
  0
VERTEX
  5
5BA
330
272
100
AcDbEntity
  8
0
  6
CONTINUOUS
 62
     7
100
AcDbVertex
100
AcDb2dVertex
 10
8.1386970995
 20
7.0369705415
 30
0.0
  0
VERTEX
  5
5BB
330
272
100
AcDbEntity
  8
0
  6
CONTINUOUS
 62
     7
100
AcDbVertex
100
AcDb2dVertex
 10
8.1581393347
 20
7.0606241841
 30
0.0
  0
VERTEX
  5
5BC
330
272
100
AcDbEntity
  8
0
  6
CONTINUOUS
 62
     7
100
AcDbVertex
100
AcDb2dVertex
 10
8.1781266776
 20
7.0833805175
 30
0.0
  0
VERTEX
  5
5BD
330
272
100
AcDbEntity
  8
0
  6
CONTINUOUS
 62
     7
100
AcDbVertex
100
AcDb2dVertex
 10
8.1986025202
 20
7.1051750915
 30
0.0
  0
VERTEX
  5
5BE
330
272
100
AcDbEntity
  8
0
  6
CONTINUOUS
 62
     7
100
AcDbVertex
100
AcDb2dVertex
 10
8.219508871
 20
7.1259461798
 30
0.0
  0
VERTEX
  5
5BF
330
272
100
AcDbEntity
  8
0
  6
CONTINUOUS
 62
     7
100
AcDbVertex
100
AcDb2dVertex
 10
8.2407865192
 20
7.1456349545
 30
0.0
  0
VERTEX
  5
5C0
330
272
100
AcDbEntity
  8
0
  6
CONTINUOUS
 62
     7
100
AcDbVertex
100
AcDb2dVertex
 10
8.2623752026
 20
7.1641856534
 30
0.0
  0
VERTEX
  5
5C1
330
272
100
AcDbEntity
  8
0
  6
CONTINUOUS
 62
     7
100
AcDbVertex
100
AcDb2dVertex
 10
8.2842137776
 20
7.1815457373
 30
0.0
  0
VERTEX
  5
5C2
330
272
100
AcDbEntity
  8
0
  6
CONTINUOUS
 62
     7
100
AcDbVertex
100
AcDb2dVertex
 10
8.3062403934
 20
7.1976660391
 30
0.0
  0
VERTEX
  5
5C3
330
272
100
AcDbEntity
  8
0
  6
CONTINUOUS
 62
     7
100
AcDbVertex
100
AcDb2dVertex
 10
8.3283926664
 20
7.212500903
 30
0.0
  0
VERTEX
  5
5C4
330
272
100
AcDbEntity
  8
0
  6
CONTINUOUS
 62
     7
100
AcDbVertex
100
AcDb2dVertex
 10
8.3506078571
 20
7.2260083139
 30
0.0
  0
VERTEX
  5
5C5
330
272
100
AcDbEntity
  8
0
  6
CONTINUOUS
 62
     7
100
AcDbVertex
100
AcDb2dVertex
 10
8.3728230477
 20
7.2381500162
 30
0.0
  0
VERTEX
  5
5C6
330
272
100
AcDbEntity
  8
0
  6
CONTINUOUS
 62
     7
100
AcDbVertex
100
AcDb2dVertex
 10
8.3949753207
 20
7.2488916222
 30
0.0
  0
VERTEX
  5
5C7
330
272
100
AcDbEntity
  8
0
  6
CONTINUOUS
 62
     7
100
AcDbVertex
100
AcDb2dVertex
 10
8.4170019365
 20
7.2582027097
 30
0.0
  0
VERTEX
  5
5C8
330
272
100
AcDbEntity
  8
0
  6
CONTINUOUS
 62
     7
100
AcDbVertex
100
AcDb2dVertex
 10
8.4388405116
 20
7.2660569079
 30
0.0
  0
VERTEX
  5
5C9
330
272
100
AcDbEntity
  8
0
  6
CONTINUOUS
 62
     7
100
AcDbVertex
100
AcDb2dVertex
 10
8.4604291949
 20
7.2724319722
 30
0.0
  0
VERTEX
  5
5CA
330
272
100
AcDbEntity
  8
0
  6
CONTINUOUS
 62
     7
100
AcDbVertex
100
AcDb2dVertex
 10
8.4817068431
 20
7.2773098472
 30
0.0
  0
VERTEX
  5
5CB
330
272
100
AcDbEntity
  8
0
  6
CONTINUOUS
 62
     7
100
AcDbVertex
100
AcDb2dVertex
 10
8.502613194
 20
7.2806767178
 30
0.0
  0
VERTEX
  5
5CC
330
272
100
AcDbEntity
  8
0
  6
CONTINUOUS
 62
     7
100
AcDbVertex
100
AcDb2dVertex
 10
8.5230890366
 20
7.2825230485
 30
0.0
  0
VERTEX
  5
5CD
330
272
100
AcDbEntity
  8
0
  6
CONTINUOUS
 62
     7
100
AcDbVertex
100
AcDb2dVertex
 10
8.5430763794
 20
7.2828436099
 30
0.0
  0
VERTEX
  5
5CE
330
272
100
AcDbEntity
  8
0
  6
CONTINUOUS
 62
     7
100
AcDbVertex
100
AcDb2dVertex
 10
8.5625186146
 20
7.2816374943
 30
0.0
  0
VERTEX
  5
5CF
330
272
100
AcDbEntity
  8
0
  6
CONTINUOUS
 62
     7
100
AcDbVertex
100
AcDb2dVertex
 10
8.5813606779
 20
7.2789081176
 30
0.0
  0
VERTEX
  5
5D0
330
272
100
AcDbEntity
  8
0
  6
CONTINUOUS
 62
     7
100
AcDbVertex
100
AcDb2dVertex
 10
8.5995492051
 20
7.2746632099
 30
0.0
  0
VERTEX
  5
5D1
330
272
100
AcDbEntity
  8
0
  6
CONTINUOUS
 62
     7
100
AcDbVertex
100
AcDb2dVertex
 10
8.6170326827
 20
7.2689147936
 30
0.0
  0
VERTEX
  5
5D2
330
272
100
AcDbEntity
  8
0
  6
CONTINUOUS
 62
     7
100
AcDbVertex
100
AcDb2dVertex
 10
8.6337615942
 20
7.2616791493
 30
0.0
  0
VERTEX
  5
5D3
330
272
100
AcDbEntity
  8
0
  6
CONTINUOUS
 62
     7
100
AcDbVertex
100
AcDb2dVertex
 10
8.6458594514
 20
7.2552453516
 30
0.0
  0
SEQEND
  5
5D4
330
272
100
AcDbEntity
  8
0
  6
CONTINUOUS
 62
     7
  0
POLYLINE
  5
273
330
1F
100
AcDbEntity
  8
0
  6
CONTINUOUS
 62
     7
100
AcDb2dPolyline
 66
     1
 10
0.0
 20
0.0
 30
0.0
  0
VERTEX
  5
5D5
330
273
100
AcDbEntity
  8
0
  6
CONTINUOUS
 62
     7
100
AcDbVertex
100
AcDb2dVertex
 10
8.9714574978
 20
6.6027348577
 30
0.0
  0
VERTEX
  5
5D6
330
273
100
AcDbEntity
  8
0
  6
CONTINUOUS
 62
     7
100
AcDbVertex
100
AcDb2dVertex
 10
8.9708624209
 20
6.5851204593
 30
0.0
  0
VERTEX
  5
5D7
330
273
100
AcDbEntity
  8
0
  6
CONTINUOUS
 62
     7
100
AcDbVertex
100
AcDb2dVertex
 10
8.9690809526
 20
6.5669303637
 30
0.0
  0
VERTEX
  5
5D8
330
273
100
AcDbEntity
  8
0
  6
CONTINUOUS
 62
     7
100
AcDbVertex
100
AcDb2dVertex
 10
8.9661243558
 20
6.5482795745
 30
0.0
  0
VERTEX
  5
5D9
330
273
100
AcDbEntity
  8
0
  6
CONTINUOUS
 62
     7
100
AcDbVertex
100
AcDb2dVertex
 10
8.9620113232
 20
6.529286008
 30
0.0
  0
VERTEX
  5
5DA
330
273
100
AcDbEntity
  8
0
  6
CONTINUOUS
 62
     7
100
AcDbVertex
100
AcDb2dVertex
 10
8.9567678585
 20
6.5100697477
 30
0.0
  0
VERTEX
  5
5DB
330
273
100
AcDbEntity
  8
0
  6
CONTINUOUS
 62
     7
100
AcDbVertex
100
AcDb2dVertex
 10
8.9504271128
 20
6.4907522849
 30
0.0
  0
VERTEX
  5
5DC
330
273
100
AcDbEntity
  8
0
  6
CONTINUOUS
 62
     7
100
AcDbVertex
100
AcDb2dVertex
 10
8.9430291742
 20
6.4714557509
 30
0.0
  0
VERTEX
  5
5DD
330
273
100
AcDbEntity
  8
0
  6
CONTINUOUS
 62
     7
100
AcDbVertex
100
AcDb2dVertex
 10
8.9346208149
 20
6.4523021445
 30
0.0
  0
VERTEX
  5
5DE
330
273
100
AcDbEntity
  8
0
  6
CONTINUOUS
 62
     7
100
AcDbVertex
100
AcDb2dVertex
 10
8.9252551953
 20
6.4334125611
 30
0.0
  0
VERTEX
  5
5DF
330
273
100
AcDbEntity
  8
0
  6
CONTINUOUS
 62
     7
100
AcDbVertex
100
AcDb2dVertex
 10
8.9149915277
 20
6.4149064266
 30
0.0
  0
VERTEX
  5
5E0
330
273
100
AcDbEntity
  8
0
  6
CONTINUOUS
 62
     7
100
AcDbVertex
100
AcDb2dVertex
 10
8.9038947025
 20
6.3969007428
 30
0.0
  0
VERTEX
  5
5E1
330
273
100
AcDbEntity
  8
0
  6
CONTINUOUS
 62
     7
100
AcDbVertex
100
AcDb2dVertex
 10
8.8920348773
 20
6.3795093474
 30
0.0
  0
VERTEX
  5
5E2
330
273
100
AcDbEntity
  8
0
  6
CONTINUOUS
 62
     7
100
AcDbVertex
100
AcDb2dVertex
 10
8.8794870337
 20
6.3628421945
 30
0.0
  0
VERTEX
  5
5E3
330
273
100
AcDbEntity
  8
0
  6
CONTINUOUS
 62
     7
100
AcDbVertex
100
AcDb2dVertex
 10
8.8663305033
 20
6.3470046591
 30
0.0
  0
VERTEX
  5
5E4
330
273
100
AcDbEntity
  8
0
  6
CONTINUOUS
 62
     7
100
AcDbVertex
100
AcDb2dVertex
 10
8.8526484659
 20
6.3320968712
 30
0.0
  0
VERTEX
  5
5E5
330
273
100
AcDbEntity
  8
0
  6
CONTINUOUS
 62
     7
100
AcDbVertex
100
AcDb2dVertex
 10
8.8385274237
 20
6.3182130827
 30
0.0
  0
VERTEX
  5
5E6
330
273
100
AcDbEntity
  8
0
  6
CONTINUOUS
 62
     7
100
AcDbVertex
100
AcDb2dVertex
 10
8.8240566545
 20
6.3054410713
 30
0.0
  0
VERTEX
  5
5E7
330
273
100
AcDbEntity
  8
0
  6
CONTINUOUS
 62
     7
100
AcDbVertex
100
AcDb2dVertex
 10
8.8093276472
 20
6.2938615859
 30
0.0
  0
VERTEX
  5
5E8
330
273
100
AcDbEntity
  8
0
  6
CONTINUOUS
 62
     7
100
AcDbVertex
100
AcDb2dVertex
 10
8.7944335232
 20
6.2835478356
 30
0.0
  0
VERTEX
  5
5E9
330
273
100
AcDbEntity
  8
0
  6
CONTINUOUS
 62
     7
100
AcDbVertex
100
AcDb2dVertex
 10
8.7794684481
 20
6.2745650273
 30
0.0
  0
VERTEX
  5
5EA
330
273
100
AcDbEntity
  8
0
  6
CONTINUOUS
 62
     7
100
AcDbVertex
100
AcDb2dVertex
 10
8.7645270359
 20
6.2669699532
 30
0.0
  0
VERTEX
  5
5EB
330
273
100
AcDbEntity
  8
0
  6
CONTINUOUS
 62
     7
100
AcDbVertex
100
AcDb2dVertex
 10
8.7497037509
 20
6.2608106318
 30
0.0
  0
VERTEX
  5
5EC
330
273
100
AcDbEntity
  8
0
  6
CONTINUOUS
 62
     7
100
AcDbVertex
100
AcDb2dVertex
 10
8.7350923108
 20
6.2561260043
 30
0.0
  0
VERTEX
  5
5ED
330
273
100
AcDbEntity
  8
0
  6
CONTINUOUS
 62
     7
100
AcDbVertex
100
AcDb2dVertex
 10
8.7207850938
 20
6.2529456885
 30
0.0
  0
VERTEX
  5
5EE
330
273
100
AcDbEntity
  8
0
  6
CONTINUOUS
 62
     7
100
AcDbVertex
100
AcDb2dVertex
 10
8.7068725547
 20
6.2512897913
 30
0.0
  0
VERTEX
  5
5EF
330
273
100
AcDbEntity
  8
0
  6
CONTINUOUS
 62
     7
100
AcDbVertex
100
AcDb2dVertex
 10
8.693442653
 20
6.2511687819
 30
0.0
  0
VERTEX
  5
5F0
330
273
100
AcDbEntity
  8
0
  6
CONTINUOUS
 62
     7
100
AcDbVertex
100
AcDb2dVertex
 10
8.680580297
 20
6.2525834252
 30
0.0
  0
VERTEX
  5
5F1
330
273
100
AcDbEntity
  8
0
  6
CONTINUOUS
 62
     7
100
AcDbVertex
100
AcDb2dVertex
 10
8.6683668066
 20
6.2555247776
 30
0.0
  0
VERTEX
  5
5F2
330
273
100
AcDbEntity
  8
0
  6
CONTINUOUS
 62
     7
100
AcDbVertex
100
AcDb2dVertex
 10
8.6568793994
 20
6.2599742427
 30
0.0
  0
VERTEX
  5
5F3
330
273
100
AcDbEntity
  8
0
  6
CONTINUOUS
 62
     7
100
AcDbVertex
100
AcDb2dVertex
 10
8.6461907025
 20
6.2659036897
 30
0.0
  0
VERTEX
  5
5F4
330
273
100
AcDbEntity
  8
0
  6
CONTINUOUS
 62
     7
100
AcDbVertex
100
AcDb2dVertex
 10
8.6363682933
 20
6.2732756306
 30
0.0
  0
VERTEX
  5
5F5
330
273
100
AcDbEntity
  8
0
  6
CONTINUOUS
 62
     7
100
AcDbVertex
100
AcDb2dVertex
 10
8.6274742722
 20
6.2820434578
 30
0.0
  0
VERTEX
  5
5F6
330
273
100
AcDbEntity
  8
0
  6
CONTINUOUS
 62
     7
100
AcDbVertex
100
AcDb2dVertex
 10
8.61956487
 20
6.292151738
 30
0.0
  0
VERTEX
  5
5F7
330
273
100
AcDbEntity
  8
0
  6
CONTINUOUS
 62
     7
100
AcDbVertex
100
AcDb2dVertex
 10
8.6126900927
 20
6.3035365637
 30
0.0
  0
VERTEX
  5
5F8
330
273
100
AcDbEntity
  8
0
  6
CONTINUOUS
 62
     7
100
AcDbVertex
100
AcDb2dVertex
 10
8.6068934046
 20
6.3161259562
 30
0.0
  0
VERTEX
  5
5F9
330
273
100
AcDbEntity
  8
0
  6
CONTINUOUS
 62
     7
100
AcDbVertex
100
AcDb2dVertex
 10
8.6022114544
 20
6.3298403213
 30
0.0
  0
VERTEX
  5
5FA
330
273
100
AcDbEntity
  8
0
  6
CONTINUOUS
 62
     7
100
AcDbVertex
100
AcDb2dVertex
 10
8.5986738429
 20
6.3445929524
 30
0.0
  0
VERTEX
  5
5FB
330
273
100
AcDbEntity
  8
0
  6
CONTINUOUS
 62
     7
100
AcDbVertex
100
AcDb2dVertex
 10
8.5963029359
 20
6.3602905786
 30
0.0
  0
VERTEX
  5
5FC
330
273
100
AcDbEntity
  8
0
  6
CONTINUOUS
 62
     7
100
AcDbVertex
100
AcDb2dVertex
 10
8.5951137231
 20
6.3768339545
 30
0.0
  0
VERTEX
  5
5FD
330
273
100
AcDbEntity
  8
0
  6
CONTINUOUS
 62
     7
100
AcDbVertex
100
AcDb2dVertex
 10
8.5951137231
 20
6.3941184875
 30
0.0
  0
VERTEX
  5
5FE
330
273
100
AcDbEntity
  8
0
  6
CONTINUOUS
 62
     7
100
AcDbVertex
100
AcDb2dVertex
 10
8.5963029359
 20
6.4120348993
 30
0.0
  0
VERTEX
  5
5FF
330
273
100
AcDbEntity
  8
0
  6
CONTINUOUS
 62
     7
100
AcDbVertex
100
AcDb2dVertex
 10
8.5986738429
 20
6.4304699165
 30
0.0
  0
VERTEX
  5
600
330
273
100
AcDbEntity
  8
0
  6
CONTINUOUS
 62
     7
100
AcDbVertex
100
AcDb2dVertex
 10
8.6022114544
 20
6.4493069869
 30
0.0
  0
VERTEX
  5
601
330
273
100
AcDbEntity
  8
0
  6
CONTINUOUS
 62
     7
100
AcDbVertex
100
AcDb2dVertex
 10
8.6068934046
 20
6.4684270167
 30
0.0
  0
VERTEX
  5
602
330
273
100
AcDbEntity
  8
0
  6
CONTINUOUS
 62
     7
100
AcDbVertex
100
AcDb2dVertex
 10
8.6126900927
 20
6.4877091227
 30
0.0
  0
VERTEX
  5
603
330
273
100
AcDbEntity
  8
0
  6
CONTINUOUS
 62
     7
100
AcDbVertex
100
AcDb2dVertex
 10
8.61956487
 20
6.5070313974
 30
0.0
  0
VERTEX
  5
604
330
273
100
AcDbEntity
  8
0
  6
CONTINUOUS
 62
     7
100
AcDbVertex
100
AcDb2dVertex
 10
8.6274742722
 20
6.526271679
 30
0.0
  0
VERTEX
  5
605
330
273
100
AcDbEntity
  8
0
  6
CONTINUOUS
 62
     7
100
AcDbVertex
100
AcDb2dVertex
 10
8.6363682933
 20
6.5453083243
 30
0.0
  0
VERTEX
  5
606
330
273
100
AcDbEntity
  8
0
  6
CONTINUOUS
 62
     7
100
AcDbVertex
100
AcDb2dVertex
 10
8.6461907025
 20
6.5640209776
 30
0.0
  0
VERTEX
  5
607
330
273
100
AcDbEntity
  8
0
  6
CONTINUOUS
 62
     7
100
AcDbVertex
100
AcDb2dVertex
 10
8.6568793994
 20
6.5822913313
 30
0.0
  0
VERTEX
  5
608
330
273
100
AcDbEntity
  8
0
  6
CONTINUOUS
 62
     7
100
AcDbVertex
100
AcDb2dVertex
 10
8.6683668066
 20
6.6000038744
 30
0.0
  0
VERTEX
  5
609
330
273
100
AcDbEntity
  8
0
  6
CONTINUOUS
 62
     7
100
AcDbVertex
100
AcDb2dVertex
 10
8.680580297
 20
6.6170466226
 30
0.0
  0
VERTEX
  5
60A
330
273
100
AcDbEntity
  8
0
  6
CONTINUOUS
 62
     7
100
AcDbVertex
100
AcDb2dVertex
 10
8.693442653
 20
6.6333118261
 30
0.0
  0
VERTEX
  5
60B
330
273
100
AcDbEntity
  8
0
  6
CONTINUOUS
 62
     7
100
AcDbVertex
100
AcDb2dVertex
 10
8.7068725547
 20
6.6486966511
 30
0.0
  0
VERTEX
  5
60C
330
273
100
AcDbEntity
  8
0
  6
CONTINUOUS
 62
     7
100
AcDbVertex
100
AcDb2dVertex
 10
8.7207850938
 20
6.6631038296
 30
0.0
  0
VERTEX
  5
60D
330
273
100
AcDbEntity
  8
0
  6
CONTINUOUS
 62
     7
100
AcDbVertex
100
AcDb2dVertex
 10
8.7350923108
 20
6.676442275
 30
0.0
  0
VERTEX
  5
60E
330
273
100
AcDbEntity
  8
0
  6
CONTINUOUS
 62
     7
100
AcDbVertex
100
AcDb2dVertex
 10
8.7497037509
 20
6.6886276572
 30
0.0
  0
VERTEX
  5
60F
330
273
100
AcDbEntity
  8
0
  6
CONTINUOUS
 62
     7
100
AcDbVertex
100
AcDb2dVertex
 10
8.7645270359
 20
6.6995829363
 30
0.0
  0
VERTEX
  5
610
330
273
100
AcDbEntity
  8
0
  6
CONTINUOUS
 62
     7
100
AcDbVertex
100
AcDb2dVertex
 10
8.7794684481
 20
6.7092388496
 30
0.0
  0
VERTEX
  5
611
330
273
100
AcDbEntity
  8
0
  6
CONTINUOUS
 62
     7
100
AcDbVertex
100
AcDb2dVertex
 10
8.7944335232
 20
6.7175343493
 30
0.0
  0
VERTEX
  5
612
330
273
100
AcDbEntity
  8
0
  6
CONTINUOUS
 62
     7
100
AcDbVertex
100
AcDb2dVertex
 10
8.8093276472
 20
6.7244169884
 30
0.0
  0
VERTEX
  5
613
330
273
100
AcDbEntity
  8
0
  6
CONTINUOUS
 62
     7
100
AcDbVertex
100
AcDb2dVertex
 10
8.8240566545
 20
6.7298432529
 30
0.0
  0
VERTEX
  5
614
330
273
100
AcDbEntity
  8
0
  6
CONTINUOUS
 62
     7
100
AcDbVertex
100
AcDb2dVertex
 10
8.8385274237
 20
6.733778836
 30
0.0
  0
VERTEX
  5
615
330
273
100
AcDbEntity
  8
0
  6
CONTINUOUS
 62
     7
100
AcDbVertex
100
AcDb2dVertex
 10
8.8526484659
 20
6.7361988558
 30
0.0
  0
VERTEX
  5
616
330
273
100
AcDbEntity
  8
0
  6
CONTINUOUS
 62
     7
100
AcDbVertex
100
AcDb2dVertex
 10
8.8663305033
 20
6.737088012
 30
0.0
  0
VERTEX
  5
617
330
273
100
AcDbEntity
  8
0
  6
CONTINUOUS
 62
     7
100
AcDbVertex
100
AcDb2dVertex
 10
8.8794870337
 20
6.7364406833
 30
0.0
  0
VERTEX
  5
618
330
273
100
AcDbEntity
  8
0
  6
CONTINUOUS
 62
     7
100
AcDbVertex
100
AcDb2dVertex
 10
8.8920348773
 20
6.7342609622
 30
0.0
  0
VERTEX
  5
619
330
273
100
AcDbEntity
  8
0
  6
CONTINUOUS
 62
     7
100
AcDbVertex
100
AcDb2dVertex
 10
8.9038947025
 20
6.7305626295
 30
0.0
  0
VERTEX
  5
61A
330
273
100
AcDbEntity
  8
0
  6
CONTINUOUS
 62
     7
100
AcDbVertex
100
AcDb2dVertex
 10
8.9149915277
 20
6.7253690674
 30
0.0
  0
VERTEX
  5
61B
330
273
100
AcDbEntity
  8
0
  6
CONTINUOUS
 62
     7
100
AcDbVertex
100
AcDb2dVertex
 10
8.9252551953
 20
6.7187131113
 30
0.0
  0
VERTEX
  5
61C
330
273
100
AcDbEntity
  8
0
  6
CONTINUOUS
 62
     7
100
AcDbVertex
100
AcDb2dVertex
 10
8.9346208149
 20
6.7106368421
 30
0.0
  0
VERTEX
  5
61D
330
273
100
AcDbEntity
  8
0
  6
CONTINUOUS
 62
     7
100
AcDbVertex
100
AcDb2dVertex
 10
8.9430291742
 20
6.7011913207
 30
0.0
  0
VERTEX
  5
61E
330
273
100
AcDbEntity
  8
0
  6
CONTINUOUS
 62
     7
100
AcDbVertex
100
AcDb2dVertex
 10
8.9504271128
 20
6.6904362648
 30
0.0
  0
VERTEX
  5
61F
330
273
100
AcDbEntity
  8
0
  6
CONTINUOUS
 62
     7
100
AcDbVertex
100
AcDb2dVertex
 10
8.9567678585
 20
6.6784396712
 30
0.0
  0
VERTEX
  5
620
330
273
100
AcDbEntity
  8
0
  6
CONTINUOUS
 62
     7
100
AcDbVertex
100
AcDb2dVertex
 10
8.9620113232
 20
6.6652773862
 30
0.0
  0
VERTEX
  5
621
330
273
100
AcDbEntity
  8
0
  6
CONTINUOUS
 62
     7
100
AcDbVertex
100
AcDb2dVertex
 10
8.9661243558
 20
6.6510326262
 30
0.0
  0
VERTEX
  5
622
330
273
100
AcDbEntity
  8
0
  6
CONTINUOUS
 62
     7
100
AcDbVertex
100
AcDb2dVertex
 10
8.9690809526
 20
6.635795451
 30
0.0
  0
VERTEX
  5
623
330
273
100
AcDbEntity
  8
0
  6
CONTINUOUS
 62
     7
100
AcDbVertex
100
AcDb2dVertex
 10
8.9708624209
 20
6.6196621949
 30
0.0
  0
VERTEX
  5
624
330
273
100
AcDbEntity
  8
0
  6
CONTINUOUS
 62
     7
100
AcDbVertex
100
AcDb2dVertex
 10
8.9714574978
 20
6.6027348577
 30
0.0
  0
SEQEND
  5
625
330
273
100
AcDbEntity
  8
0
  6
CONTINUOUS
 62
     7
  0
SPLINE
  5
274
330
1F
100
AcDbEntity
  8
0
  6
CONTINUOUS
 62
     7
100
AcDbSpline
210
0.0
220
0.0
230
1.0
 70
     8
 71
     3
 72
     9
 73
     5
 74
     0
 42
0.00000001
 43
0.00000001
 40
0.0
 40
0.0
 40
0.0
 40
0.0
 40
0.7846175832998074
 40
1.0
 40
1.0
 40
1.0
 40
1.0
 10
8.521526009663003
 20
7.111439763331635
 30
0.0
 10
8.517065314073578
 20
7.108735663577409
 30
0.0
 10
8.511380129743824
 20
7.105289271587499
 30
0.0
 10
8.507416003588327
 20
7.100693109966808
 30
0.0
 10
8.506562200516852
 20
7.099703177569398
 30
0.0
  0
SPLINE
  5
275
330
1F
100
AcDbEntity
  8
0
  6
CONTINUOUS
 62
     7
100
AcDbSpline
210
0.0
220
0.0
230
1.0
 70
     8
 71
     3
 72
    15
 73
    11
 74
     0
 42
0.00000001
 43
0.00000001
 40
0.0
 40
0.0
 40
0.0
 40
0.0
 40
0.0000778667693578
 40
0.1846687288085153
 40
0.3486371987419806
 40
0.4921208828427582
 40
0.6153421495924544
 40
0.7386332347658839
 40
0.882187636703374
 40
1.0
 40
1.0
 40
1.0
 40
1.0
 10
8.486933668858002
 20
7.055981538941357
 30
0.0
 10
8.486933220059036
 20
7.055978858773766
 30
0.0
 10
8.485868849012006
 20
7.049622576807769
 30
0.0
 10
8.489422832068097
 20
7.037322048953127
 30
0.0
 10
8.497140355554793
 20
7.021528792208813
 30
0.0
 10
8.508363557497542
 20
7.009277676801124
 30
0.0
 10
8.521141142703959
 20
7.00003235843225
 30
0.0
 10
8.536196898992861
 20
6.993252288853376
 30
0.0
 10
8.552799211647313
 20
6.988529521609873
 30
0.0
 10
8.565333203240138
 20
6.987570250683966
 30
0.0
 10
8.570982961998748
 20
6.987137854565349
 30
0.0
  0
SPLINE
  5
276
330
1F
100
AcDbEntity
  8
0
  6
CONTINUOUS
 62
     7
100
AcDbSpline
210
0.0
220
0.0
230
1.0
 70
     8
 71
     3
 72
    14
 73
    10
 74
     0
 42
0.00000001
 43
0.00000001
 40
0.0
 40
0.0
 40
0.0
 40
0.0
 40
0.0626793692508064
 40
0.2155058319224832
 40
0.3484543489575321
 40
0.4812036677358351
 40
0.6339055591175965
 40
0.8067994421467857
 40
1.0
 40
1.0
 40
1.0
 40
1.0
 10
8.64693199158925
 20
6.997205037951836
 30
0.0
 10
8.649760930060072
 20
6.998012801097497
 30
0.0
 10
8.659487459632699
 20
7.000790073281039
 30
0.0
 10
8.673617372608945
 20
7.00700829595965
 30
0.0
 10
8.68892657414989
 20
7.01495809232008
 30
0.0
 10
8.701894033369978
 20
7.023242322847538
 30
0.0
 10
8.71293932763131
 20
7.03271492692935
 30
0.0
 10
8.721395419200169
 20
7.043920680409371
 30
0.0
 10
8.722545268439811
 20
7.051815398129018
 30
0.0
 10
8.72315208321146
 20
7.055981710689933
 30
0.0
  0
LINE
  5
277
330
1F
100
AcDbEntity
  8
0
  6
CONTINUOUS
 62
     7
100
AcDbLine
 10
8.5251993515
 20
7.1131298141
 30
0.0
 11
8.5215260097
 21
7.1114397633
 31
0.0
  0
LINE
  5
278
330
1F
100
AcDbEntity
  8
0
  6
CONTINUOUS
 62
     7
100
AcDbLine
 10
8.3463162586
 20
7.1598961727
 30
0.0
 11
8.3463162586
 21
7.0887540374
 31
0.0
  0
ARC
  5
279
330
1F
100
AcDbEntity
  8
0
  6
CONTINUOUS
 62
     7
100
AcDbCircle
 10
8.8284978227
 20
6.6197187784
 30
0.0
 40
0.1019577931504448
100
AcDbArc
 50
350.4110866177
 51
123.5271505581
  0
POLYLINE
  5
27A
330
1F
100
AcDbEntity
  8
0
  6
CONTINUOUS
 62
     7
100
AcDb2dPolyline
 66
     1
 10
0.0
 20
0.0
 30
0.0
  0
VERTEX
  5
626
330
27A
100
AcDbEntity
  8
0
  6
CONTINUOUS
 62
     7
100
AcDbVertex
100
AcDb2dVertex
 10
8.5952773783
 20
6.3982700757
 30
0.0
  0
VERTEX
  5
627
330
27A
100
AcDbEntity
  8
0
  6
CONTINUOUS
 62
     7
100
AcDbVertex
100
AcDb2dVertex
 10
8.5962820009
 20
6.3864681645
 30
0.0
  0
VERTEX
  5
628
330
27A
100
AcDbEntity
  8
0
  6
CONTINUOUS
 62
     7
100
AcDbVertex
100
AcDb2dVertex
 10
8.598614969
 20
6.3718869235
 30
0.0
  0
VERTEX
  5
629
330
27A
100
AcDbEntity
  8
0
  6
CONTINUOUS
 62
     7
100
AcDbVertex
100
AcDb2dVertex
 10
8.6020939516
 20
6.3582485547
 30
0.0
  0
VERTEX
  5
62A
330
27A
100
AcDbEntity
  8
0
  6
CONTINUOUS
 62
     7
100
AcDbVertex
100
AcDb2dVertex
 10
8.6066945462
 20
6.3456487215
 30
0.0
  0
VERTEX
  5
62B
330
27A
100
AcDbEntity
  8
0
  6
CONTINUOUS
 62
     7
100
AcDbVertex
100
AcDb2dVertex
 10
8.6123844828
 20
6.3341758026
 30
0.0
  0
VERTEX
  5
62C
330
27A
100
AcDbEntity
  8
0
  6
CONTINUOUS
 62
     7
100
AcDbVertex
100
AcDb2dVertex
 10
8.6191238507
 20
6.3239102724
 30
0.0
  0
VERTEX
  5
62D
330
27A
100
AcDbEntity
  8
0
  6
CONTINUOUS
 62
     7
100
AcDbVertex
100
AcDb2dVertex
 10
8.6268653781
 20
6.3149241361
 30
0.0
  0
VERTEX
  5
62E
330
27A
100
AcDbEntity
  8
0
  6
CONTINUOUS
 62
     7
100
AcDbVertex
100
AcDb2dVertex
 10
8.6355547637
 20
6.307280425
 30
0.0
  0
VERTEX
  5
62F
330
27A
100
AcDbEntity
  8
0
  6
CONTINUOUS
 62
     7
100
AcDbVertex
100
AcDb2dVertex
 10
8.6451310577
 20
6.3010327542
 30
0.0
  0
VERTEX
  5
630
330
27A
100
AcDbEntity
  8
0
  6
CONTINUOUS
 62
     7
100
AcDbVertex
100
AcDb2dVertex
 10
8.6555270893
 20
6.2962249468
 30
0.0
  0
VERTEX
  5
631
330
27A
100
AcDbEntity
  8
0
  6
CONTINUOUS
 62
     7
100
AcDbVertex
100
AcDb2dVertex
 10
8.6666699377
 20
6.2928907259
 30
0.0
  0
VERTEX
  5
632
330
27A
100
AcDbEntity
  8
0
  6
CONTINUOUS
 62
     7
100
AcDbVertex
100
AcDb2dVertex
 10
8.678481444
 20
6.2910534789
 30
0.0
  0
VERTEX
  5
633
330
27A
100
AcDbEntity
  8
0
  6
CONTINUOUS
 62
     7
100
AcDbVertex
100
AcDb2dVertex
 10
8.6908787589
 20
6.2907260925
 30
0.0
  0
VERTEX
  5
634
330
27A
100
AcDbEntity
  8
0
  6
CONTINUOUS
 62
     7
100
AcDbVertex
100
AcDb2dVertex
 10
8.7037749241
 20
6.2919108633
 30
0.0
  0
VERTEX
  5
635
330
27A
100
AcDbEntity
  8
0
  6
CONTINUOUS
 62
     7
100
AcDbVertex
100
AcDb2dVertex
 10
8.7170794822
 20
6.2945994809
 30
0.0
  0
VERTEX
  5
636
330
27A
100
AcDbEntity
  8
0
  6
CONTINUOUS
 62
     7
100
AcDbVertex
100
AcDb2dVertex
 10
8.7306991115
 20
6.2987730865
 30
0.0
  0
VERTEX
  5
637
330
27A
100
AcDbEntity
  8
0
  6
CONTINUOUS
 62
     7
100
AcDbVertex
100
AcDb2dVertex
 10
8.7445382799
 20
6.3044024054
 30
0.0
  0
VERTEX
  5
638
330
27A
100
AcDbEntity
  8
0
  6
CONTINUOUS
 62
     7
100
AcDbVertex
100
AcDb2dVertex
 10
8.7584999157
 20
6.3114479519
 30
0.0
  0
VERTEX
  5
639
330
27A
100
AcDbEntity
  8
0
  6
CONTINUOUS
 62
     7
100
AcDbVertex
100
AcDb2dVertex
 10
8.772486088
 20
6.3198603066
 30
0.0
  0
VERTEX
  5
63A
330
27A
100
AcDbEntity
  8
0
  6
CONTINUOUS
 62
     7
100
AcDbVertex
100
AcDb2dVertex
 10
8.7863986938
 20
6.3295804628
 30
0.0
  0
VERTEX
  5
63B
330
27A
100
AcDbEntity
  8
0
  6
CONTINUOUS
 62
     7
100
AcDbVertex
100
AcDb2dVertex
 10
8.8001401462
 20
6.3405402406
 30
0.0
  0
VERTEX
  5
63C
330
27A
100
AcDbEntity
  8
0
  6
CONTINUOUS
 62
     7
100
AcDbVertex
100
AcDb2dVertex
 10
8.8136140588
 20
6.352662765
 30
0.0
  0
VERTEX
  5
63D
330
27A
100
AcDbEntity
  8
0
  6
CONTINUOUS
 62
     7
100
AcDbVertex
100
AcDb2dVertex
 10
8.8267259219
 20
6.3658630054
 30
0.0
  0
VERTEX
  5
63E
330
27A
100
AcDbEntity
  8
0
  6
CONTINUOUS
 62
     7
100
AcDbVertex
100
AcDb2dVertex
 10
8.839383765
 20
6.3800483713
 30
0.0
  0
VERTEX
  5
63F
330
27A
100
AcDbEntity
  8
0
  6
CONTINUOUS
 62
     7
100
AcDbVertex
100
AcDb2dVertex
 10
8.8514988025
 20
6.3951193628
 30
0.0
  0
VERTEX
  5
640
330
27A
100
AcDbEntity
  8
0
  6
CONTINUOUS
 62
     7
100
AcDbVertex
100
AcDb2dVertex
 10
8.8629860561
 20
6.4109702677
 30
0.0
  0
VERTEX
  5
641
330
27A
100
AcDbEntity
  8
0
  6
CONTINUOUS
 62
     7
100
AcDbVertex
100
AcDb2dVertex
 10
8.8737649511
 20
6.4274899031
 30
0.0
  0
VERTEX
  5
642
330
27A
100
AcDbEntity
  8
0
  6
CONTINUOUS
 62
     7
100
AcDbVertex
100
AcDb2dVertex
 10
8.8837598811
 20
6.4445623958
 30
0.0
  0
VERTEX
  5
643
330
27A
100
AcDbEntity
  8
0
  6
CONTINUOUS
 62
     7
100
AcDbVertex
100
AcDb2dVertex
 10
8.892900739
 20
6.4620679945
 30
0.0
  0
VERTEX
  5
644
330
27A
100
AcDbEntity
  8
0
  6
CONTINUOUS
 62
     7
100
AcDbVertex
100
AcDb2dVertex
 10
8.9011234081
 20
6.4798839099
 30
0.0
  0
VERTEX
  5
645
330
27A
100
AcDbEntity
  8
0
  6
CONTINUOUS
 62
     7
100
AcDbVertex
100
AcDb2dVertex
 10
8.9083702125
 20
6.4978851763
 30
0.0
  0
VERTEX
  5
646
330
27A
100
AcDbEntity
  8
0
  6
CONTINUOUS
 62
     7
100
AcDbVertex
100
AcDb2dVertex
 10
8.9145903208
 20
6.5159455277
 30
0.0
  0
VERTEX
  5
647
330
27A
100
AcDbEntity
  8
0
  6
CONTINUOUS
 62
     7
100
AcDbVertex
100
AcDb2dVertex
 10
8.9197401037
 20
6.5339382836
 30
0.0
  0
VERTEX
  5
648
330
27A
100
AcDbEntity
  8
0
  6
CONTINUOUS
 62
     7
100
AcDbVertex
100
AcDb2dVertex
 10
8.923783439
 20
6.5517372379
 30
0.0
  0
VERTEX
  5
649
330
27A
100
AcDbEntity
  8
0
  6
CONTINUOUS
 62
     7
100
AcDbVertex
100
AcDb2dVertex
 10
8.9266919656
 20
6.5692175437
 30
0.0
  0
VERTEX
  5
64A
330
27A
100
AcDbEntity
  8
0
  6
CONTINUOUS
 62
     7
100
AcDbVertex
100
AcDb2dVertex
 10
8.9284452823
 20
6.5862565892
 30
0.0
  0
VERTEX
  5
64B
330
27A
100
AcDbEntity
  8
0
  6
CONTINUOUS
 62
     7
100
AcDbVertex
100
AcDb2dVertex
 10
8.9290310909
 20
6.6027348577
 30
0.0
  0
SEQEND
  5
64C
330
27A
100
AcDbEntity
  8
0
  6
CONTINUOUS
 62
     7
  0
LINE
  5
27B
330
1F
100
AcDbEntity
  8
0
  6
CONTINUOUS
 62
     7
100
AcDbLine
 10
7.9469811984
 20
6.6344141441
 30
0.0
 11
7.8853675034
 21
6.598845315
 31
0.0
  0
SPLINE
  5
27C
330
1F
100
AcDbEntity
  8
0
  6
CONTINUOUS
 62
     7
100
AcDbSpline
210
0.0
220
0.0
230
1.0
 70
     8
 71
     3
 72
    27
 73
    23
 74
     0
 42
0.00000001
 43
0.00000001
 40
0.0
 40
0.0
 40
0.0
 40
0.0
 40
0.0324906914215687
 40
0.0892277569009303
 40
0.1478047644387218
 40
0.200970185911869
 40
0.256123137605107
 40
0.3031325235293162
 40
0.3514567078956214
 40
0.3996983144978729
 40
0.4490483395605951
 40
0.503341411498215
 40
0.5590650306674395
 40
0.6156506862823221
 40
0.6741718598364771
 40
0.7260402791060767
 40
0.779678327755698
 40
0.827671941090096
 40
0.8769898425984376
 40
0.9264522900067318
 40
0.9771106108825852
 40
1.0
 40
1.0
 40
1.0
 40
1.0
 10
8.704840678620986
 20
6.645977912858808
 30
0.0
 10
8.706138031278153
 20
6.642277263591852
 30
0.0
 10
8.70970089382258
 20
6.632114333265648
 30
0.0
 10
8.71753810942521
 20
6.61683890196168
 30
0.0
 10
8.728234232867415
 20
6.601466144053518
 30
0.0
 10
8.740905314928685
 20
6.589187720211807
 30
0.0
 10
8.754307735304353
 20
6.580915531012892
 30
0.0
 10
8.76830808212634
 20
6.576123278261124
 30
0.0
 10
8.782106759160298
 20
6.574424208857226
 30
0.0
 10
8.79607024761067
 20
6.575513400007472
 30
0.0
 10
8.810049452572995
 20
6.579370144361048
 30
0.0
 10
8.823594235516023
 20
6.586172105760902
 30
0.0
 10
8.835920415769024
 20
6.596019463281441
 30
0.0
 10
8.846023304608872
 20
6.608640437659637
 30
0.0
 10
8.852748963645341
 20
6.623110635003345
 30
0.0
 10
8.855897794684438
 20
6.6388117151228
 30
0.0
 10
8.85554808387268
 20
6.654360449387126
 30
0.0
 10
8.852100479912668
 20
6.669934312012606
 30
0.0
 10
8.84609040919089
 20
6.684990650610777
 30
0.0
 10
8.837451119426309
 20
6.699844017855683
 30
0.0
 10
8.828922174479281
 20
6.711700991946135
 30
0.0
 10
8.822791530220131
 20
6.71824283201568
 30
0.0
 10
8.820883561882285
 20
6.72027877199137
 30
0.0
  0
LINE
  5
27D
330
1F
100
AcDbEntity
  8
0
  6
CONTINUOUS
 62
     7
100
AcDbLine
 10
8.1407718552
 20
7.2785544311
 30
0.0
 11
8.1407718552
 21
7.2074122958
 31
0.0
  0
LINE
  5
27E
330
1F
100
AcDbEntity
  8
0
  6
CONTINUOUS
 62
     7
100
AcDbLine
 10
8.0379996534
 20
7.3378835603
 30
0.0
 11
8.0379996534
 21
7.266741425
 31
0.0
  0
LINE
  5
27F
330
1F
100
AcDbEntity
  8
0
  6
CONTINUOUS
 62
     7
100
AcDbLine
 10
7.6386645932
 20
6.8124015317
 30
0.0
 11
7.5770508982
 21
6.7768327026
 31
0.0
  0
LINE
  5
280
330
1F
100
AcDbEntity
  8
0
  6
CONTINUOUS
 62
     7
100
AcDbLine
 10
7.83245525
 20
7.4565418187
 30
0.0
 11
7.83245525
 21
7.3853996834
 31
0.0
  0
ARC
  5
281
330
1F
100
AcDbEntity
  8
0
  6
CONTINUOUS
 62
     7
100
AcDbCircle
 10
8.0191681554
 20
6.9351352401
 30
0.0
 40
0.8580440983782365
100
AcDbArc
 50
122.4924001453
 51
177.5129763874
  0
SPLINE
  5
282
330
1F
100
AcDbEntity
  8
0
  6
CONTINUOUS
 62
     7
100
AcDbSpline
210
0.0
220
0.0
230
1.0
 70
     8
 71
     3
 72
     9
 73
     5
 74
     0
 42
0.00000001
 43
0.00000001
 40
0.0
 40
0.0
 40
0.0
 40
0.0
 40
0.989508994168836
 40
1.0
 40
1.0
 40
1.0
 40
1.0
 10
7.652953900488978
 20
7.612855769018025
 30
0.0
 10
7.64840097832361
 20
7.610213282123696
 30
0.0
 10
7.643799785012384
 20
7.607542778965159
 30
0.0
 10
7.640563281171751
 20
7.603960581749909
 30
0.0
 10
7.640529326991087
 20
7.603923000898035
 30
0.0
  0
SPLINE
  5
283
330
1F
100
AcDbEntity
  8
0
  6
CONTINUOUS
 62
     7
100
AcDbSpline
210
0.0
220
0.0
230
1.0
 70
     8
 71
     3
 72
    15
 73
    11
 74
     0
 42
0.00000001
 43
0.00000001
 40
0.0
 40
0.0
 40
0.0
 40
0.0
 40
0.0000778667693546
 40
0.1846687288085149
 40
0.3486371987419842
 40
0.4921208828427647
 40
0.6153421495924652
 40
0.7386332347650142
 40
0.882187636702215
 40
1.0
 40
1.0
 40
1.0
 40
1.0
 10
7.618361559683978
 20
7.557397544627745
 30
0.0
 10
7.61836111088501
 20
7.557394864460156
 30
0.0
 10
7.617296739837904
 20
7.551038582494207
 30
0.0
 10
7.620850722894104
 20
7.538738054639495
 30
0.0
 10
7.628568246380759
 20
7.522944797895208
 30
0.0
 10
7.639791448323519
 20
7.510693682487512
 30
0.0
 10
7.652569033529902
 20
7.50144836411866
 30
0.0
 10
7.667624789818753
 20
7.494668294539804
 30
0.0
 10
7.684227102473191
 20
7.489945527296297
 30
0.0
 10
7.696761094066054
 20
7.488986256370376
 30
0.0
 10
7.702410852824716
 20
7.48855386025175
 30
0.0
  0
SPLINE
  5
284
330
1F
100
AcDbEntity
  8
0
  6
CONTINUOUS
 62
     7
100
AcDbSpline
210
0.0
220
0.0
230
1.0
 70
     8
 71
     3
 72
    14
 73
    10
 74
     0
 42
0.00000001
 43
0.00000001
 40
0.0
 40
0.0
 40
0.0
 40
0.0
 40
0.0626793692520573
 40
0.2155058319234234
 40
0.3484543489575468
 40
0.4812036677361716
 40
0.6339055591180359
 40
0.8067994421471107
 40
0.9999999999999999
 40
0.9999999999999999
 40
0.9999999999999999
 40
0.9999999999999999
 10
7.778359882415221
 20
7.498621043638213
 30
0.0
 10
7.781188820886096
 20
7.499428806783892
 30
0.0
 10
7.790915350458765
 20
7.50220607896745
 30
0.0
 10
7.805045263435002
 20
7.508424301646073
 30
0.0
 10
7.820354464975905
 20
7.516374098006494
 30
0.0
 10
7.833321924195975
 20
7.524658328533944
 30
0.0
 10
7.844367218457304
 20
7.534130932615768
 30
0.0
 10
7.85282331002615
 20
7.545336686095783
 30
0.0
 10
7.853973159265788
 20
7.553231403815416
 30
0.0
 10
7.854579974037435
 20
7.557397716376323
 30
0.0
  0
LINE
  5
285
330
1F
100
AcDbEntity
  8
0
  6
CONTINUOUS
 62
     7
100
AcDbLine
 10
7.6566272424
 20
7.6145458198
 30
0.0
 11
7.6529539005
 21
7.612855769
 31
0.0
  0
ARC
  5
286
330
1F
100
AcDbEntity
  8
0
  6
CONTINUOUS
 62
     7
100
AcDbCircle
 10
8.7015033216
 20
6.6487368878
 30
0.0
 40
0.140020935576852
100
AcDbArc
 50
1.8651988728
 51
29.7086968526
  0
POLYLINE
  5
287
330
1F
100
AcDbEntity
  8
0
  6
CONTINUOUS
 62
     7
100
AcDb2dPolyline
 66
     1
 10
0.0
 20
0.0
 30
0.0
  0
VERTEX
  5
64D
330
287
100
AcDbEntity
  8
0
  6
CONTINUOUS
 62
     7
100
AcDbVertex
100
AcDb2dVertex
 10
8.7229212083
 20
6.665187456
 30
0.0
  0
VERTEX
  5
64E
330
287
100
AcDbEntity
  8
0
  6
CONTINUOUS
 62
     7
100
AcDbVertex
100
AcDb2dVertex
 10
8.7230205384
 20
6.6650151784
 30
0.0
  0
VERTEX
  5
64F
330
287
100
AcDbEntity
  8
0
  6
CONTINUOUS
 62
     7
100
AcDbVertex
100
AcDb2dVertex
 10
8.7298431895
 20
6.6541672466
 30
0.0
  0
VERTEX
  5
650
330
287
100
AcDbEntity
  8
0
  6
CONTINUOUS
 62
     7
100
AcDbVertex
100
AcDb2dVertex
 10
8.7373884499
 20
6.643989628
 30
0.0
  0
VERTEX
  5
651
330
287
100
AcDbEntity
  8
0
  6
CONTINUOUS
 62
     7
100
AcDbVertex
100
AcDb2dVertex
 10
8.7455272179
 20
6.6346564644
 30
0.0
  0
VERTEX
  5
652
330
287
100
AcDbEntity
  8
0
  6
CONTINUOUS
 62
     7
100
AcDbVertex
100
AcDb2dVertex
 10
8.7541202371
 20
6.6263274488
 30
0.0
  0
VERTEX
  5
653
330
287
100
AcDbEntity
  8
0
  6
CONTINUOUS
 62
     7
100
AcDbVertex
100
AcDb2dVertex
 10
8.7630204785
 20
6.6191450931
 30
0.0
  0
VERTEX
  5
654
330
287
100
AcDbEntity
  8
0
  6
CONTINUOUS
 62
     7
100
AcDbVertex
100
AcDb2dVertex
 10
8.7720756565
 20
6.6132322893
 30
0.0
  0
VERTEX
  5
655
330
287
100
AcDbEntity
  8
0
  6
CONTINUOUS
 62
     7
100
AcDbVertex
100
AcDb2dVertex
 10
8.7811308346
 20
6.6086902071
 30
0.0
  0
VERTEX
  5
656
330
287
100
AcDbEntity
  8
0
  6
CONTINUOUS
 62
     7
100
AcDbVertex
100
AcDb2dVertex
 10
8.790031076
 20
6.6055965629
 30
0.0
  0
VERTEX
  5
657
330
287
100
AcDbEntity
  8
0
  6
CONTINUOUS
 62
     7
100
AcDbVertex
100
AcDb2dVertex
 10
8.7986240952
 20
6.6040042896
 30
0.0
  0
VERTEX
  5
658
330
287
100
AcDbEntity
  8
0
  6
CONTINUOUS
 62
     7
100
AcDbVertex
100
AcDb2dVertex
 10
8.8067628632
 20
6.6039406316
 30
0.0
  0
VERTEX
  5
659
330
287
100
AcDbEntity
  8
0
  6
CONTINUOUS
 62
     7
100
AcDbVertex
100
AcDb2dVertex
 10
8.8143081235
 20
6.6054066781
 30
0.0
  0
VERTEX
  5
65A
330
287
100
AcDbEntity
  8
0
  6
CONTINUOUS
 62
     7
100
AcDbVertex
100
AcDb2dVertex
 10
8.8211307747
 20
6.6083773446
 30
0.0
  0
VERTEX
  5
65B
330
287
100
AcDbEntity
  8
0
  6
CONTINUOUS
 62
     7
100
AcDbVertex
100
AcDb2dVertex
 10
8.8271140791
 20
6.6128018021
 30
0.0
  0
VERTEX
  5
65C
330
287
100
AcDbEntity
  8
0
  6
CONTINUOUS
 62
     7
100
AcDbVertex
100
AcDb2dVertex
 10
8.8321556609
 20
6.618604347
 30
0.0
  0
VERTEX
  5
65D
330
287
100
AcDbEntity
  8
0
  6
CONTINUOUS
 62
     7
100
AcDbVertex
100
AcDb2dVertex
 10
8.8361692571
 20
6.6256856962
 30
0.0
  0
VERTEX
  5
65E
330
287
100
AcDbEntity
  8
0
  6
CONTINUOUS
 62
     7
100
AcDbVertex
100
AcDb2dVertex
 10
8.8390861941
 20
6.6339246857
 30
0.0
  0
VERTEX
  5
65F
330
287
100
AcDbEntity
  8
0
  6
CONTINUOUS
 62
     7
100
AcDbVertex
100
AcDb2dVertex
 10
8.8408565622
 20
6.6431803443
 30
0.0
  0
VERTEX
  5
660
330
287
100
AcDbEntity
  8
0
  6
CONTINUOUS
 62
     7
100
AcDbVertex
100
AcDb2dVertex
 10
8.8414500699
 20
6.6532943049
 30
0.0
  0
SEQEND
  5
661
330
287
100
AcDbEntity
  8
0
  6
CONTINUOUS
 62
     7
  0
ARC
  5
288
330
1F
100
AcDbEntity
  8
0
  6
CONTINUOUS
 62
     7
100
AcDbCircle
 10
8.8237254689
 20
6.6633934952
 30
0.0
 40
0.0693475215436874
100
AcDbArc
 50
237.244094043
 51
278.3710051043
  0
POLYLINE
  5
289
330
1F
100
AcDbEntity
  8
0
  6
CONTINUOUS
 62
     7
100
AcDb2dPolyline
 66
     1
 10
0.0
 20
0.0
 30
0.0
  0
VERTEX
  5
662
330
289
100
AcDbEntity
  8
0
  6
CONTINUOUS
 62
     7
100
AcDbVertex
100
AcDb2dVertex
 10
8.6885726781
 20
7.1110007131
 30
0.0
  0
VERTEX
  5
663
330
289
100
AcDbEntity
  8
0
  6
CONTINUOUS
 62
     7
100
AcDbVertex
100
AcDb2dVertex
 10
8.6956451308
 20
7.1065369758
 30
0.0
  0
VERTEX
  5
664
330
289
100
AcDbEntity
  8
0
  6
CONTINUOUS
 62
     7
100
AcDbVertex
100
AcDb2dVertex
 10
8.7039708432
 20
7.1000438278
 30
0.0
  0
VERTEX
  5
665
330
289
100
AcDbEntity
  8
0
  6
CONTINUOUS
 62
     7
100
AcDbVertex
100
AcDb2dVertex
 10
8.7109078194
 20
7.0930277946
 30
0.0
  0
VERTEX
  5
666
330
289
100
AcDbEntity
  8
0
  6
CONTINUOUS
 62
     7
100
AcDbVertex
100
AcDb2dVertex
 10
8.7163586793
 20
7.0855873657
 30
0.0
  0
VERTEX
  5
667
330
289
100
AcDbEntity
  8
0
  6
CONTINUOUS
 62
     7
100
AcDbVertex
100
AcDb2dVertex
 10
8.7202469049
 20
7.0778269887
 30
0.0
  0
VERTEX
  5
668
330
289
100
AcDbEntity
  8
0
  6
CONTINUOUS
 62
     7
100
AcDbVertex
100
AcDb2dVertex
 10
8.7225179141
 20
7.0698556021
 30
0.0
  0
VERTEX
  5
669
330
289
100
AcDbEntity
  8
0
  6
CONTINUOUS
 62
     7
100
AcDbVertex
100
AcDb2dVertex
 10
8.7231398267
 20
7.0617851067
 30
0.0
  0
VERTEX
  5
66A
330
289
100
AcDbEntity
  8
0
  6
CONTINUOUS
 62
     7
100
AcDbVertex
100
AcDb2dVertex
 10
8.7221039126
 20
7.0537287946
 30
0.0
  0
VERTEX
  5
66B
330
289
100
AcDbEntity
  8
0
  6
CONTINUOUS
 62
     7
100
AcDbVertex
100
AcDb2dVertex
 10
8.7194247136
 20
7.0457997588
 30
0.0
  0
VERTEX
  5
66C
330
289
100
AcDbEntity
  8
0
  6
CONTINUOUS
 62
     7
100
AcDbVertex
100
AcDb2dVertex
 10
8.71513984
 20
7.0381093055
 30
0.0
  0
VERTEX
  5
66D
330
289
100
AcDbEntity
  8
0
  6
CONTINUOUS
 62
     7
100
AcDbVertex
100
AcDb2dVertex
 10
8.7093094418
 20
7.0307653919
 30
0.0
  0
VERTEX
  5
66E
330
289
100
AcDbEntity
  8
0
  6
CONTINUOUS
 62
     7
100
AcDbVertex
100
AcDb2dVertex
 10
8.7020153652
 20
7.0238711104
 30
0.0
  0
VERTEX
  5
66F
330
289
100
AcDbEntity
  8
0
  6
CONTINUOUS
 62
     7
100
AcDbVertex
100
AcDb2dVertex
 10
8.6933600029
 20
7.0175232416
 30
0.0
  0
VERTEX
  5
670
330
289
100
AcDbEntity
  8
0
  6
CONTINUOUS
 62
     7
100
AcDbVertex
100
AcDb2dVertex
 10
8.6834648573
 20
7.0118108956
 30
0.0
  0
VERTEX
  5
671
330
289
100
AcDbEntity
  8
0
  6
CONTINUOUS
 62
     7
100
AcDbVertex
100
AcDb2dVertex
 10
8.6728406634
 20
7.0069641235
 30
0.0
  0
SEQEND
  5
672
330
289
100
AcDbEntity
  8
0
  6
CONTINUOUS
 62
     7
  0
POLYLINE
  5
28A
330
1F
100
AcDbEntity
  8
0
  6
CONTINUOUS
 62
     7
100
AcDb2dPolyline
 66
     1
 10
0.0
 20
0.0
 30
0.0
  0
VERTEX
  5
673
330
28A
100
AcDbEntity
  8
0
  6
CONTINUOUS
 62
     7
100
AcDbVertex
100
AcDb2dVertex
 10
8.65222227
 20
7.0002879722
 30
0.0
  0
VERTEX
  5
674
330
28A
100
AcDbEntity
  8
0
  6
CONTINUOUS
 62
     7
100
AcDbVertex
100
AcDb2dVertex
 10
8.6478048848
 20
6.9992376633
 30
0.0
  0
VERTEX
  5
675
330
28A
100
AcDbEntity
  8
0
  6
CONTINUOUS
 62
     7
100
AcDbVertex
100
AcDb2dVertex
 10
8.6344831855
 20
6.9967640584
 30
0.0
  0
VERTEX
  5
676
330
28A
100
AcDbEntity
  8
0
  6
CONTINUOUS
 62
     7
100
AcDbVertex
100
AcDb2dVertex
 10
8.6207482044
 20
6.9952173897
 30
0.0
  0
VERTEX
  5
677
330
28A
100
AcDbEntity
  8
0
  6
CONTINUOUS
 62
     7
100
AcDbVertex
100
AcDb2dVertex
 10
8.6067927505
 20
6.9946193693
 30
0.0
  0
VERTEX
  5
678
330
28A
100
AcDbEntity
  8
0
  6
CONTINUOUS
 62
     7
100
AcDbVertex
100
AcDb2dVertex
 10
8.5928127277
 20
6.9949783918
 30
0.0
  0
VERTEX
  5
679
330
28A
100
AcDbEntity
  8
0
  6
CONTINUOUS
 62
     7
100
AcDbVertex
100
AcDb2dVertex
 10
8.5790043849
 20
6.9962894174
 30
0.0
  0
VERTEX
  5
67A
330
28A
100
AcDbEntity
  8
0
  6
CONTINUOUS
 62
     7
100
AcDbVertex
100
AcDb2dVertex
 10
8.565561561
 20
6.9985340423
 30
0.0
  0
VERTEX
  5
67B
330
28A
100
AcDbEntity
  8
0
  6
CONTINUOUS
 62
     7
100
AcDbVertex
100
AcDb2dVertex
 10
8.5526729637
 20
7.0016807568
 30
0.0
  0
VERTEX
  5
67C
330
28A
100
AcDbEntity
  8
0
  6
CONTINUOUS
 62
     7
100
AcDbVertex
100
AcDb2dVertex
 10
8.5405195208
 20
7.0056853879
 30
0.0
  0
VERTEX
  5
67D
330
28A
100
AcDbEntity
  8
0
  6
CONTINUOUS
 62
     7
100
AcDbVertex
100
AcDb2dVertex
 10
8.5292718399
 20
7.0104917193
 30
0.0
  0
VERTEX
  5
67E
330
28A
100
AcDbEntity
  8
0
  6
CONTINUOUS
 62
     7
100
AcDbVertex
100
AcDb2dVertex
 10
8.5190878138
 20
7.0160322808
 30
0.0
  0
VERTEX
  5
67F
330
28A
100
AcDbEntity
  8
0
  6
CONTINUOUS
 62
     7
100
AcDbVertex
100
AcDb2dVertex
 10
8.5101104039
 20
7.022229295
 30
0.0
  0
VERTEX
  5
680
330
28A
100
AcDbEntity
  8
0
  6
CONTINUOUS
 62
     7
100
AcDbVertex
100
AcDb2dVertex
 10
8.5024656334
 20
7.0289957694
 30
0.0
  0
VERTEX
  5
681
330
28A
100
AcDbEntity
  8
0
  6
CONTINUOUS
 62
     7
100
AcDbVertex
100
AcDb2dVertex
 10
8.496260818
 20
7.0362367174
 30
0.0
  0
VERTEX
  5
682
330
28A
100
AcDbEntity
  8
0
  6
CONTINUOUS
 62
     7
100
AcDbVertex
100
AcDb2dVertex
 10
8.4915830598
 20
7.0438504922
 30
0.0
  0
VERTEX
  5
683
330
28A
100
AcDbEntity
  8
0
  6
CONTINUOUS
 62
     7
100
AcDbVertex
100
AcDb2dVertex
 10
8.4884980243
 20
7.0517302129
 30
0.0
  0
VERTEX
  5
684
330
28A
100
AcDbEntity
  8
0
  6
CONTINUOUS
 62
     7
100
AcDbVertex
100
AcDb2dVertex
 10
8.4870490186
 20
7.0597652656
 30
0.0
  0
VERTEX
  5
685
330
28A
100
AcDbEntity
  8
0
  6
CONTINUOUS
 62
     7
100
AcDbVertex
100
AcDb2dVertex
 10
8.4872563835
 20
7.0678428558
 30
0.0
  0
VERTEX
  5
686
330
28A
100
AcDbEntity
  8
0
  6
CONTINUOUS
 62
     7
100
AcDbVertex
100
AcDb2dVertex
 10
8.4891172081
 20
7.0758495917
 30
0.0
  0
VERTEX
  5
687
330
28A
100
AcDbEntity
  8
0
  6
CONTINUOUS
 62
     7
100
AcDbVertex
100
AcDb2dVertex
 10
8.4926053706
 20
7.0836730764
 30
0.0
  0
VERTEX
  5
688
330
28A
100
AcDbEntity
  8
0
  6
CONTINUOUS
 62
     7
100
AcDbVertex
100
AcDb2dVertex
 10
8.4976719047
 20
7.0912034853
 30
0.0
  0
VERTEX
  5
689
330
28A
100
AcDbEntity
  8
0
  6
CONTINUOUS
 62
     7
100
AcDbVertex
100
AcDb2dVertex
 10
8.5042456874
 20
7.0983351079
 30
0.0
  0
VERTEX
  5
68A
330
28A
100
AcDbEntity
  8
0
  6
CONTINUOUS
 62
     7
100
AcDbVertex
100
AcDb2dVertex
 10
8.5122344372
 20
7.1049678319
 30
0.0
  0
VERTEX
  5
68B
330
28A
100
AcDbEntity
  8
0
  6
CONTINUOUS
 62
     7
100
AcDbVertex
100
AcDb2dVertex
 10
8.5215260097
 20
7.1110085484
 30
0.0
  0
SEQEND
  5
68C
330
28A
100
AcDbEntity
  8
0
  6
CONTINUOUS
 62
     7
  0
POLYLINE
  5
28B
330
1F
100
AcDbEntity
  8
0
  6
CONTINUOUS
 62
     7
100
AcDb2dPolyline
 66
     1
 10
0.0
 20
0.0
 30
0.0
  0
VERTEX
  5
68D
330
28B
100
AcDbEntity
  8
0
  6
CONTINUOUS
 62
     7
100
AcDbVertex
100
AcDb2dVertex
 10
8.5356681453
 20
7.1191752835
 30
0.0
  0
VERTEX
  5
68E
330
28B
100
AcDbEntity
  8
0
  6
CONTINUOUS
 62
     7
100
AcDbVertex
100
AcDb2dVertex
 10
8.527206475
 20
7.1136052158
 30
0.0
  0
VERTEX
  5
68F
330
28B
100
AcDbEntity
  8
0
  6
CONTINUOUS
 62
     7
100
AcDbVertex
100
AcDb2dVertex
 10
8.5200766017
 20
7.1074452041
 30
0.0
  0
VERTEX
  5
690
330
28B
100
AcDbEntity
  8
0
  6
CONTINUOUS
 62
     7
100
AcDbVertex
100
AcDb2dVertex
 10
8.5144005194
 20
7.1008006478
 30
0.0
  0
VERTEX
  5
691
330
28B
100
AcDbEntity
  8
0
  6
CONTINUOUS
 62
     7
100
AcDbVertex
100
AcDb2dVertex
 10
8.5102753476
 20
7.0937852372
 30
0.0
  0
VERTEX
  5
692
330
28B
100
AcDbEntity
  8
0
  6
CONTINUOUS
 62
     7
100
AcDbVertex
100
AcDb2dVertex
 10
8.5077716691
 20
7.086519008
 30
0.0
  0
VERTEX
  5
693
330
28B
100
AcDbEntity
  8
0
  6
CONTINUOUS
 62
     7
100
AcDbVertex
100
AcDb2dVertex
 10
8.5069323224
 20
7.0791262872
 30
0.0
  0
VERTEX
  5
694
330
28B
100
AcDbEntity
  8
0
  6
CONTINUOUS
 62
     7
100
AcDbVertex
100
AcDb2dVertex
 10
8.5077716691
 20
7.0717335664
 30
0.0
  0
VERTEX
  5
695
330
28B
100
AcDbEntity
  8
0
  6
CONTINUOUS
 62
     7
100
AcDbVertex
100
AcDb2dVertex
 10
8.5102753476
 20
7.0644673371
 30
0.0
  0
VERTEX
  5
696
330
28B
100
AcDbEntity
  8
0
  6
CONTINUOUS
 62
     7
100
AcDbVertex
100
AcDb2dVertex
 10
8.5144005194
 20
7.0574519265
 30
0.0
  0
VERTEX
  5
697
330
28B
100
AcDbEntity
  8
0
  6
CONTINUOUS
 62
     7
100
AcDbVertex
100
AcDb2dVertex
 10
8.5200766017
 20
7.0508073703
 30
0.0
  0
VERTEX
  5
698
330
28B
100
AcDbEntity
  8
0
  6
CONTINUOUS
 62
     7
100
AcDbVertex
100
AcDb2dVertex
 10
8.527206475
 20
7.0446473585
 30
0.0
  0
VERTEX
  5
699
330
28B
100
AcDbEntity
  8
0
  6
CONTINUOUS
 62
     7
100
AcDbVertex
100
AcDb2dVertex
 10
8.5356681453
 20
7.0390772908
 30
0.0
  0
VERTEX
  5
69A
330
28B
100
AcDbEntity
  8
0
  6
CONTINUOUS
 62
     7
100
AcDbVertex
100
AcDb2dVertex
 10
8.545316831
 20
7.0341924726
 30
0.0
  0
VERTEX
  5
69B
330
28B
100
AcDbEntity
  8
0
  6
CONTINUOUS
 62
     7
100
AcDbVertex
100
AcDb2dVertex
 10
8.5559874405
 20
7.0300764843
 30
0.0
  0
VERTEX
  5
69C
330
28B
100
AcDbEntity
  8
0
  6
CONTINUOUS
 62
     7
100
AcDbVertex
100
AcDb2dVertex
 10
8.5674973967
 20
7.0267997518
 30
0.0
  0
VERTEX
  5
69D
330
28B
100
AcDbEntity
  8
0
  6
CONTINUOUS
 62
     7
100
AcDbVertex
100
AcDb2dVertex
 10
8.579649761
 20
7.0244183408
 30
0.0
  0
VERTEX
  5
69E
330
28B
100
AcDbEntity
  8
0
  6
CONTINUOUS
 62
     7
100
AcDbVertex
100
AcDb2dVertex
 10
8.5922366031
 20
7.0229729979
 30
0.0
  0
VERTEX
  5
69F
330
28B
100
AcDbEntity
  8
0
  6
CONTINUOUS
 62
     7
100
AcDbVertex
100
AcDb2dVertex
 10
8.6050425586
 20
7.0224884534
 30
0.0
  0
VERTEX
  5
6A0
330
28B
100
AcDbEntity
  8
0
  6
CONTINUOUS
 62
     7
100
AcDbVertex
100
AcDb2dVertex
 10
8.6178485142
 20
7.0229729979
 30
0.0
  0
VERTEX
  5
6A1
330
28B
100
AcDbEntity
  8
0
  6
CONTINUOUS
 62
     7
100
AcDbVertex
100
AcDb2dVertex
 10
8.6304353563
 20
7.0244183408
 30
0.0
  0
VERTEX
  5
6A2
330
28B
100
AcDbEntity
  8
0
  6
CONTINUOUS
 62
     7
100
AcDbVertex
100
AcDb2dVertex
 10
8.6425877206
 20
7.0267997518
 30
0.0
  0
VERTEX
  5
6A3
330
28B
100
AcDbEntity
  8
0
  6
CONTINUOUS
 62
     7
100
AcDbVertex
100
AcDb2dVertex
 10
8.6540976767
 20
7.0300764843
 30
0.0
  0
VERTEX
  5
6A4
330
28B
100
AcDbEntity
  8
0
  6
CONTINUOUS
 62
     7
100
AcDbVertex
100
AcDb2dVertex
 10
8.6647682862
 20
7.0341924726
 30
0.0
  0
VERTEX
  5
6A5
330
28B
100
AcDbEntity
  8
0
  6
CONTINUOUS
 62
     7
100
AcDbVertex
100
AcDb2dVertex
 10
8.674416972
 20
7.0390772908
 30
0.0
  0
VERTEX
  5
6A6
330
28B
100
AcDbEntity
  8
0
  6
CONTINUOUS
 62
     7
100
AcDbVertex
100
AcDb2dVertex
 10
8.6828786422
 20
7.0446473585
 30
0.0
  0
VERTEX
  5
6A7
330
28B
100
AcDbEntity
  8
0
  6
CONTINUOUS
 62
     7
100
AcDbVertex
100
AcDb2dVertex
 10
8.6900085156
 20
7.0508073703
 30
0.0
  0
VERTEX
  5
6A8
330
28B
100
AcDbEntity
  8
0
  6
CONTINUOUS
 62
     7
100
AcDbVertex
100
AcDb2dVertex
 10
8.6956845978
 20
7.0574519265
 30
0.0
  0
VERTEX
  5
6A9
330
28B
100
AcDbEntity
  8
0
  6
CONTINUOUS
 62
     7
100
AcDbVertex
100
AcDb2dVertex
 10
8.6998097696
 20
7.0644673371
 30
0.0
  0
VERTEX
  5
6AA
330
28B
100
AcDbEntity
  8
0
  6
CONTINUOUS
 62
     7
100
AcDbVertex
100
AcDb2dVertex
 10
8.7023134482
 20
7.0717335664
 30
0.0
  0
VERTEX
  5
6AB
330
28B
100
AcDbEntity
  8
0
  6
CONTINUOUS
 62
     7
100
AcDbVertex
100
AcDb2dVertex
 10
8.7031527948
 20
7.0791262872
 30
0.0
  0
VERTEX
  5
6AC
330
28B
100
AcDbEntity
  8
0
  6
CONTINUOUS
 62
     7
100
AcDbVertex
100
AcDb2dVertex
 10
8.7023134482
 20
7.086519008
 30
0.0
  0
VERTEX
  5
6AD
330
28B
100
AcDbEntity
  8
0
  6
CONTINUOUS
 62
     7
100
AcDbVertex
100
AcDb2dVertex
 10
8.6998097696
 20
7.0937852372
 30
0.0
  0
VERTEX
  5
6AE
330
28B
100
AcDbEntity
  8
0
  6
CONTINUOUS
 62
     7
100
AcDbVertex
100
AcDb2dVertex
 10
8.6956845978
 20
7.1008006478
 30
0.0
  0
VERTEX
  5
6AF
330
28B
100
AcDbEntity
  8
0
  6
CONTINUOUS
 62
     7
100
AcDbVertex
100
AcDb2dVertex
 10
8.6900085156
 20
7.1074452041
 30
0.0
  0
VERTEX
  5
6B0
330
28B
100
AcDbEntity
  8
0
  6
CONTINUOUS
 62
     7
100
AcDbVertex
100
AcDb2dVertex
 10
8.6828786422
 20
7.1136052158
 30
0.0
  0
VERTEX
  5
6B1
330
28B
100
AcDbEntity
  8
0
  6
CONTINUOUS
 62
     7
100
AcDbVertex
100
AcDb2dVertex
 10
8.674416972
 20
7.1191752835
 30
0.0
  0
VERTEX
  5
6B2
330
28B
100
AcDbEntity
  8
0
  6
CONTINUOUS
 62
     7
100
AcDbVertex
100
AcDb2dVertex
 10
8.6647682862
 20
7.1240601018
 30
0.0
  0
VERTEX
  5
6B3
330
28B
100
AcDbEntity
  8
0
  6
CONTINUOUS
 62
     7
100
AcDbVertex
100
AcDb2dVertex
 10
8.6540976767
 20
7.1281760901
 30
0.0
  0
VERTEX
  5
6B4
330
28B
100
AcDbEntity
  8
0
  6
CONTINUOUS
 62
     7
100
AcDbVertex
100
AcDb2dVertex
 10
8.6425877206
 20
7.1314528226
 30
0.0
  0
VERTEX
  5
6B5
330
28B
100
AcDbEntity
  8
0
  6
CONTINUOUS
 62
     7
100
AcDbVertex
100
AcDb2dVertex
 10
8.6304353563
 20
7.1338342336
 30
0.0
  0
VERTEX
  5
6B6
330
28B
100
AcDbEntity
  8
0
  6
CONTINUOUS
 62
     7
100
AcDbVertex
100
AcDb2dVertex
 10
8.6178485142
 20
7.1352795765
 30
0.0
  0
VERTEX
  5
6B7
330
28B
100
AcDbEntity
  8
0
  6
CONTINUOUS
 62
     7
100
AcDbVertex
100
AcDb2dVertex
 10
8.6050425586
 20
7.135764121
 30
0.0
  0
VERTEX
  5
6B8
330
28B
100
AcDbEntity
  8
0
  6
CONTINUOUS
 62
     7
100
AcDbVertex
100
AcDb2dVertex
 10
8.5922366031
 20
7.1352795765
 30
0.0
  0
VERTEX
  5
6B9
330
28B
100
AcDbEntity
  8
0
  6
CONTINUOUS
 62
     7
100
AcDbVertex
100
AcDb2dVertex
 10
8.579649761
 20
7.1338342336
 30
0.0
  0
VERTEX
  5
6BA
330
28B
100
AcDbEntity
  8
0
  6
CONTINUOUS
 62
     7
100
AcDbVertex
100
AcDb2dVertex
 10
8.5674973967
 20
7.1314528226
 30
0.0
  0
VERTEX
  5
6BB
330
28B
100
AcDbEntity
  8
0
  6
CONTINUOUS
 62
     7
100
AcDbVertex
100
AcDb2dVertex
 10
8.5559874405
 20
7.1281760901
 30
0.0
  0
VERTEX
  5
6BC
330
28B
100
AcDbEntity
  8
0
  6
CONTINUOUS
 62
     7
100
AcDbVertex
100
AcDb2dVertex
 10
8.545316831
 20
7.1240601018
 30
0.0
  0
VERTEX
  5
6BD
330
28B
100
AcDbEntity
  8
0
  6
CONTINUOUS
 62
     7
100
AcDbVertex
100
AcDb2dVertex
 10
8.5356681453
 20
7.1191752835
 30
0.0
  0
SEQEND
  5
6BE
330
28B
100
AcDbEntity
  8
0
  6
CONTINUOUS
 62
     7
  0
LINE
  5
28C
330
1F
100
AcDbEntity
  8
0
  6
CONTINUOUS
 62
     7
100
AcDbLine
 10
8.6532608606
 20
7.1069621204
 30
0.0
 11
8.5873934352
 21
7.1171507425
 31
0.0
  0
LINE
  5
28D
330
1F
100
AcDbEntity
  8
0
  6
CONTINUOUS
 62
     7
100
AcDbLine
 10
8.5873934352
 20
7.1171507425
 30
0.0
 11
8.5391751331
 21
7.0893149093
 31
0.0
  0
LINE
  5
28E
330
1F
100
AcDbEntity
  8
0
  6
CONTINUOUS
 62
     7
100
AcDbLine
 10
8.5391751331
 20
7.0893149093
 30
0.0
 11
8.5568242566
 21
7.0512904539
 31
0.0
  0
LINE
  5
28F
330
1F
100
AcDbEntity
  8
0
  6
CONTINUOUS
 62
     7
100
AcDbLine
 10
8.5568242566
 20
7.0512904539
 30
0.0
 11
8.6226916821
 21
7.0411018318
 31
0.0
  0
LINE
  5
290
330
1F
100
AcDbEntity
  8
0
  6
CONTINUOUS
 62
     7
100
AcDbLine
 10
8.6226916821
 20
7.0411018318
 30
0.0
 11
8.6709099841
 21
7.0689376651
 31
0.0
  0
LINE
  5
291
330
1F
100
AcDbEntity
  8
0
  6
CONTINUOUS
 62
     7
100
AcDbLine
 10
8.6709099841
 20
7.0689376651
 30
0.0
 11
8.6532608606
 21
7.1069621204
 31
0.0
  0
LINE
  5
292
330
1F
100
AcDbEntity
  8
0
  6
CONTINUOUS
 62
     7
100
AcDbLine
 10
8.6532608606
 20
7.058749043
 30
0.0
 11
8.6532608606
 21
7.1069621204
 31
0.0
  0
LINE
  5
293
330
1F
100
AcDbEntity
  8
0
  6
CONTINUOUS
 62
     7
100
AcDbLine
 10
8.5873934352
 20
7.046561898
 30
0.0
 11
8.5873934352
 21
7.1171507425
 31
0.0
  0
POLYLINE
  5
294
330
1F
100
AcDbEntity
  8
0
  6
CONTINUOUS
 62
     7
100
AcDb2dPolyline
 66
     1
 10
0.0
 20
0.0
 30
0.0
  0
VERTEX
  5
6BF
330
294
100
AcDbEntity
  8
0
  6
CONTINUOUS
 62
     7
100
AcDbVertex
100
AcDb2dVertex
 10
7.8199869984
 20
7.5159983992
 30
0.0
  0
VERTEX
  5
6C0
330
294
100
AcDbEntity
  8
0
  6
CONTINUOUS
 62
     7
100
AcDbVertex
100
AcDb2dVertex
 10
7.8292785708
 20
7.5220391157
 30
0.0
  0
VERTEX
  5
6C1
330
294
100
AcDbEntity
  8
0
  6
CONTINUOUS
 62
     7
100
AcDbVertex
100
AcDb2dVertex
 10
7.8372673207
 20
7.5286718397
 30
0.0
  0
VERTEX
  5
6C2
330
294
100
AcDbEntity
  8
0
  6
CONTINUOUS
 62
     7
100
AcDbVertex
100
AcDb2dVertex
 10
7.8438411034
 20
7.5358034623
 30
0.0
  0
VERTEX
  5
6C3
330
294
100
AcDbEntity
  8
0
  6
CONTINUOUS
 62
     7
100
AcDbVertex
100
AcDb2dVertex
 10
7.8489076375
 20
7.5433338712
 30
0.0
  0
VERTEX
  5
6C4
330
294
100
AcDbEntity
  8
0
  6
CONTINUOUS
 62
     7
100
AcDbVertex
100
AcDb2dVertex
 10
7.8523958
 20
7.5511573559
 30
0.0
  0
VERTEX
  5
6C5
330
294
100
AcDbEntity
  8
0
  6
CONTINUOUS
 62
     7
100
AcDbVertex
100
AcDb2dVertex
 10
7.8542566246
 20
7.5591640918
 30
0.0
  0
VERTEX
  5
6C6
330
294
100
AcDbEntity
  8
0
  6
CONTINUOUS
 62
     7
100
AcDbVertex
100
AcDb2dVertex
 10
7.8544639895
 20
7.5672416819
 30
0.0
  0
VERTEX
  5
6C7
330
294
100
AcDbEntity
  8
0
  6
CONTINUOUS
 62
     7
100
AcDbVertex
100
AcDb2dVertex
 10
7.8530149838
 20
7.5752767346
 30
0.0
  0
VERTEX
  5
6C8
330
294
100
AcDbEntity
  8
0
  6
CONTINUOUS
 62
     7
100
AcDbVertex
100
AcDb2dVertex
 10
7.8499299483
 20
7.5831564554
 30
0.0
  0
VERTEX
  5
6C9
330
294
100
AcDbEntity
  8
0
  6
CONTINUOUS
 62
     7
100
AcDbVertex
100
AcDb2dVertex
 10
7.8452521901
 20
7.5907702301
 30
0.0
  0
VERTEX
  5
6CA
330
294
100
AcDbEntity
  8
0
  6
CONTINUOUS
 62
     7
100
AcDbVertex
100
AcDb2dVertex
 10
7.8390473747
 20
7.5980111782
 30
0.0
  0
VERTEX
  5
6CB
330
294
100
AcDbEntity
  8
0
  6
CONTINUOUS
 62
     7
100
AcDbVertex
100
AcDb2dVertex
 10
7.8314026042
 20
7.6047776526
 30
0.0
  0
VERTEX
  5
6CC
330
294
100
AcDbEntity
  8
0
  6
CONTINUOUS
 62
     7
100
AcDbVertex
100
AcDb2dVertex
 10
7.8224251943
 20
7.6109746667
 30
0.0
  0
VERTEX
  5
6CD
330
294
100
AcDbEntity
  8
0
  6
CONTINUOUS
 62
     7
100
AcDbVertex
100
AcDb2dVertex
 10
7.8200005689
 20
7.6124167188
 30
0.0
  0
SEQEND
  5
6CE
330
294
100
AcDbEntity
  8
0
  6
CONTINUOUS
 62
     7
  0
POLYLINE
  5
295
330
1F
100
AcDbEntity
  8
0
  6
CONTINUOUS
 62
     7
100
AcDb2dPolyline
 66
     1
 10
0.0
 20
0.0
 30
0.0
  0
VERTEX
  5
6CF
330
295
100
AcDbEntity
  8
0
  6
CONTINUOUS
 62
     7
100
AcDbVertex
100
AcDb2dVertex
 10
7.65294033
 20
7.6124167188
 30
0.0
  0
VERTEX
  5
6D0
330
295
100
AcDbEntity
  8
0
  6
CONTINUOUS
 62
     7
100
AcDbVertex
100
AcDb2dVertex
 10
7.6481530052
 20
7.609483706
 30
0.0
  0
VERTEX
  5
6D1
330
295
100
AcDbEntity
  8
0
  6
CONTINUOUS
 62
     7
100
AcDbVertex
100
AcDb2dVertex
 10
7.6394976429
 20
7.6031358372
 30
0.0
  0
VERTEX
  5
6D2
330
295
100
AcDbEntity
  8
0
  6
CONTINUOUS
 62
     7
100
AcDbVertex
100
AcDb2dVertex
 10
7.6322035662
 20
7.5962415557
 30
0.0
  0
VERTEX
  5
6D3
330
295
100
AcDbEntity
  8
0
  6
CONTINUOUS
 62
     7
100
AcDbVertex
100
AcDb2dVertex
 10
7.6263731681
 20
7.588897642
 30
0.0
  0
VERTEX
  5
6D4
330
295
100
AcDbEntity
  8
0
  6
CONTINUOUS
 62
     7
100
AcDbVertex
100
AcDb2dVertex
 10
7.6220882944
 20
7.5812071888
 30
0.0
  0
VERTEX
  5
6D5
330
295
100
AcDbEntity
  8
0
  6
CONTINUOUS
 62
     7
100
AcDbVertex
100
AcDb2dVertex
 10
7.6194090955
 20
7.573278153
 30
0.0
  0
VERTEX
  5
6D6
330
295
100
AcDbEntity
  8
0
  6
CONTINUOUS
 62
     7
100
AcDbVertex
100
AcDb2dVertex
 10
7.6183731814
 20
7.5652218409
 30
0.0
  0
VERTEX
  5
6D7
330
295
100
AcDbEntity
  8
0
  6
CONTINUOUS
 62
     7
100
AcDbVertex
100
AcDb2dVertex
 10
7.618995094
 20
7.5571513455
 30
0.0
  0
VERTEX
  5
6D8
330
295
100
AcDbEntity
  8
0
  6
CONTINUOUS
 62
     7
100
AcDbVertex
100
AcDb2dVertex
 10
7.6212661031
 20
7.5491799589
 30
0.0
  0
VERTEX
  5
6D9
330
295
100
AcDbEntity
  8
0
  6
CONTINUOUS
 62
     7
100
AcDbVertex
100
AcDb2dVertex
 10
7.6251543288
 20
7.5414195818
 30
0.0
  0
VERTEX
  5
6DA
330
295
100
AcDbEntity
  8
0
  6
CONTINUOUS
 62
     7
100
AcDbVertex
100
AcDb2dVertex
 10
7.6306051887
 20
7.533979153
 30
0.0
  0
VERTEX
  5
6DB
330
295
100
AcDbEntity
  8
0
  6
CONTINUOUS
 62
     7
100
AcDbVertex
100
AcDb2dVertex
 10
7.6375421649
 20
7.5269631198
 30
0.0
  0
VERTEX
  5
6DC
330
295
100
AcDbEntity
  8
0
  6
CONTINUOUS
 62
     7
100
AcDbVertex
100
AcDb2dVertex
 10
7.6458678773
 20
7.5204699718
 30
0.0
  0
VERTEX
  5
6DD
330
295
100
AcDbEntity
  8
0
  6
CONTINUOUS
 62
     7
100
AcDbVertex
100
AcDb2dVertex
 10
7.6554654512
 20
7.5145908587
 30
0.0
  0
VERTEX
  5
6DE
330
295
100
AcDbEntity
  8
0
  6
CONTINUOUS
 62
     7
100
AcDbVertex
100
AcDb2dVertex
 10
7.6662001577
 20
7.5094083102
 30
0.0
  0
VERTEX
  5
6DF
330
295
100
AcDbEntity
  8
0
  6
CONTINUOUS
 62
     7
100
AcDbVertex
100
AcDb2dVertex
 10
7.6779213051
 20
7.5049950781
 30
0.0
  0
VERTEX
  5
6E0
330
295
100
AcDbEntity
  8
0
  6
CONTINUOUS
 62
     7
100
AcDbVertex
100
AcDb2dVertex
 10
7.6904643541
 20
7.5014131145
 30
0.0
  0
VERTEX
  5
6E1
330
295
100
AcDbEntity
  8
0
  6
CONTINUOUS
 62
     7
100
AcDbVertex
100
AcDb2dVertex
 10
7.7036532279
 20
7.4987127021
 30
0.0
  0
VERTEX
  5
6E2
330
295
100
AcDbEntity
  8
0
  6
CONTINUOUS
 62
     7
100
AcDbVertex
100
AcDb2dVertex
 10
7.7173027835
 20
7.4969317491
 30
0.0
  0
VERTEX
  5
6E3
330
295
100
AcDbEntity
  8
0
  6
CONTINUOUS
 62
     7
100
AcDbVertex
100
AcDb2dVertex
 10
7.7312214112
 20
7.4960952558
 30
0.0
  0
VERTEX
  5
6E4
330
295
100
AcDbEntity
  8
0
  6
CONTINUOUS
 62
     7
100
AcDbVertex
100
AcDb2dVertex
 10
7.7452137238
 20
7.4962149651
 30
0.0
  0
VERTEX
  5
6E5
330
295
100
AcDbEntity
  8
0
  6
CONTINUOUS
 62
     7
100
AcDbVertex
100
AcDb2dVertex
 10
7.7590833
 20
7.4972891963
 30
0.0
  0
VERTEX
  5
6E6
330
295
100
AcDbEntity
  8
0
  6
CONTINUOUS
 62
     7
100
AcDbVertex
100
AcDb2dVertex
 10
7.7726354414
 20
7.4993028696
 30
0.0
  0
VERTEX
  5
6E7
330
295
100
AcDbEntity
  8
0
  6
CONTINUOUS
 62
     7
100
AcDbVertex
100
AcDb2dVertex
 10
7.7852026619
 20
7.5021021882
 30
0.0
  0
SEQEND
  5
6E8
330
295
100
AcDbEntity
  8
0
  6
CONTINUOUS
 62
     7
  0
POLYLINE
  5
296
330
1F
100
AcDbEntity
  8
0
  6
CONTINUOUS
 62
     7
100
AcDb2dPolyline
 66
     1
 10
0.0
 20
0.0
 30
0.0
  0
VERTEX
  5
6E9
330
296
100
AcDbEntity
  8
0
  6
CONTINUOUS
 62
     7
100
AcDbVertex
100
AcDb2dVertex
 10
7.8067746375
 20
7.5094228001
 30
0.0
  0
VERTEX
  5
6EA
330
296
100
AcDbEntity
  8
0
  6
CONTINUOUS
 62
     7
100
AcDbVertex
100
AcDb2dVertex
 10
7.8095230367
 20
7.5106344886
 30
0.0
  0
VERTEX
  5
6EB
330
296
100
AcDbEntity
  8
0
  6
CONTINUOUS
 62
     7
100
AcDbVertex
100
AcDb2dVertex
 10
7.8199869984
 20
7.5159983992
 30
0.0
  0
SEQEND
  5
6EC
330
296
100
AcDbEntity
  8
0
  6
CONTINUOUS
 62
     7
  0
POLYLINE
  5
297
330
1F
100
AcDbEntity
  8
0
  6
CONTINUOUS
 62
     7
100
AcDb2dPolyline
 66
     1
 10
0.0
 20
0.0
 30
0.0
  0
VERTEX
  5
6ED
330
297
100
AcDbEntity
  8
0
  6
CONTINUOUS
 62
     7
100
AcDbVertex
100
AcDb2dVertex
 10
7.8058448628
 20
7.5404932965
 30
0.0
  0
VERTEX
  5
6EE
330
297
100
AcDbEntity
  8
0
  6
CONTINUOUS
 62
     7
100
AcDbVertex
100
AcDb2dVertex
 10
7.796196177
 20
7.5356084782
 30
0.0
  0
VERTEX
  5
6EF
330
297
100
AcDbEntity
  8
0
  6
CONTINUOUS
 62
     7
100
AcDbVertex
100
AcDb2dVertex
 10
7.7855255676
 20
7.53149249
 30
0.0
  0
VERTEX
  5
6F0
330
297
100
AcDbEntity
  8
0
  6
CONTINUOUS
 62
     7
100
AcDbVertex
100
AcDb2dVertex
 10
7.7740156114
 20
7.5282157575
 30
0.0
  0
VERTEX
  5
6F1
330
297
100
AcDbEntity
  8
0
  6
CONTINUOUS
 62
     7
100
AcDbVertex
100
AcDb2dVertex
 10
7.7618632471
 20
7.5258343465
 30
0.0
  0
VERTEX
  5
6F2
330
297
100
AcDbEntity
  8
0
  6
CONTINUOUS
 62
     7
100
AcDbVertex
100
AcDb2dVertex
 10
7.749276405
 20
7.5243890036
 30
0.0
  0
VERTEX
  5
6F3
330
297
100
AcDbEntity
  8
0
  6
CONTINUOUS
 62
     7
100
AcDbVertex
100
AcDb2dVertex
 10
7.7364704494
 20
7.5239044591
 30
0.0
  0
VERTEX
  5
6F4
330
297
100
AcDbEntity
  8
0
  6
CONTINUOUS
 62
     7
100
AcDbVertex
100
AcDb2dVertex
 10
7.7236644939
 20
7.5243890036
 30
0.0
  0
VERTEX
  5
6F5
330
297
100
AcDbEntity
  8
0
  6
CONTINUOUS
 62
     7
100
AcDbVertex
100
AcDb2dVertex
 10
7.7110776518
 20
7.5258343465
 30
0.0
  0
VERTEX
  5
6F6
330
297
100
AcDbEntity
  8
0
  6
CONTINUOUS
 62
     7
100
AcDbVertex
100
AcDb2dVertex
 10
7.6989252875
 20
7.5282157575
 30
0.0
  0
VERTEX
  5
6F7
330
297
100
AcDbEntity
  8
0
  6
CONTINUOUS
 62
     7
100
AcDbVertex
100
AcDb2dVertex
 10
7.6874153313
 20
7.53149249
 30
0.0
  0
VERTEX
  5
6F8
330
297
100
AcDbEntity
  8
0
  6
CONTINUOUS
 62
     7
100
AcDbVertex
100
AcDb2dVertex
 10
7.6767447218
 20
7.5356084782
 30
0.0
  0
VERTEX
  5
6F9
330
297
100
AcDbEntity
  8
0
  6
CONTINUOUS
 62
     7
100
AcDbVertex
100
AcDb2dVertex
 10
7.6670960361
 20
7.5404932965
 30
0.0
  0
VERTEX
  5
6FA
330
297
100
AcDbEntity
  8
0
  6
CONTINUOUS
 62
     7
100
AcDbVertex
100
AcDb2dVertex
 10
7.6586343658
 20
7.5460633642
 30
0.0
  0
VERTEX
  5
6FB
330
297
100
AcDbEntity
  8
0
  6
CONTINUOUS
 62
     7
100
AcDbVertex
100
AcDb2dVertex
 10
7.6515044925
 20
7.552223376
 30
0.0
  0
VERTEX
  5
6FC
330
297
100
AcDbEntity
  8
0
  6
CONTINUOUS
 62
     7
100
AcDbVertex
100
AcDb2dVertex
 10
7.6458284103
 20
7.5588679322
 30
0.0
  0
VERTEX
  5
6FD
330
297
100
AcDbEntity
  8
0
  6
CONTINUOUS
 62
     7
100
AcDbVertex
100
AcDb2dVertex
 10
7.6417032385
 20
7.5658833428
 30
0.0
  0
VERTEX
  5
6FE
330
297
100
AcDbEntity
  8
0
  6
CONTINUOUS
 62
     7
100
AcDbVertex
100
AcDb2dVertex
 10
7.6391995599
 20
7.5731495721
 30
0.0
  0
VERTEX
  5
6FF
330
297
100
AcDbEntity
  8
0
  6
CONTINUOUS
 62
     7
100
AcDbVertex
100
AcDb2dVertex
 10
7.6383602132
 20
7.5805422929
 30
0.0
  0
VERTEX
  5
700
330
297
100
AcDbEntity
  8
0
  6
CONTINUOUS
 62
     7
100
AcDbVertex
100
AcDb2dVertex
 10
7.6391995599
 20
7.5879350137
 30
0.0
  0
VERTEX
  5
701
330
297
100
AcDbEntity
  8
0
  6
CONTINUOUS
 62
     7
100
AcDbVertex
100
AcDb2dVertex
 10
7.6417032385
 20
7.5952012429
 30
0.0
  0
VERTEX
  5
702
330
297
100
AcDbEntity
  8
0
  6
CONTINUOUS
 62
     7
100
AcDbVertex
100
AcDb2dVertex
 10
7.6458284103
 20
7.6022166535
 30
0.0
  0
VERTEX
  5
703
330
297
100
AcDbEntity
  8
0
  6
CONTINUOUS
 62
     7
100
AcDbVertex
100
AcDb2dVertex
 10
7.6515044925
 20
7.6088612098
 30
0.0
  0
VERTEX
  5
704
330
297
100
AcDbEntity
  8
0
  6
CONTINUOUS
 62
     7
100
AcDbVertex
100
AcDb2dVertex
 10
7.6586343658
 20
7.6150212215
 30
0.0
  0
VERTEX
  5
705
330
297
100
AcDbEntity
  8
0
  6
CONTINUOUS
 62
     7
100
AcDbVertex
100
AcDb2dVertex
 10
7.6670960361
 20
7.6205912892
 30
0.0
  0
VERTEX
  5
706
330
297
100
AcDbEntity
  8
0
  6
CONTINUOUS
 62
     7
100
AcDbVertex
100
AcDb2dVertex
 10
7.6767447218
 20
7.6254761075
 30
0.0
  0
VERTEX
  5
707
330
297
100
AcDbEntity
  8
0
  6
CONTINUOUS
 62
     7
100
AcDbVertex
100
AcDb2dVertex
 10
7.6874153313
 20
7.6295920958
 30
0.0
  0
VERTEX
  5
708
330
297
100
AcDbEntity
  8
0
  6
CONTINUOUS
 62
     7
100
AcDbVertex
100
AcDb2dVertex
 10
7.6989252875
 20
7.6328688283
 30
0.0
  0
VERTEX
  5
709
330
297
100
AcDbEntity
  8
0
  6
CONTINUOUS
 62
     7
100
AcDbVertex
100
AcDb2dVertex
 10
7.7110776518
 20
7.6352502393
 30
0.0
  0
VERTEX
  5
70A
330
297
100
AcDbEntity
  8
0
  6
CONTINUOUS
 62
     7
100
AcDbVertex
100
AcDb2dVertex
 10
7.7236644939
 20
7.6366955822
 30
0.0
  0
VERTEX
  5
70B
330
297
100
AcDbEntity
  8
0
  6
CONTINUOUS
 62
     7
100
AcDbVertex
100
AcDb2dVertex
 10
7.7364704494
 20
7.6371801267
 30
0.0
  0
VERTEX
  5
70C
330
297
100
AcDbEntity
  8
0
  6
CONTINUOUS
 62
     7
100
AcDbVertex
100
AcDb2dVertex
 10
7.749276405
 20
7.6366955822
 30
0.0
  0
VERTEX
  5
70D
330
297
100
AcDbEntity
  8
0
  6
CONTINUOUS
 62
     7
100
AcDbVertex
100
AcDb2dVertex
 10
7.7618632471
 20
7.6352502393
 30
0.0
  0
VERTEX
  5
70E
330
297
100
AcDbEntity
  8
0
  6
CONTINUOUS
 62
     7
100
AcDbVertex
100
AcDb2dVertex
 10
7.7740156114
 20
7.6328688283
 30
0.0
  0
VERTEX
  5
70F
330
297
100
AcDbEntity
  8
0
  6
CONTINUOUS
 62
     7
100
AcDbVertex
100
AcDb2dVertex
 10
7.7855255676
 20
7.6295920958
 30
0.0
  0
VERTEX
  5
710
330
297
100
AcDbEntity
  8
0
  6
CONTINUOUS
 62
     7
100
AcDbVertex
100
AcDb2dVertex
 10
7.796196177
 20
7.6254761075
 30
0.0
  0
VERTEX
  5
711
330
297
100
AcDbEntity
  8
0
  6
CONTINUOUS
 62
     7
100
AcDbVertex
100
AcDb2dVertex
 10
7.8058448628
 20
7.6205912892
 30
0.0
  0
VERTEX
  5
712
330
297
100
AcDbEntity
  8
0
  6
CONTINUOUS
 62
     7
100
AcDbVertex
100
AcDb2dVertex
 10
7.8143065331
 20
7.6150212215
 30
0.0
  0
VERTEX
  5
713
330
297
100
AcDbEntity
  8
0
  6
CONTINUOUS
 62
     7
100
AcDbVertex
100
AcDb2dVertex
 10
7.8214364064
 20
7.6088612098
 30
0.0
  0
VERTEX
  5
714
330
297
100
AcDbEntity
  8
0
  6
CONTINUOUS
 62
     7
100
AcDbVertex
100
AcDb2dVertex
 10
7.8271124886
 20
7.6022166535
 30
0.0
  0
VERTEX
  5
715
330
297
100
AcDbEntity
  8
0
  6
CONTINUOUS
 62
     7
100
AcDbVertex
100
AcDb2dVertex
 10
7.8312376604
 20
7.5952012429
 30
0.0
  0
VERTEX
  5
716
330
297
100
AcDbEntity
  8
0
  6
CONTINUOUS
 62
     7
100
AcDbVertex
100
AcDb2dVertex
 10
7.833741339
 20
7.5879350137
 30
0.0
  0
VERTEX
  5
717
330
297
100
AcDbEntity
  8
0
  6
CONTINUOUS
 62
     7
100
AcDbVertex
100
AcDb2dVertex
 10
7.8345806857
 20
7.5805422929
 30
0.0
  0
VERTEX
  5
718
330
297
100
AcDbEntity
  8
0
  6
CONTINUOUS
 62
     7
100
AcDbVertex
100
AcDb2dVertex
 10
7.833741339
 20
7.5731495721
 30
0.0
  0
VERTEX
  5
719
330
297
100
AcDbEntity
  8
0
  6
CONTINUOUS
 62
     7
100
AcDbVertex
100
AcDb2dVertex
 10
7.8312376604
 20
7.5658833428
 30
0.0
  0
VERTEX
  5
71A
330
297
100
AcDbEntity
  8
0
  6
CONTINUOUS
 62
     7
100
AcDbVertex
100
AcDb2dVertex
 10
7.8271124886
 20
7.5588679322
 30
0.0
  0
VERTEX
  5
71B
330
297
100
AcDbEntity
  8
0
  6
CONTINUOUS
 62
     7
100
AcDbVertex
100
AcDb2dVertex
 10
7.8214364064
 20
7.552223376
 30
0.0
  0
VERTEX
  5
71C
330
297
100
AcDbEntity
  8
0
  6
CONTINUOUS
 62
     7
100
AcDbVertex
100
AcDb2dVertex
 10
7.8143065331
 20
7.5460633642
 30
0.0
  0
VERTEX
  5
71D
330
297
100
AcDbEntity
  8
0
  6
CONTINUOUS
 62
     7
100
AcDbVertex
100
AcDb2dVertex
 10
7.8058448628
 20
7.5404932965
 30
0.0
  0
SEQEND
  5
71E
330
297
100
AcDbEntity
  8
0
  6
CONTINUOUS
 62
     7
  0
LINE
  5
298
330
1F
100
AcDbEntity
  8
0
  6
CONTINUOUS
 62
     7
100
AcDbLine
 10
7.670603024
 20
7.590730915
 30
0.0
 11
7.718821326
 21
7.6185667482
 31
0.0
  0
LINE
  5
299
330
1F
100
AcDbEntity
  8
0
  6
CONTINUOUS
 62
     7
100
AcDbLine
 10
7.6882521474
 20
7.5527064596
 30
0.0
 11
7.670603024
 21
7.590730915
 31
0.0
  0
LINE
  5
29A
330
1F
100
AcDbEntity
  8
0
  6
CONTINUOUS
 62
     7
100
AcDbLine
 10
7.7541195729
 20
7.5425178375
 30
0.0
 11
7.6882521474
 21
7.5527064596
 31
0.0
  0
LINE
  5
29B
330
1F
100
AcDbEntity
  8
0
  6
CONTINUOUS
 62
     7
100
AcDbLine
 10
7.8023378749
 20
7.5703536708
 30
0.0
 11
7.7541195729
 21
7.5425178375
 31
0.0
  0
LINE
  5
29C
330
1F
100
AcDbEntity
  8
0
  6
CONTINUOUS
 62
     7
100
AcDbLine
 10
7.7846887515
 20
7.6083781261
 30
0.0
 11
7.8023378749
 21
7.5703536708
 31
0.0
  0
LINE
  5
29D
330
1F
100
AcDbEntity
  8
0
  6
CONTINUOUS
 62
     7
100
AcDbLine
 10
7.718821326
 20
7.6185667482
 30
0.0
 11
7.7846887515
 21
7.6083781261
 31
0.0
  0
LINE
  5
29E
330
1F
100
AcDbEntity
  8
0
  6
CONTINUOUS
 62
     7
100
AcDbLine
 10
7.7846887515
 20
7.5601650487
 30
0.0
 11
7.7846887515
 21
7.6083781261
 31
0.0
  0
LINE
  5
29F
330
1F
100
AcDbEntity
  8
0
  6
CONTINUOUS
 62
     7
100
AcDbLine
 10
7.718821326
 20
7.5479779036
 30
0.0
 11
7.718821326
 21
7.6185667482
 31
0.0
  0
ENDSEC
  0
SECTION
  2
OBJECTS
  0
DICTIONARY
  5
C
330
0
100
AcDbDictionary
  3
ACAD_GROUP
350
D
  3
ACAD_LAYOUT
350
1A
  3
ACAD_MLEADERSTYLE
350
2A2
  3
ACAD_MLINESTYLE
350
17
  3
ACAD_PLOTSETTINGS
350
19
  3
ACAD_SCALELIST
350
6F
  3
ACAD_VISUALSTYLE
350
2A
  3
ACDBVARIABLEDICTIONARY
350
2A0
1001
ACAD
1000
TREAT_AS_HARD
1070
     0
  0
DICTIONARY
  5
D
102
{ACAD_REACTORS
330
C
102
}
330
C
100
AcDbDictionary
1001
ACAD
1000
TREAT_AS_HARD
1070
     0
  0
DICTIONARY
  5
1A
102
{ACAD_REACTORS
330
C
102
}
330
C
100
AcDbDictionary
1001
ACAD
1000
TREAT_AS_HARD
1070
     0
  0
DICTIONARY
  5
2A2
102
{ACAD_REACTORS
330
C
102
}
330
C
100
AcDbDictionary
1001
ACAD
1000
TREAT_AS_HARD
1070
     0
  0
DICTIONARY
  5
17
102
{ACAD_REACTORS
330
C
102
}
330
C
100
AcDbDictionary
  3
STANDARD
350
18
1001
ACAD
1000
TREAT_AS_HARD
1070
     0
  0
DICTIONARY
  5
19
102
{ACAD_REACTORS
330
C
102
}
330
C
100
AcDbDictionary
1001
ACAD
1000
TREAT_AS_HARD
1070
     0
  0
DICTIONARY
  5
6F
102
{ACAD_REACTORS
330
C
102
}
330
C
100
AcDbDictionary
  3
A0
350
70
  3
A1
350
71
  3
A2
350
72
  3
A3
350
73
  3
A4
350
74
  3
A5
350
75
  3
A6
350
76
  3
A7
350
77
  3
A8
350
78
  3
A9
350
79
  3
B0
350
7A
  3
B1
350
7B
  3
B2
350
7C
  3
B3
350
7D
  3
B4
350
7E
  3
B5
350
7F
  3
B6
350
80
  3
B7
350
81
  3
B8
350
82
  3
B9
350
83
  3
C0
350
84
  3
C1
350
85
  3
C2
350
86
  3
C3
350
87
  3
C4
350
88
  3
C5
350
89
  3
C6
350
8A
  3
C7
350
8B
  3
C8
350
8C
  3
C9
350
8D
  3
D0
350
8E
  3
D1
350
8F
  3
D2
350
90
1001
ACAD
1000
TREAT_AS_HARD
1070
     0
  0
DICTIONARY
  5
2A
102
{ACAD_REACTORS
330
C
102
}
330
C
100
AcDbDictionary
  3
2DWIREFRAME
350
2F
  3
3D_HIDDEN
350
31
  3
3DWIREFRAME
350
30
  3
BASIC
350
32
  3
BRIGHTEN
350
36
  3
COLORCHANGE
350
3A
  3
CONCEPTUAL
350
34
  3
DIM
350
35
  3
FACEPATTERN
350
39
  3
FLAT
350
2B
  3
FLATWITHEDGES
350
2C
  3
GOURAUD
350
2D
  3
GOURAUDWITHEDGES
350
2E
  3
LINEPATTERN
350
38
  3
REALISTIC
350
33
  3
THICKEN
350
37
1001
ACAD
1000
TREAT_AS_HARD
1070
     0
  0
DICTIONARY
  5
2A0
102
{ACAD_REACTORS
330
C
102
}
330
C
100
AcDbDictionary
  3
CANNOSCALE
350
2A3
  3
DIMASSOC
350
2A4
  3
HIDETEXT
350
2A5
1001
ACAD
1000
TREAT_AS_HARD
1070
     0
  0
MLINESTYLE
  5
18
102
{ACAD_REACTORS
330
17
102
}
330
17
100
AcDbMlineStyle
  2
Standard
 70
     0
  3

 62
   256
 51
90.0
 52
90.0
 71
     2
 49
0.5
 62
   256
  6
BYLAYER
 49
-0.5
 62
   256
  6
BYLAYER
  0
ACAD_PROXY_OBJECT
  5
70
102
{ACAD_REACTORS
330
6F
102
}
330
6F
100
AcDbZombieObject
 90
      499
 91
      502
 93
       41
310
903313A31580
  0
ACAD_PROXY_OBJECT
  5
71
102
{ACAD_REACTORS
330
6F
102
}
330
6F
100
AcDbZombieObject
 90
      499
 91
      502
 93
      105
310
903313A324000000000000004000
  0
ACAD_PROXY_OBJECT
  5
72
102
{ACAD_REACTORS
330
6F
102
}
330
6F
100
AcDbZombieObject
 90
      499
 91
      502
 93
      105
310
903313A344000000000000104000
  0
ACAD_PROXY_OBJECT
  5
73
102
{ACAD_REACTORS
330
6F
102
}
330
6F
100
AcDbZombieObject
 90
      499
 91
      502
 93
      105
310
903313A354000000000000144000
  0
ACAD_PROXY_OBJECT
  5
74
102
{ACAD_REACTORS
330
6F
102
}
330
6F
100
AcDbZombieObject
 90
      499
 91
      502
 93
      105
310
903313A384000000000000204000
  0
ACAD_PROXY_OBJECT
  5
75
102
{ACAD_REACTORS
330
6F
102
}
330
6F
100
AcDbZombieObject
 90
      499
 91
      502
 93
      113
310
904313A31304000000000000244000
  0
ACAD_PROXY_OBJECT
  5
76
102
{ACAD_REACTORS
330
6F
102
}
330
6F
100
AcDbZombieObject
 90
      499
 91
      502
 93
      113
310
904313A31364000000000000304000
  0
ACAD_PROXY_OBJECT
  5
77
102
{ACAD_REACTORS
330
6F
102
}
330
6F
100
AcDbZombieObject
 90
      499
 91
      502
 93
      113
310
904313A32304000000000000344000
  0
ACAD_PROXY_OBJECT
  5
78
102
{ACAD_REACTORS
330
6F
102
}
330
6F
100
AcDbZombieObject
 90
      499
 91
      502
 93
      113
310
904313A333040000000000003E4000
  0
ACAD_PROXY_OBJECT
  5
79
102
{ACAD_REACTORS
330
6F
102
}
330
6F
100
AcDbZombieObject
 90
      499
 91
      502
 93
      113
310
904313A34304000000000000444000
  0
ACAD_PROXY_OBJECT
  5
7A
102
{ACAD_REACTORS
330
6F
102
}
330
6F
100
AcDbZombieObject
 90
      499
 91
      502
 93
      113
310
904313A35304000000000000494000
  0
ACAD_PROXY_OBJECT
  5
7B
102
{ACAD_REACTORS
330
6F
102
}
330
6F
100
AcDbZombieObject
 90
      499
 91
      502
 93
      121
310
905313A3130304000000000000594000
  0
ACAD_PROXY_OBJECT
  5
7C
102
{ACAD_REACTORS
330
6F
102
}
330
6F
100
AcDbZombieObject
 90
      499
 91
      502
 93
      105
310
903323A310000000000000010100
  0
ACAD_PROXY_OBJECT
  5
7D
102
{ACAD_REACTORS
330
6F
102
}
330
6F
100
AcDbZombieObject
 90
      499
 91
      502
 93
      105
310
903343A310000000000000410100
  0
ACAD_PROXY_OBJECT
  5
7E
102
{ACAD_REACTORS
330
6F
102
}
330
6F
100
AcDbZombieObject
 90
      499
 91
      502
 93
      105
310
903383A310000000000000810100
  0
ACAD_PROXY_OBJECT
  5
7F
102
{ACAD_REACTORS
330
6F
102
}
330
6F
100
AcDbZombieObject
 90
      499
 91
      502
 93
      113
310
90431303A310000000000000910100
  0
ACAD_PROXY_OBJECT
  5
80
102
{ACAD_REACTORS
330
6F
102
}
330
6F
100
AcDbZombieObject
 90
      499
 91
      502
 93
      121
310
9053130303A310000000000001650100
  0
ACAD_PROXY_OBJECT
  5
81
102
{ACAD_REACTORS
330
6F
102
}
330
6F
100
AcDbZombieObject
 90
      499
 91
      502
 93
      257
310
90E312F31323822203D2031272D3022000000000000200FC000000000000284000
  0
ACAD_PROXY_OBJECT
  5
82
102
{ACAD_REACTORS
330
6F
102
}
330
6F
100
AcDbZombieObject
 90
      499
 91
      502
 93
      249
310
90D312F363422203D2031272D3022000000000000240FC000000000000284000
  0
ACAD_PROXY_OBJECT
  5
83
102
{ACAD_REACTORS
330
6F
102
}
330
6F
100
AcDbZombieObject
 90
      499
 91
      502
 93
      249
310
90D312F333222203D2031272D3022000000000000280FC000000000000284000
  0
ACAD_PROXY_OBJECT
  5
84
102
{ACAD_REACTORS
330
6F
102
}
330
6F
100
AcDbZombieObject
 90
      499
 91
      502
 93
      249
310
90D312F313622203D2031272D30220000000000002C0FC000000000000284000
  0
ACAD_PROXY_OBJECT
  5
85
102
{ACAD_REACTORS
330
6F
102
}
330
6F
100
AcDbZombieObject
 90
      499
 91
      502
 93
      249
310
90D332F333222203D2031272D30220000000000002E0FC000000000000284000
  0
ACAD_PROXY_OBJECT
  5
86
102
{ACAD_REACTORS
330
6F
102
}
330
6F
100
AcDbZombieObject
 90
      499
 91
      502
 93
      241
310
90C312F3822203D2031272D3022000000000000300FC000000000000284000
  0
ACAD_PROXY_OBJECT
  5
87
102
{ACAD_REACTORS
330
6F
102
}
330
6F
100
AcDbZombieObject
 90
      499
 91
      502
 93
      249
310
90D332F313622203D2031272D3022000000000000320FC000000000000284000
  0
ACAD_PROXY_OBJECT
  5
88
102
{ACAD_REACTORS
330
6F
102
}
330
6F
100
AcDbZombieObject
 90
      499
 91
      502
 93
      241
310
90C312F3422203D2031272D3022000000000000340FC000000000000284000
  0
ACAD_PROXY_OBJECT
  5
89
102
{ACAD_REACTORS
330
6F
102
}
330
6F
100
AcDbZombieObject
 90
      499
 91
      502
 93
      241
310
90C332F3822203D2031272D3022000000000000360FC000000000000284000
  0
ACAD_PROXY_OBJECT
  5
8A
102
{ACAD_REACTORS
330
6F
102
}
330
6F
100
AcDbZombieObject
 90
      499
 91
      502
 93
      241
310
90C312F3222203D2031272D3022000000000000380FC000000000000284000
  0
ACAD_PROXY_OBJECT
  5
8B
102
{ACAD_REACTORS
330
6F
102
}
330
6F
100
AcDbZombieObject
 90
      499
 91
      502
 93
      241
310
90C332F3422203D2031272D30220000000000003A0FC000000000000284000
  0
ACAD_PROXY_OBJECT
  5
8C
102
{ACAD_REACTORS
330
6F
102
}
330
6F
100
AcDbZombieObject
 90
      499
 91
      502
 93
      161
310
90A3122203D2031272D30224000000000000284000
  0
ACAD_PROXY_OBJECT
  5
8D
102
{ACAD_REACTORS
330
6F
102
}
330
6F
100
AcDbZombieObject
 90
      499
 91
      502
 93
      257
310
90E312D312F3222203D2031272D30220000000000003E0FC000000000000284000
  0
ACAD_PROXY_OBJECT
  5
8E
102
{ACAD_REACTORS
330
6F
102
}
330
6F
100
AcDbZombieObject
 90
      499
 91
      502
 93
      225
310
90A3322203D2031272D302200000000000002100000000000000284000
  0
ACAD_PROXY_OBJECT
  5
8F
102
{ACAD_REACTORS
330
6F
102
}
330
6F
100
AcDbZombieObject
 90
      499
 91
      502
 93
      225
310
90A3622203D2031272D302200000000000006100000000000000284000
  0
ACAD_PROXY_OBJECT
  5
90
102
{ACAD_REACTORS
330
6F
102
}
330
6F
100
AcDbZombieObject
 90
      499
 91
      502
 93
      249
310
90D31272D3022203D2031272D30220000000000000A100000000000000284000
  0
ACAD_PROXY_OBJECT
  5
2F
102
{ACAD_REACTORS
330
2A
102
}
330
2A
100
AcDbZombieObject
 90
      499
 91
      501
 93
      436
310
42CC9915DA5C99599C985B595049028333333333333E3BF0000000000000FB0107901411070040501600405405064090741402480A0340
1001
ACAD
1000
AcDbSavedByObjectVersion
1070
     0
  0
ACAD_PROXY_OBJECT
  5
31
102
{ACAD_REACTORS
330
2A
102
}
330
2A
100
AcDbZombieObject
 90
      499
 91
      501
 93
      500
310
424CD108121A5919195B90640502408333333333333E3BF0000000000000FB01079024090700405020000000000001110200405405064090740C02480A0340
1001
ACAD
1000
AcDbSavedByObjectVersion
1070
     0
  0
ACAD_PROXY_OBJECT
  5
30
102
{ACAD_REACTORS
330
2A
102
}
330
2A
100
AcDbZombieObject
 90
      499
 91
      501
 93
      436
310
42CCD915DA5C99599C985B595059028333333333333E3BF0000000000000FB0107901411070040501600405405064090741402480A0340
1001
ACAD
1000
AcDbSavedByObjectVersion
1070
     0
  0
ACAD_PROXY_OBJECT
  5
32
102
{ACAD_REACTORS
330
2A
102
}
330
2A
100
AcDbZombieObject
 90
      499
 91
      501
 93
      388
310
4150985CDA58D07406404333333333333E3BF0000000000000FB0107A41107004050150841D405064090741402480A0350
1001
ACAD
1000
AcDbSavedByObjectVersion
1070
     0
  0
ACAD_PROXY_OBJECT
  5
36
102
{ACAD_REACTORS
330
2A
102
}
330
2A
100
AcDbZombieObject
 90
      499
 91
      501
 93
      428
310
42109C9A59DA1D195B90C409028333333333333E3BF0000000000000FB010790141107004050150841D405064090741402480A029950
1001
ACAD
1000
AcDbSavedByObjectVersion
1070
     0
  0
ACAD_PROXY_OBJECT
  5
3A
102
{ACAD_REACTORS
330
2A
102
}
330
2A
100
AcDbZombieObject
 90
      499
 91
      501
 93
      452
310
42D0DBDB1BDC90DA185B99D95104090240C333333333333E3BF0000000000000FB0108901411070040501508421405064090741402480A0350
1001
ACAD
1000
AcDbSavedByObjectVersion
1070
     0
  0
ACAD_PROXY_OBJECT
  5
34
102
{ACAD_REACTORS
330
2A
102
}
330
2A
100
AcDbZombieObject
 90
      499
 91
      501
 93
      500
310
4290DBDB98D95C1D1D585B10940D028333333333333E3BF0000000000000FB0107902409070040501000000000000111010841D405064090740C02480A0340
1001
ACAD
1000
AcDbSavedByObjectVersion
1070
     0
  0
ACAD_PROXY_OBJECT
  5
35
102
{ACAD_REACTORS
330
2A
102
}
330
2A
100
AcDbZombieObject
 90
      499
 91
      501
 93
      412
310
40D11A5B50B409028333333333333E3BF0000000000000FB010790141107004050150841D405064090741402480A02677FFFFFD0
1001
ACAD
1000
AcDbSavedByObjectVersion
1070
     0
  0
ACAD_PROXY_OBJECT
  5
39
102
{ACAD_REACTORS
330
2A
102
}
330
2A
100
AcDbZombieObject
 90
      499
 91
      501
 93
      444
310
42D19858D95C185D1D195C9B90F409028333333333333E3BF0000000000000FB010790141107004050150841D405064090741402480A0350
1001
ACAD
1000
AcDbSavedByObjectVersion
1070
     0
  0
ACAD_PROXY_OBJECT
  5
2B
102
{ACAD_REACTORS
330
2A
102
}
330
2A
100
AcDbZombieObject
 90
      499
 91
      501
 93
      388
310
41119B185D240901404333333333333E3BF0000000000000F9010740A41107004050150841D405064090741402480A1B50
1001
ACAD
1000
AcDbSavedByObjectVersion
1070
     0
  0
ACAD_PROXY_OBJECT
  5
2C
102
{ACAD_REACTORS
330
2A
102
}
330
2A
100
AcDbZombieObject
 90
      499
 91
      501
 93
      476
310
43519B185D15DA5D1A115919D95CD0140901404333333333333E3BF0000000000000F9010740901411070040501600405405064090741402480A1B50
1001
ACAD
1000
AcDbSavedByObjectVersion
1070
     0
  0
ACAD_PROXY_OBJECT
  5
2D
102
{ACAD_REACTORS
330
2A
102
}
330
2A
100
AcDbZombieObject
 90
      499
 91
      501
 93
      412
310
41D1DBDD5C985D5910240902404333333333333E3BF0000000000000F9010740A411070040501641D405064090741402480A1B50
1001
ACAD
1000
AcDbSavedByObjectVersion
1070
     0
  0
ACAD_PROXY_OBJECT
  5
2E
102
{ACAD_REACTORS
330
2A
102
}
330
2A
100
AcDbZombieObject
 90
      499
 91
      501
 93
      500
310
4411DBDD5C985D5915DA5D1A115919D95CD0340902404333333333333E3BF0000000000000F9010740901411070040501600405405064090741402480A1B50
1001
ACAD
1000
AcDbSavedByObjectVersion
1070
     0
  0
ACAD_PROXY_OBJECT
  5
38
102
{ACAD_REACTORS
330
2A
102
}
330
2A
100
AcDbZombieObject
 90
      499
 91
      501
 93
      444
310
42D31A5B995C185D1D195C9B90E409028333333333333E3BF0000000000000FB010790141107004050750841D405064090741402483A0350
1001
ACAD
1000
AcDbSavedByObjectVersion
1070
     0
  0
ACAD_PROXY_OBJECT
  5
33
102
{ACAD_REACTORS
330
2A
102
}
330
2A
100
AcDbZombieObject
 90
      499
 91
      501
 93
      420
310
425499585B1A5CDD1A58D08409028333333333333E3BF0000000000000FB01079019070040501508421405064090741402480A1B40
1001
ACAD
1000
AcDbSavedByObjectVersion
1070
     0
  0
ACAD_PROXY_OBJECT
  5
37
102
{ACAD_REACTORS
330
2A
102
}
330
2A
100
AcDbZombieObject
 90
      499
 91
      501
 93
      412
310
41D51A1A58DAD95B90D409028333333333333E3BF0000000000000FB010790141107004050150C41D405064090741402480A0350
1001
ACAD
1000
AcDbSavedByObjectVersion
1070
     0
  0
DICTIONARYVAR
  5
2A3
102
{ACAD_REACTORS
330
2A0
102
}
330
2A0
100
DictionaryVariables
280
     0
  1
1:1
  0
DICTIONARYVAR
  5
2A4
102
{ACAD_REACTORS
330
2A0
102
}
330
2A0
100
DictionaryVariables
280
     0
  1
2
  0
DICTIONARYVAR
  5
2A5
102
{ACAD_REACTORS
330
2A0
102
}
330
2A0
100
DictionaryVariables
280
     0
  1
1
  0
ENDSEC
  0
EOF
